  0
SECTION
  2
HEADER
  9
$ACADVER
  1
AC1015
  9
$ACADMAINTVER
 70
    20
  9
$DWGCODEPAGE
  3
ANSI_932
  9
$INSBASE
 10
0.0
 20
0.0
 30
0.0
  9
$EXTMIN
 10
10.0
 20
9.999999999999998
 30
0.0
  9
$EXTMAX
 10
286.35
 20
266.2336
 30
0.0
  9
$LIMMIN
 10
0.0
 20
0.0
  9
$LIMMAX
 10
495.0
 20
341.25
  9
$ORTHOMODE
 70
     1
  9
$REGENMODE
 70
     1
  9
$FILLMODE
 70
     1
  9
$QTEXTMODE
 70
     0
  9
$MIRRTEXT
 70
     1
  9
$LTSCALE
 40
20.0
  9
$ATTMODE
 70
     1
  9
$TEXTSIZE
 40
5.0
  9
$TRACEWID
 40
1.0
  9
$TEXTSTYLE
  7
STANDARD
  9
$CLAYER
  8
0
  9
$CELTYPE
  6
BYLAYER
  9
$CECOLOR
 62
   256
  9
$CELTSCALE
 40
1.0
  9
$DISPSILH
 70
     0
  9
$DIMSCALE
 40
1.0
  9
$DIMASZ
 40
2.5
  9
$DIMEXO
 40
1.0
  9
$DIMDLI
 40
10.0
  9
$DIMRND
 40
0.0
  9
$DIMDLE
 40
0.0
  9
$DIMEXE
 40
1.0
  9
$DIMTP
 40
0.0
  9
$DIMTM
 40
0.0
  9
$DIMTXT
 40
3.2
  9
$DIMCEN
 40
0.0
  9
$DIMTSZ
 40
0.0
  9
$DIMTOL
 70
     0
  9
$DIMLIM
 70
     0
  9
$DIMTIH
 70
     0
  9
$DIMTOH
 70
     0
  9
$DIMSE1
 70
     0
  9
$DIMSE2
 70
     0
  9
$DIMTAD
 70
     3
  9
$DIMZIN
 70
     8
  9
$DIMBLK
  1

  9
$DIMASO
 70
     1
  9
$DIMSHO
 70
     1
  9
$DIMPOST
  1

  9
$DIMAPOST
  1

  9
$DIMALT
 70
     0
  9
$DIMALTD
 70
     2
  9
$DIMALTF
 40
25.4
  9
$DIMLFAC
 40
1.0
  9
$DIMTOFL
 70
     1
  9
$DIMTVP
 40
0.0
  9
$DIMTIX
 70
     0
  9
$DIMSOXD
 70
     0
  9
$DIMSAH
 70
     1
  9
$DIMBLK1
  1

  9
$DIMBLK2
  1

  9
$DIMSTYLE
  2
STANDARD
  9
$DIMCLRD
 70
     0
  9
$DIMCLRE
 70
     0
  9
$DIMCLRT
 70
     0
  9
$DIMTFAC
 40
1.0
  9
$DIMGAP
 40
1.0
  9
$DIMJUST
 70
     0
  9
$DIMSD1
 70
     0
  9
$DIMSD2
 70
     0
  9
$DIMTOLJ
 70
     1
  9
$DIMTZIN
 70
     0
  9
$DIMALTZ
 70
     0
  9
$DIMALTTZ
 70
     0
  9
$DIMUPT
 70
     0
  9
$DIMDEC
 70
     4
  9
$DIMTDEC
 70
     4
  9
$DIMALTU
 70
     2
  9
$DIMALTTD
 70
     2
  9
$DIMTXSTY
  7
STANDARD
  9
$DIMAUNIT
 70
     0
  9
$DIMADEC
 70
     0
  9
$DIMALTRND
 40
0.0
  9
$DIMAZIN
 70
     0
  9
$DIMDSEP
 70
    46
  9
$DIMATFIT
 70
     3
  9
$DIMFRAC
 70
     0
  9
$DIMLDRBLK
  1

  9
$DIMLUNIT
 70
     2
  9
$DIMLWD
 70
    -2
  9
$DIMLWE
 70
    -2
  9
$DIMTMOVE
 70
     0
  9
$LUNITS
 70
     2
  9
$LUPREC
 70
     4
  9
$SKETCHINC
 40
1.0
  9
$FILLETRAD
 40
1.0
  9
$AUNITS
 70
     0
  9
$AUPREC
 70
     2
  9
$MENU
  1
.
  9
$ELEVATION
 40
0.0
  9
$PELEVATION
 40
0.0
  9
$THICKNESS
 40
0.0
  9
$LIMCHECK
 70
     0
  9
$CHAMFERA
 40
10.0
  9
$CHAMFERB
 40
10.0
  9
$CHAMFERC
 40
0.0
  9
$CHAMFERD
 40
0.0
  9
$SKPOLY
 70
     0
  9
$TDCREATE
 40
2451296.792658102
  9
$TDUCREATE
 40
2451296.417658102
  9
$TDUPDATE
 40
2457192.658195810
  9
$TDUUPDATE
 40
2457192.283195810
  9
$TDINDWG
 40
0.0000109028
  9
$TDUSRTIMER
 40
0.0000106019
  9
$USRTIMER
 70
     1
  9
$ANGBASE
 50
0.0
  9
$ANGDIR
 70
     0
  9
$PDMODE
 70
     0
  9
$PDSIZE
 40
0.0
  9
$PLINEWID
 40
0.0
  9
$SPLFRAME
 70
     0
  9
$SPLINETYPE
 70
     6
  9
$SPLINESEGS
 70
     8
  9
$HANDSEED
  5
BEB1
  9
$SURFTAB1
 70
     6
  9
$SURFTAB2
 70
     6
  9
$SURFTYPE
 70
     6
  9
$SURFU
 70
     6
  9
$SURFV
 70
     6
  9
$UCSBASE
  2

  9
$UCSNAME
  2

  9
$UCSORG
 10
0.0
 20
0.0
 30
0.0
  9
$UCSXDIR
 10
1.0
 20
0.0
 30
0.0
  9
$UCSYDIR
 10
0.0
 20
1.0
 30
0.0
  9
$UCSORTHOREF
  2

  9
$UCSORTHOVIEW
 70
     0
  9
$UCSORGTOP
 10
0.0
 20
0.0
 30
0.0
  9
$UCSORGBOTTOM
 10
0.0
 20
0.0
 30
0.0
  9
$UCSORGLEFT
 10
0.0
 20
0.0
 30
0.0
  9
$UCSORGRIGHT
 10
0.0
 20
0.0
 30
0.0
  9
$UCSORGFRONT
 10
0.0
 20
0.0
 30
0.0
  9
$UCSORGBACK
 10
0.0
 20
0.0
 30
0.0
  9
$PUCSBASE
  2

  9
$PUCSNAME
  2

  9
$PUCSORG
 10
0.0
 20
0.0
 30
0.0
  9
$PUCSXDIR
 10
1.0
 20
0.0
 30
0.0
  9
$PUCSYDIR
 10
0.0
 20
1.0
 30
0.0
  9
$PUCSORTHOREF
  2

  9
$PUCSORTHOVIEW
 70
     0
  9
$PUCSORGTOP
 10
0.0
 20
0.0
 30
0.0
  9
$PUCSORGBOTTOM
 10
0.0
 20
0.0
 30
0.0
  9
$PUCSORGLEFT
 10
0.0
 20
0.0
 30
0.0
  9
$PUCSORGRIGHT
 10
0.0
 20
0.0
 30
0.0
  9
$PUCSORGFRONT
 10
0.0
 20
0.0
 30
0.0
  9
$PUCSORGBACK
 10
0.0
 20
0.0
 30
0.0
  9
$USERI1
 70
     0
  9
$USERI2
 70
     0
  9
$USERI3
 70
     0
  9
$USERI4
 70
     0
  9
$USERI5
 70
     0
  9
$USERR1
 40
0.0
  9
$USERR2
 40
0.0
  9
$USERR3
 40
0.0
  9
$USERR4
 40
0.0
  9
$USERR5
 40
0.0
  9
$WORLDVIEW
 70
     1
  9
$SHADEDGE
 70
     3
  9
$SHADEDIF
 70
    70
  9
$TILEMODE
 70
     1
  9
$MAXACTVP
 70
    16
  9
$PINSBASE
 10
0.0
 20
0.0
 30
0.0
  9
$PLIMCHECK
 70
     0
  9
$PEXTMIN
 10
1.000000000000000E+20
 20
1.000000000000000E+20
 30
1.000000000000000E+20
  9
$PEXTMAX
 10
-1.000000000000000E+20
 20
-1.000000000000000E+20
 30
-1.000000000000000E+20
  9
$PLIMMIN
 10
0.0
 20
0.0
  9
$PLIMMAX
 10
420.0
 20
297.0
  9
$UNITMODE
 70
     0
  9
$VISRETAIN
 70
     0
  9
$PLINEGEN
 70
     0
  9
$PSLTSCALE
 70
     0
  9
$TREEDEPTH
 70
  3020
  9
$CMLSTYLE
  2
STANDARD
  9
$CMLJUST
 70
     0
  9
$CMLSCALE
 40
1.0
  9
$PROXYGRAPHICS
 70
     1
  9
$MEASUREMENT
 70
     0
  9
$CELWEIGHT
370
    -1
  9
$ENDCAPS
280
     0
  9
$JOINSTYLE
280
     0
  9
$LWDISPLAY
290
     0
  9
$INSUNITS
 70
     0
  9
$HYPERLINKBASE
  1

  9
$STYLESHEET
  1

  9
$XEDIT
290
     1
  9
$CEPSNTYPE
380
     0
  9
$PSTYLEMODE
290
     1
  9
$FINGERPRINTGUID
  2
{72E8DD85-3F88-4075-8689-1710378DAA6F}
  9
$VERSIONGUID
  2
{B73269FC-76AB-41F9-BF27-6EA53F6A2DDF}
  9
$EXTNAMES
290
     1
  9
$PSVPSCALE
 40
0.0
  9
$OLESTARTUP
290
     0
  0
ENDSEC
  0
SECTION
  2
CLASSES
  0
CLASS
  1
ACDBDICTIONARYWDFLT
  2
AcDbDictionaryWithDefault
  3
ObjectDBX Classes
 90
        0
280
     0
281
     0
  0
CLASS
  1
ACDBPLACEHOLDER
  2
AcDbPlaceHolder
  3
ObjectDBX Classes
 90
        0
280
     0
281
     0
  0
CLASS
  1
LAYOUT
  2
AcDbLayout
  3
ObjectDBX Classes
 90
        0
280
     0
281
     0
  0
CLASS
  1
DICTIONARYVAR
  2
AcDbDictionaryVar
  3
ObjectDBX Classes
 90
        0
280
     0
281
     0
  0
CLASS
  1
MATERIAL
  2
AcDbMaterial
  3
ObjectDBX Classes
 90
     1153
280
     0
281
     0
  0
CLASS
  1
VISUALSTYLE
  2
AcDbVisualStyle
  3
ObjectDBX Classes
 90
     4095
280
     0
281
     0
  0
CLASS
  1
TABLESTYLE
  2
AcDbTableStyle
  3
ObjectDBX Classes
 90
     4095
280
     0
281
     0
  0
CLASS
  1
SCALE
  2
AcDbScale
  3
ObjectDBX Classes
 90
     1153
280
     0
281
     0
  0
CLASS
  1
MLEADERSTYLE
  2
AcDbMLeaderStyle
  3
ACDB_MLEADERSTYLE_CLASS
 90
     4095
280
     0
281
     0
  0
CLASS
  1
ACDBSECTIONVIEWSTYLE
  2
AcDbSectionViewStyle
  3
ObjectDBX Classes
 90
     1025
280
     0
281
     0
  0
CLASS
  1
ACDBDETAILVIEWSTYLE
  2
AcDbDetailViewStyle
  3
ObjectDBX Classes
 90
     1025
280
     0
281
     0
  0
CLASS
  1
CELLSTYLEMAP
  2
AcDbCellStyleMap
  3
ObjectDBX Classes
 90
     1152
280
     0
281
     0
  0
ENDSEC
  0
SECTION
  2
TABLES
  0
TABLE
  2
VPORT
  5
BBE8
330
0
100
AcDbSymbolTable
 70
     1
  0
VPORT
  5
BDFA
330
BBE8
100
AcDbSymbolTableRecord
100
AcDbViewportTableRecord
  2
*ACTIVE
 70
     0
 10
0.0
 20
0.0
 11
1.0
 21
1.0
 12
225.7949377416042
 22
138.1199176725871
 13
0.0
 23
0.0
 14
10.0
 24
10.0
 15
10.0
 25
10.0
 16
0.0
 26
0.0
 36
1.0
 17
0.0
 27
0.0
 37
0.0
 40
259.1317256826233
 41
1.899603698811096
 42
50.0
 43
0.0
 44
0.0
 50
0.0
 51
0.0
 71
     0
 72
   100
 73
     1
 74
     0
 75
     0
 76
     0
 77
     0
 78
     0
281
     0
 65
     1
110
0.0
120
0.0
130
0.0
111
1.0
121
0.0
131
0.0
112
0.0
122
1.0
132
0.0
 79
     0
146
0.0
1001
ACAD_NAV_VCDISPLAY
1070
     3
  0
ENDTAB
  0
TABLE
  2
LTYPE
  5
BBE5
330
0
100
AcDbSymbolTable
 70
     4
  0
LTYPE
  5
BBF3
330
BBE5
100
AcDbSymbolTableRecord
100
AcDbLinetypeTableRecord
  2
BYBLOCK
 70
     0
  3

 72
    65
 73
     0
 40
0.0
  0
LTYPE
  5
BBF4
330
BBE5
100
AcDbSymbolTableRecord
100
AcDbLinetypeTableRecord
  2
BYLAYER
 70
     0
  3

 72
    65
 73
     0
 40
0.0
  0
LTYPE
  5
BBF5
330
BBE5
100
AcDbSymbolTableRecord
100
AcDbLinetypeTableRecord
  2
CONTINUOUS
 70
     0
  3
Solid line
 72
    65
 73
     0
 40
0.0
  0
LTYPE
  5
BC03
330
BBE5
100
AcDbSymbolTableRecord
100
AcDbLinetypeTableRecord
  2
DASHED
 70
     0
  3
__ __ __ __ __ __ __ __ __ __ __ __ __ __ __ __
 72
    65
 73
     2
 40
0.75
 49
0.5
 74
     0
 49
-0.25
 74
     0
  0
LTYPE
  5
BC04
330
BBE5
100
AcDbSymbolTableRecord
100
AcDbLinetypeTableRecord
  2
CENTER
 70
     0
  3
____ _ ____ _ ____ _ ____ _ ____ _ ____ _ ____ 
 72
    65
 73
     4
 40
2.0
 49
1.25
 74
     0
 49
-0.25
 74
     0
 49
0.25
 74
     0
 49
-0.25
 74
     0
  0
LTYPE
  5
BC05
330
BBE5
100
AcDbSymbolTableRecord
100
AcDbLinetypeTableRecord
  2
PHANTOM
 70
     0
  3
______  __  __  ______  __  __  ______  __  __ 
 72
    65
 73
     6
 40
2.5
 49
1.25
 74
     0
 49
-0.25
 74
     0
 49
0.25
 74
     0
 49
-0.25
 74
     0
 49
0.25
 74
     0
 49
-0.25
 74
     0
  0
ENDTAB
  0
TABLE
  2
LAYER
  5
BBE2
330
0
100
AcDbSymbolTable
 70
     8
  0
LAYER
  5
BBF0
102
{ACAD_XDICTIONARY
360
BE55
102
}
330
BBE2
100
AcDbSymbolTableRecord
100
AcDbLayerTableRecord
  2
0
 70
     0
 62
     7
  6
CONTINUOUS
370
    -3
390
BE03
  0
LAYER
  5
BC06
102
{ACAD_XDICTIONARY
360
BE57
102
}
330
BBE2
100
AcDbSymbolTableRecord
100
AcDbLayerTableRecord
  2
4
 70
     0
 62
     1
  6
CENTER
370
    -3
390
BE03
  0
LAYER
  5
BC07
102
{ACAD_XDICTIONARY
360
BE59
102
}
330
BBE2
100
AcDbSymbolTableRecord
100
AcDbLayerTableRecord
  2
5
 70
     0
 62
     6
  6
PHANTOM
370
    -3
390
BE03
  0
LAYER
  5
BC08
102
{ACAD_XDICTIONARY
360
BE5B
102
}
330
BBE2
100
AcDbSymbolTableRecord
100
AcDbLayerTableRecord
  2
1
 70
     0
 62
     7
  6
CONTINUOUS
370
    -3
390
BE03
  0
LAYER
  5
BC09
102
{ACAD_XDICTIONARY
360
BE5D
102
}
330
BBE2
100
AcDbSymbolTableRecord
100
AcDbLayerTableRecord
  2
2
 70
     0
 62
     4
  6
CONTINUOUS
370
    -3
390
BE03
  0
LAYER
  5
BC0A
102
{ACAD_XDICTIONARY
360
BE5F
102
}
330
BBE2
100
AcDbSymbolTableRecord
100
AcDbLayerTableRecord
  2
3
 70
     0
 62
     2
  6
DASHED
370
    -3
390
BE03
  0
LAYER
  5
BC0B
102
{ACAD_XDICTIONARY
360
BE61
102
}
330
BBE2
100
AcDbSymbolTableRecord
100
AcDbLayerTableRecord
  2
6
 70
     0
 62
     5
  6
CONTINUOUS
370
    -3
390
BE03
  0
LAYER
  5
BC0C
102
{ACAD_XDICTIONARY
360
BE63
102
}
330
BBE2
100
AcDbSymbolTableRecord
100
AcDbLayerTableRecord
  2
7
 70
     0
 62
     3
  6
CONTINUOUS
370
    -3
390
BE03
  0
ENDTAB
  0
TABLE
  2
STYLE
  5
BBE3
330
0
100
AcDbSymbolTable
 70
     1
  0
STYLE
  5
BBF1
330
BBE3
100
AcDbSymbolTableRecord
100
AcDbTextStyleTableRecord
  2
STANDARD
 70
     0
 40
0.0
 41
1.0
 50
0.0
 71
     0
 42
5.0
  3
txt
  4

  0
ENDTAB
  0
TABLE
  2
VIEW
  5
BBE6
330
0
100
AcDbSymbolTable
 70
     1
  0
VIEW
  5
BC0D
330
BBE6
100
AcDbSymbolTableRecord
100
AcDbViewTableRecord
  2
7
 70
     0
 40
295.3745229999999
 10
284.5274359999999
 20
147.6872619999998
 41
569.0548719999998
 11
0.0
 21
0.0
 31
1.0
 12
0.0
 22
0.0
 32
0.0
 42
50.0
 43
0.0
 44
0.0
 50
0.0
 71
     0
281
     0
 72
     0
  0
ENDTAB
  0
TABLE
  2
UCS
  5
BBE7
330
0
100
AcDbSymbolTable
 70
     0
  0
ENDTAB
  0
TABLE
  2
APPID
  5
BBE9
330
0
100
AcDbSymbolTable
 70
     3
  0
APPID
  5
BBF2
330
BBE9
100
AcDbSymbolTableRecord
100
AcDbRegAppTableRecord
  2
ACAD
 70
     0
  0
APPID
  5
BE6F
330
BBE9
100
AcDbSymbolTableRecord
100
AcDbRegAppTableRecord
  2
ACAD_NAV_VCDISPLAY
 70
     0
  0
APPID
  5
BEA8
330
BBE9
100
AcDbSymbolTableRecord
100
AcDbRegAppTableRecord
  2
ACAD_MLEADERVER
 70
     0
  0
ENDTAB
  0
TABLE
  2
DIMSTYLE
  5
BBEA
330
0
100
AcDbSymbolTable
 70
     1
100
AcDbDimStyleTable
 71
     0
  0
DIMSTYLE
105
BC0F
330
BBEA
100
AcDbSymbolTableRecord
100
AcDbDimStyleTableRecord
  2
STANDARD
 70
     0
 41
2.5
 42
1.0
 43
10.0
 44
1.0
 73
     0
 74
     0
 77
     3
 78
     8
140
3.2
141
0.0
147
1.0
172
     1
173
     1
284
     8
285
     8
286
     8
340
BBF1
  0
ENDTAB
  0
TABLE
  2
BLOCK_RECORD
  5
BBE1
330
0
100
AcDbSymbolTable
 70
     0
  0
BLOCK_RECORD
  5
BBFE
102
{ACAD_XDICTIONARY
360
BDFD
102
}
330
BBE1
100
AcDbSymbolTableRecord
100
AcDbBlockTableRecord
  2
*MODEL_SPACE
340
BE51
  0
BLOCK_RECORD
  5
BBFA
102
{ACAD_XDICTIONARY
360
BDFB
102
}
330
BBE1
100
AcDbSymbolTableRecord
100
AcDbBlockTableRecord
  2
*PAPER_SPACE
340
BE52
  0
ENDTAB
  0
ENDSEC
  0
SECTION
  2
BLOCKS
  0
BLOCK
  5
BBFF
330
BBFE
100
AcDbEntity
  8
0
100
AcDbBlockBegin
  2
*MODEL_SPACE
 70
     0
 10
0.0
 20
0.0
 30
0.0
  3
*MODEL_SPACE
  1

  0
ENDBLK
  5
BC00
330
BBFE
100
AcDbEntity
  8
0
100
AcDbBlockEnd
  0
BLOCK
  5
BBFB
330
BBFA
100
AcDbEntity
 67
     1
  8
0
100
AcDbBlockBegin
  2
*PAPER_SPACE
 70
     0
 10
0.0
 20
0.0
 30
0.0
  3
*PAPER_SPACE
  1

  0
ENDBLK
  5
BBFC
330
BBFA
100
AcDbEntity
 67
     1
  8
0
100
AcDbBlockEnd
  0
ENDSEC
  0
SECTION
  2
ENTITIES
  0
TEXT
  5
BC17
330
BBFE
100
AcDbEntity
  8
7
  6
Continuous
100
AcDbText
 10
10.0
 20
18.0
 30
0.0
 40
3.0
  1
TYPE No.TM-144SS-100
100
AcDbText
  0
TEXT
  5
BC18
330
BBFE
100
AcDbEntity
  8
7
  6
Continuous
100
AcDbText
 10
10.0
 20
26.0
 30
0.0
 40
3.0
  1
CODE No.5740
100
AcDbText
  0
TEXT
  5
BC19
330
BBFE
100
AcDbEntity
  8
1
  6
Continuous
100
AcDbText
 10
10.0
 20
10.0
 30
0.0
 40
1.399999999999999
  1
LAYER
100
AcDbText
  0
TEXT
  5
BC1A
330
BBFE
100
AcDbEntity
  8
1
  6
Continuous
100
AcDbText
 10
17.97951099999998
 20
10.04873699999998
 30
0.0
 40
1.399999999999999
  1
1
100
AcDbText
  0
TEXT
  5
BC1B
330
BBFE
100
AcDbEntity
  8
7
  6
Continuous
100
AcDbText
 10
29.97951099999999
 20
10.04873699999998
 30
0.0
 40
1.399999999999999
  1
7
100
AcDbText
  0
TEXT
  5
BC1C
330
BBFE
100
AcDbEntity
  8
4
  6
CENTER
100
AcDbText
 10
23.97951099999999
 20
10.04873699999998
 30
0.0
 40
1.399999999999999
  1
4
100
AcDbText
  0
TEXT
  5
BC1D
330
BBFE
100
AcDbEntity
  8
3
  6
DASHED
100
AcDbText
 10
21.979511
 20
10.04873699999998
 30
0.0
 40
1.399999999999999
  1
3
100
AcDbText
  0
TEXT
  5
BC1E
330
BBFE
100
AcDbEntity
  8
2
  6
Continuous
100
AcDbText
 10
19.97951099999999
 20
10.04873699999998
 30
0.0
 40
1.399999999999999
  1
2
100
AcDbText
  0
TEXT
  5
BC1F
330
BBFE
100
AcDbEntity
  8
6
  6
Continuous
100
AcDbText
 10
27.979511
 20
10.04873699999998
 30
0.0
 40
1.399999999999999
  1
6
100
AcDbText
  0
TEXT
  5
BC20
330
BBFE
100
AcDbEntity
  8
5
  6
PHANTOM
100
AcDbText
 10
25.97951099999999
 20
10.04873699999998
 30
0.0
 40
1.399999999999999
  1
5
100
AcDbText
  0
LINE
  5
BC21
330
BBFE
100
AcDbEntity
  8
1
  6
Continuous
100
AcDbLine
 10
146.05
 20
195.7335999999999
 30
0.0
 11
156.55
 21
195.7335999999999
 31
0.0
  0
LINE
  5
BC22
330
BBFE
100
AcDbEntity
  8
1
  6
Continuous
100
AcDbLine
 10
168.55
 20
196.8645999999999
 30
0.0
 11
168.55
 21
200.6836
 31
0.0
  0
LINE
  5
BC23
330
BBFE
100
AcDbEntity
  8
1
  6
Continuous
100
AcDbLine
 10
164.55
 20
196.2336
 30
0.0
 11
164.55
 21
206.7336
 31
0.0
  0
LINE
  5
BC24
330
BBFE
100
AcDbEntity
  8
1
  6
Continuous
100
AcDbLine
 10
160.55
 20
196.7335999999999
 30
0.0
 11
160.55
 21
206.2336
 31
0.0
  0
LINE
  5
BC25
330
BBFE
100
AcDbEntity
  8
1
  6
Continuous
100
AcDbLine
 10
142.05
 20
198.7335999999999
 30
0.0
 11
142.05
 21
206.2336
 31
0.0
  0
LINE
  5
BC26
330
BBFE
100
AcDbEntity
  8
1
  6
Continuous
100
AcDbLine
 10
140.05
 20
198.7315999999999
 30
0.0
 11
140.05
 21
204.7315999999999
 31
0.0
  0
LINE
  5
BC27
330
BBFE
100
AcDbEntity
  8
4
  6
CENTER
100
AcDbLine
 10
151.3
 20
86.499965
 30
0.0
 11
151.3
 21
210.7336
 31
0.0
  0
LINE
  5
BC28
330
BBFE
100
AcDbEntity
  8
1
  6
Continuous
100
AcDbLine
 10
143.55
 20
207.7335999999998
 30
0.0
 11
159.05
 21
207.7335999999998
 31
0.0
  0
LINE
  5
BC29
330
BBFE
100
AcDbEntity
  8
1
  6
Continuous
100
AcDbLine
 10
145.8
 20
247.7336
 30
0.0
 11
156.8
 21
247.7336
 31
0.0
  0
LINE
  5
BC2A
330
BBFE
100
AcDbEntity
  8
1
  6
Continuous
100
AcDbLine
 10
145.8
 20
263.2336
 30
0.0
 11
156.8
 21
263.2336
 31
0.0
  0
LINE
  5
BC2B
330
BBFE
100
AcDbEntity
  8
4
  6
CENTER
100
AcDbLine
 10
90.5
 20
255.4835999999998
 30
0.0
 11
212.0999999999999
 21
255.4835999999998
 31
0.0
  0
LINE
  5
BC2C
330
BBFE
100
AcDbEntity
  8
4
  6
CENTER
100
AcDbLine
 10
269.85
 20
86.499965
 30
0.0
 11
269.85
 21
210.733638
 31
0.0
  0
LINE
  5
BC2D
330
BBFE
100
AcDbEntity
  8
1
  6
Continuous
100
AcDbLine
 10
168.55
 20
251.4835999999998
 30
0.0
 11
168.55
 21
259.4836
 31
0.0
  0
LINE
  5
BC2E
330
BBFE
100
AcDbEntity
  8
1
  6
Continuous
100
AcDbLine
 10
164.55
 20
250.2336
 30
0.0
 11
164.55
 21
260.7336
 31
0.0
  0
LINE
  5
BC2F
330
BBFE
100
AcDbEntity
  8
1
  6
Continuous
100
AcDbLine
 10
160.55
 20
250.2336
 30
0.0
 11
160.55
 21
260.7336
 31
0.0
  0
LINE
  5
BC30
330
BBFE
100
AcDbEntity
  8
4
  6
CENTER
100
AcDbLine
 10
151.3
 20
244.7335999999999
 30
0.0
 11
151.3
 21
266.2336
 31
0.0
  0
LINE
  5
BC31
330
BBFE
100
AcDbEntity
  8
1
  6
Continuous
100
AcDbLine
 10
142.05
 20
250.2336
 30
0.0
 11
142.05
 21
260.7336
 31
0.0
  0
LINE
  5
BC32
330
BBFE
100
AcDbEntity
  8
1
  6
Continuous
100
AcDbLine
 10
140.05
 20
252.4836
 30
0.0
 11
140.05
 21
258.4836
 31
0.0
  0
LINE
  5
BC33
330
BBFE
100
AcDbEntity
  8
1
  6
Continuous
100
AcDbLine
 10
140.05
 20
198.7335999999999
 30
0.0
 11
145.8
 21
198.7335999999999
 31
0.0
  0
LINE
  5
BC34
330
BBFE
100
AcDbEntity
  8
1
  6
Continuous
100
AcDbLine
 10
140.05
 20
204.7336
 30
0.0
 11
142.05
 21
204.7336
 31
0.0
  0
ARC
  5
BC35
330
BBFE
100
AcDbEntity
  8
1
  6
Continuous
100
AcDbCircle
 10
143.55
 20
206.2336
 30
0.0
 40
1.5
100
AcDbArc
 50
90.0
 51
180.0
  0
ARC
  5
BC36
330
BBFE
100
AcDbEntity
  8
1
  6
Continuous
100
AcDbCircle
 10
159.05
 20
206.2336
 30
0.0
 40
1.5
100
AcDbArc
 50
0.0
 51
90.0
  0
ARC
  5
BC37
330
BBFE
100
AcDbEntity
  8
1
  6
Continuous
100
AcDbCircle
 10
151.3
 20
195.5391559999999
 30
0.0
 40
7.694443999999997
100
AcDbArc
 50
24.52954699999999
 51
155.4704529999999
  0
LINE
  5
BC38
330
BBFE
100
AcDbEntity
  8
1
  6
Continuous
100
AcDbLine
 10
156.8
 20
198.7335999999999
 30
0.0
 11
156.55
 21
195.7335999999999
 31
0.0
  0
LINE
  5
BC39
330
BBFE
100
AcDbEntity
  8
1
  6
Continuous
100
AcDbLine
 10
145.8
 20
198.7335999999999
 30
0.0
 11
146.05
 21
195.7335999999999
 31
0.0
  0
ARC
  5
BC3A
330
BBFE
100
AcDbEntity
  8
1
  6
Continuous
100
AcDbCircle
 10
151.3
 20
194.7318139999999
 30
0.0
 40
6.801785999999997
100
AcDbArc
 50
36.039539
 51
143.960461
  0
LINE
  5
BC3B
330
BBFE
100
AcDbEntity
  8
1
  6
Continuous
100
AcDbLine
 10
156.8
 20
198.7335999999999
 30
0.0
 11
160.55
 21
198.7335999999999
 31
0.0
  0
LINE
  5
BC3C
330
BBFE
100
AcDbEntity
  8
1
  6
Continuous
100
AcDbLine
 10
160.55
 20
206.2336
 30
0.0
 11
164.55
 21
206.7336
 31
0.0
  0
LINE
  5
BC3D
330
BBFE
100
AcDbEntity
  8
1
  6
Continuous
100
AcDbLine
 10
160.55
 20
196.7335999999999
 30
0.0
 11
164.55
 21
196.2336
 31
0.0
  0
LINE
  5
BC3E
330
BBFE
100
AcDbEntity
  8
4
  6
CENTER
100
AcDbLine
 10
135.05
 20
201.4835999999998
 30
0.0
 11
171.55
 21
201.4835999999998
 31
0.0
  0
LINE
  5
BC3F
330
BBFE
100
AcDbEntity
  8
1
  6
Continuous
100
AcDbLine
 10
164.55
 20
206.1026
 30
0.0
 11
168.55
 21
206.1026
 31
0.0
  0
LINE
  5
BC40
330
BBFE
100
AcDbEntity
  8
1
  6
Continuous
100
AcDbLine
 10
164.55
 20
196.8645999999999
 30
0.0
 11
168.55
 21
196.8645999999999
 31
0.0
  0
LINE
  5
BC41
330
BBFE
100
AcDbEntity
  8
1
  6
Continuous
100
AcDbLine
 10
165.55
 20
202.2836
 30
0.0
 11
168.55
 21
202.2836
 31
0.0
  0
LINE
  5
BC42
330
BBFE
100
AcDbEntity
  8
1
  6
Continuous
100
AcDbLine
 10
165.55
 20
200.6836
 30
0.0
 11
168.55
 21
200.6836
 31
0.0
  0
LINE
  5
BC43
330
BBFE
100
AcDbEntity
  8
1
  6
Continuous
100
AcDbLine
 10
165.55
 20
200.6836
 30
0.0
 11
165.55
 21
202.2836
 31
0.0
  0
LINE
  5
BC44
330
BBFE
100
AcDbEntity
  8
1
  6
Continuous
100
AcDbLine
 10
168.55
 20
202.2836
 30
0.0
 11
168.55
 21
206.1026
 31
0.0
  0
LINE
  5
BC45
330
BBFE
100
AcDbEntity
  8
1
  6
Continuous
100
AcDbLine
 10
164.55
 20
203.7930999999999
 30
0.0
 11
167.05
 21
203.7930999999999
 31
0.0
  0
LINE
  5
BC46
330
BBFE
100
AcDbEntity
  8
1
  6
Continuous
100
AcDbLine
 10
164.55
 20
199.1741
 30
0.0
 11
167.05
 21
199.1741
 31
0.0
  0
LINE
  5
BC47
330
BBFE
100
AcDbEntity
  8
1
  6
Continuous
100
AcDbLine
 10
167.05
 20
203.7930999999999
 30
0.0
 11
168.55
 21
203.1930999999999
 31
0.0
  0
LINE
  5
BC48
330
BBFE
100
AcDbEntity
  8
1
  6
Continuous
100
AcDbLine
 10
167.05
 20
203.7930999999999
 30
0.0
 11
168.55
 21
204.3931
 31
0.0
  0
LINE
  5
BC49
330
BBFE
100
AcDbEntity
  8
1
  6
Continuous
100
AcDbLine
 10
167.05
 20
199.1741
 30
0.0
 11
168.55
 21
199.7740999999998
 31
0.0
  0
LINE
  5
BC4A
330
BBFE
100
AcDbEntity
  8
1
  6
Continuous
100
AcDbLine
 10
167.05
 20
199.1741
 30
0.0
 11
168.55
 21
198.5740999999999
 31
0.0
  0
LINE
  5
BC4B
330
BBFE
100
AcDbEntity
  8
4
  6
CENTER
100
AcDbLine
 10
259.1
 20
201.4836379999999
 30
0.0
 11
280.6
 21
201.4836379999999
 31
0.0
  0
ARC
  5
BC4C
330
BBFE
100
AcDbEntity
  8
1
  6
Continuous
100
AcDbCircle
 10
269.85
 20
201.4836379999999
 30
0.0
 40
3.0
100
AcDbArc
 50
15.46601
 51
164.5339899999999
  0
LINE
  5
BC4D
330
BBFE
100
AcDbEntity
  8
1
  6
Continuous
100
AcDbLine
 10
265.85
 20
202.283638
 30
0.0
 11
273.85
 21
202.283638
 31
0.0
  0
LINE
  5
BC4E
330
BBFE
100
AcDbEntity
  8
1
  6
Continuous
100
AcDbLine
 10
265.85
 20
200.683638
 30
0.0
 11
273.85
 21
200.683638
 31
0.0
  0
ARC
  5
BC4F
330
BBFE
100
AcDbEntity
  8
1
  6
Continuous
100
AcDbCircle
 10
269.85
 20
201.4836379999999
 30
0.0
 40
3.0
100
AcDbArc
 50
195.4660099999999
 51
344.53399
  0
CIRCLE
  5
BC50
330
BBFE
100
AcDbEntity
  8
1
  6
Continuous
100
AcDbCircle
 10
269.85
 20
201.4836379999999
 30
0.0
 40
5.25
  0
LINE
  5
BC51
330
BBFE
100
AcDbEntity
  8
1
  6
Continuous
100
AcDbLine
 10
276.1
 20
198.7336379999999
 30
0.0
 11
276.1
 21
202.233638
 31
0.0
  0
LINE
  5
BC52
330
BBFE
100
AcDbEntity
  8
1
  6
Continuous
100
AcDbLine
 10
263.6
 20
198.7336379999999
 30
0.0
 11
263.6
 21
202.233638
 31
0.0
  0
LINE
  5
BC53
330
BBFE
100
AcDbEntity
  8
1
  6
Continuous
100
AcDbLine
 10
263.3462259999999
 20
198.7336379999999
 30
0.0
 11
265.377864
 21
198.7336379999999
 31
0.0
  0
ARC
  5
BC54
330
BBFE
100
AcDbEntity
  8
1
  6
Continuous
100
AcDbCircle
 10
269.85
 20
201.432502
 30
0.0
 40
6.301135999999998
100
AcDbArc
 50
7.304446000000001
 51
172.6955539999999
  0
LINE
  5
BC55
330
BBFE
100
AcDbEntity
  8
1
  6
Continuous
100
AcDbLine
 10
274.322136
 20
198.7336379999999
 30
0.0
 11
276.34015
 21
198.7336379999999
 31
0.0
  0
ARC
  5
BC56
330
BBFE
100
AcDbEntity
  8
1
  6
Continuous
100
AcDbCircle
 10
263.6
 20
197.2336379999999
 30
0.0
 40
1.5
100
AcDbArc
 50
180.0
 51
260.405932
  0
ARC
  5
BC57
330
BBFE
100
AcDbEntity
  8
1
  6
Continuous
100
AcDbCircle
 10
276.1
 20
197.2336379999999
 30
0.0
 40
1.5
100
AcDbArc
 50
279.594068
 51
355.7894899999998
  0
LINE
  5
BC58
330
BBFE
100
AcDbEntity
  8
1
  6
Continuous
100
AcDbLine
 10
164.55
 20
259.4836
 30
0.0
 11
168.55
 21
259.4836
 31
0.0
  0
LINE
  5
BC59
330
BBFE
100
AcDbEntity
  8
1
  6
Continuous
100
AcDbLine
 10
164.55
 20
251.4835999999998
 30
0.0
 11
168.55
 21
251.4835999999998
 31
0.0
  0
LINE
  5
BC5A
330
BBFE
100
AcDbEntity
  8
1
  6
Continuous
100
AcDbLine
 10
164.55
 20
260.7336
 30
0.0
 11
160.55
 21
260.2336
 31
0.0
  0
LINE
  5
BC5B
330
BBFE
100
AcDbEntity
  8
1
  6
Continuous
100
AcDbLine
 10
164.55
 20
250.2336
 30
0.0
 11
160.55
 21
250.7336
 31
0.0
  0
LINE
  5
BC5C
330
BBFE
100
AcDbEntity
  8
1
  6
Continuous
100
AcDbLine
 10
143.05
 20
261.7336
 30
0.0
 11
144.3
 21
261.7336
 31
0.0
  0
LINE
  5
BC5D
330
BBFE
100
AcDbEntity
  8
1
  6
Continuous
100
AcDbLine
 10
143.05
 20
249.2335999999998
 30
0.0
 11
144.3
 21
249.2335999999998
 31
0.0
  0
LINE
  5
BC5E
330
BBFE
100
AcDbEntity
  8
1
  6
Continuous
100
AcDbLine
 10
140.05
 20
258.4836
 30
0.0
 11
142.05
 21
258.4836
 31
0.0
  0
LINE
  5
BC5F
330
BBFE
100
AcDbEntity
  8
1
  6
Continuous
100
AcDbLine
 10
140.05
 20
252.4836
 30
0.0
 11
142.05
 21
252.4836
 31
0.0
  0
ARC
  5
BC60
330
BBFE
100
AcDbEntity
  8
1
  6
Continuous
100
AcDbCircle
 10
142.3
 20
255.4835999999998
 30
0.0
 40
3.75
100
AcDbArc
 50
126.869898
 51
233.130102
  0
ARC
  5
BC61
330
BBFE
100
AcDbEntity
  8
1
  6
Continuous
100
AcDbCircle
 10
159.55
 20
260.7336
 30
0.0
 40
1.0
100
AcDbArc
 50
0.0
 51
90.0
  0
ARC
  5
BC62
330
BBFE
100
AcDbEntity
  8
1
  6
Continuous
100
AcDbCircle
 10
159.55
 20
250.2336
 30
0.0
 40
1.0
100
AcDbArc
 50
270.0
 51
0.0
  0
ARC
  5
BC63
330
BBFE
100
AcDbEntity
  8
1
  6
Continuous
100
AcDbCircle
 10
143.05
 20
250.2336
 30
0.0
 40
1.0
100
AcDbArc
 50
180.0
 51
270.0
  0
ARC
  5
BC64
330
BBFE
100
AcDbEntity
  8
1
  6
Continuous
100
AcDbCircle
 10
143.05
 20
260.7336
 30
0.0
 40
1.0
100
AcDbArc
 50
90.0
 51
180.0
  0
ARC
  5
BC65
330
BBFE
100
AcDbEntity
  8
1
  6
Continuous
100
AcDbCircle
 10
151.3
 20
280.7085999999998
 30
0.0
 40
20.225
100
AcDbArc
 50
249.750657
 51
290.249343
  0
ARC
  5
BC66
330
BBFE
100
AcDbEntity
  8
1
  6
Continuous
100
AcDbCircle
 10
151.3
 20
230.2586
 30
0.0
 40
20.225
100
AcDbArc
 50
69.75065699999999
 51
110.249343
  0
LINE
  5
BC67
330
BBFE
100
AcDbEntity
  8
1
  6
Continuous
100
AcDbLine
 10
156.8
 20
263.2336
 30
0.0
 11
158.3
 21
261.7336
 31
0.0
  0
LINE
  5
BC68
330
BBFE
100
AcDbEntity
  8
1
  6
Continuous
100
AcDbLine
 10
145.8
 20
263.2336
 30
0.0
 11
144.3
 21
261.7336
 31
0.0
  0
LINE
  5
BC69
330
BBFE
100
AcDbEntity
  8
1
  6
Continuous
100
AcDbLine
 10
144.3
 20
249.2335999999998
 30
0.0
 11
145.8
 21
247.7336
 31
0.0
  0
LINE
  5
BC6A
330
BBFE
100
AcDbEntity
  8
1
  6
Continuous
100
AcDbLine
 10
158.3
 20
249.2335999999998
 30
0.0
 11
156.8
 21
247.7336
 31
0.0
  0
LINE
  5
BC6B
330
BBFE
100
AcDbEntity
  8
1
  6
Continuous
100
AcDbLine
 10
158.3
 20
261.7336
 30
0.0
 11
159.55
 21
261.7336
 31
0.0
  0
LINE
  5
BC6C
330
BBFE
100
AcDbEntity
  8
1
  6
Continuous
100
AcDbLine
 10
158.3
 20
249.2335999999998
 30
0.0
 11
159.55
 21
249.2335999999998
 31
0.0
  0
LINE
  5
BC6D
330
BBFE
100
AcDbEntity
  8
1
  6
Continuous
100
AcDbLine
 10
168.55
 20
256.0836
 30
0.0
 11
167.05
 21
255.4835999999998
 31
0.0
  0
LINE
  5
BC6E
330
BBFE
100
AcDbEntity
  8
1
  6
Continuous
100
AcDbLine
 10
167.05
 20
255.4835999999998
 30
0.0
 11
168.55
 21
254.8836
 31
0.0
  0
LINE
  5
BC6F
330
BBFE
100
AcDbEntity
  8
1
  6
Continuous
100
AcDbLine
 10
167.05
 20
255.4835999999998
 30
0.0
 11
164.55
 21
255.4835999999998
 31
0.0
  0
LINE
  5
BC70
330
BBFE
100
AcDbEntity
  8
1
  6
Continuous
100
AcDbLine
 10
276.656754
 20
196.6474039999999
 30
0.0
 11
276.35
 21
196.6336
 31
0.0
  0
LINE
  5
BC71
330
BBFE
100
AcDbEntity
  8
1
  6
Continuous
100
AcDbLine
 10
263.0207659999999
 20
196.648416
 30
0.0
 11
263.35
 21
196.6336
 31
0.0
  0
LINE
  5
BC72
330
BBFE
100
AcDbEntity
  8
1
  6
Continuous
100
AcDbLine
 10
100.5
 20
261.9836
 30
0.0
 11
144.55
 21
261.9836
 31
0.0
  0
LINE
  5
BC73
330
BBFE
100
AcDbEntity
  8
1
  6
Continuous
100
AcDbLine
 10
100.5
 20
248.9835999999999
 30
0.0
 11
144.55
 21
248.9835999999999
 31
0.0
  0
LINE
  5
BC74
330
BBFE
100
AcDbEntity
  8
1
  6
Continuous
100
AcDbLine
 10
158.05
 20
261.9836
 30
0.0
 11
202.0999999999999
 21
261.9836
 31
0.0
  0
LINE
  5
BC75
330
BBFE
100
AcDbEntity
  8
1
  6
Continuous
100
AcDbLine
 10
158.05
 20
248.9835999999999
 30
0.0
 11
202.0999999999999
 21
248.9835999999999
 31
0.0
  0
ARC
  5
BC76
330
BBFE
100
AcDbEntity
  8
1
  6
Continuous
100
AcDbCircle
 10
142.277333
 20
201.7325999999999
 30
0.0
 40
3.735641
100
AcDbArc
 50
126.600977
 51
233.399023
  0
LINE
  5
BC77
330
BBFE
100
AcDbEntity
  8
1
  6
Continuous
100
AcDbLine
 10
276.35
 20
96.499965
 30
0.0
 11
276.35
 21
198.270025
 31
0.0
  0
LINE
  5
BC78
330
BBFE
100
AcDbEntity
  8
1
  6
Continuous
100
AcDbLine
 10
263.35
 20
96.499965
 30
0.0
 11
263.35
 21
198.270025
 31
0.0
  0
ARC
  5
BC79
330
BBFE
100
AcDbEntity
  8
1
  6
Continuous
100
AcDbCircle
 10
275.85
 20
202.0388889999999
 30
0.0
 40
1.0
100
AcDbArc
 50
0.0
 51
84.600387
  0
ARC
  5
BC7A
330
BBFE
100
AcDbEntity
  8
1
  6
Continuous
100
AcDbCircle
 10
263.85
 20
202.0388889999999
 30
0.0
 40
1.0
100
AcDbArc
 50
95.39961299999999
 51
180.0
  0
LINE
  5
BC7B
330
BBFE
100
AcDbEntity
  8
1
  6
Continuous
100
AcDbLine
 10
276.85
 20
202.0388889999999
 30
0.0
 11
277.595952
 21
197.1235059999999
 31
0.0
  0
LINE
  5
BC7C
330
BBFE
100
AcDbEntity
  8
1
  6
Continuous
100
AcDbLine
 10
262.85
 20
202.0388889999999
 30
0.0
 11
262.1
 21
197.2336379999999
 31
0.0
  0
ARC
  5
BC7D
330
BBFE
100
AcDbEntity
  8
1
  6
Continuous
100
AcDbCircle
 10
32.75
 20
201.432502
 30
0.0
 40
6.301135999999998
100
AcDbArc
 50
7.304446000000001
 51
172.6955539999999
  0
LINE
  5
BC7E
330
BBFE
100
AcDbEntity
  8
4
  6
CENTER
100
AcDbLine
 10
32.75
 20
86.499965
 30
0.0
 11
32.75
 21
210.733638
 31
0.0
  0
LINE
  5
BC7F
330
BBFE
100
AcDbEntity
  8
1
  6
Continuous
100
AcDbLine
 10
26.25
 20
96.499965
 30
0.0
 11
26.25
 21
198.0340659999999
 31
0.0
  0
LINE
  5
BC80
330
BBFE
100
AcDbEntity
  8
1
  6
Continuous
100
AcDbLine
 10
39.25
 20
96.499965
 30
0.0
 11
39.25
 21
198.0340659999999
 31
0.0
  0
LINE
  5
BC81
330
BBFE
100
AcDbEntity
  8
4
  6
CENTER
100
AcDbLine
 10
22.0
 20
201.4836379999999
 30
0.0
 11
43.5
 21
201.4836379999999
 31
0.0
  0
LINE
  5
BC82
330
BBFE
100
AcDbEntity
  8
1
  6
Continuous
100
AcDbLine
 10
25.75
 20
202.0388889999999
 30
0.0
 11
25.0
 21
197.2336379999999
 31
0.0
  0
ARC
  5
BC83
330
BBFE
100
AcDbEntity
  8
1
  6
Continuous
100
AcDbCircle
 10
26.75
 20
202.0388889999999
 30
0.0
 40
1.0
100
AcDbArc
 50
95.39961299999999
 51
180.0
  0
LINE
  5
BC84
330
BBFE
100
AcDbEntity
  8
1
  6
Continuous
100
AcDbLine
 10
25.920766
 20
196.648416
 30
0.0
 11
26.25
 21
196.6336
 31
0.0
  0
ARC
  5
BC85
330
BBFE
100
AcDbEntity
  8
1
  6
Continuous
100
AcDbCircle
 10
26.5
 20
197.2336379999999
 30
0.0
 40
1.5
100
AcDbArc
 50
180.0
 51
260.405932
  0
LINE
  5
BC86
330
BBFE
100
AcDbEntity
  8
1
  6
Continuous
100
AcDbLine
 10
26.246226
 20
198.7336379999999
 30
0.0
 11
27.833508
 21
198.7336379999999
 31
0.0
  0
LINE
  5
BC87
330
BBFE
100
AcDbEntity
  8
1
  6
Continuous
100
AcDbLine
 10
26.5
 20
198.7336379999999
 30
0.0
 11
26.5
 21
202.233638
 31
0.0
  0
LINE
  5
BC88
330
BBFE
100
AcDbEntity
  8
1
  6
Continuous
100
AcDbLine
 10
39.75
 20
202.0388889999999
 30
0.0
 11
40.495952
 21
197.1235059999999
 31
0.0
  0
ARC
  5
BC89
330
BBFE
100
AcDbEntity
  8
1
  6
Continuous
100
AcDbCircle
 10
38.75
 20
202.0388889999999
 30
0.0
 40
1.0
100
AcDbArc
 50
0.0
 51
84.600387
  0
LINE
  5
BC8A
330
BBFE
100
AcDbEntity
  8
1
  6
Continuous
100
AcDbLine
 10
39.556754
 20
196.6474039999999
 30
0.0
 11
39.25
 21
196.6336
 31
0.0
  0
ARC
  5
BC8B
330
BBFE
100
AcDbEntity
  8
1
  6
Continuous
100
AcDbCircle
 10
39.0
 20
197.2336379999999
 30
0.0
 40
1.5
100
AcDbArc
 50
279.594068
 51
355.7894899999998
  0
LINE
  5
BC8C
330
BBFE
100
AcDbEntity
  8
1
  6
Continuous
100
AcDbLine
 10
37.66649199999999
 20
198.7336379999999
 30
0.0
 11
39.24015
 21
198.7336379999999
 31
0.0
  0
LINE
  5
BC8D
330
BBFE
100
AcDbEntity
  8
1
  6
Continuous
100
AcDbLine
 10
39.0
 20
198.7336379999999
 30
0.0
 11
39.0
 21
202.233638
 31
0.0
  0
LINE
  5
BC8E
330
BBFE
100
AcDbEntity
  8
4
  6
CENTER
100
AcDbLine
 10
151.3
 20
36.0
 30
0.0
 11
151.3
 21
61.5
 31
0.0
  0
LINE
  5
BC8F
330
BBFE
100
AcDbEntity
  8
1
  6
Continuous
100
AcDbLine
 10
100.5
 20
42.25
 30
0.0
 11
202.0999999999999
 21
42.25
 31
0.0
  0
LINE
  5
BC90
330
BBFE
100
AcDbEntity
  8
1
  6
Continuous
100
AcDbLine
 10
145.8
 20
41.0
 30
0.0
 11
156.8
 21
41.0
 31
0.0
  0
LINE
  5
BC91
330
BBFE
100
AcDbEntity
  8
1
  6
Continuous
100
AcDbLine
 10
100.5
 20
55.25
 30
0.0
 11
202.0999999999999
 21
55.25
 31
0.0
  0
LINE
  5
BC92
330
BBFE
100
AcDbEntity
  8
4
  6
CENTER
100
AcDbLine
 10
90.5
 20
48.75
 30
0.0
 11
212.0999999999999
 21
48.75
 31
0.0
  0
LINE
  5
BC93
330
BBFE
100
AcDbEntity
  8
1
  6
Continuous
100
AcDbLine
 10
145.8
 20
56.5
 30
0.0
 11
156.8
 21
56.5
 31
0.0
  0
LINE
  5
BC94
330
BBFE
100
AcDbEntity
  8
1
  6
Continuous
100
AcDbLine
 10
146.013697
 20
196.16924
 30
0.0
 11
142.3983639999998
 21
191.9235149999999
 31
0.0
  0
LINE
  5
BC95
330
BBFE
100
AcDbEntity
  8
1
  6
Continuous
100
AcDbLine
 10
145.9434489999999
 20
197.01221
 30
0.0
 11
141.9415439999999
 21
192.312508
 31
0.0
  0
LINE
  5
BC96
330
BBFE
100
AcDbEntity
  8
1
  6
Continuous
100
AcDbLine
 10
141.9415439999999
 20
192.312508
 30
0.0
 11
142.3983639999998
 21
191.9235149999999
 31
0.0
  0
LINE
  5
BC97
330
BBFE
100
AcDbEntity
  8
1
  6
Continuous
100
AcDbLine
 10
143.4975149999999
 20
194.1397879999999
 30
0.0
 11
143.9543349999999
 21
193.7507949999999
 31
0.0
  0
CIRCLE
  5
BC98
330
BBFE
100
AcDbEntity
  8
1
  6
Continuous
100
AcDbCircle
 10
32.75
 20
201.7316
 30
0.0
 40
3.0
  0
LINE
  5
BC99
330
BBFE
100
AcDbEntity
  8
1
  6
Continuous
100
AcDbLine
 10
29.75
 20
201.7316
 30
0.0
 11
28.75649199999999
 21
199.3488
 31
0.0
  0
LINE
  5
BC9A
330
BBFE
100
AcDbEntity
  8
1
  6
Continuous
100
AcDbLine
 10
35.75
 20
201.7316
 30
0.0
 11
36.743508
 21
199.3488
 31
0.0
  0
ARC
  5
BC9B
330
BBFE
100
AcDbEntity
  8
1
  6
Continuous
100
AcDbCircle
 10
37.66649199999999
 20
199.7336379999999
 30
0.0
 40
1.0
100
AcDbArc
 50
202.6336909999999
 51
270.0
  0
ARC
  5
BC9C
330
BBFE
100
AcDbEntity
  8
1
  6
Continuous
100
AcDbCircle
 10
27.833508
 20
199.7336379999999
 30
0.0
 40
1.0
100
AcDbArc
 50
270.0
 51
337.3663089999999
  0
LINE
  5
BC9D
330
BBFE
100
AcDbEntity
  8
1
  6
Continuous
100
AcDbLine
 10
146.05
 20
56.5
 30
0.0
 11
146.05
 21
55.25
 31
0.0
  0
LINE
  5
BC9E
330
BBFE
100
AcDbEntity
  8
1
  6
Continuous
100
AcDbLine
 10
156.55
 20
41.00044699999997
 30
0.0
 11
156.55
 21
42.25
 31
0.0
  0
LINE
  5
BC9F
330
BBFE
100
AcDbEntity
  8
1
  6
Continuous
100
AcDbLine
 10
156.8
 20
56.5
 30
0.0
 11
156.8
 21
55.25
 31
0.0
  0
LINE
  5
BCA0
330
BBFE
100
AcDbEntity
  8
1
  6
Continuous
100
AcDbLine
 10
145.8
 20
56.5
 30
0.0
 11
145.8
 21
55.25
 31
0.0
  0
LINE
  5
BCA1
330
BBFE
100
AcDbEntity
  8
1
  6
Continuous
100
AcDbLine
 10
145.8
 20
56.5
 30
0.0
 11
144.55
 21
55.25
 31
0.0
  0
LINE
  5
BCA2
330
BBFE
100
AcDbEntity
  8
1
  6
Continuous
100
AcDbLine
 10
156.8
 20
56.5
 30
0.0
 11
158.05
 21
55.25
 31
0.0
  0
LINE
  5
BCA3
330
BBFE
100
AcDbEntity
  8
1
  6
Continuous
100
AcDbLine
 10
145.8
 20
41.00044699999997
 30
0.0
 11
144.5500739999999
 21
42.25
 31
0.0
  0
LINE
  5
BCA4
330
BBFE
100
AcDbEntity
  8
1
  6
Continuous
100
AcDbLine
 10
156.8
 20
41.0
 30
0.0
 11
158.05
 21
42.25
 31
0.0
  0
LINE
  5
BCA5
330
BBFE
100
AcDbEntity
  8
1
  6
Continuous
100
AcDbLine
 10
156.8
 20
42.25
 30
0.0
 11
156.8
 21
41.00044699999997
 31
0.0
  0
LINE
  5
BCA6
330
BBFE
100
AcDbEntity
  8
1
  6
Continuous
100
AcDbLine
 10
156.55
 20
55.25
 30
0.0
 11
156.55
 21
56.5
 31
0.0
  0
LINE
  5
BCA7
330
BBFE
100
AcDbEntity
  8
1
  6
Continuous
100
AcDbLine
 10
146.05
 20
42.25
 30
0.0
 11
146.05
 21
41.00044699999997
 31
0.0
  0
LINE
  5
BCA8
330
BBFE
100
AcDbEntity
  8
1
  6
Continuous
100
AcDbLine
 10
145.8
 20
42.25
 30
0.0
 11
145.8
 21
41.00044699999997
 31
0.0
  0
LINE
  5
BCA9
330
BBFE
100
AcDbEntity
  8
1
  6
Continuous
100
AcDbLine
 10
263.3462259999999
 20
198.7336379999999
 30
0.0
 11
263.0207659999999
 21
196.648416
 31
0.0
  0
LINE
  5
BCAA
330
BBFE
100
AcDbEntity
  8
1
  6
Continuous
100
AcDbLine
 10
276.34015
 20
198.7336379999999
 30
0.0
 11
276.656754
 21
196.6474039999999
 31
0.0
  0
LINE
  5
BCAB
330
BBFE
100
AcDbEntity
  8
1
  6
Continuous
100
AcDbLine
 10
26.246226
 20
198.7336379999999
 30
0.0
 11
25.920766
 21
196.648416
 31
0.0
  0
LINE
  5
BCAC
330
BBFE
100
AcDbEntity
  8
1
  6
Continuous
100
AcDbLine
 10
39.24015
 20
198.7336379999999
 30
0.0
 11
39.556754
 21
196.6474039999999
 31
0.0
  0
LINE
  5
BCAD
330
BBFE
100
AcDbEntity
  8
1
  6
Continuous
100
AcDbLine
 10
26.25
 20
198.0340659999999
 30
0.0
 11
39.25
 21
198.0340659999999
 31
0.0
  0
LINE
  5
BCAE
330
BBFE
100
AcDbEntity
  8
1
  6
Continuous
100
AcDbLine
 10
263.35
 20
198.270025
 30
0.0
 11
265.6984709999999
 21
198.270025
 31
0.0
  0
LINE
  5
BCAF
330
BBFE
100
AcDbEntity
  8
1
  6
Continuous
100
AcDbLine
 10
274.001529
 20
198.270025
 30
0.0
 11
276.35
 21
198.270025
 31
0.0
  0
ARC
  5
BCB0
330
BBFE
100
AcDbEntity
  8
5
  6
PHANTOM
100
AcDbCircle
 10
151.523062
 20
151.319128
 30
0.0
 40
46.0
100
AcDbArc
 50
96.96351300000001
 51
60.383254
  0
ARC
  5
BCB1
330
BBFE
100
AcDbEntity
  8
1
  6
Continuous
100
AcDbCircle
 10
151.3
 20
147.299965
 30
0.0
 40
50.0
100
AcDbArc
 50
96.149958
 51
57.41237599999998
  0
ARC
  5
BCB2
330
BBFE
100
AcDbEntity
  8
5
  6
PHANTOM
100
AcDbCircle
 10
151.523062
 20
151.319128
 30
0.0
 40
46.79999999999998
100
AcDbArc
 50
96.92588999999999
 51
60.42141199999999
  0
ARC
  5
BCB3
330
BBFE
100
AcDbEntity
  8
5
  6
PHANTOM
100
AcDbCircle
 10
151.523062
 20
151.319128
 30
0.0
 40
47.6
100
AcDbArc
 50
23.9541
 51
60.45823799999999
  0
ARC
  5
BCB4
330
BBFE
100
AcDbEntity
  8
1
  6
Continuous
100
AcDbCircle
 10
151.3
 20
147.299965
 30
0.0
 40
50.8
100
AcDbArc
 50
96.128122
 51
57.457381
  0
LINE
  5
BCB5
330
BBFE
100
AcDbEntity
  8
4
  6
CENTER
100
AcDbLine
 10
16.25
 20
147.299965
 30
0.0
 11
49.25
 21
147.299965
 31
0.0
  0
LINE
  5
BCB6
330
BBFE
100
AcDbEntity
  8
5
  6
PHANTOM
100
AcDbLine
 10
195.023322
 20
170.6449499999999
 30
0.0
 11
194.292225
 21
170.320146
 31
0.0
  0
LINE
  5
BCB7
330
BBFE
100
AcDbEntity
  8
1
  6
Continuous
100
AcDbLine
 10
179.023884
 20
190.819457
 30
0.0
 11
178.59201
 21
190.141525
 31
0.0
  0
LINE
  5
BCB8
330
BBFE
100
AcDbEntity
  8
1
  6
Continuous
100
AcDbLine
 10
26.25
 20
96.499965
 30
0.0
 11
39.25
 21
96.499965
 31
0.0
  0
LINE
  5
BCB9
330
BBFE
100
AcDbEntity
  8
1
  6
Continuous
100
AcDbLine
 10
202.0999999999999
 20
42.25
 30
0.0
 11
202.0999999999999
 21
55.25
 31
0.0
  0
LINE
  5
BCBA
330
BBFE
100
AcDbEntity
  8
1
  6
Continuous
100
AcDbLine
 10
100.5
 20
42.25
 30
0.0
 11
100.5
 21
55.25
 31
0.0
  0
LINE
  5
BCBB
330
BBFE
100
AcDbEntity
  8
4
  6
CENTER
100
AcDbLine
 10
90.5
 20
147.299965
 30
0.0
 11
212.0999999999999
 21
147.299965
 31
0.0
  0
LINE
  5
BCBC
330
BBFE
100
AcDbEntity
  8
1
  6
Continuous
100
AcDbLine
 10
263.35
 20
96.499965
 30
0.0
 11
276.35
 21
96.499965
 31
0.0
  0
LINE
  5
BCBD
330
BBFE
100
AcDbEntity
  8
4
  6
CENTER
100
AcDbLine
 10
253.35
 20
147.299965
 30
0.0
 11
286.35
 21
147.299965
 31
0.0
  0
LINE
  5
BCBE
330
BBFE
100
AcDbEntity
  8
1
  6
Continuous
100
AcDbLine
 10
202.0999999999999
 20
248.9835999999999
 30
0.0
 11
202.0999999999999
 21
261.9836
 31
0.0
  0
LINE
  5
BCBF
330
BBFE
100
AcDbEntity
  8
1
  6
Continuous
100
AcDbLine
 10
100.5
 20
248.9835999999999
 30
0.0
 11
100.5
 21
261.9836
 31
0.0
  0
LINE
  5
BCC0
330
BBFE
100
AcDbEntity
  8
1
  6
Continuous
100
AcDbLine
 10
32.98460099999999
 20
174.90646
 30
0.0
 11
35.54407799999999
 21
174.90646
 31
0.0
  0
ARC
  5
BCC1
330
BBFE
100
AcDbEntity
  8
1
  6
Continuous
100
AcDbCircle
 10
35.54407799999999
 20
175.2064599999999
 30
0.0
 40
0.3
100
AcDbArc
 50
270.0
 51
90.0
  0
ARC
  5
BCC2
330
BBFE
100
AcDbEntity
  8
1
  6
Continuous
100
AcDbCircle
 10
29.84407800000001
 20
175.8064599999999
 30
0.0
 40
0.3
100
AcDbArc
 50
90.0
 51
270.0
  0
LINE
  5
BCC3
330
BBFE
100
AcDbEntity
  8
1
  6
Continuous
100
AcDbLine
 10
29.84407800000001
 20
175.50646
 30
0.0
 11
32.689631
 21
174.935748
 31
0.0
  0
LINE
  5
BCC4
330
BBFE
100
AcDbEntity
  8
1
  6
Continuous
100
AcDbLine
 10
35.54407799999999
 20
175.50646
 30
0.0
 11
29.84407800000001
 21
176.10646
 31
0.0
  0
LINE
  5
BCC5
330
BBFE
100
AcDbEntity
  8
1
  6
Continuous
100
AcDbLine
 10
35.54407799999999
 20
177.90646
 30
0.0
 11
29.84407800000001
 21
178.50646
 31
0.0
  0
ARC
  5
BCC6
330
BBFE
100
AcDbEntity
  8
1
  6
Continuous
100
AcDbCircle
 10
35.54407799999999
 20
177.6064599999999
 30
0.0
 40
0.3
100
AcDbArc
 50
270.0
 51
90.0
  0
LINE
  5
BCC7
330
BBFE
100
AcDbEntity
  8
1
  6
Continuous
100
AcDbLine
 10
32.98460099999999
 20
177.3064599999999
 30
0.0
 11
35.54407799999999
 21
177.3064599999999
 31
0.0
  0
LINE
  5
BCC8
330
BBFE
100
AcDbEntity
  8
1
  6
Continuous
100
AcDbLine
 10
29.84407800000001
 20
177.90646
 30
0.0
 11
32.689631
 21
177.335748
 31
0.0
  0
ARC
  5
BCC9
330
BBFE
100
AcDbEntity
  8
1
  6
Continuous
100
AcDbCircle
 10
29.84407800000001
 20
178.2064599999999
 30
0.0
 40
0.3
100
AcDbArc
 50
90.0
 51
270.0
  0
LINE
  5
BCCA
330
BBFE
100
AcDbEntity
  8
1
  6
Continuous
100
AcDbLine
 10
32.98460099999999
 20
179.7064599999999
 30
0.0
 11
35.54407799999999
 21
179.7064599999999
 31
0.0
  0
ARC
  5
BCCB
330
BBFE
100
AcDbEntity
  8
1
  6
Continuous
100
AcDbCircle
 10
35.54407799999999
 20
180.0064599999998
 30
0.0
 40
0.3
100
AcDbArc
 50
270.0
 51
90.0
  0
LINE
  5
BCCC
330
BBFE
100
AcDbEntity
  8
1
  6
Continuous
100
AcDbLine
 10
35.54407799999999
 20
180.3064599999999
 30
0.0
 11
29.84407800000001
 21
180.90646
 31
0.0
  0
LINE
  5
BCCD
330
BBFE
100
AcDbEntity
  8
1
  6
Continuous
100
AcDbLine
 10
29.84407800000001
 20
180.3064599999999
 30
0.0
 11
32.689631
 21
179.735748
 31
0.0
  0
ARC
  5
BCCE
330
BBFE
100
AcDbEntity
  8
1
  6
Continuous
100
AcDbCircle
 10
29.84407800000001
 20
180.60646
 30
0.0
 40
0.3
100
AcDbArc
 50
90.0
 51
270.0
  0
ARC
  5
BCCF
330
BBFE
100
AcDbEntity
  8
1
  6
Continuous
100
AcDbCircle
 10
32.98460099999999
 20
183.256598
 30
0.0
 40
1.5
100
AcDbArc
 50
258.6590749999999
 51
270.0
  0
LINE
  5
BCD0
330
BBFE
100
AcDbEntity
  8
1
  6
Continuous
100
AcDbLine
 10
35.54407799999999
 20
182.3565979999999
 30
0.0
 11
29.84407800000001
 21
182.9565979999999
 31
0.0
  0
ARC
  5
BCD1
330
BBFE
100
AcDbEntity
  8
1
  6
Continuous
100
AcDbCircle
 10
35.54407799999999
 20
182.0565979999998
 30
0.0
 40
0.3
100
AcDbArc
 50
270.0
 51
90.0
  0
LINE
  5
BCD2
330
BBFE
100
AcDbEntity
  8
1
  6
Continuous
100
AcDbLine
 10
32.98460099999999
 20
181.7565979999999
 30
0.0
 11
35.54407799999999
 21
181.7565979999999
 31
0.0
  0
ARC
  5
BCD3
330
BBFE
100
AcDbEntity
  8
1
  6
Continuous
100
AcDbCircle
 10
29.84407800000001
 20
182.6565979999998
 30
0.0
 40
0.3
100
AcDbArc
 50
90.0
 51
270.0
  0
LINE
  5
BCD4
330
BBFE
100
AcDbEntity
  8
1
  6
Continuous
100
AcDbLine
 10
29.84407800000001
 20
182.3565979999999
 30
0.0
 11
32.689631
 21
181.785887
 31
0.0
  0
LINE
  5
BCD5
330
BBFE
100
AcDbEntity
  8
1
  6
Continuous
100
AcDbLine
 10
32.98460099999999
 20
184.156598
 30
0.0
 11
35.54407799999999
 21
184.156598
 31
0.0
  0
ARC
  5
BCD6
330
BBFE
100
AcDbEntity
  8
1
  6
Continuous
100
AcDbCircle
 10
35.54407799999999
 20
184.4565979999999
 30
0.0
 40
0.3
100
AcDbArc
 50
270.0
 51
90.0
  0
LINE
  5
BCD7
330
BBFE
100
AcDbEntity
  8
1
  6
Continuous
100
AcDbLine
 10
35.54407799999999
 20
184.7565979999999
 30
0.0
 11
29.84407800000001
 21
185.3565979999999
 31
0.0
  0
ARC
  5
BCD8
330
BBFE
100
AcDbEntity
  8
1
  6
Continuous
100
AcDbCircle
 10
32.98460099999999
 20
185.656598
 30
0.0
 40
1.5
100
AcDbArc
 50
258.6590749999999
 51
270.0
  0
LINE
  5
BCD9
330
BBFE
100
AcDbEntity
  8
1
  6
Continuous
100
AcDbLine
 10
29.84407800000001
 20
184.7565979999999
 30
0.0
 11
32.689631
 21
184.185887
 31
0.0
  0
ARC
  5
BCDA
330
BBFE
100
AcDbEntity
  8
1
  6
Continuous
100
AcDbCircle
 10
29.84407800000001
 20
185.056598
 30
0.0
 40
0.3
100
AcDbArc
 50
90.0
 51
270.0
  0
LINE
  5
BCDB
330
BBFE
100
AcDbEntity
  8
1
  6
Continuous
100
AcDbLine
 10
35.54407799999999
 20
186.7067759999999
 30
0.0
 11
29.84407800000001
 21
187.3067759999999
 31
0.0
  0
ARC
  5
BCDC
330
BBFE
100
AcDbEntity
  8
1
  6
Continuous
100
AcDbCircle
 10
35.54407799999999
 20
186.406776
 30
0.0
 40
0.3
100
AcDbArc
 50
270.0
 51
90.0
  0
LINE
  5
BCDD
330
BBFE
100
AcDbEntity
  8
1
  6
Continuous
100
AcDbLine
 10
32.98460099999999
 20
186.106776
 30
0.0
 11
35.54407799999999
 21
186.106776
 31
0.0
  0
LINE
  5
BCDE
330
BBFE
100
AcDbEntity
  8
1
  6
Continuous
100
AcDbLine
 10
29.84407800000001
 20
186.7067759999999
 30
0.0
 11
32.689631
 21
186.1360639999998
 31
0.0
  0
ARC
  5
BCDF
330
BBFE
100
AcDbEntity
  8
1
  6
Continuous
100
AcDbCircle
 10
29.84407800000001
 20
187.0067759999998
 30
0.0
 40
0.3
100
AcDbArc
 50
90.0
 51
270.0
  0
LINE
  5
BCE0
330
BBFE
100
AcDbEntity
  8
1
  6
Continuous
100
AcDbLine
 10
35.54407799999999
 20
188.606973
 30
0.0
 11
29.84407800000001
 21
189.206973
 31
0.0
  0
ARC
  5
BCE1
330
BBFE
100
AcDbEntity
  8
1
  6
Continuous
100
AcDbCircle
 10
35.54407799999999
 20
188.306973
 30
0.0
 40
0.3
100
AcDbArc
 50
270.0
 51
90.0
  0
LINE
  5
BCE2
330
BBFE
100
AcDbEntity
  8
1
  6
Continuous
100
AcDbLine
 10
32.98460099999999
 20
188.0069729999999
 30
0.0
 11
35.54407799999999
 21
188.0069729999999
 31
0.0
  0
LINE
  5
BCE3
330
BBFE
100
AcDbEntity
  8
1
  6
Continuous
100
AcDbLine
 10
29.84407800000001
 20
188.606973
 30
0.0
 11
32.689631
 21
188.0362619999999
 31
0.0
  0
ARC
  5
BCE4
330
BBFE
100
AcDbEntity
  8
1
  6
Continuous
100
AcDbCircle
 10
32.98460099999999
 20
189.5069729999999
 30
0.0
 40
1.5
100
AcDbArc
 50
258.6590749999999
 51
270.0
  0
ARC
  5
BCE5
330
BBFE
100
AcDbEntity
  8
1
  6
Continuous
100
AcDbCircle
 10
29.84407800000001
 20
188.9069729999999
 30
0.0
 40
0.3
100
AcDbArc
 50
90.0
 51
270.0
  0
ARC
  5
BCE6
330
BBFE
100
AcDbEntity
  8
1
  6
Continuous
100
AcDbCircle
 10
35.54407799999999
 20
192.8570739999999
 30
0.0
 40
0.3
100
AcDbArc
 50
318.189685
 51
90.0
  0
LINE
  5
BCE7
330
BBFE
100
AcDbEntity
  8
1
  6
Continuous
100
AcDbLine
 10
35.54407799999999
 20
193.1570739999999
 30
0.0
 11
29.84407800000001
 21
193.7570739999999
 31
0.0
  0
ARC
  5
BCE8
330
BBFE
100
AcDbEntity
  8
1
  6
Continuous
100
AcDbCircle
 10
29.84407800000001
 20
193.457074
 30
0.0
 40
0.3
100
AcDbArc
 50
90.0
 51
208.985474
  0
LINE
  5
BCE9
330
BBFE
100
AcDbEntity
  8
1
  6
Continuous
100
AcDbLine
 10
35.54407799999999
 20
195.806973
 30
0.0
 11
29.84407800000001
 21
196.406973
 31
0.0
  0
ARC
  5
BCEA
330
BBFE
100
AcDbEntity
  8
1
  6
Continuous
100
AcDbCircle
 10
35.54407799999999
 20
195.5069729999999
 30
0.0
 40
0.3
100
AcDbArc
 50
340.528779
 51
90.0
  0
ARC
  5
BCEB
330
BBFE
100
AcDbEntity
  8
1
  6
Continuous
100
AcDbCircle
 10
29.84407800000001
 20
196.106973
 30
0.0
 40
0.3
100
AcDbArc
 50
90.0
 51
186.947931
  0
LINE
  5
BCEC
330
BBFE
100
AcDbEntity
  8
1
  6
Continuous
100
AcDbLine
 10
35.54407799999999
 20
173.10646
 30
0.0
 11
29.84407800000001
 21
173.70646
 31
0.0
  0
LINE
  5
BCED
330
BBFE
100
AcDbEntity
  8
1
  6
Continuous
100
AcDbLine
 10
32.98460099999999
 20
172.50646
 30
0.0
 11
35.54407799999999
 21
172.50646
 31
0.0
  0
ARC
  5
BCEE
330
BBFE
100
AcDbEntity
  8
1
  6
Continuous
100
AcDbCircle
 10
35.54407799999999
 20
172.8064599999999
 30
0.0
 40
0.3
100
AcDbArc
 50
270.0
 51
90.0
  0
LINE
  5
BCEF
330
BBFE
100
AcDbEntity
  8
1
  6
Continuous
100
AcDbLine
 10
29.84407800000001
 20
173.10646
 30
0.0
 11
32.689631
 21
172.535748
 31
0.0
  0
ARC
  5
BCF0
330
BBFE
100
AcDbEntity
  8
1
  6
Continuous
100
AcDbCircle
 10
29.84407800000001
 20
173.40646
 30
0.0
 40
0.3
100
AcDbArc
 50
90.0
 51
270.0
  0
ARC
  5
BCF1
330
BBFE
100
AcDbEntity
  8
1
  6
Continuous
100
AcDbCircle
 10
35.54407799999999
 20
170.40646
 30
0.0
 40
0.3
100
AcDbArc
 50
270.0
 51
90.0
  0
LINE
  5
BCF2
330
BBFE
100
AcDbEntity
  8
1
  6
Continuous
100
AcDbLine
 10
32.98460099999999
 20
170.10646
 30
0.0
 11
35.54407799999999
 21
170.10646
 31
0.0
  0
LINE
  5
BCF3
330
BBFE
100
AcDbEntity
  8
1
  6
Continuous
100
AcDbLine
 10
35.54407799999999
 20
170.7064599999999
 30
0.0
 11
29.84407800000001
 21
171.3064599999999
 31
0.0
  0
LINE
  5
BCF4
330
BBFE
100
AcDbEntity
  8
1
  6
Continuous
100
AcDbLine
 10
29.84407800000001
 20
170.7064599999999
 30
0.0
 11
32.689631
 21
170.135748
 31
0.0
  0
ARC
  5
BCF5
330
BBFE
100
AcDbEntity
  8
1
  6
Continuous
100
AcDbCircle
 10
29.84407800000001
 20
171.00646
 30
0.0
 40
0.3
100
AcDbArc
 50
90.0
 51
270.0
  0
LINE
  5
BCF6
330
BBFE
100
AcDbEntity
  8
1
  6
Continuous
100
AcDbLine
 10
35.54407799999999
 20
168.3064599999999
 30
0.0
 11
29.84407800000001
 21
168.90646
 31
0.0
  0
LINE
  5
BCF7
330
BBFE
100
AcDbEntity
  8
1
  6
Continuous
100
AcDbLine
 10
32.98460099999999
 20
167.70646
 30
0.0
 11
35.54407799999999
 21
167.70646
 31
0.0
  0
ARC
  5
BCF8
330
BBFE
100
AcDbEntity
  8
1
  6
Continuous
100
AcDbCircle
 10
35.54407799999999
 20
168.00646
 30
0.0
 40
0.3
100
AcDbArc
 50
270.0
 51
90.0
  0
LINE
  5
BCF9
330
BBFE
100
AcDbEntity
  8
1
  6
Continuous
100
AcDbLine
 10
29.84407800000001
 20
168.3064599999999
 30
0.0
 11
32.689631
 21
167.7357479999998
 31
0.0
  0
ARC
  5
BCFA
330
BBFE
100
AcDbEntity
  8
1
  6
Continuous
100
AcDbCircle
 10
29.84407800000001
 20
168.6064599999999
 30
0.0
 40
0.3
100
AcDbArc
 50
90.0
 51
270.0
  0
LINE
  5
BCFB
330
BBFE
100
AcDbEntity
  8
1
  6
Continuous
100
AcDbLine
 10
139.581531
 20
258.3158839999999
 30
0.0
 11
139.581531
 21
258.066704
 31
0.0
  0
ARC
  5
BCFC
330
BBFE
100
AcDbEntity
  8
1
  6
Continuous
100
AcDbCircle
 10
139.281531
 20
258.3158839999999
 30
0.0
 40
0.3
100
AcDbArc
 50
0.0
 51
180.0
  0
ARC
  5
BCFD
330
BBFE
100
AcDbEntity
  8
1
  6
Continuous
100
AcDbCircle
 10
138.681531
 20
252.6158839999999
 30
0.0
 40
0.3
100
AcDbArc
 50
180.0
 51
0.0
  0
LINE
  5
BCFE
330
BBFE
100
AcDbEntity
  8
1
  6
Continuous
100
AcDbLine
 10
139.15521
 20
253.440858
 30
0.0
 11
138.9815309999999
 21
252.6158839999999
 31
0.0
  0
LINE
  5
BCFF
330
BBFE
100
AcDbEntity
  8
1
  6
Continuous
100
AcDbLine
 10
138.9815309999999
 20
258.3158839999999
 30
0.0
 11
138.834115
 21
256.915431
 31
0.0
  0
ARC
  5
BD00
330
BBFE
100
AcDbEntity
  8
1
  6
Continuous
100
AcDbCircle
 10
141.081531
 20
252.6158839999999
 30
0.0
 40
0.3
100
AcDbArc
 50
206.1642679999999
 51
333.835732
  0
ARC
  5
BD01
330
BBFE
100
AcDbEntity
  8
1
  6
Continuous
100
AcDbCircle
 10
141.681531
 20
258.3158839999999
 30
0.0
 40
0.3
100
AcDbArc
 50
33.990387
 51
146.0096129999998
  0
LINE
  5
BD02
330
BBFE
100
AcDbEntity
  8
1
  6
Continuous
100
AcDbLine
 10
35.54407799999999
 20
165.90646
 30
0.0
 11
29.84407800000001
 21
166.50646
 31
0.0
  0
LINE
  5
BD03
330
BBFE
100
AcDbEntity
  8
1
  6
Continuous
100
AcDbLine
 10
29.84407800000001
 20
165.90646
 30
0.0
 11
32.689631
 21
165.3357479999999
 31
0.0
  0
LINE
  5
BD04
330
BBFE
100
AcDbEntity
  8
1
  6
Continuous
100
AcDbLine
 10
32.98460099999999
 20
165.3064599999999
 30
0.0
 11
35.54407799999999
 21
165.3064599999999
 31
0.0
  0
ARC
  5
BD05
330
BBFE
100
AcDbEntity
  8
1
  6
Continuous
100
AcDbCircle
 10
35.54407799999999
 20
165.60646
 30
0.0
 40
0.3
100
AcDbArc
 50
270.0
 51
90.0
  0
ARC
  5
BD06
330
BBFE
100
AcDbEntity
  8
1
  6
Continuous
100
AcDbCircle
 10
29.84407800000001
 20
166.2064599999999
 30
0.0
 40
0.3
100
AcDbArc
 50
90.0
 51
270.0
  0
ARC
  5
BD07
330
BBFE
100
AcDbEntity
  8
1
  6
Continuous
100
AcDbCircle
 10
35.54407799999999
 20
163.2064599999999
 30
0.0
 40
0.3
100
AcDbArc
 50
270.0
 51
90.0
  0
LINE
  5
BD08
330
BBFE
100
AcDbEntity
  8
1
  6
Continuous
100
AcDbLine
 10
32.98460099999999
 20
162.90646
 30
0.0
 11
35.54407799999999
 21
162.90646
 31
0.0
  0
LINE
  5
BD09
330
BBFE
100
AcDbEntity
  8
1
  6
Continuous
100
AcDbLine
 10
35.54407799999999
 20
163.5064599999998
 30
0.0
 11
29.84407800000001
 21
164.1064599999999
 31
0.0
  0
LINE
  5
BD0A
330
BBFE
100
AcDbEntity
  8
1
  6
Continuous
100
AcDbLine
 10
29.84407800000001
 20
163.5064599999998
 30
0.0
 11
32.689631
 21
162.9357479999999
 31
0.0
  0
ARC
  5
BD0B
330
BBFE
100
AcDbEntity
  8
1
  6
Continuous
100
AcDbCircle
 10
29.84407800000001
 20
163.8064599999999
 30
0.0
 40
0.3
100
AcDbArc
 50
90.0
 51
270.0
  0
LINE
  5
BD0C
330
BBFE
100
AcDbEntity
  8
1
  6
Continuous
100
AcDbLine
 10
35.54407799999999
 20
161.1064599999999
 30
0.0
 11
29.84407800000001
 21
161.7064599999999
 31
0.0
  0
LINE
  5
BD0D
330
BBFE
100
AcDbEntity
  8
1
  6
Continuous
100
AcDbLine
 10
32.98460099999999
 20
160.50646
 30
0.0
 11
35.54407799999999
 21
160.50646
 31
0.0
  0
ARC
  5
BD0E
330
BBFE
100
AcDbEntity
  8
1
  6
Continuous
100
AcDbCircle
 10
35.54407799999999
 20
160.8064599999999
 30
0.0
 40
0.3
100
AcDbArc
 50
270.0
 51
90.0
  0
LINE
  5
BD0F
330
BBFE
100
AcDbEntity
  8
1
  6
Continuous
100
AcDbLine
 10
29.84407800000001
 20
161.1064599999999
 30
0.0
 11
32.689631
 21
160.535748
 31
0.0
  0
ARC
  5
BD10
330
BBFE
100
AcDbEntity
  8
1
  6
Continuous
100
AcDbCircle
 10
29.84407800000001
 20
161.40646
 30
0.0
 40
0.3
100
AcDbArc
 50
90.0
 51
270.0
  0
LINE
  5
BD11
330
BBFE
100
AcDbEntity
  8
1
  6
Continuous
100
AcDbLine
 10
137.181531
 20
258.3158839999999
 30
0.0
 11
137.181531
 21
255.622067
 31
0.0
  0
LINE
  5
BD12
330
BBFE
100
AcDbEntity
  8
1
  6
Continuous
100
AcDbLine
 10
136.581531
 20
258.3158839999999
 30
0.0
 11
135.9815309999999
 21
252.6158839999999
 31
0.0
  0
ARC
  5
BD13
330
BBFE
100
AcDbEntity
  8
1
  6
Continuous
100
AcDbCircle
 10
136.881531
 20
258.3158839999999
 30
0.0
 40
0.3
100
AcDbArc
 50
0.0
 51
180.0
  0
LINE
  5
BD14
330
BBFE
100
AcDbEntity
  8
1
  6
Continuous
100
AcDbLine
 10
137.149355
 20
255.3130509999999
 30
0.0
 11
136.581531
 21
252.6158839999999
 31
0.0
  0
ARC
  5
BD15
330
BBFE
100
AcDbEntity
  8
1
  6
Continuous
100
AcDbCircle
 10
135.6815309999997
 20
255.622067
 30
0.0
 40
1.5
100
AcDbArc
 50
348.1113419999999
 51
0.0
  0
ARC
  5
BD16
330
BBFE
100
AcDbEntity
  8
1
  6
Continuous
100
AcDbCircle
 10
136.281531
 20
252.6158839999999
 30
0.0
 40
0.3
100
AcDbArc
 50
180.0
 51
0.0
  0
LINE
  5
BD17
330
BBFE
100
AcDbEntity
  8
1
  6
Continuous
100
AcDbLine
 10
134.181531
 20
258.3158839999999
 30
0.0
 11
133.581531
 21
252.6158839999999
 31
0.0
  0
ARC
  5
BD18
330
BBFE
100
AcDbEntity
  8
1
  6
Continuous
100
AcDbCircle
 10
134.4815309999999
 20
258.3158839999999
 30
0.0
 40
0.3
100
AcDbArc
 50
0.0
 51
180.0
  0
LINE
  5
BD19
330
BBFE
100
AcDbEntity
  8
1
  6
Continuous
100
AcDbLine
 10
134.781531
 20
258.3158839999999
 30
0.0
 11
134.781531
 21
255.622067
 31
0.0
  0
LINE
  5
BD1A
330
BBFE
100
AcDbEntity
  8
1
  6
Continuous
100
AcDbLine
 10
134.749355
 20
255.3130509999999
 30
0.0
 11
134.181531
 21
252.6158839999999
 31
0.0
  0
ARC
  5
BD1B
330
BBFE
100
AcDbEntity
  8
1
  6
Continuous
100
AcDbCircle
 10
133.2815309999998
 20
255.622067
 30
0.0
 40
1.5
100
AcDbArc
 50
348.1113419999999
 51
0.0
  0
ARC
  5
BD1C
330
BBFE
100
AcDbEntity
  8
1
  6
Continuous
100
AcDbCircle
 10
133.8815309999999
 20
252.6158839999999
 30
0.0
 40
0.3
100
AcDbArc
 50
180.0
 51
0.0
  0
LINE
  5
BD1D
330
BBFE
100
AcDbEntity
  8
1
  6
Continuous
100
AcDbLine
 10
131.781531
 20
258.3158839999999
 30
0.0
 11
131.181531
 21
252.6158839999999
 31
0.0
  0
LINE
  5
BD1E
330
BBFE
100
AcDbEntity
  8
1
  6
Continuous
100
AcDbLine
 10
132.381531
 20
258.3158839999999
 30
0.0
 11
132.381531
 21
255.622067
 31
0.0
  0
ARC
  5
BD1F
330
BBFE
100
AcDbEntity
  8
1
  6
Continuous
100
AcDbCircle
 10
132.081531
 20
258.3158839999999
 30
0.0
 40
0.3
100
AcDbArc
 50
0.0
 51
180.0
  0
LINE
  5
BD20
330
BBFE
100
AcDbEntity
  8
1
  6
Continuous
100
AcDbLine
 10
132.349355
 20
255.3130509999999
 30
0.0
 11
131.781531
 21
252.6158839999999
 31
0.0
  0
ARC
  5
BD21
330
BBFE
100
AcDbEntity
  8
1
  6
Continuous
100
AcDbCircle
 10
130.8815309999999
 20
255.622067
 30
0.0
 40
1.5
100
AcDbArc
 50
348.1113419999999
 51
0.0
  0
ARC
  5
BD22
330
BBFE
100
AcDbEntity
  8
1
  6
Continuous
100
AcDbCircle
 10
131.4815309999999
 20
252.6158839999999
 30
0.0
 40
0.3
100
AcDbArc
 50
180.0
 51
0.0
  0
ARC
  5
BD23
330
BBFE
100
AcDbEntity
  8
1
  6
Continuous
100
AcDbCircle
 10
35.54407799999999
 20
158.40646
 30
0.0
 40
0.3
100
AcDbArc
 50
270.0
 51
90.0
  0
LINE
  5
BD24
330
BBFE
100
AcDbEntity
  8
1
  6
Continuous
100
AcDbLine
 10
32.98460099999999
 20
158.1064599999999
 30
0.0
 11
35.54407799999999
 21
158.1064599999999
 31
0.0
  0
LINE
  5
BD25
330
BBFE
100
AcDbEntity
  8
1
  6
Continuous
100
AcDbLine
 10
35.54407799999999
 20
158.7064599999999
 30
0.0
 11
29.84407800000001
 21
159.3064599999999
 31
0.0
  0
LINE
  5
BD26
330
BBFE
100
AcDbEntity
  8
1
  6
Continuous
100
AcDbLine
 10
29.84407800000001
 20
158.7064599999999
 30
0.0
 11
32.689631
 21
158.135748
 31
0.0
  0
ARC
  5
BD27
330
BBFE
100
AcDbEntity
  8
1
  6
Continuous
100
AcDbCircle
 10
29.84407800000001
 20
159.00646
 30
0.0
 40
0.3
100
AcDbArc
 50
90.0
 51
270.0
  0
LINE
  5
BD28
330
BBFE
100
AcDbEntity
  8
1
  6
Continuous
100
AcDbLine
 10
35.54407799999999
 20
156.3064599999999
 30
0.0
 11
29.84407800000001
 21
156.90646
 31
0.0
  0
LINE
  5
BD29
330
BBFE
100
AcDbEntity
  8
1
  6
Continuous
100
AcDbLine
 10
32.98460099999999
 20
155.7064599999999
 30
0.0
 11
35.54407799999999
 21
155.7064599999999
 31
0.0
  0
ARC
  5
BD2A
330
BBFE
100
AcDbEntity
  8
1
  6
Continuous
100
AcDbCircle
 10
35.54407799999999
 20
156.00646
 30
0.0
 40
0.3
100
AcDbArc
 50
270.0
 51
90.0
  0
LINE
  5
BD2B
330
BBFE
100
AcDbEntity
  8
1
  6
Continuous
100
AcDbLine
 10
29.84407800000001
 20
156.3064599999999
 30
0.0
 11
32.689631
 21
155.735748
 31
0.0
  0
ARC
  5
BD2C
330
BBFE
100
AcDbEntity
  8
1
  6
Continuous
100
AcDbCircle
 10
29.84407800000001
 20
156.6064599999999
 30
0.0
 40
0.3
100
AcDbArc
 50
90.0
 51
270.0
  0
ARC
  5
BD2D
330
BBFE
100
AcDbEntity
  8
1
  6
Continuous
100
AcDbCircle
 10
35.54407799999999
 20
153.60646
 30
0.0
 40
0.3
100
AcDbArc
 50
270.0
 51
90.0
  0
LINE
  5
BD2E
330
BBFE
100
AcDbEntity
  8
1
  6
Continuous
100
AcDbLine
 10
32.98460099999999
 20
153.3064599999999
 30
0.0
 11
35.54407799999999
 21
153.3064599999999
 31
0.0
  0
LINE
  5
BD2F
330
BBFE
100
AcDbEntity
  8
1
  6
Continuous
100
AcDbLine
 10
35.54407799999999
 20
153.90646
 30
0.0
 11
29.84407800000001
 21
154.50646
 31
0.0
  0
LINE
  5
BD30
330
BBFE
100
AcDbEntity
  8
1
  6
Continuous
100
AcDbLine
 10
29.84407800000001
 20
153.90646
 30
0.0
 11
32.689631
 21
153.335748
 31
0.0
  0
ARC
  5
BD31
330
BBFE
100
AcDbEntity
  8
1
  6
Continuous
100
AcDbCircle
 10
29.84407800000001
 20
154.2064599999999
 30
0.0
 40
0.3
100
AcDbArc
 50
90.0
 51
270.0
  0
ARC
  5
BD32
330
BBFE
100
AcDbEntity
  8
1
  6
Continuous
100
AcDbCircle
 10
35.54407799999999
 20
151.2064599999999
 30
0.0
 40
0.3
100
AcDbArc
 50
270.0
 51
90.0
  0
LINE
  5
BD33
330
BBFE
100
AcDbEntity
  8
1
  6
Continuous
100
AcDbLine
 10
32.98460099999999
 20
150.90646
 30
0.0
 11
35.54407799999999
 21
150.90646
 31
0.0
  0
LINE
  5
BD34
330
BBFE
100
AcDbEntity
  8
1
  6
Continuous
100
AcDbLine
 10
35.54407799999999
 20
151.50646
 30
0.0
 11
29.84407800000001
 21
152.10646
 31
0.0
  0
LINE
  5
BD35
330
BBFE
100
AcDbEntity
  8
1
  6
Continuous
100
AcDbLine
 10
29.84407800000001
 20
151.50646
 30
0.0
 11
32.689631
 21
150.935748
 31
0.0
  0
ARC
  5
BD36
330
BBFE
100
AcDbEntity
  8
1
  6
Continuous
100
AcDbCircle
 10
29.84407800000001
 20
151.8064599999999
 30
0.0
 40
0.3
100
AcDbArc
 50
90.0
 51
270.0
  0
LINE
  5
BD37
330
BBFE
100
AcDbEntity
  8
1
  6
Continuous
100
AcDbLine
 10
129.9815309999999
 20
258.3158839999999
 30
0.0
 11
129.9815309999999
 21
255.622067
 31
0.0
  0
ARC
  5
BD38
330
BBFE
100
AcDbEntity
  8
1
  6
Continuous
100
AcDbCircle
 10
129.681531
 20
258.3158839999999
 30
0.0
 40
0.3
100
AcDbArc
 50
0.0
 51
180.0
  0
LINE
  5
BD39
330
BBFE
100
AcDbEntity
  8
1
  6
Continuous
100
AcDbLine
 10
129.381531
 20
258.3158839999999
 30
0.0
 11
128.781531
 21
252.6158839999999
 31
0.0
  0
ARC
  5
BD3A
330
BBFE
100
AcDbEntity
  8
1
  6
Continuous
100
AcDbCircle
 10
128.4815309999999
 20
255.622067
 30
0.0
 40
1.5
100
AcDbArc
 50
348.1113419999999
 51
0.0
  0
LINE
  5
BD3B
330
BBFE
100
AcDbEntity
  8
1
  6
Continuous
100
AcDbLine
 10
129.949355
 20
255.3130509999999
 30
0.0
 11
129.381531
 21
252.6158839999999
 31
0.0
  0
ARC
  5
BD3C
330
BBFE
100
AcDbEntity
  8
1
  6
Continuous
100
AcDbCircle
 10
129.081531
 20
252.6158839999999
 30
0.0
 40
0.3
100
AcDbArc
 50
180.0
 51
0.0
  0
ARC
  5
BD3D
330
BBFE
100
AcDbEntity
  8
1
  6
Continuous
100
AcDbCircle
 10
127.281531
 20
258.3158839999999
 30
0.0
 40
0.3
100
AcDbArc
 50
0.0
 51
180.0
  0
LINE
  5
BD3E
330
BBFE
100
AcDbEntity
  8
1
  6
Continuous
100
AcDbLine
 10
127.581531
 20
258.3158839999999
 30
0.0
 11
127.581531
 21
255.622067
 31
0.0
  0
LINE
  5
BD3F
330
BBFE
100
AcDbEntity
  8
1
  6
Continuous
100
AcDbLine
 10
126.981531
 20
258.3158839999999
 30
0.0
 11
126.381531
 21
252.6158839999999
 31
0.0
  0
ARC
  5
BD40
330
BBFE
100
AcDbEntity
  8
1
  6
Continuous
100
AcDbCircle
 10
126.081531
 20
255.622067
 30
0.0
 40
1.5
100
AcDbArc
 50
348.1113419999999
 51
0.0
  0
LINE
  5
BD41
330
BBFE
100
AcDbEntity
  8
1
  6
Continuous
100
AcDbLine
 10
127.5493549999999
 20
255.3130509999999
 30
0.0
 11
126.981531
 21
252.6158839999999
 31
0.0
  0
ARC
  5
BD42
330
BBFE
100
AcDbEntity
  8
1
  6
Continuous
100
AcDbCircle
 10
126.681531
 20
252.6158839999999
 30
0.0
 40
0.3
100
AcDbArc
 50
180.0
 51
0.0
  0
LINE
  5
BD43
330
BBFE
100
AcDbEntity
  8
1
  6
Continuous
100
AcDbLine
 10
124.581531
 20
258.3158839999999
 30
0.0
 11
123.981531
 21
252.6158839999999
 31
0.0
  0
LINE
  5
BD44
330
BBFE
100
AcDbEntity
  8
1
  6
Continuous
100
AcDbLine
 10
125.181531
 20
258.3158839999999
 30
0.0
 11
125.181531
 21
255.622067
 31
0.0
  0
ARC
  5
BD45
330
BBFE
100
AcDbEntity
  8
1
  6
Continuous
100
AcDbCircle
 10
124.881531
 20
258.3158839999999
 30
0.0
 40
0.3
100
AcDbArc
 50
0.0
 51
180.0
  0
LINE
  5
BD46
330
BBFE
100
AcDbEntity
  8
1
  6
Continuous
100
AcDbLine
 10
125.1493549999999
 20
255.3130509999999
 30
0.0
 11
124.581531
 21
252.6158839999999
 31
0.0
  0
ARC
  5
BD47
330
BBFE
100
AcDbEntity
  8
1
  6
Continuous
100
AcDbCircle
 10
123.681531
 20
255.622067
 30
0.0
 40
1.5
100
AcDbArc
 50
348.1113419999999
 51
0.0
  0
ARC
  5
BD48
330
BBFE
100
AcDbEntity
  8
1
  6
Continuous
100
AcDbCircle
 10
124.281531
 20
252.6158839999999
 30
0.0
 40
0.3
100
AcDbArc
 50
180.0
 51
0.0
  0
LINE
  5
BD49
330
BBFE
100
AcDbEntity
  8
1
  6
Continuous
100
AcDbLine
 10
122.1815309999998
 20
258.3158839999999
 30
0.0
 11
121.581531
 21
252.6158839999999
 31
0.0
  0
LINE
  5
BD4A
330
BBFE
100
AcDbEntity
  8
1
  6
Continuous
100
AcDbLine
 10
122.7815309999999
 20
258.3158839999999
 30
0.0
 11
122.7815309999999
 21
255.622067
 31
0.0
  0
ARC
  5
BD4B
330
BBFE
100
AcDbEntity
  8
1
  6
Continuous
100
AcDbCircle
 10
122.481531
 20
258.3158839999999
 30
0.0
 40
0.3
100
AcDbArc
 50
0.0
 51
180.0
  0
LINE
  5
BD4C
330
BBFE
100
AcDbEntity
  8
1
  6
Continuous
100
AcDbLine
 10
122.7493549999999
 20
255.3130509999999
 30
0.0
 11
122.1815309999998
 21
252.6158839999999
 31
0.0
  0
ARC
  5
BD4D
330
BBFE
100
AcDbEntity
  8
1
  6
Continuous
100
AcDbCircle
 10
121.281531
 20
255.622067
 30
0.0
 40
1.5
100
AcDbArc
 50
348.1113419999999
 51
0.0
  0
ARC
  5
BD4E
330
BBFE
100
AcDbEntity
  8
1
  6
Continuous
100
AcDbCircle
 10
121.881531
 20
252.6158839999999
 30
0.0
 40
0.3
100
AcDbArc
 50
180.0
 51
0.0
  0
LINE
  5
BD4F
330
BBFE
100
AcDbEntity
  8
1
  6
Continuous
100
AcDbLine
 10
120.381531
 20
258.3158839999999
 30
0.0
 11
120.381531
 21
255.622067
 31
0.0
  0
ARC
  5
BD50
330
BBFE
100
AcDbEntity
  8
1
  6
Continuous
100
AcDbCircle
 10
120.081531
 20
258.3158839999999
 30
0.0
 40
0.3
100
AcDbArc
 50
0.0
 51
180.0
  0
LINE
  5
BD51
330
BBFE
100
AcDbEntity
  8
1
  6
Continuous
100
AcDbLine
 10
119.7815309999999
 20
258.3158839999999
 30
0.0
 11
119.181531
 21
252.6158839999999
 31
0.0
  0
LINE
  5
BD52
330
BBFE
100
AcDbEntity
  8
1
  6
Continuous
100
AcDbLine
 10
120.349355
 20
255.3130509999999
 30
0.0
 11
119.7815309999999
 21
252.6158839999999
 31
0.0
  0
ARC
  5
BD53
330
BBFE
100
AcDbEntity
  8
1
  6
Continuous
100
AcDbCircle
 10
118.881531
 20
255.622067
 30
0.0
 40
1.5
100
AcDbArc
 50
348.1113419999999
 51
0.0
  0
ARC
  5
BD54
330
BBFE
100
AcDbEntity
  8
1
  6
Continuous
100
AcDbCircle
 10
119.481531
 20
252.6158839999999
 30
0.0
 40
0.3
100
AcDbArc
 50
180.0
 51
0.0
  0
LINE
  5
BD55
330
BBFE
100
AcDbEntity
  8
1
  6
Continuous
100
AcDbLine
 10
117.381531
 20
258.3158839999999
 30
0.0
 11
116.7815309999999
 21
252.6158839999999
 31
0.0
  0
ARC
  5
BD56
330
BBFE
100
AcDbEntity
  8
1
  6
Continuous
100
AcDbCircle
 10
117.681531
 20
258.3158839999999
 30
0.0
 40
0.3
100
AcDbArc
 50
0.0
 51
180.0
  0
LINE
  5
BD57
330
BBFE
100
AcDbEntity
  8
1
  6
Continuous
100
AcDbLine
 10
117.981531
 20
258.3158839999999
 30
0.0
 11
117.981531
 21
255.622067
 31
0.0
  0
ARC
  5
BD58
330
BBFE
100
AcDbEntity
  8
1
  6
Continuous
100
AcDbCircle
 10
116.481531
 20
255.622067
 30
0.0
 40
1.5
100
AcDbArc
 50
348.1113419999999
 51
0.0
  0
LINE
  5
BD59
330
BBFE
100
AcDbEntity
  8
1
  6
Continuous
100
AcDbLine
 10
117.949355
 20
255.3130509999999
 30
0.0
 11
117.381531
 21
252.6158839999999
 31
0.0
  0
ARC
  5
BD5A
330
BBFE
100
AcDbEntity
  8
1
  6
Continuous
100
AcDbCircle
 10
117.081531
 20
252.6158839999999
 30
0.0
 40
0.3
100
AcDbArc
 50
180.0
 51
0.0
  0
LINE
  5
BD5B
330
BBFE
100
AcDbEntity
  8
1
  6
Continuous
100
AcDbLine
 10
114.981531
 20
258.3158839999999
 30
0.0
 11
114.381531
 21
252.6158839999999
 31
0.0
  0
ARC
  5
BD5C
330
BBFE
100
AcDbEntity
  8
1
  6
Continuous
100
AcDbCircle
 10
115.281531
 20
258.3158839999999
 30
0.0
 40
0.3
100
AcDbArc
 50
0.0
 51
180.0
  0
LINE
  5
BD5D
330
BBFE
100
AcDbEntity
  8
1
  6
Continuous
100
AcDbLine
 10
115.581531
 20
258.3158839999999
 30
0.0
 11
115.581531
 21
255.622067
 31
0.0
  0
ARC
  5
BD5E
330
BBFE
100
AcDbEntity
  8
1
  6
Continuous
100
AcDbCircle
 10
114.081531
 20
255.622067
 30
0.0
 40
1.5
100
AcDbArc
 50
348.1113419999999
 51
0.0
  0
LINE
  5
BD5F
330
BBFE
100
AcDbEntity
  8
1
  6
Continuous
100
AcDbLine
 10
115.549355
 20
255.3130509999999
 30
0.0
 11
114.981531
 21
252.6158839999999
 31
0.0
  0
ARC
  5
BD60
330
BBFE
100
AcDbEntity
  8
1
  6
Continuous
100
AcDbCircle
 10
114.681531
 20
252.6158839999999
 30
0.0
 40
0.3
100
AcDbArc
 50
180.0
 51
0.0
  0
ARC
  5
BD61
330
BBFE
100
AcDbEntity
  8
1
  6
Continuous
100
AcDbCircle
 10
109.881531
 20
252.6158839999999
 30
0.0
 40
0.3
100
AcDbArc
 50
180.0
 51
0.0
  0
LINE
  5
BD62
330
BBFE
100
AcDbEntity
  8
1
  6
Continuous
100
AcDbLine
 10
110.749355
 20
255.3130509999999
 30
0.0
 11
110.181531
 21
252.6158839999999
 31
0.0
  0
ARC
  5
BD63
330
BBFE
100
AcDbEntity
  8
1
  6
Continuous
100
AcDbCircle
 10
109.2815309999999
 20
255.622067
 30
0.0
 40
1.5
100
AcDbArc
 50
348.1113419999999
 51
0.0
  0
LINE
  5
BD64
330
BBFE
100
AcDbEntity
  8
1
  6
Continuous
100
AcDbLine
 10
110.181531
 20
258.3158839999999
 30
0.0
 11
109.581531
 21
252.6158839999999
 31
0.0
  0
LINE
  5
BD65
330
BBFE
100
AcDbEntity
  8
1
  6
Continuous
100
AcDbLine
 10
110.781531
 20
258.3158839999999
 30
0.0
 11
110.781531
 21
255.622067
 31
0.0
  0
ARC
  5
BD66
330
BBFE
100
AcDbEntity
  8
1
  6
Continuous
100
AcDbCircle
 10
110.4815309999999
 20
258.3158839999999
 30
0.0
 40
0.3
100
AcDbArc
 50
0.0
 51
180.0
  0
ARC
  5
BD67
330
BBFE
100
AcDbEntity
  8
1
  6
Continuous
100
AcDbCircle
 10
112.281531
 20
252.6158839999999
 30
0.0
 40
0.3
100
AcDbArc
 50
180.0
 51
0.0
  0
LINE
  5
BD68
330
BBFE
100
AcDbEntity
  8
1
  6
Continuous
100
AcDbLine
 10
113.149355
 20
255.3130509999999
 30
0.0
 11
112.581531
 21
252.6158839999999
 31
0.0
  0
ARC
  5
BD69
330
BBFE
100
AcDbEntity
  8
1
  6
Continuous
100
AcDbCircle
 10
111.681531
 20
255.622067
 30
0.0
 40
1.5
100
AcDbArc
 50
348.1113419999999
 51
0.0
  0
LINE
  5
BD6A
330
BBFE
100
AcDbEntity
  8
1
  6
Continuous
100
AcDbLine
 10
112.581531
 20
258.3158839999999
 30
0.0
 11
111.981531
 21
252.6158839999999
 31
0.0
  0
LINE
  5
BD6B
330
BBFE
100
AcDbEntity
  8
1
  6
Continuous
100
AcDbLine
 10
113.181531
 20
258.3158839999999
 30
0.0
 11
113.181531
 21
255.622067
 31
0.0
  0
ARC
  5
BD6C
330
BBFE
100
AcDbEntity
  8
1
  6
Continuous
100
AcDbCircle
 10
112.881531
 20
258.3158839999999
 30
0.0
 40
0.3
100
AcDbArc
 50
0.0
 51
180.0
  0
LINE
  5
BD6D
330
BBFE
100
AcDbEntity
  8
1
  6
Continuous
100
AcDbLine
 10
107.781531
 20
258.3158839999999
 30
0.0
 11
107.181531
 21
252.6158839999999
 31
0.0
  0
ARC
  5
BD6E
330
BBFE
100
AcDbEntity
  8
1
  6
Continuous
100
AcDbCircle
 10
106.881531
 20
255.622067
 30
0.0
 40
1.5
100
AcDbArc
 50
348.1113419999999
 51
0.0
  0
LINE
  5
BD6F
330
BBFE
100
AcDbEntity
  8
1
  6
Continuous
100
AcDbLine
 10
108.349355
 20
255.3130509999999
 30
0.0
 11
107.781531
 21
252.6158839999999
 31
0.0
  0
ARC
  5
BD70
330
BBFE
100
AcDbEntity
  8
1
  6
Continuous
100
AcDbCircle
 10
107.4815309999999
 20
252.6158839999999
 30
0.0
 40
0.3
100
AcDbArc
 50
180.0
 51
0.0
  0
LINE
  5
BD71
330
BBFE
100
AcDbEntity
  8
1
  6
Continuous
100
AcDbLine
 10
108.381531
 20
258.3158839999999
 30
0.0
 11
108.381531
 21
255.622067
 31
0.0
  0
ARC
  5
BD72
330
BBFE
100
AcDbEntity
  8
1
  6
Continuous
100
AcDbCircle
 10
108.081531
 20
258.3158839999999
 30
0.0
 40
0.3
100
AcDbArc
 50
0.0
 51
180.0
  0
LINE
  5
BD73
330
BBFE
100
AcDbEntity
  8
1
  6
Continuous
100
AcDbLine
 10
32.98460099999999
 20
195.406973
 30
0.0
 11
35.826921
 21
195.406973
 31
0.0
  0
LINE
  5
BD74
330
BBFE
100
AcDbEntity
  8
1
  6
Continuous
100
AcDbLine
 10
29.546281
 20
196.070683
 30
0.0
 11
32.69408
 21
195.439352
 31
0.0
  0
LINE
  5
BD75
330
BBFE
100
AcDbEntity
  8
1
  6
Continuous
100
AcDbLine
 10
32.69407799999999
 20
195.439353
 30
0.0
 11
32.98460099999999
 21
195.406973
 31
0.0
  0
ARC
  5
BD76
330
BBFE
100
AcDbEntity
  8
1
  6
Continuous
100
AcDbCircle
 10
35.54407799999999
 20
196.4815879999999
 30
0.0
 40
0.3
100
AcDbArc
 50
340.528779
 51
90.0
  0
LINE
  5
BD77
330
BBFE
100
AcDbEntity
  8
1
  6
Continuous
100
AcDbLine
 10
32.98460099999999
 20
196.381588
 30
0.0
 11
35.826921
 21
196.381588
 31
0.0
  0
LINE
  5
BD78
330
BBFE
100
AcDbEntity
  8
1
  6
Continuous
100
AcDbLine
 10
35.54407799999999
 20
196.781588
 30
0.0
 11
29.84407800000001
 21
197.381588
 31
0.0
  0
ARC
  5
BD79
330
BBFE
100
AcDbEntity
  8
1
  6
Continuous
100
AcDbCircle
 10
29.84407800000001
 20
197.0815879999999
 30
0.0
 40
0.3
100
AcDbArc
 50
90.0
 51
186.947931
  0
LINE
  5
BD7A
330
BBFE
100
AcDbEntity
  8
1
  6
Continuous
100
AcDbLine
 10
29.546281
 20
197.045298
 30
0.0
 11
32.69406899999999
 21
196.4139689999999
 31
0.0
  0
LINE
  5
BD7B
330
BBFE
100
AcDbEntity
  8
1
  6
Continuous
100
AcDbLine
 10
32.69406899999999
 20
196.4139689999999
 30
0.0
 11
32.98460099999999
 21
196.381588
 31
0.0
  0
ARC
  5
BD7C
330
BBFE
100
AcDbEntity
  8
1
  6
Continuous
100
AcDbCircle
 10
35.54407799999999
 20
194.282456
 30
0.0
 40
0.3
100
AcDbArc
 50
340.528779
 51
90.0
  0
LINE
  5
BD7D
330
BBFE
100
AcDbEntity
  8
1
  6
Continuous
100
AcDbLine
 10
32.98460099999999
 20
194.182456
 30
0.0
 11
35.826921
 21
194.182456
 31
0.0
  0
LINE
  5
BD7E
330
BBFE
100
AcDbEntity
  8
1
  6
Continuous
100
AcDbLine
 10
35.54407799999999
 20
194.582456
 30
0.0
 11
29.84407800000001
 21
195.182456
 31
0.0
  0
LINE
  5
BD7F
330
BBFE
100
AcDbEntity
  8
1
  6
Continuous
100
AcDbLine
 10
32.69407799999999
 20
194.214835
 30
0.0
 11
32.98460099999999
 21
194.182456
 31
0.0
  0
LINE
  5
BD80
330
BBFE
100
AcDbEntity
  8
1
  6
Continuous
100
AcDbLine
 10
29.546281
 20
194.8461659999999
 30
0.0
 11
32.69408
 21
194.2148339999999
 31
0.0
  0
ARC
  5
BD81
330
BBFE
100
AcDbEntity
  8
1
  6
Continuous
100
AcDbCircle
 10
29.84407800000001
 20
194.882456
 30
0.0
 40
0.3
100
AcDbArc
 50
90.0
 51
186.947931
  0
LINE
  5
BD82
330
BBFE
100
AcDbEntity
  8
1
  6
Continuous
100
AcDbLine
 10
32.98460099999999
 20
192.657074
 30
0.0
 11
35.767685
 21
192.657074
 31
0.0
  0
LINE
  5
BD83
330
BBFE
100
AcDbEntity
  8
1
  6
Continuous
100
AcDbLine
 10
29.58165499999999
 20
193.311697
 30
0.0
 11
32.709296
 21
192.6844089999999
 31
0.0
  0
LINE
  5
BD84
330
BBFE
100
AcDbEntity
  8
1
  6
Continuous
100
AcDbLine
 10
32.69407799999999
 20
192.687462
 30
0.0
 11
32.98460099999999
 21
192.657074
 31
0.0
  0
ARC
  5
BD85
330
BBFE
100
AcDbEntity
  8
1
  6
Continuous
100
AcDbCircle
 10
35.54407799999999
 20
191.432636
 30
0.0
 40
0.3
100
AcDbArc
 50
318.189685
 51
90.0
  0
LINE
  5
BD86
330
BBFE
100
AcDbEntity
  8
1
  6
Continuous
100
AcDbLine
 10
32.98460099999999
 20
191.232636
 30
0.0
 11
35.767685
 21
191.232636
 31
0.0
  0
LINE
  5
BD87
330
BBFE
100
AcDbEntity
  8
1
  6
Continuous
100
AcDbLine
 10
35.54407799999999
 20
191.732636
 30
0.0
 11
29.84407800000001
 21
192.332636
 31
0.0
  0
ARC
  5
BD88
330
BBFE
100
AcDbEntity
  8
1
  6
Continuous
100
AcDbCircle
 10
29.84407800000001
 20
192.0326359999999
 30
0.0
 40
0.3
100
AcDbArc
 50
90.0
 51
208.985474
  0
LINE
  5
BD89
330
BBFE
100
AcDbEntity
  8
1
  6
Continuous
100
AcDbLine
 10
29.58165499999999
 20
191.887259
 30
0.0
 11
32.709296
 21
191.259972
 31
0.0
  0
LINE
  5
BD8A
330
BBFE
100
AcDbEntity
  8
1
  6
Continuous
100
AcDbLine
 10
32.69407799999999
 20
191.263024
 30
0.0
 11
32.98460099999999
 21
191.232636
 31
0.0
  0
LINE
  5
BD8B
330
BBFE
100
AcDbEntity
  8
1
  6
Continuous
100
AcDbLine
 10
35.54407799999999
 20
190.206342
 30
0.0
 11
29.84407800000001
 21
190.8063419999998
 31
0.0
  0
LINE
  5
BD8C
330
BBFE
100
AcDbEntity
  8
1
  6
Continuous
100
AcDbLine
 10
32.98460099999999
 20
189.6063419999999
 30
0.0
 11
35.54407799999999
 21
189.6063419999999
 31
0.0
  0
ARC
  5
BD8D
330
BBFE
100
AcDbEntity
  8
1
  6
Continuous
100
AcDbCircle
 10
35.54407799999999
 20
189.906342
 30
0.0
 40
0.3
100
AcDbArc
 50
270.0
 51
90.0
  0
ARC
  5
BD8E
330
BBFE
100
AcDbEntity
  8
1
  6
Continuous
100
AcDbCircle
 10
29.84407800000001
 20
190.5063419999999
 30
0.0
 40
0.3
100
AcDbArc
 50
90.0
 51
270.0
  0
LINE
  5
BD8F
330
BBFE
100
AcDbEntity
  8
1
  6
Continuous
100
AcDbLine
 10
29.84407800000001
 20
190.206342
 30
0.0
 11
32.689631
 21
189.6356299999999
 31
0.0
  0
LINE
  5
BD90
330
BBFE
100
AcDbEntity
  8
1
  6
Continuous
100
AcDbLine
 10
32.689631
 20
189.6356299999999
 30
0.0
 11
32.98460099999999
 21
189.6063419999999
 31
0.0
  0
LINE
  5
BD91
330
BBFE
100
AcDbEntity
  8
1
  6
Continuous
100
AcDbLine
 10
32.689631
 20
186.1360639999998
 30
0.0
 11
32.98460099999999
 21
186.106776
 31
0.0
  0
LINE
  5
BD92
330
BBFE
100
AcDbEntity
  8
1
  6
Continuous
100
AcDbLine
 10
32.689631
 20
179.735748
 30
0.0
 11
32.98460099999999
 21
179.7064599999999
 31
0.0
  0
LINE
  5
BD93
330
BBFE
100
AcDbEntity
  8
1
  6
Continuous
100
AcDbLine
 10
32.689631
 20
177.335748
 30
0.0
 11
32.98460099999999
 21
177.3064599999999
 31
0.0
  0
LINE
  5
BD94
330
BBFE
100
AcDbEntity
  8
1
  6
Continuous
100
AcDbLine
 10
32.689631
 20
174.935748
 30
0.0
 11
32.98460099999999
 21
174.90646
 31
0.0
  0
LINE
  5
BD95
330
BBFE
100
AcDbEntity
  8
1
  6
Continuous
100
AcDbLine
 10
32.689631
 20
172.535748
 30
0.0
 11
32.98460099999999
 21
172.50646
 31
0.0
  0
LINE
  5
BD96
330
BBFE
100
AcDbEntity
  8
1
  6
Continuous
100
AcDbLine
 10
32.689631
 20
170.135748
 30
0.0
 11
32.98460099999999
 21
170.10646
 31
0.0
  0
LINE
  5
BD97
330
BBFE
100
AcDbEntity
  8
1
  6
Continuous
100
AcDbLine
 10
32.689631
 20
167.7357479999998
 30
0.0
 11
32.98460099999999
 21
167.70646
 31
0.0
  0
LINE
  5
BD98
330
BBFE
100
AcDbEntity
  8
1
  6
Continuous
100
AcDbLine
 10
32.689631
 20
165.3357479999999
 30
0.0
 11
32.98460099999999
 21
165.3064599999999
 31
0.0
  0
LINE
  5
BD99
330
BBFE
100
AcDbEntity
  8
1
  6
Continuous
100
AcDbLine
 10
32.689631
 20
158.135748
 30
0.0
 11
32.98460099999999
 21
158.1064599999999
 31
0.0
  0
LINE
  5
BD9A
330
BBFE
100
AcDbEntity
  8
1
  6
Continuous
100
AcDbLine
 10
32.689631
 20
155.735748
 30
0.0
 11
32.98460099999999
 21
155.7064599999999
 31
0.0
  0
LINE
  5
BD9B
330
BBFE
100
AcDbEntity
  8
1
  6
Continuous
100
AcDbLine
 10
32.689631
 20
153.335748
 30
0.0
 11
32.98460099999999
 21
153.3064599999999
 31
0.0
  0
LINE
  5
BD9C
330
BBFE
100
AcDbEntity
  8
1
  6
Continuous
100
AcDbLine
 10
32.689631
 20
150.935748
 30
0.0
 11
32.98460099999999
 21
150.90646
 31
0.0
  0
ARC
  5
BD9D
330
BBFE
100
AcDbEntity
  8
1
  6
Continuous
100
AcDbCircle
 10
266.9233109999999
 20
196.4428659999999
 30
0.0
 40
0.3
100
AcDbArc
 50
90.0
 51
270.0
  0
LINE
  5
BD9E
330
BBFE
100
AcDbEntity
  8
1
  6
Continuous
100
AcDbLine
 10
272.6233109999999
 20
196.1428659999999
 30
0.0
 11
271.238561
 21
196.4205959999999
 31
0.0
  0
LINE
  5
BD9F
330
BBFE
100
AcDbEntity
  8
1
  6
Continuous
100
AcDbLine
 10
269.4827869999999
 20
195.1434979999999
 30
0.0
 11
266.9233109999999
 21
195.1434979999999
 31
0.0
  0
LINE
  5
BDA0
330
BBFE
100
AcDbEntity
  8
1
  6
Continuous
100
AcDbLine
 10
266.9233109999999
 20
194.543498
 30
0.0
 11
272.6233109999999
 21
193.943498
 31
0.0
  0
LINE
  5
BDA1
330
BBFE
100
AcDbEntity
  8
1
  6
Continuous
100
AcDbLine
 10
266.9233109999999
 20
193.017204
 30
0.0
 11
272.6233109999999
 21
192.417204
 31
0.0
  0
LINE
  5
BDA2
330
BBFE
100
AcDbEntity
  8
1
  6
Continuous
100
AcDbLine
 10
269.4827869999999
 20
193.5172039999999
 30
0.0
 11
266.699704
 21
193.5172039999999
 31
0.0
  0
LINE
  5
BDA3
330
BBFE
100
AcDbEntity
  8
1
  6
Continuous
100
AcDbLine
 10
266.9233109999999
 20
196.1428659999999
 30
0.0
 11
272.6233109999999
 21
195.542866
 31
0.0
  0
ARC
  5
BDA4
330
BBFE
100
AcDbEntity
  8
1
  6
Continuous
100
AcDbCircle
 10
266.9233109999999
 20
194.843498
 30
0.0
 40
0.3
100
AcDbArc
 50
90.0
 51
270.0
  0
ARC
  5
BDA5
330
BBFE
100
AcDbEntity
  8
1
  6
Continuous
100
AcDbCircle
 10
266.9233109999999
 20
193.317204
 30
0.0
 40
0.3
100
AcDbArc
 50
138.1896849999999
 51
270.0
  0
LINE
  5
BDA6
330
BBFE
100
AcDbEntity
  8
1
  6
Continuous
100
AcDbLine
 10
269.7777569999999
 20
195.11421
 30
0.0
 11
269.4827869999999
 21
195.1434979999999
 31
0.0
  0
LINE
  5
BDA7
330
BBFE
100
AcDbEntity
  8
1
  6
Continuous
100
AcDbLine
 10
269.7733109999999
 20
193.486816
 30
0.0
 11
269.4827869999999
 21
193.5172039999999
 31
0.0
  0
LINE
  5
BDA8
330
BBFE
100
AcDbEntity
  8
1
  6
Continuous
100
AcDbLine
 10
272.6233109999999
 20
194.543498
 30
0.0
 11
269.7777569999999
 21
195.11421
 31
0.0
  0
ARC
  5
BDA9
330
BBFE
100
AcDbEntity
  8
1
  6
Continuous
100
AcDbCircle
 10
272.6233109999999
 20
194.2434979999999
 30
0.0
 40
0.3
100
AcDbArc
 50
270.0
 51
90.0
  0
LINE
  5
BDAA
330
BBFE
100
AcDbEntity
  8
1
  6
Continuous
100
AcDbLine
 10
272.885733
 20
192.86258
 30
0.0
 11
269.7580919999999
 21
193.489868
 31
0.0
  0
ARC
  5
BDAB
330
BBFE
100
AcDbEntity
  8
1
  6
Continuous
100
AcDbCircle
 10
272.6233109999999
 20
192.717204
 30
0.0
 40
0.3
100
AcDbArc
 50
270.0
 51
28.98547399999999
  0
ARC
  5
BDAC
330
BBFE
100
AcDbEntity
  8
1
  6
Continuous
100
AcDbCircle
 10
272.6233109999999
 20
195.8428659999999
 30
0.0
 40
0.3
100
AcDbArc
 50
270.0
 51
90.0
  0
LINE
  5
BDAD
330
BBFE
100
AcDbEntity
  8
1
  6
Continuous
100
AcDbLine
 10
267.5944329999999
 20
196.7428659999999
 30
0.0
 11
266.9233109999999
 21
196.7428659999999
 31
0.0
  0
LINE
  5
BDAE
330
BBFE
100
AcDbEntity
  8
1
  6
Continuous
100
AcDbLine
 10
263.35
 20
191.8194569999998
 30
0.0
 11
265.032442
 21
190.978236
 31
0.0
  0
LINE
  5
BDAF
330
BBFE
100
AcDbEntity
  8
1
  6
Continuous
100
AcDbLine
 10
265.6965859999999
 20
190.896477
 30
0.0
 11
269.6330699999999
 21
191.771251
 31
0.0
  0
LINE
  5
BDB0
330
BBFE
100
AcDbEntity
  8
1
  6
Continuous
100
AcDbLine
 10
270.0669299999999
 20
191.771251
 30
0.0
 11
274.003414
 21
190.896477
 31
0.0
  0
LINE
  5
BDB1
330
BBFE
100
AcDbEntity
  8
1
  6
Continuous
100
AcDbLine
 10
274.6675579999998
 20
190.978236
 30
0.0
 11
276.35
 21
191.8194569999998
 31
0.0
  0
LINE
  5
BDB2
330
BBFE
100
AcDbEntity
  8
1
  6
Continuous
100
AcDbLine
 10
276.35
 20
191.1447369999999
 30
0.0
 11
274.6675579999998
 21
190.3035159999998
 31
0.0
  0
LINE
  5
BDB3
330
BBFE
100
AcDbEntity
  8
1
  6
Continuous
100
AcDbLine
 10
274.003414
 20
190.221756
 30
0.0
 11
270.0669299999999
 21
191.0965299999998
 31
0.0
  0
LINE
  5
BDB4
330
BBFE
100
AcDbEntity
  8
1
  6
Continuous
100
AcDbLine
 10
269.6330699999999
 20
191.0965299999998
 30
0.0
 11
265.6965859999999
 21
190.221756
 31
0.0
  0
LINE
  5
BDB5
330
BBFE
100
AcDbEntity
  8
1
  6
Continuous
100
AcDbLine
 10
265.032442
 20
190.3035159999998
 30
0.0
 11
263.35
 21
191.1447369999999
 31
0.0
  0
ARC
  5
BDB6
330
BBFE
100
AcDbEntity
  8
1
  6
Continuous
100
AcDbCircle
 10
274.220344
 20
191.1979429999999
 30
0.0
 40
1.0
100
AcDbArc
 50
257.4711919999999
 51
296.5650509999999
  0
ARC
  5
BDB7
330
BBFE
100
AcDbEntity
  8
1
  6
Continuous
100
AcDbCircle
 10
274.220344
 20
191.8726639999999
 30
0.0
 40
1.0
100
AcDbArc
 50
257.4711919999999
 51
296.5650509999999
  0
ARC
  5
BDB8
330
BBFE
100
AcDbEntity
  8
1
  6
Continuous
100
AcDbCircle
 10
269.85
 20
190.7950639999999
 30
0.0
 40
1.0
100
AcDbArc
 50
77.471192
 51
102.5288079999999
  0
ARC
  5
BDB9
330
BBFE
100
AcDbEntity
  8
1
  6
Continuous
100
AcDbCircle
 10
269.85
 20
190.1203429999999
 30
0.0
 40
1.0
100
AcDbArc
 50
77.471192
 51
102.5288079999999
  0
ARC
  5
BDBA
330
BBFE
100
AcDbEntity
  8
1
  6
Continuous
100
AcDbCircle
 10
265.4796559999999
 20
191.1979429999999
 30
0.0
 40
1.0
100
AcDbArc
 50
243.4349489999999
 51
282.528808
  0
ARC
  5
BDBB
330
BBFE
100
AcDbEntity
  8
1
  6
Continuous
100
AcDbCircle
 10
265.4796559999999
 20
191.8726639999999
 30
0.0
 40
1.0
100
AcDbArc
 50
243.4349489999999
 51
282.528808
  0
LINE
  5
BDBC
330
BBFE
100
AcDbEntity
  8
1
  6
Continuous
100
AcDbLine
 10
272.0256989999999
 20
196.7056849999999
 30
0.0
 11
272.751306
 21
196.6293049999999
 31
0.0
  0
ARC
  5
BDBD
330
BBFE
100
AcDbEntity
  8
1
  6
Continuous
100
AcDbCircle
 10
272.751306
 20
196.929305
 30
0.0
 40
0.3
100
AcDbArc
 50
270.0
 51
63.87745699999999
  0
LINE
  5
BDBE
330
BBFE
100
AcDbEntity
  8
1
  6
Continuous
100
AcDbLine
 10
178.023884
 20
261.9836
 30
0.0
 11
178.865105
 21
260.3011579999998
 31
0.0
  0
LINE
  5
BDBF
330
BBFE
100
AcDbEntity
  8
1
  6
Continuous
100
AcDbLine
 10
178.946865
 20
259.637014
 30
0.0
 11
178.023884
 21
255.4835999999998
 31
0.0
  0
LINE
  5
BDC0
330
BBFE
100
AcDbEntity
  8
1
  6
Continuous
100
AcDbLine
 10
178.023884
 20
255.4835999999998
 30
0.0
 11
178.946865
 21
251.3301859999998
 31
0.0
  0
LINE
  5
BDC1
330
BBFE
100
AcDbEntity
  8
1
  6
Continuous
100
AcDbLine
 10
178.865105
 20
250.666042
 30
0.0
 11
178.023884
 21
248.9835999999999
 31
0.0
  0
ARC
  5
BDC2
330
BBFE
100
AcDbEntity
  8
1
  6
Continuous
100
AcDbCircle
 10
177.9706779999999
 20
259.853944
 30
0.0
 40
1.0
100
AcDbArc
 50
347.4711919999998
 51
26.565051
  0
ARC
  5
BDC3
330
BBFE
100
AcDbEntity
  8
1
  6
Continuous
100
AcDbCircle
 10
177.9706779999999
 20
251.113256
 30
0.0
 40
1.0
100
AcDbArc
 50
333.434949
 51
12.52880799999999
  0
LINE
  5
BDC4
330
BBFE
100
AcDbEntity
  8
1
  6
Continuous
100
AcDbLine
 10
173.591483
 20
258.448617
 30
0.0
 11
172.991483
 21
252.7486169999999
 31
0.0
  0
LINE
  5
BDC5
330
BBFE
100
AcDbEntity
  8
1
  6
Continuous
100
AcDbLine
 10
175.9914829999999
 20
258.448617
 30
0.0
 11
175.391483
 21
252.7486169999999
 31
0.0
  0
ARC
  5
BDC6
330
BBFE
100
AcDbEntity
  8
1
  6
Continuous
100
AcDbCircle
 10
173.8914829999999
 20
258.448617
 30
0.0
 40
0.3
100
AcDbArc
 50
0.0
 51
180.0
  0
LINE
  5
BDC7
330
BBFE
100
AcDbEntity
  8
1
  6
Continuous
100
AcDbLine
 10
174.1914829999998
 20
258.448617
 30
0.0
 11
174.1914829999998
 21
255.7548
 31
0.0
  0
ARC
  5
BDC8
330
BBFE
100
AcDbEntity
  8
1
  6
Continuous
100
AcDbCircle
 10
176.2914829999998
 20
258.448617
 30
0.0
 40
0.3
100
AcDbArc
 50
0.0
 51
180.0
  0
LINE
  5
BDC9
330
BBFE
100
AcDbEntity
  8
1
  6
Continuous
100
AcDbLine
 10
176.591483
 20
258.448617
 30
0.0
 11
176.591483
 21
255.7548
 31
0.0
  0
LINE
  5
BDCA
330
BBFE
100
AcDbEntity
  8
1
  6
Continuous
100
AcDbLine
 10
174.159307
 20
255.4457839999999
 30
0.0
 11
173.591483
 21
252.7486169999999
 31
0.0
  0
LINE
  5
BDCB
330
BBFE
100
AcDbEntity
  8
1
  6
Continuous
100
AcDbLine
 10
176.5593069999999
 20
255.4457839999999
 30
0.0
 11
175.9914829999999
 21
252.7486169999999
 31
0.0
  0
ARC
  5
BDCC
330
BBFE
100
AcDbEntity
  8
1
  6
Continuous
100
AcDbCircle
 10
173.291483
 20
252.7486169999999
 30
0.0
 40
0.3
100
AcDbArc
 50
180.0
 51
0.0
  0
ARC
  5
BDCD
330
BBFE
100
AcDbEntity
  8
1
  6
Continuous
100
AcDbCircle
 10
175.691483
 20
252.7486169999999
 30
0.0
 40
0.3
100
AcDbArc
 50
180.0
 51
0.0
  0
ARC
  5
BDCE
330
BBFE
100
AcDbEntity
  8
1
  6
Continuous
100
AcDbCircle
 10
172.691483
 20
255.7548
 30
0.0
 40
1.5
100
AcDbArc
 50
348.1113419999999
 51
0.0
  0
ARC
  5
BDCF
330
BBFE
100
AcDbEntity
  8
1
  6
Continuous
100
AcDbCircle
 10
175.091483
 20
255.7548
 30
0.0
 40
1.5
100
AcDbArc
 50
348.1113419999999
 51
0.0
  0
LINE
  5
BDD0
330
BBFE
100
AcDbEntity
  8
1
  6
Continuous
100
AcDbLine
 10
32.689631
 20
162.9357479999999
 30
0.0
 11
32.98460099999999
 21
162.90646
 31
0.0
  0
LINE
  5
BDD1
330
BBFE
100
AcDbEntity
  8
1
  6
Continuous
100
AcDbLine
 10
32.689631
 20
160.535748
 30
0.0
 11
32.98460099999999
 21
160.50646
 31
0.0
  0
LINE
  5
BDD2
330
BBFE
100
AcDbEntity
  8
1
  6
Continuous
100
AcDbLine
 10
138.611945
 20
254.804815
 30
0.0
 11
138.3815309999999
 21
252.6158839999999
 31
0.0
  0
LINE
  5
BDD3
330
BBFE
100
AcDbEntity
  8
1
  6
Continuous
100
AcDbLine
 10
171.1914829999998
 20
258.448617
 30
0.0
 11
170.591483
 21
252.7486169999999
 31
0.0
  0
LINE
  5
BDD4
330
BBFE
100
AcDbEntity
  8
1
  6
Continuous
100
AcDbLine
 10
171.759307
 20
255.4457839999999
 30
0.0
 11
171.1914829999998
 21
252.7486169999999
 31
0.0
  0
ARC
  5
BDD5
330
BBFE
100
AcDbEntity
  8
1
  6
Continuous
100
AcDbCircle
 10
170.8914829999999
 20
252.7486169999999
 30
0.0
 40
0.3
100
AcDbArc
 50
180.0
 51
0.0
  0
ARC
  5
BDD6
330
BBFE
100
AcDbEntity
  8
1
  6
Continuous
100
AcDbCircle
 10
171.4914829999999
 20
258.448617
 30
0.0
 40
0.3
100
AcDbArc
 50
0.0
 51
180.0
  0
LINE
  5
BDD7
330
BBFE
100
AcDbEntity
  8
1
  6
Continuous
100
AcDbLine
 10
171.7914829999998
 20
258.448617
 30
0.0
 11
171.7914829999998
 21
255.7548
 31
0.0
  0
ARC
  5
BDD8
330
BBFE
100
AcDbEntity
  8
1
  6
Continuous
100
AcDbCircle
 10
170.291483
 20
255.7548
 30
0.0
 40
1.5
100
AcDbArc
 50
348.1113419999999
 51
0.0
  0
LINE
  5
BDD9
330
BBFE
100
AcDbEntity
  8
1
  6
Continuous
100
AcDbLine
 10
169.359307
 20
255.4457839999999
 30
0.0
 11
168.7914829999998
 21
252.7486169999999
 31
0.0
  0
LINE
  5
BDDA
330
BBFE
100
AcDbEntity
  8
1
  6
Continuous
100
AcDbLine
 10
168.7914829999998
 20
258.448617
 30
0.0
 11
168.55
 21
256.1545319999999
 31
0.0
  0
ARC
  5
BDDB
330
BBFE
100
AcDbEntity
  8
1
  6
Continuous
100
AcDbCircle
 10
168.4914829999999
 20
252.7486169999999
 30
0.0
 40
0.3
100
AcDbArc
 50
281.2481
 51
0.0
  0
ARC
  5
BDDC
330
BBFE
100
AcDbEntity
  8
1
  6
Continuous
100
AcDbCircle
 10
167.891483
 20
255.7548
 30
0.0
 40
1.5
100
AcDbArc
 50
348.1113419999999
 51
0.0
  0
LINE
  5
BDDD
330
BBFE
100
AcDbEntity
  8
1
  6
Continuous
100
AcDbLine
 10
169.3914829999999
 20
258.448617
 30
0.0
 11
169.3914829999999
 21
255.7548
 31
0.0
  0
ARC
  5
BDDE
330
BBFE
100
AcDbEntity
  8
1
  6
Continuous
100
AcDbCircle
 10
169.091483
 20
258.448617
 30
0.0
 40
0.3
100
AcDbArc
 50
0.0
 51
180.0
  0
ARC
  5
BDDF
330
BBFE
100
AcDbEntity
  8
1
  6
Continuous
100
AcDbCircle
 10
138.374226
 20
161.0013819999998
 30
0.0
 40
41.872587
100
AcDbArc
 50
58.061493
 51
63.90938000000002
  0
ARC
  5
BDE0
330
BBFE
100
AcDbEntity
  8
1
  6
Continuous
100
AcDbCircle
 10
153.2104359999999
 20
140.0679599999999
 30
0.0
 40
56.93899
100
AcDbArc
 50
63.041003
 51
82.61900999999998
  0
ARC
  5
BDE1
330
BBFE
100
AcDbEntity
  8
1
  6
Continuous
100
AcDbCircle
 10
138.374226
 20
161.0013819999998
 30
0.0
 40
41.072587
100
AcDbArc
 50
58.120786
 51
63.47301500000001
  0
ARC
  5
BDE2
330
BBFE
100
AcDbEntity
  8
1
  6
Continuous
100
AcDbCircle
 10
153.2104359999999
 20
140.0679599999999
 30
0.0
 40
56.13898999999999
100
AcDbArc
 50
63.08052199999998
 51
82.575379
  0
ARC
  5
BDE3
330
BBFE
100
AcDbEntity
  8
1
  6
Continuous
100
AcDbCircle
 10
138.374226
 20
161.0013819999998
 30
0.0
 40
40.27258699999999
100
AcDbArc
 50
58.120786
 51
63.017902
  0
ARC
  5
BDE4
330
BBFE
100
AcDbEntity
  8
1
  6
Continuous
100
AcDbCircle
 10
153.2104359999999
 20
140.0679599999999
 30
0.0
 40
55.33899
100
AcDbArc
 50
63.12121600000001
 51
82.575379
  0
ARC
  5
BDE5
330
BBFE
100
AcDbEntity
  8
1
  6
Continuous
100
AcDbCircle
 10
160.594035
 20
196.727881
 30
0.0
 40
1.0
100
AcDbArc
 50
238.1207859999999
 51
262.575379
  0
ARC
  5
BDE6
330
BBFE
100
AcDbEntity
  8
1
  6
Continuous
100
AcDbCircle
 10
160.594035
 20
196.727881
 30
0.0
 40
1.8
100
AcDbArc
 50
238.1207859999999
 51
262.575379
  0
ARC
  5
BDE7
330
BBFE
100
AcDbEntity
  8
5
  6
PHANTOM
100
AcDbCircle
 10
138.386008
 20
161.142757
 30
0.0
 40
40.27258699999999
100
AcDbArc
 50
57.76719599999999
 51
63.017902
  0
ARC
  5
BDE8
330
BBFE
100
AcDbEntity
  8
5
  6
PHANTOM
100
AcDbCircle
 10
138.3808219999999
 20
161.080532
 30
0.0
 40
41.072587
100
AcDbArc
 50
57.951626
 51
63.47301500000001
  0
ARC
  5
BDE9
330
BBFE
100
AcDbEntity
  8
5
  6
PHANTOM
100
AcDbCircle
 10
138.375858
 20
161.020962
 30
0.0
 40
41.872587
100
AcDbArc
 50
58.061493
 51
63.90938000000002
  0
ARC
  5
BDEA
330
BBFE
100
AcDbEntity
  8
5
  6
PHANTOM
100
AcDbCircle
 10
157.374992
 20
155.356053
 30
0.0
 40
41.319058
100
AcDbArc
 50
64.76195099999999
 51
85.62520699999998
  0
ARC
  5
BDEB
330
BBFE
100
AcDbEntity
  8
5
  6
PHANTOM
100
AcDbCircle
 10
157.374992
 20
155.356053
 30
0.0
 40
40.519058
100
AcDbArc
 50
64.80443000000001
 51
85.39828699999999
  0
ARC
  5
BDEC
330
BBFE
100
AcDbEntity
  8
5
  6
PHANTOM
100
AcDbCircle
 10
157.374992
 20
155.356053
 30
0.0
 40
39.719058
100
AcDbArc
 50
64.848563
 51
85.23233000000002
  0
ARC
  5
BDED
330
BBFE
100
AcDbEntity
  8
5
  6
PHANTOM
100
AcDbCircle
 10
160.825871
 20
196.731452
 30
0.0
 40
1.8
100
AcDbArc
 50
237.7671959999999
 51
265.2323299999998
  0
ARC
  5
BDEE
330
BBFE
100
AcDbEntity
  8
5
  6
PHANTOM
100
AcDbCircle
 10
160.7060129999998
 20
196.741274
 30
0.0
 40
1.0
100
AcDbArc
 50
237.9516259999999
 51
265.3982869999999
  0
LINE
  5
BDEF
330
BBFE
100
AcDbEntity
  8
1
  6
Continuous
100
AcDbLine
 10
265.85
 20
199.174237
 30
0.0
 11
269.85
 21
196.8648359999999
 31
0.0
  0
LINE
  5
BDF0
330
BBFE
100
AcDbEntity
  8
1
  6
Continuous
100
AcDbLine
 10
269.85
 20
196.8648359999999
 30
0.0
 11
273.85
 21
199.174237
 31
0.0
  0
LINE
  5
BDF1
330
BBFE
100
AcDbEntity
  8
1
  6
Continuous
100
AcDbLine
 10
273.85
 20
199.174237
 30
0.0
 11
273.85
 21
203.793039
 31
0.0
  0
LINE
  5
BDF2
330
BBFE
100
AcDbEntity
  8
1
  6
Continuous
100
AcDbLine
 10
273.85
 20
203.793039
 30
0.0
 11
269.85
 21
206.1024399999999
 31
0.0
  0
LINE
  5
BDF3
330
BBFE
100
AcDbEntity
  8
1
  6
Continuous
100
AcDbLine
 10
269.85
 20
206.1024399999999
 30
0.0
 11
265.85
 21
203.793039
 31
0.0
  0
LINE
  5
BDF4
330
BBFE
100
AcDbEntity
  8
1
  6
Continuous
100
AcDbLine
 10
265.85
 20
203.793039
 30
0.0
 11
265.85
 21
199.174237
 31
0.0
  0
ENDSEC
  0
SECTION
  2
OBJECTS
  0
DICTIONARY
  5
BBEC
330
0
100
AcDbDictionary
281
     1
  3
ACAD_CIP_PREVIOUS_PRODUCT_INFO
350
BE54
  3
ACAD_COLOR
350
BE36
  3
ACAD_DETAILVIEWSTYLE
350
BE4F
  3
ACAD_GROUP
350
BBED
  3
ACAD_LAYOUT
350
BBF9
  3
ACAD_MATERIAL
350
BE04
  3
ACAD_MLEADERSTYLE
350
BE4B
  3
ACAD_MLINESTYLE
350
BBF6
  3
ACAD_PLOTSETTINGS
350
BBF8
  3
ACAD_PLOTSTYLENAME
350
BE02
  3
ACAD_SCALELIST
350
BE39
  3
ACAD_SECTIONVIEWSTYLE
350
BE4D
  3
ACAD_TABLESTYLE
350
BE37
  3
ACAD_VISUALSTYLE
350
BE1D
  3
ACDB_RECOMPOSE_DATA
350
BE72
  3
AcDbVariableDictionary
350
BE65
  3
DWGPROPS
350
BE73
  0
DICTIONARY
  5
BE55
330
BBF0
100
AcDbDictionary
280
     1
281
     1
  3
ADSK_XREC_LAYER_RECONCILED
360
BE56
  0
DICTIONARY
  5
BE57
330
BC06
100
AcDbDictionary
280
     1
281
     1
  3
ADSK_XREC_LAYER_RECONCILED
360
BE58
  0
DICTIONARY
  5
BE59
330
BC07
100
AcDbDictionary
280
     1
281
     1
  3
ADSK_XREC_LAYER_RECONCILED
360
BE5A
  0
DICTIONARY
  5
BE5B
330
BC08
100
AcDbDictionary
280
     1
281
     1
  3
ADSK_XREC_LAYER_RECONCILED
360
BE5C
  0
DICTIONARY
  5
BE5D
330
BC09
100
AcDbDictionary
280
     1
281
     1
  3
ADSK_XREC_LAYER_RECONCILED
360
BE5E
  0
DICTIONARY
  5
BE5F
330
BC0A
100
AcDbDictionary
280
     1
281
     1
  3
ADSK_XREC_LAYER_RECONCILED
360
BE60
  0
DICTIONARY
  5
BE61
330
BC0B
100
AcDbDictionary
280
     1
281
     1
  3
ADSK_XREC_LAYER_RECONCILED
360
BE62
  0
DICTIONARY
  5
BE63
330
BC0C
100
AcDbDictionary
280
     1
281
     1
  3
ADSK_XREC_LAYER_RECONCILED
360
BE64
  0
DICTIONARY
  5
BDFD
330
BBFE
100
AcDbDictionary
281
     1
  3
ACAD_LAYOUTSELFREF
350
BDFE
  0
DICTIONARY
  5
BDFB
330
BBFA
100
AcDbDictionary
281
     1
  3
ACAD_LAYOUTSELFREF
350
BDFC
  0
XRECORD
  5
BE54
102
{ACAD_REACTORS
330
BBEC
102
}
330
BBEC
100
AcDbXrecord
280
     1
300
ACDLT
300
2014
300
ACDLT_F_S
  0
DICTIONARY
  5
BE36
102
{ACAD_REACTORS
330
BBEC
102
}
330
BBEC
100
AcDbDictionary
281
     1
  0
DICTIONARY
  5
BE4F
102
{ACAD_REACTORS
330
BBEC
102
}
330
BBEC
100
AcDbDictionary
281
     1
  3
Imperial24
350
BE50
  0
DICTIONARY
  5
BBED
102
{ACAD_REACTORS
330
BBEC
102
}
330
BBEC
100
AcDbDictionary
281
     1
  0
DICTIONARY
  5
BBF9
102
{ACAD_REACTORS
330
BBEC
102
}
330
BBEC
100
AcDbDictionary
281
     1
  3
Model
350
BE51
  3
レイアウト1
350
BE52
  0
DICTIONARY
  5
BE04
102
{ACAD_REACTORS
330
BBEC
102
}
330
BBEC
100
AcDbDictionary
281
     1
  3
ByBlock
350
BE0D
  3
ByLayer
350
BE05
  3
Global
350
BE15
  0
DICTIONARY
  5
BE4B
102
{ACAD_REACTORS
330
BBEC
102
}
330
BBEC
100
AcDbDictionary
281
     1
  3
Standard
350
BE4C
  0
DICTIONARY
  5
BBF6
102
{ACAD_REACTORS
330
BBEC
102
}
330
BBEC
100
AcDbDictionary
281
     1
  3
STANDARD
350
BBF7
  0
DICTIONARY
  5
BBF8
102
{ACAD_REACTORS
330
BBEC
102
}
330
BBEC
100
AcDbDictionary
281
     1
  0
ACDBDICTIONARYWDFLT
  5
BE02
102
{ACAD_REACTORS
330
BBEC
102
}
330
BBEC
100
AcDbDictionary
281
     1
  3
Normal
350
BE03
100
AcDbDictionaryWithDefault
340
BE03
  0
DICTIONARY
  5
BE39
102
{ACAD_REACTORS
330
BBEC
102
}
330
BBEC
100
AcDbDictionary
281
     1
  3
A0
350
BE3A
  3
A1
350
BE3B
  3
A2
350
BE3C
  3
A3
350
BE3D
  3
A4
350
BE3E
  3
A5
350
BE3F
  3
A6
350
BE40
  3
A7
350
BE41
  3
A8
350
BE42
  3
A9
350
BE43
  3
B0
350
BE44
  3
B1
350
BE45
  3
B2
350
BE46
  3
B3
350
BE47
  3
B4
350
BE48
  3
B5
350
BE49
  3
B6
350
BE4A
  0
DICTIONARY
  5
BE4D
102
{ACAD_REACTORS
330
BBEC
102
}
330
BBEC
100
AcDbDictionary
281
     1
  3
Imperial24
350
BE4E
  0
DICTIONARY
  5
BE37
102
{ACAD_REACTORS
330
BBEC
102
}
330
BBEC
100
AcDbDictionary
281
     1
  3
Standard
350
BE38
  0
DICTIONARY
  5
BE1D
102
{ACAD_REACTORS
330
BBEC
102
}
330
BBEC
100
AcDbDictionary
281
     1
  3
2dWireframe
350
BE23
  3
Basic
350
BE22
  3
Brighten
350
BE29
  3
ColorChange
350
BE2D
  3
Conceptual
350
BE26
  3
Dim
350
BE28
  3
EdgeColorOff
350
BE35
  3
Facepattern
350
BE2C
  3
Flat
350
BE1E
  3
FlatWithEdges
350
BE1F
  3
Gouraud
350
BE20
  3
GouraudWithEdges
350
BE21
  3
Hidden
350
BE25
  3
JitterOff
350
BE33
  3
Linepattern
350
BE2B
  3
OverhangOff
350
BE34
  3
Realistic
350
BE27
  3
Shaded
350
BE32
  3
Shaded with edges
350
BE31
  3
Shades of Gray
350
BE2E
  3
Sketchy
350
BE2F
  3
Thicken
350
BE2A
  3
Wireframe
350
BE24
  3
X-Ray
350
BE30
  0
XRECORD
  5
BE72
102
{ACAD_REACTORS
330
BBEC
102
}
330
BBEC
100
AcDbXrecord
280
     1
 90
        1
330
BE38
  0
DICTIONARY
  5
BE65
102
{ACAD_REACTORS
330
BBEC
102
}
330
BBEC
100
AcDbDictionary
281
     1
  3
CANNOSCALE
350
BE6A
  3
CMLEADERSTYLE
350
BE67
  3
CTABLESTYLE
350
BE66
  3
CVIEWDETAILSTYLE
350
BE68
  3
CVIEWSECTIONSTYLE
350
BE69
  3
DIMASSOC
350
BE6D
  3
INDEXCTL
350
BE6C
  3
SORTENTS
350
BE6B
  3
XCLIPFRAME
350
BE6E
  0
XRECORD
  5
BE73
102
{ACAD_REACTORS
330
BBEC
102
}
330
BBEC
100
AcDbXrecord
280
     1
  1
DWGPROPS COOKIE
  2

  3

  4

  6

  7

  8
Yoshitsune
  9

300
=
301
=
302
=
303
=
304
=
305
=
306
=
307
=
308
=
309
=
 40
0.0000101736111111
 41
2451296.792658102
 42
2457192.65819581
  1

 90
        0
  0
XRECORD
  5
BE56
102
{ACAD_REACTORS
330
BE55
102
}
330
BE55
100
AcDbXrecord
280
     1
290
     1
  0
XRECORD
  5
BE58
102
{ACAD_REACTORS
330
BE57
102
}
330
BE57
100
AcDbXrecord
280
     1
290
     1
  0
XRECORD
  5
BE5A
102
{ACAD_REACTORS
330
BE59
102
}
330
BE59
100
AcDbXrecord
280
     1
290
     1
  0
XRECORD
  5
BE5C
102
{ACAD_REACTORS
330
BE5B
102
}
330
BE5B
100
AcDbXrecord
280
     1
290
     1
  0
XRECORD
  5
BE5E
102
{ACAD_REACTORS
330
BE5D
102
}
330
BE5D
100
AcDbXrecord
280
     1
290
     1
  0
XRECORD
  5
BE60
102
{ACAD_REACTORS
330
BE5F
102
}
330
BE5F
100
AcDbXrecord
280
     1
290
     1
  0
XRECORD
  5
BE62
102
{ACAD_REACTORS
330
BE61
102
}
330
BE61
100
AcDbXrecord
280
     1
290
     1
  0
XRECORD
  5
BE64
102
{ACAD_REACTORS
330
BE63
102
}
330
BE63
100
AcDbXrecord
280
     1
290
     1
  0
XRECORD
  5
BDFE
102
{ACAD_REACTORS
330
BDFD
102
}
330
BDFD
100
AcDbXrecord
280
     1
340
BBFE
  0
XRECORD
  5
BDFC
102
{ACAD_REACTORS
330
BDFB
102
}
330
BDFB
100
AcDbXrecord
280
     1
340
BBFA
  0
ACDBDETAILVIEWSTYLE
  5
BE50
102
{ACAD_XDICTIONARY
360
BEAB
102
}
102
{ACAD_REACTORS
330
BE4F
102
}
330
BE4F
100
AcDbModelDocViewStyle
 70
     0
  3
Imperial24
290
     0
100
AcDbDetailViewStyle
 70
     0
 71
     0
 90
        3
 71
     1
340
BBF1
 40
0.24
340
0
 40
0.24
300

 40
0.36
280
     3
 71
     2
340
BBF5
 90
       25
 71
     3
340
BBF1
 40
0.24
 90
        1
 40
0.75
 90
        1
300
%<\AcVar ViewType \f "%tc1">% %<\AcVar ViewDetailId>%\PSCALE %<\AcVar ViewScale \f "%sn">%
 71
     4
340
BBF5
 90
       25
340
BBF5
 90
       25
280
     0
  0
LAYOUT
  5
BE51
102
{ACAD_XDICTIONARY
360
BEAD
102
}
102
{ACAD_REACTORS
330
BBF9
102
}
330
BBF9
100
AcDbPlotSettings
  1

  2
Canon LBP9100C
  4

  6

 40
0.0
 41
0.0
 42
0.0
 43
0.0
 44
0.0
 45
0.0
 46
0.0
 47
0.0
 48
0.0
 49
0.0
140
0.0
141
0.0
142
1.0
143
1.0
 70
  1712
 72
     0
 73
     0
 74
     0
  7

 75
     0
147
1.0
148
0.0
149
0.0
100
AcDbLayout
  1
Model
 70
     1
 71
     0
 10
0.0
 20
0.0
 11
12.0
 21
9.0
 12
0.0
 22
0.0
 32
0.0
 14
0.0
 24
0.0
 34
0.0
 15
0.0
 25
0.0
 35
0.0
146
0.0
 13
0.0
 23
0.0
 33
0.0
 16
1.0
 26
0.0
 36
0.0
 17
0.0
 27
1.0
 37
0.0
 76
     0
330
BBFE
331
BDFA
  0
LAYOUT
  5
BE52
102
{ACAD_XDICTIONARY
360
BEAF
102
}
102
{ACAD_REACTORS
330
BBF9
102
}
330
BBF9
100
AcDbPlotSettings
  1

  2
Canon LBP9100C
  4

  6

 40
0.0
 41
0.0
 42
0.0
 43
0.0
 44
0.0
 45
0.0
 46
0.0
 47
0.0
 48
0.0
 49
0.0
140
0.0
141
0.0
142
1.0
143
1.0
 70
   688
 72
     0
 73
     0
 74
     5
  7

 75
    16
147
1.0
148
0.0
149
0.0
100
AcDbLayout
  1
レイアウト1
 70
     0
 71
     1
 10
0.0
 20
0.0
 11
420.0
 21
297.0
 12
0.0
 22
0.0
 32
0.0
 14
1.000000000000000E+20
 24
1.000000000000000E+20
 34
1.000000000000000E+20
 15
-1.000000000000000E+20
 25
-1.000000000000000E+20
 35
-1.000000000000000E+20
146
0.0
 13
0.0
 23
0.0
 33
0.0
 16
1.0
 26
0.0
 36
0.0
 17
0.0
 27
1.0
 37
0.0
 76
     0
330
BBFA
  0
MATERIAL
  5
BE0D
102
{ACAD_XDICTIONARY
360
BE0E
102
}
102
{ACAD_REACTORS
330
BE04
102
}
330
BE04
100
AcDbMaterial
  1
ByBlock
 72
     0
 43
0.0208333333333333
 43
0.0
 43
0.0
 43
0.0
 43
0.0
 43
0.0208333333333333
 43
0.0
 43
0.0
 43
0.0
 43
0.0
 43
1.0
 43
0.0
 43
0.0
 43
0.0
 43
0.0
 43
1.0
 77
     0
 47
0.0208333333333333
 47
0.0
 47
0.0
 47
0.0
 47
0.0
 47
0.0208333333333333
 47
0.0
 47
0.0
 47
0.0
 47
0.0
 47
1.0
 47
0.0
 47
0.0
 47
0.0
 47
0.0
 47
1.0
171
     0
 49
0.0208333333333333
 49
0.0
 49
0.0
 49
0.0
 49
0.0
 49
0.0208333333333333
 49
0.0
 49
0.0
 49
0.0
 49
0.0
 49
1.0
 49
0.0
 49
0.0
 49
0.0
 49
0.0
 49
1.0
175
     0
142
0.0208333333333333
142
0.0
142
0.0
142
0.0
142
0.0
142
0.0208333333333333
142
0.0
142
0.0
142
0.0
142
0.0
142
1.0
142
0.0
142
0.0
142
0.0
142
0.0
142
1.0
179
     0
144
0.0208333333333333
144
0.0
144
0.0
144
0.0
144
0.0
144
0.0208333333333333
144
0.0
144
0.0
144
0.0
144
0.0
144
1.0
144
0.0
144
0.0
144
0.0
144
0.0
144
1.0
147
0.0208333333333333
147
0.0
147
0.0
147
0.0
147
0.0
147
0.0208333333333333
147
0.0
147
0.0
147
0.0
147
0.0
147
1.0
147
0.0
147
0.0
147
0.0
147
0.0
147
1.0
  0
MATERIAL
  5
BE05
102
{ACAD_XDICTIONARY
360
BE06
102
}
102
{ACAD_REACTORS
330
BE04
102
}
330
BE04
100
AcDbMaterial
  1
ByLayer
 72
     0
 43
0.0208333333333333
 43
0.0
 43
0.0
 43
0.0
 43
0.0
 43
0.0208333333333333
 43
0.0
 43
0.0
 43
0.0
 43
0.0
 43
1.0
 43
0.0
 43
0.0
 43
0.0
 43
0.0
 43
1.0
 77
     0
 47
0.0208333333333333
 47
0.0
 47
0.0
 47
0.0
 47
0.0
 47
0.0208333333333333
 47
0.0
 47
0.0
 47
0.0
 47
0.0
 47
1.0
 47
0.0
 47
0.0
 47
0.0
 47
0.0
 47
1.0
171
     0
 49
0.0208333333333333
 49
0.0
 49
0.0
 49
0.0
 49
0.0
 49
0.0208333333333333
 49
0.0
 49
0.0
 49
0.0
 49
0.0
 49
1.0
 49
0.0
 49
0.0
 49
0.0
 49
0.0
 49
1.0
175
     0
142
0.0208333333333333
142
0.0
142
0.0
142
0.0
142
0.0
142
0.0208333333333333
142
0.0
142
0.0
142
0.0
142
0.0
142
1.0
142
0.0
142
0.0
142
0.0
142
0.0
142
1.0
179
     0
144
0.0208333333333333
144
0.0
144
0.0
144
0.0
144
0.0
144
0.0208333333333333
144
0.0
144
0.0
144
0.0
144
0.0
144
1.0
144
0.0
144
0.0
144
0.0
144
0.0
144
1.0
147
0.0208333333333333
147
0.0
147
0.0
147
0.0
147
0.0
147
0.0208333333333333
147
0.0
147
0.0
147
0.0
147
0.0
147
1.0
147
0.0
147
0.0
147
0.0
147
0.0
147
1.0
  0
MATERIAL
  5
BE15
102
{ACAD_XDICTIONARY
360
BE16
102
}
102
{ACAD_REACTORS
330
BE04
102
}
330
BE04
100
AcDbMaterial
  1
Global
 72
     0
 43
0.0208333333333333
 43
0.0
 43
0.0
 43
0.0
 43
0.0
 43
0.0208333333333333
 43
0.0
 43
0.0
 43
0.0
 43
0.0
 43
1.0
 43
0.0
 43
0.0
 43
0.0
 43
0.0
 43
1.0
 77
     0
 47
0.0208333333333333
 47
0.0
 47
0.0
 47
0.0
 47
0.0
 47
0.0208333333333333
 47
0.0
 47
0.0
 47
0.0
 47
0.0
 47
1.0
 47
0.0
 47
0.0
 47
0.0
 47
0.0
 47
1.0
171
     0
 49
0.0208333333333333
 49
0.0
 49
0.0
 49
0.0
 49
0.0
 49
0.0208333333333333
 49
0.0
 49
0.0
 49
0.0
 49
0.0
 49
1.0
 49
0.0
 49
0.0
 49
0.0
 49
0.0
 49
1.0
175
     0
142
0.0208333333333333
142
0.0
142
0.0
142
0.0
142
0.0
142
0.0208333333333333
142
0.0
142
0.0
142
0.0
142
0.0
142
1.0
142
0.0
142
0.0
142
0.0
142
0.0
142
1.0
179
     0
144
0.0208333333333333
144
0.0
144
0.0
144
0.0
144
0.0
144
0.0208333333333333
144
0.0
144
0.0
144
0.0
144
0.0
144
1.0
144
0.0
144
0.0
144
0.0
144
0.0
144
1.0
147
0.0208333333333333
147
0.0
147
0.0
147
0.0
147
0.0
147
0.0208333333333333
147
0.0
147
0.0
147
0.0
147
0.0
147
1.0
147
0.0
147
0.0
147
0.0
147
0.0
147
1.0
  0
MLEADERSTYLE
  5
BE4C
102
{ACAD_REACTORS
330
BE4B
102
}
330
BE4B
100
AcDbMLeaderStyle
170
     2
171
     1
172
     0
 90
        2
 40
0.0
 41
0.0
173
     1
 91
-1056964608
340
BBF3
 92
       -2
290
     1
 42
0.09
291
     1
 43
0.36
  3
Standard
 44
0.18
300

342
BBF1
174
     1
178
     6
175
     1
176
     0
 93
-1056964608
 45
0.18
292
     0
297
     0
 46
0.18
 94
-1056964608
 47
1.0
 49
1.0
140
1.0
293
     1
141
0.0
294
     1
177
     0
142
1.0
295
     0
296
     0
143
0.125
1001
ACAD_MLEADERVER
1070
     2
  0
MLINESTYLE
  5
BBF7
102
{ACAD_REACTORS
330
BBF6
102
}
330
BBF6
100
AcDbMlineStyle
  2
STANDARD
 70
     0
  3

 62
   256
 51
90.0
 52
90.0
 71
     2
 49
0.5
 62
   256
  6
BYLAYER
 49
-0.5
 62
   256
  6
BYLAYER
  0
ACDBPLACEHOLDER
  5
BE03
102
{ACAD_REACTORS
330
BE02
102
}
330
BE02
  0
SCALE
  5
BE3A
102
{ACAD_REACTORS
330
BE39
102
}
330
BE39
100
AcDbScale
 70
     0
300
1:1
140
1.0
141
1.0
290
     1
  0
SCALE
  5
BE3B
102
{ACAD_REACTORS
330
BE39
102
}
330
BE39
100
AcDbScale
 70
     0
300
1/128" = 1'-0"
140
0.0078125
141
12.0
290
     0
  0
SCALE
  5
BE3C
102
{ACAD_REACTORS
330
BE39
102
}
330
BE39
100
AcDbScale
 70
     0
300
1/64" = 1'-0"
140
0.015625
141
12.0
290
     0
  0
SCALE
  5
BE3D
102
{ACAD_REACTORS
330
BE39
102
}
330
BE39
100
AcDbScale
 70
     0
300
1/32" = 1'-0"
140
0.03125
141
12.0
290
     0
  0
SCALE
  5
BE3E
102
{ACAD_REACTORS
330
BE39
102
}
330
BE39
100
AcDbScale
 70
     0
300
1/16" = 1'-0"
140
0.0625
141
12.0
290
     0
  0
SCALE
  5
BE3F
102
{ACAD_REACTORS
330
BE39
102
}
330
BE39
100
AcDbScale
 70
     0
300
3/32" = 1'-0"
140
0.09375
141
12.0
290
     0
  0
SCALE
  5
BE40
102
{ACAD_REACTORS
330
BE39
102
}
330
BE39
100
AcDbScale
 70
     0
300
1/8" = 1'-0"
140
0.125
141
12.0
290
     0
  0
SCALE
  5
BE41
102
{ACAD_REACTORS
330
BE39
102
}
330
BE39
100
AcDbScale
 70
     0
300
3/16" = 1'-0"
140
0.1875
141
12.0
290
     0
  0
SCALE
  5
BE42
102
{ACAD_REACTORS
330
BE39
102
}
330
BE39
100
AcDbScale
 70
     0
300
1/4" = 1'-0"
140
0.25
141
12.0
290
     0
  0
SCALE
  5
BE43
102
{ACAD_REACTORS
330
BE39
102
}
330
BE39
100
AcDbScale
 70
     0
300
3/8" = 1'-0"
140
0.375
141
12.0
290
     0
  0
SCALE
  5
BE44
102
{ACAD_REACTORS
330
BE39
102
}
330
BE39
100
AcDbScale
 70
     0
300
1/2" = 1'-0"
140
0.5
141
12.0
290
     0
  0
SCALE
  5
BE45
102
{ACAD_REACTORS
330
BE39
102
}
330
BE39
100
AcDbScale
 70
     0
300
3/4" = 1'-0"
140
0.75
141
12.0
290
     0
  0
SCALE
  5
BE46
102
{ACAD_REACTORS
330
BE39
102
}
330
BE39
100
AcDbScale
 70
     0
300
1" = 1'-0"
140
1.0
141
12.0
290
     0
  0
SCALE
  5
BE47
102
{ACAD_REACTORS
330
BE39
102
}
330
BE39
100
AcDbScale
 70
     0
300
1-1/2" = 1'-0"
140
1.5
141
12.0
290
     0
  0
SCALE
  5
BE48
102
{ACAD_REACTORS
330
BE39
102
}
330
BE39
100
AcDbScale
 70
     0
300
3" = 1'-0"
140
3.0
141
12.0
290
     0
  0
SCALE
  5
BE49
102
{ACAD_REACTORS
330
BE39
102
}
330
BE39
100
AcDbScale
 70
     0
300
6" = 1'-0"
140
6.0
141
12.0
290
     0
  0
SCALE
  5
BE4A
102
{ACAD_REACTORS
330
BE39
102
}
330
BE39
100
AcDbScale
 70
     0
300
1'-0" = 1'-0"
140
12.0
141
12.0
290
     0
  0
ACDBSECTIONVIEWSTYLE
  5
BE4E
102
{ACAD_XDICTIONARY
360
BEA9
102
}
102
{ACAD_REACTORS
330
BE4D
102
}
330
BE4D
100
AcDbModelDocViewStyle
 70
     0
  3
Imperial24
290
     0
100
AcDbSectionViewStyle
 70
     0
 71
     0
 90
       78
 71
     1
340
BBF1
 40
0.24
340
0
340
0
 40
0.24
300
I, O, Q, S, X, Z
 40
0.48
 90
        3
 40
0.18
 90
        1
 71
     2
340
BBF5
 90
       25
340
BBF5
 90
       50
 40
0.24
 40
0.0
 40
0.24
 71
     3
340
BBF1
 40
0.24
 90
        1
 40
0.75
 90
        1
300
%<\AcVar ViewType \f "%tc1">% %<\AcVar ViewSectionStartId>%-%<\AcVar ViewSectionEndId>%\PSCALE %<\AcVar ViewScale \f "%sn">%
 71
     4
300
ANSI31
 40
1.0
 90
        0
290
     0
290
     0
 90
        6
 40
0.0
 40
1.570796326794896
 40
0.2617993877991494
 40
1.308996938995747
 40
-0.2617993877991494
 40
1.832595714594046
  0
TABLESTYLE
  5
BE38
102
{ACAD_XDICTIONARY
360
BE70
102
}
102
{ACAD_REACTORS
330
BE37
102
}
330
BE37
100
AcDbTableStyle
  3
Standard
 70
     0
 71
     0
 40
0.06
 41
0.06
280
     0
281
     0
  7
STANDARD
140
0.18
170
     2
 62
     0
 63
     7
283
     0
274
    -2
284
     1
 64
     0
275
    -2
285
     1
 65
     0
276
    -2
286
     1
 66
     0
277
    -2
287
     1
 67
     0
278
    -2
288
     1
 68
     0
279
    -2
289
     1
 69
     0
  7
STANDARD
140
0.25
170
     5
 62
     0
 63
     7
283
     0
274
    -2
284
     1
 64
     0
275
    -2
285
     1
 65
     0
276
    -2
286
     1
 66
     0
277
    -2
287
     1
 67
     0
278
    -2
288
     1
 68
     0
279
    -2
289
     1
 69
     0
  7
STANDARD
140
0.18
170
     5
 62
     0
 63
     7
283
     0
274
    -2
284
     1
 64
     0
275
    -2
285
     1
 65
     0
276
    -2
286
     1
 66
     0
277
    -2
287
     1
 67
     0
278
    -2
288
     1
 68
     0
279
    -2
289
     1
 69
     0
  0
VISUALSTYLE
  5
BE23
102
{ACAD_XDICTIONARY
360
BE81
102
}
102
{ACAD_REACTORS
330
BE1D
102
}
330
BE1D
100
AcDbVisualStyle
  2
2dWireframe
 70
     4
 71
     0
 72
     2
 73
     0
 90
        0
 40
-0.6
 41
-30.0
 62
     5
 63
     7
 74
     1
 91
        4
 64
     7
 65
   257
 75
     1
175
     1
 42
1.0
 92
        0
 66
   257
 43
1.0
 76
     1
 77
     6
 78
     2
 67
     7
 79
     5
170
     0
171
     0
290
     0
174
     0
 93
        1
 44
0.0
173
     0
291
     0
 45
0.0
1001
ACAD
1000
AcDbSavedByObjectVersion
1070
     0
  0
VISUALSTYLE
  5
BE22
102
{ACAD_XDICTIONARY
360
BE7F
102
}
102
{ACAD_REACTORS
330
BE1D
102
}
330
BE1D
100
AcDbVisualStyle
  2
Basic
 70
     7
 71
     1
 72
     0
 73
     1
 90
        0
 40
-0.6
 41
-30.0
 62
     5
 63
     7
 74
     0
 91
        4
 64
     7
 65
   257
 75
     1
175
     1
 42
1.0
 92
        8
 66
     7
 43
1.0
 76
     1
 77
     6
 78
     2
 67
     7
 79
     5
170
     0
171
     0
290
     0
174
     0
 93
        1
 44
0.0
173
     0
291
     1
 45
0.0
1001
ACAD
1000
AcDbSavedByObjectVersion
1070
     0
  0
VISUALSTYLE
  5
BE29
102
{ACAD_XDICTIONARY
360
BE8D
102
}
102
{ACAD_REACTORS
330
BE1D
102
}
330
BE1D
100
AcDbVisualStyle
  2
Brighten
 70
    12
 71
     2
 72
     2
 73
     0
 90
        0
 40
-0.6
 41
-30.0
 62
     5
 63
     7
 74
     1
 91
        4
 64
     7
 65
   257
 75
     1
175
     1
 42
1.0
 92
        8
 66
     7
 43
1.0
 76
     1
 77
     6
 78
     2
 67
     7
 79
     5
170
     0
171
     0
290
     0
174
     0
 93
        1
 44
50.0
173
     0
291
     1
 45
0.0
1001
ACAD
1000
AcDbSavedByObjectVersion
1070
     0
  0
VISUALSTYLE
  5
BE2D
102
{ACAD_XDICTIONARY
360
BE95
102
}
102
{ACAD_REACTORS
330
BE1D
102
}
330
BE1D
100
AcDbVisualStyle
  2
ColorChange
 70
    16
 71
     2
 72
     2
 73
     3
 90
        0
 40
-0.6
 41
-30.0
 62
     5
 63
     8
 74
     1
 91
        4
 64
     7
 65
   257
 75
     1
175
     1
 42
1.0
 92
        8
 66
     8
 43
1.0
 76
     1
 77
     6
 78
     2
 67
     7
 79
     5
170
     0
171
     0
290
     0
174
     0
 93
        1
 44
0.0
173
     0
291
     1
 45
0.0
1001
ACAD
1000
AcDbSavedByObjectVersion
1070
     0
  0
VISUALSTYLE
  5
BE26
102
{ACAD_XDICTIONARY
360
BE87
102
}
102
{ACAD_REACTORS
330
BE1D
102
}
330
BE1D
100
AcDbVisualStyle
  2
Conceptual
 70
     9
 71
     3
 72
     2
 73
     0
 90
        0
 40
-0.6
 41
-30.0
 62
     5
 63
     7
 74
     2
 91
        2
 64
     7
 65
   257
 75
     1
175
     1
 42
179.0
 92
        8
 66
     7
 43
1.0
 76
     1
 77
     6
 78
     2
 67
     7
 79
     3
170
     0
171
     0
290
     0
174
     0
 93
        1
 44
0.0
173
     0
291
     0
 45
0.0
1001
ACAD
1000
AcDbSavedByObjectVersion
1070
     0
  0
VISUALSTYLE
  5
BE28
102
{ACAD_XDICTIONARY
360
BE8B
102
}
102
{ACAD_REACTORS
330
BE1D
102
}
330
BE1D
100
AcDbVisualStyle
  2
Dim
 70
    11
 71
     2
 72
     2
 73
     0
 90
        0
 40
-0.6
 41
-30.0
 62
     5
 63
     7
 74
     1
 91
        4
 64
     7
 65
   257
 75
     1
175
     1
 42
1.0
 92
        8
 66
     7
 43
1.0
 76
     1
 77
     6
 78
     2
 67
     7
 79
     5
170
     0
171
     0
290
     0
174
     0
 93
        1
 44
-50.0
173
     0
291
     1
 45
0.0
1001
ACAD
1000
AcDbSavedByObjectVersion
1070
     0
  0
VISUALSTYLE
  5
BE35
102
{ACAD_XDICTIONARY
360
BEA5
102
}
102
{ACAD_REACTORS
330
BE1D
102
}
330
BE1D
100
AcDbVisualStyle
  2
EdgeColorOff
 70
    22
 71
     2
 72
     2
 73
     0
 90
        0
 40
-0.6
 41
-30.0
 62
     5
 63
     7
 74
     1
 91
        4
 64
     7
 65
   257
 75
     1
175
     1
 42
1.0
 92
        8
 66
     7
 43
1.0
 76
     1
 77
     6
 78
     2
 67
     7
 79
     5
170
     0
171
     0
290
     0
174
     0
 93
        1
 44
0.0
173
     0
291
     1
 45
0.0
1001
ACAD
1000
AcDbSavedByObjectVersion
1070
     0
  0
VISUALSTYLE
  5
BE2C
102
{ACAD_XDICTIONARY
360
BE93
102
}
102
{ACAD_REACTORS
330
BE1D
102
}
330
BE1D
100
AcDbVisualStyle
  2
Facepattern
 70
    15
 71
     2
 72
     2
 73
     0
 90
        0
 40
-0.6
 41
-30.0
 62
     5
 63
     7
 74
     1
 91
        4
 64
     7
 65
   257
 75
     1
175
     1
 42
1.0
 92
        8
 66
     7
 43
1.0
 76
     1
 77
     6
 78
     2
 67
     7
 79
     5
170
     0
171
     0
290
     0
174
     0
 93
        1
 44
0.0
173
     0
291
     1
 45
0.0
1001
ACAD
1000
AcDbSavedByObjectVersion
1070
     0
  0
VISUALSTYLE
  5
BE1E
102
{ACAD_XDICTIONARY
360
BE77
102
}
102
{ACAD_REACTORS
330
BE1D
102
}
330
BE1D
100
AcDbVisualStyle
  2
Flat
 70
     0
 71
     2
 72
     1
 73
     1
 90
        2
 40
-0.6
 41
30.0
 62
     5
 63
     7
 74
     0
 91
        0
 64
     7
 65
   257
 75
     1
175
     1
 42
1.0
 92
        8
 66
     7
 43
1.0
 76
     1
 77
     6
 78
     2
 67
     7
 79
     5
170
     0
171
     0
290
     0
174
     0
 93
       13
 44
0.0
173
     0
291
     1
 45
0.0
1001
ACAD
1000
AcDbSavedByObjectVersion
1070
     0
  0
VISUALSTYLE
  5
BE1F
102
{ACAD_XDICTIONARY
360
BE79
102
}
102
{ACAD_REACTORS
330
BE1D
102
}
330
BE1D
100
AcDbVisualStyle
  2
FlatWithEdges
 70
     1
 71
     2
 72
     1
 73
     1
 90
        2
 40
-0.6
 41
30.0
 62
     5
 63
     7
 74
     1
 91
        0
 64
     7
 65
   257
 75
     1
175
     1
 42
1.0
 92
        0
 66
   257
 43
1.0
 76
     1
 77
     6
 78
     2
 67
     7
 79
     5
170
     0
171
     0
290
     0
174
     0
 93
       13
 44
0.0
173
     0
291
     1
 45
0.0
1001
ACAD
1000
AcDbSavedByObjectVersion
1070
     0
  0
VISUALSTYLE
  5
BE20
102
{ACAD_XDICTIONARY
360
BE7B
102
}
102
{ACAD_REACTORS
330
BE1D
102
}
330
BE1D
100
AcDbVisualStyle
  2
Gouraud
 70
     2
 71
     2
 72
     2
 73
     1
 90
        2
 40
-0.6
 41
30.0
 62
     5
 63
     7
 74
     0
 91
        0
 64
     7
 65
   257
 75
     1
175
     1
 42
1.0
 92
        0
 66
     7
 43
1.0
 76
     1
 77
     6
 78
     2
 67
     7
 79
     5
170
     0
171
     0
290
     0
174
     0
 93
       13
 44
0.0
173
     0
291
     1
 45
0.0
1001
ACAD
1000
AcDbSavedByObjectVersion
1070
     0
  0
VISUALSTYLE
  5
BE21
102
{ACAD_XDICTIONARY
360
BE7D
102
}
102
{ACAD_REACTORS
330
BE1D
102
}
330
BE1D
100
AcDbVisualStyle
  2
GouraudWithEdges
 70
     3
 71
     2
 72
     2
 73
     1
 90
        2
 40
-0.6
 41
30.0
 62
     5
 63
     7
 74
     1
 91
        0
 64
     7
 65
   257
 75
     1
175
     1
 42
1.0
 92
        0
 66
   257
 43
1.0
 76
     1
 77
     6
 78
     2
 67
     7
 79
     5
170
     0
171
     0
290
     0
174
     0
 93
       13
 44
0.0
173
     0
291
     1
 45
0.0
1001
ACAD
1000
AcDbSavedByObjectVersion
1070
     0
  0
VISUALSTYLE
  5
BE25
102
{ACAD_XDICTIONARY
360
BE85
102
}
102
{ACAD_REACTORS
330
BE1D
102
}
330
BE1D
100
AcDbVisualStyle
  2
Hidden
 70
     6
 71
     1
 72
     2
 73
     2
 90
        0
 40
-0.6
 41
-30.0
 62
     5
 63
     7
 74
     2
 91
        2
 64
     7
 65
   257
 75
     2
175
     1
 42
40.0
 92
        0
 66
   257
 43
1.0
 76
     1
 77
     6
 78
     2
 67
     7
 79
     3
170
     0
171
     0
290
     0
174
     0
 93
        1
 44
0.0
173
     0
291
     0
 45
0.0
1001
ACAD
1000
AcDbSavedByObjectVersion
1070
     0
  0
VISUALSTYLE
  5
BE33
102
{ACAD_XDICTIONARY
360
BEA1
102
}
102
{ACAD_REACTORS
330
BE1D
102
}
330
BE1D
100
AcDbVisualStyle
  2
JitterOff
 70
    20
 71
     2
 72
     2
 73
     0
 90
        0
 40
-0.6
 41
-30.0
 62
     5
 63
     7
 74
     1
 91
        4
 64
     7
 65
   257
 75
     1
175
     1
 42
1.0
 92
       10
 66
     7
 43
1.0
 76
     1
 77
     6
 78
     2
 67
     7
 79
     5
170
     0
171
     0
290
     0
174
     0
 93
        1
 44
0.0
173
     0
291
     1
 45
0.0
1001
ACAD
1000
AcDbSavedByObjectVersion
1070
     0
  0
VISUALSTYLE
  5
BE2B
102
{ACAD_XDICTIONARY
360
BE91
102
}
102
{ACAD_REACTORS
330
BE1D
102
}
330
BE1D
100
AcDbVisualStyle
  2
Linepattern
 70
    14
 71
     2
 72
     2
 73
     0
 90
        0
 40
-0.6
 41
-30.0
 62
     5
 63
     7
 74
     1
 91
        4
 64
     7
 65
   257
 75
     7
175
     7
 42
1.0
 92
        8
 66
     7
 43
1.0
 76
     1
 77
     6
 78
     2
 67
     7
 79
     5
170
     0
171
     0
290
     0
174
     0
 93
        1
 44
0.0
173
     0
291
     1
 45
0.0
1001
ACAD
1000
AcDbSavedByObjectVersion
1070
     0
  0
VISUALSTYLE
  5
BE34
102
{ACAD_XDICTIONARY
360
BEA3
102
}
102
{ACAD_REACTORS
330
BE1D
102
}
330
BE1D
100
AcDbVisualStyle
  2
OverhangOff
 70
    21
 71
     2
 72
     2
 73
     0
 90
        0
 40
-0.6
 41
-30.0
 62
     5
 63
     7
 74
     1
 91
        4
 64
     7
 65
   257
 75
     1
175
     1
 42
1.0
 92
        9
 66
     7
 43
1.0
 76
     1
 77
     6
 78
     2
 67
     7
 79
     5
170
     0
171
     0
290
     0
174
     0
 93
        1
 44
0.0
173
     0
291
     1
 45
0.0
1001
ACAD
1000
AcDbSavedByObjectVersion
1070
     0
  0
VISUALSTYLE
  5
BE27
102
{ACAD_XDICTIONARY
360
BE89
102
}
102
{ACAD_REACTORS
330
BE1D
102
}
330
BE1D
100
AcDbVisualStyle
  2
Realistic
 70
     8
 71
     2
 72
     3
 73
     0
 90
        2
 40
-0.6
 41
30.0
 62
     5
 63
     7
 74
     0
 91
        0
 64
     7
 65
   257
 75
     1
175
     1
 42
1.0
 92
        8
 66
   257
 43
1.0
 76
     1
 77
     6
 78
     2
 67
     7
 79
     3
170
     0
171
     0
290
     0
174
     0
 93
       13
 44
0.0
173
     0
291
     0
 45
0.0
1001
ACAD
1000
AcDbSavedByObjectVersion
1070
     0
  0
VISUALSTYLE
  5
BE32
102
{ACAD_XDICTIONARY
360
BE9F
102
}
102
{ACAD_REACTORS
330
BE1D
102
}
330
BE1D
100
AcDbVisualStyle
  2
Shaded
 70
    27
 71
     2
 72
     2
 73
     1
 90
        2
 40
-0.6
 41
30.0
 62
     5
 63
     7
 74
     0
 91
        4
 64
     7
 65
   257
 75
     1
175
     1
 42
1.0
 92
        8
 66
   257
 43
1.0
 76
     1
 77
     6
 78
     2
 67
     8
 79
     3
170
     0
171
     0
290
     0
174
     0
 93
        5
 44
0.0
173
     0
291
     0
 45
0.0
1001
ACAD
1000
AcDbSavedByObjectVersion
1070
     0
  0
VISUALSTYLE
  5
BE31
102
{ACAD_XDICTIONARY
360
BE9D
102
}
102
{ACAD_REACTORS
330
BE1D
102
}
330
BE1D
100
AcDbVisualStyle
  2
Shaded with edges
 70
    26
 71
     2
 72
     2
 73
     1
 90
        2
 40
-0.6
 41
30.0
 62
     5
 63
     7
 74
     1
 91
       10
 64
     7
 65
   257
 75
     2
175
     1
 42
1.0
 92
        8
 66
   257
 43
1.0
 76
     1
 77
     6
 78
     2
 67
     7
 79
     3
170
     0
171
     0
290
     0
174
     0
 93
        5
 44
0.0
173
     0
291
     0
 45
0.0
1001
ACAD
1000
AcDbSavedByObjectVersion
1070
     0
  0
VISUALSTYLE
  5
BE2E
102
{ACAD_XDICTIONARY
360
BE97
102
}
102
{ACAD_REACTORS
330
BE1D
102
}
330
BE1D
100
AcDbVisualStyle
  2
Shades of Gray
 70
    23
 71
     2
 72
     2
 73
     3
 90
        0
 40
-0.6
 41
-30.0
 62
     5
 63
     7
 74
     2
 91
        2
 64
     7
 65
     7
 75
     1
175
     1
 42
40.0
 92
        8
 66
     7
 43
1.0
 76
     1
 77
     6
 78
     2
 67
     7
 79
     3
170
     0
171
     0
290
     0
174
     0
 93
        1
 44
0.0
173
     0
291
     0
 45
0.0
1001
ACAD
1000
AcDbSavedByObjectVersion
1070
     0
  0
VISUALSTYLE
  5
BE2F
102
{ACAD_XDICTIONARY
360
BE99
102
}
102
{ACAD_REACTORS
330
BE1D
102
}
330
BE1D
100
AcDbVisualStyle
  2
Sketchy
 70
    24
 71
     1
 72
     2
 73
     2
 90
        0
 40
-0.6
 41
-30.0
 62
     5
 63
     7
 74
     2
 91
        2
 64
     7
 65
     7
 75
     1
175
     1
 42
40.0
 92
       11
 66
     7
 43
1.0
 76
     1
 77
     6
 78
     2
 67
     7
 79
     6
170
     0
171
     0
290
     0
174
     0
 93
        1
 44
0.0
173
     0
291
     0
 45
0.0
1001
ACAD
1000
AcDbSavedByObjectVersion
1070
     0
  0
VISUALSTYLE
  5
BE2A
102
{ACAD_XDICTIONARY
360
BE8F
102
}
102
{ACAD_REACTORS
330
BE1D
102
}
330
BE1D
100
AcDbVisualStyle
  2
Thicken
 70
    13
 71
     2
 72
     2
 73
     0
 90
        0
 40
-0.6
 41
-30.0
 62
     5
 63
     7
 74
     1
 91
        4
 64
     7
 65
   257
 75
     1
175
     1
 42
1.0
 92
       12
 66
     7
 43
1.0
 76
     1
 77
     6
 78
     2
 67
     7
 79
     5
170
     0
171
     0
290
     0
174
     0
 93
        1
 44
0.0
173
     0
291
     1
 45
0.0
1001
ACAD
1000
AcDbSavedByObjectVersion
1070
     0
  0
VISUALSTYLE
  5
BE24
102
{ACAD_XDICTIONARY
360
BE83
102
}
102
{ACAD_REACTORS
330
BE1D
102
}
330
BE1D
100
AcDbVisualStyle
  2
Wireframe
 70
     5
 71
     0
 72
     2
 73
     0
 90
        0
 40
-0.6
 41
-30.0
 62
     5
 63
     7
 74
     1
 91
        4
 64
     7
 65
   257
 75
     1
175
     1
 42
1.0
 92
        0
 66
   257
 43
1.0
 76
     1
 77
     6
 78
     2
 67
     7
 79
     3
170
     0
171
     0
290
     0
174
     0
 93
        1
 44
0.0
173
     0
291
     0
 45
0.0
1001
ACAD
1000
AcDbSavedByObjectVersion
1070
     0
  0
VISUALSTYLE
  5
BE30
102
{ACAD_XDICTIONARY
360
BE9B
102
}
102
{ACAD_REACTORS
330
BE1D
102
}
330
BE1D
100
AcDbVisualStyle
  2
X-Ray
 70
    25
 71
     2
 72
     2
 73
     1
 90
        1
 40
0.5
 41
-30.0
 62
     5
 63
     7
 74
     1
 91
        0
 64
     7
 65
   257
 75
     1
175
     1
 42
1.0
 92
        8
 66
     7
 43
1.0
 76
     1
 77
     6
 78
     2
 67
     7
 79
     3
170
     0
171
     0
290
     0
174
     0
 93
       13
 44
0.0
173
     0
291
     0
 45
0.0
1001
ACAD
1000
AcDbSavedByObjectVersion
1070
     0
  0
DICTIONARYVAR
  5
BE6A
102
{ACAD_REACTORS
330
BE65
102
}
330
BE65
100
DictionaryVariables
280
     0
  1
1:1
  0
DICTIONARYVAR
  5
BE67
102
{ACAD_REACTORS
330
BE65
102
}
330
BE65
100
DictionaryVariables
280
     0
  1
STANDARD
  0
DICTIONARYVAR
  5
BE66
102
{ACAD_REACTORS
330
BE65
102
}
330
BE65
100
DictionaryVariables
280
     0
  1
STANDARD
  0
DICTIONARYVAR
  5
BE68
102
{ACAD_REACTORS
330
BE65
102
}
330
BE65
100
DictionaryVariables
280
     0
  1
Imperial24
  0
DICTIONARYVAR
  5
BE69
102
{ACAD_REACTORS
330
BE65
102
}
330
BE65
100
DictionaryVariables
280
     0
  1
Imperial24
  0
DICTIONARYVAR
  5
BE6D
102
{ACAD_REACTORS
330
BE65
102
}
330
BE65
100
DictionaryVariables
280
     0
  1
1
  0
DICTIONARYVAR
  5
BE6C
102
{ACAD_REACTORS
330
BE65
102
}
330
BE65
100
DictionaryVariables
280
     0
  1
0
  0
DICTIONARYVAR
  5
BE6B
102
{ACAD_REACTORS
330
BE65
102
}
330
BE65
100
DictionaryVariables
280
     0
  1
127
  0
DICTIONARYVAR
  5
BE6E
102
{ACAD_REACTORS
330
BE65
102
}
330
BE65
100
DictionaryVariables
280
     0
  1
2
  0
DICTIONARY
  5
BEAB
330
BE50
100
AcDbDictionary
280
     1
281
     1
  3
ACAD_XREC_ROUNDTRIP
360
BEAC
  0
DICTIONARY
  5
BEAD
330
BE51
100
AcDbDictionary
280
     1
281
     1
  3
ACAD_XREC_ROUNDTRIP
360
BEAE
  0
DICTIONARY
  5
BEAF
330
BE52
100
AcDbDictionary
280
     1
281
     1
  3
ACAD_XREC_ROUNDTRIP
360
BEB0
  0
DICTIONARY
  5
BE0E
330
BE0D
100
AcDbDictionary
280
     1
281
     1
  3
ACAD_XREC_ROUNDTRIP
360
BE75
  3
BUMPTILE
360
BE10
  3
DIFFUSETILE
360
BE0F
  3
OPACITYTILE
360
BE13
  3
REFLECTIONTILE
360
BE12
  3
REFRACTIONTILE
360
BE14
  3
SPECULARTILE
360
BE11
  0
DICTIONARY
  5
BE06
330
BE05
100
AcDbDictionary
280
     1
281
     1
  3
ACAD_XREC_ROUNDTRIP
360
BE74
  3
BUMPTILE
360
BE08
  3
DIFFUSETILE
360
BE07
  3
OPACITYTILE
360
BE0B
  3
REFLECTIONTILE
360
BE0A
  3
REFRACTIONTILE
360
BE0C
  3
SPECULARTILE
360
BE09
  0
DICTIONARY
  5
BE16
330
BE15
100
AcDbDictionary
280
     1
281
     1
  3
ACAD_XREC_ROUNDTRIP
360
BE76
  3
BUMPTILE
360
BE18
  3
DIFFUSETILE
360
BE17
  3
OPACITYTILE
360
BE1B
  3
REFLECTIONTILE
360
BE1A
  3
REFRACTIONTILE
360
BE1C
  3
SPECULARTILE
360
BE19
  0
DICTIONARY
  5
BEA9
330
BE4E
100
AcDbDictionary
280
     1
281
     1
  3
ACAD_XREC_ROUNDTRIP
360
BEAA
  0
DICTIONARY
  5
BE70
330
BE38
100
AcDbDictionary
280
     1
281
     1
  3
ACAD_ROUNDTRIP_2008_TABLESTYLE_CELLSTYLEMAP
360
BE71
  3
ACAD_XREC_ROUNDTRIP
360
BEA7
  0
DICTIONARY
  5
BE81
330
BE23
100
AcDbDictionary
280
     1
281
     1
  3
ACAD_XREC_ROUNDTRIP
360
BE82
  0
DICTIONARY
  5
BE7F
330
BE22
100
AcDbDictionary
280
     1
281
     1
  3
ACAD_XREC_ROUNDTRIP
360
BE80
  0
DICTIONARY
  5
BE8D
330
BE29
100
AcDbDictionary
280
     1
281
     1
  3
ACAD_XREC_ROUNDTRIP
360
BE8E
  0
DICTIONARY
  5
BE95
330
BE2D
100
AcDbDictionary
280
     1
281
     1
  3
ACAD_XREC_ROUNDTRIP
360
BE96
  0
DICTIONARY
  5
BE87
330
BE26
100
AcDbDictionary
280
     1
281
     1
  3
ACAD_XREC_ROUNDTRIP
360
BE88
  0
DICTIONARY
  5
BE8B
330
BE28
100
AcDbDictionary
280
     1
281
     1
  3
ACAD_XREC_ROUNDTRIP
360
BE8C
  0
DICTIONARY
  5
BEA5
330
BE35
100
AcDbDictionary
280
     1
281
     1
  3
ACAD_XREC_ROUNDTRIP
360
BEA6
  0
DICTIONARY
  5
BE93
330
BE2C
100
AcDbDictionary
280
     1
281
     1
  3
ACAD_XREC_ROUNDTRIP
360
BE94
  0
DICTIONARY
  5
BE77
330
BE1E
100
AcDbDictionary
280
     1
281
     1
  3
ACAD_XREC_ROUNDTRIP
360
BE78
  0
DICTIONARY
  5
BE79
330
BE1F
100
AcDbDictionary
280
     1
281
     1
  3
ACAD_XREC_ROUNDTRIP
360
BE7A
  0
DICTIONARY
  5
BE7B
330
BE20
100
AcDbDictionary
280
     1
281
     1
  3
ACAD_XREC_ROUNDTRIP
360
BE7C
  0
DICTIONARY
  5
BE7D
330
BE21
100
AcDbDictionary
280
     1
281
     1
  3
ACAD_XREC_ROUNDTRIP
360
BE7E
  0
DICTIONARY
  5
BE85
330
BE25
100
AcDbDictionary
280
     1
281
     1
  3
ACAD_XREC_ROUNDTRIP
360
BE86
  0
DICTIONARY
  5
BEA1
330
BE33
100
AcDbDictionary
280
     1
281
     1
  3
ACAD_XREC_ROUNDTRIP
360
BEA2
  0
DICTIONARY
  5
BE91
330
BE2B
100
AcDbDictionary
280
     1
281
     1
  3
ACAD_XREC_ROUNDTRIP
360
BE92
  0
DICTIONARY
  5
BEA3
330
BE34
100
AcDbDictionary
280
     1
281
     1
  3
ACAD_XREC_ROUNDTRIP
360
BEA4
  0
DICTIONARY
  5
BE89
330
BE27
100
AcDbDictionary
280
     1
281
     1
  3
ACAD_XREC_ROUNDTRIP
360
BE8A
  0
DICTIONARY
  5
BE9F
330
BE32
100
AcDbDictionary
280
     1
281
     1
  3
ACAD_XREC_ROUNDTRIP
360
BEA0
  0
DICTIONARY
  5
BE9D
330
BE31
100
AcDbDictionary
280
     1
281
     1
  3
ACAD_XREC_ROUNDTRIP
360
BE9E
  0
DICTIONARY
  5
BE97
330
BE2E
100
AcDbDictionary
280
     1
281
     1
  3
ACAD_XREC_ROUNDTRIP
360
BE98
  0
DICTIONARY
  5
BE99
330
BE2F
100
AcDbDictionary
280
     1
281
     1
  3
ACAD_XREC_ROUNDTRIP
360
BE9A
  0
DICTIONARY
  5
BE8F
330
BE2A
100
AcDbDictionary
280
     1
281
     1
  3
ACAD_XREC_ROUNDTRIP
360
BE90
  0
DICTIONARY
  5
BE83
330
BE24
100
AcDbDictionary
280
     1
281
     1
  3
ACAD_XREC_ROUNDTRIP
360
BE84
  0
DICTIONARY
  5
BE9B
330
BE30
100
AcDbDictionary
280
     1
281
     1
  3
ACAD_XREC_ROUNDTRIP
360
BE9C
  0
XRECORD
  5
BEAC
102
{ACAD_REACTORS
330
BEAB
102
}
330
BEAB
100
AcDbXrecord
280
     1
102
DISPLAYNAME
  1
Imperial24
102
FLAGS
 90
        0
  0
XRECORD
  5
BEAE
102
{ACAD_REACTORS
330
BEAD
102
}
330
BEAD
100
AcDbXrecord
280
     1
102
SHADEPLOT
 70
     0
102
SHADEPLOTRESLEVEL
 70
     2
102
SHADEPLOTCUSTOMDPI
 70
   300
  0
XRECORD
  5
BEB0
102
{ACAD_REACTORS
330
BEAF
102
}
330
BEAF
100
AcDbXrecord
280
     1
102
SHADEPLOT
 70
     0
102
SHADEPLOTRESLEVEL
 70
     2
102
SHADEPLOTCUSTOMDPI
 70
   300
  0
XRECORD
  5
BE75
102
{ACAD_REACTORS
330
BE0E
102
}
330
BE0E
100
AcDbXrecord
280
     1
102
MATERIAL
148
0.0
149
0.0
149
0.0
 93
        0
 94
      127
282
     0
 72
     0
 77
     0
171
     0
175
     0
179
     0
273
     0
  0
XRECORD
  5
BE10
102
{ACAD_REACTORS
330
BE0E
102
}
330
BE0E
100
AcDbXrecord
280
     1
270
     1
271
     1
  0
XRECORD
  5
BE0F
102
{ACAD_REACTORS
330
BE0E
102
}
330
BE0E
100
AcDbXrecord
280
     1
270
     1
271
     1
  0
XRECORD
  5
BE13
102
{ACAD_REACTORS
330
BE0E
102
}
330
BE0E
100
AcDbXrecord
280
     1
270
     1
271
     1
  0
XRECORD
  5
BE12
102
{ACAD_REACTORS
330
BE0E
102
}
330
BE0E
100
AcDbXrecord
280
     1
270
     1
271
     1
  0
XRECORD
  5
BE14
102
{ACAD_REACTORS
330
BE0E
102
}
330
BE0E
100
AcDbXrecord
280
     1
270
     1
271
     1
  0
XRECORD
  5
BE11
102
{ACAD_REACTORS
330
BE0E
102
}
330
BE0E
100
AcDbXrecord
280
     1
270
     1
271
     1
  0
XRECORD
  5
BE74
102
{ACAD_REACTORS
330
BE06
102
}
330
BE06
100
AcDbXrecord
280
     1
102
MATERIAL
148
0.0
149
0.0
149
0.0
 93
        0
 94
      127
282
     0
 72
     0
 77
     0
171
     0
175
     0
179
     0
273
     0
  0
XRECORD
  5
BE08
102
{ACAD_REACTORS
330
BE06
102
}
330
BE06
100
AcDbXrecord
280
     1
270
     1
271
     1
  0
XRECORD
  5
BE07
102
{ACAD_REACTORS
330
BE06
102
}
330
BE06
100
AcDbXrecord
280
     1
270
     1
271
     1
  0
XRECORD
  5
BE0B
102
{ACAD_REACTORS
330
BE06
102
}
330
BE06
100
AcDbXrecord
280
     1
270
     1
271
     1
  0
XRECORD
  5
BE0A
102
{ACAD_REACTORS
330
BE06
102
}
330
BE06
100
AcDbXrecord
280
     1
270
     1
271
     1
  0
XRECORD
  5
BE0C
102
{ACAD_REACTORS
330
BE06
102
}
330
BE06
100
AcDbXrecord
280
     1
270
     1
271
     1
  0
XRECORD
  5
BE09
102
{ACAD_REACTORS
330
BE06
102
}
330
BE06
100
AcDbXrecord
280
     1
270
     1
271
     1
  0
XRECORD
  5
BE76
102
{ACAD_REACTORS
330
BE16
102
}
330
BE16
100
AcDbXrecord
280
     1
102
MATERIAL
148
0.0
149
0.0
149
0.0
 93
        0
 94
      127
282
     0
 72
     0
 77
     0
171
     0
175
     0
179
     0
273
     0
  0
XRECORD
  5
BE18
102
{ACAD_REACTORS
330
BE16
102
}
330
BE16
100
AcDbXrecord
280
     1
270
     1
271
     1
  0
XRECORD
  5
BE17
102
{ACAD_REACTORS
330
BE16
102
}
330
BE16
100
AcDbXrecord
280
     1
270
     1
271
     1
  0
XRECORD
  5
BE1B
102
{ACAD_REACTORS
330
BE16
102
}
330
BE16
100
AcDbXrecord
280
     1
270
     1
271
     1
  0
XRECORD
  5
BE1A
102
{ACAD_REACTORS
330
BE16
102
}
330
BE16
100
AcDbXrecord
280
     1
270
     1
271
     1
  0
XRECORD
  5
BE1C
102
{ACAD_REACTORS
330
BE16
102
}
330
BE16
100
AcDbXrecord
280
     1
270
     1
271
     1
  0
XRECORD
  5
BE19
102
{ACAD_REACTORS
330
BE16
102
}
330
BE16
100
AcDbXrecord
280
     1
270
     1
271
     1
  0
XRECORD
  5
BEAA
102
{ACAD_REACTORS
330
BEA9
102
}
330
BEA9
100
AcDbXrecord
280
     1
102
DISPLAYNAME
  1
Imperial24
102
FLAGS
 90
        0
  0
CELLSTYLEMAP
  5
BE71
102
{ACAD_REACTORS
330
BE70
102
}
330
BE70
100
AcDbCellStyleMap
 90
        3
300
CELLSTYLE
  1
TABLEFORMAT_BEGIN
 90
        5
170
     1
 91
        0
 92
    32768
 62
   257
 93
        1
300
CONTENTFORMAT
  1
CONTENTFORMAT_BEGIN
 90
        0
 91
        0
 92
      512
 93
        0
300

 40
0.0
140
1.0
 94
        5
 62
     0
340
BBF1
144
0.25
309
CONTENTFORMAT_END
171
     0
 94
        0
309
TABLEFORMAT_END
  1
CELLSTYLE_BEGIN
 90
        1
 91
        1
300
_TITLE
309
CELLSTYLE_END
300
CELLSTYLE
  1
TABLEFORMAT_BEGIN
 90
        5
170
     1
 91
        0
 92
        0
 62
   257
 93
        1
300
CONTENTFORMAT
  1
CONTENTFORMAT_BEGIN
 90
        0
 91
        0
 92
      512
 93
        0
300

 40
0.0
140
1.0
 94
        5
 62
     0
340
BBF1
144
0.18
309
CONTENTFORMAT_END
171
     0
 94
        0
309
TABLEFORMAT_END
  1
CELLSTYLE_BEGIN
 90
        2
 91
        1
300
_HEADER
309
CELLSTYLE_END
300
CELLSTYLE
  1
TABLEFORMAT_BEGIN
 90
        5
170
     1
 91
        0
 92
        0
 62
   257
 93
        1
300
CONTENTFORMAT
  1
CONTENTFORMAT_BEGIN
 90
        0
 91
        0
 92
      512
 93
        0
300

 40
0.0
140
1.0
 94
        2
 62
     0
340
BBF1
144
0.18
309
CONTENTFORMAT_END
171
     0
 94
        0
309
TABLEFORMAT_END
  1
CELLSTYLE_BEGIN
 90
        3
 91
        2
300
_DATA
309
CELLSTYLE_END
  0
XRECORD
  5
BEA7
102
{ACAD_REACTORS
330
BE70
102
}
330
BE70
100
AcDbXrecord
280
     1
102
ACAD_ROUNDTRIP_PRE2007_TABLESTYLE
 90
      512
 91
        0
  1

 92
      512
 93
        0
  2

 94
      512
 95
        0
  3

  0
XRECORD
  5
BE82
102
{ACAD_REACTORS
330
BE81
102
}
330
BE81
100
AcDbXrecord
280
     1
102
RTVSPost2010Prop28
280
     1
102
RTVSPost2010PropOp28
 70
     1
102
RTVSPost2010Prop29
280
     1
102
RTVSPost2010PropOp29
 70
     1
102
RTVSPost2010Prop30
280
     0
102
RTVSPost2010PropOp30
 70
     1
102
RTVSPost2010Prop31
280
     0
102
RTVSPost2010PropOp31
 70
     1
102
RTVSPost2010Prop32
280
     0
102
RTVSPost2010PropOp32
 70
     1
102
RTVSPost2010Prop33
280
     0
102
RTVSPost2010PropOp33
 70
     1
102
RTVSPost2010Prop34
280
     0
102
RTVSPost2010PropOp34
 70
     1
102
RTVSPost2010Prop35
280
     0
102
RTVSPost2010PropOp35
 70
     1
102
RTVSPost2010Prop36
280
     0
102
RTVSPost2010PropOp36
 70
     1
102
RTVSPost2010Prop37
 90
       50
102
RTVSPost2010PropOp37
 70
     1
102
RTVSPost2010Prop38
140
0.0
102
RTVSPost2010PropOp38
 70
     1
102
RTVSPost2010Prop39
140
1.0
102
RTVSPost2010PropOp39
 70
     1
102
RTVSPost2010Prop40
 90
        0
102
RTVSPost2010PropOp40
 70
     1
102
RTVSPost2010Prop41ColorIndex
 90
       18
102
RTVSPost2010Prop41ColorRGB
 90
        0
102
RTVSPost2010PropOp41
 70
     1
102
RTVSPost2010Prop42
 90
       50
102
RTVSPost2010PropOp42
 70
     1
102
RTVSPost2010Prop43
 90
        3
102
RTVSPost2010PropOp43
 70
     1
102
RTVSPost2010Prop44ColorIndex
 90
        5
102
RTVSPost2010Prop44ColorRGB
 90
      255
102
RTVSPost2010PropOp44
 70
     1
102
RTVSPost2010Prop45
280
     0
102
RTVSPost2010PropOp45
 70
     1
102
RTVSPost2010Prop46
 90
       50
102
RTVSPost2010PropOp46
 70
     1
102
RTVSPost2010Prop47
 90
       50
102
RTVSPost2010PropOp47
 70
     1
102
RTVSPost2010Prop48
 90
       50
102
RTVSPost2010PropOp48
 70
     1
102
RTVSPost2010Prop49
280
     0
102
RTVSPost2010PropOp49
 70
     1
102
RTVSPost2010Prop50
 90
       50
102
RTVSPost2010PropOp50
 70
     1
102
RTVSPost2010Prop51ColorIndex
 90
      256
102
RTVSPost2010Prop51ColorRGB
 90
-16777216
102
RTVSPost2010PropOp51
 70
     0
102
RTVSPost2010Prop52
140
1.0
102
RTVSPost2010PropOp52
 70
     0
102
RTVSPost2010Prop53
 90
        2
102
RTVSPost2010PropOp53
 70
     1
102
RTVSPost2010Prop54
  1
strokes_ogs.tif
102
RTVSPost2010PropOp54
 70
     1
102
RTVSPost2010Prop55
280
     0
102
RTVSPost2010PropOp55
 70
     1
102
RTVSPost2010Prop56
140
1.0
102
RTVSPost2010PropOp56
 70
     1
102
RTVSPost2010Prop57
140
1.0
102
RTVSPost2010PropOp57
 70
     1
102
RTVSPropertyOp0
 70
     1
102
RTVSPropertyOp1
 70
     1
102
RTVSPropertyOp2
 70
     1
102
RTVSPropertyOp3
 70
     1
102
RTVSPropertyOp4
 70
     1
102
RTVSPropertyOp5
 70
     1
102
RTVSPropertyOp6
 70
     1
102
RTVSPropertyOp7
 70
     1
102
RTVSPropertyOp8
 70
     1
102
RTVSPropertyOp9
 70
     1
102
RTVSPropertyOp10
 70
     1
102
RTVSPropertyOp11
 70
     1
102
RTVSPropertyOp12
 70
     1
102
RTVSPropertyOp13
 70
     1
102
RTVSPropertyOp14
 70
     1
102
RTVSPropertyOp15
 70
     1
102
RTVSPropertyOp16
 70
     1
102
RTVSPropertyOp17
 70
     1
102
RTVSPropertyOp18
 70
     1
102
RTVSPropertyOp19
 70
     1
102
RTVSPropertyOp20
 70
     1
102
RTVSPropertyOp21
 70
     1
102
RTVSPropertyOp22
 70
     1
102
RTVSPropertyOp23
 70
     1
102
RTVSPropertyOp24
 70
     1
102
RTVSPropertyOp25
 70
     1
102
RTVSPropertyOp26
 70
     1
102
RTVSPropertyOp27
 70
     1
102
RTVSPropertyOp28
 70
     1
102
RTVSPropertyOp29
 70
     1
102
RTVSPropertyOp30
 70
     1
102
RTVSPropertyOp31
 70
     1
102
RTVSPropertyOp32
 70
     1
102
RTVSPropertyOp33
 70
     1
102
RTVSPropertyOp34
 70
     1
102
RTVSPropertyOp35
 70
     1
102
RTVSPropertyOp36
 70
     1
102
RTVSPropertyOp37
 70
     1
102
RTVSPropertyOp38
 70
     1
102
RTVSPropertyOp39
 70
     1
102
RTVSPropertyOp40
 70
     1
102
RTVSPropertyOp41
 70
     1
102
RTVSPropertyOp42
 70
     1
102
RTVSPropertyOp43
 70
     1
102
RTVSPropertyOp44
 70
     1
102
RTVSPropertyOp45
 70
     1
102
RTVSPropertyOp46
 70
     1
102
RTVSPropertyOp47
 70
     1
102
RTVSPropertyOp48
 70
     1
102
RTVSPropertyOp49
 70
     1
102
RTVSPropertyOp50
 70
     1
102
RTVSPropertyOp51
 70
     0
102
RTVSPropertyOp52
 70
     0
102
RTVSPropertyOp53
 70
     1
102
RTVSPropertyOp54
 70
     1
102
RTVSPropertyOp55
 70
     1
102
RTVSPropertyOp56
 70
     1
102
RTVSPropertyOp57
 70
     1
102
RTVSPropertyOp58
 70
     1
102
RTVSPropertyOp59
 70
     1
102
RTVSPropertyOp60
 70
     1
102
RTVSPropertyOp61
 70
     1
102
RTVSPropertyOp62
 70
     1
  0
XRECORD
  5
BE80
102
{ACAD_REACTORS
330
BE7F
102
}
330
BE7F
100
AcDbXrecord
280
     1
102
RTVSPost2010Prop28
280
     0
102
RTVSPost2010PropOp28
 70
     1
102
RTVSPost2010Prop29
280
     1
102
RTVSPost2010PropOp29
 70
     1
102
RTVSPost2010Prop30
280
     1
102
RTVSPost2010PropOp30
 70
     1
102
RTVSPost2010Prop31
280
     0
102
RTVSPost2010PropOp31
 70
     1
102
RTVSPost2010Prop32
280
     0
102
RTVSPost2010PropOp32
 70
     1
102
RTVSPost2010Prop33
280
     0
102
RTVSPost2010PropOp33
 70
     1
102
RTVSPost2010Prop34
280
     0
102
RTVSPost2010PropOp34
 70
     1
102
RTVSPost2010Prop35
280
     0
102
RTVSPost2010PropOp35
 70
     1
102
RTVSPost2010Prop36
280
     0
102
RTVSPost2010PropOp36
 70
     1
102
RTVSPost2010Prop37
 90
       50
102
RTVSPost2010PropOp37
 70
     1
102
RTVSPost2010Prop38
140
0.0
102
RTVSPost2010PropOp38
 70
     1
102
RTVSPost2010Prop39
140
1.0
102
RTVSPost2010PropOp39
 70
     1
102
RTVSPost2010Prop40
 90
        0
102
RTVSPost2010PropOp40
 70
     1
102
RTVSPost2010Prop41ColorIndex
 90
       18
102
RTVSPost2010Prop41ColorRGB
 90
        0
102
RTVSPost2010PropOp41
 70
     1
102
RTVSPost2010Prop42
 90
       50
102
RTVSPost2010PropOp42
 70
     1
102
RTVSPost2010Prop43
 90
        3
102
RTVSPost2010PropOp43
 70
     1
102
RTVSPost2010Prop44ColorIndex
 90
        5
102
RTVSPost2010Prop44ColorRGB
 90
      255
102
RTVSPost2010PropOp44
 70
     1
102
RTVSPost2010Prop45
280
     0
102
RTVSPost2010PropOp45
 70
     1
102
RTVSPost2010Prop46
 90
       50
102
RTVSPost2010PropOp46
 70
     1
102
RTVSPost2010Prop47
 90
       50
102
RTVSPost2010PropOp47
 70
     1
102
RTVSPost2010Prop48
 90
       50
102
RTVSPost2010PropOp48
 70
     1
102
RTVSPost2010Prop49
280
     0
102
RTVSPost2010PropOp49
 70
     1
102
RTVSPost2010Prop50
 90
       50
102
RTVSPost2010PropOp50
 70
     1
102
RTVSPost2010Prop51ColorIndex
 90
      256
102
RTVSPost2010Prop51ColorRGB
 90
-16777216
102
RTVSPost2010PropOp51
 70
     0
102
RTVSPost2010Prop52
140
1.0
102
RTVSPost2010PropOp52
 70
     0
102
RTVSPost2010Prop53
 90
        2
102
RTVSPost2010PropOp53
 70
     1
102
RTVSPost2010Prop54
  1
strokes_ogs.tif
102
RTVSPost2010PropOp54
 70
     1
102
RTVSPost2010Prop55
280
     0
102
RTVSPost2010PropOp55
 70
     1
102
RTVSPost2010Prop56
140
1.0
102
RTVSPost2010PropOp56
 70
     1
102
RTVSPost2010Prop57
140
1.0
102
RTVSPost2010PropOp57
 70
     1
102
RTVSPropertyOp0
 70
     1
102
RTVSPropertyOp1
 70
     1
102
RTVSPropertyOp2
 70
     1
102
RTVSPropertyOp3
 70
     1
102
RTVSPropertyOp4
 70
     1
102
RTVSPropertyOp5
 70
     1
102
RTVSPropertyOp6
 70
     1
102
RTVSPropertyOp7
 70
     1
102
RTVSPropertyOp8
 70
     1
102
RTVSPropertyOp9
 70
     1
102
RTVSPropertyOp10
 70
     1
102
RTVSPropertyOp11
 70
     1
102
RTVSPropertyOp12
 70
     1
102
RTVSPropertyOp13
 70
     1
102
RTVSPropertyOp14
 70
     1
102
RTVSPropertyOp15
 70
     1
102
RTVSPropertyOp16
 70
     1
102
RTVSPropertyOp17
 70
     1
102
RTVSPropertyOp18
 70
     1
102
RTVSPropertyOp19
 70
     1
102
RTVSPropertyOp20
 70
     1
102
RTVSPropertyOp21
 70
     1
102
RTVSPropertyOp22
 70
     1
102
RTVSPropertyOp23
 70
     1
102
RTVSPropertyOp24
 70
     1
102
RTVSPropertyOp25
 70
     1
102
RTVSPropertyOp26
 70
     1
102
RTVSPropertyOp27
 70
     1
102
RTVSPropertyOp28
 70
     1
102
RTVSPropertyOp29
 70
     1
102
RTVSPropertyOp30
 70
     1
102
RTVSPropertyOp31
 70
     1
102
RTVSPropertyOp32
 70
     1
102
RTVSPropertyOp33
 70
     1
102
RTVSPropertyOp34
 70
     1
102
RTVSPropertyOp35
 70
     1
102
RTVSPropertyOp36
 70
     1
102
RTVSPropertyOp37
 70
     1
102
RTVSPropertyOp38
 70
     1
102
RTVSPropertyOp39
 70
     1
102
RTVSPropertyOp40
 70
     1
102
RTVSPropertyOp41
 70
     1
102
RTVSPropertyOp42
 70
     1
102
RTVSPropertyOp43
 70
     1
102
RTVSPropertyOp44
 70
     1
102
RTVSPropertyOp45
 70
     1
102
RTVSPropertyOp46
 70
     1
102
RTVSPropertyOp47
 70
     1
102
RTVSPropertyOp48
 70
     1
102
RTVSPropertyOp49
 70
     1
102
RTVSPropertyOp50
 70
     1
102
RTVSPropertyOp51
 70
     0
102
RTVSPropertyOp52
 70
     0
102
RTVSPropertyOp53
 70
     1
102
RTVSPropertyOp54
 70
     1
102
RTVSPropertyOp55
 70
     1
102
RTVSPropertyOp56
 70
     1
102
RTVSPropertyOp57
 70
     1
102
RTVSPropertyOp58
 70
     1
102
RTVSPropertyOp59
 70
     1
102
RTVSPropertyOp60
 70
     1
102
RTVSPropertyOp61
 70
     1
102
RTVSPropertyOp62
 70
     1
  0
XRECORD
  5
BE8E
102
{ACAD_REACTORS
330
BE8D
102
}
330
BE8D
100
AcDbXrecord
280
     1
102
RTVSPost2010Prop28
280
     0
102
RTVSPost2010PropOp28
 70
     1
102
RTVSPost2010Prop29
280
     1
102
RTVSPost2010PropOp29
 70
     1
102
RTVSPost2010Prop30
280
     1
102
RTVSPost2010PropOp30
 70
     1
102
RTVSPost2010Prop31
280
     0
102
RTVSPost2010PropOp31
 70
     1
102
RTVSPost2010Prop32
280
     0
102
RTVSPost2010PropOp32
 70
     1
102
RTVSPost2010Prop33
280
     0
102
RTVSPost2010PropOp33
 70
     1
102
RTVSPost2010Prop34
280
     0
102
RTVSPost2010PropOp34
 70
     1
102
RTVSPost2010Prop35
280
     0
102
RTVSPost2010PropOp35
 70
     1
102
RTVSPost2010Prop36
280
     0
102
RTVSPost2010PropOp36
 70
     1
102
RTVSPost2010Prop37
 90
       50
102
RTVSPost2010PropOp37
 70
     1
102
RTVSPost2010Prop38
140
0.0
102
RTVSPost2010PropOp38
 70
     1
102
RTVSPost2010Prop39
140
1.0
102
RTVSPost2010PropOp39
 70
     1
102
RTVSPost2010Prop40
 90
        0
102
RTVSPost2010PropOp40
 70
     1
102
RTVSPost2010Prop41ColorIndex
 90
       18
102
RTVSPost2010Prop41ColorRGB
 90
        0
102
RTVSPost2010PropOp41
 70
     1
102
RTVSPost2010Prop42
 90
       50
102
RTVSPost2010PropOp42
 70
     1
102
RTVSPost2010Prop43
 90
        3
102
RTVSPost2010PropOp43
 70
     1
102
RTVSPost2010Prop44ColorIndex
 90
        5
102
RTVSPost2010Prop44ColorRGB
 90
      255
102
RTVSPost2010PropOp44
 70
     1
102
RTVSPost2010Prop45
280
     0
102
RTVSPost2010PropOp45
 70
     1
102
RTVSPost2010Prop46
 90
       50
102
RTVSPost2010PropOp46
 70
     1
102
RTVSPost2010Prop47
 90
       50
102
RTVSPost2010PropOp47
 70
     1
102
RTVSPost2010Prop48
 90
       50
102
RTVSPost2010PropOp48
 70
     1
102
RTVSPost2010Prop49
280
     0
102
RTVSPost2010PropOp49
 70
     1
102
RTVSPost2010Prop50
 90
       50
102
RTVSPost2010PropOp50
 70
     1
102
RTVSPost2010Prop51ColorIndex
 90
      256
102
RTVSPost2010Prop51ColorRGB
 90
-16777216
102
RTVSPost2010PropOp51
 70
     0
102
RTVSPost2010Prop52
140
1.0
102
RTVSPost2010PropOp52
 70
     0
102
RTVSPost2010Prop53
 90
        2
102
RTVSPost2010PropOp53
 70
     1
102
RTVSPost2010Prop54
  1
strokes_ogs.tif
102
RTVSPost2010PropOp54
 70
     1
102
RTVSPost2010Prop55
280
     0
102
RTVSPost2010PropOp55
 70
     1
102
RTVSPost2010Prop56
140
1.0
102
RTVSPost2010PropOp56
 70
     1
102
RTVSPost2010Prop57
140
1.0
102
RTVSPost2010PropOp57
 70
     1
102
RTVSPropertyOp0
 70
     1
102
RTVSPropertyOp1
 70
     1
102
RTVSPropertyOp2
 70
     1
102
RTVSPropertyOp3
 70
     1
102
RTVSPropertyOp4
 70
     1
102
RTVSPropertyOp5
 70
     1
102
RTVSPropertyOp6
 70
     1
102
RTVSPropertyOp7
 70
     1
102
RTVSPropertyOp8
 70
     1
102
RTVSPropertyOp9
 70
     1
102
RTVSPropertyOp10
 70
     1
102
RTVSPropertyOp11
 70
     1
102
RTVSPropertyOp12
 70
     1
102
RTVSPropertyOp13
 70
     1
102
RTVSPropertyOp14
 70
     1
102
RTVSPropertyOp15
 70
     1
102
RTVSPropertyOp16
 70
     1
102
RTVSPropertyOp17
 70
     1
102
RTVSPropertyOp18
 70
     1
102
RTVSPropertyOp19
 70
     1
102
RTVSPropertyOp20
 70
     1
102
RTVSPropertyOp21
 70
     1
102
RTVSPropertyOp22
 70
     1
102
RTVSPropertyOp23
 70
     1
102
RTVSPropertyOp24
 70
     1
102
RTVSPropertyOp25
 70
     1
102
RTVSPropertyOp26
 70
     1
102
RTVSPropertyOp27
 70
     1
102
RTVSPropertyOp28
 70
     1
102
RTVSPropertyOp29
 70
     1
102
RTVSPropertyOp30
 70
     1
102
RTVSPropertyOp31
 70
     1
102
RTVSPropertyOp32
 70
     1
102
RTVSPropertyOp33
 70
     1
102
RTVSPropertyOp34
 70
     1
102
RTVSPropertyOp35
 70
     1
102
RTVSPropertyOp36
 70
     1
102
RTVSPropertyOp37
 70
     1
102
RTVSPropertyOp38
 70
     1
102
RTVSPropertyOp39
 70
     1
102
RTVSPropertyOp40
 70
     1
102
RTVSPropertyOp41
 70
     1
102
RTVSPropertyOp42
 70
     1
102
RTVSPropertyOp43
 70
     1
102
RTVSPropertyOp44
 70
     1
102
RTVSPropertyOp45
 70
     1
102
RTVSPropertyOp46
 70
     1
102
RTVSPropertyOp47
 70
     1
102
RTVSPropertyOp48
 70
     1
102
RTVSPropertyOp49
 70
     1
102
RTVSPropertyOp50
 70
     1
102
RTVSPropertyOp51
 70
     0
102
RTVSPropertyOp52
 70
     0
102
RTVSPropertyOp53
 70
     1
102
RTVSPropertyOp54
 70
     1
102
RTVSPropertyOp55
 70
     1
102
RTVSPropertyOp56
 70
     1
102
RTVSPropertyOp57
 70
     1
102
RTVSPropertyOp58
 70
     1
102
RTVSPropertyOp59
 70
     1
102
RTVSPropertyOp60
 70
     1
102
RTVSPropertyOp61
 70
     1
102
RTVSPropertyOp62
 70
     1
  0
XRECORD
  5
BE96
102
{ACAD_REACTORS
330
BE95
102
}
330
BE95
100
AcDbXrecord
280
     1
102
RTVSPost2010Prop28
280
     0
102
RTVSPost2010PropOp28
 70
     1
102
RTVSPost2010Prop29
280
     1
102
RTVSPost2010PropOp29
 70
     1
102
RTVSPost2010Prop30
280
     1
102
RTVSPost2010PropOp30
 70
     1
102
RTVSPost2010Prop31
280
     0
102
RTVSPost2010PropOp31
 70
     1
102
RTVSPost2010Prop32
280
     0
102
RTVSPost2010PropOp32
 70
     1
102
RTVSPost2010Prop33
280
     0
102
RTVSPost2010PropOp33
 70
     1
102
RTVSPost2010Prop34
280
     0
102
RTVSPost2010PropOp34
 70
     1
102
RTVSPost2010Prop35
280
     0
102
RTVSPost2010PropOp35
 70
     1
102
RTVSPost2010Prop36
280
     0
102
RTVSPost2010PropOp36
 70
     1
102
RTVSPost2010Prop37
 90
       50
102
RTVSPost2010PropOp37
 70
     1
102
RTVSPost2010Prop38
140
0.0
102
RTVSPost2010PropOp38
 70
     1
102
RTVSPost2010Prop39
140
1.0
102
RTVSPost2010PropOp39
 70
     1
102
RTVSPost2010Prop40
 90
        0
102
RTVSPost2010PropOp40
 70
     1
102
RTVSPost2010Prop41ColorIndex
 90
       18
102
RTVSPost2010Prop41ColorRGB
 90
        0
102
RTVSPost2010PropOp41
 70
     1
102
RTVSPost2010Prop42
 90
       50
102
RTVSPost2010PropOp42
 70
     1
102
RTVSPost2010Prop43
 90
        3
102
RTVSPost2010PropOp43
 70
     1
102
RTVSPost2010Prop44ColorIndex
 90
        5
102
RTVSPost2010Prop44ColorRGB
 90
      255
102
RTVSPost2010PropOp44
 70
     1
102
RTVSPost2010Prop45
280
     0
102
RTVSPost2010PropOp45
 70
     1
102
RTVSPost2010Prop46
 90
       50
102
RTVSPost2010PropOp46
 70
     1
102
RTVSPost2010Prop47
 90
       50
102
RTVSPost2010PropOp47
 70
     1
102
RTVSPost2010Prop48
 90
       50
102
RTVSPost2010PropOp48
 70
     1
102
RTVSPost2010Prop49
280
     0
102
RTVSPost2010PropOp49
 70
     1
102
RTVSPost2010Prop50
 90
       50
102
RTVSPost2010PropOp50
 70
     1
102
RTVSPost2010Prop51ColorIndex
 90
      256
102
RTVSPost2010Prop51ColorRGB
 90
-16777216
102
RTVSPost2010PropOp51
 70
     0
102
RTVSPost2010Prop52
140
1.0
102
RTVSPost2010PropOp52
 70
     0
102
RTVSPost2010Prop53
 90
        2
102
RTVSPost2010PropOp53
 70
     1
102
RTVSPost2010Prop54
  1
strokes_ogs.tif
102
RTVSPost2010PropOp54
 70
     1
102
RTVSPost2010Prop55
280
     0
102
RTVSPost2010PropOp55
 70
     1
102
RTVSPost2010Prop56
140
1.0
102
RTVSPost2010PropOp56
 70
     1
102
RTVSPost2010Prop57
140
1.0
102
RTVSPost2010PropOp57
 70
     1
102
RTVSPropertyOp0
 70
     1
102
RTVSPropertyOp1
 70
     1
102
RTVSPropertyOp2
 70
     1
102
RTVSPropertyOp3
 70
     1
102
RTVSPropertyOp4
 70
     1
102
RTVSPropertyOp5
 70
     1
102
RTVSPropertyOp6
 70
     1
102
RTVSPropertyOp7
 70
     1
102
RTVSPropertyOp8
 70
     1
102
RTVSPropertyOp9
 70
     1
102
RTVSPropertyOp10
 70
     1
102
RTVSPropertyOp11
 70
     1
102
RTVSPropertyOp12
 70
     1
102
RTVSPropertyOp13
 70
     1
102
RTVSPropertyOp14
 70
     1
102
RTVSPropertyOp15
 70
     1
102
RTVSPropertyOp16
 70
     1
102
RTVSPropertyOp17
 70
     1
102
RTVSPropertyOp18
 70
     1
102
RTVSPropertyOp19
 70
     1
102
RTVSPropertyOp20
 70
     1
102
RTVSPropertyOp21
 70
     1
102
RTVSPropertyOp22
 70
     1
102
RTVSPropertyOp23
 70
     1
102
RTVSPropertyOp24
 70
     1
102
RTVSPropertyOp25
 70
     1
102
RTVSPropertyOp26
 70
     1
102
RTVSPropertyOp27
 70
     1
102
RTVSPropertyOp28
 70
     1
102
RTVSPropertyOp29
 70
     1
102
RTVSPropertyOp30
 70
     1
102
RTVSPropertyOp31
 70
     1
102
RTVSPropertyOp32
 70
     1
102
RTVSPropertyOp33
 70
     1
102
RTVSPropertyOp34
 70
     1
102
RTVSPropertyOp35
 70
     1
102
RTVSPropertyOp36
 70
     1
102
RTVSPropertyOp37
 70
     1
102
RTVSPropertyOp38
 70
     1
102
RTVSPropertyOp39
 70
     1
102
RTVSPropertyOp40
 70
     1
102
RTVSPropertyOp41
 70
     1
102
RTVSPropertyOp42
 70
     1
102
RTVSPropertyOp43
 70
     1
102
RTVSPropertyOp44
 70
     1
102
RTVSPropertyOp45
 70
     1
102
RTVSPropertyOp46
 70
     1
102
RTVSPropertyOp47
 70
     1
102
RTVSPropertyOp48
 70
     1
102
RTVSPropertyOp49
 70
     1
102
RTVSPropertyOp50
 70
     1
102
RTVSPropertyOp51
 70
     0
102
RTVSPropertyOp52
 70
     0
102
RTVSPropertyOp53
 70
     1
102
RTVSPropertyOp54
 70
     1
102
RTVSPropertyOp55
 70
     1
102
RTVSPropertyOp56
 70
     1
102
RTVSPropertyOp57
 70
     1
102
RTVSPropertyOp58
 70
     1
102
RTVSPropertyOp59
 70
     1
102
RTVSPropertyOp60
 70
     1
102
RTVSPropertyOp61
 70
     1
102
RTVSPropertyOp62
 70
     1
  0
XRECORD
  5
BE88
102
{ACAD_REACTORS
330
BE87
102
}
330
BE87
100
AcDbXrecord
280
     1
102
RTVSPost2010Prop28
280
     0
102
RTVSPost2010PropOp28
 70
     1
102
RTVSPost2010Prop29
280
     1
102
RTVSPost2010PropOp29
 70
     1
102
RTVSPost2010Prop30
280
     1
102
RTVSPost2010PropOp30
 70
     1
102
RTVSPost2010Prop31
280
     0
102
RTVSPost2010PropOp31
 70
     1
102
RTVSPost2010Prop32
280
     0
102
RTVSPost2010PropOp32
 70
     1
102
RTVSPost2010Prop33
280
     0
102
RTVSPost2010PropOp33
 70
     1
102
RTVSPost2010Prop34
280
     0
102
RTVSPost2010PropOp34
 70
     1
102
RTVSPost2010Prop35
280
     0
102
RTVSPost2010PropOp35
 70
     1
102
RTVSPost2010Prop36
280
     0
102
RTVSPost2010PropOp36
 70
     1
102
RTVSPost2010Prop37
 90
       50
102
RTVSPost2010PropOp37
 70
     1
102
RTVSPost2010Prop38
140
0.0
102
RTVSPost2010PropOp38
 70
     1
102
RTVSPost2010Prop39
140
1.0
102
RTVSPost2010PropOp39
 70
     1
102
RTVSPost2010Prop40
 90
        0
102
RTVSPost2010PropOp40
 70
     1
102
RTVSPost2010Prop41ColorIndex
 90
       18
102
RTVSPost2010Prop41ColorRGB
 90
        0
102
RTVSPost2010PropOp41
 70
     1
102
RTVSPost2010Prop42
 90
       50
102
RTVSPost2010PropOp42
 70
     1
102
RTVSPost2010Prop43
 90
        3
102
RTVSPost2010PropOp43
 70
     1
102
RTVSPost2010Prop44ColorIndex
 90
        5
102
RTVSPost2010Prop44ColorRGB
 90
      255
102
RTVSPost2010PropOp44
 70
     1
102
RTVSPost2010Prop45
280
     0
102
RTVSPost2010PropOp45
 70
     1
102
RTVSPost2010Prop46
 90
       50
102
RTVSPost2010PropOp46
 70
     1
102
RTVSPost2010Prop47
 90
       50
102
RTVSPost2010PropOp47
 70
     1
102
RTVSPost2010Prop48
 90
       50
102
RTVSPost2010PropOp48
 70
     1
102
RTVSPost2010Prop49
280
     0
102
RTVSPost2010PropOp49
 70
     1
102
RTVSPost2010Prop50
 90
       50
102
RTVSPost2010PropOp50
 70
     1
102
RTVSPost2010Prop51ColorIndex
 90
      256
102
RTVSPost2010Prop51ColorRGB
 90
-16777216
102
RTVSPost2010PropOp51
 70
     0
102
RTVSPost2010Prop52
140
1.0
102
RTVSPost2010PropOp52
 70
     0
102
RTVSPost2010Prop53
 90
        2
102
RTVSPost2010PropOp53
 70
     1
102
RTVSPost2010Prop54
  1
strokes_ogs.tif
102
RTVSPost2010PropOp54
 70
     1
102
RTVSPost2010Prop55
280
     0
102
RTVSPost2010PropOp55
 70
     1
102
RTVSPost2010Prop56
140
1.0
102
RTVSPost2010PropOp56
 70
     1
102
RTVSPost2010Prop57
140
1.0
102
RTVSPost2010PropOp57
 70
     1
102
RTVSPropertyOp0
 70
     1
102
RTVSPropertyOp1
 70
     1
102
RTVSPropertyOp2
 70
     1
102
RTVSPropertyOp3
 70
     1
102
RTVSPropertyOp4
 70
     1
102
RTVSPropertyOp5
 70
     1
102
RTVSPropertyOp6
 70
     1
102
RTVSPropertyOp7
 70
     1
102
RTVSPropertyOp8
 70
     1
102
RTVSPropertyOp9
 70
     1
102
RTVSPropertyOp10
 70
     1
102
RTVSPropertyOp11
 70
     1
102
RTVSPropertyOp12
 70
     1
102
RTVSPropertyOp13
 70
     1
102
RTVSPropertyOp14
 70
     1
102
RTVSPropertyOp15
 70
     1
102
RTVSPropertyOp16
 70
     1
102
RTVSPropertyOp17
 70
     1
102
RTVSPropertyOp18
 70
     1
102
RTVSPropertyOp19
 70
     1
102
RTVSPropertyOp20
 70
     1
102
RTVSPropertyOp21
 70
     1
102
RTVSPropertyOp22
 70
     1
102
RTVSPropertyOp23
 70
     1
102
RTVSPropertyOp24
 70
     1
102
RTVSPropertyOp25
 70
     1
102
RTVSPropertyOp26
 70
     1
102
RTVSPropertyOp27
 70
     1
102
RTVSPropertyOp28
 70
     1
102
RTVSPropertyOp29
 70
     1
102
RTVSPropertyOp30
 70
     1
102
RTVSPropertyOp31
 70
     1
102
RTVSPropertyOp32
 70
     1
102
RTVSPropertyOp33
 70
     1
102
RTVSPropertyOp34
 70
     1
102
RTVSPropertyOp35
 70
     1
102
RTVSPropertyOp36
 70
     1
102
RTVSPropertyOp37
 70
     1
102
RTVSPropertyOp38
 70
     1
102
RTVSPropertyOp39
 70
     1
102
RTVSPropertyOp40
 70
     1
102
RTVSPropertyOp41
 70
     1
102
RTVSPropertyOp42
 70
     1
102
RTVSPropertyOp43
 70
     1
102
RTVSPropertyOp44
 70
     1
102
RTVSPropertyOp45
 70
     1
102
RTVSPropertyOp46
 70
     1
102
RTVSPropertyOp47
 70
     1
102
RTVSPropertyOp48
 70
     1
102
RTVSPropertyOp49
 70
     1
102
RTVSPropertyOp50
 70
     1
102
RTVSPropertyOp51
 70
     0
102
RTVSPropertyOp52
 70
     0
102
RTVSPropertyOp53
 70
     1
102
RTVSPropertyOp54
 70
     1
102
RTVSPropertyOp55
 70
     1
102
RTVSPropertyOp56
 70
     1
102
RTVSPropertyOp57
 70
     1
102
RTVSPropertyOp58
 70
     1
102
RTVSPropertyOp59
 70
     1
102
RTVSPropertyOp60
 70
     1
102
RTVSPropertyOp61
 70
     1
102
RTVSPropertyOp62
 70
     1
  0
XRECORD
  5
BE8C
102
{ACAD_REACTORS
330
BE8B
102
}
330
BE8B
100
AcDbXrecord
280
     1
102
RTVSPost2010Prop28
280
     0
102
RTVSPost2010PropOp28
 70
     1
102
RTVSPost2010Prop29
280
     1
102
RTVSPost2010PropOp29
 70
     1
102
RTVSPost2010Prop30
280
     1
102
RTVSPost2010PropOp30
 70
     1
102
RTVSPost2010Prop31
280
     0
102
RTVSPost2010PropOp31
 70
     1
102
RTVSPost2010Prop32
280
     0
102
RTVSPost2010PropOp32
 70
     1
102
RTVSPost2010Prop33
280
     0
102
RTVSPost2010PropOp33
 70
     1
102
RTVSPost2010Prop34
280
     0
102
RTVSPost2010PropOp34
 70
     1
102
RTVSPost2010Prop35
280
     0
102
RTVSPost2010PropOp35
 70
     1
102
RTVSPost2010Prop36
280
     0
102
RTVSPost2010PropOp36
 70
     1
102
RTVSPost2010Prop37
 90
       50
102
RTVSPost2010PropOp37
 70
     1
102
RTVSPost2010Prop38
140
0.0
102
RTVSPost2010PropOp38
 70
     1
102
RTVSPost2010Prop39
140
1.0
102
RTVSPost2010PropOp39
 70
     1
102
RTVSPost2010Prop40
 90
        0
102
RTVSPost2010PropOp40
 70
     1
102
RTVSPost2010Prop41ColorIndex
 90
       18
102
RTVSPost2010Prop41ColorRGB
 90
        0
102
RTVSPost2010PropOp41
 70
     1
102
RTVSPost2010Prop42
 90
       50
102
RTVSPost2010PropOp42
 70
     1
102
RTVSPost2010Prop43
 90
        3
102
RTVSPost2010PropOp43
 70
     1
102
RTVSPost2010Prop44ColorIndex
 90
        5
102
RTVSPost2010Prop44ColorRGB
 90
      255
102
RTVSPost2010PropOp44
 70
     1
102
RTVSPost2010Prop45
280
     0
102
RTVSPost2010PropOp45
 70
     1
102
RTVSPost2010Prop46
 90
       50
102
RTVSPost2010PropOp46
 70
     1
102
RTVSPost2010Prop47
 90
       50
102
RTVSPost2010PropOp47
 70
     1
102
RTVSPost2010Prop48
 90
       50
102
RTVSPost2010PropOp48
 70
     1
102
RTVSPost2010Prop49
280
     0
102
RTVSPost2010PropOp49
 70
     1
102
RTVSPost2010Prop50
 90
       50
102
RTVSPost2010PropOp50
 70
     1
102
RTVSPost2010Prop51ColorIndex
 90
      256
102
RTVSPost2010Prop51ColorRGB
 90
-16777216
102
RTVSPost2010PropOp51
 70
     0
102
RTVSPost2010Prop52
140
1.0
102
RTVSPost2010PropOp52
 70
     0
102
RTVSPost2010Prop53
 90
        2
102
RTVSPost2010PropOp53
 70
     1
102
RTVSPost2010Prop54
  1
strokes_ogs.tif
102
RTVSPost2010PropOp54
 70
     1
102
RTVSPost2010Prop55
280
     0
102
RTVSPost2010PropOp55
 70
     1
102
RTVSPost2010Prop56
140
1.0
102
RTVSPost2010PropOp56
 70
     1
102
RTVSPost2010Prop57
140
1.0
102
RTVSPost2010PropOp57
 70
     1
102
RTVSPropertyOp0
 70
     1
102
RTVSPropertyOp1
 70
     1
102
RTVSPropertyOp2
 70
     1
102
RTVSPropertyOp3
 70
     1
102
RTVSPropertyOp4
 70
     1
102
RTVSPropertyOp5
 70
     1
102
RTVSPropertyOp6
 70
     1
102
RTVSPropertyOp7
 70
     1
102
RTVSPropertyOp8
 70
     1
102
RTVSPropertyOp9
 70
     1
102
RTVSPropertyOp10
 70
     1
102
RTVSPropertyOp11
 70
     1
102
RTVSPropertyOp12
 70
     1
102
RTVSPropertyOp13
 70
     1
102
RTVSPropertyOp14
 70
     1
102
RTVSPropertyOp15
 70
     1
102
RTVSPropertyOp16
 70
     1
102
RTVSPropertyOp17
 70
     1
102
RTVSPropertyOp18
 70
     1
102
RTVSPropertyOp19
 70
     1
102
RTVSPropertyOp20
 70
     1
102
RTVSPropertyOp21
 70
     1
102
RTVSPropertyOp22
 70
     1
102
RTVSPropertyOp23
 70
     1
102
RTVSPropertyOp24
 70
     1
102
RTVSPropertyOp25
 70
     1
102
RTVSPropertyOp26
 70
     1
102
RTVSPropertyOp27
 70
     1
102
RTVSPropertyOp28
 70
     1
102
RTVSPropertyOp29
 70
     1
102
RTVSPropertyOp30
 70
     1
102
RTVSPropertyOp31
 70
     1
102
RTVSPropertyOp32
 70
     1
102
RTVSPropertyOp33
 70
     1
102
RTVSPropertyOp34
 70
     1
102
RTVSPropertyOp35
 70
     1
102
RTVSPropertyOp36
 70
     1
102
RTVSPropertyOp37
 70
     1
102
RTVSPropertyOp38
 70
     1
102
RTVSPropertyOp39
 70
     1
102
RTVSPropertyOp40
 70
     1
102
RTVSPropertyOp41
 70
     1
102
RTVSPropertyOp42
 70
     1
102
RTVSPropertyOp43
 70
     1
102
RTVSPropertyOp44
 70
     1
102
RTVSPropertyOp45
 70
     1
102
RTVSPropertyOp46
 70
     1
102
RTVSPropertyOp47
 70
     1
102
RTVSPropertyOp48
 70
     1
102
RTVSPropertyOp49
 70
     1
102
RTVSPropertyOp50
 70
     1
102
RTVSPropertyOp51
 70
     0
102
RTVSPropertyOp52
 70
     0
102
RTVSPropertyOp53
 70
     1
102
RTVSPropertyOp54
 70
     1
102
RTVSPropertyOp55
 70
     1
102
RTVSPropertyOp56
 70
     1
102
RTVSPropertyOp57
 70
     1
102
RTVSPropertyOp58
 70
     1
102
RTVSPropertyOp59
 70
     1
102
RTVSPropertyOp60
 70
     1
102
RTVSPropertyOp61
 70
     1
102
RTVSPropertyOp62
 70
     1
  0
XRECORD
  5
BEA6
102
{ACAD_REACTORS
330
BEA5
102
}
330
BEA5
100
AcDbXrecord
280
     1
102
RTVSPost2010Prop28
280
     0
102
RTVSPost2010PropOp28
 70
     1
102
RTVSPost2010Prop29
280
     1
102
RTVSPost2010PropOp29
 70
     1
102
RTVSPost2010Prop30
280
     1
102
RTVSPost2010PropOp30
 70
     1
102
RTVSPost2010Prop31
280
     0
102
RTVSPost2010PropOp31
 70
     1
102
RTVSPost2010Prop32
280
     0
102
RTVSPost2010PropOp32
 70
     1
102
RTVSPost2010Prop33
280
     0
102
RTVSPost2010PropOp33
 70
     1
102
RTVSPost2010Prop34
280
     0
102
RTVSPost2010PropOp34
 70
     1
102
RTVSPost2010Prop35
280
     0
102
RTVSPost2010PropOp35
 70
     1
102
RTVSPost2010Prop36
280
     0
102
RTVSPost2010PropOp36
 70
     1
102
RTVSPost2010Prop37
 90
       50
102
RTVSPost2010PropOp37
 70
     0
102
RTVSPost2010Prop38
140
0.0
102
RTVSPost2010PropOp38
 70
     0
102
RTVSPost2010Prop39
140
1.0
102
RTVSPost2010PropOp39
 70
     0
102
RTVSPost2010Prop40
 90
        0
102
RTVSPost2010PropOp40
 70
     0
102
RTVSPost2010Prop41ColorIndex
 90
       18
102
RTVSPost2010Prop41ColorRGB
 90
        0
102
RTVSPost2010PropOp41
 70
     0
102
RTVSPost2010Prop42
 90
       50
102
RTVSPost2010PropOp42
 70
     0
102
RTVSPost2010Prop43
 90
        3
102
RTVSPost2010PropOp43
 70
     0
102
RTVSPost2010Prop44ColorIndex
 90
        5
102
RTVSPost2010Prop44ColorRGB
 90
      255
102
RTVSPost2010PropOp44
 70
     0
102
RTVSPost2010Prop45
280
     0
102
RTVSPost2010PropOp45
 70
     1
102
RTVSPost2010Prop46
 90
       50
102
RTVSPost2010PropOp46
 70
     0
102
RTVSPost2010Prop47
 90
       50
102
RTVSPost2010PropOp47
 70
     0
102
RTVSPost2010Prop48
 90
       50
102
RTVSPost2010PropOp48
 70
     0
102
RTVSPost2010Prop49
280
     0
102
RTVSPost2010PropOp49
 70
     1
102
RTVSPost2010Prop50
 90
       50
102
RTVSPost2010PropOp50
 70
     0
102
RTVSPost2010Prop51ColorIndex
 90
      256
102
RTVSPost2010Prop51ColorRGB
 90
-16777216
102
RTVSPost2010PropOp51
 70
     0
102
RTVSPost2010Prop52
140
1.0
102
RTVSPost2010PropOp52
 70
     0
102
RTVSPost2010Prop53
 90
        2
102
RTVSPost2010PropOp53
 70
     0
102
RTVSPost2010Prop54
  1
strokes_ogs.tif
102
RTVSPost2010PropOp54
 70
     0
102
RTVSPost2010Prop55
280
     0
102
RTVSPost2010PropOp55
 70
     1
102
RTVSPost2010Prop56
140
1.0
102
RTVSPost2010PropOp56
 70
     0
102
RTVSPost2010Prop57
140
1.0
102
RTVSPost2010PropOp57
 70
     0
102
RTVSPropertyOp0
 70
     0
102
RTVSPropertyOp1
 70
     0
102
RTVSPropertyOp2
 70
     0
102
RTVSPropertyOp3
 70
     0
102
RTVSPropertyOp4
 70
     0
102
RTVSPropertyOp5
 70
     0
102
RTVSPropertyOp6
 70
     0
102
RTVSPropertyOp7
 70
     0
102
RTVSPropertyOp8
 70
     0
102
RTVSPropertyOp9
 70
     0
102
RTVSPropertyOp10
 70
     0
102
RTVSPropertyOp11
 70
     0
102
RTVSPropertyOp12
 70
     0
102
RTVSPropertyOp13
 70
     0
102
RTVSPropertyOp14
 70
     2
102
RTVSPropertyOp15
 70
     0
102
RTVSPropertyOp16
 70
     0
102
RTVSPropertyOp17
 70
     0
102
RTVSPropertyOp18
 70
     0
102
RTVSPropertyOp19
 70
     0
102
RTVSPropertyOp20
 70
     0
102
RTVSPropertyOp21
 70
     0
102
RTVSPropertyOp22
 70
     0
102
RTVSPropertyOp23
 70
     0
102
RTVSPropertyOp24
 70
     0
102
RTVSPropertyOp25
 70
     0
102
RTVSPropertyOp26
 70
     0
102
RTVSPropertyOp27
 70
     0
102
RTVSPropertyOp28
 70
     1
102
RTVSPropertyOp29
 70
     1
102
RTVSPropertyOp30
 70
     1
102
RTVSPropertyOp31
 70
     1
102
RTVSPropertyOp32
 70
     1
102
RTVSPropertyOp33
 70
     1
102
RTVSPropertyOp34
 70
     1
102
RTVSPropertyOp35
 70
     1
102
RTVSPropertyOp36
 70
     1
102
RTVSPropertyOp37
 70
     0
102
RTVSPropertyOp38
 70
     0
102
RTVSPropertyOp39
 70
     0
102
RTVSPropertyOp40
 70
     0
102
RTVSPropertyOp41
 70
     0
102
RTVSPropertyOp42
 70
     0
102
RTVSPropertyOp43
 70
     0
102
RTVSPropertyOp44
 70
     0
102
RTVSPropertyOp45
 70
     1
102
RTVSPropertyOp46
 70
     0
102
RTVSPropertyOp47
 70
     0
102
RTVSPropertyOp48
 70
     0
102
RTVSPropertyOp49
 70
     1
102
RTVSPropertyOp50
 70
     0
102
RTVSPropertyOp51
 70
     0
102
RTVSPropertyOp52
 70
     0
102
RTVSPropertyOp53
 70
     0
102
RTVSPropertyOp54
 70
     0
102
RTVSPropertyOp55
 70
     1
102
RTVSPropertyOp56
 70
     0
102
RTVSPropertyOp57
 70
     0
102
RTVSPropertyOp58
 70
     0
102
RTVSPropertyOp59
 70
     0
102
RTVSPropertyOp60
 70
     0
102
RTVSPropertyOp61
 70
     0
102
RTVSPropertyOp62
 70
     0
  0
XRECORD
  5
BE94
102
{ACAD_REACTORS
330
BE93
102
}
330
BE93
100
AcDbXrecord
280
     1
102
RTVSPost2010Prop28
280
     0
102
RTVSPost2010PropOp28
 70
     1
102
RTVSPost2010Prop29
280
     1
102
RTVSPost2010PropOp29
 70
     1
102
RTVSPost2010Prop30
280
     1
102
RTVSPost2010PropOp30
 70
     1
102
RTVSPost2010Prop31
280
     0
102
RTVSPost2010PropOp31
 70
     1
102
RTVSPost2010Prop32
280
     0
102
RTVSPost2010PropOp32
 70
     1
102
RTVSPost2010Prop33
280
     0
102
RTVSPost2010PropOp33
 70
     1
102
RTVSPost2010Prop34
280
     0
102
RTVSPost2010PropOp34
 70
     1
102
RTVSPost2010Prop35
280
     0
102
RTVSPost2010PropOp35
 70
     1
102
RTVSPost2010Prop36
280
     0
102
RTVSPost2010PropOp36
 70
     1
102
RTVSPost2010Prop37
 90
       50
102
RTVSPost2010PropOp37
 70
     1
102
RTVSPost2010Prop38
140
0.0
102
RTVSPost2010PropOp38
 70
     1
102
RTVSPost2010Prop39
140
1.0
102
RTVSPost2010PropOp39
 70
     1
102
RTVSPost2010Prop40
 90
        0
102
RTVSPost2010PropOp40
 70
     1
102
RTVSPost2010Prop41ColorIndex
 90
       18
102
RTVSPost2010Prop41ColorRGB
 90
        0
102
RTVSPost2010PropOp41
 70
     1
102
RTVSPost2010Prop42
 90
       50
102
RTVSPost2010PropOp42
 70
     1
102
RTVSPost2010Prop43
 90
        3
102
RTVSPost2010PropOp43
 70
     1
102
RTVSPost2010Prop44ColorIndex
 90
        5
102
RTVSPost2010Prop44ColorRGB
 90
      255
102
RTVSPost2010PropOp44
 70
     1
102
RTVSPost2010Prop45
280
     0
102
RTVSPost2010PropOp45
 70
     1
102
RTVSPost2010Prop46
 90
       50
102
RTVSPost2010PropOp46
 70
     1
102
RTVSPost2010Prop47
 90
       50
102
RTVSPost2010PropOp47
 70
     1
102
RTVSPost2010Prop48
 90
       50
102
RTVSPost2010PropOp48
 70
     1
102
RTVSPost2010Prop49
280
     0
102
RTVSPost2010PropOp49
 70
     1
102
RTVSPost2010Prop50
 90
       50
102
RTVSPost2010PropOp50
 70
     1
102
RTVSPost2010Prop51ColorIndex
 90
      256
102
RTVSPost2010Prop51ColorRGB
 90
-16777216
102
RTVSPost2010PropOp51
 70
     0
102
RTVSPost2010Prop52
140
1.0
102
RTVSPost2010PropOp52
 70
     0
102
RTVSPost2010Prop53
 90
        2
102
RTVSPost2010PropOp53
 70
     1
102
RTVSPost2010Prop54
  1
strokes_ogs.tif
102
RTVSPost2010PropOp54
 70
     1
102
RTVSPost2010Prop55
280
     0
102
RTVSPost2010PropOp55
 70
     1
102
RTVSPost2010Prop56
140
1.0
102
RTVSPost2010PropOp56
 70
     1
102
RTVSPost2010Prop57
140
1.0
102
RTVSPost2010PropOp57
 70
     1
102
RTVSPropertyOp0
 70
     1
102
RTVSPropertyOp1
 70
     1
102
RTVSPropertyOp2
 70
     1
102
RTVSPropertyOp3
 70
     1
102
RTVSPropertyOp4
 70
     1
102
RTVSPropertyOp5
 70
     1
102
RTVSPropertyOp6
 70
     1
102
RTVSPropertyOp7
 70
     1
102
RTVSPropertyOp8
 70
     1
102
RTVSPropertyOp9
 70
     1
102
RTVSPropertyOp10
 70
     1
102
RTVSPropertyOp11
 70
     1
102
RTVSPropertyOp12
 70
     1
102
RTVSPropertyOp13
 70
     1
102
RTVSPropertyOp14
 70
     1
102
RTVSPropertyOp15
 70
     1
102
RTVSPropertyOp16
 70
     1
102
RTVSPropertyOp17
 70
     1
102
RTVSPropertyOp18
 70
     1
102
RTVSPropertyOp19
 70
     1
102
RTVSPropertyOp20
 70
     1
102
RTVSPropertyOp21
 70
     1
102
RTVSPropertyOp22
 70
     1
102
RTVSPropertyOp23
 70
     1
102
RTVSPropertyOp24
 70
     1
102
RTVSPropertyOp25
 70
     1
102
RTVSPropertyOp26
 70
     1
102
RTVSPropertyOp27
 70
     1
102
RTVSPropertyOp28
 70
     1
102
RTVSPropertyOp29
 70
     1
102
RTVSPropertyOp30
 70
     1
102
RTVSPropertyOp31
 70
     1
102
RTVSPropertyOp32
 70
     1
102
RTVSPropertyOp33
 70
     1
102
RTVSPropertyOp34
 70
     1
102
RTVSPropertyOp35
 70
     1
102
RTVSPropertyOp36
 70
     1
102
RTVSPropertyOp37
 70
     1
102
RTVSPropertyOp38
 70
     1
102
RTVSPropertyOp39
 70
     1
102
RTVSPropertyOp40
 70
     1
102
RTVSPropertyOp41
 70
     1
102
RTVSPropertyOp42
 70
     1
102
RTVSPropertyOp43
 70
     1
102
RTVSPropertyOp44
 70
     1
102
RTVSPropertyOp45
 70
     1
102
RTVSPropertyOp46
 70
     1
102
RTVSPropertyOp47
 70
     1
102
RTVSPropertyOp48
 70
     1
102
RTVSPropertyOp49
 70
     1
102
RTVSPropertyOp50
 70
     1
102
RTVSPropertyOp51
 70
     0
102
RTVSPropertyOp52
 70
     0
102
RTVSPropertyOp53
 70
     1
102
RTVSPropertyOp54
 70
     1
102
RTVSPropertyOp55
 70
     1
102
RTVSPropertyOp56
 70
     1
102
RTVSPropertyOp57
 70
     1
102
RTVSPropertyOp58
 70
     1
102
RTVSPropertyOp59
 70
     1
102
RTVSPropertyOp60
 70
     1
102
RTVSPropertyOp61
 70
     1
102
RTVSPropertyOp62
 70
     1
  0
XRECORD
  5
BE78
102
{ACAD_REACTORS
330
BE77
102
}
330
BE77
100
AcDbXrecord
280
     1
102
RTVSPost2010Prop28
280
     0
102
RTVSPost2010PropOp28
 70
     1
102
RTVSPost2010Prop29
280
     1
102
RTVSPost2010PropOp29
 70
     1
102
RTVSPost2010Prop30
280
     1
102
RTVSPost2010PropOp30
 70
     1
102
RTVSPost2010Prop31
280
     0
102
RTVSPost2010PropOp31
 70
     1
102
RTVSPost2010Prop32
280
     0
102
RTVSPost2010PropOp32
 70
     1
102
RTVSPost2010Prop33
280
     0
102
RTVSPost2010PropOp33
 70
     1
102
RTVSPost2010Prop34
280
     0
102
RTVSPost2010PropOp34
 70
     1
102
RTVSPost2010Prop35
280
     0
102
RTVSPost2010PropOp35
 70
     1
102
RTVSPost2010Prop36
280
     0
102
RTVSPost2010PropOp36
 70
     1
102
RTVSPost2010Prop37
 90
       50
102
RTVSPost2010PropOp37
 70
     1
102
RTVSPost2010Prop38
140
0.0
102
RTVSPost2010PropOp38
 70
     1
102
RTVSPost2010Prop39
140
1.0
102
RTVSPost2010PropOp39
 70
     1
102
RTVSPost2010Prop40
 90
        0
102
RTVSPost2010PropOp40
 70
     1
102
RTVSPost2010Prop41ColorIndex
 90
       18
102
RTVSPost2010Prop41ColorRGB
 90
        0
102
RTVSPost2010PropOp41
 70
     1
102
RTVSPost2010Prop42
 90
       50
102
RTVSPost2010PropOp42
 70
     1
102
RTVSPost2010Prop43
 90
        3
102
RTVSPost2010PropOp43
 70
     1
102
RTVSPost2010Prop44ColorIndex
 90
        5
102
RTVSPost2010Prop44ColorRGB
 90
      255
102
RTVSPost2010PropOp44
 70
     1
102
RTVSPost2010Prop45
280
     0
102
RTVSPost2010PropOp45
 70
     1
102
RTVSPost2010Prop46
 90
       50
102
RTVSPost2010PropOp46
 70
     1
102
RTVSPost2010Prop47
 90
       50
102
RTVSPost2010PropOp47
 70
     1
102
RTVSPost2010Prop48
 90
       50
102
RTVSPost2010PropOp48
 70
     1
102
RTVSPost2010Prop49
280
     0
102
RTVSPost2010PropOp49
 70
     1
102
RTVSPost2010Prop50
 90
       50
102
RTVSPost2010PropOp50
 70
     1
102
RTVSPost2010Prop51ColorIndex
 90
      256
102
RTVSPost2010Prop51ColorRGB
 90
-16777216
102
RTVSPost2010PropOp51
 70
     0
102
RTVSPost2010Prop52
140
1.0
102
RTVSPost2010PropOp52
 70
     0
102
RTVSPost2010Prop53
 90
        2
102
RTVSPost2010PropOp53
 70
     1
102
RTVSPost2010Prop54
  1
strokes_ogs.tif
102
RTVSPost2010PropOp54
 70
     1
102
RTVSPost2010Prop55
280
     0
102
RTVSPost2010PropOp55
 70
     1
102
RTVSPost2010Prop56
140
1.0
102
RTVSPost2010PropOp56
 70
     1
102
RTVSPost2010Prop57
140
1.0
102
RTVSPost2010PropOp57
 70
     1
102
RTVSPropertyOp0
 70
     1
102
RTVSPropertyOp1
 70
     1
102
RTVSPropertyOp2
 70
     1
102
RTVSPropertyOp3
 70
     1
102
RTVSPropertyOp4
 70
     1
102
RTVSPropertyOp5
 70
     1
102
RTVSPropertyOp6
 70
     1
102
RTVSPropertyOp7
 70
     1
102
RTVSPropertyOp8
 70
     1
102
RTVSPropertyOp9
 70
     1
102
RTVSPropertyOp10
 70
     1
102
RTVSPropertyOp11
 70
     1
102
RTVSPropertyOp12
 70
     1
102
RTVSPropertyOp13
 70
     1
102
RTVSPropertyOp14
 70
     1
102
RTVSPropertyOp15
 70
     1
102
RTVSPropertyOp16
 70
     1
102
RTVSPropertyOp17
 70
     1
102
RTVSPropertyOp18
 70
     1
102
RTVSPropertyOp19
 70
     1
102
RTVSPropertyOp20
 70
     1
102
RTVSPropertyOp21
 70
     1
102
RTVSPropertyOp22
 70
     1
102
RTVSPropertyOp23
 70
     1
102
RTVSPropertyOp24
 70
     1
102
RTVSPropertyOp25
 70
     1
102
RTVSPropertyOp26
 70
     1
102
RTVSPropertyOp27
 70
     1
102
RTVSPropertyOp28
 70
     1
102
RTVSPropertyOp29
 70
     1
102
RTVSPropertyOp30
 70
     1
102
RTVSPropertyOp31
 70
     1
102
RTVSPropertyOp32
 70
     1
102
RTVSPropertyOp33
 70
     1
102
RTVSPropertyOp34
 70
     1
102
RTVSPropertyOp35
 70
     1
102
RTVSPropertyOp36
 70
     1
102
RTVSPropertyOp37
 70
     1
102
RTVSPropertyOp38
 70
     1
102
RTVSPropertyOp39
 70
     1
102
RTVSPropertyOp40
 70
     1
102
RTVSPropertyOp41
 70
     1
102
RTVSPropertyOp42
 70
     1
102
RTVSPropertyOp43
 70
     1
102
RTVSPropertyOp44
 70
     1
102
RTVSPropertyOp45
 70
     1
102
RTVSPropertyOp46
 70
     1
102
RTVSPropertyOp47
 70
     1
102
RTVSPropertyOp48
 70
     1
102
RTVSPropertyOp49
 70
     1
102
RTVSPropertyOp50
 70
     1
102
RTVSPropertyOp51
 70
     0
102
RTVSPropertyOp52
 70
     0
102
RTVSPropertyOp53
 70
     1
102
RTVSPropertyOp54
 70
     1
102
RTVSPropertyOp55
 70
     1
102
RTVSPropertyOp56
 70
     1
102
RTVSPropertyOp57
 70
     1
102
RTVSPropertyOp58
 70
     1
102
RTVSPropertyOp59
 70
     1
102
RTVSPropertyOp60
 70
     1
102
RTVSPropertyOp61
 70
     1
102
RTVSPropertyOp62
 70
     1
  0
XRECORD
  5
BE7A
102
{ACAD_REACTORS
330
BE79
102
}
330
BE79
100
AcDbXrecord
280
     1
102
RTVSPost2010Prop28
280
     0
102
RTVSPost2010PropOp28
 70
     1
102
RTVSPost2010Prop29
280
     1
102
RTVSPost2010PropOp29
 70
     1
102
RTVSPost2010Prop30
280
     1
102
RTVSPost2010PropOp30
 70
     1
102
RTVSPost2010Prop31
280
     0
102
RTVSPost2010PropOp31
 70
     1
102
RTVSPost2010Prop32
280
     0
102
RTVSPost2010PropOp32
 70
     1
102
RTVSPost2010Prop33
280
     0
102
RTVSPost2010PropOp33
 70
     1
102
RTVSPost2010Prop34
280
     0
102
RTVSPost2010PropOp34
 70
     1
102
RTVSPost2010Prop35
280
     0
102
RTVSPost2010PropOp35
 70
     1
102
RTVSPost2010Prop36
280
     0
102
RTVSPost2010PropOp36
 70
     1
102
RTVSPost2010Prop37
 90
       50
102
RTVSPost2010PropOp37
 70
     1
102
RTVSPost2010Prop38
140
0.0
102
RTVSPost2010PropOp38
 70
     1
102
RTVSPost2010Prop39
140
1.0
102
RTVSPost2010PropOp39
 70
     1
102
RTVSPost2010Prop40
 90
        0
102
RTVSPost2010PropOp40
 70
     1
102
RTVSPost2010Prop41ColorIndex
 90
       18
102
RTVSPost2010Prop41ColorRGB
 90
        0
102
RTVSPost2010PropOp41
 70
     1
102
RTVSPost2010Prop42
 90
       50
102
RTVSPost2010PropOp42
 70
     1
102
RTVSPost2010Prop43
 90
        3
102
RTVSPost2010PropOp43
 70
     1
102
RTVSPost2010Prop44ColorIndex
 90
        5
102
RTVSPost2010Prop44ColorRGB
 90
      255
102
RTVSPost2010PropOp44
 70
     1
102
RTVSPost2010Prop45
280
     0
102
RTVSPost2010PropOp45
 70
     1
102
RTVSPost2010Prop46
 90
       50
102
RTVSPost2010PropOp46
 70
     1
102
RTVSPost2010Prop47
 90
       50
102
RTVSPost2010PropOp47
 70
     1
102
RTVSPost2010Prop48
 90
       50
102
RTVSPost2010PropOp48
 70
     1
102
RTVSPost2010Prop49
280
     0
102
RTVSPost2010PropOp49
 70
     1
102
RTVSPost2010Prop50
 90
       50
102
RTVSPost2010PropOp50
 70
     1
102
RTVSPost2010Prop51ColorIndex
 90
      256
102
RTVSPost2010Prop51ColorRGB
 90
-16777216
102
RTVSPost2010PropOp51
 70
     0
102
RTVSPost2010Prop52
140
1.0
102
RTVSPost2010PropOp52
 70
     0
102
RTVSPost2010Prop53
 90
        2
102
RTVSPost2010PropOp53
 70
     1
102
RTVSPost2010Prop54
  1
strokes_ogs.tif
102
RTVSPost2010PropOp54
 70
     1
102
RTVSPost2010Prop55
280
     0
102
RTVSPost2010PropOp55
 70
     1
102
RTVSPost2010Prop56
140
1.0
102
RTVSPost2010PropOp56
 70
     1
102
RTVSPost2010Prop57
140
1.0
102
RTVSPost2010PropOp57
 70
     1
102
RTVSPropertyOp0
 70
     1
102
RTVSPropertyOp1
 70
     1
102
RTVSPropertyOp2
 70
     1
102
RTVSPropertyOp3
 70
     1
102
RTVSPropertyOp4
 70
     1
102
RTVSPropertyOp5
 70
     1
102
RTVSPropertyOp6
 70
     1
102
RTVSPropertyOp7
 70
     1
102
RTVSPropertyOp8
 70
     1
102
RTVSPropertyOp9
 70
     1
102
RTVSPropertyOp10
 70
     1
102
RTVSPropertyOp11
 70
     1
102
RTVSPropertyOp12
 70
     1
102
RTVSPropertyOp13
 70
     1
102
RTVSPropertyOp14
 70
     1
102
RTVSPropertyOp15
 70
     1
102
RTVSPropertyOp16
 70
     1
102
RTVSPropertyOp17
 70
     1
102
RTVSPropertyOp18
 70
     1
102
RTVSPropertyOp19
 70
     1
102
RTVSPropertyOp20
 70
     1
102
RTVSPropertyOp21
 70
     1
102
RTVSPropertyOp22
 70
     1
102
RTVSPropertyOp23
 70
     1
102
RTVSPropertyOp24
 70
     1
102
RTVSPropertyOp25
 70
     1
102
RTVSPropertyOp26
 70
     1
102
RTVSPropertyOp27
 70
     1
102
RTVSPropertyOp28
 70
     1
102
RTVSPropertyOp29
 70
     1
102
RTVSPropertyOp30
 70
     1
102
RTVSPropertyOp31
 70
     1
102
RTVSPropertyOp32
 70
     1
102
RTVSPropertyOp33
 70
     1
102
RTVSPropertyOp34
 70
     1
102
RTVSPropertyOp35
 70
     1
102
RTVSPropertyOp36
 70
     1
102
RTVSPropertyOp37
 70
     1
102
RTVSPropertyOp38
 70
     1
102
RTVSPropertyOp39
 70
     1
102
RTVSPropertyOp40
 70
     1
102
RTVSPropertyOp41
 70
     1
102
RTVSPropertyOp42
 70
     1
102
RTVSPropertyOp43
 70
     1
102
RTVSPropertyOp44
 70
     1
102
RTVSPropertyOp45
 70
     1
102
RTVSPropertyOp46
 70
     1
102
RTVSPropertyOp47
 70
     1
102
RTVSPropertyOp48
 70
     1
102
RTVSPropertyOp49
 70
     1
102
RTVSPropertyOp50
 70
     1
102
RTVSPropertyOp51
 70
     0
102
RTVSPropertyOp52
 70
     0
102
RTVSPropertyOp53
 70
     1
102
RTVSPropertyOp54
 70
     1
102
RTVSPropertyOp55
 70
     1
102
RTVSPropertyOp56
 70
     1
102
RTVSPropertyOp57
 70
     1
102
RTVSPropertyOp58
 70
     1
102
RTVSPropertyOp59
 70
     1
102
RTVSPropertyOp60
 70
     1
102
RTVSPropertyOp61
 70
     1
102
RTVSPropertyOp62
 70
     1
  0
XRECORD
  5
BE7C
102
{ACAD_REACTORS
330
BE7B
102
}
330
BE7B
100
AcDbXrecord
280
     1
102
RTVSPost2010Prop28
280
     0
102
RTVSPost2010PropOp28
 70
     1
102
RTVSPost2010Prop29
280
     1
102
RTVSPost2010PropOp29
 70
     1
102
RTVSPost2010Prop30
280
     1
102
RTVSPost2010PropOp30
 70
     1
102
RTVSPost2010Prop31
280
     0
102
RTVSPost2010PropOp31
 70
     1
102
RTVSPost2010Prop32
280
     0
102
RTVSPost2010PropOp32
 70
     1
102
RTVSPost2010Prop33
280
     0
102
RTVSPost2010PropOp33
 70
     1
102
RTVSPost2010Prop34
280
     0
102
RTVSPost2010PropOp34
 70
     1
102
RTVSPost2010Prop35
280
     0
102
RTVSPost2010PropOp35
 70
     1
102
RTVSPost2010Prop36
280
     0
102
RTVSPost2010PropOp36
 70
     1
102
RTVSPost2010Prop37
 90
       50
102
RTVSPost2010PropOp37
 70
     1
102
RTVSPost2010Prop38
140
0.0
102
RTVSPost2010PropOp38
 70
     1
102
RTVSPost2010Prop39
140
1.0
102
RTVSPost2010PropOp39
 70
     1
102
RTVSPost2010Prop40
 90
        0
102
RTVSPost2010PropOp40
 70
     1
102
RTVSPost2010Prop41ColorIndex
 90
       18
102
RTVSPost2010Prop41ColorRGB
 90
        0
102
RTVSPost2010PropOp41
 70
     1
102
RTVSPost2010Prop42
 90
       50
102
RTVSPost2010PropOp42
 70
     1
102
RTVSPost2010Prop43
 90
        3
102
RTVSPost2010PropOp43
 70
     1
102
RTVSPost2010Prop44ColorIndex
 90
        5
102
RTVSPost2010Prop44ColorRGB
 90
      255
102
RTVSPost2010PropOp44
 70
     1
102
RTVSPost2010Prop45
280
     0
102
RTVSPost2010PropOp45
 70
     1
102
RTVSPost2010Prop46
 90
       50
102
RTVSPost2010PropOp46
 70
     1
102
RTVSPost2010Prop47
 90
       50
102
RTVSPost2010PropOp47
 70
     1
102
RTVSPost2010Prop48
 90
       50
102
RTVSPost2010PropOp48
 70
     1
102
RTVSPost2010Prop49
280
     0
102
RTVSPost2010PropOp49
 70
     1
102
RTVSPost2010Prop50
 90
       50
102
RTVSPost2010PropOp50
 70
     1
102
RTVSPost2010Prop51ColorIndex
 90
      256
102
RTVSPost2010Prop51ColorRGB
 90
-16777216
102
RTVSPost2010PropOp51
 70
     0
102
RTVSPost2010Prop52
140
1.0
102
RTVSPost2010PropOp52
 70
     0
102
RTVSPost2010Prop53
 90
        2
102
RTVSPost2010PropOp53
 70
     1
102
RTVSPost2010Prop54
  1
strokes_ogs.tif
102
RTVSPost2010PropOp54
 70
     1
102
RTVSPost2010Prop55
280
     0
102
RTVSPost2010PropOp55
 70
     1
102
RTVSPost2010Prop56
140
1.0
102
RTVSPost2010PropOp56
 70
     1
102
RTVSPost2010Prop57
140
1.0
102
RTVSPost2010PropOp57
 70
     1
102
RTVSPropertyOp0
 70
     1
102
RTVSPropertyOp1
 70
     1
102
RTVSPropertyOp2
 70
     1
102
RTVSPropertyOp3
 70
     1
102
RTVSPropertyOp4
 70
     1
102
RTVSPropertyOp5
 70
     1
102
RTVSPropertyOp6
 70
     1
102
RTVSPropertyOp7
 70
     1
102
RTVSPropertyOp8
 70
     1
102
RTVSPropertyOp9
 70
     1
102
RTVSPropertyOp10
 70
     1
102
RTVSPropertyOp11
 70
     1
102
RTVSPropertyOp12
 70
     1
102
RTVSPropertyOp13
 70
     1
102
RTVSPropertyOp14
 70
     1
102
RTVSPropertyOp15
 70
     1
102
RTVSPropertyOp16
 70
     1
102
RTVSPropertyOp17
 70
     1
102
RTVSPropertyOp18
 70
     1
102
RTVSPropertyOp19
 70
     1
102
RTVSPropertyOp20
 70
     1
102
RTVSPropertyOp21
 70
     1
102
RTVSPropertyOp22
 70
     1
102
RTVSPropertyOp23
 70
     1
102
RTVSPropertyOp24
 70
     1
102
RTVSPropertyOp25
 70
     1
102
RTVSPropertyOp26
 70
     1
102
RTVSPropertyOp27
 70
     1
102
RTVSPropertyOp28
 70
     1
102
RTVSPropertyOp29
 70
     1
102
RTVSPropertyOp30
 70
     1
102
RTVSPropertyOp31
 70
     1
102
RTVSPropertyOp32
 70
     1
102
RTVSPropertyOp33
 70
     1
102
RTVSPropertyOp34
 70
     1
102
RTVSPropertyOp35
 70
     1
102
RTVSPropertyOp36
 70
     1
102
RTVSPropertyOp37
 70
     1
102
RTVSPropertyOp38
 70
     1
102
RTVSPropertyOp39
 70
     1
102
RTVSPropertyOp40
 70
     1
102
RTVSPropertyOp41
 70
     1
102
RTVSPropertyOp42
 70
     1
102
RTVSPropertyOp43
 70
     1
102
RTVSPropertyOp44
 70
     1
102
RTVSPropertyOp45
 70
     1
102
RTVSPropertyOp46
 70
     1
102
RTVSPropertyOp47
 70
     1
102
RTVSPropertyOp48
 70
     1
102
RTVSPropertyOp49
 70
     1
102
RTVSPropertyOp50
 70
     1
102
RTVSPropertyOp51
 70
     0
102
RTVSPropertyOp52
 70
     0
102
RTVSPropertyOp53
 70
     1
102
RTVSPropertyOp54
 70
     1
102
RTVSPropertyOp55
 70
     1
102
RTVSPropertyOp56
 70
     1
102
RTVSPropertyOp57
 70
     1
102
RTVSPropertyOp58
 70
     1
102
RTVSPropertyOp59
 70
     1
102
RTVSPropertyOp60
 70
     1
102
RTVSPropertyOp61
 70
     1
102
RTVSPropertyOp62
 70
     1
  0
XRECORD
  5
BE7E
102
{ACAD_REACTORS
330
BE7D
102
}
330
BE7D
100
AcDbXrecord
280
     1
102
RTVSPost2010Prop28
280
     0
102
RTVSPost2010PropOp28
 70
     1
102
RTVSPost2010Prop29
280
     1
102
RTVSPost2010PropOp29
 70
     1
102
RTVSPost2010Prop30
280
     1
102
RTVSPost2010PropOp30
 70
     1
102
RTVSPost2010Prop31
280
     0
102
RTVSPost2010PropOp31
 70
     1
102
RTVSPost2010Prop32
280
     0
102
RTVSPost2010PropOp32
 70
     1
102
RTVSPost2010Prop33
280
     0
102
RTVSPost2010PropOp33
 70
     1
102
RTVSPost2010Prop34
280
     0
102
RTVSPost2010PropOp34
 70
     1
102
RTVSPost2010Prop35
280
     0
102
RTVSPost2010PropOp35
 70
     1
102
RTVSPost2010Prop36
280
     0
102
RTVSPost2010PropOp36
 70
     1
102
RTVSPost2010Prop37
 90
       50
102
RTVSPost2010PropOp37
 70
     1
102
RTVSPost2010Prop38
140
0.0
102
RTVSPost2010PropOp38
 70
     1
102
RTVSPost2010Prop39
140
1.0
102
RTVSPost2010PropOp39
 70
     1
102
RTVSPost2010Prop40
 90
        0
102
RTVSPost2010PropOp40
 70
     1
102
RTVSPost2010Prop41ColorIndex
 90
       18
102
RTVSPost2010Prop41ColorRGB
 90
        0
102
RTVSPost2010PropOp41
 70
     1
102
RTVSPost2010Prop42
 90
       50
102
RTVSPost2010PropOp42
 70
     1
102
RTVSPost2010Prop43
 90
        3
102
RTVSPost2010PropOp43
 70
     1
102
RTVSPost2010Prop44ColorIndex
 90
        5
102
RTVSPost2010Prop44ColorRGB
 90
      255
102
RTVSPost2010PropOp44
 70
     1
102
RTVSPost2010Prop45
280
     0
102
RTVSPost2010PropOp45
 70
     1
102
RTVSPost2010Prop46
 90
       50
102
RTVSPost2010PropOp46
 70
     1
102
RTVSPost2010Prop47
 90
       50
102
RTVSPost2010PropOp47
 70
     1
102
RTVSPost2010Prop48
 90
       50
102
RTVSPost2010PropOp48
 70
     1
102
RTVSPost2010Prop49
280
     0
102
RTVSPost2010PropOp49
 70
     1
102
RTVSPost2010Prop50
 90
       50
102
RTVSPost2010PropOp50
 70
     1
102
RTVSPost2010Prop51ColorIndex
 90
      256
102
RTVSPost2010Prop51ColorRGB
 90
-16777216
102
RTVSPost2010PropOp51
 70
     0
102
RTVSPost2010Prop52
140
1.0
102
RTVSPost2010PropOp52
 70
     0
102
RTVSPost2010Prop53
 90
        2
102
RTVSPost2010PropOp53
 70
     1
102
RTVSPost2010Prop54
  1
strokes_ogs.tif
102
RTVSPost2010PropOp54
 70
     1
102
RTVSPost2010Prop55
280
     0
102
RTVSPost2010PropOp55
 70
     1
102
RTVSPost2010Prop56
140
1.0
102
RTVSPost2010PropOp56
 70
     1
102
RTVSPost2010Prop57
140
1.0
102
RTVSPost2010PropOp57
 70
     1
102
RTVSPropertyOp0
 70
     1
102
RTVSPropertyOp1
 70
     1
102
RTVSPropertyOp2
 70
     1
102
RTVSPropertyOp3
 70
     1
102
RTVSPropertyOp4
 70
     1
102
RTVSPropertyOp5
 70
     1
102
RTVSPropertyOp6
 70
     1
102
RTVSPropertyOp7
 70
     1
102
RTVSPropertyOp8
 70
     1
102
RTVSPropertyOp9
 70
     1
102
RTVSPropertyOp10
 70
     1
102
RTVSPropertyOp11
 70
     1
102
RTVSPropertyOp12
 70
     1
102
RTVSPropertyOp13
 70
     1
102
RTVSPropertyOp14
 70
     1
102
RTVSPropertyOp15
 70
     1
102
RTVSPropertyOp16
 70
     1
102
RTVSPropertyOp17
 70
     1
102
RTVSPropertyOp18
 70
     1
102
RTVSPropertyOp19
 70
     1
102
RTVSPropertyOp20
 70
     1
102
RTVSPropertyOp21
 70
     1
102
RTVSPropertyOp22
 70
     1
102
RTVSPropertyOp23
 70
     1
102
RTVSPropertyOp24
 70
     1
102
RTVSPropertyOp25
 70
     1
102
RTVSPropertyOp26
 70
     1
102
RTVSPropertyOp27
 70
     1
102
RTVSPropertyOp28
 70
     1
102
RTVSPropertyOp29
 70
     1
102
RTVSPropertyOp30
 70
     1
102
RTVSPropertyOp31
 70
     1
102
RTVSPropertyOp32
 70
     1
102
RTVSPropertyOp33
 70
     1
102
RTVSPropertyOp34
 70
     1
102
RTVSPropertyOp35
 70
     1
102
RTVSPropertyOp36
 70
     1
102
RTVSPropertyOp37
 70
     1
102
RTVSPropertyOp38
 70
     1
102
RTVSPropertyOp39
 70
     1
102
RTVSPropertyOp40
 70
     1
102
RTVSPropertyOp41
 70
     1
102
RTVSPropertyOp42
 70
     1
102
RTVSPropertyOp43
 70
     1
102
RTVSPropertyOp44
 70
     1
102
RTVSPropertyOp45
 70
     1
102
RTVSPropertyOp46
 70
     1
102
RTVSPropertyOp47
 70
     1
102
RTVSPropertyOp48
 70
     1
102
RTVSPropertyOp49
 70
     1
102
RTVSPropertyOp50
 70
     1
102
RTVSPropertyOp51
 70
     0
102
RTVSPropertyOp52
 70
     0
102
RTVSPropertyOp53
 70
     1
102
RTVSPropertyOp54
 70
     1
102
RTVSPropertyOp55
 70
     1
102
RTVSPropertyOp56
 70
     1
102
RTVSPropertyOp57
 70
     1
102
RTVSPropertyOp58
 70
     1
102
RTVSPropertyOp59
 70
     1
102
RTVSPropertyOp60
 70
     1
102
RTVSPropertyOp61
 70
     1
102
RTVSPropertyOp62
 70
     1
  0
XRECORD
  5
BE86
102
{ACAD_REACTORS
330
BE85
102
}
330
BE85
100
AcDbXrecord
280
     1
102
RTVSPost2010Prop28
280
     0
102
RTVSPost2010PropOp28
 70
     1
102
RTVSPost2010Prop29
280
     1
102
RTVSPost2010PropOp29
 70
     1
102
RTVSPost2010Prop30
280
     1
102
RTVSPost2010PropOp30
 70
     1
102
RTVSPost2010Prop31
280
     0
102
RTVSPost2010PropOp31
 70
     1
102
RTVSPost2010Prop32
280
     0
102
RTVSPost2010PropOp32
 70
     1
102
RTVSPost2010Prop33
280
     0
102
RTVSPost2010PropOp33
 70
     1
102
RTVSPost2010Prop34
280
     0
102
RTVSPost2010PropOp34
 70
     1
102
RTVSPost2010Prop35
280
     0
102
RTVSPost2010PropOp35
 70
     1
102
RTVSPost2010Prop36
280
     0
102
RTVSPost2010PropOp36
 70
     1
102
RTVSPost2010Prop37
 90
       50
102
RTVSPost2010PropOp37
 70
     1
102
RTVSPost2010Prop38
140
0.0
102
RTVSPost2010PropOp38
 70
     1
102
RTVSPost2010Prop39
140
1.0
102
RTVSPost2010PropOp39
 70
     1
102
RTVSPost2010Prop40
 90
        0
102
RTVSPost2010PropOp40
 70
     1
102
RTVSPost2010Prop41ColorIndex
 90
       18
102
RTVSPost2010Prop41ColorRGB
 90
        0
102
RTVSPost2010PropOp41
 70
     1
102
RTVSPost2010Prop42
 90
       50
102
RTVSPost2010PropOp42
 70
     1
102
RTVSPost2010Prop43
 90
        3
102
RTVSPost2010PropOp43
 70
     1
102
RTVSPost2010Prop44ColorIndex
 90
        5
102
RTVSPost2010Prop44ColorRGB
 90
      255
102
RTVSPost2010PropOp44
 70
     1
102
RTVSPost2010Prop45
280
     0
102
RTVSPost2010PropOp45
 70
     1
102
RTVSPost2010Prop46
 90
       50
102
RTVSPost2010PropOp46
 70
     1
102
RTVSPost2010Prop47
 90
       50
102
RTVSPost2010PropOp47
 70
     1
102
RTVSPost2010Prop48
 90
       50
102
RTVSPost2010PropOp48
 70
     1
102
RTVSPost2010Prop49
280
     0
102
RTVSPost2010PropOp49
 70
     1
102
RTVSPost2010Prop50
 90
       50
102
RTVSPost2010PropOp50
 70
     1
102
RTVSPost2010Prop51ColorIndex
 90
      256
102
RTVSPost2010Prop51ColorRGB
 90
-16777216
102
RTVSPost2010PropOp51
 70
     0
102
RTVSPost2010Prop52
140
1.0
102
RTVSPost2010PropOp52
 70
     0
102
RTVSPost2010Prop53
 90
        2
102
RTVSPost2010PropOp53
 70
     1
102
RTVSPost2010Prop54
  1
strokes_ogs.tif
102
RTVSPost2010PropOp54
 70
     1
102
RTVSPost2010Prop55
280
     0
102
RTVSPost2010PropOp55
 70
     1
102
RTVSPost2010Prop56
140
1.0
102
RTVSPost2010PropOp56
 70
     1
102
RTVSPost2010Prop57
140
1.0
102
RTVSPost2010PropOp57
 70
     1
102
RTVSPropertyOp0
 70
     1
102
RTVSPropertyOp1
 70
     1
102
RTVSPropertyOp2
 70
     1
102
RTVSPropertyOp3
 70
     1
102
RTVSPropertyOp4
 70
     1
102
RTVSPropertyOp5
 70
     1
102
RTVSPropertyOp6
 70
     1
102
RTVSPropertyOp7
 70
     1
102
RTVSPropertyOp8
 70
     1
102
RTVSPropertyOp9
 70
     1
102
RTVSPropertyOp10
 70
     1
102
RTVSPropertyOp11
 70
     1
102
RTVSPropertyOp12
 70
     1
102
RTVSPropertyOp13
 70
     1
102
RTVSPropertyOp14
 70
     1
102
RTVSPropertyOp15
 70
     1
102
RTVSPropertyOp16
 70
     1
102
RTVSPropertyOp17
 70
     1
102
RTVSPropertyOp18
 70
     1
102
RTVSPropertyOp19
 70
     1
102
RTVSPropertyOp20
 70
     1
102
RTVSPropertyOp21
 70
     1
102
RTVSPropertyOp22
 70
     1
102
RTVSPropertyOp23
 70
     1
102
RTVSPropertyOp24
 70
     1
102
RTVSPropertyOp25
 70
     1
102
RTVSPropertyOp26
 70
     1
102
RTVSPropertyOp27
 70
     1
102
RTVSPropertyOp28
 70
     1
102
RTVSPropertyOp29
 70
     1
102
RTVSPropertyOp30
 70
     1
102
RTVSPropertyOp31
 70
     1
102
RTVSPropertyOp32
 70
     1
102
RTVSPropertyOp33
 70
     1
102
RTVSPropertyOp34
 70
     1
102
RTVSPropertyOp35
 70
     1
102
RTVSPropertyOp36
 70
     1
102
RTVSPropertyOp37
 70
     1
102
RTVSPropertyOp38
 70
     1
102
RTVSPropertyOp39
 70
     1
102
RTVSPropertyOp40
 70
     1
102
RTVSPropertyOp41
 70
     1
102
RTVSPropertyOp42
 70
     1
102
RTVSPropertyOp43
 70
     1
102
RTVSPropertyOp44
 70
     1
102
RTVSPropertyOp45
 70
     1
102
RTVSPropertyOp46
 70
     1
102
RTVSPropertyOp47
 70
     1
102
RTVSPropertyOp48
 70
     1
102
RTVSPropertyOp49
 70
     1
102
RTVSPropertyOp50
 70
     1
102
RTVSPropertyOp51
 70
     0
102
RTVSPropertyOp52
 70
     0
102
RTVSPropertyOp53
 70
     1
102
RTVSPropertyOp54
 70
     1
102
RTVSPropertyOp55
 70
     1
102
RTVSPropertyOp56
 70
     1
102
RTVSPropertyOp57
 70
     1
102
RTVSPropertyOp58
 70
     1
102
RTVSPropertyOp59
 70
     1
102
RTVSPropertyOp60
 70
     1
102
RTVSPropertyOp61
 70
     1
102
RTVSPropertyOp62
 70
     1
  0
XRECORD
  5
BEA2
102
{ACAD_REACTORS
330
BEA1
102
}
330
BEA1
100
AcDbXrecord
280
     1
102
RTVSPost2010Prop28
280
     0
102
RTVSPost2010PropOp28
 70
     1
102
RTVSPost2010Prop29
280
     1
102
RTVSPost2010PropOp29
 70
     1
102
RTVSPost2010Prop30
280
     1
102
RTVSPost2010PropOp30
 70
     1
102
RTVSPost2010Prop31
280
     0
102
RTVSPost2010PropOp31
 70
     1
102
RTVSPost2010Prop32
280
     0
102
RTVSPost2010PropOp32
 70
     1
102
RTVSPost2010Prop33
280
     0
102
RTVSPost2010PropOp33
 70
     1
102
RTVSPost2010Prop34
280
     0
102
RTVSPost2010PropOp34
 70
     1
102
RTVSPost2010Prop35
280
     0
102
RTVSPost2010PropOp35
 70
     1
102
RTVSPost2010Prop36
280
     0
102
RTVSPost2010PropOp36
 70
     1
102
RTVSPost2010Prop37
 90
       50
102
RTVSPost2010PropOp37
 70
     0
102
RTVSPost2010Prop38
140
0.0
102
RTVSPost2010PropOp38
 70
     0
102
RTVSPost2010Prop39
140
1.0
102
RTVSPost2010PropOp39
 70
     0
102
RTVSPost2010Prop40
 90
        0
102
RTVSPost2010PropOp40
 70
     0
102
RTVSPost2010Prop41ColorIndex
 90
       18
102
RTVSPost2010Prop41ColorRGB
 90
        0
102
RTVSPost2010PropOp41
 70
     0
102
RTVSPost2010Prop42
 90
       50
102
RTVSPost2010PropOp42
 70
     0
102
RTVSPost2010Prop43
 90
        3
102
RTVSPost2010PropOp43
 70
     0
102
RTVSPost2010Prop44ColorIndex
 90
        5
102
RTVSPost2010Prop44ColorRGB
 90
      255
102
RTVSPost2010PropOp44
 70
     0
102
RTVSPost2010Prop45
280
     0
102
RTVSPost2010PropOp45
 70
     1
102
RTVSPost2010Prop46
 90
       50
102
RTVSPost2010PropOp46
 70
     0
102
RTVSPost2010Prop47
 90
       50
102
RTVSPost2010PropOp47
 70
     0
102
RTVSPost2010Prop48
 90
       50
102
RTVSPost2010PropOp48
 70
     0
102
RTVSPost2010Prop49
280
     0
102
RTVSPost2010PropOp49
 70
     1
102
RTVSPost2010Prop50
 90
       50
102
RTVSPost2010PropOp50
 70
     0
102
RTVSPost2010Prop51ColorIndex
 90
      256
102
RTVSPost2010Prop51ColorRGB
 90
-16777216
102
RTVSPost2010PropOp51
 70
     0
102
RTVSPost2010Prop52
140
1.0
102
RTVSPost2010PropOp52
 70
     0
102
RTVSPost2010Prop53
 90
        2
102
RTVSPost2010PropOp53
 70
     0
102
RTVSPost2010Prop54
  1
strokes_ogs.tif
102
RTVSPost2010PropOp54
 70
     0
102
RTVSPost2010Prop55
280
     0
102
RTVSPost2010PropOp55
 70
     1
102
RTVSPost2010Prop56
140
1.0
102
RTVSPost2010PropOp56
 70
     0
102
RTVSPost2010Prop57
140
1.0
102
RTVSPost2010PropOp57
 70
     0
102
RTVSPropertyOp0
 70
     0
102
RTVSPropertyOp1
 70
     0
102
RTVSPropertyOp2
 70
     0
102
RTVSPropertyOp3
 70
     0
102
RTVSPropertyOp4
 70
     0
102
RTVSPropertyOp5
 70
     0
102
RTVSPropertyOp6
 70
     0
102
RTVSPropertyOp7
 70
     0
102
RTVSPropertyOp8
 70
     0
102
RTVSPropertyOp9
 70
     0
102
RTVSPropertyOp10
 70
     0
102
RTVSPropertyOp11
 70
     0
102
RTVSPropertyOp12
 70
     0
102
RTVSPropertyOp13
 70
     0
102
RTVSPropertyOp14
 70
     2
102
RTVSPropertyOp15
 70
     0
102
RTVSPropertyOp16
 70
     0
102
RTVSPropertyOp17
 70
     0
102
RTVSPropertyOp18
 70
     0
102
RTVSPropertyOp19
 70
     0
102
RTVSPropertyOp20
 70
     0
102
RTVSPropertyOp21
 70
     0
102
RTVSPropertyOp22
 70
     0
102
RTVSPropertyOp23
 70
     0
102
RTVSPropertyOp24
 70
     0
102
RTVSPropertyOp25
 70
     0
102
RTVSPropertyOp26
 70
     0
102
RTVSPropertyOp27
 70
     0
102
RTVSPropertyOp28
 70
     1
102
RTVSPropertyOp29
 70
     1
102
RTVSPropertyOp30
 70
     1
102
RTVSPropertyOp31
 70
     1
102
RTVSPropertyOp32
 70
     1
102
RTVSPropertyOp33
 70
     1
102
RTVSPropertyOp34
 70
     1
102
RTVSPropertyOp35
 70
     1
102
RTVSPropertyOp36
 70
     1
102
RTVSPropertyOp37
 70
     0
102
RTVSPropertyOp38
 70
     0
102
RTVSPropertyOp39
 70
     0
102
RTVSPropertyOp40
 70
     0
102
RTVSPropertyOp41
 70
     0
102
RTVSPropertyOp42
 70
     0
102
RTVSPropertyOp43
 70
     0
102
RTVSPropertyOp44
 70
     0
102
RTVSPropertyOp45
 70
     1
102
RTVSPropertyOp46
 70
     0
102
RTVSPropertyOp47
 70
     0
102
RTVSPropertyOp48
 70
     0
102
RTVSPropertyOp49
 70
     1
102
RTVSPropertyOp50
 70
     0
102
RTVSPropertyOp51
 70
     0
102
RTVSPropertyOp52
 70
     0
102
RTVSPropertyOp53
 70
     0
102
RTVSPropertyOp54
 70
     0
102
RTVSPropertyOp55
 70
     1
102
RTVSPropertyOp56
 70
     0
102
RTVSPropertyOp57
 70
     0
102
RTVSPropertyOp58
 70
     0
102
RTVSPropertyOp59
 70
     0
102
RTVSPropertyOp60
 70
     0
102
RTVSPropertyOp61
 70
     0
102
RTVSPropertyOp62
 70
     0
  0
XRECORD
  5
BE92
102
{ACAD_REACTORS
330
BE91
102
}
330
BE91
100
AcDbXrecord
280
     1
102
RTVSPost2010Prop28
280
     0
102
RTVSPost2010PropOp28
 70
     1
102
RTVSPost2010Prop29
280
     1
102
RTVSPost2010PropOp29
 70
     1
102
RTVSPost2010Prop30
280
     1
102
RTVSPost2010PropOp30
 70
     1
102
RTVSPost2010Prop31
280
     0
102
RTVSPost2010PropOp31
 70
     1
102
RTVSPost2010Prop32
280
     0
102
RTVSPost2010PropOp32
 70
     1
102
RTVSPost2010Prop33
280
     0
102
RTVSPost2010PropOp33
 70
     1
102
RTVSPost2010Prop34
280
     0
102
RTVSPost2010PropOp34
 70
     1
102
RTVSPost2010Prop35
280
     0
102
RTVSPost2010PropOp35
 70
     1
102
RTVSPost2010Prop36
280
     0
102
RTVSPost2010PropOp36
 70
     1
102
RTVSPost2010Prop37
 90
       50
102
RTVSPost2010PropOp37
 70
     1
102
RTVSPost2010Prop38
140
0.0
102
RTVSPost2010PropOp38
 70
     1
102
RTVSPost2010Prop39
140
1.0
102
RTVSPost2010PropOp39
 70
     1
102
RTVSPost2010Prop40
 90
        0
102
RTVSPost2010PropOp40
 70
     1
102
RTVSPost2010Prop41ColorIndex
 90
       18
102
RTVSPost2010Prop41ColorRGB
 90
        0
102
RTVSPost2010PropOp41
 70
     1
102
RTVSPost2010Prop42
 90
       50
102
RTVSPost2010PropOp42
 70
     1
102
RTVSPost2010Prop43
 90
        3
102
RTVSPost2010PropOp43
 70
     1
102
RTVSPost2010Prop44ColorIndex
 90
        5
102
RTVSPost2010Prop44ColorRGB
 90
      255
102
RTVSPost2010PropOp44
 70
     1
102
RTVSPost2010Prop45
280
     0
102
RTVSPost2010PropOp45
 70
     1
102
RTVSPost2010Prop46
 90
       50
102
RTVSPost2010PropOp46
 70
     1
102
RTVSPost2010Prop47
 90
       50
102
RTVSPost2010PropOp47
 70
     1
102
RTVSPost2010Prop48
 90
       50
102
RTVSPost2010PropOp48
 70
     1
102
RTVSPost2010Prop49
280
     0
102
RTVSPost2010PropOp49
 70
     1
102
RTVSPost2010Prop50
 90
       50
102
RTVSPost2010PropOp50
 70
     1
102
RTVSPost2010Prop51ColorIndex
 90
      256
102
RTVSPost2010Prop51ColorRGB
 90
-16777216
102
RTVSPost2010PropOp51
 70
     0
102
RTVSPost2010Prop52
140
1.0
102
RTVSPost2010PropOp52
 70
     0
102
RTVSPost2010Prop53
 90
        2
102
RTVSPost2010PropOp53
 70
     1
102
RTVSPost2010Prop54
  1
strokes_ogs.tif
102
RTVSPost2010PropOp54
 70
     1
102
RTVSPost2010Prop55
280
     0
102
RTVSPost2010PropOp55
 70
     1
102
RTVSPost2010Prop56
140
1.0
102
RTVSPost2010PropOp56
 70
     1
102
RTVSPost2010Prop57
140
1.0
102
RTVSPost2010PropOp57
 70
     1
102
RTVSPropertyOp0
 70
     1
102
RTVSPropertyOp1
 70
     1
102
RTVSPropertyOp2
 70
     1
102
RTVSPropertyOp3
 70
     1
102
RTVSPropertyOp4
 70
     1
102
RTVSPropertyOp5
 70
     1
102
RTVSPropertyOp6
 70
     1
102
RTVSPropertyOp7
 70
     1
102
RTVSPropertyOp8
 70
     1
102
RTVSPropertyOp9
 70
     1
102
RTVSPropertyOp10
 70
     1
102
RTVSPropertyOp11
 70
     1
102
RTVSPropertyOp12
 70
     1
102
RTVSPropertyOp13
 70
     1
102
RTVSPropertyOp14
 70
     1
102
RTVSPropertyOp15
 70
     1
102
RTVSPropertyOp16
 70
     1
102
RTVSPropertyOp17
 70
     1
102
RTVSPropertyOp18
 70
     1
102
RTVSPropertyOp19
 70
     1
102
RTVSPropertyOp20
 70
     1
102
RTVSPropertyOp21
 70
     1
102
RTVSPropertyOp22
 70
     1
102
RTVSPropertyOp23
 70
     1
102
RTVSPropertyOp24
 70
     1
102
RTVSPropertyOp25
 70
     1
102
RTVSPropertyOp26
 70
     1
102
RTVSPropertyOp27
 70
     1
102
RTVSPropertyOp28
 70
     1
102
RTVSPropertyOp29
 70
     1
102
RTVSPropertyOp30
 70
     1
102
RTVSPropertyOp31
 70
     1
102
RTVSPropertyOp32
 70
     1
102
RTVSPropertyOp33
 70
     1
102
RTVSPropertyOp34
 70
     1
102
RTVSPropertyOp35
 70
     1
102
RTVSPropertyOp36
 70
     1
102
RTVSPropertyOp37
 70
     1
102
RTVSPropertyOp38
 70
     1
102
RTVSPropertyOp39
 70
     1
102
RTVSPropertyOp40
 70
     1
102
RTVSPropertyOp41
 70
     1
102
RTVSPropertyOp42
 70
     1
102
RTVSPropertyOp43
 70
     1
102
RTVSPropertyOp44
 70
     1
102
RTVSPropertyOp45
 70
     1
102
RTVSPropertyOp46
 70
     1
102
RTVSPropertyOp47
 70
     1
102
RTVSPropertyOp48
 70
     1
102
RTVSPropertyOp49
 70
     1
102
RTVSPropertyOp50
 70
     1
102
RTVSPropertyOp51
 70
     0
102
RTVSPropertyOp52
 70
     0
102
RTVSPropertyOp53
 70
     1
102
RTVSPropertyOp54
 70
     1
102
RTVSPropertyOp55
 70
     1
102
RTVSPropertyOp56
 70
     1
102
RTVSPropertyOp57
 70
     1
102
RTVSPropertyOp58
 70
     1
102
RTVSPropertyOp59
 70
     1
102
RTVSPropertyOp60
 70
     1
102
RTVSPropertyOp61
 70
     1
102
RTVSPropertyOp62
 70
     1
  0
XRECORD
  5
BEA4
102
{ACAD_REACTORS
330
BEA3
102
}
330
BEA3
100
AcDbXrecord
280
     1
102
RTVSPost2010Prop28
280
     0
102
RTVSPost2010PropOp28
 70
     1
102
RTVSPost2010Prop29
280
     1
102
RTVSPost2010PropOp29
 70
     1
102
RTVSPost2010Prop30
280
     1
102
RTVSPost2010PropOp30
 70
     1
102
RTVSPost2010Prop31
280
     0
102
RTVSPost2010PropOp31
 70
     1
102
RTVSPost2010Prop32
280
     0
102
RTVSPost2010PropOp32
 70
     1
102
RTVSPost2010Prop33
280
     0
102
RTVSPost2010PropOp33
 70
     1
102
RTVSPost2010Prop34
280
     0
102
RTVSPost2010PropOp34
 70
     1
102
RTVSPost2010Prop35
280
     0
102
RTVSPost2010PropOp35
 70
     1
102
RTVSPost2010Prop36
280
     0
102
RTVSPost2010PropOp36
 70
     1
102
RTVSPost2010Prop37
 90
       50
102
RTVSPost2010PropOp37
 70
     0
102
RTVSPost2010Prop38
140
0.0
102
RTVSPost2010PropOp38
 70
     0
102
RTVSPost2010Prop39
140
1.0
102
RTVSPost2010PropOp39
 70
     0
102
RTVSPost2010Prop40
 90
        0
102
RTVSPost2010PropOp40
 70
     0
102
RTVSPost2010Prop41ColorIndex
 90
       18
102
RTVSPost2010Prop41ColorRGB
 90
        0
102
RTVSPost2010PropOp41
 70
     0
102
RTVSPost2010Prop42
 90
       50
102
RTVSPost2010PropOp42
 70
     0
102
RTVSPost2010Prop43
 90
        3
102
RTVSPost2010PropOp43
 70
     0
102
RTVSPost2010Prop44ColorIndex
 90
        5
102
RTVSPost2010Prop44ColorRGB
 90
      255
102
RTVSPost2010PropOp44
 70
     0
102
RTVSPost2010Prop45
280
     0
102
RTVSPost2010PropOp45
 70
     1
102
RTVSPost2010Prop46
 90
       50
102
RTVSPost2010PropOp46
 70
     0
102
RTVSPost2010Prop47
 90
       50
102
RTVSPost2010PropOp47
 70
     0
102
RTVSPost2010Prop48
 90
       50
102
RTVSPost2010PropOp48
 70
     0
102
RTVSPost2010Prop49
280
     0
102
RTVSPost2010PropOp49
 70
     1
102
RTVSPost2010Prop50
 90
       50
102
RTVSPost2010PropOp50
 70
     0
102
RTVSPost2010Prop51ColorIndex
 90
      256
102
RTVSPost2010Prop51ColorRGB
 90
-16777216
102
RTVSPost2010PropOp51
 70
     0
102
RTVSPost2010Prop52
140
1.0
102
RTVSPost2010PropOp52
 70
     0
102
RTVSPost2010Prop53
 90
        2
102
RTVSPost2010PropOp53
 70
     0
102
RTVSPost2010Prop54
  1
strokes_ogs.tif
102
RTVSPost2010PropOp54
 70
     0
102
RTVSPost2010Prop55
280
     0
102
RTVSPost2010PropOp55
 70
     1
102
RTVSPost2010Prop56
140
1.0
102
RTVSPost2010PropOp56
 70
     0
102
RTVSPost2010Prop57
140
1.0
102
RTVSPost2010PropOp57
 70
     0
102
RTVSPropertyOp0
 70
     0
102
RTVSPropertyOp1
 70
     0
102
RTVSPropertyOp2
 70
     0
102
RTVSPropertyOp3
 70
     0
102
RTVSPropertyOp4
 70
     0
102
RTVSPropertyOp5
 70
     0
102
RTVSPropertyOp6
 70
     0
102
RTVSPropertyOp7
 70
     0
102
RTVSPropertyOp8
 70
     0
102
RTVSPropertyOp9
 70
     0
102
RTVSPropertyOp10
 70
     0
102
RTVSPropertyOp11
 70
     0
102
RTVSPropertyOp12
 70
     0
102
RTVSPropertyOp13
 70
     0
102
RTVSPropertyOp14
 70
     2
102
RTVSPropertyOp15
 70
     0
102
RTVSPropertyOp16
 70
     0
102
RTVSPropertyOp17
 70
     0
102
RTVSPropertyOp18
 70
     0
102
RTVSPropertyOp19
 70
     0
102
RTVSPropertyOp20
 70
     0
102
RTVSPropertyOp21
 70
     0
102
RTVSPropertyOp22
 70
     0
102
RTVSPropertyOp23
 70
     0
102
RTVSPropertyOp24
 70
     0
102
RTVSPropertyOp25
 70
     0
102
RTVSPropertyOp26
 70
     0
102
RTVSPropertyOp27
 70
     0
102
RTVSPropertyOp28
 70
     1
102
RTVSPropertyOp29
 70
     1
102
RTVSPropertyOp30
 70
     1
102
RTVSPropertyOp31
 70
     1
102
RTVSPropertyOp32
 70
     1
102
RTVSPropertyOp33
 70
     1
102
RTVSPropertyOp34
 70
     1
102
RTVSPropertyOp35
 70
     1
102
RTVSPropertyOp36
 70
     1
102
RTVSPropertyOp37
 70
     0
102
RTVSPropertyOp38
 70
     0
102
RTVSPropertyOp39
 70
     0
102
RTVSPropertyOp40
 70
     0
102
RTVSPropertyOp41
 70
     0
102
RTVSPropertyOp42
 70
     0
102
RTVSPropertyOp43
 70
     0
102
RTVSPropertyOp44
 70
     0
102
RTVSPropertyOp45
 70
     1
102
RTVSPropertyOp46
 70
     0
102
RTVSPropertyOp47
 70
     0
102
RTVSPropertyOp48
 70
     0
102
RTVSPropertyOp49
 70
     1
102
RTVSPropertyOp50
 70
     0
102
RTVSPropertyOp51
 70
     0
102
RTVSPropertyOp52
 70
     0
102
RTVSPropertyOp53
 70
     0
102
RTVSPropertyOp54
 70
     0
102
RTVSPropertyOp55
 70
     1
102
RTVSPropertyOp56
 70
     0
102
RTVSPropertyOp57
 70
     0
102
RTVSPropertyOp58
 70
     0
102
RTVSPropertyOp59
 70
     0
102
RTVSPropertyOp60
 70
     0
102
RTVSPropertyOp61
 70
     0
102
RTVSPropertyOp62
 70
     0
  0
XRECORD
  5
BE8A
102
{ACAD_REACTORS
330
BE89
102
}
330
BE89
100
AcDbXrecord
280
     1
102
RTVSPost2010Prop28
280
     0
102
RTVSPost2010PropOp28
 70
     1
102
RTVSPost2010Prop29
280
     1
102
RTVSPost2010PropOp29
 70
     1
102
RTVSPost2010Prop30
280
     1
102
RTVSPost2010PropOp30
 70
     1
102
RTVSPost2010Prop31
280
     0
102
RTVSPost2010PropOp31
 70
     1
102
RTVSPost2010Prop32
280
     0
102
RTVSPost2010PropOp32
 70
     1
102
RTVSPost2010Prop33
280
     0
102
RTVSPost2010PropOp33
 70
     1
102
RTVSPost2010Prop34
280
     0
102
RTVSPost2010PropOp34
 70
     1
102
RTVSPost2010Prop35
280
     0
102
RTVSPost2010PropOp35
 70
     1
102
RTVSPost2010Prop36
280
     0
102
RTVSPost2010PropOp36
 70
     1
102
RTVSPost2010Prop37
 90
       50
102
RTVSPost2010PropOp37
 70
     1
102
RTVSPost2010Prop38
140
0.0
102
RTVSPost2010PropOp38
 70
     1
102
RTVSPost2010Prop39
140
1.0
102
RTVSPost2010PropOp39
 70
     1
102
RTVSPost2010Prop40
 90
        0
102
RTVSPost2010PropOp40
 70
     1
102
RTVSPost2010Prop41ColorIndex
 90
       18
102
RTVSPost2010Prop41ColorRGB
 90
        0
102
RTVSPost2010PropOp41
 70
     1
102
RTVSPost2010Prop42
 90
       50
102
RTVSPost2010PropOp42
 70
     1
102
RTVSPost2010Prop43
 90
        3
102
RTVSPost2010PropOp43
 70
     1
102
RTVSPost2010Prop44ColorIndex
 90
        5
102
RTVSPost2010Prop44ColorRGB
 90
      255
102
RTVSPost2010PropOp44
 70
     1
102
RTVSPost2010Prop45
280
     0
102
RTVSPost2010PropOp45
 70
     1
102
RTVSPost2010Prop46
 90
       50
102
RTVSPost2010PropOp46
 70
     1
102
RTVSPost2010Prop47
 90
       50
102
RTVSPost2010PropOp47
 70
     1
102
RTVSPost2010Prop48
 90
       50
102
RTVSPost2010PropOp48
 70
     1
102
RTVSPost2010Prop49
280
     0
102
RTVSPost2010PropOp49
 70
     1
102
RTVSPost2010Prop50
 90
       50
102
RTVSPost2010PropOp50
 70
     1
102
RTVSPost2010Prop51ColorIndex
 90
      256
102
RTVSPost2010Prop51ColorRGB
 90
-16777216
102
RTVSPost2010PropOp51
 70
     0
102
RTVSPost2010Prop52
140
1.0
102
RTVSPost2010PropOp52
 70
     0
102
RTVSPost2010Prop53
 90
        2
102
RTVSPost2010PropOp53
 70
     1
102
RTVSPost2010Prop54
  1
strokes_ogs.tif
102
RTVSPost2010PropOp54
 70
     1
102
RTVSPost2010Prop55
280
     0
102
RTVSPost2010PropOp55
 70
     1
102
RTVSPost2010Prop56
140
1.0
102
RTVSPost2010PropOp56
 70
     1
102
RTVSPost2010Prop57
140
1.0
102
RTVSPost2010PropOp57
 70
     1
102
RTVSPropertyOp0
 70
     1
102
RTVSPropertyOp1
 70
     1
102
RTVSPropertyOp2
 70
     1
102
RTVSPropertyOp3
 70
     1
102
RTVSPropertyOp4
 70
     1
102
RTVSPropertyOp5
 70
     1
102
RTVSPropertyOp6
 70
     1
102
RTVSPropertyOp7
 70
     1
102
RTVSPropertyOp8
 70
     1
102
RTVSPropertyOp9
 70
     1
102
RTVSPropertyOp10
 70
     1
102
RTVSPropertyOp11
 70
     1
102
RTVSPropertyOp12
 70
     1
102
RTVSPropertyOp13
 70
     1
102
RTVSPropertyOp14
 70
     1
102
RTVSPropertyOp15
 70
     1
102
RTVSPropertyOp16
 70
     1
102
RTVSPropertyOp17
 70
     1
102
RTVSPropertyOp18
 70
     1
102
RTVSPropertyOp19
 70
     1
102
RTVSPropertyOp20
 70
     1
102
RTVSPropertyOp21
 70
     1
102
RTVSPropertyOp22
 70
     1
102
RTVSPropertyOp23
 70
     1
102
RTVSPropertyOp24
 70
     1
102
RTVSPropertyOp25
 70
     1
102
RTVSPropertyOp26
 70
     1
102
RTVSPropertyOp27
 70
     1
102
RTVSPropertyOp28
 70
     1
102
RTVSPropertyOp29
 70
     1
102
RTVSPropertyOp30
 70
     1
102
RTVSPropertyOp31
 70
     1
102
RTVSPropertyOp32
 70
     1
102
RTVSPropertyOp33
 70
     1
102
RTVSPropertyOp34
 70
     1
102
RTVSPropertyOp35
 70
     1
102
RTVSPropertyOp36
 70
     1
102
RTVSPropertyOp37
 70
     1
102
RTVSPropertyOp38
 70
     1
102
RTVSPropertyOp39
 70
     1
102
RTVSPropertyOp40
 70
     1
102
RTVSPropertyOp41
 70
     1
102
RTVSPropertyOp42
 70
     1
102
RTVSPropertyOp43
 70
     1
102
RTVSPropertyOp44
 70
     1
102
RTVSPropertyOp45
 70
     1
102
RTVSPropertyOp46
 70
     1
102
RTVSPropertyOp47
 70
     1
102
RTVSPropertyOp48
 70
     1
102
RTVSPropertyOp49
 70
     1
102
RTVSPropertyOp50
 70
     1
102
RTVSPropertyOp51
 70
     0
102
RTVSPropertyOp52
 70
     0
102
RTVSPropertyOp53
 70
     1
102
RTVSPropertyOp54
 70
     1
102
RTVSPropertyOp55
 70
     1
102
RTVSPropertyOp56
 70
     1
102
RTVSPropertyOp57
 70
     1
102
RTVSPropertyOp58
 70
     1
102
RTVSPropertyOp59
 70
     1
102
RTVSPropertyOp60
 70
     1
102
RTVSPropertyOp61
 70
     1
102
RTVSPropertyOp62
 70
     1
  0
XRECORD
  5
BEA0
102
{ACAD_REACTORS
330
BE9F
102
}
330
BE9F
100
AcDbXrecord
280
     1
102
RTVSPost2010Prop28
280
     0
102
RTVSPost2010PropOp28
 70
     1
102
RTVSPost2010Prop29
280
     1
102
RTVSPost2010PropOp29
 70
     1
102
RTVSPost2010Prop30
280
     1
102
RTVSPost2010PropOp30
 70
     1
102
RTVSPost2010Prop31
280
     0
102
RTVSPost2010PropOp31
 70
     1
102
RTVSPost2010Prop32
280
     0
102
RTVSPost2010PropOp32
 70
     1
102
RTVSPost2010Prop33
280
     0
102
RTVSPost2010PropOp33
 70
     1
102
RTVSPost2010Prop34
280
     0
102
RTVSPost2010PropOp34
 70
     1
102
RTVSPost2010Prop35
280
     0
102
RTVSPost2010PropOp35
 70
     1
102
RTVSPost2010Prop36
280
     0
102
RTVSPost2010PropOp36
 70
     1
102
RTVSPost2010Prop37
 90
       50
102
RTVSPost2010PropOp37
 70
     1
102
RTVSPost2010Prop38
140
0.0
102
RTVSPost2010PropOp38
 70
     1
102
RTVSPost2010Prop39
140
1.0
102
RTVSPost2010PropOp39
 70
     1
102
RTVSPost2010Prop40
 90
        0
102
RTVSPost2010PropOp40
 70
     1
102
RTVSPost2010Prop41ColorIndex
 90
       18
102
RTVSPost2010Prop41ColorRGB
 90
        0
102
RTVSPost2010PropOp41
 70
     1
102
RTVSPost2010Prop42
 90
       50
102
RTVSPost2010PropOp42
 70
     1
102
RTVSPost2010Prop43
 90
        3
102
RTVSPost2010PropOp43
 70
     1
102
RTVSPost2010Prop44ColorIndex
 90
        5
102
RTVSPost2010Prop44ColorRGB
 90
      255
102
RTVSPost2010PropOp44
 70
     1
102
RTVSPost2010Prop45
280
     0
102
RTVSPost2010PropOp45
 70
     1
102
RTVSPost2010Prop46
 90
       50
102
RTVSPost2010PropOp46
 70
     1
102
RTVSPost2010Prop47
 90
       50
102
RTVSPost2010PropOp47
 70
     1
102
RTVSPost2010Prop48
 90
       50
102
RTVSPost2010PropOp48
 70
     1
102
RTVSPost2010Prop49
280
     0
102
RTVSPost2010PropOp49
 70
     1
102
RTVSPost2010Prop50
 90
       50
102
RTVSPost2010PropOp50
 70
     1
102
RTVSPost2010Prop51ColorIndex
 90
      256
102
RTVSPost2010Prop51ColorRGB
 90
-16777216
102
RTVSPost2010PropOp51
 70
     0
102
RTVSPost2010Prop52
140
1.0
102
RTVSPost2010PropOp52
 70
     0
102
RTVSPost2010Prop53
 90
        2
102
RTVSPost2010PropOp53
 70
     1
102
RTVSPost2010Prop54
  1
strokes_ogs.tif
102
RTVSPost2010PropOp54
 70
     1
102
RTVSPost2010Prop55
280
     0
102
RTVSPost2010PropOp55
 70
     1
102
RTVSPost2010Prop56
140
1.0
102
RTVSPost2010PropOp56
 70
     1
102
RTVSPost2010Prop57
140
1.0
102
RTVSPost2010PropOp57
 70
     1
102
RTVSPropertyOp0
 70
     1
102
RTVSPropertyOp1
 70
     1
102
RTVSPropertyOp2
 70
     1
102
RTVSPropertyOp3
 70
     1
102
RTVSPropertyOp4
 70
     1
102
RTVSPropertyOp5
 70
     1
102
RTVSPropertyOp6
 70
     1
102
RTVSPropertyOp7
 70
     1
102
RTVSPropertyOp8
 70
     1
102
RTVSPropertyOp9
 70
     1
102
RTVSPropertyOp10
 70
     1
102
RTVSPropertyOp11
 70
     1
102
RTVSPropertyOp12
 70
     1
102
RTVSPropertyOp13
 70
     1
102
RTVSPropertyOp14
 70
     1
102
RTVSPropertyOp15
 70
     1
102
RTVSPropertyOp16
 70
     1
102
RTVSPropertyOp17
 70
     1
102
RTVSPropertyOp18
 70
     1
102
RTVSPropertyOp19
 70
     1
102
RTVSPropertyOp20
 70
     1
102
RTVSPropertyOp21
 70
     1
102
RTVSPropertyOp22
 70
     1
102
RTVSPropertyOp23
 70
     1
102
RTVSPropertyOp24
 70
     1
102
RTVSPropertyOp25
 70
     1
102
RTVSPropertyOp26
 70
     1
102
RTVSPropertyOp27
 70
     1
102
RTVSPropertyOp28
 70
     1
102
RTVSPropertyOp29
 70
     1
102
RTVSPropertyOp30
 70
     1
102
RTVSPropertyOp31
 70
     1
102
RTVSPropertyOp32
 70
     1
102
RTVSPropertyOp33
 70
     1
102
RTVSPropertyOp34
 70
     1
102
RTVSPropertyOp35
 70
     1
102
RTVSPropertyOp36
 70
     1
102
RTVSPropertyOp37
 70
     1
102
RTVSPropertyOp38
 70
     1
102
RTVSPropertyOp39
 70
     1
102
RTVSPropertyOp40
 70
     1
102
RTVSPropertyOp41
 70
     1
102
RTVSPropertyOp42
 70
     1
102
RTVSPropertyOp43
 70
     1
102
RTVSPropertyOp44
 70
     1
102
RTVSPropertyOp45
 70
     1
102
RTVSPropertyOp46
 70
     1
102
RTVSPropertyOp47
 70
     1
102
RTVSPropertyOp48
 70
     1
102
RTVSPropertyOp49
 70
     1
102
RTVSPropertyOp50
 70
     1
102
RTVSPropertyOp51
 70
     0
102
RTVSPropertyOp52
 70
     0
102
RTVSPropertyOp53
 70
     1
102
RTVSPropertyOp54
 70
     1
102
RTVSPropertyOp55
 70
     1
102
RTVSPropertyOp56
 70
     1
102
RTVSPropertyOp57
 70
     1
102
RTVSPropertyOp58
 70
     1
102
RTVSPropertyOp59
 70
     1
102
RTVSPropertyOp60
 70
     1
102
RTVSPropertyOp61
 70
     1
102
RTVSPropertyOp62
 70
     1
  0
XRECORD
  5
BE9E
102
{ACAD_REACTORS
330
BE9D
102
}
330
BE9D
100
AcDbXrecord
280
     1
102
RTVSPost2010Prop28
280
     0
102
RTVSPost2010PropOp28
 70
     1
102
RTVSPost2010Prop29
280
     1
102
RTVSPost2010PropOp29
 70
     1
102
RTVSPost2010Prop30
280
     1
102
RTVSPost2010PropOp30
 70
     1
102
RTVSPost2010Prop31
280
     0
102
RTVSPost2010PropOp31
 70
     1
102
RTVSPost2010Prop32
280
     0
102
RTVSPost2010PropOp32
 70
     1
102
RTVSPost2010Prop33
280
     0
102
RTVSPost2010PropOp33
 70
     1
102
RTVSPost2010Prop34
280
     0
102
RTVSPost2010PropOp34
 70
     1
102
RTVSPost2010Prop35
280
     0
102
RTVSPost2010PropOp35
 70
     1
102
RTVSPost2010Prop36
280
     0
102
RTVSPost2010PropOp36
 70
     1
102
RTVSPost2010Prop37
 90
       50
102
RTVSPost2010PropOp37
 70
     1
102
RTVSPost2010Prop38
140
0.0
102
RTVSPost2010PropOp38
 70
     1
102
RTVSPost2010Prop39
140
1.0
102
RTVSPost2010PropOp39
 70
     1
102
RTVSPost2010Prop40
 90
        0
102
RTVSPost2010PropOp40
 70
     1
102
RTVSPost2010Prop41ColorIndex
 90
       18
102
RTVSPost2010Prop41ColorRGB
 90
        0
102
RTVSPost2010PropOp41
 70
     1
102
RTVSPost2010Prop42
 90
       50
102
RTVSPost2010PropOp42
 70
     1
102
RTVSPost2010Prop43
 90
        3
102
RTVSPost2010PropOp43
 70
     1
102
RTVSPost2010Prop44ColorIndex
 90
        5
102
RTVSPost2010Prop44ColorRGB
 90
      255
102
RTVSPost2010PropOp44
 70
     1
102
RTVSPost2010Prop45
280
     0
102
RTVSPost2010PropOp45
 70
     1
102
RTVSPost2010Prop46
 90
       50
102
RTVSPost2010PropOp46
 70
     1
102
RTVSPost2010Prop47
 90
       50
102
RTVSPost2010PropOp47
 70
     1
102
RTVSPost2010Prop48
 90
       50
102
RTVSPost2010PropOp48
 70
     1
102
RTVSPost2010Prop49
280
     0
102
RTVSPost2010PropOp49
 70
     1
102
RTVSPost2010Prop50
 90
       50
102
RTVSPost2010PropOp50
 70
     1
102
RTVSPost2010Prop51ColorIndex
 90
      256
102
RTVSPost2010Prop51ColorRGB
 90
-16777216
102
RTVSPost2010PropOp51
 70
     0
102
RTVSPost2010Prop52
140
1.0
102
RTVSPost2010PropOp52
 70
     0
102
RTVSPost2010Prop53
 90
        2
102
RTVSPost2010PropOp53
 70
     1
102
RTVSPost2010Prop54
  1
strokes_ogs.tif
102
RTVSPost2010PropOp54
 70
     1
102
RTVSPost2010Prop55
280
     0
102
RTVSPost2010PropOp55
 70
     1
102
RTVSPost2010Prop56
140
1.0
102
RTVSPost2010PropOp56
 70
     1
102
RTVSPost2010Prop57
140
1.0
102
RTVSPost2010PropOp57
 70
     1
102
RTVSPropertyOp0
 70
     1
102
RTVSPropertyOp1
 70
     1
102
RTVSPropertyOp2
 70
     1
102
RTVSPropertyOp3
 70
     1
102
RTVSPropertyOp4
 70
     1
102
RTVSPropertyOp5
 70
     1
102
RTVSPropertyOp6
 70
     1
102
RTVSPropertyOp7
 70
     1
102
RTVSPropertyOp8
 70
     1
102
RTVSPropertyOp9
 70
     1
102
RTVSPropertyOp10
 70
     1
102
RTVSPropertyOp11
 70
     1
102
RTVSPropertyOp12
 70
     1
102
RTVSPropertyOp13
 70
     1
102
RTVSPropertyOp14
 70
     1
102
RTVSPropertyOp15
 70
     1
102
RTVSPropertyOp16
 70
     1
102
RTVSPropertyOp17
 70
     1
102
RTVSPropertyOp18
 70
     1
102
RTVSPropertyOp19
 70
     1
102
RTVSPropertyOp20
 70
     1
102
RTVSPropertyOp21
 70
     1
102
RTVSPropertyOp22
 70
     1
102
RTVSPropertyOp23
 70
     1
102
RTVSPropertyOp24
 70
     1
102
RTVSPropertyOp25
 70
     1
102
RTVSPropertyOp26
 70
     1
102
RTVSPropertyOp27
 70
     1
102
RTVSPropertyOp28
 70
     1
102
RTVSPropertyOp29
 70
     1
102
RTVSPropertyOp30
 70
     1
102
RTVSPropertyOp31
 70
     1
102
RTVSPropertyOp32
 70
     1
102
RTVSPropertyOp33
 70
     1
102
RTVSPropertyOp34
 70
     1
102
RTVSPropertyOp35
 70
     1
102
RTVSPropertyOp36
 70
     1
102
RTVSPropertyOp37
 70
     1
102
RTVSPropertyOp38
 70
     1
102
RTVSPropertyOp39
 70
     1
102
RTVSPropertyOp40
 70
     1
102
RTVSPropertyOp41
 70
     1
102
RTVSPropertyOp42
 70
     1
102
RTVSPropertyOp43
 70
     1
102
RTVSPropertyOp44
 70
     1
102
RTVSPropertyOp45
 70
     1
102
RTVSPropertyOp46
 70
     1
102
RTVSPropertyOp47
 70
     1
102
RTVSPropertyOp48
 70
     1
102
RTVSPropertyOp49
 70
     1
102
RTVSPropertyOp50
 70
     1
102
RTVSPropertyOp51
 70
     0
102
RTVSPropertyOp52
 70
     0
102
RTVSPropertyOp53
 70
     1
102
RTVSPropertyOp54
 70
     1
102
RTVSPropertyOp55
 70
     1
102
RTVSPropertyOp56
 70
     1
102
RTVSPropertyOp57
 70
     1
102
RTVSPropertyOp58
 70
     1
102
RTVSPropertyOp59
 70
     1
102
RTVSPropertyOp60
 70
     1
102
RTVSPropertyOp61
 70
     1
102
RTVSPropertyOp62
 70
     1
  0
XRECORD
  5
BE98
102
{ACAD_REACTORS
330
BE97
102
}
330
BE97
100
AcDbXrecord
280
     1
102
RTVSPost2010Prop28
280
     0
102
RTVSPost2010PropOp28
 70
     1
102
RTVSPost2010Prop29
280
     1
102
RTVSPost2010PropOp29
 70
     1
102
RTVSPost2010Prop30
280
     1
102
RTVSPost2010PropOp30
 70
     1
102
RTVSPost2010Prop31
280
     0
102
RTVSPost2010PropOp31
 70
     1
102
RTVSPost2010Prop32
280
     0
102
RTVSPost2010PropOp32
 70
     1
102
RTVSPost2010Prop33
280
     0
102
RTVSPost2010PropOp33
 70
     1
102
RTVSPost2010Prop34
280
     0
102
RTVSPost2010PropOp34
 70
     1
102
RTVSPost2010Prop35
280
     0
102
RTVSPost2010PropOp35
 70
     1
102
RTVSPost2010Prop36
280
     0
102
RTVSPost2010PropOp36
 70
     1
102
RTVSPost2010Prop37
 90
       50
102
RTVSPost2010PropOp37
 70
     1
102
RTVSPost2010Prop38
140
0.0
102
RTVSPost2010PropOp38
 70
     1
102
RTVSPost2010Prop39
140
1.0
102
RTVSPost2010PropOp39
 70
     1
102
RTVSPost2010Prop40
 90
        0
102
RTVSPost2010PropOp40
 70
     1
102
RTVSPost2010Prop41ColorIndex
 90
       18
102
RTVSPost2010Prop41ColorRGB
 90
        0
102
RTVSPost2010PropOp41
 70
     1
102
RTVSPost2010Prop42
 90
       50
102
RTVSPost2010PropOp42
 70
     1
102
RTVSPost2010Prop43
 90
        3
102
RTVSPost2010PropOp43
 70
     1
102
RTVSPost2010Prop44ColorIndex
 90
        5
102
RTVSPost2010Prop44ColorRGB
 90
      255
102
RTVSPost2010PropOp44
 70
     1
102
RTVSPost2010Prop45
280
     0
102
RTVSPost2010PropOp45
 70
     1
102
RTVSPost2010Prop46
 90
       50
102
RTVSPost2010PropOp46
 70
     1
102
RTVSPost2010Prop47
 90
       50
102
RTVSPost2010PropOp47
 70
     1
102
RTVSPost2010Prop48
 90
       50
102
RTVSPost2010PropOp48
 70
     1
102
RTVSPost2010Prop49
280
     0
102
RTVSPost2010PropOp49
 70
     1
102
RTVSPost2010Prop50
 90
       50
102
RTVSPost2010PropOp50
 70
     1
102
RTVSPost2010Prop51ColorIndex
 90
      256
102
RTVSPost2010Prop51ColorRGB
 90
-16777216
102
RTVSPost2010PropOp51
 70
     0
102
RTVSPost2010Prop52
140
1.0
102
RTVSPost2010PropOp52
 70
     0
102
RTVSPost2010Prop53
 90
        2
102
RTVSPost2010PropOp53
 70
     1
102
RTVSPost2010Prop54
  1
strokes_ogs.tif
102
RTVSPost2010PropOp54
 70
     1
102
RTVSPost2010Prop55
280
     0
102
RTVSPost2010PropOp55
 70
     1
102
RTVSPost2010Prop56
140
1.0
102
RTVSPost2010PropOp56
 70
     1
102
RTVSPost2010Prop57
140
1.0
102
RTVSPost2010PropOp57
 70
     1
102
RTVSPropertyOp0
 70
     1
102
RTVSPropertyOp1
 70
     1
102
RTVSPropertyOp2
 70
     1
102
RTVSPropertyOp3
 70
     1
102
RTVSPropertyOp4
 70
     1
102
RTVSPropertyOp5
 70
     1
102
RTVSPropertyOp6
 70
     1
102
RTVSPropertyOp7
 70
     1
102
RTVSPropertyOp8
 70
     1
102
RTVSPropertyOp9
 70
     1
102
RTVSPropertyOp10
 70
     1
102
RTVSPropertyOp11
 70
     1
102
RTVSPropertyOp12
 70
     1
102
RTVSPropertyOp13
 70
     1
102
RTVSPropertyOp14
 70
     1
102
RTVSPropertyOp15
 70
     1
102
RTVSPropertyOp16
 70
     1
102
RTVSPropertyOp17
 70
     1
102
RTVSPropertyOp18
 70
     1
102
RTVSPropertyOp19
 70
     1
102
RTVSPropertyOp20
 70
     1
102
RTVSPropertyOp21
 70
     1
102
RTVSPropertyOp22
 70
     1
102
RTVSPropertyOp23
 70
     1
102
RTVSPropertyOp24
 70
     1
102
RTVSPropertyOp25
 70
     1
102
RTVSPropertyOp26
 70
     1
102
RTVSPropertyOp27
 70
     1
102
RTVSPropertyOp28
 70
     1
102
RTVSPropertyOp29
 70
     1
102
RTVSPropertyOp30
 70
     1
102
RTVSPropertyOp31
 70
     1
102
RTVSPropertyOp32
 70
     1
102
RTVSPropertyOp33
 70
     1
102
RTVSPropertyOp34
 70
     1
102
RTVSPropertyOp35
 70
     1
102
RTVSPropertyOp36
 70
     1
102
RTVSPropertyOp37
 70
     1
102
RTVSPropertyOp38
 70
     1
102
RTVSPropertyOp39
 70
     1
102
RTVSPropertyOp40
 70
     1
102
RTVSPropertyOp41
 70
     1
102
RTVSPropertyOp42
 70
     1
102
RTVSPropertyOp43
 70
     1
102
RTVSPropertyOp44
 70
     1
102
RTVSPropertyOp45
 70
     1
102
RTVSPropertyOp46
 70
     1
102
RTVSPropertyOp47
 70
     1
102
RTVSPropertyOp48
 70
     1
102
RTVSPropertyOp49
 70
     1
102
RTVSPropertyOp50
 70
     1
102
RTVSPropertyOp51
 70
     0
102
RTVSPropertyOp52
 70
     0
102
RTVSPropertyOp53
 70
     1
102
RTVSPropertyOp54
 70
     1
102
RTVSPropertyOp55
 70
     1
102
RTVSPropertyOp56
 70
     1
102
RTVSPropertyOp57
 70
     1
102
RTVSPropertyOp58
 70
     1
102
RTVSPropertyOp59
 70
     1
102
RTVSPropertyOp60
 70
     1
102
RTVSPropertyOp61
 70
     1
102
RTVSPropertyOp62
 70
     1
  0
XRECORD
  5
BE9A
102
{ACAD_REACTORS
330
BE99
102
}
330
BE99
100
AcDbXrecord
280
     1
102
RTVSPost2010Prop28
280
     0
102
RTVSPost2010PropOp28
 70
     1
102
RTVSPost2010Prop29
280
     1
102
RTVSPost2010PropOp29
 70
     1
102
RTVSPost2010Prop30
280
     1
102
RTVSPost2010PropOp30
 70
     1
102
RTVSPost2010Prop31
280
     0
102
RTVSPost2010PropOp31
 70
     1
102
RTVSPost2010Prop32
280
     0
102
RTVSPost2010PropOp32
 70
     1
102
RTVSPost2010Prop33
280
     0
102
RTVSPost2010PropOp33
 70
     1
102
RTVSPost2010Prop34
280
     0
102
RTVSPost2010PropOp34
 70
     1
102
RTVSPost2010Prop35
280
     0
102
RTVSPost2010PropOp35
 70
     1
102
RTVSPost2010Prop36
280
     0
102
RTVSPost2010PropOp36
 70
     1
102
RTVSPost2010Prop37
 90
       50
102
RTVSPost2010PropOp37
 70
     1
102
RTVSPost2010Prop38
140
0.0
102
RTVSPost2010PropOp38
 70
     1
102
RTVSPost2010Prop39
140
1.0
102
RTVSPost2010PropOp39
 70
     1
102
RTVSPost2010Prop40
 90
        0
102
RTVSPost2010PropOp40
 70
     1
102
RTVSPost2010Prop41ColorIndex
 90
       18
102
RTVSPost2010Prop41ColorRGB
 90
        0
102
RTVSPost2010PropOp41
 70
     1
102
RTVSPost2010Prop42
 90
       50
102
RTVSPost2010PropOp42
 70
     1
102
RTVSPost2010Prop43
 90
        3
102
RTVSPost2010PropOp43
 70
     1
102
RTVSPost2010Prop44ColorIndex
 90
        5
102
RTVSPost2010Prop44ColorRGB
 90
      255
102
RTVSPost2010PropOp44
 70
     1
102
RTVSPost2010Prop45
280
     0
102
RTVSPost2010PropOp45
 70
     1
102
RTVSPost2010Prop46
 90
       50
102
RTVSPost2010PropOp46
 70
     1
102
RTVSPost2010Prop47
 90
       50
102
RTVSPost2010PropOp47
 70
     1
102
RTVSPost2010Prop48
 90
       50
102
RTVSPost2010PropOp48
 70
     1
102
RTVSPost2010Prop49
280
     0
102
RTVSPost2010PropOp49
 70
     1
102
RTVSPost2010Prop50
 90
       50
102
RTVSPost2010PropOp50
 70
     1
102
RTVSPost2010Prop51ColorIndex
 90
      256
102
RTVSPost2010Prop51ColorRGB
 90
-16777216
102
RTVSPost2010PropOp51
 70
     0
102
RTVSPost2010Prop52
140
1.0
102
RTVSPost2010PropOp52
 70
     0
102
RTVSPost2010Prop53
 90
        2
102
RTVSPost2010PropOp53
 70
     1
102
RTVSPost2010Prop54
  1
strokes_ogs.tif
102
RTVSPost2010PropOp54
 70
     1
102
RTVSPost2010Prop55
280
     0
102
RTVSPost2010PropOp55
 70
     1
102
RTVSPost2010Prop56
140
1.0
102
RTVSPost2010PropOp56
 70
     1
102
RTVSPost2010Prop57
140
1.0
102
RTVSPost2010PropOp57
 70
     1
102
RTVSPropertyOp0
 70
     1
102
RTVSPropertyOp1
 70
     1
102
RTVSPropertyOp2
 70
     1
102
RTVSPropertyOp3
 70
     1
102
RTVSPropertyOp4
 70
     1
102
RTVSPropertyOp5
 70
     1
102
RTVSPropertyOp6
 70
     1
102
RTVSPropertyOp7
 70
     1
102
RTVSPropertyOp8
 70
     1
102
RTVSPropertyOp9
 70
     1
102
RTVSPropertyOp10
 70
     1
102
RTVSPropertyOp11
 70
     1
102
RTVSPropertyOp12
 70
     1
102
RTVSPropertyOp13
 70
     1
102
RTVSPropertyOp14
 70
     1
102
RTVSPropertyOp15
 70
     1
102
RTVSPropertyOp16
 70
     1
102
RTVSPropertyOp17
 70
     1
102
RTVSPropertyOp18
 70
     1
102
RTVSPropertyOp19
 70
     1
102
RTVSPropertyOp20
 70
     1
102
RTVSPropertyOp21
 70
     1
102
RTVSPropertyOp22
 70
     1
102
RTVSPropertyOp23
 70
     1
102
RTVSPropertyOp24
 70
     1
102
RTVSPropertyOp25
 70
     1
102
RTVSPropertyOp26
 70
     1
102
RTVSPropertyOp27
 70
     1
102
RTVSPropertyOp28
 70
     1
102
RTVSPropertyOp29
 70
     1
102
RTVSPropertyOp30
 70
     1
102
RTVSPropertyOp31
 70
     1
102
RTVSPropertyOp32
 70
     1
102
RTVSPropertyOp33
 70
     1
102
RTVSPropertyOp34
 70
     1
102
RTVSPropertyOp35
 70
     1
102
RTVSPropertyOp36
 70
     1
102
RTVSPropertyOp37
 70
     1
102
RTVSPropertyOp38
 70
     1
102
RTVSPropertyOp39
 70
     1
102
RTVSPropertyOp40
 70
     1
102
RTVSPropertyOp41
 70
     1
102
RTVSPropertyOp42
 70
     1
102
RTVSPropertyOp43
 70
     1
102
RTVSPropertyOp44
 70
     1
102
RTVSPropertyOp45
 70
     1
102
RTVSPropertyOp46
 70
     1
102
RTVSPropertyOp47
 70
     1
102
RTVSPropertyOp48
 70
     1
102
RTVSPropertyOp49
 70
     1
102
RTVSPropertyOp50
 70
     1
102
RTVSPropertyOp51
 70
     0
102
RTVSPropertyOp52
 70
     0
102
RTVSPropertyOp53
 70
     1
102
RTVSPropertyOp54
 70
     1
102
RTVSPropertyOp55
 70
     1
102
RTVSPropertyOp56
 70
     1
102
RTVSPropertyOp57
 70
     1
102
RTVSPropertyOp58
 70
     1
102
RTVSPropertyOp59
 70
     1
102
RTVSPropertyOp60
 70
     1
102
RTVSPropertyOp61
 70
     1
102
RTVSPropertyOp62
 70
     1
  0
XRECORD
  5
BE90
102
{ACAD_REACTORS
330
BE8F
102
}
330
BE8F
100
AcDbXrecord
280
     1
102
RTVSPost2010Prop28
280
     0
102
RTVSPost2010PropOp28
 70
     1
102
RTVSPost2010Prop29
280
     1
102
RTVSPost2010PropOp29
 70
     1
102
RTVSPost2010Prop30
280
     1
102
RTVSPost2010PropOp30
 70
     1
102
RTVSPost2010Prop31
280
     0
102
RTVSPost2010PropOp31
 70
     1
102
RTVSPost2010Prop32
280
     0
102
RTVSPost2010PropOp32
 70
     1
102
RTVSPost2010Prop33
280
     0
102
RTVSPost2010PropOp33
 70
     1
102
RTVSPost2010Prop34
280
     0
102
RTVSPost2010PropOp34
 70
     1
102
RTVSPost2010Prop35
280
     0
102
RTVSPost2010PropOp35
 70
     1
102
RTVSPost2010Prop36
280
     0
102
RTVSPost2010PropOp36
 70
     1
102
RTVSPost2010Prop37
 90
       50
102
RTVSPost2010PropOp37
 70
     1
102
RTVSPost2010Prop38
140
0.0
102
RTVSPost2010PropOp38
 70
     1
102
RTVSPost2010Prop39
140
1.0
102
RTVSPost2010PropOp39
 70
     1
102
RTVSPost2010Prop40
 90
        0
102
RTVSPost2010PropOp40
 70
     1
102
RTVSPost2010Prop41ColorIndex
 90
       18
102
RTVSPost2010Prop41ColorRGB
 90
        0
102
RTVSPost2010PropOp41
 70
     1
102
RTVSPost2010Prop42
 90
       50
102
RTVSPost2010PropOp42
 70
     1
102
RTVSPost2010Prop43
 90
        3
102
RTVSPost2010PropOp43
 70
     1
102
RTVSPost2010Prop44ColorIndex
 90
        5
102
RTVSPost2010Prop44ColorRGB
 90
      255
102
RTVSPost2010PropOp44
 70
     1
102
RTVSPost2010Prop45
280
     0
102
RTVSPost2010PropOp45
 70
     1
102
RTVSPost2010Prop46
 90
       50
102
RTVSPost2010PropOp46
 70
     1
102
RTVSPost2010Prop47
 90
       50
102
RTVSPost2010PropOp47
 70
     1
102
RTVSPost2010Prop48
 90
       50
102
RTVSPost2010PropOp48
 70
     1
102
RTVSPost2010Prop49
280
     0
102
RTVSPost2010PropOp49
 70
     1
102
RTVSPost2010Prop50
 90
       50
102
RTVSPost2010PropOp50
 70
     1
102
RTVSPost2010Prop51ColorIndex
 90
      256
102
RTVSPost2010Prop51ColorRGB
 90
-16777216
102
RTVSPost2010PropOp51
 70
     0
102
RTVSPost2010Prop52
140
1.0
102
RTVSPost2010PropOp52
 70
     0
102
RTVSPost2010Prop53
 90
        2
102
RTVSPost2010PropOp53
 70
     1
102
RTVSPost2010Prop54
  1
strokes_ogs.tif
102
RTVSPost2010PropOp54
 70
     1
102
RTVSPost2010Prop55
280
     0
102
RTVSPost2010PropOp55
 70
     1
102
RTVSPost2010Prop56
140
1.0
102
RTVSPost2010PropOp56
 70
     1
102
RTVSPost2010Prop57
140
1.0
102
RTVSPost2010PropOp57
 70
     1
102
RTVSPropertyOp0
 70
     1
102
RTVSPropertyOp1
 70
     1
102
RTVSPropertyOp2
 70
     1
102
RTVSPropertyOp3
 70
     1
102
RTVSPropertyOp4
 70
     1
102
RTVSPropertyOp5
 70
     1
102
RTVSPropertyOp6
 70
     1
102
RTVSPropertyOp7
 70
     1
102
RTVSPropertyOp8
 70
     1
102
RTVSPropertyOp9
 70
     1
102
RTVSPropertyOp10
 70
     1
102
RTVSPropertyOp11
 70
     1
102
RTVSPropertyOp12
 70
     1
102
RTVSPropertyOp13
 70
     1
102
RTVSPropertyOp14
 70
     1
102
RTVSPropertyOp15
 70
     1
102
RTVSPropertyOp16
 70
     1
102
RTVSPropertyOp17
 70
     1
102
RTVSPropertyOp18
 70
     1
102
RTVSPropertyOp19
 70
     1
102
RTVSPropertyOp20
 70
     1
102
RTVSPropertyOp21
 70
     1
102
RTVSPropertyOp22
 70
     1
102
RTVSPropertyOp23
 70
     1
102
RTVSPropertyOp24
 70
     1
102
RTVSPropertyOp25
 70
     1
102
RTVSPropertyOp26
 70
     1
102
RTVSPropertyOp27
 70
     1
102
RTVSPropertyOp28
 70
     1
102
RTVSPropertyOp29
 70
     1
102
RTVSPropertyOp30
 70
     1
102
RTVSPropertyOp31
 70
     1
102
RTVSPropertyOp32
 70
     1
102
RTVSPropertyOp33
 70
     1
102
RTVSPropertyOp34
 70
     1
102
RTVSPropertyOp35
 70
     1
102
RTVSPropertyOp36
 70
     1
102
RTVSPropertyOp37
 70
     1
102
RTVSPropertyOp38
 70
     1
102
RTVSPropertyOp39
 70
     1
102
RTVSPropertyOp40
 70
     1
102
RTVSPropertyOp41
 70
     1
102
RTVSPropertyOp42
 70
     1
102
RTVSPropertyOp43
 70
     1
102
RTVSPropertyOp44
 70
     1
102
RTVSPropertyOp45
 70
     1
102
RTVSPropertyOp46
 70
     1
102
RTVSPropertyOp47
 70
     1
102
RTVSPropertyOp48
 70
     1
102
RTVSPropertyOp49
 70
     1
102
RTVSPropertyOp50
 70
     1
102
RTVSPropertyOp51
 70
     0
102
RTVSPropertyOp52
 70
     0
102
RTVSPropertyOp53
 70
     1
102
RTVSPropertyOp54
 70
     1
102
RTVSPropertyOp55
 70
     1
102
RTVSPropertyOp56
 70
     1
102
RTVSPropertyOp57
 70
     1
102
RTVSPropertyOp58
 70
     1
102
RTVSPropertyOp59
 70
     1
102
RTVSPropertyOp60
 70
     1
102
RTVSPropertyOp61
 70
     1
102
RTVSPropertyOp62
 70
     1
  0
XRECORD
  5
BE84
102
{ACAD_REACTORS
330
BE83
102
}
330
BE83
100
AcDbXrecord
280
     1
102
RTVSPost2010Prop28
280
     0
102
RTVSPost2010PropOp28
 70
     1
102
RTVSPost2010Prop29
280
     1
102
RTVSPost2010PropOp29
 70
     1
102
RTVSPost2010Prop30
280
     1
102
RTVSPost2010PropOp30
 70
     1
102
RTVSPost2010Prop31
280
     0
102
RTVSPost2010PropOp31
 70
     1
102
RTVSPost2010Prop32
280
     0
102
RTVSPost2010PropOp32
 70
     1
102
RTVSPost2010Prop33
280
     0
102
RTVSPost2010PropOp33
 70
     1
102
RTVSPost2010Prop34
280
     0
102
RTVSPost2010PropOp34
 70
     1
102
RTVSPost2010Prop35
280
     0
102
RTVSPost2010PropOp35
 70
     1
102
RTVSPost2010Prop36
280
     0
102
RTVSPost2010PropOp36
 70
     1
102
RTVSPost2010Prop37
 90
       50
102
RTVSPost2010PropOp37
 70
     1
102
RTVSPost2010Prop38
140
0.0
102
RTVSPost2010PropOp38
 70
     1
102
RTVSPost2010Prop39
140
1.0
102
RTVSPost2010PropOp39
 70
     1
102
RTVSPost2010Prop40
 90
        0
102
RTVSPost2010PropOp40
 70
     1
102
RTVSPost2010Prop41ColorIndex
 90
       18
102
RTVSPost2010Prop41ColorRGB
 90
        0
102
RTVSPost2010PropOp41
 70
     1
102
RTVSPost2010Prop42
 90
       50
102
RTVSPost2010PropOp42
 70
     1
102
RTVSPost2010Prop43
 90
        3
102
RTVSPost2010PropOp43
 70
     1
102
RTVSPost2010Prop44ColorIndex
 90
        5
102
RTVSPost2010Prop44ColorRGB
 90
      255
102
RTVSPost2010PropOp44
 70
     1
102
RTVSPost2010Prop45
280
     0
102
RTVSPost2010PropOp45
 70
     1
102
RTVSPost2010Prop46
 90
       50
102
RTVSPost2010PropOp46
 70
     1
102
RTVSPost2010Prop47
 90
       50
102
RTVSPost2010PropOp47
 70
     1
102
RTVSPost2010Prop48
 90
       50
102
RTVSPost2010PropOp48
 70
     1
102
RTVSPost2010Prop49
280
     0
102
RTVSPost2010PropOp49
 70
     1
102
RTVSPost2010Prop50
 90
       50
102
RTVSPost2010PropOp50
 70
     1
102
RTVSPost2010Prop51ColorIndex
 90
      256
102
RTVSPost2010Prop51ColorRGB
 90
-16777216
102
RTVSPost2010PropOp51
 70
     0
102
RTVSPost2010Prop52
140
1.0
102
RTVSPost2010PropOp52
 70
     0
102
RTVSPost2010Prop53
 90
        2
102
RTVSPost2010PropOp53
 70
     1
102
RTVSPost2010Prop54
  1
strokes_ogs.tif
102
RTVSPost2010PropOp54
 70
     1
102
RTVSPost2010Prop55
280
     0
102
RTVSPost2010PropOp55
 70
     1
102
RTVSPost2010Prop56
140
1.0
102
RTVSPost2010PropOp56
 70
     1
102
RTVSPost2010Prop57
140
1.0
102
RTVSPost2010PropOp57
 70
     1
102
RTVSPropertyOp0
 70
     1
102
RTVSPropertyOp1
 70
     1
102
RTVSPropertyOp2
 70
     1
102
RTVSPropertyOp3
 70
     1
102
RTVSPropertyOp4
 70
     1
102
RTVSPropertyOp5
 70
     1
102
RTVSPropertyOp6
 70
     1
102
RTVSPropertyOp7
 70
     1
102
RTVSPropertyOp8
 70
     1
102
RTVSPropertyOp9
 70
     1
102
RTVSPropertyOp10
 70
     1
102
RTVSPropertyOp11
 70
     1
102
RTVSPropertyOp12
 70
     1
102
RTVSPropertyOp13
 70
     1
102
RTVSPropertyOp14
 70
     1
102
RTVSPropertyOp15
 70
     1
102
RTVSPropertyOp16
 70
     1
102
RTVSPropertyOp17
 70
     1
102
RTVSPropertyOp18
 70
     1
102
RTVSPropertyOp19
 70
     1
102
RTVSPropertyOp20
 70
     1
102
RTVSPropertyOp21
 70
     1
102
RTVSPropertyOp22
 70
     1
102
RTVSPropertyOp23
 70
     1
102
RTVSPropertyOp24
 70
     1
102
RTVSPropertyOp25
 70
     1
102
RTVSPropertyOp26
 70
     1
102
RTVSPropertyOp27
 70
     1
102
RTVSPropertyOp28
 70
     1
102
RTVSPropertyOp29
 70
     1
102
RTVSPropertyOp30
 70
     1
102
RTVSPropertyOp31
 70
     1
102
RTVSPropertyOp32
 70
     1
102
RTVSPropertyOp33
 70
     1
102
RTVSPropertyOp34
 70
     1
102
RTVSPropertyOp35
 70
     1
102
RTVSPropertyOp36
 70
     1
102
RTVSPropertyOp37
 70
     1
102
RTVSPropertyOp38
 70
     1
102
RTVSPropertyOp39
 70
     1
102
RTVSPropertyOp40
 70
     1
102
RTVSPropertyOp41
 70
     1
102
RTVSPropertyOp42
 70
     1
102
RTVSPropertyOp43
 70
     1
102
RTVSPropertyOp44
 70
     1
102
RTVSPropertyOp45
 70
     1
102
RTVSPropertyOp46
 70
     1
102
RTVSPropertyOp47
 70
     1
102
RTVSPropertyOp48
 70
     1
102
RTVSPropertyOp49
 70
     1
102
RTVSPropertyOp50
 70
     1
102
RTVSPropertyOp51
 70
     0
102
RTVSPropertyOp52
 70
     0
102
RTVSPropertyOp53
 70
     1
102
RTVSPropertyOp54
 70
     1
102
RTVSPropertyOp55
 70
     1
102
RTVSPropertyOp56
 70
     1
102
RTVSPropertyOp57
 70
     1
102
RTVSPropertyOp58
 70
     1
102
RTVSPropertyOp59
 70
     1
102
RTVSPropertyOp60
 70
     1
102
RTVSPropertyOp61
 70
     1
102
RTVSPropertyOp62
 70
     1
  0
XRECORD
  5
BE9C
102
{ACAD_REACTORS
330
BE9B
102
}
330
BE9B
100
AcDbXrecord
280
     1
102
RTVSPost2010Prop28
280
     0
102
RTVSPost2010PropOp28
 70
     1
102
RTVSPost2010Prop29
280
     1
102
RTVSPost2010PropOp29
 70
     1
102
RTVSPost2010Prop30
280
     1
102
RTVSPost2010PropOp30
 70
     1
102
RTVSPost2010Prop31
280
     0
102
RTVSPost2010PropOp31
 70
     1
102
RTVSPost2010Prop32
280
     0
102
RTVSPost2010PropOp32
 70
     1
102
RTVSPost2010Prop33
280
     0
102
RTVSPost2010PropOp33
 70
     1
102
RTVSPost2010Prop34
280
     0
102
RTVSPost2010PropOp34
 70
     1
102
RTVSPost2010Prop35
280
     0
102
RTVSPost2010PropOp35
 70
     1
102
RTVSPost2010Prop36
280
     0
102
RTVSPost2010PropOp36
 70
     1
102
RTVSPost2010Prop37
 90
       50
102
RTVSPost2010PropOp37
 70
     1
102
RTVSPost2010Prop38
140
0.0
102
RTVSPost2010PropOp38
 70
     1
102
RTVSPost2010Prop39
140
1.0
102
RTVSPost2010PropOp39
 70
     1
102
RTVSPost2010Prop40
 90
        0
102
RTVSPost2010PropOp40
 70
     1
102
RTVSPost2010Prop41ColorIndex
 90
       18
102
RTVSPost2010Prop41ColorRGB
 90
        0
102
RTVSPost2010PropOp41
 70
     1
102
RTVSPost2010Prop42
 90
       50
102
RTVSPost2010PropOp42
 70
     1
102
RTVSPost2010Prop43
 90
        3
102
RTVSPost2010PropOp43
 70
     1
102
RTVSPost2010Prop44ColorIndex
 90
        5
102
RTVSPost2010Prop44ColorRGB
 90
      255
102
RTVSPost2010PropOp44
 70
     1
102
RTVSPost2010Prop45
280
     0
102
RTVSPost2010PropOp45
 70
     1
102
RTVSPost2010Prop46
 90
       50
102
RTVSPost2010PropOp46
 70
     1
102
RTVSPost2010Prop47
 90
       50
102
RTVSPost2010PropOp47
 70
     1
102
RTVSPost2010Prop48
 90
       50
102
RTVSPost2010PropOp48
 70
     1
102
RTVSPost2010Prop49
280
     0
102
RTVSPost2010PropOp49
 70
     1
102
RTVSPost2010Prop50
 90
       50
102
RTVSPost2010PropOp50
 70
     1
102
RTVSPost2010Prop51ColorIndex
 90
      256
102
RTVSPost2010Prop51ColorRGB
 90
-16777216
102
RTVSPost2010PropOp51
 70
     0
102
RTVSPost2010Prop52
140
1.0
102
RTVSPost2010PropOp52
 70
     0
102
RTVSPost2010Prop53
 90
        2
102
RTVSPost2010PropOp53
 70
     1
102
RTVSPost2010Prop54
  1
strokes_ogs.tif
102
RTVSPost2010PropOp54
 70
     1
102
RTVSPost2010Prop55
280
     0
102
RTVSPost2010PropOp55
 70
     1
102
RTVSPost2010Prop56
140
1.0
102
RTVSPost2010PropOp56
 70
     1
102
RTVSPost2010Prop57
140
1.0
102
RTVSPost2010PropOp57
 70
     1
102
RTVSPropertyOp0
 70
     1
102
RTVSPropertyOp1
 70
     1
102
RTVSPropertyOp2
 70
     1
102
RTVSPropertyOp3
 70
     1
102
RTVSPropertyOp4
 70
     1
102
RTVSPropertyOp5
 70
     1
102
RTVSPropertyOp6
 70
     1
102
RTVSPropertyOp7
 70
     1
102
RTVSPropertyOp8
 70
     1
102
RTVSPropertyOp9
 70
     1
102
RTVSPropertyOp10
 70
     1
102
RTVSPropertyOp11
 70
     1
102
RTVSPropertyOp12
 70
     1
102
RTVSPropertyOp13
 70
     1
102
RTVSPropertyOp14
 70
     1
102
RTVSPropertyOp15
 70
     1
102
RTVSPropertyOp16
 70
     1
102
RTVSPropertyOp17
 70
     1
102
RTVSPropertyOp18
 70
     1
102
RTVSPropertyOp19
 70
     1
102
RTVSPropertyOp20
 70
     1
102
RTVSPropertyOp21
 70
     1
102
RTVSPropertyOp22
 70
     1
102
RTVSPropertyOp23
 70
     1
102
RTVSPropertyOp24
 70
     1
102
RTVSPropertyOp25
 70
     1
102
RTVSPropertyOp26
 70
     1
102
RTVSPropertyOp27
 70
     1
102
RTVSPropertyOp28
 70
     1
102
RTVSPropertyOp29
 70
     1
102
RTVSPropertyOp30
 70
     1
102
RTVSPropertyOp31
 70
     1
102
RTVSPropertyOp32
 70
     1
102
RTVSPropertyOp33
 70
     1
102
RTVSPropertyOp34
 70
     1
102
RTVSPropertyOp35
 70
     1
102
RTVSPropertyOp36
 70
     1
102
RTVSPropertyOp37
 70
     1
102
RTVSPropertyOp38
 70
     1
102
RTVSPropertyOp39
 70
     1
102
RTVSPropertyOp40
 70
     1
102
RTVSPropertyOp41
 70
     1
102
RTVSPropertyOp42
 70
     1
102
RTVSPropertyOp43
 70
     1
102
RTVSPropertyOp44
 70
     1
102
RTVSPropertyOp45
 70
     1
102
RTVSPropertyOp46
 70
     1
102
RTVSPropertyOp47
 70
     1
102
RTVSPropertyOp48
 70
     1
102
RTVSPropertyOp49
 70
     1
102
RTVSPropertyOp50
 70
     1
102
RTVSPropertyOp51
 70
     0
102
RTVSPropertyOp52
 70
     0
102
RTVSPropertyOp53
 70
     1
102
RTVSPropertyOp54
 70
     1
102
RTVSPropertyOp55
 70
     1
102
RTVSPropertyOp56
 70
     1
102
RTVSPropertyOp57
 70
     1
102
RTVSPropertyOp58
 70
     1
102
RTVSPropertyOp59
 70
     1
102
RTVSPropertyOp60
 70
     1
102
RTVSPropertyOp61
 70
     1
102
RTVSPropertyOp62
 70
     1
  0
ENDSEC
  0
EOF
