  0
SECTION
  2
HEADER
  9
$ACADVER
  1
AC1015
  9
$ACADMAINTVER
 70
    20
  9
$DWGCODEPAGE
  3
ANSI_932
  9
$INSBASE
 10
0.0
 20
0.0
 30
0.0
  9
$EXTMIN
 10
10.0
 20
9.999999999999998
 30
0.0
  9
$EXTMAX
 10
391.2405679999998
 20
369.051131
 30
0.0
  9
$LIMMIN
 10
0.0
 20
0.0
  9
$LIMMAX
 10
593.999999
 20
409.4999999999997
  9
$ORTHOMODE
 70
     1
  9
$REGENMODE
 70
     1
  9
$FILLMODE
 70
     1
  9
$QTEXTMODE
 70
     0
  9
$MIRRTEXT
 70
     1
  9
$LTSCALE
 40
20.0
  9
$ATTMODE
 70
     1
  9
$TEXTSIZE
 40
5.0
  9
$TRACEWID
 40
1.0
  9
$TEXTSTYLE
  7
STANDARD
  9
$CLAYER
  8
0
  9
$CELTYPE
  6
BYLAYER
  9
$CECOLOR
 62
   256
  9
$CELTSCALE
 40
1.0
  9
$DISPSILH
 70
     0
  9
$DIMSCALE
 40
1.0
  9
$DIMASZ
 40
2.5
  9
$DIMEXO
 40
1.0
  9
$DIMDLI
 40
10.0
  9
$DIMRND
 40
0.0
  9
$DIMDLE
 40
0.0
  9
$DIMEXE
 40
1.0
  9
$DIMTP
 40
0.0
  9
$DIMTM
 40
0.0
  9
$DIMTXT
 40
3.2
  9
$DIMCEN
 40
0.0
  9
$DIMTSZ
 40
0.0
  9
$DIMTOL
 70
     0
  9
$DIMLIM
 70
     0
  9
$DIMTIH
 70
     0
  9
$DIMTOH
 70
     0
  9
$DIMSE1
 70
     0
  9
$DIMSE2
 70
     0
  9
$DIMTAD
 70
     3
  9
$DIMZIN
 70
     8
  9
$DIMBLK
  1

  9
$DIMASO
 70
     1
  9
$DIMSHO
 70
     1
  9
$DIMPOST
  1

  9
$DIMAPOST
  1

  9
$DIMALT
 70
     0
  9
$DIMALTD
 70
     2
  9
$DIMALTF
 40
25.4
  9
$DIMLFAC
 40
1.0
  9
$DIMTOFL
 70
     1
  9
$DIMTVP
 40
0.0
  9
$DIMTIX
 70
     0
  9
$DIMSOXD
 70
     0
  9
$DIMSAH
 70
     1
  9
$DIMBLK1
  1

  9
$DIMBLK2
  1

  9
$DIMSTYLE
  2
STANDARD
  9
$DIMCLRD
 70
     0
  9
$DIMCLRE
 70
     0
  9
$DIMCLRT
 70
     0
  9
$DIMTFAC
 40
1.0
  9
$DIMGAP
 40
1.0
  9
$DIMJUST
 70
     0
  9
$DIMSD1
 70
     0
  9
$DIMSD2
 70
     0
  9
$DIMTOLJ
 70
     1
  9
$DIMTZIN
 70
     0
  9
$DIMALTZ
 70
     0
  9
$DIMALTTZ
 70
     0
  9
$DIMUPT
 70
     0
  9
$DIMDEC
 70
     4
  9
$DIMTDEC
 70
     4
  9
$DIMALTU
 70
     2
  9
$DIMALTTD
 70
     2
  9
$DIMTXSTY
  7
STANDARD
  9
$DIMAUNIT
 70
     0
  9
$DIMADEC
 70
     0
  9
$DIMALTRND
 40
0.0
  9
$DIMAZIN
 70
     0
  9
$DIMDSEP
 70
    46
  9
$DIMATFIT
 70
     3
  9
$DIMFRAC
 70
     0
  9
$DIMLDRBLK
  1

  9
$DIMLUNIT
 70
     2
  9
$DIMLWD
 70
    -2
  9
$DIMLWE
 70
    -2
  9
$DIMTMOVE
 70
     0
  9
$LUNITS
 70
     2
  9
$LUPREC
 70
     4
  9
$SKETCHINC
 40
1.0
  9
$FILLETRAD
 40
4.599999999999997
  9
$AUNITS
 70
     0
  9
$AUPREC
 70
     2
  9
$MENU
  1
.
  9
$ELEVATION
 40
0.0
  9
$PELEVATION
 40
0.0
  9
$THICKNESS
 40
0.0
  9
$LIMCHECK
 70
     0
  9
$CHAMFERA
 40
10.0
  9
$CHAMFERB
 40
10.0
  9
$CHAMFERC
 40
0.0
  9
$CHAMFERD
 40
0.0
  9
$SKPOLY
 70
     0
  9
$TDCREATE
 40
2451296.793625695
  9
$TDUCREATE
 40
2451296.418625694
  9
$TDUPDATE
 40
2457192.658232755
  9
$TDUUPDATE
 40
2457192.283232755
  9
$TDINDWG
 40
0.0000125000
  9
$TDUSRTIMER
 40
0.0000121991
  9
$USRTIMER
 70
     1
  9
$ANGBASE
 50
0.0
  9
$ANGDIR
 70
     0
  9
$PDMODE
 70
     0
  9
$PDSIZE
 40
0.0
  9
$PLINEWID
 40
0.0
  9
$SPLFRAME
 70
     0
  9
$SPLINETYPE
 70
     6
  9
$SPLINESEGS
 70
     8
  9
$HANDSEED
  5
C54B
  9
$SURFTAB1
 70
     6
  9
$SURFTAB2
 70
     6
  9
$SURFTYPE
 70
     6
  9
$SURFU
 70
     6
  9
$SURFV
 70
     6
  9
$UCSBASE
  2

  9
$UCSNAME
  2

  9
$UCSORG
 10
0.0
 20
0.0
 30
0.0
  9
$UCSXDIR
 10
1.0
 20
0.0
 30
0.0
  9
$UCSYDIR
 10
0.0
 20
1.0
 30
0.0
  9
$UCSORTHOREF
  2

  9
$UCSORTHOVIEW
 70
     0
  9
$UCSORGTOP
 10
0.0
 20
0.0
 30
0.0
  9
$UCSORGBOTTOM
 10
0.0
 20
0.0
 30
0.0
  9
$UCSORGLEFT
 10
0.0
 20
0.0
 30
0.0
  9
$UCSORGRIGHT
 10
0.0
 20
0.0
 30
0.0
  9
$UCSORGFRONT
 10
0.0
 20
0.0
 30
0.0
  9
$UCSORGBACK
 10
0.0
 20
0.0
 30
0.0
  9
$PUCSBASE
  2

  9
$PUCSNAME
  2

  9
$PUCSORG
 10
0.0
 20
0.0
 30
0.0
  9
$PUCSXDIR
 10
1.0
 20
0.0
 30
0.0
  9
$PUCSYDIR
 10
0.0
 20
1.0
 30
0.0
  9
$PUCSORTHOREF
  2

  9
$PUCSORTHOVIEW
 70
     0
  9
$PUCSORGTOP
 10
0.0
 20
0.0
 30
0.0
  9
$PUCSORGBOTTOM
 10
0.0
 20
0.0
 30
0.0
  9
$PUCSORGLEFT
 10
0.0
 20
0.0
 30
0.0
  9
$PUCSORGRIGHT
 10
0.0
 20
0.0
 30
0.0
  9
$PUCSORGFRONT
 10
0.0
 20
0.0
 30
0.0
  9
$PUCSORGBACK
 10
0.0
 20
0.0
 30
0.0
  9
$USERI1
 70
     0
  9
$USERI2
 70
     0
  9
$USERI3
 70
     0
  9
$USERI4
 70
     0
  9
$USERI5
 70
     0
  9
$USERR1
 40
0.0
  9
$USERR2
 40
0.0
  9
$USERR3
 40
0.0
  9
$USERR4
 40
0.0
  9
$USERR5
 40
0.0
  9
$WORLDVIEW
 70
     1
  9
$SHADEDGE
 70
     3
  9
$SHADEDIF
 70
    70
  9
$TILEMODE
 70
     1
  9
$MAXACTVP
 70
    16
  9
$PINSBASE
 10
0.0
 20
0.0
 30
0.0
  9
$PLIMCHECK
 70
     0
  9
$PEXTMIN
 10
1.000000000000000E+20
 20
1.000000000000000E+20
 30
1.000000000000000E+20
  9
$PEXTMAX
 10
-1.000000000000000E+20
 20
-1.000000000000000E+20
 30
-1.000000000000000E+20
  9
$PLIMMIN
 10
0.0
 20
0.0
  9
$PLIMMAX
 10
420.0
 20
297.0
  9
$UNITMODE
 70
     0
  9
$VISRETAIN
 70
     0
  9
$PLINEGEN
 70
     0
  9
$PSLTSCALE
 70
     0
  9
$TREEDEPTH
 70
  3020
  9
$CMLSTYLE
  2
STANDARD
  9
$CMLJUST
 70
     0
  9
$CMLSCALE
 40
1.0
  9
$PROXYGRAPHICS
 70
     1
  9
$MEASUREMENT
 70
     0
  9
$CELWEIGHT
370
    -1
  9
$ENDCAPS
280
     0
  9
$JOINSTYLE
280
     0
  9
$LWDISPLAY
290
     0
  9
$INSUNITS
 70
     0
  9
$HYPERLINKBASE
  1

  9
$STYLESHEET
  1

  9
$XEDIT
290
     1
  9
$CEPSNTYPE
380
     0
  9
$PSTYLEMODE
290
     1
  9
$FINGERPRINTGUID
  2
{CEC232C9-C6DD-41D8-92AE-43372C08214B}
  9
$VERSIONGUID
  2
{76E39D7B-95AC-4182-9794-918224155569}
  9
$EXTNAMES
290
     1
  9
$PSVPSCALE
 40
0.0
  9
$OLESTARTUP
290
     0
  0
ENDSEC
  0
SECTION
  2
CLASSES
  0
CLASS
  1
ACDBDICTIONARYWDFLT
  2
AcDbDictionaryWithDefault
  3
ObjectDBX Classes
 90
        0
280
     0
281
     0
  0
CLASS
  1
ACDBPLACEHOLDER
  2
AcDbPlaceHolder
  3
ObjectDBX Classes
 90
        0
280
     0
281
     0
  0
CLASS
  1
LAYOUT
  2
AcDbLayout
  3
ObjectDBX Classes
 90
        0
280
     0
281
     0
  0
CLASS
  1
DICTIONARYVAR
  2
AcDbDictionaryVar
  3
ObjectDBX Classes
 90
        0
280
     0
281
     0
  0
CLASS
  1
MATERIAL
  2
AcDbMaterial
  3
ObjectDBX Classes
 90
     1153
280
     0
281
     0
  0
CLASS
  1
VISUALSTYLE
  2
AcDbVisualStyle
  3
ObjectDBX Classes
 90
     4095
280
     0
281
     0
  0
CLASS
  1
TABLESTYLE
  2
AcDbTableStyle
  3
ObjectDBX Classes
 90
     4095
280
     0
281
     0
  0
CLASS
  1
SCALE
  2
AcDbScale
  3
ObjectDBX Classes
 90
     1153
280
     0
281
     0
  0
CLASS
  1
MLEADERSTYLE
  2
AcDbMLeaderStyle
  3
ACDB_MLEADERSTYLE_CLASS
 90
     4095
280
     0
281
     0
  0
CLASS
  1
ACDBSECTIONVIEWSTYLE
  2
AcDbSectionViewStyle
  3
ObjectDBX Classes
 90
     1025
280
     0
281
     0
  0
CLASS
  1
ACDBDETAILVIEWSTYLE
  2
AcDbDetailViewStyle
  3
ObjectDBX Classes
 90
     1025
280
     0
281
     0
  0
CLASS
  1
CELLSTYLEMAP
  2
AcDbCellStyleMap
  3
ObjectDBX Classes
 90
     1152
280
     0
281
     0
  0
ENDSEC
  0
SECTION
  2
TABLES
  0
TABLE
  2
VPORT
  5
C1CD
330
0
100
AcDbSymbolTable
 70
     1
  0
VPORT
  5
C494
330
C1CD
100
AcDbSymbolTableRecord
100
AcDbViewportTableRecord
  2
*ACTIVE
 70
     0
 10
0.0
 20
0.0
 11
1.0
 21
1.0
 12
309.3853798829445
 22
189.5193452655447
 13
0.0
 23
0.0
 14
10.0
 24
10.0
 15
10.0
 25
10.0
 16
0.0
 26
0.0
 36
1.0
 17
0.0
 27
0.0
 37
0.0
 40
363.0845381204768
 41
1.899603698811096
 42
50.0
 43
0.0
 44
0.0
 50
0.0
 51
0.0
 71
     0
 72
   100
 73
     1
 74
     0
 75
     0
 76
     0
 77
     0
 78
     0
281
     0
 65
     1
110
0.0
120
0.0
130
0.0
111
1.0
121
0.0
131
0.0
112
0.0
122
1.0
132
0.0
 79
     0
146
0.0
1001
ACAD_NAV_VCDISPLAY
1070
     3
  0
ENDTAB
  0
TABLE
  2
LTYPE
  5
C1CA
330
0
100
AcDbSymbolTable
 70
     4
  0
LTYPE
  5
C1D8
330
C1CA
100
AcDbSymbolTableRecord
100
AcDbLinetypeTableRecord
  2
BYBLOCK
 70
     0
  3

 72
    65
 73
     0
 40
0.0
  0
LTYPE
  5
C1D9
330
C1CA
100
AcDbSymbolTableRecord
100
AcDbLinetypeTableRecord
  2
BYLAYER
 70
     0
  3

 72
    65
 73
     0
 40
0.0
  0
LTYPE
  5
C1DA
330
C1CA
100
AcDbSymbolTableRecord
100
AcDbLinetypeTableRecord
  2
CONTINUOUS
 70
     0
  3
Solid line
 72
    65
 73
     0
 40
0.0
  0
LTYPE
  5
C1E8
330
C1CA
100
AcDbSymbolTableRecord
100
AcDbLinetypeTableRecord
  2
DASHED
 70
     0
  3
__ __ __ __ __ __ __ __ __ __ __ __ __ __ __ __
 72
    65
 73
     2
 40
0.75
 49
0.5
 74
     0
 49
-0.25
 74
     0
  0
LTYPE
  5
C1E9
330
C1CA
100
AcDbSymbolTableRecord
100
AcDbLinetypeTableRecord
  2
CENTER
 70
     0
  3
____ _ ____ _ ____ _ ____ _ ____ _ ____ _ ____ 
 72
    65
 73
     4
 40
2.0
 49
1.25
 74
     0
 49
-0.25
 74
     0
 49
0.25
 74
     0
 49
-0.25
 74
     0
  0
LTYPE
  5
C1EA
330
C1CA
100
AcDbSymbolTableRecord
100
AcDbLinetypeTableRecord
  2
PHANTOM
 70
     0
  3
______  __  __  ______  __  __  ______  __  __ 
 72
    65
 73
     6
 40
2.5
 49
1.25
 74
     0
 49
-0.25
 74
     0
 49
0.25
 74
     0
 49
-0.25
 74
     0
 49
0.25
 74
     0
 49
-0.25
 74
     0
  0
ENDTAB
  0
TABLE
  2
LAYER
  5
C1C7
330
0
100
AcDbSymbolTable
 70
     8
  0
LAYER
  5
C1D5
102
{ACAD_XDICTIONARY
360
C4EF
102
}
330
C1C7
100
AcDbSymbolTableRecord
100
AcDbLayerTableRecord
  2
0
 70
     0
 62
     7
  6
CONTINUOUS
370
    -3
390
C49D
  0
LAYER
  5
C1EB
102
{ACAD_XDICTIONARY
360
C4F1
102
}
330
C1C7
100
AcDbSymbolTableRecord
100
AcDbLayerTableRecord
  2
4
 70
     0
 62
     1
  6
CENTER
370
    -3
390
C49D
  0
LAYER
  5
C1EC
102
{ACAD_XDICTIONARY
360
C4F3
102
}
330
C1C7
100
AcDbSymbolTableRecord
100
AcDbLayerTableRecord
  2
5
 70
     0
 62
     6
  6
PHANTOM
370
    -3
390
C49D
  0
LAYER
  5
C1ED
102
{ACAD_XDICTIONARY
360
C4F5
102
}
330
C1C7
100
AcDbSymbolTableRecord
100
AcDbLayerTableRecord
  2
1
 70
     0
 62
     7
  6
CONTINUOUS
370
    -3
390
C49D
  0
LAYER
  5
C1EE
102
{ACAD_XDICTIONARY
360
C4F7
102
}
330
C1C7
100
AcDbSymbolTableRecord
100
AcDbLayerTableRecord
  2
2
 70
     0
 62
     4
  6
CONTINUOUS
370
    -3
390
C49D
  0
LAYER
  5
C1EF
102
{ACAD_XDICTIONARY
360
C4F9
102
}
330
C1C7
100
AcDbSymbolTableRecord
100
AcDbLayerTableRecord
  2
3
 70
     0
 62
     2
  6
DASHED
370
    -3
390
C49D
  0
LAYER
  5
C1F0
102
{ACAD_XDICTIONARY
360
C4FB
102
}
330
C1C7
100
AcDbSymbolTableRecord
100
AcDbLayerTableRecord
  2
6
 70
     0
 62
     5
  6
CONTINUOUS
370
    -3
390
C49D
  0
LAYER
  5
C1F1
102
{ACAD_XDICTIONARY
360
C4FD
102
}
330
C1C7
100
AcDbSymbolTableRecord
100
AcDbLayerTableRecord
  2
7
 70
     0
 62
     3
  6
CONTINUOUS
370
    -3
390
C49D
  0
ENDTAB
  0
TABLE
  2
STYLE
  5
C1C8
330
0
100
AcDbSymbolTable
 70
     1
  0
STYLE
  5
C1D6
330
C1C8
100
AcDbSymbolTableRecord
100
AcDbTextStyleTableRecord
  2
STANDARD
 70
     0
 40
0.0
 41
1.0
 50
0.0
 71
     0
 42
5.0
  3
txt
  4

  0
ENDTAB
  0
TABLE
  2
VIEW
  5
C1CB
330
0
100
AcDbSymbolTable
 70
     0
  0
ENDTAB
  0
TABLE
  2
UCS
  5
C1CC
330
0
100
AcDbSymbolTable
 70
     0
  0
ENDTAB
  0
TABLE
  2
APPID
  5
C1CE
330
0
100
AcDbSymbolTable
 70
     3
  0
APPID
  5
C1D7
330
C1CE
100
AcDbSymbolTableRecord
100
AcDbRegAppTableRecord
  2
ACAD
 70
     0
  0
APPID
  5
C509
330
C1CE
100
AcDbSymbolTableRecord
100
AcDbRegAppTableRecord
  2
ACAD_NAV_VCDISPLAY
 70
     0
  0
APPID
  5
C542
330
C1CE
100
AcDbSymbolTableRecord
100
AcDbRegAppTableRecord
  2
ACAD_MLEADERVER
 70
     0
  0
ENDTAB
  0
TABLE
  2
DIMSTYLE
  5
C1CF
330
0
100
AcDbSymbolTable
 70
     1
100
AcDbDimStyleTable
 71
     0
  0
DIMSTYLE
105
C1F3
330
C1CF
100
AcDbSymbolTableRecord
100
AcDbDimStyleTableRecord
  2
STANDARD
 70
     0
 41
2.5
 42
1.0
 43
10.0
 44
1.0
 73
     0
 74
     0
 77
     3
 78
     8
140
3.2
141
0.0
147
1.0
172
     1
173
     1
284
     8
285
     8
286
     8
340
C1D6
  0
ENDTAB
  0
TABLE
  2
BLOCK_RECORD
  5
C1C6
330
0
100
AcDbSymbolTable
 70
     0
  0
BLOCK_RECORD
  5
C1E3
102
{ACAD_XDICTIONARY
360
C497
102
}
330
C1C6
100
AcDbSymbolTableRecord
100
AcDbBlockTableRecord
  2
*MODEL_SPACE
340
C4EB
  0
BLOCK_RECORD
  5
C1DF
102
{ACAD_XDICTIONARY
360
C495
102
}
330
C1C6
100
AcDbSymbolTableRecord
100
AcDbBlockTableRecord
  2
*PAPER_SPACE
340
C4EC
  0
ENDTAB
  0
ENDSEC
  0
SECTION
  2
BLOCKS
  0
BLOCK
  5
C1E4
330
C1E3
100
AcDbEntity
  8
0
100
AcDbBlockBegin
  2
*MODEL_SPACE
 70
     0
 10
0.0
 20
0.0
 30
0.0
  3
*MODEL_SPACE
  1

  0
ENDBLK
  5
C1E5
330
C1E3
100
AcDbEntity
  8
0
100
AcDbBlockEnd
  0
BLOCK
  5
C1E0
330
C1DF
100
AcDbEntity
 67
     1
  8
0
100
AcDbBlockBegin
  2
*PAPER_SPACE
 70
     0
 10
0.0
 20
0.0
 30
0.0
  3
*PAPER_SPACE
  1

  0
ENDBLK
  5
C1E1
330
C1DF
100
AcDbEntity
 67
     1
  8
0
100
AcDbBlockEnd
  0
ENDSEC
  0
SECTION
  2
ENTITIES
  0
TEXT
  5
C1FB
330
C1E3
100
AcDbEntity
  8
7
  6
Continuous
100
AcDbText
 10
10.0
 20
18.0
 30
0.0
 40
3.0
  1
TYPE No.TM-144SS-200
100
AcDbText
  0
TEXT
  5
C1FC
330
C1E3
100
AcDbEntity
  8
7
  6
Continuous
100
AcDbText
 10
10.0
 20
26.0
 30
0.0
 40
3.0
  1
CODE No.5745
100
AcDbText
  0
TEXT
  5
C1FD
330
C1E3
100
AcDbEntity
  8
1
  6
Continuous
100
AcDbText
 10
10.0
 20
10.0
 30
0.0
 40
1.399999999999999
  1
LAYER
100
AcDbText
  0
TEXT
  5
C1FE
330
C1E3
100
AcDbEntity
  8
1
  6
Continuous
100
AcDbText
 10
17.97951099999998
 20
10.04873699999998
 30
0.0
 40
1.399999999999999
  1
1
100
AcDbText
  0
TEXT
  5
C1FF
330
C1E3
100
AcDbEntity
  8
7
  6
Continuous
100
AcDbText
 10
29.97951099999999
 20
10.04873699999998
 30
0.0
 40
1.399999999999999
  1
7
100
AcDbText
  0
TEXT
  5
C200
330
C1E3
100
AcDbEntity
  8
4
  6
CENTER
100
AcDbText
 10
23.97951099999999
 20
10.04873699999998
 30
0.0
 40
1.399999999999999
  1
4
100
AcDbText
  0
TEXT
  5
C201
330
C1E3
100
AcDbEntity
  8
3
  6
DASHED
100
AcDbText
 10
21.979511
 20
10.04873699999998
 30
0.0
 40
1.399999999999999
  1
3
100
AcDbText
  0
TEXT
  5
C202
330
C1E3
100
AcDbEntity
  8
2
  6
Continuous
100
AcDbText
 10
19.97951099999999
 20
10.04873699999998
 30
0.0
 40
1.399999999999999
  1
2
100
AcDbText
  0
TEXT
  5
C203
330
C1E3
100
AcDbEntity
  8
6
  6
Continuous
100
AcDbText
 10
27.979511
 20
10.04873699999998
 30
0.0
 40
1.399999999999999
  1
6
100
AcDbText
  0
TEXT
  5
C204
330
C1E3
100
AcDbEntity
  8
5
  6
PHANTOM
100
AcDbText
 10
25.97951099999999
 20
10.04873699999998
 30
0.0
 40
1.399999999999999
  1
5
100
AcDbText
  0
LINE
  5
C205
330
C1E3
100
AcDbEntity
  8
1
  6
Continuous
100
AcDbLine
 10
195.9405679999999
 20
294.551131
 30
0.0
 11
206.4405679999999
 21
294.551131
 31
0.0
  0
LINE
  5
C206
330
C1E3
100
AcDbEntity
  8
1
  6
Continuous
100
AcDbLine
 10
218.440568
 20
295.682131
 30
0.0
 11
218.440568
 21
299.5011309999998
 31
0.0
  0
LINE
  5
C207
330
C1E3
100
AcDbEntity
  8
1
  6
Continuous
100
AcDbLine
 10
214.440568
 20
295.0511309999999
 30
0.0
 11
214.440568
 21
305.5511309999999
 31
0.0
  0
LINE
  5
C208
330
C1E3
100
AcDbEntity
  8
1
  6
Continuous
100
AcDbLine
 10
210.440568
 20
295.5511309999998
 30
0.0
 11
210.440568
 21
305.051131
 31
0.0
  0
LINE
  5
C209
330
C1E3
100
AcDbEntity
  8
1
  6
Continuous
100
AcDbLine
 10
191.9405679999999
 20
297.5511309999999
 30
0.0
 11
191.9405679999999
 21
305.051131
 31
0.0
  0
LINE
  5
C20A
330
C1E3
100
AcDbEntity
  8
1
  6
Continuous
100
AcDbLine
 10
189.9405679999999
 20
297.5491309999998
 30
0.0
 11
189.9405679999999
 21
303.5491309999998
 31
0.0
  0
LINE
  5
C20B
330
C1E3
100
AcDbEntity
  8
4
  6
CENTER
100
AcDbLine
 10
201.1905679999999
 20
80.249553
 30
0.0
 11
201.1905679999999
 21
313.551131
 31
0.0
  0
LINE
  5
C20C
330
C1E3
100
AcDbEntity
  8
1
  6
Continuous
100
AcDbLine
 10
193.4405679999999
 20
306.551131
 30
0.0
 11
208.940568
 21
306.551131
 31
0.0
  0
LINE
  5
C20D
330
C1E3
100
AcDbEntity
  8
1
  6
Continuous
100
AcDbLine
 10
195.690568
 20
346.551131
 30
0.0
 11
206.690568
 21
346.551131
 31
0.0
  0
LINE
  5
C20E
330
C1E3
100
AcDbEntity
  8
1
  6
Continuous
100
AcDbLine
 10
195.690568
 20
362.0511309999998
 30
0.0
 11
206.690568
 21
362.0511309999998
 31
0.0
  0
LINE
  5
C20F
330
C1E3
100
AcDbEntity
  8
4
  6
CENTER
100
AcDbLine
 10
85.390568
 20
354.301131
 30
0.0
 11
316.9905679999998
 21
354.301131
 31
0.0
  0
LINE
  5
C210
330
C1E3
100
AcDbEntity
  8
4
  6
CENTER
100
AcDbLine
 10
369.740568
 20
80.249553
 30
0.0
 11
369.740568
 21
313.551169
 31
0.0
  0
LINE
  5
C211
330
C1E3
100
AcDbEntity
  8
1
  6
Continuous
100
AcDbLine
 10
218.440568
 20
350.301131
 30
0.0
 11
218.440568
 21
358.3011309999998
 31
0.0
  0
LINE
  5
C212
330
C1E3
100
AcDbEntity
  8
1
  6
Continuous
100
AcDbLine
 10
214.440568
 20
349.051131
 30
0.0
 11
214.440568
 21
359.551131
 31
0.0
  0
LINE
  5
C213
330
C1E3
100
AcDbEntity
  8
1
  6
Continuous
100
AcDbLine
 10
210.440568
 20
349.051131
 30
0.0
 11
210.440568
 21
359.551131
 31
0.0
  0
LINE
  5
C214
330
C1E3
100
AcDbEntity
  8
4
  6
CENTER
100
AcDbLine
 10
201.1905679999999
 20
339.5511309999998
 30
0.0
 11
201.1905679999999
 21
369.051131
 31
0.0
  0
LINE
  5
C215
330
C1E3
100
AcDbEntity
  8
1
  6
Continuous
100
AcDbLine
 10
191.9405679999999
 20
349.051131
 30
0.0
 11
191.9405679999999
 21
359.551131
 31
0.0
  0
LINE
  5
C216
330
C1E3
100
AcDbEntity
  8
1
  6
Continuous
100
AcDbLine
 10
189.9405679999999
 20
351.3011309999998
 30
0.0
 11
189.9405679999999
 21
357.301131
 31
0.0
  0
LINE
  5
C217
330
C1E3
100
AcDbEntity
  8
1
  6
Continuous
100
AcDbLine
 10
189.9405679999999
 20
297.5511309999999
 30
0.0
 11
195.690568
 21
297.5511309999999
 31
0.0
  0
LINE
  5
C218
330
C1E3
100
AcDbEntity
  8
1
  6
Continuous
100
AcDbLine
 10
189.9405679999999
 20
303.5511309999999
 30
0.0
 11
191.9405679999999
 21
303.5511309999999
 31
0.0
  0
ARC
  5
C219
330
C1E3
100
AcDbEntity
  8
1
  6
Continuous
100
AcDbCircle
 10
193.4405679999999
 20
305.051131
 30
0.0
 40
1.5
100
AcDbArc
 50
90.0
 51
180.0
  0
ARC
  5
C21A
330
C1E3
100
AcDbEntity
  8
1
  6
Continuous
100
AcDbCircle
 10
208.940568
 20
305.051131
 30
0.0
 40
1.5
100
AcDbArc
 50
0.0
 51
90.0
  0
ARC
  5
C21B
330
C1E3
100
AcDbEntity
  8
1
  6
Continuous
100
AcDbCircle
 10
201.1905679999999
 20
294.356687
 30
0.0
 40
7.694443999999997
100
AcDbArc
 50
24.52954699999999
 51
155.4704529999999
  0
LINE
  5
C21C
330
C1E3
100
AcDbEntity
  8
1
  6
Continuous
100
AcDbLine
 10
206.690568
 20
297.5511309999999
 30
0.0
 11
206.4405679999999
 21
294.551131
 31
0.0
  0
LINE
  5
C21D
330
C1E3
100
AcDbEntity
  8
1
  6
Continuous
100
AcDbLine
 10
195.690568
 20
297.5511309999999
 30
0.0
 11
195.9405679999999
 21
294.551131
 31
0.0
  0
ARC
  5
C21E
330
C1E3
100
AcDbEntity
  8
1
  6
Continuous
100
AcDbCircle
 10
201.1905679999999
 20
293.5493459999999
 30
0.0
 40
6.801785999999997
100
AcDbArc
 50
36.039539
 51
143.960461
  0
LINE
  5
C21F
330
C1E3
100
AcDbEntity
  8
1
  6
Continuous
100
AcDbLine
 10
206.690568
 20
297.5511309999999
 30
0.0
 11
210.440568
 21
297.5511309999999
 31
0.0
  0
LINE
  5
C220
330
C1E3
100
AcDbEntity
  8
1
  6
Continuous
100
AcDbLine
 10
210.440568
 20
305.051131
 30
0.0
 11
214.440568
 21
305.5511309999999
 31
0.0
  0
LINE
  5
C221
330
C1E3
100
AcDbEntity
  8
1
  6
Continuous
100
AcDbLine
 10
210.440568
 20
295.5511309999998
 30
0.0
 11
214.440568
 21
295.0511309999999
 31
0.0
  0
LINE
  5
C222
330
C1E3
100
AcDbEntity
  8
4
  6
CENTER
100
AcDbLine
 10
181.435148
 20
300.301131
 30
0.0
 11
225.440568
 21
300.301131
 31
0.0
  0
LINE
  5
C223
330
C1E3
100
AcDbEntity
  8
1
  6
Continuous
100
AcDbLine
 10
214.440568
 20
304.920131
 30
0.0
 11
218.440568
 21
304.920131
 31
0.0
  0
LINE
  5
C224
330
C1E3
100
AcDbEntity
  8
1
  6
Continuous
100
AcDbLine
 10
214.440568
 20
295.682131
 30
0.0
 11
218.440568
 21
295.682131
 31
0.0
  0
LINE
  5
C225
330
C1E3
100
AcDbEntity
  8
1
  6
Continuous
100
AcDbLine
 10
215.4405679999999
 20
301.101131
 30
0.0
 11
218.440568
 21
301.101131
 31
0.0
  0
LINE
  5
C226
330
C1E3
100
AcDbEntity
  8
1
  6
Continuous
100
AcDbLine
 10
215.4405679999999
 20
299.5011309999998
 30
0.0
 11
218.440568
 21
299.5011309999998
 31
0.0
  0
LINE
  5
C227
330
C1E3
100
AcDbEntity
  8
1
  6
Continuous
100
AcDbLine
 10
215.4405679999999
 20
299.5011309999998
 30
0.0
 11
215.4405679999999
 21
301.101131
 31
0.0
  0
LINE
  5
C228
330
C1E3
100
AcDbEntity
  8
1
  6
Continuous
100
AcDbLine
 10
218.440568
 20
301.101131
 30
0.0
 11
218.440568
 21
304.920131
 31
0.0
  0
LINE
  5
C229
330
C1E3
100
AcDbEntity
  8
1
  6
Continuous
100
AcDbLine
 10
214.440568
 20
302.610631
 30
0.0
 11
216.940568
 21
302.610631
 31
0.0
  0
LINE
  5
C22A
330
C1E3
100
AcDbEntity
  8
1
  6
Continuous
100
AcDbLine
 10
214.440568
 20
297.9916309999999
 30
0.0
 11
216.940568
 21
297.9916309999999
 31
0.0
  0
LINE
  5
C22B
330
C1E3
100
AcDbEntity
  8
1
  6
Continuous
100
AcDbLine
 10
216.940568
 20
302.610631
 30
0.0
 11
218.440568
 21
302.010631
 31
0.0
  0
LINE
  5
C22C
330
C1E3
100
AcDbEntity
  8
1
  6
Continuous
100
AcDbLine
 10
216.940568
 20
302.610631
 30
0.0
 11
218.440568
 21
303.2106309999999
 31
0.0
  0
LINE
  5
C22D
330
C1E3
100
AcDbEntity
  8
1
  6
Continuous
100
AcDbLine
 10
216.940568
 20
297.9916309999999
 30
0.0
 11
218.440568
 21
298.5916309999998
 31
0.0
  0
LINE
  5
C22E
330
C1E3
100
AcDbEntity
  8
1
  6
Continuous
100
AcDbLine
 10
216.940568
 20
297.9916309999999
 30
0.0
 11
218.440568
 21
297.391631
 31
0.0
  0
LINE
  5
C22F
330
C1E3
100
AcDbEntity
  8
4
  6
CENTER
100
AcDbLine
 10
356.2405679999998
 20
300.301169
 30
0.0
 11
383.2405679999998
 21
300.301169
 31
0.0
  0
ARC
  5
C230
330
C1E3
100
AcDbEntity
  8
1
  6
Continuous
100
AcDbCircle
 10
369.740568
 20
300.301169
 30
0.0
 40
3.0
100
AcDbArc
 50
15.46601
 51
164.5339899999999
  0
LINE
  5
C231
330
C1E3
100
AcDbEntity
  8
1
  6
Continuous
100
AcDbLine
 10
365.740568
 20
301.1011689999999
 30
0.0
 11
373.740568
 21
301.1011689999999
 31
0.0
  0
LINE
  5
C232
330
C1E3
100
AcDbEntity
  8
1
  6
Continuous
100
AcDbLine
 10
365.740568
 20
299.501169
 30
0.0
 11
373.740568
 21
299.501169
 31
0.0
  0
ARC
  5
C233
330
C1E3
100
AcDbEntity
  8
1
  6
Continuous
100
AcDbCircle
 10
369.740568
 20
300.301169
 30
0.0
 40
3.0
100
AcDbArc
 50
195.4660099999999
 51
344.53399
  0
CIRCLE
  5
C234
330
C1E3
100
AcDbEntity
  8
1
  6
Continuous
100
AcDbCircle
 10
369.740568
 20
300.301169
 30
0.0
 40
5.25
  0
LINE
  5
C235
330
C1E3
100
AcDbEntity
  8
1
  6
Continuous
100
AcDbLine
 10
375.990568
 20
297.551169
 30
0.0
 11
375.990568
 21
301.051169
 31
0.0
  0
LINE
  5
C236
330
C1E3
100
AcDbEntity
  8
1
  6
Continuous
100
AcDbLine
 10
363.490568
 20
297.551169
 30
0.0
 11
363.490568
 21
301.051169
 31
0.0
  0
LINE
  5
C237
330
C1E3
100
AcDbEntity
  8
1
  6
Continuous
100
AcDbLine
 10
363.2367939999999
 20
297.551169
 30
0.0
 11
365.2684319999999
 21
297.551169
 31
0.0
  0
ARC
  5
C238
330
C1E3
100
AcDbEntity
  8
1
  6
Continuous
100
AcDbCircle
 10
369.740568
 20
300.2500329999999
 30
0.0
 40
6.301135999999998
100
AcDbArc
 50
7.304446000000001
 51
172.6955539999999
  0
LINE
  5
C239
330
C1E3
100
AcDbEntity
  8
1
  6
Continuous
100
AcDbLine
 10
374.2127039999999
 20
297.551169
 30
0.0
 11
376.230718
 21
297.551169
 31
0.0
  0
ARC
  5
C23A
330
C1E3
100
AcDbEntity
  8
1
  6
Continuous
100
AcDbCircle
 10
363.490568
 20
296.051169
 30
0.0
 40
1.5
100
AcDbArc
 50
180.0
 51
260.405932
  0
ARC
  5
C23B
330
C1E3
100
AcDbEntity
  8
1
  6
Continuous
100
AcDbCircle
 10
375.990568
 20
296.051169
 30
0.0
 40
1.5
100
AcDbArc
 50
279.594068
 51
0.0
  0
LINE
  5
C23C
330
C1E3
100
AcDbEntity
  8
1
  6
Continuous
100
AcDbLine
 10
214.440568
 20
358.3011309999998
 30
0.0
 11
218.440568
 21
358.3011309999998
 31
0.0
  0
LINE
  5
C23D
330
C1E3
100
AcDbEntity
  8
1
  6
Continuous
100
AcDbLine
 10
214.440568
 20
350.301131
 30
0.0
 11
218.440568
 21
350.301131
 31
0.0
  0
LINE
  5
C23E
330
C1E3
100
AcDbEntity
  8
1
  6
Continuous
100
AcDbLine
 10
214.440568
 20
359.551131
 30
0.0
 11
210.440568
 21
359.051131
 31
0.0
  0
LINE
  5
C23F
330
C1E3
100
AcDbEntity
  8
1
  6
Continuous
100
AcDbLine
 10
214.440568
 20
349.051131
 30
0.0
 11
210.440568
 21
349.5511309999998
 31
0.0
  0
LINE
  5
C240
330
C1E3
100
AcDbEntity
  8
1
  6
Continuous
100
AcDbLine
 10
192.9405679999999
 20
360.551131
 30
0.0
 11
194.1905679999999
 21
360.551131
 31
0.0
  0
LINE
  5
C241
330
C1E3
100
AcDbEntity
  8
1
  6
Continuous
100
AcDbLine
 10
192.9405679999999
 20
348.051131
 30
0.0
 11
194.1905679999999
 21
348.051131
 31
0.0
  0
LINE
  5
C242
330
C1E3
100
AcDbEntity
  8
1
  6
Continuous
100
AcDbLine
 10
189.9405679999999
 20
357.301131
 30
0.0
 11
191.9405679999999
 21
357.301131
 31
0.0
  0
LINE
  5
C243
330
C1E3
100
AcDbEntity
  8
1
  6
Continuous
100
AcDbLine
 10
189.9405679999999
 20
351.3011309999998
 30
0.0
 11
191.9405679999999
 21
351.3011309999998
 31
0.0
  0
ARC
  5
C244
330
C1E3
100
AcDbEntity
  8
1
  6
Continuous
100
AcDbCircle
 10
192.1905679999999
 20
354.301131
 30
0.0
 40
3.75
100
AcDbArc
 50
126.869898
 51
233.130102
  0
ARC
  5
C245
330
C1E3
100
AcDbEntity
  8
1
  6
Continuous
100
AcDbCircle
 10
209.4405679999999
 20
359.551131
 30
0.0
 40
1.0
100
AcDbArc
 50
0.0
 51
90.0
  0
ARC
  5
C246
330
C1E3
100
AcDbEntity
  8
1
  6
Continuous
100
AcDbCircle
 10
209.4405679999999
 20
349.051131
 30
0.0
 40
1.0
100
AcDbArc
 50
270.0
 51
0.0
  0
ARC
  5
C247
330
C1E3
100
AcDbEntity
  8
1
  6
Continuous
100
AcDbCircle
 10
192.9405679999999
 20
349.051131
 30
0.0
 40
1.0
100
AcDbArc
 50
180.0
 51
270.0
  0
ARC
  5
C248
330
C1E3
100
AcDbEntity
  8
1
  6
Continuous
100
AcDbCircle
 10
192.9405679999999
 20
359.551131
 30
0.0
 40
1.0
100
AcDbArc
 50
90.0
 51
180.0
  0
ARC
  5
C249
330
C1E3
100
AcDbEntity
  8
1
  6
Continuous
100
AcDbCircle
 10
201.1905679999999
 20
379.526131
 30
0.0
 40
20.225
100
AcDbArc
 50
249.750657
 51
290.249343
  0
ARC
  5
C24A
330
C1E3
100
AcDbEntity
  8
1
  6
Continuous
100
AcDbCircle
 10
201.1905679999999
 20
329.0761309999999
 30
0.0
 40
20.225
100
AcDbArc
 50
69.75065699999999
 51
110.249343
  0
LINE
  5
C24B
330
C1E3
100
AcDbEntity
  8
1
  6
Continuous
100
AcDbLine
 10
206.690568
 20
362.0511309999998
 30
0.0
 11
208.1905679999999
 21
360.551131
 31
0.0
  0
LINE
  5
C24C
330
C1E3
100
AcDbEntity
  8
1
  6
Continuous
100
AcDbLine
 10
195.690568
 20
362.0511309999998
 30
0.0
 11
194.1905679999999
 21
360.551131
 31
0.0
  0
LINE
  5
C24D
330
C1E3
100
AcDbEntity
  8
1
  6
Continuous
100
AcDbLine
 10
194.1905679999999
 20
348.051131
 30
0.0
 11
195.690568
 21
346.551131
 31
0.0
  0
LINE
  5
C24E
330
C1E3
100
AcDbEntity
  8
1
  6
Continuous
100
AcDbLine
 10
208.1905679999999
 20
348.051131
 30
0.0
 11
206.690568
 21
346.551131
 31
0.0
  0
LINE
  5
C24F
330
C1E3
100
AcDbEntity
  8
1
  6
Continuous
100
AcDbLine
 10
208.1905679999999
 20
360.551131
 30
0.0
 11
209.4405679999999
 21
360.551131
 31
0.0
  0
LINE
  5
C250
330
C1E3
100
AcDbEntity
  8
1
  6
Continuous
100
AcDbLine
 10
208.1905679999999
 20
348.051131
 30
0.0
 11
209.4405679999999
 21
348.051131
 31
0.0
  0
LINE
  5
C251
330
C1E3
100
AcDbEntity
  8
1
  6
Continuous
100
AcDbLine
 10
218.440568
 20
354.901131
 30
0.0
 11
216.940568
 21
354.301131
 31
0.0
  0
LINE
  5
C252
330
C1E3
100
AcDbEntity
  8
1
  6
Continuous
100
AcDbLine
 10
216.940568
 20
354.301131
 30
0.0
 11
218.440568
 21
353.701131
 31
0.0
  0
LINE
  5
C253
330
C1E3
100
AcDbEntity
  8
1
  6
Continuous
100
AcDbLine
 10
216.940568
 20
354.301131
 30
0.0
 11
214.440568
 21
354.301131
 31
0.0
  0
LINE
  5
C254
330
C1E3
100
AcDbEntity
  8
1
  6
Continuous
100
AcDbLine
 10
376.547322
 20
295.464935
 30
0.0
 11
376.240568
 21
295.451131
 31
0.0
  0
LINE
  5
C255
330
C1E3
100
AcDbEntity
  8
1
  6
Continuous
100
AcDbLine
 10
362.9113339999999
 20
295.4659470000001
 30
0.0
 11
363.240568
 21
295.451131
 31
0.0
  0
LINE
  5
C256
330
C1E3
100
AcDbEntity
  8
1
  6
Continuous
100
AcDbLine
 10
100.390568
 20
360.801131
 30
0.0
 11
194.4405679999999
 21
360.801131
 31
0.0
  0
LINE
  5
C257
330
C1E3
100
AcDbEntity
  8
1
  6
Continuous
100
AcDbLine
 10
100.390568
 20
347.8011309999998
 30
0.0
 11
194.4405679999999
 21
347.8011309999998
 31
0.0
  0
LINE
  5
C258
330
C1E3
100
AcDbEntity
  8
1
  6
Continuous
100
AcDbLine
 10
207.9405679999999
 20
360.801131
 30
0.0
 11
301.9905679999999
 21
360.801131
 31
0.0
  0
LINE
  5
C259
330
C1E3
100
AcDbEntity
  8
1
  6
Continuous
100
AcDbLine
 10
207.9405679999999
 20
347.8011309999998
 30
0.0
 11
301.9905679999999
 21
347.8011309999998
 31
0.0
  0
ARC
  5
C25A
330
C1E3
100
AcDbEntity
  8
1
  6
Continuous
100
AcDbCircle
 10
192.167901
 20
300.550131
 30
0.0
 40
3.735641
100
AcDbArc
 50
126.600977
 51
233.399023
  0
LINE
  5
C25B
330
C1E3
100
AcDbEntity
  8
1
  6
Continuous
100
AcDbLine
 10
376.240568
 20
95.249553
 30
0.0
 11
376.240568
 21
297.0875559999999
 31
0.0
  0
LINE
  5
C25C
330
C1E3
100
AcDbEntity
  8
1
  6
Continuous
100
AcDbLine
 10
363.240568
 20
95.249553
 30
0.0
 11
363.240568
 21
297.0875559999999
 31
0.0
  0
ARC
  5
C25D
330
C1E3
100
AcDbEntity
  8
1
  6
Continuous
100
AcDbCircle
 10
375.740568
 20
300.856421
 30
0.0
 40
1.0
100
AcDbArc
 50
0.0
 51
84.600387
  0
ARC
  5
C25E
330
C1E3
100
AcDbEntity
  8
1
  6
Continuous
100
AcDbCircle
 10
363.740568
 20
300.856421
 30
0.0
 40
1.0
100
AcDbArc
 50
95.39961299999999
 51
180.0
  0
LINE
  5
C25F
330
C1E3
100
AcDbEntity
  8
1
  6
Continuous
100
AcDbLine
 10
376.7405679999998
 20
300.856421
 30
0.0
 11
377.4865189999999
 21
295.941037
 31
0.0
  0
LINE
  5
C260
330
C1E3
100
AcDbEntity
  8
1
  6
Continuous
100
AcDbLine
 10
362.7405679999998
 20
300.856421
 30
0.0
 11
361.990568
 21
296.051169
 31
0.0
  0
ARC
  5
C261
330
C1E3
100
AcDbEntity
  8
1
  6
Continuous
100
AcDbCircle
 10
32.75
 20
300.2500329999999
 30
0.0
 40
6.301135999999998
100
AcDbArc
 50
7.304446000000001
 51
172.6955539999999
  0
LINE
  5
C262
330
C1E3
100
AcDbEntity
  8
4
  6
CENTER
100
AcDbLine
 10
32.75
 20
80.249553
 30
0.0
 11
32.75
 21
313.551169
 31
0.0
  0
LINE
  5
C263
330
C1E3
100
AcDbEntity
  8
1
  6
Continuous
100
AcDbLine
 10
26.25
 20
95.249553
 30
0.0
 11
26.25
 21
296.851598
 31
0.0
  0
LINE
  5
C264
330
C1E3
100
AcDbEntity
  8
1
  6
Continuous
100
AcDbLine
 10
39.25
 20
95.249553
 30
0.0
 11
39.25
 21
296.851598
 31
0.0
  0
LINE
  5
C265
330
C1E3
100
AcDbEntity
  8
4
  6
CENTER
100
AcDbLine
 10
19.25
 20
300.301169
 30
0.0
 11
46.25
 21
300.301169
 31
0.0
  0
LINE
  5
C266
330
C1E3
100
AcDbEntity
  8
1
  6
Continuous
100
AcDbLine
 10
25.75
 20
300.856421
 30
0.0
 11
25.0
 21
296.051169
 31
0.0
  0
ARC
  5
C267
330
C1E3
100
AcDbEntity
  8
1
  6
Continuous
100
AcDbCircle
 10
26.75
 20
300.856421
 30
0.0
 40
1.0
100
AcDbArc
 50
95.39961299999999
 51
180.0
  0
LINE
  5
C268
330
C1E3
100
AcDbEntity
  8
1
  6
Continuous
100
AcDbLine
 10
25.920766
 20
295.4659470000001
 30
0.0
 11
26.25
 21
295.451131
 31
0.0
  0
ARC
  5
C269
330
C1E3
100
AcDbEntity
  8
1
  6
Continuous
100
AcDbCircle
 10
26.5
 20
296.051169
 30
0.0
 40
1.5
100
AcDbArc
 50
180.0
 51
260.405932
  0
LINE
  5
C26A
330
C1E3
100
AcDbEntity
  8
1
  6
Continuous
100
AcDbLine
 10
26.246226
 20
297.551169
 30
0.0
 11
27.833508
 21
297.551169
 31
0.0
  0
LINE
  5
C26B
330
C1E3
100
AcDbEntity
  8
1
  6
Continuous
100
AcDbLine
 10
26.5
 20
297.551169
 30
0.0
 11
26.5
 21
301.051169
 31
0.0
  0
LINE
  5
C26C
330
C1E3
100
AcDbEntity
  8
1
  6
Continuous
100
AcDbLine
 10
39.75
 20
300.856421
 30
0.0
 11
40.495952
 21
295.941037
 31
0.0
  0
ARC
  5
C26D
330
C1E3
100
AcDbEntity
  8
1
  6
Continuous
100
AcDbCircle
 10
38.75
 20
300.856421
 30
0.0
 40
1.0
100
AcDbArc
 50
0.0
 51
84.600387
  0
LINE
  5
C26E
330
C1E3
100
AcDbEntity
  8
1
  6
Continuous
100
AcDbLine
 10
39.556754
 20
295.464935
 30
0.0
 11
39.25
 21
295.451131
 31
0.0
  0
ARC
  5
C26F
330
C1E3
100
AcDbEntity
  8
1
  6
Continuous
100
AcDbCircle
 10
39.0
 20
296.051169
 30
0.0
 40
1.5
100
AcDbArc
 50
279.594068
 51
355.7894899999998
  0
LINE
  5
C270
330
C1E3
100
AcDbEntity
  8
1
  6
Continuous
100
AcDbLine
 10
37.66649199999999
 20
297.551169
 30
0.0
 11
39.24015
 21
297.551169
 31
0.0
  0
LINE
  5
C271
330
C1E3
100
AcDbEntity
  8
1
  6
Continuous
100
AcDbLine
 10
39.0
 20
297.551169
 30
0.0
 11
39.0
 21
301.051169
 31
0.0
  0
LINE
  5
C272
330
C1E3
100
AcDbEntity
  8
4
  6
CENTER
100
AcDbLine
 10
201.1905679999999
 20
33.99955300000001
 30
0.0
 11
201.1905679999999
 21
63.49955300000001
 31
0.0
  0
LINE
  5
C273
330
C1E3
100
AcDbEntity
  8
1
  6
Continuous
100
AcDbLine
 10
100.390568
 20
42.249553
 30
0.0
 11
301.9905679999999
 21
42.249553
 31
0.0
  0
LINE
  5
C274
330
C1E3
100
AcDbEntity
  8
1
  6
Continuous
100
AcDbLine
 10
195.690568
 20
40.999553
 30
0.0
 11
206.690568
 21
40.999553
 31
0.0
  0
LINE
  5
C275
330
C1E3
100
AcDbEntity
  8
1
  6
Continuous
100
AcDbLine
 10
100.390568
 20
55.24955300000002
 30
0.0
 11
301.9905679999999
 21
55.24955300000002
 31
0.0
  0
LINE
  5
C276
330
C1E3
100
AcDbEntity
  8
4
  6
CENTER
100
AcDbLine
 10
85.390568
 20
48.74955299999999
 30
0.0
 11
316.9905679999998
 21
48.74955299999999
 31
0.0
  0
LINE
  5
C277
330
C1E3
100
AcDbEntity
  8
1
  6
Continuous
100
AcDbLine
 10
195.690568
 20
56.49955300000002
 30
0.0
 11
206.690568
 21
56.49955300000002
 31
0.0
  0
LINE
  5
C278
330
C1E3
100
AcDbEntity
  8
1
  6
Continuous
100
AcDbLine
 10
195.8979389999998
 20
295.0626769999999
 30
0.0
 11
192.282606
 21
290.816952
 31
0.0
  0
LINE
  5
C279
330
C1E3
100
AcDbEntity
  8
1
  6
Continuous
100
AcDbLine
 10
195.8276919999999
 20
295.905648
 30
0.0
 11
191.8257859999999
 21
291.205945
 31
0.0
  0
LINE
  5
C27A
330
C1E3
100
AcDbEntity
  8
1
  6
Continuous
100
AcDbLine
 10
191.8257859999999
 20
291.205945
 30
0.0
 11
192.282606
 21
290.816952
 31
0.0
  0
LINE
  5
C27B
330
C1E3
100
AcDbEntity
  8
1
  6
Continuous
100
AcDbLine
 10
193.3817579999999
 20
293.033225
 30
0.0
 11
193.838578
 21
292.6442319999998
 31
0.0
  0
CIRCLE
  5
C27C
330
C1E3
100
AcDbEntity
  8
1
  6
Continuous
100
AcDbCircle
 10
32.75
 20
300.549131
 30
0.0
 40
3.0
  0
LINE
  5
C27D
330
C1E3
100
AcDbEntity
  8
1
  6
Continuous
100
AcDbLine
 10
29.75
 20
300.549131
 30
0.0
 11
28.75649199999999
 21
298.166331
 31
0.0
  0
LINE
  5
C27E
330
C1E3
100
AcDbEntity
  8
1
  6
Continuous
100
AcDbLine
 10
35.75
 20
300.549131
 30
0.0
 11
36.743508
 21
298.166331
 31
0.0
  0
ARC
  5
C27F
330
C1E3
100
AcDbEntity
  8
1
  6
Continuous
100
AcDbCircle
 10
37.66649199999999
 20
298.551169
 30
0.0
 40
1.0
100
AcDbArc
 50
202.6336909999999
 51
270.0
  0
ARC
  5
C280
330
C1E3
100
AcDbEntity
  8
1
  6
Continuous
100
AcDbCircle
 10
27.833508
 20
298.551169
 30
0.0
 40
1.0
100
AcDbArc
 50
270.0
 51
337.3663089999999
  0
LINE
  5
C281
330
C1E3
100
AcDbEntity
  8
1
  6
Continuous
100
AcDbLine
 10
195.9405679999999
 20
56.49955300000002
 30
0.0
 11
195.9405679999999
 21
55.24955300000002
 31
0.0
  0
LINE
  5
C282
330
C1E3
100
AcDbEntity
  8
1
  6
Continuous
100
AcDbLine
 10
206.4405679999999
 20
41.0
 30
0.0
 11
206.4405679999999
 21
42.249553
 31
0.0
  0
LINE
  5
C283
330
C1E3
100
AcDbEntity
  8
1
  6
Continuous
100
AcDbLine
 10
206.690568
 20
56.49955300000002
 30
0.0
 11
206.690568
 21
55.24955300000002
 31
0.0
  0
LINE
  5
C284
330
C1E3
100
AcDbEntity
  8
1
  6
Continuous
100
AcDbLine
 10
195.690568
 20
56.49955300000002
 30
0.0
 11
195.690568
 21
55.24955300000002
 31
0.0
  0
LINE
  5
C285
330
C1E3
100
AcDbEntity
  8
1
  6
Continuous
100
AcDbLine
 10
195.690568
 20
56.49955300000002
 30
0.0
 11
194.4405679999999
 21
55.24955300000002
 31
0.0
  0
LINE
  5
C286
330
C1E3
100
AcDbEntity
  8
1
  6
Continuous
100
AcDbLine
 10
206.690568
 20
56.49955300000002
 30
0.0
 11
207.9405679999999
 21
55.24955300000002
 31
0.0
  0
LINE
  5
C287
330
C1E3
100
AcDbEntity
  8
1
  6
Continuous
100
AcDbLine
 10
195.690568
 20
41.0
 30
0.0
 11
194.4406419999999
 21
42.249553
 31
0.0
  0
LINE
  5
C288
330
C1E3
100
AcDbEntity
  8
1
  6
Continuous
100
AcDbLine
 10
206.690568
 20
40.999553
 30
0.0
 11
207.9405679999999
 21
42.249553
 31
0.0
  0
LINE
  5
C289
330
C1E3
100
AcDbEntity
  8
1
  6
Continuous
100
AcDbLine
 10
206.690568
 20
42.249553
 30
0.0
 11
206.690568
 21
41.0
 31
0.0
  0
LINE
  5
C28A
330
C1E3
100
AcDbEntity
  8
1
  6
Continuous
100
AcDbLine
 10
206.4405679999999
 20
55.24955300000002
 30
0.0
 11
206.4405679999999
 21
56.49955300000002
 31
0.0
  0
LINE
  5
C28B
330
C1E3
100
AcDbEntity
  8
1
  6
Continuous
100
AcDbLine
 10
195.9405679999999
 20
42.249553
 30
0.0
 11
195.9405679999999
 21
41.0
 31
0.0
  0
LINE
  5
C28C
330
C1E3
100
AcDbEntity
  8
1
  6
Continuous
100
AcDbLine
 10
195.690568
 20
42.249553
 30
0.0
 11
195.690568
 21
41.0
 31
0.0
  0
LINE
  5
C28D
330
C1E3
100
AcDbEntity
  8
1
  6
Continuous
100
AcDbLine
 10
363.2367939999999
 20
297.551169
 30
0.0
 11
362.9113339999999
 21
295.4659470000001
 31
0.0
  0
LINE
  5
C28E
330
C1E3
100
AcDbEntity
  8
1
  6
Continuous
100
AcDbLine
 10
376.230718
 20
297.551169
 30
0.0
 11
376.547322
 21
295.464935
 31
0.0
  0
LINE
  5
C28F
330
C1E3
100
AcDbEntity
  8
1
  6
Continuous
100
AcDbLine
 10
26.246226
 20
297.551169
 30
0.0
 11
25.920766
 21
295.4659470000001
 31
0.0
  0
LINE
  5
C290
330
C1E3
100
AcDbEntity
  8
1
  6
Continuous
100
AcDbLine
 10
39.24015
 20
297.551169
 30
0.0
 11
39.556754
 21
295.464935
 31
0.0
  0
LINE
  5
C291
330
C1E3
100
AcDbEntity
  8
1
  6
Continuous
100
AcDbLine
 10
26.25
 20
296.851598
 30
0.0
 11
39.25
 21
296.851598
 31
0.0
  0
LINE
  5
C292
330
C1E3
100
AcDbEntity
  8
1
  6
Continuous
100
AcDbLine
 10
363.240568
 20
297.0875559999999
 30
0.0
 11
365.589039
 21
297.0875559999999
 31
0.0
  0
LINE
  5
C293
330
C1E3
100
AcDbEntity
  8
1
  6
Continuous
100
AcDbLine
 10
373.8920969999999
 20
297.0875559999999
 30
0.0
 11
376.240568
 21
297.0875559999999
 31
0.0
  0
ARC
  5
C294
330
C1E3
100
AcDbEntity
  8
5
  6
PHANTOM
100
AcDbCircle
 10
201.4105679999999
 20
200.049553
 30
0.0
 40
96.0
100
AcDbArc
 50
93.33299399999999
 51
63.59393299999999
  0
ARC
  5
C295
330
C1E3
100
AcDbEntity
  8
1
  6
Continuous
100
AcDbCircle
 10
201.1905679999999
 20
196.049553
 30
0.0
 40
100.0
100
AcDbArc
 50
93.07417700000003
 51
68.94104499999999
  0
ARC
  5
C296
330
C1E3
100
AcDbEntity
  8
5
  6
PHANTOM
100
AcDbCircle
 10
201.4105679999999
 20
200.049553
 30
0.0
 40
96.79999999999999
100
AcDbArc
 50
93.34481999999999
 51
63.59393299999999
  0
ARC
  5
C297
330
C1E3
100
AcDbEntity
  8
5
  6
PHANTOM
100
AcDbCircle
 10
201.4105679999999
 20
200.049553
 30
0.0
 40
97.59999999999999
100
AcDbArc
 50
53.51422999999999
 51
63.59393299999999
  0
ARC
  5
C298
330
C1E3
100
AcDbEntity
  8
1
  6
Continuous
100
AcDbCircle
 10
201.1905679999999
 20
196.049553
 30
0.0
 40
100.8
100
AcDbArc
 50
93.08758899999999
 51
68.94104499999999
  0
LINE
  5
C299
330
C1E3
100
AcDbEntity
  8
5
  6
PHANTOM
100
AcDbLine
 10
259.4457849999999
 20
278.5203989999998
 30
0.0
 11
258.9700859999999
 21
277.8771949999999
 31
0.0
  0
LINE
  5
C29A
330
C1E3
100
AcDbEntity
  8
4
  6
CENTER
100
AcDbLine
 10
11.25
 20
196.049553
 30
0.0
 11
54.25
 21
196.049553
 31
0.0
  0
LINE
  5
C29B
330
C1E3
100
AcDbEntity
  8
1
  6
Continuous
100
AcDbLine
 10
376.240568
 20
95.249553
 30
0.0
 11
363.240568
 21
95.249553
 31
0.0
  0
LINE
  5
C29C
330
C1E3
100
AcDbEntity
  8
1
  6
Continuous
100
AcDbLine
 10
100.390568
 20
42.249553
 30
0.0
 11
100.390568
 21
55.24955300000002
 31
0.0
  0
LINE
  5
C29D
330
C1E3
100
AcDbEntity
  8
1
  6
Continuous
100
AcDbLine
 10
301.9905679999999
 20
42.249553
 30
0.0
 11
301.9905679999999
 21
55.24955300000002
 31
0.0
  0
LINE
  5
C29E
330
C1E3
100
AcDbEntity
  8
1
  6
Continuous
100
AcDbLine
 10
301.9905679999999
 20
347.8011309999998
 30
0.0
 11
301.9905679999999
 21
360.801131
 31
0.0
  0
LINE
  5
C29F
330
C1E3
100
AcDbEntity
  8
1
  6
Continuous
100
AcDbLine
 10
100.390568
 20
347.8011309999998
 30
0.0
 11
100.390568
 21
360.801131
 31
0.0
  0
LINE
  5
C2A0
330
C1E3
100
AcDbEntity
  8
4
  6
CENTER
100
AcDbLine
 10
85.390568
 20
196.049553
 30
0.0
 11
316.9905679999998
 21
196.049553
 31
0.0
  0
LINE
  5
C2A1
330
C1E3
100
AcDbEntity
  8
4
  6
CENTER
100
AcDbLine
 10
348.2405679999998
 20
196.049553
 30
0.0
 11
391.2405679999998
 21
196.049553
 31
0.0
  0
LINE
  5
C2A2
330
C1E3
100
AcDbEntity
  8
1
  6
Continuous
100
AcDbLine
 10
39.25
 20
95.249553
 30
0.0
 11
26.25
 21
95.249553
 31
0.0
  0
LINE
  5
C2A3
330
C1E3
100
AcDbEntity
  8
1
  6
Continuous
100
AcDbLine
 10
189.498526
 20
351.690497
 30
0.0
 11
189.4857649999999
 21
351.569259
 31
0.0
  0
LINE
  5
C2A4
330
C1E3
100
AcDbEntity
  8
1
  6
Continuous
100
AcDbLine
 10
188.885765
 20
352.528908
 30
0.0
 11
188.885765
 21
351.569259
 31
0.0
  0
ARC
  5
C2A5
330
C1E3
100
AcDbEntity
  8
1
  6
Continuous
100
AcDbCircle
 10
189.185765
 20
351.569259
 30
0.0
 40
0.3
100
AcDbArc
 50
180.0
 51
0.0
  0
ARC
  5
C2A6
330
C1E3
100
AcDbEntity
  8
1
  6
Continuous
100
AcDbCircle
 10
189.7857649999999
 20
357.2692589999999
 30
0.0
 40
0.3
100
AcDbArc
 50
6.098737999999999
 51
180.0
  0
LINE
  5
C2A7
330
C1E3
100
AcDbEntity
  8
1
  6
Continuous
100
AcDbLine
 10
189.4857649999999
 20
357.2692589999999
 30
0.0
 11
189.3846509999999
 21
356.788967
 31
0.0
  0
LINE
  5
C2A8
330
C1E3
100
AcDbEntity
  8
1
  6
Continuous
100
AcDbLine
 10
183.98766
 20
354.390894
 30
0.0
 11
183.98766
 21
351.6970769999999
 31
0.0
  0
LINE
  5
C2A9
330
C1E3
100
AcDbEntity
  8
1
  6
Continuous
100
AcDbLine
 10
185.1810849999999
 20
357.334611
 30
0.0
 11
184.58766
 21
351.6970769999999
 31
0.0
  0
ARC
  5
C2AA
330
C1E3
100
AcDbEntity
  8
1
  6
Continuous
100
AcDbCircle
 10
184.2876599999999
 20
351.6970769999999
 30
0.0
 40
0.3
100
AcDbArc
 50
180.0
 51
0.0
  0
ARC
  5
C2AB
330
C1E3
100
AcDbEntity
  8
1
  6
Continuous
100
AcDbCircle
 10
185.48766
 20
354.390894
 30
0.0
 40
1.5
100
AcDbArc
 50
168.1113419999998
 51
180.0
  0
LINE
  5
C2AC
330
C1E3
100
AcDbEntity
  8
1
  6
Continuous
100
AcDbLine
 10
184.58766
 20
357.397077
 30
0.0
 11
184.019836
 21
354.6999099999999
 31
0.0
  0
ARC
  5
C2AD
330
C1E3
100
AcDbEntity
  8
1
  6
Continuous
100
AcDbCircle
 10
184.88766
 20
357.397077
 30
0.0
 40
0.3
100
AcDbArc
 50
347.9819879999998
 51
180.0
  0
LINE
  5
C2AE
330
C1E3
100
AcDbEntity
  8
1
  6
Continuous
100
AcDbLine
 10
186.38766
 20
354.390894
 30
0.0
 11
186.38766
 21
351.6970769999999
 31
0.0
  0
LINE
  5
C2AF
330
C1E3
100
AcDbEntity
  8
1
  6
Continuous
100
AcDbLine
 10
187.581085
 20
357.334611
 30
0.0
 11
186.9876599999998
 21
351.6970769999999
 31
0.0
  0
ARC
  5
C2B0
330
C1E3
100
AcDbEntity
  8
1
  6
Continuous
100
AcDbCircle
 10
186.6876599999999
 20
351.6970769999999
 30
0.0
 40
0.3
100
AcDbArc
 50
180.0
 51
0.0
  0
LINE
  5
C2B1
330
C1E3
100
AcDbEntity
  8
1
  6
Continuous
100
AcDbLine
 10
186.9876599999998
 20
357.397077
 30
0.0
 11
186.4198359999998
 21
354.6999099999999
 31
0.0
  0
ARC
  5
C2B2
330
C1E3
100
AcDbEntity
  8
1
  6
Continuous
100
AcDbCircle
 10
187.2876599999999
 20
357.397077
 30
0.0
 40
0.3
100
AcDbArc
 50
347.9819879999998
 51
180.0
  0
ARC
  5
C2B3
330
C1E3
100
AcDbEntity
  8
1
  6
Continuous
100
AcDbCircle
 10
187.88766
 20
354.390894
 30
0.0
 40
1.5
100
AcDbArc
 50
168.1113419999998
 51
180.0
  0
LINE
  5
C2B4
330
C1E3
100
AcDbEntity
  8
1
  6
Continuous
100
AcDbLine
 10
182.7810849999999
 20
357.334611
 30
0.0
 11
182.1876599999999
 21
351.6970769999999
 31
0.0
  0
LINE
  5
C2B5
330
C1E3
100
AcDbEntity
  8
1
  6
Continuous
100
AcDbLine
 10
182.1876599999999
 20
357.397077
 30
0.0
 11
181.6198359999999
 21
354.6999099999999
 31
0.0
  0
ARC
  5
C2B6
330
C1E3
100
AcDbEntity
  8
1
  6
Continuous
100
AcDbCircle
 10
182.4876599999998
 20
357.397077
 30
0.0
 40
0.3
100
AcDbArc
 50
347.9819879999998
 51
180.0
  0
LINE
  5
C2B7
330
C1E3
100
AcDbEntity
  8
1
  6
Continuous
100
AcDbLine
 10
181.5876599999998
 20
354.390894
 30
0.0
 11
181.5876599999998
 21
351.6970769999999
 31
0.0
  0
ARC
  5
C2B8
330
C1E3
100
AcDbEntity
  8
1
  6
Continuous
100
AcDbCircle
 10
181.88766
 20
351.6970769999999
 30
0.0
 40
0.3
100
AcDbArc
 50
180.0
 51
0.0
  0
ARC
  5
C2B9
330
C1E3
100
AcDbEntity
  8
1
  6
Continuous
100
AcDbCircle
 10
183.08766
 20
354.390894
 30
0.0
 40
1.5
100
AcDbArc
 50
168.1113419999998
 51
180.0
  0
LINE
  5
C2BA
330
C1E3
100
AcDbEntity
  8
1
  6
Continuous
100
AcDbLine
 10
180.3810849999999
 20
357.334611
 30
0.0
 11
179.7876599999999
 21
351.6970769999999
 31
0.0
  0
ARC
  5
C2BB
330
C1E3
100
AcDbEntity
  8
1
  6
Continuous
100
AcDbCircle
 10
180.08766
 20
357.397077
 30
0.0
 40
0.3
100
AcDbArc
 50
347.9819879999998
 51
180.0
  0
LINE
  5
C2BC
330
C1E3
100
AcDbEntity
  8
1
  6
Continuous
100
AcDbLine
 10
179.7876599999999
 20
357.397077
 30
0.0
 11
179.2198359999999
 21
354.6999099999999
 31
0.0
  0
LINE
  5
C2BD
330
C1E3
100
AcDbEntity
  8
1
  6
Continuous
100
AcDbLine
 10
179.1876599999999
 20
354.390894
 30
0.0
 11
179.1876599999999
 21
351.6970769999999
 31
0.0
  0
ARC
  5
C2BE
330
C1E3
100
AcDbEntity
  8
1
  6
Continuous
100
AcDbCircle
 10
179.48766
 20
351.6970769999999
 30
0.0
 40
0.3
100
AcDbArc
 50
180.0
 51
0.0
  0
ARC
  5
C2BF
330
C1E3
100
AcDbEntity
  8
1
  6
Continuous
100
AcDbCircle
 10
180.68766
 20
354.390894
 30
0.0
 40
1.5
100
AcDbArc
 50
168.1113419999998
 51
180.0
  0
LINE
  5
C2C0
330
C1E3
100
AcDbEntity
  8
1
  6
Continuous
100
AcDbLine
 10
177.981085
 20
357.334611
 30
0.0
 11
177.38766
 21
351.6970769999999
 31
0.0
  0
LINE
  5
C2C1
330
C1E3
100
AcDbEntity
  8
1
  6
Continuous
100
AcDbLine
 10
177.38766
 20
357.397077
 30
0.0
 11
176.819836
 21
354.6999099999999
 31
0.0
  0
ARC
  5
C2C2
330
C1E3
100
AcDbEntity
  8
1
  6
Continuous
100
AcDbCircle
 10
177.68766
 20
357.397077
 30
0.0
 40
0.3
100
AcDbArc
 50
347.9819879999998
 51
180.0
  0
LINE
  5
C2C3
330
C1E3
100
AcDbEntity
  8
1
  6
Continuous
100
AcDbLine
 10
176.7876599999999
 20
354.390894
 30
0.0
 11
176.7876599999999
 21
351.6970769999999
 31
0.0
  0
ARC
  5
C2C4
330
C1E3
100
AcDbEntity
  8
1
  6
Continuous
100
AcDbCircle
 10
177.08766
 20
351.6970769999999
 30
0.0
 40
0.3
100
AcDbArc
 50
180.0
 51
0.0
  0
ARC
  5
C2C5
330
C1E3
100
AcDbEntity
  8
1
  6
Continuous
100
AcDbCircle
 10
178.2876599999999
 20
354.390894
 30
0.0
 40
1.5
100
AcDbArc
 50
168.1113419999998
 51
180.0
  0
LINE
  5
C2C6
330
C1E3
100
AcDbEntity
  8
1
  6
Continuous
100
AcDbLine
 10
175.581085
 20
357.334611
 30
0.0
 11
174.98766
 21
351.6970769999999
 31
0.0
  0
ARC
  5
C2C7
330
C1E3
100
AcDbEntity
  8
1
  6
Continuous
100
AcDbCircle
 10
175.28766
 20
357.397077
 30
0.0
 40
0.3
100
AcDbArc
 50
347.9819879999998
 51
180.0
  0
LINE
  5
C2C8
330
C1E3
100
AcDbEntity
  8
1
  6
Continuous
100
AcDbLine
 10
174.98766
 20
357.397077
 30
0.0
 11
174.419836
 21
354.6999099999999
 31
0.0
  0
LINE
  5
C2C9
330
C1E3
100
AcDbEntity
  8
1
  6
Continuous
100
AcDbLine
 10
174.38766
 20
354.390894
 30
0.0
 11
174.38766
 21
351.6970769999999
 31
0.0
  0
ARC
  5
C2CA
330
C1E3
100
AcDbEntity
  8
1
  6
Continuous
100
AcDbCircle
 10
174.68766
 20
351.6970769999999
 30
0.0
 40
0.3
100
AcDbArc
 50
180.0
 51
0.0
  0
ARC
  5
C2CB
330
C1E3
100
AcDbEntity
  8
1
  6
Continuous
100
AcDbCircle
 10
175.88766
 20
354.390894
 30
0.0
 40
1.5
100
AcDbArc
 50
168.1113419999998
 51
180.0
  0
LINE
  5
C2CC
330
C1E3
100
AcDbEntity
  8
1
  6
Continuous
100
AcDbLine
 10
173.181085
 20
357.334611
 30
0.0
 11
172.58766
 21
351.6970769999999
 31
0.0
  0
LINE
  5
C2CD
330
C1E3
100
AcDbEntity
  8
1
  6
Continuous
100
AcDbLine
 10
172.58766
 20
357.397077
 30
0.0
 11
172.0198359999999
 21
354.6999099999999
 31
0.0
  0
ARC
  5
C2CE
330
C1E3
100
AcDbEntity
  8
1
  6
Continuous
100
AcDbCircle
 10
172.88766
 20
357.397077
 30
0.0
 40
0.3
100
AcDbArc
 50
347.9819879999998
 51
180.0
  0
LINE
  5
C2CF
330
C1E3
100
AcDbEntity
  8
1
  6
Continuous
100
AcDbLine
 10
171.98766
 20
354.390894
 30
0.0
 11
171.98766
 21
351.6970769999999
 31
0.0
  0
ARC
  5
C2D0
330
C1E3
100
AcDbEntity
  8
1
  6
Continuous
100
AcDbCircle
 10
172.28766
 20
351.6970769999999
 30
0.0
 40
0.3
100
AcDbArc
 50
180.0
 51
0.0
  0
ARC
  5
C2D1
330
C1E3
100
AcDbEntity
  8
1
  6
Continuous
100
AcDbCircle
 10
173.4876599999998
 20
354.390894
 30
0.0
 40
1.5
100
AcDbArc
 50
168.1113419999998
 51
180.0
  0
LINE
  5
C2D2
330
C1E3
100
AcDbEntity
  8
1
  6
Continuous
100
AcDbLine
 10
170.7810849999999
 20
357.334611
 30
0.0
 11
170.18766
 21
351.6970769999999
 31
0.0
  0
ARC
  5
C2D3
330
C1E3
100
AcDbEntity
  8
1
  6
Continuous
100
AcDbCircle
 10
170.48766
 20
357.397077
 30
0.0
 40
0.3
100
AcDbArc
 50
347.9819879999998
 51
180.0
  0
LINE
  5
C2D4
330
C1E3
100
AcDbEntity
  8
1
  6
Continuous
100
AcDbLine
 10
170.18766
 20
357.397077
 30
0.0
 11
169.6198359999999
 21
354.6999099999999
 31
0.0
  0
LINE
  5
C2D5
330
C1E3
100
AcDbEntity
  8
1
  6
Continuous
100
AcDbLine
 10
169.58766
 20
354.390894
 30
0.0
 11
169.58766
 21
351.6970769999999
 31
0.0
  0
ARC
  5
C2D6
330
C1E3
100
AcDbEntity
  8
1
  6
Continuous
100
AcDbCircle
 10
169.88766
 20
351.6970769999999
 30
0.0
 40
0.3
100
AcDbArc
 50
180.0
 51
0.0
  0
ARC
  5
C2D7
330
C1E3
100
AcDbEntity
  8
1
  6
Continuous
100
AcDbCircle
 10
171.0876599999998
 20
354.390894
 30
0.0
 40
1.5
100
AcDbArc
 50
168.1113419999998
 51
180.0
  0
LINE
  5
C2D8
330
C1E3
100
AcDbEntity
  8
1
  6
Continuous
100
AcDbLine
 10
168.381085
 20
357.334611
 30
0.0
 11
167.7876599999999
 21
351.6970769999999
 31
0.0
  0
LINE
  5
C2D9
330
C1E3
100
AcDbEntity
  8
1
  6
Continuous
100
AcDbLine
 10
167.7876599999999
 20
357.397077
 30
0.0
 11
167.2198359999999
 21
354.6999099999999
 31
0.0
  0
ARC
  5
C2DA
330
C1E3
100
AcDbEntity
  8
1
  6
Continuous
100
AcDbCircle
 10
168.0876599999998
 20
357.397077
 30
0.0
 40
0.3
100
AcDbArc
 50
347.9819879999998
 51
180.0
  0
LINE
  5
C2DB
330
C1E3
100
AcDbEntity
  8
1
  6
Continuous
100
AcDbLine
 10
167.18766
 20
354.390894
 30
0.0
 11
167.18766
 21
351.6970769999999
 31
0.0
  0
ARC
  5
C2DC
330
C1E3
100
AcDbEntity
  8
1
  6
Continuous
100
AcDbCircle
 10
167.48766
 20
351.6970769999999
 30
0.0
 40
0.3
100
AcDbArc
 50
180.0
 51
0.0
  0
ARC
  5
C2DD
330
C1E3
100
AcDbEntity
  8
1
  6
Continuous
100
AcDbCircle
 10
168.6876599999999
 20
354.390894
 30
0.0
 40
1.5
100
AcDbArc
 50
168.1113419999998
 51
180.0
  0
LINE
  5
C2DE
330
C1E3
100
AcDbEntity
  8
1
  6
Continuous
100
AcDbLine
 10
165.981085
 20
357.334611
 30
0.0
 11
165.38766
 21
351.6970769999999
 31
0.0
  0
ARC
  5
C2DF
330
C1E3
100
AcDbEntity
  8
1
  6
Continuous
100
AcDbCircle
 10
166.2876599999999
 20
354.390894
 30
0.0
 40
1.5
100
AcDbArc
 50
168.1113419999998
 51
180.0
  0
ARC
  5
C2E0
330
C1E3
100
AcDbEntity
  8
1
  6
Continuous
100
AcDbCircle
 10
165.6876599999999
 20
357.397077
 30
0.0
 40
0.3
100
AcDbArc
 50
347.9819879999998
 51
180.0
  0
LINE
  5
C2E1
330
C1E3
100
AcDbEntity
  8
1
  6
Continuous
100
AcDbLine
 10
165.38766
 20
357.397077
 30
0.0
 11
164.819836
 21
354.6999099999999
 31
0.0
  0
LINE
  5
C2E2
330
C1E3
100
AcDbEntity
  8
1
  6
Continuous
100
AcDbLine
 10
164.78766
 20
354.390894
 30
0.0
 11
164.78766
 21
351.6970769999999
 31
0.0
  0
ARC
  5
C2E3
330
C1E3
100
AcDbEntity
  8
1
  6
Continuous
100
AcDbCircle
 10
165.08766
 20
351.6970769999999
 30
0.0
 40
0.3
100
AcDbArc
 50
180.0
 51
0.0
  0
LINE
  5
C2E4
330
C1E3
100
AcDbEntity
  8
1
  6
Continuous
100
AcDbLine
 10
32.55290099999999
 20
288.230659
 30
0.0
 11
35.531401
 21
288.230659
 31
0.0
  0
LINE
  5
C2E5
330
C1E3
100
AcDbEntity
  8
1
  6
Continuous
100
AcDbLine
 10
32.55290099999999
 20
289.5716909999998
 30
0.0
 11
35.550401
 21
289.5716909999998
 31
0.0
  0
LINE
  5
C2E6
330
C1E3
100
AcDbEntity
  8
1
  6
Continuous
100
AcDbLine
 10
32.55290099999999
 20
290.7629299999999
 30
0.0
 11
35.612901
 21
290.7629299999999
 31
0.0
  0
LINE
  5
C2E7
330
C1E3
100
AcDbEntity
  8
1
  6
Continuous
100
AcDbLine
 10
32.55290099999999
 20
291.8147859999999
 30
0.0
 11
35.584401
 21
291.8147859999999
 31
0.0
  0
LINE
  5
C2E8
330
C1E3
100
AcDbEntity
  8
1
  6
Continuous
100
AcDbLine
 10
32.55290099999999
 20
292.735659
 30
0.0
 11
35.60015099999999
 21
292.735659
 31
0.0
  0
LINE
  5
C2E9
330
C1E3
100
AcDbEntity
  8
1
  6
Continuous
100
AcDbLine
 10
32.55290099999999
 20
293.532358
 30
0.0
 11
35.61490100000001
 21
293.532358
 31
0.0
  0
LINE
  5
C2EA
330
C1E3
100
AcDbEntity
  8
1
  6
Continuous
100
AcDbLine
 10
32.55290099999999
 20
294.210396
 30
0.0
 11
35.640651
 21
294.210396
 31
0.0
  0
LINE
  5
C2EB
330
C1E3
100
AcDbEntity
  8
1
  6
Continuous
100
AcDbLine
 10
32.55290099999999
 20
294.7742109999999
 30
0.0
 11
35.673151
 21
294.7742109999999
 31
0.0
  0
LINE
  5
C2EC
330
C1E3
100
AcDbEntity
  8
1
  6
Continuous
100
AcDbLine
 10
32.55290099999999
 20
295.227325
 30
0.0
 11
35.65665099999999
 21
295.227325
 31
0.0
  0
ARC
  5
C2ED
330
C1E3
100
AcDbEntity
  8
1
  6
Continuous
100
AcDbCircle
 10
29.618151
 20
285.6890419999999
 30
0.0
 40
0.21525
100
AcDbArc
 50
90.0
 51
270.0
  0
ARC
  5
C2EE
330
C1E3
100
AcDbEntity
  8
1
  6
Continuous
100
AcDbCircle
 10
35.487651
 20
285.259025
 30
0.0
 40
0.21525
100
AcDbArc
 50
261.619662
 51
90.0
  0
ARC
  5
C2EF
330
C1E3
100
AcDbEntity
  8
1
  6
Continuous
100
AcDbCircle
 10
35.51065100000001
 20
286.9190829999999
 30
0.0
 40
0.19225
100
AcDbArc
 50
270.0
 51
90.0
  0
ARC
  5
C2F0
330
C1E3
100
AcDbEntity
  8
1
  6
Continuous
100
AcDbCircle
 10
29.595151
 20
287.3036609999999
 30
0.0
 40
0.19225
100
AcDbArc
 50
90.0
 51
270.0
  0
LINE
  5
C2F1
330
C1E3
100
AcDbEntity
  8
1
  6
Continuous
100
AcDbLine
 10
29.618151
 20
285.9042919999998
 30
0.0
 11
35.487651
 21
285.4742749999999
 31
0.0
  0
LINE
  5
C2F2
330
C1E3
100
AcDbEntity
  8
1
  6
Continuous
100
AcDbLine
 10
35.45628
 20
285.0460729999999
 30
0.0
 11
32.55290099999999
 21
285.0460729999999
 31
0.0
  0
LINE
  5
C2F3
330
C1E3
100
AcDbEntity
  8
1
  6
Continuous
100
AcDbLine
 10
35.51065100000001
 20
286.7268329999999
 30
0.0
 11
32.55290099999999
 21
286.7268329999999
 31
0.0
  0
LINE
  5
C2F4
330
C1E3
100
AcDbEntity
  8
1
  6
Continuous
100
AcDbLine
 10
29.618151
 20
285.473792
 30
0.0
 11
32.55290099999999
 21
285.0460729999999
 31
0.0
  0
LINE
  5
C2F5
330
C1E3
100
AcDbEntity
  8
1
  6
Continuous
100
AcDbLine
 10
29.595151
 20
287.4959109999998
 30
0.0
 11
35.51065100000001
 21
287.111333
 31
0.0
  0
LINE
  5
C2F6
330
C1E3
100
AcDbEntity
  8
1
  6
Continuous
100
AcDbLine
 10
29.595151
 20
287.1114109999999
 30
0.0
 11
32.55290099999999
 21
286.7268329999999
 31
0.0
  0
ARC
  5
C2F7
330
C1E3
100
AcDbEntity
  8
1
  6
Continuous
100
AcDbCircle
 10
35.531401
 20
288.4021589999999
 30
0.0
 40
0.1715
100
AcDbArc
 50
270.0
 51
90.0
  0
ARC
  5
C2F8
330
C1E3
100
AcDbEntity
  8
1
  6
Continuous
100
AcDbCircle
 10
29.574401
 20
288.745469
 30
0.0
 40
0.1715
100
AcDbArc
 50
83.40322200000001
 51
270.0
  0
LINE
  5
C2F9
330
C1E3
100
AcDbEntity
  8
1
  6
Continuous
100
AcDbLine
 10
29.594103
 20
288.915833
 30
0.0
 11
35.531401
 21
288.5736589999999
 31
0.0
  0
LINE
  5
C2FA
330
C1E3
100
AcDbEntity
  8
1
  6
Continuous
100
AcDbLine
 10
29.574401
 20
288.5739689999999
 30
0.0
 11
32.55290099999999
 21
288.230659
 31
0.0
  0
ARC
  5
C2FB
330
C1E3
100
AcDbEntity
  8
1
  6
Continuous
100
AcDbCircle
 10
35.550401
 20
289.724191
 30
0.0
 40
0.1525
100
AcDbArc
 50
270.0
 51
90.0
  0
ARC
  5
C2FC
330
C1E3
100
AcDbEntity
  8
1
  6
Continuous
100
AcDbCircle
 10
29.555401
 20
290.0295679999999
 30
0.0
 40
0.1525
100
AcDbArc
 50
84.16789599999999
 51
270.0
  0
LINE
  5
C2FD
330
C1E3
100
AcDbEntity
  8
1
  6
Continuous
100
AcDbLine
 10
29.570897
 20
290.181279
 30
0.0
 11
35.550401
 21
289.8766909999998
 31
0.0
  0
LINE
  5
C2FE
330
C1E3
100
AcDbEntity
  8
1
  6
Continuous
100
AcDbLine
 10
29.555401
 20
289.877068
 30
0.0
 11
32.55290099999999
 21
289.5716909999998
 31
0.0
  0
ARC
  5
C2FF
330
C1E3
100
AcDbEntity
  8
1
  6
Continuous
100
AcDbCircle
 10
29.492901
 20
291.2128329999998
 30
0.0
 40
0.09
100
AcDbArc
 50
90.0
 51
270.0
  0
ARC
  5
C300
330
C1E3
100
AcDbEntity
  8
1
  6
Continuous
100
AcDbCircle
 10
35.612901
 20
290.8529299999999
 30
0.0
 40
0.09
100
AcDbArc
 50
270.0
 51
90.0
  0
LINE
  5
C301
330
C1E3
100
AcDbEntity
  8
1
  6
Continuous
100
AcDbLine
 10
29.492901
 20
291.302833
 30
0.0
 11
35.612901
 21
290.9429299999998
 31
0.0
  0
LINE
  5
C302
330
C1E3
100
AcDbEntity
  8
1
  6
Continuous
100
AcDbLine
 10
29.492901
 20
291.122833
 30
0.0
 11
32.55290099999999
 21
290.7629299999999
 31
0.0
  0
ARC
  5
C303
330
C1E3
100
AcDbEntity
  8
1
  6
Continuous
100
AcDbCircle
 10
29.521401
 20
292.170114
 30
0.0
 40
0.1185
100
AcDbArc
 50
85.52619399999997
 51
270.0
  0
ARC
  5
C304
330
C1E3
100
AcDbEntity
  8
1
  6
Continuous
100
AcDbCircle
 10
35.584401
 20
291.933286
 30
0.0
 40
0.1185
100
AcDbArc
 50
270.0
 51
90.0
  0
LINE
  5
C305
330
C1E3
100
AcDbEntity
  8
1
  6
Continuous
100
AcDbLine
 10
29.530644
 20
292.2882529999998
 30
0.0
 11
35.584401
 21
292.0517859999998
 31
0.0
  0
LINE
  5
C306
330
C1E3
100
AcDbEntity
  8
1
  6
Continuous
100
AcDbLine
 10
32.55290099999999
 20
291.8147859999999
 30
0.0
 11
29.521401
 21
292.0516139999999
 31
0.0
  0
ARC
  5
C307
330
C1E3
100
AcDbEntity
  8
1
  6
Continuous
100
AcDbCircle
 10
29.505651
 20
293.0442259999999
 30
0.0
 40
0.10275
100
AcDbArc
 50
90.0
 51
270.0
  0
ARC
  5
C308
330
C1E3
100
AcDbEntity
  8
1
  6
Continuous
100
AcDbCircle
 10
35.60015099999999
 20
292.838409
 30
0.0
 40
0.10275
100
AcDbArc
 50
270.0
 51
90.0
  0
LINE
  5
C309
330
C1E3
100
AcDbEntity
  8
1
  6
Continuous
100
AcDbLine
 10
29.505651
 20
293.146976
 30
0.0
 11
35.60015099999999
 21
292.9411589999999
 31
0.0
  0
LINE
  5
C30A
330
C1E3
100
AcDbEntity
  8
1
  6
Continuous
100
AcDbLine
 10
29.505651
 20
292.9414759999999
 30
0.0
 11
32.55290099999999
 21
292.735659
 31
0.0
  0
ARC
  5
C30B
330
C1E3
100
AcDbEntity
  8
1
  6
Continuous
100
AcDbCircle
 10
35.61490100000001
 20
293.620358
 30
0.0
 40
0.088
100
AcDbArc
 50
270.0
 51
90.0
  0
ARC
  5
C30C
330
C1E3
100
AcDbEntity
  8
1
  6
Continuous
100
AcDbCircle
 10
29.490901
 20
293.7960519999998
 30
0.0
 40
0.088
100
AcDbArc
 50
86.71334399999997
 51
270.0
  0
LINE
  5
C30D
330
C1E3
100
AcDbEntity
  8
1
  6
Continuous
100
AcDbLine
 10
29.49594600000001
 20
293.8839069999999
 30
0.0
 11
35.61490100000001
 21
293.7083579999999
 31
0.0
  0
LINE
  5
C30E
330
C1E3
100
AcDbEntity
  8
1
  6
Continuous
100
AcDbLine
 10
29.490901
 20
293.708052
 30
0.0
 11
32.55290099999999
 21
293.532358
 31
0.0
  0
ARC
  5
C30F
330
C1E3
100
AcDbEntity
  8
1
  6
Continuous
100
AcDbCircle
 10
29.465151
 20
294.442547
 30
0.0
 40
0.06225
100
AcDbArc
 50
90.0
 51
270.0
  0
ARC
  5
C310
330
C1E3
100
AcDbEntity
  8
1
  6
Continuous
100
AcDbCircle
 10
35.640651
 20
294.272646
 30
0.0
 40
0.06225
100
AcDbArc
 50
270.0
 51
90.0
  0
LINE
  5
C311
330
C1E3
100
AcDbEntity
  8
1
  6
Continuous
100
AcDbLine
 10
29.465151
 20
294.504797
 30
0.0
 11
35.640651
 21
294.334896
 31
0.0
  0
LINE
  5
C312
330
C1E3
100
AcDbEntity
  8
1
  6
Continuous
100
AcDbLine
 10
32.55290099999999
 20
294.210396
 30
0.0
 11
29.465151
 21
294.3802969999999
 31
0.0
  0
ARC
  5
C313
330
C1E3
100
AcDbEntity
  8
1
  6
Continuous
100
AcDbCircle
 10
29.43265099999999
 20
294.9834259999999
 30
0.0
 40
0.02975
100
AcDbArc
 50
86.70546800000003
 51
270.0
  0
ARC
  5
C314
330
C1E3
100
AcDbEntity
  8
1
  6
Continuous
100
AcDbCircle
 10
35.673151
 20
294.803961
 30
0.0
 40
0.02975
100
AcDbArc
 50
270.0
 51
90.0
  0
LINE
  5
C315
330
C1E3
100
AcDbEntity
  8
1
  6
Continuous
100
AcDbLine
 10
35.673151
 20
294.833711
 30
0.0
 11
29.43436
 21
295.0131269999999
 31
0.0
  0
LINE
  5
C316
330
C1E3
100
AcDbEntity
  8
1
  6
Continuous
100
AcDbLine
 10
29.43265099999999
 20
294.9536759999999
 30
0.0
 11
32.55290099999999
 21
294.7742109999999
 31
0.0
  0
LINE
  5
C317
330
C1E3
100
AcDbEntity
  8
1
  6
Continuous
100
AcDbLine
 10
32.55290099999999
 20
295.5716649999999
 30
0.0
 11
35.669651
 21
295.5716649999999
 31
0.0
  0
ARC
  5
C318
330
C1E3
100
AcDbEntity
  8
1
  6
Continuous
100
AcDbCircle
 10
29.436151
 20
295.671295
 30
0.0
 40
0.03325
100
AcDbArc
 50
88.77976600000001
 51
270.0
  0
LINE
  5
C319
330
C1E3
100
AcDbEntity
  8
1
  6
Continuous
100
AcDbLine
 10
29.436859
 20
295.704537
 30
0.0
 11
35.669651
 21
295.638165
 31
0.0
  0
LINE
  5
C31A
330
C1E3
100
AcDbEntity
  8
1
  6
Continuous
100
AcDbLine
 10
32.55290099999999
 20
295.5716649999999
 30
0.0
 11
29.436151
 21
295.6380449999999
 31
0.0
  0
ARC
  5
C31B
330
C1E3
100
AcDbEntity
  8
1
  6
Continuous
100
AcDbCircle
 10
29.449151
 20
295.366054
 30
0.0
 40
0.04625
100
AcDbArc
 50
88.292947
 51
270.0
  0
LINE
  5
C31C
330
C1E3
100
AcDbEntity
  8
1
  6
Continuous
100
AcDbLine
 10
35.65665099999999
 20
295.3198249999999
 30
0.0
 11
29.450529
 21
295.412283
 31
0.0
  0
LINE
  5
C31D
330
C1E3
100
AcDbEntity
  8
1
  6
Continuous
100
AcDbLine
 10
29.449151
 20
295.3198039999999
 30
0.0
 11
32.55290099999999
 21
295.227325
 31
0.0
  0
LINE
  5
C31E
330
C1E3
100
AcDbEntity
  8
1
  6
Continuous
100
AcDbLine
 10
29.901777
 20
265.028911
 30
0.0
 11
35.53931099999999
 21
264.4354859999999
 31
0.0
  0
LINE
  5
C31F
330
C1E3
100
AcDbEntity
  8
1
  6
Continuous
100
AcDbLine
 10
29.901777
 20
267.4289109999999
 30
0.0
 11
35.53931099999999
 21
266.8354859999999
 31
0.0
  0
LINE
  5
C320
330
C1E3
100
AcDbEntity
  8
1
  6
Continuous
100
AcDbLine
 10
29.901777
 20
269.828911
 30
0.0
 11
35.53931099999999
 21
269.235486
 31
0.0
  0
LINE
  5
C321
330
C1E3
100
AcDbEntity
  8
1
  6
Continuous
100
AcDbLine
 10
29.901777
 20
272.2289109999999
 30
0.0
 11
35.53931099999999
 21
271.635486
 31
0.0
  0
LINE
  5
C322
330
C1E3
100
AcDbEntity
  8
1
  6
Continuous
100
AcDbLine
 10
29.901777
 20
274.6289109999998
 30
0.0
 11
35.53931099999999
 21
274.035486
 31
0.0
  0
LINE
  5
C323
330
C1E3
100
AcDbEntity
  8
1
  6
Continuous
100
AcDbLine
 10
29.901777
 20
277.0289109999998
 30
0.0
 11
35.53931099999999
 21
276.4354859999999
 31
0.0
  0
LINE
  5
C324
330
C1E3
100
AcDbEntity
  8
1
  6
Continuous
100
AcDbLine
 10
29.901777
 20
279.4289109999999
 30
0.0
 11
35.53931099999999
 21
278.835486
 31
0.0
  0
LINE
  5
C325
330
C1E3
100
AcDbEntity
  8
1
  6
Continuous
100
AcDbLine
 10
29.83931099999999
 20
264.4354859999999
 30
0.0
 11
32.536479
 21
263.867661
 31
0.0
  0
ARC
  5
C326
330
C1E3
100
AcDbEntity
  8
1
  6
Continuous
100
AcDbCircle
 10
29.83931099999999
 20
264.7354859999999
 30
0.0
 40
0.3
100
AcDbArc
 50
77.981988
 51
270.0
  0
ARC
  5
C327
330
C1E3
100
AcDbEntity
  8
1
  6
Continuous
100
AcDbCircle
 10
29.83931099999999
 20
267.135486
 30
0.0
 40
0.3
100
AcDbArc
 50
77.981988
 51
270.0
  0
LINE
  5
C328
330
C1E3
100
AcDbEntity
  8
1
  6
Continuous
100
AcDbLine
 10
29.83931099999999
 20
266.8354859999999
 30
0.0
 11
32.536479
 21
266.2676609999999
 31
0.0
  0
LINE
  5
C329
330
C1E3
100
AcDbEntity
  8
1
  6
Continuous
100
AcDbLine
 10
29.83931099999999
 20
269.235486
 30
0.0
 11
32.536479
 21
268.667661
 31
0.0
  0
ARC
  5
C32A
330
C1E3
100
AcDbEntity
  8
1
  6
Continuous
100
AcDbCircle
 10
29.83931099999999
 20
269.535486
 30
0.0
 40
0.3
100
AcDbArc
 50
77.981988
 51
270.0
  0
ARC
  5
C32B
330
C1E3
100
AcDbEntity
  8
1
  6
Continuous
100
AcDbCircle
 10
29.83931099999999
 20
271.9354859999999
 30
0.0
 40
0.3
100
AcDbArc
 50
77.981988
 51
270.0
  0
LINE
  5
C32C
330
C1E3
100
AcDbEntity
  8
1
  6
Continuous
100
AcDbLine
 10
29.83931099999999
 20
271.635486
 30
0.0
 11
32.536479
 21
271.0676609999998
 31
0.0
  0
LINE
  5
C32D
330
C1E3
100
AcDbEntity
  8
1
  6
Continuous
100
AcDbLine
 10
29.83931099999999
 20
274.035486
 30
0.0
 11
32.536479
 21
273.4676609999999
 31
0.0
  0
ARC
  5
C32E
330
C1E3
100
AcDbEntity
  8
1
  6
Continuous
100
AcDbCircle
 10
29.83931099999999
 20
274.335486
 30
0.0
 40
0.3
100
AcDbArc
 50
77.981988
 51
270.0
  0
ARC
  5
C32F
330
C1E3
100
AcDbEntity
  8
1
  6
Continuous
100
AcDbCircle
 10
29.83931099999999
 20
276.7354859999999
 30
0.0
 40
0.3
100
AcDbArc
 50
77.981988
 51
270.0
  0
LINE
  5
C330
330
C1E3
100
AcDbEntity
  8
1
  6
Continuous
100
AcDbLine
 10
29.83931099999999
 20
276.4354859999999
 30
0.0
 11
32.536479
 21
275.867661
 31
0.0
  0
LINE
  5
C331
330
C1E3
100
AcDbEntity
  8
1
  6
Continuous
100
AcDbLine
 10
29.83931099999999
 20
278.835486
 30
0.0
 11
32.536479
 21
278.2676609999999
 31
0.0
  0
ARC
  5
C332
330
C1E3
100
AcDbEntity
  8
1
  6
Continuous
100
AcDbCircle
 10
29.83931099999999
 20
279.135486
 30
0.0
 40
0.3
100
AcDbArc
 50
77.981988
 51
270.0
  0
LINE
  5
C333
330
C1E3
100
AcDbEntity
  8
1
  6
Continuous
100
AcDbLine
 10
29.901777
 20
281.828911
 30
0.0
 11
35.53931099999999
 21
281.2354859999999
 31
0.0
  0
LINE
  5
C334
330
C1E3
100
AcDbEntity
  8
1
  6
Continuous
100
AcDbLine
 10
29.901777
 20
284.2289109999999
 30
0.0
 11
35.53931099999999
 21
283.635486
 31
0.0
  0
ARC
  5
C335
330
C1E3
100
AcDbEntity
  8
1
  6
Continuous
100
AcDbCircle
 10
29.83931099999999
 20
281.5354859999998
 30
0.0
 40
0.3
100
AcDbArc
 50
77.981988
 51
270.0
  0
LINE
  5
C336
330
C1E3
100
AcDbEntity
  8
1
  6
Continuous
100
AcDbLine
 10
29.83931099999999
 20
281.2354859999999
 30
0.0
 11
32.536479
 21
280.667661
 31
0.0
  0
ARC
  5
C337
330
C1E3
100
AcDbEntity
  8
1
  6
Continuous
100
AcDbCircle
 10
29.83931099999999
 20
283.9354859999999
 30
0.0
 40
0.3
100
AcDbArc
 50
77.981988
 51
270.0
  0
LINE
  5
C338
330
C1E3
100
AcDbEntity
  8
1
  6
Continuous
100
AcDbLine
 10
29.83931099999999
 20
283.635486
 30
0.0
 11
32.536479
 21
283.0676609999999
 31
0.0
  0
LINE
  5
C339
330
C1E3
100
AcDbEntity
  8
1
  6
Continuous
100
AcDbLine
 10
32.845494
 20
263.835486
 30
0.0
 11
35.53931099999999
 21
263.835486
 31
0.0
  0
LINE
  5
C33A
330
C1E3
100
AcDbEntity
  8
1
  6
Continuous
100
AcDbLine
 10
32.845494
 20
266.2354859999999
 30
0.0
 11
35.53931099999999
 21
266.2354859999999
 31
0.0
  0
LINE
  5
C33B
330
C1E3
100
AcDbEntity
  8
1
  6
Continuous
100
AcDbLine
 10
32.845494
 20
268.635486
 30
0.0
 11
35.53931099999999
 21
268.635486
 31
0.0
  0
LINE
  5
C33C
330
C1E3
100
AcDbEntity
  8
1
  6
Continuous
100
AcDbLine
 10
32.845494
 20
271.0354859999998
 30
0.0
 11
35.53931099999999
 21
271.0354859999998
 31
0.0
  0
LINE
  5
C33D
330
C1E3
100
AcDbEntity
  8
1
  6
Continuous
100
AcDbLine
 10
32.845494
 20
273.4354859999999
 30
0.0
 11
35.53931099999999
 21
273.4354859999999
 31
0.0
  0
LINE
  5
C33E
330
C1E3
100
AcDbEntity
  8
1
  6
Continuous
100
AcDbLine
 10
32.845494
 20
275.835486
 30
0.0
 11
35.53931099999999
 21
275.835486
 31
0.0
  0
LINE
  5
C33F
330
C1E3
100
AcDbEntity
  8
1
  6
Continuous
100
AcDbLine
 10
32.845494
 20
278.2354859999999
 30
0.0
 11
35.53931099999999
 21
278.2354859999999
 31
0.0
  0
ARC
  5
C340
330
C1E3
100
AcDbEntity
  8
1
  6
Continuous
100
AcDbCircle
 10
35.53931099999999
 20
264.135486
 30
0.0
 40
0.3
100
AcDbArc
 50
270.0
 51
90.0
  0
ARC
  5
C341
330
C1E3
100
AcDbEntity
  8
1
  6
Continuous
100
AcDbCircle
 10
35.53931099999999
 20
266.5354859999998
 30
0.0
 40
0.3
100
AcDbArc
 50
270.0
 51
90.0
  0
ARC
  5
C342
330
C1E3
100
AcDbEntity
  8
1
  6
Continuous
100
AcDbCircle
 10
35.53931099999999
 20
268.9354859999999
 30
0.0
 40
0.3
100
AcDbArc
 50
270.0
 51
90.0
  0
ARC
  5
C343
330
C1E3
100
AcDbEntity
  8
1
  6
Continuous
100
AcDbCircle
 10
35.53931099999999
 20
271.3354859999999
 30
0.0
 40
0.3
100
AcDbArc
 50
270.0
 51
90.0
  0
ARC
  5
C344
330
C1E3
100
AcDbEntity
  8
1
  6
Continuous
100
AcDbCircle
 10
35.53931099999999
 20
273.7354859999999
 30
0.0
 40
0.3
100
AcDbArc
 50
270.0
 51
90.0
  0
ARC
  5
C345
330
C1E3
100
AcDbEntity
  8
1
  6
Continuous
100
AcDbCircle
 10
35.53931099999999
 20
276.135486
 30
0.0
 40
0.3
100
AcDbArc
 50
270.0
 51
90.0
  0
ARC
  5
C346
330
C1E3
100
AcDbEntity
  8
1
  6
Continuous
100
AcDbCircle
 10
35.53931099999999
 20
278.5354859999998
 30
0.0
 40
0.3
100
AcDbArc
 50
270.0
 51
90.0
  0
LINE
  5
C347
330
C1E3
100
AcDbEntity
  8
1
  6
Continuous
100
AcDbLine
 10
32.845494
 20
280.635486
 30
0.0
 11
35.53931099999999
 21
280.635486
 31
0.0
  0
LINE
  5
C348
330
C1E3
100
AcDbEntity
  8
1
  6
Continuous
100
AcDbLine
 10
32.845494
 20
283.0354859999999
 30
0.0
 11
35.53931099999999
 21
283.0354859999999
 31
0.0
  0
ARC
  5
C349
330
C1E3
100
AcDbEntity
  8
1
  6
Continuous
100
AcDbCircle
 10
35.53931099999999
 20
280.9354859999999
 30
0.0
 40
0.3
100
AcDbArc
 50
270.0
 51
90.0
  0
ARC
  5
C34A
330
C1E3
100
AcDbEntity
  8
1
  6
Continuous
100
AcDbCircle
 10
35.53931099999999
 20
283.335486
 30
0.0
 40
0.3
100
AcDbArc
 50
270.0
 51
90.0
  0
ARC
  5
C34B
330
C1E3
100
AcDbEntity
  8
1
  6
Continuous
100
AcDbCircle
 10
32.845494
 20
265.3354859999998
 30
0.0
 40
1.5
100
AcDbArc
 50
258.1113419999999
 51
270.0
  0
ARC
  5
C34C
330
C1E3
100
AcDbEntity
  8
1
  6
Continuous
100
AcDbCircle
 10
32.845494
 20
267.7354859999999
 30
0.0
 40
1.5
100
AcDbArc
 50
258.1113419999999
 51
270.0
  0
ARC
  5
C34D
330
C1E3
100
AcDbEntity
  8
1
  6
Continuous
100
AcDbCircle
 10
32.845494
 20
270.135486
 30
0.0
 40
1.5
100
AcDbArc
 50
258.1113419999999
 51
270.0
  0
ARC
  5
C34E
330
C1E3
100
AcDbEntity
  8
1
  6
Continuous
100
AcDbCircle
 10
32.845494
 20
272.5354859999999
 30
0.0
 40
1.5
100
AcDbArc
 50
258.1113419999999
 51
270.0
  0
ARC
  5
C34F
330
C1E3
100
AcDbEntity
  8
1
  6
Continuous
100
AcDbCircle
 10
32.845494
 20
274.9354859999999
 30
0.0
 40
1.5
100
AcDbArc
 50
258.1113419999999
 51
270.0
  0
ARC
  5
C350
330
C1E3
100
AcDbEntity
  8
1
  6
Continuous
100
AcDbCircle
 10
32.845494
 20
277.3354859999999
 30
0.0
 40
1.5
100
AcDbArc
 50
258.1113419999999
 51
270.0
  0
ARC
  5
C351
330
C1E3
100
AcDbEntity
  8
1
  6
Continuous
100
AcDbCircle
 10
32.845494
 20
279.7354859999999
 30
0.0
 40
1.5
100
AcDbArc
 50
258.1113419999999
 51
270.0
  0
ARC
  5
C352
330
C1E3
100
AcDbEntity
  8
1
  6
Continuous
100
AcDbCircle
 10
32.845494
 20
282.1354859999999
 30
0.0
 40
1.5
100
AcDbArc
 50
258.1113419999999
 51
270.0
  0
ARC
  5
C353
330
C1E3
100
AcDbEntity
  8
1
  6
Continuous
100
AcDbCircle
 10
32.845494
 20
284.535486
 30
0.0
 40
1.5
100
AcDbArc
 50
258.1113419999999
 51
270.0
  0
LINE
  5
C354
330
C1E3
100
AcDbEntity
  8
1
  6
Continuous
100
AcDbLine
 10
159.114058
 20
357.284556
 30
0.0
 11
158.520634
 21
351.647021
 31
0.0
  0
LINE
  5
C355
330
C1E3
100
AcDbEntity
  8
1
  6
Continuous
100
AcDbLine
 10
161.514058
 20
357.284556
 30
0.0
 11
160.920634
 21
351.647021
 31
0.0
  0
LINE
  5
C356
330
C1E3
100
AcDbEntity
  8
1
  6
Continuous
100
AcDbLine
 10
163.914058
 20
357.284556
 30
0.0
 11
163.320634
 21
351.647021
 31
0.0
  0
LINE
  5
C357
330
C1E3
100
AcDbEntity
  8
1
  6
Continuous
100
AcDbLine
 10
158.520634
 20
357.3470209999999
 30
0.0
 11
157.952809
 21
354.6498539999998
 31
0.0
  0
ARC
  5
C358
330
C1E3
100
AcDbEntity
  8
1
  6
Continuous
100
AcDbCircle
 10
158.820634
 20
357.3470209999999
 30
0.0
 40
0.3
100
AcDbArc
 50
347.9819879999998
 51
180.0
  0
ARC
  5
C359
330
C1E3
100
AcDbEntity
  8
1
  6
Continuous
100
AcDbCircle
 10
161.220634
 20
357.3470209999999
 30
0.0
 40
0.3
100
AcDbArc
 50
347.9819879999998
 51
180.0
  0
LINE
  5
C35A
330
C1E3
100
AcDbEntity
  8
1
  6
Continuous
100
AcDbLine
 10
160.920634
 20
357.3470209999999
 30
0.0
 11
160.352809
 21
354.6498539999998
 31
0.0
  0
LINE
  5
C35B
330
C1E3
100
AcDbEntity
  8
1
  6
Continuous
100
AcDbLine
 10
163.320634
 20
357.3470209999999
 30
0.0
 11
162.752809
 21
354.6498539999998
 31
0.0
  0
ARC
  5
C35C
330
C1E3
100
AcDbEntity
  8
1
  6
Continuous
100
AcDbCircle
 10
163.620634
 20
357.3470209999999
 30
0.0
 40
0.3
100
AcDbArc
 50
347.9819879999998
 51
180.0
  0
LINE
  5
C35D
330
C1E3
100
AcDbEntity
  8
1
  6
Continuous
100
AcDbLine
 10
157.9206339999998
 20
354.340839
 30
0.0
 11
157.9206339999998
 21
351.647021
 31
0.0
  0
LINE
  5
C35E
330
C1E3
100
AcDbEntity
  8
1
  6
Continuous
100
AcDbLine
 10
160.320634
 20
354.340839
 30
0.0
 11
160.320634
 21
351.647021
 31
0.0
  0
LINE
  5
C35F
330
C1E3
100
AcDbEntity
  8
1
  6
Continuous
100
AcDbLine
 10
162.7206339999999
 20
354.340839
 30
0.0
 11
162.7206339999999
 21
351.647021
 31
0.0
  0
ARC
  5
C360
330
C1E3
100
AcDbEntity
  8
1
  6
Continuous
100
AcDbCircle
 10
158.2206339999999
 20
351.647021
 30
0.0
 40
0.3
100
AcDbArc
 50
180.0
 51
0.0
  0
ARC
  5
C361
330
C1E3
100
AcDbEntity
  8
1
  6
Continuous
100
AcDbCircle
 10
160.6206339999999
 20
351.647021
 30
0.0
 40
0.3
100
AcDbArc
 50
180.0
 51
0.0
  0
ARC
  5
C362
330
C1E3
100
AcDbEntity
  8
1
  6
Continuous
100
AcDbCircle
 10
163.0206339999998
 20
351.647021
 30
0.0
 40
0.3
100
AcDbArc
 50
180.0
 51
0.0
  0
ARC
  5
C363
330
C1E3
100
AcDbEntity
  8
1
  6
Continuous
100
AcDbCircle
 10
159.420634
 20
354.340839
 30
0.0
 40
1.5
100
AcDbArc
 50
168.1113419999998
 51
180.0
  0
ARC
  5
C364
330
C1E3
100
AcDbEntity
  8
1
  6
Continuous
100
AcDbCircle
 10
161.820634
 20
354.340839
 30
0.0
 40
1.5
100
AcDbArc
 50
168.1113419999998
 51
180.0
  0
ARC
  5
C365
330
C1E3
100
AcDbEntity
  8
1
  6
Continuous
100
AcDbCircle
 10
164.2206339999999
 20
354.340839
 30
0.0
 40
1.5
100
AcDbArc
 50
168.1113419999998
 51
180.0
  0
LINE
  5
C366
330
C1E3
100
AcDbEntity
  8
1
  6
Continuous
100
AcDbLine
 10
226.3074589999999
 20
354.1583949999999
 30
0.0
 11
226.3074589999999
 21
351.4645779999999
 31
0.0
  0
LINE
  5
C367
330
C1E3
100
AcDbEntity
  8
1
  6
Continuous
100
AcDbLine
 10
227.5008839999999
 20
357.1021119999999
 30
0.0
 11
226.9074589999999
 21
351.4645779999999
 31
0.0
  0
LINE
  5
C368
330
C1E3
100
AcDbEntity
  8
1
  6
Continuous
100
AcDbLine
 10
228.7074589999999
 20
354.1583949999999
 30
0.0
 11
228.7074589999999
 21
351.4645779999999
 31
0.0
  0
LINE
  5
C369
330
C1E3
100
AcDbEntity
  8
1
  6
Continuous
100
AcDbLine
 10
229.9008839999999
 20
357.1021119999999
 30
0.0
 11
229.3074589999999
 21
351.4645779999999
 31
0.0
  0
LINE
  5
C36A
330
C1E3
100
AcDbEntity
  8
1
  6
Continuous
100
AcDbLine
 10
231.107459
 20
354.1583949999999
 30
0.0
 11
231.107459
 21
351.4645779999999
 31
0.0
  0
LINE
  5
C36B
330
C1E3
100
AcDbEntity
  8
1
  6
Continuous
100
AcDbLine
 10
232.3008839999999
 20
357.1021119999999
 30
0.0
 11
231.7074589999998
 21
351.4645779999999
 31
0.0
  0
LINE
  5
C36C
330
C1E3
100
AcDbEntity
  8
1
  6
Continuous
100
AcDbLine
 10
233.507459
 20
354.1583949999999
 30
0.0
 11
233.507459
 21
351.4645779999999
 31
0.0
  0
LINE
  5
C36D
330
C1E3
100
AcDbEntity
  8
1
  6
Continuous
100
AcDbLine
 10
234.7008839999999
 20
357.1021119999999
 30
0.0
 11
234.1074589999998
 21
351.4645779999999
 31
0.0
  0
ARC
  5
C36E
330
C1E3
100
AcDbEntity
  8
1
  6
Continuous
100
AcDbCircle
 10
226.6074589999998
 20
351.4645779999999
 30
0.0
 40
0.3
100
AcDbArc
 50
180.0
 51
0.0
  0
ARC
  5
C36F
330
C1E3
100
AcDbEntity
  8
1
  6
Continuous
100
AcDbCircle
 10
229.0074589999999
 20
351.4645779999999
 30
0.0
 40
0.3
100
AcDbArc
 50
180.0
 51
0.0
  0
ARC
  5
C370
330
C1E3
100
AcDbEntity
  8
1
  6
Continuous
100
AcDbCircle
 10
231.407459
 20
351.4645779999999
 30
0.0
 40
0.3
100
AcDbArc
 50
180.0
 51
0.0
  0
ARC
  5
C371
330
C1E3
100
AcDbEntity
  8
1
  6
Continuous
100
AcDbCircle
 10
233.807459
 20
351.4645779999999
 30
0.0
 40
0.3
100
AcDbArc
 50
180.0
 51
0.0
  0
ARC
  5
C372
330
C1E3
100
AcDbEntity
  8
1
  6
Continuous
100
AcDbCircle
 10
227.807459
 20
354.1583949999999
 30
0.0
 40
1.5
100
AcDbArc
 50
168.1113419999998
 51
180.0
  0
ARC
  5
C373
330
C1E3
100
AcDbEntity
  8
1
  6
Continuous
100
AcDbCircle
 10
227.2074589999999
 20
357.164578
 30
0.0
 40
0.3
100
AcDbArc
 50
347.9819879999998
 51
180.0
  0
LINE
  5
C374
330
C1E3
100
AcDbEntity
  8
1
  6
Continuous
100
AcDbLine
 10
226.9074589999999
 20
357.164578
 30
0.0
 11
226.3396349999999
 21
354.4674109999998
 31
0.0
  0
ARC
  5
C375
330
C1E3
100
AcDbEntity
  8
1
  6
Continuous
100
AcDbCircle
 10
230.2074589999998
 20
354.1583949999999
 30
0.0
 40
1.5
100
AcDbArc
 50
168.1113419999998
 51
180.0
  0
LINE
  5
C376
330
C1E3
100
AcDbEntity
  8
1
  6
Continuous
100
AcDbLine
 10
229.3074589999999
 20
357.164578
 30
0.0
 11
228.7396349999999
 21
354.4674109999998
 31
0.0
  0
ARC
  5
C377
330
C1E3
100
AcDbEntity
  8
1
  6
Continuous
100
AcDbCircle
 10
229.6074589999999
 20
357.164578
 30
0.0
 40
0.3
100
AcDbArc
 50
347.9819879999998
 51
180.0
  0
ARC
  5
C378
330
C1E3
100
AcDbEntity
  8
1
  6
Continuous
100
AcDbCircle
 10
232.6074589999998
 20
354.1583949999999
 30
0.0
 40
1.5
100
AcDbArc
 50
168.1113419999998
 51
180.0
  0
ARC
  5
C379
330
C1E3
100
AcDbEntity
  8
1
  6
Continuous
100
AcDbCircle
 10
232.0074589999999
 20
357.164578
 30
0.0
 40
0.3
100
AcDbArc
 50
347.9819879999998
 51
180.0
  0
LINE
  5
C37A
330
C1E3
100
AcDbEntity
  8
1
  6
Continuous
100
AcDbLine
 10
231.7074589999998
 20
357.164578
 30
0.0
 11
231.1396349999998
 21
354.4674109999998
 31
0.0
  0
ARC
  5
C37B
330
C1E3
100
AcDbEntity
  8
1
  6
Continuous
100
AcDbCircle
 10
235.0074589999999
 20
354.1583949999999
 30
0.0
 40
1.5
100
AcDbArc
 50
168.1113419999998
 51
180.0
  0
LINE
  5
C37C
330
C1E3
100
AcDbEntity
  8
1
  6
Continuous
100
AcDbLine
 10
234.1074589999998
 20
357.164578
 30
0.0
 11
233.5396349999999
 21
354.4674109999998
 31
0.0
  0
ARC
  5
C37D
330
C1E3
100
AcDbEntity
  8
1
  6
Continuous
100
AcDbCircle
 10
234.4074589999999
 20
357.164578
 30
0.0
 40
0.3
100
AcDbArc
 50
347.9819879999998
 51
180.0
  0
ARC
  5
C37E
330
C1E3
100
AcDbEntity
  8
1
  6
Continuous
100
AcDbCircle
 10
366.6126409999998
 20
293.2285089999999
 30
0.0
 40
0.21525
100
AcDbArc
 50
81.619662
 51
270.0
  0
ARC
  5
C37F
330
C1E3
100
AcDbEntity
  8
1
  6
Continuous
100
AcDbCircle
 10
366.589647
 20
294.50831
 30
0.0
 40
0.19225
100
AcDbArc
 50
90.0
 51
270.0
  0
LINE
  5
C380
330
C1E3
100
AcDbEntity
  8
1
  6
Continuous
100
AcDbLine
 10
372.482141
 20
292.5832419999998
 30
0.0
 11
366.6126409999998
 21
293.0132589999999
 31
0.0
  0
LINE
  5
C381
330
C1E3
100
AcDbEntity
  8
1
  6
Continuous
100
AcDbLine
 10
366.6440119999998
 20
293.441461
 30
0.0
 11
369.547391
 21
293.441461
 31
0.0
  0
LINE
  5
C382
330
C1E3
100
AcDbEntity
  8
1
  6
Continuous
100
AcDbLine
 10
366.589647
 20
294.70056
 30
0.0
 11
369.547397
 21
294.70056
 31
0.0
  0
LINE
  5
C383
330
C1E3
100
AcDbEntity
  8
1
  6
Continuous
100
AcDbLine
 10
372.505147
 20
293.9314819999998
 30
0.0
 11
366.589647
 21
294.31606
 31
0.0
  0
ARC
  5
C384
330
C1E3
100
AcDbEntity
  8
1
  6
Continuous
100
AcDbCircle
 10
372.482141
 20
292.798492
 30
0.0
 40
0.21525
100
AcDbArc
 50
270.0
 51
90.0
  0
LINE
  5
C385
330
C1E3
100
AcDbEntity
  8
1
  6
Continuous
100
AcDbLine
 10
372.482141
 20
293.0137419999999
 30
0.0
 11
369.547391
 21
293.441461
 31
0.0
  0
LINE
  5
C386
330
C1E3
100
AcDbEntity
  8
1
  6
Continuous
100
AcDbLine
 10
372.505147
 20
294.3159819999999
 30
0.0
 11
369.547397
 21
294.70056
 31
0.0
  0
ARC
  5
C387
330
C1E3
100
AcDbEntity
  8
1
  6
Continuous
100
AcDbCircle
 10
372.505147
 20
294.1237319999999
 30
0.0
 40
0.19225
100
AcDbArc
 50
270.0
 51
90.0
  0
LINE
  5
C388
330
C1E3
100
AcDbEntity
  8
1
  6
Continuous
100
AcDbLine
 10
35.65671599999999
 20
295.913698
 30
0.0
 11
29.45059399999999
 21
296.0061559999999
 31
0.0
  0
LINE
  5
C389
330
C1E3
100
AcDbEntity
  8
1
  6
Continuous
100
AcDbLine
 10
32.55296599999999
 20
295.8211979999999
 30
0.0
 11
35.65671599999999
 21
295.8211979999999
 31
0.0
  0
LINE
  5
C38A
330
C1E3
100
AcDbEntity
  8
1
  6
Continuous
100
AcDbLine
 10
29.43692399999999
 20
296.2984099999999
 30
0.0
 11
35.669716
 21
296.2320379999998
 31
0.0
  0
LINE
  5
C38B
330
C1E3
100
AcDbEntity
  8
1
  6
Continuous
100
AcDbLine
 10
32.55296599999999
 20
296.1655379999999
 30
0.0
 11
35.669716
 21
296.1655379999999
 31
0.0
  0
LINE
  5
C38C
330
C1E3
100
AcDbEntity
  8
1
  6
Continuous
100
AcDbLine
 10
29.44921599999998
 20
295.913677
 30
0.0
 11
32.55296599999999
 21
295.8211979999999
 31
0.0
  0
ARC
  5
C38D
330
C1E3
100
AcDbEntity
  8
1
  6
Continuous
100
AcDbCircle
 10
29.44921599999998
 20
295.959927
 30
0.0
 40
0.04625
100
AcDbArc
 50
88.292947
 51
270.0
  0
LINE
  5
C38E
330
C1E3
100
AcDbEntity
  8
1
  6
Continuous
100
AcDbLine
 10
32.55296599999999
 20
296.1655379999999
 30
0.0
 11
29.436216
 21
296.231918
 31
0.0
  0
ARC
  5
C38F
330
C1E3
100
AcDbEntity
  8
1
  6
Continuous
100
AcDbCircle
 10
29.436216
 20
296.265168
 30
0.0
 40
0.03325
100
AcDbArc
 50
88.77976600000001
 51
270.0
  0
LINE
  5
C390
330
C1E3
100
AcDbEntity
  8
1
  6
Continuous
100
AcDbLine
 10
372.6875589999999
 20
295.158501
 30
0.0
 11
371.068019
 21
295.221762
 31
0.0
  0
ARC
  5
C391
330
C1E3
100
AcDbEntity
  8
1
  6
Continuous
100
AcDbCircle
 10
366.6338019999998
 20
295.513468
 30
0.0
 40
0.1185
100
AcDbArc
 50
90.0
 51
270.0
  0
LINE
  5
C392
330
C1E3
100
AcDbEntity
  8
1
  6
Continuous
100
AcDbLine
 10
367.340346
 20
295.6319679999999
 30
0.0
 11
366.6338019999998
 21
295.6319679999999
 31
0.0
  0
LINE
  5
C393
330
C1E3
100
AcDbEntity
  8
1
  6
Continuous
100
AcDbLine
 10
371.786556
 20
295.4662509999998
 30
0.0
 11
372.696802
 21
295.3951399999999
 31
0.0
  0
ARC
  5
C394
330
C1E3
100
AcDbEntity
  8
1
  6
Continuous
100
AcDbCircle
 10
372.696802
 20
295.2766399999998
 30
0.0
 40
0.1185
100
AcDbArc
 50
265.5261939999999
 51
90.0
  0
ARC
  5
C395
330
C1E3
100
AcDbEntity
  8
1
  6
Continuous
100
AcDbCircle
 10
35.53931099999999
 20
261.7166659999999
 30
0.0
 40
0.3
100
AcDbArc
 50
270.0
 51
90.0
  0
LINE
  5
C396
330
C1E3
100
AcDbEntity
  8
1
  6
Continuous
100
AcDbLine
 10
32.75
 20
261.416666
 30
0.0
 11
35.53931099999999
 21
261.416666
 31
0.0
  0
LINE
  5
C397
330
C1E3
100
AcDbEntity
  8
1
  6
Continuous
100
AcDbLine
 10
29.901777
 20
262.610091
 30
0.0
 11
35.53931099999999
 21
262.0166659999998
 31
0.0
  0
LINE
  5
C398
330
C1E3
100
AcDbEntity
  8
1
  6
Continuous
100
AcDbLine
 10
29.901777
 20
260.2100909999999
 30
0.0
 11
35.53931099999999
 21
259.616666
 31
0.0
  0
LINE
  5
C399
330
C1E3
100
AcDbEntity
  8
1
  6
Continuous
100
AcDbLine
 10
32.75
 20
259.0166659999998
 30
0.0
 11
35.53931099999999
 21
259.0166659999998
 31
0.0
  0
LINE
  5
C39A
330
C1E3
100
AcDbEntity
  8
1
  6
Continuous
100
AcDbLine
 10
32.75
 20
256.6166659999999
 30
0.0
 11
35.53931099999999
 21
256.6166659999999
 31
0.0
  0
LINE
  5
C39B
330
C1E3
100
AcDbEntity
  8
1
  6
Continuous
100
AcDbLine
 10
32.75
 20
254.2166659999999
 30
0.0
 11
35.53931099999999
 21
254.2166659999999
 31
0.0
  0
LINE
  5
C39C
330
C1E3
100
AcDbEntity
  8
1
  6
Continuous
100
AcDbLine
 10
32.75
 20
251.816666
 30
0.0
 11
35.53931099999999
 21
251.816666
 31
0.0
  0
LINE
  5
C39D
330
C1E3
100
AcDbEntity
  8
1
  6
Continuous
100
AcDbLine
 10
29.901777
 20
257.8100909999998
 30
0.0
 11
35.53931099999999
 21
257.2166659999999
 31
0.0
  0
LINE
  5
C39E
330
C1E3
100
AcDbEntity
  8
1
  6
Continuous
100
AcDbLine
 10
29.901777
 20
255.4100909999999
 30
0.0
 11
35.53931099999999
 21
254.816666
 31
0.0
  0
LINE
  5
C39F
330
C1E3
100
AcDbEntity
  8
1
  6
Continuous
100
AcDbLine
 10
29.901777
 20
253.0100909999999
 30
0.0
 11
35.53931099999999
 21
252.416666
 31
0.0
  0
ARC
  5
C3A0
330
C1E3
100
AcDbEntity
  8
1
  6
Continuous
100
AcDbCircle
 10
29.83931099999999
 20
262.3166659999998
 30
0.0
 40
0.3
100
AcDbArc
 50
77.981988
 51
270.0
  0
LINE
  5
C3A1
330
C1E3
100
AcDbEntity
  8
1
  6
Continuous
100
AcDbLine
 10
29.83931099999999
 20
262.0166659999998
 30
0.0
 11
32.75
 21
261.40389
 31
0.0
  0
ARC
  5
C3A2
330
C1E3
100
AcDbEntity
  8
1
  6
Continuous
100
AcDbCircle
 10
29.83931099999999
 20
259.916666
 30
0.0
 40
0.3
100
AcDbArc
 50
77.981988
 51
270.0
  0
ARC
  5
C3A3
330
C1E3
100
AcDbEntity
  8
1
  6
Continuous
100
AcDbCircle
 10
29.83931099999999
 20
257.5166659999998
 30
0.0
 40
0.3
100
AcDbArc
 50
77.981988
 51
270.0
  0
LINE
  5
C3A4
330
C1E3
100
AcDbEntity
  8
1
  6
Continuous
100
AcDbLine
 10
29.83931099999999
 20
257.2166659999999
 30
0.0
 11
32.75
 21
256.6038899999999
 31
0.0
  0
LINE
  5
C3A5
330
C1E3
100
AcDbEntity
  8
1
  6
Continuous
100
AcDbLine
 10
29.83931099999999
 20
254.816666
 30
0.0
 11
32.75
 21
254.20389
 31
0.0
  0
ARC
  5
C3A6
330
C1E3
100
AcDbEntity
  8
1
  6
Continuous
100
AcDbCircle
 10
29.83931099999999
 20
255.116666
 30
0.0
 40
0.3
100
AcDbArc
 50
77.981988
 51
270.0
  0
ARC
  5
C3A7
330
C1E3
100
AcDbEntity
  8
1
  6
Continuous
100
AcDbCircle
 10
29.83931099999999
 20
252.716666
 30
0.0
 40
0.3
100
AcDbArc
 50
77.981988
 51
270.0
  0
LINE
  5
C3A8
330
C1E3
100
AcDbEntity
  8
1
  6
Continuous
100
AcDbLine
 10
29.83931099999999
 20
252.416666
 30
0.0
 11
32.75
 21
251.80389
 31
0.0
  0
LINE
  5
C3A9
330
C1E3
100
AcDbEntity
  8
1
  6
Continuous
100
AcDbLine
 10
29.83931099999999
 20
259.616666
 30
0.0
 11
32.75
 21
259.00389
 31
0.0
  0
ARC
  5
C3AA
330
C1E3
100
AcDbEntity
  8
1
  6
Continuous
100
AcDbCircle
 10
35.53931099999999
 20
256.916666
 30
0.0
 40
0.3
100
AcDbArc
 50
270.0
 51
90.0
  0
ARC
  5
C3AB
330
C1E3
100
AcDbEntity
  8
1
  6
Continuous
100
AcDbCircle
 10
35.53931099999999
 20
254.516666
 30
0.0
 40
0.3
100
AcDbArc
 50
270.0
 51
90.0
  0
ARC
  5
C3AC
330
C1E3
100
AcDbEntity
  8
1
  6
Continuous
100
AcDbCircle
 10
35.53931099999999
 20
252.116666
 30
0.0
 40
0.3
100
AcDbArc
 50
270.0
 51
90.0
  0
ARC
  5
C3AD
330
C1E3
100
AcDbEntity
  8
1
  6
Continuous
100
AcDbCircle
 10
35.53931099999999
 20
259.316666
 30
0.0
 40
0.3
100
AcDbArc
 50
270.0
 51
90.0
  0
ARC
  5
C3AE
330
C1E3
100
AcDbEntity
  8
1
  6
Continuous
100
AcDbCircle
 10
35.53931099999999
 20
239.818337
 30
0.0
 40
0.3
100
AcDbArc
 50
270.0
 51
90.0
  0
ARC
  5
C3AF
330
C1E3
100
AcDbEntity
  8
1
  6
Continuous
100
AcDbCircle
 10
35.53931099999999
 20
242.2183369999999
 30
0.0
 40
0.3
100
AcDbArc
 50
270.0
 51
90.0
  0
LINE
  5
C3B0
330
C1E3
100
AcDbEntity
  8
1
  6
Continuous
100
AcDbLine
 10
29.901777
 20
240.711762
 30
0.0
 11
35.53931099999999
 21
240.118337
 31
0.0
  0
LINE
  5
C3B1
330
C1E3
100
AcDbEntity
  8
1
  6
Continuous
100
AcDbLine
 10
29.901777
 20
243.111762
 30
0.0
 11
35.53931099999999
 21
242.518337
 31
0.0
  0
LINE
  5
C3B2
330
C1E3
100
AcDbEntity
  8
1
  6
Continuous
100
AcDbLine
 10
32.845494
 20
239.518337
 30
0.0
 11
35.53931099999999
 21
239.518337
 31
0.0
  0
LINE
  5
C3B3
330
C1E3
100
AcDbEntity
  8
1
  6
Continuous
100
AcDbLine
 10
32.68931
 20
241.918337
 30
0.0
 11
35.53931099999999
 21
241.918337
 31
0.0
  0
ARC
  5
C3B4
330
C1E3
100
AcDbEntity
  8
1
  6
Continuous
100
AcDbCircle
 10
35.53931099999999
 20
247.0183369999999
 30
0.0
 40
0.3
100
AcDbArc
 50
270.0
 51
90.0
  0
ARC
  5
C3B5
330
C1E3
100
AcDbEntity
  8
1
  6
Continuous
100
AcDbCircle
 10
35.53931099999999
 20
244.618337
 30
0.0
 40
0.3
100
AcDbArc
 50
270.0
 51
90.0
  0
LINE
  5
C3B6
330
C1E3
100
AcDbEntity
  8
1
  6
Continuous
100
AcDbLine
 10
29.901777
 20
245.511762
 30
0.0
 11
35.53931099999999
 21
244.918337
 31
0.0
  0
LINE
  5
C3B7
330
C1E3
100
AcDbEntity
  8
1
  6
Continuous
100
AcDbLine
 10
32.68931
 20
244.318337
 30
0.0
 11
35.53931099999999
 21
244.318337
 31
0.0
  0
LINE
  5
C3B8
330
C1E3
100
AcDbEntity
  8
1
  6
Continuous
100
AcDbLine
 10
32.68931
 20
246.7183369999999
 30
0.0
 11
35.53931099999999
 21
246.7183369999999
 31
0.0
  0
LINE
  5
C3B9
330
C1E3
100
AcDbEntity
  8
1
  6
Continuous
100
AcDbLine
 10
29.901777
 20
247.911762
 30
0.0
 11
35.53931099999999
 21
247.318337
 31
0.0
  0
LINE
  5
C3BA
330
C1E3
100
AcDbEntity
  8
1
  6
Continuous
100
AcDbLine
 10
29.901777
 20
250.3117619999999
 30
0.0
 11
35.53931099999999
 21
249.718337
 31
0.0
  0
LINE
  5
C3BB
330
C1E3
100
AcDbEntity
  8
1
  6
Continuous
100
AcDbLine
 10
32.68931
 20
249.118337
 30
0.0
 11
35.53931099999999
 21
249.118337
 31
0.0
  0
ARC
  5
C3BC
330
C1E3
100
AcDbEntity
  8
1
  6
Continuous
100
AcDbCircle
 10
35.53931099999999
 20
249.418337
 30
0.0
 40
0.3
100
AcDbArc
 50
270.0
 51
90.0
  0
LINE
  5
C3BD
330
C1E3
100
AcDbEntity
  8
1
  6
Continuous
100
AcDbLine
 10
29.83931099999999
 20
240.118337
 30
0.0
 11
32.536479
 21
239.550512
 31
0.0
  0
ARC
  5
C3BE
330
C1E3
100
AcDbEntity
  8
1
  6
Continuous
100
AcDbCircle
 10
29.83931099999999
 20
240.418337
 30
0.0
 40
0.3
100
AcDbArc
 50
77.981988
 51
270.0
  0
ARC
  5
C3BF
330
C1E3
100
AcDbEntity
  8
1
  6
Continuous
100
AcDbCircle
 10
29.83931099999999
 20
242.818337
 30
0.0
 40
0.3
100
AcDbArc
 50
77.981988
 51
270.0
  0
LINE
  5
C3C0
330
C1E3
100
AcDbEntity
  8
1
  6
Continuous
100
AcDbLine
 10
29.83931099999999
 20
242.518337
 30
0.0
 11
32.68931
 21
241.918337
 31
0.0
  0
LINE
  5
C3C1
330
C1E3
100
AcDbEntity
  8
1
  6
Continuous
100
AcDbLine
 10
29.83931099999999
 20
247.318337
 30
0.0
 11
32.68931
 21
246.7183369999999
 31
0.0
  0
LINE
  5
C3C2
330
C1E3
100
AcDbEntity
  8
1
  6
Continuous
100
AcDbLine
 10
29.83931099999999
 20
244.918337
 30
0.0
 11
32.68931
 21
244.318337
 31
0.0
  0
ARC
  5
C3C3
330
C1E3
100
AcDbEntity
  8
1
  6
Continuous
100
AcDbCircle
 10
29.83931099999999
 20
245.2183369999999
 30
0.0
 40
0.3
100
AcDbArc
 50
77.981988
 51
270.0
  0
ARC
  5
C3C4
330
C1E3
100
AcDbEntity
  8
1
  6
Continuous
100
AcDbCircle
 10
29.83931099999999
 20
247.618337
 30
0.0
 40
0.3
100
AcDbArc
 50
77.981988
 51
270.0
  0
LINE
  5
C3C5
330
C1E3
100
AcDbEntity
  8
1
  6
Continuous
100
AcDbLine
 10
29.83931099999999
 20
249.718337
 30
0.0
 11
32.68931
 21
249.118337
 31
0.0
  0
ARC
  5
C3C6
330
C1E3
100
AcDbEntity
  8
1
  6
Continuous
100
AcDbCircle
 10
29.83931099999999
 20
250.018337
 30
0.0
 40
0.3
100
AcDbArc
 50
77.981988
 51
270.0
  0
ARC
  5
C3C7
330
C1E3
100
AcDbEntity
  8
1
  6
Continuous
100
AcDbCircle
 10
192.164835
 20
357.2573209999998
 30
0.0
 40
0.3
100
AcDbArc
 50
138.3790579999999
 51
171.602752
  0
ARC
  5
C3C8
330
C1E3
100
AcDbEntity
  8
1
  6
Continuous
100
AcDbCircle
 10
191.5648349999999
 20
351.5573209999999
 30
0.0
 40
0.3
100
AcDbArc
 50
238.645524
 51
301.3544759999998
  0
LINE
  5
C3C9
330
C1E3
100
AcDbEntity
  8
1
  6
Continuous
100
AcDbLine
 10
154.084219
 20
357.207267
 30
0.0
 11
153.5163939999999
 21
354.5101
 31
0.0
  0
LINE
  5
C3CA
330
C1E3
100
AcDbEntity
  8
1
  6
Continuous
100
AcDbLine
 10
151.684219
 20
357.207267
 30
0.0
 11
151.1163939999998
 21
354.5101
 31
0.0
  0
LINE
  5
C3CB
330
C1E3
100
AcDbEntity
  8
1
  6
Continuous
100
AcDbLine
 10
149.284219
 20
357.207267
 30
0.0
 11
148.716394
 21
354.5101
 31
0.0
  0
LINE
  5
C3CC
330
C1E3
100
AcDbEntity
  8
1
  6
Continuous
100
AcDbLine
 10
154.6776429999999
 20
357.144802
 30
0.0
 11
154.084219
 21
351.507267
 31
0.0
  0
LINE
  5
C3CD
330
C1E3
100
AcDbEntity
  8
1
  6
Continuous
100
AcDbLine
 10
152.2776429999999
 20
357.144802
 30
0.0
 11
151.684219
 21
351.507267
 31
0.0
  0
LINE
  5
C3CE
330
C1E3
100
AcDbEntity
  8
1
  6
Continuous
100
AcDbLine
 10
149.877643
 20
357.144802
 30
0.0
 11
149.284219
 21
351.507267
 31
0.0
  0
LINE
  5
C3CF
330
C1E3
100
AcDbEntity
  8
1
  6
Continuous
100
AcDbLine
 10
156.1512449999999
 20
357.2573229999999
 30
0.0
 11
155.5834209999999
 21
354.560156
 31
0.0
  0
LINE
  5
C3D0
330
C1E3
100
AcDbEntity
  8
1
  6
Continuous
100
AcDbLine
 10
156.7446699999998
 20
357.1948569999999
 30
0.0
 11
156.1512449999999
 21
351.557323
 31
0.0
  0
ARC
  5
C3D1
330
C1E3
100
AcDbEntity
  8
1
  6
Continuous
100
AcDbCircle
 10
153.784219
 20
351.507267
 30
0.0
 40
0.3
100
AcDbArc
 50
180.0
 51
0.0
  0
ARC
  5
C3D2
330
C1E3
100
AcDbEntity
  8
1
  6
Continuous
100
AcDbCircle
 10
154.9842189999999
 20
354.201085
 30
0.0
 40
1.5
100
AcDbArc
 50
168.1113419999998
 51
180.0
  0
ARC
  5
C3D3
330
C1E3
100
AcDbEntity
  8
1
  6
Continuous
100
AcDbCircle
 10
152.5842189999998
 20
354.201085
 30
0.0
 40
1.5
100
AcDbArc
 50
168.1113419999998
 51
180.0
  0
ARC
  5
C3D4
330
C1E3
100
AcDbEntity
  8
1
  6
Continuous
100
AcDbCircle
 10
150.1842189999998
 20
354.201085
 30
0.0
 40
1.5
100
AcDbArc
 50
168.1113419999998
 51
180.0
  0
ARC
  5
C3D5
330
C1E3
100
AcDbEntity
  8
1
  6
Continuous
100
AcDbCircle
 10
151.384219
 20
351.507267
 30
0.0
 40
0.3
100
AcDbArc
 50
180.0
 51
0.0
  0
ARC
  5
C3D6
330
C1E3
100
AcDbEntity
  8
1
  6
Continuous
100
AcDbCircle
 10
148.984219
 20
351.507267
 30
0.0
 40
0.3
100
AcDbArc
 50
180.0
 51
0.0
  0
LINE
  5
C3D7
330
C1E3
100
AcDbEntity
  8
1
  6
Continuous
100
AcDbLine
 10
153.4842189999999
 20
354.201085
 30
0.0
 11
153.4842189999999
 21
351.507267
 31
0.0
  0
LINE
  5
C3D8
330
C1E3
100
AcDbEntity
  8
1
  6
Continuous
100
AcDbLine
 10
151.0842189999999
 20
354.201085
 30
0.0
 11
151.0842189999999
 21
351.507267
 31
0.0
  0
LINE
  5
C3D9
330
C1E3
100
AcDbEntity
  8
1
  6
Continuous
100
AcDbLine
 10
148.6842189999999
 20
354.201085
 30
0.0
 11
148.6842189999999
 21
351.507267
 31
0.0
  0
ARC
  5
C3DA
330
C1E3
100
AcDbEntity
  8
1
  6
Continuous
100
AcDbCircle
 10
157.051245
 20
354.2511399999999
 30
0.0
 40
1.5
100
AcDbArc
 50
168.1113419999998
 51
180.0
  0
LINE
  5
C3DB
330
C1E3
100
AcDbEntity
  8
1
  6
Continuous
100
AcDbLine
 10
155.5512449999999
 20
354.2511399999999
 30
0.0
 11
155.5512449999999
 21
351.557323
 31
0.0
  0
ARC
  5
C3DC
330
C1E3
100
AcDbEntity
  8
1
  6
Continuous
100
AcDbCircle
 10
155.851245
 20
351.557323
 30
0.0
 40
0.3
100
AcDbArc
 50
180.0
 51
0.0
  0
ARC
  5
C3DD
330
C1E3
100
AcDbEntity
  8
1
  6
Continuous
100
AcDbCircle
 10
151.984219
 20
357.207267
 30
0.0
 40
0.3
100
AcDbArc
 50
347.9819879999998
 51
180.0
  0
ARC
  5
C3DE
330
C1E3
100
AcDbEntity
  8
1
  6
Continuous
100
AcDbCircle
 10
149.5842189999999
 20
357.207267
 30
0.0
 40
0.3
100
AcDbArc
 50
347.9819879999998
 51
180.0
  0
ARC
  5
C3DF
330
C1E3
100
AcDbEntity
  8
1
  6
Continuous
100
AcDbCircle
 10
154.384219
 20
357.207267
 30
0.0
 40
0.3
100
AcDbArc
 50
347.9819879999998
 51
180.0
  0
ARC
  5
C3E0
330
C1E3
100
AcDbEntity
  8
1
  6
Continuous
100
AcDbCircle
 10
156.451245
 20
357.2573229999999
 30
0.0
 40
0.3
100
AcDbArc
 50
347.9819879999998
 51
180.0
  0
LINE
  5
C3E1
330
C1E3
100
AcDbEntity
  8
1
  6
Continuous
100
AcDbLine
 10
142.7404139999999
 20
357.144802
 30
0.0
 11
142.1469899999999
 21
351.507267
 31
0.0
  0
LINE
  5
C3E2
330
C1E3
100
AcDbEntity
  8
1
  6
Continuous
100
AcDbLine
 10
145.1404139999999
 20
357.144802
 30
0.0
 11
144.5469899999999
 21
351.507267
 31
0.0
  0
LINE
  5
C3E3
330
C1E3
100
AcDbEntity
  8
1
  6
Continuous
100
AcDbLine
 10
147.540414
 20
357.144802
 30
0.0
 11
146.9469899999998
 21
351.507267
 31
0.0
  0
LINE
  5
C3E4
330
C1E3
100
AcDbEntity
  8
1
  6
Continuous
100
AcDbLine
 10
142.1469899999999
 20
357.207267
 30
0.0
 11
141.5791649999999
 21
354.5101
 31
0.0
  0
LINE
  5
C3E5
330
C1E3
100
AcDbEntity
  8
1
  6
Continuous
100
AcDbLine
 10
144.5469899999999
 20
357.207267
 30
0.0
 11
143.9791649999999
 21
354.5101
 31
0.0
  0
LINE
  5
C3E6
330
C1E3
100
AcDbEntity
  8
1
  6
Continuous
100
AcDbLine
 10
146.9469899999998
 20
357.207267
 30
0.0
 11
146.379165
 21
354.5101
 31
0.0
  0
LINE
  5
C3E7
330
C1E3
100
AcDbEntity
  8
1
  6
Continuous
100
AcDbLine
 10
141.5469899999999
 20
354.201085
 30
0.0
 11
141.5469899999999
 21
351.507267
 31
0.0
  0
LINE
  5
C3E8
330
C1E3
100
AcDbEntity
  8
1
  6
Continuous
100
AcDbLine
 10
143.9469899999998
 20
354.201085
 30
0.0
 11
143.9469899999998
 21
351.507267
 31
0.0
  0
LINE
  5
C3E9
330
C1E3
100
AcDbEntity
  8
1
  6
Continuous
100
AcDbLine
 10
146.3469899999998
 20
354.201085
 30
0.0
 11
146.3469899999998
 21
351.507267
 31
0.0
  0
ARC
  5
C3EA
330
C1E3
100
AcDbEntity
  8
1
  6
Continuous
100
AcDbCircle
 10
141.8469899999998
 20
351.507267
 30
0.0
 40
0.3
100
AcDbArc
 50
180.0
 51
0.0
  0
ARC
  5
C3EB
330
C1E3
100
AcDbEntity
  8
1
  6
Continuous
100
AcDbCircle
 10
144.2469899999998
 20
351.507267
 30
0.0
 40
0.3
100
AcDbArc
 50
180.0
 51
0.0
  0
ARC
  5
C3EC
330
C1E3
100
AcDbEntity
  8
1
  6
Continuous
100
AcDbCircle
 10
143.04699
 20
354.201085
 30
0.0
 40
1.5
100
AcDbArc
 50
168.1113419999998
 51
180.0
  0
ARC
  5
C3ED
330
C1E3
100
AcDbEntity
  8
1
  6
Continuous
100
AcDbCircle
 10
145.44699
 20
354.201085
 30
0.0
 40
1.5
100
AcDbArc
 50
168.1113419999998
 51
180.0
  0
ARC
  5
C3EE
330
C1E3
100
AcDbEntity
  8
1
  6
Continuous
100
AcDbCircle
 10
147.8469899999998
 20
354.201085
 30
0.0
 40
1.5
100
AcDbArc
 50
168.1113419999998
 51
180.0
  0
ARC
  5
C3EF
330
C1E3
100
AcDbEntity
  8
1
  6
Continuous
100
AcDbCircle
 10
146.6469899999998
 20
351.507267
 30
0.0
 40
0.3
100
AcDbArc
 50
180.0
 51
0.0
  0
ARC
  5
C3F0
330
C1E3
100
AcDbEntity
  8
1
  6
Continuous
100
AcDbCircle
 10
147.2469899999999
 20
357.207267
 30
0.0
 40
0.3
100
AcDbArc
 50
347.9819879999998
 51
180.0
  0
ARC
  5
C3F1
330
C1E3
100
AcDbEntity
  8
1
  6
Continuous
100
AcDbCircle
 10
142.44699
 20
357.207267
 30
0.0
 40
0.3
100
AcDbArc
 50
347.9819879999998
 51
180.0
  0
ARC
  5
C3F2
330
C1E3
100
AcDbEntity
  8
1
  6
Continuous
100
AcDbCircle
 10
144.8469899999998
 20
357.207267
 30
0.0
 40
0.3
100
AcDbArc
 50
347.9819879999998
 51
180.0
  0
LINE
  5
C3F3
330
C1E3
100
AcDbEntity
  8
1
  6
Continuous
100
AcDbLine
 10
139.928782
 20
357.207267
 30
0.0
 11
139.360957
 21
354.5101
 31
0.0
  0
LINE
  5
C3F4
330
C1E3
100
AcDbEntity
  8
1
  6
Continuous
100
AcDbLine
 10
137.528782
 20
357.207267
 30
0.0
 11
136.960957
 21
354.5101
 31
0.0
  0
LINE
  5
C3F5
330
C1E3
100
AcDbEntity
  8
1
  6
Continuous
100
AcDbLine
 10
140.522206
 20
357.144802
 30
0.0
 11
139.928782
 21
351.507267
 31
0.0
  0
LINE
  5
C3F6
330
C1E3
100
AcDbEntity
  8
1
  6
Continuous
100
AcDbLine
 10
138.122206
 20
357.144802
 30
0.0
 11
137.528782
 21
351.507267
 31
0.0
  0
ARC
  5
C3F7
330
C1E3
100
AcDbEntity
  8
1
  6
Continuous
100
AcDbCircle
 10
140.8287819999999
 20
354.201085
 30
0.0
 40
1.5
100
AcDbArc
 50
168.1113419999998
 51
180.0
  0
ARC
  5
C3F8
330
C1E3
100
AcDbEntity
  8
1
  6
Continuous
100
AcDbCircle
 10
138.428782
 20
354.201085
 30
0.0
 40
1.5
100
AcDbArc
 50
168.1113419999998
 51
180.0
  0
ARC
  5
C3F9
330
C1E3
100
AcDbEntity
  8
1
  6
Continuous
100
AcDbCircle
 10
139.6287819999998
 20
351.507267
 30
0.0
 40
0.3
100
AcDbArc
 50
180.0
 51
0.0
  0
ARC
  5
C3FA
330
C1E3
100
AcDbEntity
  8
1
  6
Continuous
100
AcDbCircle
 10
137.2287819999999
 20
351.507267
 30
0.0
 40
0.3
100
AcDbArc
 50
180.0
 51
0.0
  0
LINE
  5
C3FB
330
C1E3
100
AcDbEntity
  8
1
  6
Continuous
100
AcDbLine
 10
139.3287819999999
 20
354.201085
 30
0.0
 11
139.3287819999999
 21
351.507267
 31
0.0
  0
LINE
  5
C3FC
330
C1E3
100
AcDbEntity
  8
1
  6
Continuous
100
AcDbLine
 10
136.928782
 20
354.201085
 30
0.0
 11
136.928782
 21
351.507267
 31
0.0
  0
ARC
  5
C3FD
330
C1E3
100
AcDbEntity
  8
1
  6
Continuous
100
AcDbCircle
 10
140.2287819999999
 20
357.207267
 30
0.0
 40
0.3
100
AcDbArc
 50
347.9819879999998
 51
180.0
  0
ARC
  5
C3FE
330
C1E3
100
AcDbEntity
  8
1
  6
Continuous
100
AcDbCircle
 10
137.8287819999999
 20
357.207267
 30
0.0
 40
0.3
100
AcDbArc
 50
347.9819879999998
 51
180.0
  0
ARC
  5
C3FF
330
C1E3
100
AcDbEntity
  8
1
  6
Continuous
100
AcDbCircle
 10
225.178248
 20
357.164578
 30
0.0
 40
0.3
100
AcDbArc
 50
347.9819879999998
 51
180.0
  0
LINE
  5
C400
330
C1E3
100
AcDbEntity
  8
1
  6
Continuous
100
AcDbLine
 10
225.471673
 20
357.1021119999999
 30
0.0
 11
224.878248
 21
351.4645779999999
 31
0.0
  0
LINE
  5
C401
330
C1E3
100
AcDbEntity
  8
1
  6
Continuous
100
AcDbLine
 10
224.878248
 20
357.164578
 30
0.0
 11
224.310424
 21
354.4674109999998
 31
0.0
  0
LINE
  5
C402
330
C1E3
100
AcDbEntity
  8
1
  6
Continuous
100
AcDbLine
 10
224.2782479999999
 20
354.1583949999999
 30
0.0
 11
224.2782479999999
 21
351.4645779999999
 31
0.0
  0
ARC
  5
C403
330
C1E3
100
AcDbEntity
  8
1
  6
Continuous
100
AcDbCircle
 10
224.5782479999999
 20
351.4645779999999
 30
0.0
 40
0.3
100
AcDbArc
 50
180.0
 51
0.0
  0
LINE
  5
C404
330
C1E3
100
AcDbEntity
  8
1
  6
Continuous
100
AcDbLine
 10
224.310424
 20
354.4674109999998
 30
0.0
 11
224.2782479999999
 21
354.1583949999999
 31
0.0
  0
LINE
  5
C405
330
C1E3
100
AcDbEntity
  8
1
  6
Continuous
100
AcDbLine
 10
32.845494
 20
230.09115
 30
0.0
 11
35.53931099999999
 21
230.09115
 31
0.0
  0
LINE
  5
C406
330
C1E3
100
AcDbEntity
  8
1
  6
Continuous
100
AcDbLine
 10
29.901777
 20
231.284575
 30
0.0
 11
35.53931099999999
 21
230.69115
 31
0.0
  0
ARC
  5
C407
330
C1E3
100
AcDbEntity
  8
1
  6
Continuous
100
AcDbCircle
 10
35.53931099999999
 20
230.39115
 30
0.0
 40
0.3
100
AcDbArc
 50
270.0
 51
90.0
  0
ARC
  5
C408
330
C1E3
100
AcDbEntity
  8
1
  6
Continuous
100
AcDbCircle
 10
35.53931099999999
 20
237.5911499999999
 30
0.0
 40
0.3
100
AcDbArc
 50
270.0
 51
90.0
  0
LINE
  5
C409
330
C1E3
100
AcDbEntity
  8
1
  6
Continuous
100
AcDbLine
 10
32.845494
 20
237.2911499999999
 30
0.0
 11
35.53931099999999
 21
237.2911499999999
 31
0.0
  0
LINE
  5
C40A
330
C1E3
100
AcDbEntity
  8
1
  6
Continuous
100
AcDbLine
 10
29.901777
 20
238.484575
 30
0.0
 11
35.53931099999999
 21
237.89115
 31
0.0
  0
LINE
  5
C40B
330
C1E3
100
AcDbEntity
  8
1
  6
Continuous
100
AcDbLine
 10
29.901777
 20
236.084575
 30
0.0
 11
35.53931099999999
 21
235.49115
 31
0.0
  0
LINE
  5
C40C
330
C1E3
100
AcDbEntity
  8
1
  6
Continuous
100
AcDbLine
 10
32.845494
 20
234.89115
 30
0.0
 11
35.53931099999999
 21
234.89115
 31
0.0
  0
LINE
  5
C40D
330
C1E3
100
AcDbEntity
  8
1
  6
Continuous
100
AcDbLine
 10
32.845494
 20
232.49115
 30
0.0
 11
35.53931099999999
 21
232.49115
 31
0.0
  0
LINE
  5
C40E
330
C1E3
100
AcDbEntity
  8
1
  6
Continuous
100
AcDbLine
 10
29.901777
 20
233.684575
 30
0.0
 11
35.53931099999999
 21
233.09115
 31
0.0
  0
ARC
  5
C40F
330
C1E3
100
AcDbEntity
  8
1
  6
Continuous
100
AcDbCircle
 10
35.53931099999999
 20
232.7911499999999
 30
0.0
 40
0.3
100
AcDbArc
 50
270.0
 51
90.0
  0
ARC
  5
C410
330
C1E3
100
AcDbEntity
  8
1
  6
Continuous
100
AcDbCircle
 10
35.53931099999999
 20
235.1911499999999
 30
0.0
 40
0.3
100
AcDbArc
 50
270.0
 51
90.0
  0
LINE
  5
C411
330
C1E3
100
AcDbEntity
  8
1
  6
Continuous
100
AcDbLine
 10
29.83931099999999
 20
230.69115
 30
0.0
 11
32.536479
 21
230.123325
 31
0.0
  0
ARC
  5
C412
330
C1E3
100
AcDbEntity
  8
1
  6
Continuous
100
AcDbCircle
 10
29.83931099999999
 20
230.99115
 30
0.0
 40
0.3
100
AcDbArc
 50
77.981988
 51
270.0
  0
ARC
  5
C413
330
C1E3
100
AcDbEntity
  8
1
  6
Continuous
100
AcDbCircle
 10
29.83931099999999
 20
238.19115
 30
0.0
 40
0.3
100
AcDbArc
 50
77.981988
 51
270.0
  0
LINE
  5
C414
330
C1E3
100
AcDbEntity
  8
1
  6
Continuous
100
AcDbLine
 10
29.83931099999999
 20
237.89115
 30
0.0
 11
32.536479
 21
237.323325
 31
0.0
  0
ARC
  5
C415
330
C1E3
100
AcDbEntity
  8
1
  6
Continuous
100
AcDbCircle
 10
29.83931099999999
 20
235.7911499999999
 30
0.0
 40
0.3
100
AcDbArc
 50
77.981988
 51
270.0
  0
ARC
  5
C416
330
C1E3
100
AcDbEntity
  8
1
  6
Continuous
100
AcDbCircle
 10
29.83931099999999
 20
233.39115
 30
0.0
 40
0.3
100
AcDbArc
 50
77.981988
 51
270.0
  0
LINE
  5
C417
330
C1E3
100
AcDbEntity
  8
1
  6
Continuous
100
AcDbLine
 10
29.83931099999999
 20
233.09115
 30
0.0
 11
32.536479
 21
232.523325
 31
0.0
  0
LINE
  5
C418
330
C1E3
100
AcDbEntity
  8
1
  6
Continuous
100
AcDbLine
 10
29.83931099999999
 20
235.49115
 30
0.0
 11
32.536479
 21
234.923325
 31
0.0
  0
LINE
  5
C419
330
C1E3
100
AcDbEntity
  8
1
  6
Continuous
100
AcDbLine
 10
32.536479
 20
239.550512
 30
0.0
 11
32.845494
 21
239.518337
 31
0.0
  0
LINE
  5
C41A
330
C1E3
100
AcDbEntity
  8
1
  6
Continuous
100
AcDbLine
 10
32.536479
 20
237.323325
 30
0.0
 11
32.845494
 21
237.2911499999999
 31
0.0
  0
LINE
  5
C41B
330
C1E3
100
AcDbEntity
  8
1
  6
Continuous
100
AcDbLine
 10
32.536479
 20
234.923325
 30
0.0
 11
32.845494
 21
234.89115
 31
0.0
  0
LINE
  5
C41C
330
C1E3
100
AcDbEntity
  8
1
  6
Continuous
100
AcDbLine
 10
32.845494
 20
232.49115
 30
0.0
 11
32.536479
 21
232.523325
 31
0.0
  0
LINE
  5
C41D
330
C1E3
100
AcDbEntity
  8
1
  6
Continuous
100
AcDbLine
 10
32.536479
 20
230.123325
 30
0.0
 11
32.845494
 21
230.09115
 31
0.0
  0
LINE
  5
C41E
330
C1E3
100
AcDbEntity
  8
1
  6
Continuous
100
AcDbLine
 10
130.3968099999999
 20
357.207267
 30
0.0
 11
129.8289849999999
 21
354.5101
 31
0.0
  0
LINE
  5
C41F
330
C1E3
100
AcDbEntity
  8
1
  6
Continuous
100
AcDbLine
 10
128.178602
 20
357.207267
 30
0.0
 11
127.610777
 21
354.5101
 31
0.0
  0
LINE
  5
C420
330
C1E3
100
AcDbEntity
  8
1
  6
Continuous
100
AcDbLine
 10
125.778602
 20
357.207267
 30
0.0
 11
125.210777
 21
354.5101
 31
0.0
  0
LINE
  5
C421
330
C1E3
100
AcDbEntity
  8
1
  6
Continuous
100
AcDbLine
 10
128.772026
 20
357.144802
 30
0.0
 11
128.178602
 21
351.507267
 31
0.0
  0
LINE
  5
C422
330
C1E3
100
AcDbEntity
  8
1
  6
Continuous
100
AcDbLine
 10
126.372026
 20
357.144802
 30
0.0
 11
125.778602
 21
351.507267
 31
0.0
  0
ARC
  5
C423
330
C1E3
100
AcDbEntity
  8
1
  6
Continuous
100
AcDbCircle
 10
131.2968099999999
 20
354.201085
 30
0.0
 40
1.5
100
AcDbArc
 50
168.1113419999998
 51
180.0
  0
ARC
  5
C424
330
C1E3
100
AcDbEntity
  8
1
  6
Continuous
100
AcDbCircle
 10
129.0786019999998
 20
354.201085
 30
0.0
 40
1.5
100
AcDbArc
 50
168.1113419999998
 51
180.0
  0
ARC
  5
C425
330
C1E3
100
AcDbEntity
  8
1
  6
Continuous
100
AcDbCircle
 10
126.678602
 20
354.201085
 30
0.0
 40
1.5
100
AcDbArc
 50
168.1113419999998
 51
180.0
  0
ARC
  5
C426
330
C1E3
100
AcDbEntity
  8
1
  6
Continuous
100
AcDbCircle
 10
128.478602
 20
357.207267
 30
0.0
 40
0.3
100
AcDbArc
 50
347.9819879999998
 51
180.0
  0
ARC
  5
C427
330
C1E3
100
AcDbEntity
  8
1
  6
Continuous
100
AcDbCircle
 10
126.078602
 20
357.207267
 30
0.0
 40
0.3
100
AcDbArc
 50
347.9819879999998
 51
180.0
  0
LINE
  5
C428
330
C1E3
100
AcDbEntity
  8
1
  6
Continuous
100
AcDbLine
 10
130.9902339999999
 20
357.144802
 30
0.0
 11
130.3968099999999
 21
351.507267
 31
0.0
  0
LINE
  5
C429
330
C1E3
100
AcDbEntity
  8
1
  6
Continuous
100
AcDbLine
 10
133.3902339999999
 20
357.144802
 30
0.0
 11
132.7968099999999
 21
351.507267
 31
0.0
  0
LINE
  5
C42A
330
C1E3
100
AcDbEntity
  8
1
  6
Continuous
100
AcDbLine
 10
132.7968099999999
 20
357.207267
 30
0.0
 11
132.2289849999999
 21
354.5101
 31
0.0
  0
LINE
  5
C42B
330
C1E3
100
AcDbEntity
  8
1
  6
Continuous
100
AcDbLine
 10
135.19681
 20
357.207267
 30
0.0
 11
134.628985
 21
354.5101
 31
0.0
  0
ARC
  5
C42C
330
C1E3
100
AcDbEntity
  8
1
  6
Continuous
100
AcDbCircle
 10
133.6968099999999
 20
354.201085
 30
0.0
 40
1.5
100
AcDbArc
 50
168.1113419999998
 51
180.0
  0
ARC
  5
C42D
330
C1E3
100
AcDbEntity
  8
1
  6
Continuous
100
AcDbCircle
 10
136.09681
 20
354.201085
 30
0.0
 40
1.5
100
AcDbArc
 50
168.1113419999998
 51
180.0
  0
ARC
  5
C42E
330
C1E3
100
AcDbEntity
  8
1
  6
Continuous
100
AcDbCircle
 10
130.6968099999999
 20
357.207267
 30
0.0
 40
0.3
100
AcDbArc
 50
347.9819879999998
 51
180.0
  0
ARC
  5
C42F
330
C1E3
100
AcDbEntity
  8
1
  6
Continuous
100
AcDbCircle
 10
133.0968099999997
 20
357.207267
 30
0.0
 40
0.3
100
AcDbArc
 50
347.9819879999998
 51
180.0
  0
LINE
  5
C430
330
C1E3
100
AcDbEntity
  8
1
  6
Continuous
100
AcDbLine
 10
135.790234
 20
357.144802
 30
0.0
 11
135.19681
 21
351.507267
 31
0.0
  0
ARC
  5
C431
330
C1E3
100
AcDbEntity
  8
1
  6
Continuous
100
AcDbCircle
 10
135.49681
 20
357.207267
 30
0.0
 40
0.3
100
AcDbArc
 50
347.9819879999998
 51
180.0
  0
ARC
  5
C432
330
C1E3
100
AcDbEntity
  8
1
  6
Continuous
100
AcDbCircle
 10
130.09681
 20
351.507267
 30
0.0
 40
0.3
100
AcDbArc
 50
180.0
 51
0.0
  0
LINE
  5
C433
330
C1E3
100
AcDbEntity
  8
1
  6
Continuous
100
AcDbLine
 10
129.79681
 20
354.201085
 30
0.0
 11
129.79681
 21
351.507267
 31
0.0
  0
ARC
  5
C434
330
C1E3
100
AcDbEntity
  8
1
  6
Continuous
100
AcDbCircle
 10
127.878602
 20
351.507267
 30
0.0
 40
0.3
100
AcDbArc
 50
180.0
 51
0.0
  0
ARC
  5
C435
330
C1E3
100
AcDbEntity
  8
1
  6
Continuous
100
AcDbCircle
 10
125.478602
 20
351.507267
 30
0.0
 40
0.3
100
AcDbArc
 50
180.0
 51
0.0
  0
LINE
  5
C436
330
C1E3
100
AcDbEntity
  8
1
  6
Continuous
100
AcDbLine
 10
127.5786019999999
 20
354.201085
 30
0.0
 11
127.5786019999999
 21
351.507267
 31
0.0
  0
LINE
  5
C437
330
C1E3
100
AcDbEntity
  8
1
  6
Continuous
100
AcDbLine
 10
125.1786019999999
 20
354.201085
 30
0.0
 11
125.1786019999999
 21
351.507267
 31
0.0
  0
LINE
  5
C438
330
C1E3
100
AcDbEntity
  8
1
  6
Continuous
100
AcDbLine
 10
132.19681
 20
354.201085
 30
0.0
 11
132.19681
 21
351.507267
 31
0.0
  0
LINE
  5
C439
330
C1E3
100
AcDbEntity
  8
1
  6
Continuous
100
AcDbLine
 10
134.59681
 20
354.201085
 30
0.0
 11
134.59681
 21
351.507267
 31
0.0
  0
ARC
  5
C43A
330
C1E3
100
AcDbEntity
  8
1
  6
Continuous
100
AcDbCircle
 10
132.49681
 20
351.507267
 30
0.0
 40
0.3
100
AcDbArc
 50
180.0
 51
0.0
  0
ARC
  5
C43B
330
C1E3
100
AcDbEntity
  8
1
  6
Continuous
100
AcDbCircle
 10
134.89681
 20
351.507267
 30
0.0
 40
0.3
100
AcDbArc
 50
180.0
 51
0.0
  0
LINE
  5
C43C
330
C1E3
100
AcDbEntity
  8
1
  6
Continuous
100
AcDbLine
 10
363.240568
 20
292.0055549999998
 30
0.0
 11
364.92301
 21
291.1643339999999
 31
0.0
  0
LINE
  5
C43D
330
C1E3
100
AcDbEntity
  8
1
  6
Continuous
100
AcDbLine
 10
365.587154
 20
291.082575
 30
0.0
 11
369.5236369999999
 21
291.957349
 31
0.0
  0
LINE
  5
C43E
330
C1E3
100
AcDbEntity
  8
1
  6
Continuous
100
AcDbLine
 10
369.9574979999999
 20
291.957349
 30
0.0
 11
373.893982
 21
291.082575
 31
0.0
  0
LINE
  5
C43F
330
C1E3
100
AcDbEntity
  8
1
  6
Continuous
100
AcDbLine
 10
374.5581259999998
 20
291.1643339999999
 30
0.0
 11
376.240568
 21
292.0055549999998
 31
0.0
  0
LINE
  5
C440
330
C1E3
100
AcDbEntity
  8
1
  6
Continuous
100
AcDbLine
 10
376.240568
 20
291.25787
 30
0.0
 11
374.5581259999998
 21
290.416649
 31
0.0
  0
LINE
  5
C441
330
C1E3
100
AcDbEntity
  8
1
  6
Continuous
100
AcDbLine
 10
373.893982
 20
290.3348889999999
 30
0.0
 11
369.9574979999999
 21
291.2096639999999
 31
0.0
  0
LINE
  5
C442
330
C1E3
100
AcDbEntity
  8
1
  6
Continuous
100
AcDbLine
 10
369.5236369999999
 20
291.2096639999999
 30
0.0
 11
365.587154
 21
290.3348889999999
 31
0.0
  0
LINE
  5
C443
330
C1E3
100
AcDbEntity
  8
1
  6
Continuous
100
AcDbLine
 10
364.92301
 20
290.416649
 30
0.0
 11
363.240568
 21
291.25787
 31
0.0
  0
ARC
  5
C444
330
C1E3
100
AcDbEntity
  8
1
  6
Continuous
100
AcDbCircle
 10
365.370224
 20
291.311077
 30
0.0
 40
1.0
100
AcDbArc
 50
243.4349489999999
 51
282.528808
  0
ARC
  5
C445
330
C1E3
100
AcDbEntity
  8
1
  6
Continuous
100
AcDbCircle
 10
365.370224
 20
292.058762
 30
0.0
 40
1.0
100
AcDbArc
 50
243.4349489999999
 51
282.528808
  0
ARC
  5
C446
330
C1E3
100
AcDbEntity
  8
1
  6
Continuous
100
AcDbCircle
 10
374.1109119999999
 20
292.058762
 30
0.0
 40
1.0
100
AcDbArc
 50
257.4711919999999
 51
296.5650509999999
  0
ARC
  5
C447
330
C1E3
100
AcDbEntity
  8
1
  6
Continuous
100
AcDbCircle
 10
374.1109119999999
 20
291.311077
 30
0.0
 40
1.0
100
AcDbArc
 50
257.4711919999999
 51
296.5650509999999
  0
ARC
  5
C448
330
C1E3
100
AcDbEntity
  8
1
  6
Continuous
100
AcDbCircle
 10
369.740568
 20
290.233476
 30
0.0
 40
1.0
100
AcDbArc
 50
77.471192
 51
102.5288079999999
  0
ARC
  5
C449
330
C1E3
100
AcDbEntity
  8
1
  6
Continuous
100
AcDbCircle
 10
369.740568
 20
290.9811619999999
 30
0.0
 40
1.0
100
AcDbArc
 50
77.471192
 51
102.5288079999999
  0
LINE
  5
C44A
330
C1E3
100
AcDbEntity
  8
1
  6
Continuous
100
AcDbLine
 10
368.02095
 20
295.3407849999999
 30
0.0
 11
366.6338019999998
 21
295.394968
 31
0.0
  0
LINE
  5
C44B
330
C1E3
100
AcDbEntity
  8
1
  6
Continuous
100
AcDbLine
 10
236.1280509999999
 20
360.801131
 30
0.0
 11
237.1102159999999
 21
359.1641899999999
 31
0.0
  0
LINE
  5
C44C
330
C1E3
100
AcDbEntity
  8
1
  6
Continuous
100
AcDbLine
 10
237.218958
 20
358.3920319999998
 30
0.0
 11
236.1280509999999
 21
354.301131
 31
0.0
  0
LINE
  5
C44D
330
C1E3
100
AcDbEntity
  8
1
  6
Continuous
100
AcDbLine
 10
236.1280509999999
 20
354.301131
 30
0.0
 11
237.218958
 21
350.210231
 31
0.0
  0
LINE
  5
C44E
330
C1E3
100
AcDbEntity
  8
1
  6
Continuous
100
AcDbLine
 10
237.1102159999999
 20
349.4380719999999
 30
0.0
 11
236.1280509999999
 21
347.8011309999998
 31
0.0
  0
ARC
  5
C44F
330
C1E3
100
AcDbEntity
  8
1
  6
Continuous
100
AcDbCircle
 10
236.2527229999999
 20
358.6496939999999
 30
0.0
 40
1.0
100
AcDbArc
 50
345.0685829999998
 51
30.96375700000001
  0
ARC
  5
C450
330
C1E3
100
AcDbEntity
  8
1
  6
Continuous
100
AcDbCircle
 10
236.2527229999999
 20
349.952568
 30
0.0
 40
1.0
100
AcDbArc
 50
329.036243
 51
14.931417
  0
ARC
  5
C451
330
C1E3
100
AcDbEntity
  8
1
  6
Continuous
100
AcDbCircle
 10
236.2527229999999
 20
358.6496939999999
 30
0.0
 40
1.0
100
AcDbArc
 50
345.0685829999998
 51
30.96375700000001
  0
ARC
  5
C452
330
C1E3
100
AcDbEntity
  8
1
  6
Continuous
100
AcDbCircle
 10
236.2527229999999
 20
349.952568
 30
0.0
 40
1.0
100
AcDbArc
 50
329.036243
 51
14.931417
  0
LINE
  5
C453
330
C1E3
100
AcDbEntity
  8
1
  6
Continuous
100
AcDbLine
 10
35.669716
 20
296.2320379999998
 30
0.0
 11
35.669716
 21
296.1655379999999
 31
0.0
  0
LINE
  5
C454
330
C1E3
100
AcDbEntity
  8
1
  6
Continuous
100
AcDbLine
 10
35.65671599999999
 20
295.913698
 30
0.0
 11
35.65671599999999
 21
295.8211979999999
 31
0.0
  0
LINE
  5
C455
330
C1E3
100
AcDbEntity
  8
1
  6
Continuous
100
AcDbLine
 10
35.669651
 20
295.5716649999999
 30
0.0
 11
35.669651
 21
295.638165
 31
0.0
  0
LINE
  5
C456
330
C1E3
100
AcDbEntity
  8
1
  6
Continuous
100
AcDbLine
 10
35.65665099999999
 20
295.3198249999999
 30
0.0
 11
35.65665099999999
 21
295.227325
 31
0.0
  0
ARC
  5
C457
330
C1E3
100
AcDbEntity
  8
1
  6
Continuous
100
AcDbCircle
 10
29.460873
 20
296.5186919999998
 30
0.0
 40
0.04625
100
AcDbArc
 50
88.292947
 51
270.0
  0
ARC
  5
C458
330
C1E3
100
AcDbEntity
  8
1
  6
Continuous
100
AcDbCircle
 10
29.44787299999999
 20
296.7308039999998
 30
0.0
 40
0.03325
100
AcDbArc
 50
88.77976600000001
 51
270.0
  0
LINE
  5
C459
330
C1E3
100
AcDbEntity
  8
1
  6
Continuous
100
AcDbLine
 10
29.460873
 20
296.4724419999999
 30
0.0
 11
32.56462299999999
 21
296.379963
 31
0.0
  0
LINE
  5
C45A
330
C1E3
100
AcDbEntity
  8
1
  6
Continuous
100
AcDbLine
 10
32.56462299999999
 20
296.631174
 30
0.0
 11
29.44787299999999
 21
296.697554
 31
0.0
  0
LINE
  5
C45B
330
C1E3
100
AcDbEntity
  8
1
  6
Continuous
100
AcDbLine
 10
35.66837299999999
 20
296.472463
 30
0.0
 11
29.46225099999999
 21
296.5649209999999
 31
0.0
  0
LINE
  5
C45C
330
C1E3
100
AcDbEntity
  8
1
  6
Continuous
100
AcDbLine
 10
32.56462299999999
 20
296.379963
 30
0.0
 11
35.66837299999999
 21
296.379963
 31
0.0
  0
LINE
  5
C45D
330
C1E3
100
AcDbEntity
  8
1
  6
Continuous
100
AcDbLine
 10
29.448581
 20
296.764046
 30
0.0
 11
35.681373
 21
296.697674
 31
0.0
  0
LINE
  5
C45E
330
C1E3
100
AcDbEntity
  8
1
  6
Continuous
100
AcDbLine
 10
32.56462299999999
 20
296.631174
 30
0.0
 11
35.681373
 21
296.631174
 31
0.0
  0
LINE
  5
C45F
330
C1E3
100
AcDbEntity
  8
1
  6
Continuous
100
AcDbLine
 10
35.681373
 20
296.697674
 30
0.0
 11
35.681373
 21
296.631174
 31
0.0
  0
LINE
  5
C460
330
C1E3
100
AcDbEntity
  8
1
  6
Continuous
100
AcDbLine
 10
35.66837299999999
 20
296.472463
 30
0.0
 11
35.66837299999999
 21
296.379963
 31
0.0
  0
ARC
  5
C461
330
C1E3
100
AcDbEntity
  8
1
  6
Continuous
100
AcDbCircle
 10
29.83931099999999
 20
228.6163999999998
 30
0.0
 40
0.3
100
AcDbArc
 50
77.981988
 51
270.0
  0
LINE
  5
C462
330
C1E3
100
AcDbEntity
  8
1
  6
Continuous
100
AcDbLine
 10
29.83931099999999
 20
228.3163999999999
 30
0.0
 11
32.536479
 21
227.7485749999999
 31
0.0
  0
ARC
  5
C463
330
C1E3
100
AcDbEntity
  8
1
  6
Continuous
100
AcDbCircle
 10
35.53931099999999
 20
228.0164
 30
0.0
 40
0.3
100
AcDbArc
 50
270.0
 51
90.0
  0
LINE
  5
C464
330
C1E3
100
AcDbEntity
  8
1
  6
Continuous
100
AcDbLine
 10
29.901777
 20
228.909825
 30
0.0
 11
35.53931099999999
 21
228.3163999999999
 31
0.0
  0
LINE
  5
C465
330
C1E3
100
AcDbEntity
  8
1
  6
Continuous
100
AcDbLine
 10
32.536479
 20
227.7485749999999
 30
0.0
 11
32.845494
 21
227.7163999999999
 31
0.0
  0
LINE
  5
C466
330
C1E3
100
AcDbEntity
  8
1
  6
Continuous
100
AcDbLine
 10
32.845494
 20
227.7163999999999
 30
0.0
 11
35.53931099999999
 21
227.7163999999999
 31
0.0
  0
ARC
  5
C467
330
C1E3
100
AcDbEntity
  8
1
  6
Continuous
100
AcDbCircle
 10
222.778248
 20
357.164578
 30
0.0
 40
0.3
100
AcDbArc
 50
347.9819879999998
 51
180.0
  0
LINE
  5
C468
330
C1E3
100
AcDbEntity
  8
1
  6
Continuous
100
AcDbLine
 10
223.071673
 20
357.1021119999999
 30
0.0
 11
222.478248
 21
351.4645779999999
 31
0.0
  0
LINE
  5
C469
330
C1E3
100
AcDbEntity
  8
1
  6
Continuous
100
AcDbLine
 10
222.478248
 20
357.164578
 30
0.0
 11
221.910424
 21
354.4674109999998
 31
0.0
  0
LINE
  5
C46A
330
C1E3
100
AcDbEntity
  8
1
  6
Continuous
100
AcDbLine
 10
221.8782479999999
 20
354.1583949999999
 30
0.0
 11
221.8782479999999
 21
351.4645779999999
 31
0.0
  0
ARC
  5
C46B
330
C1E3
100
AcDbEntity
  8
1
  6
Continuous
100
AcDbCircle
 10
222.1782479999999
 20
351.4645779999999
 30
0.0
 40
0.3
100
AcDbArc
 50
180.0
 51
0.0
  0
LINE
  5
C46C
330
C1E3
100
AcDbEntity
  8
1
  6
Continuous
100
AcDbLine
 10
221.910424
 20
354.4674109999998
 30
0.0
 11
221.8782479999999
 21
354.1583949999999
 31
0.0
  0
LINE
  5
C46D
330
C1E3
100
AcDbEntity
  8
1
  6
Continuous
100
AcDbLine
 10
219.510424
 20
354.4674109999998
 30
0.0
 11
219.478248
 21
354.1583949999999
 31
0.0
  0
ARC
  5
C46E
330
C1E3
100
AcDbEntity
  8
1
  6
Continuous
100
AcDbCircle
 10
219.7782479999999
 20
351.4645779999999
 30
0.0
 40
0.3
100
AcDbArc
 50
180.0
 51
0.0
  0
LINE
  5
C46F
330
C1E3
100
AcDbEntity
  8
1
  6
Continuous
100
AcDbLine
 10
219.478248
 20
354.1583949999999
 30
0.0
 11
219.478248
 21
351.4645779999999
 31
0.0
  0
LINE
  5
C470
330
C1E3
100
AcDbEntity
  8
1
  6
Continuous
100
AcDbLine
 10
220.0782479999999
 20
357.164578
 30
0.0
 11
219.510424
 21
354.4674109999998
 31
0.0
  0
LINE
  5
C471
330
C1E3
100
AcDbEntity
  8
1
  6
Continuous
100
AcDbLine
 10
220.671673
 20
357.1021119999999
 30
0.0
 11
220.0782479999999
 21
351.4645779999999
 31
0.0
  0
ARC
  5
C472
330
C1E3
100
AcDbEntity
  8
1
  6
Continuous
100
AcDbCircle
 10
220.378248
 20
357.164578
 30
0.0
 40
0.3
100
AcDbArc
 50
347.9819879999998
 51
180.0
  0
ARC
  5
C473
330
C1E3
100
AcDbEntity
  8
1
  6
Continuous
100
AcDbCircle
 10
161.3105079999999
 20
218.2544889999999
 30
0.0
 40
91.31783799999999
100
AcDbArc
 50
57.47930799999998
 51
60.20486
  0
ARC
  5
C474
330
C1E3
100
AcDbEntity
  8
1
  6
Continuous
100
AcDbCircle
 10
172.898537
 20
-29.919009
 30
0.0
 40
327.3281809999998
100
AcDbArc
 50
78.64808399999998
 51
83.42067699999999
  0
ARC
  5
C475
330
C1E3
100
AcDbEntity
  8
1
  6
Continuous
100
AcDbCircle
 10
161.3105079999999
 20
218.2544889999999
 30
0.0
 40
90.517838
100
AcDbArc
 50
57.50815899999999
 51
59.96816199999999
  0
ARC
  5
C476
330
C1E3
100
AcDbEntity
  8
1
  6
Continuous
100
AcDbCircle
 10
172.898537
 20
-29.919009
 30
0.0
 40
326.528181
100
AcDbArc
 50
78.71637699999998
 51
83.412622
  0
ARC
  5
C477
330
C1E3
100
AcDbEntity
  8
1
  6
Continuous
100
AcDbCircle
 10
172.898537
 20
-29.919009
 30
0.0
 40
325.728181
100
AcDbArc
 50
78.71637699999998
 51
83.412622
  0
ARC
  5
C478
330
C1E3
100
AcDbEntity
  8
1
  6
Continuous
100
AcDbCircle
 10
161.3105079999999
 20
218.2544889999999
 30
0.0
 40
89.717838
100
AcDbArc
 50
57.50815899999999
 51
59.72676800000001
  0
ARC
  5
C479
330
C1E3
100
AcDbEntity
  8
1
  6
Continuous
100
AcDbCircle
 10
210.472016
 20
295.4468519999998
 30
0.0
 40
1.0
100
AcDbArc
 50
237.508159
 51
263.412622
  0
ARC
  5
C47A
330
C1E3
100
AcDbEntity
  8
1
  6
Continuous
100
AcDbCircle
 10
210.472016
 20
295.4468519999998
 30
0.0
 40
1.8
100
AcDbArc
 50
237.508159
 51
263.412622
  0
ARC
  5
C47B
330
C1E3
100
AcDbEntity
  8
1
  6
Continuous
100
AcDbCircle
 10
236.0454199999999
 20
286.5710379999999
 30
0.0
 40
3.0
100
AcDbArc
 50
68.94104499999999
 51
78.71637699999998
  0
ARC
  5
C47C
330
C1E3
100
AcDbEntity
  8
1
  6
Continuous
100
AcDbCircle
 10
236.0454199999999
 20
286.5710379999999
 30
0.0
 40
3.799999999999998
100
AcDbArc
 50
68.94104499999999
 51
78.71637699999998
  0
LINE
  5
C47D
330
C1E3
100
AcDbEntity
  8
1
  6
Continuous
100
AcDbLine
 10
237.3280509999999
 20
291.0055549999999
 30
0.0
 11
237.185312
 21
290.1960419999999
 31
0.0
  0
ARC
  5
C47E
330
C1E3
100
AcDbEntity
  8
5
  6
PHANTOM
100
AcDbCircle
 10
186.245564
 20
107.3322499999999
 30
0.0
 40
189.4676109999998
100
AcDbArc
 50
72.19618
 51
82.67464399999999
  0
ARC
  5
C47F
330
C1E3
100
AcDbEntity
  8
5
  6
PHANTOM
100
AcDbCircle
 10
186.245564
 20
107.3322499999999
 30
0.0
 40
188.6676109999999
100
AcDbArc
 50
72.19618
 51
82.66095300000001
  0
ARC
  5
C480
330
C1E3
100
AcDbEntity
  8
5
  6
PHANTOM
100
AcDbCircle
 10
186.245564
 20
107.3322499999999
 30
0.0
 40
187.867611
100
AcDbArc
 50
72.19618
 51
82.660876
  0
LINE
  5
C481
330
C1E3
100
AcDbEntity
  8
5
  6
PHANTOM
100
AcDbLine
 10
206.686374
 20
297.5008029999999
 30
0.0
 11
210.4033569999999
 21
295.253448
 31
0.0
  0
LINE
  5
C482
330
C1E3
100
AcDbEntity
  8
5
  6
PHANTOM
100
AcDbLine
 10
206.61298
 20
296.620075
 30
0.0
 11
209.9548609999999
 21
294.5912269999999
 31
0.0
  0
LINE
  5
C483
330
C1E3
100
AcDbEntity
  8
5
  6
PHANTOM
100
AcDbLine
 10
206.5394409999999
 20
295.73761
 30
0.0
 11
209.536712
 21
293.9093219999999
 31
0.0
  0
ARC
  5
C484
330
C1E3
100
AcDbEntity
  8
5
  6
PHANTOM
100
AcDbCircle
 10
210.4738109999999
 20
295.4460309999999
 30
0.0
 40
1.0
100
AcDbArc
 50
238.7381609999999
 51
262.660953
  0
ARC
  5
C485
330
C1E3
100
AcDbEntity
  8
5
  6
PHANTOM
100
AcDbCircle
 10
210.4740609999999
 20
295.4459989999999
 30
0.0
 40
1.8
100
AcDbArc
 50
238.617464
 51
262.6608759999999
  0
ARC
  5
C486
330
C1E3
100
AcDbEntity
  8
5
  6
PHANTOM
100
AcDbCircle
 10
242.7704609999999
 20
283.3463679999999
 30
0.0
 40
3.0
100
AcDbArc
 50
63.59393299999999
 51
72.19618
  0
ARC
  5
C487
330
C1E3
100
AcDbEntity
  8
5
  6
PHANTOM
100
AcDbCircle
 10
242.7704609999999
 20
283.3463679999999
 30
0.0
 40
3.799999999999998
100
AcDbArc
 50
63.59393299999999
 51
72.19618
  0
ARC
  5
C488
330
C1E3
100
AcDbEntity
  8
5
  6
PHANTOM
100
AcDbCircle
 10
242.7704609999999
 20
283.3463679999999
 30
0.0
 40
4.599999999999997
100
AcDbArc
 50
63.59393299999999
 51
72.19618
  0
LINE
  5
C489
330
C1E3
100
AcDbEntity
  8
1
  6
Continuous
100
AcDbLine
 10
365.740568
 20
297.9917679999999
 30
0.0
 11
369.740568
 21
295.6823669999998
 31
0.0
  0
LINE
  5
C48A
330
C1E3
100
AcDbEntity
  8
1
  6
Continuous
100
AcDbLine
 10
369.740568
 20
295.6823669999998
 30
0.0
 11
373.740568
 21
297.9917679999999
 31
0.0
  0
LINE
  5
C48B
330
C1E3
100
AcDbEntity
  8
1
  6
Continuous
100
AcDbLine
 10
373.740568
 20
297.9917679999999
 30
0.0
 11
373.740568
 21
302.61057
 31
0.0
  0
LINE
  5
C48C
330
C1E3
100
AcDbEntity
  8
1
  6
Continuous
100
AcDbLine
 10
373.740568
 20
302.61057
 30
0.0
 11
369.740568
 21
304.9199709999999
 31
0.0
  0
LINE
  5
C48D
330
C1E3
100
AcDbEntity
  8
1
  6
Continuous
100
AcDbLine
 10
369.740568
 20
304.9199709999999
 30
0.0
 11
365.740568
 21
302.61057
 31
0.0
  0
LINE
  5
C48E
330
C1E3
100
AcDbEntity
  8
1
  6
Continuous
100
AcDbLine
 10
365.740568
 20
302.61057
 30
0.0
 11
365.740568
 21
297.9917679999999
 31
0.0
  0
ENDSEC
  0
SECTION
  2
OBJECTS
  0
DICTIONARY
  5
C1D1
330
0
100
AcDbDictionary
281
     1
  3
ACAD_CIP_PREVIOUS_PRODUCT_INFO
350
C4EE
  3
ACAD_COLOR
350
C4D0
  3
ACAD_DETAILVIEWSTYLE
350
C4E9
  3
ACAD_GROUP
350
C1D2
  3
ACAD_LAYOUT
350
C1DE
  3
ACAD_MATERIAL
350
C49E
  3
ACAD_MLEADERSTYLE
350
C4E5
  3
ACAD_MLINESTYLE
350
C1DB
  3
ACAD_PLOTSETTINGS
350
C1DD
  3
ACAD_PLOTSTYLENAME
350
C49C
  3
ACAD_SCALELIST
350
C4D3
  3
ACAD_SECTIONVIEWSTYLE
350
C4E7
  3
ACAD_TABLESTYLE
350
C4D1
  3
ACAD_VISUALSTYLE
350
C4B7
  3
ACDB_RECOMPOSE_DATA
350
C50C
  3
AcDbVariableDictionary
350
C4FF
  3
DWGPROPS
350
C50D
  0
DICTIONARY
  5
C4EF
330
C1D5
100
AcDbDictionary
280
     1
281
     1
  3
ADSK_XREC_LAYER_RECONCILED
360
C4F0
  0
DICTIONARY
  5
C4F1
330
C1EB
100
AcDbDictionary
280
     1
281
     1
  3
ADSK_XREC_LAYER_RECONCILED
360
C4F2
  0
DICTIONARY
  5
C4F3
330
C1EC
100
AcDbDictionary
280
     1
281
     1
  3
ADSK_XREC_LAYER_RECONCILED
360
C4F4
  0
DICTIONARY
  5
C4F5
330
C1ED
100
AcDbDictionary
280
     1
281
     1
  3
ADSK_XREC_LAYER_RECONCILED
360
C4F6
  0
DICTIONARY
  5
C4F7
330
C1EE
100
AcDbDictionary
280
     1
281
     1
  3
ADSK_XREC_LAYER_RECONCILED
360
C4F8
  0
DICTIONARY
  5
C4F9
330
C1EF
100
AcDbDictionary
280
     1
281
     1
  3
ADSK_XREC_LAYER_RECONCILED
360
C4FA
  0
DICTIONARY
  5
C4FB
330
C1F0
100
AcDbDictionary
280
     1
281
     1
  3
ADSK_XREC_LAYER_RECONCILED
360
C4FC
  0
DICTIONARY
  5
C4FD
330
C1F1
100
AcDbDictionary
280
     1
281
     1
  3
ADSK_XREC_LAYER_RECONCILED
360
C4FE
  0
DICTIONARY
  5
C497
330
C1E3
100
AcDbDictionary
281
     1
  3
ACAD_LAYOUTSELFREF
350
C498
  0
DICTIONARY
  5
C495
330
C1DF
100
AcDbDictionary
281
     1
  3
ACAD_LAYOUTSELFREF
350
C496
  0
XRECORD
  5
C4EE
102
{ACAD_REACTORS
330
C1D1
102
}
330
C1D1
100
AcDbXrecord
280
     1
300
ACDLT
300
2014
300
ACDLT_F_S
  0
DICTIONARY
  5
C4D0
102
{ACAD_REACTORS
330
C1D1
102
}
330
C1D1
100
AcDbDictionary
281
     1
  0
DICTIONARY
  5
C4E9
102
{ACAD_REACTORS
330
C1D1
102
}
330
C1D1
100
AcDbDictionary
281
     1
  3
Imperial24
350
C4EA
  0
DICTIONARY
  5
C1D2
102
{ACAD_REACTORS
330
C1D1
102
}
330
C1D1
100
AcDbDictionary
281
     1
  0
DICTIONARY
  5
C1DE
102
{ACAD_REACTORS
330
C1D1
102
}
330
C1D1
100
AcDbDictionary
281
     1
  3
Model
350
C4EB
  3
レイアウト1
350
C4EC
  0
DICTIONARY
  5
C49E
102
{ACAD_REACTORS
330
C1D1
102
}
330
C1D1
100
AcDbDictionary
281
     1
  3
ByBlock
350
C4A7
  3
ByLayer
350
C49F
  3
Global
350
C4AF
  0
DICTIONARY
  5
C4E5
102
{ACAD_REACTORS
330
C1D1
102
}
330
C1D1
100
AcDbDictionary
281
     1
  3
Standard
350
C4E6
  0
DICTIONARY
  5
C1DB
102
{ACAD_REACTORS
330
C1D1
102
}
330
C1D1
100
AcDbDictionary
281
     1
  3
STANDARD
350
C1DC
  0
DICTIONARY
  5
C1DD
102
{ACAD_REACTORS
330
C1D1
102
}
330
C1D1
100
AcDbDictionary
281
     1
  0
ACDBDICTIONARYWDFLT
  5
C49C
102
{ACAD_REACTORS
330
C1D1
102
}
330
C1D1
100
AcDbDictionary
281
     1
  3
Normal
350
C49D
100
AcDbDictionaryWithDefault
340
C49D
  0
DICTIONARY
  5
C4D3
102
{ACAD_REACTORS
330
C1D1
102
}
330
C1D1
100
AcDbDictionary
281
     1
  3
A0
350
C4D4
  3
A1
350
C4D5
  3
A2
350
C4D6
  3
A3
350
C4D7
  3
A4
350
C4D8
  3
A5
350
C4D9
  3
A6
350
C4DA
  3
A7
350
C4DB
  3
A8
350
C4DC
  3
A9
350
C4DD
  3
B0
350
C4DE
  3
B1
350
C4DF
  3
B2
350
C4E0
  3
B3
350
C4E1
  3
B4
350
C4E2
  3
B5
350
C4E3
  3
B6
350
C4E4
  0
DICTIONARY
  5
C4E7
102
{ACAD_REACTORS
330
C1D1
102
}
330
C1D1
100
AcDbDictionary
281
     1
  3
Imperial24
350
C4E8
  0
DICTIONARY
  5
C4D1
102
{ACAD_REACTORS
330
C1D1
102
}
330
C1D1
100
AcDbDictionary
281
     1
  3
Standard
350
C4D2
  0
DICTIONARY
  5
C4B7
102
{ACAD_REACTORS
330
C1D1
102
}
330
C1D1
100
AcDbDictionary
281
     1
  3
2dWireframe
350
C4BD
  3
Basic
350
C4BC
  3
Brighten
350
C4C3
  3
ColorChange
350
C4C7
  3
Conceptual
350
C4C0
  3
Dim
350
C4C2
  3
EdgeColorOff
350
C4CF
  3
Facepattern
350
C4C6
  3
Flat
350
C4B8
  3
FlatWithEdges
350
C4B9
  3
Gouraud
350
C4BA
  3
GouraudWithEdges
350
C4BB
  3
Hidden
350
C4BF
  3
JitterOff
350
C4CD
  3
Linepattern
350
C4C5
  3
OverhangOff
350
C4CE
  3
Realistic
350
C4C1
  3
Shaded
350
C4CC
  3
Shaded with edges
350
C4CB
  3
Shades of Gray
350
C4C8
  3
Sketchy
350
C4C9
  3
Thicken
350
C4C4
  3
Wireframe
350
C4BE
  3
X-Ray
350
C4CA
  0
XRECORD
  5
C50C
102
{ACAD_REACTORS
330
C1D1
102
}
330
C1D1
100
AcDbXrecord
280
     1
 90
        1
330
C4D2
  0
DICTIONARY
  5
C4FF
102
{ACAD_REACTORS
330
C1D1
102
}
330
C1D1
100
AcDbDictionary
281
     1
  3
CANNOSCALE
350
C504
  3
CMLEADERSTYLE
350
C501
  3
CTABLESTYLE
350
C500
  3
CVIEWDETAILSTYLE
350
C502
  3
CVIEWSECTIONSTYLE
350
C503
  3
DIMASSOC
350
C507
  3
INDEXCTL
350
C506
  3
SORTENTS
350
C505
  3
XCLIPFRAME
350
C508
  0
XRECORD
  5
C50D
102
{ACAD_REACTORS
330
C1D1
102
}
330
C1D1
100
AcDbXrecord
280
     1
  1
DWGPROPS COOKIE
  2

  3

  4

  6

  7

  8
Yoshitsune
  9

300
=
301
=
302
=
303
=
304
=
305
=
306
=
307
=
308
=
309
=
 40
0.0000118402777778
 41
2451296.793625695
 42
2457192.658232755
  1

 90
        0
  0
XRECORD
  5
C4F0
102
{ACAD_REACTORS
330
C4EF
102
}
330
C4EF
100
AcDbXrecord
280
     1
290
     1
  0
XRECORD
  5
C4F2
102
{ACAD_REACTORS
330
C4F1
102
}
330
C4F1
100
AcDbXrecord
280
     1
290
     1
  0
XRECORD
  5
C4F4
102
{ACAD_REACTORS
330
C4F3
102
}
330
C4F3
100
AcDbXrecord
280
     1
290
     1
  0
XRECORD
  5
C4F6
102
{ACAD_REACTORS
330
C4F5
102
}
330
C4F5
100
AcDbXrecord
280
     1
290
     1
  0
XRECORD
  5
C4F8
102
{ACAD_REACTORS
330
C4F7
102
}
330
C4F7
100
AcDbXrecord
280
     1
290
     1
  0
XRECORD
  5
C4FA
102
{ACAD_REACTORS
330
C4F9
102
}
330
C4F9
100
AcDbXrecord
280
     1
290
     1
  0
XRECORD
  5
C4FC
102
{ACAD_REACTORS
330
C4FB
102
}
330
C4FB
100
AcDbXrecord
280
     1
290
     1
  0
XRECORD
  5
C4FE
102
{ACAD_REACTORS
330
C4FD
102
}
330
C4FD
100
AcDbXrecord
280
     1
290
     1
  0
XRECORD
  5
C498
102
{ACAD_REACTORS
330
C497
102
}
330
C497
100
AcDbXrecord
280
     1
340
C1E3
  0
XRECORD
  5
C496
102
{ACAD_REACTORS
330
C495
102
}
330
C495
100
AcDbXrecord
280
     1
340
C1DF
  0
ACDBDETAILVIEWSTYLE
  5
C4EA
102
{ACAD_XDICTIONARY
360
C545
102
}
102
{ACAD_REACTORS
330
C4E9
102
}
330
C4E9
100
AcDbModelDocViewStyle
 70
     0
  3
Imperial24
290
     0
100
AcDbDetailViewStyle
 70
     0
 71
     0
 90
        3
 71
     1
340
C1D6
 40
0.24
340
0
 40
0.24
300

 40
0.36
280
     3
 71
     2
340
C1DA
 90
       25
 71
     3
340
C1D6
 40
0.24
 90
        1
 40
0.75
 90
        1
300
%<\AcVar ViewType \f "%tc1">% %<\AcVar ViewDetailId>%\PSCALE %<\AcVar ViewScale \f "%sn">%
 71
     4
340
C1DA
 90
       25
340
C1DA
 90
       25
280
     0
  0
LAYOUT
  5
C4EB
102
{ACAD_XDICTIONARY
360
C547
102
}
102
{ACAD_REACTORS
330
C1DE
102
}
330
C1DE
100
AcDbPlotSettings
  1

  2
Canon LBP9100C
  4

  6

 40
0.0
 41
0.0
 42
0.0
 43
0.0
 44
0.0
 45
0.0
 46
0.0
 47
0.0
 48
0.0
 49
0.0
140
0.0
141
0.0
142
1.0
143
1.0
 70
  1712
 72
     0
 73
     0
 74
     0
  7

 75
     0
147
1.0
148
0.0
149
0.0
100
AcDbLayout
  1
Model
 70
     1
 71
     0
 10
0.0
 20
0.0
 11
12.0
 21
9.0
 12
0.0
 22
0.0
 32
0.0
 14
0.0
 24
0.0
 34
0.0
 15
0.0
 25
0.0
 35
0.0
146
0.0
 13
0.0
 23
0.0
 33
0.0
 16
1.0
 26
0.0
 36
0.0
 17
0.0
 27
1.0
 37
0.0
 76
     0
330
C1E3
331
C494
  0
LAYOUT
  5
C4EC
102
{ACAD_XDICTIONARY
360
C549
102
}
102
{ACAD_REACTORS
330
C1DE
102
}
330
C1DE
100
AcDbPlotSettings
  1

  2
Canon LBP9100C
  4

  6

 40
0.0
 41
0.0
 42
0.0
 43
0.0
 44
0.0
 45
0.0
 46
0.0
 47
0.0
 48
0.0
 49
0.0
140
0.0
141
0.0
142
1.0
143
1.0
 70
   688
 72
     0
 73
     0
 74
     5
  7

 75
    16
147
1.0
148
0.0
149
0.0
100
AcDbLayout
  1
レイアウト1
 70
     0
 71
     1
 10
0.0
 20
0.0
 11
420.0
 21
297.0
 12
0.0
 22
0.0
 32
0.0
 14
1.000000000000000E+20
 24
1.000000000000000E+20
 34
1.000000000000000E+20
 15
-1.000000000000000E+20
 25
-1.000000000000000E+20
 35
-1.000000000000000E+20
146
0.0
 13
0.0
 23
0.0
 33
0.0
 16
1.0
 26
0.0
 36
0.0
 17
0.0
 27
1.0
 37
0.0
 76
     0
330
C1DF
  0
MATERIAL
  5
C4A7
102
{ACAD_XDICTIONARY
360
C4A8
102
}
102
{ACAD_REACTORS
330
C49E
102
}
330
C49E
100
AcDbMaterial
  1
ByBlock
 72
     0
 43
0.0208333333333333
 43
0.0
 43
0.0
 43
0.0
 43
0.0
 43
0.0208333333333333
 43
0.0
 43
0.0
 43
0.0
 43
0.0
 43
1.0
 43
0.0
 43
0.0
 43
0.0
 43
0.0
 43
1.0
 77
     0
 47
0.0208333333333333
 47
0.0
 47
0.0
 47
0.0
 47
0.0
 47
0.0208333333333333
 47
0.0
 47
0.0
 47
0.0
 47
0.0
 47
1.0
 47
0.0
 47
0.0
 47
0.0
 47
0.0
 47
1.0
171
     0
 49
0.0208333333333333
 49
0.0
 49
0.0
 49
0.0
 49
0.0
 49
0.0208333333333333
 49
0.0
 49
0.0
 49
0.0
 49
0.0
 49
1.0
 49
0.0
 49
0.0
 49
0.0
 49
0.0
 49
1.0
175
     0
142
0.0208333333333333
142
0.0
142
0.0
142
0.0
142
0.0
142
0.0208333333333333
142
0.0
142
0.0
142
0.0
142
0.0
142
1.0
142
0.0
142
0.0
142
0.0
142
0.0
142
1.0
179
     0
144
0.0208333333333333
144
0.0
144
0.0
144
0.0
144
0.0
144
0.0208333333333333
144
0.0
144
0.0
144
0.0
144
0.0
144
1.0
144
0.0
144
0.0
144
0.0
144
0.0
144
1.0
147
0.0208333333333333
147
0.0
147
0.0
147
0.0
147
0.0
147
0.0208333333333333
147
0.0
147
0.0
147
0.0
147
0.0
147
1.0
147
0.0
147
0.0
147
0.0
147
0.0
147
1.0
  0
MATERIAL
  5
C49F
102
{ACAD_XDICTIONARY
360
C4A0
102
}
102
{ACAD_REACTORS
330
C49E
102
}
330
C49E
100
AcDbMaterial
  1
ByLayer
 72
     0
 43
0.0208333333333333
 43
0.0
 43
0.0
 43
0.0
 43
0.0
 43
0.0208333333333333
 43
0.0
 43
0.0
 43
0.0
 43
0.0
 43
1.0
 43
0.0
 43
0.0
 43
0.0
 43
0.0
 43
1.0
 77
     0
 47
0.0208333333333333
 47
0.0
 47
0.0
 47
0.0
 47
0.0
 47
0.0208333333333333
 47
0.0
 47
0.0
 47
0.0
 47
0.0
 47
1.0
 47
0.0
 47
0.0
 47
0.0
 47
0.0
 47
1.0
171
     0
 49
0.0208333333333333
 49
0.0
 49
0.0
 49
0.0
 49
0.0
 49
0.0208333333333333
 49
0.0
 49
0.0
 49
0.0
 49
0.0
 49
1.0
 49
0.0
 49
0.0
 49
0.0
 49
0.0
 49
1.0
175
     0
142
0.0208333333333333
142
0.0
142
0.0
142
0.0
142
0.0
142
0.0208333333333333
142
0.0
142
0.0
142
0.0
142
0.0
142
1.0
142
0.0
142
0.0
142
0.0
142
0.0
142
1.0
179
     0
144
0.0208333333333333
144
0.0
144
0.0
144
0.0
144
0.0
144
0.0208333333333333
144
0.0
144
0.0
144
0.0
144
0.0
144
1.0
144
0.0
144
0.0
144
0.0
144
0.0
144
1.0
147
0.0208333333333333
147
0.0
147
0.0
147
0.0
147
0.0
147
0.0208333333333333
147
0.0
147
0.0
147
0.0
147
0.0
147
1.0
147
0.0
147
0.0
147
0.0
147
0.0
147
1.0
  0
MATERIAL
  5
C4AF
102
{ACAD_XDICTIONARY
360
C4B0
102
}
102
{ACAD_REACTORS
330
C49E
102
}
330
C49E
100
AcDbMaterial
  1
Global
 72
     0
 43
0.0208333333333333
 43
0.0
 43
0.0
 43
0.0
 43
0.0
 43
0.0208333333333333
 43
0.0
 43
0.0
 43
0.0
 43
0.0
 43
1.0
 43
0.0
 43
0.0
 43
0.0
 43
0.0
 43
1.0
 77
     0
 47
0.0208333333333333
 47
0.0
 47
0.0
 47
0.0
 47
0.0
 47
0.0208333333333333
 47
0.0
 47
0.0
 47
0.0
 47
0.0
 47
1.0
 47
0.0
 47
0.0
 47
0.0
 47
0.0
 47
1.0
171
     0
 49
0.0208333333333333
 49
0.0
 49
0.0
 49
0.0
 49
0.0
 49
0.0208333333333333
 49
0.0
 49
0.0
 49
0.0
 49
0.0
 49
1.0
 49
0.0
 49
0.0
 49
0.0
 49
0.0
 49
1.0
175
     0
142
0.0208333333333333
142
0.0
142
0.0
142
0.0
142
0.0
142
0.0208333333333333
142
0.0
142
0.0
142
0.0
142
0.0
142
1.0
142
0.0
142
0.0
142
0.0
142
0.0
142
1.0
179
     0
144
0.0208333333333333
144
0.0
144
0.0
144
0.0
144
0.0
144
0.0208333333333333
144
0.0
144
0.0
144
0.0
144
0.0
144
1.0
144
0.0
144
0.0
144
0.0
144
0.0
144
1.0
147
0.0208333333333333
147
0.0
147
0.0
147
0.0
147
0.0
147
0.0208333333333333
147
0.0
147
0.0
147
0.0
147
0.0
147
1.0
147
0.0
147
0.0
147
0.0
147
0.0
147
1.0
  0
MLEADERSTYLE
  5
C4E6
102
{ACAD_REACTORS
330
C4E5
102
}
330
C4E5
100
AcDbMLeaderStyle
170
     2
171
     1
172
     0
 90
        2
 40
0.0
 41
0.0
173
     1
 91
-1056964608
340
C1D8
 92
       -2
290
     1
 42
0.09
291
     1
 43
0.36
  3
Standard
 44
0.18
300

342
C1D6
174
     1
178
     6
175
     1
176
     0
 93
-1056964608
 45
0.18
292
     0
297
     0
 46
0.18
 94
-1056964608
 47
1.0
 49
1.0
140
1.0
293
     1
141
0.0
294
     1
177
     0
142
1.0
295
     0
296
     0
143
0.125
1001
ACAD_MLEADERVER
1070
     2
  0
MLINESTYLE
  5
C1DC
102
{ACAD_REACTORS
330
C1DB
102
}
330
C1DB
100
AcDbMlineStyle
  2
STANDARD
 70
     0
  3

 62
   256
 51
90.0
 52
90.0
 71
     2
 49
0.5
 62
   256
  6
BYLAYER
 49
-0.5
 62
   256
  6
BYLAYER
  0
ACDBPLACEHOLDER
  5
C49D
102
{ACAD_REACTORS
330
C49C
102
}
330
C49C
  0
SCALE
  5
C4D4
102
{ACAD_REACTORS
330
C4D3
102
}
330
C4D3
100
AcDbScale
 70
     0
300
1:1
140
1.0
141
1.0
290
     1
  0
SCALE
  5
C4D5
102
{ACAD_REACTORS
330
C4D3
102
}
330
C4D3
100
AcDbScale
 70
     0
300
1/128" = 1'-0"
140
0.0078125
141
12.0
290
     0
  0
SCALE
  5
C4D6
102
{ACAD_REACTORS
330
C4D3
102
}
330
C4D3
100
AcDbScale
 70
     0
300
1/64" = 1'-0"
140
0.015625
141
12.0
290
     0
  0
SCALE
  5
C4D7
102
{ACAD_REACTORS
330
C4D3
102
}
330
C4D3
100
AcDbScale
 70
     0
300
1/32" = 1'-0"
140
0.03125
141
12.0
290
     0
  0
SCALE
  5
C4D8
102
{ACAD_REACTORS
330
C4D3
102
}
330
C4D3
100
AcDbScale
 70
     0
300
1/16" = 1'-0"
140
0.0625
141
12.0
290
     0
  0
SCALE
  5
C4D9
102
{ACAD_REACTORS
330
C4D3
102
}
330
C4D3
100
AcDbScale
 70
     0
300
3/32" = 1'-0"
140
0.09375
141
12.0
290
     0
  0
SCALE
  5
C4DA
102
{ACAD_REACTORS
330
C4D3
102
}
330
C4D3
100
AcDbScale
 70
     0
300
1/8" = 1'-0"
140
0.125
141
12.0
290
     0
  0
SCALE
  5
C4DB
102
{ACAD_REACTORS
330
C4D3
102
}
330
C4D3
100
AcDbScale
 70
     0
300
3/16" = 1'-0"
140
0.1875
141
12.0
290
     0
  0
SCALE
  5
C4DC
102
{ACAD_REACTORS
330
C4D3
102
}
330
C4D3
100
AcDbScale
 70
     0
300
1/4" = 1'-0"
140
0.25
141
12.0
290
     0
  0
SCALE
  5
C4DD
102
{ACAD_REACTORS
330
C4D3
102
}
330
C4D3
100
AcDbScale
 70
     0
300
3/8" = 1'-0"
140
0.375
141
12.0
290
     0
  0
SCALE
  5
C4DE
102
{ACAD_REACTORS
330
C4D3
102
}
330
C4D3
100
AcDbScale
 70
     0
300
1/2" = 1'-0"
140
0.5
141
12.0
290
     0
  0
SCALE
  5
C4DF
102
{ACAD_REACTORS
330
C4D3
102
}
330
C4D3
100
AcDbScale
 70
     0
300
3/4" = 1'-0"
140
0.75
141
12.0
290
     0
  0
SCALE
  5
C4E0
102
{ACAD_REACTORS
330
C4D3
102
}
330
C4D3
100
AcDbScale
 70
     0
300
1" = 1'-0"
140
1.0
141
12.0
290
     0
  0
SCALE
  5
C4E1
102
{ACAD_REACTORS
330
C4D3
102
}
330
C4D3
100
AcDbScale
 70
     0
300
1-1/2" = 1'-0"
140
1.5
141
12.0
290
     0
  0
SCALE
  5
C4E2
102
{ACAD_REACTORS
330
C4D3
102
}
330
C4D3
100
AcDbScale
 70
     0
300
3" = 1'-0"
140
3.0
141
12.0
290
     0
  0
SCALE
  5
C4E3
102
{ACAD_REACTORS
330
C4D3
102
}
330
C4D3
100
AcDbScale
 70
     0
300
6" = 1'-0"
140
6.0
141
12.0
290
     0
  0
SCALE
  5
C4E4
102
{ACAD_REACTORS
330
C4D3
102
}
330
C4D3
100
AcDbScale
 70
     0
300
1'-0" = 1'-0"
140
12.0
141
12.0
290
     0
  0
ACDBSECTIONVIEWSTYLE
  5
C4E8
102
{ACAD_XDICTIONARY
360
C543
102
}
102
{ACAD_REACTORS
330
C4E7
102
}
330
C4E7
100
AcDbModelDocViewStyle
 70
     0
  3
Imperial24
290
     0
100
AcDbSectionViewStyle
 70
     0
 71
     0
 90
       78
 71
     1
340
C1D6
 40
0.24
340
0
340
0
 40
0.24
300
I, O, Q, S, X, Z
 40
0.48
 90
        3
 40
0.18
 90
        1
 71
     2
340
C1DA
 90
       25
340
C1DA
 90
       50
 40
0.24
 40
0.0
 40
0.24
 71
     3
340
C1D6
 40
0.24
 90
        1
 40
0.75
 90
        1
300
%<\AcVar ViewType \f "%tc1">% %<\AcVar ViewSectionStartId>%-%<\AcVar ViewSectionEndId>%\PSCALE %<\AcVar ViewScale \f "%sn">%
 71
     4
300
ANSI31
 40
1.0
 90
        0
290
     0
290
     0
 90
        6
 40
0.0
 40
1.570796326794896
 40
0.2617993877991494
 40
1.308996938995747
 40
-0.2617993877991494
 40
1.832595714594046
  0
TABLESTYLE
  5
C4D2
102
{ACAD_XDICTIONARY
360
C50A
102
}
102
{ACAD_REACTORS
330
C4D1
102
}
330
C4D1
100
AcDbTableStyle
  3
Standard
 70
     0
 71
     0
 40
0.06
 41
0.06
280
     0
281
     0
  7
STANDARD
140
0.18
170
     2
 62
     0
 63
     7
283
     0
274
    -2
284
     1
 64
     0
275
    -2
285
     1
 65
     0
276
    -2
286
     1
 66
     0
277
    -2
287
     1
 67
     0
278
    -2
288
     1
 68
     0
279
    -2
289
     1
 69
     0
  7
STANDARD
140
0.25
170
     5
 62
     0
 63
     7
283
     0
274
    -2
284
     1
 64
     0
275
    -2
285
     1
 65
     0
276
    -2
286
     1
 66
     0
277
    -2
287
     1
 67
     0
278
    -2
288
     1
 68
     0
279
    -2
289
     1
 69
     0
  7
STANDARD
140
0.18
170
     5
 62
     0
 63
     7
283
     0
274
    -2
284
     1
 64
     0
275
    -2
285
     1
 65
     0
276
    -2
286
     1
 66
     0
277
    -2
287
     1
 67
     0
278
    -2
288
     1
 68
     0
279
    -2
289
     1
 69
     0
  0
VISUALSTYLE
  5
C4BD
102
{ACAD_XDICTIONARY
360
C51B
102
}
102
{ACAD_REACTORS
330
C4B7
102
}
330
C4B7
100
AcDbVisualStyle
  2
2dWireframe
 70
     4
 71
     0
 72
     2
 73
     0
 90
        0
 40
-0.6
 41
-30.0
 62
     5
 63
     7
 74
     1
 91
        4
 64
     7
 65
   257
 75
     1
175
     1
 42
1.0
 92
        0
 66
   257
 43
1.0
 76
     1
 77
     6
 78
     2
 67
     7
 79
     5
170
     0
171
     0
290
     0
174
     0
 93
        1
 44
0.0
173
     0
291
     0
 45
0.0
1001
ACAD
1000
AcDbSavedByObjectVersion
1070
     0
  0
VISUALSTYLE
  5
C4BC
102
{ACAD_XDICTIONARY
360
C519
102
}
102
{ACAD_REACTORS
330
C4B7
102
}
330
C4B7
100
AcDbVisualStyle
  2
Basic
 70
     7
 71
     1
 72
     0
 73
     1
 90
        0
 40
-0.6
 41
-30.0
 62
     5
 63
     7
 74
     0
 91
        4
 64
     7
 65
   257
 75
     1
175
     1
 42
1.0
 92
        8
 66
     7
 43
1.0
 76
     1
 77
     6
 78
     2
 67
     7
 79
     5
170
     0
171
     0
290
     0
174
     0
 93
        1
 44
0.0
173
     0
291
     1
 45
0.0
1001
ACAD
1000
AcDbSavedByObjectVersion
1070
     0
  0
VISUALSTYLE
  5
C4C3
102
{ACAD_XDICTIONARY
360
C527
102
}
102
{ACAD_REACTORS
330
C4B7
102
}
330
C4B7
100
AcDbVisualStyle
  2
Brighten
 70
    12
 71
     2
 72
     2
 73
     0
 90
        0
 40
-0.6
 41
-30.0
 62
     5
 63
     7
 74
     1
 91
        4
 64
     7
 65
   257
 75
     1
175
     1
 42
1.0
 92
        8
 66
     7
 43
1.0
 76
     1
 77
     6
 78
     2
 67
     7
 79
     5
170
     0
171
     0
290
     0
174
     0
 93
        1
 44
50.0
173
     0
291
     1
 45
0.0
1001
ACAD
1000
AcDbSavedByObjectVersion
1070
     0
  0
VISUALSTYLE
  5
C4C7
102
{ACAD_XDICTIONARY
360
C52F
102
}
102
{ACAD_REACTORS
330
C4B7
102
}
330
C4B7
100
AcDbVisualStyle
  2
ColorChange
 70
    16
 71
     2
 72
     2
 73
     3
 90
        0
 40
-0.6
 41
-30.0
 62
     5
 63
     8
 74
     1
 91
        4
 64
     7
 65
   257
 75
     1
175
     1
 42
1.0
 92
        8
 66
     8
 43
1.0
 76
     1
 77
     6
 78
     2
 67
     7
 79
     5
170
     0
171
     0
290
     0
174
     0
 93
        1
 44
0.0
173
     0
291
     1
 45
0.0
1001
ACAD
1000
AcDbSavedByObjectVersion
1070
     0
  0
VISUALSTYLE
  5
C4C0
102
{ACAD_XDICTIONARY
360
C521
102
}
102
{ACAD_REACTORS
330
C4B7
102
}
330
C4B7
100
AcDbVisualStyle
  2
Conceptual
 70
     9
 71
     3
 72
     2
 73
     0
 90
        0
 40
-0.6
 41
-30.0
 62
     5
 63
     7
 74
     2
 91
        2
 64
     7
 65
   257
 75
     1
175
     1
 42
179.0
 92
        8
 66
     7
 43
1.0
 76
     1
 77
     6
 78
     2
 67
     7
 79
     3
170
     0
171
     0
290
     0
174
     0
 93
        1
 44
0.0
173
     0
291
     0
 45
0.0
1001
ACAD
1000
AcDbSavedByObjectVersion
1070
     0
  0
VISUALSTYLE
  5
C4C2
102
{ACAD_XDICTIONARY
360
C525
102
}
102
{ACAD_REACTORS
330
C4B7
102
}
330
C4B7
100
AcDbVisualStyle
  2
Dim
 70
    11
 71
     2
 72
     2
 73
     0
 90
        0
 40
-0.6
 41
-30.0
 62
     5
 63
     7
 74
     1
 91
        4
 64
     7
 65
   257
 75
     1
175
     1
 42
1.0
 92
        8
 66
     7
 43
1.0
 76
     1
 77
     6
 78
     2
 67
     7
 79
     5
170
     0
171
     0
290
     0
174
     0
 93
        1
 44
-50.0
173
     0
291
     1
 45
0.0
1001
ACAD
1000
AcDbSavedByObjectVersion
1070
     0
  0
VISUALSTYLE
  5
C4CF
102
{ACAD_XDICTIONARY
360
C53F
102
}
102
{ACAD_REACTORS
330
C4B7
102
}
330
C4B7
100
AcDbVisualStyle
  2
EdgeColorOff
 70
    22
 71
     2
 72
     2
 73
     0
 90
        0
 40
-0.6
 41
-30.0
 62
     5
 63
     7
 74
     1
 91
        4
 64
     7
 65
   257
 75
     1
175
     1
 42
1.0
 92
        8
 66
     7
 43
1.0
 76
     1
 77
     6
 78
     2
 67
     7
 79
     5
170
     0
171
     0
290
     0
174
     0
 93
        1
 44
0.0
173
     0
291
     1
 45
0.0
1001
ACAD
1000
AcDbSavedByObjectVersion
1070
     0
  0
VISUALSTYLE
  5
C4C6
102
{ACAD_XDICTIONARY
360
C52D
102
}
102
{ACAD_REACTORS
330
C4B7
102
}
330
C4B7
100
AcDbVisualStyle
  2
Facepattern
 70
    15
 71
     2
 72
     2
 73
     0
 90
        0
 40
-0.6
 41
-30.0
 62
     5
 63
     7
 74
     1
 91
        4
 64
     7
 65
   257
 75
     1
175
     1
 42
1.0
 92
        8
 66
     7
 43
1.0
 76
     1
 77
     6
 78
     2
 67
     7
 79
     5
170
     0
171
     0
290
     0
174
     0
 93
        1
 44
0.0
173
     0
291
     1
 45
0.0
1001
ACAD
1000
AcDbSavedByObjectVersion
1070
     0
  0
VISUALSTYLE
  5
C4B8
102
{ACAD_XDICTIONARY
360
C511
102
}
102
{ACAD_REACTORS
330
C4B7
102
}
330
C4B7
100
AcDbVisualStyle
  2
Flat
 70
     0
 71
     2
 72
     1
 73
     1
 90
        2
 40
-0.6
 41
30.0
 62
     5
 63
     7
 74
     0
 91
        0
 64
     7
 65
   257
 75
     1
175
     1
 42
1.0
 92
        8
 66
     7
 43
1.0
 76
     1
 77
     6
 78
     2
 67
     7
 79
     5
170
     0
171
     0
290
     0
174
     0
 93
       13
 44
0.0
173
     0
291
     1
 45
0.0
1001
ACAD
1000
AcDbSavedByObjectVersion
1070
     0
  0
VISUALSTYLE
  5
C4B9
102
{ACAD_XDICTIONARY
360
C513
102
}
102
{ACAD_REACTORS
330
C4B7
102
}
330
C4B7
100
AcDbVisualStyle
  2
FlatWithEdges
 70
     1
 71
     2
 72
     1
 73
     1
 90
        2
 40
-0.6
 41
30.0
 62
     5
 63
     7
 74
     1
 91
        0
 64
     7
 65
   257
 75
     1
175
     1
 42
1.0
 92
        0
 66
   257
 43
1.0
 76
     1
 77
     6
 78
     2
 67
     7
 79
     5
170
     0
171
     0
290
     0
174
     0
 93
       13
 44
0.0
173
     0
291
     1
 45
0.0
1001
ACAD
1000
AcDbSavedByObjectVersion
1070
     0
  0
VISUALSTYLE
  5
C4BA
102
{ACAD_XDICTIONARY
360
C515
102
}
102
{ACAD_REACTORS
330
C4B7
102
}
330
C4B7
100
AcDbVisualStyle
  2
Gouraud
 70
     2
 71
     2
 72
     2
 73
     1
 90
        2
 40
-0.6
 41
30.0
 62
     5
 63
     7
 74
     0
 91
        0
 64
     7
 65
   257
 75
     1
175
     1
 42
1.0
 92
        0
 66
     7
 43
1.0
 76
     1
 77
     6
 78
     2
 67
     7
 79
     5
170
     0
171
     0
290
     0
174
     0
 93
       13
 44
0.0
173
     0
291
     1
 45
0.0
1001
ACAD
1000
AcDbSavedByObjectVersion
1070
     0
  0
VISUALSTYLE
  5
C4BB
102
{ACAD_XDICTIONARY
360
C517
102
}
102
{ACAD_REACTORS
330
C4B7
102
}
330
C4B7
100
AcDbVisualStyle
  2
GouraudWithEdges
 70
     3
 71
     2
 72
     2
 73
     1
 90
        2
 40
-0.6
 41
30.0
 62
     5
 63
     7
 74
     1
 91
        0
 64
     7
 65
   257
 75
     1
175
     1
 42
1.0
 92
        0
 66
   257
 43
1.0
 76
     1
 77
     6
 78
     2
 67
     7
 79
     5
170
     0
171
     0
290
     0
174
     0
 93
       13
 44
0.0
173
     0
291
     1
 45
0.0
1001
ACAD
1000
AcDbSavedByObjectVersion
1070
     0
  0
VISUALSTYLE
  5
C4BF
102
{ACAD_XDICTIONARY
360
C51F
102
}
102
{ACAD_REACTORS
330
C4B7
102
}
330
C4B7
100
AcDbVisualStyle
  2
Hidden
 70
     6
 71
     1
 72
     2
 73
     2
 90
        0
 40
-0.6
 41
-30.0
 62
     5
 63
     7
 74
     2
 91
        2
 64
     7
 65
   257
 75
     2
175
     1
 42
40.0
 92
        0
 66
   257
 43
1.0
 76
     1
 77
     6
 78
     2
 67
     7
 79
     3
170
     0
171
     0
290
     0
174
     0
 93
        1
 44
0.0
173
     0
291
     0
 45
0.0
1001
ACAD
1000
AcDbSavedByObjectVersion
1070
     0
  0
VISUALSTYLE
  5
C4CD
102
{ACAD_XDICTIONARY
360
C53B
102
}
102
{ACAD_REACTORS
330
C4B7
102
}
330
C4B7
100
AcDbVisualStyle
  2
JitterOff
 70
    20
 71
     2
 72
     2
 73
     0
 90
        0
 40
-0.6
 41
-30.0
 62
     5
 63
     7
 74
     1
 91
        4
 64
     7
 65
   257
 75
     1
175
     1
 42
1.0
 92
       10
 66
     7
 43
1.0
 76
     1
 77
     6
 78
     2
 67
     7
 79
     5
170
     0
171
     0
290
     0
174
     0
 93
        1
 44
0.0
173
     0
291
     1
 45
0.0
1001
ACAD
1000
AcDbSavedByObjectVersion
1070
     0
  0
VISUALSTYLE
  5
C4C5
102
{ACAD_XDICTIONARY
360
C52B
102
}
102
{ACAD_REACTORS
330
C4B7
102
}
330
C4B7
100
AcDbVisualStyle
  2
Linepattern
 70
    14
 71
     2
 72
     2
 73
     0
 90
        0
 40
-0.6
 41
-30.0
 62
     5
 63
     7
 74
     1
 91
        4
 64
     7
 65
   257
 75
     7
175
     7
 42
1.0
 92
        8
 66
     7
 43
1.0
 76
     1
 77
     6
 78
     2
 67
     7
 79
     5
170
     0
171
     0
290
     0
174
     0
 93
        1
 44
0.0
173
     0
291
     1
 45
0.0
1001
ACAD
1000
AcDbSavedByObjectVersion
1070
     0
  0
VISUALSTYLE
  5
C4CE
102
{ACAD_XDICTIONARY
360
C53D
102
}
102
{ACAD_REACTORS
330
C4B7
102
}
330
C4B7
100
AcDbVisualStyle
  2
OverhangOff
 70
    21
 71
     2
 72
     2
 73
     0
 90
        0
 40
-0.6
 41
-30.0
 62
     5
 63
     7
 74
     1
 91
        4
 64
     7
 65
   257
 75
     1
175
     1
 42
1.0
 92
        9
 66
     7
 43
1.0
 76
     1
 77
     6
 78
     2
 67
     7
 79
     5
170
     0
171
     0
290
     0
174
     0
 93
        1
 44
0.0
173
     0
291
     1
 45
0.0
1001
ACAD
1000
AcDbSavedByObjectVersion
1070
     0
  0
VISUALSTYLE
  5
C4C1
102
{ACAD_XDICTIONARY
360
C523
102
}
102
{ACAD_REACTORS
330
C4B7
102
}
330
C4B7
100
AcDbVisualStyle
  2
Realistic
 70
     8
 71
     2
 72
     3
 73
     0
 90
        2
 40
-0.6
 41
30.0
 62
     5
 63
     7
 74
     0
 91
        0
 64
     7
 65
   257
 75
     1
175
     1
 42
1.0
 92
        8
 66
   257
 43
1.0
 76
     1
 77
     6
 78
     2
 67
     7
 79
     3
170
     0
171
     0
290
     0
174
     0
 93
       13
 44
0.0
173
     0
291
     0
 45
0.0
1001
ACAD
1000
AcDbSavedByObjectVersion
1070
     0
  0
VISUALSTYLE
  5
C4CC
102
{ACAD_XDICTIONARY
360
C539
102
}
102
{ACAD_REACTORS
330
C4B7
102
}
330
C4B7
100
AcDbVisualStyle
  2
Shaded
 70
    27
 71
     2
 72
     2
 73
     1
 90
        2
 40
-0.6
 41
30.0
 62
     5
 63
     7
 74
     0
 91
        4
 64
     7
 65
   257
 75
     1
175
     1
 42
1.0
 92
        8
 66
   257
 43
1.0
 76
     1
 77
     6
 78
     2
 67
     8
 79
     3
170
     0
171
     0
290
     0
174
     0
 93
        5
 44
0.0
173
     0
291
     0
 45
0.0
1001
ACAD
1000
AcDbSavedByObjectVersion
1070
     0
  0
VISUALSTYLE
  5
C4CB
102
{ACAD_XDICTIONARY
360
C537
102
}
102
{ACAD_REACTORS
330
C4B7
102
}
330
C4B7
100
AcDbVisualStyle
  2
Shaded with edges
 70
    26
 71
     2
 72
     2
 73
     1
 90
        2
 40
-0.6
 41
30.0
 62
     5
 63
     7
 74
     1
 91
       10
 64
     7
 65
   257
 75
     2
175
     1
 42
1.0
 92
        8
 66
   257
 43
1.0
 76
     1
 77
     6
 78
     2
 67
     7
 79
     3
170
     0
171
     0
290
     0
174
     0
 93
        5
 44
0.0
173
     0
291
     0
 45
0.0
1001
ACAD
1000
AcDbSavedByObjectVersion
1070
     0
  0
VISUALSTYLE
  5
C4C8
102
{ACAD_XDICTIONARY
360
C531
102
}
102
{ACAD_REACTORS
330
C4B7
102
}
330
C4B7
100
AcDbVisualStyle
  2
Shades of Gray
 70
    23
 71
     2
 72
     2
 73
     3
 90
        0
 40
-0.6
 41
-30.0
 62
     5
 63
     7
 74
     2
 91
        2
 64
     7
 65
     7
 75
     1
175
     1
 42
40.0
 92
        8
 66
     7
 43
1.0
 76
     1
 77
     6
 78
     2
 67
     7
 79
     3
170
     0
171
     0
290
     0
174
     0
 93
        1
 44
0.0
173
     0
291
     0
 45
0.0
1001
ACAD
1000
AcDbSavedByObjectVersion
1070
     0
  0
VISUALSTYLE
  5
C4C9
102
{ACAD_XDICTIONARY
360
C533
102
}
102
{ACAD_REACTORS
330
C4B7
102
}
330
C4B7
100
AcDbVisualStyle
  2
Sketchy
 70
    24
 71
     1
 72
     2
 73
     2
 90
        0
 40
-0.6
 41
-30.0
 62
     5
 63
     7
 74
     2
 91
        2
 64
     7
 65
     7
 75
     1
175
     1
 42
40.0
 92
       11
 66
     7
 43
1.0
 76
     1
 77
     6
 78
     2
 67
     7
 79
     6
170
     0
171
     0
290
     0
174
     0
 93
        1
 44
0.0
173
     0
291
     0
 45
0.0
1001
ACAD
1000
AcDbSavedByObjectVersion
1070
     0
  0
VISUALSTYLE
  5
C4C4
102
{ACAD_XDICTIONARY
360
C529
102
}
102
{ACAD_REACTORS
330
C4B7
102
}
330
C4B7
100
AcDbVisualStyle
  2
Thicken
 70
    13
 71
     2
 72
     2
 73
     0
 90
        0
 40
-0.6
 41
-30.0
 62
     5
 63
     7
 74
     1
 91
        4
 64
     7
 65
   257
 75
     1
175
     1
 42
1.0
 92
       12
 66
     7
 43
1.0
 76
     1
 77
     6
 78
     2
 67
     7
 79
     5
170
     0
171
     0
290
     0
174
     0
 93
        1
 44
0.0
173
     0
291
     1
 45
0.0
1001
ACAD
1000
AcDbSavedByObjectVersion
1070
     0
  0
VISUALSTYLE
  5
C4BE
102
{ACAD_XDICTIONARY
360
C51D
102
}
102
{ACAD_REACTORS
330
C4B7
102
}
330
C4B7
100
AcDbVisualStyle
  2
Wireframe
 70
     5
 71
     0
 72
     2
 73
     0
 90
        0
 40
-0.6
 41
-30.0
 62
     5
 63
     7
 74
     1
 91
        4
 64
     7
 65
   257
 75
     1
175
     1
 42
1.0
 92
        0
 66
   257
 43
1.0
 76
     1
 77
     6
 78
     2
 67
     7
 79
     3
170
     0
171
     0
290
     0
174
     0
 93
        1
 44
0.0
173
     0
291
     0
 45
0.0
1001
ACAD
1000
AcDbSavedByObjectVersion
1070
     0
  0
VISUALSTYLE
  5
C4CA
102
{ACAD_XDICTIONARY
360
C535
102
}
102
{ACAD_REACTORS
330
C4B7
102
}
330
C4B7
100
AcDbVisualStyle
  2
X-Ray
 70
    25
 71
     2
 72
     2
 73
     1
 90
        1
 40
0.5
 41
-30.0
 62
     5
 63
     7
 74
     1
 91
        0
 64
     7
 65
   257
 75
     1
175
     1
 42
1.0
 92
        8
 66
     7
 43
1.0
 76
     1
 77
     6
 78
     2
 67
     7
 79
     3
170
     0
171
     0
290
     0
174
     0
 93
       13
 44
0.0
173
     0
291
     0
 45
0.0
1001
ACAD
1000
AcDbSavedByObjectVersion
1070
     0
  0
DICTIONARYVAR
  5
C504
102
{ACAD_REACTORS
330
C4FF
102
}
330
C4FF
100
DictionaryVariables
280
     0
  1
1:1
  0
DICTIONARYVAR
  5
C501
102
{ACAD_REACTORS
330
C4FF
102
}
330
C4FF
100
DictionaryVariables
280
     0
  1
STANDARD
  0
DICTIONARYVAR
  5
C500
102
{ACAD_REACTORS
330
C4FF
102
}
330
C4FF
100
DictionaryVariables
280
     0
  1
STANDARD
  0
DICTIONARYVAR
  5
C502
102
{ACAD_REACTORS
330
C4FF
102
}
330
C4FF
100
DictionaryVariables
280
     0
  1
Imperial24
  0
DICTIONARYVAR
  5
C503
102
{ACAD_REACTORS
330
C4FF
102
}
330
C4FF
100
DictionaryVariables
280
     0
  1
Imperial24
  0
DICTIONARYVAR
  5
C507
102
{ACAD_REACTORS
330
C4FF
102
}
330
C4FF
100
DictionaryVariables
280
     0
  1
1
  0
DICTIONARYVAR
  5
C506
102
{ACAD_REACTORS
330
C4FF
102
}
330
C4FF
100
DictionaryVariables
280
     0
  1
0
  0
DICTIONARYVAR
  5
C505
102
{ACAD_REACTORS
330
C4FF
102
}
330
C4FF
100
DictionaryVariables
280
     0
  1
127
  0
DICTIONARYVAR
  5
C508
102
{ACAD_REACTORS
330
C4FF
102
}
330
C4FF
100
DictionaryVariables
280
     0
  1
2
  0
DICTIONARY
  5
C545
330
C4EA
100
AcDbDictionary
280
     1
281
     1
  3
ACAD_XREC_ROUNDTRIP
360
C546
  0
DICTIONARY
  5
C547
330
C4EB
100
AcDbDictionary
280
     1
281
     1
  3
ACAD_XREC_ROUNDTRIP
360
C548
  0
DICTIONARY
  5
C549
330
C4EC
100
AcDbDictionary
280
     1
281
     1
  3
ACAD_XREC_ROUNDTRIP
360
C54A
  0
DICTIONARY
  5
C4A8
330
C4A7
100
AcDbDictionary
280
     1
281
     1
  3
ACAD_XREC_ROUNDTRIP
360
C50F
  3
BUMPTILE
360
C4AA
  3
DIFFUSETILE
360
C4A9
  3
OPACITYTILE
360
C4AD
  3
REFLECTIONTILE
360
C4AC
  3
REFRACTIONTILE
360
C4AE
  3
SPECULARTILE
360
C4AB
  0
DICTIONARY
  5
C4A0
330
C49F
100
AcDbDictionary
280
     1
281
     1
  3
ACAD_XREC_ROUNDTRIP
360
C50E
  3
BUMPTILE
360
C4A2
  3
DIFFUSETILE
360
C4A1
  3
OPACITYTILE
360
C4A5
  3
REFLECTIONTILE
360
C4A4
  3
REFRACTIONTILE
360
C4A6
  3
SPECULARTILE
360
C4A3
  0
DICTIONARY
  5
C4B0
330
C4AF
100
AcDbDictionary
280
     1
281
     1
  3
ACAD_XREC_ROUNDTRIP
360
C510
  3
BUMPTILE
360
C4B2
  3
DIFFUSETILE
360
C4B1
  3
OPACITYTILE
360
C4B5
  3
REFLECTIONTILE
360
C4B4
  3
REFRACTIONTILE
360
C4B6
  3
SPECULARTILE
360
C4B3
  0
DICTIONARY
  5
C543
330
C4E8
100
AcDbDictionary
280
     1
281
     1
  3
ACAD_XREC_ROUNDTRIP
360
C544
  0
DICTIONARY
  5
C50A
330
C4D2
100
AcDbDictionary
280
     1
281
     1
  3
ACAD_ROUNDTRIP_2008_TABLESTYLE_CELLSTYLEMAP
360
C50B
  3
ACAD_XREC_ROUNDTRIP
360
C541
  0
DICTIONARY
  5
C51B
330
C4BD
100
AcDbDictionary
280
     1
281
     1
  3
ACAD_XREC_ROUNDTRIP
360
C51C
  0
DICTIONARY
  5
C519
330
C4BC
100
AcDbDictionary
280
     1
281
     1
  3
ACAD_XREC_ROUNDTRIP
360
C51A
  0
DICTIONARY
  5
C527
330
C4C3
100
AcDbDictionary
280
     1
281
     1
  3
ACAD_XREC_ROUNDTRIP
360
C528
  0
DICTIONARY
  5
C52F
330
C4C7
100
AcDbDictionary
280
     1
281
     1
  3
ACAD_XREC_ROUNDTRIP
360
C530
  0
DICTIONARY
  5
C521
330
C4C0
100
AcDbDictionary
280
     1
281
     1
  3
ACAD_XREC_ROUNDTRIP
360
C522
  0
DICTIONARY
  5
C525
330
C4C2
100
AcDbDictionary
280
     1
281
     1
  3
ACAD_XREC_ROUNDTRIP
360
C526
  0
DICTIONARY
  5
C53F
330
C4CF
100
AcDbDictionary
280
     1
281
     1
  3
ACAD_XREC_ROUNDTRIP
360
C540
  0
DICTIONARY
  5
C52D
330
C4C6
100
AcDbDictionary
280
     1
281
     1
  3
ACAD_XREC_ROUNDTRIP
360
C52E
  0
DICTIONARY
  5
C511
330
C4B8
100
AcDbDictionary
280
     1
281
     1
  3
ACAD_XREC_ROUNDTRIP
360
C512
  0
DICTIONARY
  5
C513
330
C4B9
100
AcDbDictionary
280
     1
281
     1
  3
ACAD_XREC_ROUNDTRIP
360
C514
  0
DICTIONARY
  5
C515
330
C4BA
100
AcDbDictionary
280
     1
281
     1
  3
ACAD_XREC_ROUNDTRIP
360
C516
  0
DICTIONARY
  5
C517
330
C4BB
100
AcDbDictionary
280
     1
281
     1
  3
ACAD_XREC_ROUNDTRIP
360
C518
  0
DICTIONARY
  5
C51F
330
C4BF
100
AcDbDictionary
280
     1
281
     1
  3
ACAD_XREC_ROUNDTRIP
360
C520
  0
DICTIONARY
  5
C53B
330
C4CD
100
AcDbDictionary
280
     1
281
     1
  3
ACAD_XREC_ROUNDTRIP
360
C53C
  0
DICTIONARY
  5
C52B
330
C4C5
100
AcDbDictionary
280
     1
281
     1
  3
ACAD_XREC_ROUNDTRIP
360
C52C
  0
DICTIONARY
  5
C53D
330
C4CE
100
AcDbDictionary
280
     1
281
     1
  3
ACAD_XREC_ROUNDTRIP
360
C53E
  0
DICTIONARY
  5
C523
330
C4C1
100
AcDbDictionary
280
     1
281
     1
  3
ACAD_XREC_ROUNDTRIP
360
C524
  0
DICTIONARY
  5
C539
330
C4CC
100
AcDbDictionary
280
     1
281
     1
  3
ACAD_XREC_ROUNDTRIP
360
C53A
  0
DICTIONARY
  5
C537
330
C4CB
100
AcDbDictionary
280
     1
281
     1
  3
ACAD_XREC_ROUNDTRIP
360
C538
  0
DICTIONARY
  5
C531
330
C4C8
100
AcDbDictionary
280
     1
281
     1
  3
ACAD_XREC_ROUNDTRIP
360
C532
  0
DICTIONARY
  5
C533
330
C4C9
100
AcDbDictionary
280
     1
281
     1
  3
ACAD_XREC_ROUNDTRIP
360
C534
  0
DICTIONARY
  5
C529
330
C4C4
100
AcDbDictionary
280
     1
281
     1
  3
ACAD_XREC_ROUNDTRIP
360
C52A
  0
DICTIONARY
  5
C51D
330
C4BE
100
AcDbDictionary
280
     1
281
     1
  3
ACAD_XREC_ROUNDTRIP
360
C51E
  0
DICTIONARY
  5
C535
330
C4CA
100
AcDbDictionary
280
     1
281
     1
  3
ACAD_XREC_ROUNDTRIP
360
C536
  0
XRECORD
  5
C546
102
{ACAD_REACTORS
330
C545
102
}
330
C545
100
AcDbXrecord
280
     1
102
DISPLAYNAME
  1
Imperial24
102
FLAGS
 90
        0
  0
XRECORD
  5
C548
102
{ACAD_REACTORS
330
C547
102
}
330
C547
100
AcDbXrecord
280
     1
102
SHADEPLOT
 70
     0
102
SHADEPLOTRESLEVEL
 70
     2
102
SHADEPLOTCUSTOMDPI
 70
   300
  0
XRECORD
  5
C54A
102
{ACAD_REACTORS
330
C549
102
}
330
C549
100
AcDbXrecord
280
     1
102
SHADEPLOT
 70
     0
102
SHADEPLOTRESLEVEL
 70
     2
102
SHADEPLOTCUSTOMDPI
 70
   300
  0
XRECORD
  5
C50F
102
{ACAD_REACTORS
330
C4A8
102
}
330
C4A8
100
AcDbXrecord
280
     1
102
MATERIAL
148
0.0
149
0.0
149
0.0
 93
        0
 94
      127
282
     0
 72
     0
 77
     0
171
     0
175
     0
179
     0
273
     0
  0
XRECORD
  5
C4AA
102
{ACAD_REACTORS
330
C4A8
102
}
330
C4A8
100
AcDbXrecord
280
     1
270
     1
271
     1
  0
XRECORD
  5
C4A9
102
{ACAD_REACTORS
330
C4A8
102
}
330
C4A8
100
AcDbXrecord
280
     1
270
     1
271
     1
  0
XRECORD
  5
C4AD
102
{ACAD_REACTORS
330
C4A8
102
}
330
C4A8
100
AcDbXrecord
280
     1
270
     1
271
     1
  0
XRECORD
  5
C4AC
102
{ACAD_REACTORS
330
C4A8
102
}
330
C4A8
100
AcDbXrecord
280
     1
270
     1
271
     1
  0
XRECORD
  5
C4AE
102
{ACAD_REACTORS
330
C4A8
102
}
330
C4A8
100
AcDbXrecord
280
     1
270
     1
271
     1
  0
XRECORD
  5
C4AB
102
{ACAD_REACTORS
330
C4A8
102
}
330
C4A8
100
AcDbXrecord
280
     1
270
     1
271
     1
  0
XRECORD
  5
C50E
102
{ACAD_REACTORS
330
C4A0
102
}
330
C4A0
100
AcDbXrecord
280
     1
102
MATERIAL
148
0.0
149
0.0
149
0.0
 93
        0
 94
      127
282
     0
 72
     0
 77
     0
171
     0
175
     0
179
     0
273
     0
  0
XRECORD
  5
C4A2
102
{ACAD_REACTORS
330
C4A0
102
}
330
C4A0
100
AcDbXrecord
280
     1
270
     1
271
     1
  0
XRECORD
  5
C4A1
102
{ACAD_REACTORS
330
C4A0
102
}
330
C4A0
100
AcDbXrecord
280
     1
270
     1
271
     1
  0
XRECORD
  5
C4A5
102
{ACAD_REACTORS
330
C4A0
102
}
330
C4A0
100
AcDbXrecord
280
     1
270
     1
271
     1
  0
XRECORD
  5
C4A4
102
{ACAD_REACTORS
330
C4A0
102
}
330
C4A0
100
AcDbXrecord
280
     1
270
     1
271
     1
  0
XRECORD
  5
C4A6
102
{ACAD_REACTORS
330
C4A0
102
}
330
C4A0
100
AcDbXrecord
280
     1
270
     1
271
     1
  0
XRECORD
  5
C4A3
102
{ACAD_REACTORS
330
C4A0
102
}
330
C4A0
100
AcDbXrecord
280
     1
270
     1
271
     1
  0
XRECORD
  5
C510
102
{ACAD_REACTORS
330
C4B0
102
}
330
C4B0
100
AcDbXrecord
280
     1
102
MATERIAL
148
0.0
149
0.0
149
0.0
 93
        0
 94
      127
282
     0
 72
     0
 77
     0
171
     0
175
     0
179
     0
273
     0
  0
XRECORD
  5
C4B2
102
{ACAD_REACTORS
330
C4B0
102
}
330
C4B0
100
AcDbXrecord
280
     1
270
     1
271
     1
  0
XRECORD
  5
C4B1
102
{ACAD_REACTORS
330
C4B0
102
}
330
C4B0
100
AcDbXrecord
280
     1
270
     1
271
     1
  0
XRECORD
  5
C4B5
102
{ACAD_REACTORS
330
C4B0
102
}
330
C4B0
100
AcDbXrecord
280
     1
270
     1
271
     1
  0
XRECORD
  5
C4B4
102
{ACAD_REACTORS
330
C4B0
102
}
330
C4B0
100
AcDbXrecord
280
     1
270
     1
271
     1
  0
XRECORD
  5
C4B6
102
{ACAD_REACTORS
330
C4B0
102
}
330
C4B0
100
AcDbXrecord
280
     1
270
     1
271
     1
  0
XRECORD
  5
C4B3
102
{ACAD_REACTORS
330
C4B0
102
}
330
C4B0
100
AcDbXrecord
280
     1
270
     1
271
     1
  0
XRECORD
  5
C544
102
{ACAD_REACTORS
330
C543
102
}
330
C543
100
AcDbXrecord
280
     1
102
DISPLAYNAME
  1
Imperial24
102
FLAGS
 90
        0
  0
CELLSTYLEMAP
  5
C50B
102
{ACAD_REACTORS
330
C50A
102
}
330
C50A
100
AcDbCellStyleMap
 90
        3
300
CELLSTYLE
  1
TABLEFORMAT_BEGIN
 90
        5
170
     1
 91
        0
 92
    32768
 62
   257
 93
        1
300
CONTENTFORMAT
  1
CONTENTFORMAT_BEGIN
 90
        0
 91
        0
 92
      512
 93
        0
300

 40
0.0
140
1.0
 94
        5
 62
     0
340
C1D6
144
0.25
309
CONTENTFORMAT_END
171
     0
 94
        0
309
TABLEFORMAT_END
  1
CELLSTYLE_BEGIN
 90
        1
 91
        1
300
_TITLE
309
CELLSTYLE_END
300
CELLSTYLE
  1
TABLEFORMAT_BEGIN
 90
        5
170
     1
 91
        0
 92
        0
 62
   257
 93
        1
300
CONTENTFORMAT
  1
CONTENTFORMAT_BEGIN
 90
        0
 91
        0
 92
      512
 93
        0
300

 40
0.0
140
1.0
 94
        5
 62
     0
340
C1D6
144
0.18
309
CONTENTFORMAT_END
171
     0
 94
        0
309
TABLEFORMAT_END
  1
CELLSTYLE_BEGIN
 90
        2
 91
        1
300
_HEADER
309
CELLSTYLE_END
300
CELLSTYLE
  1
TABLEFORMAT_BEGIN
 90
        5
170
     1
 91
        0
 92
        0
 62
   257
 93
        1
300
CONTENTFORMAT
  1
CONTENTFORMAT_BEGIN
 90
        0
 91
        0
 92
      512
 93
        0
300

 40
0.0
140
1.0
 94
        2
 62
     0
340
C1D6
144
0.18
309
CONTENTFORMAT_END
171
     0
 94
        0
309
TABLEFORMAT_END
  1
CELLSTYLE_BEGIN
 90
        3
 91
        2
300
_DATA
309
CELLSTYLE_END
  0
XRECORD
  5
C541
102
{ACAD_REACTORS
330
C50A
102
}
330
C50A
100
AcDbXrecord
280
     1
102
ACAD_ROUNDTRIP_PRE2007_TABLESTYLE
 90
      512
 91
        0
  1

 92
      512
 93
        0
  2

 94
      512
 95
        0
  3

  0
XRECORD
  5
C51C
102
{ACAD_REACTORS
330
C51B
102
}
330
C51B
100
AcDbXrecord
280
     1
102
RTVSPost2010Prop28
280
     1
102
RTVSPost2010PropOp28
 70
     1
102
RTVSPost2010Prop29
280
     1
102
RTVSPost2010PropOp29
 70
     1
102
RTVSPost2010Prop30
280
     0
102
RTVSPost2010PropOp30
 70
     1
102
RTVSPost2010Prop31
280
     0
102
RTVSPost2010PropOp31
 70
     1
102
RTVSPost2010Prop32
280
     0
102
RTVSPost2010PropOp32
 70
     1
102
RTVSPost2010Prop33
280
     0
102
RTVSPost2010PropOp33
 70
     1
102
RTVSPost2010Prop34
280
     0
102
RTVSPost2010PropOp34
 70
     1
102
RTVSPost2010Prop35
280
     0
102
RTVSPost2010PropOp35
 70
     1
102
RTVSPost2010Prop36
280
     0
102
RTVSPost2010PropOp36
 70
     1
102
RTVSPost2010Prop37
 90
       50
102
RTVSPost2010PropOp37
 70
     1
102
RTVSPost2010Prop38
140
0.0
102
RTVSPost2010PropOp38
 70
     1
102
RTVSPost2010Prop39
140
1.0
102
RTVSPost2010PropOp39
 70
     1
102
RTVSPost2010Prop40
 90
        0
102
RTVSPost2010PropOp40
 70
     1
102
RTVSPost2010Prop41ColorIndex
 90
       18
102
RTVSPost2010Prop41ColorRGB
 90
        0
102
RTVSPost2010PropOp41
 70
     1
102
RTVSPost2010Prop42
 90
       50
102
RTVSPost2010PropOp42
 70
     1
102
RTVSPost2010Prop43
 90
        3
102
RTVSPost2010PropOp43
 70
     1
102
RTVSPost2010Prop44ColorIndex
 90
        5
102
RTVSPost2010Prop44ColorRGB
 90
      255
102
RTVSPost2010PropOp44
 70
     1
102
RTVSPost2010Prop45
280
     0
102
RTVSPost2010PropOp45
 70
     1
102
RTVSPost2010Prop46
 90
       50
102
RTVSPost2010PropOp46
 70
     1
102
RTVSPost2010Prop47
 90
       50
102
RTVSPost2010PropOp47
 70
     1
102
RTVSPost2010Prop48
 90
       50
102
RTVSPost2010PropOp48
 70
     1
102
RTVSPost2010Prop49
280
     0
102
RTVSPost2010PropOp49
 70
     1
102
RTVSPost2010Prop50
 90
       50
102
RTVSPost2010PropOp50
 70
     1
102
RTVSPost2010Prop51ColorIndex
 90
      256
102
RTVSPost2010Prop51ColorRGB
 90
-16777216
102
RTVSPost2010PropOp51
 70
     0
102
RTVSPost2010Prop52
140
1.0
102
RTVSPost2010PropOp52
 70
     0
102
RTVSPost2010Prop53
 90
        2
102
RTVSPost2010PropOp53
 70
     1
102
RTVSPost2010Prop54
  1
strokes_ogs.tif
102
RTVSPost2010PropOp54
 70
     1
102
RTVSPost2010Prop55
280
     0
102
RTVSPost2010PropOp55
 70
     1
102
RTVSPost2010Prop56
140
1.0
102
RTVSPost2010PropOp56
 70
     1
102
RTVSPost2010Prop57
140
1.0
102
RTVSPost2010PropOp57
 70
     1
102
RTVSPropertyOp0
 70
     1
102
RTVSPropertyOp1
 70
     1
102
RTVSPropertyOp2
 70
     1
102
RTVSPropertyOp3
 70
     1
102
RTVSPropertyOp4
 70
     1
102
RTVSPropertyOp5
 70
     1
102
RTVSPropertyOp6
 70
     1
102
RTVSPropertyOp7
 70
     1
102
RTVSPropertyOp8
 70
     1
102
RTVSPropertyOp9
 70
     1
102
RTVSPropertyOp10
 70
     1
102
RTVSPropertyOp11
 70
     1
102
RTVSPropertyOp12
 70
     1
102
RTVSPropertyOp13
 70
     1
102
RTVSPropertyOp14
 70
     1
102
RTVSPropertyOp15
 70
     1
102
RTVSPropertyOp16
 70
     1
102
RTVSPropertyOp17
 70
     1
102
RTVSPropertyOp18
 70
     1
102
RTVSPropertyOp19
 70
     1
102
RTVSPropertyOp20
 70
     1
102
RTVSPropertyOp21
 70
     1
102
RTVSPropertyOp22
 70
     1
102
RTVSPropertyOp23
 70
     1
102
RTVSPropertyOp24
 70
     1
102
RTVSPropertyOp25
 70
     1
102
RTVSPropertyOp26
 70
     1
102
RTVSPropertyOp27
 70
     1
102
RTVSPropertyOp28
 70
     1
102
RTVSPropertyOp29
 70
     1
102
RTVSPropertyOp30
 70
     1
102
RTVSPropertyOp31
 70
     1
102
RTVSPropertyOp32
 70
     1
102
RTVSPropertyOp33
 70
     1
102
RTVSPropertyOp34
 70
     1
102
RTVSPropertyOp35
 70
     1
102
RTVSPropertyOp36
 70
     1
102
RTVSPropertyOp37
 70
     1
102
RTVSPropertyOp38
 70
     1
102
RTVSPropertyOp39
 70
     1
102
RTVSPropertyOp40
 70
     1
102
RTVSPropertyOp41
 70
     1
102
RTVSPropertyOp42
 70
     1
102
RTVSPropertyOp43
 70
     1
102
RTVSPropertyOp44
 70
     1
102
RTVSPropertyOp45
 70
     1
102
RTVSPropertyOp46
 70
     1
102
RTVSPropertyOp47
 70
     1
102
RTVSPropertyOp48
 70
     1
102
RTVSPropertyOp49
 70
     1
102
RTVSPropertyOp50
 70
     1
102
RTVSPropertyOp51
 70
     0
102
RTVSPropertyOp52
 70
     0
102
RTVSPropertyOp53
 70
     1
102
RTVSPropertyOp54
 70
     1
102
RTVSPropertyOp55
 70
     1
102
RTVSPropertyOp56
 70
     1
102
RTVSPropertyOp57
 70
     1
102
RTVSPropertyOp58
 70
     1
102
RTVSPropertyOp59
 70
     1
102
RTVSPropertyOp60
 70
     1
102
RTVSPropertyOp61
 70
     1
102
RTVSPropertyOp62
 70
     1
  0
XRECORD
  5
C51A
102
{ACAD_REACTORS
330
C519
102
}
330
C519
100
AcDbXrecord
280
     1
102
RTVSPost2010Prop28
280
     0
102
RTVSPost2010PropOp28
 70
     1
102
RTVSPost2010Prop29
280
     1
102
RTVSPost2010PropOp29
 70
     1
102
RTVSPost2010Prop30
280
     1
102
RTVSPost2010PropOp30
 70
     1
102
RTVSPost2010Prop31
280
     0
102
RTVSPost2010PropOp31
 70
     1
102
RTVSPost2010Prop32
280
     0
102
RTVSPost2010PropOp32
 70
     1
102
RTVSPost2010Prop33
280
     0
102
RTVSPost2010PropOp33
 70
     1
102
RTVSPost2010Prop34
280
     0
102
RTVSPost2010PropOp34
 70
     1
102
RTVSPost2010Prop35
280
     0
102
RTVSPost2010PropOp35
 70
     1
102
RTVSPost2010Prop36
280
     0
102
RTVSPost2010PropOp36
 70
     1
102
RTVSPost2010Prop37
 90
       50
102
RTVSPost2010PropOp37
 70
     1
102
RTVSPost2010Prop38
140
0.0
102
RTVSPost2010PropOp38
 70
     1
102
RTVSPost2010Prop39
140
1.0
102
RTVSPost2010PropOp39
 70
     1
102
RTVSPost2010Prop40
 90
        0
102
RTVSPost2010PropOp40
 70
     1
102
RTVSPost2010Prop41ColorIndex
 90
       18
102
RTVSPost2010Prop41ColorRGB
 90
        0
102
RTVSPost2010PropOp41
 70
     1
102
RTVSPost2010Prop42
 90
       50
102
RTVSPost2010PropOp42
 70
     1
102
RTVSPost2010Prop43
 90
        3
102
RTVSPost2010PropOp43
 70
     1
102
RTVSPost2010Prop44ColorIndex
 90
        5
102
RTVSPost2010Prop44ColorRGB
 90
      255
102
RTVSPost2010PropOp44
 70
     1
102
RTVSPost2010Prop45
280
     0
102
RTVSPost2010PropOp45
 70
     1
102
RTVSPost2010Prop46
 90
       50
102
RTVSPost2010PropOp46
 70
     1
102
RTVSPost2010Prop47
 90
       50
102
RTVSPost2010PropOp47
 70
     1
102
RTVSPost2010Prop48
 90
       50
102
RTVSPost2010PropOp48
 70
     1
102
RTVSPost2010Prop49
280
     0
102
RTVSPost2010PropOp49
 70
     1
102
RTVSPost2010Prop50
 90
       50
102
RTVSPost2010PropOp50
 70
     1
102
RTVSPost2010Prop51ColorIndex
 90
      256
102
RTVSPost2010Prop51ColorRGB
 90
-16777216
102
RTVSPost2010PropOp51
 70
     0
102
RTVSPost2010Prop52
140
1.0
102
RTVSPost2010PropOp52
 70
     0
102
RTVSPost2010Prop53
 90
        2
102
RTVSPost2010PropOp53
 70
     1
102
RTVSPost2010Prop54
  1
strokes_ogs.tif
102
RTVSPost2010PropOp54
 70
     1
102
RTVSPost2010Prop55
280
     0
102
RTVSPost2010PropOp55
 70
     1
102
RTVSPost2010Prop56
140
1.0
102
RTVSPost2010PropOp56
 70
     1
102
RTVSPost2010Prop57
140
1.0
102
RTVSPost2010PropOp57
 70
     1
102
RTVSPropertyOp0
 70
     1
102
RTVSPropertyOp1
 70
     1
102
RTVSPropertyOp2
 70
     1
102
RTVSPropertyOp3
 70
     1
102
RTVSPropertyOp4
 70
     1
102
RTVSPropertyOp5
 70
     1
102
RTVSPropertyOp6
 70
     1
102
RTVSPropertyOp7
 70
     1
102
RTVSPropertyOp8
 70
     1
102
RTVSPropertyOp9
 70
     1
102
RTVSPropertyOp10
 70
     1
102
RTVSPropertyOp11
 70
     1
102
RTVSPropertyOp12
 70
     1
102
RTVSPropertyOp13
 70
     1
102
RTVSPropertyOp14
 70
     1
102
RTVSPropertyOp15
 70
     1
102
RTVSPropertyOp16
 70
     1
102
RTVSPropertyOp17
 70
     1
102
RTVSPropertyOp18
 70
     1
102
RTVSPropertyOp19
 70
     1
102
RTVSPropertyOp20
 70
     1
102
RTVSPropertyOp21
 70
     1
102
RTVSPropertyOp22
 70
     1
102
RTVSPropertyOp23
 70
     1
102
RTVSPropertyOp24
 70
     1
102
RTVSPropertyOp25
 70
     1
102
RTVSPropertyOp26
 70
     1
102
RTVSPropertyOp27
 70
     1
102
RTVSPropertyOp28
 70
     1
102
RTVSPropertyOp29
 70
     1
102
RTVSPropertyOp30
 70
     1
102
RTVSPropertyOp31
 70
     1
102
RTVSPropertyOp32
 70
     1
102
RTVSPropertyOp33
 70
     1
102
RTVSPropertyOp34
 70
     1
102
RTVSPropertyOp35
 70
     1
102
RTVSPropertyOp36
 70
     1
102
RTVSPropertyOp37
 70
     1
102
RTVSPropertyOp38
 70
     1
102
RTVSPropertyOp39
 70
     1
102
RTVSPropertyOp40
 70
     1
102
RTVSPropertyOp41
 70
     1
102
RTVSPropertyOp42
 70
     1
102
RTVSPropertyOp43
 70
     1
102
RTVSPropertyOp44
 70
     1
102
RTVSPropertyOp45
 70
     1
102
RTVSPropertyOp46
 70
     1
102
RTVSPropertyOp47
 70
     1
102
RTVSPropertyOp48
 70
     1
102
RTVSPropertyOp49
 70
     1
102
RTVSPropertyOp50
 70
     1
102
RTVSPropertyOp51
 70
     0
102
RTVSPropertyOp52
 70
     0
102
RTVSPropertyOp53
 70
     1
102
RTVSPropertyOp54
 70
     1
102
RTVSPropertyOp55
 70
     1
102
RTVSPropertyOp56
 70
     1
102
RTVSPropertyOp57
 70
     1
102
RTVSPropertyOp58
 70
     1
102
RTVSPropertyOp59
 70
     1
102
RTVSPropertyOp60
 70
     1
102
RTVSPropertyOp61
 70
     1
102
RTVSPropertyOp62
 70
     1
  0
XRECORD
  5
C528
102
{ACAD_REACTORS
330
C527
102
}
330
C527
100
AcDbXrecord
280
     1
102
RTVSPost2010Prop28
280
     0
102
RTVSPost2010PropOp28
 70
     1
102
RTVSPost2010Prop29
280
     1
102
RTVSPost2010PropOp29
 70
     1
102
RTVSPost2010Prop30
280
     1
102
RTVSPost2010PropOp30
 70
     1
102
RTVSPost2010Prop31
280
     0
102
RTVSPost2010PropOp31
 70
     1
102
RTVSPost2010Prop32
280
     0
102
RTVSPost2010PropOp32
 70
     1
102
RTVSPost2010Prop33
280
     0
102
RTVSPost2010PropOp33
 70
     1
102
RTVSPost2010Prop34
280
     0
102
RTVSPost2010PropOp34
 70
     1
102
RTVSPost2010Prop35
280
     0
102
RTVSPost2010PropOp35
 70
     1
102
RTVSPost2010Prop36
280
     0
102
RTVSPost2010PropOp36
 70
     1
102
RTVSPost2010Prop37
 90
       50
102
RTVSPost2010PropOp37
 70
     1
102
RTVSPost2010Prop38
140
0.0
102
RTVSPost2010PropOp38
 70
     1
102
RTVSPost2010Prop39
140
1.0
102
RTVSPost2010PropOp39
 70
     1
102
RTVSPost2010Prop40
 90
        0
102
RTVSPost2010PropOp40
 70
     1
102
RTVSPost2010Prop41ColorIndex
 90
       18
102
RTVSPost2010Prop41ColorRGB
 90
        0
102
RTVSPost2010PropOp41
 70
     1
102
RTVSPost2010Prop42
 90
       50
102
RTVSPost2010PropOp42
 70
     1
102
RTVSPost2010Prop43
 90
        3
102
RTVSPost2010PropOp43
 70
     1
102
RTVSPost2010Prop44ColorIndex
 90
        5
102
RTVSPost2010Prop44ColorRGB
 90
      255
102
RTVSPost2010PropOp44
 70
     1
102
RTVSPost2010Prop45
280
     0
102
RTVSPost2010PropOp45
 70
     1
102
RTVSPost2010Prop46
 90
       50
102
RTVSPost2010PropOp46
 70
     1
102
RTVSPost2010Prop47
 90
       50
102
RTVSPost2010PropOp47
 70
     1
102
RTVSPost2010Prop48
 90
       50
102
RTVSPost2010PropOp48
 70
     1
102
RTVSPost2010Prop49
280
     0
102
RTVSPost2010PropOp49
 70
     1
102
RTVSPost2010Prop50
 90
       50
102
RTVSPost2010PropOp50
 70
     1
102
RTVSPost2010Prop51ColorIndex
 90
      256
102
RTVSPost2010Prop51ColorRGB
 90
-16777216
102
RTVSPost2010PropOp51
 70
     0
102
RTVSPost2010Prop52
140
1.0
102
RTVSPost2010PropOp52
 70
     0
102
RTVSPost2010Prop53
 90
        2
102
RTVSPost2010PropOp53
 70
     1
102
RTVSPost2010Prop54
  1
strokes_ogs.tif
102
RTVSPost2010PropOp54
 70
     1
102
RTVSPost2010Prop55
280
     0
102
RTVSPost2010PropOp55
 70
     1
102
RTVSPost2010Prop56
140
1.0
102
RTVSPost2010PropOp56
 70
     1
102
RTVSPost2010Prop57
140
1.0
102
RTVSPost2010PropOp57
 70
     1
102
RTVSPropertyOp0
 70
     1
102
RTVSPropertyOp1
 70
     1
102
RTVSPropertyOp2
 70
     1
102
RTVSPropertyOp3
 70
     1
102
RTVSPropertyOp4
 70
     1
102
RTVSPropertyOp5
 70
     1
102
RTVSPropertyOp6
 70
     1
102
RTVSPropertyOp7
 70
     1
102
RTVSPropertyOp8
 70
     1
102
RTVSPropertyOp9
 70
     1
102
RTVSPropertyOp10
 70
     1
102
RTVSPropertyOp11
 70
     1
102
RTVSPropertyOp12
 70
     1
102
RTVSPropertyOp13
 70
     1
102
RTVSPropertyOp14
 70
     1
102
RTVSPropertyOp15
 70
     1
102
RTVSPropertyOp16
 70
     1
102
RTVSPropertyOp17
 70
     1
102
RTVSPropertyOp18
 70
     1
102
RTVSPropertyOp19
 70
     1
102
RTVSPropertyOp20
 70
     1
102
RTVSPropertyOp21
 70
     1
102
RTVSPropertyOp22
 70
     1
102
RTVSPropertyOp23
 70
     1
102
RTVSPropertyOp24
 70
     1
102
RTVSPropertyOp25
 70
     1
102
RTVSPropertyOp26
 70
     1
102
RTVSPropertyOp27
 70
     1
102
RTVSPropertyOp28
 70
     1
102
RTVSPropertyOp29
 70
     1
102
RTVSPropertyOp30
 70
     1
102
RTVSPropertyOp31
 70
     1
102
RTVSPropertyOp32
 70
     1
102
RTVSPropertyOp33
 70
     1
102
RTVSPropertyOp34
 70
     1
102
RTVSPropertyOp35
 70
     1
102
RTVSPropertyOp36
 70
     1
102
RTVSPropertyOp37
 70
     1
102
RTVSPropertyOp38
 70
     1
102
RTVSPropertyOp39
 70
     1
102
RTVSPropertyOp40
 70
     1
102
RTVSPropertyOp41
 70
     1
102
RTVSPropertyOp42
 70
     1
102
RTVSPropertyOp43
 70
     1
102
RTVSPropertyOp44
 70
     1
102
RTVSPropertyOp45
 70
     1
102
RTVSPropertyOp46
 70
     1
102
RTVSPropertyOp47
 70
     1
102
RTVSPropertyOp48
 70
     1
102
RTVSPropertyOp49
 70
     1
102
RTVSPropertyOp50
 70
     1
102
RTVSPropertyOp51
 70
     0
102
RTVSPropertyOp52
 70
     0
102
RTVSPropertyOp53
 70
     1
102
RTVSPropertyOp54
 70
     1
102
RTVSPropertyOp55
 70
     1
102
RTVSPropertyOp56
 70
     1
102
RTVSPropertyOp57
 70
     1
102
RTVSPropertyOp58
 70
     1
102
RTVSPropertyOp59
 70
     1
102
RTVSPropertyOp60
 70
     1
102
RTVSPropertyOp61
 70
     1
102
RTVSPropertyOp62
 70
     1
  0
XRECORD
  5
C530
102
{ACAD_REACTORS
330
C52F
102
}
330
C52F
100
AcDbXrecord
280
     1
102
RTVSPost2010Prop28
280
     0
102
RTVSPost2010PropOp28
 70
     1
102
RTVSPost2010Prop29
280
     1
102
RTVSPost2010PropOp29
 70
     1
102
RTVSPost2010Prop30
280
     1
102
RTVSPost2010PropOp30
 70
     1
102
RTVSPost2010Prop31
280
     0
102
RTVSPost2010PropOp31
 70
     1
102
RTVSPost2010Prop32
280
     0
102
RTVSPost2010PropOp32
 70
     1
102
RTVSPost2010Prop33
280
     0
102
RTVSPost2010PropOp33
 70
     1
102
RTVSPost2010Prop34
280
     0
102
RTVSPost2010PropOp34
 70
     1
102
RTVSPost2010Prop35
280
     0
102
RTVSPost2010PropOp35
 70
     1
102
RTVSPost2010Prop36
280
     0
102
RTVSPost2010PropOp36
 70
     1
102
RTVSPost2010Prop37
 90
       50
102
RTVSPost2010PropOp37
 70
     1
102
RTVSPost2010Prop38
140
0.0
102
RTVSPost2010PropOp38
 70
     1
102
RTVSPost2010Prop39
140
1.0
102
RTVSPost2010PropOp39
 70
     1
102
RTVSPost2010Prop40
 90
        0
102
RTVSPost2010PropOp40
 70
     1
102
RTVSPost2010Prop41ColorIndex
 90
       18
102
RTVSPost2010Prop41ColorRGB
 90
        0
102
RTVSPost2010PropOp41
 70
     1
102
RTVSPost2010Prop42
 90
       50
102
RTVSPost2010PropOp42
 70
     1
102
RTVSPost2010Prop43
 90
        3
102
RTVSPost2010PropOp43
 70
     1
102
RTVSPost2010Prop44ColorIndex
 90
        5
102
RTVSPost2010Prop44ColorRGB
 90
      255
102
RTVSPost2010PropOp44
 70
     1
102
RTVSPost2010Prop45
280
     0
102
RTVSPost2010PropOp45
 70
     1
102
RTVSPost2010Prop46
 90
       50
102
RTVSPost2010PropOp46
 70
     1
102
RTVSPost2010Prop47
 90
       50
102
RTVSPost2010PropOp47
 70
     1
102
RTVSPost2010Prop48
 90
       50
102
RTVSPost2010PropOp48
 70
     1
102
RTVSPost2010Prop49
280
     0
102
RTVSPost2010PropOp49
 70
     1
102
RTVSPost2010Prop50
 90
       50
102
RTVSPost2010PropOp50
 70
     1
102
RTVSPost2010Prop51ColorIndex
 90
      256
102
RTVSPost2010Prop51ColorRGB
 90
-16777216
102
RTVSPost2010PropOp51
 70
     0
102
RTVSPost2010Prop52
140
1.0
102
RTVSPost2010PropOp52
 70
     0
102
RTVSPost2010Prop53
 90
        2
102
RTVSPost2010PropOp53
 70
     1
102
RTVSPost2010Prop54
  1
strokes_ogs.tif
102
RTVSPost2010PropOp54
 70
     1
102
RTVSPost2010Prop55
280
     0
102
RTVSPost2010PropOp55
 70
     1
102
RTVSPost2010Prop56
140
1.0
102
RTVSPost2010PropOp56
 70
     1
102
RTVSPost2010Prop57
140
1.0
102
RTVSPost2010PropOp57
 70
     1
102
RTVSPropertyOp0
 70
     1
102
RTVSPropertyOp1
 70
     1
102
RTVSPropertyOp2
 70
     1
102
RTVSPropertyOp3
 70
     1
102
RTVSPropertyOp4
 70
     1
102
RTVSPropertyOp5
 70
     1
102
RTVSPropertyOp6
 70
     1
102
RTVSPropertyOp7
 70
     1
102
RTVSPropertyOp8
 70
     1
102
RTVSPropertyOp9
 70
     1
102
RTVSPropertyOp10
 70
     1
102
RTVSPropertyOp11
 70
     1
102
RTVSPropertyOp12
 70
     1
102
RTVSPropertyOp13
 70
     1
102
RTVSPropertyOp14
 70
     1
102
RTVSPropertyOp15
 70
     1
102
RTVSPropertyOp16
 70
     1
102
RTVSPropertyOp17
 70
     1
102
RTVSPropertyOp18
 70
     1
102
RTVSPropertyOp19
 70
     1
102
RTVSPropertyOp20
 70
     1
102
RTVSPropertyOp21
 70
     1
102
RTVSPropertyOp22
 70
     1
102
RTVSPropertyOp23
 70
     1
102
RTVSPropertyOp24
 70
     1
102
RTVSPropertyOp25
 70
     1
102
RTVSPropertyOp26
 70
     1
102
RTVSPropertyOp27
 70
     1
102
RTVSPropertyOp28
 70
     1
102
RTVSPropertyOp29
 70
     1
102
RTVSPropertyOp30
 70
     1
102
RTVSPropertyOp31
 70
     1
102
RTVSPropertyOp32
 70
     1
102
RTVSPropertyOp33
 70
     1
102
RTVSPropertyOp34
 70
     1
102
RTVSPropertyOp35
 70
     1
102
RTVSPropertyOp36
 70
     1
102
RTVSPropertyOp37
 70
     1
102
RTVSPropertyOp38
 70
     1
102
RTVSPropertyOp39
 70
     1
102
RTVSPropertyOp40
 70
     1
102
RTVSPropertyOp41
 70
     1
102
RTVSPropertyOp42
 70
     1
102
RTVSPropertyOp43
 70
     1
102
RTVSPropertyOp44
 70
     1
102
RTVSPropertyOp45
 70
     1
102
RTVSPropertyOp46
 70
     1
102
RTVSPropertyOp47
 70
     1
102
RTVSPropertyOp48
 70
     1
102
RTVSPropertyOp49
 70
     1
102
RTVSPropertyOp50
 70
     1
102
RTVSPropertyOp51
 70
     0
102
RTVSPropertyOp52
 70
     0
102
RTVSPropertyOp53
 70
     1
102
RTVSPropertyOp54
 70
     1
102
RTVSPropertyOp55
 70
     1
102
RTVSPropertyOp56
 70
     1
102
RTVSPropertyOp57
 70
     1
102
RTVSPropertyOp58
 70
     1
102
RTVSPropertyOp59
 70
     1
102
RTVSPropertyOp60
 70
     1
102
RTVSPropertyOp61
 70
     1
102
RTVSPropertyOp62
 70
     1
  0
XRECORD
  5
C522
102
{ACAD_REACTORS
330
C521
102
}
330
C521
100
AcDbXrecord
280
     1
102
RTVSPost2010Prop28
280
     0
102
RTVSPost2010PropOp28
 70
     1
102
RTVSPost2010Prop29
280
     1
102
RTVSPost2010PropOp29
 70
     1
102
RTVSPost2010Prop30
280
     1
102
RTVSPost2010PropOp30
 70
     1
102
RTVSPost2010Prop31
280
     0
102
RTVSPost2010PropOp31
 70
     1
102
RTVSPost2010Prop32
280
     0
102
RTVSPost2010PropOp32
 70
     1
102
RTVSPost2010Prop33
280
     0
102
RTVSPost2010PropOp33
 70
     1
102
RTVSPost2010Prop34
280
     0
102
RTVSPost2010PropOp34
 70
     1
102
RTVSPost2010Prop35
280
     0
102
RTVSPost2010PropOp35
 70
     1
102
RTVSPost2010Prop36
280
     0
102
RTVSPost2010PropOp36
 70
     1
102
RTVSPost2010Prop37
 90
       50
102
RTVSPost2010PropOp37
 70
     1
102
RTVSPost2010Prop38
140
0.0
102
RTVSPost2010PropOp38
 70
     1
102
RTVSPost2010Prop39
140
1.0
102
RTVSPost2010PropOp39
 70
     1
102
RTVSPost2010Prop40
 90
        0
102
RTVSPost2010PropOp40
 70
     1
102
RTVSPost2010Prop41ColorIndex
 90
       18
102
RTVSPost2010Prop41ColorRGB
 90
        0
102
RTVSPost2010PropOp41
 70
     1
102
RTVSPost2010Prop42
 90
       50
102
RTVSPost2010PropOp42
 70
     1
102
RTVSPost2010Prop43
 90
        3
102
RTVSPost2010PropOp43
 70
     1
102
RTVSPost2010Prop44ColorIndex
 90
        5
102
RTVSPost2010Prop44ColorRGB
 90
      255
102
RTVSPost2010PropOp44
 70
     1
102
RTVSPost2010Prop45
280
     0
102
RTVSPost2010PropOp45
 70
     1
102
RTVSPost2010Prop46
 90
       50
102
RTVSPost2010PropOp46
 70
     1
102
RTVSPost2010Prop47
 90
       50
102
RTVSPost2010PropOp47
 70
     1
102
RTVSPost2010Prop48
 90
       50
102
RTVSPost2010PropOp48
 70
     1
102
RTVSPost2010Prop49
280
     0
102
RTVSPost2010PropOp49
 70
     1
102
RTVSPost2010Prop50
 90
       50
102
RTVSPost2010PropOp50
 70
     1
102
RTVSPost2010Prop51ColorIndex
 90
      256
102
RTVSPost2010Prop51ColorRGB
 90
-16777216
102
RTVSPost2010PropOp51
 70
     0
102
RTVSPost2010Prop52
140
1.0
102
RTVSPost2010PropOp52
 70
     0
102
RTVSPost2010Prop53
 90
        2
102
RTVSPost2010PropOp53
 70
     1
102
RTVSPost2010Prop54
  1
strokes_ogs.tif
102
RTVSPost2010PropOp54
 70
     1
102
RTVSPost2010Prop55
280
     0
102
RTVSPost2010PropOp55
 70
     1
102
RTVSPost2010Prop56
140
1.0
102
RTVSPost2010PropOp56
 70
     1
102
RTVSPost2010Prop57
140
1.0
102
RTVSPost2010PropOp57
 70
     1
102
RTVSPropertyOp0
 70
     1
102
RTVSPropertyOp1
 70
     1
102
RTVSPropertyOp2
 70
     1
102
RTVSPropertyOp3
 70
     1
102
RTVSPropertyOp4
 70
     1
102
RTVSPropertyOp5
 70
     1
102
RTVSPropertyOp6
 70
     1
102
RTVSPropertyOp7
 70
     1
102
RTVSPropertyOp8
 70
     1
102
RTVSPropertyOp9
 70
     1
102
RTVSPropertyOp10
 70
     1
102
RTVSPropertyOp11
 70
     1
102
RTVSPropertyOp12
 70
     1
102
RTVSPropertyOp13
 70
     1
102
RTVSPropertyOp14
 70
     1
102
RTVSPropertyOp15
 70
     1
102
RTVSPropertyOp16
 70
     1
102
RTVSPropertyOp17
 70
     1
102
RTVSPropertyOp18
 70
     1
102
RTVSPropertyOp19
 70
     1
102
RTVSPropertyOp20
 70
     1
102
RTVSPropertyOp21
 70
     1
102
RTVSPropertyOp22
 70
     1
102
RTVSPropertyOp23
 70
     1
102
RTVSPropertyOp24
 70
     1
102
RTVSPropertyOp25
 70
     1
102
RTVSPropertyOp26
 70
     1
102
RTVSPropertyOp27
 70
     1
102
RTVSPropertyOp28
 70
     1
102
RTVSPropertyOp29
 70
     1
102
RTVSPropertyOp30
 70
     1
102
RTVSPropertyOp31
 70
     1
102
RTVSPropertyOp32
 70
     1
102
RTVSPropertyOp33
 70
     1
102
RTVSPropertyOp34
 70
     1
102
RTVSPropertyOp35
 70
     1
102
RTVSPropertyOp36
 70
     1
102
RTVSPropertyOp37
 70
     1
102
RTVSPropertyOp38
 70
     1
102
RTVSPropertyOp39
 70
     1
102
RTVSPropertyOp40
 70
     1
102
RTVSPropertyOp41
 70
     1
102
RTVSPropertyOp42
 70
     1
102
RTVSPropertyOp43
 70
     1
102
RTVSPropertyOp44
 70
     1
102
RTVSPropertyOp45
 70
     1
102
RTVSPropertyOp46
 70
     1
102
RTVSPropertyOp47
 70
     1
102
RTVSPropertyOp48
 70
     1
102
RTVSPropertyOp49
 70
     1
102
RTVSPropertyOp50
 70
     1
102
RTVSPropertyOp51
 70
     0
102
RTVSPropertyOp52
 70
     0
102
RTVSPropertyOp53
 70
     1
102
RTVSPropertyOp54
 70
     1
102
RTVSPropertyOp55
 70
     1
102
RTVSPropertyOp56
 70
     1
102
RTVSPropertyOp57
 70
     1
102
RTVSPropertyOp58
 70
     1
102
RTVSPropertyOp59
 70
     1
102
RTVSPropertyOp60
 70
     1
102
RTVSPropertyOp61
 70
     1
102
RTVSPropertyOp62
 70
     1
  0
XRECORD
  5
C526
102
{ACAD_REACTORS
330
C525
102
}
330
C525
100
AcDbXrecord
280
     1
102
RTVSPost2010Prop28
280
     0
102
RTVSPost2010PropOp28
 70
     1
102
RTVSPost2010Prop29
280
     1
102
RTVSPost2010PropOp29
 70
     1
102
RTVSPost2010Prop30
280
     1
102
RTVSPost2010PropOp30
 70
     1
102
RTVSPost2010Prop31
280
     0
102
RTVSPost2010PropOp31
 70
     1
102
RTVSPost2010Prop32
280
     0
102
RTVSPost2010PropOp32
 70
     1
102
RTVSPost2010Prop33
280
     0
102
RTVSPost2010PropOp33
 70
     1
102
RTVSPost2010Prop34
280
     0
102
RTVSPost2010PropOp34
 70
     1
102
RTVSPost2010Prop35
280
     0
102
RTVSPost2010PropOp35
 70
     1
102
RTVSPost2010Prop36
280
     0
102
RTVSPost2010PropOp36
 70
     1
102
RTVSPost2010Prop37
 90
       50
102
RTVSPost2010PropOp37
 70
     1
102
RTVSPost2010Prop38
140
0.0
102
RTVSPost2010PropOp38
 70
     1
102
RTVSPost2010Prop39
140
1.0
102
RTVSPost2010PropOp39
 70
     1
102
RTVSPost2010Prop40
 90
        0
102
RTVSPost2010PropOp40
 70
     1
102
RTVSPost2010Prop41ColorIndex
 90
       18
102
RTVSPost2010Prop41ColorRGB
 90
        0
102
RTVSPost2010PropOp41
 70
     1
102
RTVSPost2010Prop42
 90
       50
102
RTVSPost2010PropOp42
 70
     1
102
RTVSPost2010Prop43
 90
        3
102
RTVSPost2010PropOp43
 70
     1
102
RTVSPost2010Prop44ColorIndex
 90
        5
102
RTVSPost2010Prop44ColorRGB
 90
      255
102
RTVSPost2010PropOp44
 70
     1
102
RTVSPost2010Prop45
280
     0
102
RTVSPost2010PropOp45
 70
     1
102
RTVSPost2010Prop46
 90
       50
102
RTVSPost2010PropOp46
 70
     1
102
RTVSPost2010Prop47
 90
       50
102
RTVSPost2010PropOp47
 70
     1
102
RTVSPost2010Prop48
 90
       50
102
RTVSPost2010PropOp48
 70
     1
102
RTVSPost2010Prop49
280
     0
102
RTVSPost2010PropOp49
 70
     1
102
RTVSPost2010Prop50
 90
       50
102
RTVSPost2010PropOp50
 70
     1
102
RTVSPost2010Prop51ColorIndex
 90
      256
102
RTVSPost2010Prop51ColorRGB
 90
-16777216
102
RTVSPost2010PropOp51
 70
     0
102
RTVSPost2010Prop52
140
1.0
102
RTVSPost2010PropOp52
 70
     0
102
RTVSPost2010Prop53
 90
        2
102
RTVSPost2010PropOp53
 70
     1
102
RTVSPost2010Prop54
  1
strokes_ogs.tif
102
RTVSPost2010PropOp54
 70
     1
102
RTVSPost2010Prop55
280
     0
102
RTVSPost2010PropOp55
 70
     1
102
RTVSPost2010Prop56
140
1.0
102
RTVSPost2010PropOp56
 70
     1
102
RTVSPost2010Prop57
140
1.0
102
RTVSPost2010PropOp57
 70
     1
102
RTVSPropertyOp0
 70
     1
102
RTVSPropertyOp1
 70
     1
102
RTVSPropertyOp2
 70
     1
102
RTVSPropertyOp3
 70
     1
102
RTVSPropertyOp4
 70
     1
102
RTVSPropertyOp5
 70
     1
102
RTVSPropertyOp6
 70
     1
102
RTVSPropertyOp7
 70
     1
102
RTVSPropertyOp8
 70
     1
102
RTVSPropertyOp9
 70
     1
102
RTVSPropertyOp10
 70
     1
102
RTVSPropertyOp11
 70
     1
102
RTVSPropertyOp12
 70
     1
102
RTVSPropertyOp13
 70
     1
102
RTVSPropertyOp14
 70
     1
102
RTVSPropertyOp15
 70
     1
102
RTVSPropertyOp16
 70
     1
102
RTVSPropertyOp17
 70
     1
102
RTVSPropertyOp18
 70
     1
102
RTVSPropertyOp19
 70
     1
102
RTVSPropertyOp20
 70
     1
102
RTVSPropertyOp21
 70
     1
102
RTVSPropertyOp22
 70
     1
102
RTVSPropertyOp23
 70
     1
102
RTVSPropertyOp24
 70
     1
102
RTVSPropertyOp25
 70
     1
102
RTVSPropertyOp26
 70
     1
102
RTVSPropertyOp27
 70
     1
102
RTVSPropertyOp28
 70
     1
102
RTVSPropertyOp29
 70
     1
102
RTVSPropertyOp30
 70
     1
102
RTVSPropertyOp31
 70
     1
102
RTVSPropertyOp32
 70
     1
102
RTVSPropertyOp33
 70
     1
102
RTVSPropertyOp34
 70
     1
102
RTVSPropertyOp35
 70
     1
102
RTVSPropertyOp36
 70
     1
102
RTVSPropertyOp37
 70
     1
102
RTVSPropertyOp38
 70
     1
102
RTVSPropertyOp39
 70
     1
102
RTVSPropertyOp40
 70
     1
102
RTVSPropertyOp41
 70
     1
102
RTVSPropertyOp42
 70
     1
102
RTVSPropertyOp43
 70
     1
102
RTVSPropertyOp44
 70
     1
102
RTVSPropertyOp45
 70
     1
102
RTVSPropertyOp46
 70
     1
102
RTVSPropertyOp47
 70
     1
102
RTVSPropertyOp48
 70
     1
102
RTVSPropertyOp49
 70
     1
102
RTVSPropertyOp50
 70
     1
102
RTVSPropertyOp51
 70
     0
102
RTVSPropertyOp52
 70
     0
102
RTVSPropertyOp53
 70
     1
102
RTVSPropertyOp54
 70
     1
102
RTVSPropertyOp55
 70
     1
102
RTVSPropertyOp56
 70
     1
102
RTVSPropertyOp57
 70
     1
102
RTVSPropertyOp58
 70
     1
102
RTVSPropertyOp59
 70
     1
102
RTVSPropertyOp60
 70
     1
102
RTVSPropertyOp61
 70
     1
102
RTVSPropertyOp62
 70
     1
  0
XRECORD
  5
C540
102
{ACAD_REACTORS
330
C53F
102
}
330
C53F
100
AcDbXrecord
280
     1
102
RTVSPost2010Prop28
280
     0
102
RTVSPost2010PropOp28
 70
     1
102
RTVSPost2010Prop29
280
     1
102
RTVSPost2010PropOp29
 70
     1
102
RTVSPost2010Prop30
280
     1
102
RTVSPost2010PropOp30
 70
     1
102
RTVSPost2010Prop31
280
     0
102
RTVSPost2010PropOp31
 70
     1
102
RTVSPost2010Prop32
280
     0
102
RTVSPost2010PropOp32
 70
     1
102
RTVSPost2010Prop33
280
     0
102
RTVSPost2010PropOp33
 70
     1
102
RTVSPost2010Prop34
280
     0
102
RTVSPost2010PropOp34
 70
     1
102
RTVSPost2010Prop35
280
     0
102
RTVSPost2010PropOp35
 70
     1
102
RTVSPost2010Prop36
280
     0
102
RTVSPost2010PropOp36
 70
     1
102
RTVSPost2010Prop37
 90
       50
102
RTVSPost2010PropOp37
 70
     0
102
RTVSPost2010Prop38
140
0.0
102
RTVSPost2010PropOp38
 70
     0
102
RTVSPost2010Prop39
140
1.0
102
RTVSPost2010PropOp39
 70
     0
102
RTVSPost2010Prop40
 90
        0
102
RTVSPost2010PropOp40
 70
     0
102
RTVSPost2010Prop41ColorIndex
 90
       18
102
RTVSPost2010Prop41ColorRGB
 90
        0
102
RTVSPost2010PropOp41
 70
     0
102
RTVSPost2010Prop42
 90
       50
102
RTVSPost2010PropOp42
 70
     0
102
RTVSPost2010Prop43
 90
        3
102
RTVSPost2010PropOp43
 70
     0
102
RTVSPost2010Prop44ColorIndex
 90
        5
102
RTVSPost2010Prop44ColorRGB
 90
      255
102
RTVSPost2010PropOp44
 70
     0
102
RTVSPost2010Prop45
280
     0
102
RTVSPost2010PropOp45
 70
     1
102
RTVSPost2010Prop46
 90
       50
102
RTVSPost2010PropOp46
 70
     0
102
RTVSPost2010Prop47
 90
       50
102
RTVSPost2010PropOp47
 70
     0
102
RTVSPost2010Prop48
 90
       50
102
RTVSPost2010PropOp48
 70
     0
102
RTVSPost2010Prop49
280
     0
102
RTVSPost2010PropOp49
 70
     1
102
RTVSPost2010Prop50
 90
       50
102
RTVSPost2010PropOp50
 70
     0
102
RTVSPost2010Prop51ColorIndex
 90
      256
102
RTVSPost2010Prop51ColorRGB
 90
-16777216
102
RTVSPost2010PropOp51
 70
     0
102
RTVSPost2010Prop52
140
1.0
102
RTVSPost2010PropOp52
 70
     0
102
RTVSPost2010Prop53
 90
        2
102
RTVSPost2010PropOp53
 70
     0
102
RTVSPost2010Prop54
  1
strokes_ogs.tif
102
RTVSPost2010PropOp54
 70
     0
102
RTVSPost2010Prop55
280
     0
102
RTVSPost2010PropOp55
 70
     1
102
RTVSPost2010Prop56
140
1.0
102
RTVSPost2010PropOp56
 70
     0
102
RTVSPost2010Prop57
140
1.0
102
RTVSPost2010PropOp57
 70
     0
102
RTVSPropertyOp0
 70
     0
102
RTVSPropertyOp1
 70
     0
102
RTVSPropertyOp2
 70
     0
102
RTVSPropertyOp3
 70
     0
102
RTVSPropertyOp4
 70
     0
102
RTVSPropertyOp5
 70
     0
102
RTVSPropertyOp6
 70
     0
102
RTVSPropertyOp7
 70
     0
102
RTVSPropertyOp8
 70
     0
102
RTVSPropertyOp9
 70
     0
102
RTVSPropertyOp10
 70
     0
102
RTVSPropertyOp11
 70
     0
102
RTVSPropertyOp12
 70
     0
102
RTVSPropertyOp13
 70
     0
102
RTVSPropertyOp14
 70
     2
102
RTVSPropertyOp15
 70
     0
102
RTVSPropertyOp16
 70
     0
102
RTVSPropertyOp17
 70
     0
102
RTVSPropertyOp18
 70
     0
102
RTVSPropertyOp19
 70
     0
102
RTVSPropertyOp20
 70
     0
102
RTVSPropertyOp21
 70
     0
102
RTVSPropertyOp22
 70
     0
102
RTVSPropertyOp23
 70
     0
102
RTVSPropertyOp24
 70
     0
102
RTVSPropertyOp25
 70
     0
102
RTVSPropertyOp26
 70
     0
102
RTVSPropertyOp27
 70
     0
102
RTVSPropertyOp28
 70
     1
102
RTVSPropertyOp29
 70
     1
102
RTVSPropertyOp30
 70
     1
102
RTVSPropertyOp31
 70
     1
102
RTVSPropertyOp32
 70
     1
102
RTVSPropertyOp33
 70
     1
102
RTVSPropertyOp34
 70
     1
102
RTVSPropertyOp35
 70
     1
102
RTVSPropertyOp36
 70
     1
102
RTVSPropertyOp37
 70
     0
102
RTVSPropertyOp38
 70
     0
102
RTVSPropertyOp39
 70
     0
102
RTVSPropertyOp40
 70
     0
102
RTVSPropertyOp41
 70
     0
102
RTVSPropertyOp42
 70
     0
102
RTVSPropertyOp43
 70
     0
102
RTVSPropertyOp44
 70
     0
102
RTVSPropertyOp45
 70
     1
102
RTVSPropertyOp46
 70
     0
102
RTVSPropertyOp47
 70
     0
102
RTVSPropertyOp48
 70
     0
102
RTVSPropertyOp49
 70
     1
102
RTVSPropertyOp50
 70
     0
102
RTVSPropertyOp51
 70
     0
102
RTVSPropertyOp52
 70
     0
102
RTVSPropertyOp53
 70
     0
102
RTVSPropertyOp54
 70
     0
102
RTVSPropertyOp55
 70
     1
102
RTVSPropertyOp56
 70
     0
102
RTVSPropertyOp57
 70
     0
102
RTVSPropertyOp58
 70
     0
102
RTVSPropertyOp59
 70
     0
102
RTVSPropertyOp60
 70
     0
102
RTVSPropertyOp61
 70
     0
102
RTVSPropertyOp62
 70
     0
  0
XRECORD
  5
C52E
102
{ACAD_REACTORS
330
C52D
102
}
330
C52D
100
AcDbXrecord
280
     1
102
RTVSPost2010Prop28
280
     0
102
RTVSPost2010PropOp28
 70
     1
102
RTVSPost2010Prop29
280
     1
102
RTVSPost2010PropOp29
 70
     1
102
RTVSPost2010Prop30
280
     1
102
RTVSPost2010PropOp30
 70
     1
102
RTVSPost2010Prop31
280
     0
102
RTVSPost2010PropOp31
 70
     1
102
RTVSPost2010Prop32
280
     0
102
RTVSPost2010PropOp32
 70
     1
102
RTVSPost2010Prop33
280
     0
102
RTVSPost2010PropOp33
 70
     1
102
RTVSPost2010Prop34
280
     0
102
RTVSPost2010PropOp34
 70
     1
102
RTVSPost2010Prop35
280
     0
102
RTVSPost2010PropOp35
 70
     1
102
RTVSPost2010Prop36
280
     0
102
RTVSPost2010PropOp36
 70
     1
102
RTVSPost2010Prop37
 90
       50
102
RTVSPost2010PropOp37
 70
     1
102
RTVSPost2010Prop38
140
0.0
102
RTVSPost2010PropOp38
 70
     1
102
RTVSPost2010Prop39
140
1.0
102
RTVSPost2010PropOp39
 70
     1
102
RTVSPost2010Prop40
 90
        0
102
RTVSPost2010PropOp40
 70
     1
102
RTVSPost2010Prop41ColorIndex
 90
       18
102
RTVSPost2010Prop41ColorRGB
 90
        0
102
RTVSPost2010PropOp41
 70
     1
102
RTVSPost2010Prop42
 90
       50
102
RTVSPost2010PropOp42
 70
     1
102
RTVSPost2010Prop43
 90
        3
102
RTVSPost2010PropOp43
 70
     1
102
RTVSPost2010Prop44ColorIndex
 90
        5
102
RTVSPost2010Prop44ColorRGB
 90
      255
102
RTVSPost2010PropOp44
 70
     1
102
RTVSPost2010Prop45
280
     0
102
RTVSPost2010PropOp45
 70
     1
102
RTVSPost2010Prop46
 90
       50
102
RTVSPost2010PropOp46
 70
     1
102
RTVSPost2010Prop47
 90
       50
102
RTVSPost2010PropOp47
 70
     1
102
RTVSPost2010Prop48
 90
       50
102
RTVSPost2010PropOp48
 70
     1
102
RTVSPost2010Prop49
280
     0
102
RTVSPost2010PropOp49
 70
     1
102
RTVSPost2010Prop50
 90
       50
102
RTVSPost2010PropOp50
 70
     1
102
RTVSPost2010Prop51ColorIndex
 90
      256
102
RTVSPost2010Prop51ColorRGB
 90
-16777216
102
RTVSPost2010PropOp51
 70
     0
102
RTVSPost2010Prop52
140
1.0
102
RTVSPost2010PropOp52
 70
     0
102
RTVSPost2010Prop53
 90
        2
102
RTVSPost2010PropOp53
 70
     1
102
RTVSPost2010Prop54
  1
strokes_ogs.tif
102
RTVSPost2010PropOp54
 70
     1
102
RTVSPost2010Prop55
280
     0
102
RTVSPost2010PropOp55
 70
     1
102
RTVSPost2010Prop56
140
1.0
102
RTVSPost2010PropOp56
 70
     1
102
RTVSPost2010Prop57
140
1.0
102
RTVSPost2010PropOp57
 70
     1
102
RTVSPropertyOp0
 70
     1
102
RTVSPropertyOp1
 70
     1
102
RTVSPropertyOp2
 70
     1
102
RTVSPropertyOp3
 70
     1
102
RTVSPropertyOp4
 70
     1
102
RTVSPropertyOp5
 70
     1
102
RTVSPropertyOp6
 70
     1
102
RTVSPropertyOp7
 70
     1
102
RTVSPropertyOp8
 70
     1
102
RTVSPropertyOp9
 70
     1
102
RTVSPropertyOp10
 70
     1
102
RTVSPropertyOp11
 70
     1
102
RTVSPropertyOp12
 70
     1
102
RTVSPropertyOp13
 70
     1
102
RTVSPropertyOp14
 70
     1
102
RTVSPropertyOp15
 70
     1
102
RTVSPropertyOp16
 70
     1
102
RTVSPropertyOp17
 70
     1
102
RTVSPropertyOp18
 70
     1
102
RTVSPropertyOp19
 70
     1
102
RTVSPropertyOp20
 70
     1
102
RTVSPropertyOp21
 70
     1
102
RTVSPropertyOp22
 70
     1
102
RTVSPropertyOp23
 70
     1
102
RTVSPropertyOp24
 70
     1
102
RTVSPropertyOp25
 70
     1
102
RTVSPropertyOp26
 70
     1
102
RTVSPropertyOp27
 70
     1
102
RTVSPropertyOp28
 70
     1
102
RTVSPropertyOp29
 70
     1
102
RTVSPropertyOp30
 70
     1
102
RTVSPropertyOp31
 70
     1
102
RTVSPropertyOp32
 70
     1
102
RTVSPropertyOp33
 70
     1
102
RTVSPropertyOp34
 70
     1
102
RTVSPropertyOp35
 70
     1
102
RTVSPropertyOp36
 70
     1
102
RTVSPropertyOp37
 70
     1
102
RTVSPropertyOp38
 70
     1
102
RTVSPropertyOp39
 70
     1
102
RTVSPropertyOp40
 70
     1
102
RTVSPropertyOp41
 70
     1
102
RTVSPropertyOp42
 70
     1
102
RTVSPropertyOp43
 70
     1
102
RTVSPropertyOp44
 70
     1
102
RTVSPropertyOp45
 70
     1
102
RTVSPropertyOp46
 70
     1
102
RTVSPropertyOp47
 70
     1
102
RTVSPropertyOp48
 70
     1
102
RTVSPropertyOp49
 70
     1
102
RTVSPropertyOp50
 70
     1
102
RTVSPropertyOp51
 70
     0
102
RTVSPropertyOp52
 70
     0
102
RTVSPropertyOp53
 70
     1
102
RTVSPropertyOp54
 70
     1
102
RTVSPropertyOp55
 70
     1
102
RTVSPropertyOp56
 70
     1
102
RTVSPropertyOp57
 70
     1
102
RTVSPropertyOp58
 70
     1
102
RTVSPropertyOp59
 70
     1
102
RTVSPropertyOp60
 70
     1
102
RTVSPropertyOp61
 70
     1
102
RTVSPropertyOp62
 70
     1
  0
XRECORD
  5
C512
102
{ACAD_REACTORS
330
C511
102
}
330
C511
100
AcDbXrecord
280
     1
102
RTVSPost2010Prop28
280
     0
102
RTVSPost2010PropOp28
 70
     1
102
RTVSPost2010Prop29
280
     1
102
RTVSPost2010PropOp29
 70
     1
102
RTVSPost2010Prop30
280
     1
102
RTVSPost2010PropOp30
 70
     1
102
RTVSPost2010Prop31
280
     0
102
RTVSPost2010PropOp31
 70
     1
102
RTVSPost2010Prop32
280
     0
102
RTVSPost2010PropOp32
 70
     1
102
RTVSPost2010Prop33
280
     0
102
RTVSPost2010PropOp33
 70
     1
102
RTVSPost2010Prop34
280
     0
102
RTVSPost2010PropOp34
 70
     1
102
RTVSPost2010Prop35
280
     0
102
RTVSPost2010PropOp35
 70
     1
102
RTVSPost2010Prop36
280
     0
102
RTVSPost2010PropOp36
 70
     1
102
RTVSPost2010Prop37
 90
       50
102
RTVSPost2010PropOp37
 70
     1
102
RTVSPost2010Prop38
140
0.0
102
RTVSPost2010PropOp38
 70
     1
102
RTVSPost2010Prop39
140
1.0
102
RTVSPost2010PropOp39
 70
     1
102
RTVSPost2010Prop40
 90
        0
102
RTVSPost2010PropOp40
 70
     1
102
RTVSPost2010Prop41ColorIndex
 90
       18
102
RTVSPost2010Prop41ColorRGB
 90
        0
102
RTVSPost2010PropOp41
 70
     1
102
RTVSPost2010Prop42
 90
       50
102
RTVSPost2010PropOp42
 70
     1
102
RTVSPost2010Prop43
 90
        3
102
RTVSPost2010PropOp43
 70
     1
102
RTVSPost2010Prop44ColorIndex
 90
        5
102
RTVSPost2010Prop44ColorRGB
 90
      255
102
RTVSPost2010PropOp44
 70
     1
102
RTVSPost2010Prop45
280
     0
102
RTVSPost2010PropOp45
 70
     1
102
RTVSPost2010Prop46
 90
       50
102
RTVSPost2010PropOp46
 70
     1
102
RTVSPost2010Prop47
 90
       50
102
RTVSPost2010PropOp47
 70
     1
102
RTVSPost2010Prop48
 90
       50
102
RTVSPost2010PropOp48
 70
     1
102
RTVSPost2010Prop49
280
     0
102
RTVSPost2010PropOp49
 70
     1
102
RTVSPost2010Prop50
 90
       50
102
RTVSPost2010PropOp50
 70
     1
102
RTVSPost2010Prop51ColorIndex
 90
      256
102
RTVSPost2010Prop51ColorRGB
 90
-16777216
102
RTVSPost2010PropOp51
 70
     0
102
RTVSPost2010Prop52
140
1.0
102
RTVSPost2010PropOp52
 70
     0
102
RTVSPost2010Prop53
 90
        2
102
RTVSPost2010PropOp53
 70
     1
102
RTVSPost2010Prop54
  1
strokes_ogs.tif
102
RTVSPost2010PropOp54
 70
     1
102
RTVSPost2010Prop55
280
     0
102
RTVSPost2010PropOp55
 70
     1
102
RTVSPost2010Prop56
140
1.0
102
RTVSPost2010PropOp56
 70
     1
102
RTVSPost2010Prop57
140
1.0
102
RTVSPost2010PropOp57
 70
     1
102
RTVSPropertyOp0
 70
     1
102
RTVSPropertyOp1
 70
     1
102
RTVSPropertyOp2
 70
     1
102
RTVSPropertyOp3
 70
     1
102
RTVSPropertyOp4
 70
     1
102
RTVSPropertyOp5
 70
     1
102
RTVSPropertyOp6
 70
     1
102
RTVSPropertyOp7
 70
     1
102
RTVSPropertyOp8
 70
     1
102
RTVSPropertyOp9
 70
     1
102
RTVSPropertyOp10
 70
     1
102
RTVSPropertyOp11
 70
     1
102
RTVSPropertyOp12
 70
     1
102
RTVSPropertyOp13
 70
     1
102
RTVSPropertyOp14
 70
     1
102
RTVSPropertyOp15
 70
     1
102
RTVSPropertyOp16
 70
     1
102
RTVSPropertyOp17
 70
     1
102
RTVSPropertyOp18
 70
     1
102
RTVSPropertyOp19
 70
     1
102
RTVSPropertyOp20
 70
     1
102
RTVSPropertyOp21
 70
     1
102
RTVSPropertyOp22
 70
     1
102
RTVSPropertyOp23
 70
     1
102
RTVSPropertyOp24
 70
     1
102
RTVSPropertyOp25
 70
     1
102
RTVSPropertyOp26
 70
     1
102
RTVSPropertyOp27
 70
     1
102
RTVSPropertyOp28
 70
     1
102
RTVSPropertyOp29
 70
     1
102
RTVSPropertyOp30
 70
     1
102
RTVSPropertyOp31
 70
     1
102
RTVSPropertyOp32
 70
     1
102
RTVSPropertyOp33
 70
     1
102
RTVSPropertyOp34
 70
     1
102
RTVSPropertyOp35
 70
     1
102
RTVSPropertyOp36
 70
     1
102
RTVSPropertyOp37
 70
     1
102
RTVSPropertyOp38
 70
     1
102
RTVSPropertyOp39
 70
     1
102
RTVSPropertyOp40
 70
     1
102
RTVSPropertyOp41
 70
     1
102
RTVSPropertyOp42
 70
     1
102
RTVSPropertyOp43
 70
     1
102
RTVSPropertyOp44
 70
     1
102
RTVSPropertyOp45
 70
     1
102
RTVSPropertyOp46
 70
     1
102
RTVSPropertyOp47
 70
     1
102
RTVSPropertyOp48
 70
     1
102
RTVSPropertyOp49
 70
     1
102
RTVSPropertyOp50
 70
     1
102
RTVSPropertyOp51
 70
     0
102
RTVSPropertyOp52
 70
     0
102
RTVSPropertyOp53
 70
     1
102
RTVSPropertyOp54
 70
     1
102
RTVSPropertyOp55
 70
     1
102
RTVSPropertyOp56
 70
     1
102
RTVSPropertyOp57
 70
     1
102
RTVSPropertyOp58
 70
     1
102
RTVSPropertyOp59
 70
     1
102
RTVSPropertyOp60
 70
     1
102
RTVSPropertyOp61
 70
     1
102
RTVSPropertyOp62
 70
     1
  0
XRECORD
  5
C514
102
{ACAD_REACTORS
330
C513
102
}
330
C513
100
AcDbXrecord
280
     1
102
RTVSPost2010Prop28
280
     0
102
RTVSPost2010PropOp28
 70
     1
102
RTVSPost2010Prop29
280
     1
102
RTVSPost2010PropOp29
 70
     1
102
RTVSPost2010Prop30
280
     1
102
RTVSPost2010PropOp30
 70
     1
102
RTVSPost2010Prop31
280
     0
102
RTVSPost2010PropOp31
 70
     1
102
RTVSPost2010Prop32
280
     0
102
RTVSPost2010PropOp32
 70
     1
102
RTVSPost2010Prop33
280
     0
102
RTVSPost2010PropOp33
 70
     1
102
RTVSPost2010Prop34
280
     0
102
RTVSPost2010PropOp34
 70
     1
102
RTVSPost2010Prop35
280
     0
102
RTVSPost2010PropOp35
 70
     1
102
RTVSPost2010Prop36
280
     0
102
RTVSPost2010PropOp36
 70
     1
102
RTVSPost2010Prop37
 90
       50
102
RTVSPost2010PropOp37
 70
     1
102
RTVSPost2010Prop38
140
0.0
102
RTVSPost2010PropOp38
 70
     1
102
RTVSPost2010Prop39
140
1.0
102
RTVSPost2010PropOp39
 70
     1
102
RTVSPost2010Prop40
 90
        0
102
RTVSPost2010PropOp40
 70
     1
102
RTVSPost2010Prop41ColorIndex
 90
       18
102
RTVSPost2010Prop41ColorRGB
 90
        0
102
RTVSPost2010PropOp41
 70
     1
102
RTVSPost2010Prop42
 90
       50
102
RTVSPost2010PropOp42
 70
     1
102
RTVSPost2010Prop43
 90
        3
102
RTVSPost2010PropOp43
 70
     1
102
RTVSPost2010Prop44ColorIndex
 90
        5
102
RTVSPost2010Prop44ColorRGB
 90
      255
102
RTVSPost2010PropOp44
 70
     1
102
RTVSPost2010Prop45
280
     0
102
RTVSPost2010PropOp45
 70
     1
102
RTVSPost2010Prop46
 90
       50
102
RTVSPost2010PropOp46
 70
     1
102
RTVSPost2010Prop47
 90
       50
102
RTVSPost2010PropOp47
 70
     1
102
RTVSPost2010Prop48
 90
       50
102
RTVSPost2010PropOp48
 70
     1
102
RTVSPost2010Prop49
280
     0
102
RTVSPost2010PropOp49
 70
     1
102
RTVSPost2010Prop50
 90
       50
102
RTVSPost2010PropOp50
 70
     1
102
RTVSPost2010Prop51ColorIndex
 90
      256
102
RTVSPost2010Prop51ColorRGB
 90
-16777216
102
RTVSPost2010PropOp51
 70
     0
102
RTVSPost2010Prop52
140
1.0
102
RTVSPost2010PropOp52
 70
     0
102
RTVSPost2010Prop53
 90
        2
102
RTVSPost2010PropOp53
 70
     1
102
RTVSPost2010Prop54
  1
strokes_ogs.tif
102
RTVSPost2010PropOp54
 70
     1
102
RTVSPost2010Prop55
280
     0
102
RTVSPost2010PropOp55
 70
     1
102
RTVSPost2010Prop56
140
1.0
102
RTVSPost2010PropOp56
 70
     1
102
RTVSPost2010Prop57
140
1.0
102
RTVSPost2010PropOp57
 70
     1
102
RTVSPropertyOp0
 70
     1
102
RTVSPropertyOp1
 70
     1
102
RTVSPropertyOp2
 70
     1
102
RTVSPropertyOp3
 70
     1
102
RTVSPropertyOp4
 70
     1
102
RTVSPropertyOp5
 70
     1
102
RTVSPropertyOp6
 70
     1
102
RTVSPropertyOp7
 70
     1
102
RTVSPropertyOp8
 70
     1
102
RTVSPropertyOp9
 70
     1
102
RTVSPropertyOp10
 70
     1
102
RTVSPropertyOp11
 70
     1
102
RTVSPropertyOp12
 70
     1
102
RTVSPropertyOp13
 70
     1
102
RTVSPropertyOp14
 70
     1
102
RTVSPropertyOp15
 70
     1
102
RTVSPropertyOp16
 70
     1
102
RTVSPropertyOp17
 70
     1
102
RTVSPropertyOp18
 70
     1
102
RTVSPropertyOp19
 70
     1
102
RTVSPropertyOp20
 70
     1
102
RTVSPropertyOp21
 70
     1
102
RTVSPropertyOp22
 70
     1
102
RTVSPropertyOp23
 70
     1
102
RTVSPropertyOp24
 70
     1
102
RTVSPropertyOp25
 70
     1
102
RTVSPropertyOp26
 70
     1
102
RTVSPropertyOp27
 70
     1
102
RTVSPropertyOp28
 70
     1
102
RTVSPropertyOp29
 70
     1
102
RTVSPropertyOp30
 70
     1
102
RTVSPropertyOp31
 70
     1
102
RTVSPropertyOp32
 70
     1
102
RTVSPropertyOp33
 70
     1
102
RTVSPropertyOp34
 70
     1
102
RTVSPropertyOp35
 70
     1
102
RTVSPropertyOp36
 70
     1
102
RTVSPropertyOp37
 70
     1
102
RTVSPropertyOp38
 70
     1
102
RTVSPropertyOp39
 70
     1
102
RTVSPropertyOp40
 70
     1
102
RTVSPropertyOp41
 70
     1
102
RTVSPropertyOp42
 70
     1
102
RTVSPropertyOp43
 70
     1
102
RTVSPropertyOp44
 70
     1
102
RTVSPropertyOp45
 70
     1
102
RTVSPropertyOp46
 70
     1
102
RTVSPropertyOp47
 70
     1
102
RTVSPropertyOp48
 70
     1
102
RTVSPropertyOp49
 70
     1
102
RTVSPropertyOp50
 70
     1
102
RTVSPropertyOp51
 70
     0
102
RTVSPropertyOp52
 70
     0
102
RTVSPropertyOp53
 70
     1
102
RTVSPropertyOp54
 70
     1
102
RTVSPropertyOp55
 70
     1
102
RTVSPropertyOp56
 70
     1
102
RTVSPropertyOp57
 70
     1
102
RTVSPropertyOp58
 70
     1
102
RTVSPropertyOp59
 70
     1
102
RTVSPropertyOp60
 70
     1
102
RTVSPropertyOp61
 70
     1
102
RTVSPropertyOp62
 70
     1
  0
XRECORD
  5
C516
102
{ACAD_REACTORS
330
C515
102
}
330
C515
100
AcDbXrecord
280
     1
102
RTVSPost2010Prop28
280
     0
102
RTVSPost2010PropOp28
 70
     1
102
RTVSPost2010Prop29
280
     1
102
RTVSPost2010PropOp29
 70
     1
102
RTVSPost2010Prop30
280
     1
102
RTVSPost2010PropOp30
 70
     1
102
RTVSPost2010Prop31
280
     0
102
RTVSPost2010PropOp31
 70
     1
102
RTVSPost2010Prop32
280
     0
102
RTVSPost2010PropOp32
 70
     1
102
RTVSPost2010Prop33
280
     0
102
RTVSPost2010PropOp33
 70
     1
102
RTVSPost2010Prop34
280
     0
102
RTVSPost2010PropOp34
 70
     1
102
RTVSPost2010Prop35
280
     0
102
RTVSPost2010PropOp35
 70
     1
102
RTVSPost2010Prop36
280
     0
102
RTVSPost2010PropOp36
 70
     1
102
RTVSPost2010Prop37
 90
       50
102
RTVSPost2010PropOp37
 70
     1
102
RTVSPost2010Prop38
140
0.0
102
RTVSPost2010PropOp38
 70
     1
102
RTVSPost2010Prop39
140
1.0
102
RTVSPost2010PropOp39
 70
     1
102
RTVSPost2010Prop40
 90
        0
102
RTVSPost2010PropOp40
 70
     1
102
RTVSPost2010Prop41ColorIndex
 90
       18
102
RTVSPost2010Prop41ColorRGB
 90
        0
102
RTVSPost2010PropOp41
 70
     1
102
RTVSPost2010Prop42
 90
       50
102
RTVSPost2010PropOp42
 70
     1
102
RTVSPost2010Prop43
 90
        3
102
RTVSPost2010PropOp43
 70
     1
102
RTVSPost2010Prop44ColorIndex
 90
        5
102
RTVSPost2010Prop44ColorRGB
 90
      255
102
RTVSPost2010PropOp44
 70
     1
102
RTVSPost2010Prop45
280
     0
102
RTVSPost2010PropOp45
 70
     1
102
RTVSPost2010Prop46
 90
       50
102
RTVSPost2010PropOp46
 70
     1
102
RTVSPost2010Prop47
 90
       50
102
RTVSPost2010PropOp47
 70
     1
102
RTVSPost2010Prop48
 90
       50
102
RTVSPost2010PropOp48
 70
     1
102
RTVSPost2010Prop49
280
     0
102
RTVSPost2010PropOp49
 70
     1
102
RTVSPost2010Prop50
 90
       50
102
RTVSPost2010PropOp50
 70
     1
102
RTVSPost2010Prop51ColorIndex
 90
      256
102
RTVSPost2010Prop51ColorRGB
 90
-16777216
102
RTVSPost2010PropOp51
 70
     0
102
RTVSPost2010Prop52
140
1.0
102
RTVSPost2010PropOp52
 70
     0
102
RTVSPost2010Prop53
 90
        2
102
RTVSPost2010PropOp53
 70
     1
102
RTVSPost2010Prop54
  1
strokes_ogs.tif
102
RTVSPost2010PropOp54
 70
     1
102
RTVSPost2010Prop55
280
     0
102
RTVSPost2010PropOp55
 70
     1
102
RTVSPost2010Prop56
140
1.0
102
RTVSPost2010PropOp56
 70
     1
102
RTVSPost2010Prop57
140
1.0
102
RTVSPost2010PropOp57
 70
     1
102
RTVSPropertyOp0
 70
     1
102
RTVSPropertyOp1
 70
     1
102
RTVSPropertyOp2
 70
     1
102
RTVSPropertyOp3
 70
     1
102
RTVSPropertyOp4
 70
     1
102
RTVSPropertyOp5
 70
     1
102
RTVSPropertyOp6
 70
     1
102
RTVSPropertyOp7
 70
     1
102
RTVSPropertyOp8
 70
     1
102
RTVSPropertyOp9
 70
     1
102
RTVSPropertyOp10
 70
     1
102
RTVSPropertyOp11
 70
     1
102
RTVSPropertyOp12
 70
     1
102
RTVSPropertyOp13
 70
     1
102
RTVSPropertyOp14
 70
     1
102
RTVSPropertyOp15
 70
     1
102
RTVSPropertyOp16
 70
     1
102
RTVSPropertyOp17
 70
     1
102
RTVSPropertyOp18
 70
     1
102
RTVSPropertyOp19
 70
     1
102
RTVSPropertyOp20
 70
     1
102
RTVSPropertyOp21
 70
     1
102
RTVSPropertyOp22
 70
     1
102
RTVSPropertyOp23
 70
     1
102
RTVSPropertyOp24
 70
     1
102
RTVSPropertyOp25
 70
     1
102
RTVSPropertyOp26
 70
     1
102
RTVSPropertyOp27
 70
     1
102
RTVSPropertyOp28
 70
     1
102
RTVSPropertyOp29
 70
     1
102
RTVSPropertyOp30
 70
     1
102
RTVSPropertyOp31
 70
     1
102
RTVSPropertyOp32
 70
     1
102
RTVSPropertyOp33
 70
     1
102
RTVSPropertyOp34
 70
     1
102
RTVSPropertyOp35
 70
     1
102
RTVSPropertyOp36
 70
     1
102
RTVSPropertyOp37
 70
     1
102
RTVSPropertyOp38
 70
     1
102
RTVSPropertyOp39
 70
     1
102
RTVSPropertyOp40
 70
     1
102
RTVSPropertyOp41
 70
     1
102
RTVSPropertyOp42
 70
     1
102
RTVSPropertyOp43
 70
     1
102
RTVSPropertyOp44
 70
     1
102
RTVSPropertyOp45
 70
     1
102
RTVSPropertyOp46
 70
     1
102
RTVSPropertyOp47
 70
     1
102
RTVSPropertyOp48
 70
     1
102
RTVSPropertyOp49
 70
     1
102
RTVSPropertyOp50
 70
     1
102
RTVSPropertyOp51
 70
     0
102
RTVSPropertyOp52
 70
     0
102
RTVSPropertyOp53
 70
     1
102
RTVSPropertyOp54
 70
     1
102
RTVSPropertyOp55
 70
     1
102
RTVSPropertyOp56
 70
     1
102
RTVSPropertyOp57
 70
     1
102
RTVSPropertyOp58
 70
     1
102
RTVSPropertyOp59
 70
     1
102
RTVSPropertyOp60
 70
     1
102
RTVSPropertyOp61
 70
     1
102
RTVSPropertyOp62
 70
     1
  0
XRECORD
  5
C518
102
{ACAD_REACTORS
330
C517
102
}
330
C517
100
AcDbXrecord
280
     1
102
RTVSPost2010Prop28
280
     0
102
RTVSPost2010PropOp28
 70
     1
102
RTVSPost2010Prop29
280
     1
102
RTVSPost2010PropOp29
 70
     1
102
RTVSPost2010Prop30
280
     1
102
RTVSPost2010PropOp30
 70
     1
102
RTVSPost2010Prop31
280
     0
102
RTVSPost2010PropOp31
 70
     1
102
RTVSPost2010Prop32
280
     0
102
RTVSPost2010PropOp32
 70
     1
102
RTVSPost2010Prop33
280
     0
102
RTVSPost2010PropOp33
 70
     1
102
RTVSPost2010Prop34
280
     0
102
RTVSPost2010PropOp34
 70
     1
102
RTVSPost2010Prop35
280
     0
102
RTVSPost2010PropOp35
 70
     1
102
RTVSPost2010Prop36
280
     0
102
RTVSPost2010PropOp36
 70
     1
102
RTVSPost2010Prop37
 90
       50
102
RTVSPost2010PropOp37
 70
     1
102
RTVSPost2010Prop38
140
0.0
102
RTVSPost2010PropOp38
 70
     1
102
RTVSPost2010Prop39
140
1.0
102
RTVSPost2010PropOp39
 70
     1
102
RTVSPost2010Prop40
 90
        0
102
RTVSPost2010PropOp40
 70
     1
102
RTVSPost2010Prop41ColorIndex
 90
       18
102
RTVSPost2010Prop41ColorRGB
 90
        0
102
RTVSPost2010PropOp41
 70
     1
102
RTVSPost2010Prop42
 90
       50
102
RTVSPost2010PropOp42
 70
     1
102
RTVSPost2010Prop43
 90
        3
102
RTVSPost2010PropOp43
 70
     1
102
RTVSPost2010Prop44ColorIndex
 90
        5
102
RTVSPost2010Prop44ColorRGB
 90
      255
102
RTVSPost2010PropOp44
 70
     1
102
RTVSPost2010Prop45
280
     0
102
RTVSPost2010PropOp45
 70
     1
102
RTVSPost2010Prop46
 90
       50
102
RTVSPost2010PropOp46
 70
     1
102
RTVSPost2010Prop47
 90
       50
102
RTVSPost2010PropOp47
 70
     1
102
RTVSPost2010Prop48
 90
       50
102
RTVSPost2010PropOp48
 70
     1
102
RTVSPost2010Prop49
280
     0
102
RTVSPost2010PropOp49
 70
     1
102
RTVSPost2010Prop50
 90
       50
102
RTVSPost2010PropOp50
 70
     1
102
RTVSPost2010Prop51ColorIndex
 90
      256
102
RTVSPost2010Prop51ColorRGB
 90
-16777216
102
RTVSPost2010PropOp51
 70
     0
102
RTVSPost2010Prop52
140
1.0
102
RTVSPost2010PropOp52
 70
     0
102
RTVSPost2010Prop53
 90
        2
102
RTVSPost2010PropOp53
 70
     1
102
RTVSPost2010Prop54
  1
strokes_ogs.tif
102
RTVSPost2010PropOp54
 70
     1
102
RTVSPost2010Prop55
280
     0
102
RTVSPost2010PropOp55
 70
     1
102
RTVSPost2010Prop56
140
1.0
102
RTVSPost2010PropOp56
 70
     1
102
RTVSPost2010Prop57
140
1.0
102
RTVSPost2010PropOp57
 70
     1
102
RTVSPropertyOp0
 70
     1
102
RTVSPropertyOp1
 70
     1
102
RTVSPropertyOp2
 70
     1
102
RTVSPropertyOp3
 70
     1
102
RTVSPropertyOp4
 70
     1
102
RTVSPropertyOp5
 70
     1
102
RTVSPropertyOp6
 70
     1
102
RTVSPropertyOp7
 70
     1
102
RTVSPropertyOp8
 70
     1
102
RTVSPropertyOp9
 70
     1
102
RTVSPropertyOp10
 70
     1
102
RTVSPropertyOp11
 70
     1
102
RTVSPropertyOp12
 70
     1
102
RTVSPropertyOp13
 70
     1
102
RTVSPropertyOp14
 70
     1
102
RTVSPropertyOp15
 70
     1
102
RTVSPropertyOp16
 70
     1
102
RTVSPropertyOp17
 70
     1
102
RTVSPropertyOp18
 70
     1
102
RTVSPropertyOp19
 70
     1
102
RTVSPropertyOp20
 70
     1
102
RTVSPropertyOp21
 70
     1
102
RTVSPropertyOp22
 70
     1
102
RTVSPropertyOp23
 70
     1
102
RTVSPropertyOp24
 70
     1
102
RTVSPropertyOp25
 70
     1
102
RTVSPropertyOp26
 70
     1
102
RTVSPropertyOp27
 70
     1
102
RTVSPropertyOp28
 70
     1
102
RTVSPropertyOp29
 70
     1
102
RTVSPropertyOp30
 70
     1
102
RTVSPropertyOp31
 70
     1
102
RTVSPropertyOp32
 70
     1
102
RTVSPropertyOp33
 70
     1
102
RTVSPropertyOp34
 70
     1
102
RTVSPropertyOp35
 70
     1
102
RTVSPropertyOp36
 70
     1
102
RTVSPropertyOp37
 70
     1
102
RTVSPropertyOp38
 70
     1
102
RTVSPropertyOp39
 70
     1
102
RTVSPropertyOp40
 70
     1
102
RTVSPropertyOp41
 70
     1
102
RTVSPropertyOp42
 70
     1
102
RTVSPropertyOp43
 70
     1
102
RTVSPropertyOp44
 70
     1
102
RTVSPropertyOp45
 70
     1
102
RTVSPropertyOp46
 70
     1
102
RTVSPropertyOp47
 70
     1
102
RTVSPropertyOp48
 70
     1
102
RTVSPropertyOp49
 70
     1
102
RTVSPropertyOp50
 70
     1
102
RTVSPropertyOp51
 70
     0
102
RTVSPropertyOp52
 70
     0
102
RTVSPropertyOp53
 70
     1
102
RTVSPropertyOp54
 70
     1
102
RTVSPropertyOp55
 70
     1
102
RTVSPropertyOp56
 70
     1
102
RTVSPropertyOp57
 70
     1
102
RTVSPropertyOp58
 70
     1
102
RTVSPropertyOp59
 70
     1
102
RTVSPropertyOp60
 70
     1
102
RTVSPropertyOp61
 70
     1
102
RTVSPropertyOp62
 70
     1
  0
XRECORD
  5
C520
102
{ACAD_REACTORS
330
C51F
102
}
330
C51F
100
AcDbXrecord
280
     1
102
RTVSPost2010Prop28
280
     0
102
RTVSPost2010PropOp28
 70
     1
102
RTVSPost2010Prop29
280
     1
102
RTVSPost2010PropOp29
 70
     1
102
RTVSPost2010Prop30
280
     1
102
RTVSPost2010PropOp30
 70
     1
102
RTVSPost2010Prop31
280
     0
102
RTVSPost2010PropOp31
 70
     1
102
RTVSPost2010Prop32
280
     0
102
RTVSPost2010PropOp32
 70
     1
102
RTVSPost2010Prop33
280
     0
102
RTVSPost2010PropOp33
 70
     1
102
RTVSPost2010Prop34
280
     0
102
RTVSPost2010PropOp34
 70
     1
102
RTVSPost2010Prop35
280
     0
102
RTVSPost2010PropOp35
 70
     1
102
RTVSPost2010Prop36
280
     0
102
RTVSPost2010PropOp36
 70
     1
102
RTVSPost2010Prop37
 90
       50
102
RTVSPost2010PropOp37
 70
     1
102
RTVSPost2010Prop38
140
0.0
102
RTVSPost2010PropOp38
 70
     1
102
RTVSPost2010Prop39
140
1.0
102
RTVSPost2010PropOp39
 70
     1
102
RTVSPost2010Prop40
 90
        0
102
RTVSPost2010PropOp40
 70
     1
102
RTVSPost2010Prop41ColorIndex
 90
       18
102
RTVSPost2010Prop41ColorRGB
 90
        0
102
RTVSPost2010PropOp41
 70
     1
102
RTVSPost2010Prop42
 90
       50
102
RTVSPost2010PropOp42
 70
     1
102
RTVSPost2010Prop43
 90
        3
102
RTVSPost2010PropOp43
 70
     1
102
RTVSPost2010Prop44ColorIndex
 90
        5
102
RTVSPost2010Prop44ColorRGB
 90
      255
102
RTVSPost2010PropOp44
 70
     1
102
RTVSPost2010Prop45
280
     0
102
RTVSPost2010PropOp45
 70
     1
102
RTVSPost2010Prop46
 90
       50
102
RTVSPost2010PropOp46
 70
     1
102
RTVSPost2010Prop47
 90
       50
102
RTVSPost2010PropOp47
 70
     1
102
RTVSPost2010Prop48
 90
       50
102
RTVSPost2010PropOp48
 70
     1
102
RTVSPost2010Prop49
280
     0
102
RTVSPost2010PropOp49
 70
     1
102
RTVSPost2010Prop50
 90
       50
102
RTVSPost2010PropOp50
 70
     1
102
RTVSPost2010Prop51ColorIndex
 90
      256
102
RTVSPost2010Prop51ColorRGB
 90
-16777216
102
RTVSPost2010PropOp51
 70
     0
102
RTVSPost2010Prop52
140
1.0
102
RTVSPost2010PropOp52
 70
     0
102
RTVSPost2010Prop53
 90
        2
102
RTVSPost2010PropOp53
 70
     1
102
RTVSPost2010Prop54
  1
strokes_ogs.tif
102
RTVSPost2010PropOp54
 70
     1
102
RTVSPost2010Prop55
280
     0
102
RTVSPost2010PropOp55
 70
     1
102
RTVSPost2010Prop56
140
1.0
102
RTVSPost2010PropOp56
 70
     1
102
RTVSPost2010Prop57
140
1.0
102
RTVSPost2010PropOp57
 70
     1
102
RTVSPropertyOp0
 70
     1
102
RTVSPropertyOp1
 70
     1
102
RTVSPropertyOp2
 70
     1
102
RTVSPropertyOp3
 70
     1
102
RTVSPropertyOp4
 70
     1
102
RTVSPropertyOp5
 70
     1
102
RTVSPropertyOp6
 70
     1
102
RTVSPropertyOp7
 70
     1
102
RTVSPropertyOp8
 70
     1
102
RTVSPropertyOp9
 70
     1
102
RTVSPropertyOp10
 70
     1
102
RTVSPropertyOp11
 70
     1
102
RTVSPropertyOp12
 70
     1
102
RTVSPropertyOp13
 70
     1
102
RTVSPropertyOp14
 70
     1
102
RTVSPropertyOp15
 70
     1
102
RTVSPropertyOp16
 70
     1
102
RTVSPropertyOp17
 70
     1
102
RTVSPropertyOp18
 70
     1
102
RTVSPropertyOp19
 70
     1
102
RTVSPropertyOp20
 70
     1
102
RTVSPropertyOp21
 70
     1
102
RTVSPropertyOp22
 70
     1
102
RTVSPropertyOp23
 70
     1
102
RTVSPropertyOp24
 70
     1
102
RTVSPropertyOp25
 70
     1
102
RTVSPropertyOp26
 70
     1
102
RTVSPropertyOp27
 70
     1
102
RTVSPropertyOp28
 70
     1
102
RTVSPropertyOp29
 70
     1
102
RTVSPropertyOp30
 70
     1
102
RTVSPropertyOp31
 70
     1
102
RTVSPropertyOp32
 70
     1
102
RTVSPropertyOp33
 70
     1
102
RTVSPropertyOp34
 70
     1
102
RTVSPropertyOp35
 70
     1
102
RTVSPropertyOp36
 70
     1
102
RTVSPropertyOp37
 70
     1
102
RTVSPropertyOp38
 70
     1
102
RTVSPropertyOp39
 70
     1
102
RTVSPropertyOp40
 70
     1
102
RTVSPropertyOp41
 70
     1
102
RTVSPropertyOp42
 70
     1
102
RTVSPropertyOp43
 70
     1
102
RTVSPropertyOp44
 70
     1
102
RTVSPropertyOp45
 70
     1
102
RTVSPropertyOp46
 70
     1
102
RTVSPropertyOp47
 70
     1
102
RTVSPropertyOp48
 70
     1
102
RTVSPropertyOp49
 70
     1
102
RTVSPropertyOp50
 70
     1
102
RTVSPropertyOp51
 70
     0
102
RTVSPropertyOp52
 70
     0
102
RTVSPropertyOp53
 70
     1
102
RTVSPropertyOp54
 70
     1
102
RTVSPropertyOp55
 70
     1
102
RTVSPropertyOp56
 70
     1
102
RTVSPropertyOp57
 70
     1
102
RTVSPropertyOp58
 70
     1
102
RTVSPropertyOp59
 70
     1
102
RTVSPropertyOp60
 70
     1
102
RTVSPropertyOp61
 70
     1
102
RTVSPropertyOp62
 70
     1
  0
XRECORD
  5
C53C
102
{ACAD_REACTORS
330
C53B
102
}
330
C53B
100
AcDbXrecord
280
     1
102
RTVSPost2010Prop28
280
     0
102
RTVSPost2010PropOp28
 70
     1
102
RTVSPost2010Prop29
280
     1
102
RTVSPost2010PropOp29
 70
     1
102
RTVSPost2010Prop30
280
     1
102
RTVSPost2010PropOp30
 70
     1
102
RTVSPost2010Prop31
280
     0
102
RTVSPost2010PropOp31
 70
     1
102
RTVSPost2010Prop32
280
     0
102
RTVSPost2010PropOp32
 70
     1
102
RTVSPost2010Prop33
280
     0
102
RTVSPost2010PropOp33
 70
     1
102
RTVSPost2010Prop34
280
     0
102
RTVSPost2010PropOp34
 70
     1
102
RTVSPost2010Prop35
280
     0
102
RTVSPost2010PropOp35
 70
     1
102
RTVSPost2010Prop36
280
     0
102
RTVSPost2010PropOp36
 70
     1
102
RTVSPost2010Prop37
 90
       50
102
RTVSPost2010PropOp37
 70
     0
102
RTVSPost2010Prop38
140
0.0
102
RTVSPost2010PropOp38
 70
     0
102
RTVSPost2010Prop39
140
1.0
102
RTVSPost2010PropOp39
 70
     0
102
RTVSPost2010Prop40
 90
        0
102
RTVSPost2010PropOp40
 70
     0
102
RTVSPost2010Prop41ColorIndex
 90
       18
102
RTVSPost2010Prop41ColorRGB
 90
        0
102
RTVSPost2010PropOp41
 70
     0
102
RTVSPost2010Prop42
 90
       50
102
RTVSPost2010PropOp42
 70
     0
102
RTVSPost2010Prop43
 90
        3
102
RTVSPost2010PropOp43
 70
     0
102
RTVSPost2010Prop44ColorIndex
 90
        5
102
RTVSPost2010Prop44ColorRGB
 90
      255
102
RTVSPost2010PropOp44
 70
     0
102
RTVSPost2010Prop45
280
     0
102
RTVSPost2010PropOp45
 70
     1
102
RTVSPost2010Prop46
 90
       50
102
RTVSPost2010PropOp46
 70
     0
102
RTVSPost2010Prop47
 90
       50
102
RTVSPost2010PropOp47
 70
     0
102
RTVSPost2010Prop48
 90
       50
102
RTVSPost2010PropOp48
 70
     0
102
RTVSPost2010Prop49
280
     0
102
RTVSPost2010PropOp49
 70
     1
102
RTVSPost2010Prop50
 90
       50
102
RTVSPost2010PropOp50
 70
     0
102
RTVSPost2010Prop51ColorIndex
 90
      256
102
RTVSPost2010Prop51ColorRGB
 90
-16777216
102
RTVSPost2010PropOp51
 70
     0
102
RTVSPost2010Prop52
140
1.0
102
RTVSPost2010PropOp52
 70
     0
102
RTVSPost2010Prop53
 90
        2
102
RTVSPost2010PropOp53
 70
     0
102
RTVSPost2010Prop54
  1
strokes_ogs.tif
102
RTVSPost2010PropOp54
 70
     0
102
RTVSPost2010Prop55
280
     0
102
RTVSPost2010PropOp55
 70
     1
102
RTVSPost2010Prop56
140
1.0
102
RTVSPost2010PropOp56
 70
     0
102
RTVSPost2010Prop57
140
1.0
102
RTVSPost2010PropOp57
 70
     0
102
RTVSPropertyOp0
 70
     0
102
RTVSPropertyOp1
 70
     0
102
RTVSPropertyOp2
 70
     0
102
RTVSPropertyOp3
 70
     0
102
RTVSPropertyOp4
 70
     0
102
RTVSPropertyOp5
 70
     0
102
RTVSPropertyOp6
 70
     0
102
RTVSPropertyOp7
 70
     0
102
RTVSPropertyOp8
 70
     0
102
RTVSPropertyOp9
 70
     0
102
RTVSPropertyOp10
 70
     0
102
RTVSPropertyOp11
 70
     0
102
RTVSPropertyOp12
 70
     0
102
RTVSPropertyOp13
 70
     0
102
RTVSPropertyOp14
 70
     2
102
RTVSPropertyOp15
 70
     0
102
RTVSPropertyOp16
 70
     0
102
RTVSPropertyOp17
 70
     0
102
RTVSPropertyOp18
 70
     0
102
RTVSPropertyOp19
 70
     0
102
RTVSPropertyOp20
 70
     0
102
RTVSPropertyOp21
 70
     0
102
RTVSPropertyOp22
 70
     0
102
RTVSPropertyOp23
 70
     0
102
RTVSPropertyOp24
 70
     0
102
RTVSPropertyOp25
 70
     0
102
RTVSPropertyOp26
 70
     0
102
RTVSPropertyOp27
 70
     0
102
RTVSPropertyOp28
 70
     1
102
RTVSPropertyOp29
 70
     1
102
RTVSPropertyOp30
 70
     1
102
RTVSPropertyOp31
 70
     1
102
RTVSPropertyOp32
 70
     1
102
RTVSPropertyOp33
 70
     1
102
RTVSPropertyOp34
 70
     1
102
RTVSPropertyOp35
 70
     1
102
RTVSPropertyOp36
 70
     1
102
RTVSPropertyOp37
 70
     0
102
RTVSPropertyOp38
 70
     0
102
RTVSPropertyOp39
 70
     0
102
RTVSPropertyOp40
 70
     0
102
RTVSPropertyOp41
 70
     0
102
RTVSPropertyOp42
 70
     0
102
RTVSPropertyOp43
 70
     0
102
RTVSPropertyOp44
 70
     0
102
RTVSPropertyOp45
 70
     1
102
RTVSPropertyOp46
 70
     0
102
RTVSPropertyOp47
 70
     0
102
RTVSPropertyOp48
 70
     0
102
RTVSPropertyOp49
 70
     1
102
RTVSPropertyOp50
 70
     0
102
RTVSPropertyOp51
 70
     0
102
RTVSPropertyOp52
 70
     0
102
RTVSPropertyOp53
 70
     0
102
RTVSPropertyOp54
 70
     0
102
RTVSPropertyOp55
 70
     1
102
RTVSPropertyOp56
 70
     0
102
RTVSPropertyOp57
 70
     0
102
RTVSPropertyOp58
 70
     0
102
RTVSPropertyOp59
 70
     0
102
RTVSPropertyOp60
 70
     0
102
RTVSPropertyOp61
 70
     0
102
RTVSPropertyOp62
 70
     0
  0
XRECORD
  5
C52C
102
{ACAD_REACTORS
330
C52B
102
}
330
C52B
100
AcDbXrecord
280
     1
102
RTVSPost2010Prop28
280
     0
102
RTVSPost2010PropOp28
 70
     1
102
RTVSPost2010Prop29
280
     1
102
RTVSPost2010PropOp29
 70
     1
102
RTVSPost2010Prop30
280
     1
102
RTVSPost2010PropOp30
 70
     1
102
RTVSPost2010Prop31
280
     0
102
RTVSPost2010PropOp31
 70
     1
102
RTVSPost2010Prop32
280
     0
102
RTVSPost2010PropOp32
 70
     1
102
RTVSPost2010Prop33
280
     0
102
RTVSPost2010PropOp33
 70
     1
102
RTVSPost2010Prop34
280
     0
102
RTVSPost2010PropOp34
 70
     1
102
RTVSPost2010Prop35
280
     0
102
RTVSPost2010PropOp35
 70
     1
102
RTVSPost2010Prop36
280
     0
102
RTVSPost2010PropOp36
 70
     1
102
RTVSPost2010Prop37
 90
       50
102
RTVSPost2010PropOp37
 70
     1
102
RTVSPost2010Prop38
140
0.0
102
RTVSPost2010PropOp38
 70
     1
102
RTVSPost2010Prop39
140
1.0
102
RTVSPost2010PropOp39
 70
     1
102
RTVSPost2010Prop40
 90
        0
102
RTVSPost2010PropOp40
 70
     1
102
RTVSPost2010Prop41ColorIndex
 90
       18
102
RTVSPost2010Prop41ColorRGB
 90
        0
102
RTVSPost2010PropOp41
 70
     1
102
RTVSPost2010Prop42
 90
       50
102
RTVSPost2010PropOp42
 70
     1
102
RTVSPost2010Prop43
 90
        3
102
RTVSPost2010PropOp43
 70
     1
102
RTVSPost2010Prop44ColorIndex
 90
        5
102
RTVSPost2010Prop44ColorRGB
 90
      255
102
RTVSPost2010PropOp44
 70
     1
102
RTVSPost2010Prop45
280
     0
102
RTVSPost2010PropOp45
 70
     1
102
RTVSPost2010Prop46
 90
       50
102
RTVSPost2010PropOp46
 70
     1
102
RTVSPost2010Prop47
 90
       50
102
RTVSPost2010PropOp47
 70
     1
102
RTVSPost2010Prop48
 90
       50
102
RTVSPost2010PropOp48
 70
     1
102
RTVSPost2010Prop49
280
     0
102
RTVSPost2010PropOp49
 70
     1
102
RTVSPost2010Prop50
 90
       50
102
RTVSPost2010PropOp50
 70
     1
102
RTVSPost2010Prop51ColorIndex
 90
      256
102
RTVSPost2010Prop51ColorRGB
 90
-16777216
102
RTVSPost2010PropOp51
 70
     0
102
RTVSPost2010Prop52
140
1.0
102
RTVSPost2010PropOp52
 70
     0
102
RTVSPost2010Prop53
 90
        2
102
RTVSPost2010PropOp53
 70
     1
102
RTVSPost2010Prop54
  1
strokes_ogs.tif
102
RTVSPost2010PropOp54
 70
     1
102
RTVSPost2010Prop55
280
     0
102
RTVSPost2010PropOp55
 70
     1
102
RTVSPost2010Prop56
140
1.0
102
RTVSPost2010PropOp56
 70
     1
102
RTVSPost2010Prop57
140
1.0
102
RTVSPost2010PropOp57
 70
     1
102
RTVSPropertyOp0
 70
     1
102
RTVSPropertyOp1
 70
     1
102
RTVSPropertyOp2
 70
     1
102
RTVSPropertyOp3
 70
     1
102
RTVSPropertyOp4
 70
     1
102
RTVSPropertyOp5
 70
     1
102
RTVSPropertyOp6
 70
     1
102
RTVSPropertyOp7
 70
     1
102
RTVSPropertyOp8
 70
     1
102
RTVSPropertyOp9
 70
     1
102
RTVSPropertyOp10
 70
     1
102
RTVSPropertyOp11
 70
     1
102
RTVSPropertyOp12
 70
     1
102
RTVSPropertyOp13
 70
     1
102
RTVSPropertyOp14
 70
     1
102
RTVSPropertyOp15
 70
     1
102
RTVSPropertyOp16
 70
     1
102
RTVSPropertyOp17
 70
     1
102
RTVSPropertyOp18
 70
     1
102
RTVSPropertyOp19
 70
     1
102
RTVSPropertyOp20
 70
     1
102
RTVSPropertyOp21
 70
     1
102
RTVSPropertyOp22
 70
     1
102
RTVSPropertyOp23
 70
     1
102
RTVSPropertyOp24
 70
     1
102
RTVSPropertyOp25
 70
     1
102
RTVSPropertyOp26
 70
     1
102
RTVSPropertyOp27
 70
     1
102
RTVSPropertyOp28
 70
     1
102
RTVSPropertyOp29
 70
     1
102
RTVSPropertyOp30
 70
     1
102
RTVSPropertyOp31
 70
     1
102
RTVSPropertyOp32
 70
     1
102
RTVSPropertyOp33
 70
     1
102
RTVSPropertyOp34
 70
     1
102
RTVSPropertyOp35
 70
     1
102
RTVSPropertyOp36
 70
     1
102
RTVSPropertyOp37
 70
     1
102
RTVSPropertyOp38
 70
     1
102
RTVSPropertyOp39
 70
     1
102
RTVSPropertyOp40
 70
     1
102
RTVSPropertyOp41
 70
     1
102
RTVSPropertyOp42
 70
     1
102
RTVSPropertyOp43
 70
     1
102
RTVSPropertyOp44
 70
     1
102
RTVSPropertyOp45
 70
     1
102
RTVSPropertyOp46
 70
     1
102
RTVSPropertyOp47
 70
     1
102
RTVSPropertyOp48
 70
     1
102
RTVSPropertyOp49
 70
     1
102
RTVSPropertyOp50
 70
     1
102
RTVSPropertyOp51
 70
     0
102
RTVSPropertyOp52
 70
     0
102
RTVSPropertyOp53
 70
     1
102
RTVSPropertyOp54
 70
     1
102
RTVSPropertyOp55
 70
     1
102
RTVSPropertyOp56
 70
     1
102
RTVSPropertyOp57
 70
     1
102
RTVSPropertyOp58
 70
     1
102
RTVSPropertyOp59
 70
     1
102
RTVSPropertyOp60
 70
     1
102
RTVSPropertyOp61
 70
     1
102
RTVSPropertyOp62
 70
     1
  0
XRECORD
  5
C53E
102
{ACAD_REACTORS
330
C53D
102
}
330
C53D
100
AcDbXrecord
280
     1
102
RTVSPost2010Prop28
280
     0
102
RTVSPost2010PropOp28
 70
     1
102
RTVSPost2010Prop29
280
     1
102
RTVSPost2010PropOp29
 70
     1
102
RTVSPost2010Prop30
280
     1
102
RTVSPost2010PropOp30
 70
     1
102
RTVSPost2010Prop31
280
     0
102
RTVSPost2010PropOp31
 70
     1
102
RTVSPost2010Prop32
280
     0
102
RTVSPost2010PropOp32
 70
     1
102
RTVSPost2010Prop33
280
     0
102
RTVSPost2010PropOp33
 70
     1
102
RTVSPost2010Prop34
280
     0
102
RTVSPost2010PropOp34
 70
     1
102
RTVSPost2010Prop35
280
     0
102
RTVSPost2010PropOp35
 70
     1
102
RTVSPost2010Prop36
280
     0
102
RTVSPost2010PropOp36
 70
     1
102
RTVSPost2010Prop37
 90
       50
102
RTVSPost2010PropOp37
 70
     0
102
RTVSPost2010Prop38
140
0.0
102
RTVSPost2010PropOp38
 70
     0
102
RTVSPost2010Prop39
140
1.0
102
RTVSPost2010PropOp39
 70
     0
102
RTVSPost2010Prop40
 90
        0
102
RTVSPost2010PropOp40
 70
     0
102
RTVSPost2010Prop41ColorIndex
 90
       18
102
RTVSPost2010Prop41ColorRGB
 90
        0
102
RTVSPost2010PropOp41
 70
     0
102
RTVSPost2010Prop42
 90
       50
102
RTVSPost2010PropOp42
 70
     0
102
RTVSPost2010Prop43
 90
        3
102
RTVSPost2010PropOp43
 70
     0
102
RTVSPost2010Prop44ColorIndex
 90
        5
102
RTVSPost2010Prop44ColorRGB
 90
      255
102
RTVSPost2010PropOp44
 70
     0
102
RTVSPost2010Prop45
280
     0
102
RTVSPost2010PropOp45
 70
     1
102
RTVSPost2010Prop46
 90
       50
102
RTVSPost2010PropOp46
 70
     0
102
RTVSPost2010Prop47
 90
       50
102
RTVSPost2010PropOp47
 70
     0
102
RTVSPost2010Prop48
 90
       50
102
RTVSPost2010PropOp48
 70
     0
102
RTVSPost2010Prop49
280
     0
102
RTVSPost2010PropOp49
 70
     1
102
RTVSPost2010Prop50
 90
       50
102
RTVSPost2010PropOp50
 70
     0
102
RTVSPost2010Prop51ColorIndex
 90
      256
102
RTVSPost2010Prop51ColorRGB
 90
-16777216
102
RTVSPost2010PropOp51
 70
     0
102
RTVSPost2010Prop52
140
1.0
102
RTVSPost2010PropOp52
 70
     0
102
RTVSPost2010Prop53
 90
        2
102
RTVSPost2010PropOp53
 70
     0
102
RTVSPost2010Prop54
  1
strokes_ogs.tif
102
RTVSPost2010PropOp54
 70
     0
102
RTVSPost2010Prop55
280
     0
102
RTVSPost2010PropOp55
 70
     1
102
RTVSPost2010Prop56
140
1.0
102
RTVSPost2010PropOp56
 70
     0
102
RTVSPost2010Prop57
140
1.0
102
RTVSPost2010PropOp57
 70
     0
102
RTVSPropertyOp0
 70
     0
102
RTVSPropertyOp1
 70
     0
102
RTVSPropertyOp2
 70
     0
102
RTVSPropertyOp3
 70
     0
102
RTVSPropertyOp4
 70
     0
102
RTVSPropertyOp5
 70
     0
102
RTVSPropertyOp6
 70
     0
102
RTVSPropertyOp7
 70
     0
102
RTVSPropertyOp8
 70
     0
102
RTVSPropertyOp9
 70
     0
102
RTVSPropertyOp10
 70
     0
102
RTVSPropertyOp11
 70
     0
102
RTVSPropertyOp12
 70
     0
102
RTVSPropertyOp13
 70
     0
102
RTVSPropertyOp14
 70
     2
102
RTVSPropertyOp15
 70
     0
102
RTVSPropertyOp16
 70
     0
102
RTVSPropertyOp17
 70
     0
102
RTVSPropertyOp18
 70
     0
102
RTVSPropertyOp19
 70
     0
102
RTVSPropertyOp20
 70
     0
102
RTVSPropertyOp21
 70
     0
102
RTVSPropertyOp22
 70
     0
102
RTVSPropertyOp23
 70
     0
102
RTVSPropertyOp24
 70
     0
102
RTVSPropertyOp25
 70
     0
102
RTVSPropertyOp26
 70
     0
102
RTVSPropertyOp27
 70
     0
102
RTVSPropertyOp28
 70
     1
102
RTVSPropertyOp29
 70
     1
102
RTVSPropertyOp30
 70
     1
102
RTVSPropertyOp31
 70
     1
102
RTVSPropertyOp32
 70
     1
102
RTVSPropertyOp33
 70
     1
102
RTVSPropertyOp34
 70
     1
102
RTVSPropertyOp35
 70
     1
102
RTVSPropertyOp36
 70
     1
102
RTVSPropertyOp37
 70
     0
102
RTVSPropertyOp38
 70
     0
102
RTVSPropertyOp39
 70
     0
102
RTVSPropertyOp40
 70
     0
102
RTVSPropertyOp41
 70
     0
102
RTVSPropertyOp42
 70
     0
102
RTVSPropertyOp43
 70
     0
102
RTVSPropertyOp44
 70
     0
102
RTVSPropertyOp45
 70
     1
102
RTVSPropertyOp46
 70
     0
102
RTVSPropertyOp47
 70
     0
102
RTVSPropertyOp48
 70
     0
102
RTVSPropertyOp49
 70
     1
102
RTVSPropertyOp50
 70
     0
102
RTVSPropertyOp51
 70
     0
102
RTVSPropertyOp52
 70
     0
102
RTVSPropertyOp53
 70
     0
102
RTVSPropertyOp54
 70
     0
102
RTVSPropertyOp55
 70
     1
102
RTVSPropertyOp56
 70
     0
102
RTVSPropertyOp57
 70
     0
102
RTVSPropertyOp58
 70
     0
102
RTVSPropertyOp59
 70
     0
102
RTVSPropertyOp60
 70
     0
102
RTVSPropertyOp61
 70
     0
102
RTVSPropertyOp62
 70
     0
  0
XRECORD
  5
C524
102
{ACAD_REACTORS
330
C523
102
}
330
C523
100
AcDbXrecord
280
     1
102
RTVSPost2010Prop28
280
     0
102
RTVSPost2010PropOp28
 70
     1
102
RTVSPost2010Prop29
280
     1
102
RTVSPost2010PropOp29
 70
     1
102
RTVSPost2010Prop30
280
     1
102
RTVSPost2010PropOp30
 70
     1
102
RTVSPost2010Prop31
280
     0
102
RTVSPost2010PropOp31
 70
     1
102
RTVSPost2010Prop32
280
     0
102
RTVSPost2010PropOp32
 70
     1
102
RTVSPost2010Prop33
280
     0
102
RTVSPost2010PropOp33
 70
     1
102
RTVSPost2010Prop34
280
     0
102
RTVSPost2010PropOp34
 70
     1
102
RTVSPost2010Prop35
280
     0
102
RTVSPost2010PropOp35
 70
     1
102
RTVSPost2010Prop36
280
     0
102
RTVSPost2010PropOp36
 70
     1
102
RTVSPost2010Prop37
 90
       50
102
RTVSPost2010PropOp37
 70
     1
102
RTVSPost2010Prop38
140
0.0
102
RTVSPost2010PropOp38
 70
     1
102
RTVSPost2010Prop39
140
1.0
102
RTVSPost2010PropOp39
 70
     1
102
RTVSPost2010Prop40
 90
        0
102
RTVSPost2010PropOp40
 70
     1
102
RTVSPost2010Prop41ColorIndex
 90
       18
102
RTVSPost2010Prop41ColorRGB
 90
        0
102
RTVSPost2010PropOp41
 70
     1
102
RTVSPost2010Prop42
 90
       50
102
RTVSPost2010PropOp42
 70
     1
102
RTVSPost2010Prop43
 90
        3
102
RTVSPost2010PropOp43
 70
     1
102
RTVSPost2010Prop44ColorIndex
 90
        5
102
RTVSPost2010Prop44ColorRGB
 90
      255
102
RTVSPost2010PropOp44
 70
     1
102
RTVSPost2010Prop45
280
     0
102
RTVSPost2010PropOp45
 70
     1
102
RTVSPost2010Prop46
 90
       50
102
RTVSPost2010PropOp46
 70
     1
102
RTVSPost2010Prop47
 90
       50
102
RTVSPost2010PropOp47
 70
     1
102
RTVSPost2010Prop48
 90
       50
102
RTVSPost2010PropOp48
 70
     1
102
RTVSPost2010Prop49
280
     0
102
RTVSPost2010PropOp49
 70
     1
102
RTVSPost2010Prop50
 90
       50
102
RTVSPost2010PropOp50
 70
     1
102
RTVSPost2010Prop51ColorIndex
 90
      256
102
RTVSPost2010Prop51ColorRGB
 90
-16777216
102
RTVSPost2010PropOp51
 70
     0
102
RTVSPost2010Prop52
140
1.0
102
RTVSPost2010PropOp52
 70
     0
102
RTVSPost2010Prop53
 90
        2
102
RTVSPost2010PropOp53
 70
     1
102
RTVSPost2010Prop54
  1
strokes_ogs.tif
102
RTVSPost2010PropOp54
 70
     1
102
RTVSPost2010Prop55
280
     0
102
RTVSPost2010PropOp55
 70
     1
102
RTVSPost2010Prop56
140
1.0
102
RTVSPost2010PropOp56
 70
     1
102
RTVSPost2010Prop57
140
1.0
102
RTVSPost2010PropOp57
 70
     1
102
RTVSPropertyOp0
 70
     1
102
RTVSPropertyOp1
 70
     1
102
RTVSPropertyOp2
 70
     1
102
RTVSPropertyOp3
 70
     1
102
RTVSPropertyOp4
 70
     1
102
RTVSPropertyOp5
 70
     1
102
RTVSPropertyOp6
 70
     1
102
RTVSPropertyOp7
 70
     1
102
RTVSPropertyOp8
 70
     1
102
RTVSPropertyOp9
 70
     1
102
RTVSPropertyOp10
 70
     1
102
RTVSPropertyOp11
 70
     1
102
RTVSPropertyOp12
 70
     1
102
RTVSPropertyOp13
 70
     1
102
RTVSPropertyOp14
 70
     1
102
RTVSPropertyOp15
 70
     1
102
RTVSPropertyOp16
 70
     1
102
RTVSPropertyOp17
 70
     1
102
RTVSPropertyOp18
 70
     1
102
RTVSPropertyOp19
 70
     1
102
RTVSPropertyOp20
 70
     1
102
RTVSPropertyOp21
 70
     1
102
RTVSPropertyOp22
 70
     1
102
RTVSPropertyOp23
 70
     1
102
RTVSPropertyOp24
 70
     1
102
RTVSPropertyOp25
 70
     1
102
RTVSPropertyOp26
 70
     1
102
RTVSPropertyOp27
 70
     1
102
RTVSPropertyOp28
 70
     1
102
RTVSPropertyOp29
 70
     1
102
RTVSPropertyOp30
 70
     1
102
RTVSPropertyOp31
 70
     1
102
RTVSPropertyOp32
 70
     1
102
RTVSPropertyOp33
 70
     1
102
RTVSPropertyOp34
 70
     1
102
RTVSPropertyOp35
 70
     1
102
RTVSPropertyOp36
 70
     1
102
RTVSPropertyOp37
 70
     1
102
RTVSPropertyOp38
 70
     1
102
RTVSPropertyOp39
 70
     1
102
RTVSPropertyOp40
 70
     1
102
RTVSPropertyOp41
 70
     1
102
RTVSPropertyOp42
 70
     1
102
RTVSPropertyOp43
 70
     1
102
RTVSPropertyOp44
 70
     1
102
RTVSPropertyOp45
 70
     1
102
RTVSPropertyOp46
 70
     1
102
RTVSPropertyOp47
 70
     1
102
RTVSPropertyOp48
 70
     1
102
RTVSPropertyOp49
 70
     1
102
RTVSPropertyOp50
 70
     1
102
RTVSPropertyOp51
 70
     0
102
RTVSPropertyOp52
 70
     0
102
RTVSPropertyOp53
 70
     1
102
RTVSPropertyOp54
 70
     1
102
RTVSPropertyOp55
 70
     1
102
RTVSPropertyOp56
 70
     1
102
RTVSPropertyOp57
 70
     1
102
RTVSPropertyOp58
 70
     1
102
RTVSPropertyOp59
 70
     1
102
RTVSPropertyOp60
 70
     1
102
RTVSPropertyOp61
 70
     1
102
RTVSPropertyOp62
 70
     1
  0
XRECORD
  5
C53A
102
{ACAD_REACTORS
330
C539
102
}
330
C539
100
AcDbXrecord
280
     1
102
RTVSPost2010Prop28
280
     0
102
RTVSPost2010PropOp28
 70
     1
102
RTVSPost2010Prop29
280
     1
102
RTVSPost2010PropOp29
 70
     1
102
RTVSPost2010Prop30
280
     1
102
RTVSPost2010PropOp30
 70
     1
102
RTVSPost2010Prop31
280
     0
102
RTVSPost2010PropOp31
 70
     1
102
RTVSPost2010Prop32
280
     0
102
RTVSPost2010PropOp32
 70
     1
102
RTVSPost2010Prop33
280
     0
102
RTVSPost2010PropOp33
 70
     1
102
RTVSPost2010Prop34
280
     0
102
RTVSPost2010PropOp34
 70
     1
102
RTVSPost2010Prop35
280
     0
102
RTVSPost2010PropOp35
 70
     1
102
RTVSPost2010Prop36
280
     0
102
RTVSPost2010PropOp36
 70
     1
102
RTVSPost2010Prop37
 90
       50
102
RTVSPost2010PropOp37
 70
     1
102
RTVSPost2010Prop38
140
0.0
102
RTVSPost2010PropOp38
 70
     1
102
RTVSPost2010Prop39
140
1.0
102
RTVSPost2010PropOp39
 70
     1
102
RTVSPost2010Prop40
 90
        0
102
RTVSPost2010PropOp40
 70
     1
102
RTVSPost2010Prop41ColorIndex
 90
       18
102
RTVSPost2010Prop41ColorRGB
 90
        0
102
RTVSPost2010PropOp41
 70
     1
102
RTVSPost2010Prop42
 90
       50
102
RTVSPost2010PropOp42
 70
     1
102
RTVSPost2010Prop43
 90
        3
102
RTVSPost2010PropOp43
 70
     1
102
RTVSPost2010Prop44ColorIndex
 90
        5
102
RTVSPost2010Prop44ColorRGB
 90
      255
102
RTVSPost2010PropOp44
 70
     1
102
RTVSPost2010Prop45
280
     0
102
RTVSPost2010PropOp45
 70
     1
102
RTVSPost2010Prop46
 90
       50
102
RTVSPost2010PropOp46
 70
     1
102
RTVSPost2010Prop47
 90
       50
102
RTVSPost2010PropOp47
 70
     1
102
RTVSPost2010Prop48
 90
       50
102
RTVSPost2010PropOp48
 70
     1
102
RTVSPost2010Prop49
280
     0
102
RTVSPost2010PropOp49
 70
     1
102
RTVSPost2010Prop50
 90
       50
102
RTVSPost2010PropOp50
 70
     1
102
RTVSPost2010Prop51ColorIndex
 90
      256
102
RTVSPost2010Prop51ColorRGB
 90
-16777216
102
RTVSPost2010PropOp51
 70
     0
102
RTVSPost2010Prop52
140
1.0
102
RTVSPost2010PropOp52
 70
     0
102
RTVSPost2010Prop53
 90
        2
102
RTVSPost2010PropOp53
 70
     1
102
RTVSPost2010Prop54
  1
strokes_ogs.tif
102
RTVSPost2010PropOp54
 70
     1
102
RTVSPost2010Prop55
280
     0
102
RTVSPost2010PropOp55
 70
     1
102
RTVSPost2010Prop56
140
1.0
102
RTVSPost2010PropOp56
 70
     1
102
RTVSPost2010Prop57
140
1.0
102
RTVSPost2010PropOp57
 70
     1
102
RTVSPropertyOp0
 70
     1
102
RTVSPropertyOp1
 70
     1
102
RTVSPropertyOp2
 70
     1
102
RTVSPropertyOp3
 70
     1
102
RTVSPropertyOp4
 70
     1
102
RTVSPropertyOp5
 70
     1
102
RTVSPropertyOp6
 70
     1
102
RTVSPropertyOp7
 70
     1
102
RTVSPropertyOp8
 70
     1
102
RTVSPropertyOp9
 70
     1
102
RTVSPropertyOp10
 70
     1
102
RTVSPropertyOp11
 70
     1
102
RTVSPropertyOp12
 70
     1
102
RTVSPropertyOp13
 70
     1
102
RTVSPropertyOp14
 70
     1
102
RTVSPropertyOp15
 70
     1
102
RTVSPropertyOp16
 70
     1
102
RTVSPropertyOp17
 70
     1
102
RTVSPropertyOp18
 70
     1
102
RTVSPropertyOp19
 70
     1
102
RTVSPropertyOp20
 70
     1
102
RTVSPropertyOp21
 70
     1
102
RTVSPropertyOp22
 70
     1
102
RTVSPropertyOp23
 70
     1
102
RTVSPropertyOp24
 70
     1
102
RTVSPropertyOp25
 70
     1
102
RTVSPropertyOp26
 70
     1
102
RTVSPropertyOp27
 70
     1
102
RTVSPropertyOp28
 70
     1
102
RTVSPropertyOp29
 70
     1
102
RTVSPropertyOp30
 70
     1
102
RTVSPropertyOp31
 70
     1
102
RTVSPropertyOp32
 70
     1
102
RTVSPropertyOp33
 70
     1
102
RTVSPropertyOp34
 70
     1
102
RTVSPropertyOp35
 70
     1
102
RTVSPropertyOp36
 70
     1
102
RTVSPropertyOp37
 70
     1
102
RTVSPropertyOp38
 70
     1
102
RTVSPropertyOp39
 70
     1
102
RTVSPropertyOp40
 70
     1
102
RTVSPropertyOp41
 70
     1
102
RTVSPropertyOp42
 70
     1
102
RTVSPropertyOp43
 70
     1
102
RTVSPropertyOp44
 70
     1
102
RTVSPropertyOp45
 70
     1
102
RTVSPropertyOp46
 70
     1
102
RTVSPropertyOp47
 70
     1
102
RTVSPropertyOp48
 70
     1
102
RTVSPropertyOp49
 70
     1
102
RTVSPropertyOp50
 70
     1
102
RTVSPropertyOp51
 70
     0
102
RTVSPropertyOp52
 70
     0
102
RTVSPropertyOp53
 70
     1
102
RTVSPropertyOp54
 70
     1
102
RTVSPropertyOp55
 70
     1
102
RTVSPropertyOp56
 70
     1
102
RTVSPropertyOp57
 70
     1
102
RTVSPropertyOp58
 70
     1
102
RTVSPropertyOp59
 70
     1
102
RTVSPropertyOp60
 70
     1
102
RTVSPropertyOp61
 70
     1
102
RTVSPropertyOp62
 70
     1
  0
XRECORD
  5
C538
102
{ACAD_REACTORS
330
C537
102
}
330
C537
100
AcDbXrecord
280
     1
102
RTVSPost2010Prop28
280
     0
102
RTVSPost2010PropOp28
 70
     1
102
RTVSPost2010Prop29
280
     1
102
RTVSPost2010PropOp29
 70
     1
102
RTVSPost2010Prop30
280
     1
102
RTVSPost2010PropOp30
 70
     1
102
RTVSPost2010Prop31
280
     0
102
RTVSPost2010PropOp31
 70
     1
102
RTVSPost2010Prop32
280
     0
102
RTVSPost2010PropOp32
 70
     1
102
RTVSPost2010Prop33
280
     0
102
RTVSPost2010PropOp33
 70
     1
102
RTVSPost2010Prop34
280
     0
102
RTVSPost2010PropOp34
 70
     1
102
RTVSPost2010Prop35
280
     0
102
RTVSPost2010PropOp35
 70
     1
102
RTVSPost2010Prop36
280
     0
102
RTVSPost2010PropOp36
 70
     1
102
RTVSPost2010Prop37
 90
       50
102
RTVSPost2010PropOp37
 70
     1
102
RTVSPost2010Prop38
140
0.0
102
RTVSPost2010PropOp38
 70
     1
102
RTVSPost2010Prop39
140
1.0
102
RTVSPost2010PropOp39
 70
     1
102
RTVSPost2010Prop40
 90
        0
102
RTVSPost2010PropOp40
 70
     1
102
RTVSPost2010Prop41ColorIndex
 90
       18
102
RTVSPost2010Prop41ColorRGB
 90
        0
102
RTVSPost2010PropOp41
 70
     1
102
RTVSPost2010Prop42
 90
       50
102
RTVSPost2010PropOp42
 70
     1
102
RTVSPost2010Prop43
 90
        3
102
RTVSPost2010PropOp43
 70
     1
102
RTVSPost2010Prop44ColorIndex
 90
        5
102
RTVSPost2010Prop44ColorRGB
 90
      255
102
RTVSPost2010PropOp44
 70
     1
102
RTVSPost2010Prop45
280
     0
102
RTVSPost2010PropOp45
 70
     1
102
RTVSPost2010Prop46
 90
       50
102
RTVSPost2010PropOp46
 70
     1
102
RTVSPost2010Prop47
 90
       50
102
RTVSPost2010PropOp47
 70
     1
102
RTVSPost2010Prop48
 90
       50
102
RTVSPost2010PropOp48
 70
     1
102
RTVSPost2010Prop49
280
     0
102
RTVSPost2010PropOp49
 70
     1
102
RTVSPost2010Prop50
 90
       50
102
RTVSPost2010PropOp50
 70
     1
102
RTVSPost2010Prop51ColorIndex
 90
      256
102
RTVSPost2010Prop51ColorRGB
 90
-16777216
102
RTVSPost2010PropOp51
 70
     0
102
RTVSPost2010Prop52
140
1.0
102
RTVSPost2010PropOp52
 70
     0
102
RTVSPost2010Prop53
 90
        2
102
RTVSPost2010PropOp53
 70
     1
102
RTVSPost2010Prop54
  1
strokes_ogs.tif
102
RTVSPost2010PropOp54
 70
     1
102
RTVSPost2010Prop55
280
     0
102
RTVSPost2010PropOp55
 70
     1
102
RTVSPost2010Prop56
140
1.0
102
RTVSPost2010PropOp56
 70
     1
102
RTVSPost2010Prop57
140
1.0
102
RTVSPost2010PropOp57
 70
     1
102
RTVSPropertyOp0
 70
     1
102
RTVSPropertyOp1
 70
     1
102
RTVSPropertyOp2
 70
     1
102
RTVSPropertyOp3
 70
     1
102
RTVSPropertyOp4
 70
     1
102
RTVSPropertyOp5
 70
     1
102
RTVSPropertyOp6
 70
     1
102
RTVSPropertyOp7
 70
     1
102
RTVSPropertyOp8
 70
     1
102
RTVSPropertyOp9
 70
     1
102
RTVSPropertyOp10
 70
     1
102
RTVSPropertyOp11
 70
     1
102
RTVSPropertyOp12
 70
     1
102
RTVSPropertyOp13
 70
     1
102
RTVSPropertyOp14
 70
     1
102
RTVSPropertyOp15
 70
     1
102
RTVSPropertyOp16
 70
     1
102
RTVSPropertyOp17
 70
     1
102
RTVSPropertyOp18
 70
     1
102
RTVSPropertyOp19
 70
     1
102
RTVSPropertyOp20
 70
     1
102
RTVSPropertyOp21
 70
     1
102
RTVSPropertyOp22
 70
     1
102
RTVSPropertyOp23
 70
     1
102
RTVSPropertyOp24
 70
     1
102
RTVSPropertyOp25
 70
     1
102
RTVSPropertyOp26
 70
     1
102
RTVSPropertyOp27
 70
     1
102
RTVSPropertyOp28
 70
     1
102
RTVSPropertyOp29
 70
     1
102
RTVSPropertyOp30
 70
     1
102
RTVSPropertyOp31
 70
     1
102
RTVSPropertyOp32
 70
     1
102
RTVSPropertyOp33
 70
     1
102
RTVSPropertyOp34
 70
     1
102
RTVSPropertyOp35
 70
     1
102
RTVSPropertyOp36
 70
     1
102
RTVSPropertyOp37
 70
     1
102
RTVSPropertyOp38
 70
     1
102
RTVSPropertyOp39
 70
     1
102
RTVSPropertyOp40
 70
     1
102
RTVSPropertyOp41
 70
     1
102
RTVSPropertyOp42
 70
     1
102
RTVSPropertyOp43
 70
     1
102
RTVSPropertyOp44
 70
     1
102
RTVSPropertyOp45
 70
     1
102
RTVSPropertyOp46
 70
     1
102
RTVSPropertyOp47
 70
     1
102
RTVSPropertyOp48
 70
     1
102
RTVSPropertyOp49
 70
     1
102
RTVSPropertyOp50
 70
     1
102
RTVSPropertyOp51
 70
     0
102
RTVSPropertyOp52
 70
     0
102
RTVSPropertyOp53
 70
     1
102
RTVSPropertyOp54
 70
     1
102
RTVSPropertyOp55
 70
     1
102
RTVSPropertyOp56
 70
     1
102
RTVSPropertyOp57
 70
     1
102
RTVSPropertyOp58
 70
     1
102
RTVSPropertyOp59
 70
     1
102
RTVSPropertyOp60
 70
     1
102
RTVSPropertyOp61
 70
     1
102
RTVSPropertyOp62
 70
     1
  0
XRECORD
  5
C532
102
{ACAD_REACTORS
330
C531
102
}
330
C531
100
AcDbXrecord
280
     1
102
RTVSPost2010Prop28
280
     0
102
RTVSPost2010PropOp28
 70
     1
102
RTVSPost2010Prop29
280
     1
102
RTVSPost2010PropOp29
 70
     1
102
RTVSPost2010Prop30
280
     1
102
RTVSPost2010PropOp30
 70
     1
102
RTVSPost2010Prop31
280
     0
102
RTVSPost2010PropOp31
 70
     1
102
RTVSPost2010Prop32
280
     0
102
RTVSPost2010PropOp32
 70
     1
102
RTVSPost2010Prop33
280
     0
102
RTVSPost2010PropOp33
 70
     1
102
RTVSPost2010Prop34
280
     0
102
RTVSPost2010PropOp34
 70
     1
102
RTVSPost2010Prop35
280
     0
102
RTVSPost2010PropOp35
 70
     1
102
RTVSPost2010Prop36
280
     0
102
RTVSPost2010PropOp36
 70
     1
102
RTVSPost2010Prop37
 90
       50
102
RTVSPost2010PropOp37
 70
     1
102
RTVSPost2010Prop38
140
0.0
102
RTVSPost2010PropOp38
 70
     1
102
RTVSPost2010Prop39
140
1.0
102
RTVSPost2010PropOp39
 70
     1
102
RTVSPost2010Prop40
 90
        0
102
RTVSPost2010PropOp40
 70
     1
102
RTVSPost2010Prop41ColorIndex
 90
       18
102
RTVSPost2010Prop41ColorRGB
 90
        0
102
RTVSPost2010PropOp41
 70
     1
102
RTVSPost2010Prop42
 90
       50
102
RTVSPost2010PropOp42
 70
     1
102
RTVSPost2010Prop43
 90
        3
102
RTVSPost2010PropOp43
 70
     1
102
RTVSPost2010Prop44ColorIndex
 90
        5
102
RTVSPost2010Prop44ColorRGB
 90
      255
102
RTVSPost2010PropOp44
 70
     1
102
RTVSPost2010Prop45
280
     0
102
RTVSPost2010PropOp45
 70
     1
102
RTVSPost2010Prop46
 90
       50
102
RTVSPost2010PropOp46
 70
     1
102
RTVSPost2010Prop47
 90
       50
102
RTVSPost2010PropOp47
 70
     1
102
RTVSPost2010Prop48
 90
       50
102
RTVSPost2010PropOp48
 70
     1
102
RTVSPost2010Prop49
280
     0
102
RTVSPost2010PropOp49
 70
     1
102
RTVSPost2010Prop50
 90
       50
102
RTVSPost2010PropOp50
 70
     1
102
RTVSPost2010Prop51ColorIndex
 90
      256
102
RTVSPost2010Prop51ColorRGB
 90
-16777216
102
RTVSPost2010PropOp51
 70
     0
102
RTVSPost2010Prop52
140
1.0
102
RTVSPost2010PropOp52
 70
     0
102
RTVSPost2010Prop53
 90
        2
102
RTVSPost2010PropOp53
 70
     1
102
RTVSPost2010Prop54
  1
strokes_ogs.tif
102
RTVSPost2010PropOp54
 70
     1
102
RTVSPost2010Prop55
280
     0
102
RTVSPost2010PropOp55
 70
     1
102
RTVSPost2010Prop56
140
1.0
102
RTVSPost2010PropOp56
 70
     1
102
RTVSPost2010Prop57
140
1.0
102
RTVSPost2010PropOp57
 70
     1
102
RTVSPropertyOp0
 70
     1
102
RTVSPropertyOp1
 70
     1
102
RTVSPropertyOp2
 70
     1
102
RTVSPropertyOp3
 70
     1
102
RTVSPropertyOp4
 70
     1
102
RTVSPropertyOp5
 70
     1
102
RTVSPropertyOp6
 70
     1
102
RTVSPropertyOp7
 70
     1
102
RTVSPropertyOp8
 70
     1
102
RTVSPropertyOp9
 70
     1
102
RTVSPropertyOp10
 70
     1
102
RTVSPropertyOp11
 70
     1
102
RTVSPropertyOp12
 70
     1
102
RTVSPropertyOp13
 70
     1
102
RTVSPropertyOp14
 70
     1
102
RTVSPropertyOp15
 70
     1
102
RTVSPropertyOp16
 70
     1
102
RTVSPropertyOp17
 70
     1
102
RTVSPropertyOp18
 70
     1
102
RTVSPropertyOp19
 70
     1
102
RTVSPropertyOp20
 70
     1
102
RTVSPropertyOp21
 70
     1
102
RTVSPropertyOp22
 70
     1
102
RTVSPropertyOp23
 70
     1
102
RTVSPropertyOp24
 70
     1
102
RTVSPropertyOp25
 70
     1
102
RTVSPropertyOp26
 70
     1
102
RTVSPropertyOp27
 70
     1
102
RTVSPropertyOp28
 70
     1
102
RTVSPropertyOp29
 70
     1
102
RTVSPropertyOp30
 70
     1
102
RTVSPropertyOp31
 70
     1
102
RTVSPropertyOp32
 70
     1
102
RTVSPropertyOp33
 70
     1
102
RTVSPropertyOp34
 70
     1
102
RTVSPropertyOp35
 70
     1
102
RTVSPropertyOp36
 70
     1
102
RTVSPropertyOp37
 70
     1
102
RTVSPropertyOp38
 70
     1
102
RTVSPropertyOp39
 70
     1
102
RTVSPropertyOp40
 70
     1
102
RTVSPropertyOp41
 70
     1
102
RTVSPropertyOp42
 70
     1
102
RTVSPropertyOp43
 70
     1
102
RTVSPropertyOp44
 70
     1
102
RTVSPropertyOp45
 70
     1
102
RTVSPropertyOp46
 70
     1
102
RTVSPropertyOp47
 70
     1
102
RTVSPropertyOp48
 70
     1
102
RTVSPropertyOp49
 70
     1
102
RTVSPropertyOp50
 70
     1
102
RTVSPropertyOp51
 70
     0
102
RTVSPropertyOp52
 70
     0
102
RTVSPropertyOp53
 70
     1
102
RTVSPropertyOp54
 70
     1
102
RTVSPropertyOp55
 70
     1
102
RTVSPropertyOp56
 70
     1
102
RTVSPropertyOp57
 70
     1
102
RTVSPropertyOp58
 70
     1
102
RTVSPropertyOp59
 70
     1
102
RTVSPropertyOp60
 70
     1
102
RTVSPropertyOp61
 70
     1
102
RTVSPropertyOp62
 70
     1
  0
XRECORD
  5
C534
102
{ACAD_REACTORS
330
C533
102
}
330
C533
100
AcDbXrecord
280
     1
102
RTVSPost2010Prop28
280
     0
102
RTVSPost2010PropOp28
 70
     1
102
RTVSPost2010Prop29
280
     1
102
RTVSPost2010PropOp29
 70
     1
102
RTVSPost2010Prop30
280
     1
102
RTVSPost2010PropOp30
 70
     1
102
RTVSPost2010Prop31
280
     0
102
RTVSPost2010PropOp31
 70
     1
102
RTVSPost2010Prop32
280
     0
102
RTVSPost2010PropOp32
 70
     1
102
RTVSPost2010Prop33
280
     0
102
RTVSPost2010PropOp33
 70
     1
102
RTVSPost2010Prop34
280
     0
102
RTVSPost2010PropOp34
 70
     1
102
RTVSPost2010Prop35
280
     0
102
RTVSPost2010PropOp35
 70
     1
102
RTVSPost2010Prop36
280
     0
102
RTVSPost2010PropOp36
 70
     1
102
RTVSPost2010Prop37
 90
       50
102
RTVSPost2010PropOp37
 70
     1
102
RTVSPost2010Prop38
140
0.0
102
RTVSPost2010PropOp38
 70
     1
102
RTVSPost2010Prop39
140
1.0
102
RTVSPost2010PropOp39
 70
     1
102
RTVSPost2010Prop40
 90
        0
102
RTVSPost2010PropOp40
 70
     1
102
RTVSPost2010Prop41ColorIndex
 90
       18
102
RTVSPost2010Prop41ColorRGB
 90
        0
102
RTVSPost2010PropOp41
 70
     1
102
RTVSPost2010Prop42
 90
       50
102
RTVSPost2010PropOp42
 70
     1
102
RTVSPost2010Prop43
 90
        3
102
RTVSPost2010PropOp43
 70
     1
102
RTVSPost2010Prop44ColorIndex
 90
        5
102
RTVSPost2010Prop44ColorRGB
 90
      255
102
RTVSPost2010PropOp44
 70
     1
102
RTVSPost2010Prop45
280
     0
102
RTVSPost2010PropOp45
 70
     1
102
RTVSPost2010Prop46
 90
       50
102
RTVSPost2010PropOp46
 70
     1
102
RTVSPost2010Prop47
 90
       50
102
RTVSPost2010PropOp47
 70
     1
102
RTVSPost2010Prop48
 90
       50
102
RTVSPost2010PropOp48
 70
     1
102
RTVSPost2010Prop49
280
     0
102
RTVSPost2010PropOp49
 70
     1
102
RTVSPost2010Prop50
 90
       50
102
RTVSPost2010PropOp50
 70
     1
102
RTVSPost2010Prop51ColorIndex
 90
      256
102
RTVSPost2010Prop51ColorRGB
 90
-16777216
102
RTVSPost2010PropOp51
 70
     0
102
RTVSPost2010Prop52
140
1.0
102
RTVSPost2010PropOp52
 70
     0
102
RTVSPost2010Prop53
 90
        2
102
RTVSPost2010PropOp53
 70
     1
102
RTVSPost2010Prop54
  1
strokes_ogs.tif
102
RTVSPost2010PropOp54
 70
     1
102
RTVSPost2010Prop55
280
     0
102
RTVSPost2010PropOp55
 70
     1
102
RTVSPost2010Prop56
140
1.0
102
RTVSPost2010PropOp56
 70
     1
102
RTVSPost2010Prop57
140
1.0
102
RTVSPost2010PropOp57
 70
     1
102
RTVSPropertyOp0
 70
     1
102
RTVSPropertyOp1
 70
     1
102
RTVSPropertyOp2
 70
     1
102
RTVSPropertyOp3
 70
     1
102
RTVSPropertyOp4
 70
     1
102
RTVSPropertyOp5
 70
     1
102
RTVSPropertyOp6
 70
     1
102
RTVSPropertyOp7
 70
     1
102
RTVSPropertyOp8
 70
     1
102
RTVSPropertyOp9
 70
     1
102
RTVSPropertyOp10
 70
     1
102
RTVSPropertyOp11
 70
     1
102
RTVSPropertyOp12
 70
     1
102
RTVSPropertyOp13
 70
     1
102
RTVSPropertyOp14
 70
     1
102
RTVSPropertyOp15
 70
     1
102
RTVSPropertyOp16
 70
     1
102
RTVSPropertyOp17
 70
     1
102
RTVSPropertyOp18
 70
     1
102
RTVSPropertyOp19
 70
     1
102
RTVSPropertyOp20
 70
     1
102
RTVSPropertyOp21
 70
     1
102
RTVSPropertyOp22
 70
     1
102
RTVSPropertyOp23
 70
     1
102
RTVSPropertyOp24
 70
     1
102
RTVSPropertyOp25
 70
     1
102
RTVSPropertyOp26
 70
     1
102
RTVSPropertyOp27
 70
     1
102
RTVSPropertyOp28
 70
     1
102
RTVSPropertyOp29
 70
     1
102
RTVSPropertyOp30
 70
     1
102
RTVSPropertyOp31
 70
     1
102
RTVSPropertyOp32
 70
     1
102
RTVSPropertyOp33
 70
     1
102
RTVSPropertyOp34
 70
     1
102
RTVSPropertyOp35
 70
     1
102
RTVSPropertyOp36
 70
     1
102
RTVSPropertyOp37
 70
     1
102
RTVSPropertyOp38
 70
     1
102
RTVSPropertyOp39
 70
     1
102
RTVSPropertyOp40
 70
     1
102
RTVSPropertyOp41
 70
     1
102
RTVSPropertyOp42
 70
     1
102
RTVSPropertyOp43
 70
     1
102
RTVSPropertyOp44
 70
     1
102
RTVSPropertyOp45
 70
     1
102
RTVSPropertyOp46
 70
     1
102
RTVSPropertyOp47
 70
     1
102
RTVSPropertyOp48
 70
     1
102
RTVSPropertyOp49
 70
     1
102
RTVSPropertyOp50
 70
     1
102
RTVSPropertyOp51
 70
     0
102
RTVSPropertyOp52
 70
     0
102
RTVSPropertyOp53
 70
     1
102
RTVSPropertyOp54
 70
     1
102
RTVSPropertyOp55
 70
     1
102
RTVSPropertyOp56
 70
     1
102
RTVSPropertyOp57
 70
     1
102
RTVSPropertyOp58
 70
     1
102
RTVSPropertyOp59
 70
     1
102
RTVSPropertyOp60
 70
     1
102
RTVSPropertyOp61
 70
     1
102
RTVSPropertyOp62
 70
     1
  0
XRECORD
  5
C52A
102
{ACAD_REACTORS
330
C529
102
}
330
C529
100
AcDbXrecord
280
     1
102
RTVSPost2010Prop28
280
     0
102
RTVSPost2010PropOp28
 70
     1
102
RTVSPost2010Prop29
280
     1
102
RTVSPost2010PropOp29
 70
     1
102
RTVSPost2010Prop30
280
     1
102
RTVSPost2010PropOp30
 70
     1
102
RTVSPost2010Prop31
280
     0
102
RTVSPost2010PropOp31
 70
     1
102
RTVSPost2010Prop32
280
     0
102
RTVSPost2010PropOp32
 70
     1
102
RTVSPost2010Prop33
280
     0
102
RTVSPost2010PropOp33
 70
     1
102
RTVSPost2010Prop34
280
     0
102
RTVSPost2010PropOp34
 70
     1
102
RTVSPost2010Prop35
280
     0
102
RTVSPost2010PropOp35
 70
     1
102
RTVSPost2010Prop36
280
     0
102
RTVSPost2010PropOp36
 70
     1
102
RTVSPost2010Prop37
 90
       50
102
RTVSPost2010PropOp37
 70
     1
102
RTVSPost2010Prop38
140
0.0
102
RTVSPost2010PropOp38
 70
     1
102
RTVSPost2010Prop39
140
1.0
102
RTVSPost2010PropOp39
 70
     1
102
RTVSPost2010Prop40
 90
        0
102
RTVSPost2010PropOp40
 70
     1
102
RTVSPost2010Prop41ColorIndex
 90
       18
102
RTVSPost2010Prop41ColorRGB
 90
        0
102
RTVSPost2010PropOp41
 70
     1
102
RTVSPost2010Prop42
 90
       50
102
RTVSPost2010PropOp42
 70
     1
102
RTVSPost2010Prop43
 90
        3
102
RTVSPost2010PropOp43
 70
     1
102
RTVSPost2010Prop44ColorIndex
 90
        5
102
RTVSPost2010Prop44ColorRGB
 90
      255
102
RTVSPost2010PropOp44
 70
     1
102
RTVSPost2010Prop45
280
     0
102
RTVSPost2010PropOp45
 70
     1
102
RTVSPost2010Prop46
 90
       50
102
RTVSPost2010PropOp46
 70
     1
102
RTVSPost2010Prop47
 90
       50
102
RTVSPost2010PropOp47
 70
     1
102
RTVSPost2010Prop48
 90
       50
102
RTVSPost2010PropOp48
 70
     1
102
RTVSPost2010Prop49
280
     0
102
RTVSPost2010PropOp49
 70
     1
102
RTVSPost2010Prop50
 90
       50
102
RTVSPost2010PropOp50
 70
     1
102
RTVSPost2010Prop51ColorIndex
 90
      256
102
RTVSPost2010Prop51ColorRGB
 90
-16777216
102
RTVSPost2010PropOp51
 70
     0
102
RTVSPost2010Prop52
140
1.0
102
RTVSPost2010PropOp52
 70
     0
102
RTVSPost2010Prop53
 90
        2
102
RTVSPost2010PropOp53
 70
     1
102
RTVSPost2010Prop54
  1
strokes_ogs.tif
102
RTVSPost2010PropOp54
 70
     1
102
RTVSPost2010Prop55
280
     0
102
RTVSPost2010PropOp55
 70
     1
102
RTVSPost2010Prop56
140
1.0
102
RTVSPost2010PropOp56
 70
     1
102
RTVSPost2010Prop57
140
1.0
102
RTVSPost2010PropOp57
 70
     1
102
RTVSPropertyOp0
 70
     1
102
RTVSPropertyOp1
 70
     1
102
RTVSPropertyOp2
 70
     1
102
RTVSPropertyOp3
 70
     1
102
RTVSPropertyOp4
 70
     1
102
RTVSPropertyOp5
 70
     1
102
RTVSPropertyOp6
 70
     1
102
RTVSPropertyOp7
 70
     1
102
RTVSPropertyOp8
 70
     1
102
RTVSPropertyOp9
 70
     1
102
RTVSPropertyOp10
 70
     1
102
RTVSPropertyOp11
 70
     1
102
RTVSPropertyOp12
 70
     1
102
RTVSPropertyOp13
 70
     1
102
RTVSPropertyOp14
 70
     1
102
RTVSPropertyOp15
 70
     1
102
RTVSPropertyOp16
 70
     1
102
RTVSPropertyOp17
 70
     1
102
RTVSPropertyOp18
 70
     1
102
RTVSPropertyOp19
 70
     1
102
RTVSPropertyOp20
 70
     1
102
RTVSPropertyOp21
 70
     1
102
RTVSPropertyOp22
 70
     1
102
RTVSPropertyOp23
 70
     1
102
RTVSPropertyOp24
 70
     1
102
RTVSPropertyOp25
 70
     1
102
RTVSPropertyOp26
 70
     1
102
RTVSPropertyOp27
 70
     1
102
RTVSPropertyOp28
 70
     1
102
RTVSPropertyOp29
 70
     1
102
RTVSPropertyOp30
 70
     1
102
RTVSPropertyOp31
 70
     1
102
RTVSPropertyOp32
 70
     1
102
RTVSPropertyOp33
 70
     1
102
RTVSPropertyOp34
 70
     1
102
RTVSPropertyOp35
 70
     1
102
RTVSPropertyOp36
 70
     1
102
RTVSPropertyOp37
 70
     1
102
RTVSPropertyOp38
 70
     1
102
RTVSPropertyOp39
 70
     1
102
RTVSPropertyOp40
 70
     1
102
RTVSPropertyOp41
 70
     1
102
RTVSPropertyOp42
 70
     1
102
RTVSPropertyOp43
 70
     1
102
RTVSPropertyOp44
 70
     1
102
RTVSPropertyOp45
 70
     1
102
RTVSPropertyOp46
 70
     1
102
RTVSPropertyOp47
 70
     1
102
RTVSPropertyOp48
 70
     1
102
RTVSPropertyOp49
 70
     1
102
RTVSPropertyOp50
 70
     1
102
RTVSPropertyOp51
 70
     0
102
RTVSPropertyOp52
 70
     0
102
RTVSPropertyOp53
 70
     1
102
RTVSPropertyOp54
 70
     1
102
RTVSPropertyOp55
 70
     1
102
RTVSPropertyOp56
 70
     1
102
RTVSPropertyOp57
 70
     1
102
RTVSPropertyOp58
 70
     1
102
RTVSPropertyOp59
 70
     1
102
RTVSPropertyOp60
 70
     1
102
RTVSPropertyOp61
 70
     1
102
RTVSPropertyOp62
 70
     1
  0
XRECORD
  5
C51E
102
{ACAD_REACTORS
330
C51D
102
}
330
C51D
100
AcDbXrecord
280
     1
102
RTVSPost2010Prop28
280
     0
102
RTVSPost2010PropOp28
 70
     1
102
RTVSPost2010Prop29
280
     1
102
RTVSPost2010PropOp29
 70
     1
102
RTVSPost2010Prop30
280
     1
102
RTVSPost2010PropOp30
 70
     1
102
RTVSPost2010Prop31
280
     0
102
RTVSPost2010PropOp31
 70
     1
102
RTVSPost2010Prop32
280
     0
102
RTVSPost2010PropOp32
 70
     1
102
RTVSPost2010Prop33
280
     0
102
RTVSPost2010PropOp33
 70
     1
102
RTVSPost2010Prop34
280
     0
102
RTVSPost2010PropOp34
 70
     1
102
RTVSPost2010Prop35
280
     0
102
RTVSPost2010PropOp35
 70
     1
102
RTVSPost2010Prop36
280
     0
102
RTVSPost2010PropOp36
 70
     1
102
RTVSPost2010Prop37
 90
       50
102
RTVSPost2010PropOp37
 70
     1
102
RTVSPost2010Prop38
140
0.0
102
RTVSPost2010PropOp38
 70
     1
102
RTVSPost2010Prop39
140
1.0
102
RTVSPost2010PropOp39
 70
     1
102
RTVSPost2010Prop40
 90
        0
102
RTVSPost2010PropOp40
 70
     1
102
RTVSPost2010Prop41ColorIndex
 90
       18
102
RTVSPost2010Prop41ColorRGB
 90
        0
102
RTVSPost2010PropOp41
 70
     1
102
RTVSPost2010Prop42
 90
       50
102
RTVSPost2010PropOp42
 70
     1
102
RTVSPost2010Prop43
 90
        3
102
RTVSPost2010PropOp43
 70
     1
102
RTVSPost2010Prop44ColorIndex
 90
        5
102
RTVSPost2010Prop44ColorRGB
 90
      255
102
RTVSPost2010PropOp44
 70
     1
102
RTVSPost2010Prop45
280
     0
102
RTVSPost2010PropOp45
 70
     1
102
RTVSPost2010Prop46
 90
       50
102
RTVSPost2010PropOp46
 70
     1
102
RTVSPost2010Prop47
 90
       50
102
RTVSPost2010PropOp47
 70
     1
102
RTVSPost2010Prop48
 90
       50
102
RTVSPost2010PropOp48
 70
     1
102
RTVSPost2010Prop49
280
     0
102
RTVSPost2010PropOp49
 70
     1
102
RTVSPost2010Prop50
 90
       50
102
RTVSPost2010PropOp50
 70
     1
102
RTVSPost2010Prop51ColorIndex
 90
      256
102
RTVSPost2010Prop51ColorRGB
 90
-16777216
102
RTVSPost2010PropOp51
 70
     0
102
RTVSPost2010Prop52
140
1.0
102
RTVSPost2010PropOp52
 70
     0
102
RTVSPost2010Prop53
 90
        2
102
RTVSPost2010PropOp53
 70
     1
102
RTVSPost2010Prop54
  1
strokes_ogs.tif
102
RTVSPost2010PropOp54
 70
     1
102
RTVSPost2010Prop55
280
     0
102
RTVSPost2010PropOp55
 70
     1
102
RTVSPost2010Prop56
140
1.0
102
RTVSPost2010PropOp56
 70
     1
102
RTVSPost2010Prop57
140
1.0
102
RTVSPost2010PropOp57
 70
     1
102
RTVSPropertyOp0
 70
     1
102
RTVSPropertyOp1
 70
     1
102
RTVSPropertyOp2
 70
     1
102
RTVSPropertyOp3
 70
     1
102
RTVSPropertyOp4
 70
     1
102
RTVSPropertyOp5
 70
     1
102
RTVSPropertyOp6
 70
     1
102
RTVSPropertyOp7
 70
     1
102
RTVSPropertyOp8
 70
     1
102
RTVSPropertyOp9
 70
     1
102
RTVSPropertyOp10
 70
     1
102
RTVSPropertyOp11
 70
     1
102
RTVSPropertyOp12
 70
     1
102
RTVSPropertyOp13
 70
     1
102
RTVSPropertyOp14
 70
     1
102
RTVSPropertyOp15
 70
     1
102
RTVSPropertyOp16
 70
     1
102
RTVSPropertyOp17
 70
     1
102
RTVSPropertyOp18
 70
     1
102
RTVSPropertyOp19
 70
     1
102
RTVSPropertyOp20
 70
     1
102
RTVSPropertyOp21
 70
     1
102
RTVSPropertyOp22
 70
     1
102
RTVSPropertyOp23
 70
     1
102
RTVSPropertyOp24
 70
     1
102
RTVSPropertyOp25
 70
     1
102
RTVSPropertyOp26
 70
     1
102
RTVSPropertyOp27
 70
     1
102
RTVSPropertyOp28
 70
     1
102
RTVSPropertyOp29
 70
     1
102
RTVSPropertyOp30
 70
     1
102
RTVSPropertyOp31
 70
     1
102
RTVSPropertyOp32
 70
     1
102
RTVSPropertyOp33
 70
     1
102
RTVSPropertyOp34
 70
     1
102
RTVSPropertyOp35
 70
     1
102
RTVSPropertyOp36
 70
     1
102
RTVSPropertyOp37
 70
     1
102
RTVSPropertyOp38
 70
     1
102
RTVSPropertyOp39
 70
     1
102
RTVSPropertyOp40
 70
     1
102
RTVSPropertyOp41
 70
     1
102
RTVSPropertyOp42
 70
     1
102
RTVSPropertyOp43
 70
     1
102
RTVSPropertyOp44
 70
     1
102
RTVSPropertyOp45
 70
     1
102
RTVSPropertyOp46
 70
     1
102
RTVSPropertyOp47
 70
     1
102
RTVSPropertyOp48
 70
     1
102
RTVSPropertyOp49
 70
     1
102
RTVSPropertyOp50
 70
     1
102
RTVSPropertyOp51
 70
     0
102
RTVSPropertyOp52
 70
     0
102
RTVSPropertyOp53
 70
     1
102
RTVSPropertyOp54
 70
     1
102
RTVSPropertyOp55
 70
     1
102
RTVSPropertyOp56
 70
     1
102
RTVSPropertyOp57
 70
     1
102
RTVSPropertyOp58
 70
     1
102
RTVSPropertyOp59
 70
     1
102
RTVSPropertyOp60
 70
     1
102
RTVSPropertyOp61
 70
     1
102
RTVSPropertyOp62
 70
     1
  0
XRECORD
  5
C536
102
{ACAD_REACTORS
330
C535
102
}
330
C535
100
AcDbXrecord
280
     1
102
RTVSPost2010Prop28
280
     0
102
RTVSPost2010PropOp28
 70
     1
102
RTVSPost2010Prop29
280
     1
102
RTVSPost2010PropOp29
 70
     1
102
RTVSPost2010Prop30
280
     1
102
RTVSPost2010PropOp30
 70
     1
102
RTVSPost2010Prop31
280
     0
102
RTVSPost2010PropOp31
 70
     1
102
RTVSPost2010Prop32
280
     0
102
RTVSPost2010PropOp32
 70
     1
102
RTVSPost2010Prop33
280
     0
102
RTVSPost2010PropOp33
 70
     1
102
RTVSPost2010Prop34
280
     0
102
RTVSPost2010PropOp34
 70
     1
102
RTVSPost2010Prop35
280
     0
102
RTVSPost2010PropOp35
 70
     1
102
RTVSPost2010Prop36
280
     0
102
RTVSPost2010PropOp36
 70
     1
102
RTVSPost2010Prop37
 90
       50
102
RTVSPost2010PropOp37
 70
     1
102
RTVSPost2010Prop38
140
0.0
102
RTVSPost2010PropOp38
 70
     1
102
RTVSPost2010Prop39
140
1.0
102
RTVSPost2010PropOp39
 70
     1
102
RTVSPost2010Prop40
 90
        0
102
RTVSPost2010PropOp40
 70
     1
102
RTVSPost2010Prop41ColorIndex
 90
       18
102
RTVSPost2010Prop41ColorRGB
 90
        0
102
RTVSPost2010PropOp41
 70
     1
102
RTVSPost2010Prop42
 90
       50
102
RTVSPost2010PropOp42
 70
     1
102
RTVSPost2010Prop43
 90
        3
102
RTVSPost2010PropOp43
 70
     1
102
RTVSPost2010Prop44ColorIndex
 90
        5
102
RTVSPost2010Prop44ColorRGB
 90
      255
102
RTVSPost2010PropOp44
 70
     1
102
RTVSPost2010Prop45
280
     0
102
RTVSPost2010PropOp45
 70
     1
102
RTVSPost2010Prop46
 90
       50
102
RTVSPost2010PropOp46
 70
     1
102
RTVSPost2010Prop47
 90
       50
102
RTVSPost2010PropOp47
 70
     1
102
RTVSPost2010Prop48
 90
       50
102
RTVSPost2010PropOp48
 70
     1
102
RTVSPost2010Prop49
280
     0
102
RTVSPost2010PropOp49
 70
     1
102
RTVSPost2010Prop50
 90
       50
102
RTVSPost2010PropOp50
 70
     1
102
RTVSPost2010Prop51ColorIndex
 90
      256
102
RTVSPost2010Prop51ColorRGB
 90
-16777216
102
RTVSPost2010PropOp51
 70
     0
102
RTVSPost2010Prop52
140
1.0
102
RTVSPost2010PropOp52
 70
     0
102
RTVSPost2010Prop53
 90
        2
102
RTVSPost2010PropOp53
 70
     1
102
RTVSPost2010Prop54
  1
strokes_ogs.tif
102
RTVSPost2010PropOp54
 70
     1
102
RTVSPost2010Prop55
280
     0
102
RTVSPost2010PropOp55
 70
     1
102
RTVSPost2010Prop56
140
1.0
102
RTVSPost2010PropOp56
 70
     1
102
RTVSPost2010Prop57
140
1.0
102
RTVSPost2010PropOp57
 70
     1
102
RTVSPropertyOp0
 70
     1
102
RTVSPropertyOp1
 70
     1
102
RTVSPropertyOp2
 70
     1
102
RTVSPropertyOp3
 70
     1
102
RTVSPropertyOp4
 70
     1
102
RTVSPropertyOp5
 70
     1
102
RTVSPropertyOp6
 70
     1
102
RTVSPropertyOp7
 70
     1
102
RTVSPropertyOp8
 70
     1
102
RTVSPropertyOp9
 70
     1
102
RTVSPropertyOp10
 70
     1
102
RTVSPropertyOp11
 70
     1
102
RTVSPropertyOp12
 70
     1
102
RTVSPropertyOp13
 70
     1
102
RTVSPropertyOp14
 70
     1
102
RTVSPropertyOp15
 70
     1
102
RTVSPropertyOp16
 70
     1
102
RTVSPropertyOp17
 70
     1
102
RTVSPropertyOp18
 70
     1
102
RTVSPropertyOp19
 70
     1
102
RTVSPropertyOp20
 70
     1
102
RTVSPropertyOp21
 70
     1
102
RTVSPropertyOp22
 70
     1
102
RTVSPropertyOp23
 70
     1
102
RTVSPropertyOp24
 70
     1
102
RTVSPropertyOp25
 70
     1
102
RTVSPropertyOp26
 70
     1
102
RTVSPropertyOp27
 70
     1
102
RTVSPropertyOp28
 70
     1
102
RTVSPropertyOp29
 70
     1
102
RTVSPropertyOp30
 70
     1
102
RTVSPropertyOp31
 70
     1
102
RTVSPropertyOp32
 70
     1
102
RTVSPropertyOp33
 70
     1
102
RTVSPropertyOp34
 70
     1
102
RTVSPropertyOp35
 70
     1
102
RTVSPropertyOp36
 70
     1
102
RTVSPropertyOp37
 70
     1
102
RTVSPropertyOp38
 70
     1
102
RTVSPropertyOp39
 70
     1
102
RTVSPropertyOp40
 70
     1
102
RTVSPropertyOp41
 70
     1
102
RTVSPropertyOp42
 70
     1
102
RTVSPropertyOp43
 70
     1
102
RTVSPropertyOp44
 70
     1
102
RTVSPropertyOp45
 70
     1
102
RTVSPropertyOp46
 70
     1
102
RTVSPropertyOp47
 70
     1
102
RTVSPropertyOp48
 70
     1
102
RTVSPropertyOp49
 70
     1
102
RTVSPropertyOp50
 70
     1
102
RTVSPropertyOp51
 70
     0
102
RTVSPropertyOp52
 70
     0
102
RTVSPropertyOp53
 70
     1
102
RTVSPropertyOp54
 70
     1
102
RTVSPropertyOp55
 70
     1
102
RTVSPropertyOp56
 70
     1
102
RTVSPropertyOp57
 70
     1
102
RTVSPropertyOp58
 70
     1
102
RTVSPropertyOp59
 70
     1
102
RTVSPropertyOp60
 70
     1
102
RTVSPropertyOp61
 70
     1
102
RTVSPropertyOp62
 70
     1
  0
ENDSEC
  0
EOF
