  0
SECTION
  2
HEADER
  9
$ACADVER
  1
AC1015
  9
$ACADMAINTVER
 70
    20
  9
$DWGCODEPAGE
  3
ANSI_932
  9
$INSBASE
 10
0.0
 20
0.0
 30
0.0
  9
$EXTMIN
 10
10.0
 20
9.999999999999998
 30
0.0
  9
$EXTMAX
 10
218.945952
 20
203.6011
 30
0.0
  9
$LIMMIN
 10
0.0
 20
0.0
  9
$LIMMAX
 10
396.0
 20
273.0
  9
$ORTHOMODE
 70
     1
  9
$REGENMODE
 70
     1
  9
$FILLMODE
 70
     1
  9
$QTEXTMODE
 70
     0
  9
$MIRRTEXT
 70
     1
  9
$LTSCALE
 40
20.0
  9
$ATTMODE
 70
     1
  9
$TEXTSIZE
 40
5.0
  9
$TRACEWID
 40
1.0
  9
$TEXTSTYLE
  7
STANDARD
  9
$CLAYER
  8
0
  9
$CELTYPE
  6
BYLAYER
  9
$CECOLOR
 62
   256
  9
$CELTSCALE
 40
1.0
  9
$DISPSILH
 70
     0
  9
$DIMSCALE
 40
1.0
  9
$DIMASZ
 40
2.5
  9
$DIMEXO
 40
1.0
  9
$DIMDLI
 40
10.0
  9
$DIMRND
 40
0.0
  9
$DIMDLE
 40
0.0
  9
$DIMEXE
 40
1.0
  9
$DIMTP
 40
0.0
  9
$DIMTM
 40
0.0
  9
$DIMTXT
 40
3.2
  9
$DIMCEN
 40
0.0
  9
$DIMTSZ
 40
0.0
  9
$DIMTOL
 70
     0
  9
$DIMLIM
 70
     0
  9
$DIMTIH
 70
     0
  9
$DIMTOH
 70
     0
  9
$DIMSE1
 70
     0
  9
$DIMSE2
 70
     0
  9
$DIMTAD
 70
     3
  9
$DIMZIN
 70
     8
  9
$DIMBLK
  1

  9
$DIMASO
 70
     1
  9
$DIMSHO
 70
     1
  9
$DIMPOST
  1

  9
$DIMAPOST
  1

  9
$DIMALT
 70
     0
  9
$DIMALTD
 70
     2
  9
$DIMALTF
 40
25.4
  9
$DIMLFAC
 40
1.0
  9
$DIMTOFL
 70
     1
  9
$DIMTVP
 40
0.0
  9
$DIMTIX
 70
     0
  9
$DIMSOXD
 70
     0
  9
$DIMSAH
 70
     1
  9
$DIMBLK1
  1

  9
$DIMBLK2
  1

  9
$DIMSTYLE
  2
STANDARD
  9
$DIMCLRD
 70
     0
  9
$DIMCLRE
 70
     0
  9
$DIMCLRT
 70
     0
  9
$DIMTFAC
 40
1.0
  9
$DIMGAP
 40
1.0
  9
$DIMJUST
 70
     0
  9
$DIMSD1
 70
     0
  9
$DIMSD2
 70
     0
  9
$DIMTOLJ
 70
     1
  9
$DIMTZIN
 70
     0
  9
$DIMALTZ
 70
     0
  9
$DIMALTTZ
 70
     0
  9
$DIMUPT
 70
     0
  9
$DIMDEC
 70
     4
  9
$DIMTDEC
 70
     4
  9
$DIMALTU
 70
     2
  9
$DIMALTTD
 70
     2
  9
$DIMTXSTY
  7
STANDARD
  9
$DIMAUNIT
 70
     0
  9
$DIMADEC
 70
     0
  9
$DIMALTRND
 40
0.0
  9
$DIMAZIN
 70
     0
  9
$DIMDSEP
 70
    46
  9
$DIMATFIT
 70
     3
  9
$DIMFRAC
 70
     0
  9
$DIMLDRBLK
  1

  9
$DIMLUNIT
 70
     2
  9
$DIMLWD
 70
    -2
  9
$DIMLWE
 70
    -2
  9
$DIMTMOVE
 70
     0
  9
$LUNITS
 70
     2
  9
$LUPREC
 70
     4
  9
$SKETCHINC
 40
1.0
  9
$FILLETRAD
 40
1.0
  9
$AUNITS
 70
     0
  9
$AUPREC
 70
     2
  9
$MENU
  1
.
  9
$ELEVATION
 40
0.0
  9
$PELEVATION
 40
0.0
  9
$THICKNESS
 40
0.0
  9
$LIMCHECK
 70
     0
  9
$CHAMFERA
 40
10.0
  9
$CHAMFERB
 40
10.0
  9
$CHAMFERC
 40
0.0
  9
$CHAMFERD
 40
0.0
  9
$SKPOLY
 70
     0
  9
$TDCREATE
 40
2451296.794391088
  9
$TDUCREATE
 40
2451296.419391088
  9
$TDUPDATE
 40
2457192.658261459
  9
$TDUUPDATE
 40
2457192.283261458
  9
$TDINDWG
 40
0.0000111921
  9
$TDUSRTIMER
 40
0.0000106944
  9
$USRTIMER
 70
     1
  9
$ANGBASE
 50
0.0
  9
$ANGDIR
 70
     0
  9
$PDMODE
 70
     0
  9
$PDSIZE
 40
0.0
  9
$PLINEWID
 40
0.0
  9
$SPLFRAME
 70
     0
  9
$SPLINETYPE
 70
     6
  9
$SPLINESEGS
 70
     8
  9
$HANDSEED
  5
B69C
  9
$SURFTAB1
 70
     6
  9
$SURFTAB2
 70
     6
  9
$SURFTYPE
 70
     6
  9
$SURFU
 70
     6
  9
$SURFV
 70
     6
  9
$UCSBASE
  2

  9
$UCSNAME
  2

  9
$UCSORG
 10
0.0
 20
0.0
 30
0.0
  9
$UCSXDIR
 10
1.0
 20
0.0
 30
0.0
  9
$UCSYDIR
 10
0.0
 20
1.0
 30
0.0
  9
$UCSORTHOREF
  2

  9
$UCSORTHOVIEW
 70
     0
  9
$UCSORGTOP
 10
0.0
 20
0.0
 30
0.0
  9
$UCSORGBOTTOM
 10
0.0
 20
0.0
 30
0.0
  9
$UCSORGLEFT
 10
0.0
 20
0.0
 30
0.0
  9
$UCSORGRIGHT
 10
0.0
 20
0.0
 30
0.0
  9
$UCSORGFRONT
 10
0.0
 20
0.0
 30
0.0
  9
$UCSORGBACK
 10
0.0
 20
0.0
 30
0.0
  9
$PUCSBASE
  2

  9
$PUCSNAME
  2

  9
$PUCSORG
 10
0.0
 20
0.0
 30
0.0
  9
$PUCSXDIR
 10
1.0
 20
0.0
 30
0.0
  9
$PUCSYDIR
 10
0.0
 20
1.0
 30
0.0
  9
$PUCSORTHOREF
  2

  9
$PUCSORTHOVIEW
 70
     0
  9
$PUCSORGTOP
 10
0.0
 20
0.0
 30
0.0
  9
$PUCSORGBOTTOM
 10
0.0
 20
0.0
 30
0.0
  9
$PUCSORGLEFT
 10
0.0
 20
0.0
 30
0.0
  9
$PUCSORGRIGHT
 10
0.0
 20
0.0
 30
0.0
  9
$PUCSORGFRONT
 10
0.0
 20
0.0
 30
0.0
  9
$PUCSORGBACK
 10
0.0
 20
0.0
 30
0.0
  9
$USERI1
 70
     0
  9
$USERI2
 70
     0
  9
$USERI3
 70
     0
  9
$USERI4
 70
     0
  9
$USERI5
 70
     0
  9
$USERR1
 40
0.0
  9
$USERR2
 40
0.0
  9
$USERR3
 40
0.0
  9
$USERR4
 40
0.0
  9
$USERR5
 40
0.0
  9
$WORLDVIEW
 70
     1
  9
$SHADEDGE
 70
     3
  9
$SHADEDIF
 70
    70
  9
$TILEMODE
 70
     1
  9
$MAXACTVP
 70
    16
  9
$PINSBASE
 10
0.0
 20
0.0
 30
0.0
  9
$PLIMCHECK
 70
     0
  9
$PEXTMIN
 10
1.000000000000000E+20
 20
1.000000000000000E+20
 30
1.000000000000000E+20
  9
$PEXTMAX
 10
-1.000000000000000E+20
 20
-1.000000000000000E+20
 30
-1.000000000000000E+20
  9
$PLIMMIN
 10
0.0
 20
0.0
  9
$PLIMMAX
 10
420.0
 20
297.0
  9
$UNITMODE
 70
     0
  9
$VISRETAIN
 70
     0
  9
$PLINEGEN
 70
     0
  9
$PSLTSCALE
 70
     0
  9
$TREEDEPTH
 70
  3020
  9
$CMLSTYLE
  2
STANDARD
  9
$CMLJUST
 70
     0
  9
$CMLSCALE
 40
1.0
  9
$PROXYGRAPHICS
 70
     1
  9
$MEASUREMENT
 70
     0
  9
$CELWEIGHT
370
    -1
  9
$ENDCAPS
280
     0
  9
$JOINSTYLE
280
     0
  9
$LWDISPLAY
290
     0
  9
$INSUNITS
 70
     0
  9
$HYPERLINKBASE
  1

  9
$STYLESHEET
  1

  9
$XEDIT
290
     1
  9
$CEPSNTYPE
380
     0
  9
$PSTYLEMODE
290
     1
  9
$FINGERPRINTGUID
  2
{3D955D59-21E9-42AE-AD4F-8703B064FEB4}
  9
$VERSIONGUID
  2
{837130AB-E977-4319-97E5-511974ECB526}
  9
$EXTNAMES
290
     1
  9
$PSVPSCALE
 40
0.0
  9
$OLESTARTUP
290
     0
  0
ENDSEC
  0
SECTION
  2
CLASSES
  0
CLASS
  1
ACDBDICTIONARYWDFLT
  2
AcDbDictionaryWithDefault
  3
ObjectDBX Classes
 90
        0
280
     0
281
     0
  0
CLASS
  1
ACDBPLACEHOLDER
  2
AcDbPlaceHolder
  3
ObjectDBX Classes
 90
        0
280
     0
281
     0
  0
CLASS
  1
LAYOUT
  2
AcDbLayout
  3
ObjectDBX Classes
 90
        0
280
     0
281
     0
  0
CLASS
  1
DICTIONARYVAR
  2
AcDbDictionaryVar
  3
ObjectDBX Classes
 90
        0
280
     0
281
     0
  0
CLASS
  1
MATERIAL
  2
AcDbMaterial
  3
ObjectDBX Classes
 90
     1153
280
     0
281
     0
  0
CLASS
  1
VISUALSTYLE
  2
AcDbVisualStyle
  3
ObjectDBX Classes
 90
     4095
280
     0
281
     0
  0
CLASS
  1
TABLESTYLE
  2
AcDbTableStyle
  3
ObjectDBX Classes
 90
     4095
280
     0
281
     0
  0
CLASS
  1
SCALE
  2
AcDbScale
  3
ObjectDBX Classes
 90
     1153
280
     0
281
     0
  0
CLASS
  1
MLEADERSTYLE
  2
AcDbMLeaderStyle
  3
ACDB_MLEADERSTYLE_CLASS
 90
     4095
280
     0
281
     0
  0
CLASS
  1
ACDBSECTIONVIEWSTYLE
  2
AcDbSectionViewStyle
  3
ObjectDBX Classes
 90
     1025
280
     0
281
     0
  0
CLASS
  1
ACDBDETAILVIEWSTYLE
  2
AcDbDetailViewStyle
  3
ObjectDBX Classes
 90
     1025
280
     0
281
     0
  0
CLASS
  1
CELLSTYLEMAP
  2
AcDbCellStyleMap
  3
ObjectDBX Classes
 90
     1152
280
     0
281
     0
  0
ENDSEC
  0
SECTION
  2
TABLES
  0
TABLE
  2
VPORT
  5
B3E2
330
0
100
AcDbSymbolTable
 70
     1
  0
VPORT
  5
B5E5
330
B3E2
100
AcDbSymbolTableRecord
100
AcDbViewportTableRecord
  2
*ACTIVE
 70
     0
 10
0.0
 20
0.0
 11
1.0
 21
1.0
 12
173.1216324552769
 22
106.7989202787853
 13
0.0
 23
0.0
 14
10.0
 24
10.0
 15
10.0
 25
10.0
 16
0.0
 26
0.0
 36
1.0
 17
0.0
 27
0.0
 37
0.0
 40
195.7849047425322
 41
1.899603698811096
 42
50.0
 43
0.0
 44
0.0
 50
0.0
 51
0.0
 71
     0
 72
   100
 73
     1
 74
     0
 75
     0
 76
     0
 77
     0
 78
     0
281
     0
 65
     1
110
0.0
120
0.0
130
0.0
111
1.0
121
0.0
131
0.0
112
0.0
122
1.0
132
0.0
 79
     0
146
0.0
1001
ACAD_NAV_VCDISPLAY
1070
     3
  0
ENDTAB
  0
TABLE
  2
LTYPE
  5
B3DF
330
0
100
AcDbSymbolTable
 70
     4
  0
LTYPE
  5
B3ED
330
B3DF
100
AcDbSymbolTableRecord
100
AcDbLinetypeTableRecord
  2
BYBLOCK
 70
     0
  3

 72
    65
 73
     0
 40
0.0
  0
LTYPE
  5
B3EE
330
B3DF
100
AcDbSymbolTableRecord
100
AcDbLinetypeTableRecord
  2
BYLAYER
 70
     0
  3

 72
    65
 73
     0
 40
0.0
  0
LTYPE
  5
B3EF
330
B3DF
100
AcDbSymbolTableRecord
100
AcDbLinetypeTableRecord
  2
CONTINUOUS
 70
     0
  3
Solid line
 72
    65
 73
     0
 40
0.0
  0
LTYPE
  5
B3FD
330
B3DF
100
AcDbSymbolTableRecord
100
AcDbLinetypeTableRecord
  2
DASHED
 70
     0
  3
__ __ __ __ __ __ __ __ __ __ __ __ __ __ __ __
 72
    65
 73
     2
 40
0.75
 49
0.5
 74
     0
 49
-0.25
 74
     0
  0
LTYPE
  5
B3FE
330
B3DF
100
AcDbSymbolTableRecord
100
AcDbLinetypeTableRecord
  2
CENTER
 70
     0
  3
____ _ ____ _ ____ _ ____ _ ____ _ ____ _ ____ 
 72
    65
 73
     4
 40
2.0
 49
1.25
 74
     0
 49
-0.25
 74
     0
 49
0.25
 74
     0
 49
-0.25
 74
     0
  0
LTYPE
  5
B3FF
330
B3DF
100
AcDbSymbolTableRecord
100
AcDbLinetypeTableRecord
  2
PHANTOM
 70
     0
  3
______  __  __  ______  __  __  ______  __  __ 
 72
    65
 73
     6
 40
2.5
 49
1.25
 74
     0
 49
-0.25
 74
     0
 49
0.25
 74
     0
 49
-0.25
 74
     0
 49
0.25
 74
     0
 49
-0.25
 74
     0
  0
ENDTAB
  0
TABLE
  2
LAYER
  5
B3DC
330
0
100
AcDbSymbolTable
 70
     8
  0
LAYER
  5
B3EA
102
{ACAD_XDICTIONARY
360
B640
102
}
330
B3DC
100
AcDbSymbolTableRecord
100
AcDbLayerTableRecord
  2
0
 70
     0
 62
     7
  6
CONTINUOUS
370
    -3
390
B5EE
  0
LAYER
  5
B400
102
{ACAD_XDICTIONARY
360
B642
102
}
330
B3DC
100
AcDbSymbolTableRecord
100
AcDbLayerTableRecord
  2
4
 70
     0
 62
     1
  6
CENTER
370
    -3
390
B5EE
  0
LAYER
  5
B401
102
{ACAD_XDICTIONARY
360
B644
102
}
330
B3DC
100
AcDbSymbolTableRecord
100
AcDbLayerTableRecord
  2
5
 70
     0
 62
     6
  6
PHANTOM
370
    -3
390
B5EE
  0
LAYER
  5
B402
102
{ACAD_XDICTIONARY
360
B646
102
}
330
B3DC
100
AcDbSymbolTableRecord
100
AcDbLayerTableRecord
  2
1
 70
     0
 62
     7
  6
CONTINUOUS
370
    -3
390
B5EE
  0
LAYER
  5
B403
102
{ACAD_XDICTIONARY
360
B648
102
}
330
B3DC
100
AcDbSymbolTableRecord
100
AcDbLayerTableRecord
  2
2
 70
     0
 62
     4
  6
CONTINUOUS
370
    -3
390
B5EE
  0
LAYER
  5
B404
102
{ACAD_XDICTIONARY
360
B64A
102
}
330
B3DC
100
AcDbSymbolTableRecord
100
AcDbLayerTableRecord
  2
3
 70
     0
 62
     2
  6
DASHED
370
    -3
390
B5EE
  0
LAYER
  5
B405
102
{ACAD_XDICTIONARY
360
B64C
102
}
330
B3DC
100
AcDbSymbolTableRecord
100
AcDbLayerTableRecord
  2
6
 70
     0
 62
     5
  6
CONTINUOUS
370
    -3
390
B5EE
  0
LAYER
  5
B406
102
{ACAD_XDICTIONARY
360
B64E
102
}
330
B3DC
100
AcDbSymbolTableRecord
100
AcDbLayerTableRecord
  2
7
 70
     0
 62
     3
  6
CONTINUOUS
370
    -3
390
B5EE
  0
ENDTAB
  0
TABLE
  2
STYLE
  5
B3DD
330
0
100
AcDbSymbolTable
 70
     1
  0
STYLE
  5
B3EB
330
B3DD
100
AcDbSymbolTableRecord
100
AcDbTextStyleTableRecord
  2
STANDARD
 70
     0
 40
0.0
 41
1.0
 50
0.0
 71
     0
 42
5.0
  3
txt
  4

  0
ENDTAB
  0
TABLE
  2
VIEW
  5
B3E0
330
0
100
AcDbSymbolTable
 70
     1
  0
VIEW
  5
B407
330
B3E0
100
AcDbSymbolTableRecord
100
AcDbViewTableRecord
  2
7
 70
     0
 40
233.5511529999999
 10
224.974416
 20
116.775576
 41
449.948831
 11
0.0
 21
0.0
 31
1.0
 12
0.0
 22
0.0
 32
0.0
 42
50.0
 43
0.0
 44
0.0
 50
0.0
 71
     0
281
     0
 72
     0
  0
ENDTAB
  0
TABLE
  2
UCS
  5
B3E1
330
0
100
AcDbSymbolTable
 70
     0
  0
ENDTAB
  0
TABLE
  2
APPID
  5
B3E3
330
0
100
AcDbSymbolTable
 70
     3
  0
APPID
  5
B3EC
330
B3E3
100
AcDbSymbolTableRecord
100
AcDbRegAppTableRecord
  2
ACAD
 70
     0
  0
APPID
  5
B65A
330
B3E3
100
AcDbSymbolTableRecord
100
AcDbRegAppTableRecord
  2
ACAD_NAV_VCDISPLAY
 70
     0
  0
APPID
  5
B693
330
B3E3
100
AcDbSymbolTableRecord
100
AcDbRegAppTableRecord
  2
ACAD_MLEADERVER
 70
     0
  0
ENDTAB
  0
TABLE
  2
DIMSTYLE
  5
B3E4
330
0
100
AcDbSymbolTable
 70
     1
100
AcDbDimStyleTable
 71
     0
  0
DIMSTYLE
105
B409
330
B3E4
100
AcDbSymbolTableRecord
100
AcDbDimStyleTableRecord
  2
STANDARD
 70
     0
 41
2.5
 42
1.0
 43
10.0
 44
1.0
 73
     0
 74
     0
 77
     3
 78
     8
140
3.2
141
0.0
147
1.0
172
     1
173
     1
284
     8
285
     8
286
     8
340
B3EB
  0
ENDTAB
  0
TABLE
  2
BLOCK_RECORD
  5
B3DB
330
0
100
AcDbSymbolTable
 70
     0
  0
BLOCK_RECORD
  5
B3F8
102
{ACAD_XDICTIONARY
360
B5E8
102
}
330
B3DB
100
AcDbSymbolTableRecord
100
AcDbBlockTableRecord
  2
*MODEL_SPACE
340
B63C
  0
BLOCK_RECORD
  5
B3F4
102
{ACAD_XDICTIONARY
360
B5E6
102
}
330
B3DB
100
AcDbSymbolTableRecord
100
AcDbBlockTableRecord
  2
*PAPER_SPACE
340
B63D
  0
ENDTAB
  0
ENDSEC
  0
SECTION
  2
BLOCKS
  0
BLOCK
  5
B3F9
330
B3F8
100
AcDbEntity
  8
0
100
AcDbBlockBegin
  2
*MODEL_SPACE
 70
     0
 10
0.0
 20
0.0
 30
0.0
  3
*MODEL_SPACE
  1

  0
ENDBLK
  5
B3FA
330
B3F8
100
AcDbEntity
  8
0
100
AcDbBlockEnd
  0
BLOCK
  5
B3F5
330
B3F4
100
AcDbEntity
 67
     1
  8
0
100
AcDbBlockBegin
  2
*PAPER_SPACE
 70
     0
 10
0.0
 20
0.0
 30
0.0
  3
*PAPER_SPACE
  1

  0
ENDBLK
  5
B3F6
330
B3F4
100
AcDbEntity
 67
     1
  8
0
100
AcDbBlockEnd
  0
ENDSEC
  0
SECTION
  2
ENTITIES
  0
TEXT
  5
B411
330
B3F8
100
AcDbEntity
  8
7
  6
Continuous
100
AcDbText
 10
10.0
 20
18.0
 30
0.0
 40
3.0
  1
TYPE No.TM-144SS-38
100
AcDbText
  0
TEXT
  5
B412
330
B3F8
100
AcDbEntity
  8
7
  6
Continuous
100
AcDbText
 10
10.0
 20
26.0
 30
0.0
 40
3.0
  1
CODE No.5734
100
AcDbText
  0
TEXT
  5
B413
330
B3F8
100
AcDbEntity
  8
1
  6
Continuous
100
AcDbText
 10
10.0
 20
10.0
 30
0.0
 40
1.399999999999999
  1
LAYER
100
AcDbText
  0
TEXT
  5
B414
330
B3F8
100
AcDbEntity
  8
1
  6
Continuous
100
AcDbText
 10
17.97951099999998
 20
10.04873699999998
 30
0.0
 40
1.399999999999999
  1
1
100
AcDbText
  0
TEXT
  5
B415
330
B3F8
100
AcDbEntity
  8
7
  6
Continuous
100
AcDbText
 10
29.97951099999999
 20
10.04873699999998
 30
0.0
 40
1.399999999999999
  1
7
100
AcDbText
  0
TEXT
  5
B416
330
B3F8
100
AcDbEntity
  8
4
  6
CENTER
100
AcDbText
 10
23.97951099999999
 20
10.04873699999998
 30
0.0
 40
1.399999999999999
  1
4
100
AcDbText
  0
TEXT
  5
B417
330
B3F8
100
AcDbEntity
  8
3
  6
DASHED
100
AcDbText
 10
21.979511
 20
10.04873699999998
 30
0.0
 40
1.399999999999999
  1
3
100
AcDbText
  0
TEXT
  5
B418
330
B3F8
100
AcDbEntity
  8
2
  6
Continuous
100
AcDbText
 10
19.97951099999999
 20
10.04873699999998
 30
0.0
 40
1.399999999999999
  1
2
100
AcDbText
  0
TEXT
  5
B419
330
B3F8
100
AcDbEntity
  8
6
  6
Continuous
100
AcDbText
 10
27.979511
 20
10.04873699999998
 30
0.0
 40
1.399999999999999
  1
6
100
AcDbText
  0
TEXT
  5
B41A
330
B3F8
100
AcDbEntity
  8
5
  6
PHANTOM
100
AcDbText
 10
25.97951099999999
 20
10.04873699999998
 30
0.0
 40
1.399999999999999
  1
5
100
AcDbText
  0
LINE
  5
B41B
330
B3F8
100
AcDbEntity
  8
1
  6
Continuous
100
AcDbLine
 10
114.845952
 20
133.1010999999998
 30
0.0
 11
125.345952
 21
133.1010999999998
 31
0.0
  0
LINE
  5
B41C
330
B3F8
100
AcDbEntity
  8
1
  6
Continuous
100
AcDbLine
 10
137.345952
 20
134.2321
 30
0.0
 11
137.345952
 21
138.0511
 31
0.0
  0
LINE
  5
B41D
330
B3F8
100
AcDbEntity
  8
1
  6
Continuous
100
AcDbLine
 10
133.345952
 20
133.6011
 30
0.0
 11
133.345952
 21
144.1011
 31
0.0
  0
LINE
  5
B41E
330
B3F8
100
AcDbEntity
  8
1
  6
Continuous
100
AcDbLine
 10
129.345952
 20
134.1010999999998
 30
0.0
 11
129.345952
 21
143.6011
 31
0.0
  0
LINE
  5
B41F
330
B3F8
100
AcDbEntity
  8
1
  6
Continuous
100
AcDbLine
 10
110.845952
 20
136.1010999999998
 30
0.0
 11
110.845952
 21
143.6011
 31
0.0
  0
LINE
  5
B420
330
B3F8
100
AcDbEntity
  8
1
  6
Continuous
100
AcDbLine
 10
108.845952
 20
136.0991
 30
0.0
 11
108.845952
 21
142.0990999999999
 31
0.0
  0
LINE
  5
B421
330
B3F8
100
AcDbEntity
  8
4
  6
CENTER
100
AcDbLine
 10
120.095952
 20
91.500017
 30
0.0
 11
120.095952
 21
148.1011
 31
0.0
  0
LINE
  5
B422
330
B3F8
100
AcDbEntity
  8
1
  6
Continuous
100
AcDbLine
 10
112.3459519999999
 20
145.1011
 30
0.0
 11
127.8459519999999
 21
145.1011
 31
0.0
  0
LINE
  5
B423
330
B3F8
100
AcDbEntity
  8
1
  6
Continuous
100
AcDbLine
 10
114.5959519999999
 20
185.1010999999998
 30
0.0
 11
125.5959519999999
 21
185.1010999999998
 31
0.0
  0
LINE
  5
B424
330
B3F8
100
AcDbEntity
  8
1
  6
Continuous
100
AcDbLine
 10
114.5959519999999
 20
200.6010999999999
 30
0.0
 11
125.5959519999999
 21
200.6010999999999
 31
0.0
  0
LINE
  5
B425
330
B3F8
100
AcDbEntity
  8
4
  6
CENTER
100
AcDbLine
 10
95.495952
 20
192.8511
 30
0.0
 11
144.695952
 21
192.8511
 31
0.0
  0
LINE
  5
B426
330
B3F8
100
AcDbEntity
  8
4
  6
CENTER
100
AcDbLine
 10
207.445952
 20
91.500017
 30
0.0
 11
207.445952
 21
148.1011379999999
 31
0.0
  0
LINE
  5
B427
330
B3F8
100
AcDbEntity
  8
1
  6
Continuous
100
AcDbLine
 10
137.345952
 20
188.8511
 30
0.0
 11
137.345952
 21
196.8511
 31
0.0
  0
LINE
  5
B428
330
B3F8
100
AcDbEntity
  8
1
  6
Continuous
100
AcDbLine
 10
133.345952
 20
187.6011
 30
0.0
 11
133.345952
 21
198.1011
 31
0.0
  0
LINE
  5
B429
330
B3F8
100
AcDbEntity
  8
1
  6
Continuous
100
AcDbLine
 10
129.345952
 20
187.6011
 30
0.0
 11
129.345952
 21
198.1011
 31
0.0
  0
LINE
  5
B42A
330
B3F8
100
AcDbEntity
  8
4
  6
CENTER
100
AcDbLine
 10
120.095952
 20
182.1011
 30
0.0
 11
120.095952
 21
203.6011
 31
0.0
  0
LINE
  5
B42B
330
B3F8
100
AcDbEntity
  8
1
  6
Continuous
100
AcDbLine
 10
110.845952
 20
187.6011
 30
0.0
 11
110.845952
 21
198.1011
 31
0.0
  0
LINE
  5
B42C
330
B3F8
100
AcDbEntity
  8
1
  6
Continuous
100
AcDbLine
 10
108.845952
 20
189.8511
 30
0.0
 11
108.845952
 21
195.8511
 31
0.0
  0
LINE
  5
B42D
330
B3F8
100
AcDbEntity
  8
1
  6
Continuous
100
AcDbLine
 10
108.845952
 20
136.1010999999998
 30
0.0
 11
114.5959519999999
 21
136.1010999999998
 31
0.0
  0
LINE
  5
B42E
330
B3F8
100
AcDbEntity
  8
1
  6
Continuous
100
AcDbLine
 10
108.845952
 20
142.1011
 30
0.0
 11
110.845952
 21
142.1011
 31
0.0
  0
ARC
  5
B42F
330
B3F8
100
AcDbEntity
  8
1
  6
Continuous
100
AcDbCircle
 10
112.3459519999999
 20
143.6011
 30
0.0
 40
1.5
100
AcDbArc
 50
90.0
 51
180.0
  0
ARC
  5
B430
330
B3F8
100
AcDbEntity
  8
1
  6
Continuous
100
AcDbCircle
 10
127.8459519999999
 20
143.6011
 30
0.0
 40
1.5
100
AcDbArc
 50
0.0
 51
90.0
  0
ARC
  5
B431
330
B3F8
100
AcDbEntity
  8
1
  6
Continuous
100
AcDbCircle
 10
120.095952
 20
132.906656
 30
0.0
 40
7.694443999999997
100
AcDbArc
 50
24.52954699999999
 51
155.4704529999999
  0
LINE
  5
B432
330
B3F8
100
AcDbEntity
  8
1
  6
Continuous
100
AcDbLine
 10
125.5959519999999
 20
136.1010999999998
 30
0.0
 11
125.345952
 21
133.1010999999998
 31
0.0
  0
LINE
  5
B433
330
B3F8
100
AcDbEntity
  8
1
  6
Continuous
100
AcDbLine
 10
114.5959519999999
 20
136.1010999999998
 30
0.0
 11
114.845952
 21
133.1010999999998
 31
0.0
  0
ARC
  5
B434
330
B3F8
100
AcDbEntity
  8
1
  6
Continuous
100
AcDbCircle
 10
120.095952
 20
132.0993139999999
 30
0.0
 40
6.801785999999997
100
AcDbArc
 50
36.039539
 51
143.960461
  0
LINE
  5
B435
330
B3F8
100
AcDbEntity
  8
1
  6
Continuous
100
AcDbLine
 10
125.5959519999999
 20
136.1010999999998
 30
0.0
 11
129.345952
 21
136.1010999999998
 31
0.0
  0
LINE
  5
B436
330
B3F8
100
AcDbEntity
  8
1
  6
Continuous
100
AcDbLine
 10
129.345952
 20
143.6011
 30
0.0
 11
133.345952
 21
144.1011
 31
0.0
  0
LINE
  5
B437
330
B3F8
100
AcDbEntity
  8
1
  6
Continuous
100
AcDbLine
 10
129.345952
 20
134.1010999999998
 30
0.0
 11
133.345952
 21
133.6011
 31
0.0
  0
LINE
  5
B438
330
B3F8
100
AcDbEntity
  8
4
  6
CENTER
100
AcDbLine
 10
103.8459519999999
 20
138.8511
 30
0.0
 11
140.345952
 21
138.8511
 31
0.0
  0
LINE
  5
B439
330
B3F8
100
AcDbEntity
  8
1
  6
Continuous
100
AcDbLine
 10
133.345952
 20
143.4701
 30
0.0
 11
137.345952
 21
143.4701
 31
0.0
  0
LINE
  5
B43A
330
B3F8
100
AcDbEntity
  8
1
  6
Continuous
100
AcDbLine
 10
133.345952
 20
134.2321
 30
0.0
 11
137.345952
 21
134.2321
 31
0.0
  0
LINE
  5
B43B
330
B3F8
100
AcDbEntity
  8
1
  6
Continuous
100
AcDbLine
 10
134.345952
 20
139.6511
 30
0.0
 11
137.345952
 21
139.6511
 31
0.0
  0
LINE
  5
B43C
330
B3F8
100
AcDbEntity
  8
1
  6
Continuous
100
AcDbLine
 10
134.345952
 20
138.0511
 30
0.0
 11
137.345952
 21
138.0511
 31
0.0
  0
LINE
  5
B43D
330
B3F8
100
AcDbEntity
  8
1
  6
Continuous
100
AcDbLine
 10
134.345952
 20
138.0511
 30
0.0
 11
134.345952
 21
139.6511
 31
0.0
  0
LINE
  5
B43E
330
B3F8
100
AcDbEntity
  8
1
  6
Continuous
100
AcDbLine
 10
137.345952
 20
139.6511
 30
0.0
 11
137.345952
 21
143.4701
 31
0.0
  0
LINE
  5
B43F
330
B3F8
100
AcDbEntity
  8
1
  6
Continuous
100
AcDbLine
 10
133.345952
 20
141.1605999999999
 30
0.0
 11
135.845952
 21
141.1605999999999
 31
0.0
  0
LINE
  5
B440
330
B3F8
100
AcDbEntity
  8
1
  6
Continuous
100
AcDbLine
 10
133.345952
 20
136.5415999999999
 30
0.0
 11
135.845952
 21
136.5415999999999
 31
0.0
  0
LINE
  5
B441
330
B3F8
100
AcDbEntity
  8
1
  6
Continuous
100
AcDbLine
 10
135.845952
 20
141.1605999999999
 30
0.0
 11
137.345952
 21
140.5605999999999
 31
0.0
  0
LINE
  5
B442
330
B3F8
100
AcDbEntity
  8
1
  6
Continuous
100
AcDbLine
 10
135.845952
 20
141.1605999999999
 30
0.0
 11
137.345952
 21
141.7606
 31
0.0
  0
LINE
  5
B443
330
B3F8
100
AcDbEntity
  8
1
  6
Continuous
100
AcDbLine
 10
135.845952
 20
136.5415999999999
 30
0.0
 11
137.345952
 21
137.1416
 31
0.0
  0
LINE
  5
B444
330
B3F8
100
AcDbEntity
  8
1
  6
Continuous
100
AcDbLine
 10
135.845952
 20
136.5415999999999
 30
0.0
 11
137.345952
 21
135.9415999999999
 31
0.0
  0
LINE
  5
B445
330
B3F8
100
AcDbEntity
  8
4
  6
CENTER
100
AcDbLine
 10
196.6959519999998
 20
138.8511379999999
 30
0.0
 11
218.1959519999999
 21
138.8511379999999
 31
0.0
  0
ARC
  5
B446
330
B3F8
100
AcDbEntity
  8
1
  6
Continuous
100
AcDbCircle
 10
207.445952
 20
138.8511379999999
 30
0.0
 40
3.0
100
AcDbArc
 50
15.46601
 51
164.5339899999999
  0
LINE
  5
B447
330
B3F8
100
AcDbEntity
  8
1
  6
Continuous
100
AcDbLine
 10
203.4459519999999
 20
139.6511379999998
 30
0.0
 11
211.445952
 21
139.6511379999998
 31
0.0
  0
LINE
  5
B448
330
B3F8
100
AcDbEntity
  8
1
  6
Continuous
100
AcDbLine
 10
203.4459519999999
 20
138.0511379999999
 30
0.0
 11
211.445952
 21
138.0511379999999
 31
0.0
  0
ARC
  5
B449
330
B3F8
100
AcDbEntity
  8
1
  6
Continuous
100
AcDbCircle
 10
207.445952
 20
138.8511379999999
 30
0.0
 40
3.0
100
AcDbArc
 50
195.4660099999999
 51
344.53399
  0
CIRCLE
  5
B44A
330
B3F8
100
AcDbEntity
  8
1
  6
Continuous
100
AcDbCircle
 10
207.445952
 20
138.8511379999999
 30
0.0
 40
5.25
  0
LINE
  5
B44B
330
B3F8
100
AcDbEntity
  8
1
  6
Continuous
100
AcDbLine
 10
213.695952
 20
136.1011379999999
 30
0.0
 11
213.695952
 21
139.601138
 31
0.0
  0
LINE
  5
B44C
330
B3F8
100
AcDbEntity
  8
1
  6
Continuous
100
AcDbLine
 10
201.195952
 20
136.1011379999999
 30
0.0
 11
201.195952
 21
139.601138
 31
0.0
  0
LINE
  5
B44D
330
B3F8
100
AcDbEntity
  8
1
  6
Continuous
100
AcDbLine
 10
200.840967
 20
136.1011379999999
 30
0.0
 11
202.9738159999999
 21
136.1011379999999
 31
0.0
  0
ARC
  5
B44E
330
B3F8
100
AcDbEntity
  8
1
  6
Continuous
100
AcDbCircle
 10
207.445952
 20
138.8000019999998
 30
0.0
 40
6.301135999999998
100
AcDbArc
 50
7.304446000000001
 51
172.6955539999999
  0
LINE
  5
B44F
330
B3F8
100
AcDbEntity
  8
1
  6
Continuous
100
AcDbLine
 10
211.918087
 20
136.1011379999999
 30
0.0
 11
214.0372469999999
 21
136.1011379999999
 31
0.0
  0
ARC
  5
B450
330
B3F8
100
AcDbEntity
  8
1
  6
Continuous
100
AcDbCircle
 10
201.195952
 20
134.6011379999999
 30
0.0
 40
1.5
100
AcDbArc
 50
180.0
 51
260.405932
  0
ARC
  5
B451
330
B3F8
100
AcDbEntity
  8
1
  6
Continuous
100
AcDbCircle
 10
213.695952
 20
134.6011379999999
 30
0.0
 40
1.5
100
AcDbArc
 50
279.594068
 51
355.7894899999998
  0
LINE
  5
B452
330
B3F8
100
AcDbEntity
  8
1
  6
Continuous
100
AcDbLine
 10
133.345952
 20
196.8511
 30
0.0
 11
137.345952
 21
196.8511
 31
0.0
  0
LINE
  5
B453
330
B3F8
100
AcDbEntity
  8
1
  6
Continuous
100
AcDbLine
 10
133.345952
 20
188.8511
 30
0.0
 11
137.345952
 21
188.8511
 31
0.0
  0
LINE
  5
B454
330
B3F8
100
AcDbEntity
  8
1
  6
Continuous
100
AcDbLine
 10
133.345952
 20
198.1011
 30
0.0
 11
129.345952
 21
197.6010999999998
 31
0.0
  0
LINE
  5
B455
330
B3F8
100
AcDbEntity
  8
1
  6
Continuous
100
AcDbLine
 10
133.345952
 20
187.6011
 30
0.0
 11
129.345952
 21
188.1010999999998
 31
0.0
  0
LINE
  5
B456
330
B3F8
100
AcDbEntity
  8
1
  6
Continuous
100
AcDbLine
 10
111.845952
 20
199.1011
 30
0.0
 11
113.0959519999999
 21
199.1011
 31
0.0
  0
LINE
  5
B457
330
B3F8
100
AcDbEntity
  8
1
  6
Continuous
100
AcDbLine
 10
111.845952
 20
186.6011
 30
0.0
 11
113.0959519999999
 21
186.6011
 31
0.0
  0
LINE
  5
B458
330
B3F8
100
AcDbEntity
  8
1
  6
Continuous
100
AcDbLine
 10
108.845952
 20
195.8511
 30
0.0
 11
110.845952
 21
195.8511
 31
0.0
  0
LINE
  5
B459
330
B3F8
100
AcDbEntity
  8
1
  6
Continuous
100
AcDbLine
 10
108.845952
 20
189.8511
 30
0.0
 11
110.845952
 21
189.8511
 31
0.0
  0
ARC
  5
B45A
330
B3F8
100
AcDbEntity
  8
1
  6
Continuous
100
AcDbCircle
 10
111.0959519999999
 20
192.8511
 30
0.0
 40
3.75
100
AcDbArc
 50
126.869898
 51
233.130102
  0
ARC
  5
B45B
330
B3F8
100
AcDbEntity
  8
1
  6
Continuous
100
AcDbCircle
 10
128.345952
 20
198.1011
 30
0.0
 40
1.0
100
AcDbArc
 50
0.0
 51
90.0
  0
ARC
  5
B45C
330
B3F8
100
AcDbEntity
  8
1
  6
Continuous
100
AcDbCircle
 10
128.345952
 20
187.6011
 30
0.0
 40
1.0
100
AcDbArc
 50
270.0
 51
0.0
  0
ARC
  5
B45D
330
B3F8
100
AcDbEntity
  8
1
  6
Continuous
100
AcDbCircle
 10
111.845952
 20
187.6011
 30
0.0
 40
1.0
100
AcDbArc
 50
180.0
 51
270.0
  0
ARC
  5
B45E
330
B3F8
100
AcDbEntity
  8
1
  6
Continuous
100
AcDbCircle
 10
111.845952
 20
198.1011
 30
0.0
 40
1.0
100
AcDbArc
 50
90.0
 51
180.0
  0
ARC
  5
B45F
330
B3F8
100
AcDbEntity
  8
1
  6
Continuous
100
AcDbCircle
 10
120.095952
 20
218.0760999999999
 30
0.0
 40
20.225
100
AcDbArc
 50
249.750657
 51
290.249343
  0
ARC
  5
B460
330
B3F8
100
AcDbEntity
  8
1
  6
Continuous
100
AcDbCircle
 10
120.095952
 20
167.6261
 30
0.0
 40
20.225
100
AcDbArc
 50
69.75065699999999
 51
110.249343
  0
LINE
  5
B461
330
B3F8
100
AcDbEntity
  8
1
  6
Continuous
100
AcDbLine
 10
125.5959519999999
 20
200.6010999999999
 30
0.0
 11
127.0959519999999
 21
199.1011
 31
0.0
  0
LINE
  5
B462
330
B3F8
100
AcDbEntity
  8
1
  6
Continuous
100
AcDbLine
 10
114.5959519999999
 20
200.6010999999999
 30
0.0
 11
113.0959519999999
 21
199.1011
 31
0.0
  0
LINE
  5
B463
330
B3F8
100
AcDbEntity
  8
1
  6
Continuous
100
AcDbLine
 10
113.0959519999999
 20
186.6011
 30
0.0
 11
114.5959519999999
 21
185.1010999999998
 31
0.0
  0
LINE
  5
B464
330
B3F8
100
AcDbEntity
  8
1
  6
Continuous
100
AcDbLine
 10
127.0959519999999
 20
186.6011
 30
0.0
 11
125.5959519999999
 21
185.1010999999998
 31
0.0
  0
LINE
  5
B465
330
B3F8
100
AcDbEntity
  8
1
  6
Continuous
100
AcDbLine
 10
127.0959519999999
 20
199.1011
 30
0.0
 11
128.345952
 21
199.1011
 31
0.0
  0
LINE
  5
B466
330
B3F8
100
AcDbEntity
  8
1
  6
Continuous
100
AcDbLine
 10
127.0959519999999
 20
186.6011
 30
0.0
 11
128.345952
 21
186.6011
 31
0.0
  0
LINE
  5
B467
330
B3F8
100
AcDbEntity
  8
1
  6
Continuous
100
AcDbLine
 10
137.345952
 20
193.4511
 30
0.0
 11
135.845952
 21
192.8511
 31
0.0
  0
LINE
  5
B468
330
B3F8
100
AcDbEntity
  8
1
  6
Continuous
100
AcDbLine
 10
135.845952
 20
192.8511
 30
0.0
 11
137.345952
 21
192.2511
 31
0.0
  0
LINE
  5
B469
330
B3F8
100
AcDbEntity
  8
1
  6
Continuous
100
AcDbLine
 10
135.845952
 20
192.8511
 30
0.0
 11
133.345952
 21
192.8511
 31
0.0
  0
LINE
  5
B46A
330
B3F8
100
AcDbEntity
  8
1
  6
Continuous
100
AcDbLine
 10
214.3531649999999
 20
134.019425
 30
0.0
 11
213.9459519999999
 21
134.0011
 31
0.0
  0
LINE
  5
B46B
330
B3F8
100
AcDbEntity
  8
1
  6
Continuous
100
AcDbLine
 10
200.5162129999999
 20
134.0204389999998
 30
0.0
 11
200.945952
 21
134.0011
 31
0.0
  0
LINE
  5
B46C
330
B3F8
100
AcDbEntity
  8
1
  6
Continuous
100
AcDbLine
 10
100.495952
 20
199.3510999999998
 30
0.0
 11
113.3459519999999
 21
199.3510999999998
 31
0.0
  0
LINE
  5
B46D
330
B3F8
100
AcDbEntity
  8
1
  6
Continuous
100
AcDbLine
 10
100.495952
 20
186.3511
 30
0.0
 11
113.3459519999999
 21
186.3511
 31
0.0
  0
LINE
  5
B46E
330
B3F8
100
AcDbEntity
  8
1
  6
Continuous
100
AcDbLine
 10
126.8459519999999
 20
199.3510999999998
 30
0.0
 11
139.695952
 21
199.3510999999998
 31
0.0
  0
LINE
  5
B46F
330
B3F8
100
AcDbEntity
  8
1
  6
Continuous
100
AcDbLine
 10
126.8459519999999
 20
186.3511
 30
0.0
 11
139.695952
 21
186.3511
 31
0.0
  0
ARC
  5
B470
330
B3F8
100
AcDbEntity
  8
1
  6
Continuous
100
AcDbCircle
 10
111.073285
 20
139.1000999999999
 30
0.0
 40
3.735641
100
AcDbArc
 50
126.600977
 51
233.399023
  0
LINE
  5
B471
330
B3F8
100
AcDbEntity
  8
1
  6
Continuous
100
AcDbLine
 10
213.9459519999999
 20
96.500017
 30
0.0
 11
213.9459519999999
 21
135.1025549999999
 31
0.0
  0
LINE
  5
B472
330
B3F8
100
AcDbEntity
  8
1
  6
Continuous
100
AcDbLine
 10
200.945952
 20
96.500017
 30
0.0
 11
200.945952
 21
135.1025549999999
 31
0.0
  0
ARC
  5
B473
330
B3F8
100
AcDbEntity
  8
1
  6
Continuous
100
AcDbCircle
 10
213.445952
 20
139.4063889999999
 30
0.0
 40
1.0
100
AcDbArc
 50
0.0
 51
84.600387
  0
ARC
  5
B474
330
B3F8
100
AcDbEntity
  8
1
  6
Continuous
100
AcDbCircle
 10
201.4459519999999
 20
139.4063889999999
 30
0.0
 40
1.0
100
AcDbArc
 50
95.39961299999999
 51
180.0
  0
LINE
  5
B475
330
B3F8
100
AcDbEntity
  8
1
  6
Continuous
100
AcDbLine
 10
214.445952
 20
139.4063889999999
 30
0.0
 11
215.1919029999999
 21
134.4910059999999
 31
0.0
  0
LINE
  5
B476
330
B3F8
100
AcDbEntity
  8
1
  6
Continuous
100
AcDbLine
 10
200.445952
 20
139.4063889999999
 30
0.0
 11
199.695952
 21
134.6011379999999
 31
0.0
  0
LINE
  5
B477
330
B3F8
100
AcDbEntity
  8
1
  6
Continuous
100
AcDbLine
 10
200.840967
 20
136.1011379999999
 30
0.0
 11
200.5162129999999
 21
134.0204389999998
 31
0.0
  0
LINE
  5
B478
330
B3F8
100
AcDbEntity
  8
1
  6
Continuous
100
AcDbLine
 10
214.0372469999999
 20
136.1011379999999
 30
0.0
 11
214.3531649999999
 21
134.019425
 31
0.0
  0
ARC
  5
B479
330
B3F8
100
AcDbEntity
  8
1
  6
Continuous
100
AcDbCircle
 10
32.75
 20
138.8000019999998
 30
0.0
 40
6.301135999999998
100
AcDbArc
 50
7.304446000000001
 51
172.6955539999999
  0
LINE
  5
B47A
330
B3F8
100
AcDbEntity
  8
4
  6
CENTER
100
AcDbLine
 10
32.75
 20
91.500017
 30
0.0
 11
32.75
 21
148.1011379999999
 31
0.0
  0
LINE
  5
B47B
330
B3F8
100
AcDbEntity
  8
1
  6
Continuous
100
AcDbLine
 10
26.25
 20
96.500017
 30
0.0
 11
26.25
 21
135.170382
 31
0.0
  0
LINE
  5
B47C
330
B3F8
100
AcDbEntity
  8
1
  6
Continuous
100
AcDbLine
 10
39.25
 20
96.500017
 30
0.0
 11
39.25
 21
135.170382
 31
0.0
  0
LINE
  5
B47D
330
B3F8
100
AcDbEntity
  8
4
  6
CENTER
100
AcDbLine
 10
22.0
 20
138.8511379999999
 30
0.0
 11
43.5
 21
138.8511379999999
 31
0.0
  0
LINE
  5
B47E
330
B3F8
100
AcDbEntity
  8
1
  6
Continuous
100
AcDbLine
 10
26.145015
 20
136.1011379999999
 30
0.0
 11
25.820261
 21
134.0204389999998
 31
0.0
  0
LINE
  5
B47F
330
B3F8
100
AcDbEntity
  8
1
  6
Continuous
100
AcDbLine
 10
25.75
 20
139.4063889999999
 30
0.0
 11
25.0
 21
134.6011379999999
 31
0.0
  0
ARC
  5
B480
330
B3F8
100
AcDbEntity
  8
1
  6
Continuous
100
AcDbCircle
 10
26.75
 20
139.4063889999999
 30
0.0
 40
1.0
100
AcDbArc
 50
95.39961299999999
 51
180.0
  0
LINE
  5
B481
330
B3F8
100
AcDbEntity
  8
1
  6
Continuous
100
AcDbLine
 10
25.820261
 20
134.0204389999998
 30
0.0
 11
26.25
 21
134.0011
 31
0.0
  0
ARC
  5
B482
330
B3F8
100
AcDbEntity
  8
1
  6
Continuous
100
AcDbCircle
 10
26.5
 20
134.6011379999999
 30
0.0
 40
1.5
100
AcDbArc
 50
180.0
 51
260.405932
  0
LINE
  5
B483
330
B3F8
100
AcDbEntity
  8
1
  6
Continuous
100
AcDbLine
 10
26.145015
 20
136.1011379999999
 30
0.0
 11
27.833508
 21
136.1011379999999
 31
0.0
  0
LINE
  5
B484
330
B3F8
100
AcDbEntity
  8
1
  6
Continuous
100
AcDbLine
 10
26.5
 20
136.1011379999999
 30
0.0
 11
26.5
 21
139.601138
 31
0.0
  0
LINE
  5
B485
330
B3F8
100
AcDbEntity
  8
1
  6
Continuous
100
AcDbLine
 10
39.341295
 20
136.1011379999999
 30
0.0
 11
39.657213
 21
134.019425
 31
0.0
  0
LINE
  5
B486
330
B3F8
100
AcDbEntity
  8
1
  6
Continuous
100
AcDbLine
 10
39.75
 20
139.4063889999999
 30
0.0
 11
40.495952
 21
134.4910059999999
 31
0.0
  0
ARC
  5
B487
330
B3F8
100
AcDbEntity
  8
1
  6
Continuous
100
AcDbCircle
 10
38.75
 20
139.4063889999999
 30
0.0
 40
1.0
100
AcDbArc
 50
0.0
 51
84.600387
  0
LINE
  5
B488
330
B3F8
100
AcDbEntity
  8
1
  6
Continuous
100
AcDbLine
 10
39.657213
 20
134.019425
 30
0.0
 11
39.25
 21
134.0011
 31
0.0
  0
ARC
  5
B489
330
B3F8
100
AcDbEntity
  8
1
  6
Continuous
100
AcDbCircle
 10
39.0
 20
134.6011379999999
 30
0.0
 40
1.5
100
AcDbArc
 50
279.594068
 51
355.7894899999998
  0
LINE
  5
B48A
330
B3F8
100
AcDbEntity
  8
1
  6
Continuous
100
AcDbLine
 10
37.66649199999999
 20
136.1011379999999
 30
0.0
 11
39.341295
 21
136.1011379999999
 31
0.0
  0
LINE
  5
B48B
330
B3F8
100
AcDbEntity
  8
1
  6
Continuous
100
AcDbLine
 10
39.0
 20
136.1011379999999
 30
0.0
 11
39.0
 21
139.601138
 31
0.0
  0
LINE
  5
B48C
330
B3F8
100
AcDbEntity
  8
4
  6
CENTER
100
AcDbLine
 10
120.095952
 20
38.0
 30
0.0
 11
120.095952
 21
59.5
 31
0.0
  0
LINE
  5
B48D
330
B3F8
100
AcDbEntity
  8
1
  6
Continuous
100
AcDbLine
 10
100.495952
 20
42.25
 30
0.0
 11
139.695952
 21
42.25
 31
0.0
  0
LINE
  5
B48E
330
B3F8
100
AcDbEntity
  8
1
  6
Continuous
100
AcDbLine
 10
114.5959519999999
 20
41.0
 30
0.0
 11
125.5959519999999
 21
41.0
 31
0.0
  0
LINE
  5
B48F
330
B3F8
100
AcDbEntity
  8
1
  6
Continuous
100
AcDbLine
 10
100.495952
 20
55.25
 30
0.0
 11
139.695952
 21
55.25
 31
0.0
  0
LINE
  5
B490
330
B3F8
100
AcDbEntity
  8
4
  6
CENTER
100
AcDbLine
 10
95.495952
 20
48.75
 30
0.0
 11
144.695952
 21
48.75
 31
0.0
  0
LINE
  5
B491
330
B3F8
100
AcDbEntity
  8
1
  6
Continuous
100
AcDbLine
 10
114.5959519999999
 20
56.5
 30
0.0
 11
125.5959519999999
 21
56.5
 31
0.0
  0
LINE
  5
B492
330
B3F8
100
AcDbEntity
  8
1
  6
Continuous
100
AcDbLine
 10
114.8137469999999
 20
133.48755
 30
0.0
 11
111.198415
 21
129.241825
 31
0.0
  0
LINE
  5
B493
330
B3F8
100
AcDbEntity
  8
1
  6
Continuous
100
AcDbLine
 10
114.7434999999999
 20
134.33052
 30
0.0
 11
110.7415939999999
 21
129.630818
 31
0.0
  0
LINE
  5
B494
330
B3F8
100
AcDbEntity
  8
1
  6
Continuous
100
AcDbLine
 10
110.7415939999999
 20
129.630818
 30
0.0
 11
111.198415
 21
129.241825
 31
0.0
  0
LINE
  5
B495
330
B3F8
100
AcDbEntity
  8
1
  6
Continuous
100
AcDbLine
 10
112.2975659999999
 20
131.458098
 30
0.0
 11
112.754386
 21
131.069105
 31
0.0
  0
CIRCLE
  5
B496
330
B3F8
100
AcDbEntity
  8
1
  6
Continuous
100
AcDbCircle
 10
32.75
 20
139.0990999999999
 30
0.0
 40
3.0
  0
LINE
  5
B497
330
B3F8
100
AcDbEntity
  8
1
  6
Continuous
100
AcDbLine
 10
29.75
 20
139.0990999999999
 30
0.0
 11
28.75649199999999
 21
136.7162999999999
 31
0.0
  0
LINE
  5
B498
330
B3F8
100
AcDbEntity
  8
1
  6
Continuous
100
AcDbLine
 10
35.75
 20
139.0990999999999
 30
0.0
 11
36.743508
 21
136.7162999999999
 31
0.0
  0
ARC
  5
B499
330
B3F8
100
AcDbEntity
  8
1
  6
Continuous
100
AcDbCircle
 10
37.66649199999999
 20
137.1011379999999
 30
0.0
 40
1.0
100
AcDbArc
 50
202.6336909999999
 51
270.0
  0
ARC
  5
B49A
330
B3F8
100
AcDbEntity
  8
1
  6
Continuous
100
AcDbCircle
 10
27.833508
 20
137.1011379999999
 30
0.0
 40
1.0
100
AcDbArc
 50
270.0
 51
337.3663089999999
  0
LINE
  5
B49B
330
B3F8
100
AcDbEntity
  8
1
  6
Continuous
100
AcDbLine
 10
114.845952
 20
56.5
 30
0.0
 11
114.845952
 21
55.25
 31
0.0
  0
LINE
  5
B49C
330
B3F8
100
AcDbEntity
  8
1
  6
Continuous
100
AcDbLine
 10
125.345952
 20
41.00044699999997
 30
0.0
 11
125.345952
 21
42.25
 31
0.0
  0
LINE
  5
B49D
330
B3F8
100
AcDbEntity
  8
1
  6
Continuous
100
AcDbLine
 10
125.5959519999999
 20
56.5
 30
0.0
 11
125.5959519999999
 21
55.25
 31
0.0
  0
LINE
  5
B49E
330
B3F8
100
AcDbEntity
  8
1
  6
Continuous
100
AcDbLine
 10
114.5959519999999
 20
56.5
 30
0.0
 11
114.5959519999999
 21
55.25
 31
0.0
  0
LINE
  5
B49F
330
B3F8
100
AcDbEntity
  8
1
  6
Continuous
100
AcDbLine
 10
114.5959519999999
 20
56.5
 30
0.0
 11
113.3459519999999
 21
55.25
 31
0.0
  0
LINE
  5
B4A0
330
B3F8
100
AcDbEntity
  8
1
  6
Continuous
100
AcDbLine
 10
125.5959519999999
 20
56.5
 30
0.0
 11
126.8459519999999
 21
55.25
 31
0.0
  0
LINE
  5
B4A1
330
B3F8
100
AcDbEntity
  8
1
  6
Continuous
100
AcDbLine
 10
114.5959519999999
 20
41.00044699999997
 30
0.0
 11
113.3460259999999
 21
42.25
 31
0.0
  0
LINE
  5
B4A2
330
B3F8
100
AcDbEntity
  8
1
  6
Continuous
100
AcDbLine
 10
125.5959519999999
 20
41.0
 30
0.0
 11
126.8459519999999
 21
42.25
 31
0.0
  0
LINE
  5
B4A3
330
B3F8
100
AcDbEntity
  8
1
  6
Continuous
100
AcDbLine
 10
125.5959519999999
 20
42.25
 30
0.0
 11
125.5959519999999
 21
41.00044699999997
 31
0.0
  0
LINE
  5
B4A4
330
B3F8
100
AcDbEntity
  8
1
  6
Continuous
100
AcDbLine
 10
125.345952
 20
55.25
 30
0.0
 11
125.345952
 21
56.5
 31
0.0
  0
LINE
  5
B4A5
330
B3F8
100
AcDbEntity
  8
1
  6
Continuous
100
AcDbLine
 10
114.845952
 20
42.25
 30
0.0
 11
114.845952
 21
41.00044699999997
 31
0.0
  0
LINE
  5
B4A6
330
B3F8
100
AcDbEntity
  8
1
  6
Continuous
100
AcDbLine
 10
114.5959519999999
 20
42.25
 30
0.0
 11
114.5959519999999
 21
41.00044699999997
 31
0.0
  0
LINE
  5
B4A7
330
B3F8
100
AcDbEntity
  8
1
  6
Continuous
100
AcDbLine
 10
213.9459519999999
 20
135.1025549999999
 30
0.0
 11
211.1216319999999
 21
135.1025549999999
 31
0.0
  0
LINE
  5
B4A8
330
B3F8
100
AcDbEntity
  8
1
  6
Continuous
100
AcDbLine
 10
203.770271
 20
135.1025549999999
 30
0.0
 11
200.945952
 21
135.1025549999999
 31
0.0
  0
LINE
  5
B4A9
330
B3F8
100
AcDbEntity
  8
1
  6
Continuous
100
AcDbLine
 10
26.25
 20
135.170382
 30
0.0
 11
39.25
 21
135.170382
 31
0.0
  0
ARC
  5
B4AA
330
B3F8
100
AcDbEntity
  8
5
  6
PHANTOM
100
AcDbCircle
 10
120.3319519999999
 20
120.312017
 30
0.0
 40
15.0
100
AcDbArc
 50
111.841142
 51
70.029363
  0
ARC
  5
B4AB
330
B3F8
100
AcDbEntity
  8
1
  6
Continuous
100
AcDbCircle
 10
120.095952
 20
116.1000169999998
 30
0.0
 40
19.0
100
AcDbArc
 50
106.362169
 51
73.637831
  0
ARC
  5
B4AC
330
B3F8
100
AcDbEntity
  8
5
  6
PHANTOM
100
AcDbCircle
 10
120.3319519999999
 20
120.312017
 30
0.0
 40
15.6
100
AcDbArc
 50
111.165356
 51
70.62754200000002
  0
ARC
  5
B4AD
330
B3F8
100
AcDbEntity
  8
5
  6
PHANTOM
100
AcDbCircle
 10
120.3319519999999
 20
120.312017
 30
0.0
 40
16.2
100
AcDbArc
 50
276.9312209999998
 51
71.179962
  0
ARC
  5
B4AE
330
B3F8
100
AcDbEntity
  8
1
  6
Continuous
100
AcDbCircle
 10
120.095952
 20
116.1000169999998
 30
0.0
 40
19.6
100
AcDbArc
 50
106.002411
 51
73.99758900000001
  0
ARC
  5
B4AF
330
B3F8
100
AcDbEntity
  8
1
  6
Continuous
100
AcDbCircle
 10
120.095952
 20
116.1000169999998
 30
0.0
 40
20.2
100
AcDbArc
 50
24.62188399999999
 51
74.335566
  0
LINE
  5
B4B0
330
B3F8
100
AcDbEntity
  8
5
  6
PHANTOM
100
AcDbLine
 10
122.214525
 20
104.8260259999999
 30
0.0
 11
122.286932
 21
104.230411
 31
0.0
  0
LINE
  5
B4B1
330
B3F8
100
AcDbEntity
  8
4
  6
CENTER
100
AcDbLine
 10
21.25
 20
116.1000169999998
 30
0.0
 11
44.24999999999999
 21
116.1000169999998
 31
0.0
  0
LINE
  5
B4B2
330
B3F8
100
AcDbEntity
  8
1
  6
Continuous
100
AcDbLine
 10
138.4593079999999
 20
124.5159029999999
 30
0.0
 11
137.9138619999999
 21
124.2659259999999
 31
0.0
  0
LINE
  5
B4B3
330
B3F8
100
AcDbEntity
  8
1
  6
Continuous
100
AcDbLine
 10
213.9459519999999
 20
96.500017
 30
0.0
 11
200.945952
 21
96.500017
 31
0.0
  0
LINE
  5
B4B4
330
B3F8
100
AcDbEntity
  8
1
  6
Continuous
100
AcDbLine
 10
100.495952
 20
42.25
 30
0.0
 11
100.495952
 21
55.25
 31
0.0
  0
LINE
  5
B4B5
330
B3F8
100
AcDbEntity
  8
1
  6
Continuous
100
AcDbLine
 10
139.695952
 20
42.25
 30
0.0
 11
139.695952
 21
55.25
 31
0.0
  0
LINE
  5
B4B6
330
B3F8
100
AcDbEntity
  8
4
  6
CENTER
100
AcDbLine
 10
95.495952
 20
116.1000169999998
 30
0.0
 11
144.695952
 21
116.1000169999998
 31
0.0
  0
LINE
  5
B4B7
330
B3F8
100
AcDbEntity
  8
4
  6
CENTER
100
AcDbLine
 10
195.945952
 20
116.1000169999998
 30
0.0
 11
218.945952
 21
116.1000169999998
 31
0.0
  0
LINE
  5
B4B8
330
B3F8
100
AcDbEntity
  8
1
  6
Continuous
100
AcDbLine
 10
100.495952
 20
186.3511
 30
0.0
 11
100.495952
 21
199.3510999999998
 31
0.0
  0
LINE
  5
B4B9
330
B3F8
100
AcDbEntity
  8
1
  6
Continuous
100
AcDbLine
 10
139.695952
 20
186.3511
 30
0.0
 11
139.695952
 21
199.3510999999998
 31
0.0
  0
ARC
  5
B4BA
330
B3F8
100
AcDbEntity
  8
1
  6
Continuous
100
AcDbCircle
 10
110.839454
 20
189.8931609999999
 30
0.0
 40
0.21525
100
AcDbArc
 50
191.268281
 51
271.7297249999999
  0
LINE
  5
B4BB
330
B3F8
100
AcDbEntity
  8
1
  6
Continuous
100
AcDbLine
 10
29.897601
 20
123.1476409999998
 30
0.0
 11
35.53513499999999
 21
122.554216
 31
0.0
  0
LINE
  5
B4BC
330
B3F8
100
AcDbEntity
  8
1
  6
Continuous
100
AcDbLine
 10
30.026751
 20
125.031756
 30
0.0
 11
35.664285
 21
124.438331
 31
0.0
  0
LINE
  5
B4BD
330
B3F8
100
AcDbEntity
  8
1
  6
Continuous
100
AcDbLine
 10
29.83513499999999
 20
122.554216
 30
0.0
 11
32.53230300000001
 21
121.9863909999999
 31
0.0
  0
ARC
  5
B4BE
330
B3F8
100
AcDbEntity
  8
1
  6
Continuous
100
AcDbCircle
 10
29.83513499999999
 20
122.8542159999998
 30
0.0
 40
0.3
100
AcDbArc
 50
77.981988
 51
270.0
  0
ARC
  5
B4BF
330
B3F8
100
AcDbEntity
  8
1
  6
Continuous
100
AcDbCircle
 10
29.964285
 20
124.738331
 30
0.0
 40
0.3
100
AcDbArc
 50
77.981988
 51
270.0
  0
LINE
  5
B4C0
330
B3F8
100
AcDbEntity
  8
1
  6
Continuous
100
AcDbLine
 10
29.964285
 20
124.438331
 30
0.0
 11
32.661453
 21
123.870506
 31
0.0
  0
ARC
  5
B4C1
330
B3F8
100
AcDbEntity
  8
1
  6
Continuous
100
AcDbCircle
 10
109.580487
 20
195.7027139999999
 30
0.0
 40
0.3
100
AcDbArc
 50
29.644664
 51
150.3553359999999
  0
LINE
  5
B4C2
330
B3F8
100
AcDbEntity
  8
1
  6
Continuous
100
AcDbLine
 10
32.841318
 20
121.9542159999999
 30
0.0
 11
35.53513499999999
 21
121.9542159999999
 31
0.0
  0
LINE
  5
B4C3
330
B3F8
100
AcDbEntity
  8
1
  6
Continuous
100
AcDbLine
 10
32.97046799999999
 20
123.838331
 30
0.0
 11
35.664285
 21
123.838331
 31
0.0
  0
ARC
  5
B4C4
330
B3F8
100
AcDbEntity
  8
1
  6
Continuous
100
AcDbCircle
 10
35.53513499999999
 20
122.2542159999999
 30
0.0
 40
0.3
100
AcDbArc
 50
270.0
 51
90.0
  0
ARC
  5
B4C5
330
B3F8
100
AcDbEntity
  8
1
  6
Continuous
100
AcDbCircle
 10
35.664285
 20
124.138331
 30
0.0
 40
0.3
100
AcDbArc
 50
270.0
 51
90.0
  0
ARC
  5
B4C6
330
B3F8
100
AcDbEntity
  8
1
  6
Continuous
100
AcDbCircle
 10
108.980487
 20
190.0027139999999
 30
0.0
 40
0.3
100
AcDbArc
 50
180.0
 51
329.643387
  0
LINE
  5
B4C7
330
B3F8
100
AcDbEntity
  8
1
  6
Continuous
100
AcDbLine
 10
26.25
 20
96.500017
 30
0.0
 11
39.25
 21
96.500017
 31
0.0
  0
LINE
  5
B4C8
330
B3F8
100
AcDbEntity
  8
1
  6
Continuous
100
AcDbLine
 10
30.129391
 20
116.8045109999999
 30
0.0
 11
35.766925
 21
116.211086
 31
0.0
  0
LINE
  5
B4C9
330
B3F8
100
AcDbEntity
  8
1
  6
Continuous
100
AcDbLine
 10
30.066925
 20
116.211086
 30
0.0
 11
32.764093
 21
115.643261
 31
0.0
  0
ARC
  5
B4CA
330
B3F8
100
AcDbEntity
  8
1
  6
Continuous
100
AcDbCircle
 10
30.066925
 20
116.511086
 30
0.0
 40
0.3
100
AcDbArc
 50
77.981988
 51
270.0
  0
LINE
  5
B4CB
330
B3F8
100
AcDbEntity
  8
1
  6
Continuous
100
AcDbLine
 10
33.07310799999999
 20
115.611086
 30
0.0
 11
35.766925
 21
115.611086
 31
0.0
  0
ARC
  5
B4CC
330
B3F8
100
AcDbEntity
  8
1
  6
Continuous
100
AcDbCircle
 10
35.766925
 20
115.911086
 30
0.0
 40
0.3
100
AcDbArc
 50
270.0
 51
90.0
  0
ARC
  5
B4CD
330
B3F8
100
AcDbEntity
  8
1
  6
Continuous
100
AcDbCircle
 10
33.07310799999999
 20
117.111086
 30
0.0
 40
1.5
100
AcDbArc
 50
258.1113419999999
 51
270.0
  0
LINE
  5
B4CE
330
B3F8
100
AcDbEntity
  8
1
  6
Continuous
100
AcDbLine
 10
30.129391
 20
111.8250909999999
 30
0.0
 11
35.766925
 21
111.2316659999999
 31
0.0
  0
LINE
  5
B4CF
330
B3F8
100
AcDbEntity
  8
1
  6
Continuous
100
AcDbLine
 10
30.129391
 20
114.225091
 30
0.0
 11
35.766925
 21
113.631666
 31
0.0
  0
LINE
  5
B4D0
330
B3F8
100
AcDbEntity
  8
1
  6
Continuous
100
AcDbLine
 10
30.066925
 20
111.2316659999999
 30
0.0
 11
32.764093
 21
110.6638409999999
 31
0.0
  0
LINE
  5
B4D1
330
B3F8
100
AcDbEntity
  8
1
  6
Continuous
100
AcDbLine
 10
30.066925
 20
113.631666
 30
0.0
 11
32.764093
 21
113.0638409999999
 31
0.0
  0
ARC
  5
B4D2
330
B3F8
100
AcDbEntity
  8
1
  6
Continuous
100
AcDbCircle
 10
30.066925
 20
111.5316659999999
 30
0.0
 40
0.3
100
AcDbArc
 50
77.981988
 51
270.0
  0
ARC
  5
B4D3
330
B3F8
100
AcDbEntity
  8
1
  6
Continuous
100
AcDbCircle
 10
30.066925
 20
113.9316659999998
 30
0.0
 40
0.3
100
AcDbArc
 50
77.981988
 51
270.0
  0
LINE
  5
B4D4
330
B3F8
100
AcDbEntity
  8
1
  6
Continuous
100
AcDbLine
 10
33.07310799999999
 20
110.631666
 30
0.0
 11
35.766925
 21
110.631666
 31
0.0
  0
LINE
  5
B4D5
330
B3F8
100
AcDbEntity
  8
1
  6
Continuous
100
AcDbLine
 10
33.07310799999999
 20
113.0316659999998
 30
0.0
 11
35.766925
 21
113.0316659999998
 31
0.0
  0
ARC
  5
B4D6
330
B3F8
100
AcDbEntity
  8
1
  6
Continuous
100
AcDbCircle
 10
35.766925
 20
110.9316659999998
 30
0.0
 40
0.3
100
AcDbArc
 50
270.0
 51
90.0
  0
ARC
  5
B4D7
330
B3F8
100
AcDbEntity
  8
1
  6
Continuous
100
AcDbCircle
 10
35.766925
 20
113.3316659999999
 30
0.0
 40
0.3
100
AcDbArc
 50
270.0
 51
90.0
  0
ARC
  5
B4D8
330
B3F8
100
AcDbEntity
  8
1
  6
Continuous
100
AcDbCircle
 10
33.07310799999999
 20
112.1316659999999
 30
0.0
 40
1.5
100
AcDbArc
 50
258.1113419999999
 51
270.0
  0
ARC
  5
B4D9
330
B3F8
100
AcDbEntity
  8
1
  6
Continuous
100
AcDbCircle
 10
33.07310799999999
 20
114.5316659999999
 30
0.0
 40
1.5
100
AcDbArc
 50
258.1113419999999
 51
270.0
  0
LINE
  5
B4DA
330
B3F8
100
AcDbEntity
  8
1
  6
Continuous
100
AcDbLine
 10
29.87109199999999
 20
119.047472
 30
0.0
 11
35.508626
 21
118.4540469999999
 31
0.0
  0
LINE
  5
B4DB
330
B3F8
100
AcDbEntity
  8
1
  6
Continuous
100
AcDbLine
 10
29.87109199999999
 20
121.4474719999999
 30
0.0
 11
35.508626
 21
120.8540469999998
 31
0.0
  0
LINE
  5
B4DC
330
B3F8
100
AcDbEntity
  8
1
  6
Continuous
100
AcDbLine
 10
29.808626
 20
118.4540469999999
 30
0.0
 11
32.505794
 21
117.886222
 31
0.0
  0
LINE
  5
B4DD
330
B3F8
100
AcDbEntity
  8
1
  6
Continuous
100
AcDbLine
 10
29.808626
 20
120.8540469999998
 30
0.0
 11
32.505794
 21
120.2862219999999
 31
0.0
  0
ARC
  5
B4DE
330
B3F8
100
AcDbEntity
  8
1
  6
Continuous
100
AcDbCircle
 10
29.808626
 20
118.754047
 30
0.0
 40
0.3
100
AcDbArc
 50
77.981988
 51
270.0
  0
ARC
  5
B4DF
330
B3F8
100
AcDbEntity
  8
1
  6
Continuous
100
AcDbCircle
 10
29.808626
 20
121.1540469999999
 30
0.0
 40
0.3
100
AcDbArc
 50
77.981988
 51
270.0
  0
LINE
  5
B4E0
330
B3F8
100
AcDbEntity
  8
1
  6
Continuous
100
AcDbLine
 10
32.814809
 20
117.8540469999998
 30
0.0
 11
35.508626
 21
117.8540469999998
 31
0.0
  0
LINE
  5
B4E1
330
B3F8
100
AcDbEntity
  8
1
  6
Continuous
100
AcDbLine
 10
32.814809
 20
120.2540469999999
 30
0.0
 11
35.508626
 21
120.2540469999999
 31
0.0
  0
ARC
  5
B4E2
330
B3F8
100
AcDbEntity
  8
1
  6
Continuous
100
AcDbCircle
 10
35.508626
 20
118.1540469999999
 30
0.0
 40
0.3
100
AcDbArc
 50
270.0
 51
90.0
  0
ARC
  5
B4E3
330
B3F8
100
AcDbEntity
  8
1
  6
Continuous
100
AcDbCircle
 10
35.508626
 20
120.554047
 30
0.0
 40
0.3
100
AcDbArc
 50
270.0
 51
90.0
  0
ARC
  5
B4E4
330
B3F8
100
AcDbEntity
  8
1
  6
Continuous
100
AcDbCircle
 10
32.814809
 20
119.354047
 30
0.0
 40
1.5
100
AcDbArc
 50
258.1113419999999
 51
270.0
  0
ARC
  5
B4E5
330
B3F8
100
AcDbEntity
  8
1
  6
Continuous
100
AcDbCircle
 10
32.814809
 20
121.754047
 30
0.0
 40
1.5
100
AcDbArc
 50
258.1113419999999
 51
270.0
  0
LINE
  5
B4E6
330
B3F8
100
AcDbEntity
  8
1
  6
Continuous
100
AcDbLine
 10
32.53230300000001
 20
121.9863909999999
 30
0.0
 11
32.841318
 21
121.9542159999999
 31
0.0
  0
LINE
  5
B4E7
330
B3F8
100
AcDbEntity
  8
1
  6
Continuous
100
AcDbLine
 10
32.661453
 20
123.870506
 30
0.0
 11
32.97046799999999
 21
123.838331
 31
0.0
  0
LINE
  5
B4E8
330
B3F8
100
AcDbEntity
  8
1
  6
Continuous
100
AcDbLine
 10
30.000241
 20
109.6325839999999
 30
0.0
 11
35.637775
 21
109.039159
 31
0.0
  0
LINE
  5
B4E9
330
B3F8
100
AcDbEntity
  8
1
  6
Continuous
100
AcDbLine
 10
32.943958
 20
108.439159
 30
0.0
 11
35.637775
 21
108.439159
 31
0.0
  0
ARC
  5
B4EA
330
B3F8
100
AcDbEntity
  8
1
  6
Continuous
100
AcDbCircle
 10
35.637775
 20
108.739159
 30
0.0
 40
0.3
100
AcDbArc
 50
270.0
 51
90.0
  0
LINE
  5
B4EB
330
B3F8
100
AcDbEntity
  8
1
  6
Continuous
100
AcDbLine
 10
29.937775
 20
109.039159
 30
0.0
 11
32.634943
 21
108.471334
 31
0.0
  0
ARC
  5
B4EC
330
B3F8
100
AcDbEntity
  8
1
  6
Continuous
100
AcDbCircle
 10
29.937775
 20
109.339159
 30
0.0
 40
0.3
100
AcDbArc
 50
77.981988
 51
270.0
  0
LINE
  5
B4ED
330
B3F8
100
AcDbEntity
  8
1
  6
Continuous
100
AcDbLine
 10
32.634943
 20
108.471334
 30
0.0
 11
32.943958
 21
108.439159
 31
0.0
  0
LINE
  5
B4EE
330
B3F8
100
AcDbEntity
  8
1
  6
Continuous
100
AcDbLine
 10
29.738907
 20
129.572649
 30
0.0
 11
35.67620499999998
 21
129.230475
 31
0.0
  0
LINE
  5
B4EF
330
B3F8
100
AcDbEntity
  8
1
  6
Continuous
100
AcDbLine
 10
29.71920499999999
 20
129.230785
 30
0.0
 11
32.69770499999999
 21
128.8874749999999
 31
0.0
  0
LINE
  5
B4F0
330
B3F8
100
AcDbEntity
  8
1
  6
Continuous
100
AcDbLine
 10
29.715701
 20
130.8380949999998
 30
0.0
 11
35.695205
 21
130.5335069999999
 31
0.0
  0
LINE
  5
B4F1
330
B3F8
100
AcDbEntity
  8
1
  6
Continuous
100
AcDbLine
 10
29.700205
 20
130.533884
 30
0.0
 11
32.69770499999999
 21
130.228507
 31
0.0
  0
LINE
  5
B4F2
330
B3F8
100
AcDbEntity
  8
1
  6
Continuous
100
AcDbLine
 10
29.637705
 20
131.959649
 30
0.0
 11
35.757705
 21
131.599746
 31
0.0
  0
LINE
  5
B4F3
330
B3F8
100
AcDbEntity
  8
1
  6
Continuous
100
AcDbLine
 10
29.637705
 20
131.779649
 30
0.0
 11
32.69770499999999
 21
131.419746
 31
0.0
  0
LINE
  5
B4F4
330
B3F8
100
AcDbEntity
  8
1
  6
Continuous
100
AcDbLine
 10
29.675448
 20
132.9450689999999
 30
0.0
 11
35.729205
 21
132.708602
 31
0.0
  0
LINE
  5
B4F5
330
B3F8
100
AcDbEntity
  8
1
  6
Continuous
100
AcDbLine
 10
32.69770499999999
 20
132.4716019999998
 30
0.0
 11
29.66620499999999
 21
132.7084299999999
 31
0.0
  0
LINE
  5
B4F6
330
B3F8
100
AcDbEntity
  8
1
  6
Continuous
100
AcDbLine
 10
29.650455
 20
133.8037919999998
 30
0.0
 11
35.74495499999999
 21
133.5979749999999
 31
0.0
  0
LINE
  5
B4F7
330
B3F8
100
AcDbEntity
  8
1
  6
Continuous
100
AcDbLine
 10
29.650455
 20
133.5982919999999
 30
0.0
 11
32.69770499999999
 21
133.3924749999999
 31
0.0
  0
LINE
  5
B4F8
330
B3F8
100
AcDbEntity
  8
1
  6
Continuous
100
AcDbLine
 10
29.76295499999999
 20
126.5611079999999
 30
0.0
 11
35.632455
 21
126.1310909999999
 31
0.0
  0
LINE
  5
B4F9
330
B3F8
100
AcDbEntity
  8
1
  6
Continuous
100
AcDbLine
 10
29.76295499999999
 20
126.130608
 30
0.0
 11
32.69770499999999
 21
125.7028889999999
 31
0.0
  0
LINE
  5
B4FA
330
B3F8
100
AcDbEntity
  8
1
  6
Continuous
100
AcDbLine
 10
29.739955
 20
127.7682269999999
 30
0.0
 11
32.69770499999999
 21
127.383649
 31
0.0
  0
LINE
  5
B4FB
330
B3F8
100
AcDbEntity
  8
1
  6
Continuous
100
AcDbLine
 10
29.739955
 20
128.1527269999999
 30
0.0
 11
35.65545499999998
 21
127.7681489999998
 31
0.0
  0
ARC
  5
B4FC
330
B3F8
100
AcDbEntity
  8
1
  6
Continuous
100
AcDbCircle
 10
29.71920499999999
 20
129.402285
 30
0.0
 40
0.1715
100
AcDbArc
 50
83.40322200000001
 51
270.0
  0
ARC
  5
B4FD
330
B3F8
100
AcDbEntity
  8
1
  6
Continuous
100
AcDbCircle
 10
29.700205
 20
130.686384
 30
0.0
 40
0.1525
100
AcDbArc
 50
84.16789599999999
 51
270.0
  0
ARC
  5
B4FE
330
B3F8
100
AcDbEntity
  8
1
  6
Continuous
100
AcDbCircle
 10
29.637705
 20
131.869649
 30
0.0
 40
0.09
100
AcDbArc
 50
90.0
 51
270.0
  0
ARC
  5
B4FF
330
B3F8
100
AcDbEntity
  8
1
  6
Continuous
100
AcDbCircle
 10
29.66620499999999
 20
132.82693
 30
0.0
 40
0.1185
100
AcDbArc
 50
85.52619399999997
 51
270.0
  0
ARC
  5
B500
330
B3F8
100
AcDbEntity
  8
1
  6
Continuous
100
AcDbCircle
 10
29.650455
 20
133.701042
 30
0.0
 40
0.10275
100
AcDbArc
 50
90.0
 51
270.0
  0
ARC
  5
B501
330
B3F8
100
AcDbEntity
  8
1
  6
Continuous
100
AcDbCircle
 10
29.76295499999999
 20
126.3458579999998
 30
0.0
 40
0.21525
100
AcDbArc
 50
90.0
 51
270.0
  0
ARC
  5
B502
330
B3F8
100
AcDbEntity
  8
1
  6
Continuous
100
AcDbCircle
 10
29.739955
 20
127.9604769999999
 30
0.0
 40
0.19225
100
AcDbArc
 50
90.0
 51
270.0
  0
LINE
  5
B503
330
B3F8
100
AcDbEntity
  8
1
  6
Continuous
100
AcDbLine
 10
32.69770499999999
 20
128.8874749999999
 30
0.0
 11
35.67620499999998
 21
128.8874749999999
 31
0.0
  0
LINE
  5
B504
330
B3F8
100
AcDbEntity
  8
1
  6
Continuous
100
AcDbLine
 10
32.69770499999999
 20
130.228507
 30
0.0
 11
35.695205
 21
130.228507
 31
0.0
  0
LINE
  5
B505
330
B3F8
100
AcDbEntity
  8
1
  6
Continuous
100
AcDbLine
 10
32.69770499999999
 20
131.419746
 30
0.0
 11
35.757705
 21
131.419746
 31
0.0
  0
LINE
  5
B506
330
B3F8
100
AcDbEntity
  8
1
  6
Continuous
100
AcDbLine
 10
32.69770499999999
 20
132.4716019999998
 30
0.0
 11
35.729205
 21
132.4716019999998
 31
0.0
  0
LINE
  5
B507
330
B3F8
100
AcDbEntity
  8
1
  6
Continuous
100
AcDbLine
 10
32.69770499999999
 20
133.3924749999999
 30
0.0
 11
35.74495499999999
 21
133.3924749999999
 31
0.0
  0
ARC
  5
B508
330
B3F8
100
AcDbEntity
  8
1
  6
Continuous
100
AcDbCircle
 10
35.67620499999998
 20
129.058975
 30
0.0
 40
0.1715
100
AcDbArc
 50
270.0
 51
90.0
  0
ARC
  5
B509
330
B3F8
100
AcDbEntity
  8
1
  6
Continuous
100
AcDbCircle
 10
35.695205
 20
130.381007
 30
0.0
 40
0.1525
100
AcDbArc
 50
270.0
 51
90.0
  0
ARC
  5
B50A
330
B3F8
100
AcDbEntity
  8
1
  6
Continuous
100
AcDbCircle
 10
35.757705
 20
131.509746
 30
0.0
 40
0.09
100
AcDbArc
 50
270.0
 51
90.0
  0
ARC
  5
B50B
330
B3F8
100
AcDbEntity
  8
1
  6
Continuous
100
AcDbCircle
 10
35.729205
 20
132.590102
 30
0.0
 40
0.1185
100
AcDbArc
 50
270.0
 51
90.0
  0
ARC
  5
B50C
330
B3F8
100
AcDbEntity
  8
1
  6
Continuous
100
AcDbCircle
 10
35.74495499999999
 20
133.495225
 30
0.0
 40
0.10275
100
AcDbArc
 50
270.0
 51
90.0
  0
ARC
  5
B50D
330
B3F8
100
AcDbEntity
  8
1
  6
Continuous
100
AcDbCircle
 10
35.632455
 20
125.9158409999999
 30
0.0
 40
0.21525
100
AcDbArc
 50
261.619662
 51
90.0
  0
ARC
  5
B50E
330
B3F8
100
AcDbEntity
  8
1
  6
Continuous
100
AcDbCircle
 10
35.65545499999998
 20
127.5758989999998
 30
0.0
 40
0.19225
100
AcDbArc
 50
270.0
 51
90.0
  0
LINE
  5
B50F
330
B3F8
100
AcDbEntity
  8
1
  6
Continuous
100
AcDbLine
 10
35.601084
 20
125.7028889999999
 30
0.0
 11
32.69770499999999
 21
125.7028889999999
 31
0.0
  0
LINE
  5
B510
330
B3F8
100
AcDbEntity
  8
1
  6
Continuous
100
AcDbLine
 10
35.65545499999998
 20
127.383649
 30
0.0
 11
32.69770499999999
 21
127.383649
 31
0.0
  0
LINE
  5
B511
330
B3F8
100
AcDbEntity
  8
1
  6
Continuous
100
AcDbLine
 10
29.64075
 20
134.5407229999999
 30
0.0
 11
35.75970499999999
 21
134.365174
 31
0.0
  0
LINE
  5
B512
330
B3F8
100
AcDbEntity
  8
1
  6
Continuous
100
AcDbLine
 10
29.63570499999999
 20
134.364868
 30
0.0
 11
32.69770499999999
 21
134.189174
 31
0.0
  0
ARC
  5
B513
330
B3F8
100
AcDbEntity
  8
1
  6
Continuous
100
AcDbCircle
 10
29.63570499999999
 20
134.452868
 30
0.0
 40
0.088
100
AcDbArc
 50
86.71334399999997
 51
270.0
  0
LINE
  5
B514
330
B3F8
100
AcDbEntity
  8
1
  6
Continuous
100
AcDbLine
 10
32.69770499999999
 20
134.189174
 30
0.0
 11
35.75970499999999
 21
134.189174
 31
0.0
  0
ARC
  5
B515
330
B3F8
100
AcDbEntity
  8
1
  6
Continuous
100
AcDbCircle
 10
35.75970499999999
 20
134.277174
 30
0.0
 40
0.088
100
AcDbArc
 50
270.0
 51
90.0
  0
LINE
  5
B516
330
B3F8
100
AcDbEntity
  8
1
  6
Continuous
100
AcDbLine
 10
29.95085599999999
 20
103.886881
 30
0.0
 11
35.888154
 21
103.5447069999999
 31
0.0
  0
LINE
  5
B517
330
B3F8
100
AcDbEntity
  8
1
  6
Continuous
100
AcDbLine
 10
29.931154
 20
103.545017
 30
0.0
 11
32.90965399999999
 21
103.2017069999999
 31
0.0
  0
LINE
  5
B518
330
B3F8
100
AcDbEntity
  8
1
  6
Continuous
100
AcDbLine
 10
29.71661
 20
107.3238939999999
 30
0.0
 11
35.58610999999999
 21
106.893877
 31
0.0
  0
ARC
  5
B519
330
B3F8
100
AcDbEntity
  8
1
  6
Continuous
100
AcDbCircle
 10
29.931154
 20
103.716517
 30
0.0
 40
0.1715
100
AcDbArc
 50
83.40322200000001
 51
270.0
  0
ARC
  5
B51A
330
B3F8
100
AcDbEntity
  8
1
  6
Continuous
100
AcDbCircle
 10
29.71661
 20
107.1086439999999
 30
0.0
 40
0.21525
100
AcDbArc
 50
90.0
 51
270.0
  0
LINE
  5
B51B
330
B3F8
100
AcDbEntity
  8
1
  6
Continuous
100
AcDbLine
 10
32.90965399999999
 20
103.2017069999999
 30
0.0
 11
35.888154
 21
103.2017069999999
 31
0.0
  0
ARC
  5
B51C
330
B3F8
100
AcDbEntity
  8
1
  6
Continuous
100
AcDbCircle
 10
35.888154
 20
103.3732069999998
 30
0.0
 40
0.1715
100
AcDbArc
 50
270.0
 51
90.0
  0
ARC
  5
B51D
330
B3F8
100
AcDbEntity
  8
1
  6
Continuous
100
AcDbCircle
 10
35.58610999999999
 20
106.678627
 30
0.0
 40
0.21525
100
AcDbArc
 50
261.619662
 51
90.0
  0
LINE
  5
B51E
330
B3F8
100
AcDbEntity
  8
1
  6
Continuous
100
AcDbLine
 10
35.55473899999999
 20
106.465675
 30
0.0
 11
32.65136
 21
106.465675
 31
0.0
  0
LINE
  5
B51F
330
B3F8
100
AcDbEntity
  8
1
  6
Continuous
100
AcDbLine
 10
29.71661
 20
106.8933939999999
 30
0.0
 11
32.65136
 21
106.465675
 31
0.0
  0
LINE
  5
B520
330
B3F8
100
AcDbEntity
  8
1
  6
Continuous
100
AcDbLine
 10
29.84576
 20
105.2167719999999
 30
0.0
 11
32.78051
 21
104.789053
 31
0.0
  0
LINE
  5
B521
330
B3F8
100
AcDbEntity
  8
1
  6
Continuous
100
AcDbLine
 10
35.683889
 20
104.789053
 30
0.0
 11
32.78051
 21
104.789053
 31
0.0
  0
ARC
  5
B522
330
B3F8
100
AcDbEntity
  8
1
  6
Continuous
100
AcDbCircle
 10
35.71526
 20
105.002005
 30
0.0
 40
0.21525
100
AcDbArc
 50
261.619662
 51
90.0
  0
ARC
  5
B523
330
B3F8
100
AcDbEntity
  8
1
  6
Continuous
100
AcDbCircle
 10
29.84576
 20
105.432022
 30
0.0
 40
0.21525
100
AcDbArc
 50
90.0
 51
270.0
  0
LINE
  5
B524
330
B3F8
100
AcDbEntity
  8
1
  6
Continuous
100
AcDbLine
 10
29.84576
 20
105.6472719999999
 30
0.0
 11
35.71526
 21
105.2172549999999
 31
0.0
  0
ARC
  5
B525
330
B3F8
100
AcDbEntity
  8
1
  6
Continuous
100
AcDbCircle
 10
102.7668479999999
 20
51.62039599999999
 30
0.0
 40
0.06225
100
AcDbArc
 50
0.0
 51
180.0
  0
LINE
  5
B526
330
B3F8
100
AcDbEntity
  8
1
  6
Continuous
100
AcDbLine
 10
102.8290979999999
 20
48.532646
 30
0.0
 11
102.6591969999999
 21
45.444896
 31
0.0
  0
LINE
  5
B527
330
B3F8
100
AcDbEntity
  8
1
  6
Continuous
100
AcDbLine
 10
102.8290979999999
 20
48.532646
 30
0.0
 11
102.8290979999999
 21
51.62039599999999
 31
0.0
  0
LINE
  5
B528
330
B3F8
100
AcDbEntity
  8
1
  6
Continuous
100
AcDbLine
 10
102.5346969999998
 20
45.444896
 30
0.0
 11
102.704598
 21
51.62039599999999
 31
0.0
  0
LINE
  5
B529
330
B3F8
100
AcDbEntity
  8
1
  6
Continuous
100
AcDbLine
 10
102.205783
 20
51.65289600000001
 30
0.0
 11
102.0263669999999
 21
45.414105
 31
0.0
  0
LINE
  5
B52A
330
B3F8
100
AcDbEntity
  8
1
  6
Continuous
100
AcDbLine
 10
102.085818
 20
45.41239599999999
 30
0.0
 11
102.2652829999999
 21
48.532646
 31
0.0
  0
LINE
  5
B52B
330
B3F8
100
AcDbEntity
  8
1
  6
Continuous
100
AcDbLine
 10
101.3349569999999
 20
45.416604
 30
0.0
 11
101.401329
 21
51.649396
 31
0.0
  0
LINE
  5
B52C
330
B3F8
100
AcDbEntity
  8
1
  6
Continuous
100
AcDbLine
 10
101.4678289999999
 20
48.532646
 30
0.0
 11
101.401449
 21
45.415896
 31
0.0
  0
LINE
  5
B52D
330
B3F8
100
AcDbEntity
  8
1
  6
Continuous
100
AcDbLine
 10
101.719669
 20
51.63639599999999
 30
0.0
 11
101.627211
 21
45.43027399999998
 31
0.0
  0
LINE
  5
B52E
330
B3F8
100
AcDbEntity
  8
1
  6
Continuous
100
AcDbLine
 10
101.71969
 20
45.428896
 30
0.0
 11
101.812169
 21
48.532646
 31
0.0
  0
ARC
  5
B52F
330
B3F8
100
AcDbEntity
  8
1
  6
Continuous
100
AcDbCircle
 10
102.5969469999999
 20
45.444896
 30
0.0
 40
0.06225
100
AcDbArc
 50
180.0
 51
0.0
  0
ARC
  5
B530
330
B3F8
100
AcDbEntity
  8
1
  6
Continuous
100
AcDbCircle
 10
102.056068
 20
45.41239599999999
 30
0.0
 40
0.02975
100
AcDbArc
 50
176.705468
 51
0.0
  0
ARC
  5
B531
330
B3F8
100
AcDbEntity
  8
1
  6
Continuous
100
AcDbCircle
 10
101.368199
 20
45.415896
 30
0.0
 40
0.03325
100
AcDbArc
 50
178.779766
 51
0.0
  0
ARC
  5
B532
330
B3F8
100
AcDbEntity
  8
1
  6
Continuous
100
AcDbCircle
 10
101.67344
 20
45.428896
 30
0.0
 40
0.04625
100
AcDbArc
 50
178.292947
 51
0.0
  0
LINE
  5
B533
330
B3F8
100
AcDbEntity
  8
1
  6
Continuous
100
AcDbLine
 10
102.2652829999999
 20
48.532646
 30
0.0
 11
102.2652829999999
 21
51.65289600000001
 31
0.0
  0
LINE
  5
B534
330
B3F8
100
AcDbEntity
  8
1
  6
Continuous
100
AcDbLine
 10
101.812169
 20
48.532646
 30
0.0
 11
101.812169
 21
51.63639599999999
 31
0.0
  0
ARC
  5
B535
330
B3F8
100
AcDbEntity
  8
1
  6
Continuous
100
AcDbCircle
 10
102.2355329999999
 20
51.65289600000001
 30
0.0
 40
0.02975
100
AcDbArc
 50
0.0
 51
180.0
  0
LINE
  5
B536
330
B3F8
100
AcDbEntity
  8
1
  6
Continuous
100
AcDbLine
 10
101.4678289999999
 20
48.532646
 30
0.0
 11
101.4678289999999
 21
51.649396
 31
0.0
  0
ARC
  5
B537
330
B3F8
100
AcDbEntity
  8
1
  6
Continuous
100
AcDbCircle
 10
101.4345789999999
 20
51.649396
 30
0.0
 40
0.03325
100
AcDbArc
 50
0.0
 51
180.0
  0
ARC
  5
B538
330
B3F8
100
AcDbEntity
  8
1
  6
Continuous
100
AcDbCircle
 10
101.765919
 20
51.63639599999999
 30
0.0
 40
0.04625
100
AcDbArc
 50
0.0
 51
180.0
  0
LINE
  5
B539
330
B3F8
100
AcDbEntity
  8
1
  6
Continuous
100
AcDbLine
 10
103.892518
 20
45.485396
 30
0.0
 11
104.0983349999999
 21
51.579896
 31
0.0
  0
LINE
  5
B53A
330
B3F8
100
AcDbEntity
  8
1
  6
Continuous
100
AcDbLine
 10
104.098018
 20
45.485396
 30
0.0
 11
104.303835
 21
48.532646
 31
0.0
  0
LINE
  5
B53B
330
B3F8
100
AcDbEntity
  8
1
  6
Continuous
100
AcDbLine
 10
103.155587
 20
45.47569099999999
 30
0.0
 11
103.331136
 21
51.59464599999999
 31
0.0
  0
LINE
  5
B53C
330
B3F8
100
AcDbEntity
  8
1
  6
Continuous
100
AcDbLine
 10
103.331442
 20
45.470646
 30
0.0
 11
103.507136
 21
48.532646
 31
0.0
  0
ARC
  5
B53D
330
B3F8
100
AcDbEntity
  8
1
  6
Continuous
100
AcDbCircle
 10
103.995268
 20
45.485396
 30
0.0
 40
0.10275
100
AcDbArc
 50
180.0
 51
0.0
  0
ARC
  5
B53E
330
B3F8
100
AcDbEntity
  8
1
  6
Continuous
100
AcDbCircle
 10
103.2434419999999
 20
45.470646
 30
0.0
 40
0.088
100
AcDbArc
 50
176.713344
 51
0.0
  0
LINE
  5
B53F
330
B3F8
100
AcDbEntity
  8
1
  6
Continuous
100
AcDbLine
 10
104.303835
 20
48.532646
 30
0.0
 11
104.303835
 21
51.579896
 31
0.0
  0
LINE
  5
B540
330
B3F8
100
AcDbEntity
  8
1
  6
Continuous
100
AcDbLine
 10
103.507136
 20
48.532646
 30
0.0
 11
103.507136
 21
51.59464599999999
 31
0.0
  0
ARC
  5
B541
330
B3F8
100
AcDbEntity
  8
1
  6
Continuous
100
AcDbCircle
 10
104.201085
 20
51.579896
 30
0.0
 40
0.10275
100
AcDbArc
 50
0.0
 51
180.0
  0
ARC
  5
B542
330
B3F8
100
AcDbEntity
  8
1
  6
Continuous
100
AcDbCircle
 10
103.4191359999999
 20
51.59464599999999
 30
0.0
 40
0.088
100
AcDbArc
 50
0.0
 51
180.0
  0
LINE
  5
B543
330
B3F8
100
AcDbEntity
  8
1
  6
Continuous
100
AcDbLine
 10
108.123661
 20
45.573848
 30
0.0
 11
108.465835
 21
51.51114599999999
 31
0.0
  0
LINE
  5
B544
330
B3F8
100
AcDbEntity
  8
1
  6
Continuous
100
AcDbLine
 10
108.4655249999999
 20
45.554146
 30
0.0
 11
108.808835
 21
48.532646
 31
0.0
  0
LINE
  5
B545
330
B3F8
100
AcDbEntity
  8
1
  6
Continuous
100
AcDbLine
 10
106.8582149999999
 20
45.55064199999999
 30
0.0
 11
107.162803
 21
51.530146
 31
0.0
  0
LINE
  5
B546
330
B3F8
100
AcDbEntity
  8
1
  6
Continuous
100
AcDbLine
 10
107.1624259999999
 20
45.53514599999998
 30
0.0
 11
107.467803
 21
48.532646
 31
0.0
  0
LINE
  5
B547
330
B3F8
100
AcDbEntity
  8
1
  6
Continuous
100
AcDbLine
 10
105.736661
 20
45.472646
 30
0.0
 11
106.0965639999998
 21
51.592646
 31
0.0
  0
LINE
  5
B548
330
B3F8
100
AcDbEntity
  8
1
  6
Continuous
100
AcDbLine
 10
105.916661
 20
45.472646
 30
0.0
 11
106.2765639999998
 21
48.532646
 31
0.0
  0
LINE
  5
B549
330
B3F8
100
AcDbEntity
  8
1
  6
Continuous
100
AcDbLine
 10
104.7512409999999
 20
45.510389
 30
0.0
 11
104.987708
 21
51.564146
 31
0.0
  0
LINE
  5
B54A
330
B3F8
100
AcDbEntity
  8
1
  6
Continuous
100
AcDbLine
 10
105.224708
 20
48.532646
 30
0.0
 11
104.98788
 21
45.50114599999999
 31
0.0
  0
LINE
  5
B54B
330
B3F8
100
AcDbEntity
  8
1
  6
Continuous
100
AcDbLine
 10
111.1352019999998
 20
45.597896
 30
0.0
 11
111.565219
 21
51.467396
 31
0.0
  0
LINE
  5
B54C
330
B3F8
100
AcDbEntity
  8
1
  6
Continuous
100
AcDbLine
 10
111.5657019999999
 20
45.597896
 30
0.0
 11
111.993421
 21
48.532646
 31
0.0
  0
LINE
  5
B54D
330
B3F8
100
AcDbEntity
  8
1
  6
Continuous
100
AcDbLine
 10
109.928083
 20
45.574896
 30
0.0
 11
110.312661
 21
48.532646
 31
0.0
  0
LINE
  5
B54E
330
B3F8
100
AcDbEntity
  8
1
  6
Continuous
100
AcDbLine
 10
112.8105829999999
 20
45.88152199999998
 30
0.0
 11
113.404008
 21
51.519056
 31
0.0
  0
LINE
  5
B54F
330
B3F8
100
AcDbEntity
  8
1
  6
Continuous
100
AcDbLine
 10
113.404008
 20
45.81905599999998
 30
0.0
 11
113.971833
 21
48.516224
 31
0.0
  0
LINE
  5
B550
330
B3F8
100
AcDbEntity
  8
1
  6
Continuous
100
AcDbLine
 10
109.543583
 20
45.574896
 30
0.0
 11
109.928161
 21
51.490396
 31
0.0
  0
ARC
  5
B551
330
B3F8
100
AcDbEntity
  8
1
  6
Continuous
100
AcDbCircle
 10
108.294025
 20
45.554146
 30
0.0
 40
0.1715
100
AcDbArc
 50
173.403222
 51
0.0
  0
ARC
  5
B552
330
B3F8
100
AcDbEntity
  8
1
  6
Continuous
100
AcDbCircle
 10
107.0099259999999
 20
45.53514599999998
 30
0.0
 40
0.1525
100
AcDbArc
 50
174.1678959999999
 51
0.0
  0
ARC
  5
B553
330
B3F8
100
AcDbEntity
  8
1
  6
Continuous
100
AcDbCircle
 10
105.826661
 20
45.472646
 30
0.0
 40
0.09
100
AcDbArc
 50
180.0
 51
0.0
  0
ARC
  5
B554
330
B3F8
100
AcDbEntity
  8
1
  6
Continuous
100
AcDbCircle
 10
104.86938
 20
45.50114599999999
 30
0.0
 40
0.1185
100
AcDbArc
 50
175.526194
 51
0.0
  0
ARC
  5
B555
330
B3F8
100
AcDbEntity
  8
1
  6
Continuous
100
AcDbCircle
 10
111.3504519999999
 20
45.597896
 30
0.0
 40
0.21525
100
AcDbArc
 50
180.0
 51
0.0
  0
ARC
  5
B556
330
B3F8
100
AcDbEntity
  8
1
  6
Continuous
100
AcDbCircle
 10
113.104008
 20
45.81905599999998
 30
0.0
 40
0.3
100
AcDbArc
 50
167.981988
 51
0.0
  0
ARC
  5
B557
330
B3F8
100
AcDbEntity
  8
1
  6
Continuous
100
AcDbCircle
 10
109.735833
 20
45.574896
 30
0.0
 40
0.19225
100
AcDbArc
 50
180.0
 51
0.0
  0
LINE
  5
B558
330
B3F8
100
AcDbEntity
  8
1
  6
Continuous
100
AcDbLine
 10
108.808835
 20
48.532646
 30
0.0
 11
108.808835
 21
51.51114599999999
 31
0.0
  0
LINE
  5
B559
330
B3F8
100
AcDbEntity
  8
1
  6
Continuous
100
AcDbLine
 10
107.467803
 20
48.532646
 30
0.0
 11
107.467803
 21
51.530146
 31
0.0
  0
LINE
  5
B55A
330
B3F8
100
AcDbEntity
  8
1
  6
Continuous
100
AcDbLine
 10
106.2765639999998
 20
48.532646
 30
0.0
 11
106.2765639999998
 21
51.592646
 31
0.0
  0
LINE
  5
B55B
330
B3F8
100
AcDbEntity
  8
1
  6
Continuous
100
AcDbLine
 10
105.224708
 20
48.532646
 30
0.0
 11
105.224708
 21
51.564146
 31
0.0
  0
ARC
  5
B55C
330
B3F8
100
AcDbEntity
  8
1
  6
Continuous
100
AcDbCircle
 10
108.6373349999999
 20
51.51114599999999
 30
0.0
 40
0.1715
100
AcDbArc
 50
0.0
 51
180.0
  0
ARC
  5
B55D
330
B3F8
100
AcDbEntity
  8
1
  6
Continuous
100
AcDbCircle
 10
107.315303
 20
51.530146
 30
0.0
 40
0.1525
100
AcDbArc
 50
0.0
 51
180.0
  0
ARC
  5
B55E
330
B3F8
100
AcDbEntity
  8
1
  6
Continuous
100
AcDbCircle
 10
106.1865639999999
 20
51.592646
 30
0.0
 40
0.09
100
AcDbArc
 50
0.0
 51
180.0
  0
ARC
  5
B55F
330
B3F8
100
AcDbEntity
  8
1
  6
Continuous
100
AcDbCircle
 10
105.106208
 20
51.564146
 30
0.0
 40
0.1185
100
AcDbArc
 50
0.0
 51
180.0
  0
ARC
  5
B560
330
B3F8
100
AcDbEntity
  8
1
  6
Continuous
100
AcDbCircle
 10
111.780469
 20
51.467396
 30
0.0
 40
0.21525
100
AcDbArc
 50
351.619662
 51
180.0
  0
ARC
  5
B561
330
B3F8
100
AcDbEntity
  8
1
  6
Continuous
100
AcDbCircle
 10
110.120411
 20
51.490396
 30
0.0
 40
0.19225
100
AcDbArc
 50
0.0
 51
180.0
  0
LINE
  5
B562
330
B3F8
100
AcDbEntity
  8
1
  6
Continuous
100
AcDbLine
 10
111.993421
 20
51.436025
 30
0.0
 11
111.993421
 21
48.532646
 31
0.0
  0
LINE
  5
B563
330
B3F8
100
AcDbEntity
  8
1
  6
Continuous
100
AcDbLine
 10
110.312661
 20
51.490396
 30
0.0
 11
110.312661
 21
48.532646
 31
0.0
  0
LINE
  5
B564
330
B3F8
100
AcDbEntity
  8
1
  6
Continuous
100
AcDbLine
 10
114.004008
 20
48.825239
 30
0.0
 11
114.004008
 21
51.519056
 31
0.0
  0
ARC
  5
B565
330
B3F8
100
AcDbEntity
  8
1
  6
Continuous
100
AcDbCircle
 10
113.704008
 20
51.519056
 30
0.0
 40
0.3
100
AcDbArc
 50
0.0
 51
180.0
  0
ARC
  5
B566
330
B3F8
100
AcDbEntity
  8
1
  6
Continuous
100
AcDbCircle
 10
112.504008
 20
48.825239
 30
0.0
 40
1.5
100
AcDbArc
 50
348.1113419999999
 51
0.0
  0
ARC
  5
B567
330
B3F8
100
AcDbEntity
  8
1
  6
Continuous
100
AcDbCircle
 10
101.1413169999999
 20
51.614761
 30
0.0
 40
0.04625
100
AcDbArc
 50
0.0
 51
180.0
  0
LINE
  5
B568
330
B3F8
100
AcDbEntity
  8
1
  6
Continuous
100
AcDbLine
 10
101.187567
 20
48.51101100000001
 30
0.0
 11
101.187567
 21
51.614761
 31
0.0
  0
ARC
  5
B569
330
B3F8
100
AcDbEntity
  8
1
  6
Continuous
100
AcDbCircle
 10
100.809977
 20
51.627761
 30
0.0
 40
0.03325
100
AcDbArc
 50
0.0
 51
180.0
  0
LINE
  5
B56A
330
B3F8
100
AcDbEntity
  8
1
  6
Continuous
100
AcDbLine
 10
100.8432269999999
 20
48.51101100000001
 30
0.0
 11
100.8432269999999
 21
51.627761
 31
0.0
  0
ARC
  5
B56B
330
B3F8
100
AcDbEntity
  8
1
  6
Continuous
100
AcDbCircle
 10
101.0488379999999
 20
45.40726099999999
 30
0.0
 40
0.04625
100
AcDbArc
 50
178.292947
 51
0.0
  0
ARC
  5
B56C
330
B3F8
100
AcDbEntity
  8
1
  6
Continuous
100
AcDbCircle
 10
100.7435969999998
 20
45.394261
 30
0.0
 40
0.03325
100
AcDbArc
 50
178.779766
 51
0.0
  0
LINE
  5
B56D
330
B3F8
100
AcDbEntity
  8
1
  6
Continuous
100
AcDbLine
 10
101.0950879999999
 20
45.40726099999999
 30
0.0
 11
101.187567
 21
48.51101100000001
 31
0.0
  0
LINE
  5
B56E
330
B3F8
100
AcDbEntity
  8
1
  6
Continuous
100
AcDbLine
 10
101.0950669999999
 20
51.614761
 30
0.0
 11
101.0026089999998
 21
45.408639
 31
0.0
  0
LINE
  5
B56F
330
B3F8
100
AcDbEntity
  8
1
  6
Continuous
100
AcDbLine
 10
100.8432269999999
 20
48.51101100000001
 30
0.0
 11
100.776847
 21
45.394261
 31
0.0
  0
LINE
  5
B570
330
B3F8
100
AcDbEntity
  8
1
  6
Continuous
100
AcDbLine
 10
100.710355
 20
45.394969
 30
0.0
 11
100.7767269999998
 21
51.627761
 31
0.0
  0
LINE
  5
B571
330
B3F8
100
AcDbEntity
  8
1
  6
Continuous
100
AcDbLine
 10
200.945952
 20
125.7159029999999
 30
0.0
 11
202.5828929999999
 21
124.7337379999999
 31
0.0
  0
LINE
  5
B572
330
B3F8
100
AcDbEntity
  8
1
  6
Continuous
100
AcDbLine
 10
203.3550509999999
 20
124.6249959999999
 30
0.0
 11
207.1882889999999
 21
125.6471929999999
 31
0.0
  0
LINE
  5
B573
330
B3F8
100
AcDbEntity
  8
1
  6
Continuous
100
AcDbLine
 10
207.7036139999999
 20
125.6471929999999
 30
0.0
 11
211.536852
 21
124.6249959999999
 31
0.0
  0
LINE
  5
B574
330
B3F8
100
AcDbEntity
  8
1
  6
Continuous
100
AcDbLine
 10
212.30901
 20
124.7337379999999
 30
0.0
 11
213.9459519999999
 21
125.7159029999999
 31
0.0
  0
LINE
  5
B575
330
B3F8
100
AcDbEntity
  8
1
  6
Continuous
100
AcDbLine
 10
213.9459519999999
 20
125.4659259999999
 30
0.0
 11
212.30901
 21
124.483762
 31
0.0
  0
LINE
  5
B576
330
B3F8
100
AcDbEntity
  8
1
  6
Continuous
100
AcDbLine
 10
211.536852
 20
124.37502
 30
0.0
 11
207.7036139999999
 21
125.3972159999999
 31
0.0
  0
LINE
  5
B577
330
B3F8
100
AcDbEntity
  8
1
  6
Continuous
100
AcDbLine
 10
207.1882889999999
 20
125.3972159999999
 30
0.0
 11
203.3550509999999
 21
124.37502
 31
0.0
  0
LINE
  5
B578
330
B3F8
100
AcDbEntity
  8
1
  6
Continuous
100
AcDbLine
 10
202.5828929999999
 20
124.483762
 30
0.0
 11
200.945952
 21
125.4659259999999
 31
0.0
  0
ARC
  5
B579
330
B3F8
100
AcDbEntity
  8
1
  6
Continuous
100
AcDbCircle
 10
211.7945149999999
 20
125.3412549999999
 30
0.0
 40
1.0
100
AcDbArc
 50
255.0685829999999
 51
300.9637569999998
  0
ARC
  5
B57A
330
B3F8
100
AcDbEntity
  8
1
  6
Continuous
100
AcDbCircle
 10
203.0973889999999
 20
125.3412549999999
 30
0.0
 40
1.0
100
AcDbArc
 50
239.036243
 51
284.9314169999999
  0
ARC
  5
B57B
330
B3F8
100
AcDbEntity
  8
1
  6
Continuous
100
AcDbCircle
 10
203.0973889999999
 20
125.591231
 30
0.0
 40
1.0
100
AcDbArc
 50
239.036243
 51
284.9314169999999
  0
ARC
  5
B57C
330
B3F8
100
AcDbEntity
  8
1
  6
Continuous
100
AcDbCircle
 10
211.7945149999999
 20
125.591231
 30
0.0
 40
1.0
100
AcDbArc
 50
255.0685829999999
 51
300.9637569999998
  0
ARC
  5
B57D
330
B3F8
100
AcDbEntity
  8
1
  6
Continuous
100
AcDbCircle
 10
207.445952
 20
124.430981
 30
0.0
 40
1.0
100
AcDbArc
 50
75.06858299999997
 51
104.9314169999999
  0
ARC
  5
B57E
330
B3F8
100
AcDbEntity
  8
1
  6
Continuous
100
AcDbCircle
 10
207.445952
 20
124.680958
 30
0.0
 40
1.0
100
AcDbArc
 50
75.06858299999997
 51
104.9314169999999
  0
LINE
  5
B57F
330
B3F8
100
AcDbEntity
  8
1
  6
Continuous
100
AcDbLine
 10
207.1543859999999
 20
127.6298039999999
 30
0.0
 11
204.460569
 21
127.6298039999999
 31
0.0
  0
LINE
  5
B580
330
B3F8
100
AcDbEntity
  8
1
  6
Continuous
100
AcDbLine
 10
210.0981029999999
 20
126.4363789999999
 30
0.0
 11
204.460569
 21
127.0298039999999
 31
0.0
  0
ARC
  5
B581
330
B3F8
100
AcDbEntity
  8
1
  6
Continuous
100
AcDbCircle
 10
204.460569
 20
127.329804
 30
0.0
 40
0.3
100
AcDbArc
 50
90.0
 51
270.0
  0
ARC
  5
B582
330
B3F8
100
AcDbEntity
  8
1
  6
Continuous
100
AcDbCircle
 10
207.1543859999999
 20
126.129804
 30
0.0
 40
1.5
100
AcDbArc
 50
78.11134200000002
 51
90.0
  0
ARC
  5
B583
330
B3F8
100
AcDbEntity
  8
1
  6
Continuous
100
AcDbCircle
 10
210.1605689999999
 20
126.729804
 30
0.0
 40
0.3
100
AcDbArc
 50
257.981988
 51
90.0
  0
LINE
  5
B584
330
B3F8
100
AcDbEntity
  8
1
  6
Continuous
100
AcDbLine
 10
210.1605689999999
 20
127.0298039999999
 30
0.0
 11
207.463401
 21
127.597629
 31
0.0
  0
LINE
  5
B585
330
B3F8
100
AcDbEntity
  8
1
  6
Continuous
100
AcDbLine
 10
210.0981079999999
 20
128.370945
 30
0.0
 11
204.460574
 21
128.96437
 31
0.0
  0
LINE
  5
B586
330
B3F8
100
AcDbEntity
  8
1
  6
Continuous
100
AcDbLine
 10
207.1543909999999
 20
129.56437
 30
0.0
 11
204.460574
 21
129.56437
 31
0.0
  0
ARC
  5
B587
330
B3F8
100
AcDbEntity
  8
1
  6
Continuous
100
AcDbCircle
 10
204.460574
 20
129.2643699999999
 30
0.0
 40
0.3
100
AcDbArc
 50
90.0
 51
270.0
  0
LINE
  5
B588
330
B3F8
100
AcDbEntity
  8
1
  6
Continuous
100
AcDbLine
 10
210.160574
 20
128.96437
 30
0.0
 11
207.463406
 21
129.5321949999998
 31
0.0
  0
ARC
  5
B589
330
B3F8
100
AcDbEntity
  8
1
  6
Continuous
100
AcDbCircle
 10
210.160574
 20
128.6643699999999
 30
0.0
 40
0.3
100
AcDbArc
 50
257.981988
 51
90.0
  0
ARC
  5
B58A
330
B3F8
100
AcDbEntity
  8
1
  6
Continuous
100
AcDbCircle
 10
207.1543909999999
 20
128.0643699999999
 30
0.0
 40
1.5
100
AcDbArc
 50
78.11134200000002
 51
90.0
  0
LINE
  5
B58B
330
B3F8
100
AcDbEntity
  8
1
  6
Continuous
100
AcDbLine
 10
209.9689589999999
 20
130.0475669999999
 30
0.0
 11
204.3314249999998
 21
130.6409919999999
 31
0.0
  0
LINE
  5
B58C
330
B3F8
100
AcDbEntity
  8
1
  6
Continuous
100
AcDbLine
 10
207.025242
 20
131.240992
 30
0.0
 11
204.3314249999998
 21
131.240992
 31
0.0
  0
ARC
  5
B58D
330
B3F8
100
AcDbEntity
  8
1
  6
Continuous
100
AcDbCircle
 10
204.3314249999998
 20
130.940992
 30
0.0
 40
0.3
100
AcDbArc
 50
90.0
 51
270.0
  0
LINE
  5
B58E
330
B3F8
100
AcDbEntity
  8
1
  6
Continuous
100
AcDbLine
 10
210.031425
 20
130.6409919999999
 30
0.0
 11
207.334257
 21
131.2088169999997
 31
0.0
  0
ARC
  5
B58F
330
B3F8
100
AcDbEntity
  8
1
  6
Continuous
100
AcDbCircle
 10
210.031425
 20
130.3409919999998
 30
0.0
 40
0.3
100
AcDbArc
 50
257.981988
 51
90.0
  0
ARC
  5
B590
330
B3F8
100
AcDbEntity
  8
1
  6
Continuous
100
AcDbCircle
 10
207.025242
 20
129.7409919999997
 30
0.0
 40
1.5
100
AcDbArc
 50
78.11134200000002
 51
90.0
  0
LINE
  5
B591
330
B3F8
100
AcDbEntity
  8
1
  6
Continuous
100
AcDbLine
 10
210.2096169999998
 20
131.543015
 30
0.0
 11
204.340117
 21
131.9730319999999
 31
0.0
  0
ARC
  5
B592
330
B3F8
100
AcDbEntity
  8
1
  6
Continuous
100
AcDbCircle
 10
204.340117
 20
132.1882819999999
 30
0.0
 40
0.21525
100
AcDbArc
 50
81.619662
 51
270.0
  0
LINE
  5
B593
330
B3F8
100
AcDbEntity
  8
1
  6
Continuous
100
AcDbLine
 10
210.2096169999998
 20
131.9735149999999
 30
0.0
 11
207.274867
 21
132.4012339999999
 31
0.0
  0
ARC
  5
B594
330
B3F8
100
AcDbEntity
  8
1
  6
Continuous
100
AcDbCircle
 10
210.2096169999998
 20
131.758265
 30
0.0
 40
0.21525
100
AcDbArc
 50
270.0
 51
90.0
  0
LINE
  5
B595
330
B3F8
100
AcDbEntity
  8
1
  6
Continuous
100
AcDbLine
 10
204.371488
 20
132.4012339999999
 30
0.0
 11
207.274867
 21
132.4012339999999
 31
0.0
  0
LINE
  5
B596
330
B3F8
100
AcDbEntity
  8
1
  6
Continuous
100
AcDbLine
 10
210.252585
 20
132.757203
 30
0.0
 11
204.3830849999999
 21
133.18722
 31
0.0
  0
LINE
  5
B597
330
B3F8
100
AcDbEntity
  8
1
  6
Continuous
100
AcDbLine
 10
204.4144559999999
 20
133.615422
 30
0.0
 11
207.317835
 21
133.615422
 31
0.0
  0
ARC
  5
B598
330
B3F8
100
AcDbEntity
  8
1
  6
Continuous
100
AcDbCircle
 10
204.3830849999999
 20
133.40247
 30
0.0
 40
0.21525
100
AcDbArc
 50
81.619662
 51
270.0
  0
LINE
  5
B599
330
B3F8
100
AcDbEntity
  8
1
  6
Continuous
100
AcDbLine
 10
210.252585
 20
133.187703
 30
0.0
 11
207.317835
 21
133.615422
 31
0.0
  0
ARC
  5
B59A
330
B3F8
100
AcDbEntity
  8
1
  6
Continuous
100
AcDbCircle
 10
210.252585
 20
132.972453
 30
0.0
 40
0.21525
100
AcDbArc
 50
270.0
 51
90.0
  0
LINE
  5
B59B
330
B3F8
100
AcDbEntity
  8
1
  6
Continuous
100
AcDbLine
 10
210.404729
 20
133.8739759999999
 30
0.0
 11
209.314364
 21
133.9448629999999
 31
0.0
  0
ARC
  5
B59C
330
B3F8
100
AcDbEntity
  8
1
  6
Continuous
100
AcDbCircle
 10
204.4892289999999
 20
134.450804
 30
0.0
 40
0.19225
100
AcDbArc
 50
129.5819419999999
 51
270.0
  0
LINE
  5
B59D
330
B3F8
100
AcDbEntity
  8
1
  6
Continuous
100
AcDbLine
 10
210.404729
 20
134.258476
 30
0.0
 11
210.0672309999999
 21
134.302359
 31
0.0
  0
ARC
  5
B59E
330
B3F8
100
AcDbEntity
  8
1
  6
Continuous
100
AcDbCircle
 10
210.404729
 20
134.0662259999998
 30
0.0
 40
0.19225
100
AcDbArc
 50
270.0
 51
90.0
  0
LINE
  5
B59F
330
B3F8
100
AcDbEntity
  8
1
  6
Continuous
100
AcDbLine
 10
204.9580189999999
 20
134.228077
 30
0.0
 11
204.4892289999999
 21
134.2585539999997
 31
0.0
  0
ARC
  5
B5A0
330
B3F8
100
AcDbEntity
  8
1
  6
Continuous
100
AcDbCircle
 10
106.641583
 20
195.9031379999999
 30
0.0
 40
0.1715
100
AcDbArc
 50
353.403222
 51
180.0
  0
LINE
  5
B5A1
330
B3F8
100
AcDbEntity
  8
1
  6
Continuous
100
AcDbLine
 10
106.811947
 20
195.8834359999999
 30
0.0
 11
106.469773
 21
189.9461379999999
 31
0.0
  0
LINE
  5
B5A2
330
B3F8
100
AcDbEntity
  8
1
  6
Continuous
100
AcDbLine
 10
107.773182
 20
195.9221379999999
 30
0.0
 11
107.5980139999999
 21
194.202742
 31
0.0
  0
ARC
  5
B5A3
330
B3F8
100
AcDbEntity
  8
1
  6
Continuous
100
AcDbCircle
 10
107.6203049999999
 20
189.9271379999999
 30
0.0
 40
0.1525
100
AcDbArc
 50
180.0
 51
0.0
  0
LINE
  5
B5A4
330
B3F8
100
AcDbEntity
  8
1
  6
Continuous
100
AcDbLine
 10
107.4678049999999
 20
191.9029169999998
 30
0.0
 11
107.4678049999999
 21
189.9271379999999
 31
0.0
  0
LINE
  5
B5A5
330
B3F8
100
AcDbEntity
  8
1
  6
Continuous
100
AcDbLine
 10
106.470083
 20
195.9031379999999
 30
0.0
 11
106.1267729999999
 21
192.924638
 31
0.0
  0
LINE
  5
B5A6
330
B3F8
100
AcDbEntity
  8
1
  6
Continuous
100
AcDbLine
 10
105.007525
 20
195.8823879999999
 30
0.0
 11
104.6229469999999
 21
192.924638
 31
0.0
  0
ARC
  5
B5A7
330
B3F8
100
AcDbEntity
  8
1
  6
Continuous
100
AcDbCircle
 10
105.1997749999999
 20
195.8823879999999
 30
0.0
 40
0.19225
100
AcDbArc
 50
0.0
 51
180.0
  0
ARC
  5
B5A8
330
B3F8
100
AcDbEntity
  8
1
  6
Continuous
100
AcDbCircle
 10
106.2982729999999
 20
189.9461379999999
 30
0.0
 40
0.1715
100
AcDbArc
 50
180.0
 51
0.0
  0
ARC
  5
B5A9
330
B3F8
100
AcDbEntity
  8
1
  6
Continuous
100
AcDbCircle
 10
104.8151969999999
 20
189.9668879999999
 30
0.0
 40
0.19225
100
AcDbArc
 50
180.0
 51
0.0
  0
LINE
  5
B5AA
330
B3F8
100
AcDbEntity
  8
1
  6
Continuous
100
AcDbLine
 10
105.392025
 20
195.8823879999999
 30
0.0
 11
105.0074469999999
 21
189.9668879999999
 31
0.0
  0
LINE
  5
B5AB
330
B3F8
100
AcDbEntity
  8
1
  6
Continuous
100
AcDbLine
 10
106.1267729999999
 20
192.924638
 30
0.0
 11
106.1267729999999
 21
189.9461379999999
 31
0.0
  0
LINE
  5
B5AC
330
B3F8
100
AcDbEntity
  8
1
  6
Continuous
100
AcDbLine
 10
104.6229469999999
 20
189.9668879999999
 30
0.0
 11
104.6229469999999
 21
192.924638
 31
0.0
  0
ARC
  5
B5AD
330
B3F8
100
AcDbEntity
  8
1
  6
Continuous
100
AcDbCircle
 10
107.9256819999999
 20
195.9221379999999
 30
0.0
 40
0.1525
100
AcDbArc
 50
354.167896
 51
180.0
  0
LINE
  5
B5AE
330
B3F8
100
AcDbEntity
  8
1
  6
Continuous
100
AcDbLine
 10
108.0773929999998
 20
195.906642
 30
0.0
 11
108.031873
 21
195.013026
 31
0.0
  0
LINE
  5
B5AF
330
B3F8
100
AcDbEntity
  8
1
  6
Continuous
100
AcDbLine
 10
102.8844
 20
196.0491239999998
 30
0.0
 11
102.5244969999999
 21
192.989124
 31
0.0
  0
LINE
  5
B5B0
330
B3F8
100
AcDbEntity
  8
1
  6
Continuous
100
AcDbLine
 10
103.576353
 20
192.989124
 30
0.0
 11
103.813181
 21
196.0206239999999
 31
0.0
  0
ARC
  5
B5B1
330
B3F8
100
AcDbEntity
  8
1
  6
Continuous
100
AcDbCircle
 10
102.9743999999999
 20
196.0491239999998
 30
0.0
 40
0.09
100
AcDbArc
 50
0.0
 51
180.0
  0
ARC
  5
B5B2
330
B3F8
100
AcDbEntity
  8
1
  6
Continuous
100
AcDbCircle
 10
102.614497
 20
189.929124
 30
0.0
 40
0.09
100
AcDbArc
 50
180.0
 51
0.0
  0
ARC
  5
B5B3
330
B3F8
100
AcDbEntity
  8
1
  6
Continuous
100
AcDbCircle
 10
103.6948529999999
 20
189.957624
 30
0.0
 40
0.1185
100
AcDbArc
 50
180.0
 51
0.0
  0
LINE
  5
B5B4
330
B3F8
100
AcDbEntity
  8
1
  6
Continuous
100
AcDbLine
 10
103.0644
 20
196.0491239999998
 30
0.0
 11
102.7044969999999
 21
189.929124
 31
0.0
  0
LINE
  5
B5B5
330
B3F8
100
AcDbEntity
  8
1
  6
Continuous
100
AcDbLine
 10
102.5244969999999
 20
192.989124
 30
0.0
 11
102.5244969999999
 21
189.929124
 31
0.0
  0
LINE
  5
B5B6
330
B3F8
100
AcDbEntity
  8
1
  6
Continuous
100
AcDbLine
 10
103.576353
 20
192.989124
 30
0.0
 11
103.576353
 21
189.957624
 31
0.0
  0
ARC
  5
B5B7
330
B3F8
100
AcDbEntity
  8
1
  6
Continuous
100
AcDbCircle
 10
103.931681
 20
196.0206239999999
 30
0.0
 40
0.1185
100
AcDbArc
 50
355.5261939999998
 51
180.0
  0
LINE
  5
B5B8
330
B3F8
100
AcDbEntity
  8
1
  6
Continuous
100
AcDbLine
 10
104.04982
 20
196.011381
 30
0.0
 11
103.813353
 21
189.957624
 31
0.0
  0
LINE
  5
B5B9
330
B3F8
100
AcDbEntity
  8
1
  6
Continuous
100
AcDbLine
 10
101.193485
 20
193.0536129999999
 30
0.0
 11
101.363386
 21
196.1413629999999
 31
0.0
  0
LINE
  5
B5BA
330
B3F8
100
AcDbEntity
  8
1
  6
Continuous
100
AcDbLine
 10
101.9367649999999
 20
196.1738629999999
 30
0.0
 11
101.7573
 21
193.0536129999999
 31
0.0
  0
ARC
  5
B5BB
330
B3F8
100
AcDbEntity
  8
1
  6
Continuous
100
AcDbCircle
 10
101.425636
 20
196.1413629999999
 30
0.0
 40
0.06225
100
AcDbArc
 50
0.0
 51
180.0
  0
LINE
  5
B5BC
330
B3F8
100
AcDbEntity
  8
1
  6
Continuous
100
AcDbLine
 10
100.691141
 20
196.1156129999999
 30
0.0
 11
100.5154469999999
 21
193.0536129999999
 31
0.0
  0
ARC
  5
B5BD
330
B3F8
100
AcDbEntity
  8
1
  6
Continuous
100
AcDbCircle
 10
100.779141
 20
196.1156129999999
 30
0.0
 40
0.088
100
AcDbArc
 50
356.713344
 51
180.0
  0
ARC
  5
B5BE
330
B3F8
100
AcDbEntity
  8
1
  6
Continuous
100
AcDbCircle
 10
101.255735
 20
189.9658629999999
 30
0.0
 40
0.06225
100
AcDbArc
 50
180.0
 51
0.0
  0
ARC
  5
B5BF
330
B3F8
100
AcDbEntity
  8
1
  6
Continuous
100
AcDbCircle
 10
101.7870499999998
 20
189.9333629999999
 30
0.0
 40
0.02975
100
AcDbArc
 50
180.0
 51
0.0
  0
ARC
  5
B5C0
330
B3F8
100
AcDbEntity
  8
1
  6
Continuous
100
AcDbCircle
 10
100.603447
 20
189.991613
 30
0.0
 40
0.088
100
AcDbArc
 50
180.0
 51
0.0
  0
LINE
  5
B5C1
330
B3F8
100
AcDbEntity
  8
1
  6
Continuous
100
AcDbLine
 10
101.193485
 20
193.0536129999999
 30
0.0
 11
101.193485
 21
189.9658629999999
 31
0.0
  0
LINE
  5
B5C2
330
B3F8
100
AcDbEntity
  8
1
  6
Continuous
100
AcDbLine
 10
101.487886
 20
196.1413629999999
 30
0.0
 11
101.3179849999998
 21
189.9658629999999
 31
0.0
  0
LINE
  5
B5C3
330
B3F8
100
AcDbEntity
  8
1
  6
Continuous
100
AcDbLine
 10
101.7573
 20
193.0536129999999
 30
0.0
 11
101.7573
 21
189.9333629999999
 31
0.0
  0
LINE
  5
B5C4
330
B3F8
100
AcDbEntity
  8
1
  6
Continuous
100
AcDbLine
 10
100.8669959999999
 20
196.110568
 30
0.0
 11
100.6914469999999
 21
189.991613
 31
0.0
  0
LINE
  5
B5C5
330
B3F8
100
AcDbEntity
  8
1
  6
Continuous
100
AcDbLine
 10
100.5154469999999
 20
193.0536129999999
 30
0.0
 11
100.5154469999999
 21
189.991613
 31
0.0
  0
LINE
  5
B5C6
330
B3F8
100
AcDbEntity
  8
1
  6
Continuous
100
AcDbLine
 10
101.8167999999999
 20
189.9333629999999
 30
0.0
 11
101.9962159999999
 21
196.172154
 31
0.0
  0
ARC
  5
B5C7
330
B3F8
100
AcDbEntity
  8
1
  6
Continuous
100
AcDbCircle
 10
101.966515
 20
196.1738629999999
 30
0.0
 40
0.02975
100
AcDbArc
 50
356.705468
 51
180.0
  0
ARC
  5
B5C8
330
B3F8
100
AcDbEntity
  8
1
  6
Continuous
100
AcDbCircle
 10
130.5040079999999
 20
48.75
 30
0.0
 40
0.7
100
AcDbArc
 50
270.0
 51
90.0
  0
LINE
  5
B5C9
330
B3F8
100
AcDbEntity
  8
1
  6
Continuous
100
AcDbLine
 10
118.404008
 20
51.35
 30
0.0
 11
130.5040079999999
 21
49.45
 31
0.0
  0
LINE
  5
B5CA
330
B3F8
100
AcDbEntity
  8
1
  6
Continuous
100
AcDbLine
 10
130.5040079999999
 20
48.04999999999999
 30
0.0
 11
118.404008
 21
46.15
 31
0.0
  0
ARC
  5
B5CB
330
B3F8
100
AcDbEntity
  8
1
  6
Continuous
100
AcDbCircle
 10
117.8602579999999
 20
48.75
 30
0.0
 40
2.65625
100
AcDbArc
 50
78.187718
 51
281.8122819999999
  0
LINE
  5
B5CC
330
B3F8
100
AcDbEntity
  8
1
  6
Continuous
100
AcDbLine
 10
205.3848219999999
 20
96.500017
 30
0.0
 11
206.7956049999998
 21
105.484477
 31
0.0
  0
LINE
  5
B5CD
330
B3F8
100
AcDbEntity
  8
1
  6
Continuous
100
AcDbLine
 10
208.195605
 20
105.484477
 30
0.0
 11
209.6063879999999
 21
96.500017
 31
0.0
  0
ARC
  5
B5CE
330
B3F8
100
AcDbEntity
  8
1
  6
Continuous
100
AcDbCircle
 10
207.4956049999999
 20
105.484477
 30
0.0
 40
0.7
100
AcDbArc
 50
0.0
 51
180.0
  0
LINE
  5
B5CF
330
B3F8
100
AcDbEntity
  8
1
  6
Continuous
100
AcDbLine
 10
35.302644
 20
97.389586
 30
0.0
 11
35.16296
 21
96.500017
 31
0.0
  0
ARC
  5
B5D0
330
B3F8
100
AcDbEntity
  8
1
  6
Continuous
100
AcDbCircle
 10
32.702644
 20
97.933336
 30
0.0
 40
2.65625
100
AcDbArc
 50
348.187718
 51
191.812282
  0
LINE
  5
B5D1
330
B3F8
100
AcDbEntity
  8
1
  6
Continuous
100
AcDbLine
 10
30.24232899999999
 20
96.500017
 30
0.0
 11
30.102644
 21
97.389586
 31
0.0
  0
LINE
  5
B5D2
330
B3F8
100
AcDbEntity
  8
1
  6
Continuous
100
AcDbLine
 10
107.828052
 20
191.011717
 30
0.0
 11
107.772805
 21
189.9271379999999
 31
0.0
  0
LINE
  5
B5D3
330
B3F8
100
AcDbEntity
  8
1
  6
Continuous
100
AcDbLine
 10
137.3346359999999
 20
186.3511
 30
0.0
 11
138.316801
 21
187.9880409999999
 31
0.0
  0
ARC
  5
B5D4
330
B3F8
100
AcDbEntity
  8
1
  6
Continuous
100
AcDbCircle
 10
137.4593079999999
 20
188.5025369999999
 30
0.0
 40
1.0
100
AcDbArc
 50
329.036243
 51
14.931417
  0
LINE
  5
B5D5
330
B3F8
100
AcDbEntity
  8
1
  6
Continuous
100
AcDbLine
 10
138.425543
 20
188.7602
 30
0.0
 11
137.4033459999999
 21
192.593437
 31
0.0
  0
ARC
  5
B5D6
330
B3F8
100
AcDbEntity
  8
1
  6
Continuous
100
AcDbCircle
 10
138.369581
 20
192.8511
 30
0.0
 40
1.0
100
AcDbArc
 50
165.068583
 51
194.9314169999999
  0
ARC
  5
B5D7
330
B3F8
100
AcDbEntity
  8
1
  6
Continuous
100
AcDbCircle
 10
137.4593079999999
 20
197.1996629999999
 30
0.0
 40
1.0
100
AcDbArc
 50
345.0685829999998
 51
30.96375700000001
  0
LINE
  5
B5D8
330
B3F8
100
AcDbEntity
  8
1
  6
Continuous
100
AcDbLine
 10
138.316801
 20
197.714159
 30
0.0
 11
137.3346359999999
 21
199.3510999999998
 31
0.0
  0
LINE
  5
B5D9
330
B3F8
100
AcDbEntity
  8
1
  6
Continuous
100
AcDbLine
 10
137.4033459999999
 20
193.108763
 30
0.0
 11
138.425543
 21
196.942
 31
0.0
  0
LINE
  5
B5DA
330
B3F8
100
AcDbEntity
  8
1
  6
Continuous
100
AcDbLine
 10
203.4459519999999
 20
136.541737
 30
0.0
 11
207.445952
 21
134.2323359999997
 31
0.0
  0
LINE
  5
B5DB
330
B3F8
100
AcDbEntity
  8
1
  6
Continuous
100
AcDbLine
 10
207.445952
 20
134.2323359999997
 30
0.0
 11
211.445952
 21
136.541737
 31
0.0
  0
LINE
  5
B5DC
330
B3F8
100
AcDbEntity
  8
1
  6
Continuous
100
AcDbLine
 10
211.445952
 20
136.541737
 30
0.0
 11
211.445952
 21
141.160539
 31
0.0
  0
LINE
  5
B5DD
330
B3F8
100
AcDbEntity
  8
1
  6
Continuous
100
AcDbLine
 10
211.445952
 20
141.160539
 30
0.0
 11
207.445952
 21
143.4699399999998
 31
0.0
  0
LINE
  5
B5DE
330
B3F8
100
AcDbEntity
  8
1
  6
Continuous
100
AcDbLine
 10
207.445952
 20
143.4699399999998
 30
0.0
 11
203.4459519999999
 21
141.160539
 31
0.0
  0
LINE
  5
B5DF
330
B3F8
100
AcDbEntity
  8
1
  6
Continuous
100
AcDbLine
 10
203.4459519999999
 20
141.160539
 30
0.0
 11
203.4459519999999
 21
136.541737
 31
0.0
  0
ENDSEC
  0
SECTION
  2
OBJECTS
  0
DICTIONARY
  5
B3E6
330
0
100
AcDbDictionary
281
     1
  3
ACAD_CIP_PREVIOUS_PRODUCT_INFO
350
B63F
  3
ACAD_COLOR
350
B621
  3
ACAD_DETAILVIEWSTYLE
350
B63A
  3
ACAD_GROUP
350
B3E7
  3
ACAD_LAYOUT
350
B3F3
  3
ACAD_MATERIAL
350
B5EF
  3
ACAD_MLEADERSTYLE
350
B636
  3
ACAD_MLINESTYLE
350
B3F0
  3
ACAD_PLOTSETTINGS
350
B3F2
  3
ACAD_PLOTSTYLENAME
350
B5ED
  3
ACAD_SCALELIST
350
B624
  3
ACAD_SECTIONVIEWSTYLE
350
B638
  3
ACAD_TABLESTYLE
350
B622
  3
ACAD_VISUALSTYLE
350
B608
  3
ACDB_RECOMPOSE_DATA
350
B65D
  3
AcDbVariableDictionary
350
B650
  3
DWGPROPS
350
B65E
  0
DICTIONARY
  5
B640
330
B3EA
100
AcDbDictionary
280
     1
281
     1
  3
ADSK_XREC_LAYER_RECONCILED
360
B641
  0
DICTIONARY
  5
B642
330
B400
100
AcDbDictionary
280
     1
281
     1
  3
ADSK_XREC_LAYER_RECONCILED
360
B643
  0
DICTIONARY
  5
B644
330
B401
100
AcDbDictionary
280
     1
281
     1
  3
ADSK_XREC_LAYER_RECONCILED
360
B645
  0
DICTIONARY
  5
B646
330
B402
100
AcDbDictionary
280
     1
281
     1
  3
ADSK_XREC_LAYER_RECONCILED
360
B647
  0
DICTIONARY
  5
B648
330
B403
100
AcDbDictionary
280
     1
281
     1
  3
ADSK_XREC_LAYER_RECONCILED
360
B649
  0
DICTIONARY
  5
B64A
330
B404
100
AcDbDictionary
280
     1
281
     1
  3
ADSK_XREC_LAYER_RECONCILED
360
B64B
  0
DICTIONARY
  5
B64C
330
B405
100
AcDbDictionary
280
     1
281
     1
  3
ADSK_XREC_LAYER_RECONCILED
360
B64D
  0
DICTIONARY
  5
B64E
330
B406
100
AcDbDictionary
280
     1
281
     1
  3
ADSK_XREC_LAYER_RECONCILED
360
B64F
  0
DICTIONARY
  5
B5E8
330
B3F8
100
AcDbDictionary
281
     1
  3
ACAD_LAYOUTSELFREF
350
B5E9
  0
DICTIONARY
  5
B5E6
330
B3F4
100
AcDbDictionary
281
     1
  3
ACAD_LAYOUTSELFREF
350
B5E7
  0
XRECORD
  5
B63F
102
{ACAD_REACTORS
330
B3E6
102
}
330
B3E6
100
AcDbXrecord
280
     1
300
ACDLT
300
2014
300
ACDLT_F_S
  0
DICTIONARY
  5
B621
102
{ACAD_REACTORS
330
B3E6
102
}
330
B3E6
100
AcDbDictionary
281
     1
  0
DICTIONARY
  5
B63A
102
{ACAD_REACTORS
330
B3E6
102
}
330
B3E6
100
AcDbDictionary
281
     1
  3
Imperial24
350
B63B
  0
DICTIONARY
  5
B3E7
102
{ACAD_REACTORS
330
B3E6
102
}
330
B3E6
100
AcDbDictionary
281
     1
  0
DICTIONARY
  5
B3F3
102
{ACAD_REACTORS
330
B3E6
102
}
330
B3E6
100
AcDbDictionary
281
     1
  3
Model
350
B63C
  3
レイアウト1
350
B63D
  0
DICTIONARY
  5
B5EF
102
{ACAD_REACTORS
330
B3E6
102
}
330
B3E6
100
AcDbDictionary
281
     1
  3
ByBlock
350
B5F8
  3
ByLayer
350
B5F0
  3
Global
350
B600
  0
DICTIONARY
  5
B636
102
{ACAD_REACTORS
330
B3E6
102
}
330
B3E6
100
AcDbDictionary
281
     1
  3
Standard
350
B637
  0
DICTIONARY
  5
B3F0
102
{ACAD_REACTORS
330
B3E6
102
}
330
B3E6
100
AcDbDictionary
281
     1
  3
STANDARD
350
B3F1
  0
DICTIONARY
  5
B3F2
102
{ACAD_REACTORS
330
B3E6
102
}
330
B3E6
100
AcDbDictionary
281
     1
  0
ACDBDICTIONARYWDFLT
  5
B5ED
102
{ACAD_REACTORS
330
B3E6
102
}
330
B3E6
100
AcDbDictionary
281
     1
  3
Normal
350
B5EE
100
AcDbDictionaryWithDefault
340
B5EE
  0
DICTIONARY
  5
B624
102
{ACAD_REACTORS
330
B3E6
102
}
330
B3E6
100
AcDbDictionary
281
     1
  3
A0
350
B625
  3
A1
350
B626
  3
A2
350
B627
  3
A3
350
B628
  3
A4
350
B629
  3
A5
350
B62A
  3
A6
350
B62B
  3
A7
350
B62C
  3
A8
350
B62D
  3
A9
350
B62E
  3
B0
350
B62F
  3
B1
350
B630
  3
B2
350
B631
  3
B3
350
B632
  3
B4
350
B633
  3
B5
350
B634
  3
B6
350
B635
  0
DICTIONARY
  5
B638
102
{ACAD_REACTORS
330
B3E6
102
}
330
B3E6
100
AcDbDictionary
281
     1
  3
Imperial24
350
B639
  0
DICTIONARY
  5
B622
102
{ACAD_REACTORS
330
B3E6
102
}
330
B3E6
100
AcDbDictionary
281
     1
  3
Standard
350
B623
  0
DICTIONARY
  5
B608
102
{ACAD_REACTORS
330
B3E6
102
}
330
B3E6
100
AcDbDictionary
281
     1
  3
2dWireframe
350
B60E
  3
Basic
350
B60D
  3
Brighten
350
B614
  3
ColorChange
350
B618
  3
Conceptual
350
B611
  3
Dim
350
B613
  3
EdgeColorOff
350
B620
  3
Facepattern
350
B617
  3
Flat
350
B609
  3
FlatWithEdges
350
B60A
  3
Gouraud
350
B60B
  3
GouraudWithEdges
350
B60C
  3
Hidden
350
B610
  3
JitterOff
350
B61E
  3
Linepattern
350
B616
  3
OverhangOff
350
B61F
  3
Realistic
350
B612
  3
Shaded
350
B61D
  3
Shaded with edges
350
B61C
  3
Shades of Gray
350
B619
  3
Sketchy
350
B61A
  3
Thicken
350
B615
  3
Wireframe
350
B60F
  3
X-Ray
350
B61B
  0
XRECORD
  5
B65D
102
{ACAD_REACTORS
330
B3E6
102
}
330
B3E6
100
AcDbXrecord
280
     1
 90
        1
330
B623
  0
DICTIONARY
  5
B650
102
{ACAD_REACTORS
330
B3E6
102
}
330
B3E6
100
AcDbDictionary
281
     1
  3
CANNOSCALE
350
B655
  3
CMLEADERSTYLE
350
B652
  3
CTABLESTYLE
350
B651
  3
CVIEWDETAILSTYLE
350
B653
  3
CVIEWSECTIONSTYLE
350
B654
  3
DIMASSOC
350
B658
  3
INDEXCTL
350
B657
  3
SORTENTS
350
B656
  3
XCLIPFRAME
350
B659
  0
XRECORD
  5
B65E
102
{ACAD_REACTORS
330
B3E6
102
}
330
B3E6
100
AcDbXrecord
280
     1
  1
DWGPROPS COOKIE
  2

  3

  4

  6

  7

  8
Yoshitsune
  9

300
=
301
=
302
=
303
=
304
=
305
=
306
=
307
=
308
=
309
=
 40
0.0000105324074074
 41
2451296.794391088
 42
2457192.658261459
  1

 90
        0
  0
XRECORD
  5
B641
102
{ACAD_REACTORS
330
B640
102
}
330
B640
100
AcDbXrecord
280
     1
290
     1
  0
XRECORD
  5
B643
102
{ACAD_REACTORS
330
B642
102
}
330
B642
100
AcDbXrecord
280
     1
290
     1
  0
XRECORD
  5
B645
102
{ACAD_REACTORS
330
B644
102
}
330
B644
100
AcDbXrecord
280
     1
290
     1
  0
XRECORD
  5
B647
102
{ACAD_REACTORS
330
B646
102
}
330
B646
100
AcDbXrecord
280
     1
290
     1
  0
XRECORD
  5
B649
102
{ACAD_REACTORS
330
B648
102
}
330
B648
100
AcDbXrecord
280
     1
290
     1
  0
XRECORD
  5
B64B
102
{ACAD_REACTORS
330
B64A
102
}
330
B64A
100
AcDbXrecord
280
     1
290
     1
  0
XRECORD
  5
B64D
102
{ACAD_REACTORS
330
B64C
102
}
330
B64C
100
AcDbXrecord
280
     1
290
     1
  0
XRECORD
  5
B64F
102
{ACAD_REACTORS
330
B64E
102
}
330
B64E
100
AcDbXrecord
280
     1
290
     1
  0
XRECORD
  5
B5E9
102
{ACAD_REACTORS
330
B5E8
102
}
330
B5E8
100
AcDbXrecord
280
     1
340
B3F8
  0
XRECORD
  5
B5E7
102
{ACAD_REACTORS
330
B5E6
102
}
330
B5E6
100
AcDbXrecord
280
     1
340
B3F4
  0
ACDBDETAILVIEWSTYLE
  5
B63B
102
{ACAD_XDICTIONARY
360
B696
102
}
102
{ACAD_REACTORS
330
B63A
102
}
330
B63A
100
AcDbModelDocViewStyle
 70
     0
  3
Imperial24
290
     0
100
AcDbDetailViewStyle
 70
     0
 71
     0
 90
        3
 71
     1
340
B3EB
 40
0.24
340
0
 40
0.24
300

 40
0.36
280
     3
 71
     2
340
B3EF
 90
       25
 71
     3
340
B3EB
 40
0.24
 90
        1
 40
0.75
 90
        1
300
%<\AcVar ViewType \f "%tc1">% %<\AcVar ViewDetailId>%\PSCALE %<\AcVar ViewScale \f "%sn">%
 71
     4
340
B3EF
 90
       25
340
B3EF
 90
       25
280
     0
  0
LAYOUT
  5
B63C
102
{ACAD_XDICTIONARY
360
B698
102
}
102
{ACAD_REACTORS
330
B3F3
102
}
330
B3F3
100
AcDbPlotSettings
  1

  2
Canon LBP9100C
  4

  6

 40
0.0
 41
0.0
 42
0.0
 43
0.0
 44
0.0
 45
0.0
 46
0.0
 47
0.0
 48
0.0
 49
0.0
140
0.0
141
0.0
142
1.0
143
1.0
 70
  1712
 72
     0
 73
     0
 74
     0
  7

 75
     0
147
1.0
148
0.0
149
0.0
100
AcDbLayout
  1
Model
 70
     1
 71
     0
 10
0.0
 20
0.0
 11
12.0
 21
9.0
 12
0.0
 22
0.0
 32
0.0
 14
0.0
 24
0.0
 34
0.0
 15
0.0
 25
0.0
 35
0.0
146
0.0
 13
0.0
 23
0.0
 33
0.0
 16
1.0
 26
0.0
 36
0.0
 17
0.0
 27
1.0
 37
0.0
 76
     0
330
B3F8
331
B5E5
  0
LAYOUT
  5
B63D
102
{ACAD_XDICTIONARY
360
B69A
102
}
102
{ACAD_REACTORS
330
B3F3
102
}
330
B3F3
100
AcDbPlotSettings
  1

  2
Canon LBP9100C
  4

  6

 40
0.0
 41
0.0
 42
0.0
 43
0.0
 44
0.0
 45
0.0
 46
0.0
 47
0.0
 48
0.0
 49
0.0
140
0.0
141
0.0
142
1.0
143
1.0
 70
   688
 72
     0
 73
     0
 74
     5
  7

 75
    16
147
1.0
148
0.0
149
0.0
100
AcDbLayout
  1
レイアウト1
 70
     0
 71
     1
 10
0.0
 20
0.0
 11
420.0
 21
297.0
 12
0.0
 22
0.0
 32
0.0
 14
1.000000000000000E+20
 24
1.000000000000000E+20
 34
1.000000000000000E+20
 15
-1.000000000000000E+20
 25
-1.000000000000000E+20
 35
-1.000000000000000E+20
146
0.0
 13
0.0
 23
0.0
 33
0.0
 16
1.0
 26
0.0
 36
0.0
 17
0.0
 27
1.0
 37
0.0
 76
     0
330
B3F4
  0
MATERIAL
  5
B5F8
102
{ACAD_XDICTIONARY
360
B5F9
102
}
102
{ACAD_REACTORS
330
B5EF
102
}
330
B5EF
100
AcDbMaterial
  1
ByBlock
 72
     0
 43
0.0208333333333333
 43
0.0
 43
0.0
 43
0.0
 43
0.0
 43
0.0208333333333333
 43
0.0
 43
0.0
 43
0.0
 43
0.0
 43
1.0
 43
0.0
 43
0.0
 43
0.0
 43
0.0
 43
1.0
 77
     0
 47
0.0208333333333333
 47
0.0
 47
0.0
 47
0.0
 47
0.0
 47
0.0208333333333333
 47
0.0
 47
0.0
 47
0.0
 47
0.0
 47
1.0
 47
0.0
 47
0.0
 47
0.0
 47
0.0
 47
1.0
171
     0
 49
0.0208333333333333
 49
0.0
 49
0.0
 49
0.0
 49
0.0
 49
0.0208333333333333
 49
0.0
 49
0.0
 49
0.0
 49
0.0
 49
1.0
 49
0.0
 49
0.0
 49
0.0
 49
0.0
 49
1.0
175
     0
142
0.0208333333333333
142
0.0
142
0.0
142
0.0
142
0.0
142
0.0208333333333333
142
0.0
142
0.0
142
0.0
142
0.0
142
1.0
142
0.0
142
0.0
142
0.0
142
0.0
142
1.0
179
     0
144
0.0208333333333333
144
0.0
144
0.0
144
0.0
144
0.0
144
0.0208333333333333
144
0.0
144
0.0
144
0.0
144
0.0
144
1.0
144
0.0
144
0.0
144
0.0
144
0.0
144
1.0
147
0.0208333333333333
147
0.0
147
0.0
147
0.0
147
0.0
147
0.0208333333333333
147
0.0
147
0.0
147
0.0
147
0.0
147
1.0
147
0.0
147
0.0
147
0.0
147
0.0
147
1.0
  0
MATERIAL
  5
B5F0
102
{ACAD_XDICTIONARY
360
B5F1
102
}
102
{ACAD_REACTORS
330
B5EF
102
}
330
B5EF
100
AcDbMaterial
  1
ByLayer
 72
     0
 43
0.0208333333333333
 43
0.0
 43
0.0
 43
0.0
 43
0.0
 43
0.0208333333333333
 43
0.0
 43
0.0
 43
0.0
 43
0.0
 43
1.0
 43
0.0
 43
0.0
 43
0.0
 43
0.0
 43
1.0
 77
     0
 47
0.0208333333333333
 47
0.0
 47
0.0
 47
0.0
 47
0.0
 47
0.0208333333333333
 47
0.0
 47
0.0
 47
0.0
 47
0.0
 47
1.0
 47
0.0
 47
0.0
 47
0.0
 47
0.0
 47
1.0
171
     0
 49
0.0208333333333333
 49
0.0
 49
0.0
 49
0.0
 49
0.0
 49
0.0208333333333333
 49
0.0
 49
0.0
 49
0.0
 49
0.0
 49
1.0
 49
0.0
 49
0.0
 49
0.0
 49
0.0
 49
1.0
175
     0
142
0.0208333333333333
142
0.0
142
0.0
142
0.0
142
0.0
142
0.0208333333333333
142
0.0
142
0.0
142
0.0
142
0.0
142
1.0
142
0.0
142
0.0
142
0.0
142
0.0
142
1.0
179
     0
144
0.0208333333333333
144
0.0
144
0.0
144
0.0
144
0.0
144
0.0208333333333333
144
0.0
144
0.0
144
0.0
144
0.0
144
1.0
144
0.0
144
0.0
144
0.0
144
0.0
144
1.0
147
0.0208333333333333
147
0.0
147
0.0
147
0.0
147
0.0
147
0.0208333333333333
147
0.0
147
0.0
147
0.0
147
0.0
147
1.0
147
0.0
147
0.0
147
0.0
147
0.0
147
1.0
  0
MATERIAL
  5
B600
102
{ACAD_XDICTIONARY
360
B601
102
}
102
{ACAD_REACTORS
330
B5EF
102
}
330
B5EF
100
AcDbMaterial
  1
Global
 72
     0
 43
0.0208333333333333
 43
0.0
 43
0.0
 43
0.0
 43
0.0
 43
0.0208333333333333
 43
0.0
 43
0.0
 43
0.0
 43
0.0
 43
1.0
 43
0.0
 43
0.0
 43
0.0
 43
0.0
 43
1.0
 77
     0
 47
0.0208333333333333
 47
0.0
 47
0.0
 47
0.0
 47
0.0
 47
0.0208333333333333
 47
0.0
 47
0.0
 47
0.0
 47
0.0
 47
1.0
 47
0.0
 47
0.0
 47
0.0
 47
0.0
 47
1.0
171
     0
 49
0.0208333333333333
 49
0.0
 49
0.0
 49
0.0
 49
0.0
 49
0.0208333333333333
 49
0.0
 49
0.0
 49
0.0
 49
0.0
 49
1.0
 49
0.0
 49
0.0
 49
0.0
 49
0.0
 49
1.0
175
     0
142
0.0208333333333333
142
0.0
142
0.0
142
0.0
142
0.0
142
0.0208333333333333
142
0.0
142
0.0
142
0.0
142
0.0
142
1.0
142
0.0
142
0.0
142
0.0
142
0.0
142
1.0
179
     0
144
0.0208333333333333
144
0.0
144
0.0
144
0.0
144
0.0
144
0.0208333333333333
144
0.0
144
0.0
144
0.0
144
0.0
144
1.0
144
0.0
144
0.0
144
0.0
144
0.0
144
1.0
147
0.0208333333333333
147
0.0
147
0.0
147
0.0
147
0.0
147
0.0208333333333333
147
0.0
147
0.0
147
0.0
147
0.0
147
1.0
147
0.0
147
0.0
147
0.0
147
0.0
147
1.0
  0
MLEADERSTYLE
  5
B637
102
{ACAD_REACTORS
330
B636
102
}
330
B636
100
AcDbMLeaderStyle
170
     2
171
     1
172
     0
 90
        2
 40
0.0
 41
0.0
173
     1
 91
-1056964608
340
B3ED
 92
       -2
290
     1
 42
0.09
291
     1
 43
0.36
  3
Standard
 44
0.18
300

342
B3EB
174
     1
178
     6
175
     1
176
     0
 93
-1056964608
 45
0.18
292
     0
297
     0
 46
0.18
 94
-1056964608
 47
1.0
 49
1.0
140
1.0
293
     1
141
0.0
294
     1
177
     0
142
1.0
295
     0
296
     0
143
0.125
1001
ACAD_MLEADERVER
1070
     2
  0
MLINESTYLE
  5
B3F1
102
{ACAD_REACTORS
330
B3F0
102
}
330
B3F0
100
AcDbMlineStyle
  2
STANDARD
 70
     0
  3

 62
   256
 51
90.0
 52
90.0
 71
     2
 49
0.5
 62
   256
  6
BYLAYER
 49
-0.5
 62
   256
  6
BYLAYER
  0
ACDBPLACEHOLDER
  5
B5EE
102
{ACAD_REACTORS
330
B5ED
102
}
330
B5ED
  0
SCALE
  5
B625
102
{ACAD_REACTORS
330
B624
102
}
330
B624
100
AcDbScale
 70
     0
300
1:1
140
1.0
141
1.0
290
     1
  0
SCALE
  5
B626
102
{ACAD_REACTORS
330
B624
102
}
330
B624
100
AcDbScale
 70
     0
300
1/128" = 1'-0"
140
0.0078125
141
12.0
290
     0
  0
SCALE
  5
B627
102
{ACAD_REACTORS
330
B624
102
}
330
B624
100
AcDbScale
 70
     0
300
1/64" = 1'-0"
140
0.015625
141
12.0
290
     0
  0
SCALE
  5
B628
102
{ACAD_REACTORS
330
B624
102
}
330
B624
100
AcDbScale
 70
     0
300
1/32" = 1'-0"
140
0.03125
141
12.0
290
     0
  0
SCALE
  5
B629
102
{ACAD_REACTORS
330
B624
102
}
330
B624
100
AcDbScale
 70
     0
300
1/16" = 1'-0"
140
0.0625
141
12.0
290
     0
  0
SCALE
  5
B62A
102
{ACAD_REACTORS
330
B624
102
}
330
B624
100
AcDbScale
 70
     0
300
3/32" = 1'-0"
140
0.09375
141
12.0
290
     0
  0
SCALE
  5
B62B
102
{ACAD_REACTORS
330
B624
102
}
330
B624
100
AcDbScale
 70
     0
300
1/8" = 1'-0"
140
0.125
141
12.0
290
     0
  0
SCALE
  5
B62C
102
{ACAD_REACTORS
330
B624
102
}
330
B624
100
AcDbScale
 70
     0
300
3/16" = 1'-0"
140
0.1875
141
12.0
290
     0
  0
SCALE
  5
B62D
102
{ACAD_REACTORS
330
B624
102
}
330
B624
100
AcDbScale
 70
     0
300
1/4" = 1'-0"
140
0.25
141
12.0
290
     0
  0
SCALE
  5
B62E
102
{ACAD_REACTORS
330
B624
102
}
330
B624
100
AcDbScale
 70
     0
300
3/8" = 1'-0"
140
0.375
141
12.0
290
     0
  0
SCALE
  5
B62F
102
{ACAD_REACTORS
330
B624
102
}
330
B624
100
AcDbScale
 70
     0
300
1/2" = 1'-0"
140
0.5
141
12.0
290
     0
  0
SCALE
  5
B630
102
{ACAD_REACTORS
330
B624
102
}
330
B624
100
AcDbScale
 70
     0
300
3/4" = 1'-0"
140
0.75
141
12.0
290
     0
  0
SCALE
  5
B631
102
{ACAD_REACTORS
330
B624
102
}
330
B624
100
AcDbScale
 70
     0
300
1" = 1'-0"
140
1.0
141
12.0
290
     0
  0
SCALE
  5
B632
102
{ACAD_REACTORS
330
B624
102
}
330
B624
100
AcDbScale
 70
     0
300
1-1/2" = 1'-0"
140
1.5
141
12.0
290
     0
  0
SCALE
  5
B633
102
{ACAD_REACTORS
330
B624
102
}
330
B624
100
AcDbScale
 70
     0
300
3" = 1'-0"
140
3.0
141
12.0
290
     0
  0
SCALE
  5
B634
102
{ACAD_REACTORS
330
B624
102
}
330
B624
100
AcDbScale
 70
     0
300
6" = 1'-0"
140
6.0
141
12.0
290
     0
  0
SCALE
  5
B635
102
{ACAD_REACTORS
330
B624
102
}
330
B624
100
AcDbScale
 70
     0
300
1'-0" = 1'-0"
140
12.0
141
12.0
290
     0
  0
ACDBSECTIONVIEWSTYLE
  5
B639
102
{ACAD_XDICTIONARY
360
B694
102
}
102
{ACAD_REACTORS
330
B638
102
}
330
B638
100
AcDbModelDocViewStyle
 70
     0
  3
Imperial24
290
     0
100
AcDbSectionViewStyle
 70
     0
 71
     0
 90
       78
 71
     1
340
B3EB
 40
0.24
340
0
340
0
 40
0.24
300
I, O, Q, S, X, Z
 40
0.48
 90
        3
 40
0.18
 90
        1
 71
     2
340
B3EF
 90
       25
340
B3EF
 90
       50
 40
0.24
 40
0.0
 40
0.24
 71
     3
340
B3EB
 40
0.24
 90
        1
 40
0.75
 90
        1
300
%<\AcVar ViewType \f "%tc1">% %<\AcVar ViewSectionStartId>%-%<\AcVar ViewSectionEndId>%\PSCALE %<\AcVar ViewScale \f "%sn">%
 71
     4
300
ANSI31
 40
1.0
 90
        0
290
     0
290
     0
 90
        6
 40
0.0
 40
1.570796326794896
 40
0.2617993877991494
 40
1.308996938995747
 40
-0.2617993877991494
 40
1.832595714594046
  0
TABLESTYLE
  5
B623
102
{ACAD_XDICTIONARY
360
B65B
102
}
102
{ACAD_REACTORS
330
B622
102
}
330
B622
100
AcDbTableStyle
  3
Standard
 70
     0
 71
     0
 40
0.06
 41
0.06
280
     0
281
     0
  7
STANDARD
140
0.18
170
     2
 62
     0
 63
     7
283
     0
274
    -2
284
     1
 64
     0
275
    -2
285
     1
 65
     0
276
    -2
286
     1
 66
     0
277
    -2
287
     1
 67
     0
278
    -2
288
     1
 68
     0
279
    -2
289
     1
 69
     0
  7
STANDARD
140
0.25
170
     5
 62
     0
 63
     7
283
     0
274
    -2
284
     1
 64
     0
275
    -2
285
     1
 65
     0
276
    -2
286
     1
 66
     0
277
    -2
287
     1
 67
     0
278
    -2
288
     1
 68
     0
279
    -2
289
     1
 69
     0
  7
STANDARD
140
0.18
170
     5
 62
     0
 63
     7
283
     0
274
    -2
284
     1
 64
     0
275
    -2
285
     1
 65
     0
276
    -2
286
     1
 66
     0
277
    -2
287
     1
 67
     0
278
    -2
288
     1
 68
     0
279
    -2
289
     1
 69
     0
  0
VISUALSTYLE
  5
B60E
102
{ACAD_XDICTIONARY
360
B66C
102
}
102
{ACAD_REACTORS
330
B608
102
}
330
B608
100
AcDbVisualStyle
  2
2dWireframe
 70
     4
 71
     0
 72
     2
 73
     0
 90
        0
 40
-0.6
 41
-30.0
 62
     5
 63
     7
 74
     1
 91
        4
 64
     7
 65
   257
 75
     1
175
     1
 42
1.0
 92
        0
 66
   257
 43
1.0
 76
     1
 77
     6
 78
     2
 67
     7
 79
     5
170
     0
171
     0
290
     0
174
     0
 93
        1
 44
0.0
173
     0
291
     0
 45
0.0
1001
ACAD
1000
AcDbSavedByObjectVersion
1070
     0
  0
VISUALSTYLE
  5
B60D
102
{ACAD_XDICTIONARY
360
B66A
102
}
102
{ACAD_REACTORS
330
B608
102
}
330
B608
100
AcDbVisualStyle
  2
Basic
 70
     7
 71
     1
 72
     0
 73
     1
 90
        0
 40
-0.6
 41
-30.0
 62
     5
 63
     7
 74
     0
 91
        4
 64
     7
 65
   257
 75
     1
175
     1
 42
1.0
 92
        8
 66
     7
 43
1.0
 76
     1
 77
     6
 78
     2
 67
     7
 79
     5
170
     0
171
     0
290
     0
174
     0
 93
        1
 44
0.0
173
     0
291
     1
 45
0.0
1001
ACAD
1000
AcDbSavedByObjectVersion
1070
     0
  0
VISUALSTYLE
  5
B614
102
{ACAD_XDICTIONARY
360
B678
102
}
102
{ACAD_REACTORS
330
B608
102
}
330
B608
100
AcDbVisualStyle
  2
Brighten
 70
    12
 71
     2
 72
     2
 73
     0
 90
        0
 40
-0.6
 41
-30.0
 62
     5
 63
     7
 74
     1
 91
        4
 64
     7
 65
   257
 75
     1
175
     1
 42
1.0
 92
        8
 66
     7
 43
1.0
 76
     1
 77
     6
 78
     2
 67
     7
 79
     5
170
     0
171
     0
290
     0
174
     0
 93
        1
 44
50.0
173
     0
291
     1
 45
0.0
1001
ACAD
1000
AcDbSavedByObjectVersion
1070
     0
  0
VISUALSTYLE
  5
B618
102
{ACAD_XDICTIONARY
360
B680
102
}
102
{ACAD_REACTORS
330
B608
102
}
330
B608
100
AcDbVisualStyle
  2
ColorChange
 70
    16
 71
     2
 72
     2
 73
     3
 90
        0
 40
-0.6
 41
-30.0
 62
     5
 63
     8
 74
     1
 91
        4
 64
     7
 65
   257
 75
     1
175
     1
 42
1.0
 92
        8
 66
     8
 43
1.0
 76
     1
 77
     6
 78
     2
 67
     7
 79
     5
170
     0
171
     0
290
     0
174
     0
 93
        1
 44
0.0
173
     0
291
     1
 45
0.0
1001
ACAD
1000
AcDbSavedByObjectVersion
1070
     0
  0
VISUALSTYLE
  5
B611
102
{ACAD_XDICTIONARY
360
B672
102
}
102
{ACAD_REACTORS
330
B608
102
}
330
B608
100
AcDbVisualStyle
  2
Conceptual
 70
     9
 71
     3
 72
     2
 73
     0
 90
        0
 40
-0.6
 41
-30.0
 62
     5
 63
     7
 74
     2
 91
        2
 64
     7
 65
   257
 75
     1
175
     1
 42
179.0
 92
        8
 66
     7
 43
1.0
 76
     1
 77
     6
 78
     2
 67
     7
 79
     3
170
     0
171
     0
290
     0
174
     0
 93
        1
 44
0.0
173
     0
291
     0
 45
0.0
1001
ACAD
1000
AcDbSavedByObjectVersion
1070
     0
  0
VISUALSTYLE
  5
B613
102
{ACAD_XDICTIONARY
360
B676
102
}
102
{ACAD_REACTORS
330
B608
102
}
330
B608
100
AcDbVisualStyle
  2
Dim
 70
    11
 71
     2
 72
     2
 73
     0
 90
        0
 40
-0.6
 41
-30.0
 62
     5
 63
     7
 74
     1
 91
        4
 64
     7
 65
   257
 75
     1
175
     1
 42
1.0
 92
        8
 66
     7
 43
1.0
 76
     1
 77
     6
 78
     2
 67
     7
 79
     5
170
     0
171
     0
290
     0
174
     0
 93
        1
 44
-50.0
173
     0
291
     1
 45
0.0
1001
ACAD
1000
AcDbSavedByObjectVersion
1070
     0
  0
VISUALSTYLE
  5
B620
102
{ACAD_XDICTIONARY
360
B690
102
}
102
{ACAD_REACTORS
330
B608
102
}
330
B608
100
AcDbVisualStyle
  2
EdgeColorOff
 70
    22
 71
     2
 72
     2
 73
     0
 90
        0
 40
-0.6
 41
-30.0
 62
     5
 63
     7
 74
     1
 91
        4
 64
     7
 65
   257
 75
     1
175
     1
 42
1.0
 92
        8
 66
     7
 43
1.0
 76
     1
 77
     6
 78
     2
 67
     7
 79
     5
170
     0
171
     0
290
     0
174
     0
 93
        1
 44
0.0
173
     0
291
     1
 45
0.0
1001
ACAD
1000
AcDbSavedByObjectVersion
1070
     0
  0
VISUALSTYLE
  5
B617
102
{ACAD_XDICTIONARY
360
B67E
102
}
102
{ACAD_REACTORS
330
B608
102
}
330
B608
100
AcDbVisualStyle
  2
Facepattern
 70
    15
 71
     2
 72
     2
 73
     0
 90
        0
 40
-0.6
 41
-30.0
 62
     5
 63
     7
 74
     1
 91
        4
 64
     7
 65
   257
 75
     1
175
     1
 42
1.0
 92
        8
 66
     7
 43
1.0
 76
     1
 77
     6
 78
     2
 67
     7
 79
     5
170
     0
171
     0
290
     0
174
     0
 93
        1
 44
0.0
173
     0
291
     1
 45
0.0
1001
ACAD
1000
AcDbSavedByObjectVersion
1070
     0
  0
VISUALSTYLE
  5
B609
102
{ACAD_XDICTIONARY
360
B662
102
}
102
{ACAD_REACTORS
330
B608
102
}
330
B608
100
AcDbVisualStyle
  2
Flat
 70
     0
 71
     2
 72
     1
 73
     1
 90
        2
 40
-0.6
 41
30.0
 62
     5
 63
     7
 74
     0
 91
        0
 64
     7
 65
   257
 75
     1
175
     1
 42
1.0
 92
        8
 66
     7
 43
1.0
 76
     1
 77
     6
 78
     2
 67
     7
 79
     5
170
     0
171
     0
290
     0
174
     0
 93
       13
 44
0.0
173
     0
291
     1
 45
0.0
1001
ACAD
1000
AcDbSavedByObjectVersion
1070
     0
  0
VISUALSTYLE
  5
B60A
102
{ACAD_XDICTIONARY
360
B664
102
}
102
{ACAD_REACTORS
330
B608
102
}
330
B608
100
AcDbVisualStyle
  2
FlatWithEdges
 70
     1
 71
     2
 72
     1
 73
     1
 90
        2
 40
-0.6
 41
30.0
 62
     5
 63
     7
 74
     1
 91
        0
 64
     7
 65
   257
 75
     1
175
     1
 42
1.0
 92
        0
 66
   257
 43
1.0
 76
     1
 77
     6
 78
     2
 67
     7
 79
     5
170
     0
171
     0
290
     0
174
     0
 93
       13
 44
0.0
173
     0
291
     1
 45
0.0
1001
ACAD
1000
AcDbSavedByObjectVersion
1070
     0
  0
VISUALSTYLE
  5
B60B
102
{ACAD_XDICTIONARY
360
B666
102
}
102
{ACAD_REACTORS
330
B608
102
}
330
B608
100
AcDbVisualStyle
  2
Gouraud
 70
     2
 71
     2
 72
     2
 73
     1
 90
        2
 40
-0.6
 41
30.0
 62
     5
 63
     7
 74
     0
 91
        0
 64
     7
 65
   257
 75
     1
175
     1
 42
1.0
 92
        0
 66
     7
 43
1.0
 76
     1
 77
     6
 78
     2
 67
     7
 79
     5
170
     0
171
     0
290
     0
174
     0
 93
       13
 44
0.0
173
     0
291
     1
 45
0.0
1001
ACAD
1000
AcDbSavedByObjectVersion
1070
     0
  0
VISUALSTYLE
  5
B60C
102
{ACAD_XDICTIONARY
360
B668
102
}
102
{ACAD_REACTORS
330
B608
102
}
330
B608
100
AcDbVisualStyle
  2
GouraudWithEdges
 70
     3
 71
     2
 72
     2
 73
     1
 90
        2
 40
-0.6
 41
30.0
 62
     5
 63
     7
 74
     1
 91
        0
 64
     7
 65
   257
 75
     1
175
     1
 42
1.0
 92
        0
 66
   257
 43
1.0
 76
     1
 77
     6
 78
     2
 67
     7
 79
     5
170
     0
171
     0
290
     0
174
     0
 93
       13
 44
0.0
173
     0
291
     1
 45
0.0
1001
ACAD
1000
AcDbSavedByObjectVersion
1070
     0
  0
VISUALSTYLE
  5
B610
102
{ACAD_XDICTIONARY
360
B670
102
}
102
{ACAD_REACTORS
330
B608
102
}
330
B608
100
AcDbVisualStyle
  2
Hidden
 70
     6
 71
     1
 72
     2
 73
     2
 90
        0
 40
-0.6
 41
-30.0
 62
     5
 63
     7
 74
     2
 91
        2
 64
     7
 65
   257
 75
     2
175
     1
 42
40.0
 92
        0
 66
   257
 43
1.0
 76
     1
 77
     6
 78
     2
 67
     7
 79
     3
170
     0
171
     0
290
     0
174
     0
 93
        1
 44
0.0
173
     0
291
     0
 45
0.0
1001
ACAD
1000
AcDbSavedByObjectVersion
1070
     0
  0
VISUALSTYLE
  5
B61E
102
{ACAD_XDICTIONARY
360
B68C
102
}
102
{ACAD_REACTORS
330
B608
102
}
330
B608
100
AcDbVisualStyle
  2
JitterOff
 70
    20
 71
     2
 72
     2
 73
     0
 90
        0
 40
-0.6
 41
-30.0
 62
     5
 63
     7
 74
     1
 91
        4
 64
     7
 65
   257
 75
     1
175
     1
 42
1.0
 92
       10
 66
     7
 43
1.0
 76
     1
 77
     6
 78
     2
 67
     7
 79
     5
170
     0
171
     0
290
     0
174
     0
 93
        1
 44
0.0
173
     0
291
     1
 45
0.0
1001
ACAD
1000
AcDbSavedByObjectVersion
1070
     0
  0
VISUALSTYLE
  5
B616
102
{ACAD_XDICTIONARY
360
B67C
102
}
102
{ACAD_REACTORS
330
B608
102
}
330
B608
100
AcDbVisualStyle
  2
Linepattern
 70
    14
 71
     2
 72
     2
 73
     0
 90
        0
 40
-0.6
 41
-30.0
 62
     5
 63
     7
 74
     1
 91
        4
 64
     7
 65
   257
 75
     7
175
     7
 42
1.0
 92
        8
 66
     7
 43
1.0
 76
     1
 77
     6
 78
     2
 67
     7
 79
     5
170
     0
171
     0
290
     0
174
     0
 93
        1
 44
0.0
173
     0
291
     1
 45
0.0
1001
ACAD
1000
AcDbSavedByObjectVersion
1070
     0
  0
VISUALSTYLE
  5
B61F
102
{ACAD_XDICTIONARY
360
B68E
102
}
102
{ACAD_REACTORS
330
B608
102
}
330
B608
100
AcDbVisualStyle
  2
OverhangOff
 70
    21
 71
     2
 72
     2
 73
     0
 90
        0
 40
-0.6
 41
-30.0
 62
     5
 63
     7
 74
     1
 91
        4
 64
     7
 65
   257
 75
     1
175
     1
 42
1.0
 92
        9
 66
     7
 43
1.0
 76
     1
 77
     6
 78
     2
 67
     7
 79
     5
170
     0
171
     0
290
     0
174
     0
 93
        1
 44
0.0
173
     0
291
     1
 45
0.0
1001
ACAD
1000
AcDbSavedByObjectVersion
1070
     0
  0
VISUALSTYLE
  5
B612
102
{ACAD_XDICTIONARY
360
B674
102
}
102
{ACAD_REACTORS
330
B608
102
}
330
B608
100
AcDbVisualStyle
  2
Realistic
 70
     8
 71
     2
 72
     3
 73
     0
 90
        2
 40
-0.6
 41
30.0
 62
     5
 63
     7
 74
     0
 91
        0
 64
     7
 65
   257
 75
     1
175
     1
 42
1.0
 92
        8
 66
   257
 43
1.0
 76
     1
 77
     6
 78
     2
 67
     7
 79
     3
170
     0
171
     0
290
     0
174
     0
 93
       13
 44
0.0
173
     0
291
     0
 45
0.0
1001
ACAD
1000
AcDbSavedByObjectVersion
1070
     0
  0
VISUALSTYLE
  5
B61D
102
{ACAD_XDICTIONARY
360
B68A
102
}
102
{ACAD_REACTORS
330
B608
102
}
330
B608
100
AcDbVisualStyle
  2
Shaded
 70
    27
 71
     2
 72
     2
 73
     1
 90
        2
 40
-0.6
 41
30.0
 62
     5
 63
     7
 74
     0
 91
        4
 64
     7
 65
   257
 75
     1
175
     1
 42
1.0
 92
        8
 66
   257
 43
1.0
 76
     1
 77
     6
 78
     2
 67
     8
 79
     3
170
     0
171
     0
290
     0
174
     0
 93
        5
 44
0.0
173
     0
291
     0
 45
0.0
1001
ACAD
1000
AcDbSavedByObjectVersion
1070
     0
  0
VISUALSTYLE
  5
B61C
102
{ACAD_XDICTIONARY
360
B688
102
}
102
{ACAD_REACTORS
330
B608
102
}
330
B608
100
AcDbVisualStyle
  2
Shaded with edges
 70
    26
 71
     2
 72
     2
 73
     1
 90
        2
 40
-0.6
 41
30.0
 62
     5
 63
     7
 74
     1
 91
       10
 64
     7
 65
   257
 75
     2
175
     1
 42
1.0
 92
        8
 66
   257
 43
1.0
 76
     1
 77
     6
 78
     2
 67
     7
 79
     3
170
     0
171
     0
290
     0
174
     0
 93
        5
 44
0.0
173
     0
291
     0
 45
0.0
1001
ACAD
1000
AcDbSavedByObjectVersion
1070
     0
  0
VISUALSTYLE
  5
B619
102
{ACAD_XDICTIONARY
360
B682
102
}
102
{ACAD_REACTORS
330
B608
102
}
330
B608
100
AcDbVisualStyle
  2
Shades of Gray
 70
    23
 71
     2
 72
     2
 73
     3
 90
        0
 40
-0.6
 41
-30.0
 62
     5
 63
     7
 74
     2
 91
        2
 64
     7
 65
     7
 75
     1
175
     1
 42
40.0
 92
        8
 66
     7
 43
1.0
 76
     1
 77
     6
 78
     2
 67
     7
 79
     3
170
     0
171
     0
290
     0
174
     0
 93
        1
 44
0.0
173
     0
291
     0
 45
0.0
1001
ACAD
1000
AcDbSavedByObjectVersion
1070
     0
  0
VISUALSTYLE
  5
B61A
102
{ACAD_XDICTIONARY
360
B684
102
}
102
{ACAD_REACTORS
330
B608
102
}
330
B608
100
AcDbVisualStyle
  2
Sketchy
 70
    24
 71
     1
 72
     2
 73
     2
 90
        0
 40
-0.6
 41
-30.0
 62
     5
 63
     7
 74
     2
 91
        2
 64
     7
 65
     7
 75
     1
175
     1
 42
40.0
 92
       11
 66
     7
 43
1.0
 76
     1
 77
     6
 78
     2
 67
     7
 79
     6
170
     0
171
     0
290
     0
174
     0
 93
        1
 44
0.0
173
     0
291
     0
 45
0.0
1001
ACAD
1000
AcDbSavedByObjectVersion
1070
     0
  0
VISUALSTYLE
  5
B615
102
{ACAD_XDICTIONARY
360
B67A
102
}
102
{ACAD_REACTORS
330
B608
102
}
330
B608
100
AcDbVisualStyle
  2
Thicken
 70
    13
 71
     2
 72
     2
 73
     0
 90
        0
 40
-0.6
 41
-30.0
 62
     5
 63
     7
 74
     1
 91
        4
 64
     7
 65
   257
 75
     1
175
     1
 42
1.0
 92
       12
 66
     7
 43
1.0
 76
     1
 77
     6
 78
     2
 67
     7
 79
     5
170
     0
171
     0
290
     0
174
     0
 93
        1
 44
0.0
173
     0
291
     1
 45
0.0
1001
ACAD
1000
AcDbSavedByObjectVersion
1070
     0
  0
VISUALSTYLE
  5
B60F
102
{ACAD_XDICTIONARY
360
B66E
102
}
102
{ACAD_REACTORS
330
B608
102
}
330
B608
100
AcDbVisualStyle
  2
Wireframe
 70
     5
 71
     0
 72
     2
 73
     0
 90
        0
 40
-0.6
 41
-30.0
 62
     5
 63
     7
 74
     1
 91
        4
 64
     7
 65
   257
 75
     1
175
     1
 42
1.0
 92
        0
 66
   257
 43
1.0
 76
     1
 77
     6
 78
     2
 67
     7
 79
     3
170
     0
171
     0
290
     0
174
     0
 93
        1
 44
0.0
173
     0
291
     0
 45
0.0
1001
ACAD
1000
AcDbSavedByObjectVersion
1070
     0
  0
VISUALSTYLE
  5
B61B
102
{ACAD_XDICTIONARY
360
B686
102
}
102
{ACAD_REACTORS
330
B608
102
}
330
B608
100
AcDbVisualStyle
  2
X-Ray
 70
    25
 71
     2
 72
     2
 73
     1
 90
        1
 40
0.5
 41
-30.0
 62
     5
 63
     7
 74
     1
 91
        0
 64
     7
 65
   257
 75
     1
175
     1
 42
1.0
 92
        8
 66
     7
 43
1.0
 76
     1
 77
     6
 78
     2
 67
     7
 79
     3
170
     0
171
     0
290
     0
174
     0
 93
       13
 44
0.0
173
     0
291
     0
 45
0.0
1001
ACAD
1000
AcDbSavedByObjectVersion
1070
     0
  0
DICTIONARYVAR
  5
B655
102
{ACAD_REACTORS
330
B650
102
}
330
B650
100
DictionaryVariables
280
     0
  1
1:1
  0
DICTIONARYVAR
  5
B652
102
{ACAD_REACTORS
330
B650
102
}
330
B650
100
DictionaryVariables
280
     0
  1
STANDARD
  0
DICTIONARYVAR
  5
B651
102
{ACAD_REACTORS
330
B650
102
}
330
B650
100
DictionaryVariables
280
     0
  1
STANDARD
  0
DICTIONARYVAR
  5
B653
102
{ACAD_REACTORS
330
B650
102
}
330
B650
100
DictionaryVariables
280
     0
  1
Imperial24
  0
DICTIONARYVAR
  5
B654
102
{ACAD_REACTORS
330
B650
102
}
330
B650
100
DictionaryVariables
280
     0
  1
Imperial24
  0
DICTIONARYVAR
  5
B658
102
{ACAD_REACTORS
330
B650
102
}
330
B650
100
DictionaryVariables
280
     0
  1
1
  0
DICTIONARYVAR
  5
B657
102
{ACAD_REACTORS
330
B650
102
}
330
B650
100
DictionaryVariables
280
     0
  1
0
  0
DICTIONARYVAR
  5
B656
102
{ACAD_REACTORS
330
B650
102
}
330
B650
100
DictionaryVariables
280
     0
  1
127
  0
DICTIONARYVAR
  5
B659
102
{ACAD_REACTORS
330
B650
102
}
330
B650
100
DictionaryVariables
280
     0
  1
2
  0
DICTIONARY
  5
B696
330
B63B
100
AcDbDictionary
280
     1
281
     1
  3
ACAD_XREC_ROUNDTRIP
360
B697
  0
DICTIONARY
  5
B698
330
B63C
100
AcDbDictionary
280
     1
281
     1
  3
ACAD_XREC_ROUNDTRIP
360
B699
  0
DICTIONARY
  5
B69A
330
B63D
100
AcDbDictionary
280
     1
281
     1
  3
ACAD_XREC_ROUNDTRIP
360
B69B
  0
DICTIONARY
  5
B5F9
330
B5F8
100
AcDbDictionary
280
     1
281
     1
  3
ACAD_XREC_ROUNDTRIP
360
B660
  3
BUMPTILE
360
B5FB
  3
DIFFUSETILE
360
B5FA
  3
OPACITYTILE
360
B5FE
  3
REFLECTIONTILE
360
B5FD
  3
REFRACTIONTILE
360
B5FF
  3
SPECULARTILE
360
B5FC
  0
DICTIONARY
  5
B5F1
330
B5F0
100
AcDbDictionary
280
     1
281
     1
  3
ACAD_XREC_ROUNDTRIP
360
B65F
  3
BUMPTILE
360
B5F3
  3
DIFFUSETILE
360
B5F2
  3
OPACITYTILE
360
B5F6
  3
REFLECTIONTILE
360
B5F5
  3
REFRACTIONTILE
360
B5F7
  3
SPECULARTILE
360
B5F4
  0
DICTIONARY
  5
B601
330
B600
100
AcDbDictionary
280
     1
281
     1
  3
ACAD_XREC_ROUNDTRIP
360
B661
  3
BUMPTILE
360
B603
  3
DIFFUSETILE
360
B602
  3
OPACITYTILE
360
B606
  3
REFLECTIONTILE
360
B605
  3
REFRACTIONTILE
360
B607
  3
SPECULARTILE
360
B604
  0
DICTIONARY
  5
B694
330
B639
100
AcDbDictionary
280
     1
281
     1
  3
ACAD_XREC_ROUNDTRIP
360
B695
  0
DICTIONARY
  5
B65B
330
B623
100
AcDbDictionary
280
     1
281
     1
  3
ACAD_ROUNDTRIP_2008_TABLESTYLE_CELLSTYLEMAP
360
B65C
  3
ACAD_XREC_ROUNDTRIP
360
B692
  0
DICTIONARY
  5
B66C
330
B60E
100
AcDbDictionary
280
     1
281
     1
  3
ACAD_XREC_ROUNDTRIP
360
B66D
  0
DICTIONARY
  5
B66A
330
B60D
100
AcDbDictionary
280
     1
281
     1
  3
ACAD_XREC_ROUNDTRIP
360
B66B
  0
DICTIONARY
  5
B678
330
B614
100
AcDbDictionary
280
     1
281
     1
  3
ACAD_XREC_ROUNDTRIP
360
B679
  0
DICTIONARY
  5
B680
330
B618
100
AcDbDictionary
280
     1
281
     1
  3
ACAD_XREC_ROUNDTRIP
360
B681
  0
DICTIONARY
  5
B672
330
B611
100
AcDbDictionary
280
     1
281
     1
  3
ACAD_XREC_ROUNDTRIP
360
B673
  0
DICTIONARY
  5
B676
330
B613
100
AcDbDictionary
280
     1
281
     1
  3
ACAD_XREC_ROUNDTRIP
360
B677
  0
DICTIONARY
  5
B690
330
B620
100
AcDbDictionary
280
     1
281
     1
  3
ACAD_XREC_ROUNDTRIP
360
B691
  0
DICTIONARY
  5
B67E
330
B617
100
AcDbDictionary
280
     1
281
     1
  3
ACAD_XREC_ROUNDTRIP
360
B67F
  0
DICTIONARY
  5
B662
330
B609
100
AcDbDictionary
280
     1
281
     1
  3
ACAD_XREC_ROUNDTRIP
360
B663
  0
DICTIONARY
  5
B664
330
B60A
100
AcDbDictionary
280
     1
281
     1
  3
ACAD_XREC_ROUNDTRIP
360
B665
  0
DICTIONARY
  5
B666
330
B60B
100
AcDbDictionary
280
     1
281
     1
  3
ACAD_XREC_ROUNDTRIP
360
B667
  0
DICTIONARY
  5
B668
330
B60C
100
AcDbDictionary
280
     1
281
     1
  3
ACAD_XREC_ROUNDTRIP
360
B669
  0
DICTIONARY
  5
B670
330
B610
100
AcDbDictionary
280
     1
281
     1
  3
ACAD_XREC_ROUNDTRIP
360
B671
  0
DICTIONARY
  5
B68C
330
B61E
100
AcDbDictionary
280
     1
281
     1
  3
ACAD_XREC_ROUNDTRIP
360
B68D
  0
DICTIONARY
  5
B67C
330
B616
100
AcDbDictionary
280
     1
281
     1
  3
ACAD_XREC_ROUNDTRIP
360
B67D
  0
DICTIONARY
  5
B68E
330
B61F
100
AcDbDictionary
280
     1
281
     1
  3
ACAD_XREC_ROUNDTRIP
360
B68F
  0
DICTIONARY
  5
B674
330
B612
100
AcDbDictionary
280
     1
281
     1
  3
ACAD_XREC_ROUNDTRIP
360
B675
  0
DICTIONARY
  5
B68A
330
B61D
100
AcDbDictionary
280
     1
281
     1
  3
ACAD_XREC_ROUNDTRIP
360
B68B
  0
DICTIONARY
  5
B688
330
B61C
100
AcDbDictionary
280
     1
281
     1
  3
ACAD_XREC_ROUNDTRIP
360
B689
  0
DICTIONARY
  5
B682
330
B619
100
AcDbDictionary
280
     1
281
     1
  3
ACAD_XREC_ROUNDTRIP
360
B683
  0
DICTIONARY
  5
B684
330
B61A
100
AcDbDictionary
280
     1
281
     1
  3
ACAD_XREC_ROUNDTRIP
360
B685
  0
DICTIONARY
  5
B67A
330
B615
100
AcDbDictionary
280
     1
281
     1
  3
ACAD_XREC_ROUNDTRIP
360
B67B
  0
DICTIONARY
  5
B66E
330
B60F
100
AcDbDictionary
280
     1
281
     1
  3
ACAD_XREC_ROUNDTRIP
360
B66F
  0
DICTIONARY
  5
B686
330
B61B
100
AcDbDictionary
280
     1
281
     1
  3
ACAD_XREC_ROUNDTRIP
360
B687
  0
XRECORD
  5
B697
102
{ACAD_REACTORS
330
B696
102
}
330
B696
100
AcDbXrecord
280
     1
102
DISPLAYNAME
  1
Imperial24
102
FLAGS
 90
        0
  0
XRECORD
  5
B699
102
{ACAD_REACTORS
330
B698
102
}
330
B698
100
AcDbXrecord
280
     1
102
SHADEPLOT
 70
     0
102
SHADEPLOTRESLEVEL
 70
     2
102
SHADEPLOTCUSTOMDPI
 70
   300
  0
XRECORD
  5
B69B
102
{ACAD_REACTORS
330
B69A
102
}
330
B69A
100
AcDbXrecord
280
     1
102
SHADEPLOT
 70
     0
102
SHADEPLOTRESLEVEL
 70
     2
102
SHADEPLOTCUSTOMDPI
 70
   300
  0
XRECORD
  5
B660
102
{ACAD_REACTORS
330
B5F9
102
}
330
B5F9
100
AcDbXrecord
280
     1
102
MATERIAL
148
0.0
149
0.0
149
0.0
 93
        0
 94
      127
282
     0
 72
     0
 77
     0
171
     0
175
     0
179
     0
273
     0
  0
XRECORD
  5
B5FB
102
{ACAD_REACTORS
330
B5F9
102
}
330
B5F9
100
AcDbXrecord
280
     1
270
     1
271
     1
  0
XRECORD
  5
B5FA
102
{ACAD_REACTORS
330
B5F9
102
}
330
B5F9
100
AcDbXrecord
280
     1
270
     1
271
     1
  0
XRECORD
  5
B5FE
102
{ACAD_REACTORS
330
B5F9
102
}
330
B5F9
100
AcDbXrecord
280
     1
270
     1
271
     1
  0
XRECORD
  5
B5FD
102
{ACAD_REACTORS
330
B5F9
102
}
330
B5F9
100
AcDbXrecord
280
     1
270
     1
271
     1
  0
XRECORD
  5
B5FF
102
{ACAD_REACTORS
330
B5F9
102
}
330
B5F9
100
AcDbXrecord
280
     1
270
     1
271
     1
  0
XRECORD
  5
B5FC
102
{ACAD_REACTORS
330
B5F9
102
}
330
B5F9
100
AcDbXrecord
280
     1
270
     1
271
     1
  0
XRECORD
  5
B65F
102
{ACAD_REACTORS
330
B5F1
102
}
330
B5F1
100
AcDbXrecord
280
     1
102
MATERIAL
148
0.0
149
0.0
149
0.0
 93
        0
 94
      127
282
     0
 72
     0
 77
     0
171
     0
175
     0
179
     0
273
     0
  0
XRECORD
  5
B5F3
102
{ACAD_REACTORS
330
B5F1
102
}
330
B5F1
100
AcDbXrecord
280
     1
270
     1
271
     1
  0
XRECORD
  5
B5F2
102
{ACAD_REACTORS
330
B5F1
102
}
330
B5F1
100
AcDbXrecord
280
     1
270
     1
271
     1
  0
XRECORD
  5
B5F6
102
{ACAD_REACTORS
330
B5F1
102
}
330
B5F1
100
AcDbXrecord
280
     1
270
     1
271
     1
  0
XRECORD
  5
B5F5
102
{ACAD_REACTORS
330
B5F1
102
}
330
B5F1
100
AcDbXrecord
280
     1
270
     1
271
     1
  0
XRECORD
  5
B5F7
102
{ACAD_REACTORS
330
B5F1
102
}
330
B5F1
100
AcDbXrecord
280
     1
270
     1
271
     1
  0
XRECORD
  5
B5F4
102
{ACAD_REACTORS
330
B5F1
102
}
330
B5F1
100
AcDbXrecord
280
     1
270
     1
271
     1
  0
XRECORD
  5
B661
102
{ACAD_REACTORS
330
B601
102
}
330
B601
100
AcDbXrecord
280
     1
102
MATERIAL
148
0.0
149
0.0
149
0.0
 93
        0
 94
      127
282
     0
 72
     0
 77
     0
171
     0
175
     0
179
     0
273
     0
  0
XRECORD
  5
B603
102
{ACAD_REACTORS
330
B601
102
}
330
B601
100
AcDbXrecord
280
     1
270
     1
271
     1
  0
XRECORD
  5
B602
102
{ACAD_REACTORS
330
B601
102
}
330
B601
100
AcDbXrecord
280
     1
270
     1
271
     1
  0
XRECORD
  5
B606
102
{ACAD_REACTORS
330
B601
102
}
330
B601
100
AcDbXrecord
280
     1
270
     1
271
     1
  0
XRECORD
  5
B605
102
{ACAD_REACTORS
330
B601
102
}
330
B601
100
AcDbXrecord
280
     1
270
     1
271
     1
  0
XRECORD
  5
B607
102
{ACAD_REACTORS
330
B601
102
}
330
B601
100
AcDbXrecord
280
     1
270
     1
271
     1
  0
XRECORD
  5
B604
102
{ACAD_REACTORS
330
B601
102
}
330
B601
100
AcDbXrecord
280
     1
270
     1
271
     1
  0
XRECORD
  5
B695
102
{ACAD_REACTORS
330
B694
102
}
330
B694
100
AcDbXrecord
280
     1
102
DISPLAYNAME
  1
Imperial24
102
FLAGS
 90
        0
  0
CELLSTYLEMAP
  5
B65C
102
{ACAD_REACTORS
330
B65B
102
}
330
B65B
100
AcDbCellStyleMap
 90
        3
300
CELLSTYLE
  1
TABLEFORMAT_BEGIN
 90
        5
170
     1
 91
        0
 92
    32768
 62
   257
 93
        1
300
CONTENTFORMAT
  1
CONTENTFORMAT_BEGIN
 90
        0
 91
        0
 92
      512
 93
        0
300

 40
0.0
140
1.0
 94
        5
 62
     0
340
B3EB
144
0.25
309
CONTENTFORMAT_END
171
     0
 94
        0
309
TABLEFORMAT_END
  1
CELLSTYLE_BEGIN
 90
        1
 91
        1
300
_TITLE
309
CELLSTYLE_END
300
CELLSTYLE
  1
TABLEFORMAT_BEGIN
 90
        5
170
     1
 91
        0
 92
        0
 62
   257
 93
        1
300
CONTENTFORMAT
  1
CONTENTFORMAT_BEGIN
 90
        0
 91
        0
 92
      512
 93
        0
300

 40
0.0
140
1.0
 94
        5
 62
     0
340
B3EB
144
0.18
309
CONTENTFORMAT_END
171
     0
 94
        0
309
TABLEFORMAT_END
  1
CELLSTYLE_BEGIN
 90
        2
 91
        1
300
_HEADER
309
CELLSTYLE_END
300
CELLSTYLE
  1
TABLEFORMAT_BEGIN
 90
        5
170
     1
 91
        0
 92
        0
 62
   257
 93
        1
300
CONTENTFORMAT
  1
CONTENTFORMAT_BEGIN
 90
        0
 91
        0
 92
      512
 93
        0
300

 40
0.0
140
1.0
 94
        2
 62
     0
340
B3EB
144
0.18
309
CONTENTFORMAT_END
171
     0
 94
        0
309
TABLEFORMAT_END
  1
CELLSTYLE_BEGIN
 90
        3
 91
        2
300
_DATA
309
CELLSTYLE_END
  0
XRECORD
  5
B692
102
{ACAD_REACTORS
330
B65B
102
}
330
B65B
100
AcDbXrecord
280
     1
102
ACAD_ROUNDTRIP_PRE2007_TABLESTYLE
 90
      512
 91
        0
  1

 92
      512
 93
        0
  2

 94
      512
 95
        0
  3

  0
XRECORD
  5
B66D
102
{ACAD_REACTORS
330
B66C
102
}
330
B66C
100
AcDbXrecord
280
     1
102
RTVSPost2010Prop28
280
     1
102
RTVSPost2010PropOp28
 70
     1
102
RTVSPost2010Prop29
280
     1
102
RTVSPost2010PropOp29
 70
     1
102
RTVSPost2010Prop30
280
     0
102
RTVSPost2010PropOp30
 70
     1
102
RTVSPost2010Prop31
280
     0
102
RTVSPost2010PropOp31
 70
     1
102
RTVSPost2010Prop32
280
     0
102
RTVSPost2010PropOp32
 70
     1
102
RTVSPost2010Prop33
280
     0
102
RTVSPost2010PropOp33
 70
     1
102
RTVSPost2010Prop34
280
     0
102
RTVSPost2010PropOp34
 70
     1
102
RTVSPost2010Prop35
280
     0
102
RTVSPost2010PropOp35
 70
     1
102
RTVSPost2010Prop36
280
     0
102
RTVSPost2010PropOp36
 70
     1
102
RTVSPost2010Prop37
 90
       50
102
RTVSPost2010PropOp37
 70
     1
102
RTVSPost2010Prop38
140
0.0
102
RTVSPost2010PropOp38
 70
     1
102
RTVSPost2010Prop39
140
1.0
102
RTVSPost2010PropOp39
 70
     1
102
RTVSPost2010Prop40
 90
        0
102
RTVSPost2010PropOp40
 70
     1
102
RTVSPost2010Prop41ColorIndex
 90
       18
102
RTVSPost2010Prop41ColorRGB
 90
        0
102
RTVSPost2010PropOp41
 70
     1
102
RTVSPost2010Prop42
 90
       50
102
RTVSPost2010PropOp42
 70
     1
102
RTVSPost2010Prop43
 90
        3
102
RTVSPost2010PropOp43
 70
     1
102
RTVSPost2010Prop44ColorIndex
 90
        5
102
RTVSPost2010Prop44ColorRGB
 90
      255
102
RTVSPost2010PropOp44
 70
     1
102
RTVSPost2010Prop45
280
     0
102
RTVSPost2010PropOp45
 70
     1
102
RTVSPost2010Prop46
 90
       50
102
RTVSPost2010PropOp46
 70
     1
102
RTVSPost2010Prop47
 90
       50
102
RTVSPost2010PropOp47
 70
     1
102
RTVSPost2010Prop48
 90
       50
102
RTVSPost2010PropOp48
 70
     1
102
RTVSPost2010Prop49
280
     0
102
RTVSPost2010PropOp49
 70
     1
102
RTVSPost2010Prop50
 90
       50
102
RTVSPost2010PropOp50
 70
     1
102
RTVSPost2010Prop51ColorIndex
 90
      256
102
RTVSPost2010Prop51ColorRGB
 90
-16777216
102
RTVSPost2010PropOp51
 70
     0
102
RTVSPost2010Prop52
140
1.0
102
RTVSPost2010PropOp52
 70
     0
102
RTVSPost2010Prop53
 90
        2
102
RTVSPost2010PropOp53
 70
     1
102
RTVSPost2010Prop54
  1
strokes_ogs.tif
102
RTVSPost2010PropOp54
 70
     1
102
RTVSPost2010Prop55
280
     0
102
RTVSPost2010PropOp55
 70
     1
102
RTVSPost2010Prop56
140
1.0
102
RTVSPost2010PropOp56
 70
     1
102
RTVSPost2010Prop57
140
1.0
102
RTVSPost2010PropOp57
 70
     1
102
RTVSPropertyOp0
 70
     1
102
RTVSPropertyOp1
 70
     1
102
RTVSPropertyOp2
 70
     1
102
RTVSPropertyOp3
 70
     1
102
RTVSPropertyOp4
 70
     1
102
RTVSPropertyOp5
 70
     1
102
RTVSPropertyOp6
 70
     1
102
RTVSPropertyOp7
 70
     1
102
RTVSPropertyOp8
 70
     1
102
RTVSPropertyOp9
 70
     1
102
RTVSPropertyOp10
 70
     1
102
RTVSPropertyOp11
 70
     1
102
RTVSPropertyOp12
 70
     1
102
RTVSPropertyOp13
 70
     1
102
RTVSPropertyOp14
 70
     1
102
RTVSPropertyOp15
 70
     1
102
RTVSPropertyOp16
 70
     1
102
RTVSPropertyOp17
 70
     1
102
RTVSPropertyOp18
 70
     1
102
RTVSPropertyOp19
 70
     1
102
RTVSPropertyOp20
 70
     1
102
RTVSPropertyOp21
 70
     1
102
RTVSPropertyOp22
 70
     1
102
RTVSPropertyOp23
 70
     1
102
RTVSPropertyOp24
 70
     1
102
RTVSPropertyOp25
 70
     1
102
RTVSPropertyOp26
 70
     1
102
RTVSPropertyOp27
 70
     1
102
RTVSPropertyOp28
 70
     1
102
RTVSPropertyOp29
 70
     1
102
RTVSPropertyOp30
 70
     1
102
RTVSPropertyOp31
 70
     1
102
RTVSPropertyOp32
 70
     1
102
RTVSPropertyOp33
 70
     1
102
RTVSPropertyOp34
 70
     1
102
RTVSPropertyOp35
 70
     1
102
RTVSPropertyOp36
 70
     1
102
RTVSPropertyOp37
 70
     1
102
RTVSPropertyOp38
 70
     1
102
RTVSPropertyOp39
 70
     1
102
RTVSPropertyOp40
 70
     1
102
RTVSPropertyOp41
 70
     1
102
RTVSPropertyOp42
 70
     1
102
RTVSPropertyOp43
 70
     1
102
RTVSPropertyOp44
 70
     1
102
RTVSPropertyOp45
 70
     1
102
RTVSPropertyOp46
 70
     1
102
RTVSPropertyOp47
 70
     1
102
RTVSPropertyOp48
 70
     1
102
RTVSPropertyOp49
 70
     1
102
RTVSPropertyOp50
 70
     1
102
RTVSPropertyOp51
 70
     0
102
RTVSPropertyOp52
 70
     0
102
RTVSPropertyOp53
 70
     1
102
RTVSPropertyOp54
 70
     1
102
RTVSPropertyOp55
 70
     1
102
RTVSPropertyOp56
 70
     1
102
RTVSPropertyOp57
 70
     1
102
RTVSPropertyOp58
 70
     1
102
RTVSPropertyOp59
 70
     1
102
RTVSPropertyOp60
 70
     1
102
RTVSPropertyOp61
 70
     1
102
RTVSPropertyOp62
 70
     1
  0
XRECORD
  5
B66B
102
{ACAD_REACTORS
330
B66A
102
}
330
B66A
100
AcDbXrecord
280
     1
102
RTVSPost2010Prop28
280
     0
102
RTVSPost2010PropOp28
 70
     1
102
RTVSPost2010Prop29
280
     1
102
RTVSPost2010PropOp29
 70
     1
102
RTVSPost2010Prop30
280
     1
102
RTVSPost2010PropOp30
 70
     1
102
RTVSPost2010Prop31
280
     0
102
RTVSPost2010PropOp31
 70
     1
102
RTVSPost2010Prop32
280
     0
102
RTVSPost2010PropOp32
 70
     1
102
RTVSPost2010Prop33
280
     0
102
RTVSPost2010PropOp33
 70
     1
102
RTVSPost2010Prop34
280
     0
102
RTVSPost2010PropOp34
 70
     1
102
RTVSPost2010Prop35
280
     0
102
RTVSPost2010PropOp35
 70
     1
102
RTVSPost2010Prop36
280
     0
102
RTVSPost2010PropOp36
 70
     1
102
RTVSPost2010Prop37
 90
       50
102
RTVSPost2010PropOp37
 70
     1
102
RTVSPost2010Prop38
140
0.0
102
RTVSPost2010PropOp38
 70
     1
102
RTVSPost2010Prop39
140
1.0
102
RTVSPost2010PropOp39
 70
     1
102
RTVSPost2010Prop40
 90
        0
102
RTVSPost2010PropOp40
 70
     1
102
RTVSPost2010Prop41ColorIndex
 90
       18
102
RTVSPost2010Prop41ColorRGB
 90
        0
102
RTVSPost2010PropOp41
 70
     1
102
RTVSPost2010Prop42
 90
       50
102
RTVSPost2010PropOp42
 70
     1
102
RTVSPost2010Prop43
 90
        3
102
RTVSPost2010PropOp43
 70
     1
102
RTVSPost2010Prop44ColorIndex
 90
        5
102
RTVSPost2010Prop44ColorRGB
 90
      255
102
RTVSPost2010PropOp44
 70
     1
102
RTVSPost2010Prop45
280
     0
102
RTVSPost2010PropOp45
 70
     1
102
RTVSPost2010Prop46
 90
       50
102
RTVSPost2010PropOp46
 70
     1
102
RTVSPost2010Prop47
 90
       50
102
RTVSPost2010PropOp47
 70
     1
102
RTVSPost2010Prop48
 90
       50
102
RTVSPost2010PropOp48
 70
     1
102
RTVSPost2010Prop49
280
     0
102
RTVSPost2010PropOp49
 70
     1
102
RTVSPost2010Prop50
 90
       50
102
RTVSPost2010PropOp50
 70
     1
102
RTVSPost2010Prop51ColorIndex
 90
      256
102
RTVSPost2010Prop51ColorRGB
 90
-16777216
102
RTVSPost2010PropOp51
 70
     0
102
RTVSPost2010Prop52
140
1.0
102
RTVSPost2010PropOp52
 70
     0
102
RTVSPost2010Prop53
 90
        2
102
RTVSPost2010PropOp53
 70
     1
102
RTVSPost2010Prop54
  1
strokes_ogs.tif
102
RTVSPost2010PropOp54
 70
     1
102
RTVSPost2010Prop55
280
     0
102
RTVSPost2010PropOp55
 70
     1
102
RTVSPost2010Prop56
140
1.0
102
RTVSPost2010PropOp56
 70
     1
102
RTVSPost2010Prop57
140
1.0
102
RTVSPost2010PropOp57
 70
     1
102
RTVSPropertyOp0
 70
     1
102
RTVSPropertyOp1
 70
     1
102
RTVSPropertyOp2
 70
     1
102
RTVSPropertyOp3
 70
     1
102
RTVSPropertyOp4
 70
     1
102
RTVSPropertyOp5
 70
     1
102
RTVSPropertyOp6
 70
     1
102
RTVSPropertyOp7
 70
     1
102
RTVSPropertyOp8
 70
     1
102
RTVSPropertyOp9
 70
     1
102
RTVSPropertyOp10
 70
     1
102
RTVSPropertyOp11
 70
     1
102
RTVSPropertyOp12
 70
     1
102
RTVSPropertyOp13
 70
     1
102
RTVSPropertyOp14
 70
     1
102
RTVSPropertyOp15
 70
     1
102
RTVSPropertyOp16
 70
     1
102
RTVSPropertyOp17
 70
     1
102
RTVSPropertyOp18
 70
     1
102
RTVSPropertyOp19
 70
     1
102
RTVSPropertyOp20
 70
     1
102
RTVSPropertyOp21
 70
     1
102
RTVSPropertyOp22
 70
     1
102
RTVSPropertyOp23
 70
     1
102
RTVSPropertyOp24
 70
     1
102
RTVSPropertyOp25
 70
     1
102
RTVSPropertyOp26
 70
     1
102
RTVSPropertyOp27
 70
     1
102
RTVSPropertyOp28
 70
     1
102
RTVSPropertyOp29
 70
     1
102
RTVSPropertyOp30
 70
     1
102
RTVSPropertyOp31
 70
     1
102
RTVSPropertyOp32
 70
     1
102
RTVSPropertyOp33
 70
     1
102
RTVSPropertyOp34
 70
     1
102
RTVSPropertyOp35
 70
     1
102
RTVSPropertyOp36
 70
     1
102
RTVSPropertyOp37
 70
     1
102
RTVSPropertyOp38
 70
     1
102
RTVSPropertyOp39
 70
     1
102
RTVSPropertyOp40
 70
     1
102
RTVSPropertyOp41
 70
     1
102
RTVSPropertyOp42
 70
     1
102
RTVSPropertyOp43
 70
     1
102
RTVSPropertyOp44
 70
     1
102
RTVSPropertyOp45
 70
     1
102
RTVSPropertyOp46
 70
     1
102
RTVSPropertyOp47
 70
     1
102
RTVSPropertyOp48
 70
     1
102
RTVSPropertyOp49
 70
     1
102
RTVSPropertyOp50
 70
     1
102
RTVSPropertyOp51
 70
     0
102
RTVSPropertyOp52
 70
     0
102
RTVSPropertyOp53
 70
     1
102
RTVSPropertyOp54
 70
     1
102
RTVSPropertyOp55
 70
     1
102
RTVSPropertyOp56
 70
     1
102
RTVSPropertyOp57
 70
     1
102
RTVSPropertyOp58
 70
     1
102
RTVSPropertyOp59
 70
     1
102
RTVSPropertyOp60
 70
     1
102
RTVSPropertyOp61
 70
     1
102
RTVSPropertyOp62
 70
     1
  0
XRECORD
  5
B679
102
{ACAD_REACTORS
330
B678
102
}
330
B678
100
AcDbXrecord
280
     1
102
RTVSPost2010Prop28
280
     0
102
RTVSPost2010PropOp28
 70
     1
102
RTVSPost2010Prop29
280
     1
102
RTVSPost2010PropOp29
 70
     1
102
RTVSPost2010Prop30
280
     1
102
RTVSPost2010PropOp30
 70
     1
102
RTVSPost2010Prop31
280
     0
102
RTVSPost2010PropOp31
 70
     1
102
RTVSPost2010Prop32
280
     0
102
RTVSPost2010PropOp32
 70
     1
102
RTVSPost2010Prop33
280
     0
102
RTVSPost2010PropOp33
 70
     1
102
RTVSPost2010Prop34
280
     0
102
RTVSPost2010PropOp34
 70
     1
102
RTVSPost2010Prop35
280
     0
102
RTVSPost2010PropOp35
 70
     1
102
RTVSPost2010Prop36
280
     0
102
RTVSPost2010PropOp36
 70
     1
102
RTVSPost2010Prop37
 90
       50
102
RTVSPost2010PropOp37
 70
     1
102
RTVSPost2010Prop38
140
0.0
102
RTVSPost2010PropOp38
 70
     1
102
RTVSPost2010Prop39
140
1.0
102
RTVSPost2010PropOp39
 70
     1
102
RTVSPost2010Prop40
 90
        0
102
RTVSPost2010PropOp40
 70
     1
102
RTVSPost2010Prop41ColorIndex
 90
       18
102
RTVSPost2010Prop41ColorRGB
 90
        0
102
RTVSPost2010PropOp41
 70
     1
102
RTVSPost2010Prop42
 90
       50
102
RTVSPost2010PropOp42
 70
     1
102
RTVSPost2010Prop43
 90
        3
102
RTVSPost2010PropOp43
 70
     1
102
RTVSPost2010Prop44ColorIndex
 90
        5
102
RTVSPost2010Prop44ColorRGB
 90
      255
102
RTVSPost2010PropOp44
 70
     1
102
RTVSPost2010Prop45
280
     0
102
RTVSPost2010PropOp45
 70
     1
102
RTVSPost2010Prop46
 90
       50
102
RTVSPost2010PropOp46
 70
     1
102
RTVSPost2010Prop47
 90
       50
102
RTVSPost2010PropOp47
 70
     1
102
RTVSPost2010Prop48
 90
       50
102
RTVSPost2010PropOp48
 70
     1
102
RTVSPost2010Prop49
280
     0
102
RTVSPost2010PropOp49
 70
     1
102
RTVSPost2010Prop50
 90
       50
102
RTVSPost2010PropOp50
 70
     1
102
RTVSPost2010Prop51ColorIndex
 90
      256
102
RTVSPost2010Prop51ColorRGB
 90
-16777216
102
RTVSPost2010PropOp51
 70
     0
102
RTVSPost2010Prop52
140
1.0
102
RTVSPost2010PropOp52
 70
     0
102
RTVSPost2010Prop53
 90
        2
102
RTVSPost2010PropOp53
 70
     1
102
RTVSPost2010Prop54
  1
strokes_ogs.tif
102
RTVSPost2010PropOp54
 70
     1
102
RTVSPost2010Prop55
280
     0
102
RTVSPost2010PropOp55
 70
     1
102
RTVSPost2010Prop56
140
1.0
102
RTVSPost2010PropOp56
 70
     1
102
RTVSPost2010Prop57
140
1.0
102
RTVSPost2010PropOp57
 70
     1
102
RTVSPropertyOp0
 70
     1
102
RTVSPropertyOp1
 70
     1
102
RTVSPropertyOp2
 70
     1
102
RTVSPropertyOp3
 70
     1
102
RTVSPropertyOp4
 70
     1
102
RTVSPropertyOp5
 70
     1
102
RTVSPropertyOp6
 70
     1
102
RTVSPropertyOp7
 70
     1
102
RTVSPropertyOp8
 70
     1
102
RTVSPropertyOp9
 70
     1
102
RTVSPropertyOp10
 70
     1
102
RTVSPropertyOp11
 70
     1
102
RTVSPropertyOp12
 70
     1
102
RTVSPropertyOp13
 70
     1
102
RTVSPropertyOp14
 70
     1
102
RTVSPropertyOp15
 70
     1
102
RTVSPropertyOp16
 70
     1
102
RTVSPropertyOp17
 70
     1
102
RTVSPropertyOp18
 70
     1
102
RTVSPropertyOp19
 70
     1
102
RTVSPropertyOp20
 70
     1
102
RTVSPropertyOp21
 70
     1
102
RTVSPropertyOp22
 70
     1
102
RTVSPropertyOp23
 70
     1
102
RTVSPropertyOp24
 70
     1
102
RTVSPropertyOp25
 70
     1
102
RTVSPropertyOp26
 70
     1
102
RTVSPropertyOp27
 70
     1
102
RTVSPropertyOp28
 70
     1
102
RTVSPropertyOp29
 70
     1
102
RTVSPropertyOp30
 70
     1
102
RTVSPropertyOp31
 70
     1
102
RTVSPropertyOp32
 70
     1
102
RTVSPropertyOp33
 70
     1
102
RTVSPropertyOp34
 70
     1
102
RTVSPropertyOp35
 70
     1
102
RTVSPropertyOp36
 70
     1
102
RTVSPropertyOp37
 70
     1
102
RTVSPropertyOp38
 70
     1
102
RTVSPropertyOp39
 70
     1
102
RTVSPropertyOp40
 70
     1
102
RTVSPropertyOp41
 70
     1
102
RTVSPropertyOp42
 70
     1
102
RTVSPropertyOp43
 70
     1
102
RTVSPropertyOp44
 70
     1
102
RTVSPropertyOp45
 70
     1
102
RTVSPropertyOp46
 70
     1
102
RTVSPropertyOp47
 70
     1
102
RTVSPropertyOp48
 70
     1
102
RTVSPropertyOp49
 70
     1
102
RTVSPropertyOp50
 70
     1
102
RTVSPropertyOp51
 70
     0
102
RTVSPropertyOp52
 70
     0
102
RTVSPropertyOp53
 70
     1
102
RTVSPropertyOp54
 70
     1
102
RTVSPropertyOp55
 70
     1
102
RTVSPropertyOp56
 70
     1
102
RTVSPropertyOp57
 70
     1
102
RTVSPropertyOp58
 70
     1
102
RTVSPropertyOp59
 70
     1
102
RTVSPropertyOp60
 70
     1
102
RTVSPropertyOp61
 70
     1
102
RTVSPropertyOp62
 70
     1
  0
XRECORD
  5
B681
102
{ACAD_REACTORS
330
B680
102
}
330
B680
100
AcDbXrecord
280
     1
102
RTVSPost2010Prop28
280
     0
102
RTVSPost2010PropOp28
 70
     1
102
RTVSPost2010Prop29
280
     1
102
RTVSPost2010PropOp29
 70
     1
102
RTVSPost2010Prop30
280
     1
102
RTVSPost2010PropOp30
 70
     1
102
RTVSPost2010Prop31
280
     0
102
RTVSPost2010PropOp31
 70
     1
102
RTVSPost2010Prop32
280
     0
102
RTVSPost2010PropOp32
 70
     1
102
RTVSPost2010Prop33
280
     0
102
RTVSPost2010PropOp33
 70
     1
102
RTVSPost2010Prop34
280
     0
102
RTVSPost2010PropOp34
 70
     1
102
RTVSPost2010Prop35
280
     0
102
RTVSPost2010PropOp35
 70
     1
102
RTVSPost2010Prop36
280
     0
102
RTVSPost2010PropOp36
 70
     1
102
RTVSPost2010Prop37
 90
       50
102
RTVSPost2010PropOp37
 70
     1
102
RTVSPost2010Prop38
140
0.0
102
RTVSPost2010PropOp38
 70
     1
102
RTVSPost2010Prop39
140
1.0
102
RTVSPost2010PropOp39
 70
     1
102
RTVSPost2010Prop40
 90
        0
102
RTVSPost2010PropOp40
 70
     1
102
RTVSPost2010Prop41ColorIndex
 90
       18
102
RTVSPost2010Prop41ColorRGB
 90
        0
102
RTVSPost2010PropOp41
 70
     1
102
RTVSPost2010Prop42
 90
       50
102
RTVSPost2010PropOp42
 70
     1
102
RTVSPost2010Prop43
 90
        3
102
RTVSPost2010PropOp43
 70
     1
102
RTVSPost2010Prop44ColorIndex
 90
        5
102
RTVSPost2010Prop44ColorRGB
 90
      255
102
RTVSPost2010PropOp44
 70
     1
102
RTVSPost2010Prop45
280
     0
102
RTVSPost2010PropOp45
 70
     1
102
RTVSPost2010Prop46
 90
       50
102
RTVSPost2010PropOp46
 70
     1
102
RTVSPost2010Prop47
 90
       50
102
RTVSPost2010PropOp47
 70
     1
102
RTVSPost2010Prop48
 90
       50
102
RTVSPost2010PropOp48
 70
     1
102
RTVSPost2010Prop49
280
     0
102
RTVSPost2010PropOp49
 70
     1
102
RTVSPost2010Prop50
 90
       50
102
RTVSPost2010PropOp50
 70
     1
102
RTVSPost2010Prop51ColorIndex
 90
      256
102
RTVSPost2010Prop51ColorRGB
 90
-16777216
102
RTVSPost2010PropOp51
 70
     0
102
RTVSPost2010Prop52
140
1.0
102
RTVSPost2010PropOp52
 70
     0
102
RTVSPost2010Prop53
 90
        2
102
RTVSPost2010PropOp53
 70
     1
102
RTVSPost2010Prop54
  1
strokes_ogs.tif
102
RTVSPost2010PropOp54
 70
     1
102
RTVSPost2010Prop55
280
     0
102
RTVSPost2010PropOp55
 70
     1
102
RTVSPost2010Prop56
140
1.0
102
RTVSPost2010PropOp56
 70
     1
102
RTVSPost2010Prop57
140
1.0
102
RTVSPost2010PropOp57
 70
     1
102
RTVSPropertyOp0
 70
     1
102
RTVSPropertyOp1
 70
     1
102
RTVSPropertyOp2
 70
     1
102
RTVSPropertyOp3
 70
     1
102
RTVSPropertyOp4
 70
     1
102
RTVSPropertyOp5
 70
     1
102
RTVSPropertyOp6
 70
     1
102
RTVSPropertyOp7
 70
     1
102
RTVSPropertyOp8
 70
     1
102
RTVSPropertyOp9
 70
     1
102
RTVSPropertyOp10
 70
     1
102
RTVSPropertyOp11
 70
     1
102
RTVSPropertyOp12
 70
     1
102
RTVSPropertyOp13
 70
     1
102
RTVSPropertyOp14
 70
     1
102
RTVSPropertyOp15
 70
     1
102
RTVSPropertyOp16
 70
     1
102
RTVSPropertyOp17
 70
     1
102
RTVSPropertyOp18
 70
     1
102
RTVSPropertyOp19
 70
     1
102
RTVSPropertyOp20
 70
     1
102
RTVSPropertyOp21
 70
     1
102
RTVSPropertyOp22
 70
     1
102
RTVSPropertyOp23
 70
     1
102
RTVSPropertyOp24
 70
     1
102
RTVSPropertyOp25
 70
     1
102
RTVSPropertyOp26
 70
     1
102
RTVSPropertyOp27
 70
     1
102
RTVSPropertyOp28
 70
     1
102
RTVSPropertyOp29
 70
     1
102
RTVSPropertyOp30
 70
     1
102
RTVSPropertyOp31
 70
     1
102
RTVSPropertyOp32
 70
     1
102
RTVSPropertyOp33
 70
     1
102
RTVSPropertyOp34
 70
     1
102
RTVSPropertyOp35
 70
     1
102
RTVSPropertyOp36
 70
     1
102
RTVSPropertyOp37
 70
     1
102
RTVSPropertyOp38
 70
     1
102
RTVSPropertyOp39
 70
     1
102
RTVSPropertyOp40
 70
     1
102
RTVSPropertyOp41
 70
     1
102
RTVSPropertyOp42
 70
     1
102
RTVSPropertyOp43
 70
     1
102
RTVSPropertyOp44
 70
     1
102
RTVSPropertyOp45
 70
     1
102
RTVSPropertyOp46
 70
     1
102
RTVSPropertyOp47
 70
     1
102
RTVSPropertyOp48
 70
     1
102
RTVSPropertyOp49
 70
     1
102
RTVSPropertyOp50
 70
     1
102
RTVSPropertyOp51
 70
     0
102
RTVSPropertyOp52
 70
     0
102
RTVSPropertyOp53
 70
     1
102
RTVSPropertyOp54
 70
     1
102
RTVSPropertyOp55
 70
     1
102
RTVSPropertyOp56
 70
     1
102
RTVSPropertyOp57
 70
     1
102
RTVSPropertyOp58
 70
     1
102
RTVSPropertyOp59
 70
     1
102
RTVSPropertyOp60
 70
     1
102
RTVSPropertyOp61
 70
     1
102
RTVSPropertyOp62
 70
     1
  0
XRECORD
  5
B673
102
{ACAD_REACTORS
330
B672
102
}
330
B672
100
AcDbXrecord
280
     1
102
RTVSPost2010Prop28
280
     0
102
RTVSPost2010PropOp28
 70
     1
102
RTVSPost2010Prop29
280
     1
102
RTVSPost2010PropOp29
 70
     1
102
RTVSPost2010Prop30
280
     1
102
RTVSPost2010PropOp30
 70
     1
102
RTVSPost2010Prop31
280
     0
102
RTVSPost2010PropOp31
 70
     1
102
RTVSPost2010Prop32
280
     0
102
RTVSPost2010PropOp32
 70
     1
102
RTVSPost2010Prop33
280
     0
102
RTVSPost2010PropOp33
 70
     1
102
RTVSPost2010Prop34
280
     0
102
RTVSPost2010PropOp34
 70
     1
102
RTVSPost2010Prop35
280
     0
102
RTVSPost2010PropOp35
 70
     1
102
RTVSPost2010Prop36
280
     0
102
RTVSPost2010PropOp36
 70
     1
102
RTVSPost2010Prop37
 90
       50
102
RTVSPost2010PropOp37
 70
     1
102
RTVSPost2010Prop38
140
0.0
102
RTVSPost2010PropOp38
 70
     1
102
RTVSPost2010Prop39
140
1.0
102
RTVSPost2010PropOp39
 70
     1
102
RTVSPost2010Prop40
 90
        0
102
RTVSPost2010PropOp40
 70
     1
102
RTVSPost2010Prop41ColorIndex
 90
       18
102
RTVSPost2010Prop41ColorRGB
 90
        0
102
RTVSPost2010PropOp41
 70
     1
102
RTVSPost2010Prop42
 90
       50
102
RTVSPost2010PropOp42
 70
     1
102
RTVSPost2010Prop43
 90
        3
102
RTVSPost2010PropOp43
 70
     1
102
RTVSPost2010Prop44ColorIndex
 90
        5
102
RTVSPost2010Prop44ColorRGB
 90
      255
102
RTVSPost2010PropOp44
 70
     1
102
RTVSPost2010Prop45
280
     0
102
RTVSPost2010PropOp45
 70
     1
102
RTVSPost2010Prop46
 90
       50
102
RTVSPost2010PropOp46
 70
     1
102
RTVSPost2010Prop47
 90
       50
102
RTVSPost2010PropOp47
 70
     1
102
RTVSPost2010Prop48
 90
       50
102
RTVSPost2010PropOp48
 70
     1
102
RTVSPost2010Prop49
280
     0
102
RTVSPost2010PropOp49
 70
     1
102
RTVSPost2010Prop50
 90
       50
102
RTVSPost2010PropOp50
 70
     1
102
RTVSPost2010Prop51ColorIndex
 90
      256
102
RTVSPost2010Prop51ColorRGB
 90
-16777216
102
RTVSPost2010PropOp51
 70
     0
102
RTVSPost2010Prop52
140
1.0
102
RTVSPost2010PropOp52
 70
     0
102
RTVSPost2010Prop53
 90
        2
102
RTVSPost2010PropOp53
 70
     1
102
RTVSPost2010Prop54
  1
strokes_ogs.tif
102
RTVSPost2010PropOp54
 70
     1
102
RTVSPost2010Prop55
280
     0
102
RTVSPost2010PropOp55
 70
     1
102
RTVSPost2010Prop56
140
1.0
102
RTVSPost2010PropOp56
 70
     1
102
RTVSPost2010Prop57
140
1.0
102
RTVSPost2010PropOp57
 70
     1
102
RTVSPropertyOp0
 70
     1
102
RTVSPropertyOp1
 70
     1
102
RTVSPropertyOp2
 70
     1
102
RTVSPropertyOp3
 70
     1
102
RTVSPropertyOp4
 70
     1
102
RTVSPropertyOp5
 70
     1
102
RTVSPropertyOp6
 70
     1
102
RTVSPropertyOp7
 70
     1
102
RTVSPropertyOp8
 70
     1
102
RTVSPropertyOp9
 70
     1
102
RTVSPropertyOp10
 70
     1
102
RTVSPropertyOp11
 70
     1
102
RTVSPropertyOp12
 70
     1
102
RTVSPropertyOp13
 70
     1
102
RTVSPropertyOp14
 70
     1
102
RTVSPropertyOp15
 70
     1
102
RTVSPropertyOp16
 70
     1
102
RTVSPropertyOp17
 70
     1
102
RTVSPropertyOp18
 70
     1
102
RTVSPropertyOp19
 70
     1
102
RTVSPropertyOp20
 70
     1
102
RTVSPropertyOp21
 70
     1
102
RTVSPropertyOp22
 70
     1
102
RTVSPropertyOp23
 70
     1
102
RTVSPropertyOp24
 70
     1
102
RTVSPropertyOp25
 70
     1
102
RTVSPropertyOp26
 70
     1
102
RTVSPropertyOp27
 70
     1
102
RTVSPropertyOp28
 70
     1
102
RTVSPropertyOp29
 70
     1
102
RTVSPropertyOp30
 70
     1
102
RTVSPropertyOp31
 70
     1
102
RTVSPropertyOp32
 70
     1
102
RTVSPropertyOp33
 70
     1
102
RTVSPropertyOp34
 70
     1
102
RTVSPropertyOp35
 70
     1
102
RTVSPropertyOp36
 70
     1
102
RTVSPropertyOp37
 70
     1
102
RTVSPropertyOp38
 70
     1
102
RTVSPropertyOp39
 70
     1
102
RTVSPropertyOp40
 70
     1
102
RTVSPropertyOp41
 70
     1
102
RTVSPropertyOp42
 70
     1
102
RTVSPropertyOp43
 70
     1
102
RTVSPropertyOp44
 70
     1
102
RTVSPropertyOp45
 70
     1
102
RTVSPropertyOp46
 70
     1
102
RTVSPropertyOp47
 70
     1
102
RTVSPropertyOp48
 70
     1
102
RTVSPropertyOp49
 70
     1
102
RTVSPropertyOp50
 70
     1
102
RTVSPropertyOp51
 70
     0
102
RTVSPropertyOp52
 70
     0
102
RTVSPropertyOp53
 70
     1
102
RTVSPropertyOp54
 70
     1
102
RTVSPropertyOp55
 70
     1
102
RTVSPropertyOp56
 70
     1
102
RTVSPropertyOp57
 70
     1
102
RTVSPropertyOp58
 70
     1
102
RTVSPropertyOp59
 70
     1
102
RTVSPropertyOp60
 70
     1
102
RTVSPropertyOp61
 70
     1
102
RTVSPropertyOp62
 70
     1
  0
XRECORD
  5
B677
102
{ACAD_REACTORS
330
B676
102
}
330
B676
100
AcDbXrecord
280
     1
102
RTVSPost2010Prop28
280
     0
102
RTVSPost2010PropOp28
 70
     1
102
RTVSPost2010Prop29
280
     1
102
RTVSPost2010PropOp29
 70
     1
102
RTVSPost2010Prop30
280
     1
102
RTVSPost2010PropOp30
 70
     1
102
RTVSPost2010Prop31
280
     0
102
RTVSPost2010PropOp31
 70
     1
102
RTVSPost2010Prop32
280
     0
102
RTVSPost2010PropOp32
 70
     1
102
RTVSPost2010Prop33
280
     0
102
RTVSPost2010PropOp33
 70
     1
102
RTVSPost2010Prop34
280
     0
102
RTVSPost2010PropOp34
 70
     1
102
RTVSPost2010Prop35
280
     0
102
RTVSPost2010PropOp35
 70
     1
102
RTVSPost2010Prop36
280
     0
102
RTVSPost2010PropOp36
 70
     1
102
RTVSPost2010Prop37
 90
       50
102
RTVSPost2010PropOp37
 70
     1
102
RTVSPost2010Prop38
140
0.0
102
RTVSPost2010PropOp38
 70
     1
102
RTVSPost2010Prop39
140
1.0
102
RTVSPost2010PropOp39
 70
     1
102
RTVSPost2010Prop40
 90
        0
102
RTVSPost2010PropOp40
 70
     1
102
RTVSPost2010Prop41ColorIndex
 90
       18
102
RTVSPost2010Prop41ColorRGB
 90
        0
102
RTVSPost2010PropOp41
 70
     1
102
RTVSPost2010Prop42
 90
       50
102
RTVSPost2010PropOp42
 70
     1
102
RTVSPost2010Prop43
 90
        3
102
RTVSPost2010PropOp43
 70
     1
102
RTVSPost2010Prop44ColorIndex
 90
        5
102
RTVSPost2010Prop44ColorRGB
 90
      255
102
RTVSPost2010PropOp44
 70
     1
102
RTVSPost2010Prop45
280
     0
102
RTVSPost2010PropOp45
 70
     1
102
RTVSPost2010Prop46
 90
       50
102
RTVSPost2010PropOp46
 70
     1
102
RTVSPost2010Prop47
 90
       50
102
RTVSPost2010PropOp47
 70
     1
102
RTVSPost2010Prop48
 90
       50
102
RTVSPost2010PropOp48
 70
     1
102
RTVSPost2010Prop49
280
     0
102
RTVSPost2010PropOp49
 70
     1
102
RTVSPost2010Prop50
 90
       50
102
RTVSPost2010PropOp50
 70
     1
102
RTVSPost2010Prop51ColorIndex
 90
      256
102
RTVSPost2010Prop51ColorRGB
 90
-16777216
102
RTVSPost2010PropOp51
 70
     0
102
RTVSPost2010Prop52
140
1.0
102
RTVSPost2010PropOp52
 70
     0
102
RTVSPost2010Prop53
 90
        2
102
RTVSPost2010PropOp53
 70
     1
102
RTVSPost2010Prop54
  1
strokes_ogs.tif
102
RTVSPost2010PropOp54
 70
     1
102
RTVSPost2010Prop55
280
     0
102
RTVSPost2010PropOp55
 70
     1
102
RTVSPost2010Prop56
140
1.0
102
RTVSPost2010PropOp56
 70
     1
102
RTVSPost2010Prop57
140
1.0
102
RTVSPost2010PropOp57
 70
     1
102
RTVSPropertyOp0
 70
     1
102
RTVSPropertyOp1
 70
     1
102
RTVSPropertyOp2
 70
     1
102
RTVSPropertyOp3
 70
     1
102
RTVSPropertyOp4
 70
     1
102
RTVSPropertyOp5
 70
     1
102
RTVSPropertyOp6
 70
     1
102
RTVSPropertyOp7
 70
     1
102
RTVSPropertyOp8
 70
     1
102
RTVSPropertyOp9
 70
     1
102
RTVSPropertyOp10
 70
     1
102
RTVSPropertyOp11
 70
     1
102
RTVSPropertyOp12
 70
     1
102
RTVSPropertyOp13
 70
     1
102
RTVSPropertyOp14
 70
     1
102
RTVSPropertyOp15
 70
     1
102
RTVSPropertyOp16
 70
     1
102
RTVSPropertyOp17
 70
     1
102
RTVSPropertyOp18
 70
     1
102
RTVSPropertyOp19
 70
     1
102
RTVSPropertyOp20
 70
     1
102
RTVSPropertyOp21
 70
     1
102
RTVSPropertyOp22
 70
     1
102
RTVSPropertyOp23
 70
     1
102
RTVSPropertyOp24
 70
     1
102
RTVSPropertyOp25
 70
     1
102
RTVSPropertyOp26
 70
     1
102
RTVSPropertyOp27
 70
     1
102
RTVSPropertyOp28
 70
     1
102
RTVSPropertyOp29
 70
     1
102
RTVSPropertyOp30
 70
     1
102
RTVSPropertyOp31
 70
     1
102
RTVSPropertyOp32
 70
     1
102
RTVSPropertyOp33
 70
     1
102
RTVSPropertyOp34
 70
     1
102
RTVSPropertyOp35
 70
     1
102
RTVSPropertyOp36
 70
     1
102
RTVSPropertyOp37
 70
     1
102
RTVSPropertyOp38
 70
     1
102
RTVSPropertyOp39
 70
     1
102
RTVSPropertyOp40
 70
     1
102
RTVSPropertyOp41
 70
     1
102
RTVSPropertyOp42
 70
     1
102
RTVSPropertyOp43
 70
     1
102
RTVSPropertyOp44
 70
     1
102
RTVSPropertyOp45
 70
     1
102
RTVSPropertyOp46
 70
     1
102
RTVSPropertyOp47
 70
     1
102
RTVSPropertyOp48
 70
     1
102
RTVSPropertyOp49
 70
     1
102
RTVSPropertyOp50
 70
     1
102
RTVSPropertyOp51
 70
     0
102
RTVSPropertyOp52
 70
     0
102
RTVSPropertyOp53
 70
     1
102
RTVSPropertyOp54
 70
     1
102
RTVSPropertyOp55
 70
     1
102
RTVSPropertyOp56
 70
     1
102
RTVSPropertyOp57
 70
     1
102
RTVSPropertyOp58
 70
     1
102
RTVSPropertyOp59
 70
     1
102
RTVSPropertyOp60
 70
     1
102
RTVSPropertyOp61
 70
     1
102
RTVSPropertyOp62
 70
     1
  0
XRECORD
  5
B691
102
{ACAD_REACTORS
330
B690
102
}
330
B690
100
AcDbXrecord
280
     1
102
RTVSPost2010Prop28
280
     0
102
RTVSPost2010PropOp28
 70
     1
102
RTVSPost2010Prop29
280
     1
102
RTVSPost2010PropOp29
 70
     1
102
RTVSPost2010Prop30
280
     1
102
RTVSPost2010PropOp30
 70
     1
102
RTVSPost2010Prop31
280
     0
102
RTVSPost2010PropOp31
 70
     1
102
RTVSPost2010Prop32
280
     0
102
RTVSPost2010PropOp32
 70
     1
102
RTVSPost2010Prop33
280
     0
102
RTVSPost2010PropOp33
 70
     1
102
RTVSPost2010Prop34
280
     0
102
RTVSPost2010PropOp34
 70
     1
102
RTVSPost2010Prop35
280
     0
102
RTVSPost2010PropOp35
 70
     1
102
RTVSPost2010Prop36
280
     0
102
RTVSPost2010PropOp36
 70
     1
102
RTVSPost2010Prop37
 90
       50
102
RTVSPost2010PropOp37
 70
     0
102
RTVSPost2010Prop38
140
0.0
102
RTVSPost2010PropOp38
 70
     0
102
RTVSPost2010Prop39
140
1.0
102
RTVSPost2010PropOp39
 70
     0
102
RTVSPost2010Prop40
 90
        0
102
RTVSPost2010PropOp40
 70
     0
102
RTVSPost2010Prop41ColorIndex
 90
       18
102
RTVSPost2010Prop41ColorRGB
 90
        0
102
RTVSPost2010PropOp41
 70
     0
102
RTVSPost2010Prop42
 90
       50
102
RTVSPost2010PropOp42
 70
     0
102
RTVSPost2010Prop43
 90
        3
102
RTVSPost2010PropOp43
 70
     0
102
RTVSPost2010Prop44ColorIndex
 90
        5
102
RTVSPost2010Prop44ColorRGB
 90
      255
102
RTVSPost2010PropOp44
 70
     0
102
RTVSPost2010Prop45
280
     0
102
RTVSPost2010PropOp45
 70
     1
102
RTVSPost2010Prop46
 90
       50
102
RTVSPost2010PropOp46
 70
     0
102
RTVSPost2010Prop47
 90
       50
102
RTVSPost2010PropOp47
 70
     0
102
RTVSPost2010Prop48
 90
       50
102
RTVSPost2010PropOp48
 70
     0
102
RTVSPost2010Prop49
280
     0
102
RTVSPost2010PropOp49
 70
     1
102
RTVSPost2010Prop50
 90
       50
102
RTVSPost2010PropOp50
 70
     0
102
RTVSPost2010Prop51ColorIndex
 90
      256
102
RTVSPost2010Prop51ColorRGB
 90
-16777216
102
RTVSPost2010PropOp51
 70
     0
102
RTVSPost2010Prop52
140
1.0
102
RTVSPost2010PropOp52
 70
     0
102
RTVSPost2010Prop53
 90
        2
102
RTVSPost2010PropOp53
 70
     0
102
RTVSPost2010Prop54
  1
strokes_ogs.tif
102
RTVSPost2010PropOp54
 70
     0
102
RTVSPost2010Prop55
280
     0
102
RTVSPost2010PropOp55
 70
     1
102
RTVSPost2010Prop56
140
1.0
102
RTVSPost2010PropOp56
 70
     0
102
RTVSPost2010Prop57
140
1.0
102
RTVSPost2010PropOp57
 70
     0
102
RTVSPropertyOp0
 70
     0
102
RTVSPropertyOp1
 70
     0
102
RTVSPropertyOp2
 70
     0
102
RTVSPropertyOp3
 70
     0
102
RTVSPropertyOp4
 70
     0
102
RTVSPropertyOp5
 70
     0
102
RTVSPropertyOp6
 70
     0
102
RTVSPropertyOp7
 70
     0
102
RTVSPropertyOp8
 70
     0
102
RTVSPropertyOp9
 70
     0
102
RTVSPropertyOp10
 70
     0
102
RTVSPropertyOp11
 70
     0
102
RTVSPropertyOp12
 70
     0
102
RTVSPropertyOp13
 70
     0
102
RTVSPropertyOp14
 70
     2
102
RTVSPropertyOp15
 70
     0
102
RTVSPropertyOp16
 70
     0
102
RTVSPropertyOp17
 70
     0
102
RTVSPropertyOp18
 70
     0
102
RTVSPropertyOp19
 70
     0
102
RTVSPropertyOp20
 70
     0
102
RTVSPropertyOp21
 70
     0
102
RTVSPropertyOp22
 70
     0
102
RTVSPropertyOp23
 70
     0
102
RTVSPropertyOp24
 70
     0
102
RTVSPropertyOp25
 70
     0
102
RTVSPropertyOp26
 70
     0
102
RTVSPropertyOp27
 70
     0
102
RTVSPropertyOp28
 70
     1
102
RTVSPropertyOp29
 70
     1
102
RTVSPropertyOp30
 70
     1
102
RTVSPropertyOp31
 70
     1
102
RTVSPropertyOp32
 70
     1
102
RTVSPropertyOp33
 70
     1
102
RTVSPropertyOp34
 70
     1
102
RTVSPropertyOp35
 70
     1
102
RTVSPropertyOp36
 70
     1
102
RTVSPropertyOp37
 70
     0
102
RTVSPropertyOp38
 70
     0
102
RTVSPropertyOp39
 70
     0
102
RTVSPropertyOp40
 70
     0
102
RTVSPropertyOp41
 70
     0
102
RTVSPropertyOp42
 70
     0
102
RTVSPropertyOp43
 70
     0
102
RTVSPropertyOp44
 70
     0
102
RTVSPropertyOp45
 70
     1
102
RTVSPropertyOp46
 70
     0
102
RTVSPropertyOp47
 70
     0
102
RTVSPropertyOp48
 70
     0
102
RTVSPropertyOp49
 70
     1
102
RTVSPropertyOp50
 70
     0
102
RTVSPropertyOp51
 70
     0
102
RTVSPropertyOp52
 70
     0
102
RTVSPropertyOp53
 70
     0
102
RTVSPropertyOp54
 70
     0
102
RTVSPropertyOp55
 70
     1
102
RTVSPropertyOp56
 70
     0
102
RTVSPropertyOp57
 70
     0
102
RTVSPropertyOp58
 70
     0
102
RTVSPropertyOp59
 70
     0
102
RTVSPropertyOp60
 70
     0
102
RTVSPropertyOp61
 70
     0
102
RTVSPropertyOp62
 70
     0
  0
XRECORD
  5
B67F
102
{ACAD_REACTORS
330
B67E
102
}
330
B67E
100
AcDbXrecord
280
     1
102
RTVSPost2010Prop28
280
     0
102
RTVSPost2010PropOp28
 70
     1
102
RTVSPost2010Prop29
280
     1
102
RTVSPost2010PropOp29
 70
     1
102
RTVSPost2010Prop30
280
     1
102
RTVSPost2010PropOp30
 70
     1
102
RTVSPost2010Prop31
280
     0
102
RTVSPost2010PropOp31
 70
     1
102
RTVSPost2010Prop32
280
     0
102
RTVSPost2010PropOp32
 70
     1
102
RTVSPost2010Prop33
280
     0
102
RTVSPost2010PropOp33
 70
     1
102
RTVSPost2010Prop34
280
     0
102
RTVSPost2010PropOp34
 70
     1
102
RTVSPost2010Prop35
280
     0
102
RTVSPost2010PropOp35
 70
     1
102
RTVSPost2010Prop36
280
     0
102
RTVSPost2010PropOp36
 70
     1
102
RTVSPost2010Prop37
 90
       50
102
RTVSPost2010PropOp37
 70
     1
102
RTVSPost2010Prop38
140
0.0
102
RTVSPost2010PropOp38
 70
     1
102
RTVSPost2010Prop39
140
1.0
102
RTVSPost2010PropOp39
 70
     1
102
RTVSPost2010Prop40
 90
        0
102
RTVSPost2010PropOp40
 70
     1
102
RTVSPost2010Prop41ColorIndex
 90
       18
102
RTVSPost2010Prop41ColorRGB
 90
        0
102
RTVSPost2010PropOp41
 70
     1
102
RTVSPost2010Prop42
 90
       50
102
RTVSPost2010PropOp42
 70
     1
102
RTVSPost2010Prop43
 90
        3
102
RTVSPost2010PropOp43
 70
     1
102
RTVSPost2010Prop44ColorIndex
 90
        5
102
RTVSPost2010Prop44ColorRGB
 90
      255
102
RTVSPost2010PropOp44
 70
     1
102
RTVSPost2010Prop45
280
     0
102
RTVSPost2010PropOp45
 70
     1
102
RTVSPost2010Prop46
 90
       50
102
RTVSPost2010PropOp46
 70
     1
102
RTVSPost2010Prop47
 90
       50
102
RTVSPost2010PropOp47
 70
     1
102
RTVSPost2010Prop48
 90
       50
102
RTVSPost2010PropOp48
 70
     1
102
RTVSPost2010Prop49
280
     0
102
RTVSPost2010PropOp49
 70
     1
102
RTVSPost2010Prop50
 90
       50
102
RTVSPost2010PropOp50
 70
     1
102
RTVSPost2010Prop51ColorIndex
 90
      256
102
RTVSPost2010Prop51ColorRGB
 90
-16777216
102
RTVSPost2010PropOp51
 70
     0
102
RTVSPost2010Prop52
140
1.0
102
RTVSPost2010PropOp52
 70
     0
102
RTVSPost2010Prop53
 90
        2
102
RTVSPost2010PropOp53
 70
     1
102
RTVSPost2010Prop54
  1
strokes_ogs.tif
102
RTVSPost2010PropOp54
 70
     1
102
RTVSPost2010Prop55
280
     0
102
RTVSPost2010PropOp55
 70
     1
102
RTVSPost2010Prop56
140
1.0
102
RTVSPost2010PropOp56
 70
     1
102
RTVSPost2010Prop57
140
1.0
102
RTVSPost2010PropOp57
 70
     1
102
RTVSPropertyOp0
 70
     1
102
RTVSPropertyOp1
 70
     1
102
RTVSPropertyOp2
 70
     1
102
RTVSPropertyOp3
 70
     1
102
RTVSPropertyOp4
 70
     1
102
RTVSPropertyOp5
 70
     1
102
RTVSPropertyOp6
 70
     1
102
RTVSPropertyOp7
 70
     1
102
RTVSPropertyOp8
 70
     1
102
RTVSPropertyOp9
 70
     1
102
RTVSPropertyOp10
 70
     1
102
RTVSPropertyOp11
 70
     1
102
RTVSPropertyOp12
 70
     1
102
RTVSPropertyOp13
 70
     1
102
RTVSPropertyOp14
 70
     1
102
RTVSPropertyOp15
 70
     1
102
RTVSPropertyOp16
 70
     1
102
RTVSPropertyOp17
 70
     1
102
RTVSPropertyOp18
 70
     1
102
RTVSPropertyOp19
 70
     1
102
RTVSPropertyOp20
 70
     1
102
RTVSPropertyOp21
 70
     1
102
RTVSPropertyOp22
 70
     1
102
RTVSPropertyOp23
 70
     1
102
RTVSPropertyOp24
 70
     1
102
RTVSPropertyOp25
 70
     1
102
RTVSPropertyOp26
 70
     1
102
RTVSPropertyOp27
 70
     1
102
RTVSPropertyOp28
 70
     1
102
RTVSPropertyOp29
 70
     1
102
RTVSPropertyOp30
 70
     1
102
RTVSPropertyOp31
 70
     1
102
RTVSPropertyOp32
 70
     1
102
RTVSPropertyOp33
 70
     1
102
RTVSPropertyOp34
 70
     1
102
RTVSPropertyOp35
 70
     1
102
RTVSPropertyOp36
 70
     1
102
RTVSPropertyOp37
 70
     1
102
RTVSPropertyOp38
 70
     1
102
RTVSPropertyOp39
 70
     1
102
RTVSPropertyOp40
 70
     1
102
RTVSPropertyOp41
 70
     1
102
RTVSPropertyOp42
 70
     1
102
RTVSPropertyOp43
 70
     1
102
RTVSPropertyOp44
 70
     1
102
RTVSPropertyOp45
 70
     1
102
RTVSPropertyOp46
 70
     1
102
RTVSPropertyOp47
 70
     1
102
RTVSPropertyOp48
 70
     1
102
RTVSPropertyOp49
 70
     1
102
RTVSPropertyOp50
 70
     1
102
RTVSPropertyOp51
 70
     0
102
RTVSPropertyOp52
 70
     0
102
RTVSPropertyOp53
 70
     1
102
RTVSPropertyOp54
 70
     1
102
RTVSPropertyOp55
 70
     1
102
RTVSPropertyOp56
 70
     1
102
RTVSPropertyOp57
 70
     1
102
RTVSPropertyOp58
 70
     1
102
RTVSPropertyOp59
 70
     1
102
RTVSPropertyOp60
 70
     1
102
RTVSPropertyOp61
 70
     1
102
RTVSPropertyOp62
 70
     1
  0
XRECORD
  5
B663
102
{ACAD_REACTORS
330
B662
102
}
330
B662
100
AcDbXrecord
280
     1
102
RTVSPost2010Prop28
280
     0
102
RTVSPost2010PropOp28
 70
     1
102
RTVSPost2010Prop29
280
     1
102
RTVSPost2010PropOp29
 70
     1
102
RTVSPost2010Prop30
280
     1
102
RTVSPost2010PropOp30
 70
     1
102
RTVSPost2010Prop31
280
     0
102
RTVSPost2010PropOp31
 70
     1
102
RTVSPost2010Prop32
280
     0
102
RTVSPost2010PropOp32
 70
     1
102
RTVSPost2010Prop33
280
     0
102
RTVSPost2010PropOp33
 70
     1
102
RTVSPost2010Prop34
280
     0
102
RTVSPost2010PropOp34
 70
     1
102
RTVSPost2010Prop35
280
     0
102
RTVSPost2010PropOp35
 70
     1
102
RTVSPost2010Prop36
280
     0
102
RTVSPost2010PropOp36
 70
     1
102
RTVSPost2010Prop37
 90
       50
102
RTVSPost2010PropOp37
 70
     1
102
RTVSPost2010Prop38
140
0.0
102
RTVSPost2010PropOp38
 70
     1
102
RTVSPost2010Prop39
140
1.0
102
RTVSPost2010PropOp39
 70
     1
102
RTVSPost2010Prop40
 90
        0
102
RTVSPost2010PropOp40
 70
     1
102
RTVSPost2010Prop41ColorIndex
 90
       18
102
RTVSPost2010Prop41ColorRGB
 90
        0
102
RTVSPost2010PropOp41
 70
     1
102
RTVSPost2010Prop42
 90
       50
102
RTVSPost2010PropOp42
 70
     1
102
RTVSPost2010Prop43
 90
        3
102
RTVSPost2010PropOp43
 70
     1
102
RTVSPost2010Prop44ColorIndex
 90
        5
102
RTVSPost2010Prop44ColorRGB
 90
      255
102
RTVSPost2010PropOp44
 70
     1
102
RTVSPost2010Prop45
280
     0
102
RTVSPost2010PropOp45
 70
     1
102
RTVSPost2010Prop46
 90
       50
102
RTVSPost2010PropOp46
 70
     1
102
RTVSPost2010Prop47
 90
       50
102
RTVSPost2010PropOp47
 70
     1
102
RTVSPost2010Prop48
 90
       50
102
RTVSPost2010PropOp48
 70
     1
102
RTVSPost2010Prop49
280
     0
102
RTVSPost2010PropOp49
 70
     1
102
RTVSPost2010Prop50
 90
       50
102
RTVSPost2010PropOp50
 70
     1
102
RTVSPost2010Prop51ColorIndex
 90
      256
102
RTVSPost2010Prop51ColorRGB
 90
-16777216
102
RTVSPost2010PropOp51
 70
     0
102
RTVSPost2010Prop52
140
1.0
102
RTVSPost2010PropOp52
 70
     0
102
RTVSPost2010Prop53
 90
        2
102
RTVSPost2010PropOp53
 70
     1
102
RTVSPost2010Prop54
  1
strokes_ogs.tif
102
RTVSPost2010PropOp54
 70
     1
102
RTVSPost2010Prop55
280
     0
102
RTVSPost2010PropOp55
 70
     1
102
RTVSPost2010Prop56
140
1.0
102
RTVSPost2010PropOp56
 70
     1
102
RTVSPost2010Prop57
140
1.0
102
RTVSPost2010PropOp57
 70
     1
102
RTVSPropertyOp0
 70
     1
102
RTVSPropertyOp1
 70
     1
102
RTVSPropertyOp2
 70
     1
102
RTVSPropertyOp3
 70
     1
102
RTVSPropertyOp4
 70
     1
102
RTVSPropertyOp5
 70
     1
102
RTVSPropertyOp6
 70
     1
102
RTVSPropertyOp7
 70
     1
102
RTVSPropertyOp8
 70
     1
102
RTVSPropertyOp9
 70
     1
102
RTVSPropertyOp10
 70
     1
102
RTVSPropertyOp11
 70
     1
102
RTVSPropertyOp12
 70
     1
102
RTVSPropertyOp13
 70
     1
102
RTVSPropertyOp14
 70
     1
102
RTVSPropertyOp15
 70
     1
102
RTVSPropertyOp16
 70
     1
102
RTVSPropertyOp17
 70
     1
102
RTVSPropertyOp18
 70
     1
102
RTVSPropertyOp19
 70
     1
102
RTVSPropertyOp20
 70
     1
102
RTVSPropertyOp21
 70
     1
102
RTVSPropertyOp22
 70
     1
102
RTVSPropertyOp23
 70
     1
102
RTVSPropertyOp24
 70
     1
102
RTVSPropertyOp25
 70
     1
102
RTVSPropertyOp26
 70
     1
102
RTVSPropertyOp27
 70
     1
102
RTVSPropertyOp28
 70
     1
102
RTVSPropertyOp29
 70
     1
102
RTVSPropertyOp30
 70
     1
102
RTVSPropertyOp31
 70
     1
102
RTVSPropertyOp32
 70
     1
102
RTVSPropertyOp33
 70
     1
102
RTVSPropertyOp34
 70
     1
102
RTVSPropertyOp35
 70
     1
102
RTVSPropertyOp36
 70
     1
102
RTVSPropertyOp37
 70
     1
102
RTVSPropertyOp38
 70
     1
102
RTVSPropertyOp39
 70
     1
102
RTVSPropertyOp40
 70
     1
102
RTVSPropertyOp41
 70
     1
102
RTVSPropertyOp42
 70
     1
102
RTVSPropertyOp43
 70
     1
102
RTVSPropertyOp44
 70
     1
102
RTVSPropertyOp45
 70
     1
102
RTVSPropertyOp46
 70
     1
102
RTVSPropertyOp47
 70
     1
102
RTVSPropertyOp48
 70
     1
102
RTVSPropertyOp49
 70
     1
102
RTVSPropertyOp50
 70
     1
102
RTVSPropertyOp51
 70
     0
102
RTVSPropertyOp52
 70
     0
102
RTVSPropertyOp53
 70
     1
102
RTVSPropertyOp54
 70
     1
102
RTVSPropertyOp55
 70
     1
102
RTVSPropertyOp56
 70
     1
102
RTVSPropertyOp57
 70
     1
102
RTVSPropertyOp58
 70
     1
102
RTVSPropertyOp59
 70
     1
102
RTVSPropertyOp60
 70
     1
102
RTVSPropertyOp61
 70
     1
102
RTVSPropertyOp62
 70
     1
  0
XRECORD
  5
B665
102
{ACAD_REACTORS
330
B664
102
}
330
B664
100
AcDbXrecord
280
     1
102
RTVSPost2010Prop28
280
     0
102
RTVSPost2010PropOp28
 70
     1
102
RTVSPost2010Prop29
280
     1
102
RTVSPost2010PropOp29
 70
     1
102
RTVSPost2010Prop30
280
     1
102
RTVSPost2010PropOp30
 70
     1
102
RTVSPost2010Prop31
280
     0
102
RTVSPost2010PropOp31
 70
     1
102
RTVSPost2010Prop32
280
     0
102
RTVSPost2010PropOp32
 70
     1
102
RTVSPost2010Prop33
280
     0
102
RTVSPost2010PropOp33
 70
     1
102
RTVSPost2010Prop34
280
     0
102
RTVSPost2010PropOp34
 70
     1
102
RTVSPost2010Prop35
280
     0
102
RTVSPost2010PropOp35
 70
     1
102
RTVSPost2010Prop36
280
     0
102
RTVSPost2010PropOp36
 70
     1
102
RTVSPost2010Prop37
 90
       50
102
RTVSPost2010PropOp37
 70
     1
102
RTVSPost2010Prop38
140
0.0
102
RTVSPost2010PropOp38
 70
     1
102
RTVSPost2010Prop39
140
1.0
102
RTVSPost2010PropOp39
 70
     1
102
RTVSPost2010Prop40
 90
        0
102
RTVSPost2010PropOp40
 70
     1
102
RTVSPost2010Prop41ColorIndex
 90
       18
102
RTVSPost2010Prop41ColorRGB
 90
        0
102
RTVSPost2010PropOp41
 70
     1
102
RTVSPost2010Prop42
 90
       50
102
RTVSPost2010PropOp42
 70
     1
102
RTVSPost2010Prop43
 90
        3
102
RTVSPost2010PropOp43
 70
     1
102
RTVSPost2010Prop44ColorIndex
 90
        5
102
RTVSPost2010Prop44ColorRGB
 90
      255
102
RTVSPost2010PropOp44
 70
     1
102
RTVSPost2010Prop45
280
     0
102
RTVSPost2010PropOp45
 70
     1
102
RTVSPost2010Prop46
 90
       50
102
RTVSPost2010PropOp46
 70
     1
102
RTVSPost2010Prop47
 90
       50
102
RTVSPost2010PropOp47
 70
     1
102
RTVSPost2010Prop48
 90
       50
102
RTVSPost2010PropOp48
 70
     1
102
RTVSPost2010Prop49
280
     0
102
RTVSPost2010PropOp49
 70
     1
102
RTVSPost2010Prop50
 90
       50
102
RTVSPost2010PropOp50
 70
     1
102
RTVSPost2010Prop51ColorIndex
 90
      256
102
RTVSPost2010Prop51ColorRGB
 90
-16777216
102
RTVSPost2010PropOp51
 70
     0
102
RTVSPost2010Prop52
140
1.0
102
RTVSPost2010PropOp52
 70
     0
102
RTVSPost2010Prop53
 90
        2
102
RTVSPost2010PropOp53
 70
     1
102
RTVSPost2010Prop54
  1
strokes_ogs.tif
102
RTVSPost2010PropOp54
 70
     1
102
RTVSPost2010Prop55
280
     0
102
RTVSPost2010PropOp55
 70
     1
102
RTVSPost2010Prop56
140
1.0
102
RTVSPost2010PropOp56
 70
     1
102
RTVSPost2010Prop57
140
1.0
102
RTVSPost2010PropOp57
 70
     1
102
RTVSPropertyOp0
 70
     1
102
RTVSPropertyOp1
 70
     1
102
RTVSPropertyOp2
 70
     1
102
RTVSPropertyOp3
 70
     1
102
RTVSPropertyOp4
 70
     1
102
RTVSPropertyOp5
 70
     1
102
RTVSPropertyOp6
 70
     1
102
RTVSPropertyOp7
 70
     1
102
RTVSPropertyOp8
 70
     1
102
RTVSPropertyOp9
 70
     1
102
RTVSPropertyOp10
 70
     1
102
RTVSPropertyOp11
 70
     1
102
RTVSPropertyOp12
 70
     1
102
RTVSPropertyOp13
 70
     1
102
RTVSPropertyOp14
 70
     1
102
RTVSPropertyOp15
 70
     1
102
RTVSPropertyOp16
 70
     1
102
RTVSPropertyOp17
 70
     1
102
RTVSPropertyOp18
 70
     1
102
RTVSPropertyOp19
 70
     1
102
RTVSPropertyOp20
 70
     1
102
RTVSPropertyOp21
 70
     1
102
RTVSPropertyOp22
 70
     1
102
RTVSPropertyOp23
 70
     1
102
RTVSPropertyOp24
 70
     1
102
RTVSPropertyOp25
 70
     1
102
RTVSPropertyOp26
 70
     1
102
RTVSPropertyOp27
 70
     1
102
RTVSPropertyOp28
 70
     1
102
RTVSPropertyOp29
 70
     1
102
RTVSPropertyOp30
 70
     1
102
RTVSPropertyOp31
 70
     1
102
RTVSPropertyOp32
 70
     1
102
RTVSPropertyOp33
 70
     1
102
RTVSPropertyOp34
 70
     1
102
RTVSPropertyOp35
 70
     1
102
RTVSPropertyOp36
 70
     1
102
RTVSPropertyOp37
 70
     1
102
RTVSPropertyOp38
 70
     1
102
RTVSPropertyOp39
 70
     1
102
RTVSPropertyOp40
 70
     1
102
RTVSPropertyOp41
 70
     1
102
RTVSPropertyOp42
 70
     1
102
RTVSPropertyOp43
 70
     1
102
RTVSPropertyOp44
 70
     1
102
RTVSPropertyOp45
 70
     1
102
RTVSPropertyOp46
 70
     1
102
RTVSPropertyOp47
 70
     1
102
RTVSPropertyOp48
 70
     1
102
RTVSPropertyOp49
 70
     1
102
RTVSPropertyOp50
 70
     1
102
RTVSPropertyOp51
 70
     0
102
RTVSPropertyOp52
 70
     0
102
RTVSPropertyOp53
 70
     1
102
RTVSPropertyOp54
 70
     1
102
RTVSPropertyOp55
 70
     1
102
RTVSPropertyOp56
 70
     1
102
RTVSPropertyOp57
 70
     1
102
RTVSPropertyOp58
 70
     1
102
RTVSPropertyOp59
 70
     1
102
RTVSPropertyOp60
 70
     1
102
RTVSPropertyOp61
 70
     1
102
RTVSPropertyOp62
 70
     1
  0
XRECORD
  5
B667
102
{ACAD_REACTORS
330
B666
102
}
330
B666
100
AcDbXrecord
280
     1
102
RTVSPost2010Prop28
280
     0
102
RTVSPost2010PropOp28
 70
     1
102
RTVSPost2010Prop29
280
     1
102
RTVSPost2010PropOp29
 70
     1
102
RTVSPost2010Prop30
280
     1
102
RTVSPost2010PropOp30
 70
     1
102
RTVSPost2010Prop31
280
     0
102
RTVSPost2010PropOp31
 70
     1
102
RTVSPost2010Prop32
280
     0
102
RTVSPost2010PropOp32
 70
     1
102
RTVSPost2010Prop33
280
     0
102
RTVSPost2010PropOp33
 70
     1
102
RTVSPost2010Prop34
280
     0
102
RTVSPost2010PropOp34
 70
     1
102
RTVSPost2010Prop35
280
     0
102
RTVSPost2010PropOp35
 70
     1
102
RTVSPost2010Prop36
280
     0
102
RTVSPost2010PropOp36
 70
     1
102
RTVSPost2010Prop37
 90
       50
102
RTVSPost2010PropOp37
 70
     1
102
RTVSPost2010Prop38
140
0.0
102
RTVSPost2010PropOp38
 70
     1
102
RTVSPost2010Prop39
140
1.0
102
RTVSPost2010PropOp39
 70
     1
102
RTVSPost2010Prop40
 90
        0
102
RTVSPost2010PropOp40
 70
     1
102
RTVSPost2010Prop41ColorIndex
 90
       18
102
RTVSPost2010Prop41ColorRGB
 90
        0
102
RTVSPost2010PropOp41
 70
     1
102
RTVSPost2010Prop42
 90
       50
102
RTVSPost2010PropOp42
 70
     1
102
RTVSPost2010Prop43
 90
        3
102
RTVSPost2010PropOp43
 70
     1
102
RTVSPost2010Prop44ColorIndex
 90
        5
102
RTVSPost2010Prop44ColorRGB
 90
      255
102
RTVSPost2010PropOp44
 70
     1
102
RTVSPost2010Prop45
280
     0
102
RTVSPost2010PropOp45
 70
     1
102
RTVSPost2010Prop46
 90
       50
102
RTVSPost2010PropOp46
 70
     1
102
RTVSPost2010Prop47
 90
       50
102
RTVSPost2010PropOp47
 70
     1
102
RTVSPost2010Prop48
 90
       50
102
RTVSPost2010PropOp48
 70
     1
102
RTVSPost2010Prop49
280
     0
102
RTVSPost2010PropOp49
 70
     1
102
RTVSPost2010Prop50
 90
       50
102
RTVSPost2010PropOp50
 70
     1
102
RTVSPost2010Prop51ColorIndex
 90
      256
102
RTVSPost2010Prop51ColorRGB
 90
-16777216
102
RTVSPost2010PropOp51
 70
     0
102
RTVSPost2010Prop52
140
1.0
102
RTVSPost2010PropOp52
 70
     0
102
RTVSPost2010Prop53
 90
        2
102
RTVSPost2010PropOp53
 70
     1
102
RTVSPost2010Prop54
  1
strokes_ogs.tif
102
RTVSPost2010PropOp54
 70
     1
102
RTVSPost2010Prop55
280
     0
102
RTVSPost2010PropOp55
 70
     1
102
RTVSPost2010Prop56
140
1.0
102
RTVSPost2010PropOp56
 70
     1
102
RTVSPost2010Prop57
140
1.0
102
RTVSPost2010PropOp57
 70
     1
102
RTVSPropertyOp0
 70
     1
102
RTVSPropertyOp1
 70
     1
102
RTVSPropertyOp2
 70
     1
102
RTVSPropertyOp3
 70
     1
102
RTVSPropertyOp4
 70
     1
102
RTVSPropertyOp5
 70
     1
102
RTVSPropertyOp6
 70
     1
102
RTVSPropertyOp7
 70
     1
102
RTVSPropertyOp8
 70
     1
102
RTVSPropertyOp9
 70
     1
102
RTVSPropertyOp10
 70
     1
102
RTVSPropertyOp11
 70
     1
102
RTVSPropertyOp12
 70
     1
102
RTVSPropertyOp13
 70
     1
102
RTVSPropertyOp14
 70
     1
102
RTVSPropertyOp15
 70
     1
102
RTVSPropertyOp16
 70
     1
102
RTVSPropertyOp17
 70
     1
102
RTVSPropertyOp18
 70
     1
102
RTVSPropertyOp19
 70
     1
102
RTVSPropertyOp20
 70
     1
102
RTVSPropertyOp21
 70
     1
102
RTVSPropertyOp22
 70
     1
102
RTVSPropertyOp23
 70
     1
102
RTVSPropertyOp24
 70
     1
102
RTVSPropertyOp25
 70
     1
102
RTVSPropertyOp26
 70
     1
102
RTVSPropertyOp27
 70
     1
102
RTVSPropertyOp28
 70
     1
102
RTVSPropertyOp29
 70
     1
102
RTVSPropertyOp30
 70
     1
102
RTVSPropertyOp31
 70
     1
102
RTVSPropertyOp32
 70
     1
102
RTVSPropertyOp33
 70
     1
102
RTVSPropertyOp34
 70
     1
102
RTVSPropertyOp35
 70
     1
102
RTVSPropertyOp36
 70
     1
102
RTVSPropertyOp37
 70
     1
102
RTVSPropertyOp38
 70
     1
102
RTVSPropertyOp39
 70
     1
102
RTVSPropertyOp40
 70
     1
102
RTVSPropertyOp41
 70
     1
102
RTVSPropertyOp42
 70
     1
102
RTVSPropertyOp43
 70
     1
102
RTVSPropertyOp44
 70
     1
102
RTVSPropertyOp45
 70
     1
102
RTVSPropertyOp46
 70
     1
102
RTVSPropertyOp47
 70
     1
102
RTVSPropertyOp48
 70
     1
102
RTVSPropertyOp49
 70
     1
102
RTVSPropertyOp50
 70
     1
102
RTVSPropertyOp51
 70
     0
102
RTVSPropertyOp52
 70
     0
102
RTVSPropertyOp53
 70
     1
102
RTVSPropertyOp54
 70
     1
102
RTVSPropertyOp55
 70
     1
102
RTVSPropertyOp56
 70
     1
102
RTVSPropertyOp57
 70
     1
102
RTVSPropertyOp58
 70
     1
102
RTVSPropertyOp59
 70
     1
102
RTVSPropertyOp60
 70
     1
102
RTVSPropertyOp61
 70
     1
102
RTVSPropertyOp62
 70
     1
  0
XRECORD
  5
B669
102
{ACAD_REACTORS
330
B668
102
}
330
B668
100
AcDbXrecord
280
     1
102
RTVSPost2010Prop28
280
     0
102
RTVSPost2010PropOp28
 70
     1
102
RTVSPost2010Prop29
280
     1
102
RTVSPost2010PropOp29
 70
     1
102
RTVSPost2010Prop30
280
     1
102
RTVSPost2010PropOp30
 70
     1
102
RTVSPost2010Prop31
280
     0
102
RTVSPost2010PropOp31
 70
     1
102
RTVSPost2010Prop32
280
     0
102
RTVSPost2010PropOp32
 70
     1
102
RTVSPost2010Prop33
280
     0
102
RTVSPost2010PropOp33
 70
     1
102
RTVSPost2010Prop34
280
     0
102
RTVSPost2010PropOp34
 70
     1
102
RTVSPost2010Prop35
280
     0
102
RTVSPost2010PropOp35
 70
     1
102
RTVSPost2010Prop36
280
     0
102
RTVSPost2010PropOp36
 70
     1
102
RTVSPost2010Prop37
 90
       50
102
RTVSPost2010PropOp37
 70
     1
102
RTVSPost2010Prop38
140
0.0
102
RTVSPost2010PropOp38
 70
     1
102
RTVSPost2010Prop39
140
1.0
102
RTVSPost2010PropOp39
 70
     1
102
RTVSPost2010Prop40
 90
        0
102
RTVSPost2010PropOp40
 70
     1
102
RTVSPost2010Prop41ColorIndex
 90
       18
102
RTVSPost2010Prop41ColorRGB
 90
        0
102
RTVSPost2010PropOp41
 70
     1
102
RTVSPost2010Prop42
 90
       50
102
RTVSPost2010PropOp42
 70
     1
102
RTVSPost2010Prop43
 90
        3
102
RTVSPost2010PropOp43
 70
     1
102
RTVSPost2010Prop44ColorIndex
 90
        5
102
RTVSPost2010Prop44ColorRGB
 90
      255
102
RTVSPost2010PropOp44
 70
     1
102
RTVSPost2010Prop45
280
     0
102
RTVSPost2010PropOp45
 70
     1
102
RTVSPost2010Prop46
 90
       50
102
RTVSPost2010PropOp46
 70
     1
102
RTVSPost2010Prop47
 90
       50
102
RTVSPost2010PropOp47
 70
     1
102
RTVSPost2010Prop48
 90
       50
102
RTVSPost2010PropOp48
 70
     1
102
RTVSPost2010Prop49
280
     0
102
RTVSPost2010PropOp49
 70
     1
102
RTVSPost2010Prop50
 90
       50
102
RTVSPost2010PropOp50
 70
     1
102
RTVSPost2010Prop51ColorIndex
 90
      256
102
RTVSPost2010Prop51ColorRGB
 90
-16777216
102
RTVSPost2010PropOp51
 70
     0
102
RTVSPost2010Prop52
140
1.0
102
RTVSPost2010PropOp52
 70
     0
102
RTVSPost2010Prop53
 90
        2
102
RTVSPost2010PropOp53
 70
     1
102
RTVSPost2010Prop54
  1
strokes_ogs.tif
102
RTVSPost2010PropOp54
 70
     1
102
RTVSPost2010Prop55
280
     0
102
RTVSPost2010PropOp55
 70
     1
102
RTVSPost2010Prop56
140
1.0
102
RTVSPost2010PropOp56
 70
     1
102
RTVSPost2010Prop57
140
1.0
102
RTVSPost2010PropOp57
 70
     1
102
RTVSPropertyOp0
 70
     1
102
RTVSPropertyOp1
 70
     1
102
RTVSPropertyOp2
 70
     1
102
RTVSPropertyOp3
 70
     1
102
RTVSPropertyOp4
 70
     1
102
RTVSPropertyOp5
 70
     1
102
RTVSPropertyOp6
 70
     1
102
RTVSPropertyOp7
 70
     1
102
RTVSPropertyOp8
 70
     1
102
RTVSPropertyOp9
 70
     1
102
RTVSPropertyOp10
 70
     1
102
RTVSPropertyOp11
 70
     1
102
RTVSPropertyOp12
 70
     1
102
RTVSPropertyOp13
 70
     1
102
RTVSPropertyOp14
 70
     1
102
RTVSPropertyOp15
 70
     1
102
RTVSPropertyOp16
 70
     1
102
RTVSPropertyOp17
 70
     1
102
RTVSPropertyOp18
 70
     1
102
RTVSPropertyOp19
 70
     1
102
RTVSPropertyOp20
 70
     1
102
RTVSPropertyOp21
 70
     1
102
RTVSPropertyOp22
 70
     1
102
RTVSPropertyOp23
 70
     1
102
RTVSPropertyOp24
 70
     1
102
RTVSPropertyOp25
 70
     1
102
RTVSPropertyOp26
 70
     1
102
RTVSPropertyOp27
 70
     1
102
RTVSPropertyOp28
 70
     1
102
RTVSPropertyOp29
 70
     1
102
RTVSPropertyOp30
 70
     1
102
RTVSPropertyOp31
 70
     1
102
RTVSPropertyOp32
 70
     1
102
RTVSPropertyOp33
 70
     1
102
RTVSPropertyOp34
 70
     1
102
RTVSPropertyOp35
 70
     1
102
RTVSPropertyOp36
 70
     1
102
RTVSPropertyOp37
 70
     1
102
RTVSPropertyOp38
 70
     1
102
RTVSPropertyOp39
 70
     1
102
RTVSPropertyOp40
 70
     1
102
RTVSPropertyOp41
 70
     1
102
RTVSPropertyOp42
 70
     1
102
RTVSPropertyOp43
 70
     1
102
RTVSPropertyOp44
 70
     1
102
RTVSPropertyOp45
 70
     1
102
RTVSPropertyOp46
 70
     1
102
RTVSPropertyOp47
 70
     1
102
RTVSPropertyOp48
 70
     1
102
RTVSPropertyOp49
 70
     1
102
RTVSPropertyOp50
 70
     1
102
RTVSPropertyOp51
 70
     0
102
RTVSPropertyOp52
 70
     0
102
RTVSPropertyOp53
 70
     1
102
RTVSPropertyOp54
 70
     1
102
RTVSPropertyOp55
 70
     1
102
RTVSPropertyOp56
 70
     1
102
RTVSPropertyOp57
 70
     1
102
RTVSPropertyOp58
 70
     1
102
RTVSPropertyOp59
 70
     1
102
RTVSPropertyOp60
 70
     1
102
RTVSPropertyOp61
 70
     1
102
RTVSPropertyOp62
 70
     1
  0
XRECORD
  5
B671
102
{ACAD_REACTORS
330
B670
102
}
330
B670
100
AcDbXrecord
280
     1
102
RTVSPost2010Prop28
280
     0
102
RTVSPost2010PropOp28
 70
     1
102
RTVSPost2010Prop29
280
     1
102
RTVSPost2010PropOp29
 70
     1
102
RTVSPost2010Prop30
280
     1
102
RTVSPost2010PropOp30
 70
     1
102
RTVSPost2010Prop31
280
     0
102
RTVSPost2010PropOp31
 70
     1
102
RTVSPost2010Prop32
280
     0
102
RTVSPost2010PropOp32
 70
     1
102
RTVSPost2010Prop33
280
     0
102
RTVSPost2010PropOp33
 70
     1
102
RTVSPost2010Prop34
280
     0
102
RTVSPost2010PropOp34
 70
     1
102
RTVSPost2010Prop35
280
     0
102
RTVSPost2010PropOp35
 70
     1
102
RTVSPost2010Prop36
280
     0
102
RTVSPost2010PropOp36
 70
     1
102
RTVSPost2010Prop37
 90
       50
102
RTVSPost2010PropOp37
 70
     1
102
RTVSPost2010Prop38
140
0.0
102
RTVSPost2010PropOp38
 70
     1
102
RTVSPost2010Prop39
140
1.0
102
RTVSPost2010PropOp39
 70
     1
102
RTVSPost2010Prop40
 90
        0
102
RTVSPost2010PropOp40
 70
     1
102
RTVSPost2010Prop41ColorIndex
 90
       18
102
RTVSPost2010Prop41ColorRGB
 90
        0
102
RTVSPost2010PropOp41
 70
     1
102
RTVSPost2010Prop42
 90
       50
102
RTVSPost2010PropOp42
 70
     1
102
RTVSPost2010Prop43
 90
        3
102
RTVSPost2010PropOp43
 70
     1
102
RTVSPost2010Prop44ColorIndex
 90
        5
102
RTVSPost2010Prop44ColorRGB
 90
      255
102
RTVSPost2010PropOp44
 70
     1
102
RTVSPost2010Prop45
280
     0
102
RTVSPost2010PropOp45
 70
     1
102
RTVSPost2010Prop46
 90
       50
102
RTVSPost2010PropOp46
 70
     1
102
RTVSPost2010Prop47
 90
       50
102
RTVSPost2010PropOp47
 70
     1
102
RTVSPost2010Prop48
 90
       50
102
RTVSPost2010PropOp48
 70
     1
102
RTVSPost2010Prop49
280
     0
102
RTVSPost2010PropOp49
 70
     1
102
RTVSPost2010Prop50
 90
       50
102
RTVSPost2010PropOp50
 70
     1
102
RTVSPost2010Prop51ColorIndex
 90
      256
102
RTVSPost2010Prop51ColorRGB
 90
-16777216
102
RTVSPost2010PropOp51
 70
     0
102
RTVSPost2010Prop52
140
1.0
102
RTVSPost2010PropOp52
 70
     0
102
RTVSPost2010Prop53
 90
        2
102
RTVSPost2010PropOp53
 70
     1
102
RTVSPost2010Prop54
  1
strokes_ogs.tif
102
RTVSPost2010PropOp54
 70
     1
102
RTVSPost2010Prop55
280
     0
102
RTVSPost2010PropOp55
 70
     1
102
RTVSPost2010Prop56
140
1.0
102
RTVSPost2010PropOp56
 70
     1
102
RTVSPost2010Prop57
140
1.0
102
RTVSPost2010PropOp57
 70
     1
102
RTVSPropertyOp0
 70
     1
102
RTVSPropertyOp1
 70
     1
102
RTVSPropertyOp2
 70
     1
102
RTVSPropertyOp3
 70
     1
102
RTVSPropertyOp4
 70
     1
102
RTVSPropertyOp5
 70
     1
102
RTVSPropertyOp6
 70
     1
102
RTVSPropertyOp7
 70
     1
102
RTVSPropertyOp8
 70
     1
102
RTVSPropertyOp9
 70
     1
102
RTVSPropertyOp10
 70
     1
102
RTVSPropertyOp11
 70
     1
102
RTVSPropertyOp12
 70
     1
102
RTVSPropertyOp13
 70
     1
102
RTVSPropertyOp14
 70
     1
102
RTVSPropertyOp15
 70
     1
102
RTVSPropertyOp16
 70
     1
102
RTVSPropertyOp17
 70
     1
102
RTVSPropertyOp18
 70
     1
102
RTVSPropertyOp19
 70
     1
102
RTVSPropertyOp20
 70
     1
102
RTVSPropertyOp21
 70
     1
102
RTVSPropertyOp22
 70
     1
102
RTVSPropertyOp23
 70
     1
102
RTVSPropertyOp24
 70
     1
102
RTVSPropertyOp25
 70
     1
102
RTVSPropertyOp26
 70
     1
102
RTVSPropertyOp27
 70
     1
102
RTVSPropertyOp28
 70
     1
102
RTVSPropertyOp29
 70
     1
102
RTVSPropertyOp30
 70
     1
102
RTVSPropertyOp31
 70
     1
102
RTVSPropertyOp32
 70
     1
102
RTVSPropertyOp33
 70
     1
102
RTVSPropertyOp34
 70
     1
102
RTVSPropertyOp35
 70
     1
102
RTVSPropertyOp36
 70
     1
102
RTVSPropertyOp37
 70
     1
102
RTVSPropertyOp38
 70
     1
102
RTVSPropertyOp39
 70
     1
102
RTVSPropertyOp40
 70
     1
102
RTVSPropertyOp41
 70
     1
102
RTVSPropertyOp42
 70
     1
102
RTVSPropertyOp43
 70
     1
102
RTVSPropertyOp44
 70
     1
102
RTVSPropertyOp45
 70
     1
102
RTVSPropertyOp46
 70
     1
102
RTVSPropertyOp47
 70
     1
102
RTVSPropertyOp48
 70
     1
102
RTVSPropertyOp49
 70
     1
102
RTVSPropertyOp50
 70
     1
102
RTVSPropertyOp51
 70
     0
102
RTVSPropertyOp52
 70
     0
102
RTVSPropertyOp53
 70
     1
102
RTVSPropertyOp54
 70
     1
102
RTVSPropertyOp55
 70
     1
102
RTVSPropertyOp56
 70
     1
102
RTVSPropertyOp57
 70
     1
102
RTVSPropertyOp58
 70
     1
102
RTVSPropertyOp59
 70
     1
102
RTVSPropertyOp60
 70
     1
102
RTVSPropertyOp61
 70
     1
102
RTVSPropertyOp62
 70
     1
  0
XRECORD
  5
B68D
102
{ACAD_REACTORS
330
B68C
102
}
330
B68C
100
AcDbXrecord
280
     1
102
RTVSPost2010Prop28
280
     0
102
RTVSPost2010PropOp28
 70
     1
102
RTVSPost2010Prop29
280
     1
102
RTVSPost2010PropOp29
 70
     1
102
RTVSPost2010Prop30
280
     1
102
RTVSPost2010PropOp30
 70
     1
102
RTVSPost2010Prop31
280
     0
102
RTVSPost2010PropOp31
 70
     1
102
RTVSPost2010Prop32
280
     0
102
RTVSPost2010PropOp32
 70
     1
102
RTVSPost2010Prop33
280
     0
102
RTVSPost2010PropOp33
 70
     1
102
RTVSPost2010Prop34
280
     0
102
RTVSPost2010PropOp34
 70
     1
102
RTVSPost2010Prop35
280
     0
102
RTVSPost2010PropOp35
 70
     1
102
RTVSPost2010Prop36
280
     0
102
RTVSPost2010PropOp36
 70
     1
102
RTVSPost2010Prop37
 90
       50
102
RTVSPost2010PropOp37
 70
     0
102
RTVSPost2010Prop38
140
0.0
102
RTVSPost2010PropOp38
 70
     0
102
RTVSPost2010Prop39
140
1.0
102
RTVSPost2010PropOp39
 70
     0
102
RTVSPost2010Prop40
 90
        0
102
RTVSPost2010PropOp40
 70
     0
102
RTVSPost2010Prop41ColorIndex
 90
       18
102
RTVSPost2010Prop41ColorRGB
 90
        0
102
RTVSPost2010PropOp41
 70
     0
102
RTVSPost2010Prop42
 90
       50
102
RTVSPost2010PropOp42
 70
     0
102
RTVSPost2010Prop43
 90
        3
102
RTVSPost2010PropOp43
 70
     0
102
RTVSPost2010Prop44ColorIndex
 90
        5
102
RTVSPost2010Prop44ColorRGB
 90
      255
102
RTVSPost2010PropOp44
 70
     0
102
RTVSPost2010Prop45
280
     0
102
RTVSPost2010PropOp45
 70
     1
102
RTVSPost2010Prop46
 90
       50
102
RTVSPost2010PropOp46
 70
     0
102
RTVSPost2010Prop47
 90
       50
102
RTVSPost2010PropOp47
 70
     0
102
RTVSPost2010Prop48
 90
       50
102
RTVSPost2010PropOp48
 70
     0
102
RTVSPost2010Prop49
280
     0
102
RTVSPost2010PropOp49
 70
     1
102
RTVSPost2010Prop50
 90
       50
102
RTVSPost2010PropOp50
 70
     0
102
RTVSPost2010Prop51ColorIndex
 90
      256
102
RTVSPost2010Prop51ColorRGB
 90
-16777216
102
RTVSPost2010PropOp51
 70
     0
102
RTVSPost2010Prop52
140
1.0
102
RTVSPost2010PropOp52
 70
     0
102
RTVSPost2010Prop53
 90
        2
102
RTVSPost2010PropOp53
 70
     0
102
RTVSPost2010Prop54
  1
strokes_ogs.tif
102
RTVSPost2010PropOp54
 70
     0
102
RTVSPost2010Prop55
280
     0
102
RTVSPost2010PropOp55
 70
     1
102
RTVSPost2010Prop56
140
1.0
102
RTVSPost2010PropOp56
 70
     0
102
RTVSPost2010Prop57
140
1.0
102
RTVSPost2010PropOp57
 70
     0
102
RTVSPropertyOp0
 70
     0
102
RTVSPropertyOp1
 70
     0
102
RTVSPropertyOp2
 70
     0
102
RTVSPropertyOp3
 70
     0
102
RTVSPropertyOp4
 70
     0
102
RTVSPropertyOp5
 70
     0
102
RTVSPropertyOp6
 70
     0
102
RTVSPropertyOp7
 70
     0
102
RTVSPropertyOp8
 70
     0
102
RTVSPropertyOp9
 70
     0
102
RTVSPropertyOp10
 70
     0
102
RTVSPropertyOp11
 70
     0
102
RTVSPropertyOp12
 70
     0
102
RTVSPropertyOp13
 70
     0
102
RTVSPropertyOp14
 70
     2
102
RTVSPropertyOp15
 70
     0
102
RTVSPropertyOp16
 70
     0
102
RTVSPropertyOp17
 70
     0
102
RTVSPropertyOp18
 70
     0
102
RTVSPropertyOp19
 70
     0
102
RTVSPropertyOp20
 70
     0
102
RTVSPropertyOp21
 70
     0
102
RTVSPropertyOp22
 70
     0
102
RTVSPropertyOp23
 70
     0
102
RTVSPropertyOp24
 70
     0
102
RTVSPropertyOp25
 70
     0
102
RTVSPropertyOp26
 70
     0
102
RTVSPropertyOp27
 70
     0
102
RTVSPropertyOp28
 70
     1
102
RTVSPropertyOp29
 70
     1
102
RTVSPropertyOp30
 70
     1
102
RTVSPropertyOp31
 70
     1
102
RTVSPropertyOp32
 70
     1
102
RTVSPropertyOp33
 70
     1
102
RTVSPropertyOp34
 70
     1
102
RTVSPropertyOp35
 70
     1
102
RTVSPropertyOp36
 70
     1
102
RTVSPropertyOp37
 70
     0
102
RTVSPropertyOp38
 70
     0
102
RTVSPropertyOp39
 70
     0
102
RTVSPropertyOp40
 70
     0
102
RTVSPropertyOp41
 70
     0
102
RTVSPropertyOp42
 70
     0
102
RTVSPropertyOp43
 70
     0
102
RTVSPropertyOp44
 70
     0
102
RTVSPropertyOp45
 70
     1
102
RTVSPropertyOp46
 70
     0
102
RTVSPropertyOp47
 70
     0
102
RTVSPropertyOp48
 70
     0
102
RTVSPropertyOp49
 70
     1
102
RTVSPropertyOp50
 70
     0
102
RTVSPropertyOp51
 70
     0
102
RTVSPropertyOp52
 70
     0
102
RTVSPropertyOp53
 70
     0
102
RTVSPropertyOp54
 70
     0
102
RTVSPropertyOp55
 70
     1
102
RTVSPropertyOp56
 70
     0
102
RTVSPropertyOp57
 70
     0
102
RTVSPropertyOp58
 70
     0
102
RTVSPropertyOp59
 70
     0
102
RTVSPropertyOp60
 70
     0
102
RTVSPropertyOp61
 70
     0
102
RTVSPropertyOp62
 70
     0
  0
XRECORD
  5
B67D
102
{ACAD_REACTORS
330
B67C
102
}
330
B67C
100
AcDbXrecord
280
     1
102
RTVSPost2010Prop28
280
     0
102
RTVSPost2010PropOp28
 70
     1
102
RTVSPost2010Prop29
280
     1
102
RTVSPost2010PropOp29
 70
     1
102
RTVSPost2010Prop30
280
     1
102
RTVSPost2010PropOp30
 70
     1
102
RTVSPost2010Prop31
280
     0
102
RTVSPost2010PropOp31
 70
     1
102
RTVSPost2010Prop32
280
     0
102
RTVSPost2010PropOp32
 70
     1
102
RTVSPost2010Prop33
280
     0
102
RTVSPost2010PropOp33
 70
     1
102
RTVSPost2010Prop34
280
     0
102
RTVSPost2010PropOp34
 70
     1
102
RTVSPost2010Prop35
280
     0
102
RTVSPost2010PropOp35
 70
     1
102
RTVSPost2010Prop36
280
     0
102
RTVSPost2010PropOp36
 70
     1
102
RTVSPost2010Prop37
 90
       50
102
RTVSPost2010PropOp37
 70
     1
102
RTVSPost2010Prop38
140
0.0
102
RTVSPost2010PropOp38
 70
     1
102
RTVSPost2010Prop39
140
1.0
102
RTVSPost2010PropOp39
 70
     1
102
RTVSPost2010Prop40
 90
        0
102
RTVSPost2010PropOp40
 70
     1
102
RTVSPost2010Prop41ColorIndex
 90
       18
102
RTVSPost2010Prop41ColorRGB
 90
        0
102
RTVSPost2010PropOp41
 70
     1
102
RTVSPost2010Prop42
 90
       50
102
RTVSPost2010PropOp42
 70
     1
102
RTVSPost2010Prop43
 90
        3
102
RTVSPost2010PropOp43
 70
     1
102
RTVSPost2010Prop44ColorIndex
 90
        5
102
RTVSPost2010Prop44ColorRGB
 90
      255
102
RTVSPost2010PropOp44
 70
     1
102
RTVSPost2010Prop45
280
     0
102
RTVSPost2010PropOp45
 70
     1
102
RTVSPost2010Prop46
 90
       50
102
RTVSPost2010PropOp46
 70
     1
102
RTVSPost2010Prop47
 90
       50
102
RTVSPost2010PropOp47
 70
     1
102
RTVSPost2010Prop48
 90
       50
102
RTVSPost2010PropOp48
 70
     1
102
RTVSPost2010Prop49
280
     0
102
RTVSPost2010PropOp49
 70
     1
102
RTVSPost2010Prop50
 90
       50
102
RTVSPost2010PropOp50
 70
     1
102
RTVSPost2010Prop51ColorIndex
 90
      256
102
RTVSPost2010Prop51ColorRGB
 90
-16777216
102
RTVSPost2010PropOp51
 70
     0
102
RTVSPost2010Prop52
140
1.0
102
RTVSPost2010PropOp52
 70
     0
102
RTVSPost2010Prop53
 90
        2
102
RTVSPost2010PropOp53
 70
     1
102
RTVSPost2010Prop54
  1
strokes_ogs.tif
102
RTVSPost2010PropOp54
 70
     1
102
RTVSPost2010Prop55
280
     0
102
RTVSPost2010PropOp55
 70
     1
102
RTVSPost2010Prop56
140
1.0
102
RTVSPost2010PropOp56
 70
     1
102
RTVSPost2010Prop57
140
1.0
102
RTVSPost2010PropOp57
 70
     1
102
RTVSPropertyOp0
 70
     1
102
RTVSPropertyOp1
 70
     1
102
RTVSPropertyOp2
 70
     1
102
RTVSPropertyOp3
 70
     1
102
RTVSPropertyOp4
 70
     1
102
RTVSPropertyOp5
 70
     1
102
RTVSPropertyOp6
 70
     1
102
RTVSPropertyOp7
 70
     1
102
RTVSPropertyOp8
 70
     1
102
RTVSPropertyOp9
 70
     1
102
RTVSPropertyOp10
 70
     1
102
RTVSPropertyOp11
 70
     1
102
RTVSPropertyOp12
 70
     1
102
RTVSPropertyOp13
 70
     1
102
RTVSPropertyOp14
 70
     1
102
RTVSPropertyOp15
 70
     1
102
RTVSPropertyOp16
 70
     1
102
RTVSPropertyOp17
 70
     1
102
RTVSPropertyOp18
 70
     1
102
RTVSPropertyOp19
 70
     1
102
RTVSPropertyOp20
 70
     1
102
RTVSPropertyOp21
 70
     1
102
RTVSPropertyOp22
 70
     1
102
RTVSPropertyOp23
 70
     1
102
RTVSPropertyOp24
 70
     1
102
RTVSPropertyOp25
 70
     1
102
RTVSPropertyOp26
 70
     1
102
RTVSPropertyOp27
 70
     1
102
RTVSPropertyOp28
 70
     1
102
RTVSPropertyOp29
 70
     1
102
RTVSPropertyOp30
 70
     1
102
RTVSPropertyOp31
 70
     1
102
RTVSPropertyOp32
 70
     1
102
RTVSPropertyOp33
 70
     1
102
RTVSPropertyOp34
 70
     1
102
RTVSPropertyOp35
 70
     1
102
RTVSPropertyOp36
 70
     1
102
RTVSPropertyOp37
 70
     1
102
RTVSPropertyOp38
 70
     1
102
RTVSPropertyOp39
 70
     1
102
RTVSPropertyOp40
 70
     1
102
RTVSPropertyOp41
 70
     1
102
RTVSPropertyOp42
 70
     1
102
RTVSPropertyOp43
 70
     1
102
RTVSPropertyOp44
 70
     1
102
RTVSPropertyOp45
 70
     1
102
RTVSPropertyOp46
 70
     1
102
RTVSPropertyOp47
 70
     1
102
RTVSPropertyOp48
 70
     1
102
RTVSPropertyOp49
 70
     1
102
RTVSPropertyOp50
 70
     1
102
RTVSPropertyOp51
 70
     0
102
RTVSPropertyOp52
 70
     0
102
RTVSPropertyOp53
 70
     1
102
RTVSPropertyOp54
 70
     1
102
RTVSPropertyOp55
 70
     1
102
RTVSPropertyOp56
 70
     1
102
RTVSPropertyOp57
 70
     1
102
RTVSPropertyOp58
 70
     1
102
RTVSPropertyOp59
 70
     1
102
RTVSPropertyOp60
 70
     1
102
RTVSPropertyOp61
 70
     1
102
RTVSPropertyOp62
 70
     1
  0
XRECORD
  5
B68F
102
{ACAD_REACTORS
330
B68E
102
}
330
B68E
100
AcDbXrecord
280
     1
102
RTVSPost2010Prop28
280
     0
102
RTVSPost2010PropOp28
 70
     1
102
RTVSPost2010Prop29
280
     1
102
RTVSPost2010PropOp29
 70
     1
102
RTVSPost2010Prop30
280
     1
102
RTVSPost2010PropOp30
 70
     1
102
RTVSPost2010Prop31
280
     0
102
RTVSPost2010PropOp31
 70
     1
102
RTVSPost2010Prop32
280
     0
102
RTVSPost2010PropOp32
 70
     1
102
RTVSPost2010Prop33
280
     0
102
RTVSPost2010PropOp33
 70
     1
102
RTVSPost2010Prop34
280
     0
102
RTVSPost2010PropOp34
 70
     1
102
RTVSPost2010Prop35
280
     0
102
RTVSPost2010PropOp35
 70
     1
102
RTVSPost2010Prop36
280
     0
102
RTVSPost2010PropOp36
 70
     1
102
RTVSPost2010Prop37
 90
       50
102
RTVSPost2010PropOp37
 70
     0
102
RTVSPost2010Prop38
140
0.0
102
RTVSPost2010PropOp38
 70
     0
102
RTVSPost2010Prop39
140
1.0
102
RTVSPost2010PropOp39
 70
     0
102
RTVSPost2010Prop40
 90
        0
102
RTVSPost2010PropOp40
 70
     0
102
RTVSPost2010Prop41ColorIndex
 90
       18
102
RTVSPost2010Prop41ColorRGB
 90
        0
102
RTVSPost2010PropOp41
 70
     0
102
RTVSPost2010Prop42
 90
       50
102
RTVSPost2010PropOp42
 70
     0
102
RTVSPost2010Prop43
 90
        3
102
RTVSPost2010PropOp43
 70
     0
102
RTVSPost2010Prop44ColorIndex
 90
        5
102
RTVSPost2010Prop44ColorRGB
 90
      255
102
RTVSPost2010PropOp44
 70
     0
102
RTVSPost2010Prop45
280
     0
102
RTVSPost2010PropOp45
 70
     1
102
RTVSPost2010Prop46
 90
       50
102
RTVSPost2010PropOp46
 70
     0
102
RTVSPost2010Prop47
 90
       50
102
RTVSPost2010PropOp47
 70
     0
102
RTVSPost2010Prop48
 90
       50
102
RTVSPost2010PropOp48
 70
     0
102
RTVSPost2010Prop49
280
     0
102
RTVSPost2010PropOp49
 70
     1
102
RTVSPost2010Prop50
 90
       50
102
RTVSPost2010PropOp50
 70
     0
102
RTVSPost2010Prop51ColorIndex
 90
      256
102
RTVSPost2010Prop51ColorRGB
 90
-16777216
102
RTVSPost2010PropOp51
 70
     0
102
RTVSPost2010Prop52
140
1.0
102
RTVSPost2010PropOp52
 70
     0
102
RTVSPost2010Prop53
 90
        2
102
RTVSPost2010PropOp53
 70
     0
102
RTVSPost2010Prop54
  1
strokes_ogs.tif
102
RTVSPost2010PropOp54
 70
     0
102
RTVSPost2010Prop55
280
     0
102
RTVSPost2010PropOp55
 70
     1
102
RTVSPost2010Prop56
140
1.0
102
RTVSPost2010PropOp56
 70
     0
102
RTVSPost2010Prop57
140
1.0
102
RTVSPost2010PropOp57
 70
     0
102
RTVSPropertyOp0
 70
     0
102
RTVSPropertyOp1
 70
     0
102
RTVSPropertyOp2
 70
     0
102
RTVSPropertyOp3
 70
     0
102
RTVSPropertyOp4
 70
     0
102
RTVSPropertyOp5
 70
     0
102
RTVSPropertyOp6
 70
     0
102
RTVSPropertyOp7
 70
     0
102
RTVSPropertyOp8
 70
     0
102
RTVSPropertyOp9
 70
     0
102
RTVSPropertyOp10
 70
     0
102
RTVSPropertyOp11
 70
     0
102
RTVSPropertyOp12
 70
     0
102
RTVSPropertyOp13
 70
     0
102
RTVSPropertyOp14
 70
     2
102
RTVSPropertyOp15
 70
     0
102
RTVSPropertyOp16
 70
     0
102
RTVSPropertyOp17
 70
     0
102
RTVSPropertyOp18
 70
     0
102
RTVSPropertyOp19
 70
     0
102
RTVSPropertyOp20
 70
     0
102
RTVSPropertyOp21
 70
     0
102
RTVSPropertyOp22
 70
     0
102
RTVSPropertyOp23
 70
     0
102
RTVSPropertyOp24
 70
     0
102
RTVSPropertyOp25
 70
     0
102
RTVSPropertyOp26
 70
     0
102
RTVSPropertyOp27
 70
     0
102
RTVSPropertyOp28
 70
     1
102
RTVSPropertyOp29
 70
     1
102
RTVSPropertyOp30
 70
     1
102
RTVSPropertyOp31
 70
     1
102
RTVSPropertyOp32
 70
     1
102
RTVSPropertyOp33
 70
     1
102
RTVSPropertyOp34
 70
     1
102
RTVSPropertyOp35
 70
     1
102
RTVSPropertyOp36
 70
     1
102
RTVSPropertyOp37
 70
     0
102
RTVSPropertyOp38
 70
     0
102
RTVSPropertyOp39
 70
     0
102
RTVSPropertyOp40
 70
     0
102
RTVSPropertyOp41
 70
     0
102
RTVSPropertyOp42
 70
     0
102
RTVSPropertyOp43
 70
     0
102
RTVSPropertyOp44
 70
     0
102
RTVSPropertyOp45
 70
     1
102
RTVSPropertyOp46
 70
     0
102
RTVSPropertyOp47
 70
     0
102
RTVSPropertyOp48
 70
     0
102
RTVSPropertyOp49
 70
     1
102
RTVSPropertyOp50
 70
     0
102
RTVSPropertyOp51
 70
     0
102
RTVSPropertyOp52
 70
     0
102
RTVSPropertyOp53
 70
     0
102
RTVSPropertyOp54
 70
     0
102
RTVSPropertyOp55
 70
     1
102
RTVSPropertyOp56
 70
     0
102
RTVSPropertyOp57
 70
     0
102
RTVSPropertyOp58
 70
     0
102
RTVSPropertyOp59
 70
     0
102
RTVSPropertyOp60
 70
     0
102
RTVSPropertyOp61
 70
     0
102
RTVSPropertyOp62
 70
     0
  0
XRECORD
  5
B675
102
{ACAD_REACTORS
330
B674
102
}
330
B674
100
AcDbXrecord
280
     1
102
RTVSPost2010Prop28
280
     0
102
RTVSPost2010PropOp28
 70
     1
102
RTVSPost2010Prop29
280
     1
102
RTVSPost2010PropOp29
 70
     1
102
RTVSPost2010Prop30
280
     1
102
RTVSPost2010PropOp30
 70
     1
102
RTVSPost2010Prop31
280
     0
102
RTVSPost2010PropOp31
 70
     1
102
RTVSPost2010Prop32
280
     0
102
RTVSPost2010PropOp32
 70
     1
102
RTVSPost2010Prop33
280
     0
102
RTVSPost2010PropOp33
 70
     1
102
RTVSPost2010Prop34
280
     0
102
RTVSPost2010PropOp34
 70
     1
102
RTVSPost2010Prop35
280
     0
102
RTVSPost2010PropOp35
 70
     1
102
RTVSPost2010Prop36
280
     0
102
RTVSPost2010PropOp36
 70
     1
102
RTVSPost2010Prop37
 90
       50
102
RTVSPost2010PropOp37
 70
     1
102
RTVSPost2010Prop38
140
0.0
102
RTVSPost2010PropOp38
 70
     1
102
RTVSPost2010Prop39
140
1.0
102
RTVSPost2010PropOp39
 70
     1
102
RTVSPost2010Prop40
 90
        0
102
RTVSPost2010PropOp40
 70
     1
102
RTVSPost2010Prop41ColorIndex
 90
       18
102
RTVSPost2010Prop41ColorRGB
 90
        0
102
RTVSPost2010PropOp41
 70
     1
102
RTVSPost2010Prop42
 90
       50
102
RTVSPost2010PropOp42
 70
     1
102
RTVSPost2010Prop43
 90
        3
102
RTVSPost2010PropOp43
 70
     1
102
RTVSPost2010Prop44ColorIndex
 90
        5
102
RTVSPost2010Prop44ColorRGB
 90
      255
102
RTVSPost2010PropOp44
 70
     1
102
RTVSPost2010Prop45
280
     0
102
RTVSPost2010PropOp45
 70
     1
102
RTVSPost2010Prop46
 90
       50
102
RTVSPost2010PropOp46
 70
     1
102
RTVSPost2010Prop47
 90
       50
102
RTVSPost2010PropOp47
 70
     1
102
RTVSPost2010Prop48
 90
       50
102
RTVSPost2010PropOp48
 70
     1
102
RTVSPost2010Prop49
280
     0
102
RTVSPost2010PropOp49
 70
     1
102
RTVSPost2010Prop50
 90
       50
102
RTVSPost2010PropOp50
 70
     1
102
RTVSPost2010Prop51ColorIndex
 90
      256
102
RTVSPost2010Prop51ColorRGB
 90
-16777216
102
RTVSPost2010PropOp51
 70
     0
102
RTVSPost2010Prop52
140
1.0
102
RTVSPost2010PropOp52
 70
     0
102
RTVSPost2010Prop53
 90
        2
102
RTVSPost2010PropOp53
 70
     1
102
RTVSPost2010Prop54
  1
strokes_ogs.tif
102
RTVSPost2010PropOp54
 70
     1
102
RTVSPost2010Prop55
280
     0
102
RTVSPost2010PropOp55
 70
     1
102
RTVSPost2010Prop56
140
1.0
102
RTVSPost2010PropOp56
 70
     1
102
RTVSPost2010Prop57
140
1.0
102
RTVSPost2010PropOp57
 70
     1
102
RTVSPropertyOp0
 70
     1
102
RTVSPropertyOp1
 70
     1
102
RTVSPropertyOp2
 70
     1
102
RTVSPropertyOp3
 70
     1
102
RTVSPropertyOp4
 70
     1
102
RTVSPropertyOp5
 70
     1
102
RTVSPropertyOp6
 70
     1
102
RTVSPropertyOp7
 70
     1
102
RTVSPropertyOp8
 70
     1
102
RTVSPropertyOp9
 70
     1
102
RTVSPropertyOp10
 70
     1
102
RTVSPropertyOp11
 70
     1
102
RTVSPropertyOp12
 70
     1
102
RTVSPropertyOp13
 70
     1
102
RTVSPropertyOp14
 70
     1
102
RTVSPropertyOp15
 70
     1
102
RTVSPropertyOp16
 70
     1
102
RTVSPropertyOp17
 70
     1
102
RTVSPropertyOp18
 70
     1
102
RTVSPropertyOp19
 70
     1
102
RTVSPropertyOp20
 70
     1
102
RTVSPropertyOp21
 70
     1
102
RTVSPropertyOp22
 70
     1
102
RTVSPropertyOp23
 70
     1
102
RTVSPropertyOp24
 70
     1
102
RTVSPropertyOp25
 70
     1
102
RTVSPropertyOp26
 70
     1
102
RTVSPropertyOp27
 70
     1
102
RTVSPropertyOp28
 70
     1
102
RTVSPropertyOp29
 70
     1
102
RTVSPropertyOp30
 70
     1
102
RTVSPropertyOp31
 70
     1
102
RTVSPropertyOp32
 70
     1
102
RTVSPropertyOp33
 70
     1
102
RTVSPropertyOp34
 70
     1
102
RTVSPropertyOp35
 70
     1
102
RTVSPropertyOp36
 70
     1
102
RTVSPropertyOp37
 70
     1
102
RTVSPropertyOp38
 70
     1
102
RTVSPropertyOp39
 70
     1
102
RTVSPropertyOp40
 70
     1
102
RTVSPropertyOp41
 70
     1
102
RTVSPropertyOp42
 70
     1
102
RTVSPropertyOp43
 70
     1
102
RTVSPropertyOp44
 70
     1
102
RTVSPropertyOp45
 70
     1
102
RTVSPropertyOp46
 70
     1
102
RTVSPropertyOp47
 70
     1
102
RTVSPropertyOp48
 70
     1
102
RTVSPropertyOp49
 70
     1
102
RTVSPropertyOp50
 70
     1
102
RTVSPropertyOp51
 70
     0
102
RTVSPropertyOp52
 70
     0
102
RTVSPropertyOp53
 70
     1
102
RTVSPropertyOp54
 70
     1
102
RTVSPropertyOp55
 70
     1
102
RTVSPropertyOp56
 70
     1
102
RTVSPropertyOp57
 70
     1
102
RTVSPropertyOp58
 70
     1
102
RTVSPropertyOp59
 70
     1
102
RTVSPropertyOp60
 70
     1
102
RTVSPropertyOp61
 70
     1
102
RTVSPropertyOp62
 70
     1
  0
XRECORD
  5
B68B
102
{ACAD_REACTORS
330
B68A
102
}
330
B68A
100
AcDbXrecord
280
     1
102
RTVSPost2010Prop28
280
     0
102
RTVSPost2010PropOp28
 70
     1
102
RTVSPost2010Prop29
280
     1
102
RTVSPost2010PropOp29
 70
     1
102
RTVSPost2010Prop30
280
     1
102
RTVSPost2010PropOp30
 70
     1
102
RTVSPost2010Prop31
280
     0
102
RTVSPost2010PropOp31
 70
     1
102
RTVSPost2010Prop32
280
     0
102
RTVSPost2010PropOp32
 70
     1
102
RTVSPost2010Prop33
280
     0
102
RTVSPost2010PropOp33
 70
     1
102
RTVSPost2010Prop34
280
     0
102
RTVSPost2010PropOp34
 70
     1
102
RTVSPost2010Prop35
280
     0
102
RTVSPost2010PropOp35
 70
     1
102
RTVSPost2010Prop36
280
     0
102
RTVSPost2010PropOp36
 70
     1
102
RTVSPost2010Prop37
 90
       50
102
RTVSPost2010PropOp37
 70
     1
102
RTVSPost2010Prop38
140
0.0
102
RTVSPost2010PropOp38
 70
     1
102
RTVSPost2010Prop39
140
1.0
102
RTVSPost2010PropOp39
 70
     1
102
RTVSPost2010Prop40
 90
        0
102
RTVSPost2010PropOp40
 70
     1
102
RTVSPost2010Prop41ColorIndex
 90
       18
102
RTVSPost2010Prop41ColorRGB
 90
        0
102
RTVSPost2010PropOp41
 70
     1
102
RTVSPost2010Prop42
 90
       50
102
RTVSPost2010PropOp42
 70
     1
102
RTVSPost2010Prop43
 90
        3
102
RTVSPost2010PropOp43
 70
     1
102
RTVSPost2010Prop44ColorIndex
 90
        5
102
RTVSPost2010Prop44ColorRGB
 90
      255
102
RTVSPost2010PropOp44
 70
     1
102
RTVSPost2010Prop45
280
     0
102
RTVSPost2010PropOp45
 70
     1
102
RTVSPost2010Prop46
 90
       50
102
RTVSPost2010PropOp46
 70
     1
102
RTVSPost2010Prop47
 90
       50
102
RTVSPost2010PropOp47
 70
     1
102
RTVSPost2010Prop48
 90
       50
102
RTVSPost2010PropOp48
 70
     1
102
RTVSPost2010Prop49
280
     0
102
RTVSPost2010PropOp49
 70
     1
102
RTVSPost2010Prop50
 90
       50
102
RTVSPost2010PropOp50
 70
     1
102
RTVSPost2010Prop51ColorIndex
 90
      256
102
RTVSPost2010Prop51ColorRGB
 90
-16777216
102
RTVSPost2010PropOp51
 70
     0
102
RTVSPost2010Prop52
140
1.0
102
RTVSPost2010PropOp52
 70
     0
102
RTVSPost2010Prop53
 90
        2
102
RTVSPost2010PropOp53
 70
     1
102
RTVSPost2010Prop54
  1
strokes_ogs.tif
102
RTVSPost2010PropOp54
 70
     1
102
RTVSPost2010Prop55
280
     0
102
RTVSPost2010PropOp55
 70
     1
102
RTVSPost2010Prop56
140
1.0
102
RTVSPost2010PropOp56
 70
     1
102
RTVSPost2010Prop57
140
1.0
102
RTVSPost2010PropOp57
 70
     1
102
RTVSPropertyOp0
 70
     1
102
RTVSPropertyOp1
 70
     1
102
RTVSPropertyOp2
 70
     1
102
RTVSPropertyOp3
 70
     1
102
RTVSPropertyOp4
 70
     1
102
RTVSPropertyOp5
 70
     1
102
RTVSPropertyOp6
 70
     1
102
RTVSPropertyOp7
 70
     1
102
RTVSPropertyOp8
 70
     1
102
RTVSPropertyOp9
 70
     1
102
RTVSPropertyOp10
 70
     1
102
RTVSPropertyOp11
 70
     1
102
RTVSPropertyOp12
 70
     1
102
RTVSPropertyOp13
 70
     1
102
RTVSPropertyOp14
 70
     1
102
RTVSPropertyOp15
 70
     1
102
RTVSPropertyOp16
 70
     1
102
RTVSPropertyOp17
 70
     1
102
RTVSPropertyOp18
 70
     1
102
RTVSPropertyOp19
 70
     1
102
RTVSPropertyOp20
 70
     1
102
RTVSPropertyOp21
 70
     1
102
RTVSPropertyOp22
 70
     1
102
RTVSPropertyOp23
 70
     1
102
RTVSPropertyOp24
 70
     1
102
RTVSPropertyOp25
 70
     1
102
RTVSPropertyOp26
 70
     1
102
RTVSPropertyOp27
 70
     1
102
RTVSPropertyOp28
 70
     1
102
RTVSPropertyOp29
 70
     1
102
RTVSPropertyOp30
 70
     1
102
RTVSPropertyOp31
 70
     1
102
RTVSPropertyOp32
 70
     1
102
RTVSPropertyOp33
 70
     1
102
RTVSPropertyOp34
 70
     1
102
RTVSPropertyOp35
 70
     1
102
RTVSPropertyOp36
 70
     1
102
RTVSPropertyOp37
 70
     1
102
RTVSPropertyOp38
 70
     1
102
RTVSPropertyOp39
 70
     1
102
RTVSPropertyOp40
 70
     1
102
RTVSPropertyOp41
 70
     1
102
RTVSPropertyOp42
 70
     1
102
RTVSPropertyOp43
 70
     1
102
RTVSPropertyOp44
 70
     1
102
RTVSPropertyOp45
 70
     1
102
RTVSPropertyOp46
 70
     1
102
RTVSPropertyOp47
 70
     1
102
RTVSPropertyOp48
 70
     1
102
RTVSPropertyOp49
 70
     1
102
RTVSPropertyOp50
 70
     1
102
RTVSPropertyOp51
 70
     0
102
RTVSPropertyOp52
 70
     0
102
RTVSPropertyOp53
 70
     1
102
RTVSPropertyOp54
 70
     1
102
RTVSPropertyOp55
 70
     1
102
RTVSPropertyOp56
 70
     1
102
RTVSPropertyOp57
 70
     1
102
RTVSPropertyOp58
 70
     1
102
RTVSPropertyOp59
 70
     1
102
RTVSPropertyOp60
 70
     1
102
RTVSPropertyOp61
 70
     1
102
RTVSPropertyOp62
 70
     1
  0
XRECORD
  5
B689
102
{ACAD_REACTORS
330
B688
102
}
330
B688
100
AcDbXrecord
280
     1
102
RTVSPost2010Prop28
280
     0
102
RTVSPost2010PropOp28
 70
     1
102
RTVSPost2010Prop29
280
     1
102
RTVSPost2010PropOp29
 70
     1
102
RTVSPost2010Prop30
280
     1
102
RTVSPost2010PropOp30
 70
     1
102
RTVSPost2010Prop31
280
     0
102
RTVSPost2010PropOp31
 70
     1
102
RTVSPost2010Prop32
280
     0
102
RTVSPost2010PropOp32
 70
     1
102
RTVSPost2010Prop33
280
     0
102
RTVSPost2010PropOp33
 70
     1
102
RTVSPost2010Prop34
280
     0
102
RTVSPost2010PropOp34
 70
     1
102
RTVSPost2010Prop35
280
     0
102
RTVSPost2010PropOp35
 70
     1
102
RTVSPost2010Prop36
280
     0
102
RTVSPost2010PropOp36
 70
     1
102
RTVSPost2010Prop37
 90
       50
102
RTVSPost2010PropOp37
 70
     1
102
RTVSPost2010Prop38
140
0.0
102
RTVSPost2010PropOp38
 70
     1
102
RTVSPost2010Prop39
140
1.0
102
RTVSPost2010PropOp39
 70
     1
102
RTVSPost2010Prop40
 90
        0
102
RTVSPost2010PropOp40
 70
     1
102
RTVSPost2010Prop41ColorIndex
 90
       18
102
RTVSPost2010Prop41ColorRGB
 90
        0
102
RTVSPost2010PropOp41
 70
     1
102
RTVSPost2010Prop42
 90
       50
102
RTVSPost2010PropOp42
 70
     1
102
RTVSPost2010Prop43
 90
        3
102
RTVSPost2010PropOp43
 70
     1
102
RTVSPost2010Prop44ColorIndex
 90
        5
102
RTVSPost2010Prop44ColorRGB
 90
      255
102
RTVSPost2010PropOp44
 70
     1
102
RTVSPost2010Prop45
280
     0
102
RTVSPost2010PropOp45
 70
     1
102
RTVSPost2010Prop46
 90
       50
102
RTVSPost2010PropOp46
 70
     1
102
RTVSPost2010Prop47
 90
       50
102
RTVSPost2010PropOp47
 70
     1
102
RTVSPost2010Prop48
 90
       50
102
RTVSPost2010PropOp48
 70
     1
102
RTVSPost2010Prop49
280
     0
102
RTVSPost2010PropOp49
 70
     1
102
RTVSPost2010Prop50
 90
       50
102
RTVSPost2010PropOp50
 70
     1
102
RTVSPost2010Prop51ColorIndex
 90
      256
102
RTVSPost2010Prop51ColorRGB
 90
-16777216
102
RTVSPost2010PropOp51
 70
     0
102
RTVSPost2010Prop52
140
1.0
102
RTVSPost2010PropOp52
 70
     0
102
RTVSPost2010Prop53
 90
        2
102
RTVSPost2010PropOp53
 70
     1
102
RTVSPost2010Prop54
  1
strokes_ogs.tif
102
RTVSPost2010PropOp54
 70
     1
102
RTVSPost2010Prop55
280
     0
102
RTVSPost2010PropOp55
 70
     1
102
RTVSPost2010Prop56
140
1.0
102
RTVSPost2010PropOp56
 70
     1
102
RTVSPost2010Prop57
140
1.0
102
RTVSPost2010PropOp57
 70
     1
102
RTVSPropertyOp0
 70
     1
102
RTVSPropertyOp1
 70
     1
102
RTVSPropertyOp2
 70
     1
102
RTVSPropertyOp3
 70
     1
102
RTVSPropertyOp4
 70
     1
102
RTVSPropertyOp5
 70
     1
102
RTVSPropertyOp6
 70
     1
102
RTVSPropertyOp7
 70
     1
102
RTVSPropertyOp8
 70
     1
102
RTVSPropertyOp9
 70
     1
102
RTVSPropertyOp10
 70
     1
102
RTVSPropertyOp11
 70
     1
102
RTVSPropertyOp12
 70
     1
102
RTVSPropertyOp13
 70
     1
102
RTVSPropertyOp14
 70
     1
102
RTVSPropertyOp15
 70
     1
102
RTVSPropertyOp16
 70
     1
102
RTVSPropertyOp17
 70
     1
102
RTVSPropertyOp18
 70
     1
102
RTVSPropertyOp19
 70
     1
102
RTVSPropertyOp20
 70
     1
102
RTVSPropertyOp21
 70
     1
102
RTVSPropertyOp22
 70
     1
102
RTVSPropertyOp23
 70
     1
102
RTVSPropertyOp24
 70
     1
102
RTVSPropertyOp25
 70
     1
102
RTVSPropertyOp26
 70
     1
102
RTVSPropertyOp27
 70
     1
102
RTVSPropertyOp28
 70
     1
102
RTVSPropertyOp29
 70
     1
102
RTVSPropertyOp30
 70
     1
102
RTVSPropertyOp31
 70
     1
102
RTVSPropertyOp32
 70
     1
102
RTVSPropertyOp33
 70
     1
102
RTVSPropertyOp34
 70
     1
102
RTVSPropertyOp35
 70
     1
102
RTVSPropertyOp36
 70
     1
102
RTVSPropertyOp37
 70
     1
102
RTVSPropertyOp38
 70
     1
102
RTVSPropertyOp39
 70
     1
102
RTVSPropertyOp40
 70
     1
102
RTVSPropertyOp41
 70
     1
102
RTVSPropertyOp42
 70
     1
102
RTVSPropertyOp43
 70
     1
102
RTVSPropertyOp44
 70
     1
102
RTVSPropertyOp45
 70
     1
102
RTVSPropertyOp46
 70
     1
102
RTVSPropertyOp47
 70
     1
102
RTVSPropertyOp48
 70
     1
102
RTVSPropertyOp49
 70
     1
102
RTVSPropertyOp50
 70
     1
102
RTVSPropertyOp51
 70
     0
102
RTVSPropertyOp52
 70
     0
102
RTVSPropertyOp53
 70
     1
102
RTVSPropertyOp54
 70
     1
102
RTVSPropertyOp55
 70
     1
102
RTVSPropertyOp56
 70
     1
102
RTVSPropertyOp57
 70
     1
102
RTVSPropertyOp58
 70
     1
102
RTVSPropertyOp59
 70
     1
102
RTVSPropertyOp60
 70
     1
102
RTVSPropertyOp61
 70
     1
102
RTVSPropertyOp62
 70
     1
  0
XRECORD
  5
B683
102
{ACAD_REACTORS
330
B682
102
}
330
B682
100
AcDbXrecord
280
     1
102
RTVSPost2010Prop28
280
     0
102
RTVSPost2010PropOp28
 70
     1
102
RTVSPost2010Prop29
280
     1
102
RTVSPost2010PropOp29
 70
     1
102
RTVSPost2010Prop30
280
     1
102
RTVSPost2010PropOp30
 70
     1
102
RTVSPost2010Prop31
280
     0
102
RTVSPost2010PropOp31
 70
     1
102
RTVSPost2010Prop32
280
     0
102
RTVSPost2010PropOp32
 70
     1
102
RTVSPost2010Prop33
280
     0
102
RTVSPost2010PropOp33
 70
     1
102
RTVSPost2010Prop34
280
     0
102
RTVSPost2010PropOp34
 70
     1
102
RTVSPost2010Prop35
280
     0
102
RTVSPost2010PropOp35
 70
     1
102
RTVSPost2010Prop36
280
     0
102
RTVSPost2010PropOp36
 70
     1
102
RTVSPost2010Prop37
 90
       50
102
RTVSPost2010PropOp37
 70
     1
102
RTVSPost2010Prop38
140
0.0
102
RTVSPost2010PropOp38
 70
     1
102
RTVSPost2010Prop39
140
1.0
102
RTVSPost2010PropOp39
 70
     1
102
RTVSPost2010Prop40
 90
        0
102
RTVSPost2010PropOp40
 70
     1
102
RTVSPost2010Prop41ColorIndex
 90
       18
102
RTVSPost2010Prop41ColorRGB
 90
        0
102
RTVSPost2010PropOp41
 70
     1
102
RTVSPost2010Prop42
 90
       50
102
RTVSPost2010PropOp42
 70
     1
102
RTVSPost2010Prop43
 90
        3
102
RTVSPost2010PropOp43
 70
     1
102
RTVSPost2010Prop44ColorIndex
 90
        5
102
RTVSPost2010Prop44ColorRGB
 90
      255
102
RTVSPost2010PropOp44
 70
     1
102
RTVSPost2010Prop45
280
     0
102
RTVSPost2010PropOp45
 70
     1
102
RTVSPost2010Prop46
 90
       50
102
RTVSPost2010PropOp46
 70
     1
102
RTVSPost2010Prop47
 90
       50
102
RTVSPost2010PropOp47
 70
     1
102
RTVSPost2010Prop48
 90
       50
102
RTVSPost2010PropOp48
 70
     1
102
RTVSPost2010Prop49
280
     0
102
RTVSPost2010PropOp49
 70
     1
102
RTVSPost2010Prop50
 90
       50
102
RTVSPost2010PropOp50
 70
     1
102
RTVSPost2010Prop51ColorIndex
 90
      256
102
RTVSPost2010Prop51ColorRGB
 90
-16777216
102
RTVSPost2010PropOp51
 70
     0
102
RTVSPost2010Prop52
140
1.0
102
RTVSPost2010PropOp52
 70
     0
102
RTVSPost2010Prop53
 90
        2
102
RTVSPost2010PropOp53
 70
     1
102
RTVSPost2010Prop54
  1
strokes_ogs.tif
102
RTVSPost2010PropOp54
 70
     1
102
RTVSPost2010Prop55
280
     0
102
RTVSPost2010PropOp55
 70
     1
102
RTVSPost2010Prop56
140
1.0
102
RTVSPost2010PropOp56
 70
     1
102
RTVSPost2010Prop57
140
1.0
102
RTVSPost2010PropOp57
 70
     1
102
RTVSPropertyOp0
 70
     1
102
RTVSPropertyOp1
 70
     1
102
RTVSPropertyOp2
 70
     1
102
RTVSPropertyOp3
 70
     1
102
RTVSPropertyOp4
 70
     1
102
RTVSPropertyOp5
 70
     1
102
RTVSPropertyOp6
 70
     1
102
RTVSPropertyOp7
 70
     1
102
RTVSPropertyOp8
 70
     1
102
RTVSPropertyOp9
 70
     1
102
RTVSPropertyOp10
 70
     1
102
RTVSPropertyOp11
 70
     1
102
RTVSPropertyOp12
 70
     1
102
RTVSPropertyOp13
 70
     1
102
RTVSPropertyOp14
 70
     1
102
RTVSPropertyOp15
 70
     1
102
RTVSPropertyOp16
 70
     1
102
RTVSPropertyOp17
 70
     1
102
RTVSPropertyOp18
 70
     1
102
RTVSPropertyOp19
 70
     1
102
RTVSPropertyOp20
 70
     1
102
RTVSPropertyOp21
 70
     1
102
RTVSPropertyOp22
 70
     1
102
RTVSPropertyOp23
 70
     1
102
RTVSPropertyOp24
 70
     1
102
RTVSPropertyOp25
 70
     1
102
RTVSPropertyOp26
 70
     1
102
RTVSPropertyOp27
 70
     1
102
RTVSPropertyOp28
 70
     1
102
RTVSPropertyOp29
 70
     1
102
RTVSPropertyOp30
 70
     1
102
RTVSPropertyOp31
 70
     1
102
RTVSPropertyOp32
 70
     1
102
RTVSPropertyOp33
 70
     1
102
RTVSPropertyOp34
 70
     1
102
RTVSPropertyOp35
 70
     1
102
RTVSPropertyOp36
 70
     1
102
RTVSPropertyOp37
 70
     1
102
RTVSPropertyOp38
 70
     1
102
RTVSPropertyOp39
 70
     1
102
RTVSPropertyOp40
 70
     1
102
RTVSPropertyOp41
 70
     1
102
RTVSPropertyOp42
 70
     1
102
RTVSPropertyOp43
 70
     1
102
RTVSPropertyOp44
 70
     1
102
RTVSPropertyOp45
 70
     1
102
RTVSPropertyOp46
 70
     1
102
RTVSPropertyOp47
 70
     1
102
RTVSPropertyOp48
 70
     1
102
RTVSPropertyOp49
 70
     1
102
RTVSPropertyOp50
 70
     1
102
RTVSPropertyOp51
 70
     0
102
RTVSPropertyOp52
 70
     0
102
RTVSPropertyOp53
 70
     1
102
RTVSPropertyOp54
 70
     1
102
RTVSPropertyOp55
 70
     1
102
RTVSPropertyOp56
 70
     1
102
RTVSPropertyOp57
 70
     1
102
RTVSPropertyOp58
 70
     1
102
RTVSPropertyOp59
 70
     1
102
RTVSPropertyOp60
 70
     1
102
RTVSPropertyOp61
 70
     1
102
RTVSPropertyOp62
 70
     1
  0
XRECORD
  5
B685
102
{ACAD_REACTORS
330
B684
102
}
330
B684
100
AcDbXrecord
280
     1
102
RTVSPost2010Prop28
280
     0
102
RTVSPost2010PropOp28
 70
     1
102
RTVSPost2010Prop29
280
     1
102
RTVSPost2010PropOp29
 70
     1
102
RTVSPost2010Prop30
280
     1
102
RTVSPost2010PropOp30
 70
     1
102
RTVSPost2010Prop31
280
     0
102
RTVSPost2010PropOp31
 70
     1
102
RTVSPost2010Prop32
280
     0
102
RTVSPost2010PropOp32
 70
     1
102
RTVSPost2010Prop33
280
     0
102
RTVSPost2010PropOp33
 70
     1
102
RTVSPost2010Prop34
280
     0
102
RTVSPost2010PropOp34
 70
     1
102
RTVSPost2010Prop35
280
     0
102
RTVSPost2010PropOp35
 70
     1
102
RTVSPost2010Prop36
280
     0
102
RTVSPost2010PropOp36
 70
     1
102
RTVSPost2010Prop37
 90
       50
102
RTVSPost2010PropOp37
 70
     1
102
RTVSPost2010Prop38
140
0.0
102
RTVSPost2010PropOp38
 70
     1
102
RTVSPost2010Prop39
140
1.0
102
RTVSPost2010PropOp39
 70
     1
102
RTVSPost2010Prop40
 90
        0
102
RTVSPost2010PropOp40
 70
     1
102
RTVSPost2010Prop41ColorIndex
 90
       18
102
RTVSPost2010Prop41ColorRGB
 90
        0
102
RTVSPost2010PropOp41
 70
     1
102
RTVSPost2010Prop42
 90
       50
102
RTVSPost2010PropOp42
 70
     1
102
RTVSPost2010Prop43
 90
        3
102
RTVSPost2010PropOp43
 70
     1
102
RTVSPost2010Prop44ColorIndex
 90
        5
102
RTVSPost2010Prop44ColorRGB
 90
      255
102
RTVSPost2010PropOp44
 70
     1
102
RTVSPost2010Prop45
280
     0
102
RTVSPost2010PropOp45
 70
     1
102
RTVSPost2010Prop46
 90
       50
102
RTVSPost2010PropOp46
 70
     1
102
RTVSPost2010Prop47
 90
       50
102
RTVSPost2010PropOp47
 70
     1
102
RTVSPost2010Prop48
 90
       50
102
RTVSPost2010PropOp48
 70
     1
102
RTVSPost2010Prop49
280
     0
102
RTVSPost2010PropOp49
 70
     1
102
RTVSPost2010Prop50
 90
       50
102
RTVSPost2010PropOp50
 70
     1
102
RTVSPost2010Prop51ColorIndex
 90
      256
102
RTVSPost2010Prop51ColorRGB
 90
-16777216
102
RTVSPost2010PropOp51
 70
     0
102
RTVSPost2010Prop52
140
1.0
102
RTVSPost2010PropOp52
 70
     0
102
RTVSPost2010Prop53
 90
        2
102
RTVSPost2010PropOp53
 70
     1
102
RTVSPost2010Prop54
  1
strokes_ogs.tif
102
RTVSPost2010PropOp54
 70
     1
102
RTVSPost2010Prop55
280
     0
102
RTVSPost2010PropOp55
 70
     1
102
RTVSPost2010Prop56
140
1.0
102
RTVSPost2010PropOp56
 70
     1
102
RTVSPost2010Prop57
140
1.0
102
RTVSPost2010PropOp57
 70
     1
102
RTVSPropertyOp0
 70
     1
102
RTVSPropertyOp1
 70
     1
102
RTVSPropertyOp2
 70
     1
102
RTVSPropertyOp3
 70
     1
102
RTVSPropertyOp4
 70
     1
102
RTVSPropertyOp5
 70
     1
102
RTVSPropertyOp6
 70
     1
102
RTVSPropertyOp7
 70
     1
102
RTVSPropertyOp8
 70
     1
102
RTVSPropertyOp9
 70
     1
102
RTVSPropertyOp10
 70
     1
102
RTVSPropertyOp11
 70
     1
102
RTVSPropertyOp12
 70
     1
102
RTVSPropertyOp13
 70
     1
102
RTVSPropertyOp14
 70
     1
102
RTVSPropertyOp15
 70
     1
102
RTVSPropertyOp16
 70
     1
102
RTVSPropertyOp17
 70
     1
102
RTVSPropertyOp18
 70
     1
102
RTVSPropertyOp19
 70
     1
102
RTVSPropertyOp20
 70
     1
102
RTVSPropertyOp21
 70
     1
102
RTVSPropertyOp22
 70
     1
102
RTVSPropertyOp23
 70
     1
102
RTVSPropertyOp24
 70
     1
102
RTVSPropertyOp25
 70
     1
102
RTVSPropertyOp26
 70
     1
102
RTVSPropertyOp27
 70
     1
102
RTVSPropertyOp28
 70
     1
102
RTVSPropertyOp29
 70
     1
102
RTVSPropertyOp30
 70
     1
102
RTVSPropertyOp31
 70
     1
102
RTVSPropertyOp32
 70
     1
102
RTVSPropertyOp33
 70
     1
102
RTVSPropertyOp34
 70
     1
102
RTVSPropertyOp35
 70
     1
102
RTVSPropertyOp36
 70
     1
102
RTVSPropertyOp37
 70
     1
102
RTVSPropertyOp38
 70
     1
102
RTVSPropertyOp39
 70
     1
102
RTVSPropertyOp40
 70
     1
102
RTVSPropertyOp41
 70
     1
102
RTVSPropertyOp42
 70
     1
102
RTVSPropertyOp43
 70
     1
102
RTVSPropertyOp44
 70
     1
102
RTVSPropertyOp45
 70
     1
102
RTVSPropertyOp46
 70
     1
102
RTVSPropertyOp47
 70
     1
102
RTVSPropertyOp48
 70
     1
102
RTVSPropertyOp49
 70
     1
102
RTVSPropertyOp50
 70
     1
102
RTVSPropertyOp51
 70
     0
102
RTVSPropertyOp52
 70
     0
102
RTVSPropertyOp53
 70
     1
102
RTVSPropertyOp54
 70
     1
102
RTVSPropertyOp55
 70
     1
102
RTVSPropertyOp56
 70
     1
102
RTVSPropertyOp57
 70
     1
102
RTVSPropertyOp58
 70
     1
102
RTVSPropertyOp59
 70
     1
102
RTVSPropertyOp60
 70
     1
102
RTVSPropertyOp61
 70
     1
102
RTVSPropertyOp62
 70
     1
  0
XRECORD
  5
B67B
102
{ACAD_REACTORS
330
B67A
102
}
330
B67A
100
AcDbXrecord
280
     1
102
RTVSPost2010Prop28
280
     0
102
RTVSPost2010PropOp28
 70
     1
102
RTVSPost2010Prop29
280
     1
102
RTVSPost2010PropOp29
 70
     1
102
RTVSPost2010Prop30
280
     1
102
RTVSPost2010PropOp30
 70
     1
102
RTVSPost2010Prop31
280
     0
102
RTVSPost2010PropOp31
 70
     1
102
RTVSPost2010Prop32
280
     0
102
RTVSPost2010PropOp32
 70
     1
102
RTVSPost2010Prop33
280
     0
102
RTVSPost2010PropOp33
 70
     1
102
RTVSPost2010Prop34
280
     0
102
RTVSPost2010PropOp34
 70
     1
102
RTVSPost2010Prop35
280
     0
102
RTVSPost2010PropOp35
 70
     1
102
RTVSPost2010Prop36
280
     0
102
RTVSPost2010PropOp36
 70
     1
102
RTVSPost2010Prop37
 90
       50
102
RTVSPost2010PropOp37
 70
     1
102
RTVSPost2010Prop38
140
0.0
102
RTVSPost2010PropOp38
 70
     1
102
RTVSPost2010Prop39
140
1.0
102
RTVSPost2010PropOp39
 70
     1
102
RTVSPost2010Prop40
 90
        0
102
RTVSPost2010PropOp40
 70
     1
102
RTVSPost2010Prop41ColorIndex
 90
       18
102
RTVSPost2010Prop41ColorRGB
 90
        0
102
RTVSPost2010PropOp41
 70
     1
102
RTVSPost2010Prop42
 90
       50
102
RTVSPost2010PropOp42
 70
     1
102
RTVSPost2010Prop43
 90
        3
102
RTVSPost2010PropOp43
 70
     1
102
RTVSPost2010Prop44ColorIndex
 90
        5
102
RTVSPost2010Prop44ColorRGB
 90
      255
102
RTVSPost2010PropOp44
 70
     1
102
RTVSPost2010Prop45
280
     0
102
RTVSPost2010PropOp45
 70
     1
102
RTVSPost2010Prop46
 90
       50
102
RTVSPost2010PropOp46
 70
     1
102
RTVSPost2010Prop47
 90
       50
102
RTVSPost2010PropOp47
 70
     1
102
RTVSPost2010Prop48
 90
       50
102
RTVSPost2010PropOp48
 70
     1
102
RTVSPost2010Prop49
280
     0
102
RTVSPost2010PropOp49
 70
     1
102
RTVSPost2010Prop50
 90
       50
102
RTVSPost2010PropOp50
 70
     1
102
RTVSPost2010Prop51ColorIndex
 90
      256
102
RTVSPost2010Prop51ColorRGB
 90
-16777216
102
RTVSPost2010PropOp51
 70
     0
102
RTVSPost2010Prop52
140
1.0
102
RTVSPost2010PropOp52
 70
     0
102
RTVSPost2010Prop53
 90
        2
102
RTVSPost2010PropOp53
 70
     1
102
RTVSPost2010Prop54
  1
strokes_ogs.tif
102
RTVSPost2010PropOp54
 70
     1
102
RTVSPost2010Prop55
280
     0
102
RTVSPost2010PropOp55
 70
     1
102
RTVSPost2010Prop56
140
1.0
102
RTVSPost2010PropOp56
 70
     1
102
RTVSPost2010Prop57
140
1.0
102
RTVSPost2010PropOp57
 70
     1
102
RTVSPropertyOp0
 70
     1
102
RTVSPropertyOp1
 70
     1
102
RTVSPropertyOp2
 70
     1
102
RTVSPropertyOp3
 70
     1
102
RTVSPropertyOp4
 70
     1
102
RTVSPropertyOp5
 70
     1
102
RTVSPropertyOp6
 70
     1
102
RTVSPropertyOp7
 70
     1
102
RTVSPropertyOp8
 70
     1
102
RTVSPropertyOp9
 70
     1
102
RTVSPropertyOp10
 70
     1
102
RTVSPropertyOp11
 70
     1
102
RTVSPropertyOp12
 70
     1
102
RTVSPropertyOp13
 70
     1
102
RTVSPropertyOp14
 70
     1
102
RTVSPropertyOp15
 70
     1
102
RTVSPropertyOp16
 70
     1
102
RTVSPropertyOp17
 70
     1
102
RTVSPropertyOp18
 70
     1
102
RTVSPropertyOp19
 70
     1
102
RTVSPropertyOp20
 70
     1
102
RTVSPropertyOp21
 70
     1
102
RTVSPropertyOp22
 70
     1
102
RTVSPropertyOp23
 70
     1
102
RTVSPropertyOp24
 70
     1
102
RTVSPropertyOp25
 70
     1
102
RTVSPropertyOp26
 70
     1
102
RTVSPropertyOp27
 70
     1
102
RTVSPropertyOp28
 70
     1
102
RTVSPropertyOp29
 70
     1
102
RTVSPropertyOp30
 70
     1
102
RTVSPropertyOp31
 70
     1
102
RTVSPropertyOp32
 70
     1
102
RTVSPropertyOp33
 70
     1
102
RTVSPropertyOp34
 70
     1
102
RTVSPropertyOp35
 70
     1
102
RTVSPropertyOp36
 70
     1
102
RTVSPropertyOp37
 70
     1
102
RTVSPropertyOp38
 70
     1
102
RTVSPropertyOp39
 70
     1
102
RTVSPropertyOp40
 70
     1
102
RTVSPropertyOp41
 70
     1
102
RTVSPropertyOp42
 70
     1
102
RTVSPropertyOp43
 70
     1
102
RTVSPropertyOp44
 70
     1
102
RTVSPropertyOp45
 70
     1
102
RTVSPropertyOp46
 70
     1
102
RTVSPropertyOp47
 70
     1
102
RTVSPropertyOp48
 70
     1
102
RTVSPropertyOp49
 70
     1
102
RTVSPropertyOp50
 70
     1
102
RTVSPropertyOp51
 70
     0
102
RTVSPropertyOp52
 70
     0
102
RTVSPropertyOp53
 70
     1
102
RTVSPropertyOp54
 70
     1
102
RTVSPropertyOp55
 70
     1
102
RTVSPropertyOp56
 70
     1
102
RTVSPropertyOp57
 70
     1
102
RTVSPropertyOp58
 70
     1
102
RTVSPropertyOp59
 70
     1
102
RTVSPropertyOp60
 70
     1
102
RTVSPropertyOp61
 70
     1
102
RTVSPropertyOp62
 70
     1
  0
XRECORD
  5
B66F
102
{ACAD_REACTORS
330
B66E
102
}
330
B66E
100
AcDbXrecord
280
     1
102
RTVSPost2010Prop28
280
     0
102
RTVSPost2010PropOp28
 70
     1
102
RTVSPost2010Prop29
280
     1
102
RTVSPost2010PropOp29
 70
     1
102
RTVSPost2010Prop30
280
     1
102
RTVSPost2010PropOp30
 70
     1
102
RTVSPost2010Prop31
280
     0
102
RTVSPost2010PropOp31
 70
     1
102
RTVSPost2010Prop32
280
     0
102
RTVSPost2010PropOp32
 70
     1
102
RTVSPost2010Prop33
280
     0
102
RTVSPost2010PropOp33
 70
     1
102
RTVSPost2010Prop34
280
     0
102
RTVSPost2010PropOp34
 70
     1
102
RTVSPost2010Prop35
280
     0
102
RTVSPost2010PropOp35
 70
     1
102
RTVSPost2010Prop36
280
     0
102
RTVSPost2010PropOp36
 70
     1
102
RTVSPost2010Prop37
 90
       50
102
RTVSPost2010PropOp37
 70
     1
102
RTVSPost2010Prop38
140
0.0
102
RTVSPost2010PropOp38
 70
     1
102
RTVSPost2010Prop39
140
1.0
102
RTVSPost2010PropOp39
 70
     1
102
RTVSPost2010Prop40
 90
        0
102
RTVSPost2010PropOp40
 70
     1
102
RTVSPost2010Prop41ColorIndex
 90
       18
102
RTVSPost2010Prop41ColorRGB
 90
        0
102
RTVSPost2010PropOp41
 70
     1
102
RTVSPost2010Prop42
 90
       50
102
RTVSPost2010PropOp42
 70
     1
102
RTVSPost2010Prop43
 90
        3
102
RTVSPost2010PropOp43
 70
     1
102
RTVSPost2010Prop44ColorIndex
 90
        5
102
RTVSPost2010Prop44ColorRGB
 90
      255
102
RTVSPost2010PropOp44
 70
     1
102
RTVSPost2010Prop45
280
     0
102
RTVSPost2010PropOp45
 70
     1
102
RTVSPost2010Prop46
 90
       50
102
RTVSPost2010PropOp46
 70
     1
102
RTVSPost2010Prop47
 90
       50
102
RTVSPost2010PropOp47
 70
     1
102
RTVSPost2010Prop48
 90
       50
102
RTVSPost2010PropOp48
 70
     1
102
RTVSPost2010Prop49
280
     0
102
RTVSPost2010PropOp49
 70
     1
102
RTVSPost2010Prop50
 90
       50
102
RTVSPost2010PropOp50
 70
     1
102
RTVSPost2010Prop51ColorIndex
 90
      256
102
RTVSPost2010Prop51ColorRGB
 90
-16777216
102
RTVSPost2010PropOp51
 70
     0
102
RTVSPost2010Prop52
140
1.0
102
RTVSPost2010PropOp52
 70
     0
102
RTVSPost2010Prop53
 90
        2
102
RTVSPost2010PropOp53
 70
     1
102
RTVSPost2010Prop54
  1
strokes_ogs.tif
102
RTVSPost2010PropOp54
 70
     1
102
RTVSPost2010Prop55
280
     0
102
RTVSPost2010PropOp55
 70
     1
102
RTVSPost2010Prop56
140
1.0
102
RTVSPost2010PropOp56
 70
     1
102
RTVSPost2010Prop57
140
1.0
102
RTVSPost2010PropOp57
 70
     1
102
RTVSPropertyOp0
 70
     1
102
RTVSPropertyOp1
 70
     1
102
RTVSPropertyOp2
 70
     1
102
RTVSPropertyOp3
 70
     1
102
RTVSPropertyOp4
 70
     1
102
RTVSPropertyOp5
 70
     1
102
RTVSPropertyOp6
 70
     1
102
RTVSPropertyOp7
 70
     1
102
RTVSPropertyOp8
 70
     1
102
RTVSPropertyOp9
 70
     1
102
RTVSPropertyOp10
 70
     1
102
RTVSPropertyOp11
 70
     1
102
RTVSPropertyOp12
 70
     1
102
RTVSPropertyOp13
 70
     1
102
RTVSPropertyOp14
 70
     1
102
RTVSPropertyOp15
 70
     1
102
RTVSPropertyOp16
 70
     1
102
RTVSPropertyOp17
 70
     1
102
RTVSPropertyOp18
 70
     1
102
RTVSPropertyOp19
 70
     1
102
RTVSPropertyOp20
 70
     1
102
RTVSPropertyOp21
 70
     1
102
RTVSPropertyOp22
 70
     1
102
RTVSPropertyOp23
 70
     1
102
RTVSPropertyOp24
 70
     1
102
RTVSPropertyOp25
 70
     1
102
RTVSPropertyOp26
 70
     1
102
RTVSPropertyOp27
 70
     1
102
RTVSPropertyOp28
 70
     1
102
RTVSPropertyOp29
 70
     1
102
RTVSPropertyOp30
 70
     1
102
RTVSPropertyOp31
 70
     1
102
RTVSPropertyOp32
 70
     1
102
RTVSPropertyOp33
 70
     1
102
RTVSPropertyOp34
 70
     1
102
RTVSPropertyOp35
 70
     1
102
RTVSPropertyOp36
 70
     1
102
RTVSPropertyOp37
 70
     1
102
RTVSPropertyOp38
 70
     1
102
RTVSPropertyOp39
 70
     1
102
RTVSPropertyOp40
 70
     1
102
RTVSPropertyOp41
 70
     1
102
RTVSPropertyOp42
 70
     1
102
RTVSPropertyOp43
 70
     1
102
RTVSPropertyOp44
 70
     1
102
RTVSPropertyOp45
 70
     1
102
RTVSPropertyOp46
 70
     1
102
RTVSPropertyOp47
 70
     1
102
RTVSPropertyOp48
 70
     1
102
RTVSPropertyOp49
 70
     1
102
RTVSPropertyOp50
 70
     1
102
RTVSPropertyOp51
 70
     0
102
RTVSPropertyOp52
 70
     0
102
RTVSPropertyOp53
 70
     1
102
RTVSPropertyOp54
 70
     1
102
RTVSPropertyOp55
 70
     1
102
RTVSPropertyOp56
 70
     1
102
RTVSPropertyOp57
 70
     1
102
RTVSPropertyOp58
 70
     1
102
RTVSPropertyOp59
 70
     1
102
RTVSPropertyOp60
 70
     1
102
RTVSPropertyOp61
 70
     1
102
RTVSPropertyOp62
 70
     1
  0
XRECORD
  5
B687
102
{ACAD_REACTORS
330
B686
102
}
330
B686
100
AcDbXrecord
280
     1
102
RTVSPost2010Prop28
280
     0
102
RTVSPost2010PropOp28
 70
     1
102
RTVSPost2010Prop29
280
     1
102
RTVSPost2010PropOp29
 70
     1
102
RTVSPost2010Prop30
280
     1
102
RTVSPost2010PropOp30
 70
     1
102
RTVSPost2010Prop31
280
     0
102
RTVSPost2010PropOp31
 70
     1
102
RTVSPost2010Prop32
280
     0
102
RTVSPost2010PropOp32
 70
     1
102
RTVSPost2010Prop33
280
     0
102
RTVSPost2010PropOp33
 70
     1
102
RTVSPost2010Prop34
280
     0
102
RTVSPost2010PropOp34
 70
     1
102
RTVSPost2010Prop35
280
     0
102
RTVSPost2010PropOp35
 70
     1
102
RTVSPost2010Prop36
280
     0
102
RTVSPost2010PropOp36
 70
     1
102
RTVSPost2010Prop37
 90
       50
102
RTVSPost2010PropOp37
 70
     1
102
RTVSPost2010Prop38
140
0.0
102
RTVSPost2010PropOp38
 70
     1
102
RTVSPost2010Prop39
140
1.0
102
RTVSPost2010PropOp39
 70
     1
102
RTVSPost2010Prop40
 90
        0
102
RTVSPost2010PropOp40
 70
     1
102
RTVSPost2010Prop41ColorIndex
 90
       18
102
RTVSPost2010Prop41ColorRGB
 90
        0
102
RTVSPost2010PropOp41
 70
     1
102
RTVSPost2010Prop42
 90
       50
102
RTVSPost2010PropOp42
 70
     1
102
RTVSPost2010Prop43
 90
        3
102
RTVSPost2010PropOp43
 70
     1
102
RTVSPost2010Prop44ColorIndex
 90
        5
102
RTVSPost2010Prop44ColorRGB
 90
      255
102
RTVSPost2010PropOp44
 70
     1
102
RTVSPost2010Prop45
280
     0
102
RTVSPost2010PropOp45
 70
     1
102
RTVSPost2010Prop46
 90
       50
102
RTVSPost2010PropOp46
 70
     1
102
RTVSPost2010Prop47
 90
       50
102
RTVSPost2010PropOp47
 70
     1
102
RTVSPost2010Prop48
 90
       50
102
RTVSPost2010PropOp48
 70
     1
102
RTVSPost2010Prop49
280
     0
102
RTVSPost2010PropOp49
 70
     1
102
RTVSPost2010Prop50
 90
       50
102
RTVSPost2010PropOp50
 70
     1
102
RTVSPost2010Prop51ColorIndex
 90
      256
102
RTVSPost2010Prop51ColorRGB
 90
-16777216
102
RTVSPost2010PropOp51
 70
     0
102
RTVSPost2010Prop52
140
1.0
102
RTVSPost2010PropOp52
 70
     0
102
RTVSPost2010Prop53
 90
        2
102
RTVSPost2010PropOp53
 70
     1
102
RTVSPost2010Prop54
  1
strokes_ogs.tif
102
RTVSPost2010PropOp54
 70
     1
102
RTVSPost2010Prop55
280
     0
102
RTVSPost2010PropOp55
 70
     1
102
RTVSPost2010Prop56
140
1.0
102
RTVSPost2010PropOp56
 70
     1
102
RTVSPost2010Prop57
140
1.0
102
RTVSPost2010PropOp57
 70
     1
102
RTVSPropertyOp0
 70
     1
102
RTVSPropertyOp1
 70
     1
102
RTVSPropertyOp2
 70
     1
102
RTVSPropertyOp3
 70
     1
102
RTVSPropertyOp4
 70
     1
102
RTVSPropertyOp5
 70
     1
102
RTVSPropertyOp6
 70
     1
102
RTVSPropertyOp7
 70
     1
102
RTVSPropertyOp8
 70
     1
102
RTVSPropertyOp9
 70
     1
102
RTVSPropertyOp10
 70
     1
102
RTVSPropertyOp11
 70
     1
102
RTVSPropertyOp12
 70
     1
102
RTVSPropertyOp13
 70
     1
102
RTVSPropertyOp14
 70
     1
102
RTVSPropertyOp15
 70
     1
102
RTVSPropertyOp16
 70
     1
102
RTVSPropertyOp17
 70
     1
102
RTVSPropertyOp18
 70
     1
102
RTVSPropertyOp19
 70
     1
102
RTVSPropertyOp20
 70
     1
102
RTVSPropertyOp21
 70
     1
102
RTVSPropertyOp22
 70
     1
102
RTVSPropertyOp23
 70
     1
102
RTVSPropertyOp24
 70
     1
102
RTVSPropertyOp25
 70
     1
102
RTVSPropertyOp26
 70
     1
102
RTVSPropertyOp27
 70
     1
102
RTVSPropertyOp28
 70
     1
102
RTVSPropertyOp29
 70
     1
102
RTVSPropertyOp30
 70
     1
102
RTVSPropertyOp31
 70
     1
102
RTVSPropertyOp32
 70
     1
102
RTVSPropertyOp33
 70
     1
102
RTVSPropertyOp34
 70
     1
102
RTVSPropertyOp35
 70
     1
102
RTVSPropertyOp36
 70
     1
102
RTVSPropertyOp37
 70
     1
102
RTVSPropertyOp38
 70
     1
102
RTVSPropertyOp39
 70
     1
102
RTVSPropertyOp40
 70
     1
102
RTVSPropertyOp41
 70
     1
102
RTVSPropertyOp42
 70
     1
102
RTVSPropertyOp43
 70
     1
102
RTVSPropertyOp44
 70
     1
102
RTVSPropertyOp45
 70
     1
102
RTVSPropertyOp46
 70
     1
102
RTVSPropertyOp47
 70
     1
102
RTVSPropertyOp48
 70
     1
102
RTVSPropertyOp49
 70
     1
102
RTVSPropertyOp50
 70
     1
102
RTVSPropertyOp51
 70
     0
102
RTVSPropertyOp52
 70
     0
102
RTVSPropertyOp53
 70
     1
102
RTVSPropertyOp54
 70
     1
102
RTVSPropertyOp55
 70
     1
102
RTVSPropertyOp56
 70
     1
102
RTVSPropertyOp57
 70
     1
102
RTVSPropertyOp58
 70
     1
102
RTVSPropertyOp59
 70
     1
102
RTVSPropertyOp60
 70
     1
102
RTVSPropertyOp61
 70
     1
102
RTVSPropertyOp62
 70
     1
  0
ENDSEC
  0
EOF
