  0
SECTION
  2
HEADER
  9
$ACADVER
  1
AC1015
  9
$ACADMAINTVER
 70
    20
  9
$DWGCODEPAGE
  3
ANSI_932
  9
$INSBASE
 10
0.0
 20
0.0
 30
0.0
  9
$EXTMIN
 10
10.0
 20
9.999999999999998
 30
0.0
  9
$EXTMAX
 10
226.345952
 20
210.9180999999999
 30
0.0
  9
$LIMMIN
 10
0.0
 20
0.0
  9
$LIMMAX
 10
396.0
 20
273.0
  9
$ORTHOMODE
 70
     1
  9
$REGENMODE
 70
     1
  9
$FILLMODE
 70
     1
  9
$QTEXTMODE
 70
     0
  9
$MIRRTEXT
 70
     1
  9
$LTSCALE
 40
20.0
  9
$ATTMODE
 70
     1
  9
$TEXTSIZE
 40
5.0
  9
$TRACEWID
 40
1.0
  9
$TEXTSTYLE
  7
STANDARD
  9
$CLAYER
  8
0
  9
$CELTYPE
  6
BYLAYER
  9
$CECOLOR
 62
   256
  9
$CELTSCALE
 40
1.0
  9
$DISPSILH
 70
     0
  9
$DIMSCALE
 40
1.0
  9
$DIMASZ
 40
2.5
  9
$DIMEXO
 40
1.0
  9
$DIMDLI
 40
10.0
  9
$DIMRND
 40
0.0
  9
$DIMDLE
 40
0.0
  9
$DIMEXE
 40
1.0
  9
$DIMTP
 40
0.0
  9
$DIMTM
 40
0.0
  9
$DIMTXT
 40
3.2
  9
$DIMCEN
 40
0.0
  9
$DIMTSZ
 40
0.0
  9
$DIMTOL
 70
     0
  9
$DIMLIM
 70
     0
  9
$DIMTIH
 70
     0
  9
$DIMTOH
 70
     0
  9
$DIMSE1
 70
     0
  9
$DIMSE2
 70
     0
  9
$DIMTAD
 70
     3
  9
$DIMZIN
 70
     8
  9
$DIMBLK
  1

  9
$DIMASO
 70
     1
  9
$DIMSHO
 70
     1
  9
$DIMPOST
  1

  9
$DIMAPOST
  1

  9
$DIMALT
 70
     0
  9
$DIMALTD
 70
     2
  9
$DIMALTF
 40
25.4
  9
$DIMLFAC
 40
1.0
  9
$DIMTOFL
 70
     1
  9
$DIMTVP
 40
0.0
  9
$DIMTIX
 70
     0
  9
$DIMSOXD
 70
     0
  9
$DIMSAH
 70
     1
  9
$DIMBLK1
  1

  9
$DIMBLK2
  1

  9
$DIMSTYLE
  2
STANDARD
  9
$DIMCLRD
 70
     0
  9
$DIMCLRE
 70
     0
  9
$DIMCLRT
 70
     0
  9
$DIMTFAC
 40
1.0
  9
$DIMGAP
 40
1.0
  9
$DIMJUST
 70
     0
  9
$DIMSD1
 70
     0
  9
$DIMSD2
 70
     0
  9
$DIMTOLJ
 70
     1
  9
$DIMTZIN
 70
     0
  9
$DIMALTZ
 70
     0
  9
$DIMALTTZ
 70
     0
  9
$DIMUPT
 70
     0
  9
$DIMDEC
 70
     4
  9
$DIMTDEC
 70
     4
  9
$DIMALTU
 70
     2
  9
$DIMALTTD
 70
     2
  9
$DIMTXSTY
  7
STANDARD
  9
$DIMAUNIT
 70
     0
  9
$DIMADEC
 70
     0
  9
$DIMALTRND
 40
0.0
  9
$DIMAZIN
 70
     0
  9
$DIMDSEP
 70
    46
  9
$DIMATFIT
 70
     3
  9
$DIMFRAC
 70
     0
  9
$DIMLDRBLK
  1

  9
$DIMLUNIT
 70
     2
  9
$DIMLWD
 70
    -2
  9
$DIMLWE
 70
    -2
  9
$DIMTMOVE
 70
     0
  9
$LUNITS
 70
     2
  9
$LUPREC
 70
     4
  9
$SKETCHINC
 40
1.0
  9
$FILLETRAD
 40
1.0
  9
$AUNITS
 70
     0
  9
$AUPREC
 70
     2
  9
$MENU
  1
.
  9
$ELEVATION
 40
0.0
  9
$PELEVATION
 40
0.0
  9
$THICKNESS
 40
0.0
  9
$LIMCHECK
 70
     0
  9
$CHAMFERA
 40
10.0
  9
$CHAMFERB
 40
10.0
  9
$CHAMFERC
 40
0.0
  9
$CHAMFERD
 40
0.0
  9
$SKPOLY
 70
     0
  9
$TDCREATE
 40
2451296.794569676
  9
$TDUCREATE
 40
2451296.419569676
  9
$TDUPDATE
 40
2457192.658272257
  9
$TDUUPDATE
 40
2457192.283272257
  9
$TDINDWG
 40
0.0000106944
  9
$TDUSRTIMER
 40
0.0000103935
  9
$USRTIMER
 70
     1
  9
$ANGBASE
 50
0.0
  9
$ANGDIR
 70
     0
  9
$PDMODE
 70
     0
  9
$PDSIZE
 40
0.0
  9
$PLINEWID
 40
0.0
  9
$SPLFRAME
 70
     0
  9
$SPLINETYPE
 70
     6
  9
$SPLINESEGS
 70
     8
  9
$HANDSEED
  5
B7A3
  9
$SURFTAB1
 70
     6
  9
$SURFTAB2
 70
     6
  9
$SURFTYPE
 70
     6
  9
$SURFU
 70
     6
  9
$SURFV
 70
     6
  9
$UCSBASE
  2

  9
$UCSNAME
  2

  9
$UCSORG
 10
0.0
 20
0.0
 30
0.0
  9
$UCSXDIR
 10
1.0
 20
0.0
 30
0.0
  9
$UCSYDIR
 10
0.0
 20
1.0
 30
0.0
  9
$UCSORTHOREF
  2

  9
$UCSORTHOVIEW
 70
     0
  9
$UCSORGTOP
 10
0.0
 20
0.0
 30
0.0
  9
$UCSORGBOTTOM
 10
0.0
 20
0.0
 30
0.0
  9
$UCSORGLEFT
 10
0.0
 20
0.0
 30
0.0
  9
$UCSORGRIGHT
 10
0.0
 20
0.0
 30
0.0
  9
$UCSORGFRONT
 10
0.0
 20
0.0
 30
0.0
  9
$UCSORGBACK
 10
0.0
 20
0.0
 30
0.0
  9
$PUCSBASE
  2

  9
$PUCSNAME
  2

  9
$PUCSORG
 10
0.0
 20
0.0
 30
0.0
  9
$PUCSXDIR
 10
1.0
 20
0.0
 30
0.0
  9
$PUCSYDIR
 10
0.0
 20
1.0
 30
0.0
  9
$PUCSORTHOREF
  2

  9
$PUCSORTHOVIEW
 70
     0
  9
$PUCSORGTOP
 10
0.0
 20
0.0
 30
0.0
  9
$PUCSORGBOTTOM
 10
0.0
 20
0.0
 30
0.0
  9
$PUCSORGLEFT
 10
0.0
 20
0.0
 30
0.0
  9
$PUCSORGRIGHT
 10
0.0
 20
0.0
 30
0.0
  9
$PUCSORGFRONT
 10
0.0
 20
0.0
 30
0.0
  9
$PUCSORGBACK
 10
0.0
 20
0.0
 30
0.0
  9
$USERI1
 70
     0
  9
$USERI2
 70
     0
  9
$USERI3
 70
     0
  9
$USERI4
 70
     0
  9
$USERI5
 70
     0
  9
$USERR1
 40
0.0
  9
$USERR2
 40
0.0
  9
$USERR3
 40
0.0
  9
$USERR4
 40
0.0
  9
$USERR5
 40
0.0
  9
$WORLDVIEW
 70
     1
  9
$SHADEDGE
 70
     3
  9
$SHADEDIF
 70
    70
  9
$TILEMODE
 70
     1
  9
$MAXACTVP
 70
    16
  9
$PINSBASE
 10
0.0
 20
0.0
 30
0.0
  9
$PLIMCHECK
 70
     0
  9
$PEXTMIN
 10
1.000000000000000E+20
 20
1.000000000000000E+20
 30
1.000000000000000E+20
  9
$PEXTMAX
 10
-1.000000000000000E+20
 20
-1.000000000000000E+20
 30
-1.000000000000000E+20
  9
$PLIMMIN
 10
0.0
 20
0.0
  9
$PLIMMAX
 10
420.0
 20
297.0
  9
$UNITMODE
 70
     0
  9
$VISRETAIN
 70
     0
  9
$PLINEGEN
 70
     0
  9
$PSLTSCALE
 70
     0
  9
$TREEDEPTH
 70
  3020
  9
$CMLSTYLE
  2
STANDARD
  9
$CMLJUST
 70
     0
  9
$CMLSCALE
 40
1.0
  9
$PROXYGRAPHICS
 70
     1
  9
$MEASUREMENT
 70
     0
  9
$CELWEIGHT
370
    -1
  9
$ENDCAPS
280
     0
  9
$JOINSTYLE
280
     0
  9
$LWDISPLAY
290
     0
  9
$INSUNITS
 70
     0
  9
$HYPERLINKBASE
  1

  9
$STYLESHEET
  1

  9
$XEDIT
290
     1
  9
$CEPSNTYPE
380
     0
  9
$PSTYLEMODE
290
     1
  9
$FINGERPRINTGUID
  2
{0ECD0DDC-CA1D-4E41-98F8-F729D21C41F4}
  9
$VERSIONGUID
  2
{1E39A3AA-C7B2-4405-A6EE-8BD2DE92138A}
  9
$EXTNAMES
290
     1
  9
$PSVPSCALE
 40
0.0
  9
$OLESTARTUP
290
     0
  0
ENDSEC
  0
SECTION
  2
CLASSES
  0
CLASS
  1
ACDBDICTIONARYWDFLT
  2
AcDbDictionaryWithDefault
  3
ObjectDBX Classes
 90
        0
280
     0
281
     0
  0
CLASS
  1
ACDBPLACEHOLDER
  2
AcDbPlaceHolder
  3
ObjectDBX Classes
 90
        0
280
     0
281
     0
  0
CLASS
  1
LAYOUT
  2
AcDbLayout
  3
ObjectDBX Classes
 90
        0
280
     0
281
     0
  0
CLASS
  1
DICTIONARYVAR
  2
AcDbDictionaryVar
  3
ObjectDBX Classes
 90
        0
280
     0
281
     0
  0
CLASS
  1
MATERIAL
  2
AcDbMaterial
  3
ObjectDBX Classes
 90
     1153
280
     0
281
     0
  0
CLASS
  1
VISUALSTYLE
  2
AcDbVisualStyle
  3
ObjectDBX Classes
 90
     4095
280
     0
281
     0
  0
CLASS
  1
TABLESTYLE
  2
AcDbTableStyle
  3
ObjectDBX Classes
 90
     4095
280
     0
281
     0
  0
CLASS
  1
SCALE
  2
AcDbScale
  3
ObjectDBX Classes
 90
     1153
280
     0
281
     0
  0
CLASS
  1
MLEADERSTYLE
  2
AcDbMLeaderStyle
  3
ACDB_MLEADERSTYLE_CLASS
 90
     4095
280
     0
281
     0
  0
CLASS
  1
ACDBSECTIONVIEWSTYLE
  2
AcDbSectionViewStyle
  3
ObjectDBX Classes
 90
     1025
280
     0
281
     0
  0
CLASS
  1
ACDBDETAILVIEWSTYLE
  2
AcDbDetailViewStyle
  3
ObjectDBX Classes
 90
     1025
280
     0
281
     0
  0
CLASS
  1
CELLSTYLEMAP
  2
AcDbCellStyleMap
  3
ObjectDBX Classes
 90
     1152
280
     0
281
     0
  0
ENDSEC
  0
SECTION
  2
TABLES
  0
TABLE
  2
VPORT
  5
B4DA
330
0
100
AcDbSymbolTable
 70
     1
  0
VPORT
  5
B6EC
330
B4DA
100
AcDbSymbolTableRecord
100
AcDbViewportTableRecord
  2
*ACTIVE
 70
     0
 10
0.0
 20
0.0
 11
1.0
 21
1.0
 12
179.0369353224399
 22
110.4542776438805
 13
0.0
 23
0.0
 14
10.0
 24
10.0
 15
10.0
 25
10.0
 16
0.0
 26
0.0
 36
1.0
 17
0.0
 27
0.0
 37
0.0
 40
203.1773855598115
 41
1.899603698811096
 42
50.0
 43
0.0
 44
0.0
 50
0.0
 51
0.0
 71
     0
 72
   100
 73
     1
 74
     0
 75
     0
 76
     0
 77
     0
 78
     0
281
     0
 65
     1
110
0.0
120
0.0
130
0.0
111
1.0
121
0.0
131
0.0
112
0.0
122
1.0
132
0.0
 79
     0
146
0.0
1001
ACAD_NAV_VCDISPLAY
1070
     3
  0
ENDTAB
  0
TABLE
  2
LTYPE
  5
B4D7
330
0
100
AcDbSymbolTable
 70
     4
  0
LTYPE
  5
B4E5
330
B4D7
100
AcDbSymbolTableRecord
100
AcDbLinetypeTableRecord
  2
BYBLOCK
 70
     0
  3

 72
    65
 73
     0
 40
0.0
  0
LTYPE
  5
B4E6
330
B4D7
100
AcDbSymbolTableRecord
100
AcDbLinetypeTableRecord
  2
BYLAYER
 70
     0
  3

 72
    65
 73
     0
 40
0.0
  0
LTYPE
  5
B4E7
330
B4D7
100
AcDbSymbolTableRecord
100
AcDbLinetypeTableRecord
  2
CONTINUOUS
 70
     0
  3
Solid line
 72
    65
 73
     0
 40
0.0
  0
LTYPE
  5
B4F5
330
B4D7
100
AcDbSymbolTableRecord
100
AcDbLinetypeTableRecord
  2
DASHED
 70
     0
  3
__ __ __ __ __ __ __ __ __ __ __ __ __ __ __ __
 72
    65
 73
     2
 40
0.75
 49
0.5
 74
     0
 49
-0.25
 74
     0
  0
LTYPE
  5
B4F6
330
B4D7
100
AcDbSymbolTableRecord
100
AcDbLinetypeTableRecord
  2
CENTER
 70
     0
  3
____ _ ____ _ ____ _ ____ _ ____ _ ____ _ ____ 
 72
    65
 73
     4
 40
2.0
 49
1.25
 74
     0
 49
-0.25
 74
     0
 49
0.25
 74
     0
 49
-0.25
 74
     0
  0
LTYPE
  5
B4F7
330
B4D7
100
AcDbSymbolTableRecord
100
AcDbLinetypeTableRecord
  2
PHANTOM
 70
     0
  3
______  __  __  ______  __  __  ______  __  __ 
 72
    65
 73
     6
 40
2.5
 49
1.25
 74
     0
 49
-0.25
 74
     0
 49
0.25
 74
     0
 49
-0.25
 74
     0
 49
0.25
 74
     0
 49
-0.25
 74
     0
  0
ENDTAB
  0
TABLE
  2
LAYER
  5
B4D4
330
0
100
AcDbSymbolTable
 70
     8
  0
LAYER
  5
B4E2
102
{ACAD_XDICTIONARY
360
B747
102
}
330
B4D4
100
AcDbSymbolTableRecord
100
AcDbLayerTableRecord
  2
0
 70
     0
 62
     7
  6
CONTINUOUS
370
    -3
390
B6F5
  0
LAYER
  5
B4F8
102
{ACAD_XDICTIONARY
360
B749
102
}
330
B4D4
100
AcDbSymbolTableRecord
100
AcDbLayerTableRecord
  2
4
 70
     0
 62
     1
  6
CENTER
370
    -3
390
B6F5
  0
LAYER
  5
B4F9
102
{ACAD_XDICTIONARY
360
B74B
102
}
330
B4D4
100
AcDbSymbolTableRecord
100
AcDbLayerTableRecord
  2
5
 70
     0
 62
     6
  6
PHANTOM
370
    -3
390
B6F5
  0
LAYER
  5
B4FA
102
{ACAD_XDICTIONARY
360
B74D
102
}
330
B4D4
100
AcDbSymbolTableRecord
100
AcDbLayerTableRecord
  2
1
 70
     0
 62
     7
  6
CONTINUOUS
370
    -3
390
B6F5
  0
LAYER
  5
B4FB
102
{ACAD_XDICTIONARY
360
B74F
102
}
330
B4D4
100
AcDbSymbolTableRecord
100
AcDbLayerTableRecord
  2
2
 70
     0
 62
     4
  6
CONTINUOUS
370
    -3
390
B6F5
  0
LAYER
  5
B4FC
102
{ACAD_XDICTIONARY
360
B751
102
}
330
B4D4
100
AcDbSymbolTableRecord
100
AcDbLayerTableRecord
  2
3
 70
     0
 62
     2
  6
DASHED
370
    -3
390
B6F5
  0
LAYER
  5
B4FD
102
{ACAD_XDICTIONARY
360
B753
102
}
330
B4D4
100
AcDbSymbolTableRecord
100
AcDbLayerTableRecord
  2
6
 70
     0
 62
     5
  6
CONTINUOUS
370
    -3
390
B6F5
  0
LAYER
  5
B4FE
102
{ACAD_XDICTIONARY
360
B755
102
}
330
B4D4
100
AcDbSymbolTableRecord
100
AcDbLayerTableRecord
  2
7
 70
     0
 62
     3
  6
CONTINUOUS
370
    -3
390
B6F5
  0
ENDTAB
  0
TABLE
  2
STYLE
  5
B4D5
330
0
100
AcDbSymbolTable
 70
     1
  0
STYLE
  5
B4E3
330
B4D5
100
AcDbSymbolTableRecord
100
AcDbTextStyleTableRecord
  2
STANDARD
 70
     0
 40
0.0
 41
1.0
 50
0.0
 71
     0
 42
5.0
  3
txt
  4

  0
ENDTAB
  0
TABLE
  2
VIEW
  5
B4D8
330
0
100
AcDbSymbolTable
 70
     1
  0
VIEW
  5
B4FF
330
B4D8
100
AcDbSymbolTableRecord
100
AcDbViewTableRecord
  2
7
 70
     0
 40
240.446052
 10
231.6161119999999
 20
120.223026
 41
463.232225
 11
0.0
 21
0.0
 31
1.0
 12
0.0
 22
0.0
 32
0.0
 42
50.0
 43
0.0
 44
0.0
 50
0.0
 71
     0
281
     0
 72
     0
  0
ENDTAB
  0
TABLE
  2
UCS
  5
B4D9
330
0
100
AcDbSymbolTable
 70
     0
  0
ENDTAB
  0
TABLE
  2
APPID
  5
B4DB
330
0
100
AcDbSymbolTable
 70
     3
  0
APPID
  5
B4E4
330
B4DB
100
AcDbSymbolTableRecord
100
AcDbRegAppTableRecord
  2
ACAD
 70
     0
  0
APPID
  5
B761
330
B4DB
100
AcDbSymbolTableRecord
100
AcDbRegAppTableRecord
  2
ACAD_NAV_VCDISPLAY
 70
     0
  0
APPID
  5
B79A
330
B4DB
100
AcDbSymbolTableRecord
100
AcDbRegAppTableRecord
  2
ACAD_MLEADERVER
 70
     0
  0
ENDTAB
  0
TABLE
  2
DIMSTYLE
  5
B4DC
330
0
100
AcDbSymbolTable
 70
     1
100
AcDbDimStyleTable
 71
     0
  0
DIMSTYLE
105
B501
330
B4DC
100
AcDbSymbolTableRecord
100
AcDbDimStyleTableRecord
  2
STANDARD
 70
     0
 41
2.5
 42
1.0
 43
10.0
 44
1.0
 73
     0
 74
     0
 77
     3
 78
     8
140
3.2
141
0.0
147
1.0
172
     1
173
     1
284
     8
285
     8
286
     8
340
B4E3
  0
ENDTAB
  0
TABLE
  2
BLOCK_RECORD
  5
B4D3
330
0
100
AcDbSymbolTable
 70
     0
  0
BLOCK_RECORD
  5
B4F0
102
{ACAD_XDICTIONARY
360
B6EF
102
}
330
B4D3
100
AcDbSymbolTableRecord
100
AcDbBlockTableRecord
  2
*MODEL_SPACE
340
B743
  0
BLOCK_RECORD
  5
B4EC
102
{ACAD_XDICTIONARY
360
B6ED
102
}
330
B4D3
100
AcDbSymbolTableRecord
100
AcDbBlockTableRecord
  2
*PAPER_SPACE
340
B744
  0
ENDTAB
  0
ENDSEC
  0
SECTION
  2
BLOCKS
  0
BLOCK
  5
B4F1
330
B4F0
100
AcDbEntity
  8
0
100
AcDbBlockBegin
  2
*MODEL_SPACE
 70
     0
 10
0.0
 20
0.0
 30
0.0
  3
*MODEL_SPACE
  1

  0
ENDBLK
  5
B4F2
330
B4F0
100
AcDbEntity
  8
0
100
AcDbBlockEnd
  0
BLOCK
  5
B4ED
330
B4EC
100
AcDbEntity
 67
     1
  8
0
100
AcDbBlockBegin
  2
*PAPER_SPACE
 70
     0
 10
0.0
 20
0.0
 30
0.0
  3
*PAPER_SPACE
  1

  0
ENDBLK
  5
B4EE
330
B4EC
100
AcDbEntity
 67
     1
  8
0
100
AcDbBlockEnd
  0
ENDSEC
  0
SECTION
  2
ENTITIES
  0
TEXT
  5
B509
330
B4F0
100
AcDbEntity
  8
7
  6
Continuous
100
AcDbText
 10
10.0
 20
18.0
 30
0.0
 40
3.0
  1
TYPE No.TM-144SS-45
100
AcDbText
  0
TEXT
  5
B50A
330
B4F0
100
AcDbEntity
  8
7
  6
Continuous
100
AcDbText
 10
10.0
 20
26.0
 30
0.0
 40
3.0
  1
CODE No.5735
100
AcDbText
  0
TEXT
  5
B50B
330
B4F0
100
AcDbEntity
  8
1
  6
Continuous
100
AcDbText
 10
10.0
 20
10.0
 30
0.0
 40
1.399999999999999
  1
LAYER
100
AcDbText
  0
TEXT
  5
B50C
330
B4F0
100
AcDbEntity
  8
1
  6
Continuous
100
AcDbText
 10
17.97951099999998
 20
10.04873699999998
 30
0.0
 40
1.399999999999999
  1
1
100
AcDbText
  0
TEXT
  5
B50D
330
B4F0
100
AcDbEntity
  8
7
  6
Continuous
100
AcDbText
 10
29.97951099999999
 20
10.04873699999998
 30
0.0
 40
1.399999999999999
  1
7
100
AcDbText
  0
TEXT
  5
B50E
330
B4F0
100
AcDbEntity
  8
4
  6
CENTER
100
AcDbText
 10
23.97951099999999
 20
10.04873699999998
 30
0.0
 40
1.399999999999999
  1
4
100
AcDbText
  0
TEXT
  5
B50F
330
B4F0
100
AcDbEntity
  8
3
  6
DASHED
100
AcDbText
 10
21.979511
 20
10.04873699999998
 30
0.0
 40
1.399999999999999
  1
3
100
AcDbText
  0
TEXT
  5
B510
330
B4F0
100
AcDbEntity
  8
2
  6
Continuous
100
AcDbText
 10
19.97951099999999
 20
10.04873699999998
 30
0.0
 40
1.399999999999999
  1
2
100
AcDbText
  0
TEXT
  5
B511
330
B4F0
100
AcDbEntity
  8
6
  6
Continuous
100
AcDbText
 10
27.979511
 20
10.04873699999998
 30
0.0
 40
1.399999999999999
  1
6
100
AcDbText
  0
TEXT
  5
B512
330
B4F0
100
AcDbEntity
  8
5
  6
PHANTOM
100
AcDbText
 10
25.97951099999999
 20
10.04873699999998
 30
0.0
 40
1.399999999999999
  1
5
100
AcDbText
  0
LINE
  5
B513
330
B4F0
100
AcDbEntity
  8
1
  6
Continuous
100
AcDbLine
 10
118.5459519999999
 20
140.4181
 30
0.0
 11
129.0459519999998
 21
140.4181
 31
0.0
  0
LINE
  5
B514
330
B4F0
100
AcDbEntity
  8
1
  6
Continuous
100
AcDbLine
 10
141.045952
 20
141.5491
 30
0.0
 11
141.045952
 21
145.3681
 31
0.0
  0
LINE
  5
B515
330
B4F0
100
AcDbEntity
  8
1
  6
Continuous
100
AcDbLine
 10
137.045952
 20
140.9181
 30
0.0
 11
137.045952
 21
151.4181
 31
0.0
  0
LINE
  5
B516
330
B4F0
100
AcDbEntity
  8
1
  6
Continuous
100
AcDbLine
 10
133.045952
 20
141.4181
 30
0.0
 11
133.045952
 21
150.9181
 31
0.0
  0
LINE
  5
B517
330
B4F0
100
AcDbEntity
  8
1
  6
Continuous
100
AcDbLine
 10
114.5459519999999
 20
143.4181
 30
0.0
 11
114.5459519999999
 21
150.9181
 31
0.0
  0
LINE
  5
B518
330
B4F0
100
AcDbEntity
  8
1
  6
Continuous
100
AcDbLine
 10
112.5459519999999
 20
143.4161
 30
0.0
 11
112.5459519999999
 21
149.4161
 31
0.0
  0
LINE
  5
B519
330
B4F0
100
AcDbEntity
  8
4
  6
CENTER
100
AcDbLine
 10
123.7959519999999
 20
91.500017
 30
0.0
 11
123.7959519999999
 21
155.4180999999998
 31
0.0
  0
LINE
  5
B51A
330
B4F0
100
AcDbEntity
  8
1
  6
Continuous
100
AcDbLine
 10
116.045952
 20
152.4181
 30
0.0
 11
131.545952
 21
152.4181
 31
0.0
  0
LINE
  5
B51B
330
B4F0
100
AcDbEntity
  8
1
  6
Continuous
100
AcDbLine
 10
118.295952
 20
192.4181
 30
0.0
 11
129.2959519999998
 21
192.4181
 31
0.0
  0
LINE
  5
B51C
330
B4F0
100
AcDbEntity
  8
1
  6
Continuous
100
AcDbLine
 10
118.295952
 20
207.9181
 30
0.0
 11
129.2959519999998
 21
207.9181
 31
0.0
  0
LINE
  5
B51D
330
B4F0
100
AcDbEntity
  8
4
  6
CENTER
100
AcDbLine
 10
95.495952
 20
200.1681
 30
0.0
 11
152.095952
 21
200.1681
 31
0.0
  0
LINE
  5
B51E
330
B4F0
100
AcDbEntity
  8
4
  6
CENTER
100
AcDbLine
 10
214.845952
 20
91.500017
 30
0.0
 11
214.845952
 21
155.4181379999999
 31
0.0
  0
LINE
  5
B51F
330
B4F0
100
AcDbEntity
  8
1
  6
Continuous
100
AcDbLine
 10
141.045952
 20
196.1681
 30
0.0
 11
141.045952
 21
204.1681
 31
0.0
  0
LINE
  5
B520
330
B4F0
100
AcDbEntity
  8
1
  6
Continuous
100
AcDbLine
 10
137.045952
 20
194.9181
 30
0.0
 11
137.045952
 21
205.4181
 31
0.0
  0
LINE
  5
B521
330
B4F0
100
AcDbEntity
  8
1
  6
Continuous
100
AcDbLine
 10
133.045952
 20
194.9181
 30
0.0
 11
133.045952
 21
205.4181
 31
0.0
  0
LINE
  5
B522
330
B4F0
100
AcDbEntity
  8
4
  6
CENTER
100
AcDbLine
 10
123.7959519999999
 20
189.4181
 30
0.0
 11
123.7959519999999
 21
210.9180999999999
 31
0.0
  0
LINE
  5
B523
330
B4F0
100
AcDbEntity
  8
1
  6
Continuous
100
AcDbLine
 10
114.5459519999999
 20
194.9181
 30
0.0
 11
114.5459519999999
 21
205.4181
 31
0.0
  0
LINE
  5
B524
330
B4F0
100
AcDbEntity
  8
1
  6
Continuous
100
AcDbLine
 10
112.5459519999999
 20
197.1681
 30
0.0
 11
112.5459519999999
 21
203.1681
 31
0.0
  0
LINE
  5
B525
330
B4F0
100
AcDbEntity
  8
1
  6
Continuous
100
AcDbLine
 10
112.5459519999999
 20
143.4181
 30
0.0
 11
118.295952
 21
143.4181
 31
0.0
  0
LINE
  5
B526
330
B4F0
100
AcDbEntity
  8
1
  6
Continuous
100
AcDbLine
 10
112.5459519999999
 20
149.4181
 30
0.0
 11
114.5459519999999
 21
149.4181
 31
0.0
  0
ARC
  5
B527
330
B4F0
100
AcDbEntity
  8
1
  6
Continuous
100
AcDbCircle
 10
116.045952
 20
150.9181
 30
0.0
 40
1.5
100
AcDbArc
 50
90.0
 51
180.0
  0
ARC
  5
B528
330
B4F0
100
AcDbEntity
  8
1
  6
Continuous
100
AcDbCircle
 10
131.545952
 20
150.9181
 30
0.0
 40
1.5
100
AcDbArc
 50
0.0
 51
90.0
  0
ARC
  5
B529
330
B4F0
100
AcDbEntity
  8
1
  6
Continuous
100
AcDbCircle
 10
123.7959519999999
 20
140.223656
 30
0.0
 40
7.694443999999997
100
AcDbArc
 50
24.52954699999999
 51
155.4704529999999
  0
LINE
  5
B52A
330
B4F0
100
AcDbEntity
  8
1
  6
Continuous
100
AcDbLine
 10
129.2959519999998
 20
143.4181
 30
0.0
 11
129.0459519999998
 21
140.4181
 31
0.0
  0
LINE
  5
B52B
330
B4F0
100
AcDbEntity
  8
1
  6
Continuous
100
AcDbLine
 10
118.295952
 20
143.4181
 30
0.0
 11
118.5459519999999
 21
140.4181
 31
0.0
  0
ARC
  5
B52C
330
B4F0
100
AcDbEntity
  8
1
  6
Continuous
100
AcDbCircle
 10
123.7959519999999
 20
139.416314
 30
0.0
 40
6.801785999999997
100
AcDbArc
 50
36.039539
 51
143.960461
  0
LINE
  5
B52D
330
B4F0
100
AcDbEntity
  8
1
  6
Continuous
100
AcDbLine
 10
129.2959519999998
 20
143.4181
 30
0.0
 11
133.045952
 21
143.4181
 31
0.0
  0
LINE
  5
B52E
330
B4F0
100
AcDbEntity
  8
1
  6
Continuous
100
AcDbLine
 10
133.045952
 20
150.9181
 30
0.0
 11
137.045952
 21
151.4181
 31
0.0
  0
LINE
  5
B52F
330
B4F0
100
AcDbEntity
  8
1
  6
Continuous
100
AcDbLine
 10
133.045952
 20
141.4181
 30
0.0
 11
137.045952
 21
140.9181
 31
0.0
  0
LINE
  5
B530
330
B4F0
100
AcDbEntity
  8
4
  6
CENTER
100
AcDbLine
 10
107.545952
 20
146.1681
 30
0.0
 11
144.045952
 21
146.1681
 31
0.0
  0
LINE
  5
B531
330
B4F0
100
AcDbEntity
  8
1
  6
Continuous
100
AcDbLine
 10
137.045952
 20
150.7871
 30
0.0
 11
141.045952
 21
150.7871
 31
0.0
  0
LINE
  5
B532
330
B4F0
100
AcDbEntity
  8
1
  6
Continuous
100
AcDbLine
 10
137.045952
 20
141.5491
 30
0.0
 11
141.045952
 21
141.5491
 31
0.0
  0
LINE
  5
B533
330
B4F0
100
AcDbEntity
  8
1
  6
Continuous
100
AcDbLine
 10
138.045952
 20
146.9681
 30
0.0
 11
141.045952
 21
146.9681
 31
0.0
  0
LINE
  5
B534
330
B4F0
100
AcDbEntity
  8
1
  6
Continuous
100
AcDbLine
 10
138.045952
 20
145.3681
 30
0.0
 11
141.045952
 21
145.3681
 31
0.0
  0
LINE
  5
B535
330
B4F0
100
AcDbEntity
  8
1
  6
Continuous
100
AcDbLine
 10
138.045952
 20
145.3681
 30
0.0
 11
138.045952
 21
146.9681
 31
0.0
  0
LINE
  5
B536
330
B4F0
100
AcDbEntity
  8
1
  6
Continuous
100
AcDbLine
 10
141.045952
 20
146.9681
 30
0.0
 11
141.045952
 21
150.7871
 31
0.0
  0
LINE
  5
B537
330
B4F0
100
AcDbEntity
  8
1
  6
Continuous
100
AcDbLine
 10
137.045952
 20
148.4775999999999
 30
0.0
 11
139.5459519999998
 21
148.4775999999999
 31
0.0
  0
LINE
  5
B538
330
B4F0
100
AcDbEntity
  8
1
  6
Continuous
100
AcDbLine
 10
137.045952
 20
143.8585999999999
 30
0.0
 11
139.5459519999998
 21
143.8585999999999
 31
0.0
  0
LINE
  5
B539
330
B4F0
100
AcDbEntity
  8
1
  6
Continuous
100
AcDbLine
 10
139.5459519999998
 20
148.4775999999999
 30
0.0
 11
141.045952
 21
147.8776
 31
0.0
  0
LINE
  5
B53A
330
B4F0
100
AcDbEntity
  8
1
  6
Continuous
100
AcDbLine
 10
139.5459519999998
 20
148.4775999999999
 30
0.0
 11
141.045952
 21
149.0775999999998
 31
0.0
  0
LINE
  5
B53B
330
B4F0
100
AcDbEntity
  8
1
  6
Continuous
100
AcDbLine
 10
139.5459519999998
 20
143.8585999999999
 30
0.0
 11
141.045952
 21
144.4585999999999
 31
0.0
  0
LINE
  5
B53C
330
B4F0
100
AcDbEntity
  8
1
  6
Continuous
100
AcDbLine
 10
139.5459519999998
 20
143.8585999999999
 30
0.0
 11
141.045952
 21
143.2586
 31
0.0
  0
LINE
  5
B53D
330
B4F0
100
AcDbEntity
  8
4
  6
CENTER
100
AcDbLine
 10
204.095952
 20
146.1681379999999
 30
0.0
 11
225.595952
 21
146.1681379999999
 31
0.0
  0
ARC
  5
B53E
330
B4F0
100
AcDbEntity
  8
1
  6
Continuous
100
AcDbCircle
 10
214.845952
 20
146.1681379999999
 30
0.0
 40
3.0
100
AcDbArc
 50
15.46601
 51
164.5339899999999
  0
LINE
  5
B53F
330
B4F0
100
AcDbEntity
  8
1
  6
Continuous
100
AcDbLine
 10
210.845952
 20
146.9681379999999
 30
0.0
 11
218.845952
 21
146.9681379999999
 31
0.0
  0
LINE
  5
B540
330
B4F0
100
AcDbEntity
  8
1
  6
Continuous
100
AcDbLine
 10
210.845952
 20
145.3681379999999
 30
0.0
 11
218.845952
 21
145.3681379999999
 31
0.0
  0
ARC
  5
B541
330
B4F0
100
AcDbEntity
  8
1
  6
Continuous
100
AcDbCircle
 10
214.845952
 20
146.1681379999999
 30
0.0
 40
3.0
100
AcDbArc
 50
195.4660099999999
 51
344.53399
  0
CIRCLE
  5
B542
330
B4F0
100
AcDbEntity
  8
1
  6
Continuous
100
AcDbCircle
 10
214.845952
 20
146.1681379999999
 30
0.0
 40
5.25
  0
LINE
  5
B543
330
B4F0
100
AcDbEntity
  8
1
  6
Continuous
100
AcDbLine
 10
221.095952
 20
143.418138
 30
0.0
 11
221.095952
 21
146.918138
 31
0.0
  0
LINE
  5
B544
330
B4F0
100
AcDbEntity
  8
1
  6
Continuous
100
AcDbLine
 10
208.595952
 20
143.418138
 30
0.0
 11
208.595952
 21
146.918138
 31
0.0
  0
LINE
  5
B545
330
B4F0
100
AcDbEntity
  8
1
  6
Continuous
100
AcDbLine
 10
208.342177
 20
143.418138
 30
0.0
 11
210.373816
 21
143.418138
 31
0.0
  0
ARC
  5
B546
330
B4F0
100
AcDbEntity
  8
1
  6
Continuous
100
AcDbCircle
 10
214.845952
 20
146.117002
 30
0.0
 40
6.301135999999998
100
AcDbArc
 50
7.304446000000001
 51
172.6955539999999
  0
LINE
  5
B547
330
B4F0
100
AcDbEntity
  8
1
  6
Continuous
100
AcDbLine
 10
219.3180869999999
 20
143.418138
 30
0.0
 11
221.336102
 21
143.418138
 31
0.0
  0
ARC
  5
B548
330
B4F0
100
AcDbEntity
  8
1
  6
Continuous
100
AcDbCircle
 10
208.595952
 20
141.9181379999999
 30
0.0
 40
1.5
100
AcDbArc
 50
180.0
 51
260.405932
  0
ARC
  5
B549
330
B4F0
100
AcDbEntity
  8
1
  6
Continuous
100
AcDbCircle
 10
221.095952
 20
141.9181379999999
 30
0.0
 40
1.5
100
AcDbArc
 50
279.594068
 51
355.7894899999998
  0
LINE
  5
B54A
330
B4F0
100
AcDbEntity
  8
1
  6
Continuous
100
AcDbLine
 10
137.045952
 20
204.1681
 30
0.0
 11
141.045952
 21
204.1681
 31
0.0
  0
LINE
  5
B54B
330
B4F0
100
AcDbEntity
  8
1
  6
Continuous
100
AcDbLine
 10
137.045952
 20
196.1681
 30
0.0
 11
141.045952
 21
196.1681
 31
0.0
  0
LINE
  5
B54C
330
B4F0
100
AcDbEntity
  8
1
  6
Continuous
100
AcDbLine
 10
137.045952
 20
205.4181
 30
0.0
 11
133.045952
 21
204.9180999999999
 31
0.0
  0
LINE
  5
B54D
330
B4F0
100
AcDbEntity
  8
1
  6
Continuous
100
AcDbLine
 10
137.045952
 20
194.9181
 30
0.0
 11
133.045952
 21
195.4181
 31
0.0
  0
LINE
  5
B54E
330
B4F0
100
AcDbEntity
  8
1
  6
Continuous
100
AcDbLine
 10
115.5459519999999
 20
206.4181
 30
0.0
 11
116.7959519999999
 21
206.4181
 31
0.0
  0
LINE
  5
B54F
330
B4F0
100
AcDbEntity
  8
1
  6
Continuous
100
AcDbLine
 10
115.5459519999999
 20
193.9180999999999
 30
0.0
 11
116.7959519999999
 21
193.9180999999999
 31
0.0
  0
LINE
  5
B550
330
B4F0
100
AcDbEntity
  8
1
  6
Continuous
100
AcDbLine
 10
112.5459519999999
 20
203.1681
 30
0.0
 11
114.5459519999999
 21
203.1681
 31
0.0
  0
LINE
  5
B551
330
B4F0
100
AcDbEntity
  8
1
  6
Continuous
100
AcDbLine
 10
112.5459519999999
 20
197.1681
 30
0.0
 11
114.5459519999999
 21
197.1681
 31
0.0
  0
ARC
  5
B552
330
B4F0
100
AcDbEntity
  8
1
  6
Continuous
100
AcDbCircle
 10
114.795952
 20
200.1681
 30
0.0
 40
3.75
100
AcDbArc
 50
126.869898
 51
233.130102
  0
ARC
  5
B553
330
B4F0
100
AcDbEntity
  8
1
  6
Continuous
100
AcDbCircle
 10
132.0459519999998
 20
205.4181
 30
0.0
 40
1.0
100
AcDbArc
 50
0.0
 51
90.0
  0
ARC
  5
B554
330
B4F0
100
AcDbEntity
  8
1
  6
Continuous
100
AcDbCircle
 10
132.0459519999998
 20
194.9181
 30
0.0
 40
1.0
100
AcDbArc
 50
270.0
 51
0.0
  0
ARC
  5
B555
330
B4F0
100
AcDbEntity
  8
1
  6
Continuous
100
AcDbCircle
 10
115.5459519999999
 20
194.9181
 30
0.0
 40
1.0
100
AcDbArc
 50
180.0
 51
270.0
  0
ARC
  5
B556
330
B4F0
100
AcDbEntity
  8
1
  6
Continuous
100
AcDbCircle
 10
115.5459519999999
 20
205.4181
 30
0.0
 40
1.0
100
AcDbArc
 50
90.0
 51
180.0
  0
ARC
  5
B557
330
B4F0
100
AcDbEntity
  8
1
  6
Continuous
100
AcDbCircle
 10
123.7959519999999
 20
225.3931
 30
0.0
 40
20.225
100
AcDbArc
 50
249.750657
 51
290.249343
  0
ARC
  5
B558
330
B4F0
100
AcDbEntity
  8
1
  6
Continuous
100
AcDbCircle
 10
123.7959519999999
 20
174.9430999999999
 30
0.0
 40
20.225
100
AcDbArc
 50
69.75065699999999
 51
110.249343
  0
LINE
  5
B559
330
B4F0
100
AcDbEntity
  8
1
  6
Continuous
100
AcDbLine
 10
129.2959519999998
 20
207.9181
 30
0.0
 11
130.795952
 21
206.4181
 31
0.0
  0
LINE
  5
B55A
330
B4F0
100
AcDbEntity
  8
1
  6
Continuous
100
AcDbLine
 10
118.295952
 20
207.9181
 30
0.0
 11
116.7959519999999
 21
206.4181
 31
0.0
  0
LINE
  5
B55B
330
B4F0
100
AcDbEntity
  8
1
  6
Continuous
100
AcDbLine
 10
116.7959519999999
 20
193.9180999999999
 30
0.0
 11
118.295952
 21
192.4181
 31
0.0
  0
LINE
  5
B55C
330
B4F0
100
AcDbEntity
  8
1
  6
Continuous
100
AcDbLine
 10
130.795952
 20
193.9180999999999
 30
0.0
 11
129.2959519999998
 21
192.4181
 31
0.0
  0
LINE
  5
B55D
330
B4F0
100
AcDbEntity
  8
1
  6
Continuous
100
AcDbLine
 10
130.795952
 20
206.4181
 30
0.0
 11
132.0459519999998
 21
206.4181
 31
0.0
  0
LINE
  5
B55E
330
B4F0
100
AcDbEntity
  8
1
  6
Continuous
100
AcDbLine
 10
130.795952
 20
193.9180999999999
 30
0.0
 11
132.0459519999998
 21
193.9180999999999
 31
0.0
  0
LINE
  5
B55F
330
B4F0
100
AcDbEntity
  8
1
  6
Continuous
100
AcDbLine
 10
141.045952
 20
200.7681
 30
0.0
 11
139.5459519999998
 21
200.1681
 31
0.0
  0
LINE
  5
B560
330
B4F0
100
AcDbEntity
  8
1
  6
Continuous
100
AcDbLine
 10
139.5459519999998
 20
200.1681
 30
0.0
 11
141.045952
 21
199.5680999999999
 31
0.0
  0
LINE
  5
B561
330
B4F0
100
AcDbEntity
  8
1
  6
Continuous
100
AcDbLine
 10
139.5459519999998
 20
200.1681
 30
0.0
 11
137.045952
 21
200.1681
 31
0.0
  0
LINE
  5
B562
330
B4F0
100
AcDbEntity
  8
1
  6
Continuous
100
AcDbLine
 10
221.652706
 20
141.331904
 30
0.0
 11
221.345952
 21
141.3180999999999
 31
0.0
  0
LINE
  5
B563
330
B4F0
100
AcDbEntity
  8
1
  6
Continuous
100
AcDbLine
 10
208.016718
 20
141.3329159999999
 30
0.0
 11
208.345952
 21
141.3180999999999
 31
0.0
  0
LINE
  5
B564
330
B4F0
100
AcDbEntity
  8
1
  6
Continuous
100
AcDbLine
 10
100.495952
 20
206.6680999999999
 30
0.0
 11
117.045952
 21
206.6680999999999
 31
0.0
  0
LINE
  5
B565
330
B4F0
100
AcDbEntity
  8
1
  6
Continuous
100
AcDbLine
 10
100.495952
 20
193.6681
 30
0.0
 11
117.045952
 21
193.6681
 31
0.0
  0
LINE
  5
B566
330
B4F0
100
AcDbEntity
  8
1
  6
Continuous
100
AcDbLine
 10
130.545952
 20
206.6680999999999
 30
0.0
 11
147.095952
 21
206.6680999999999
 31
0.0
  0
LINE
  5
B567
330
B4F0
100
AcDbEntity
  8
1
  6
Continuous
100
AcDbLine
 10
130.545952
 20
193.6681
 30
0.0
 11
147.095952
 21
193.6681
 31
0.0
  0
ARC
  5
B568
330
B4F0
100
AcDbEntity
  8
1
  6
Continuous
100
AcDbCircle
 10
114.773285
 20
146.4171
 30
0.0
 40
3.735641
100
AcDbArc
 50
126.600977
 51
233.399023
  0
LINE
  5
B569
330
B4F0
100
AcDbEntity
  8
1
  6
Continuous
100
AcDbLine
 10
221.345952
 20
96.500017
 30
0.0
 11
221.345952
 21
142.9488669999998
 31
0.0
  0
LINE
  5
B56A
330
B4F0
100
AcDbEntity
  8
1
  6
Continuous
100
AcDbLine
 10
208.345952
 20
96.500017
 30
0.0
 11
208.345952
 21
142.9488669999998
 31
0.0
  0
ARC
  5
B56B
330
B4F0
100
AcDbEntity
  8
1
  6
Continuous
100
AcDbCircle
 10
220.845952
 20
146.7233889999999
 30
0.0
 40
1.0
100
AcDbArc
 50
0.0
 51
84.600387
  0
ARC
  5
B56C
330
B4F0
100
AcDbEntity
  8
1
  6
Continuous
100
AcDbCircle
 10
208.845952
 20
146.7233889999999
 30
0.0
 40
1.0
100
AcDbArc
 50
95.39961299999999
 51
180.0
  0
LINE
  5
B56D
330
B4F0
100
AcDbEntity
  8
1
  6
Continuous
100
AcDbLine
 10
221.845952
 20
146.7233889999999
 30
0.0
 11
222.5919029999999
 21
141.808006
 31
0.0
  0
LINE
  5
B56E
330
B4F0
100
AcDbEntity
  8
1
  6
Continuous
100
AcDbLine
 10
207.845952
 20
146.7233889999999
 30
0.0
 11
207.095952
 21
141.9181379999999
 31
0.0
  0
ARC
  5
B56F
330
B4F0
100
AcDbEntity
  8
1
  6
Continuous
100
AcDbCircle
 10
32.75
 20
146.117002
 30
0.0
 40
6.301135999999998
100
AcDbArc
 50
7.304446000000001
 51
172.6955539999999
  0
LINE
  5
B570
330
B4F0
100
AcDbEntity
  8
4
  6
CENTER
100
AcDbLine
 10
32.75
 20
91.500017
 30
0.0
 11
32.75
 21
155.4181379999999
 31
0.0
  0
LINE
  5
B571
330
B4F0
100
AcDbEntity
  8
1
  6
Continuous
100
AcDbLine
 10
26.25
 20
96.500017
 30
0.0
 11
26.25
 21
142.7185659999999
 31
0.0
  0
LINE
  5
B572
330
B4F0
100
AcDbEntity
  8
1
  6
Continuous
100
AcDbLine
 10
39.25
 20
96.500017
 30
0.0
 11
39.25
 21
142.7185659999999
 31
0.0
  0
LINE
  5
B573
330
B4F0
100
AcDbEntity
  8
4
  6
CENTER
100
AcDbLine
 10
22.0
 20
146.1681379999999
 30
0.0
 11
43.5
 21
146.1681379999999
 31
0.0
  0
LINE
  5
B574
330
B4F0
100
AcDbEntity
  8
1
  6
Continuous
100
AcDbLine
 10
25.75
 20
146.7233889999999
 30
0.0
 11
25.0
 21
141.9181379999999
 31
0.0
  0
ARC
  5
B575
330
B4F0
100
AcDbEntity
  8
1
  6
Continuous
100
AcDbCircle
 10
26.75
 20
146.7233889999999
 30
0.0
 40
1.0
100
AcDbArc
 50
95.39961299999999
 51
180.0
  0
LINE
  5
B576
330
B4F0
100
AcDbEntity
  8
1
  6
Continuous
100
AcDbLine
 10
25.920766
 20
141.3329159999999
 30
0.0
 11
26.25
 21
141.3180999999999
 31
0.0
  0
ARC
  5
B577
330
B4F0
100
AcDbEntity
  8
1
  6
Continuous
100
AcDbCircle
 10
26.5
 20
141.9181379999999
 30
0.0
 40
1.5
100
AcDbArc
 50
180.0
 51
260.405932
  0
LINE
  5
B578
330
B4F0
100
AcDbEntity
  8
1
  6
Continuous
100
AcDbLine
 10
26.246226
 20
143.418138
 30
0.0
 11
27.833508
 21
143.418138
 31
0.0
  0
LINE
  5
B579
330
B4F0
100
AcDbEntity
  8
1
  6
Continuous
100
AcDbLine
 10
26.5
 20
143.418138
 30
0.0
 11
26.5
 21
146.918138
 31
0.0
  0
LINE
  5
B57A
330
B4F0
100
AcDbEntity
  8
1
  6
Continuous
100
AcDbLine
 10
39.75
 20
146.7233889999999
 30
0.0
 11
40.495952
 21
141.808006
 31
0.0
  0
ARC
  5
B57B
330
B4F0
100
AcDbEntity
  8
1
  6
Continuous
100
AcDbCircle
 10
38.75
 20
146.7233889999999
 30
0.0
 40
1.0
100
AcDbArc
 50
0.0
 51
84.600387
  0
LINE
  5
B57C
330
B4F0
100
AcDbEntity
  8
1
  6
Continuous
100
AcDbLine
 10
39.556754
 20
141.331904
 30
0.0
 11
39.25
 21
141.3180999999999
 31
0.0
  0
ARC
  5
B57D
330
B4F0
100
AcDbEntity
  8
1
  6
Continuous
100
AcDbCircle
 10
39.0
 20
141.9181379999999
 30
0.0
 40
1.5
100
AcDbArc
 50
279.594068
 51
355.7894899999998
  0
LINE
  5
B57E
330
B4F0
100
AcDbEntity
  8
1
  6
Continuous
100
AcDbLine
 10
37.66649199999999
 20
143.418138
 30
0.0
 11
39.24015
 21
143.418138
 31
0.0
  0
LINE
  5
B57F
330
B4F0
100
AcDbEntity
  8
1
  6
Continuous
100
AcDbLine
 10
39.0
 20
143.418138
 30
0.0
 11
39.0
 21
146.918138
 31
0.0
  0
LINE
  5
B580
330
B4F0
100
AcDbEntity
  8
4
  6
CENTER
100
AcDbLine
 10
123.7959519999999
 20
38.0
 30
0.0
 11
123.7959519999999
 21
59.5
 31
0.0
  0
LINE
  5
B581
330
B4F0
100
AcDbEntity
  8
1
  6
Continuous
100
AcDbLine
 10
100.495952
 20
42.25
 30
0.0
 11
147.095952
 21
42.25
 31
0.0
  0
LINE
  5
B582
330
B4F0
100
AcDbEntity
  8
1
  6
Continuous
100
AcDbLine
 10
118.295952
 20
41.0
 30
0.0
 11
129.2959519999998
 21
41.0
 31
0.0
  0
LINE
  5
B583
330
B4F0
100
AcDbEntity
  8
1
  6
Continuous
100
AcDbLine
 10
100.495952
 20
55.25
 30
0.0
 11
147.095952
 21
55.25
 31
0.0
  0
LINE
  5
B584
330
B4F0
100
AcDbEntity
  8
4
  6
CENTER
100
AcDbLine
 10
95.495952
 20
48.75
 30
0.0
 11
152.095952
 21
48.75
 31
0.0
  0
LINE
  5
B585
330
B4F0
100
AcDbEntity
  8
1
  6
Continuous
100
AcDbLine
 10
118.295952
 20
56.5
 30
0.0
 11
129.2959519999998
 21
56.5
 31
0.0
  0
LINE
  5
B586
330
B4F0
100
AcDbEntity
  8
1
  6
Continuous
100
AcDbLine
 10
118.5132089999999
 20
140.8110049999999
 30
0.0
 11
114.897877
 21
136.56528
 31
0.0
  0
LINE
  5
B587
330
B4F0
100
AcDbEntity
  8
1
  6
Continuous
100
AcDbLine
 10
118.4429619999999
 20
141.653975
 30
0.0
 11
114.441057
 21
136.954273
 31
0.0
  0
LINE
  5
B588
330
B4F0
100
AcDbEntity
  8
1
  6
Continuous
100
AcDbLine
 10
114.441057
 20
136.954273
 30
0.0
 11
114.897877
 21
136.56528
 31
0.0
  0
LINE
  5
B589
330
B4F0
100
AcDbEntity
  8
1
  6
Continuous
100
AcDbLine
 10
115.997028
 20
138.781553
 30
0.0
 11
116.453848
 21
138.3925599999998
 31
0.0
  0
CIRCLE
  5
B58A
330
B4F0
100
AcDbEntity
  8
1
  6
Continuous
100
AcDbCircle
 10
32.75
 20
146.4161
 30
0.0
 40
3.0
  0
LINE
  5
B58B
330
B4F0
100
AcDbEntity
  8
1
  6
Continuous
100
AcDbLine
 10
29.75
 20
146.4161
 30
0.0
 11
28.75649199999999
 21
144.0333
 31
0.0
  0
LINE
  5
B58C
330
B4F0
100
AcDbEntity
  8
1
  6
Continuous
100
AcDbLine
 10
35.75
 20
146.4161
 30
0.0
 11
36.743508
 21
144.0333
 31
0.0
  0
ARC
  5
B58D
330
B4F0
100
AcDbEntity
  8
1
  6
Continuous
100
AcDbCircle
 10
37.66649199999999
 20
144.418138
 30
0.0
 40
1.0
100
AcDbArc
 50
202.6336909999999
 51
270.0
  0
ARC
  5
B58E
330
B4F0
100
AcDbEntity
  8
1
  6
Continuous
100
AcDbCircle
 10
27.833508
 20
144.418138
 30
0.0
 40
1.0
100
AcDbArc
 50
270.0
 51
337.3663089999999
  0
LINE
  5
B58F
330
B4F0
100
AcDbEntity
  8
1
  6
Continuous
100
AcDbLine
 10
118.5459519999999
 20
56.5
 30
0.0
 11
118.5459519999999
 21
55.25
 31
0.0
  0
LINE
  5
B590
330
B4F0
100
AcDbEntity
  8
1
  6
Continuous
100
AcDbLine
 10
129.0459519999998
 20
41.00044699999997
 30
0.0
 11
129.0459519999998
 21
42.25
 31
0.0
  0
LINE
  5
B591
330
B4F0
100
AcDbEntity
  8
1
  6
Continuous
100
AcDbLine
 10
129.2959519999998
 20
56.5
 30
0.0
 11
129.2959519999998
 21
55.25
 31
0.0
  0
LINE
  5
B592
330
B4F0
100
AcDbEntity
  8
1
  6
Continuous
100
AcDbLine
 10
118.295952
 20
56.5
 30
0.0
 11
118.295952
 21
55.25
 31
0.0
  0
LINE
  5
B593
330
B4F0
100
AcDbEntity
  8
1
  6
Continuous
100
AcDbLine
 10
118.295952
 20
56.5
 30
0.0
 11
117.045952
 21
55.25
 31
0.0
  0
LINE
  5
B594
330
B4F0
100
AcDbEntity
  8
1
  6
Continuous
100
AcDbLine
 10
129.2959519999998
 20
56.5
 30
0.0
 11
130.545952
 21
55.25
 31
0.0
  0
LINE
  5
B595
330
B4F0
100
AcDbEntity
  8
1
  6
Continuous
100
AcDbLine
 10
118.295952
 20
41.00044699999997
 30
0.0
 11
117.046026
 21
42.25
 31
0.0
  0
LINE
  5
B596
330
B4F0
100
AcDbEntity
  8
1
  6
Continuous
100
AcDbLine
 10
129.2959519999998
 20
41.0
 30
0.0
 11
130.545952
 21
42.25
 31
0.0
  0
LINE
  5
B597
330
B4F0
100
AcDbEntity
  8
1
  6
Continuous
100
AcDbLine
 10
129.2959519999998
 20
42.25
 30
0.0
 11
129.2959519999998
 21
41.00044699999997
 31
0.0
  0
LINE
  5
B598
330
B4F0
100
AcDbEntity
  8
1
  6
Continuous
100
AcDbLine
 10
129.0459519999998
 20
55.25
 30
0.0
 11
129.0459519999998
 21
56.5
 31
0.0
  0
LINE
  5
B599
330
B4F0
100
AcDbEntity
  8
1
  6
Continuous
100
AcDbLine
 10
118.5459519999999
 20
42.25
 30
0.0
 11
118.5459519999999
 21
41.00044699999997
 31
0.0
  0
LINE
  5
B59A
330
B4F0
100
AcDbEntity
  8
1
  6
Continuous
100
AcDbLine
 10
118.295952
 20
42.25
 30
0.0
 11
118.295952
 21
41.00044699999997
 31
0.0
  0
ARC
  5
B59B
330
B4F0
100
AcDbEntity
  8
5
  6
PHANTOM
100
AcDbCircle
 10
124.020952
 20
123.938017
 30
0.0
 40
18.5
100
AcDbArc
 50
107.5282139999999
 51
36.687871
  0
ARC
  5
B59C
330
B4F0
100
AcDbEntity
  8
1
  6
Continuous
100
AcDbCircle
 10
123.7959519999999
 20
119.800017
 30
0.0
 40
22.5
100
AcDbArc
 50
103.763258
 51
36.772092
  0
ARC
  5
B59D
330
B4F0
100
AcDbEntity
  8
5
  6
PHANTOM
100
AcDbCircle
 10
124.020952
 20
123.938017
 30
0.0
 40
19.3
100
AcDbArc
 50
106.9907449999998
 51
36.764491
  0
ARC
  5
B59E
330
B4F0
100
AcDbEntity
  8
5
  6
PHANTOM
100
AcDbCircle
 10
124.020952
 20
123.938017
 30
0.0
 40
20.1
100
AcDbArc
 50
311.259115
 51
36.834966
  0
ARC
  5
B59F
330
B4F0
100
AcDbEntity
  8
1
  6
Continuous
100
AcDbCircle
 10
123.7959519999999
 20
119.800017
 30
0.0
 40
23.3
100
AcDbArc
 50
103.451824
 51
36.82785900000001
  0
LINE
  5
B5A0
330
B4F0
100
AcDbEntity
  8
5
  6
PHANTOM
100
AcDbLine
 10
136.748634
 20
109.429533
 30
0.0
 11
137.276206
 21
108.8281449999999
 31
0.0
  0
LINE
  5
B5A1
330
B4F0
100
AcDbEntity
  8
4
  6
CENTER
100
AcDbLine
 10
21.25
 20
119.800017
 30
0.0
 11
44.24999999999999
 21
119.800017
 31
0.0
  0
LINE
  5
B5A2
330
B4F0
100
AcDbEntity
  8
1
  6
Continuous
100
AcDbLine
 10
143.0734349999999
 20
134.263371
 30
0.0
 11
142.4335189999998
 21
133.78326
 31
0.0
  0
LINE
  5
B5A3
330
B4F0
100
AcDbEntity
  8
1
  6
Continuous
100
AcDbLine
 10
26.25
 20
96.500017
 30
0.0
 11
39.25
 21
96.500017
 31
0.0
  0
LINE
  5
B5A4
330
B4F0
100
AcDbEntity
  8
1
  6
Continuous
100
AcDbLine
 10
210.698808
 20
142.9488669999998
 30
0.0
 11
208.345952
 21
142.9488669999998
 31
0.0
  0
LINE
  5
B5A5
330
B4F0
100
AcDbEntity
  8
1
  6
Continuous
100
AcDbLine
 10
218.993095
 20
142.9488669999998
 30
0.0
 11
221.345952
 21
142.9488669999998
 31
0.0
  0
LINE
  5
B5A6
330
B4F0
100
AcDbEntity
  8
1
  6
Continuous
100
AcDbLine
 10
208.342177
 20
143.418138
 30
0.0
 11
208.016718
 21
141.3329159999999
 31
0.0
  0
LINE
  5
B5A7
330
B4F0
100
AcDbEntity
  8
1
  6
Continuous
100
AcDbLine
 10
221.336102
 20
143.418138
 30
0.0
 11
221.652706
 21
141.331904
 31
0.0
  0
LINE
  5
B5A8
330
B4F0
100
AcDbEntity
  8
1
  6
Continuous
100
AcDbLine
 10
26.246226
 20
143.418138
 30
0.0
 11
25.920766
 21
141.3329159999999
 31
0.0
  0
LINE
  5
B5A9
330
B4F0
100
AcDbEntity
  8
1
  6
Continuous
100
AcDbLine
 10
39.24015
 20
143.418138
 30
0.0
 11
39.556754
 21
141.331904
 31
0.0
  0
LINE
  5
B5AA
330
B4F0
100
AcDbEntity
  8
1
  6
Continuous
100
AcDbLine
 10
26.25
 20
142.7185659999999
 30
0.0
 11
39.25
 21
142.7185659999999
 31
0.0
  0
LINE
  5
B5AB
330
B4F0
100
AcDbEntity
  8
4
  6
CENTER
100
AcDbLine
 10
95.495952
 20
119.800017
 30
0.0
 11
152.095952
 21
119.800017
 31
0.0
  0
LINE
  5
B5AC
330
B4F0
100
AcDbEntity
  8
4
  6
CENTER
100
AcDbLine
 10
203.345952
 20
119.800017
 30
0.0
 11
226.345952
 21
119.800017
 31
0.0
  0
LINE
  5
B5AD
330
B4F0
100
AcDbEntity
  8
1
  6
Continuous
100
AcDbLine
 10
208.345952
 20
96.500017
 30
0.0
 11
221.345952
 21
96.500017
 31
0.0
  0
LINE
  5
B5AE
330
B4F0
100
AcDbEntity
  8
1
  6
Continuous
100
AcDbLine
 10
147.095952
 20
55.25
 30
0.0
 11
147.095952
 21
42.25
 31
0.0
  0
LINE
  5
B5AF
330
B4F0
100
AcDbEntity
  8
1
  6
Continuous
100
AcDbLine
 10
100.495952
 20
55.25
 30
0.0
 11
100.495952
 21
42.25
 31
0.0
  0
LINE
  5
B5B0
330
B4F0
100
AcDbEntity
  8
1
  6
Continuous
100
AcDbLine
 10
100.495952
 20
206.6680999999999
 30
0.0
 11
100.495952
 21
193.6681
 31
0.0
  0
LINE
  5
B5B1
330
B4F0
100
AcDbEntity
  8
1
  6
Continuous
100
AcDbLine
 10
147.095952
 20
206.6680999999999
 30
0.0
 11
147.095952
 21
193.6681
 31
0.0
  0
ARC
  5
B5B2
330
B4F0
100
AcDbEntity
  8
1
  6
Continuous
100
AcDbCircle
 10
35.618454
 20
111.4759199999999
 30
0.0
 40
0.3
100
AcDbArc
 50
270.0
 51
90.0
  0
LINE
  5
B5B3
330
B4F0
100
AcDbEntity
  8
1
  6
Continuous
100
AcDbLine
 10
32.92463699999998
 20
111.1759199999999
 30
0.0
 11
35.618454
 21
111.1759199999999
 31
0.0
  0
ARC
  5
B5B4
330
B4F0
100
AcDbEntity
  8
1
  6
Continuous
100
AcDbCircle
 10
29.91845399999998
 20
112.0759199999999
 30
0.0
 40
0.3
100
AcDbArc
 50
77.981988
 51
270.0
  0
LINE
  5
B5B5
330
B4F0
100
AcDbEntity
  8
1
  6
Continuous
100
AcDbLine
 10
29.91845399999998
 20
111.77592
 30
0.0
 11
32.61562199999998
 21
111.2080949999999
 31
0.0
  0
LINE
  5
B5B6
330
B4F0
100
AcDbEntity
  8
1
  6
Continuous
100
AcDbLine
 10
29.98092
 20
112.3693449999999
 30
0.0
 11
35.618454
 21
111.77592
 31
0.0
  0
LINE
  5
B5B7
330
B4F0
100
AcDbEntity
  8
1
  6
Continuous
100
AcDbLine
 10
29.54631
 20
134.2612059999999
 30
0.0
 11
35.46181
 21
133.876628
 31
0.0
  0
ARC
  5
B5B8
330
B4F0
100
AcDbEntity
  8
1
  6
Continuous
100
AcDbCircle
 10
29.54631
 20
134.0689559999999
 30
0.0
 40
0.19225
100
AcDbArc
 50
90.0
 51
270.0
  0
ARC
  5
B5B9
330
B4F0
100
AcDbEntity
  8
1
  6
Continuous
100
AcDbCircle
 10
32.79665300000001
 20
131.3007809999998
 30
0.0
 40
1.5
100
AcDbArc
 50
258.1113419999999
 51
270.0
  0
ARC
  5
B5BA
330
B4F0
100
AcDbEntity
  8
1
  6
Continuous
100
AcDbCircle
 10
32.79665300000001
 20
128.9007809999999
 30
0.0
 40
1.5
100
AcDbArc
 50
258.1113419999999
 51
270.0
  0
ARC
  5
B5BB
330
B4F0
100
AcDbEntity
  8
1
  6
Continuous
100
AcDbCircle
 10
32.79665300000001
 20
126.5007809999999
 30
0.0
 40
1.5
100
AcDbArc
 50
258.1113419999999
 51
270.0
  0
ARC
  5
B5BC
330
B4F0
100
AcDbEntity
  8
1
  6
Continuous
100
AcDbCircle
 10
32.79665300000001
 20
124.100781
 30
0.0
 40
1.5
100
AcDbArc
 50
258.1113419999999
 51
270.0
  0
ARC
  5
B5BD
330
B4F0
100
AcDbEntity
  8
1
  6
Continuous
100
AcDbCircle
 10
32.79665300000001
 20
121.700781
 30
0.0
 40
1.5
100
AcDbArc
 50
258.1113419999999
 51
270.0
  0
ARC
  5
B5BE
330
B4F0
100
AcDbEntity
  8
1
  6
Continuous
100
AcDbCircle
 10
32.79665300000001
 20
119.300781
 30
0.0
 40
1.5
100
AcDbArc
 50
258.1113419999999
 51
270.0
  0
ARC
  5
B5BF
330
B4F0
100
AcDbEntity
  8
1
  6
Continuous
100
AcDbCircle
 10
32.79665300000001
 20
116.9007809999999
 30
0.0
 40
1.5
100
AcDbArc
 50
258.1113419999999
 51
270.0
  0
ARC
  5
B5C0
330
B4F0
100
AcDbEntity
  8
1
  6
Continuous
100
AcDbCircle
 10
32.79665300000001
 20
114.500781
 30
0.0
 40
1.5
100
AcDbArc
 50
258.1113419999999
 51
270.0
  0
ARC
  5
B5C1
330
B4F0
100
AcDbEntity
  8
1
  6
Continuous
100
AcDbCircle
 10
35.49047
 20
130.100781
 30
0.0
 40
0.3
100
AcDbArc
 50
270.0
 51
90.0
  0
ARC
  5
B5C2
330
B4F0
100
AcDbEntity
  8
1
  6
Continuous
100
AcDbCircle
 10
35.49047
 20
127.700781
 30
0.0
 40
0.3
100
AcDbArc
 50
270.0
 51
90.0
  0
LINE
  5
B5C3
330
B4F0
100
AcDbEntity
  8
1
  6
Continuous
100
AcDbLine
 10
32.79665300000001
 20
129.800781
 30
0.0
 11
35.49047
 21
129.800781
 31
0.0
  0
LINE
  5
B5C4
330
B4F0
100
AcDbEntity
  8
1
  6
Continuous
100
AcDbLine
 10
32.79665300000001
 20
127.400781
 30
0.0
 11
35.49047
 21
127.400781
 31
0.0
  0
ARC
  5
B5C5
330
B4F0
100
AcDbEntity
  8
1
  6
Continuous
100
AcDbCircle
 10
35.49047
 20
125.3007809999999
 30
0.0
 40
0.3
100
AcDbArc
 50
270.0
 51
90.0
  0
ARC
  5
B5C6
330
B4F0
100
AcDbEntity
  8
1
  6
Continuous
100
AcDbCircle
 10
35.49047
 20
122.9007809999999
 30
0.0
 40
0.3
100
AcDbArc
 50
270.0
 51
90.0
  0
ARC
  5
B5C7
330
B4F0
100
AcDbEntity
  8
1
  6
Continuous
100
AcDbCircle
 10
35.49047
 20
120.500781
 30
0.0
 40
0.3
100
AcDbArc
 50
270.0
 51
90.0
  0
ARC
  5
B5C8
330
B4F0
100
AcDbEntity
  8
1
  6
Continuous
100
AcDbCircle
 10
35.49047
 20
118.100781
 30
0.0
 40
0.3
100
AcDbArc
 50
270.0
 51
90.0
  0
ARC
  5
B5C9
330
B4F0
100
AcDbEntity
  8
1
  6
Continuous
100
AcDbCircle
 10
35.49047
 20
115.700781
 30
0.0
 40
0.3
100
AcDbArc
 50
270.0
 51
90.0
  0
ARC
  5
B5CA
330
B4F0
100
AcDbEntity
  8
1
  6
Continuous
100
AcDbCircle
 10
35.49047
 20
113.300781
 30
0.0
 40
0.3
100
AcDbArc
 50
270.0
 51
90.0
  0
LINE
  5
B5CB
330
B4F0
100
AcDbEntity
  8
1
  6
Continuous
100
AcDbLine
 10
32.79665300000001
 20
125.000781
 30
0.0
 11
35.49047
 21
125.000781
 31
0.0
  0
LINE
  5
B5CC
330
B4F0
100
AcDbEntity
  8
1
  6
Continuous
100
AcDbLine
 10
32.79665300000001
 20
122.600781
 30
0.0
 11
35.49047
 21
122.600781
 31
0.0
  0
LINE
  5
B5CD
330
B4F0
100
AcDbEntity
  8
1
  6
Continuous
100
AcDbLine
 10
32.79665300000001
 20
120.200781
 30
0.0
 11
35.49047
 21
120.200781
 31
0.0
  0
LINE
  5
B5CE
330
B4F0
100
AcDbEntity
  8
1
  6
Continuous
100
AcDbLine
 10
32.79665300000001
 20
117.8007809999999
 30
0.0
 11
35.49047
 21
117.8007809999999
 31
0.0
  0
LINE
  5
B5CF
330
B4F0
100
AcDbEntity
  8
1
  6
Continuous
100
AcDbLine
 10
32.79665300000001
 20
115.4007809999999
 30
0.0
 11
35.49047
 21
115.4007809999999
 31
0.0
  0
LINE
  5
B5D0
330
B4F0
100
AcDbEntity
  8
1
  6
Continuous
100
AcDbLine
 10
32.79665300000001
 20
113.000781
 30
0.0
 11
35.49047
 21
113.000781
 31
0.0
  0
LINE
  5
B5D1
330
B4F0
100
AcDbEntity
  8
1
  6
Continuous
100
AcDbLine
 10
29.79046999999999
 20
130.4007809999999
 30
0.0
 11
32.48763799999999
 21
129.8329559999999
 31
0.0
  0
ARC
  5
B5D2
330
B4F0
100
AcDbEntity
  8
1
  6
Continuous
100
AcDbCircle
 10
29.79046999999999
 20
130.7007809999997
 30
0.0
 40
0.3
100
AcDbArc
 50
77.981988
 51
270.0
  0
LINE
  5
B5D3
330
B4F0
100
AcDbEntity
  8
1
  6
Continuous
100
AcDbLine
 10
29.79046999999999
 20
128.0007809999999
 30
0.0
 11
32.48763799999999
 21
127.4329559999999
 31
0.0
  0
ARC
  5
B5D4
330
B4F0
100
AcDbEntity
  8
1
  6
Continuous
100
AcDbCircle
 10
29.79046999999999
 20
128.3007809999998
 30
0.0
 40
0.3
100
AcDbArc
 50
77.981988
 51
270.0
  0
LINE
  5
B5D5
330
B4F0
100
AcDbEntity
  8
1
  6
Continuous
100
AcDbLine
 10
29.852936
 20
130.994206
 30
0.0
 11
35.49047
 21
130.4007809999999
 31
0.0
  0
LINE
  5
B5D6
330
B4F0
100
AcDbEntity
  8
1
  6
Continuous
100
AcDbLine
 10
29.852936
 20
128.594206
 30
0.0
 11
35.49047
 21
128.0007809999999
 31
0.0
  0
ARC
  5
B5D7
330
B4F0
100
AcDbEntity
  8
1
  6
Continuous
100
AcDbCircle
 10
29.79046999999999
 20
125.9007809999999
 30
0.0
 40
0.3
100
AcDbArc
 50
77.981988
 51
270.0
  0
LINE
  5
B5D8
330
B4F0
100
AcDbEntity
  8
1
  6
Continuous
100
AcDbLine
 10
29.79046999999999
 20
125.600781
 30
0.0
 11
32.48763799999999
 21
125.0329559999999
 31
0.0
  0
LINE
  5
B5D9
330
B4F0
100
AcDbEntity
  8
1
  6
Continuous
100
AcDbLine
 10
29.79046999999999
 20
123.200781
 30
0.0
 11
32.48763799999999
 21
122.6329559999999
 31
0.0
  0
ARC
  5
B5DA
330
B4F0
100
AcDbEntity
  8
1
  6
Continuous
100
AcDbCircle
 10
29.79046999999999
 20
123.500781
 30
0.0
 40
0.3
100
AcDbArc
 50
77.981988
 51
270.0
  0
ARC
  5
B5DB
330
B4F0
100
AcDbEntity
  8
1
  6
Continuous
100
AcDbCircle
 10
29.79046999999999
 20
121.100781
 30
0.0
 40
0.3
100
AcDbArc
 50
77.981988
 51
270.0
  0
LINE
  5
B5DC
330
B4F0
100
AcDbEntity
  8
1
  6
Continuous
100
AcDbLine
 10
29.79046999999999
 20
120.800781
 30
0.0
 11
32.48763799999999
 21
120.232956
 31
0.0
  0
LINE
  5
B5DD
330
B4F0
100
AcDbEntity
  8
1
  6
Continuous
100
AcDbLine
 10
29.79046999999999
 20
118.4007809999999
 30
0.0
 11
32.48763799999999
 21
117.832956
 31
0.0
  0
ARC
  5
B5DE
330
B4F0
100
AcDbEntity
  8
1
  6
Continuous
100
AcDbCircle
 10
29.79046999999999
 20
118.700781
 30
0.0
 40
0.3
100
AcDbArc
 50
77.981988
 51
270.0
  0
ARC
  5
B5DF
330
B4F0
100
AcDbEntity
  8
1
  6
Continuous
100
AcDbCircle
 10
29.79046999999999
 20
116.300781
 30
0.0
 40
0.3
100
AcDbArc
 50
77.981988
 51
270.0
  0
LINE
  5
B5E0
330
B4F0
100
AcDbEntity
  8
1
  6
Continuous
100
AcDbLine
 10
29.79046999999999
 20
116.0007809999999
 30
0.0
 11
32.48763799999999
 21
115.432956
 31
0.0
  0
LINE
  5
B5E1
330
B4F0
100
AcDbEntity
  8
1
  6
Continuous
100
AcDbLine
 10
29.79046999999999
 20
113.600781
 30
0.0
 11
32.48763799999999
 21
113.032956
 31
0.0
  0
ARC
  5
B5E2
330
B4F0
100
AcDbEntity
  8
1
  6
Continuous
100
AcDbCircle
 10
29.79046999999999
 20
113.900781
 30
0.0
 40
0.3
100
AcDbArc
 50
77.981988
 51
270.0
  0
LINE
  5
B5E3
330
B4F0
100
AcDbEntity
  8
1
  6
Continuous
100
AcDbLine
 10
29.852936
 20
126.1942059999999
 30
0.0
 11
35.49047
 21
125.600781
 31
0.0
  0
LINE
  5
B5E4
330
B4F0
100
AcDbEntity
  8
1
  6
Continuous
100
AcDbLine
 10
29.852936
 20
123.7942059999999
 30
0.0
 11
35.49047
 21
123.200781
 31
0.0
  0
LINE
  5
B5E5
330
B4F0
100
AcDbEntity
  8
1
  6
Continuous
100
AcDbLine
 10
29.852936
 20
121.394206
 30
0.0
 11
35.49047
 21
120.800781
 31
0.0
  0
LINE
  5
B5E6
330
B4F0
100
AcDbEntity
  8
1
  6
Continuous
100
AcDbLine
 10
29.852936
 20
118.994206
 30
0.0
 11
35.49047
 21
118.4007809999999
 31
0.0
  0
LINE
  5
B5E7
330
B4F0
100
AcDbEntity
  8
1
  6
Continuous
100
AcDbLine
 10
29.852936
 20
116.594206
 30
0.0
 11
35.49047
 21
116.0007809999999
 31
0.0
  0
LINE
  5
B5E8
330
B4F0
100
AcDbEntity
  8
1
  6
Continuous
100
AcDbLine
 10
29.852936
 20
114.1942059999999
 30
0.0
 11
35.49047
 21
113.600781
 31
0.0
  0
LINE
  5
B5E9
330
B4F0
100
AcDbEntity
  8
1
  6
Continuous
100
AcDbLine
 10
29.54631
 20
133.876706
 30
0.0
 11
32.50405999999999
 21
133.492128
 31
0.0
  0
LINE
  5
B5EA
330
B4F0
100
AcDbEntity
  8
1
  6
Continuous
100
AcDbLine
 10
29.56930999999999
 20
132.239087
 30
0.0
 11
32.50405999999999
 21
131.8113679999999
 31
0.0
  0
LINE
  5
B5EB
330
B4F0
100
AcDbEntity
  8
1
  6
Continuous
100
AcDbLine
 10
35.46181
 20
133.492128
 30
0.0
 11
32.50405999999999
 21
133.492128
 31
0.0
  0
LINE
  5
B5EC
330
B4F0
100
AcDbEntity
  8
1
  6
Continuous
100
AcDbLine
 10
35.40743899999999
 20
131.8113679999999
 30
0.0
 11
32.50405999999999
 21
131.8113679999999
 31
0.0
  0
LINE
  5
B5ED
330
B4F0
100
AcDbEntity
  8
1
  6
Continuous
100
AcDbLine
 10
29.56930999999999
 20
132.6695869999998
 30
0.0
 11
35.43880999999998
 21
132.2395699999999
 31
0.0
  0
ARC
  5
B5EE
330
B4F0
100
AcDbEntity
  8
1
  6
Continuous
100
AcDbCircle
 10
35.46181
 20
133.684378
 30
0.0
 40
0.19225
100
AcDbArc
 50
270.0
 51
90.0
  0
ARC
  5
B5EF
330
B4F0
100
AcDbEntity
  8
1
  6
Continuous
100
AcDbCircle
 10
35.43880999999998
 20
132.0243199999999
 30
0.0
 40
0.21525
100
AcDbArc
 50
261.619662
 51
90.0
  0
ARC
  5
B5F0
330
B4F0
100
AcDbEntity
  8
1
  6
Continuous
100
AcDbCircle
 10
29.56930999999999
 20
132.454337
 30
0.0
 40
0.21525
100
AcDbArc
 50
90.0
 51
270.0
  0
LINE
  5
B5F1
330
B4F0
100
AcDbEntity
  8
1
  6
Continuous
100
AcDbLine
 10
29.40030999999999
 20
142.0850989999999
 30
0.0
 11
32.50405999999999
 21
141.9926199999999
 31
0.0
  0
LINE
  5
B5F2
330
B4F0
100
AcDbEntity
  8
1
  6
Continuous
100
AcDbLine
 10
35.60781
 20
142.0851199999999
 30
0.0
 11
29.401688
 21
142.177578
 31
0.0
  0
ARC
  5
B5F3
330
B4F0
100
AcDbEntity
  8
1
  6
Continuous
100
AcDbCircle
 10
35.60781
 20
142.0388699999998
 30
0.0
 40
0.04625
100
AcDbArc
 50
270.0
 51
90.0
  0
ARC
  5
B5F4
330
B4F0
100
AcDbEntity
  8
1
  6
Continuous
100
AcDbCircle
 10
29.40030999999999
 20
142.131349
 30
0.0
 40
0.04625
100
AcDbArc
 50
88.292947
 51
270.0
  0
LINE
  5
B5F5
330
B4F0
100
AcDbEntity
  8
1
  6
Continuous
100
AcDbLine
 10
32.50405999999999
 20
141.9926199999999
 30
0.0
 11
35.60781
 21
141.9926199999999
 31
0.0
  0
LINE
  5
B5F6
330
B4F0
100
AcDbEntity
  8
1
  6
Continuous
100
AcDbLine
 10
32.50405999999999
 20
142.33696
 30
0.0
 11
29.38731
 21
142.4033399999999
 31
0.0
  0
LINE
  5
B5F7
330
B4F0
100
AcDbEntity
  8
1
  6
Continuous
100
AcDbLine
 10
29.388018
 20
142.469832
 30
0.0
 11
35.62081
 21
142.4034599999998
 31
0.0
  0
ARC
  5
B5F8
330
B4F0
100
AcDbEntity
  8
1
  6
Continuous
100
AcDbCircle
 10
29.38731
 20
142.4365899999999
 30
0.0
 40
0.03325
100
AcDbArc
 50
88.77976600000001
 51
270.0
  0
ARC
  5
B5F9
330
B4F0
100
AcDbEntity
  8
1
  6
Continuous
100
AcDbCircle
 10
35.62081
 20
142.3702099999999
 30
0.0
 40
0.03325
100
AcDbArc
 50
270.0
 51
90.0
  0
LINE
  5
B5FA
330
B4F0
100
AcDbEntity
  8
1
  6
Continuous
100
AcDbLine
 10
32.50405999999999
 20
142.33696
 30
0.0
 11
35.62081
 21
142.33696
 31
0.0
  0
LINE
  5
B5FB
330
B4F0
100
AcDbEntity
  8
1
  6
Continuous
100
AcDbLine
 10
29.38380999999999
 20
141.718971
 30
0.0
 11
32.50405999999999
 21
141.5395059999999
 31
0.0
  0
LINE
  5
B5FC
330
B4F0
100
AcDbEntity
  8
1
  6
Continuous
100
AcDbLine
 10
35.62430999999997
 20
141.599006
 30
0.0
 11
29.385519
 21
141.778422
 31
0.0
  0
ARC
  5
B5FD
330
B4F0
100
AcDbEntity
  8
1
  6
Continuous
100
AcDbCircle
 10
35.62430999999997
 20
141.5692559999999
 30
0.0
 40
0.02975
100
AcDbArc
 50
270.0
 51
90.0
  0
ARC
  5
B5FE
330
B4F0
100
AcDbEntity
  8
1
  6
Continuous
100
AcDbCircle
 10
29.38380999999999
 20
141.7487209999999
 30
0.0
 40
0.02975
100
AcDbArc
 50
86.70546800000003
 51
270.0
  0
LINE
  5
B5FF
330
B4F0
100
AcDbEntity
  8
1
  6
Continuous
100
AcDbLine
 10
32.50405999999999
 20
140.9756909999998
 30
0.0
 11
29.41631
 21
141.1455919999999
 31
0.0
  0
LINE
  5
B600
330
B4F0
100
AcDbEntity
  8
1
  6
Continuous
100
AcDbLine
 10
29.41631
 20
141.2700919999998
 30
0.0
 11
35.59180999999997
 21
141.1001909999999
 31
0.0
  0
ARC
  5
B601
330
B4F0
100
AcDbEntity
  8
1
  6
Continuous
100
AcDbCircle
 10
35.59180999999997
 20
141.037941
 30
0.0
 40
0.06225
100
AcDbArc
 50
270.0
 51
90.0
  0
ARC
  5
B602
330
B4F0
100
AcDbEntity
  8
1
  6
Continuous
100
AcDbCircle
 10
29.41631
 20
141.207842
 30
0.0
 40
0.06225
100
AcDbArc
 50
90.0
 51
270.0
  0
LINE
  5
B603
330
B4F0
100
AcDbEntity
  8
1
  6
Continuous
100
AcDbLine
 10
29.44205999999999
 20
140.4733469999999
 30
0.0
 11
32.50405999999999
 21
140.2976529999999
 31
0.0
  0
LINE
  5
B604
330
B4F0
100
AcDbEntity
  8
1
  6
Continuous
100
AcDbLine
 10
29.447105
 20
140.6492019999998
 30
0.0
 11
35.56606
 21
140.473653
 31
0.0
  0
ARC
  5
B605
330
B4F0
100
AcDbEntity
  8
1
  6
Continuous
100
AcDbCircle
 10
29.44205999999999
 20
140.5613469999997
 30
0.0
 40
0.088
100
AcDbArc
 50
86.71334399999997
 51
270.0
  0
ARC
  5
B606
330
B4F0
100
AcDbEntity
  8
1
  6
Continuous
100
AcDbCircle
 10
35.56606
 20
140.3856529999999
 30
0.0
 40
0.088
100
AcDbArc
 50
270.0
 51
90.0
  0
LINE
  5
B607
330
B4F0
100
AcDbEntity
  8
1
  6
Continuous
100
AcDbLine
 10
29.45681
 20
139.7067709999997
 30
0.0
 11
32.50405999999999
 21
139.500954
 31
0.0
  0
LINE
  5
B608
330
B4F0
100
AcDbEntity
  8
1
  6
Continuous
100
AcDbLine
 10
29.45681
 20
139.912271
 30
0.0
 11
35.55131
 21
139.706454
 31
0.0
  0
ARC
  5
B609
330
B4F0
100
AcDbEntity
  8
1
  6
Continuous
100
AcDbCircle
 10
35.55131
 20
139.6037039999999
 30
0.0
 40
0.10275
100
AcDbArc
 50
270.0
 51
90.0
  0
ARC
  5
B60A
330
B4F0
100
AcDbEntity
  8
1
  6
Continuous
100
AcDbCircle
 10
29.45681
 20
139.8095209999999
 30
0.0
 40
0.10275
100
AcDbArc
 50
90.0
 51
270.0
  0
LINE
  5
B60B
330
B4F0
100
AcDbEntity
  8
1
  6
Continuous
100
AcDbLine
 10
32.50405999999999
 20
138.580081
 30
0.0
 11
29.47255999999999
 21
138.816909
 31
0.0
  0
LINE
  5
B60C
330
B4F0
100
AcDbEntity
  8
1
  6
Continuous
100
AcDbLine
 10
29.481803
 20
139.053548
 30
0.0
 11
35.53555999999999
 21
138.817081
 31
0.0
  0
ARC
  5
B60D
330
B4F0
100
AcDbEntity
  8
1
  6
Continuous
100
AcDbCircle
 10
35.53555999999999
 20
138.6985809999999
 30
0.0
 40
0.1185
100
AcDbArc
 50
270.0
 51
90.0
  0
ARC
  5
B60E
330
B4F0
100
AcDbEntity
  8
1
  6
Continuous
100
AcDbCircle
 10
29.47255999999999
 20
138.9354089999999
 30
0.0
 40
0.1185
100
AcDbArc
 50
85.52619399999997
 51
270.0
  0
LINE
  5
B60F
330
B4F0
100
AcDbEntity
  8
1
  6
Continuous
100
AcDbLine
 10
29.44405999999998
 20
137.8881279999999
 30
0.0
 11
32.50405999999999
 21
137.5282249999999
 31
0.0
  0
LINE
  5
B610
330
B4F0
100
AcDbEntity
  8
1
  6
Continuous
100
AcDbLine
 10
29.44405999999998
 20
138.068128
 30
0.0
 11
35.56405999999999
 21
137.7082249999999
 31
0.0
  0
ARC
  5
B611
330
B4F0
100
AcDbEntity
  8
1
  6
Continuous
100
AcDbCircle
 10
35.56405999999999
 20
137.618225
 30
0.0
 40
0.09
100
AcDbArc
 50
270.0
 51
90.0
  0
ARC
  5
B612
330
B4F0
100
AcDbEntity
  8
1
  6
Continuous
100
AcDbCircle
 10
29.44405999999998
 20
137.9781279999999
 30
0.0
 40
0.09
100
AcDbArc
 50
90.0
 51
270.0
  0
LINE
  5
B613
330
B4F0
100
AcDbEntity
  8
1
  6
Continuous
100
AcDbLine
 10
29.50656
 20
136.6423629999999
 30
0.0
 11
32.50405999999999
 21
136.336986
 31
0.0
  0
LINE
  5
B614
330
B4F0
100
AcDbEntity
  8
1
  6
Continuous
100
AcDbLine
 10
29.522056
 20
136.946574
 30
0.0
 11
35.50155999999999
 21
136.641986
 31
0.0
  0
ARC
  5
B615
330
B4F0
100
AcDbEntity
  8
1
  6
Continuous
100
AcDbCircle
 10
29.50656
 20
136.7948629999999
 30
0.0
 40
0.1525
100
AcDbArc
 50
84.16789599999999
 51
270.0
  0
ARC
  5
B616
330
B4F0
100
AcDbEntity
  8
1
  6
Continuous
100
AcDbCircle
 10
35.50155999999999
 20
136.4894859999999
 30
0.0
 40
0.1525
100
AcDbArc
 50
270.0
 51
90.0
  0
LINE
  5
B617
330
B4F0
100
AcDbEntity
  8
1
  6
Continuous
100
AcDbLine
 10
29.52555999999999
 20
135.3392639999998
 30
0.0
 11
32.50405999999999
 21
134.995954
 31
0.0
  0
LINE
  5
B618
330
B4F0
100
AcDbEntity
  8
1
  6
Continuous
100
AcDbLine
 10
29.545262
 20
135.681128
 30
0.0
 11
35.48256
 21
135.338954
 31
0.0
  0
ARC
  5
B619
330
B4F0
100
AcDbEntity
  8
1
  6
Continuous
100
AcDbCircle
 10
29.52555999999999
 20
135.5107639999999
 30
0.0
 40
0.1715
100
AcDbArc
 50
83.40322200000001
 51
270.0
  0
ARC
  5
B61A
330
B4F0
100
AcDbEntity
  8
1
  6
Continuous
100
AcDbCircle
 10
35.48256
 20
135.1674539999999
 30
0.0
 40
0.1715
100
AcDbArc
 50
270.0
 51
90.0
  0
LINE
  5
B61B
330
B4F0
100
AcDbEntity
  8
1
  6
Continuous
100
AcDbLine
 10
32.50405999999999
 20
141.5395059999999
 30
0.0
 11
35.62430999999997
 21
141.5395059999999
 31
0.0
  0
LINE
  5
B61C
330
B4F0
100
AcDbEntity
  8
1
  6
Continuous
100
AcDbLine
 10
32.50405999999999
 20
140.9756909999998
 30
0.0
 11
35.59180999999997
 21
140.9756909999998
 31
0.0
  0
LINE
  5
B61D
330
B4F0
100
AcDbEntity
  8
1
  6
Continuous
100
AcDbLine
 10
32.50405999999999
 20
140.2976529999999
 30
0.0
 11
35.56606
 21
140.2976529999999
 31
0.0
  0
LINE
  5
B61E
330
B4F0
100
AcDbEntity
  8
1
  6
Continuous
100
AcDbLine
 10
32.50405999999999
 20
139.500954
 30
0.0
 11
35.55131
 21
139.500954
 31
0.0
  0
LINE
  5
B61F
330
B4F0
100
AcDbEntity
  8
1
  6
Continuous
100
AcDbLine
 10
32.50405999999999
 20
138.580081
 30
0.0
 11
35.53555999999999
 21
138.580081
 31
0.0
  0
LINE
  5
B620
330
B4F0
100
AcDbEntity
  8
1
  6
Continuous
100
AcDbLine
 10
32.50405999999999
 20
137.5282249999999
 30
0.0
 11
35.56405999999999
 21
137.5282249999999
 31
0.0
  0
LINE
  5
B621
330
B4F0
100
AcDbEntity
  8
1
  6
Continuous
100
AcDbLine
 10
32.50405999999999
 20
136.336986
 30
0.0
 11
35.50155999999999
 21
136.336986
 31
0.0
  0
LINE
  5
B622
330
B4F0
100
AcDbEntity
  8
1
  6
Continuous
100
AcDbLine
 10
32.50405999999999
 20
134.995954
 30
0.0
 11
35.48256
 21
134.995954
 31
0.0
  0
LINE
  5
B623
330
B4F0
100
AcDbEntity
  8
1
  6
Continuous
100
AcDbLine
 10
32.759706
 20
104.772463
 30
0.0
 11
35.73820599999999
 21
104.772463
 31
0.0
  0
ARC
  5
B624
330
B4F0
100
AcDbEntity
  8
1
  6
Continuous
100
AcDbCircle
 10
35.73820599999999
 20
104.9439629999999
 30
0.0
 40
0.1715
100
AcDbArc
 50
270.0
 51
90.0
  0
LINE
  5
B625
330
B4F0
100
AcDbEntity
  8
1
  6
Continuous
100
AcDbLine
 10
29.80090800000001
 20
105.457637
 30
0.0
 11
35.73820599999999
 21
105.1154629999999
 31
0.0
  0
ARC
  5
B626
330
B4F0
100
AcDbEntity
  8
1
  6
Continuous
100
AcDbCircle
 10
35.694456
 20
101.800829
 30
0.0
 40
0.21525
100
AcDbArc
 50
261.619662
 51
90.0
  0
ARC
  5
B627
330
B4F0
100
AcDbEntity
  8
1
  6
Continuous
100
AcDbCircle
 10
35.71745599999999
 20
103.460887
 30
0.0
 40
0.19225
100
AcDbArc
 50
270.0
 51
90.0
  0
LINE
  5
B628
330
B4F0
100
AcDbEntity
  8
1
  6
Continuous
100
AcDbLine
 10
29.824956
 20
102.446096
 30
0.0
 11
35.694456
 21
102.016079
 31
0.0
  0
LINE
  5
B629
330
B4F0
100
AcDbEntity
  8
1
  6
Continuous
100
AcDbLine
 10
35.66308499999998
 20
101.587877
 30
0.0
 11
32.759706
 21
101.587877
 31
0.0
  0
LINE
  5
B62A
330
B4F0
100
AcDbEntity
  8
1
  6
Continuous
100
AcDbLine
 10
35.71745599999999
 20
103.2686369999999
 30
0.0
 11
32.759706
 21
103.2686369999999
 31
0.0
  0
LINE
  5
B62B
330
B4F0
100
AcDbEntity
  8
1
  6
Continuous
100
AcDbLine
 10
29.801956
 20
104.037715
 30
0.0
 11
35.71745599999999
 21
103.653137
 31
0.0
  0
ARC
  5
B62C
330
B4F0
100
AcDbEntity
  8
1
  6
Continuous
100
AcDbCircle
 10
29.781206
 20
105.287273
 30
0.0
 40
0.1715
100
AcDbArc
 50
83.40322200000001
 51
270.0
  0
LINE
  5
B62D
330
B4F0
100
AcDbEntity
  8
1
  6
Continuous
100
AcDbLine
 10
29.781206
 20
105.115773
 30
0.0
 11
32.759706
 21
104.772463
 31
0.0
  0
ARC
  5
B62E
330
B4F0
100
AcDbEntity
  8
1
  6
Continuous
100
AcDbCircle
 10
29.824956
 20
102.230846
 30
0.0
 40
0.21525
100
AcDbArc
 50
90.0
 51
270.0
  0
LINE
  5
B62F
330
B4F0
100
AcDbEntity
  8
1
  6
Continuous
100
AcDbLine
 10
29.824956
 20
102.015596
 30
0.0
 11
32.759706
 21
101.587877
 31
0.0
  0
LINE
  5
B630
330
B4F0
100
AcDbEntity
  8
1
  6
Continuous
100
AcDbLine
 10
29.801956
 20
103.6532149999999
 30
0.0
 11
32.759706
 21
103.2686369999999
 31
0.0
  0
ARC
  5
B631
330
B4F0
100
AcDbEntity
  8
1
  6
Continuous
100
AcDbCircle
 10
29.801956
 20
103.845465
 30
0.0
 40
0.19225
100
AcDbArc
 50
90.0
 51
270.0
  0
LINE
  5
B632
330
B4F0
100
AcDbEntity
  8
1
  6
Continuous
100
AcDbLine
 10
32.61562199999998
 20
111.2080949999999
 30
0.0
 11
32.92463699999998
 21
111.1759199999999
 31
0.0
  0
LINE
  5
B633
330
B4F0
100
AcDbEntity
  8
1
  6
Continuous
100
AcDbLine
 10
29.73361500000001
 20
108.7139139999998
 30
0.0
 11
35.649115
 21
108.329336
 31
0.0
  0
ARC
  5
B634
330
B4F0
100
AcDbEntity
  8
1
  6
Continuous
100
AcDbCircle
 10
29.73361500000001
 20
108.5216639999998
 30
0.0
 40
0.19225
100
AcDbArc
 50
90.0
 51
270.0
  0
LINE
  5
B635
330
B4F0
100
AcDbEntity
  8
1
  6
Continuous
100
AcDbLine
 10
29.73361500000001
 20
108.3294139999999
 30
0.0
 11
32.691365
 21
107.944836
 31
0.0
  0
LINE
  5
B636
330
B4F0
100
AcDbEntity
  8
1
  6
Continuous
100
AcDbLine
 10
29.75661500000001
 20
106.691795
 30
0.0
 11
32.691365
 21
106.264076
 31
0.0
  0
LINE
  5
B637
330
B4F0
100
AcDbEntity
  8
1
  6
Continuous
100
AcDbLine
 10
35.649115
 20
107.944836
 30
0.0
 11
32.691365
 21
107.944836
 31
0.0
  0
LINE
  5
B638
330
B4F0
100
AcDbEntity
  8
1
  6
Continuous
100
AcDbLine
 10
35.594744
 20
106.264076
 30
0.0
 11
32.691365
 21
106.264076
 31
0.0
  0
LINE
  5
B639
330
B4F0
100
AcDbEntity
  8
1
  6
Continuous
100
AcDbLine
 10
29.75661500000001
 20
107.1222949999998
 30
0.0
 11
35.62611500000001
 21
106.692278
 31
0.0
  0
ARC
  5
B63A
330
B4F0
100
AcDbEntity
  8
1
  6
Continuous
100
AcDbCircle
 10
35.649115
 20
108.137086
 30
0.0
 40
0.19225
100
AcDbArc
 50
270.0
 51
90.0
  0
ARC
  5
B63B
330
B4F0
100
AcDbEntity
  8
1
  6
Continuous
100
AcDbCircle
 10
35.62611500000001
 20
106.477028
 30
0.0
 40
0.21525
100
AcDbArc
 50
261.619662
 51
90.0
  0
ARC
  5
B63C
330
B4F0
100
AcDbEntity
  8
1
  6
Continuous
100
AcDbCircle
 10
29.75661500000001
 20
106.9070449999999
 30
0.0
 40
0.21525
100
AcDbArc
 50
90.0
 51
270.0
  0
LINE
  5
B63D
330
B4F0
100
AcDbEntity
  8
1
  6
Continuous
100
AcDbLine
 10
29.712865
 20
109.7919719999999
 30
0.0
 11
32.691365
 21
109.448662
 31
0.0
  0
LINE
  5
B63E
330
B4F0
100
AcDbEntity
  8
1
  6
Continuous
100
AcDbLine
 10
29.732567
 20
110.133836
 30
0.0
 11
35.669865
 21
109.791662
 31
0.0
  0
ARC
  5
B63F
330
B4F0
100
AcDbEntity
  8
1
  6
Continuous
100
AcDbCircle
 10
29.712865
 20
109.963472
 30
0.0
 40
0.1715
100
AcDbArc
 50
83.40322200000001
 51
270.0
  0
ARC
  5
B640
330
B4F0
100
AcDbEntity
  8
1
  6
Continuous
100
AcDbCircle
 10
35.669865
 20
109.6201619999999
 30
0.0
 40
0.1715
100
AcDbArc
 50
270.0
 51
90.0
  0
LINE
  5
B641
330
B4F0
100
AcDbEntity
  8
1
  6
Continuous
100
AcDbLine
 10
32.691365
 20
109.448662
 30
0.0
 11
35.669865
 21
109.448662
 31
0.0
  0
LINE
  5
B642
330
B4F0
100
AcDbEntity
  8
1
  6
Continuous
100
AcDbLine
 10
101.5276199999999
 20
45.579258
 30
0.0
 11
101.6200989999999
 21
48.683008
 31
0.0
  0
LINE
  5
B643
330
B4F0
100
AcDbEntity
  8
1
  6
Continuous
100
AcDbLine
 10
101.5275989999999
 20
51.786758
 30
0.0
 11
101.4351409999999
 21
45.58063599999999
 31
0.0
  0
ARC
  5
B644
330
B4F0
100
AcDbEntity
  8
1
  6
Continuous
100
AcDbCircle
 10
101.5738489999999
 20
51.786758
 30
0.0
 40
0.04625
100
AcDbArc
 50
0.0
 51
180.0
  0
ARC
  5
B645
330
B4F0
100
AcDbEntity
  8
1
  6
Continuous
100
AcDbCircle
 10
101.4813699999999
 20
45.579258
 30
0.0
 40
0.04625
100
AcDbArc
 50
178.292947
 51
0.0
  0
LINE
  5
B646
330
B4F0
100
AcDbEntity
  8
1
  6
Continuous
100
AcDbLine
 10
101.6200989999999
 20
48.683008
 30
0.0
 11
101.6200989999999
 21
51.786758
 31
0.0
  0
LINE
  5
B647
330
B4F0
100
AcDbEntity
  8
1
  6
Continuous
100
AcDbLine
 10
101.2757589999998
 20
48.683008
 30
0.0
 11
101.2093789999999
 21
45.56625799999999
 31
0.0
  0
LINE
  5
B648
330
B4F0
100
AcDbEntity
  8
1
  6
Continuous
100
AcDbLine
 10
101.142887
 20
45.566966
 30
0.0
 11
101.2092589999999
 21
51.79975800000001
 31
0.0
  0
ARC
  5
B649
330
B4F0
100
AcDbEntity
  8
1
  6
Continuous
100
AcDbCircle
 10
101.176129
 20
45.56625799999999
 30
0.0
 40
0.03325
100
AcDbArc
 50
178.779766
 51
0.0
  0
ARC
  5
B64A
330
B4F0
100
AcDbEntity
  8
1
  6
Continuous
100
AcDbCircle
 10
101.242509
 20
51.79975800000001
 30
0.0
 40
0.03325
100
AcDbArc
 50
0.0
 51
180.0
  0
LINE
  5
B64B
330
B4F0
100
AcDbEntity
  8
1
  6
Continuous
100
AcDbLine
 10
101.2757589999998
 20
48.683008
 30
0.0
 11
101.2757589999998
 21
51.79975800000001
 31
0.0
  0
LINE
  5
B64C
330
B4F0
100
AcDbEntity
  8
1
  6
Continuous
100
AcDbLine
 10
101.8937479999999
 20
45.562758
 30
0.0
 11
102.073213
 21
48.683008
 31
0.0
  0
LINE
  5
B64D
330
B4F0
100
AcDbEntity
  8
1
  6
Continuous
100
AcDbLine
 10
102.0137129999999
 20
51.803258
 30
0.0
 11
101.8342969999999
 21
45.564467
 31
0.0
  0
ARC
  5
B64E
330
B4F0
100
AcDbEntity
  8
1
  6
Continuous
100
AcDbCircle
 10
102.043463
 20
51.803258
 30
0.0
 40
0.02975
100
AcDbArc
 50
0.0
 51
180.0
  0
ARC
  5
B64F
330
B4F0
100
AcDbEntity
  8
1
  6
Continuous
100
AcDbCircle
 10
101.8639979999999
 20
45.562758
 30
0.0
 40
0.02975
100
AcDbArc
 50
176.705468
 51
0.0
  0
LINE
  5
B650
330
B4F0
100
AcDbEntity
  8
1
  6
Continuous
100
AcDbLine
 10
102.637028
 20
48.683008
 30
0.0
 11
102.467127
 21
45.595258
 31
0.0
  0
LINE
  5
B651
330
B4F0
100
AcDbEntity
  8
1
  6
Continuous
100
AcDbLine
 10
102.3426269999999
 20
45.595258
 30
0.0
 11
102.512528
 21
51.770758
 31
0.0
  0
ARC
  5
B652
330
B4F0
100
AcDbEntity
  8
1
  6
Continuous
100
AcDbCircle
 10
102.5747779999999
 20
51.770758
 30
0.0
 40
0.06225
100
AcDbArc
 50
0.0
 51
180.0
  0
ARC
  5
B653
330
B4F0
100
AcDbEntity
  8
1
  6
Continuous
100
AcDbCircle
 10
102.404877
 20
45.595258
 30
0.0
 40
0.06225
100
AcDbArc
 50
180.0
 51
0.0
  0
LINE
  5
B654
330
B4F0
100
AcDbEntity
  8
1
  6
Continuous
100
AcDbLine
 10
103.139372
 20
45.621008
 30
0.0
 11
103.3150659999999
 21
48.683008
 31
0.0
  0
LINE
  5
B655
330
B4F0
100
AcDbEntity
  8
1
  6
Continuous
100
AcDbLine
 10
102.963517
 20
45.626053
 30
0.0
 11
103.139066
 21
51.745008
 31
0.0
  0
ARC
  5
B656
330
B4F0
100
AcDbEntity
  8
1
  6
Continuous
100
AcDbCircle
 10
103.051372
 20
45.621008
 30
0.0
 40
0.088
100
AcDbArc
 50
176.713344
 51
0.0
  0
ARC
  5
B657
330
B4F0
100
AcDbEntity
  8
1
  6
Continuous
100
AcDbCircle
 10
103.227066
 20
51.745008
 30
0.0
 40
0.088
100
AcDbArc
 50
0.0
 51
180.0
  0
LINE
  5
B658
330
B4F0
100
AcDbEntity
  8
1
  6
Continuous
100
AcDbLine
 10
103.9059479999999
 20
45.635758
 30
0.0
 11
104.111765
 21
48.683008
 31
0.0
  0
LINE
  5
B659
330
B4F0
100
AcDbEntity
  8
1
  6
Continuous
100
AcDbLine
 10
103.700448
 20
45.635758
 30
0.0
 11
103.9062649999999
 21
51.730258
 31
0.0
  0
ARC
  5
B65A
330
B4F0
100
AcDbEntity
  8
1
  6
Continuous
100
AcDbCircle
 10
104.009015
 20
51.730258
 30
0.0
 40
0.10275
100
AcDbArc
 50
0.0
 51
180.0
  0
ARC
  5
B65B
330
B4F0
100
AcDbEntity
  8
1
  6
Continuous
100
AcDbCircle
 10
103.8031979999999
 20
45.635758
 30
0.0
 40
0.10275
100
AcDbArc
 50
180.0
 51
0.0
  0
LINE
  5
B65C
330
B4F0
100
AcDbEntity
  8
1
  6
Continuous
100
AcDbLine
 10
105.032638
 20
48.683008
 30
0.0
 11
104.79581
 21
45.651508
 31
0.0
  0
LINE
  5
B65D
330
B4F0
100
AcDbEntity
  8
1
  6
Continuous
100
AcDbLine
 10
104.5591709999999
 20
45.66075099999999
 30
0.0
 11
104.795638
 21
51.714508
 31
0.0
  0
ARC
  5
B65E
330
B4F0
100
AcDbEntity
  8
1
  6
Continuous
100
AcDbCircle
 10
104.914138
 20
51.714508
 30
0.0
 40
0.1185
100
AcDbArc
 50
0.0
 51
180.0
  0
ARC
  5
B65F
330
B4F0
100
AcDbEntity
  8
1
  6
Continuous
100
AcDbCircle
 10
104.67731
 20
45.651508
 30
0.0
 40
0.1185
100
AcDbArc
 50
175.526194
 51
0.0
  0
LINE
  5
B660
330
B4F0
100
AcDbEntity
  8
1
  6
Continuous
100
AcDbLine
 10
102.073213
 20
48.683008
 30
0.0
 11
102.073213
 21
51.803258
 31
0.0
  0
LINE
  5
B661
330
B4F0
100
AcDbEntity
  8
1
  6
Continuous
100
AcDbLine
 10
102.637028
 20
48.683008
 30
0.0
 11
102.637028
 21
51.770758
 31
0.0
  0
LINE
  5
B662
330
B4F0
100
AcDbEntity
  8
1
  6
Continuous
100
AcDbLine
 10
103.3150659999999
 20
48.683008
 30
0.0
 11
103.3150659999999
 21
51.745008
 31
0.0
  0
LINE
  5
B663
330
B4F0
100
AcDbEntity
  8
1
  6
Continuous
100
AcDbLine
 10
104.111765
 20
48.683008
 30
0.0
 11
104.111765
 21
51.730258
 31
0.0
  0
LINE
  5
B664
330
B4F0
100
AcDbEntity
  8
1
  6
Continuous
100
AcDbLine
 10
105.032638
 20
48.683008
 30
0.0
 11
105.032638
 21
51.714508
 31
0.0
  0
LINE
  5
B665
330
B4F0
100
AcDbEntity
  8
1
  6
Continuous
100
AcDbLine
 10
108.241834
 20
45.663124
 30
0.0
 11
108.626412
 21
51.57862399999999
 31
0.0
  0
ARC
  5
B666
330
B4F0
100
AcDbEntity
  8
1
  6
Continuous
100
AcDbCircle
 10
108.434084
 20
45.663124
 30
0.0
 40
0.19225
100
AcDbArc
 50
180.0
 51
0.0
  0
LINE
  5
B667
330
B4F0
100
AcDbEntity
  8
1
  6
Continuous
100
AcDbLine
 10
108.626334
 20
45.663124
 30
0.0
 11
109.010912
 21
48.620874
 31
0.0
  0
LINE
  5
B668
330
B4F0
100
AcDbEntity
  8
1
  6
Continuous
100
AcDbLine
 10
110.263953
 20
45.686124
 30
0.0
 11
110.691672
 21
48.620874
 31
0.0
  0
LINE
  5
B669
330
B4F0
100
AcDbEntity
  8
1
  6
Continuous
100
AcDbLine
 10
109.010912
 20
51.57862399999999
 30
0.0
 11
109.010912
 21
48.620874
 31
0.0
  0
LINE
  5
B66A
330
B4F0
100
AcDbEntity
  8
1
  6
Continuous
100
AcDbLine
 10
110.691672
 20
51.524253
 30
0.0
 11
110.691672
 21
48.620874
 31
0.0
  0
LINE
  5
B66B
330
B4F0
100
AcDbEntity
  8
1
  6
Continuous
100
AcDbLine
 10
109.833453
 20
45.686124
 30
0.0
 11
110.26347
 21
51.555624
 31
0.0
  0
ARC
  5
B66C
330
B4F0
100
AcDbEntity
  8
1
  6
Continuous
100
AcDbCircle
 10
108.818662
 20
51.57862399999999
 30
0.0
 40
0.19225
100
AcDbArc
 50
0.0
 51
180.0
  0
ARC
  5
B66D
330
B4F0
100
AcDbEntity
  8
1
  6
Continuous
100
AcDbCircle
 10
110.47872
 20
51.555624
 30
0.0
 40
0.21525
100
AcDbArc
 50
351.619662
 51
180.0
  0
ARC
  5
B66E
330
B4F0
100
AcDbEntity
  8
1
  6
Continuous
100
AcDbCircle
 10
110.048703
 20
45.686124
 30
0.0
 40
0.21525
100
AcDbArc
 50
180.0
 51
0.0
  0
LINE
  5
B66F
330
B4F0
100
AcDbEntity
  8
1
  6
Continuous
100
AcDbLine
 10
105.8606769999999
 20
45.62337399999999
 30
0.0
 11
106.166054
 21
48.620874
 31
0.0
  0
LINE
  5
B670
330
B4F0
100
AcDbEntity
  8
1
  6
Continuous
100
AcDbLine
 10
105.5564659999999
 20
45.63887
 30
0.0
 11
105.861054
 21
51.61837399999999
 31
0.0
  0
ARC
  5
B671
330
B4F0
100
AcDbEntity
  8
1
  6
Continuous
100
AcDbCircle
 10
105.708177
 20
45.62337399999999
 30
0.0
 40
0.1525
100
AcDbArc
 50
174.1678959999999
 51
0.0
  0
ARC
  5
B672
330
B4F0
100
AcDbEntity
  8
1
  6
Continuous
100
AcDbCircle
 10
106.013554
 20
51.61837399999999
 30
0.0
 40
0.1525
100
AcDbArc
 50
0.0
 51
180.0
  0
LINE
  5
B673
330
B4F0
100
AcDbEntity
  8
1
  6
Continuous
100
AcDbLine
 10
107.1637759999999
 20
45.64237399999998
 30
0.0
 11
107.507086
 21
48.620874
 31
0.0
  0
LINE
  5
B674
330
B4F0
100
AcDbEntity
  8
1
  6
Continuous
100
AcDbLine
 10
106.821912
 20
45.662076
 30
0.0
 11
107.164086
 21
51.599374
 31
0.0
  0
ARC
  5
B675
330
B4F0
100
AcDbEntity
  8
1
  6
Continuous
100
AcDbCircle
 10
106.992276
 20
45.64237399999998
 30
0.0
 40
0.1715
100
AcDbArc
 50
173.403222
 51
0.0
  0
ARC
  5
B676
330
B4F0
100
AcDbEntity
  8
1
  6
Continuous
100
AcDbCircle
 10
107.335586
 20
51.599374
 30
0.0
 40
0.1715
100
AcDbArc
 50
0.0
 51
180.0
  0
LINE
  5
B677
330
B4F0
100
AcDbEntity
  8
1
  6
Continuous
100
AcDbLine
 10
106.166054
 20
48.620874
 30
0.0
 11
106.166054
 21
51.61837399999999
 31
0.0
  0
LINE
  5
B678
330
B4F0
100
AcDbEntity
  8
1
  6
Continuous
100
AcDbLine
 10
107.507086
 20
48.620874
 30
0.0
 11
107.507086
 21
51.599374
 31
0.0
  0
LINE
  5
B679
330
B4F0
100
AcDbEntity
  8
1
  6
Continuous
100
AcDbLine
 10
208.345952
 20
135.4633709999999
 30
0.0
 11
209.982893
 21
134.481207
 31
0.0
  0
LINE
  5
B67A
330
B4F0
100
AcDbEntity
  8
1
  6
Continuous
100
AcDbLine
 10
210.7550509999999
 20
134.3724649999997
 30
0.0
 11
214.588289
 21
135.394661
 31
0.0
  0
LINE
  5
B67B
330
B4F0
100
AcDbEntity
  8
1
  6
Continuous
100
AcDbLine
 10
215.1036139999999
 20
135.394661
 30
0.0
 11
218.9368519999999
 21
134.3724649999997
 31
0.0
  0
LINE
  5
B67C
330
B4F0
100
AcDbEntity
  8
1
  6
Continuous
100
AcDbLine
 10
219.70901
 20
134.481207
 30
0.0
 11
221.345952
 21
135.4633709999999
 31
0.0
  0
LINE
  5
B67D
330
B4F0
100
AcDbEntity
  8
1
  6
Continuous
100
AcDbLine
 10
221.345952
 20
134.98326
 30
0.0
 11
219.70901
 21
134.0010949999999
 31
0.0
  0
LINE
  5
B67E
330
B4F0
100
AcDbEntity
  8
1
  6
Continuous
100
AcDbLine
 10
218.9368519999999
 20
133.892353
 30
0.0
 11
215.1036139999999
 21
134.9145499999999
 31
0.0
  0
LINE
  5
B67F
330
B4F0
100
AcDbEntity
  8
1
  6
Continuous
100
AcDbLine
 10
214.588289
 20
134.9145499999999
 30
0.0
 11
210.7550509999999
 21
133.892353
 31
0.0
  0
LINE
  5
B680
330
B4F0
100
AcDbEntity
  8
1
  6
Continuous
100
AcDbLine
 10
209.982893
 20
134.0010949999999
 30
0.0
 11
208.345952
 21
134.98326
 31
0.0
  0
ARC
  5
B681
330
B4F0
100
AcDbEntity
  8
1
  6
Continuous
100
AcDbCircle
 10
219.194515
 20
134.8585879999999
 30
0.0
 40
1.0
100
AcDbArc
 50
255.0685829999999
 51
300.9637569999998
  0
ARC
  5
B682
330
B4F0
100
AcDbEntity
  8
1
  6
Continuous
100
AcDbCircle
 10
210.497389
 20
134.8585879999999
 30
0.0
 40
1.0
100
AcDbArc
 50
239.036243
 51
284.9314169999999
  0
ARC
  5
B683
330
B4F0
100
AcDbEntity
  8
1
  6
Continuous
100
AcDbCircle
 10
210.497389
 20
135.3386999999999
 30
0.0
 40
1.0
100
AcDbArc
 50
239.036243
 51
284.9314169999999
  0
ARC
  5
B684
330
B4F0
100
AcDbEntity
  8
1
  6
Continuous
100
AcDbCircle
 10
214.845952
 20
134.428426
 30
0.0
 40
1.0
100
AcDbArc
 50
75.06858299999997
 51
104.9314169999999
  0
ARC
  5
B685
330
B4F0
100
AcDbEntity
  8
1
  6
Continuous
100
AcDbCircle
 10
214.845952
 20
133.9483149999997
 30
0.0
 40
1.0
100
AcDbArc
 50
75.06858299999997
 51
104.9314169999999
  0
ARC
  5
B686
330
B4F0
100
AcDbEntity
  8
1
  6
Continuous
100
AcDbCircle
 10
219.194515
 20
135.3386999999999
 30
0.0
 40
1.0
100
AcDbArc
 50
255.0685829999999
 51
300.9637569999998
  0
LINE
  5
B687
330
B4F0
100
AcDbEntity
  8
1
  6
Continuous
100
AcDbLine
 10
217.878403
 20
136.4613679999999
 30
0.0
 11
214.943653
 21
136.8890869999999
 31
0.0
  0
LINE
  5
B688
330
B4F0
100
AcDbEntity
  8
1
  6
Continuous
100
AcDbLine
 10
212.040274
 20
136.8890869999999
 30
0.0
 11
214.943653
 21
136.8890869999999
 31
0.0
  0
LINE
  5
B689
330
B4F0
100
AcDbEntity
  8
1
  6
Continuous
100
AcDbLine
 10
217.878403
 20
136.0308679999999
 30
0.0
 11
212.0089029999999
 21
136.4608849999999
 31
0.0
  0
ARC
  5
B68A
330
B4F0
100
AcDbEntity
  8
1
  6
Continuous
100
AcDbCircle
 10
212.0089029999999
 20
136.6761349999999
 30
0.0
 40
0.21525
100
AcDbArc
 50
81.619662
 51
270.0
  0
ARC
  5
B68B
330
B4F0
100
AcDbEntity
  8
1
  6
Continuous
100
AcDbCircle
 10
217.878403
 20
136.2461179999999
 30
0.0
 40
0.21525
100
AcDbArc
 50
270.0
 51
90.0
  0
LINE
  5
B68C
330
B4F0
100
AcDbEntity
  8
1
  6
Continuous
100
AcDbLine
 10
217.9653919999998
 20
137.442752
 30
0.0
 11
212.049892
 21
137.8273299999999
 31
0.0
  0
ARC
  5
B68D
330
B4F0
100
AcDbEntity
  8
1
  6
Continuous
100
AcDbCircle
 10
217.9653919999998
 20
137.6350019999999
 30
0.0
 40
0.19225
100
AcDbArc
 50
270.0
 51
90.0
  0
LINE
  5
B68E
330
B4F0
100
AcDbEntity
  8
1
  6
Continuous
100
AcDbLine
 10
217.9653919999998
 20
137.8272519999999
 30
0.0
 11
215.0076419999999
 21
138.2118299999999
 31
0.0
  0
LINE
  5
B68F
330
B4F0
100
AcDbEntity
  8
1
  6
Continuous
100
AcDbLine
 10
212.049892
 20
138.2118299999999
 30
0.0
 11
215.0076419999999
 21
138.2118299999999
 31
0.0
  0
ARC
  5
B690
330
B4F0
100
AcDbEntity
  8
1
  6
Continuous
100
AcDbCircle
 10
212.049892
 20
138.0195799999999
 30
0.0
 40
0.19225
100
AcDbArc
 50
90.0
 51
270.0
  0
LINE
  5
B691
330
B4F0
100
AcDbEntity
  8
1
  6
Continuous
100
AcDbLine
 10
217.942398
 20
139.1453479999998
 30
0.0
 11
215.007648
 21
139.5730669999998
 31
0.0
  0
LINE
  5
B692
330
B4F0
100
AcDbEntity
  8
1
  6
Continuous
100
AcDbLine
 10
212.1042689999999
 20
139.5730669999998
 30
0.0
 11
215.007648
 21
139.5730669999998
 31
0.0
  0
LINE
  5
B693
330
B4F0
100
AcDbEntity
  8
1
  6
Continuous
100
AcDbLine
 10
217.942398
 20
138.714848
 30
0.0
 11
212.0728979999999
 21
139.1448649999998
 31
0.0
  0
ARC
  5
B694
330
B4F0
100
AcDbEntity
  8
1
  6
Continuous
100
AcDbCircle
 10
212.0728979999999
 20
139.3601149999998
 30
0.0
 40
0.21525
100
AcDbArc
 50
81.619662
 51
270.0
  0
ARC
  5
B695
330
B4F0
100
AcDbEntity
  8
1
  6
Continuous
100
AcDbCircle
 10
217.942398
 20
138.9300979999999
 30
0.0
 40
0.21525
100
AcDbArc
 50
270.0
 51
90.0
  0
LINE
  5
B696
330
B4F0
100
AcDbEntity
  8
1
  6
Continuous
100
AcDbLine
 10
217.8054219999999
 20
140.0947789999999
 30
0.0
 11
211.889922
 21
140.479357
 31
0.0
  0
ARC
  5
B697
330
B4F0
100
AcDbEntity
  8
1
  6
Continuous
100
AcDbCircle
 10
217.8054219999999
 20
140.2870289999999
 30
0.0
 40
0.19225
100
AcDbArc
 50
270.0
 51
90.0
  0
LINE
  5
B698
330
B4F0
100
AcDbEntity
  8
1
  6
Continuous
100
AcDbLine
 10
217.8054219999999
 20
140.4792789999999
 30
0.0
 11
214.847672
 21
140.8638569999999
 31
0.0
  0
LINE
  5
B699
330
B4F0
100
AcDbEntity
  8
1
  6
Continuous
100
AcDbLine
 10
211.889922
 20
140.8638569999999
 30
0.0
 11
214.847672
 21
140.8638569999999
 31
0.0
  0
ARC
  5
B69A
330
B4F0
100
AcDbEntity
  8
1
  6
Continuous
100
AcDbCircle
 10
211.889922
 20
140.6716069999999
 30
0.0
 40
0.19225
100
AcDbArc
 50
90.0
 51
270.0
  0
LINE
  5
B69B
330
B4F0
100
AcDbEntity
  8
1
  6
Continuous
100
AcDbLine
 10
217.837408
 20
141.245053
 30
0.0
 11
216.8364829999999
 21
141.3101249999999
 31
0.0
  0
ARC
  5
B69C
330
B4F0
100
AcDbEntity
  8
1
  6
Continuous
100
AcDbCircle
 10
217.837408
 20
141.437303
 30
0.0
 40
0.19225
100
AcDbArc
 50
270.0
 51
90.0
  0
LINE
  5
B69D
330
B4F0
100
AcDbEntity
  8
1
  6
Continuous
100
AcDbLine
 10
217.837408
 20
141.629553
 30
0.0
 11
217.5484319999999
 21
141.6671269999999
 31
0.0
  0
ARC
  5
B69E
330
B4F0
100
AcDbEntity
  8
1
  6
Continuous
100
AcDbCircle
 10
211.921908
 20
141.8218809999999
 30
0.0
 40
0.19225
100
AcDbArc
 50
148.5031669999998
 51
270.0
  0
LINE
  5
B69F
330
B4F0
100
AcDbEntity
  8
1
  6
Continuous
100
AcDbLine
 10
212.2431769999999
 20
141.608745
 30
0.0
 11
211.921908
 21
141.6296309999999
 31
0.0
  0
LINE
  5
B6A0
330
B4F0
100
AcDbEntity
  8
1
  6
Continuous
100
AcDbLine
 10
142.0734349999999
 20
206.6680999999999
 30
0.0
 11
142.914656
 21
204.985658
 31
0.0
  0
LINE
  5
B6A1
330
B4F0
100
AcDbEntity
  8
1
  6
Continuous
100
AcDbLine
 10
142.9964159999999
 20
204.321514
 30
0.0
 11
142.1216419999998
 21
200.3850299999998
 31
0.0
  0
LINE
  5
B6A2
330
B4F0
100
AcDbEntity
  8
1
  6
Continuous
100
AcDbLine
 10
142.1216419999998
 20
199.95117
 30
0.0
 11
142.9964159999999
 21
196.014686
 31
0.0
  0
LINE
  5
B6A3
330
B4F0
100
AcDbEntity
  8
1
  6
Continuous
100
AcDbLine
 10
142.914656
 20
195.3505419999999
 30
0.0
 11
142.0734349999999
 21
193.6681
 31
0.0
  0
ARC
  5
B6A4
330
B4F0
100
AcDbEntity
  8
1
  6
Continuous
100
AcDbCircle
 10
142.0202289999998
 20
204.5384439999998
 30
0.0
 40
1.0
100
AcDbArc
 50
347.4711919999998
 51
26.565051
  0
ARC
  5
B6A5
330
B4F0
100
AcDbEntity
  8
1
  6
Continuous
100
AcDbCircle
 10
142.0202289999998
 20
195.7977559999999
 30
0.0
 40
1.0
100
AcDbArc
 50
333.434949
 51
12.52880799999999
  0
ARC
  5
B6A6
330
B4F0
100
AcDbEntity
  8
1
  6
Continuous
100
AcDbCircle
 10
111.083766
 20
200.1881019999999
 30
0.0
 40
1.5
100
AcDbArc
 50
168.1113419999998
 51
180.0
  0
ARC
  5
B6A7
330
B4F0
100
AcDbEntity
  8
1
  6
Continuous
100
AcDbCircle
 10
110.4837659999999
 20
203.194285
 30
0.0
 40
0.3
100
AcDbArc
 50
347.9819879999998
 51
180.0
  0
LINE
  5
B6A8
330
B4F0
100
AcDbEntity
  8
1
  6
Continuous
100
AcDbLine
 10
110.1837659999999
 20
203.194285
 30
0.0
 11
109.615941
 21
200.497117
 31
0.0
  0
LINE
  5
B6A9
330
B4F0
100
AcDbEntity
  8
1
  6
Continuous
100
AcDbLine
 10
112.5837659999999
 20
203.194285
 30
0.0
 11
112.578253
 21
203.1681
 31
0.0
  0
ARC
  5
B6AA
330
B4F0
100
AcDbEntity
  8
1
  6
Continuous
100
AcDbCircle
 10
112.883766
 20
203.194285
 30
0.0
 40
0.3
100
AcDbArc
 50
354.992597
 51
180.0
  0
ARC
  5
B6AB
330
B4F0
100
AcDbEntity
  8
1
  6
Continuous
100
AcDbCircle
 10
109.883766
 20
197.4942849999999
 30
0.0
 40
0.3
100
AcDbArc
 50
180.0
 51
0.0
  0
ARC
  5
B6AC
330
B4F0
100
AcDbEntity
  8
1
  6
Continuous
100
AcDbCircle
 10
112.2837659999998
 20
197.4942849999999
 30
0.0
 40
0.3
100
AcDbArc
 50
180.0
 51
303.331864
  0
LINE
  5
B6AD
330
B4F0
100
AcDbEntity
  8
1
  6
Continuous
100
AcDbLine
 10
109.5837659999999
 20
200.1881019999999
 30
0.0
 11
109.5837659999999
 21
197.4942849999999
 31
0.0
  0
LINE
  5
B6AE
330
B4F0
100
AcDbEntity
  8
1
  6
Continuous
100
AcDbLine
 10
110.7771909999998
 20
203.1318189999999
 30
0.0
 11
110.1837659999999
 21
197.4942849999999
 31
0.0
  0
LINE
  5
B6AF
330
B4F0
100
AcDbEntity
  8
1
  6
Continuous
100
AcDbLine
 10
111.9837659999999
 20
197.687352
 30
0.0
 11
111.9837659999999
 21
197.4942849999999
 31
0.0
  0
ARC
  5
B6B0
330
B4F0
100
AcDbEntity
  8
1
  6
Continuous
100
AcDbCircle
 10
114.6837659999999
 20
197.3025739999999
 30
0.0
 40
0.3
100
AcDbArc
 50
206.631292
 51
242.65286
  0
ARC
  5
B6B1
330
B4F0
100
AcDbEntity
  8
1
  6
Continuous
100
AcDbCircle
 10
109.1577199999999
 20
200.290828
 30
0.0
 40
1.5
100
AcDbArc
 50
168.1113419999998
 51
180.0
  0
LINE
  5
B6B2
330
B4F0
100
AcDbEntity
  8
1
  6
Continuous
100
AcDbLine
 10
108.25772
 20
203.2970109999999
 30
0.0
 11
107.6898949999998
 21
200.5998429999999
 31
0.0
  0
ARC
  5
B6B3
330
B4F0
100
AcDbEntity
  8
1
  6
Continuous
100
AcDbCircle
 10
108.5577199999999
 20
203.2970109999999
 30
0.0
 40
0.3
100
AcDbArc
 50
347.9819879999998
 51
180.0
  0
ARC
  5
B6B4
330
B4F0
100
AcDbEntity
  8
1
  6
Continuous
100
AcDbCircle
 10
107.9577199999999
 20
197.597011
 30
0.0
 40
0.3
100
AcDbArc
 50
180.0
 51
0.0
  0
LINE
  5
B6B5
330
B4F0
100
AcDbEntity
  8
1
  6
Continuous
100
AcDbLine
 10
107.65772
 20
200.290828
 30
0.0
 11
107.65772
 21
197.597011
 31
0.0
  0
LINE
  5
B6B6
330
B4F0
100
AcDbEntity
  8
1
  6
Continuous
100
AcDbLine
 10
108.8511449999999
 20
203.234545
 30
0.0
 11
108.25772
 21
197.597011
 31
0.0
  0
LINE
  5
B6B7
330
B4F0
100
AcDbEntity
  8
1
  6
Continuous
100
AcDbLine
 10
106.5124699999998
 20
203.390361
 30
0.0
 11
106.0847509999998
 21
200.455611
 31
0.0
  0
ARC
  5
B6B8
330
B4F0
100
AcDbEntity
  8
1
  6
Continuous
100
AcDbCircle
 10
106.7277199999999
 20
203.390361
 30
0.0
 40
0.21525
100
AcDbArc
 50
0.0
 51
180.0
  0
ARC
  5
B6B9
330
B4F0
100
AcDbEntity
  8
1
  6
Continuous
100
AcDbCircle
 10
106.297703
 20
197.5208609999999
 30
0.0
 40
0.21525
100
AcDbArc
 50
171.619662
 51
0.0
  0
LINE
  5
B6BA
330
B4F0
100
AcDbEntity
  8
1
  6
Continuous
100
AcDbLine
 10
106.0847509999998
 20
197.5522319999998
 30
0.0
 11
106.0847509999998
 21
200.455611
 31
0.0
  0
LINE
  5
B6BB
330
B4F0
100
AcDbEntity
  8
1
  6
Continuous
100
AcDbLine
 10
106.9429699999999
 20
203.390361
 30
0.0
 11
106.5129529999999
 21
197.5208609999999
 31
0.0
  0
ARC
  5
B6BC
330
B4F0
100
AcDbEntity
  8
1
  6
Continuous
100
AcDbCircle
 10
105.0147509999999
 20
203.413361
 30
0.0
 40
0.19225
100
AcDbArc
 50
0.0
 51
180.0
  0
LINE
  5
B6BD
330
B4F0
100
AcDbEntity
  8
1
  6
Continuous
100
AcDbLine
 10
104.822501
 20
203.413361
 30
0.0
 11
104.437923
 21
200.455611
 31
0.0
  0
ARC
  5
B6BE
330
B4F0
100
AcDbEntity
  8
1
  6
Continuous
100
AcDbCircle
 10
104.6301729999999
 20
197.4978609999998
 30
0.0
 40
0.19225
100
AcDbArc
 50
180.0
 51
0.0
  0
LINE
  5
B6BF
330
B4F0
100
AcDbEntity
  8
1
  6
Continuous
100
AcDbLine
 10
105.2070009999999
 20
203.413361
 30
0.0
 11
104.8224229999999
 21
197.4978609999998
 31
0.0
  0
LINE
  5
B6C0
330
B4F0
100
AcDbEntity
  8
1
  6
Continuous
100
AcDbLine
 10
104.437923
 20
197.4978609999998
 30
0.0
 11
104.437923
 21
200.455611
 31
0.0
  0
ARC
  5
B6C1
330
B4F0
100
AcDbEntity
  8
1
  6
Continuous
100
AcDbCircle
 10
103.606927
 20
203.2855539999999
 30
0.0
 40
0.19225
100
AcDbArc
 50
0.0
 51
180.0
  0
LINE
  5
B6C2
330
B4F0
100
AcDbEntity
  8
1
  6
Continuous
100
AcDbLine
 10
103.4146769999999
 20
203.2855539999999
 30
0.0
 11
103.0300989999998
 21
200.327804
 31
0.0
  0
ARC
  5
B6C3
330
B4F0
100
AcDbEntity
  8
1
  6
Continuous
100
AcDbCircle
 10
103.222349
 20
197.370054
 30
0.0
 40
0.19225
100
AcDbArc
 50
180.0
 51
0.0
  0
LINE
  5
B6C4
330
B4F0
100
AcDbEntity
  8
1
  6
Continuous
100
AcDbLine
 10
103.799177
 20
203.2855539999999
 30
0.0
 11
103.414599
 21
197.370054
 31
0.0
  0
LINE
  5
B6C5
330
B4F0
100
AcDbEntity
  8
1
  6
Continuous
100
AcDbLine
 10
103.0300989999998
 20
197.370054
 30
0.0
 11
103.0300989999998
 21
200.327804
 31
0.0
  0
ARC
  5
B6C6
330
B4F0
100
AcDbEntity
  8
1
  6
Continuous
100
AcDbCircle
 10
102.455066
 20
203.2855539999999
 30
0.0
 40
0.19225
100
AcDbArc
 50
0.0
 51
180.0
  0
LINE
  5
B6C7
330
B4F0
100
AcDbEntity
  8
1
  6
Continuous
100
AcDbLine
 10
102.262816
 20
203.2855539999999
 30
0.0
 11
101.8782379999999
 21
200.327804
 31
0.0
  0
ARC
  5
B6C8
330
B4F0
100
AcDbEntity
  8
1
  6
Continuous
100
AcDbCircle
 10
102.070488
 20
197.370054
 30
0.0
 40
0.19225
100
AcDbArc
 50
180.0
 51
0.0
  0
LINE
  5
B6C9
330
B4F0
100
AcDbEntity
  8
1
  6
Continuous
100
AcDbLine
 10
102.647316
 20
203.2855539999999
 30
0.0
 11
102.262738
 21
197.370054
 31
0.0
  0
LINE
  5
B6CA
330
B4F0
100
AcDbEntity
  8
1
  6
Continuous
100
AcDbLine
 10
101.8782379999999
 20
197.370054
 30
0.0
 11
101.8782379999999
 21
200.327804
 31
0.0
  0
LINE
  5
B6CB
330
B4F0
100
AcDbEntity
  8
1
  6
Continuous
100
AcDbLine
 10
101.282859
 20
203.5156109999999
 30
0.0
 11
100.922956
 21
200.455611
 31
0.0
  0
ARC
  5
B6CC
330
B4F0
100
AcDbEntity
  8
1
  6
Continuous
100
AcDbCircle
 10
101.3728589999999
 20
203.5156109999999
 30
0.0
 40
0.09
100
AcDbArc
 50
0.0
 51
180.0
  0
ARC
  5
B6CD
330
B4F0
100
AcDbEntity
  8
1
  6
Continuous
100
AcDbCircle
 10
101.0129559999999
 20
197.3956109999998
 30
0.0
 40
0.09
100
AcDbArc
 50
180.0
 51
0.0
  0
LINE
  5
B6CE
330
B4F0
100
AcDbEntity
  8
1
  6
Continuous
100
AcDbLine
 10
101.462859
 20
203.5156109999999
 30
0.0
 11
101.102956
 21
197.3956109999998
 31
0.0
  0
LINE
  5
B6CF
330
B4F0
100
AcDbEntity
  8
1
  6
Continuous
100
AcDbLine
 10
100.922956
 20
200.455611
 30
0.0
 11
100.922956
 21
197.3956109999998
 31
0.0
  0
ARC
  5
B6D0
330
B4F0
100
AcDbEntity
  8
1
  6
Continuous
100
AcDbCircle
 10
143.0978289999998
 20
200.1681
 30
0.0
 40
1.0
100
AcDbArc
 50
167.471192
 51
192.5288079999999
  0
ARC
  5
B6D1
330
B4F0
100
AcDbEntity
  8
1
  6
Continuous
100
AcDbCircle
 10
115.680848
 20
113.833644
 30
0.0
 40
32.42452099999999
100
AcDbArc
 50
57.29631099999998
 51
65.196151
  0
ARC
  5
B6D2
330
B4F0
100
AcDbEntity
  8
1
  6
Continuous
100
AcDbCircle
 10
125.6281489999998
 20
119.6732059999999
 30
0.0
 40
22.74227199999999
100
AcDbArc
 50
39.90704
 51
70.55354300000002
  0
ARC
  5
B6D3
330
B4F0
100
AcDbEntity
  8
1
  6
Continuous
100
AcDbCircle
 10
115.680848
 20
113.833644
 30
0.0
 40
31.624521
100
AcDbArc
 50
57.33710000000001
 51
64.66656
  0
ARC
  5
B6D4
330
B4F0
100
AcDbEntity
  8
1
  6
Continuous
100
AcDbCircle
 10
125.6281489999998
 20
119.6732059999999
 30
0.0
 40
21.94227199999999
100
AcDbArc
 50
39.962209
 51
70.495463
  0
ARC
  5
B6D5
330
B4F0
100
AcDbEntity
  8
1
  6
Continuous
100
AcDbCircle
 10
125.6281489999998
 20
119.6732059999999
 30
0.0
 40
21.14227199999999
100
AcDbArc
 50
40.02149199999997
 51
70.495463
  0
ARC
  5
B6D6
330
B4F0
100
AcDbEntity
  8
1
  6
Continuous
100
AcDbCircle
 10
115.680848
 20
113.833644
 30
0.0
 40
30.824521
100
AcDbArc
 50
57.33710000000001
 51
64.107488
  0
ARC
  5
B6D7
330
B4F0
100
AcDbEntity
  8
1
  6
Continuous
100
AcDbCircle
 10
133.288149
 20
141.298937
 30
0.0
 40
1.0
100
AcDbArc
 50
237.3370999999999
 51
250.4954629999998
  0
ARC
  5
B6D8
330
B4F0
100
AcDbEntity
  8
1
  6
Continuous
100
AcDbCircle
 10
133.288149
 20
141.298937
 30
0.0
 40
1.8
100
AcDbArc
 50
237.3370999999999
 51
250.4954629999998
  0
ARC
  5
B6D9
330
B4F0
100
AcDbEntity
  8
5
  6
PHANTOM
100
AcDbCircle
 10
115.693171
 20
113.981518
 30
0.0
 40
30.824521
100
AcDbArc
 50
56.41010699999998
 51
64.107488
  0
ARC
  5
B6DA
330
B4F0
100
AcDbEntity
  8
5
  6
PHANTOM
100
AcDbCircle
 10
115.689784
 20
113.940876
 30
0.0
 40
31.624521
100
AcDbArc
 50
56.88871999999999
 51
64.66656
  0
ARC
  5
B6DB
330
B4F0
100
AcDbEntity
  8
5
  6
PHANTOM
100
AcDbCircle
 10
115.6865469999999
 20
113.9020279999999
 30
0.0
 40
32.42452099999999
100
AcDbArc
 50
57.29631099999998
 51
65.196151
  0
ARC
  5
B6DC
330
B4F0
100
AcDbEntity
  8
5
  6
PHANTOM
100
AcDbCircle
 10
125.1951629999998
 20
123.3707829999999
 30
0.0
 40
19.53461499999999
100
AcDbArc
 50
40.233267
 51
65.810333
  0
ARC
  5
B6DD
330
B4F0
100
AcDbEntity
  8
5
  6
PHANTOM
100
AcDbCircle
 10
125.1951629999998
 20
123.3707829999999
 30
0.0
 40
18.73461499999999
100
AcDbArc
 50
40.233267
 51
65.07651599999999
  0
ARC
  5
B6DE
330
B4F0
100
AcDbEntity
  8
5
  6
PHANTOM
100
AcDbCircle
 10
125.1951629999998
 20
123.3707829999999
 30
0.0
 40
17.934615
100
AcDbArc
 50
40.233267
 51
64.334622
  0
ARC
  5
B6DF
330
B4F0
100
AcDbEntity
  8
5
  6
PHANTOM
100
AcDbCircle
 10
133.742512
 20
141.158359
 30
0.0
 40
1.8
100
AcDbArc
 50
236.410107
 51
244.334622
  0
ARC
  5
B6E0
330
B4F0
100
AcDbEntity
  8
5
  6
PHANTOM
100
AcDbCircle
 10
133.511479
 20
141.2675399999999
 30
0.0
 40
1.0
100
AcDbArc
 50
236.88872
 51
245.076516
  0
LINE
  5
B6E1
330
B4F0
100
AcDbEntity
  8
1
  6
Continuous
100
AcDbLine
 10
210.845952
 20
143.858737
 30
0.0
 11
214.845952
 21
141.549336
 31
0.0
  0
LINE
  5
B6E2
330
B4F0
100
AcDbEntity
  8
1
  6
Continuous
100
AcDbLine
 10
214.845952
 20
141.549336
 30
0.0
 11
218.845952
 21
143.858737
 31
0.0
  0
LINE
  5
B6E3
330
B4F0
100
AcDbEntity
  8
1
  6
Continuous
100
AcDbLine
 10
218.845952
 20
143.858737
 30
0.0
 11
218.845952
 21
148.4775389999998
 31
0.0
  0
LINE
  5
B6E4
330
B4F0
100
AcDbEntity
  8
1
  6
Continuous
100
AcDbLine
 10
218.845952
 20
148.4775389999998
 30
0.0
 11
214.845952
 21
150.7869399999998
 31
0.0
  0
LINE
  5
B6E5
330
B4F0
100
AcDbEntity
  8
1
  6
Continuous
100
AcDbLine
 10
214.845952
 20
150.7869399999998
 30
0.0
 11
210.845952
 21
148.4775389999998
 31
0.0
  0
LINE
  5
B6E6
330
B4F0
100
AcDbEntity
  8
1
  6
Continuous
100
AcDbLine
 10
210.845952
 20
148.4775389999998
 30
0.0
 11
210.845952
 21
143.858737
 31
0.0
  0
ENDSEC
  0
SECTION
  2
OBJECTS
  0
DICTIONARY
  5
B4DE
330
0
100
AcDbDictionary
281
     1
  3
ACAD_CIP_PREVIOUS_PRODUCT_INFO
350
B746
  3
ACAD_COLOR
350
B728
  3
ACAD_DETAILVIEWSTYLE
350
B741
  3
ACAD_GROUP
350
B4DF
  3
ACAD_LAYOUT
350
B4EB
  3
ACAD_MATERIAL
350
B6F6
  3
ACAD_MLEADERSTYLE
350
B73D
  3
ACAD_MLINESTYLE
350
B4E8
  3
ACAD_PLOTSETTINGS
350
B4EA
  3
ACAD_PLOTSTYLENAME
350
B6F4
  3
ACAD_SCALELIST
350
B72B
  3
ACAD_SECTIONVIEWSTYLE
350
B73F
  3
ACAD_TABLESTYLE
350
B729
  3
ACAD_VISUALSTYLE
350
B70F
  3
ACDB_RECOMPOSE_DATA
350
B764
  3
AcDbVariableDictionary
350
B757
  3
DWGPROPS
350
B765
  0
DICTIONARY
  5
B747
330
B4E2
100
AcDbDictionary
280
     1
281
     1
  3
ADSK_XREC_LAYER_RECONCILED
360
B748
  0
DICTIONARY
  5
B749
330
B4F8
100
AcDbDictionary
280
     1
281
     1
  3
ADSK_XREC_LAYER_RECONCILED
360
B74A
  0
DICTIONARY
  5
B74B
330
B4F9
100
AcDbDictionary
280
     1
281
     1
  3
ADSK_XREC_LAYER_RECONCILED
360
B74C
  0
DICTIONARY
  5
B74D
330
B4FA
100
AcDbDictionary
280
     1
281
     1
  3
ADSK_XREC_LAYER_RECONCILED
360
B74E
  0
DICTIONARY
  5
B74F
330
B4FB
100
AcDbDictionary
280
     1
281
     1
  3
ADSK_XREC_LAYER_RECONCILED
360
B750
  0
DICTIONARY
  5
B751
330
B4FC
100
AcDbDictionary
280
     1
281
     1
  3
ADSK_XREC_LAYER_RECONCILED
360
B752
  0
DICTIONARY
  5
B753
330
B4FD
100
AcDbDictionary
280
     1
281
     1
  3
ADSK_XREC_LAYER_RECONCILED
360
B754
  0
DICTIONARY
  5
B755
330
B4FE
100
AcDbDictionary
280
     1
281
     1
  3
ADSK_XREC_LAYER_RECONCILED
360
B756
  0
DICTIONARY
  5
B6EF
330
B4F0
100
AcDbDictionary
281
     1
  3
ACAD_LAYOUTSELFREF
350
B6F0
  0
DICTIONARY
  5
B6ED
330
B4EC
100
AcDbDictionary
281
     1
  3
ACAD_LAYOUTSELFREF
350
B6EE
  0
XRECORD
  5
B746
102
{ACAD_REACTORS
330
B4DE
102
}
330
B4DE
100
AcDbXrecord
280
     1
300
ACDLT
300
2014
300
ACDLT_F_S
  0
DICTIONARY
  5
B728
102
{ACAD_REACTORS
330
B4DE
102
}
330
B4DE
100
AcDbDictionary
281
     1
  0
DICTIONARY
  5
B741
102
{ACAD_REACTORS
330
B4DE
102
}
330
B4DE
100
AcDbDictionary
281
     1
  3
Imperial24
350
B742
  0
DICTIONARY
  5
B4DF
102
{ACAD_REACTORS
330
B4DE
102
}
330
B4DE
100
AcDbDictionary
281
     1
  0
DICTIONARY
  5
B4EB
102
{ACAD_REACTORS
330
B4DE
102
}
330
B4DE
100
AcDbDictionary
281
     1
  3
Model
350
B743
  3
レイアウト1
350
B744
  0
DICTIONARY
  5
B6F6
102
{ACAD_REACTORS
330
B4DE
102
}
330
B4DE
100
AcDbDictionary
281
     1
  3
ByBlock
350
B6FF
  3
ByLayer
350
B6F7
  3
Global
350
B707
  0
DICTIONARY
  5
B73D
102
{ACAD_REACTORS
330
B4DE
102
}
330
B4DE
100
AcDbDictionary
281
     1
  3
Standard
350
B73E
  0
DICTIONARY
  5
B4E8
102
{ACAD_REACTORS
330
B4DE
102
}
330
B4DE
100
AcDbDictionary
281
     1
  3
STANDARD
350
B4E9
  0
DICTIONARY
  5
B4EA
102
{ACAD_REACTORS
330
B4DE
102
}
330
B4DE
100
AcDbDictionary
281
     1
  0
ACDBDICTIONARYWDFLT
  5
B6F4
102
{ACAD_REACTORS
330
B4DE
102
}
330
B4DE
100
AcDbDictionary
281
     1
  3
Normal
350
B6F5
100
AcDbDictionaryWithDefault
340
B6F5
  0
DICTIONARY
  5
B72B
102
{ACAD_REACTORS
330
B4DE
102
}
330
B4DE
100
AcDbDictionary
281
     1
  3
A0
350
B72C
  3
A1
350
B72D
  3
A2
350
B72E
  3
A3
350
B72F
  3
A4
350
B730
  3
A5
350
B731
  3
A6
350
B732
  3
A7
350
B733
  3
A8
350
B734
  3
A9
350
B735
  3
B0
350
B736
  3
B1
350
B737
  3
B2
350
B738
  3
B3
350
B739
  3
B4
350
B73A
  3
B5
350
B73B
  3
B6
350
B73C
  0
DICTIONARY
  5
B73F
102
{ACAD_REACTORS
330
B4DE
102
}
330
B4DE
100
AcDbDictionary
281
     1
  3
Imperial24
350
B740
  0
DICTIONARY
  5
B729
102
{ACAD_REACTORS
330
B4DE
102
}
330
B4DE
100
AcDbDictionary
281
     1
  3
Standard
350
B72A
  0
DICTIONARY
  5
B70F
102
{ACAD_REACTORS
330
B4DE
102
}
330
B4DE
100
AcDbDictionary
281
     1
  3
2dWireframe
350
B715
  3
Basic
350
B714
  3
Brighten
350
B71B
  3
ColorChange
350
B71F
  3
Conceptual
350
B718
  3
Dim
350
B71A
  3
EdgeColorOff
350
B727
  3
Facepattern
350
B71E
  3
Flat
350
B710
  3
FlatWithEdges
350
B711
  3
Gouraud
350
B712
  3
GouraudWithEdges
350
B713
  3
Hidden
350
B717
  3
JitterOff
350
B725
  3
Linepattern
350
B71D
  3
OverhangOff
350
B726
  3
Realistic
350
B719
  3
Shaded
350
B724
  3
Shaded with edges
350
B723
  3
Shades of Gray
350
B720
  3
Sketchy
350
B721
  3
Thicken
350
B71C
  3
Wireframe
350
B716
  3
X-Ray
350
B722
  0
XRECORD
  5
B764
102
{ACAD_REACTORS
330
B4DE
102
}
330
B4DE
100
AcDbXrecord
280
     1
 90
        1
330
B72A
  0
DICTIONARY
  5
B757
102
{ACAD_REACTORS
330
B4DE
102
}
330
B4DE
100
AcDbDictionary
281
     1
  3
CANNOSCALE
350
B75C
  3
CMLEADERSTYLE
350
B759
  3
CTABLESTYLE
350
B758
  3
CVIEWDETAILSTYLE
350
B75A
  3
CVIEWSECTIONSTYLE
350
B75B
  3
DIMASSOC
350
B75F
  3
INDEXCTL
350
B75E
  3
SORTENTS
350
B75D
  3
XCLIPFRAME
350
B760
  0
XRECORD
  5
B765
102
{ACAD_REACTORS
330
B4DE
102
}
330
B4DE
100
AcDbXrecord
280
     1
  1
DWGPROPS COOKIE
  2

  3

  4

  6

  7

  8
Yoshitsune
  9

300
=
301
=
302
=
303
=
304
=
305
=
306
=
307
=
308
=
309
=
 40
0.0000100231481481
 41
2451296.794569676
 42
2457192.658272257
  1

 90
        0
  0
XRECORD
  5
B748
102
{ACAD_REACTORS
330
B747
102
}
330
B747
100
AcDbXrecord
280
     1
290
     1
  0
XRECORD
  5
B74A
102
{ACAD_REACTORS
330
B749
102
}
330
B749
100
AcDbXrecord
280
     1
290
     1
  0
XRECORD
  5
B74C
102
{ACAD_REACTORS
330
B74B
102
}
330
B74B
100
AcDbXrecord
280
     1
290
     1
  0
XRECORD
  5
B74E
102
{ACAD_REACTORS
330
B74D
102
}
330
B74D
100
AcDbXrecord
280
     1
290
     1
  0
XRECORD
  5
B750
102
{ACAD_REACTORS
330
B74F
102
}
330
B74F
100
AcDbXrecord
280
     1
290
     1
  0
XRECORD
  5
B752
102
{ACAD_REACTORS
330
B751
102
}
330
B751
100
AcDbXrecord
280
     1
290
     1
  0
XRECORD
  5
B754
102
{ACAD_REACTORS
330
B753
102
}
330
B753
100
AcDbXrecord
280
     1
290
     1
  0
XRECORD
  5
B756
102
{ACAD_REACTORS
330
B755
102
}
330
B755
100
AcDbXrecord
280
     1
290
     1
  0
XRECORD
  5
B6F0
102
{ACAD_REACTORS
330
B6EF
102
}
330
B6EF
100
AcDbXrecord
280
     1
340
B4F0
  0
XRECORD
  5
B6EE
102
{ACAD_REACTORS
330
B6ED
102
}
330
B6ED
100
AcDbXrecord
280
     1
340
B4EC
  0
ACDBDETAILVIEWSTYLE
  5
B742
102
{ACAD_XDICTIONARY
360
B79D
102
}
102
{ACAD_REACTORS
330
B741
102
}
330
B741
100
AcDbModelDocViewStyle
 70
     0
  3
Imperial24
290
     0
100
AcDbDetailViewStyle
 70
     0
 71
     0
 90
        3
 71
     1
340
B4E3
 40
0.24
340
0
 40
0.24
300

 40
0.36
280
     3
 71
     2
340
B4E7
 90
       25
 71
     3
340
B4E3
 40
0.24
 90
        1
 40
0.75
 90
        1
300
%<\AcVar ViewType \f "%tc1">% %<\AcVar ViewDetailId>%\PSCALE %<\AcVar ViewScale \f "%sn">%
 71
     4
340
B4E7
 90
       25
340
B4E7
 90
       25
280
     0
  0
LAYOUT
  5
B743
102
{ACAD_XDICTIONARY
360
B79F
102
}
102
{ACAD_REACTORS
330
B4EB
102
}
330
B4EB
100
AcDbPlotSettings
  1

  2
Canon LBP9100C
  4

  6

 40
0.0
 41
0.0
 42
0.0
 43
0.0
 44
0.0
 45
0.0
 46
0.0
 47
0.0
 48
0.0
 49
0.0
140
0.0
141
0.0
142
1.0
143
1.0
 70
  1712
 72
     0
 73
     0
 74
     0
  7

 75
     0
147
1.0
148
0.0
149
0.0
100
AcDbLayout
  1
Model
 70
     1
 71
     0
 10
0.0
 20
0.0
 11
12.0
 21
9.0
 12
0.0
 22
0.0
 32
0.0
 14
0.0
 24
0.0
 34
0.0
 15
0.0
 25
0.0
 35
0.0
146
0.0
 13
0.0
 23
0.0
 33
0.0
 16
1.0
 26
0.0
 36
0.0
 17
0.0
 27
1.0
 37
0.0
 76
     0
330
B4F0
331
B6EC
  0
LAYOUT
  5
B744
102
{ACAD_XDICTIONARY
360
B7A1
102
}
102
{ACAD_REACTORS
330
B4EB
102
}
330
B4EB
100
AcDbPlotSettings
  1

  2
Canon LBP9100C
  4

  6

 40
0.0
 41
0.0
 42
0.0
 43
0.0
 44
0.0
 45
0.0
 46
0.0
 47
0.0
 48
0.0
 49
0.0
140
0.0
141
0.0
142
1.0
143
1.0
 70
   688
 72
     0
 73
     0
 74
     5
  7

 75
    16
147
1.0
148
0.0
149
0.0
100
AcDbLayout
  1
レイアウト1
 70
     0
 71
     1
 10
0.0
 20
0.0
 11
420.0
 21
297.0
 12
0.0
 22
0.0
 32
0.0
 14
1.000000000000000E+20
 24
1.000000000000000E+20
 34
1.000000000000000E+20
 15
-1.000000000000000E+20
 25
-1.000000000000000E+20
 35
-1.000000000000000E+20
146
0.0
 13
0.0
 23
0.0
 33
0.0
 16
1.0
 26
0.0
 36
0.0
 17
0.0
 27
1.0
 37
0.0
 76
     0
330
B4EC
  0
MATERIAL
  5
B6FF
102
{ACAD_XDICTIONARY
360
B700
102
}
102
{ACAD_REACTORS
330
B6F6
102
}
330
B6F6
100
AcDbMaterial
  1
ByBlock
 72
     0
 43
0.0208333333333333
 43
0.0
 43
0.0
 43
0.0
 43
0.0
 43
0.0208333333333333
 43
0.0
 43
0.0
 43
0.0
 43
0.0
 43
1.0
 43
0.0
 43
0.0
 43
0.0
 43
0.0
 43
1.0
 77
     0
 47
0.0208333333333333
 47
0.0
 47
0.0
 47
0.0
 47
0.0
 47
0.0208333333333333
 47
0.0
 47
0.0
 47
0.0
 47
0.0
 47
1.0
 47
0.0
 47
0.0
 47
0.0
 47
0.0
 47
1.0
171
     0
 49
0.0208333333333333
 49
0.0
 49
0.0
 49
0.0
 49
0.0
 49
0.0208333333333333
 49
0.0
 49
0.0
 49
0.0
 49
0.0
 49
1.0
 49
0.0
 49
0.0
 49
0.0
 49
0.0
 49
1.0
175
     0
142
0.0208333333333333
142
0.0
142
0.0
142
0.0
142
0.0
142
0.0208333333333333
142
0.0
142
0.0
142
0.0
142
0.0
142
1.0
142
0.0
142
0.0
142
0.0
142
0.0
142
1.0
179
     0
144
0.0208333333333333
144
0.0
144
0.0
144
0.0
144
0.0
144
0.0208333333333333
144
0.0
144
0.0
144
0.0
144
0.0
144
1.0
144
0.0
144
0.0
144
0.0
144
0.0
144
1.0
147
0.0208333333333333
147
0.0
147
0.0
147
0.0
147
0.0
147
0.0208333333333333
147
0.0
147
0.0
147
0.0
147
0.0
147
1.0
147
0.0
147
0.0
147
0.0
147
0.0
147
1.0
  0
MATERIAL
  5
B6F7
102
{ACAD_XDICTIONARY
360
B6F8
102
}
102
{ACAD_REACTORS
330
B6F6
102
}
330
B6F6
100
AcDbMaterial
  1
ByLayer
 72
     0
 43
0.0208333333333333
 43
0.0
 43
0.0
 43
0.0
 43
0.0
 43
0.0208333333333333
 43
0.0
 43
0.0
 43
0.0
 43
0.0
 43
1.0
 43
0.0
 43
0.0
 43
0.0
 43
0.0
 43
1.0
 77
     0
 47
0.0208333333333333
 47
0.0
 47
0.0
 47
0.0
 47
0.0
 47
0.0208333333333333
 47
0.0
 47
0.0
 47
0.0
 47
0.0
 47
1.0
 47
0.0
 47
0.0
 47
0.0
 47
0.0
 47
1.0
171
     0
 49
0.0208333333333333
 49
0.0
 49
0.0
 49
0.0
 49
0.0
 49
0.0208333333333333
 49
0.0
 49
0.0
 49
0.0
 49
0.0
 49
1.0
 49
0.0
 49
0.0
 49
0.0
 49
0.0
 49
1.0
175
     0
142
0.0208333333333333
142
0.0
142
0.0
142
0.0
142
0.0
142
0.0208333333333333
142
0.0
142
0.0
142
0.0
142
0.0
142
1.0
142
0.0
142
0.0
142
0.0
142
0.0
142
1.0
179
     0
144
0.0208333333333333
144
0.0
144
0.0
144
0.0
144
0.0
144
0.0208333333333333
144
0.0
144
0.0
144
0.0
144
0.0
144
1.0
144
0.0
144
0.0
144
0.0
144
0.0
144
1.0
147
0.0208333333333333
147
0.0
147
0.0
147
0.0
147
0.0
147
0.0208333333333333
147
0.0
147
0.0
147
0.0
147
0.0
147
1.0
147
0.0
147
0.0
147
0.0
147
0.0
147
1.0
  0
MATERIAL
  5
B707
102
{ACAD_XDICTIONARY
360
B708
102
}
102
{ACAD_REACTORS
330
B6F6
102
}
330
B6F6
100
AcDbMaterial
  1
Global
 72
     0
 43
0.0208333333333333
 43
0.0
 43
0.0
 43
0.0
 43
0.0
 43
0.0208333333333333
 43
0.0
 43
0.0
 43
0.0
 43
0.0
 43
1.0
 43
0.0
 43
0.0
 43
0.0
 43
0.0
 43
1.0
 77
     0
 47
0.0208333333333333
 47
0.0
 47
0.0
 47
0.0
 47
0.0
 47
0.0208333333333333
 47
0.0
 47
0.0
 47
0.0
 47
0.0
 47
1.0
 47
0.0
 47
0.0
 47
0.0
 47
0.0
 47
1.0
171
     0
 49
0.0208333333333333
 49
0.0
 49
0.0
 49
0.0
 49
0.0
 49
0.0208333333333333
 49
0.0
 49
0.0
 49
0.0
 49
0.0
 49
1.0
 49
0.0
 49
0.0
 49
0.0
 49
0.0
 49
1.0
175
     0
142
0.0208333333333333
142
0.0
142
0.0
142
0.0
142
0.0
142
0.0208333333333333
142
0.0
142
0.0
142
0.0
142
0.0
142
1.0
142
0.0
142
0.0
142
0.0
142
0.0
142
1.0
179
     0
144
0.0208333333333333
144
0.0
144
0.0
144
0.0
144
0.0
144
0.0208333333333333
144
0.0
144
0.0
144
0.0
144
0.0
144
1.0
144
0.0
144
0.0
144
0.0
144
0.0
144
1.0
147
0.0208333333333333
147
0.0
147
0.0
147
0.0
147
0.0
147
0.0208333333333333
147
0.0
147
0.0
147
0.0
147
0.0
147
1.0
147
0.0
147
0.0
147
0.0
147
0.0
147
1.0
  0
MLEADERSTYLE
  5
B73E
102
{ACAD_REACTORS
330
B73D
102
}
330
B73D
100
AcDbMLeaderStyle
170
     2
171
     1
172
     0
 90
        2
 40
0.0
 41
0.0
173
     1
 91
-1056964608
340
B4E5
 92
       -2
290
     1
 42
0.09
291
     1
 43
0.36
  3
Standard
 44
0.18
300

342
B4E3
174
     1
178
     6
175
     1
176
     0
 93
-1056964608
 45
0.18
292
     0
297
     0
 46
0.18
 94
-1056964608
 47
1.0
 49
1.0
140
1.0
293
     1
141
0.0
294
     1
177
     0
142
1.0
295
     0
296
     0
143
0.125
1001
ACAD_MLEADERVER
1070
     2
  0
MLINESTYLE
  5
B4E9
102
{ACAD_REACTORS
330
B4E8
102
}
330
B4E8
100
AcDbMlineStyle
  2
STANDARD
 70
     0
  3

 62
   256
 51
90.0
 52
90.0
 71
     2
 49
0.5
 62
   256
  6
BYLAYER
 49
-0.5
 62
   256
  6
BYLAYER
  0
ACDBPLACEHOLDER
  5
B6F5
102
{ACAD_REACTORS
330
B6F4
102
}
330
B6F4
  0
SCALE
  5
B72C
102
{ACAD_REACTORS
330
B72B
102
}
330
B72B
100
AcDbScale
 70
     0
300
1:1
140
1.0
141
1.0
290
     1
  0
SCALE
  5
B72D
102
{ACAD_REACTORS
330
B72B
102
}
330
B72B
100
AcDbScale
 70
     0
300
1/128" = 1'-0"
140
0.0078125
141
12.0
290
     0
  0
SCALE
  5
B72E
102
{ACAD_REACTORS
330
B72B
102
}
330
B72B
100
AcDbScale
 70
     0
300
1/64" = 1'-0"
140
0.015625
141
12.0
290
     0
  0
SCALE
  5
B72F
102
{ACAD_REACTORS
330
B72B
102
}
330
B72B
100
AcDbScale
 70
     0
300
1/32" = 1'-0"
140
0.03125
141
12.0
290
     0
  0
SCALE
  5
B730
102
{ACAD_REACTORS
330
B72B
102
}
330
B72B
100
AcDbScale
 70
     0
300
1/16" = 1'-0"
140
0.0625
141
12.0
290
     0
  0
SCALE
  5
B731
102
{ACAD_REACTORS
330
B72B
102
}
330
B72B
100
AcDbScale
 70
     0
300
3/32" = 1'-0"
140
0.09375
141
12.0
290
     0
  0
SCALE
  5
B732
102
{ACAD_REACTORS
330
B72B
102
}
330
B72B
100
AcDbScale
 70
     0
300
1/8" = 1'-0"
140
0.125
141
12.0
290
     0
  0
SCALE
  5
B733
102
{ACAD_REACTORS
330
B72B
102
}
330
B72B
100
AcDbScale
 70
     0
300
3/16" = 1'-0"
140
0.1875
141
12.0
290
     0
  0
SCALE
  5
B734
102
{ACAD_REACTORS
330
B72B
102
}
330
B72B
100
AcDbScale
 70
     0
300
1/4" = 1'-0"
140
0.25
141
12.0
290
     0
  0
SCALE
  5
B735
102
{ACAD_REACTORS
330
B72B
102
}
330
B72B
100
AcDbScale
 70
     0
300
3/8" = 1'-0"
140
0.375
141
12.0
290
     0
  0
SCALE
  5
B736
102
{ACAD_REACTORS
330
B72B
102
}
330
B72B
100
AcDbScale
 70
     0
300
1/2" = 1'-0"
140
0.5
141
12.0
290
     0
  0
SCALE
  5
B737
102
{ACAD_REACTORS
330
B72B
102
}
330
B72B
100
AcDbScale
 70
     0
300
3/4" = 1'-0"
140
0.75
141
12.0
290
     0
  0
SCALE
  5
B738
102
{ACAD_REACTORS
330
B72B
102
}
330
B72B
100
AcDbScale
 70
     0
300
1" = 1'-0"
140
1.0
141
12.0
290
     0
  0
SCALE
  5
B739
102
{ACAD_REACTORS
330
B72B
102
}
330
B72B
100
AcDbScale
 70
     0
300
1-1/2" = 1'-0"
140
1.5
141
12.0
290
     0
  0
SCALE
  5
B73A
102
{ACAD_REACTORS
330
B72B
102
}
330
B72B
100
AcDbScale
 70
     0
300
3" = 1'-0"
140
3.0
141
12.0
290
     0
  0
SCALE
  5
B73B
102
{ACAD_REACTORS
330
B72B
102
}
330
B72B
100
AcDbScale
 70
     0
300
6" = 1'-0"
140
6.0
141
12.0
290
     0
  0
SCALE
  5
B73C
102
{ACAD_REACTORS
330
B72B
102
}
330
B72B
100
AcDbScale
 70
     0
300
1'-0" = 1'-0"
140
12.0
141
12.0
290
     0
  0
ACDBSECTIONVIEWSTYLE
  5
B740
102
{ACAD_XDICTIONARY
360
B79B
102
}
102
{ACAD_REACTORS
330
B73F
102
}
330
B73F
100
AcDbModelDocViewStyle
 70
     0
  3
Imperial24
290
     0
100
AcDbSectionViewStyle
 70
     0
 71
     0
 90
       78
 71
     1
340
B4E3
 40
0.24
340
0
340
0
 40
0.24
300
I, O, Q, S, X, Z
 40
0.48
 90
        3
 40
0.18
 90
        1
 71
     2
340
B4E7
 90
       25
340
B4E7
 90
       50
 40
0.24
 40
0.0
 40
0.24
 71
     3
340
B4E3
 40
0.24
 90
        1
 40
0.75
 90
        1
300
%<\AcVar ViewType \f "%tc1">% %<\AcVar ViewSectionStartId>%-%<\AcVar ViewSectionEndId>%\PSCALE %<\AcVar ViewScale \f "%sn">%
 71
     4
300
ANSI31
 40
1.0
 90
        0
290
     0
290
     0
 90
        6
 40
0.0
 40
1.570796326794896
 40
0.2617993877991494
 40
1.308996938995747
 40
-0.2617993877991494
 40
1.832595714594046
  0
TABLESTYLE
  5
B72A
102
{ACAD_XDICTIONARY
360
B762
102
}
102
{ACAD_REACTORS
330
B729
102
}
330
B729
100
AcDbTableStyle
  3
Standard
 70
     0
 71
     0
 40
0.06
 41
0.06
280
     0
281
     0
  7
STANDARD
140
0.18
170
     2
 62
     0
 63
     7
283
     0
274
    -2
284
     1
 64
     0
275
    -2
285
     1
 65
     0
276
    -2
286
     1
 66
     0
277
    -2
287
     1
 67
     0
278
    -2
288
     1
 68
     0
279
    -2
289
     1
 69
     0
  7
STANDARD
140
0.25
170
     5
 62
     0
 63
     7
283
     0
274
    -2
284
     1
 64
     0
275
    -2
285
     1
 65
     0
276
    -2
286
     1
 66
     0
277
    -2
287
     1
 67
     0
278
    -2
288
     1
 68
     0
279
    -2
289
     1
 69
     0
  7
STANDARD
140
0.18
170
     5
 62
     0
 63
     7
283
     0
274
    -2
284
     1
 64
     0
275
    -2
285
     1
 65
     0
276
    -2
286
     1
 66
     0
277
    -2
287
     1
 67
     0
278
    -2
288
     1
 68
     0
279
    -2
289
     1
 69
     0
  0
VISUALSTYLE
  5
B715
102
{ACAD_XDICTIONARY
360
B773
102
}
102
{ACAD_REACTORS
330
B70F
102
}
330
B70F
100
AcDbVisualStyle
  2
2dWireframe
 70
     4
 71
     0
 72
     2
 73
     0
 90
        0
 40
-0.6
 41
-30.0
 62
     5
 63
     7
 74
     1
 91
        4
 64
     7
 65
   257
 75
     1
175
     1
 42
1.0
 92
        0
 66
   257
 43
1.0
 76
     1
 77
     6
 78
     2
 67
     7
 79
     5
170
     0
171
     0
290
     0
174
     0
 93
        1
 44
0.0
173
     0
291
     0
 45
0.0
1001
ACAD
1000
AcDbSavedByObjectVersion
1070
     0
  0
VISUALSTYLE
  5
B714
102
{ACAD_XDICTIONARY
360
B771
102
}
102
{ACAD_REACTORS
330
B70F
102
}
330
B70F
100
AcDbVisualStyle
  2
Basic
 70
     7
 71
     1
 72
     0
 73
     1
 90
        0
 40
-0.6
 41
-30.0
 62
     5
 63
     7
 74
     0
 91
        4
 64
     7
 65
   257
 75
     1
175
     1
 42
1.0
 92
        8
 66
     7
 43
1.0
 76
     1
 77
     6
 78
     2
 67
     7
 79
     5
170
     0
171
     0
290
     0
174
     0
 93
        1
 44
0.0
173
     0
291
     1
 45
0.0
1001
ACAD
1000
AcDbSavedByObjectVersion
1070
     0
  0
VISUALSTYLE
  5
B71B
102
{ACAD_XDICTIONARY
360
B77F
102
}
102
{ACAD_REACTORS
330
B70F
102
}
330
B70F
100
AcDbVisualStyle
  2
Brighten
 70
    12
 71
     2
 72
     2
 73
     0
 90
        0
 40
-0.6
 41
-30.0
 62
     5
 63
     7
 74
     1
 91
        4
 64
     7
 65
   257
 75
     1
175
     1
 42
1.0
 92
        8
 66
     7
 43
1.0
 76
     1
 77
     6
 78
     2
 67
     7
 79
     5
170
     0
171
     0
290
     0
174
     0
 93
        1
 44
50.0
173
     0
291
     1
 45
0.0
1001
ACAD
1000
AcDbSavedByObjectVersion
1070
     0
  0
VISUALSTYLE
  5
B71F
102
{ACAD_XDICTIONARY
360
B787
102
}
102
{ACAD_REACTORS
330
B70F
102
}
330
B70F
100
AcDbVisualStyle
  2
ColorChange
 70
    16
 71
     2
 72
     2
 73
     3
 90
        0
 40
-0.6
 41
-30.0
 62
     5
 63
     8
 74
     1
 91
        4
 64
     7
 65
   257
 75
     1
175
     1
 42
1.0
 92
        8
 66
     8
 43
1.0
 76
     1
 77
     6
 78
     2
 67
     7
 79
     5
170
     0
171
     0
290
     0
174
     0
 93
        1
 44
0.0
173
     0
291
     1
 45
0.0
1001
ACAD
1000
AcDbSavedByObjectVersion
1070
     0
  0
VISUALSTYLE
  5
B718
102
{ACAD_XDICTIONARY
360
B779
102
}
102
{ACAD_REACTORS
330
B70F
102
}
330
B70F
100
AcDbVisualStyle
  2
Conceptual
 70
     9
 71
     3
 72
     2
 73
     0
 90
        0
 40
-0.6
 41
-30.0
 62
     5
 63
     7
 74
     2
 91
        2
 64
     7
 65
   257
 75
     1
175
     1
 42
179.0
 92
        8
 66
     7
 43
1.0
 76
     1
 77
     6
 78
     2
 67
     7
 79
     3
170
     0
171
     0
290
     0
174
     0
 93
        1
 44
0.0
173
     0
291
     0
 45
0.0
1001
ACAD
1000
AcDbSavedByObjectVersion
1070
     0
  0
VISUALSTYLE
  5
B71A
102
{ACAD_XDICTIONARY
360
B77D
102
}
102
{ACAD_REACTORS
330
B70F
102
}
330
B70F
100
AcDbVisualStyle
  2
Dim
 70
    11
 71
     2
 72
     2
 73
     0
 90
        0
 40
-0.6
 41
-30.0
 62
     5
 63
     7
 74
     1
 91
        4
 64
     7
 65
   257
 75
     1
175
     1
 42
1.0
 92
        8
 66
     7
 43
1.0
 76
     1
 77
     6
 78
     2
 67
     7
 79
     5
170
     0
171
     0
290
     0
174
     0
 93
        1
 44
-50.0
173
     0
291
     1
 45
0.0
1001
ACAD
1000
AcDbSavedByObjectVersion
1070
     0
  0
VISUALSTYLE
  5
B727
102
{ACAD_XDICTIONARY
360
B797
102
}
102
{ACAD_REACTORS
330
B70F
102
}
330
B70F
100
AcDbVisualStyle
  2
EdgeColorOff
 70
    22
 71
     2
 72
     2
 73
     0
 90
        0
 40
-0.6
 41
-30.0
 62
     5
 63
     7
 74
     1
 91
        4
 64
     7
 65
   257
 75
     1
175
     1
 42
1.0
 92
        8
 66
     7
 43
1.0
 76
     1
 77
     6
 78
     2
 67
     7
 79
     5
170
     0
171
     0
290
     0
174
     0
 93
        1
 44
0.0
173
     0
291
     1
 45
0.0
1001
ACAD
1000
AcDbSavedByObjectVersion
1070
     0
  0
VISUALSTYLE
  5
B71E
102
{ACAD_XDICTIONARY
360
B785
102
}
102
{ACAD_REACTORS
330
B70F
102
}
330
B70F
100
AcDbVisualStyle
  2
Facepattern
 70
    15
 71
     2
 72
     2
 73
     0
 90
        0
 40
-0.6
 41
-30.0
 62
     5
 63
     7
 74
     1
 91
        4
 64
     7
 65
   257
 75
     1
175
     1
 42
1.0
 92
        8
 66
     7
 43
1.0
 76
     1
 77
     6
 78
     2
 67
     7
 79
     5
170
     0
171
     0
290
     0
174
     0
 93
        1
 44
0.0
173
     0
291
     1
 45
0.0
1001
ACAD
1000
AcDbSavedByObjectVersion
1070
     0
  0
VISUALSTYLE
  5
B710
102
{ACAD_XDICTIONARY
360
B769
102
}
102
{ACAD_REACTORS
330
B70F
102
}
330
B70F
100
AcDbVisualStyle
  2
Flat
 70
     0
 71
     2
 72
     1
 73
     1
 90
        2
 40
-0.6
 41
30.0
 62
     5
 63
     7
 74
     0
 91
        0
 64
     7
 65
   257
 75
     1
175
     1
 42
1.0
 92
        8
 66
     7
 43
1.0
 76
     1
 77
     6
 78
     2
 67
     7
 79
     5
170
     0
171
     0
290
     0
174
     0
 93
       13
 44
0.0
173
     0
291
     1
 45
0.0
1001
ACAD
1000
AcDbSavedByObjectVersion
1070
     0
  0
VISUALSTYLE
  5
B711
102
{ACAD_XDICTIONARY
360
B76B
102
}
102
{ACAD_REACTORS
330
B70F
102
}
330
B70F
100
AcDbVisualStyle
  2
FlatWithEdges
 70
     1
 71
     2
 72
     1
 73
     1
 90
        2
 40
-0.6
 41
30.0
 62
     5
 63
     7
 74
     1
 91
        0
 64
     7
 65
   257
 75
     1
175
     1
 42
1.0
 92
        0
 66
   257
 43
1.0
 76
     1
 77
     6
 78
     2
 67
     7
 79
     5
170
     0
171
     0
290
     0
174
     0
 93
       13
 44
0.0
173
     0
291
     1
 45
0.0
1001
ACAD
1000
AcDbSavedByObjectVersion
1070
     0
  0
VISUALSTYLE
  5
B712
102
{ACAD_XDICTIONARY
360
B76D
102
}
102
{ACAD_REACTORS
330
B70F
102
}
330
B70F
100
AcDbVisualStyle
  2
Gouraud
 70
     2
 71
     2
 72
     2
 73
     1
 90
        2
 40
-0.6
 41
30.0
 62
     5
 63
     7
 74
     0
 91
        0
 64
     7
 65
   257
 75
     1
175
     1
 42
1.0
 92
        0
 66
     7
 43
1.0
 76
     1
 77
     6
 78
     2
 67
     7
 79
     5
170
     0
171
     0
290
     0
174
     0
 93
       13
 44
0.0
173
     0
291
     1
 45
0.0
1001
ACAD
1000
AcDbSavedByObjectVersion
1070
     0
  0
VISUALSTYLE
  5
B713
102
{ACAD_XDICTIONARY
360
B76F
102
}
102
{ACAD_REACTORS
330
B70F
102
}
330
B70F
100
AcDbVisualStyle
  2
GouraudWithEdges
 70
     3
 71
     2
 72
     2
 73
     1
 90
        2
 40
-0.6
 41
30.0
 62
     5
 63
     7
 74
     1
 91
        0
 64
     7
 65
   257
 75
     1
175
     1
 42
1.0
 92
        0
 66
   257
 43
1.0
 76
     1
 77
     6
 78
     2
 67
     7
 79
     5
170
     0
171
     0
290
     0
174
     0
 93
       13
 44
0.0
173
     0
291
     1
 45
0.0
1001
ACAD
1000
AcDbSavedByObjectVersion
1070
     0
  0
VISUALSTYLE
  5
B717
102
{ACAD_XDICTIONARY
360
B777
102
}
102
{ACAD_REACTORS
330
B70F
102
}
330
B70F
100
AcDbVisualStyle
  2
Hidden
 70
     6
 71
     1
 72
     2
 73
     2
 90
        0
 40
-0.6
 41
-30.0
 62
     5
 63
     7
 74
     2
 91
        2
 64
     7
 65
   257
 75
     2
175
     1
 42
40.0
 92
        0
 66
   257
 43
1.0
 76
     1
 77
     6
 78
     2
 67
     7
 79
     3
170
     0
171
     0
290
     0
174
     0
 93
        1
 44
0.0
173
     0
291
     0
 45
0.0
1001
ACAD
1000
AcDbSavedByObjectVersion
1070
     0
  0
VISUALSTYLE
  5
B725
102
{ACAD_XDICTIONARY
360
B793
102
}
102
{ACAD_REACTORS
330
B70F
102
}
330
B70F
100
AcDbVisualStyle
  2
JitterOff
 70
    20
 71
     2
 72
     2
 73
     0
 90
        0
 40
-0.6
 41
-30.0
 62
     5
 63
     7
 74
     1
 91
        4
 64
     7
 65
   257
 75
     1
175
     1
 42
1.0
 92
       10
 66
     7
 43
1.0
 76
     1
 77
     6
 78
     2
 67
     7
 79
     5
170
     0
171
     0
290
     0
174
     0
 93
        1
 44
0.0
173
     0
291
     1
 45
0.0
1001
ACAD
1000
AcDbSavedByObjectVersion
1070
     0
  0
VISUALSTYLE
  5
B71D
102
{ACAD_XDICTIONARY
360
B783
102
}
102
{ACAD_REACTORS
330
B70F
102
}
330
B70F
100
AcDbVisualStyle
  2
Linepattern
 70
    14
 71
     2
 72
     2
 73
     0
 90
        0
 40
-0.6
 41
-30.0
 62
     5
 63
     7
 74
     1
 91
        4
 64
     7
 65
   257
 75
     7
175
     7
 42
1.0
 92
        8
 66
     7
 43
1.0
 76
     1
 77
     6
 78
     2
 67
     7
 79
     5
170
     0
171
     0
290
     0
174
     0
 93
        1
 44
0.0
173
     0
291
     1
 45
0.0
1001
ACAD
1000
AcDbSavedByObjectVersion
1070
     0
  0
VISUALSTYLE
  5
B726
102
{ACAD_XDICTIONARY
360
B795
102
}
102
{ACAD_REACTORS
330
B70F
102
}
330
B70F
100
AcDbVisualStyle
  2
OverhangOff
 70
    21
 71
     2
 72
     2
 73
     0
 90
        0
 40
-0.6
 41
-30.0
 62
     5
 63
     7
 74
     1
 91
        4
 64
     7
 65
   257
 75
     1
175
     1
 42
1.0
 92
        9
 66
     7
 43
1.0
 76
     1
 77
     6
 78
     2
 67
     7
 79
     5
170
     0
171
     0
290
     0
174
     0
 93
        1
 44
0.0
173
     0
291
     1
 45
0.0
1001
ACAD
1000
AcDbSavedByObjectVersion
1070
     0
  0
VISUALSTYLE
  5
B719
102
{ACAD_XDICTIONARY
360
B77B
102
}
102
{ACAD_REACTORS
330
B70F
102
}
330
B70F
100
AcDbVisualStyle
  2
Realistic
 70
     8
 71
     2
 72
     3
 73
     0
 90
        2
 40
-0.6
 41
30.0
 62
     5
 63
     7
 74
     0
 91
        0
 64
     7
 65
   257
 75
     1
175
     1
 42
1.0
 92
        8
 66
   257
 43
1.0
 76
     1
 77
     6
 78
     2
 67
     7
 79
     3
170
     0
171
     0
290
     0
174
     0
 93
       13
 44
0.0
173
     0
291
     0
 45
0.0
1001
ACAD
1000
AcDbSavedByObjectVersion
1070
     0
  0
VISUALSTYLE
  5
B724
102
{ACAD_XDICTIONARY
360
B791
102
}
102
{ACAD_REACTORS
330
B70F
102
}
330
B70F
100
AcDbVisualStyle
  2
Shaded
 70
    27
 71
     2
 72
     2
 73
     1
 90
        2
 40
-0.6
 41
30.0
 62
     5
 63
     7
 74
     0
 91
        4
 64
     7
 65
   257
 75
     1
175
     1
 42
1.0
 92
        8
 66
   257
 43
1.0
 76
     1
 77
     6
 78
     2
 67
     8
 79
     3
170
     0
171
     0
290
     0
174
     0
 93
        5
 44
0.0
173
     0
291
     0
 45
0.0
1001
ACAD
1000
AcDbSavedByObjectVersion
1070
     0
  0
VISUALSTYLE
  5
B723
102
{ACAD_XDICTIONARY
360
B78F
102
}
102
{ACAD_REACTORS
330
B70F
102
}
330
B70F
100
AcDbVisualStyle
  2
Shaded with edges
 70
    26
 71
     2
 72
     2
 73
     1
 90
        2
 40
-0.6
 41
30.0
 62
     5
 63
     7
 74
     1
 91
       10
 64
     7
 65
   257
 75
     2
175
     1
 42
1.0
 92
        8
 66
   257
 43
1.0
 76
     1
 77
     6
 78
     2
 67
     7
 79
     3
170
     0
171
     0
290
     0
174
     0
 93
        5
 44
0.0
173
     0
291
     0
 45
0.0
1001
ACAD
1000
AcDbSavedByObjectVersion
1070
     0
  0
VISUALSTYLE
  5
B720
102
{ACAD_XDICTIONARY
360
B789
102
}
102
{ACAD_REACTORS
330
B70F
102
}
330
B70F
100
AcDbVisualStyle
  2
Shades of Gray
 70
    23
 71
     2
 72
     2
 73
     3
 90
        0
 40
-0.6
 41
-30.0
 62
     5
 63
     7
 74
     2
 91
        2
 64
     7
 65
     7
 75
     1
175
     1
 42
40.0
 92
        8
 66
     7
 43
1.0
 76
     1
 77
     6
 78
     2
 67
     7
 79
     3
170
     0
171
     0
290
     0
174
     0
 93
        1
 44
0.0
173
     0
291
     0
 45
0.0
1001
ACAD
1000
AcDbSavedByObjectVersion
1070
     0
  0
VISUALSTYLE
  5
B721
102
{ACAD_XDICTIONARY
360
B78B
102
}
102
{ACAD_REACTORS
330
B70F
102
}
330
B70F
100
AcDbVisualStyle
  2
Sketchy
 70
    24
 71
     1
 72
     2
 73
     2
 90
        0
 40
-0.6
 41
-30.0
 62
     5
 63
     7
 74
     2
 91
        2
 64
     7
 65
     7
 75
     1
175
     1
 42
40.0
 92
       11
 66
     7
 43
1.0
 76
     1
 77
     6
 78
     2
 67
     7
 79
     6
170
     0
171
     0
290
     0
174
     0
 93
        1
 44
0.0
173
     0
291
     0
 45
0.0
1001
ACAD
1000
AcDbSavedByObjectVersion
1070
     0
  0
VISUALSTYLE
  5
B71C
102
{ACAD_XDICTIONARY
360
B781
102
}
102
{ACAD_REACTORS
330
B70F
102
}
330
B70F
100
AcDbVisualStyle
  2
Thicken
 70
    13
 71
     2
 72
     2
 73
     0
 90
        0
 40
-0.6
 41
-30.0
 62
     5
 63
     7
 74
     1
 91
        4
 64
     7
 65
   257
 75
     1
175
     1
 42
1.0
 92
       12
 66
     7
 43
1.0
 76
     1
 77
     6
 78
     2
 67
     7
 79
     5
170
     0
171
     0
290
     0
174
     0
 93
        1
 44
0.0
173
     0
291
     1
 45
0.0
1001
ACAD
1000
AcDbSavedByObjectVersion
1070
     0
  0
VISUALSTYLE
  5
B716
102
{ACAD_XDICTIONARY
360
B775
102
}
102
{ACAD_REACTORS
330
B70F
102
}
330
B70F
100
AcDbVisualStyle
  2
Wireframe
 70
     5
 71
     0
 72
     2
 73
     0
 90
        0
 40
-0.6
 41
-30.0
 62
     5
 63
     7
 74
     1
 91
        4
 64
     7
 65
   257
 75
     1
175
     1
 42
1.0
 92
        0
 66
   257
 43
1.0
 76
     1
 77
     6
 78
     2
 67
     7
 79
     3
170
     0
171
     0
290
     0
174
     0
 93
        1
 44
0.0
173
     0
291
     0
 45
0.0
1001
ACAD
1000
AcDbSavedByObjectVersion
1070
     0
  0
VISUALSTYLE
  5
B722
102
{ACAD_XDICTIONARY
360
B78D
102
}
102
{ACAD_REACTORS
330
B70F
102
}
330
B70F
100
AcDbVisualStyle
  2
X-Ray
 70
    25
 71
     2
 72
     2
 73
     1
 90
        1
 40
0.5
 41
-30.0
 62
     5
 63
     7
 74
     1
 91
        0
 64
     7
 65
   257
 75
     1
175
     1
 42
1.0
 92
        8
 66
     7
 43
1.0
 76
     1
 77
     6
 78
     2
 67
     7
 79
     3
170
     0
171
     0
290
     0
174
     0
 93
       13
 44
0.0
173
     0
291
     0
 45
0.0
1001
ACAD
1000
AcDbSavedByObjectVersion
1070
     0
  0
DICTIONARYVAR
  5
B75C
102
{ACAD_REACTORS
330
B757
102
}
330
B757
100
DictionaryVariables
280
     0
  1
1:1
  0
DICTIONARYVAR
  5
B759
102
{ACAD_REACTORS
330
B757
102
}
330
B757
100
DictionaryVariables
280
     0
  1
STANDARD
  0
DICTIONARYVAR
  5
B758
102
{ACAD_REACTORS
330
B757
102
}
330
B757
100
DictionaryVariables
280
     0
  1
STANDARD
  0
DICTIONARYVAR
  5
B75A
102
{ACAD_REACTORS
330
B757
102
}
330
B757
100
DictionaryVariables
280
     0
  1
Imperial24
  0
DICTIONARYVAR
  5
B75B
102
{ACAD_REACTORS
330
B757
102
}
330
B757
100
DictionaryVariables
280
     0
  1
Imperial24
  0
DICTIONARYVAR
  5
B75F
102
{ACAD_REACTORS
330
B757
102
}
330
B757
100
DictionaryVariables
280
     0
  1
1
  0
DICTIONARYVAR
  5
B75E
102
{ACAD_REACTORS
330
B757
102
}
330
B757
100
DictionaryVariables
280
     0
  1
0
  0
DICTIONARYVAR
  5
B75D
102
{ACAD_REACTORS
330
B757
102
}
330
B757
100
DictionaryVariables
280
     0
  1
127
  0
DICTIONARYVAR
  5
B760
102
{ACAD_REACTORS
330
B757
102
}
330
B757
100
DictionaryVariables
280
     0
  1
2
  0
DICTIONARY
  5
B79D
330
B742
100
AcDbDictionary
280
     1
281
     1
  3
ACAD_XREC_ROUNDTRIP
360
B79E
  0
DICTIONARY
  5
B79F
330
B743
100
AcDbDictionary
280
     1
281
     1
  3
ACAD_XREC_ROUNDTRIP
360
B7A0
  0
DICTIONARY
  5
B7A1
330
B744
100
AcDbDictionary
280
     1
281
     1
  3
ACAD_XREC_ROUNDTRIP
360
B7A2
  0
DICTIONARY
  5
B700
330
B6FF
100
AcDbDictionary
280
     1
281
     1
  3
ACAD_XREC_ROUNDTRIP
360
B767
  3
BUMPTILE
360
B702
  3
DIFFUSETILE
360
B701
  3
OPACITYTILE
360
B705
  3
REFLECTIONTILE
360
B704
  3
REFRACTIONTILE
360
B706
  3
SPECULARTILE
360
B703
  0
DICTIONARY
  5
B6F8
330
B6F7
100
AcDbDictionary
280
     1
281
     1
  3
ACAD_XREC_ROUNDTRIP
360
B766
  3
BUMPTILE
360
B6FA
  3
DIFFUSETILE
360
B6F9
  3
OPACITYTILE
360
B6FD
  3
REFLECTIONTILE
360
B6FC
  3
REFRACTIONTILE
360
B6FE
  3
SPECULARTILE
360
B6FB
  0
DICTIONARY
  5
B708
330
B707
100
AcDbDictionary
280
     1
281
     1
  3
ACAD_XREC_ROUNDTRIP
360
B768
  3
BUMPTILE
360
B70A
  3
DIFFUSETILE
360
B709
  3
OPACITYTILE
360
B70D
  3
REFLECTIONTILE
360
B70C
  3
REFRACTIONTILE
360
B70E
  3
SPECULARTILE
360
B70B
  0
DICTIONARY
  5
B79B
330
B740
100
AcDbDictionary
280
     1
281
     1
  3
ACAD_XREC_ROUNDTRIP
360
B79C
  0
DICTIONARY
  5
B762
330
B72A
100
AcDbDictionary
280
     1
281
     1
  3
ACAD_ROUNDTRIP_2008_TABLESTYLE_CELLSTYLEMAP
360
B763
  3
ACAD_XREC_ROUNDTRIP
360
B799
  0
DICTIONARY
  5
B773
330
B715
100
AcDbDictionary
280
     1
281
     1
  3
ACAD_XREC_ROUNDTRIP
360
B774
  0
DICTIONARY
  5
B771
330
B714
100
AcDbDictionary
280
     1
281
     1
  3
ACAD_XREC_ROUNDTRIP
360
B772
  0
DICTIONARY
  5
B77F
330
B71B
100
AcDbDictionary
280
     1
281
     1
  3
ACAD_XREC_ROUNDTRIP
360
B780
  0
DICTIONARY
  5
B787
330
B71F
100
AcDbDictionary
280
     1
281
     1
  3
ACAD_XREC_ROUNDTRIP
360
B788
  0
DICTIONARY
  5
B779
330
B718
100
AcDbDictionary
280
     1
281
     1
  3
ACAD_XREC_ROUNDTRIP
360
B77A
  0
DICTIONARY
  5
B77D
330
B71A
100
AcDbDictionary
280
     1
281
     1
  3
ACAD_XREC_ROUNDTRIP
360
B77E
  0
DICTIONARY
  5
B797
330
B727
100
AcDbDictionary
280
     1
281
     1
  3
ACAD_XREC_ROUNDTRIP
360
B798
  0
DICTIONARY
  5
B785
330
B71E
100
AcDbDictionary
280
     1
281
     1
  3
ACAD_XREC_ROUNDTRIP
360
B786
  0
DICTIONARY
  5
B769
330
B710
100
AcDbDictionary
280
     1
281
     1
  3
ACAD_XREC_ROUNDTRIP
360
B76A
  0
DICTIONARY
  5
B76B
330
B711
100
AcDbDictionary
280
     1
281
     1
  3
ACAD_XREC_ROUNDTRIP
360
B76C
  0
DICTIONARY
  5
B76D
330
B712
100
AcDbDictionary
280
     1
281
     1
  3
ACAD_XREC_ROUNDTRIP
360
B76E
  0
DICTIONARY
  5
B76F
330
B713
100
AcDbDictionary
280
     1
281
     1
  3
ACAD_XREC_ROUNDTRIP
360
B770
  0
DICTIONARY
  5
B777
330
B717
100
AcDbDictionary
280
     1
281
     1
  3
ACAD_XREC_ROUNDTRIP
360
B778
  0
DICTIONARY
  5
B793
330
B725
100
AcDbDictionary
280
     1
281
     1
  3
ACAD_XREC_ROUNDTRIP
360
B794
  0
DICTIONARY
  5
B783
330
B71D
100
AcDbDictionary
280
     1
281
     1
  3
ACAD_XREC_ROUNDTRIP
360
B784
  0
DICTIONARY
  5
B795
330
B726
100
AcDbDictionary
280
     1
281
     1
  3
ACAD_XREC_ROUNDTRIP
360
B796
  0
DICTIONARY
  5
B77B
330
B719
100
AcDbDictionary
280
     1
281
     1
  3
ACAD_XREC_ROUNDTRIP
360
B77C
  0
DICTIONARY
  5
B791
330
B724
100
AcDbDictionary
280
     1
281
     1
  3
ACAD_XREC_ROUNDTRIP
360
B792
  0
DICTIONARY
  5
B78F
330
B723
100
AcDbDictionary
280
     1
281
     1
  3
ACAD_XREC_ROUNDTRIP
360
B790
  0
DICTIONARY
  5
B789
330
B720
100
AcDbDictionary
280
     1
281
     1
  3
ACAD_XREC_ROUNDTRIP
360
B78A
  0
DICTIONARY
  5
B78B
330
B721
100
AcDbDictionary
280
     1
281
     1
  3
ACAD_XREC_ROUNDTRIP
360
B78C
  0
DICTIONARY
  5
B781
330
B71C
100
AcDbDictionary
280
     1
281
     1
  3
ACAD_XREC_ROUNDTRIP
360
B782
  0
DICTIONARY
  5
B775
330
B716
100
AcDbDictionary
280
     1
281
     1
  3
ACAD_XREC_ROUNDTRIP
360
B776
  0
DICTIONARY
  5
B78D
330
B722
100
AcDbDictionary
280
     1
281
     1
  3
ACAD_XREC_ROUNDTRIP
360
B78E
  0
XRECORD
  5
B79E
102
{ACAD_REACTORS
330
B79D
102
}
330
B79D
100
AcDbXrecord
280
     1
102
DISPLAYNAME
  1
Imperial24
102
FLAGS
 90
        0
  0
XRECORD
  5
B7A0
102
{ACAD_REACTORS
330
B79F
102
}
330
B79F
100
AcDbXrecord
280
     1
102
SHADEPLOT
 70
     0
102
SHADEPLOTRESLEVEL
 70
     2
102
SHADEPLOTCUSTOMDPI
 70
   300
  0
XRECORD
  5
B7A2
102
{ACAD_REACTORS
330
B7A1
102
}
330
B7A1
100
AcDbXrecord
280
     1
102
SHADEPLOT
 70
     0
102
SHADEPLOTRESLEVEL
 70
     2
102
SHADEPLOTCUSTOMDPI
 70
   300
  0
XRECORD
  5
B767
102
{ACAD_REACTORS
330
B700
102
}
330
B700
100
AcDbXrecord
280
     1
102
MATERIAL
148
0.0
149
0.0
149
0.0
 93
        0
 94
      127
282
     0
 72
     0
 77
     0
171
     0
175
     0
179
     0
273
     0
  0
XRECORD
  5
B702
102
{ACAD_REACTORS
330
B700
102
}
330
B700
100
AcDbXrecord
280
     1
270
     1
271
     1
  0
XRECORD
  5
B701
102
{ACAD_REACTORS
330
B700
102
}
330
B700
100
AcDbXrecord
280
     1
270
     1
271
     1
  0
XRECORD
  5
B705
102
{ACAD_REACTORS
330
B700
102
}
330
B700
100
AcDbXrecord
280
     1
270
     1
271
     1
  0
XRECORD
  5
B704
102
{ACAD_REACTORS
330
B700
102
}
330
B700
100
AcDbXrecord
280
     1
270
     1
271
     1
  0
XRECORD
  5
B706
102
{ACAD_REACTORS
330
B700
102
}
330
B700
100
AcDbXrecord
280
     1
270
     1
271
     1
  0
XRECORD
  5
B703
102
{ACAD_REACTORS
330
B700
102
}
330
B700
100
AcDbXrecord
280
     1
270
     1
271
     1
  0
XRECORD
  5
B766
102
{ACAD_REACTORS
330
B6F8
102
}
330
B6F8
100
AcDbXrecord
280
     1
102
MATERIAL
148
0.0
149
0.0
149
0.0
 93
        0
 94
      127
282
     0
 72
     0
 77
     0
171
     0
175
     0
179
     0
273
     0
  0
XRECORD
  5
B6FA
102
{ACAD_REACTORS
330
B6F8
102
}
330
B6F8
100
AcDbXrecord
280
     1
270
     1
271
     1
  0
XRECORD
  5
B6F9
102
{ACAD_REACTORS
330
B6F8
102
}
330
B6F8
100
AcDbXrecord
280
     1
270
     1
271
     1
  0
XRECORD
  5
B6FD
102
{ACAD_REACTORS
330
B6F8
102
}
330
B6F8
100
AcDbXrecord
280
     1
270
     1
271
     1
  0
XRECORD
  5
B6FC
102
{ACAD_REACTORS
330
B6F8
102
}
330
B6F8
100
AcDbXrecord
280
     1
270
     1
271
     1
  0
XRECORD
  5
B6FE
102
{ACAD_REACTORS
330
B6F8
102
}
330
B6F8
100
AcDbXrecord
280
     1
270
     1
271
     1
  0
XRECORD
  5
B6FB
102
{ACAD_REACTORS
330
B6F8
102
}
330
B6F8
100
AcDbXrecord
280
     1
270
     1
271
     1
  0
XRECORD
  5
B768
102
{ACAD_REACTORS
330
B708
102
}
330
B708
100
AcDbXrecord
280
     1
102
MATERIAL
148
0.0
149
0.0
149
0.0
 93
        0
 94
      127
282
     0
 72
     0
 77
     0
171
     0
175
     0
179
     0
273
     0
  0
XRECORD
  5
B70A
102
{ACAD_REACTORS
330
B708
102
}
330
B708
100
AcDbXrecord
280
     1
270
     1
271
     1
  0
XRECORD
  5
B709
102
{ACAD_REACTORS
330
B708
102
}
330
B708
100
AcDbXrecord
280
     1
270
     1
271
     1
  0
XRECORD
  5
B70D
102
{ACAD_REACTORS
330
B708
102
}
330
B708
100
AcDbXrecord
280
     1
270
     1
271
     1
  0
XRECORD
  5
B70C
102
{ACAD_REACTORS
330
B708
102
}
330
B708
100
AcDbXrecord
280
     1
270
     1
271
     1
  0
XRECORD
  5
B70E
102
{ACAD_REACTORS
330
B708
102
}
330
B708
100
AcDbXrecord
280
     1
270
     1
271
     1
  0
XRECORD
  5
B70B
102
{ACAD_REACTORS
330
B708
102
}
330
B708
100
AcDbXrecord
280
     1
270
     1
271
     1
  0
XRECORD
  5
B79C
102
{ACAD_REACTORS
330
B79B
102
}
330
B79B
100
AcDbXrecord
280
     1
102
DISPLAYNAME
  1
Imperial24
102
FLAGS
 90
        0
  0
CELLSTYLEMAP
  5
B763
102
{ACAD_REACTORS
330
B762
102
}
330
B762
100
AcDbCellStyleMap
 90
        3
300
CELLSTYLE
  1
TABLEFORMAT_BEGIN
 90
        5
170
     1
 91
        0
 92
    32768
 62
   257
 93
        1
300
CONTENTFORMAT
  1
CONTENTFORMAT_BEGIN
 90
        0
 91
        0
 92
      512
 93
        0
300

 40
0.0
140
1.0
 94
        5
 62
     0
340
B4E3
144
0.25
309
CONTENTFORMAT_END
171
     0
 94
        0
309
TABLEFORMAT_END
  1
CELLSTYLE_BEGIN
 90
        1
 91
        1
300
_TITLE
309
CELLSTYLE_END
300
CELLSTYLE
  1
TABLEFORMAT_BEGIN
 90
        5
170
     1
 91
        0
 92
        0
 62
   257
 93
        1
300
CONTENTFORMAT
  1
CONTENTFORMAT_BEGIN
 90
        0
 91
        0
 92
      512
 93
        0
300

 40
0.0
140
1.0
 94
        5
 62
     0
340
B4E3
144
0.18
309
CONTENTFORMAT_END
171
     0
 94
        0
309
TABLEFORMAT_END
  1
CELLSTYLE_BEGIN
 90
        2
 91
        1
300
_HEADER
309
CELLSTYLE_END
300
CELLSTYLE
  1
TABLEFORMAT_BEGIN
 90
        5
170
     1
 91
        0
 92
        0
 62
   257
 93
        1
300
CONTENTFORMAT
  1
CONTENTFORMAT_BEGIN
 90
        0
 91
        0
 92
      512
 93
        0
300

 40
0.0
140
1.0
 94
        2
 62
     0
340
B4E3
144
0.18
309
CONTENTFORMAT_END
171
     0
 94
        0
309
TABLEFORMAT_END
  1
CELLSTYLE_BEGIN
 90
        3
 91
        2
300
_DATA
309
CELLSTYLE_END
  0
XRECORD
  5
B799
102
{ACAD_REACTORS
330
B762
102
}
330
B762
100
AcDbXrecord
280
     1
102
ACAD_ROUNDTRIP_PRE2007_TABLESTYLE
 90
      512
 91
        0
  1

 92
      512
 93
        0
  2

 94
      512
 95
        0
  3

  0
XRECORD
  5
B774
102
{ACAD_REACTORS
330
B773
102
}
330
B773
100
AcDbXrecord
280
     1
102
RTVSPost2010Prop28
280
     1
102
RTVSPost2010PropOp28
 70
     1
102
RTVSPost2010Prop29
280
     1
102
RTVSPost2010PropOp29
 70
     1
102
RTVSPost2010Prop30
280
     0
102
RTVSPost2010PropOp30
 70
     1
102
RTVSPost2010Prop31
280
     0
102
RTVSPost2010PropOp31
 70
     1
102
RTVSPost2010Prop32
280
     0
102
RTVSPost2010PropOp32
 70
     1
102
RTVSPost2010Prop33
280
     0
102
RTVSPost2010PropOp33
 70
     1
102
RTVSPost2010Prop34
280
     0
102
RTVSPost2010PropOp34
 70
     1
102
RTVSPost2010Prop35
280
     0
102
RTVSPost2010PropOp35
 70
     1
102
RTVSPost2010Prop36
280
     0
102
RTVSPost2010PropOp36
 70
     1
102
RTVSPost2010Prop37
 90
       50
102
RTVSPost2010PropOp37
 70
     1
102
RTVSPost2010Prop38
140
0.0
102
RTVSPost2010PropOp38
 70
     1
102
RTVSPost2010Prop39
140
1.0
102
RTVSPost2010PropOp39
 70
     1
102
RTVSPost2010Prop40
 90
        0
102
RTVSPost2010PropOp40
 70
     1
102
RTVSPost2010Prop41ColorIndex
 90
       18
102
RTVSPost2010Prop41ColorRGB
 90
        0
102
RTVSPost2010PropOp41
 70
     1
102
RTVSPost2010Prop42
 90
       50
102
RTVSPost2010PropOp42
 70
     1
102
RTVSPost2010Prop43
 90
        3
102
RTVSPost2010PropOp43
 70
     1
102
RTVSPost2010Prop44ColorIndex
 90
        5
102
RTVSPost2010Prop44ColorRGB
 90
      255
102
RTVSPost2010PropOp44
 70
     1
102
RTVSPost2010Prop45
280
     0
102
RTVSPost2010PropOp45
 70
     1
102
RTVSPost2010Prop46
 90
       50
102
RTVSPost2010PropOp46
 70
     1
102
RTVSPost2010Prop47
 90
       50
102
RTVSPost2010PropOp47
 70
     1
102
RTVSPost2010Prop48
 90
       50
102
RTVSPost2010PropOp48
 70
     1
102
RTVSPost2010Prop49
280
     0
102
RTVSPost2010PropOp49
 70
     1
102
RTVSPost2010Prop50
 90
       50
102
RTVSPost2010PropOp50
 70
     1
102
RTVSPost2010Prop51ColorIndex
 90
      256
102
RTVSPost2010Prop51ColorRGB
 90
-16777216
102
RTVSPost2010PropOp51
 70
     0
102
RTVSPost2010Prop52
140
1.0
102
RTVSPost2010PropOp52
 70
     0
102
RTVSPost2010Prop53
 90
        2
102
RTVSPost2010PropOp53
 70
     1
102
RTVSPost2010Prop54
  1
strokes_ogs.tif
102
RTVSPost2010PropOp54
 70
     1
102
RTVSPost2010Prop55
280
     0
102
RTVSPost2010PropOp55
 70
     1
102
RTVSPost2010Prop56
140
1.0
102
RTVSPost2010PropOp56
 70
     1
102
RTVSPost2010Prop57
140
1.0
102
RTVSPost2010PropOp57
 70
     1
102
RTVSPropertyOp0
 70
     1
102
RTVSPropertyOp1
 70
     1
102
RTVSPropertyOp2
 70
     1
102
RTVSPropertyOp3
 70
     1
102
RTVSPropertyOp4
 70
     1
102
RTVSPropertyOp5
 70
     1
102
RTVSPropertyOp6
 70
     1
102
RTVSPropertyOp7
 70
     1
102
RTVSPropertyOp8
 70
     1
102
RTVSPropertyOp9
 70
     1
102
RTVSPropertyOp10
 70
     1
102
RTVSPropertyOp11
 70
     1
102
RTVSPropertyOp12
 70
     1
102
RTVSPropertyOp13
 70
     1
102
RTVSPropertyOp14
 70
     1
102
RTVSPropertyOp15
 70
     1
102
RTVSPropertyOp16
 70
     1
102
RTVSPropertyOp17
 70
     1
102
RTVSPropertyOp18
 70
     1
102
RTVSPropertyOp19
 70
     1
102
RTVSPropertyOp20
 70
     1
102
RTVSPropertyOp21
 70
     1
102
RTVSPropertyOp22
 70
     1
102
RTVSPropertyOp23
 70
     1
102
RTVSPropertyOp24
 70
     1
102
RTVSPropertyOp25
 70
     1
102
RTVSPropertyOp26
 70
     1
102
RTVSPropertyOp27
 70
     1
102
RTVSPropertyOp28
 70
     1
102
RTVSPropertyOp29
 70
     1
102
RTVSPropertyOp30
 70
     1
102
RTVSPropertyOp31
 70
     1
102
RTVSPropertyOp32
 70
     1
102
RTVSPropertyOp33
 70
     1
102
RTVSPropertyOp34
 70
     1
102
RTVSPropertyOp35
 70
     1
102
RTVSPropertyOp36
 70
     1
102
RTVSPropertyOp37
 70
     1
102
RTVSPropertyOp38
 70
     1
102
RTVSPropertyOp39
 70
     1
102
RTVSPropertyOp40
 70
     1
102
RTVSPropertyOp41
 70
     1
102
RTVSPropertyOp42
 70
     1
102
RTVSPropertyOp43
 70
     1
102
RTVSPropertyOp44
 70
     1
102
RTVSPropertyOp45
 70
     1
102
RTVSPropertyOp46
 70
     1
102
RTVSPropertyOp47
 70
     1
102
RTVSPropertyOp48
 70
     1
102
RTVSPropertyOp49
 70
     1
102
RTVSPropertyOp50
 70
     1
102
RTVSPropertyOp51
 70
     0
102
RTVSPropertyOp52
 70
     0
102
RTVSPropertyOp53
 70
     1
102
RTVSPropertyOp54
 70
     1
102
RTVSPropertyOp55
 70
     1
102
RTVSPropertyOp56
 70
     1
102
RTVSPropertyOp57
 70
     1
102
RTVSPropertyOp58
 70
     1
102
RTVSPropertyOp59
 70
     1
102
RTVSPropertyOp60
 70
     1
102
RTVSPropertyOp61
 70
     1
102
RTVSPropertyOp62
 70
     1
  0
XRECORD
  5
B772
102
{ACAD_REACTORS
330
B771
102
}
330
B771
100
AcDbXrecord
280
     1
102
RTVSPost2010Prop28
280
     0
102
RTVSPost2010PropOp28
 70
     1
102
RTVSPost2010Prop29
280
     1
102
RTVSPost2010PropOp29
 70
     1
102
RTVSPost2010Prop30
280
     1
102
RTVSPost2010PropOp30
 70
     1
102
RTVSPost2010Prop31
280
     0
102
RTVSPost2010PropOp31
 70
     1
102
RTVSPost2010Prop32
280
     0
102
RTVSPost2010PropOp32
 70
     1
102
RTVSPost2010Prop33
280
     0
102
RTVSPost2010PropOp33
 70
     1
102
RTVSPost2010Prop34
280
     0
102
RTVSPost2010PropOp34
 70
     1
102
RTVSPost2010Prop35
280
     0
102
RTVSPost2010PropOp35
 70
     1
102
RTVSPost2010Prop36
280
     0
102
RTVSPost2010PropOp36
 70
     1
102
RTVSPost2010Prop37
 90
       50
102
RTVSPost2010PropOp37
 70
     1
102
RTVSPost2010Prop38
140
0.0
102
RTVSPost2010PropOp38
 70
     1
102
RTVSPost2010Prop39
140
1.0
102
RTVSPost2010PropOp39
 70
     1
102
RTVSPost2010Prop40
 90
        0
102
RTVSPost2010PropOp40
 70
     1
102
RTVSPost2010Prop41ColorIndex
 90
       18
102
RTVSPost2010Prop41ColorRGB
 90
        0
102
RTVSPost2010PropOp41
 70
     1
102
RTVSPost2010Prop42
 90
       50
102
RTVSPost2010PropOp42
 70
     1
102
RTVSPost2010Prop43
 90
        3
102
RTVSPost2010PropOp43
 70
     1
102
RTVSPost2010Prop44ColorIndex
 90
        5
102
RTVSPost2010Prop44ColorRGB
 90
      255
102
RTVSPost2010PropOp44
 70
     1
102
RTVSPost2010Prop45
280
     0
102
RTVSPost2010PropOp45
 70
     1
102
RTVSPost2010Prop46
 90
       50
102
RTVSPost2010PropOp46
 70
     1
102
RTVSPost2010Prop47
 90
       50
102
RTVSPost2010PropOp47
 70
     1
102
RTVSPost2010Prop48
 90
       50
102
RTVSPost2010PropOp48
 70
     1
102
RTVSPost2010Prop49
280
     0
102
RTVSPost2010PropOp49
 70
     1
102
RTVSPost2010Prop50
 90
       50
102
RTVSPost2010PropOp50
 70
     1
102
RTVSPost2010Prop51ColorIndex
 90
      256
102
RTVSPost2010Prop51ColorRGB
 90
-16777216
102
RTVSPost2010PropOp51
 70
     0
102
RTVSPost2010Prop52
140
1.0
102
RTVSPost2010PropOp52
 70
     0
102
RTVSPost2010Prop53
 90
        2
102
RTVSPost2010PropOp53
 70
     1
102
RTVSPost2010Prop54
  1
strokes_ogs.tif
102
RTVSPost2010PropOp54
 70
     1
102
RTVSPost2010Prop55
280
     0
102
RTVSPost2010PropOp55
 70
     1
102
RTVSPost2010Prop56
140
1.0
102
RTVSPost2010PropOp56
 70
     1
102
RTVSPost2010Prop57
140
1.0
102
RTVSPost2010PropOp57
 70
     1
102
RTVSPropertyOp0
 70
     1
102
RTVSPropertyOp1
 70
     1
102
RTVSPropertyOp2
 70
     1
102
RTVSPropertyOp3
 70
     1
102
RTVSPropertyOp4
 70
     1
102
RTVSPropertyOp5
 70
     1
102
RTVSPropertyOp6
 70
     1
102
RTVSPropertyOp7
 70
     1
102
RTVSPropertyOp8
 70
     1
102
RTVSPropertyOp9
 70
     1
102
RTVSPropertyOp10
 70
     1
102
RTVSPropertyOp11
 70
     1
102
RTVSPropertyOp12
 70
     1
102
RTVSPropertyOp13
 70
     1
102
RTVSPropertyOp14
 70
     1
102
RTVSPropertyOp15
 70
     1
102
RTVSPropertyOp16
 70
     1
102
RTVSPropertyOp17
 70
     1
102
RTVSPropertyOp18
 70
     1
102
RTVSPropertyOp19
 70
     1
102
RTVSPropertyOp20
 70
     1
102
RTVSPropertyOp21
 70
     1
102
RTVSPropertyOp22
 70
     1
102
RTVSPropertyOp23
 70
     1
102
RTVSPropertyOp24
 70
     1
102
RTVSPropertyOp25
 70
     1
102
RTVSPropertyOp26
 70
     1
102
RTVSPropertyOp27
 70
     1
102
RTVSPropertyOp28
 70
     1
102
RTVSPropertyOp29
 70
     1
102
RTVSPropertyOp30
 70
     1
102
RTVSPropertyOp31
 70
     1
102
RTVSPropertyOp32
 70
     1
102
RTVSPropertyOp33
 70
     1
102
RTVSPropertyOp34
 70
     1
102
RTVSPropertyOp35
 70
     1
102
RTVSPropertyOp36
 70
     1
102
RTVSPropertyOp37
 70
     1
102
RTVSPropertyOp38
 70
     1
102
RTVSPropertyOp39
 70
     1
102
RTVSPropertyOp40
 70
     1
102
RTVSPropertyOp41
 70
     1
102
RTVSPropertyOp42
 70
     1
102
RTVSPropertyOp43
 70
     1
102
RTVSPropertyOp44
 70
     1
102
RTVSPropertyOp45
 70
     1
102
RTVSPropertyOp46
 70
     1
102
RTVSPropertyOp47
 70
     1
102
RTVSPropertyOp48
 70
     1
102
RTVSPropertyOp49
 70
     1
102
RTVSPropertyOp50
 70
     1
102
RTVSPropertyOp51
 70
     0
102
RTVSPropertyOp52
 70
     0
102
RTVSPropertyOp53
 70
     1
102
RTVSPropertyOp54
 70
     1
102
RTVSPropertyOp55
 70
     1
102
RTVSPropertyOp56
 70
     1
102
RTVSPropertyOp57
 70
     1
102
RTVSPropertyOp58
 70
     1
102
RTVSPropertyOp59
 70
     1
102
RTVSPropertyOp60
 70
     1
102
RTVSPropertyOp61
 70
     1
102
RTVSPropertyOp62
 70
     1
  0
XRECORD
  5
B780
102
{ACAD_REACTORS
330
B77F
102
}
330
B77F
100
AcDbXrecord
280
     1
102
RTVSPost2010Prop28
280
     0
102
RTVSPost2010PropOp28
 70
     1
102
RTVSPost2010Prop29
280
     1
102
RTVSPost2010PropOp29
 70
     1
102
RTVSPost2010Prop30
280
     1
102
RTVSPost2010PropOp30
 70
     1
102
RTVSPost2010Prop31
280
     0
102
RTVSPost2010PropOp31
 70
     1
102
RTVSPost2010Prop32
280
     0
102
RTVSPost2010PropOp32
 70
     1
102
RTVSPost2010Prop33
280
     0
102
RTVSPost2010PropOp33
 70
     1
102
RTVSPost2010Prop34
280
     0
102
RTVSPost2010PropOp34
 70
     1
102
RTVSPost2010Prop35
280
     0
102
RTVSPost2010PropOp35
 70
     1
102
RTVSPost2010Prop36
280
     0
102
RTVSPost2010PropOp36
 70
     1
102
RTVSPost2010Prop37
 90
       50
102
RTVSPost2010PropOp37
 70
     1
102
RTVSPost2010Prop38
140
0.0
102
RTVSPost2010PropOp38
 70
     1
102
RTVSPost2010Prop39
140
1.0
102
RTVSPost2010PropOp39
 70
     1
102
RTVSPost2010Prop40
 90
        0
102
RTVSPost2010PropOp40
 70
     1
102
RTVSPost2010Prop41ColorIndex
 90
       18
102
RTVSPost2010Prop41ColorRGB
 90
        0
102
RTVSPost2010PropOp41
 70
     1
102
RTVSPost2010Prop42
 90
       50
102
RTVSPost2010PropOp42
 70
     1
102
RTVSPost2010Prop43
 90
        3
102
RTVSPost2010PropOp43
 70
     1
102
RTVSPost2010Prop44ColorIndex
 90
        5
102
RTVSPost2010Prop44ColorRGB
 90
      255
102
RTVSPost2010PropOp44
 70
     1
102
RTVSPost2010Prop45
280
     0
102
RTVSPost2010PropOp45
 70
     1
102
RTVSPost2010Prop46
 90
       50
102
RTVSPost2010PropOp46
 70
     1
102
RTVSPost2010Prop47
 90
       50
102
RTVSPost2010PropOp47
 70
     1
102
RTVSPost2010Prop48
 90
       50
102
RTVSPost2010PropOp48
 70
     1
102
RTVSPost2010Prop49
280
     0
102
RTVSPost2010PropOp49
 70
     1
102
RTVSPost2010Prop50
 90
       50
102
RTVSPost2010PropOp50
 70
     1
102
RTVSPost2010Prop51ColorIndex
 90
      256
102
RTVSPost2010Prop51ColorRGB
 90
-16777216
102
RTVSPost2010PropOp51
 70
     0
102
RTVSPost2010Prop52
140
1.0
102
RTVSPost2010PropOp52
 70
     0
102
RTVSPost2010Prop53
 90
        2
102
RTVSPost2010PropOp53
 70
     1
102
RTVSPost2010Prop54
  1
strokes_ogs.tif
102
RTVSPost2010PropOp54
 70
     1
102
RTVSPost2010Prop55
280
     0
102
RTVSPost2010PropOp55
 70
     1
102
RTVSPost2010Prop56
140
1.0
102
RTVSPost2010PropOp56
 70
     1
102
RTVSPost2010Prop57
140
1.0
102
RTVSPost2010PropOp57
 70
     1
102
RTVSPropertyOp0
 70
     1
102
RTVSPropertyOp1
 70
     1
102
RTVSPropertyOp2
 70
     1
102
RTVSPropertyOp3
 70
     1
102
RTVSPropertyOp4
 70
     1
102
RTVSPropertyOp5
 70
     1
102
RTVSPropertyOp6
 70
     1
102
RTVSPropertyOp7
 70
     1
102
RTVSPropertyOp8
 70
     1
102
RTVSPropertyOp9
 70
     1
102
RTVSPropertyOp10
 70
     1
102
RTVSPropertyOp11
 70
     1
102
RTVSPropertyOp12
 70
     1
102
RTVSPropertyOp13
 70
     1
102
RTVSPropertyOp14
 70
     1
102
RTVSPropertyOp15
 70
     1
102
RTVSPropertyOp16
 70
     1
102
RTVSPropertyOp17
 70
     1
102
RTVSPropertyOp18
 70
     1
102
RTVSPropertyOp19
 70
     1
102
RTVSPropertyOp20
 70
     1
102
RTVSPropertyOp21
 70
     1
102
RTVSPropertyOp22
 70
     1
102
RTVSPropertyOp23
 70
     1
102
RTVSPropertyOp24
 70
     1
102
RTVSPropertyOp25
 70
     1
102
RTVSPropertyOp26
 70
     1
102
RTVSPropertyOp27
 70
     1
102
RTVSPropertyOp28
 70
     1
102
RTVSPropertyOp29
 70
     1
102
RTVSPropertyOp30
 70
     1
102
RTVSPropertyOp31
 70
     1
102
RTVSPropertyOp32
 70
     1
102
RTVSPropertyOp33
 70
     1
102
RTVSPropertyOp34
 70
     1
102
RTVSPropertyOp35
 70
     1
102
RTVSPropertyOp36
 70
     1
102
RTVSPropertyOp37
 70
     1
102
RTVSPropertyOp38
 70
     1
102
RTVSPropertyOp39
 70
     1
102
RTVSPropertyOp40
 70
     1
102
RTVSPropertyOp41
 70
     1
102
RTVSPropertyOp42
 70
     1
102
RTVSPropertyOp43
 70
     1
102
RTVSPropertyOp44
 70
     1
102
RTVSPropertyOp45
 70
     1
102
RTVSPropertyOp46
 70
     1
102
RTVSPropertyOp47
 70
     1
102
RTVSPropertyOp48
 70
     1
102
RTVSPropertyOp49
 70
     1
102
RTVSPropertyOp50
 70
     1
102
RTVSPropertyOp51
 70
     0
102
RTVSPropertyOp52
 70
     0
102
RTVSPropertyOp53
 70
     1
102
RTVSPropertyOp54
 70
     1
102
RTVSPropertyOp55
 70
     1
102
RTVSPropertyOp56
 70
     1
102
RTVSPropertyOp57
 70
     1
102
RTVSPropertyOp58
 70
     1
102
RTVSPropertyOp59
 70
     1
102
RTVSPropertyOp60
 70
     1
102
RTVSPropertyOp61
 70
     1
102
RTVSPropertyOp62
 70
     1
  0
XRECORD
  5
B788
102
{ACAD_REACTORS
330
B787
102
}
330
B787
100
AcDbXrecord
280
     1
102
RTVSPost2010Prop28
280
     0
102
RTVSPost2010PropOp28
 70
     1
102
RTVSPost2010Prop29
280
     1
102
RTVSPost2010PropOp29
 70
     1
102
RTVSPost2010Prop30
280
     1
102
RTVSPost2010PropOp30
 70
     1
102
RTVSPost2010Prop31
280
     0
102
RTVSPost2010PropOp31
 70
     1
102
RTVSPost2010Prop32
280
     0
102
RTVSPost2010PropOp32
 70
     1
102
RTVSPost2010Prop33
280
     0
102
RTVSPost2010PropOp33
 70
     1
102
RTVSPost2010Prop34
280
     0
102
RTVSPost2010PropOp34
 70
     1
102
RTVSPost2010Prop35
280
     0
102
RTVSPost2010PropOp35
 70
     1
102
RTVSPost2010Prop36
280
     0
102
RTVSPost2010PropOp36
 70
     1
102
RTVSPost2010Prop37
 90
       50
102
RTVSPost2010PropOp37
 70
     1
102
RTVSPost2010Prop38
140
0.0
102
RTVSPost2010PropOp38
 70
     1
102
RTVSPost2010Prop39
140
1.0
102
RTVSPost2010PropOp39
 70
     1
102
RTVSPost2010Prop40
 90
        0
102
RTVSPost2010PropOp40
 70
     1
102
RTVSPost2010Prop41ColorIndex
 90
       18
102
RTVSPost2010Prop41ColorRGB
 90
        0
102
RTVSPost2010PropOp41
 70
     1
102
RTVSPost2010Prop42
 90
       50
102
RTVSPost2010PropOp42
 70
     1
102
RTVSPost2010Prop43
 90
        3
102
RTVSPost2010PropOp43
 70
     1
102
RTVSPost2010Prop44ColorIndex
 90
        5
102
RTVSPost2010Prop44ColorRGB
 90
      255
102
RTVSPost2010PropOp44
 70
     1
102
RTVSPost2010Prop45
280
     0
102
RTVSPost2010PropOp45
 70
     1
102
RTVSPost2010Prop46
 90
       50
102
RTVSPost2010PropOp46
 70
     1
102
RTVSPost2010Prop47
 90
       50
102
RTVSPost2010PropOp47
 70
     1
102
RTVSPost2010Prop48
 90
       50
102
RTVSPost2010PropOp48
 70
     1
102
RTVSPost2010Prop49
280
     0
102
RTVSPost2010PropOp49
 70
     1
102
RTVSPost2010Prop50
 90
       50
102
RTVSPost2010PropOp50
 70
     1
102
RTVSPost2010Prop51ColorIndex
 90
      256
102
RTVSPost2010Prop51ColorRGB
 90
-16777216
102
RTVSPost2010PropOp51
 70
     0
102
RTVSPost2010Prop52
140
1.0
102
RTVSPost2010PropOp52
 70
     0
102
RTVSPost2010Prop53
 90
        2
102
RTVSPost2010PropOp53
 70
     1
102
RTVSPost2010Prop54
  1
strokes_ogs.tif
102
RTVSPost2010PropOp54
 70
     1
102
RTVSPost2010Prop55
280
     0
102
RTVSPost2010PropOp55
 70
     1
102
RTVSPost2010Prop56
140
1.0
102
RTVSPost2010PropOp56
 70
     1
102
RTVSPost2010Prop57
140
1.0
102
RTVSPost2010PropOp57
 70
     1
102
RTVSPropertyOp0
 70
     1
102
RTVSPropertyOp1
 70
     1
102
RTVSPropertyOp2
 70
     1
102
RTVSPropertyOp3
 70
     1
102
RTVSPropertyOp4
 70
     1
102
RTVSPropertyOp5
 70
     1
102
RTVSPropertyOp6
 70
     1
102
RTVSPropertyOp7
 70
     1
102
RTVSPropertyOp8
 70
     1
102
RTVSPropertyOp9
 70
     1
102
RTVSPropertyOp10
 70
     1
102
RTVSPropertyOp11
 70
     1
102
RTVSPropertyOp12
 70
     1
102
RTVSPropertyOp13
 70
     1
102
RTVSPropertyOp14
 70
     1
102
RTVSPropertyOp15
 70
     1
102
RTVSPropertyOp16
 70
     1
102
RTVSPropertyOp17
 70
     1
102
RTVSPropertyOp18
 70
     1
102
RTVSPropertyOp19
 70
     1
102
RTVSPropertyOp20
 70
     1
102
RTVSPropertyOp21
 70
     1
102
RTVSPropertyOp22
 70
     1
102
RTVSPropertyOp23
 70
     1
102
RTVSPropertyOp24
 70
     1
102
RTVSPropertyOp25
 70
     1
102
RTVSPropertyOp26
 70
     1
102
RTVSPropertyOp27
 70
     1
102
RTVSPropertyOp28
 70
     1
102
RTVSPropertyOp29
 70
     1
102
RTVSPropertyOp30
 70
     1
102
RTVSPropertyOp31
 70
     1
102
RTVSPropertyOp32
 70
     1
102
RTVSPropertyOp33
 70
     1
102
RTVSPropertyOp34
 70
     1
102
RTVSPropertyOp35
 70
     1
102
RTVSPropertyOp36
 70
     1
102
RTVSPropertyOp37
 70
     1
102
RTVSPropertyOp38
 70
     1
102
RTVSPropertyOp39
 70
     1
102
RTVSPropertyOp40
 70
     1
102
RTVSPropertyOp41
 70
     1
102
RTVSPropertyOp42
 70
     1
102
RTVSPropertyOp43
 70
     1
102
RTVSPropertyOp44
 70
     1
102
RTVSPropertyOp45
 70
     1
102
RTVSPropertyOp46
 70
     1
102
RTVSPropertyOp47
 70
     1
102
RTVSPropertyOp48
 70
     1
102
RTVSPropertyOp49
 70
     1
102
RTVSPropertyOp50
 70
     1
102
RTVSPropertyOp51
 70
     0
102
RTVSPropertyOp52
 70
     0
102
RTVSPropertyOp53
 70
     1
102
RTVSPropertyOp54
 70
     1
102
RTVSPropertyOp55
 70
     1
102
RTVSPropertyOp56
 70
     1
102
RTVSPropertyOp57
 70
     1
102
RTVSPropertyOp58
 70
     1
102
RTVSPropertyOp59
 70
     1
102
RTVSPropertyOp60
 70
     1
102
RTVSPropertyOp61
 70
     1
102
RTVSPropertyOp62
 70
     1
  0
XRECORD
  5
B77A
102
{ACAD_REACTORS
330
B779
102
}
330
B779
100
AcDbXrecord
280
     1
102
RTVSPost2010Prop28
280
     0
102
RTVSPost2010PropOp28
 70
     1
102
RTVSPost2010Prop29
280
     1
102
RTVSPost2010PropOp29
 70
     1
102
RTVSPost2010Prop30
280
     1
102
RTVSPost2010PropOp30
 70
     1
102
RTVSPost2010Prop31
280
     0
102
RTVSPost2010PropOp31
 70
     1
102
RTVSPost2010Prop32
280
     0
102
RTVSPost2010PropOp32
 70
     1
102
RTVSPost2010Prop33
280
     0
102
RTVSPost2010PropOp33
 70
     1
102
RTVSPost2010Prop34
280
     0
102
RTVSPost2010PropOp34
 70
     1
102
RTVSPost2010Prop35
280
     0
102
RTVSPost2010PropOp35
 70
     1
102
RTVSPost2010Prop36
280
     0
102
RTVSPost2010PropOp36
 70
     1
102
RTVSPost2010Prop37
 90
       50
102
RTVSPost2010PropOp37
 70
     1
102
RTVSPost2010Prop38
140
0.0
102
RTVSPost2010PropOp38
 70
     1
102
RTVSPost2010Prop39
140
1.0
102
RTVSPost2010PropOp39
 70
     1
102
RTVSPost2010Prop40
 90
        0
102
RTVSPost2010PropOp40
 70
     1
102
RTVSPost2010Prop41ColorIndex
 90
       18
102
RTVSPost2010Prop41ColorRGB
 90
        0
102
RTVSPost2010PropOp41
 70
     1
102
RTVSPost2010Prop42
 90
       50
102
RTVSPost2010PropOp42
 70
     1
102
RTVSPost2010Prop43
 90
        3
102
RTVSPost2010PropOp43
 70
     1
102
RTVSPost2010Prop44ColorIndex
 90
        5
102
RTVSPost2010Prop44ColorRGB
 90
      255
102
RTVSPost2010PropOp44
 70
     1
102
RTVSPost2010Prop45
280
     0
102
RTVSPost2010PropOp45
 70
     1
102
RTVSPost2010Prop46
 90
       50
102
RTVSPost2010PropOp46
 70
     1
102
RTVSPost2010Prop47
 90
       50
102
RTVSPost2010PropOp47
 70
     1
102
RTVSPost2010Prop48
 90
       50
102
RTVSPost2010PropOp48
 70
     1
102
RTVSPost2010Prop49
280
     0
102
RTVSPost2010PropOp49
 70
     1
102
RTVSPost2010Prop50
 90
       50
102
RTVSPost2010PropOp50
 70
     1
102
RTVSPost2010Prop51ColorIndex
 90
      256
102
RTVSPost2010Prop51ColorRGB
 90
-16777216
102
RTVSPost2010PropOp51
 70
     0
102
RTVSPost2010Prop52
140
1.0
102
RTVSPost2010PropOp52
 70
     0
102
RTVSPost2010Prop53
 90
        2
102
RTVSPost2010PropOp53
 70
     1
102
RTVSPost2010Prop54
  1
strokes_ogs.tif
102
RTVSPost2010PropOp54
 70
     1
102
RTVSPost2010Prop55
280
     0
102
RTVSPost2010PropOp55
 70
     1
102
RTVSPost2010Prop56
140
1.0
102
RTVSPost2010PropOp56
 70
     1
102
RTVSPost2010Prop57
140
1.0
102
RTVSPost2010PropOp57
 70
     1
102
RTVSPropertyOp0
 70
     1
102
RTVSPropertyOp1
 70
     1
102
RTVSPropertyOp2
 70
     1
102
RTVSPropertyOp3
 70
     1
102
RTVSPropertyOp4
 70
     1
102
RTVSPropertyOp5
 70
     1
102
RTVSPropertyOp6
 70
     1
102
RTVSPropertyOp7
 70
     1
102
RTVSPropertyOp8
 70
     1
102
RTVSPropertyOp9
 70
     1
102
RTVSPropertyOp10
 70
     1
102
RTVSPropertyOp11
 70
     1
102
RTVSPropertyOp12
 70
     1
102
RTVSPropertyOp13
 70
     1
102
RTVSPropertyOp14
 70
     1
102
RTVSPropertyOp15
 70
     1
102
RTVSPropertyOp16
 70
     1
102
RTVSPropertyOp17
 70
     1
102
RTVSPropertyOp18
 70
     1
102
RTVSPropertyOp19
 70
     1
102
RTVSPropertyOp20
 70
     1
102
RTVSPropertyOp21
 70
     1
102
RTVSPropertyOp22
 70
     1
102
RTVSPropertyOp23
 70
     1
102
RTVSPropertyOp24
 70
     1
102
RTVSPropertyOp25
 70
     1
102
RTVSPropertyOp26
 70
     1
102
RTVSPropertyOp27
 70
     1
102
RTVSPropertyOp28
 70
     1
102
RTVSPropertyOp29
 70
     1
102
RTVSPropertyOp30
 70
     1
102
RTVSPropertyOp31
 70
     1
102
RTVSPropertyOp32
 70
     1
102
RTVSPropertyOp33
 70
     1
102
RTVSPropertyOp34
 70
     1
102
RTVSPropertyOp35
 70
     1
102
RTVSPropertyOp36
 70
     1
102
RTVSPropertyOp37
 70
     1
102
RTVSPropertyOp38
 70
     1
102
RTVSPropertyOp39
 70
     1
102
RTVSPropertyOp40
 70
     1
102
RTVSPropertyOp41
 70
     1
102
RTVSPropertyOp42
 70
     1
102
RTVSPropertyOp43
 70
     1
102
RTVSPropertyOp44
 70
     1
102
RTVSPropertyOp45
 70
     1
102
RTVSPropertyOp46
 70
     1
102
RTVSPropertyOp47
 70
     1
102
RTVSPropertyOp48
 70
     1
102
RTVSPropertyOp49
 70
     1
102
RTVSPropertyOp50
 70
     1
102
RTVSPropertyOp51
 70
     0
102
RTVSPropertyOp52
 70
     0
102
RTVSPropertyOp53
 70
     1
102
RTVSPropertyOp54
 70
     1
102
RTVSPropertyOp55
 70
     1
102
RTVSPropertyOp56
 70
     1
102
RTVSPropertyOp57
 70
     1
102
RTVSPropertyOp58
 70
     1
102
RTVSPropertyOp59
 70
     1
102
RTVSPropertyOp60
 70
     1
102
RTVSPropertyOp61
 70
     1
102
RTVSPropertyOp62
 70
     1
  0
XRECORD
  5
B77E
102
{ACAD_REACTORS
330
B77D
102
}
330
B77D
100
AcDbXrecord
280
     1
102
RTVSPost2010Prop28
280
     0
102
RTVSPost2010PropOp28
 70
     1
102
RTVSPost2010Prop29
280
     1
102
RTVSPost2010PropOp29
 70
     1
102
RTVSPost2010Prop30
280
     1
102
RTVSPost2010PropOp30
 70
     1
102
RTVSPost2010Prop31
280
     0
102
RTVSPost2010PropOp31
 70
     1
102
RTVSPost2010Prop32
280
     0
102
RTVSPost2010PropOp32
 70
     1
102
RTVSPost2010Prop33
280
     0
102
RTVSPost2010PropOp33
 70
     1
102
RTVSPost2010Prop34
280
     0
102
RTVSPost2010PropOp34
 70
     1
102
RTVSPost2010Prop35
280
     0
102
RTVSPost2010PropOp35
 70
     1
102
RTVSPost2010Prop36
280
     0
102
RTVSPost2010PropOp36
 70
     1
102
RTVSPost2010Prop37
 90
       50
102
RTVSPost2010PropOp37
 70
     1
102
RTVSPost2010Prop38
140
0.0
102
RTVSPost2010PropOp38
 70
     1
102
RTVSPost2010Prop39
140
1.0
102
RTVSPost2010PropOp39
 70
     1
102
RTVSPost2010Prop40
 90
        0
102
RTVSPost2010PropOp40
 70
     1
102
RTVSPost2010Prop41ColorIndex
 90
       18
102
RTVSPost2010Prop41ColorRGB
 90
        0
102
RTVSPost2010PropOp41
 70
     1
102
RTVSPost2010Prop42
 90
       50
102
RTVSPost2010PropOp42
 70
     1
102
RTVSPost2010Prop43
 90
        3
102
RTVSPost2010PropOp43
 70
     1
102
RTVSPost2010Prop44ColorIndex
 90
        5
102
RTVSPost2010Prop44ColorRGB
 90
      255
102
RTVSPost2010PropOp44
 70
     1
102
RTVSPost2010Prop45
280
     0
102
RTVSPost2010PropOp45
 70
     1
102
RTVSPost2010Prop46
 90
       50
102
RTVSPost2010PropOp46
 70
     1
102
RTVSPost2010Prop47
 90
       50
102
RTVSPost2010PropOp47
 70
     1
102
RTVSPost2010Prop48
 90
       50
102
RTVSPost2010PropOp48
 70
     1
102
RTVSPost2010Prop49
280
     0
102
RTVSPost2010PropOp49
 70
     1
102
RTVSPost2010Prop50
 90
       50
102
RTVSPost2010PropOp50
 70
     1
102
RTVSPost2010Prop51ColorIndex
 90
      256
102
RTVSPost2010Prop51ColorRGB
 90
-16777216
102
RTVSPost2010PropOp51
 70
     0
102
RTVSPost2010Prop52
140
1.0
102
RTVSPost2010PropOp52
 70
     0
102
RTVSPost2010Prop53
 90
        2
102
RTVSPost2010PropOp53
 70
     1
102
RTVSPost2010Prop54
  1
strokes_ogs.tif
102
RTVSPost2010PropOp54
 70
     1
102
RTVSPost2010Prop55
280
     0
102
RTVSPost2010PropOp55
 70
     1
102
RTVSPost2010Prop56
140
1.0
102
RTVSPost2010PropOp56
 70
     1
102
RTVSPost2010Prop57
140
1.0
102
RTVSPost2010PropOp57
 70
     1
102
RTVSPropertyOp0
 70
     1
102
RTVSPropertyOp1
 70
     1
102
RTVSPropertyOp2
 70
     1
102
RTVSPropertyOp3
 70
     1
102
RTVSPropertyOp4
 70
     1
102
RTVSPropertyOp5
 70
     1
102
RTVSPropertyOp6
 70
     1
102
RTVSPropertyOp7
 70
     1
102
RTVSPropertyOp8
 70
     1
102
RTVSPropertyOp9
 70
     1
102
RTVSPropertyOp10
 70
     1
102
RTVSPropertyOp11
 70
     1
102
RTVSPropertyOp12
 70
     1
102
RTVSPropertyOp13
 70
     1
102
RTVSPropertyOp14
 70
     1
102
RTVSPropertyOp15
 70
     1
102
RTVSPropertyOp16
 70
     1
102
RTVSPropertyOp17
 70
     1
102
RTVSPropertyOp18
 70
     1
102
RTVSPropertyOp19
 70
     1
102
RTVSPropertyOp20
 70
     1
102
RTVSPropertyOp21
 70
     1
102
RTVSPropertyOp22
 70
     1
102
RTVSPropertyOp23
 70
     1
102
RTVSPropertyOp24
 70
     1
102
RTVSPropertyOp25
 70
     1
102
RTVSPropertyOp26
 70
     1
102
RTVSPropertyOp27
 70
     1
102
RTVSPropertyOp28
 70
     1
102
RTVSPropertyOp29
 70
     1
102
RTVSPropertyOp30
 70
     1
102
RTVSPropertyOp31
 70
     1
102
RTVSPropertyOp32
 70
     1
102
RTVSPropertyOp33
 70
     1
102
RTVSPropertyOp34
 70
     1
102
RTVSPropertyOp35
 70
     1
102
RTVSPropertyOp36
 70
     1
102
RTVSPropertyOp37
 70
     1
102
RTVSPropertyOp38
 70
     1
102
RTVSPropertyOp39
 70
     1
102
RTVSPropertyOp40
 70
     1
102
RTVSPropertyOp41
 70
     1
102
RTVSPropertyOp42
 70
     1
102
RTVSPropertyOp43
 70
     1
102
RTVSPropertyOp44
 70
     1
102
RTVSPropertyOp45
 70
     1
102
RTVSPropertyOp46
 70
     1
102
RTVSPropertyOp47
 70
     1
102
RTVSPropertyOp48
 70
     1
102
RTVSPropertyOp49
 70
     1
102
RTVSPropertyOp50
 70
     1
102
RTVSPropertyOp51
 70
     0
102
RTVSPropertyOp52
 70
     0
102
RTVSPropertyOp53
 70
     1
102
RTVSPropertyOp54
 70
     1
102
RTVSPropertyOp55
 70
     1
102
RTVSPropertyOp56
 70
     1
102
RTVSPropertyOp57
 70
     1
102
RTVSPropertyOp58
 70
     1
102
RTVSPropertyOp59
 70
     1
102
RTVSPropertyOp60
 70
     1
102
RTVSPropertyOp61
 70
     1
102
RTVSPropertyOp62
 70
     1
  0
XRECORD
  5
B798
102
{ACAD_REACTORS
330
B797
102
}
330
B797
100
AcDbXrecord
280
     1
102
RTVSPost2010Prop28
280
     0
102
RTVSPost2010PropOp28
 70
     1
102
RTVSPost2010Prop29
280
     1
102
RTVSPost2010PropOp29
 70
     1
102
RTVSPost2010Prop30
280
     1
102
RTVSPost2010PropOp30
 70
     1
102
RTVSPost2010Prop31
280
     0
102
RTVSPost2010PropOp31
 70
     1
102
RTVSPost2010Prop32
280
     0
102
RTVSPost2010PropOp32
 70
     1
102
RTVSPost2010Prop33
280
     0
102
RTVSPost2010PropOp33
 70
     1
102
RTVSPost2010Prop34
280
     0
102
RTVSPost2010PropOp34
 70
     1
102
RTVSPost2010Prop35
280
     0
102
RTVSPost2010PropOp35
 70
     1
102
RTVSPost2010Prop36
280
     0
102
RTVSPost2010PropOp36
 70
     1
102
RTVSPost2010Prop37
 90
       50
102
RTVSPost2010PropOp37
 70
     0
102
RTVSPost2010Prop38
140
0.0
102
RTVSPost2010PropOp38
 70
     0
102
RTVSPost2010Prop39
140
1.0
102
RTVSPost2010PropOp39
 70
     0
102
RTVSPost2010Prop40
 90
        0
102
RTVSPost2010PropOp40
 70
     0
102
RTVSPost2010Prop41ColorIndex
 90
       18
102
RTVSPost2010Prop41ColorRGB
 90
        0
102
RTVSPost2010PropOp41
 70
     0
102
RTVSPost2010Prop42
 90
       50
102
RTVSPost2010PropOp42
 70
     0
102
RTVSPost2010Prop43
 90
        3
102
RTVSPost2010PropOp43
 70
     0
102
RTVSPost2010Prop44ColorIndex
 90
        5
102
RTVSPost2010Prop44ColorRGB
 90
      255
102
RTVSPost2010PropOp44
 70
     0
102
RTVSPost2010Prop45
280
     0
102
RTVSPost2010PropOp45
 70
     1
102
RTVSPost2010Prop46
 90
       50
102
RTVSPost2010PropOp46
 70
     0
102
RTVSPost2010Prop47
 90
       50
102
RTVSPost2010PropOp47
 70
     0
102
RTVSPost2010Prop48
 90
       50
102
RTVSPost2010PropOp48
 70
     0
102
RTVSPost2010Prop49
280
     0
102
RTVSPost2010PropOp49
 70
     1
102
RTVSPost2010Prop50
 90
       50
102
RTVSPost2010PropOp50
 70
     0
102
RTVSPost2010Prop51ColorIndex
 90
      256
102
RTVSPost2010Prop51ColorRGB
 90
-16777216
102
RTVSPost2010PropOp51
 70
     0
102
RTVSPost2010Prop52
140
1.0
102
RTVSPost2010PropOp52
 70
     0
102
RTVSPost2010Prop53
 90
        2
102
RTVSPost2010PropOp53
 70
     0
102
RTVSPost2010Prop54
  1
strokes_ogs.tif
102
RTVSPost2010PropOp54
 70
     0
102
RTVSPost2010Prop55
280
     0
102
RTVSPost2010PropOp55
 70
     1
102
RTVSPost2010Prop56
140
1.0
102
RTVSPost2010PropOp56
 70
     0
102
RTVSPost2010Prop57
140
1.0
102
RTVSPost2010PropOp57
 70
     0
102
RTVSPropertyOp0
 70
     0
102
RTVSPropertyOp1
 70
     0
102
RTVSPropertyOp2
 70
     0
102
RTVSPropertyOp3
 70
     0
102
RTVSPropertyOp4
 70
     0
102
RTVSPropertyOp5
 70
     0
102
RTVSPropertyOp6
 70
     0
102
RTVSPropertyOp7
 70
     0
102
RTVSPropertyOp8
 70
     0
102
RTVSPropertyOp9
 70
     0
102
RTVSPropertyOp10
 70
     0
102
RTVSPropertyOp11
 70
     0
102
RTVSPropertyOp12
 70
     0
102
RTVSPropertyOp13
 70
     0
102
RTVSPropertyOp14
 70
     2
102
RTVSPropertyOp15
 70
     0
102
RTVSPropertyOp16
 70
     0
102
RTVSPropertyOp17
 70
     0
102
RTVSPropertyOp18
 70
     0
102
RTVSPropertyOp19
 70
     0
102
RTVSPropertyOp20
 70
     0
102
RTVSPropertyOp21
 70
     0
102
RTVSPropertyOp22
 70
     0
102
RTVSPropertyOp23
 70
     0
102
RTVSPropertyOp24
 70
     0
102
RTVSPropertyOp25
 70
     0
102
RTVSPropertyOp26
 70
     0
102
RTVSPropertyOp27
 70
     0
102
RTVSPropertyOp28
 70
     1
102
RTVSPropertyOp29
 70
     1
102
RTVSPropertyOp30
 70
     1
102
RTVSPropertyOp31
 70
     1
102
RTVSPropertyOp32
 70
     1
102
RTVSPropertyOp33
 70
     1
102
RTVSPropertyOp34
 70
     1
102
RTVSPropertyOp35
 70
     1
102
RTVSPropertyOp36
 70
     1
102
RTVSPropertyOp37
 70
     0
102
RTVSPropertyOp38
 70
     0
102
RTVSPropertyOp39
 70
     0
102
RTVSPropertyOp40
 70
     0
102
RTVSPropertyOp41
 70
     0
102
RTVSPropertyOp42
 70
     0
102
RTVSPropertyOp43
 70
     0
102
RTVSPropertyOp44
 70
     0
102
RTVSPropertyOp45
 70
     1
102
RTVSPropertyOp46
 70
     0
102
RTVSPropertyOp47
 70
     0
102
RTVSPropertyOp48
 70
     0
102
RTVSPropertyOp49
 70
     1
102
RTVSPropertyOp50
 70
     0
102
RTVSPropertyOp51
 70
     0
102
RTVSPropertyOp52
 70
     0
102
RTVSPropertyOp53
 70
     0
102
RTVSPropertyOp54
 70
     0
102
RTVSPropertyOp55
 70
     1
102
RTVSPropertyOp56
 70
     0
102
RTVSPropertyOp57
 70
     0
102
RTVSPropertyOp58
 70
     0
102
RTVSPropertyOp59
 70
     0
102
RTVSPropertyOp60
 70
     0
102
RTVSPropertyOp61
 70
     0
102
RTVSPropertyOp62
 70
     0
  0
XRECORD
  5
B786
102
{ACAD_REACTORS
330
B785
102
}
330
B785
100
AcDbXrecord
280
     1
102
RTVSPost2010Prop28
280
     0
102
RTVSPost2010PropOp28
 70
     1
102
RTVSPost2010Prop29
280
     1
102
RTVSPost2010PropOp29
 70
     1
102
RTVSPost2010Prop30
280
     1
102
RTVSPost2010PropOp30
 70
     1
102
RTVSPost2010Prop31
280
     0
102
RTVSPost2010PropOp31
 70
     1
102
RTVSPost2010Prop32
280
     0
102
RTVSPost2010PropOp32
 70
     1
102
RTVSPost2010Prop33
280
     0
102
RTVSPost2010PropOp33
 70
     1
102
RTVSPost2010Prop34
280
     0
102
RTVSPost2010PropOp34
 70
     1
102
RTVSPost2010Prop35
280
     0
102
RTVSPost2010PropOp35
 70
     1
102
RTVSPost2010Prop36
280
     0
102
RTVSPost2010PropOp36
 70
     1
102
RTVSPost2010Prop37
 90
       50
102
RTVSPost2010PropOp37
 70
     1
102
RTVSPost2010Prop38
140
0.0
102
RTVSPost2010PropOp38
 70
     1
102
RTVSPost2010Prop39
140
1.0
102
RTVSPost2010PropOp39
 70
     1
102
RTVSPost2010Prop40
 90
        0
102
RTVSPost2010PropOp40
 70
     1
102
RTVSPost2010Prop41ColorIndex
 90
       18
102
RTVSPost2010Prop41ColorRGB
 90
        0
102
RTVSPost2010PropOp41
 70
     1
102
RTVSPost2010Prop42
 90
       50
102
RTVSPost2010PropOp42
 70
     1
102
RTVSPost2010Prop43
 90
        3
102
RTVSPost2010PropOp43
 70
     1
102
RTVSPost2010Prop44ColorIndex
 90
        5
102
RTVSPost2010Prop44ColorRGB
 90
      255
102
RTVSPost2010PropOp44
 70
     1
102
RTVSPost2010Prop45
280
     0
102
RTVSPost2010PropOp45
 70
     1
102
RTVSPost2010Prop46
 90
       50
102
RTVSPost2010PropOp46
 70
     1
102
RTVSPost2010Prop47
 90
       50
102
RTVSPost2010PropOp47
 70
     1
102
RTVSPost2010Prop48
 90
       50
102
RTVSPost2010PropOp48
 70
     1
102
RTVSPost2010Prop49
280
     0
102
RTVSPost2010PropOp49
 70
     1
102
RTVSPost2010Prop50
 90
       50
102
RTVSPost2010PropOp50
 70
     1
102
RTVSPost2010Prop51ColorIndex
 90
      256
102
RTVSPost2010Prop51ColorRGB
 90
-16777216
102
RTVSPost2010PropOp51
 70
     0
102
RTVSPost2010Prop52
140
1.0
102
RTVSPost2010PropOp52
 70
     0
102
RTVSPost2010Prop53
 90
        2
102
RTVSPost2010PropOp53
 70
     1
102
RTVSPost2010Prop54
  1
strokes_ogs.tif
102
RTVSPost2010PropOp54
 70
     1
102
RTVSPost2010Prop55
280
     0
102
RTVSPost2010PropOp55
 70
     1
102
RTVSPost2010Prop56
140
1.0
102
RTVSPost2010PropOp56
 70
     1
102
RTVSPost2010Prop57
140
1.0
102
RTVSPost2010PropOp57
 70
     1
102
RTVSPropertyOp0
 70
     1
102
RTVSPropertyOp1
 70
     1
102
RTVSPropertyOp2
 70
     1
102
RTVSPropertyOp3
 70
     1
102
RTVSPropertyOp4
 70
     1
102
RTVSPropertyOp5
 70
     1
102
RTVSPropertyOp6
 70
     1
102
RTVSPropertyOp7
 70
     1
102
RTVSPropertyOp8
 70
     1
102
RTVSPropertyOp9
 70
     1
102
RTVSPropertyOp10
 70
     1
102
RTVSPropertyOp11
 70
     1
102
RTVSPropertyOp12
 70
     1
102
RTVSPropertyOp13
 70
     1
102
RTVSPropertyOp14
 70
     1
102
RTVSPropertyOp15
 70
     1
102
RTVSPropertyOp16
 70
     1
102
RTVSPropertyOp17
 70
     1
102
RTVSPropertyOp18
 70
     1
102
RTVSPropertyOp19
 70
     1
102
RTVSPropertyOp20
 70
     1
102
RTVSPropertyOp21
 70
     1
102
RTVSPropertyOp22
 70
     1
102
RTVSPropertyOp23
 70
     1
102
RTVSPropertyOp24
 70
     1
102
RTVSPropertyOp25
 70
     1
102
RTVSPropertyOp26
 70
     1
102
RTVSPropertyOp27
 70
     1
102
RTVSPropertyOp28
 70
     1
102
RTVSPropertyOp29
 70
     1
102
RTVSPropertyOp30
 70
     1
102
RTVSPropertyOp31
 70
     1
102
RTVSPropertyOp32
 70
     1
102
RTVSPropertyOp33
 70
     1
102
RTVSPropertyOp34
 70
     1
102
RTVSPropertyOp35
 70
     1
102
RTVSPropertyOp36
 70
     1
102
RTVSPropertyOp37
 70
     1
102
RTVSPropertyOp38
 70
     1
102
RTVSPropertyOp39
 70
     1
102
RTVSPropertyOp40
 70
     1
102
RTVSPropertyOp41
 70
     1
102
RTVSPropertyOp42
 70
     1
102
RTVSPropertyOp43
 70
     1
102
RTVSPropertyOp44
 70
     1
102
RTVSPropertyOp45
 70
     1
102
RTVSPropertyOp46
 70
     1
102
RTVSPropertyOp47
 70
     1
102
RTVSPropertyOp48
 70
     1
102
RTVSPropertyOp49
 70
     1
102
RTVSPropertyOp50
 70
     1
102
RTVSPropertyOp51
 70
     0
102
RTVSPropertyOp52
 70
     0
102
RTVSPropertyOp53
 70
     1
102
RTVSPropertyOp54
 70
     1
102
RTVSPropertyOp55
 70
     1
102
RTVSPropertyOp56
 70
     1
102
RTVSPropertyOp57
 70
     1
102
RTVSPropertyOp58
 70
     1
102
RTVSPropertyOp59
 70
     1
102
RTVSPropertyOp60
 70
     1
102
RTVSPropertyOp61
 70
     1
102
RTVSPropertyOp62
 70
     1
  0
XRECORD
  5
B76A
102
{ACAD_REACTORS
330
B769
102
}
330
B769
100
AcDbXrecord
280
     1
102
RTVSPost2010Prop28
280
     0
102
RTVSPost2010PropOp28
 70
     1
102
RTVSPost2010Prop29
280
     1
102
RTVSPost2010PropOp29
 70
     1
102
RTVSPost2010Prop30
280
     1
102
RTVSPost2010PropOp30
 70
     1
102
RTVSPost2010Prop31
280
     0
102
RTVSPost2010PropOp31
 70
     1
102
RTVSPost2010Prop32
280
     0
102
RTVSPost2010PropOp32
 70
     1
102
RTVSPost2010Prop33
280
     0
102
RTVSPost2010PropOp33
 70
     1
102
RTVSPost2010Prop34
280
     0
102
RTVSPost2010PropOp34
 70
     1
102
RTVSPost2010Prop35
280
     0
102
RTVSPost2010PropOp35
 70
     1
102
RTVSPost2010Prop36
280
     0
102
RTVSPost2010PropOp36
 70
     1
102
RTVSPost2010Prop37
 90
       50
102
RTVSPost2010PropOp37
 70
     1
102
RTVSPost2010Prop38
140
0.0
102
RTVSPost2010PropOp38
 70
     1
102
RTVSPost2010Prop39
140
1.0
102
RTVSPost2010PropOp39
 70
     1
102
RTVSPost2010Prop40
 90
        0
102
RTVSPost2010PropOp40
 70
     1
102
RTVSPost2010Prop41ColorIndex
 90
       18
102
RTVSPost2010Prop41ColorRGB
 90
        0
102
RTVSPost2010PropOp41
 70
     1
102
RTVSPost2010Prop42
 90
       50
102
RTVSPost2010PropOp42
 70
     1
102
RTVSPost2010Prop43
 90
        3
102
RTVSPost2010PropOp43
 70
     1
102
RTVSPost2010Prop44ColorIndex
 90
        5
102
RTVSPost2010Prop44ColorRGB
 90
      255
102
RTVSPost2010PropOp44
 70
     1
102
RTVSPost2010Prop45
280
     0
102
RTVSPost2010PropOp45
 70
     1
102
RTVSPost2010Prop46
 90
       50
102
RTVSPost2010PropOp46
 70
     1
102
RTVSPost2010Prop47
 90
       50
102
RTVSPost2010PropOp47
 70
     1
102
RTVSPost2010Prop48
 90
       50
102
RTVSPost2010PropOp48
 70
     1
102
RTVSPost2010Prop49
280
     0
102
RTVSPost2010PropOp49
 70
     1
102
RTVSPost2010Prop50
 90
       50
102
RTVSPost2010PropOp50
 70
     1
102
RTVSPost2010Prop51ColorIndex
 90
      256
102
RTVSPost2010Prop51ColorRGB
 90
-16777216
102
RTVSPost2010PropOp51
 70
     0
102
RTVSPost2010Prop52
140
1.0
102
RTVSPost2010PropOp52
 70
     0
102
RTVSPost2010Prop53
 90
        2
102
RTVSPost2010PropOp53
 70
     1
102
RTVSPost2010Prop54
  1
strokes_ogs.tif
102
RTVSPost2010PropOp54
 70
     1
102
RTVSPost2010Prop55
280
     0
102
RTVSPost2010PropOp55
 70
     1
102
RTVSPost2010Prop56
140
1.0
102
RTVSPost2010PropOp56
 70
     1
102
RTVSPost2010Prop57
140
1.0
102
RTVSPost2010PropOp57
 70
     1
102
RTVSPropertyOp0
 70
     1
102
RTVSPropertyOp1
 70
     1
102
RTVSPropertyOp2
 70
     1
102
RTVSPropertyOp3
 70
     1
102
RTVSPropertyOp4
 70
     1
102
RTVSPropertyOp5
 70
     1
102
RTVSPropertyOp6
 70
     1
102
RTVSPropertyOp7
 70
     1
102
RTVSPropertyOp8
 70
     1
102
RTVSPropertyOp9
 70
     1
102
RTVSPropertyOp10
 70
     1
102
RTVSPropertyOp11
 70
     1
102
RTVSPropertyOp12
 70
     1
102
RTVSPropertyOp13
 70
     1
102
RTVSPropertyOp14
 70
     1
102
RTVSPropertyOp15
 70
     1
102
RTVSPropertyOp16
 70
     1
102
RTVSPropertyOp17
 70
     1
102
RTVSPropertyOp18
 70
     1
102
RTVSPropertyOp19
 70
     1
102
RTVSPropertyOp20
 70
     1
102
RTVSPropertyOp21
 70
     1
102
RTVSPropertyOp22
 70
     1
102
RTVSPropertyOp23
 70
     1
102
RTVSPropertyOp24
 70
     1
102
RTVSPropertyOp25
 70
     1
102
RTVSPropertyOp26
 70
     1
102
RTVSPropertyOp27
 70
     1
102
RTVSPropertyOp28
 70
     1
102
RTVSPropertyOp29
 70
     1
102
RTVSPropertyOp30
 70
     1
102
RTVSPropertyOp31
 70
     1
102
RTVSPropertyOp32
 70
     1
102
RTVSPropertyOp33
 70
     1
102
RTVSPropertyOp34
 70
     1
102
RTVSPropertyOp35
 70
     1
102
RTVSPropertyOp36
 70
     1
102
RTVSPropertyOp37
 70
     1
102
RTVSPropertyOp38
 70
     1
102
RTVSPropertyOp39
 70
     1
102
RTVSPropertyOp40
 70
     1
102
RTVSPropertyOp41
 70
     1
102
RTVSPropertyOp42
 70
     1
102
RTVSPropertyOp43
 70
     1
102
RTVSPropertyOp44
 70
     1
102
RTVSPropertyOp45
 70
     1
102
RTVSPropertyOp46
 70
     1
102
RTVSPropertyOp47
 70
     1
102
RTVSPropertyOp48
 70
     1
102
RTVSPropertyOp49
 70
     1
102
RTVSPropertyOp50
 70
     1
102
RTVSPropertyOp51
 70
     0
102
RTVSPropertyOp52
 70
     0
102
RTVSPropertyOp53
 70
     1
102
RTVSPropertyOp54
 70
     1
102
RTVSPropertyOp55
 70
     1
102
RTVSPropertyOp56
 70
     1
102
RTVSPropertyOp57
 70
     1
102
RTVSPropertyOp58
 70
     1
102
RTVSPropertyOp59
 70
     1
102
RTVSPropertyOp60
 70
     1
102
RTVSPropertyOp61
 70
     1
102
RTVSPropertyOp62
 70
     1
  0
XRECORD
  5
B76C
102
{ACAD_REACTORS
330
B76B
102
}
330
B76B
100
AcDbXrecord
280
     1
102
RTVSPost2010Prop28
280
     0
102
RTVSPost2010PropOp28
 70
     1
102
RTVSPost2010Prop29
280
     1
102
RTVSPost2010PropOp29
 70
     1
102
RTVSPost2010Prop30
280
     1
102
RTVSPost2010PropOp30
 70
     1
102
RTVSPost2010Prop31
280
     0
102
RTVSPost2010PropOp31
 70
     1
102
RTVSPost2010Prop32
280
     0
102
RTVSPost2010PropOp32
 70
     1
102
RTVSPost2010Prop33
280
     0
102
RTVSPost2010PropOp33
 70
     1
102
RTVSPost2010Prop34
280
     0
102
RTVSPost2010PropOp34
 70
     1
102
RTVSPost2010Prop35
280
     0
102
RTVSPost2010PropOp35
 70
     1
102
RTVSPost2010Prop36
280
     0
102
RTVSPost2010PropOp36
 70
     1
102
RTVSPost2010Prop37
 90
       50
102
RTVSPost2010PropOp37
 70
     1
102
RTVSPost2010Prop38
140
0.0
102
RTVSPost2010PropOp38
 70
     1
102
RTVSPost2010Prop39
140
1.0
102
RTVSPost2010PropOp39
 70
     1
102
RTVSPost2010Prop40
 90
        0
102
RTVSPost2010PropOp40
 70
     1
102
RTVSPost2010Prop41ColorIndex
 90
       18
102
RTVSPost2010Prop41ColorRGB
 90
        0
102
RTVSPost2010PropOp41
 70
     1
102
RTVSPost2010Prop42
 90
       50
102
RTVSPost2010PropOp42
 70
     1
102
RTVSPost2010Prop43
 90
        3
102
RTVSPost2010PropOp43
 70
     1
102
RTVSPost2010Prop44ColorIndex
 90
        5
102
RTVSPost2010Prop44ColorRGB
 90
      255
102
RTVSPost2010PropOp44
 70
     1
102
RTVSPost2010Prop45
280
     0
102
RTVSPost2010PropOp45
 70
     1
102
RTVSPost2010Prop46
 90
       50
102
RTVSPost2010PropOp46
 70
     1
102
RTVSPost2010Prop47
 90
       50
102
RTVSPost2010PropOp47
 70
     1
102
RTVSPost2010Prop48
 90
       50
102
RTVSPost2010PropOp48
 70
     1
102
RTVSPost2010Prop49
280
     0
102
RTVSPost2010PropOp49
 70
     1
102
RTVSPost2010Prop50
 90
       50
102
RTVSPost2010PropOp50
 70
     1
102
RTVSPost2010Prop51ColorIndex
 90
      256
102
RTVSPost2010Prop51ColorRGB
 90
-16777216
102
RTVSPost2010PropOp51
 70
     0
102
RTVSPost2010Prop52
140
1.0
102
RTVSPost2010PropOp52
 70
     0
102
RTVSPost2010Prop53
 90
        2
102
RTVSPost2010PropOp53
 70
     1
102
RTVSPost2010Prop54
  1
strokes_ogs.tif
102
RTVSPost2010PropOp54
 70
     1
102
RTVSPost2010Prop55
280
     0
102
RTVSPost2010PropOp55
 70
     1
102
RTVSPost2010Prop56
140
1.0
102
RTVSPost2010PropOp56
 70
     1
102
RTVSPost2010Prop57
140
1.0
102
RTVSPost2010PropOp57
 70
     1
102
RTVSPropertyOp0
 70
     1
102
RTVSPropertyOp1
 70
     1
102
RTVSPropertyOp2
 70
     1
102
RTVSPropertyOp3
 70
     1
102
RTVSPropertyOp4
 70
     1
102
RTVSPropertyOp5
 70
     1
102
RTVSPropertyOp6
 70
     1
102
RTVSPropertyOp7
 70
     1
102
RTVSPropertyOp8
 70
     1
102
RTVSPropertyOp9
 70
     1
102
RTVSPropertyOp10
 70
     1
102
RTVSPropertyOp11
 70
     1
102
RTVSPropertyOp12
 70
     1
102
RTVSPropertyOp13
 70
     1
102
RTVSPropertyOp14
 70
     1
102
RTVSPropertyOp15
 70
     1
102
RTVSPropertyOp16
 70
     1
102
RTVSPropertyOp17
 70
     1
102
RTVSPropertyOp18
 70
     1
102
RTVSPropertyOp19
 70
     1
102
RTVSPropertyOp20
 70
     1
102
RTVSPropertyOp21
 70
     1
102
RTVSPropertyOp22
 70
     1
102
RTVSPropertyOp23
 70
     1
102
RTVSPropertyOp24
 70
     1
102
RTVSPropertyOp25
 70
     1
102
RTVSPropertyOp26
 70
     1
102
RTVSPropertyOp27
 70
     1
102
RTVSPropertyOp28
 70
     1
102
RTVSPropertyOp29
 70
     1
102
RTVSPropertyOp30
 70
     1
102
RTVSPropertyOp31
 70
     1
102
RTVSPropertyOp32
 70
     1
102
RTVSPropertyOp33
 70
     1
102
RTVSPropertyOp34
 70
     1
102
RTVSPropertyOp35
 70
     1
102
RTVSPropertyOp36
 70
     1
102
RTVSPropertyOp37
 70
     1
102
RTVSPropertyOp38
 70
     1
102
RTVSPropertyOp39
 70
     1
102
RTVSPropertyOp40
 70
     1
102
RTVSPropertyOp41
 70
     1
102
RTVSPropertyOp42
 70
     1
102
RTVSPropertyOp43
 70
     1
102
RTVSPropertyOp44
 70
     1
102
RTVSPropertyOp45
 70
     1
102
RTVSPropertyOp46
 70
     1
102
RTVSPropertyOp47
 70
     1
102
RTVSPropertyOp48
 70
     1
102
RTVSPropertyOp49
 70
     1
102
RTVSPropertyOp50
 70
     1
102
RTVSPropertyOp51
 70
     0
102
RTVSPropertyOp52
 70
     0
102
RTVSPropertyOp53
 70
     1
102
RTVSPropertyOp54
 70
     1
102
RTVSPropertyOp55
 70
     1
102
RTVSPropertyOp56
 70
     1
102
RTVSPropertyOp57
 70
     1
102
RTVSPropertyOp58
 70
     1
102
RTVSPropertyOp59
 70
     1
102
RTVSPropertyOp60
 70
     1
102
RTVSPropertyOp61
 70
     1
102
RTVSPropertyOp62
 70
     1
  0
XRECORD
  5
B76E
102
{ACAD_REACTORS
330
B76D
102
}
330
B76D
100
AcDbXrecord
280
     1
102
RTVSPost2010Prop28
280
     0
102
RTVSPost2010PropOp28
 70
     1
102
RTVSPost2010Prop29
280
     1
102
RTVSPost2010PropOp29
 70
     1
102
RTVSPost2010Prop30
280
     1
102
RTVSPost2010PropOp30
 70
     1
102
RTVSPost2010Prop31
280
     0
102
RTVSPost2010PropOp31
 70
     1
102
RTVSPost2010Prop32
280
     0
102
RTVSPost2010PropOp32
 70
     1
102
RTVSPost2010Prop33
280
     0
102
RTVSPost2010PropOp33
 70
     1
102
RTVSPost2010Prop34
280
     0
102
RTVSPost2010PropOp34
 70
     1
102
RTVSPost2010Prop35
280
     0
102
RTVSPost2010PropOp35
 70
     1
102
RTVSPost2010Prop36
280
     0
102
RTVSPost2010PropOp36
 70
     1
102
RTVSPost2010Prop37
 90
       50
102
RTVSPost2010PropOp37
 70
     1
102
RTVSPost2010Prop38
140
0.0
102
RTVSPost2010PropOp38
 70
     1
102
RTVSPost2010Prop39
140
1.0
102
RTVSPost2010PropOp39
 70
     1
102
RTVSPost2010Prop40
 90
        0
102
RTVSPost2010PropOp40
 70
     1
102
RTVSPost2010Prop41ColorIndex
 90
       18
102
RTVSPost2010Prop41ColorRGB
 90
        0
102
RTVSPost2010PropOp41
 70
     1
102
RTVSPost2010Prop42
 90
       50
102
RTVSPost2010PropOp42
 70
     1
102
RTVSPost2010Prop43
 90
        3
102
RTVSPost2010PropOp43
 70
     1
102
RTVSPost2010Prop44ColorIndex
 90
        5
102
RTVSPost2010Prop44ColorRGB
 90
      255
102
RTVSPost2010PropOp44
 70
     1
102
RTVSPost2010Prop45
280
     0
102
RTVSPost2010PropOp45
 70
     1
102
RTVSPost2010Prop46
 90
       50
102
RTVSPost2010PropOp46
 70
     1
102
RTVSPost2010Prop47
 90
       50
102
RTVSPost2010PropOp47
 70
     1
102
RTVSPost2010Prop48
 90
       50
102
RTVSPost2010PropOp48
 70
     1
102
RTVSPost2010Prop49
280
     0
102
RTVSPost2010PropOp49
 70
     1
102
RTVSPost2010Prop50
 90
       50
102
RTVSPost2010PropOp50
 70
     1
102
RTVSPost2010Prop51ColorIndex
 90
      256
102
RTVSPost2010Prop51ColorRGB
 90
-16777216
102
RTVSPost2010PropOp51
 70
     0
102
RTVSPost2010Prop52
140
1.0
102
RTVSPost2010PropOp52
 70
     0
102
RTVSPost2010Prop53
 90
        2
102
RTVSPost2010PropOp53
 70
     1
102
RTVSPost2010Prop54
  1
strokes_ogs.tif
102
RTVSPost2010PropOp54
 70
     1
102
RTVSPost2010Prop55
280
     0
102
RTVSPost2010PropOp55
 70
     1
102
RTVSPost2010Prop56
140
1.0
102
RTVSPost2010PropOp56
 70
     1
102
RTVSPost2010Prop57
140
1.0
102
RTVSPost2010PropOp57
 70
     1
102
RTVSPropertyOp0
 70
     1
102
RTVSPropertyOp1
 70
     1
102
RTVSPropertyOp2
 70
     1
102
RTVSPropertyOp3
 70
     1
102
RTVSPropertyOp4
 70
     1
102
RTVSPropertyOp5
 70
     1
102
RTVSPropertyOp6
 70
     1
102
RTVSPropertyOp7
 70
     1
102
RTVSPropertyOp8
 70
     1
102
RTVSPropertyOp9
 70
     1
102
RTVSPropertyOp10
 70
     1
102
RTVSPropertyOp11
 70
     1
102
RTVSPropertyOp12
 70
     1
102
RTVSPropertyOp13
 70
     1
102
RTVSPropertyOp14
 70
     1
102
RTVSPropertyOp15
 70
     1
102
RTVSPropertyOp16
 70
     1
102
RTVSPropertyOp17
 70
     1
102
RTVSPropertyOp18
 70
     1
102
RTVSPropertyOp19
 70
     1
102
RTVSPropertyOp20
 70
     1
102
RTVSPropertyOp21
 70
     1
102
RTVSPropertyOp22
 70
     1
102
RTVSPropertyOp23
 70
     1
102
RTVSPropertyOp24
 70
     1
102
RTVSPropertyOp25
 70
     1
102
RTVSPropertyOp26
 70
     1
102
RTVSPropertyOp27
 70
     1
102
RTVSPropertyOp28
 70
     1
102
RTVSPropertyOp29
 70
     1
102
RTVSPropertyOp30
 70
     1
102
RTVSPropertyOp31
 70
     1
102
RTVSPropertyOp32
 70
     1
102
RTVSPropertyOp33
 70
     1
102
RTVSPropertyOp34
 70
     1
102
RTVSPropertyOp35
 70
     1
102
RTVSPropertyOp36
 70
     1
102
RTVSPropertyOp37
 70
     1
102
RTVSPropertyOp38
 70
     1
102
RTVSPropertyOp39
 70
     1
102
RTVSPropertyOp40
 70
     1
102
RTVSPropertyOp41
 70
     1
102
RTVSPropertyOp42
 70
     1
102
RTVSPropertyOp43
 70
     1
102
RTVSPropertyOp44
 70
     1
102
RTVSPropertyOp45
 70
     1
102
RTVSPropertyOp46
 70
     1
102
RTVSPropertyOp47
 70
     1
102
RTVSPropertyOp48
 70
     1
102
RTVSPropertyOp49
 70
     1
102
RTVSPropertyOp50
 70
     1
102
RTVSPropertyOp51
 70
     0
102
RTVSPropertyOp52
 70
     0
102
RTVSPropertyOp53
 70
     1
102
RTVSPropertyOp54
 70
     1
102
RTVSPropertyOp55
 70
     1
102
RTVSPropertyOp56
 70
     1
102
RTVSPropertyOp57
 70
     1
102
RTVSPropertyOp58
 70
     1
102
RTVSPropertyOp59
 70
     1
102
RTVSPropertyOp60
 70
     1
102
RTVSPropertyOp61
 70
     1
102
RTVSPropertyOp62
 70
     1
  0
XRECORD
  5
B770
102
{ACAD_REACTORS
330
B76F
102
}
330
B76F
100
AcDbXrecord
280
     1
102
RTVSPost2010Prop28
280
     0
102
RTVSPost2010PropOp28
 70
     1
102
RTVSPost2010Prop29
280
     1
102
RTVSPost2010PropOp29
 70
     1
102
RTVSPost2010Prop30
280
     1
102
RTVSPost2010PropOp30
 70
     1
102
RTVSPost2010Prop31
280
     0
102
RTVSPost2010PropOp31
 70
     1
102
RTVSPost2010Prop32
280
     0
102
RTVSPost2010PropOp32
 70
     1
102
RTVSPost2010Prop33
280
     0
102
RTVSPost2010PropOp33
 70
     1
102
RTVSPost2010Prop34
280
     0
102
RTVSPost2010PropOp34
 70
     1
102
RTVSPost2010Prop35
280
     0
102
RTVSPost2010PropOp35
 70
     1
102
RTVSPost2010Prop36
280
     0
102
RTVSPost2010PropOp36
 70
     1
102
RTVSPost2010Prop37
 90
       50
102
RTVSPost2010PropOp37
 70
     1
102
RTVSPost2010Prop38
140
0.0
102
RTVSPost2010PropOp38
 70
     1
102
RTVSPost2010Prop39
140
1.0
102
RTVSPost2010PropOp39
 70
     1
102
RTVSPost2010Prop40
 90
        0
102
RTVSPost2010PropOp40
 70
     1
102
RTVSPost2010Prop41ColorIndex
 90
       18
102
RTVSPost2010Prop41ColorRGB
 90
        0
102
RTVSPost2010PropOp41
 70
     1
102
RTVSPost2010Prop42
 90
       50
102
RTVSPost2010PropOp42
 70
     1
102
RTVSPost2010Prop43
 90
        3
102
RTVSPost2010PropOp43
 70
     1
102
RTVSPost2010Prop44ColorIndex
 90
        5
102
RTVSPost2010Prop44ColorRGB
 90
      255
102
RTVSPost2010PropOp44
 70
     1
102
RTVSPost2010Prop45
280
     0
102
RTVSPost2010PropOp45
 70
     1
102
RTVSPost2010Prop46
 90
       50
102
RTVSPost2010PropOp46
 70
     1
102
RTVSPost2010Prop47
 90
       50
102
RTVSPost2010PropOp47
 70
     1
102
RTVSPost2010Prop48
 90
       50
102
RTVSPost2010PropOp48
 70
     1
102
RTVSPost2010Prop49
280
     0
102
RTVSPost2010PropOp49
 70
     1
102
RTVSPost2010Prop50
 90
       50
102
RTVSPost2010PropOp50
 70
     1
102
RTVSPost2010Prop51ColorIndex
 90
      256
102
RTVSPost2010Prop51ColorRGB
 90
-16777216
102
RTVSPost2010PropOp51
 70
     0
102
RTVSPost2010Prop52
140
1.0
102
RTVSPost2010PropOp52
 70
     0
102
RTVSPost2010Prop53
 90
        2
102
RTVSPost2010PropOp53
 70
     1
102
RTVSPost2010Prop54
  1
strokes_ogs.tif
102
RTVSPost2010PropOp54
 70
     1
102
RTVSPost2010Prop55
280
     0
102
RTVSPost2010PropOp55
 70
     1
102
RTVSPost2010Prop56
140
1.0
102
RTVSPost2010PropOp56
 70
     1
102
RTVSPost2010Prop57
140
1.0
102
RTVSPost2010PropOp57
 70
     1
102
RTVSPropertyOp0
 70
     1
102
RTVSPropertyOp1
 70
     1
102
RTVSPropertyOp2
 70
     1
102
RTVSPropertyOp3
 70
     1
102
RTVSPropertyOp4
 70
     1
102
RTVSPropertyOp5
 70
     1
102
RTVSPropertyOp6
 70
     1
102
RTVSPropertyOp7
 70
     1
102
RTVSPropertyOp8
 70
     1
102
RTVSPropertyOp9
 70
     1
102
RTVSPropertyOp10
 70
     1
102
RTVSPropertyOp11
 70
     1
102
RTVSPropertyOp12
 70
     1
102
RTVSPropertyOp13
 70
     1
102
RTVSPropertyOp14
 70
     1
102
RTVSPropertyOp15
 70
     1
102
RTVSPropertyOp16
 70
     1
102
RTVSPropertyOp17
 70
     1
102
RTVSPropertyOp18
 70
     1
102
RTVSPropertyOp19
 70
     1
102
RTVSPropertyOp20
 70
     1
102
RTVSPropertyOp21
 70
     1
102
RTVSPropertyOp22
 70
     1
102
RTVSPropertyOp23
 70
     1
102
RTVSPropertyOp24
 70
     1
102
RTVSPropertyOp25
 70
     1
102
RTVSPropertyOp26
 70
     1
102
RTVSPropertyOp27
 70
     1
102
RTVSPropertyOp28
 70
     1
102
RTVSPropertyOp29
 70
     1
102
RTVSPropertyOp30
 70
     1
102
RTVSPropertyOp31
 70
     1
102
RTVSPropertyOp32
 70
     1
102
RTVSPropertyOp33
 70
     1
102
RTVSPropertyOp34
 70
     1
102
RTVSPropertyOp35
 70
     1
102
RTVSPropertyOp36
 70
     1
102
RTVSPropertyOp37
 70
     1
102
RTVSPropertyOp38
 70
     1
102
RTVSPropertyOp39
 70
     1
102
RTVSPropertyOp40
 70
     1
102
RTVSPropertyOp41
 70
     1
102
RTVSPropertyOp42
 70
     1
102
RTVSPropertyOp43
 70
     1
102
RTVSPropertyOp44
 70
     1
102
RTVSPropertyOp45
 70
     1
102
RTVSPropertyOp46
 70
     1
102
RTVSPropertyOp47
 70
     1
102
RTVSPropertyOp48
 70
     1
102
RTVSPropertyOp49
 70
     1
102
RTVSPropertyOp50
 70
     1
102
RTVSPropertyOp51
 70
     0
102
RTVSPropertyOp52
 70
     0
102
RTVSPropertyOp53
 70
     1
102
RTVSPropertyOp54
 70
     1
102
RTVSPropertyOp55
 70
     1
102
RTVSPropertyOp56
 70
     1
102
RTVSPropertyOp57
 70
     1
102
RTVSPropertyOp58
 70
     1
102
RTVSPropertyOp59
 70
     1
102
RTVSPropertyOp60
 70
     1
102
RTVSPropertyOp61
 70
     1
102
RTVSPropertyOp62
 70
     1
  0
XRECORD
  5
B778
102
{ACAD_REACTORS
330
B777
102
}
330
B777
100
AcDbXrecord
280
     1
102
RTVSPost2010Prop28
280
     0
102
RTVSPost2010PropOp28
 70
     1
102
RTVSPost2010Prop29
280
     1
102
RTVSPost2010PropOp29
 70
     1
102
RTVSPost2010Prop30
280
     1
102
RTVSPost2010PropOp30
 70
     1
102
RTVSPost2010Prop31
280
     0
102
RTVSPost2010PropOp31
 70
     1
102
RTVSPost2010Prop32
280
     0
102
RTVSPost2010PropOp32
 70
     1
102
RTVSPost2010Prop33
280
     0
102
RTVSPost2010PropOp33
 70
     1
102
RTVSPost2010Prop34
280
     0
102
RTVSPost2010PropOp34
 70
     1
102
RTVSPost2010Prop35
280
     0
102
RTVSPost2010PropOp35
 70
     1
102
RTVSPost2010Prop36
280
     0
102
RTVSPost2010PropOp36
 70
     1
102
RTVSPost2010Prop37
 90
       50
102
RTVSPost2010PropOp37
 70
     1
102
RTVSPost2010Prop38
140
0.0
102
RTVSPost2010PropOp38
 70
     1
102
RTVSPost2010Prop39
140
1.0
102
RTVSPost2010PropOp39
 70
     1
102
RTVSPost2010Prop40
 90
        0
102
RTVSPost2010PropOp40
 70
     1
102
RTVSPost2010Prop41ColorIndex
 90
       18
102
RTVSPost2010Prop41ColorRGB
 90
        0
102
RTVSPost2010PropOp41
 70
     1
102
RTVSPost2010Prop42
 90
       50
102
RTVSPost2010PropOp42
 70
     1
102
RTVSPost2010Prop43
 90
        3
102
RTVSPost2010PropOp43
 70
     1
102
RTVSPost2010Prop44ColorIndex
 90
        5
102
RTVSPost2010Prop44ColorRGB
 90
      255
102
RTVSPost2010PropOp44
 70
     1
102
RTVSPost2010Prop45
280
     0
102
RTVSPost2010PropOp45
 70
     1
102
RTVSPost2010Prop46
 90
       50
102
RTVSPost2010PropOp46
 70
     1
102
RTVSPost2010Prop47
 90
       50
102
RTVSPost2010PropOp47
 70
     1
102
RTVSPost2010Prop48
 90
       50
102
RTVSPost2010PropOp48
 70
     1
102
RTVSPost2010Prop49
280
     0
102
RTVSPost2010PropOp49
 70
     1
102
RTVSPost2010Prop50
 90
       50
102
RTVSPost2010PropOp50
 70
     1
102
RTVSPost2010Prop51ColorIndex
 90
      256
102
RTVSPost2010Prop51ColorRGB
 90
-16777216
102
RTVSPost2010PropOp51
 70
     0
102
RTVSPost2010Prop52
140
1.0
102
RTVSPost2010PropOp52
 70
     0
102
RTVSPost2010Prop53
 90
        2
102
RTVSPost2010PropOp53
 70
     1
102
RTVSPost2010Prop54
  1
strokes_ogs.tif
102
RTVSPost2010PropOp54
 70
     1
102
RTVSPost2010Prop55
280
     0
102
RTVSPost2010PropOp55
 70
     1
102
RTVSPost2010Prop56
140
1.0
102
RTVSPost2010PropOp56
 70
     1
102
RTVSPost2010Prop57
140
1.0
102
RTVSPost2010PropOp57
 70
     1
102
RTVSPropertyOp0
 70
     1
102
RTVSPropertyOp1
 70
     1
102
RTVSPropertyOp2
 70
     1
102
RTVSPropertyOp3
 70
     1
102
RTVSPropertyOp4
 70
     1
102
RTVSPropertyOp5
 70
     1
102
RTVSPropertyOp6
 70
     1
102
RTVSPropertyOp7
 70
     1
102
RTVSPropertyOp8
 70
     1
102
RTVSPropertyOp9
 70
     1
102
RTVSPropertyOp10
 70
     1
102
RTVSPropertyOp11
 70
     1
102
RTVSPropertyOp12
 70
     1
102
RTVSPropertyOp13
 70
     1
102
RTVSPropertyOp14
 70
     1
102
RTVSPropertyOp15
 70
     1
102
RTVSPropertyOp16
 70
     1
102
RTVSPropertyOp17
 70
     1
102
RTVSPropertyOp18
 70
     1
102
RTVSPropertyOp19
 70
     1
102
RTVSPropertyOp20
 70
     1
102
RTVSPropertyOp21
 70
     1
102
RTVSPropertyOp22
 70
     1
102
RTVSPropertyOp23
 70
     1
102
RTVSPropertyOp24
 70
     1
102
RTVSPropertyOp25
 70
     1
102
RTVSPropertyOp26
 70
     1
102
RTVSPropertyOp27
 70
     1
102
RTVSPropertyOp28
 70
     1
102
RTVSPropertyOp29
 70
     1
102
RTVSPropertyOp30
 70
     1
102
RTVSPropertyOp31
 70
     1
102
RTVSPropertyOp32
 70
     1
102
RTVSPropertyOp33
 70
     1
102
RTVSPropertyOp34
 70
     1
102
RTVSPropertyOp35
 70
     1
102
RTVSPropertyOp36
 70
     1
102
RTVSPropertyOp37
 70
     1
102
RTVSPropertyOp38
 70
     1
102
RTVSPropertyOp39
 70
     1
102
RTVSPropertyOp40
 70
     1
102
RTVSPropertyOp41
 70
     1
102
RTVSPropertyOp42
 70
     1
102
RTVSPropertyOp43
 70
     1
102
RTVSPropertyOp44
 70
     1
102
RTVSPropertyOp45
 70
     1
102
RTVSPropertyOp46
 70
     1
102
RTVSPropertyOp47
 70
     1
102
RTVSPropertyOp48
 70
     1
102
RTVSPropertyOp49
 70
     1
102
RTVSPropertyOp50
 70
     1
102
RTVSPropertyOp51
 70
     0
102
RTVSPropertyOp52
 70
     0
102
RTVSPropertyOp53
 70
     1
102
RTVSPropertyOp54
 70
     1
102
RTVSPropertyOp55
 70
     1
102
RTVSPropertyOp56
 70
     1
102
RTVSPropertyOp57
 70
     1
102
RTVSPropertyOp58
 70
     1
102
RTVSPropertyOp59
 70
     1
102
RTVSPropertyOp60
 70
     1
102
RTVSPropertyOp61
 70
     1
102
RTVSPropertyOp62
 70
     1
  0
XRECORD
  5
B794
102
{ACAD_REACTORS
330
B793
102
}
330
B793
100
AcDbXrecord
280
     1
102
RTVSPost2010Prop28
280
     0
102
RTVSPost2010PropOp28
 70
     1
102
RTVSPost2010Prop29
280
     1
102
RTVSPost2010PropOp29
 70
     1
102
RTVSPost2010Prop30
280
     1
102
RTVSPost2010PropOp30
 70
     1
102
RTVSPost2010Prop31
280
     0
102
RTVSPost2010PropOp31
 70
     1
102
RTVSPost2010Prop32
280
     0
102
RTVSPost2010PropOp32
 70
     1
102
RTVSPost2010Prop33
280
     0
102
RTVSPost2010PropOp33
 70
     1
102
RTVSPost2010Prop34
280
     0
102
RTVSPost2010PropOp34
 70
     1
102
RTVSPost2010Prop35
280
     0
102
RTVSPost2010PropOp35
 70
     1
102
RTVSPost2010Prop36
280
     0
102
RTVSPost2010PropOp36
 70
     1
102
RTVSPost2010Prop37
 90
       50
102
RTVSPost2010PropOp37
 70
     0
102
RTVSPost2010Prop38
140
0.0
102
RTVSPost2010PropOp38
 70
     0
102
RTVSPost2010Prop39
140
1.0
102
RTVSPost2010PropOp39
 70
     0
102
RTVSPost2010Prop40
 90
        0
102
RTVSPost2010PropOp40
 70
     0
102
RTVSPost2010Prop41ColorIndex
 90
       18
102
RTVSPost2010Prop41ColorRGB
 90
        0
102
RTVSPost2010PropOp41
 70
     0
102
RTVSPost2010Prop42
 90
       50
102
RTVSPost2010PropOp42
 70
     0
102
RTVSPost2010Prop43
 90
        3
102
RTVSPost2010PropOp43
 70
     0
102
RTVSPost2010Prop44ColorIndex
 90
        5
102
RTVSPost2010Prop44ColorRGB
 90
      255
102
RTVSPost2010PropOp44
 70
     0
102
RTVSPost2010Prop45
280
     0
102
RTVSPost2010PropOp45
 70
     1
102
RTVSPost2010Prop46
 90
       50
102
RTVSPost2010PropOp46
 70
     0
102
RTVSPost2010Prop47
 90
       50
102
RTVSPost2010PropOp47
 70
     0
102
RTVSPost2010Prop48
 90
       50
102
RTVSPost2010PropOp48
 70
     0
102
RTVSPost2010Prop49
280
     0
102
RTVSPost2010PropOp49
 70
     1
102
RTVSPost2010Prop50
 90
       50
102
RTVSPost2010PropOp50
 70
     0
102
RTVSPost2010Prop51ColorIndex
 90
      256
102
RTVSPost2010Prop51ColorRGB
 90
-16777216
102
RTVSPost2010PropOp51
 70
     0
102
RTVSPost2010Prop52
140
1.0
102
RTVSPost2010PropOp52
 70
     0
102
RTVSPost2010Prop53
 90
        2
102
RTVSPost2010PropOp53
 70
     0
102
RTVSPost2010Prop54
  1
strokes_ogs.tif
102
RTVSPost2010PropOp54
 70
     0
102
RTVSPost2010Prop55
280
     0
102
RTVSPost2010PropOp55
 70
     1
102
RTVSPost2010Prop56
140
1.0
102
RTVSPost2010PropOp56
 70
     0
102
RTVSPost2010Prop57
140
1.0
102
RTVSPost2010PropOp57
 70
     0
102
RTVSPropertyOp0
 70
     0
102
RTVSPropertyOp1
 70
     0
102
RTVSPropertyOp2
 70
     0
102
RTVSPropertyOp3
 70
     0
102
RTVSPropertyOp4
 70
     0
102
RTVSPropertyOp5
 70
     0
102
RTVSPropertyOp6
 70
     0
102
RTVSPropertyOp7
 70
     0
102
RTVSPropertyOp8
 70
     0
102
RTVSPropertyOp9
 70
     0
102
RTVSPropertyOp10
 70
     0
102
RTVSPropertyOp11
 70
     0
102
RTVSPropertyOp12
 70
     0
102
RTVSPropertyOp13
 70
     0
102
RTVSPropertyOp14
 70
     2
102
RTVSPropertyOp15
 70
     0
102
RTVSPropertyOp16
 70
     0
102
RTVSPropertyOp17
 70
     0
102
RTVSPropertyOp18
 70
     0
102
RTVSPropertyOp19
 70
     0
102
RTVSPropertyOp20
 70
     0
102
RTVSPropertyOp21
 70
     0
102
RTVSPropertyOp22
 70
     0
102
RTVSPropertyOp23
 70
     0
102
RTVSPropertyOp24
 70
     0
102
RTVSPropertyOp25
 70
     0
102
RTVSPropertyOp26
 70
     0
102
RTVSPropertyOp27
 70
     0
102
RTVSPropertyOp28
 70
     1
102
RTVSPropertyOp29
 70
     1
102
RTVSPropertyOp30
 70
     1
102
RTVSPropertyOp31
 70
     1
102
RTVSPropertyOp32
 70
     1
102
RTVSPropertyOp33
 70
     1
102
RTVSPropertyOp34
 70
     1
102
RTVSPropertyOp35
 70
     1
102
RTVSPropertyOp36
 70
     1
102
RTVSPropertyOp37
 70
     0
102
RTVSPropertyOp38
 70
     0
102
RTVSPropertyOp39
 70
     0
102
RTVSPropertyOp40
 70
     0
102
RTVSPropertyOp41
 70
     0
102
RTVSPropertyOp42
 70
     0
102
RTVSPropertyOp43
 70
     0
102
RTVSPropertyOp44
 70
     0
102
RTVSPropertyOp45
 70
     1
102
RTVSPropertyOp46
 70
     0
102
RTVSPropertyOp47
 70
     0
102
RTVSPropertyOp48
 70
     0
102
RTVSPropertyOp49
 70
     1
102
RTVSPropertyOp50
 70
     0
102
RTVSPropertyOp51
 70
     0
102
RTVSPropertyOp52
 70
     0
102
RTVSPropertyOp53
 70
     0
102
RTVSPropertyOp54
 70
     0
102
RTVSPropertyOp55
 70
     1
102
RTVSPropertyOp56
 70
     0
102
RTVSPropertyOp57
 70
     0
102
RTVSPropertyOp58
 70
     0
102
RTVSPropertyOp59
 70
     0
102
RTVSPropertyOp60
 70
     0
102
RTVSPropertyOp61
 70
     0
102
RTVSPropertyOp62
 70
     0
  0
XRECORD
  5
B784
102
{ACAD_REACTORS
330
B783
102
}
330
B783
100
AcDbXrecord
280
     1
102
RTVSPost2010Prop28
280
     0
102
RTVSPost2010PropOp28
 70
     1
102
RTVSPost2010Prop29
280
     1
102
RTVSPost2010PropOp29
 70
     1
102
RTVSPost2010Prop30
280
     1
102
RTVSPost2010PropOp30
 70
     1
102
RTVSPost2010Prop31
280
     0
102
RTVSPost2010PropOp31
 70
     1
102
RTVSPost2010Prop32
280
     0
102
RTVSPost2010PropOp32
 70
     1
102
RTVSPost2010Prop33
280
     0
102
RTVSPost2010PropOp33
 70
     1
102
RTVSPost2010Prop34
280
     0
102
RTVSPost2010PropOp34
 70
     1
102
RTVSPost2010Prop35
280
     0
102
RTVSPost2010PropOp35
 70
     1
102
RTVSPost2010Prop36
280
     0
102
RTVSPost2010PropOp36
 70
     1
102
RTVSPost2010Prop37
 90
       50
102
RTVSPost2010PropOp37
 70
     1
102
RTVSPost2010Prop38
140
0.0
102
RTVSPost2010PropOp38
 70
     1
102
RTVSPost2010Prop39
140
1.0
102
RTVSPost2010PropOp39
 70
     1
102
RTVSPost2010Prop40
 90
        0
102
RTVSPost2010PropOp40
 70
     1
102
RTVSPost2010Prop41ColorIndex
 90
       18
102
RTVSPost2010Prop41ColorRGB
 90
        0
102
RTVSPost2010PropOp41
 70
     1
102
RTVSPost2010Prop42
 90
       50
102
RTVSPost2010PropOp42
 70
     1
102
RTVSPost2010Prop43
 90
        3
102
RTVSPost2010PropOp43
 70
     1
102
RTVSPost2010Prop44ColorIndex
 90
        5
102
RTVSPost2010Prop44ColorRGB
 90
      255
102
RTVSPost2010PropOp44
 70
     1
102
RTVSPost2010Prop45
280
     0
102
RTVSPost2010PropOp45
 70
     1
102
RTVSPost2010Prop46
 90
       50
102
RTVSPost2010PropOp46
 70
     1
102
RTVSPost2010Prop47
 90
       50
102
RTVSPost2010PropOp47
 70
     1
102
RTVSPost2010Prop48
 90
       50
102
RTVSPost2010PropOp48
 70
     1
102
RTVSPost2010Prop49
280
     0
102
RTVSPost2010PropOp49
 70
     1
102
RTVSPost2010Prop50
 90
       50
102
RTVSPost2010PropOp50
 70
     1
102
RTVSPost2010Prop51ColorIndex
 90
      256
102
RTVSPost2010Prop51ColorRGB
 90
-16777216
102
RTVSPost2010PropOp51
 70
     0
102
RTVSPost2010Prop52
140
1.0
102
RTVSPost2010PropOp52
 70
     0
102
RTVSPost2010Prop53
 90
        2
102
RTVSPost2010PropOp53
 70
     1
102
RTVSPost2010Prop54
  1
strokes_ogs.tif
102
RTVSPost2010PropOp54
 70
     1
102
RTVSPost2010Prop55
280
     0
102
RTVSPost2010PropOp55
 70
     1
102
RTVSPost2010Prop56
140
1.0
102
RTVSPost2010PropOp56
 70
     1
102
RTVSPost2010Prop57
140
1.0
102
RTVSPost2010PropOp57
 70
     1
102
RTVSPropertyOp0
 70
     1
102
RTVSPropertyOp1
 70
     1
102
RTVSPropertyOp2
 70
     1
102
RTVSPropertyOp3
 70
     1
102
RTVSPropertyOp4
 70
     1
102
RTVSPropertyOp5
 70
     1
102
RTVSPropertyOp6
 70
     1
102
RTVSPropertyOp7
 70
     1
102
RTVSPropertyOp8
 70
     1
102
RTVSPropertyOp9
 70
     1
102
RTVSPropertyOp10
 70
     1
102
RTVSPropertyOp11
 70
     1
102
RTVSPropertyOp12
 70
     1
102
RTVSPropertyOp13
 70
     1
102
RTVSPropertyOp14
 70
     1
102
RTVSPropertyOp15
 70
     1
102
RTVSPropertyOp16
 70
     1
102
RTVSPropertyOp17
 70
     1
102
RTVSPropertyOp18
 70
     1
102
RTVSPropertyOp19
 70
     1
102
RTVSPropertyOp20
 70
     1
102
RTVSPropertyOp21
 70
     1
102
RTVSPropertyOp22
 70
     1
102
RTVSPropertyOp23
 70
     1
102
RTVSPropertyOp24
 70
     1
102
RTVSPropertyOp25
 70
     1
102
RTVSPropertyOp26
 70
     1
102
RTVSPropertyOp27
 70
     1
102
RTVSPropertyOp28
 70
     1
102
RTVSPropertyOp29
 70
     1
102
RTVSPropertyOp30
 70
     1
102
RTVSPropertyOp31
 70
     1
102
RTVSPropertyOp32
 70
     1
102
RTVSPropertyOp33
 70
     1
102
RTVSPropertyOp34
 70
     1
102
RTVSPropertyOp35
 70
     1
102
RTVSPropertyOp36
 70
     1
102
RTVSPropertyOp37
 70
     1
102
RTVSPropertyOp38
 70
     1
102
RTVSPropertyOp39
 70
     1
102
RTVSPropertyOp40
 70
     1
102
RTVSPropertyOp41
 70
     1
102
RTVSPropertyOp42
 70
     1
102
RTVSPropertyOp43
 70
     1
102
RTVSPropertyOp44
 70
     1
102
RTVSPropertyOp45
 70
     1
102
RTVSPropertyOp46
 70
     1
102
RTVSPropertyOp47
 70
     1
102
RTVSPropertyOp48
 70
     1
102
RTVSPropertyOp49
 70
     1
102
RTVSPropertyOp50
 70
     1
102
RTVSPropertyOp51
 70
     0
102
RTVSPropertyOp52
 70
     0
102
RTVSPropertyOp53
 70
     1
102
RTVSPropertyOp54
 70
     1
102
RTVSPropertyOp55
 70
     1
102
RTVSPropertyOp56
 70
     1
102
RTVSPropertyOp57
 70
     1
102
RTVSPropertyOp58
 70
     1
102
RTVSPropertyOp59
 70
     1
102
RTVSPropertyOp60
 70
     1
102
RTVSPropertyOp61
 70
     1
102
RTVSPropertyOp62
 70
     1
  0
XRECORD
  5
B796
102
{ACAD_REACTORS
330
B795
102
}
330
B795
100
AcDbXrecord
280
     1
102
RTVSPost2010Prop28
280
     0
102
RTVSPost2010PropOp28
 70
     1
102
RTVSPost2010Prop29
280
     1
102
RTVSPost2010PropOp29
 70
     1
102
RTVSPost2010Prop30
280
     1
102
RTVSPost2010PropOp30
 70
     1
102
RTVSPost2010Prop31
280
     0
102
RTVSPost2010PropOp31
 70
     1
102
RTVSPost2010Prop32
280
     0
102
RTVSPost2010PropOp32
 70
     1
102
RTVSPost2010Prop33
280
     0
102
RTVSPost2010PropOp33
 70
     1
102
RTVSPost2010Prop34
280
     0
102
RTVSPost2010PropOp34
 70
     1
102
RTVSPost2010Prop35
280
     0
102
RTVSPost2010PropOp35
 70
     1
102
RTVSPost2010Prop36
280
     0
102
RTVSPost2010PropOp36
 70
     1
102
RTVSPost2010Prop37
 90
       50
102
RTVSPost2010PropOp37
 70
     0
102
RTVSPost2010Prop38
140
0.0
102
RTVSPost2010PropOp38
 70
     0
102
RTVSPost2010Prop39
140
1.0
102
RTVSPost2010PropOp39
 70
     0
102
RTVSPost2010Prop40
 90
        0
102
RTVSPost2010PropOp40
 70
     0
102
RTVSPost2010Prop41ColorIndex
 90
       18
102
RTVSPost2010Prop41ColorRGB
 90
        0
102
RTVSPost2010PropOp41
 70
     0
102
RTVSPost2010Prop42
 90
       50
102
RTVSPost2010PropOp42
 70
     0
102
RTVSPost2010Prop43
 90
        3
102
RTVSPost2010PropOp43
 70
     0
102
RTVSPost2010Prop44ColorIndex
 90
        5
102
RTVSPost2010Prop44ColorRGB
 90
      255
102
RTVSPost2010PropOp44
 70
     0
102
RTVSPost2010Prop45
280
     0
102
RTVSPost2010PropOp45
 70
     1
102
RTVSPost2010Prop46
 90
       50
102
RTVSPost2010PropOp46
 70
     0
102
RTVSPost2010Prop47
 90
       50
102
RTVSPost2010PropOp47
 70
     0
102
RTVSPost2010Prop48
 90
       50
102
RTVSPost2010PropOp48
 70
     0
102
RTVSPost2010Prop49
280
     0
102
RTVSPost2010PropOp49
 70
     1
102
RTVSPost2010Prop50
 90
       50
102
RTVSPost2010PropOp50
 70
     0
102
RTVSPost2010Prop51ColorIndex
 90
      256
102
RTVSPost2010Prop51ColorRGB
 90
-16777216
102
RTVSPost2010PropOp51
 70
     0
102
RTVSPost2010Prop52
140
1.0
102
RTVSPost2010PropOp52
 70
     0
102
RTVSPost2010Prop53
 90
        2
102
RTVSPost2010PropOp53
 70
     0
102
RTVSPost2010Prop54
  1
strokes_ogs.tif
102
RTVSPost2010PropOp54
 70
     0
102
RTVSPost2010Prop55
280
     0
102
RTVSPost2010PropOp55
 70
     1
102
RTVSPost2010Prop56
140
1.0
102
RTVSPost2010PropOp56
 70
     0
102
RTVSPost2010Prop57
140
1.0
102
RTVSPost2010PropOp57
 70
     0
102
RTVSPropertyOp0
 70
     0
102
RTVSPropertyOp1
 70
     0
102
RTVSPropertyOp2
 70
     0
102
RTVSPropertyOp3
 70
     0
102
RTVSPropertyOp4
 70
     0
102
RTVSPropertyOp5
 70
     0
102
RTVSPropertyOp6
 70
     0
102
RTVSPropertyOp7
 70
     0
102
RTVSPropertyOp8
 70
     0
102
RTVSPropertyOp9
 70
     0
102
RTVSPropertyOp10
 70
     0
102
RTVSPropertyOp11
 70
     0
102
RTVSPropertyOp12
 70
     0
102
RTVSPropertyOp13
 70
     0
102
RTVSPropertyOp14
 70
     2
102
RTVSPropertyOp15
 70
     0
102
RTVSPropertyOp16
 70
     0
102
RTVSPropertyOp17
 70
     0
102
RTVSPropertyOp18
 70
     0
102
RTVSPropertyOp19
 70
     0
102
RTVSPropertyOp20
 70
     0
102
RTVSPropertyOp21
 70
     0
102
RTVSPropertyOp22
 70
     0
102
RTVSPropertyOp23
 70
     0
102
RTVSPropertyOp24
 70
     0
102
RTVSPropertyOp25
 70
     0
102
RTVSPropertyOp26
 70
     0
102
RTVSPropertyOp27
 70
     0
102
RTVSPropertyOp28
 70
     1
102
RTVSPropertyOp29
 70
     1
102
RTVSPropertyOp30
 70
     1
102
RTVSPropertyOp31
 70
     1
102
RTVSPropertyOp32
 70
     1
102
RTVSPropertyOp33
 70
     1
102
RTVSPropertyOp34
 70
     1
102
RTVSPropertyOp35
 70
     1
102
RTVSPropertyOp36
 70
     1
102
RTVSPropertyOp37
 70
     0
102
RTVSPropertyOp38
 70
     0
102
RTVSPropertyOp39
 70
     0
102
RTVSPropertyOp40
 70
     0
102
RTVSPropertyOp41
 70
     0
102
RTVSPropertyOp42
 70
     0
102
RTVSPropertyOp43
 70
     0
102
RTVSPropertyOp44
 70
     0
102
RTVSPropertyOp45
 70
     1
102
RTVSPropertyOp46
 70
     0
102
RTVSPropertyOp47
 70
     0
102
RTVSPropertyOp48
 70
     0
102
RTVSPropertyOp49
 70
     1
102
RTVSPropertyOp50
 70
     0
102
RTVSPropertyOp51
 70
     0
102
RTVSPropertyOp52
 70
     0
102
RTVSPropertyOp53
 70
     0
102
RTVSPropertyOp54
 70
     0
102
RTVSPropertyOp55
 70
     1
102
RTVSPropertyOp56
 70
     0
102
RTVSPropertyOp57
 70
     0
102
RTVSPropertyOp58
 70
     0
102
RTVSPropertyOp59
 70
     0
102
RTVSPropertyOp60
 70
     0
102
RTVSPropertyOp61
 70
     0
102
RTVSPropertyOp62
 70
     0
  0
XRECORD
  5
B77C
102
{ACAD_REACTORS
330
B77B
102
}
330
B77B
100
AcDbXrecord
280
     1
102
RTVSPost2010Prop28
280
     0
102
RTVSPost2010PropOp28
 70
     1
102
RTVSPost2010Prop29
280
     1
102
RTVSPost2010PropOp29
 70
     1
102
RTVSPost2010Prop30
280
     1
102
RTVSPost2010PropOp30
 70
     1
102
RTVSPost2010Prop31
280
     0
102
RTVSPost2010PropOp31
 70
     1
102
RTVSPost2010Prop32
280
     0
102
RTVSPost2010PropOp32
 70
     1
102
RTVSPost2010Prop33
280
     0
102
RTVSPost2010PropOp33
 70
     1
102
RTVSPost2010Prop34
280
     0
102
RTVSPost2010PropOp34
 70
     1
102
RTVSPost2010Prop35
280
     0
102
RTVSPost2010PropOp35
 70
     1
102
RTVSPost2010Prop36
280
     0
102
RTVSPost2010PropOp36
 70
     1
102
RTVSPost2010Prop37
 90
       50
102
RTVSPost2010PropOp37
 70
     1
102
RTVSPost2010Prop38
140
0.0
102
RTVSPost2010PropOp38
 70
     1
102
RTVSPost2010Prop39
140
1.0
102
RTVSPost2010PropOp39
 70
     1
102
RTVSPost2010Prop40
 90
        0
102
RTVSPost2010PropOp40
 70
     1
102
RTVSPost2010Prop41ColorIndex
 90
       18
102
RTVSPost2010Prop41ColorRGB
 90
        0
102
RTVSPost2010PropOp41
 70
     1
102
RTVSPost2010Prop42
 90
       50
102
RTVSPost2010PropOp42
 70
     1
102
RTVSPost2010Prop43
 90
        3
102
RTVSPost2010PropOp43
 70
     1
102
RTVSPost2010Prop44ColorIndex
 90
        5
102
RTVSPost2010Prop44ColorRGB
 90
      255
102
RTVSPost2010PropOp44
 70
     1
102
RTVSPost2010Prop45
280
     0
102
RTVSPost2010PropOp45
 70
     1
102
RTVSPost2010Prop46
 90
       50
102
RTVSPost2010PropOp46
 70
     1
102
RTVSPost2010Prop47
 90
       50
102
RTVSPost2010PropOp47
 70
     1
102
RTVSPost2010Prop48
 90
       50
102
RTVSPost2010PropOp48
 70
     1
102
RTVSPost2010Prop49
280
     0
102
RTVSPost2010PropOp49
 70
     1
102
RTVSPost2010Prop50
 90
       50
102
RTVSPost2010PropOp50
 70
     1
102
RTVSPost2010Prop51ColorIndex
 90
      256
102
RTVSPost2010Prop51ColorRGB
 90
-16777216
102
RTVSPost2010PropOp51
 70
     0
102
RTVSPost2010Prop52
140
1.0
102
RTVSPost2010PropOp52
 70
     0
102
RTVSPost2010Prop53
 90
        2
102
RTVSPost2010PropOp53
 70
     1
102
RTVSPost2010Prop54
  1
strokes_ogs.tif
102
RTVSPost2010PropOp54
 70
     1
102
RTVSPost2010Prop55
280
     0
102
RTVSPost2010PropOp55
 70
     1
102
RTVSPost2010Prop56
140
1.0
102
RTVSPost2010PropOp56
 70
     1
102
RTVSPost2010Prop57
140
1.0
102
RTVSPost2010PropOp57
 70
     1
102
RTVSPropertyOp0
 70
     1
102
RTVSPropertyOp1
 70
     1
102
RTVSPropertyOp2
 70
     1
102
RTVSPropertyOp3
 70
     1
102
RTVSPropertyOp4
 70
     1
102
RTVSPropertyOp5
 70
     1
102
RTVSPropertyOp6
 70
     1
102
RTVSPropertyOp7
 70
     1
102
RTVSPropertyOp8
 70
     1
102
RTVSPropertyOp9
 70
     1
102
RTVSPropertyOp10
 70
     1
102
RTVSPropertyOp11
 70
     1
102
RTVSPropertyOp12
 70
     1
102
RTVSPropertyOp13
 70
     1
102
RTVSPropertyOp14
 70
     1
102
RTVSPropertyOp15
 70
     1
102
RTVSPropertyOp16
 70
     1
102
RTVSPropertyOp17
 70
     1
102
RTVSPropertyOp18
 70
     1
102
RTVSPropertyOp19
 70
     1
102
RTVSPropertyOp20
 70
     1
102
RTVSPropertyOp21
 70
     1
102
RTVSPropertyOp22
 70
     1
102
RTVSPropertyOp23
 70
     1
102
RTVSPropertyOp24
 70
     1
102
RTVSPropertyOp25
 70
     1
102
RTVSPropertyOp26
 70
     1
102
RTVSPropertyOp27
 70
     1
102
RTVSPropertyOp28
 70
     1
102
RTVSPropertyOp29
 70
     1
102
RTVSPropertyOp30
 70
     1
102
RTVSPropertyOp31
 70
     1
102
RTVSPropertyOp32
 70
     1
102
RTVSPropertyOp33
 70
     1
102
RTVSPropertyOp34
 70
     1
102
RTVSPropertyOp35
 70
     1
102
RTVSPropertyOp36
 70
     1
102
RTVSPropertyOp37
 70
     1
102
RTVSPropertyOp38
 70
     1
102
RTVSPropertyOp39
 70
     1
102
RTVSPropertyOp40
 70
     1
102
RTVSPropertyOp41
 70
     1
102
RTVSPropertyOp42
 70
     1
102
RTVSPropertyOp43
 70
     1
102
RTVSPropertyOp44
 70
     1
102
RTVSPropertyOp45
 70
     1
102
RTVSPropertyOp46
 70
     1
102
RTVSPropertyOp47
 70
     1
102
RTVSPropertyOp48
 70
     1
102
RTVSPropertyOp49
 70
     1
102
RTVSPropertyOp50
 70
     1
102
RTVSPropertyOp51
 70
     0
102
RTVSPropertyOp52
 70
     0
102
RTVSPropertyOp53
 70
     1
102
RTVSPropertyOp54
 70
     1
102
RTVSPropertyOp55
 70
     1
102
RTVSPropertyOp56
 70
     1
102
RTVSPropertyOp57
 70
     1
102
RTVSPropertyOp58
 70
     1
102
RTVSPropertyOp59
 70
     1
102
RTVSPropertyOp60
 70
     1
102
RTVSPropertyOp61
 70
     1
102
RTVSPropertyOp62
 70
     1
  0
XRECORD
  5
B792
102
{ACAD_REACTORS
330
B791
102
}
330
B791
100
AcDbXrecord
280
     1
102
RTVSPost2010Prop28
280
     0
102
RTVSPost2010PropOp28
 70
     1
102
RTVSPost2010Prop29
280
     1
102
RTVSPost2010PropOp29
 70
     1
102
RTVSPost2010Prop30
280
     1
102
RTVSPost2010PropOp30
 70
     1
102
RTVSPost2010Prop31
280
     0
102
RTVSPost2010PropOp31
 70
     1
102
RTVSPost2010Prop32
280
     0
102
RTVSPost2010PropOp32
 70
     1
102
RTVSPost2010Prop33
280
     0
102
RTVSPost2010PropOp33
 70
     1
102
RTVSPost2010Prop34
280
     0
102
RTVSPost2010PropOp34
 70
     1
102
RTVSPost2010Prop35
280
     0
102
RTVSPost2010PropOp35
 70
     1
102
RTVSPost2010Prop36
280
     0
102
RTVSPost2010PropOp36
 70
     1
102
RTVSPost2010Prop37
 90
       50
102
RTVSPost2010PropOp37
 70
     1
102
RTVSPost2010Prop38
140
0.0
102
RTVSPost2010PropOp38
 70
     1
102
RTVSPost2010Prop39
140
1.0
102
RTVSPost2010PropOp39
 70
     1
102
RTVSPost2010Prop40
 90
        0
102
RTVSPost2010PropOp40
 70
     1
102
RTVSPost2010Prop41ColorIndex
 90
       18
102
RTVSPost2010Prop41ColorRGB
 90
        0
102
RTVSPost2010PropOp41
 70
     1
102
RTVSPost2010Prop42
 90
       50
102
RTVSPost2010PropOp42
 70
     1
102
RTVSPost2010Prop43
 90
        3
102
RTVSPost2010PropOp43
 70
     1
102
RTVSPost2010Prop44ColorIndex
 90
        5
102
RTVSPost2010Prop44ColorRGB
 90
      255
102
RTVSPost2010PropOp44
 70
     1
102
RTVSPost2010Prop45
280
     0
102
RTVSPost2010PropOp45
 70
     1
102
RTVSPost2010Prop46
 90
       50
102
RTVSPost2010PropOp46
 70
     1
102
RTVSPost2010Prop47
 90
       50
102
RTVSPost2010PropOp47
 70
     1
102
RTVSPost2010Prop48
 90
       50
102
RTVSPost2010PropOp48
 70
     1
102
RTVSPost2010Prop49
280
     0
102
RTVSPost2010PropOp49
 70
     1
102
RTVSPost2010Prop50
 90
       50
102
RTVSPost2010PropOp50
 70
     1
102
RTVSPost2010Prop51ColorIndex
 90
      256
102
RTVSPost2010Prop51ColorRGB
 90
-16777216
102
RTVSPost2010PropOp51
 70
     0
102
RTVSPost2010Prop52
140
1.0
102
RTVSPost2010PropOp52
 70
     0
102
RTVSPost2010Prop53
 90
        2
102
RTVSPost2010PropOp53
 70
     1
102
RTVSPost2010Prop54
  1
strokes_ogs.tif
102
RTVSPost2010PropOp54
 70
     1
102
RTVSPost2010Prop55
280
     0
102
RTVSPost2010PropOp55
 70
     1
102
RTVSPost2010Prop56
140
1.0
102
RTVSPost2010PropOp56
 70
     1
102
RTVSPost2010Prop57
140
1.0
102
RTVSPost2010PropOp57
 70
     1
102
RTVSPropertyOp0
 70
     1
102
RTVSPropertyOp1
 70
     1
102
RTVSPropertyOp2
 70
     1
102
RTVSPropertyOp3
 70
     1
102
RTVSPropertyOp4
 70
     1
102
RTVSPropertyOp5
 70
     1
102
RTVSPropertyOp6
 70
     1
102
RTVSPropertyOp7
 70
     1
102
RTVSPropertyOp8
 70
     1
102
RTVSPropertyOp9
 70
     1
102
RTVSPropertyOp10
 70
     1
102
RTVSPropertyOp11
 70
     1
102
RTVSPropertyOp12
 70
     1
102
RTVSPropertyOp13
 70
     1
102
RTVSPropertyOp14
 70
     1
102
RTVSPropertyOp15
 70
     1
102
RTVSPropertyOp16
 70
     1
102
RTVSPropertyOp17
 70
     1
102
RTVSPropertyOp18
 70
     1
102
RTVSPropertyOp19
 70
     1
102
RTVSPropertyOp20
 70
     1
102
RTVSPropertyOp21
 70
     1
102
RTVSPropertyOp22
 70
     1
102
RTVSPropertyOp23
 70
     1
102
RTVSPropertyOp24
 70
     1
102
RTVSPropertyOp25
 70
     1
102
RTVSPropertyOp26
 70
     1
102
RTVSPropertyOp27
 70
     1
102
RTVSPropertyOp28
 70
     1
102
RTVSPropertyOp29
 70
     1
102
RTVSPropertyOp30
 70
     1
102
RTVSPropertyOp31
 70
     1
102
RTVSPropertyOp32
 70
     1
102
RTVSPropertyOp33
 70
     1
102
RTVSPropertyOp34
 70
     1
102
RTVSPropertyOp35
 70
     1
102
RTVSPropertyOp36
 70
     1
102
RTVSPropertyOp37
 70
     1
102
RTVSPropertyOp38
 70
     1
102
RTVSPropertyOp39
 70
     1
102
RTVSPropertyOp40
 70
     1
102
RTVSPropertyOp41
 70
     1
102
RTVSPropertyOp42
 70
     1
102
RTVSPropertyOp43
 70
     1
102
RTVSPropertyOp44
 70
     1
102
RTVSPropertyOp45
 70
     1
102
RTVSPropertyOp46
 70
     1
102
RTVSPropertyOp47
 70
     1
102
RTVSPropertyOp48
 70
     1
102
RTVSPropertyOp49
 70
     1
102
RTVSPropertyOp50
 70
     1
102
RTVSPropertyOp51
 70
     0
102
RTVSPropertyOp52
 70
     0
102
RTVSPropertyOp53
 70
     1
102
RTVSPropertyOp54
 70
     1
102
RTVSPropertyOp55
 70
     1
102
RTVSPropertyOp56
 70
     1
102
RTVSPropertyOp57
 70
     1
102
RTVSPropertyOp58
 70
     1
102
RTVSPropertyOp59
 70
     1
102
RTVSPropertyOp60
 70
     1
102
RTVSPropertyOp61
 70
     1
102
RTVSPropertyOp62
 70
     1
  0
XRECORD
  5
B790
102
{ACAD_REACTORS
330
B78F
102
}
330
B78F
100
AcDbXrecord
280
     1
102
RTVSPost2010Prop28
280
     0
102
RTVSPost2010PropOp28
 70
     1
102
RTVSPost2010Prop29
280
     1
102
RTVSPost2010PropOp29
 70
     1
102
RTVSPost2010Prop30
280
     1
102
RTVSPost2010PropOp30
 70
     1
102
RTVSPost2010Prop31
280
     0
102
RTVSPost2010PropOp31
 70
     1
102
RTVSPost2010Prop32
280
     0
102
RTVSPost2010PropOp32
 70
     1
102
RTVSPost2010Prop33
280
     0
102
RTVSPost2010PropOp33
 70
     1
102
RTVSPost2010Prop34
280
     0
102
RTVSPost2010PropOp34
 70
     1
102
RTVSPost2010Prop35
280
     0
102
RTVSPost2010PropOp35
 70
     1
102
RTVSPost2010Prop36
280
     0
102
RTVSPost2010PropOp36
 70
     1
102
RTVSPost2010Prop37
 90
       50
102
RTVSPost2010PropOp37
 70
     1
102
RTVSPost2010Prop38
140
0.0
102
RTVSPost2010PropOp38
 70
     1
102
RTVSPost2010Prop39
140
1.0
102
RTVSPost2010PropOp39
 70
     1
102
RTVSPost2010Prop40
 90
        0
102
RTVSPost2010PropOp40
 70
     1
102
RTVSPost2010Prop41ColorIndex
 90
       18
102
RTVSPost2010Prop41ColorRGB
 90
        0
102
RTVSPost2010PropOp41
 70
     1
102
RTVSPost2010Prop42
 90
       50
102
RTVSPost2010PropOp42
 70
     1
102
RTVSPost2010Prop43
 90
        3
102
RTVSPost2010PropOp43
 70
     1
102
RTVSPost2010Prop44ColorIndex
 90
        5
102
RTVSPost2010Prop44ColorRGB
 90
      255
102
RTVSPost2010PropOp44
 70
     1
102
RTVSPost2010Prop45
280
     0
102
RTVSPost2010PropOp45
 70
     1
102
RTVSPost2010Prop46
 90
       50
102
RTVSPost2010PropOp46
 70
     1
102
RTVSPost2010Prop47
 90
       50
102
RTVSPost2010PropOp47
 70
     1
102
RTVSPost2010Prop48
 90
       50
102
RTVSPost2010PropOp48
 70
     1
102
RTVSPost2010Prop49
280
     0
102
RTVSPost2010PropOp49
 70
     1
102
RTVSPost2010Prop50
 90
       50
102
RTVSPost2010PropOp50
 70
     1
102
RTVSPost2010Prop51ColorIndex
 90
      256
102
RTVSPost2010Prop51ColorRGB
 90
-16777216
102
RTVSPost2010PropOp51
 70
     0
102
RTVSPost2010Prop52
140
1.0
102
RTVSPost2010PropOp52
 70
     0
102
RTVSPost2010Prop53
 90
        2
102
RTVSPost2010PropOp53
 70
     1
102
RTVSPost2010Prop54
  1
strokes_ogs.tif
102
RTVSPost2010PropOp54
 70
     1
102
RTVSPost2010Prop55
280
     0
102
RTVSPost2010PropOp55
 70
     1
102
RTVSPost2010Prop56
140
1.0
102
RTVSPost2010PropOp56
 70
     1
102
RTVSPost2010Prop57
140
1.0
102
RTVSPost2010PropOp57
 70
     1
102
RTVSPropertyOp0
 70
     1
102
RTVSPropertyOp1
 70
     1
102
RTVSPropertyOp2
 70
     1
102
RTVSPropertyOp3
 70
     1
102
RTVSPropertyOp4
 70
     1
102
RTVSPropertyOp5
 70
     1
102
RTVSPropertyOp6
 70
     1
102
RTVSPropertyOp7
 70
     1
102
RTVSPropertyOp8
 70
     1
102
RTVSPropertyOp9
 70
     1
102
RTVSPropertyOp10
 70
     1
102
RTVSPropertyOp11
 70
     1
102
RTVSPropertyOp12
 70
     1
102
RTVSPropertyOp13
 70
     1
102
RTVSPropertyOp14
 70
     1
102
RTVSPropertyOp15
 70
     1
102
RTVSPropertyOp16
 70
     1
102
RTVSPropertyOp17
 70
     1
102
RTVSPropertyOp18
 70
     1
102
RTVSPropertyOp19
 70
     1
102
RTVSPropertyOp20
 70
     1
102
RTVSPropertyOp21
 70
     1
102
RTVSPropertyOp22
 70
     1
102
RTVSPropertyOp23
 70
     1
102
RTVSPropertyOp24
 70
     1
102
RTVSPropertyOp25
 70
     1
102
RTVSPropertyOp26
 70
     1
102
RTVSPropertyOp27
 70
     1
102
RTVSPropertyOp28
 70
     1
102
RTVSPropertyOp29
 70
     1
102
RTVSPropertyOp30
 70
     1
102
RTVSPropertyOp31
 70
     1
102
RTVSPropertyOp32
 70
     1
102
RTVSPropertyOp33
 70
     1
102
RTVSPropertyOp34
 70
     1
102
RTVSPropertyOp35
 70
     1
102
RTVSPropertyOp36
 70
     1
102
RTVSPropertyOp37
 70
     1
102
RTVSPropertyOp38
 70
     1
102
RTVSPropertyOp39
 70
     1
102
RTVSPropertyOp40
 70
     1
102
RTVSPropertyOp41
 70
     1
102
RTVSPropertyOp42
 70
     1
102
RTVSPropertyOp43
 70
     1
102
RTVSPropertyOp44
 70
     1
102
RTVSPropertyOp45
 70
     1
102
RTVSPropertyOp46
 70
     1
102
RTVSPropertyOp47
 70
     1
102
RTVSPropertyOp48
 70
     1
102
RTVSPropertyOp49
 70
     1
102
RTVSPropertyOp50
 70
     1
102
RTVSPropertyOp51
 70
     0
102
RTVSPropertyOp52
 70
     0
102
RTVSPropertyOp53
 70
     1
102
RTVSPropertyOp54
 70
     1
102
RTVSPropertyOp55
 70
     1
102
RTVSPropertyOp56
 70
     1
102
RTVSPropertyOp57
 70
     1
102
RTVSPropertyOp58
 70
     1
102
RTVSPropertyOp59
 70
     1
102
RTVSPropertyOp60
 70
     1
102
RTVSPropertyOp61
 70
     1
102
RTVSPropertyOp62
 70
     1
  0
XRECORD
  5
B78A
102
{ACAD_REACTORS
330
B789
102
}
330
B789
100
AcDbXrecord
280
     1
102
RTVSPost2010Prop28
280
     0
102
RTVSPost2010PropOp28
 70
     1
102
RTVSPost2010Prop29
280
     1
102
RTVSPost2010PropOp29
 70
     1
102
RTVSPost2010Prop30
280
     1
102
RTVSPost2010PropOp30
 70
     1
102
RTVSPost2010Prop31
280
     0
102
RTVSPost2010PropOp31
 70
     1
102
RTVSPost2010Prop32
280
     0
102
RTVSPost2010PropOp32
 70
     1
102
RTVSPost2010Prop33
280
     0
102
RTVSPost2010PropOp33
 70
     1
102
RTVSPost2010Prop34
280
     0
102
RTVSPost2010PropOp34
 70
     1
102
RTVSPost2010Prop35
280
     0
102
RTVSPost2010PropOp35
 70
     1
102
RTVSPost2010Prop36
280
     0
102
RTVSPost2010PropOp36
 70
     1
102
RTVSPost2010Prop37
 90
       50
102
RTVSPost2010PropOp37
 70
     1
102
RTVSPost2010Prop38
140
0.0
102
RTVSPost2010PropOp38
 70
     1
102
RTVSPost2010Prop39
140
1.0
102
RTVSPost2010PropOp39
 70
     1
102
RTVSPost2010Prop40
 90
        0
102
RTVSPost2010PropOp40
 70
     1
102
RTVSPost2010Prop41ColorIndex
 90
       18
102
RTVSPost2010Prop41ColorRGB
 90
        0
102
RTVSPost2010PropOp41
 70
     1
102
RTVSPost2010Prop42
 90
       50
102
RTVSPost2010PropOp42
 70
     1
102
RTVSPost2010Prop43
 90
        3
102
RTVSPost2010PropOp43
 70
     1
102
RTVSPost2010Prop44ColorIndex
 90
        5
102
RTVSPost2010Prop44ColorRGB
 90
      255
102
RTVSPost2010PropOp44
 70
     1
102
RTVSPost2010Prop45
280
     0
102
RTVSPost2010PropOp45
 70
     1
102
RTVSPost2010Prop46
 90
       50
102
RTVSPost2010PropOp46
 70
     1
102
RTVSPost2010Prop47
 90
       50
102
RTVSPost2010PropOp47
 70
     1
102
RTVSPost2010Prop48
 90
       50
102
RTVSPost2010PropOp48
 70
     1
102
RTVSPost2010Prop49
280
     0
102
RTVSPost2010PropOp49
 70
     1
102
RTVSPost2010Prop50
 90
       50
102
RTVSPost2010PropOp50
 70
     1
102
RTVSPost2010Prop51ColorIndex
 90
      256
102
RTVSPost2010Prop51ColorRGB
 90
-16777216
102
RTVSPost2010PropOp51
 70
     0
102
RTVSPost2010Prop52
140
1.0
102
RTVSPost2010PropOp52
 70
     0
102
RTVSPost2010Prop53
 90
        2
102
RTVSPost2010PropOp53
 70
     1
102
RTVSPost2010Prop54
  1
strokes_ogs.tif
102
RTVSPost2010PropOp54
 70
     1
102
RTVSPost2010Prop55
280
     0
102
RTVSPost2010PropOp55
 70
     1
102
RTVSPost2010Prop56
140
1.0
102
RTVSPost2010PropOp56
 70
     1
102
RTVSPost2010Prop57
140
1.0
102
RTVSPost2010PropOp57
 70
     1
102
RTVSPropertyOp0
 70
     1
102
RTVSPropertyOp1
 70
     1
102
RTVSPropertyOp2
 70
     1
102
RTVSPropertyOp3
 70
     1
102
RTVSPropertyOp4
 70
     1
102
RTVSPropertyOp5
 70
     1
102
RTVSPropertyOp6
 70
     1
102
RTVSPropertyOp7
 70
     1
102
RTVSPropertyOp8
 70
     1
102
RTVSPropertyOp9
 70
     1
102
RTVSPropertyOp10
 70
     1
102
RTVSPropertyOp11
 70
     1
102
RTVSPropertyOp12
 70
     1
102
RTVSPropertyOp13
 70
     1
102
RTVSPropertyOp14
 70
     1
102
RTVSPropertyOp15
 70
     1
102
RTVSPropertyOp16
 70
     1
102
RTVSPropertyOp17
 70
     1
102
RTVSPropertyOp18
 70
     1
102
RTVSPropertyOp19
 70
     1
102
RTVSPropertyOp20
 70
     1
102
RTVSPropertyOp21
 70
     1
102
RTVSPropertyOp22
 70
     1
102
RTVSPropertyOp23
 70
     1
102
RTVSPropertyOp24
 70
     1
102
RTVSPropertyOp25
 70
     1
102
RTVSPropertyOp26
 70
     1
102
RTVSPropertyOp27
 70
     1
102
RTVSPropertyOp28
 70
     1
102
RTVSPropertyOp29
 70
     1
102
RTVSPropertyOp30
 70
     1
102
RTVSPropertyOp31
 70
     1
102
RTVSPropertyOp32
 70
     1
102
RTVSPropertyOp33
 70
     1
102
RTVSPropertyOp34
 70
     1
102
RTVSPropertyOp35
 70
     1
102
RTVSPropertyOp36
 70
     1
102
RTVSPropertyOp37
 70
     1
102
RTVSPropertyOp38
 70
     1
102
RTVSPropertyOp39
 70
     1
102
RTVSPropertyOp40
 70
     1
102
RTVSPropertyOp41
 70
     1
102
RTVSPropertyOp42
 70
     1
102
RTVSPropertyOp43
 70
     1
102
RTVSPropertyOp44
 70
     1
102
RTVSPropertyOp45
 70
     1
102
RTVSPropertyOp46
 70
     1
102
RTVSPropertyOp47
 70
     1
102
RTVSPropertyOp48
 70
     1
102
RTVSPropertyOp49
 70
     1
102
RTVSPropertyOp50
 70
     1
102
RTVSPropertyOp51
 70
     0
102
RTVSPropertyOp52
 70
     0
102
RTVSPropertyOp53
 70
     1
102
RTVSPropertyOp54
 70
     1
102
RTVSPropertyOp55
 70
     1
102
RTVSPropertyOp56
 70
     1
102
RTVSPropertyOp57
 70
     1
102
RTVSPropertyOp58
 70
     1
102
RTVSPropertyOp59
 70
     1
102
RTVSPropertyOp60
 70
     1
102
RTVSPropertyOp61
 70
     1
102
RTVSPropertyOp62
 70
     1
  0
XRECORD
  5
B78C
102
{ACAD_REACTORS
330
B78B
102
}
330
B78B
100
AcDbXrecord
280
     1
102
RTVSPost2010Prop28
280
     0
102
RTVSPost2010PropOp28
 70
     1
102
RTVSPost2010Prop29
280
     1
102
RTVSPost2010PropOp29
 70
     1
102
RTVSPost2010Prop30
280
     1
102
RTVSPost2010PropOp30
 70
     1
102
RTVSPost2010Prop31
280
     0
102
RTVSPost2010PropOp31
 70
     1
102
RTVSPost2010Prop32
280
     0
102
RTVSPost2010PropOp32
 70
     1
102
RTVSPost2010Prop33
280
     0
102
RTVSPost2010PropOp33
 70
     1
102
RTVSPost2010Prop34
280
     0
102
RTVSPost2010PropOp34
 70
     1
102
RTVSPost2010Prop35
280
     0
102
RTVSPost2010PropOp35
 70
     1
102
RTVSPost2010Prop36
280
     0
102
RTVSPost2010PropOp36
 70
     1
102
RTVSPost2010Prop37
 90
       50
102
RTVSPost2010PropOp37
 70
     1
102
RTVSPost2010Prop38
140
0.0
102
RTVSPost2010PropOp38
 70
     1
102
RTVSPost2010Prop39
140
1.0
102
RTVSPost2010PropOp39
 70
     1
102
RTVSPost2010Prop40
 90
        0
102
RTVSPost2010PropOp40
 70
     1
102
RTVSPost2010Prop41ColorIndex
 90
       18
102
RTVSPost2010Prop41ColorRGB
 90
        0
102
RTVSPost2010PropOp41
 70
     1
102
RTVSPost2010Prop42
 90
       50
102
RTVSPost2010PropOp42
 70
     1
102
RTVSPost2010Prop43
 90
        3
102
RTVSPost2010PropOp43
 70
     1
102
RTVSPost2010Prop44ColorIndex
 90
        5
102
RTVSPost2010Prop44ColorRGB
 90
      255
102
RTVSPost2010PropOp44
 70
     1
102
RTVSPost2010Prop45
280
     0
102
RTVSPost2010PropOp45
 70
     1
102
RTVSPost2010Prop46
 90
       50
102
RTVSPost2010PropOp46
 70
     1
102
RTVSPost2010Prop47
 90
       50
102
RTVSPost2010PropOp47
 70
     1
102
RTVSPost2010Prop48
 90
       50
102
RTVSPost2010PropOp48
 70
     1
102
RTVSPost2010Prop49
280
     0
102
RTVSPost2010PropOp49
 70
     1
102
RTVSPost2010Prop50
 90
       50
102
RTVSPost2010PropOp50
 70
     1
102
RTVSPost2010Prop51ColorIndex
 90
      256
102
RTVSPost2010Prop51ColorRGB
 90
-16777216
102
RTVSPost2010PropOp51
 70
     0
102
RTVSPost2010Prop52
140
1.0
102
RTVSPost2010PropOp52
 70
     0
102
RTVSPost2010Prop53
 90
        2
102
RTVSPost2010PropOp53
 70
     1
102
RTVSPost2010Prop54
  1
strokes_ogs.tif
102
RTVSPost2010PropOp54
 70
     1
102
RTVSPost2010Prop55
280
     0
102
RTVSPost2010PropOp55
 70
     1
102
RTVSPost2010Prop56
140
1.0
102
RTVSPost2010PropOp56
 70
     1
102
RTVSPost2010Prop57
140
1.0
102
RTVSPost2010PropOp57
 70
     1
102
RTVSPropertyOp0
 70
     1
102
RTVSPropertyOp1
 70
     1
102
RTVSPropertyOp2
 70
     1
102
RTVSPropertyOp3
 70
     1
102
RTVSPropertyOp4
 70
     1
102
RTVSPropertyOp5
 70
     1
102
RTVSPropertyOp6
 70
     1
102
RTVSPropertyOp7
 70
     1
102
RTVSPropertyOp8
 70
     1
102
RTVSPropertyOp9
 70
     1
102
RTVSPropertyOp10
 70
     1
102
RTVSPropertyOp11
 70
     1
102
RTVSPropertyOp12
 70
     1
102
RTVSPropertyOp13
 70
     1
102
RTVSPropertyOp14
 70
     1
102
RTVSPropertyOp15
 70
     1
102
RTVSPropertyOp16
 70
     1
102
RTVSPropertyOp17
 70
     1
102
RTVSPropertyOp18
 70
     1
102
RTVSPropertyOp19
 70
     1
102
RTVSPropertyOp20
 70
     1
102
RTVSPropertyOp21
 70
     1
102
RTVSPropertyOp22
 70
     1
102
RTVSPropertyOp23
 70
     1
102
RTVSPropertyOp24
 70
     1
102
RTVSPropertyOp25
 70
     1
102
RTVSPropertyOp26
 70
     1
102
RTVSPropertyOp27
 70
     1
102
RTVSPropertyOp28
 70
     1
102
RTVSPropertyOp29
 70
     1
102
RTVSPropertyOp30
 70
     1
102
RTVSPropertyOp31
 70
     1
102
RTVSPropertyOp32
 70
     1
102
RTVSPropertyOp33
 70
     1
102
RTVSPropertyOp34
 70
     1
102
RTVSPropertyOp35
 70
     1
102
RTVSPropertyOp36
 70
     1
102
RTVSPropertyOp37
 70
     1
102
RTVSPropertyOp38
 70
     1
102
RTVSPropertyOp39
 70
     1
102
RTVSPropertyOp40
 70
     1
102
RTVSPropertyOp41
 70
     1
102
RTVSPropertyOp42
 70
     1
102
RTVSPropertyOp43
 70
     1
102
RTVSPropertyOp44
 70
     1
102
RTVSPropertyOp45
 70
     1
102
RTVSPropertyOp46
 70
     1
102
RTVSPropertyOp47
 70
     1
102
RTVSPropertyOp48
 70
     1
102
RTVSPropertyOp49
 70
     1
102
RTVSPropertyOp50
 70
     1
102
RTVSPropertyOp51
 70
     0
102
RTVSPropertyOp52
 70
     0
102
RTVSPropertyOp53
 70
     1
102
RTVSPropertyOp54
 70
     1
102
RTVSPropertyOp55
 70
     1
102
RTVSPropertyOp56
 70
     1
102
RTVSPropertyOp57
 70
     1
102
RTVSPropertyOp58
 70
     1
102
RTVSPropertyOp59
 70
     1
102
RTVSPropertyOp60
 70
     1
102
RTVSPropertyOp61
 70
     1
102
RTVSPropertyOp62
 70
     1
  0
XRECORD
  5
B782
102
{ACAD_REACTORS
330
B781
102
}
330
B781
100
AcDbXrecord
280
     1
102
RTVSPost2010Prop28
280
     0
102
RTVSPost2010PropOp28
 70
     1
102
RTVSPost2010Prop29
280
     1
102
RTVSPost2010PropOp29
 70
     1
102
RTVSPost2010Prop30
280
     1
102
RTVSPost2010PropOp30
 70
     1
102
RTVSPost2010Prop31
280
     0
102
RTVSPost2010PropOp31
 70
     1
102
RTVSPost2010Prop32
280
     0
102
RTVSPost2010PropOp32
 70
     1
102
RTVSPost2010Prop33
280
     0
102
RTVSPost2010PropOp33
 70
     1
102
RTVSPost2010Prop34
280
     0
102
RTVSPost2010PropOp34
 70
     1
102
RTVSPost2010Prop35
280
     0
102
RTVSPost2010PropOp35
 70
     1
102
RTVSPost2010Prop36
280
     0
102
RTVSPost2010PropOp36
 70
     1
102
RTVSPost2010Prop37
 90
       50
102
RTVSPost2010PropOp37
 70
     1
102
RTVSPost2010Prop38
140
0.0
102
RTVSPost2010PropOp38
 70
     1
102
RTVSPost2010Prop39
140
1.0
102
RTVSPost2010PropOp39
 70
     1
102
RTVSPost2010Prop40
 90
        0
102
RTVSPost2010PropOp40
 70
     1
102
RTVSPost2010Prop41ColorIndex
 90
       18
102
RTVSPost2010Prop41ColorRGB
 90
        0
102
RTVSPost2010PropOp41
 70
     1
102
RTVSPost2010Prop42
 90
       50
102
RTVSPost2010PropOp42
 70
     1
102
RTVSPost2010Prop43
 90
        3
102
RTVSPost2010PropOp43
 70
     1
102
RTVSPost2010Prop44ColorIndex
 90
        5
102
RTVSPost2010Prop44ColorRGB
 90
      255
102
RTVSPost2010PropOp44
 70
     1
102
RTVSPost2010Prop45
280
     0
102
RTVSPost2010PropOp45
 70
     1
102
RTVSPost2010Prop46
 90
       50
102
RTVSPost2010PropOp46
 70
     1
102
RTVSPost2010Prop47
 90
       50
102
RTVSPost2010PropOp47
 70
     1
102
RTVSPost2010Prop48
 90
       50
102
RTVSPost2010PropOp48
 70
     1
102
RTVSPost2010Prop49
280
     0
102
RTVSPost2010PropOp49
 70
     1
102
RTVSPost2010Prop50
 90
       50
102
RTVSPost2010PropOp50
 70
     1
102
RTVSPost2010Prop51ColorIndex
 90
      256
102
RTVSPost2010Prop51ColorRGB
 90
-16777216
102
RTVSPost2010PropOp51
 70
     0
102
RTVSPost2010Prop52
140
1.0
102
RTVSPost2010PropOp52
 70
     0
102
RTVSPost2010Prop53
 90
        2
102
RTVSPost2010PropOp53
 70
     1
102
RTVSPost2010Prop54
  1
strokes_ogs.tif
102
RTVSPost2010PropOp54
 70
     1
102
RTVSPost2010Prop55
280
     0
102
RTVSPost2010PropOp55
 70
     1
102
RTVSPost2010Prop56
140
1.0
102
RTVSPost2010PropOp56
 70
     1
102
RTVSPost2010Prop57
140
1.0
102
RTVSPost2010PropOp57
 70
     1
102
RTVSPropertyOp0
 70
     1
102
RTVSPropertyOp1
 70
     1
102
RTVSPropertyOp2
 70
     1
102
RTVSPropertyOp3
 70
     1
102
RTVSPropertyOp4
 70
     1
102
RTVSPropertyOp5
 70
     1
102
RTVSPropertyOp6
 70
     1
102
RTVSPropertyOp7
 70
     1
102
RTVSPropertyOp8
 70
     1
102
RTVSPropertyOp9
 70
     1
102
RTVSPropertyOp10
 70
     1
102
RTVSPropertyOp11
 70
     1
102
RTVSPropertyOp12
 70
     1
102
RTVSPropertyOp13
 70
     1
102
RTVSPropertyOp14
 70
     1
102
RTVSPropertyOp15
 70
     1
102
RTVSPropertyOp16
 70
     1
102
RTVSPropertyOp17
 70
     1
102
RTVSPropertyOp18
 70
     1
102
RTVSPropertyOp19
 70
     1
102
RTVSPropertyOp20
 70
     1
102
RTVSPropertyOp21
 70
     1
102
RTVSPropertyOp22
 70
     1
102
RTVSPropertyOp23
 70
     1
102
RTVSPropertyOp24
 70
     1
102
RTVSPropertyOp25
 70
     1
102
RTVSPropertyOp26
 70
     1
102
RTVSPropertyOp27
 70
     1
102
RTVSPropertyOp28
 70
     1
102
RTVSPropertyOp29
 70
     1
102
RTVSPropertyOp30
 70
     1
102
RTVSPropertyOp31
 70
     1
102
RTVSPropertyOp32
 70
     1
102
RTVSPropertyOp33
 70
     1
102
RTVSPropertyOp34
 70
     1
102
RTVSPropertyOp35
 70
     1
102
RTVSPropertyOp36
 70
     1
102
RTVSPropertyOp37
 70
     1
102
RTVSPropertyOp38
 70
     1
102
RTVSPropertyOp39
 70
     1
102
RTVSPropertyOp40
 70
     1
102
RTVSPropertyOp41
 70
     1
102
RTVSPropertyOp42
 70
     1
102
RTVSPropertyOp43
 70
     1
102
RTVSPropertyOp44
 70
     1
102
RTVSPropertyOp45
 70
     1
102
RTVSPropertyOp46
 70
     1
102
RTVSPropertyOp47
 70
     1
102
RTVSPropertyOp48
 70
     1
102
RTVSPropertyOp49
 70
     1
102
RTVSPropertyOp50
 70
     1
102
RTVSPropertyOp51
 70
     0
102
RTVSPropertyOp52
 70
     0
102
RTVSPropertyOp53
 70
     1
102
RTVSPropertyOp54
 70
     1
102
RTVSPropertyOp55
 70
     1
102
RTVSPropertyOp56
 70
     1
102
RTVSPropertyOp57
 70
     1
102
RTVSPropertyOp58
 70
     1
102
RTVSPropertyOp59
 70
     1
102
RTVSPropertyOp60
 70
     1
102
RTVSPropertyOp61
 70
     1
102
RTVSPropertyOp62
 70
     1
  0
XRECORD
  5
B776
102
{ACAD_REACTORS
330
B775
102
}
330
B775
100
AcDbXrecord
280
     1
102
RTVSPost2010Prop28
280
     0
102
RTVSPost2010PropOp28
 70
     1
102
RTVSPost2010Prop29
280
     1
102
RTVSPost2010PropOp29
 70
     1
102
RTVSPost2010Prop30
280
     1
102
RTVSPost2010PropOp30
 70
     1
102
RTVSPost2010Prop31
280
     0
102
RTVSPost2010PropOp31
 70
     1
102
RTVSPost2010Prop32
280
     0
102
RTVSPost2010PropOp32
 70
     1
102
RTVSPost2010Prop33
280
     0
102
RTVSPost2010PropOp33
 70
     1
102
RTVSPost2010Prop34
280
     0
102
RTVSPost2010PropOp34
 70
     1
102
RTVSPost2010Prop35
280
     0
102
RTVSPost2010PropOp35
 70
     1
102
RTVSPost2010Prop36
280
     0
102
RTVSPost2010PropOp36
 70
     1
102
RTVSPost2010Prop37
 90
       50
102
RTVSPost2010PropOp37
 70
     1
102
RTVSPost2010Prop38
140
0.0
102
RTVSPost2010PropOp38
 70
     1
102
RTVSPost2010Prop39
140
1.0
102
RTVSPost2010PropOp39
 70
     1
102
RTVSPost2010Prop40
 90
        0
102
RTVSPost2010PropOp40
 70
     1
102
RTVSPost2010Prop41ColorIndex
 90
       18
102
RTVSPost2010Prop41ColorRGB
 90
        0
102
RTVSPost2010PropOp41
 70
     1
102
RTVSPost2010Prop42
 90
       50
102
RTVSPost2010PropOp42
 70
     1
102
RTVSPost2010Prop43
 90
        3
102
RTVSPost2010PropOp43
 70
     1
102
RTVSPost2010Prop44ColorIndex
 90
        5
102
RTVSPost2010Prop44ColorRGB
 90
      255
102
RTVSPost2010PropOp44
 70
     1
102
RTVSPost2010Prop45
280
     0
102
RTVSPost2010PropOp45
 70
     1
102
RTVSPost2010Prop46
 90
       50
102
RTVSPost2010PropOp46
 70
     1
102
RTVSPost2010Prop47
 90
       50
102
RTVSPost2010PropOp47
 70
     1
102
RTVSPost2010Prop48
 90
       50
102
RTVSPost2010PropOp48
 70
     1
102
RTVSPost2010Prop49
280
     0
102
RTVSPost2010PropOp49
 70
     1
102
RTVSPost2010Prop50
 90
       50
102
RTVSPost2010PropOp50
 70
     1
102
RTVSPost2010Prop51ColorIndex
 90
      256
102
RTVSPost2010Prop51ColorRGB
 90
-16777216
102
RTVSPost2010PropOp51
 70
     0
102
RTVSPost2010Prop52
140
1.0
102
RTVSPost2010PropOp52
 70
     0
102
RTVSPost2010Prop53
 90
        2
102
RTVSPost2010PropOp53
 70
     1
102
RTVSPost2010Prop54
  1
strokes_ogs.tif
102
RTVSPost2010PropOp54
 70
     1
102
RTVSPost2010Prop55
280
     0
102
RTVSPost2010PropOp55
 70
     1
102
RTVSPost2010Prop56
140
1.0
102
RTVSPost2010PropOp56
 70
     1
102
RTVSPost2010Prop57
140
1.0
102
RTVSPost2010PropOp57
 70
     1
102
RTVSPropertyOp0
 70
     1
102
RTVSPropertyOp1
 70
     1
102
RTVSPropertyOp2
 70
     1
102
RTVSPropertyOp3
 70
     1
102
RTVSPropertyOp4
 70
     1
102
RTVSPropertyOp5
 70
     1
102
RTVSPropertyOp6
 70
     1
102
RTVSPropertyOp7
 70
     1
102
RTVSPropertyOp8
 70
     1
102
RTVSPropertyOp9
 70
     1
102
RTVSPropertyOp10
 70
     1
102
RTVSPropertyOp11
 70
     1
102
RTVSPropertyOp12
 70
     1
102
RTVSPropertyOp13
 70
     1
102
RTVSPropertyOp14
 70
     1
102
RTVSPropertyOp15
 70
     1
102
RTVSPropertyOp16
 70
     1
102
RTVSPropertyOp17
 70
     1
102
RTVSPropertyOp18
 70
     1
102
RTVSPropertyOp19
 70
     1
102
RTVSPropertyOp20
 70
     1
102
RTVSPropertyOp21
 70
     1
102
RTVSPropertyOp22
 70
     1
102
RTVSPropertyOp23
 70
     1
102
RTVSPropertyOp24
 70
     1
102
RTVSPropertyOp25
 70
     1
102
RTVSPropertyOp26
 70
     1
102
RTVSPropertyOp27
 70
     1
102
RTVSPropertyOp28
 70
     1
102
RTVSPropertyOp29
 70
     1
102
RTVSPropertyOp30
 70
     1
102
RTVSPropertyOp31
 70
     1
102
RTVSPropertyOp32
 70
     1
102
RTVSPropertyOp33
 70
     1
102
RTVSPropertyOp34
 70
     1
102
RTVSPropertyOp35
 70
     1
102
RTVSPropertyOp36
 70
     1
102
RTVSPropertyOp37
 70
     1
102
RTVSPropertyOp38
 70
     1
102
RTVSPropertyOp39
 70
     1
102
RTVSPropertyOp40
 70
     1
102
RTVSPropertyOp41
 70
     1
102
RTVSPropertyOp42
 70
     1
102
RTVSPropertyOp43
 70
     1
102
RTVSPropertyOp44
 70
     1
102
RTVSPropertyOp45
 70
     1
102
RTVSPropertyOp46
 70
     1
102
RTVSPropertyOp47
 70
     1
102
RTVSPropertyOp48
 70
     1
102
RTVSPropertyOp49
 70
     1
102
RTVSPropertyOp50
 70
     1
102
RTVSPropertyOp51
 70
     0
102
RTVSPropertyOp52
 70
     0
102
RTVSPropertyOp53
 70
     1
102
RTVSPropertyOp54
 70
     1
102
RTVSPropertyOp55
 70
     1
102
RTVSPropertyOp56
 70
     1
102
RTVSPropertyOp57
 70
     1
102
RTVSPropertyOp58
 70
     1
102
RTVSPropertyOp59
 70
     1
102
RTVSPropertyOp60
 70
     1
102
RTVSPropertyOp61
 70
     1
102
RTVSPropertyOp62
 70
     1
  0
XRECORD
  5
B78E
102
{ACAD_REACTORS
330
B78D
102
}
330
B78D
100
AcDbXrecord
280
     1
102
RTVSPost2010Prop28
280
     0
102
RTVSPost2010PropOp28
 70
     1
102
RTVSPost2010Prop29
280
     1
102
RTVSPost2010PropOp29
 70
     1
102
RTVSPost2010Prop30
280
     1
102
RTVSPost2010PropOp30
 70
     1
102
RTVSPost2010Prop31
280
     0
102
RTVSPost2010PropOp31
 70
     1
102
RTVSPost2010Prop32
280
     0
102
RTVSPost2010PropOp32
 70
     1
102
RTVSPost2010Prop33
280
     0
102
RTVSPost2010PropOp33
 70
     1
102
RTVSPost2010Prop34
280
     0
102
RTVSPost2010PropOp34
 70
     1
102
RTVSPost2010Prop35
280
     0
102
RTVSPost2010PropOp35
 70
     1
102
RTVSPost2010Prop36
280
     0
102
RTVSPost2010PropOp36
 70
     1
102
RTVSPost2010Prop37
 90
       50
102
RTVSPost2010PropOp37
 70
     1
102
RTVSPost2010Prop38
140
0.0
102
RTVSPost2010PropOp38
 70
     1
102
RTVSPost2010Prop39
140
1.0
102
RTVSPost2010PropOp39
 70
     1
102
RTVSPost2010Prop40
 90
        0
102
RTVSPost2010PropOp40
 70
     1
102
RTVSPost2010Prop41ColorIndex
 90
       18
102
RTVSPost2010Prop41ColorRGB
 90
        0
102
RTVSPost2010PropOp41
 70
     1
102
RTVSPost2010Prop42
 90
       50
102
RTVSPost2010PropOp42
 70
     1
102
RTVSPost2010Prop43
 90
        3
102
RTVSPost2010PropOp43
 70
     1
102
RTVSPost2010Prop44ColorIndex
 90
        5
102
RTVSPost2010Prop44ColorRGB
 90
      255
102
RTVSPost2010PropOp44
 70
     1
102
RTVSPost2010Prop45
280
     0
102
RTVSPost2010PropOp45
 70
     1
102
RTVSPost2010Prop46
 90
       50
102
RTVSPost2010PropOp46
 70
     1
102
RTVSPost2010Prop47
 90
       50
102
RTVSPost2010PropOp47
 70
     1
102
RTVSPost2010Prop48
 90
       50
102
RTVSPost2010PropOp48
 70
     1
102
RTVSPost2010Prop49
280
     0
102
RTVSPost2010PropOp49
 70
     1
102
RTVSPost2010Prop50
 90
       50
102
RTVSPost2010PropOp50
 70
     1
102
RTVSPost2010Prop51ColorIndex
 90
      256
102
RTVSPost2010Prop51ColorRGB
 90
-16777216
102
RTVSPost2010PropOp51
 70
     0
102
RTVSPost2010Prop52
140
1.0
102
RTVSPost2010PropOp52
 70
     0
102
RTVSPost2010Prop53
 90
        2
102
RTVSPost2010PropOp53
 70
     1
102
RTVSPost2010Prop54
  1
strokes_ogs.tif
102
RTVSPost2010PropOp54
 70
     1
102
RTVSPost2010Prop55
280
     0
102
RTVSPost2010PropOp55
 70
     1
102
RTVSPost2010Prop56
140
1.0
102
RTVSPost2010PropOp56
 70
     1
102
RTVSPost2010Prop57
140
1.0
102
RTVSPost2010PropOp57
 70
     1
102
RTVSPropertyOp0
 70
     1
102
RTVSPropertyOp1
 70
     1
102
RTVSPropertyOp2
 70
     1
102
RTVSPropertyOp3
 70
     1
102
RTVSPropertyOp4
 70
     1
102
RTVSPropertyOp5
 70
     1
102
RTVSPropertyOp6
 70
     1
102
RTVSPropertyOp7
 70
     1
102
RTVSPropertyOp8
 70
     1
102
RTVSPropertyOp9
 70
     1
102
RTVSPropertyOp10
 70
     1
102
RTVSPropertyOp11
 70
     1
102
RTVSPropertyOp12
 70
     1
102
RTVSPropertyOp13
 70
     1
102
RTVSPropertyOp14
 70
     1
102
RTVSPropertyOp15
 70
     1
102
RTVSPropertyOp16
 70
     1
102
RTVSPropertyOp17
 70
     1
102
RTVSPropertyOp18
 70
     1
102
RTVSPropertyOp19
 70
     1
102
RTVSPropertyOp20
 70
     1
102
RTVSPropertyOp21
 70
     1
102
RTVSPropertyOp22
 70
     1
102
RTVSPropertyOp23
 70
     1
102
RTVSPropertyOp24
 70
     1
102
RTVSPropertyOp25
 70
     1
102
RTVSPropertyOp26
 70
     1
102
RTVSPropertyOp27
 70
     1
102
RTVSPropertyOp28
 70
     1
102
RTVSPropertyOp29
 70
     1
102
RTVSPropertyOp30
 70
     1
102
RTVSPropertyOp31
 70
     1
102
RTVSPropertyOp32
 70
     1
102
RTVSPropertyOp33
 70
     1
102
RTVSPropertyOp34
 70
     1
102
RTVSPropertyOp35
 70
     1
102
RTVSPropertyOp36
 70
     1
102
RTVSPropertyOp37
 70
     1
102
RTVSPropertyOp38
 70
     1
102
RTVSPropertyOp39
 70
     1
102
RTVSPropertyOp40
 70
     1
102
RTVSPropertyOp41
 70
     1
102
RTVSPropertyOp42
 70
     1
102
RTVSPropertyOp43
 70
     1
102
RTVSPropertyOp44
 70
     1
102
RTVSPropertyOp45
 70
     1
102
RTVSPropertyOp46
 70
     1
102
RTVSPropertyOp47
 70
     1
102
RTVSPropertyOp48
 70
     1
102
RTVSPropertyOp49
 70
     1
102
RTVSPropertyOp50
 70
     1
102
RTVSPropertyOp51
 70
     0
102
RTVSPropertyOp52
 70
     0
102
RTVSPropertyOp53
 70
     1
102
RTVSPropertyOp54
 70
     1
102
RTVSPropertyOp55
 70
     1
102
RTVSPropertyOp56
 70
     1
102
RTVSPropertyOp57
 70
     1
102
RTVSPropertyOp58
 70
     1
102
RTVSPropertyOp59
 70
     1
102
RTVSPropertyOp60
 70
     1
102
RTVSPropertyOp61
 70
     1
102
RTVSPropertyOp62
 70
     1
  0
ENDSEC
  0
EOF
