  0
SECTION
  2
HEADER
  9
$ACADVER
  1
AC1015
  9
$ACADMAINTVER
 70
    20
  9
$DWGCODEPAGE
  3
ANSI_932
  9
$INSBASE
 10
0.0
 20
0.0
 30
0.0
  9
$EXTMIN
 10
10.0
 20
9.999999999999998
 30
0.0
  9
$EXTMAX
 10
212.8004769999999
 20
197.362678
 30
0.0
  9
$LIMMIN
 10
0.0
 20
0.0
  9
$LIMMAX
 10
396.0
 20
273.0
  9
$ORTHOMODE
 70
     1
  9
$REGENMODE
 70
     1
  9
$FILLMODE
 70
     1
  9
$QTEXTMODE
 70
     0
  9
$MIRRTEXT
 70
     1
  9
$LTSCALE
 40
20.0
  9
$ATTMODE
 70
     1
  9
$TEXTSIZE
 40
5.0
  9
$TRACEWID
 40
1.0
  9
$TEXTSTYLE
  7
STANDARD
  9
$CLAYER
  8
0
  9
$CELTYPE
  6
BYLAYER
  9
$CECOLOR
 62
   256
  9
$CELTSCALE
 40
1.0
  9
$DISPSILH
 70
     0
  9
$DIMSCALE
 40
1.0
  9
$DIMASZ
 40
2.5
  9
$DIMEXO
 40
1.0
  9
$DIMDLI
 40
10.0
  9
$DIMRND
 40
0.0
  9
$DIMDLE
 40
0.0
  9
$DIMEXE
 40
1.0
  9
$DIMTP
 40
0.0
  9
$DIMTM
 40
0.0
  9
$DIMTXT
 40
3.2
  9
$DIMCEN
 40
0.0
  9
$DIMTSZ
 40
0.0
  9
$DIMTOL
 70
     0
  9
$DIMLIM
 70
     0
  9
$DIMTIH
 70
     0
  9
$DIMTOH
 70
     0
  9
$DIMSE1
 70
     0
  9
$DIMSE2
 70
     0
  9
$DIMTAD
 70
     3
  9
$DIMZIN
 70
     8
  9
$DIMBLK
  1

  9
$DIMASO
 70
     1
  9
$DIMSHO
 70
     1
  9
$DIMPOST
  1

  9
$DIMAPOST
  1

  9
$DIMALT
 70
     0
  9
$DIMALTD
 70
     2
  9
$DIMALTF
 40
25.4
  9
$DIMLFAC
 40
1.0
  9
$DIMTOFL
 70
     1
  9
$DIMTVP
 40
0.0
  9
$DIMTIX
 70
     0
  9
$DIMSOXD
 70
     0
  9
$DIMSAH
 70
     1
  9
$DIMBLK1
  1

  9
$DIMBLK2
  1

  9
$DIMSTYLE
  2
STANDARD
  9
$DIMCLRD
 70
     0
  9
$DIMCLRE
 70
     0
  9
$DIMCLRT
 70
     0
  9
$DIMTFAC
 40
1.0
  9
$DIMGAP
 40
1.0
  9
$DIMJUST
 70
     0
  9
$DIMSD1
 70
     0
  9
$DIMSD2
 70
     0
  9
$DIMTOLJ
 70
     1
  9
$DIMTZIN
 70
     0
  9
$DIMALTZ
 70
     0
  9
$DIMALTTZ
 70
     0
  9
$DIMUPT
 70
     0
  9
$DIMDEC
 70
     4
  9
$DIMTDEC
 70
     4
  9
$DIMALTU
 70
     2
  9
$DIMALTTD
 70
     2
  9
$DIMTXSTY
  7
STANDARD
  9
$DIMAUNIT
 70
     0
  9
$DIMADEC
 70
     0
  9
$DIMALTRND
 40
0.0
  9
$DIMAZIN
 70
     0
  9
$DIMDSEP
 70
    46
  9
$DIMATFIT
 70
     3
  9
$DIMFRAC
 70
     0
  9
$DIMLDRBLK
  1

  9
$DIMLUNIT
 70
     2
  9
$DIMLWD
 70
    -2
  9
$DIMLWE
 70
    -2
  9
$DIMTMOVE
 70
     0
  9
$LUNITS
 70
     2
  9
$LUPREC
 70
     4
  9
$SKETCHINC
 40
1.0
  9
$FILLETRAD
 40
1.5
  9
$AUNITS
 70
     0
  9
$AUPREC
 70
     2
  9
$MENU
  1
.
  9
$ELEVATION
 40
0.0
  9
$PELEVATION
 40
0.0
  9
$THICKNESS
 40
0.0
  9
$LIMCHECK
 70
     0
  9
$CHAMFERA
 40
10.0
  9
$CHAMFERB
 40
10.0
  9
$CHAMFERC
 40
0.0
  9
$CHAMFERD
 40
0.0
  9
$SKPOLY
 70
     0
  9
$TDCREATE
 40
2451296.796100463
  9
$TDUCREATE
 40
2451296.421100463
  9
$TDUPDATE
 40
2457192.658345903
  9
$TDUUPDATE
 40
2457192.283345903
  9
$TDINDWG
 40
0.0000098032
  9
$TDUSRTIMER
 40
0.0000096759
  9
$USRTIMER
 70
     1
  9
$ANGBASE
 50
0.0
  9
$ANGDIR
 70
     0
  9
$PDMODE
 70
     0
  9
$PDSIZE
 40
0.0
  9
$PLINEWID
 40
0.0
  9
$SPLFRAME
 70
     0
  9
$SPLINETYPE
 70
     6
  9
$SPLINESEGS
 70
     8
  9
$HANDSEED
  5
BA6C
  9
$SURFTAB1
 70
     6
  9
$SURFTAB2
 70
     6
  9
$SURFTYPE
 70
     6
  9
$SURFU
 70
     6
  9
$SURFV
 70
     6
  9
$UCSBASE
  2

  9
$UCSNAME
  2

  9
$UCSORG
 10
0.0
 20
0.0
 30
0.0
  9
$UCSXDIR
 10
1.0
 20
0.0
 30
0.0
  9
$UCSYDIR
 10
0.0
 20
1.0
 30
0.0
  9
$UCSORTHOREF
  2

  9
$UCSORTHOVIEW
 70
     0
  9
$UCSORGTOP
 10
0.0
 20
0.0
 30
0.0
  9
$UCSORGBOTTOM
 10
0.0
 20
0.0
 30
0.0
  9
$UCSORGLEFT
 10
0.0
 20
0.0
 30
0.0
  9
$UCSORGRIGHT
 10
0.0
 20
0.0
 30
0.0
  9
$UCSORGFRONT
 10
0.0
 20
0.0
 30
0.0
  9
$UCSORGBACK
 10
0.0
 20
0.0
 30
0.0
  9
$PUCSBASE
  2

  9
$PUCSNAME
  2

  9
$PUCSORG
 10
0.0
 20
0.0
 30
0.0
  9
$PUCSXDIR
 10
1.0
 20
0.0
 30
0.0
  9
$PUCSYDIR
 10
0.0
 20
1.0
 30
0.0
  9
$PUCSORTHOREF
  2

  9
$PUCSORTHOVIEW
 70
     0
  9
$PUCSORGTOP
 10
0.0
 20
0.0
 30
0.0
  9
$PUCSORGBOTTOM
 10
0.0
 20
0.0
 30
0.0
  9
$PUCSORGLEFT
 10
0.0
 20
0.0
 30
0.0
  9
$PUCSORGRIGHT
 10
0.0
 20
0.0
 30
0.0
  9
$PUCSORGFRONT
 10
0.0
 20
0.0
 30
0.0
  9
$PUCSORGBACK
 10
0.0
 20
0.0
 30
0.0
  9
$USERI1
 70
     0
  9
$USERI2
 70
     0
  9
$USERI3
 70
     0
  9
$USERI4
 70
     0
  9
$USERI5
 70
     0
  9
$USERR1
 40
0.0
  9
$USERR2
 40
0.0
  9
$USERR3
 40
0.0
  9
$USERR4
 40
0.0
  9
$USERR5
 40
0.0
  9
$WORLDVIEW
 70
     1
  9
$SHADEDGE
 70
     3
  9
$SHADEDIF
 70
    70
  9
$TILEMODE
 70
     1
  9
$MAXACTVP
 70
    16
  9
$PINSBASE
 10
0.0
 20
0.0
 30
0.0
  9
$PLIMCHECK
 70
     0
  9
$PEXTMIN
 10
1.000000000000000E+20
 20
1.000000000000000E+20
 30
1.000000000000000E+20
  9
$PEXTMAX
 10
-1.000000000000000E+20
 20
-1.000000000000000E+20
 30
-1.000000000000000E+20
  9
$PLIMMIN
 10
0.0
 20
0.0
  9
$PLIMMAX
 10
420.0
 20
297.0
  9
$UNITMODE
 70
     0
  9
$VISRETAIN
 70
     0
  9
$PLINEGEN
 70
     0
  9
$PSLTSCALE
 70
     0
  9
$TREEDEPTH
 70
  3020
  9
$CMLSTYLE
  2
STANDARD
  9
$CMLJUST
 70
     0
  9
$CMLSCALE
 40
1.0
  9
$PROXYGRAPHICS
 70
     1
  9
$MEASUREMENT
 70
     0
  9
$CELWEIGHT
370
    -1
  9
$ENDCAPS
280
     0
  9
$JOINSTYLE
280
     0
  9
$LWDISPLAY
290
     0
  9
$INSUNITS
 70
     0
  9
$HYPERLINKBASE
  1

  9
$STYLESHEET
  1

  9
$XEDIT
290
     1
  9
$CEPSNTYPE
380
     0
  9
$PSTYLEMODE
290
     1
  9
$FINGERPRINTGUID
  2
{9491DC2B-BCB3-4E8F-A7FD-A6BB285C5D37}
  9
$VERSIONGUID
  2
{1FB2FF7D-DFE0-4092-BBE6-0FCD51B3E22E}
  9
$EXTNAMES
290
     1
  9
$PSVPSCALE
 40
0.0
  9
$OLESTARTUP
290
     0
  0
ENDSEC
  0
SECTION
  2
CLASSES
  0
CLASS
  1
ACDBDICTIONARYWDFLT
  2
AcDbDictionaryWithDefault
  3
ObjectDBX Classes
 90
        0
280
     0
281
     0
  0
CLASS
  1
ACDBPLACEHOLDER
  2
AcDbPlaceHolder
  3
ObjectDBX Classes
 90
        0
280
     0
281
     0
  0
CLASS
  1
LAYOUT
  2
AcDbLayout
  3
ObjectDBX Classes
 90
        0
280
     0
281
     0
  0
CLASS
  1
DICTIONARYVAR
  2
AcDbDictionaryVar
  3
ObjectDBX Classes
 90
        0
280
     0
281
     0
  0
CLASS
  1
MATERIAL
  2
AcDbMaterial
  3
ObjectDBX Classes
 90
     1153
280
     0
281
     0
  0
CLASS
  1
VISUALSTYLE
  2
AcDbVisualStyle
  3
ObjectDBX Classes
 90
     4095
280
     0
281
     0
  0
CLASS
  1
TABLESTYLE
  2
AcDbTableStyle
  3
ObjectDBX Classes
 90
     4095
280
     0
281
     0
  0
CLASS
  1
SCALE
  2
AcDbScale
  3
ObjectDBX Classes
 90
     1153
280
     0
281
     0
  0
CLASS
  1
MLEADERSTYLE
  2
AcDbMLeaderStyle
  3
ACDB_MLEADERSTYLE_CLASS
 90
     4095
280
     0
281
     0
  0
CLASS
  1
ACDBSECTIONVIEWSTYLE
  2
AcDbSectionViewStyle
  3
ObjectDBX Classes
 90
     1025
280
     0
281
     0
  0
CLASS
  1
ACDBDETAILVIEWSTYLE
  2
AcDbDetailViewStyle
  3
ObjectDBX Classes
 90
     1025
280
     0
281
     0
  0
CLASS
  1
CELLSTYLEMAP
  2
AcDbCellStyleMap
  3
ObjectDBX Classes
 90
     1152
280
     0
281
     0
  0
ENDSEC
  0
SECTION
  2
TABLES
  0
TABLE
  2
VPORT
  5
B7E2
330
0
100
AcDbSymbolTable
 70
     1
  0
VPORT
  5
B9B5
330
B7E2
100
AcDbSymbolTableRecord
100
AcDbViewportTableRecord
  2
*ACTIVE
 70
     0
 10
0.0
 20
0.0
 11
1.0
 21
1.0
 12
168.1537258481034
 22
103.6850973381487
 13
0.0
 23
0.0
 14
10.0
 24
10.0
 15
10.0
 25
10.0
 16
0.0
 26
0.0
 36
1.0
 17
0.0
 27
0.0
 37
0.0
 40
189.4876062685534
 41
1.899603698811096
 42
50.0
 43
0.0
 44
0.0
 50
0.0
 51
0.0
 71
     0
 72
   100
 73
     1
 74
     0
 75
     0
 76
     0
 77
     0
 78
     0
281
     0
 65
     1
110
0.0
120
0.0
130
0.0
111
1.0
121
0.0
131
0.0
112
0.0
122
1.0
132
0.0
 79
     0
146
0.0
1001
ACAD_NAV_VCDISPLAY
1070
     3
  0
ENDTAB
  0
TABLE
  2
LTYPE
  5
B7DF
330
0
100
AcDbSymbolTable
 70
     4
  0
LTYPE
  5
B7ED
330
B7DF
100
AcDbSymbolTableRecord
100
AcDbLinetypeTableRecord
  2
BYBLOCK
 70
     0
  3

 72
    65
 73
     0
 40
0.0
  0
LTYPE
  5
B7EE
330
B7DF
100
AcDbSymbolTableRecord
100
AcDbLinetypeTableRecord
  2
BYLAYER
 70
     0
  3

 72
    65
 73
     0
 40
0.0
  0
LTYPE
  5
B7EF
330
B7DF
100
AcDbSymbolTableRecord
100
AcDbLinetypeTableRecord
  2
CONTINUOUS
 70
     0
  3
Solid line
 72
    65
 73
     0
 40
0.0
  0
LTYPE
  5
B7FD
330
B7DF
100
AcDbSymbolTableRecord
100
AcDbLinetypeTableRecord
  2
DASHED
 70
     0
  3
__ __ __ __ __ __ __ __ __ __ __ __ __ __ __ __
 72
    65
 73
     2
 40
0.75
 49
0.5
 74
     0
 49
-0.25
 74
     0
  0
LTYPE
  5
B7FE
330
B7DF
100
AcDbSymbolTableRecord
100
AcDbLinetypeTableRecord
  2
CENTER
 70
     0
  3
____ _ ____ _ ____ _ ____ _ ____ _ ____ _ ____ 
 72
    65
 73
     4
 40
2.0
 49
1.25
 74
     0
 49
-0.25
 74
     0
 49
0.25
 74
     0
 49
-0.25
 74
     0
  0
LTYPE
  5
B7FF
330
B7DF
100
AcDbSymbolTableRecord
100
AcDbLinetypeTableRecord
  2
PHANTOM
 70
     0
  3
______  __  __  ______  __  __  ______  __  __ 
 72
    65
 73
     6
 40
2.5
 49
1.25
 74
     0
 49
-0.25
 74
     0
 49
0.25
 74
     0
 49
-0.25
 74
     0
 49
0.25
 74
     0
 49
-0.25
 74
     0
  0
ENDTAB
  0
TABLE
  2
LAYER
  5
B7DC
330
0
100
AcDbSymbolTable
 70
     8
  0
LAYER
  5
B7EA
102
{ACAD_XDICTIONARY
360
BA10
102
}
330
B7DC
100
AcDbSymbolTableRecord
100
AcDbLayerTableRecord
  2
0
 70
     0
 62
     7
  6
CONTINUOUS
370
    -3
390
B9BE
  0
LAYER
  5
B800
102
{ACAD_XDICTIONARY
360
BA12
102
}
330
B7DC
100
AcDbSymbolTableRecord
100
AcDbLayerTableRecord
  2
4
 70
     0
 62
     1
  6
CENTER
370
    -3
390
B9BE
  0
LAYER
  5
B801
102
{ACAD_XDICTIONARY
360
BA14
102
}
330
B7DC
100
AcDbSymbolTableRecord
100
AcDbLayerTableRecord
  2
5
 70
     0
 62
     6
  6
PHANTOM
370
    -3
390
B9BE
  0
LAYER
  5
B802
102
{ACAD_XDICTIONARY
360
BA16
102
}
330
B7DC
100
AcDbSymbolTableRecord
100
AcDbLayerTableRecord
  2
1
 70
     0
 62
     7
  6
CONTINUOUS
370
    -3
390
B9BE
  0
LAYER
  5
B803
102
{ACAD_XDICTIONARY
360
BA18
102
}
330
B7DC
100
AcDbSymbolTableRecord
100
AcDbLayerTableRecord
  2
2
 70
     0
 62
     4
  6
CONTINUOUS
370
    -3
390
B9BE
  0
LAYER
  5
B804
102
{ACAD_XDICTIONARY
360
BA1A
102
}
330
B7DC
100
AcDbSymbolTableRecord
100
AcDbLayerTableRecord
  2
3
 70
     0
 62
     2
  6
DASHED
370
    -3
390
B9BE
  0
LAYER
  5
B805
102
{ACAD_XDICTIONARY
360
BA1C
102
}
330
B7DC
100
AcDbSymbolTableRecord
100
AcDbLayerTableRecord
  2
6
 70
     0
 62
     5
  6
CONTINUOUS
370
    -3
390
B9BE
  0
LAYER
  5
B806
102
{ACAD_XDICTIONARY
360
BA1E
102
}
330
B7DC
100
AcDbSymbolTableRecord
100
AcDbLayerTableRecord
  2
7
 70
     0
 62
     3
  6
CONTINUOUS
370
    -3
390
B9BE
  0
ENDTAB
  0
TABLE
  2
STYLE
  5
B7DD
330
0
100
AcDbSymbolTable
 70
     1
  0
STYLE
  5
B7EB
330
B7DD
100
AcDbSymbolTableRecord
100
AcDbTextStyleTableRecord
  2
STANDARD
 70
     0
 40
0.0
 41
1.0
 50
0.0
 71
     0
 42
5.0
  3
txt
  4

  0
ENDTAB
  0
TABLE
  2
VIEW
  5
B7E0
330
0
100
AcDbSymbolTable
 70
     0
  0
ENDTAB
  0
TABLE
  2
UCS
  5
B7E1
330
0
100
AcDbSymbolTable
 70
     0
  0
ENDTAB
  0
TABLE
  2
APPID
  5
B7E3
330
0
100
AcDbSymbolTable
 70
     3
  0
APPID
  5
B7EC
330
B7E3
100
AcDbSymbolTableRecord
100
AcDbRegAppTableRecord
  2
ACAD
 70
     0
  0
APPID
  5
BA2A
330
B7E3
100
AcDbSymbolTableRecord
100
AcDbRegAppTableRecord
  2
ACAD_NAV_VCDISPLAY
 70
     0
  0
APPID
  5
BA63
330
B7E3
100
AcDbSymbolTableRecord
100
AcDbRegAppTableRecord
  2
ACAD_MLEADERVER
 70
     0
  0
ENDTAB
  0
TABLE
  2
DIMSTYLE
  5
B7E4
330
0
100
AcDbSymbolTable
 70
     1
100
AcDbDimStyleTable
 71
     0
  0
DIMSTYLE
105
B808
330
B7E4
100
AcDbSymbolTableRecord
100
AcDbDimStyleTableRecord
  2
STANDARD
 70
     0
 41
2.5
 42
1.0
 43
10.0
 44
1.0
 73
     0
 74
     0
 77
     3
 78
     8
140
3.2
141
0.0
147
1.0
172
     1
173
     1
284
     8
285
     8
286
     8
340
B7EB
  0
ENDTAB
  0
TABLE
  2
BLOCK_RECORD
  5
B7DB
330
0
100
AcDbSymbolTable
 70
     0
  0
BLOCK_RECORD
  5
B7F8
102
{ACAD_XDICTIONARY
360
B9B8
102
}
330
B7DB
100
AcDbSymbolTableRecord
100
AcDbBlockTableRecord
  2
*MODEL_SPACE
340
BA0C
  0
BLOCK_RECORD
  5
B7F4
102
{ACAD_XDICTIONARY
360
B9B6
102
}
330
B7DB
100
AcDbSymbolTableRecord
100
AcDbBlockTableRecord
  2
*PAPER_SPACE
340
BA0D
  0
ENDTAB
  0
ENDSEC
  0
SECTION
  2
BLOCKS
  0
BLOCK
  5
B7F9
330
B7F8
100
AcDbEntity
  8
0
100
AcDbBlockBegin
  2
*MODEL_SPACE
 70
     0
 10
0.0
 20
0.0
 30
0.0
  3
*MODEL_SPACE
  1

  0
ENDBLK
  5
B7FA
330
B7F8
100
AcDbEntity
  8
0
100
AcDbBlockEnd
  0
BLOCK
  5
B7F5
330
B7F4
100
AcDbEntity
 67
     1
  8
0
100
AcDbBlockBegin
  2
*PAPER_SPACE
 70
     0
 10
0.0
 20
0.0
 30
0.0
  3
*PAPER_SPACE
  1

  0
ENDBLK
  5
B7F6
330
B7F4
100
AcDbEntity
 67
     1
  8
0
100
AcDbBlockEnd
  0
ENDSEC
  0
SECTION
  2
ENTITIES
  0
TEXT
  5
B810
330
B7F8
100
AcDbEntity
  8
7
  6
Continuous
100
AcDbText
 10
10.0
 20
18.0
 30
0.0
 40
3.0
  1
TYPE No.TM-144SUS-32
100
AcDbText
  0
TEXT
  5
B811
330
B7F8
100
AcDbEntity
  8
7
  6
Continuous
100
AcDbText
 10
10.0
 20
26.0
 30
0.0
 40
3.0
  1
CODE No.5713
100
AcDbText
  0
TEXT
  5
B812
330
B7F8
100
AcDbEntity
  8
1
  6
Continuous
100
AcDbText
 10
10.0
 20
10.0
 30
0.0
 40
1.399999999999999
  1
LAYER
100
AcDbText
  0
TEXT
  5
B813
330
B7F8
100
AcDbEntity
  8
1
  6
Continuous
100
AcDbText
 10
17.97951099999998
 20
10.04873699999998
 30
0.0
 40
1.399999999999999
  1
1
100
AcDbText
  0
TEXT
  5
B814
330
B7F8
100
AcDbEntity
  8
7
  6
Continuous
100
AcDbText
 10
29.97951099999999
 20
10.04873699999998
 30
0.0
 40
1.399999999999999
  1
7
100
AcDbText
  0
TEXT
  5
B815
330
B7F8
100
AcDbEntity
  8
4
  6
CENTER
100
AcDbText
 10
23.97951099999999
 20
10.04873699999998
 30
0.0
 40
1.399999999999999
  1
4
100
AcDbText
  0
TEXT
  5
B816
330
B7F8
100
AcDbEntity
  8
3
  6
DASHED
100
AcDbText
 10
21.979511
 20
10.04873699999998
 30
0.0
 40
1.399999999999999
  1
3
100
AcDbText
  0
TEXT
  5
B817
330
B7F8
100
AcDbEntity
  8
2
  6
Continuous
100
AcDbText
 10
19.97951099999999
 20
10.04873699999998
 30
0.0
 40
1.399999999999999
  1
2
100
AcDbText
  0
TEXT
  5
B818
330
B7F8
100
AcDbEntity
  8
6
  6
Continuous
100
AcDbText
 10
27.979511
 20
10.04873699999998
 30
0.0
 40
1.399999999999999
  1
6
100
AcDbText
  0
TEXT
  5
B819
330
B7F8
100
AcDbEntity
  8
5
  6
PHANTOM
100
AcDbText
 10
25.97951099999999
 20
10.04873699999998
 30
0.0
 40
1.399999999999999
  1
5
100
AcDbText
  0
LINE
  5
B81A
330
B7F8
100
AcDbEntity
  8
1
  6
Continuous
100
AcDbLine
 10
111.600239
 20
126.862278
 30
0.0
 11
122.6002389999998
 21
126.862278
 31
0.0
  0
LINE
  5
B81B
330
B7F8
100
AcDbEntity
  8
1
  6
Continuous
100
AcDbLine
 10
134.3502389999999
 20
127.838778
 30
0.0
 11
134.3502389999999
 21
131.8122779999999
 31
0.0
  0
LINE
  5
B81C
330
B7F8
100
AcDbEntity
  8
1
  6
Continuous
100
AcDbLine
 10
126.3502389999999
 20
128.112278
 30
0.0
 11
126.3502389999999
 21
137.362278
 31
0.0
  0
LINE
  5
B81D
330
B7F8
100
AcDbEntity
  8
1
  6
Continuous
100
AcDbLine
 10
107.8502389999999
 20
129.862278
 30
0.0
 11
107.8502389999999
 21
137.362278
 31
0.0
  0
LINE
  5
B81E
330
B7F8
100
AcDbEntity
  8
4
  6
CENTER
100
AcDbLine
 10
117.1002389999999
 20
92.5
 30
0.0
 11
117.1002389999999
 21
141.8622779999998
 31
0.0
  0
LINE
  5
B81F
330
B7F8
100
AcDbEntity
  8
1
  6
Continuous
100
AcDbLine
 10
109.3502389999999
 20
138.862278
 30
0.0
 11
124.8502389999998
 21
138.862278
 31
0.0
  0
LINE
  5
B820
330
B7F8
100
AcDbEntity
  8
1
  6
Continuous
100
AcDbLine
 10
111.3002389999999
 20
178.8626779999999
 30
0.0
 11
122.9002389999999
 21
178.8626779999999
 31
0.0
  0
LINE
  5
B821
330
B7F8
100
AcDbEntity
  8
1
  6
Continuous
100
AcDbLine
 10
111.3002389999999
 20
194.3626779999999
 30
0.0
 11
122.9002389999999
 21
194.3626779999999
 31
0.0
  0
LINE
  5
B822
330
B7F8
100
AcDbEntity
  8
4
  6
CENTER
100
AcDbLine
 10
96.5
 20
186.6126779999999
 30
0.0
 11
137.700477
 21
186.6126779999999
 31
0.0
  0
LINE
  5
B823
330
B7F8
100
AcDbEntity
  8
4
  6
CENTER
100
AcDbLine
 10
202.050477
 20
92.5
 30
0.0
 11
202.050477
 21
141.8623149999999
 31
0.0
  0
LINE
  5
B824
330
B7F8
100
AcDbEntity
  8
1
  6
Continuous
100
AcDbLine
 10
126.3502389999999
 20
181.8626779999999
 30
0.0
 11
126.3502389999999
 21
191.3626779999999
 31
0.0
  0
LINE
  5
B825
330
B7F8
100
AcDbEntity
  8
4
  6
CENTER
100
AcDbLine
 10
117.1002389999999
 20
175.8626779999999
 30
0.0
 11
117.1002389999999
 21
197.362678
 31
0.0
  0
LINE
  5
B826
330
B7F8
100
AcDbEntity
  8
1
  6
Continuous
100
AcDbLine
 10
107.8502389999999
 20
181.8626779999999
 30
0.0
 11
107.8502389999999
 21
191.3626779999999
 31
0.0
  0
LINE
  5
B827
330
B7F8
100
AcDbEntity
  8
1
  6
Continuous
100
AcDbLine
 10
107.829405
 20
129.862278
 30
0.0
 11
111.3002389999999
 21
129.862278
 31
0.0
  0
ARC
  5
B828
330
B7F8
100
AcDbEntity
  8
1
  6
Continuous
100
AcDbCircle
 10
109.3502389999999
 20
137.362278
 30
0.0
 40
1.5
100
AcDbArc
 50
90.0
 51
180.0
  0
ARC
  5
B829
330
B7F8
100
AcDbEntity
  8
1
  6
Continuous
100
AcDbCircle
 10
124.8502389999998
 20
137.362278
 30
0.0
 40
1.5
100
AcDbArc
 50
0.0
 51
90.0
  0
LINE
  5
B82A
330
B7F8
100
AcDbEntity
  8
1
  6
Continuous
100
AcDbLine
 10
122.9002389999999
 20
129.862278
 30
0.0
 11
126.3502389999999
 21
129.862278
 31
0.0
  0
LINE
  5
B82B
330
B7F8
100
AcDbEntity
  8
4
  6
CENTER
100
AcDbLine
 10
100.850239
 20
132.612278
 30
0.0
 11
137.3502389999998
 21
132.612278
 31
0.0
  0
LINE
  5
B82C
330
B7F8
100
AcDbEntity
  8
1
  6
Continuous
100
AcDbLine
 10
131.3502389999999
 20
133.4122779999999
 30
0.0
 11
134.3502389999999
 21
133.4122779999999
 31
0.0
  0
LINE
  5
B82D
330
B7F8
100
AcDbEntity
  8
1
  6
Continuous
100
AcDbLine
 10
131.3502389999999
 20
131.8122779999999
 30
0.0
 11
134.3502389999999
 21
131.8122779999999
 31
0.0
  0
LINE
  5
B82E
330
B7F8
100
AcDbEntity
  8
1
  6
Continuous
100
AcDbLine
 10
131.3502389999999
 20
131.8122779999999
 30
0.0
 11
131.3502389999999
 21
133.4122779999999
 31
0.0
  0
LINE
  5
B82F
330
B7F8
100
AcDbEntity
  8
1
  6
Continuous
100
AcDbLine
 10
134.3502389999999
 20
133.4122779999999
 30
0.0
 11
134.3502389999999
 21
137.3857779999999
 31
0.0
  0
LINE
  5
B830
330
B7F8
100
AcDbEntity
  8
4
  6
CENTER
100
AcDbLine
 10
191.300477
 20
132.6123149999999
 30
0.0
 11
212.8004769999999
 21
132.6123149999999
 31
0.0
  0
LINE
  5
B831
330
B7F8
100
AcDbEntity
  8
1
  6
Continuous
100
AcDbLine
 10
197.0504769999998
 20
133.4123149999998
 30
0.0
 11
207.0504769999998
 21
133.4123149999998
 31
0.0
  0
LINE
  5
B832
330
B7F8
100
AcDbEntity
  8
1
  6
Continuous
100
AcDbLine
 10
197.0504769999998
 20
131.8123149999999
 30
0.0
 11
207.0504769999998
 21
131.8123149999999
 31
0.0
  0
LINE
  5
B833
330
B7F8
100
AcDbEntity
  8
1
  6
Continuous
100
AcDbLine
 10
208.300477
 20
129.862315
 30
0.0
 11
208.300477
 21
133.9940039999998
 31
0.0
  0
LINE
  5
B834
330
B7F8
100
AcDbEntity
  8
1
  6
Continuous
100
AcDbLine
 10
195.800477
 20
129.862315
 30
0.0
 11
195.800477
 21
133.9940039999998
 31
0.0
  0
LINE
  5
B835
330
B7F8
100
AcDbEntity
  8
1
  6
Continuous
100
AcDbLine
 10
195.383054
 20
129.862315
 30
0.0
 11
197.152773
 21
129.862315
 31
0.0
  0
LINE
  5
B836
330
B7F8
100
AcDbEntity
  8
1
  6
Continuous
100
AcDbLine
 10
206.948181
 20
129.862315
 30
0.0
 11
208.7178999999999
 21
129.862315
 31
0.0
  0
ARC
  5
B837
330
B7F8
100
AcDbEntity
  8
1
  6
Continuous
100
AcDbCircle
 10
195.800477
 20
128.3623149999999
 30
0.0
 40
1.5
100
AcDbArc
 50
180.0
 51
260.405932
  0
ARC
  5
B838
330
B7F8
100
AcDbEntity
  8
1
  6
Continuous
100
AcDbCircle
 10
208.300477
 20
128.3623149999999
 30
0.0
 40
1.5
100
AcDbArc
 50
279.594068
 51
0.0
  0
LINE
  5
B839
330
B7F8
100
AcDbEntity
  8
1
  6
Continuous
100
AcDbLine
 10
109.3502389999999
 20
192.8626779999999
 30
0.0
 11
110.1002389999998
 21
192.8626779999999
 31
0.0
  0
LINE
  5
B83A
330
B7F8
100
AcDbEntity
  8
1
  6
Continuous
100
AcDbLine
 10
109.3502389999999
 20
180.3626779999999
 30
0.0
 11
110.1002389999998
 21
180.3626779999999
 31
0.0
  0
LINE
  5
B83B
330
B7F8
100
AcDbEntity
  8
1
  6
Continuous
100
AcDbLine
 10
124.100239
 20
192.8626779999999
 30
0.0
 11
124.8502389999998
 21
192.8626779999999
 31
0.0
  0
LINE
  5
B83C
330
B7F8
100
AcDbEntity
  8
1
  6
Continuous
100
AcDbLine
 10
124.100239
 20
180.3626779999999
 30
0.0
 11
124.8502389999998
 21
180.3626779999999
 31
0.0
  0
LINE
  5
B83D
330
B7F8
100
AcDbEntity
  8
1
  6
Continuous
100
AcDbLine
 10
208.962781
 20
127.780832
 30
0.0
 11
208.550477
 21
127.7622779999999
 31
0.0
  0
LINE
  5
B83E
330
B7F8
100
AcDbEntity
  8
1
  6
Continuous
100
AcDbLine
 10
195.138174
 20
127.780832
 30
0.0
 11
195.550477
 21
127.7622779999999
 31
0.0
  0
ARC
  5
B83F
330
B7F8
100
AcDbEntity
  8
1
  6
Continuous
100
AcDbCircle
 10
124.8502389999998
 20
191.3626779999999
 30
0.0
 40
1.5
100
AcDbArc
 50
0.0
 51
90.0
  0
ARC
  5
B840
330
B7F8
100
AcDbEntity
  8
1
  6
Continuous
100
AcDbCircle
 10
109.3502389999999
 20
191.3626779999999
 30
0.0
 40
1.5
100
AcDbArc
 50
90.0
 51
180.0
  0
ARC
  5
B841
330
B7F8
100
AcDbEntity
  8
1
  6
Continuous
100
AcDbCircle
 10
109.3502389999999
 20
181.8626779999999
 30
0.0
 40
1.5
100
AcDbArc
 50
180.0
 51
270.0
  0
ARC
  5
B842
330
B7F8
100
AcDbEntity
  8
1
  6
Continuous
100
AcDbCircle
 10
124.8502389999998
 20
181.8626779999999
 30
0.0
 40
1.5
100
AcDbArc
 50
270.0
 51
0.0
  0
ARC
  5
B843
330
B7F8
100
AcDbEntity
  8
1
  6
Continuous
100
AcDbCircle
 10
107.8502389999999
 20
186.6126779999999
 30
0.0
 40
3.0
100
AcDbArc
 50
90.0
 51
270.0
  0
ARC
  5
B844
330
B7F8
100
AcDbEntity
  8
1
  6
Continuous
100
AcDbCircle
 10
107.8398219999999
 20
132.862278
 30
0.0
 40
3.000017999999998
100
AcDbArc
 50
89.80105700000001
 51
270.1989429999999
  0
LINE
  5
B845
330
B7F8
100
AcDbEntity
  8
1
  6
Continuous
100
AcDbLine
 10
122.6002389999998
 20
126.862278
 30
0.0
 11
122.9002389999999
 21
129.862278
 31
0.0
  0
LINE
  5
B846
330
B7F8
100
AcDbEntity
  8
1
  6
Continuous
100
AcDbLine
 10
111.3002389999999
 20
129.862278
 30
0.0
 11
111.600239
 21
126.862278
 31
0.0
  0
ARC
  5
B847
330
B7F8
100
AcDbEntity
  8
1
  6
Continuous
100
AcDbCircle
 10
117.1002389999999
 20
125.755611
 30
0.0
 40
7.106666999999997
100
AcDbArc
 50
35.30024799999999
 51
144.6997519999999
  0
LINE
  5
B848
330
B7F8
100
AcDbEntity
  8
1
  6
Continuous
100
AcDbLine
 10
128.3502389999999
 20
127.3622779999999
 30
0.0
 11
128.3502389999999
 21
137.862278
 31
0.0
  0
ARC
  5
B849
330
B7F8
100
AcDbEntity
  8
1
  6
Continuous
100
AcDbCircle
 10
133.3502389999999
 20
137.3857779999999
 30
0.0
 40
1.0
100
AcDbArc
 50
0.0
 51
28.45706
  0
ARC
  5
B84A
330
B7F8
100
AcDbEntity
  8
1
  6
Continuous
100
AcDbCircle
 10
133.3502389999999
 20
127.838778
 30
0.0
 40
1.0
100
AcDbArc
 50
331.5429399999998
 51
0.0
  0
LINE
  5
B84B
330
B7F8
100
AcDbEntity
  8
1
  6
Continuous
100
AcDbLine
 10
130.323584
 20
134.862278
 30
0.0
 11
132.5502389999998
 21
134.862278
 31
0.0
  0
LINE
  5
B84C
330
B7F8
100
AcDbEntity
  8
1
  6
Continuous
100
AcDbLine
 10
130.323584
 20
130.3622779999997
 30
0.0
 11
132.5502389999998
 21
130.3622779999997
 31
0.0
  0
ARC
  5
B84D
330
B7F8
100
AcDbEntity
  8
1
  6
Continuous
100
AcDbCircle
 10
131.436911
 20
136.262645
 30
0.0
 40
6.004484999999997
100
AcDbArc
 50
239.065273
 51
259.3146159999998
  0
ARC
  5
B84E
330
B7F8
100
AcDbEntity
  8
1
  6
Continuous
100
AcDbCircle
 10
131.436911
 20
128.9619099999999
 30
0.0
 40
6.004484999999997
100
AcDbArc
 50
60.974955
 51
79.314616
  0
ARC
  5
B84F
330
B7F8
100
AcDbEntity
  8
1
  6
Continuous
100
AcDbCircle
 10
131.436911
 20
128.9619099999999
 30
0.0
 40
6.004484999999997
100
AcDbArc
 50
100.6853839999999
 51
120.934727
  0
ARC
  5
B850
330
B7F8
100
AcDbEntity
  8
1
  6
Continuous
100
AcDbCircle
 10
131.436911
 20
136.262645
 30
0.0
 40
6.004484999999997
100
AcDbArc
 50
280.685384
 51
299.0250449999999
  0
LINE
  5
B851
330
B7F8
100
AcDbEntity
  8
1
  6
Continuous
100
AcDbLine
 10
130.323584
 20
136.1622779999999
 30
0.0
 11
132.5502389999998
 21
136.1622779999999
 31
0.0
  0
LINE
  5
B852
330
B7F8
100
AcDbEntity
  8
1
  6
Continuous
100
AcDbLine
 10
130.323584
 20
129.0622779999999
 30
0.0
 11
132.5502389999998
 21
129.0622779999999
 31
0.0
  0
ARC
  5
B853
330
B7F8
100
AcDbEntity
  8
1
  6
Continuous
100
AcDbCircle
 10
131.436911
 20
142.062645
 30
0.0
 40
6.004484999999997
100
AcDbArc
 50
239.065273
 51
259.3146159999998
  0
ARC
  5
B854
330
B7F8
100
AcDbEntity
  8
1
  6
Continuous
100
AcDbCircle
 10
131.436911
 20
123.16191
 30
0.0
 40
6.004484999999997
100
AcDbArc
 50
60.974955
 51
79.314616
  0
ARC
  5
B855
330
B7F8
100
AcDbEntity
  8
1
  6
Continuous
100
AcDbCircle
 10
131.436911
 20
123.16191
 30
0.0
 40
6.004484999999997
100
AcDbArc
 50
100.6853839999999
 51
120.934727
  0
ARC
  5
B856
330
B7F8
100
AcDbEntity
  8
1
  6
Continuous
100
AcDbCircle
 10
131.436911
 20
142.062645
 30
0.0
 40
6.004484999999997
100
AcDbArc
 50
280.685384
 51
299.0250449999999
  0
LINE
  5
B857
330
B7F8
100
AcDbEntity
  8
1
  6
Continuous
100
AcDbLine
 10
126.3502389999999
 20
137.112278
 30
0.0
 11
128.3502389999999
 21
137.112278
 31
0.0
  0
LINE
  5
B858
330
B7F8
100
AcDbEntity
  8
1
  6
Continuous
100
AcDbLine
 10
126.3502389999999
 20
128.112278
 30
0.0
 11
128.3502389999999
 21
128.112278
 31
0.0
  0
ARC
  5
B859
330
B7F8
100
AcDbEntity
  8
1
  6
Continuous
100
AcDbCircle
 10
131.289826
 20
133.836471
 30
0.0
 40
7.110299
100
AcDbArc
 50
245.5797249999998
 51
254.238518
  0
ARC
  5
B85A
330
B7F8
100
AcDbEntity
  8
1
  6
Continuous
100
AcDbCircle
 10
131.289826
 20
131.3880839999999
 30
0.0
 40
7.110299
100
AcDbArc
 50
65.57972499999999
 51
74.24076499999998
  0
ARC
  5
B85B
330
B7F8
100
AcDbEntity
  8
1
  6
Continuous
100
AcDbCircle
 10
131.289826
 20
131.3880839999999
 30
0.0
 40
7.110299
100
AcDbArc
 50
105.7592349999999
 51
114.420275
  0
ARC
  5
B85C
330
B7F8
100
AcDbEntity
  8
1
  6
Continuous
100
AcDbCircle
 10
131.289826
 20
133.836471
 30
0.0
 40
7.110299
100
AcDbArc
 50
285.761482
 51
294.420275
  0
LINE
  5
B85D
330
B7F8
100
AcDbEntity
  8
1
  6
Continuous
100
AcDbLine
 10
126.3502389999999
 20
191.112678
 30
0.0
 11
128.3502389999999
 21
191.112678
 31
0.0
  0
LINE
  5
B85E
330
B7F8
100
AcDbEntity
  8
1
  6
Continuous
100
AcDbLine
 10
126.3502389999999
 20
182.1126779999999
 30
0.0
 11
128.3502389999999
 21
182.1126779999999
 31
0.0
  0
LINE
  5
B85F
330
B7F8
100
AcDbEntity
  8
1
  6
Continuous
100
AcDbLine
 10
128.3502389999999
 20
181.6126779999999
 30
0.0
 11
128.3502389999999
 21
191.6126779999999
 31
0.0
  0
LINE
  5
B860
330
B7F8
100
AcDbEntity
  8
1
  6
Continuous
100
AcDbLine
 10
128.3502389999999
 20
191.6126779999999
 30
0.0
 11
133.3502389999999
 21
191.6126779999999
 31
0.0
  0
LINE
  5
B861
330
B7F8
100
AcDbEntity
  8
1
  6
Continuous
100
AcDbLine
 10
128.3502389999999
 20
181.6126779999999
 30
0.0
 11
133.3502389999999
 21
181.6126779999999
 31
0.0
  0
LINE
  5
B862
330
B7F8
100
AcDbEntity
  8
1
  6
Continuous
100
AcDbLine
 10
134.3502389999999
 20
182.6126779999999
 30
0.0
 11
134.3502389999999
 21
190.6126779999999
 31
0.0
  0
LINE
  5
B863
330
B7F8
100
AcDbEntity
  8
1
  6
Continuous
100
AcDbLine
 10
130.5893689999997
 20
187.1126779999999
 30
0.0
 11
132.5502389999998
 21
187.1126779999999
 31
0.0
  0
LINE
  5
B864
330
B7F8
100
AcDbEntity
  8
1
  6
Continuous
100
AcDbLine
 10
130.5893689999997
 20
186.112678
 30
0.0
 11
132.5502389999998
 21
186.112678
 31
0.0
  0
ARC
  5
B865
330
B7F8
100
AcDbEntity
  8
1
  6
Continuous
100
AcDbCircle
 10
131.569804
 20
190.9974599999999
 30
0.0
 40
4.006592999999998
100
AcDbArc
 50
216.5279299999999
 51
255.8355779999999
  0
ARC
  5
B866
330
B7F8
100
AcDbEntity
  8
1
  6
Continuous
100
AcDbCircle
 10
131.569804
 20
182.2278949999999
 30
0.0
 40
4.006592999999998
100
AcDbArc
 50
46.05521399999997
 51
75.835578
  0
ARC
  5
B867
330
B7F8
100
AcDbEntity
  8
1
  6
Continuous
100
AcDbCircle
 10
131.569804
 20
190.9974599999999
 30
0.0
 40
4.006592999999998
100
AcDbArc
 50
284.164422
 51
313.9447859999999
  0
ARC
  5
B868
330
B7F8
100
AcDbEntity
  8
1
  6
Continuous
100
AcDbCircle
 10
131.569804
 20
182.2278949999999
 30
0.0
 40
4.006592999999998
100
AcDbArc
 50
104.164422
 51
143.4720699999998
  0
ARC
  5
B869
330
B7F8
100
AcDbEntity
  8
1
  6
Continuous
100
AcDbCircle
 10
133.3502389999999
 20
190.6126779999999
 30
0.0
 40
1.0
100
AcDbArc
 50
0.0
 51
90.0
  0
ARC
  5
B86A
330
B7F8
100
AcDbEntity
  8
1
  6
Continuous
100
AcDbCircle
 10
133.3502389999999
 20
182.6126779999999
 30
0.0
 40
1.0
100
AcDbArc
 50
270.0
 51
0.0
  0
ARC
  5
B86B
330
B7F8
100
AcDbEntity
  8
1
  6
Continuous
100
AcDbCircle
 10
131.714562
 20
185.8025199999999
 30
0.0
 40
5.869947999999999
100
AcDbArc
 50
64.77410899999999
 51
81.81526300000001
  0
ARC
  5
B86C
330
B7F8
100
AcDbEntity
  8
1
  6
Continuous
100
AcDbCircle
 10
131.714562
 20
187.4228349999999
 30
0.0
 40
5.869947999999999
100
AcDbArc
 50
235.030267
 51
261.815263
  0
ARC
  5
B86D
330
B7F8
100
AcDbEntity
  8
1
  6
Continuous
100
AcDbCircle
 10
131.714562
 20
185.8025199999999
 30
0.0
 40
5.869947999999999
100
AcDbArc
 50
98.184737
 51
124.969733
  0
ARC
  5
B86E
330
B7F8
100
AcDbEntity
  8
1
  6
Continuous
100
AcDbCircle
 10
131.714562
 20
187.4228349999999
 30
0.0
 40
5.869947999999999
100
AcDbArc
 50
278.1847369999999
 51
295.225891
  0
ARC
  5
B86F
330
B7F8
100
AcDbEntity
  8
1
  6
Continuous
100
AcDbCircle
 10
202.050477
 20
132.6123149999999
 30
0.0
 40
4.5
100
AcDbArc
 50
190.240348
 51
349.759652
  0
ARC
  5
B870
330
B7F8
100
AcDbEntity
  8
1
  6
Continuous
100
AcDbCircle
 10
202.050477
 20
132.6123149999999
 30
0.0
 40
4.5
100
AcDbArc
 50
10.24034799999999
 51
169.7596519999999
  0
LINE
  5
B871
330
B7F8
100
AcDbEntity
  8
1
  6
Continuous
100
AcDbLine
 10
209.800477
 20
128.3623149999999
 30
0.0
 11
209.191627
 21
133.5375389999998
 31
0.0
  0
LINE
  5
B872
330
B7F8
100
AcDbEntity
  8
1
  6
Continuous
100
AcDbLine
 10
194.300477
 20
128.3623149999999
 30
0.0
 11
194.9093269999999
 21
133.5375389999998
 31
0.0
  0
LINE
  5
B873
330
B7F8
100
AcDbEntity
  8
1
  6
Continuous
100
AcDbLine
 10
195.138174
 20
127.780832
 30
0.0
 11
195.383054
 21
129.862315
 31
0.0
  0
LINE
  5
B874
330
B7F8
100
AcDbEntity
  8
1
  6
Continuous
100
AcDbLine
 10
208.962781
 20
127.780832
 30
0.0
 11
208.7178999999999
 21
129.862315
 31
0.0
  0
LINE
  5
B875
330
B7F8
100
AcDbEntity
  8
1
  6
Continuous
100
AcDbLine
 10
133.220952
 20
138.2311179999998
 30
0.0
 11
129.3587
 21
138.2311179999998
 31
0.0
  0
LINE
  5
B876
330
B7F8
100
AcDbEntity
  8
1
  6
Continuous
100
AcDbLine
 10
133.2212199999998
 20
126.9935129999998
 30
0.0
 11
129.3584319999999
 21
126.9935129999998
 31
0.0
  0
ARC
  5
B877
330
B7F8
100
AcDbEntity
  8
1
  6
Continuous
100
AcDbCircle
 10
202.050477
 20
132.4161949999999
 30
0.0
 40
6.446082999999998
100
AcDbArc
 50
14.168254
 51
165.831746
  0
ARC
  5
B878
330
B7F8
100
AcDbEntity
  8
1
  6
Continuous
100
AcDbCircle
 10
196.399053
 20
133.362278
 30
0.0
 40
1.5
100
AcDbArc
 50
102.599855
 51
173.2901629999998
  0
ARC
  5
B879
330
B7F8
100
AcDbEntity
  8
1
  6
Continuous
100
AcDbCircle
 10
207.7019019999999
 20
133.362278
 30
0.0
 40
1.5
100
AcDbArc
 50
6.709836999999998
 51
77.40014499999998
  0
LINE
  5
B87A
330
B7F8
100
AcDbEntity
  8
1
  6
Continuous
100
AcDbLine
 10
208.550477
 20
96.5
 30
0.0
 11
208.550477
 21
128.989605
 31
0.0
  0
LINE
  5
B87B
330
B7F8
100
AcDbEntity
  8
1
  6
Continuous
100
AcDbLine
 10
195.550477
 20
96.5
 30
0.0
 11
195.550477
 21
128.989605
 31
0.0
  0
LINE
  5
B87C
330
B7F8
100
AcDbEntity
  8
1
  6
Continuous
100
AcDbLine
 10
100.5
 20
193.1126779999999
 30
0.0
 11
110.3002389999999
 21
193.1126779999999
 31
0.0
  0
LINE
  5
B87D
330
B7F8
100
AcDbEntity
  8
1
  6
Continuous
100
AcDbLine
 10
100.5
 20
180.1126779999999
 30
0.0
 11
110.3002389999999
 21
180.1126779999999
 31
0.0
  0
LINE
  5
B87E
330
B7F8
100
AcDbEntity
  8
1
  6
Continuous
100
AcDbLine
 10
123.9002389999999
 20
193.1126779999999
 30
0.0
 11
134.300477
 21
193.1126779999999
 31
0.0
  0
LINE
  5
B87F
330
B7F8
100
AcDbEntity
  8
1
  6
Continuous
100
AcDbLine
 10
123.9002389999999
 20
180.1126779999999
 30
0.0
 11
134.300477
 21
180.1126779999999
 31
0.0
  0
LINE
  5
B880
330
B7F8
100
AcDbEntity
  8
4
  6
CENTER
100
AcDbLine
 10
22.0
 20
132.6123149999999
 30
0.0
 11
43.5
 21
132.6123149999999
 31
0.0
  0
LINE
  5
B881
330
B7F8
100
AcDbEntity
  8
4
  6
CENTER
100
AcDbLine
 10
32.75
 20
92.5
 30
0.0
 11
32.75
 21
141.8623149999999
 31
0.0
  0
ARC
  5
B882
330
B7F8
100
AcDbEntity
  8
1
  6
Continuous
100
AcDbCircle
 10
32.75
 20
132.4161949999999
 30
0.0
 40
6.446082999999998
100
AcDbArc
 50
14.168254
 51
165.831746
  0
LINE
  5
B883
330
B7F8
100
AcDbEntity
  8
1
  6
Continuous
100
AcDbLine
 10
39.25
 20
96.5
 30
0.0
 11
39.25
 21
129.0073149999997
 31
0.0
  0
LINE
  5
B884
330
B7F8
100
AcDbEntity
  8
1
  6
Continuous
100
AcDbLine
 10
26.25
 20
96.5
 30
0.0
 11
26.25
 21
129.0073149999997
 31
0.0
  0
ARC
  5
B885
330
B7F8
100
AcDbEntity
  8
1
  6
Continuous
100
AcDbCircle
 10
26.5
 20
128.3623149999999
 30
0.0
 40
1.5
100
AcDbArc
 50
180.0
 51
260.405932
  0
LINE
  5
B886
330
B7F8
100
AcDbEntity
  8
1
  6
Continuous
100
AcDbLine
 10
25.0
 20
128.3623149999999
 30
0.0
 11
25.60885
 21
133.5375389999998
 31
0.0
  0
ARC
  5
B887
330
B7F8
100
AcDbEntity
  8
1
  6
Continuous
100
AcDbCircle
 10
27.098576
 20
133.362278
 30
0.0
 40
1.5
100
AcDbArc
 50
102.599855
 51
173.2901629999998
  0
LINE
  5
B888
330
B7F8
100
AcDbEntity
  8
1
  6
Continuous
100
AcDbLine
 10
39.0
 20
129.862315
 30
0.0
 11
39.0
 21
133.9940039999998
 31
0.0
  0
LINE
  5
B889
330
B7F8
100
AcDbEntity
  8
1
  6
Continuous
100
AcDbLine
 10
37.68761400000001
 20
129.862315
 30
0.0
 11
39.41742299999999
 21
129.862315
 31
0.0
  0
ARC
  5
B88A
330
B7F8
100
AcDbEntity
  8
1
  6
Continuous
100
AcDbCircle
 10
39.0
 20
128.3623149999999
 30
0.0
 40
1.5
100
AcDbArc
 50
279.594068
 51
0.0
  0
LINE
  5
B88B
330
B7F8
100
AcDbEntity
  8
1
  6
Continuous
100
AcDbLine
 10
39.662304
 20
127.780832
 30
0.0
 11
39.25
 21
127.7622779999999
 31
0.0
  0
LINE
  5
B88C
330
B7F8
100
AcDbEntity
  8
1
  6
Continuous
100
AcDbLine
 10
40.49999999999999
 20
128.3623149999999
 30
0.0
 11
39.89115
 21
133.5375389999998
 31
0.0
  0
LINE
  5
B88D
330
B7F8
100
AcDbEntity
  8
1
  6
Continuous
100
AcDbLine
 10
39.662304
 20
127.780832
 30
0.0
 11
39.41742299999999
 21
129.862315
 31
0.0
  0
ARC
  5
B88E
330
B7F8
100
AcDbEntity
  8
1
  6
Continuous
100
AcDbCircle
 10
38.40142399999999
 20
133.362278
 30
0.0
 40
1.5
100
AcDbArc
 50
6.709836999999998
 51
77.40014499999998
  0
LINE
  5
B88F
330
B7F8
100
AcDbEntity
  8
1
  6
Continuous
100
AcDbLine
 10
26.5
 20
129.862315
 30
0.0
 11
26.5
 21
133.9940039999998
 31
0.0
  0
LINE
  5
B890
330
B7F8
100
AcDbEntity
  8
1
  6
Continuous
100
AcDbLine
 10
25.837696
 20
127.780832
 30
0.0
 11
26.25
 21
127.7622779999999
 31
0.0
  0
LINE
  5
B891
330
B7F8
100
AcDbEntity
  8
1
  6
Continuous
100
AcDbLine
 10
25.837696
 20
127.780832
 30
0.0
 11
26.082577
 21
129.862315
 31
0.0
  0
LINE
  5
B892
330
B7F8
100
AcDbEntity
  8
1
  6
Continuous
100
AcDbLine
 10
26.082577
 20
129.862315
 30
0.0
 11
27.812386
 21
129.862315
 31
0.0
  0
CIRCLE
  5
B893
330
B7F8
100
AcDbEntity
  8
1
  6
Continuous
100
AcDbCircle
 10
32.75
 20
132.862278
 30
0.0
 40
3.0
  0
LINE
  5
B894
330
B7F8
100
AcDbEntity
  8
1
  6
Continuous
100
AcDbLine
 10
29.76504099999999
 20
133.1623149999997
 30
0.0
 11
28.74612899999998
 21
130.5043689999999
 31
0.0
  0
LINE
  5
B895
330
B7F8
100
AcDbEntity
  8
1
  6
Continuous
100
AcDbLine
 10
35.73495900000001
 20
133.1623149999997
 30
0.0
 11
36.753871
 21
130.5043689999999
 31
0.0
  0
ARC
  5
B896
330
B7F8
100
AcDbEntity
  8
1
  6
Continuous
100
AcDbCircle
 10
37.68761400000001
 20
130.862315
 30
0.0
 40
1.0
100
AcDbArc
 50
200.9741219999999
 51
270.0
  0
ARC
  5
B897
330
B7F8
100
AcDbEntity
  8
1
  6
Continuous
100
AcDbCircle
 10
27.812386
 20
130.862315
 30
0.0
 40
1.0
100
AcDbArc
 50
270.0
 51
339.0258779999999
  0
ARC
  5
B898
330
B7F8
100
AcDbEntity
  8
1
  6
Continuous
100
AcDbCircle
 10
133.3502389999999
 20
44.75
 30
0.0
 40
1.0
100
AcDbArc
 50
336.412366
 51
0.0
  0
LINE
  5
B899
330
B7F8
100
AcDbEntity
  8
4
  6
CENTER
100
AcDbLine
 10
117.1002389999999
 20
38.0
 30
0.0
 11
117.1002389999999
 21
59.5
 31
0.0
  0
LINE
  5
B89A
330
B7F8
100
AcDbEntity
  8
1
  6
Continuous
100
AcDbLine
 10
100.5
 20
42.25
 30
0.0
 11
134.2666879999999
 21
42.25
 31
0.0
  0
LINE
  5
B89B
330
B7F8
100
AcDbEntity
  8
1
  6
Continuous
100
AcDbLine
 10
111.3002389999999
 20
41.0
 30
0.0
 11
122.9002389999999
 21
41.0
 31
0.0
  0
LINE
  5
B89C
330
B7F8
100
AcDbEntity
  8
1
  6
Continuous
100
AcDbLine
 10
100.5
 20
55.25
 30
0.0
 11
134.2666879999999
 21
55.25
 31
0.0
  0
LINE
  5
B89D
330
B7F8
100
AcDbEntity
  8
4
  6
CENTER
100
AcDbLine
 10
96.5
 20
48.75
 30
0.0
 11
138.2666879999999
 21
48.75
 31
0.0
  0
LINE
  5
B89E
330
B7F8
100
AcDbEntity
  8
1
  6
Continuous
100
AcDbLine
 10
111.3002389999999
 20
56.5
 30
0.0
 11
122.9002389999999
 21
56.5
 31
0.0
  0
ARC
  5
B89F
330
B7F8
100
AcDbEntity
  8
1
  6
Continuous
100
AcDbCircle
 10
133.3502389999999
 20
52.75
 30
0.0
 40
1.0
100
AcDbArc
 50
0.0
 51
23.587634
  0
ARC
  5
B8A0
330
B7F8
100
AcDbEntity
  8
1
  6
Continuous
100
AcDbCircle
 10
131.569804
 20
53.13478299999999
 30
0.0
 40
4.006592999999998
100
AcDbArc
 50
312.3076689999999
 51
313.9447859999999
  0
ARC
  5
B8A1
330
B7F8
100
AcDbEntity
  8
1
  6
Continuous
100
AcDbCircle
 10
131.569804
 20
44.365217
 30
0.0
 40
4.006592999999998
100
AcDbArc
 50
46.05521399999997
 51
47.69233100000001
  0
LINE
  5
B8A2
330
B7F8
100
AcDbEntity
  8
1
  6
Continuous
100
AcDbLine
 10
134.3502389999999
 20
44.75
 30
0.0
 11
134.3502389999999
 21
52.75
 31
0.0
  0
ARC
  5
B8A3
330
B7F8
100
AcDbEntity
  8
5
  6
PHANTOM
100
AcDbCircle
 10
117.2577389999998
 20
115.7992389999999
 30
0.0
 40
13.500239
100
AcDbArc
 50
115.310292
 51
66.095765
  0
ARC
  5
B8A4
330
B7F8
100
AcDbEntity
  8
1
  6
Continuous
100
AcDbCircle
 10
117.1002389999999
 20
113.1002389999999
 30
0.0
 40
16.000239
100
AcDbArc
 50
110.5703709999998
 51
69.42962900000001
  0
LINE
  5
B8A5
330
B7F8
100
AcDbEntity
  8
4
  6
CENTER
100
AcDbLine
 10
22.25
 20
113.1002389999999
 30
0.0
 11
43.25
 21
113.1002389999999
 31
0.0
  0
ARC
  5
B8A6
330
B7F8
100
AcDbEntity
  8
5
  6
PHANTOM
100
AcDbCircle
 10
117.2577389999998
 20
115.7992389999999
 30
0.0
 40
14.100239
100
AcDbArc
 50
114.4444429999998
 51
66.895257
  0
ARC
  5
B8A7
330
B7F8
100
AcDbEntity
  8
5
  6
PHANTOM
100
AcDbCircle
 10
117.2577389999998
 20
115.7992389999999
 30
0.0
 40
14.700239
100
AcDbArc
 50
277.1087329999999
 51
67.626415
  0
ARC
  5
B8A8
330
B7F8
100
AcDbEntity
  8
1
  6
Continuous
100
AcDbCircle
 10
117.1002389999999
 20
113.1002389999999
 30
0.0
 40
16.60023899999999
100
AcDbArc
 50
110.021592
 51
69.978408
  0
ARC
  5
B8A9
330
B7F8
100
AcDbEntity
  8
1
  6
Continuous
100
AcDbCircle
 10
117.1002389999999
 20
113.1002389999999
 30
0.0
 40
17.200239
100
AcDbArc
 50
356.408029
 51
70.48769799999998
  0
LINE
  5
B8AA
330
B7F8
100
AcDbEntity
  8
1
  6
Continuous
100
AcDbLine
 10
134.2666879999999
 20
112.0226319999999
 30
0.0
 11
133.667866
 21
112.060223
 31
0.0
  0
LINE
  5
B8AB
330
B7F8
100
AcDbEntity
  8
5
  6
PHANTOM
100
AcDbLine
 10
119.0026819999999
 20
101.807387
 30
0.0
 11
119.076933
 21
101.2119989999999
 31
0.0
  0
LINE
  5
B8AC
330
B7F8
100
AcDbEntity
  8
1
  6
Continuous
100
AcDbLine
 10
111.4784339999999
 20
128.080324
 30
0.0
 11
106.4482249999998
 21
125.021857
 31
0.0
  0
LINE
  5
B8AD
330
B7F8
100
AcDbEntity
  8
1
  6
Continuous
100
AcDbLine
 10
111.5446289999999
 20
127.41837
 30
0.0
 11
106.7599399999999
 21
124.509184
 31
0.0
  0
LINE
  5
B8AE
330
B7F8
100
AcDbEntity
  8
1
  6
Continuous
100
AcDbLine
 10
106.4482249999998
 20
125.021857
 30
0.0
 11
106.7599399999999
 21
124.509184
 31
0.0
  0
LINE
  5
B8AF
330
B7F8
100
AcDbEntity
  8
1
  6
Continuous
100
AcDbLine
 10
107.729907
 20
125.8011449999999
 30
0.0
 11
108.041622
 21
125.2884719999999
 31
0.0
  0
LINE
  5
B8B0
330
B7F8
100
AcDbEntity
  8
1
  6
Continuous
100
AcDbLine
 10
26.25
 20
96.5
 30
0.0
 11
39.25
 21
96.5
 31
0.0
  0
LINE
  5
B8B1
330
B7F8
100
AcDbEntity
  8
1
  6
Continuous
100
AcDbLine
 10
134.300477
 20
190.9242
 30
0.0
 11
134.300477
 21
193.1126779999999
 31
0.0
  0
LINE
  5
B8B2
330
B7F8
100
AcDbEntity
  8
1
  6
Continuous
100
AcDbLine
 10
133.667866
 20
42.25
 30
0.0
 11
133.667866
 21
55.25
 31
0.0
  0
LINE
  5
B8B3
330
B7F8
100
AcDbEntity
  8
1
  6
Continuous
100
AcDbLine
 10
134.2666879999999
 20
55.25
 30
0.0
 11
134.2666879999999
 21
42.25
 31
0.0
  0
LINE
  5
B8B4
330
B7F8
100
AcDbEntity
  8
1
  6
Continuous
100
AcDbLine
 10
206.141378
 20
112.056726
 30
0.0
 11
202.3081399999999
 21
113.078922
 31
0.0
  0
LINE
  5
B8B5
330
B7F8
100
AcDbEntity
  8
1
  6
Continuous
100
AcDbLine
 10
201.7928149999999
 20
113.078922
 30
0.0
 11
197.9595769999999
 21
112.056726
 31
0.0
  0
ARC
  5
B8B6
330
B7F8
100
AcDbEntity
  8
1
  6
Continuous
100
AcDbCircle
 10
206.3990399999999
 20
113.022961
 30
0.0
 40
1.0
100
AcDbArc
 50
255.0685829999999
 51
300.9637569999998
  0
ARC
  5
B8B7
330
B7F8
100
AcDbEntity
  8
1
  6
Continuous
100
AcDbCircle
 10
197.7019139999999
 20
113.022961
 30
0.0
 40
1.0
100
AcDbArc
 50
239.036243
 51
284.9314169999999
  0
ARC
  5
B8B8
330
B7F8
100
AcDbEntity
  8
1
  6
Continuous
100
AcDbCircle
 10
202.050477
 20
112.1006869999999
 30
0.0
 40
1.0
100
AcDbArc
 50
75.06858299999997
 51
104.9314169999999
  0
LINE
  5
B8B9
330
B7F8
100
AcDbEntity
  8
4
  6
CENTER
100
AcDbLine
 10
96.5
 20
113.1002389999999
 30
0.0
 11
137.700477
 21
113.1002389999999
 31
0.0
  0
LINE
  5
B8BA
330
B7F8
100
AcDbEntity
  8
1
  6
Continuous
100
AcDbLine
 10
195.550477
 20
96.5
 30
0.0
 11
208.550477
 21
96.5
 31
0.0
  0
LINE
  5
B8BB
330
B7F8
100
AcDbEntity
  8
4
  6
CENTER
100
AcDbLine
 10
191.550477
 20
113.1002389999999
 30
0.0
 11
212.550477
 21
113.1002389999999
 31
0.0
  0
LINE
  5
B8BC
330
B7F8
100
AcDbEntity
  8
1
  6
Continuous
100
AcDbLine
 10
100.5
 20
55.25
 30
0.0
 11
100.5
 21
42.25
 31
0.0
  0
LINE
  5
B8BD
330
B7F8
100
AcDbEntity
  8
1
  6
Continuous
100
AcDbLine
 10
100.5
 20
193.1126779999999
 30
0.0
 11
100.5
 21
180.1126779999999
 31
0.0
  0
LINE
  5
B8BE
330
B7F8
100
AcDbEntity
  8
1
  6
Continuous
100
AcDbLine
 10
134.300477
 20
180.1126779999999
 30
0.0
 11
134.300477
 21
182.301155
 31
0.0
  0
LINE
  5
B8BF
330
B7F8
100
AcDbEntity
  8
1
  6
Continuous
100
AcDbLine
 10
111.3002389999999
 20
56.5
 30
0.0
 11
111.3002389999999
 21
55.25
 31
0.0
  0
LINE
  5
B8C0
330
B7F8
100
AcDbEntity
  8
1
  6
Continuous
100
AcDbLine
 10
122.9002389999999
 20
56.5
 30
0.0
 11
122.9002389999999
 21
55.25
 31
0.0
  0
LINE
  5
B8C1
330
B7F8
100
AcDbEntity
  8
1
  6
Continuous
100
AcDbLine
 10
122.9002389999999
 20
42.25
 30
0.0
 11
122.9002389999999
 21
41.0
 31
0.0
  0
LINE
  5
B8C2
330
B7F8
100
AcDbEntity
  8
1
  6
Continuous
100
AcDbLine
 10
111.3002389999999
 20
42.25
 30
0.0
 11
111.3002389999999
 21
41.0
 31
0.0
  0
LINE
  5
B8C3
330
B7F8
100
AcDbEntity
  8
1
  6
Continuous
100
AcDbLine
 10
195.550477
 20
113.2229009999999
 30
0.0
 11
197.187419
 21
112.165468
 31
0.0
  0
LINE
  5
B8C4
330
B7F8
100
AcDbEntity
  8
1
  6
Continuous
100
AcDbLine
 10
206.9135359999999
 20
112.165468
 30
0.0
 11
208.550477
 21
113.2229009999999
 31
0.0
  0
LINE
  5
B8C5
330
B7F8
100
AcDbEntity
  8
1
  6
Continuous
100
AcDbLine
 10
195.550477
 20
128.989605
 30
0.0
 11
198.325196
 21
128.989605
 31
0.0
  0
LINE
  5
B8C6
330
B7F8
100
AcDbEntity
  8
1
  6
Continuous
100
AcDbLine
 10
205.775759
 20
128.989605
 30
0.0
 11
208.550477
 21
128.989605
 31
0.0
  0
LINE
  5
B8C7
330
B7F8
100
AcDbEntity
  8
1
  6
Continuous
100
AcDbLine
 10
202.050477
 20
116.230833
 30
0.0
 11
199.2112269999998
 21
116.230833
 31
0.0
  0
LINE
  5
B8C8
330
B7F8
100
AcDbEntity
  8
1
  6
Continuous
100
AcDbLine
 10
202.050477
 20
123.1136409999999
 30
0.0
 11
199.1624769999999
 21
123.1136409999999
 31
0.0
  0
LINE
  5
B8C9
330
B7F8
100
AcDbEntity
  8
1
  6
Continuous
100
AcDbLine
 10
202.050477
 20
126.7181419999999
 30
0.0
 11
199.100477
 21
126.7181419999999
 31
0.0
  0
LINE
  5
B8CA
330
B7F8
100
AcDbEntity
  8
1
  6
Continuous
100
AcDbLine
 10
106.9496409999999
 20
183.7510479999999
 30
0.0
 11
106.9496409999999
 21
183.709178
 31
0.0
  0
LINE
  5
B8CB
330
B7F8
100
AcDbEntity
  8
1
  6
Continuous
100
AcDbLine
 10
103.595783
 20
186.6126779999999
 30
0.0
 11
103.595783
 21
183.647928
 31
0.0
  0
LINE
  5
B8CC
330
B7F8
100
AcDbEntity
  8
1
  6
Continuous
100
AcDbLine
 10
101.3870859999999
 20
186.6126779999999
 30
0.0
 11
101.3870859999999
 21
183.570928
 31
0.0
  0
LINE
  5
B8CD
330
B7F8
100
AcDbEntity
  8
1
  6
Continuous
100
AcDbLine
 10
100.774995
 20
186.6126779999999
 30
0.0
 11
100.774995
 21
183.5284279999999
 31
0.0
  0
LINE
  5
B8CE
330
B7F8
100
AcDbEntity
  8
1
  6
Continuous
100
AcDbLine
 10
100.5108469999999
 20
186.6126779999999
 30
0.0
 11
100.5108469999999
 21
183.484678
 31
0.0
  0
LINE
  5
B8CF
330
B7F8
100
AcDbEntity
  8
1
  6
Continuous
100
AcDbLine
 10
32.75
 20
128.6028849999999
 30
0.0
 11
35.81374999999999
 21
128.6028849999999
 31
0.0
  0
LINE
  5
B8D0
330
B7F8
100
AcDbEntity
  8
1
  6
Continuous
100
AcDbLine
 10
32.75
 20
127.5733929999999
 30
0.0
 11
35.76124999999999
 21
127.5733929999999
 31
0.0
  0
LINE
  5
B8D1
330
B7F8
100
AcDbEntity
  8
1
  6
Continuous
100
AcDbLine
 10
32.75
 20
126.235431
 30
0.0
 11
35.7235
 21
126.235431
 31
0.0
  0
LINE
  5
B8D2
330
B7F8
100
AcDbEntity
  8
1
  6
Continuous
100
AcDbLine
 10
32.75
 20
108.89541
 30
0.0
 11
35.59775
 21
108.89541
 31
0.0
  0
LINE
  5
B8D3
330
B7F8
100
AcDbEntity
  8
1
  6
Continuous
100
AcDbLine
 10
32.75
 20
102.4766889999998
 30
0.0
 11
35.63024999999999
 21
102.4766889999998
 31
0.0
  0
LINE
  5
B8D4
330
B7F8
100
AcDbEntity
  8
1
  6
Continuous
100
AcDbLine
 10
32.75
 20
99.252213
 30
0.0
 11
35.72375
 21
99.252213
 31
0.0
  0
LINE
  5
B8D5
330
B7F8
100
AcDbEntity
  8
1
  6
Continuous
100
AcDbLine
 10
32.75
 20
98.06691800000001
 30
0.0
 11
35.7615
 21
98.06691800000001
 31
0.0
  0
LINE
  5
B8D6
330
B7F8
100
AcDbEntity
  8
1
  6
Continuous
100
AcDbLine
 10
32.75
 20
97.202032
 30
0.0
 11
35.80225
 21
97.202032
 31
0.0
  0
LINE
  5
B8D7
330
B7F8
100
AcDbEntity
  8
1
  6
Continuous
100
AcDbLine
 10
112.323737
 20
48.75
 30
0.0
 11
112.323737
 21
51.613
 31
0.0
  0
LINE
  5
B8D8
330
B7F8
100
AcDbEntity
  8
1
  6
Continuous
100
AcDbLine
 10
104.34453
 20
48.75
 30
0.0
 11
104.34453
 21
51.71475
 31
0.0
  0
LINE
  5
B8D9
330
B7F8
100
AcDbEntity
  8
1
  6
Continuous
100
AcDbLine
 10
101.824729
 20
48.75
 30
0.0
 11
101.824729
 21
51.79149999999999
 31
0.0
  0
LINE
  5
B8DA
330
B7F8
100
AcDbEntity
  8
1
  6
Continuous
100
AcDbLine
 10
101.041368
 20
48.75
 30
0.0
 11
101.041368
 21
51.83399999999998
 31
0.0
  0
LINE
  5
B8DB
330
B7F8
100
AcDbEntity
  8
1
  6
Continuous
100
AcDbLine
 10
100.600273
 20
48.75
 30
0.0
 11
100.600273
 21
51.87775
 31
0.0
  0
ARC
  5
B8DC
330
B7F8
100
AcDbEntity
  8
1
  6
Continuous
100
AcDbCircle
 10
111.462985
 20
45.887
 30
0.0
 40
0.287
100
AcDbArc
 50
180.0
 51
0.0
  0
ARC
  5
B8DD
330
B7F8
100
AcDbEntity
  8
1
  6
Continuous
100
AcDbCircle
 10
112.036737
 20
51.613
 30
0.0
 40
0.287
100
AcDbArc
 50
0.0
 51
180.0
  0
LINE
  5
B8DE
330
B7F8
100
AcDbEntity
  8
1
  6
Continuous
100
AcDbLine
 10
111.749737
 20
51.613
 30
0.0
 11
111.175985
 21
45.887
 31
0.0
  0
LINE
  5
B8DF
330
B7F8
100
AcDbEntity
  8
1
  6
Continuous
100
AcDbLine
 10
112.323737
 20
48.75
 30
0.0
 11
111.749985
 21
45.887
 31
0.0
  0
LINE
  5
B8E0
330
B7F8
100
AcDbEntity
  8
1
  6
Continuous
100
AcDbLine
 10
110.059737
 20
48.75
 30
0.0
 11
110.059737
 21
51.613
 31
0.0
  0
ARC
  5
B8E1
330
B7F8
100
AcDbEntity
  8
1
  6
Continuous
100
AcDbCircle
 10
109.772737
 20
51.613
 30
0.0
 40
0.287
100
AcDbArc
 50
0.0
 51
180.0
  0
LINE
  5
B8E2
330
B7F8
100
AcDbEntity
  8
1
  6
Continuous
100
AcDbLine
 10
109.485737
 20
51.613
 30
0.0
 11
108.911985
 21
45.887
 31
0.0
  0
ARC
  5
B8E3
330
B7F8
100
AcDbEntity
  8
1
  6
Continuous
100
AcDbCircle
 10
109.198985
 20
45.887
 30
0.0
 40
0.287
100
AcDbArc
 50
180.0
 51
0.0
  0
LINE
  5
B8E4
330
B7F8
100
AcDbEntity
  8
1
  6
Continuous
100
AcDbLine
 10
110.059737
 20
48.75
 30
0.0
 11
109.485985
 21
45.887
 31
0.0
  0
LINE
  5
B8E5
330
B7F8
100
AcDbEntity
  8
1
  6
Continuous
100
AcDbLine
 10
107.371737
 20
51.613
 30
0.0
 11
106.797985
 21
45.887
 31
0.0
  0
ARC
  5
B8E6
330
B7F8
100
AcDbEntity
  8
1
  6
Continuous
100
AcDbCircle
 10
107.658737
 20
51.613
 30
0.0
 40
0.287
100
AcDbArc
 50
0.0
 51
180.0
  0
LINE
  5
B8E7
330
B7F8
100
AcDbEntity
  8
1
  6
Continuous
100
AcDbLine
 10
107.9457369999999
 20
48.75
 30
0.0
 11
107.9457369999999
 21
51.613
 31
0.0
  0
LINE
  5
B8E8
330
B7F8
100
AcDbEntity
  8
1
  6
Continuous
100
AcDbLine
 10
107.9457369999999
 20
48.75
 30
0.0
 11
107.371985
 21
45.887
 31
0.0
  0
ARC
  5
B8E9
330
B7F8
100
AcDbEntity
  8
1
  6
Continuous
100
AcDbCircle
 10
107.084985
 20
45.887
 30
0.0
 40
0.287
100
AcDbArc
 50
180.0
 51
0.0
  0
LINE
  5
B8EA
330
B7F8
100
AcDbEntity
  8
1
  6
Continuous
100
AcDbLine
 10
106.027737
 20
48.75
 30
0.0
 11
106.027737
 21
51.613
 31
0.0
  0
ARC
  5
B8EB
330
B7F8
100
AcDbEntity
  8
1
  6
Continuous
100
AcDbCircle
 10
105.740737
 20
51.613
 30
0.0
 40
0.287
100
AcDbArc
 50
0.0
 51
180.0
  0
LINE
  5
B8EC
330
B7F8
100
AcDbEntity
  8
1
  6
Continuous
100
AcDbLine
 10
105.453737
 20
51.613
 30
0.0
 11
104.8799849999999
 21
45.887
 31
0.0
  0
ARC
  5
B8ED
330
B7F8
100
AcDbEntity
  8
1
  6
Continuous
100
AcDbCircle
 10
105.166985
 20
45.887
 30
0.0
 40
0.287
100
AcDbArc
 50
180.0
 51
0.0
  0
LINE
  5
B8EE
330
B7F8
100
AcDbEntity
  8
1
  6
Continuous
100
AcDbLine
 10
106.027737
 20
48.75
 30
0.0
 11
105.453985
 21
45.887
 31
0.0
  0
ARC
  5
B8EF
330
B7F8
100
AcDbEntity
  8
1
  6
Continuous
100
AcDbCircle
 10
103.7883389999999
 20
45.78524999999999
 30
0.0
 40
0.18525
100
AcDbArc
 50
180.0
 51
0.0
  0
ARC
  5
B8F0
330
B7F8
100
AcDbEntity
  8
1
  6
Continuous
100
AcDbCircle
 10
104.15928
 20
51.71475
 30
0.0
 40
0.18525
100
AcDbArc
 50
0.0
 51
180.0
  0
LINE
  5
B8F1
330
B7F8
100
AcDbEntity
  8
1
  6
Continuous
100
AcDbLine
 10
104.34453
 20
48.75
 30
0.0
 11
103.9735889999999
 21
45.78524999999999
 31
0.0
  0
LINE
  5
B8F2
330
B7F8
100
AcDbEntity
  8
1
  6
Continuous
100
AcDbLine
 10
103.6030889999999
 20
45.78524999999999
 30
0.0
 11
103.97403
 21
51.71475
 31
0.0
  0
LINE
  5
B8F3
330
B7F8
100
AcDbEntity
  8
1
  6
Continuous
100
AcDbLine
 10
102.93353
 20
48.75
 30
0.0
 11
102.93353
 21
51.71475
 31
0.0
  0
ARC
  5
B8F4
330
B7F8
100
AcDbEntity
  8
1
  6
Continuous
100
AcDbCircle
 10
102.74828
 20
51.71475
 30
0.0
 40
0.18525
100
AcDbArc
 50
0.0
 51
180.0
  0
LINE
  5
B8F5
330
B7F8
100
AcDbEntity
  8
1
  6
Continuous
100
AcDbLine
 10
102.192089
 20
45.78524999999999
 30
0.0
 11
102.5630299999999
 21
51.71475
 31
0.0
  0
ARC
  5
B8F6
330
B7F8
100
AcDbEntity
  8
1
  6
Continuous
100
AcDbCircle
 10
102.377339
 20
45.78524999999999
 30
0.0
 40
0.18525
100
AcDbArc
 50
180.0
 51
0.0
  0
LINE
  5
B8F7
330
B7F8
100
AcDbEntity
  8
1
  6
Continuous
100
AcDbLine
 10
102.93353
 20
48.75
 30
0.0
 11
102.562589
 21
45.78524999999999
 31
0.0
  0
ARC
  5
B8F8
330
B7F8
100
AcDbEntity
  8
1
  6
Continuous
100
AcDbCircle
 10
101.4996409999999
 20
45.7085
 30
0.0
 40
0.1085
100
AcDbArc
 50
175.921636
 51
0.0
  0
ARC
  5
B8F9
330
B7F8
100
AcDbEntity
  8
1
  6
Continuous
100
AcDbCircle
 10
101.7162289999999
 20
51.79149999999999
 30
0.0
 40
0.1085
100
AcDbArc
 50
0.0
 51
180.0
  0
LINE
  5
B8FA
330
B7F8
100
AcDbEntity
  8
1
  6
Continuous
100
AcDbLine
 10
101.824729
 20
48.75
 30
0.0
 11
101.6081409999999
 21
45.7085
 31
0.0
  0
LINE
  5
B8FB
330
B7F8
100
AcDbEntity
  8
1
  6
Continuous
100
AcDbLine
 10
101.391416
 20
45.716217
 30
0.0
 11
101.607729
 21
51.79149999999999
 31
0.0
  0
ARC
  5
B8FC
330
B7F8
100
AcDbEntity
  8
1
  6
Continuous
100
AcDbCircle
 10
100.9753679999999
 20
51.83399999999998
 30
0.0
 40
0.066
100
AcDbArc
 50
0.0
 51
180.0
  0
ARC
  5
B8FD
330
B7F8
100
AcDbEntity
  8
1
  6
Continuous
100
AcDbCircle
 10
100.843275
 20
45.666
 30
0.0
 40
0.066
100
AcDbArc
 50
180.0
 51
0.0
  0
LINE
  5
B8FE
330
B7F8
100
AcDbEntity
  8
1
  6
Continuous
100
AcDbLine
 10
100.9092749999998
 20
45.666
 30
0.0
 11
101.041368
 21
48.75
 31
0.0
  0
LINE
  5
B8FF
330
B7F8
100
AcDbEntity
  8
1
  6
Continuous
100
AcDbLine
 10
100.7772749999999
 20
45.666
 30
0.0
 11
100.909368
 21
51.83399999999998
 31
0.0
  0
ARC
  5
B900
330
B7F8
100
AcDbEntity
  8
1
  6
Continuous
100
AcDbCircle
 10
100.5330969999999
 20
45.62225
 30
0.0
 40
0.02225
100
AcDbArc
 50
180.0
 51
0.0
  0
LINE
  5
B901
330
B7F8
100
AcDbEntity
  8
1
  6
Continuous
100
AcDbLine
 10
100.5553469999999
 20
45.62225
 30
0.0
 11
100.600273
 21
48.75
 31
0.0
  0
ARC
  5
B902
330
B7F8
100
AcDbEntity
  8
1
  6
Continuous
100
AcDbCircle
 10
100.578023
 20
51.87775
 30
0.0
 40
0.02225
100
AcDbArc
 50
0.0
 51
180.0
  0
LINE
  5
B903
330
B7F8
100
AcDbEntity
  8
1
  6
Continuous
100
AcDbLine
 10
100.555773
 20
51.87775
 30
0.0
 11
100.5108469999999
 21
45.62225
 31
0.0
  0
ARC
  5
B904
330
B7F8
100
AcDbEntity
  8
1
  6
Continuous
100
AcDbCircle
 10
29.90225
 20
109.7766
 30
0.0
 40
0.30225
100
AcDbArc
 50
90.0
 51
270.0
  0
ARC
  5
B905
330
B7F8
100
AcDbEntity
  8
1
  6
Continuous
100
AcDbCircle
 10
35.59775
 20
109.19766
 30
0.0
 40
0.30225
100
AcDbArc
 50
270.0
 51
90.0
  0
LINE
  5
B906
330
B7F8
100
AcDbEntity
  8
1
  6
Continuous
100
AcDbLine
 10
29.90225
 20
110.0788499999999
 30
0.0
 11
35.59775
 21
109.49991
 31
0.0
  0
LINE
  5
B907
330
B7F8
100
AcDbEntity
  8
1
  6
Continuous
100
AcDbLine
 10
29.90225
 20
109.47435
 30
0.0
 11
32.75
 21
108.89541
 31
0.0
  0
LINE
  5
B908
330
B7F8
100
AcDbEntity
  8
1
  6
Continuous
100
AcDbLine
 10
29.90225
 20
112.4618499999999
 30
0.0
 11
35.59775
 21
111.88291
 31
0.0
  0
ARC
  5
B909
330
B7F8
100
AcDbEntity
  8
1
  6
Continuous
100
AcDbCircle
 10
35.59775
 20
111.5806599999999
 30
0.0
 40
0.30225
100
AcDbArc
 50
270.0
 51
90.0
  0
LINE
  5
B90A
330
B7F8
100
AcDbEntity
  8
1
  6
Continuous
100
AcDbLine
 10
32.75
 20
111.27841
 30
0.0
 11
35.59775
 21
111.27841
 31
0.0
  0
LINE
  5
B90B
330
B7F8
100
AcDbEntity
  8
1
  6
Continuous
100
AcDbLine
 10
29.90225
 20
111.8573499999999
 30
0.0
 11
32.75
 21
111.27841
 31
0.0
  0
ARC
  5
B90C
330
B7F8
100
AcDbEntity
  8
1
  6
Continuous
100
AcDbCircle
 10
29.90225
 20
112.1596
 30
0.0
 40
0.30225
100
AcDbArc
 50
90.0
 51
270.0
  0
LINE
  5
B90D
330
B7F8
100
AcDbEntity
  8
1
  6
Continuous
100
AcDbLine
 10
32.75
 20
113.72041
 30
0.0
 11
35.59775
 21
113.72041
 31
0.0
  0
ARC
  5
B90E
330
B7F8
100
AcDbEntity
  8
1
  6
Continuous
100
AcDbCircle
 10
35.59775
 20
114.02266
 30
0.0
 40
0.30225
100
AcDbArc
 50
270.0
 51
90.0
  0
LINE
  5
B90F
330
B7F8
100
AcDbEntity
  8
1
  6
Continuous
100
AcDbLine
 10
29.90225
 20
114.90385
 30
0.0
 11
35.59775
 21
114.32491
 31
0.0
  0
ARC
  5
B910
330
B7F8
100
AcDbEntity
  8
1
  6
Continuous
100
AcDbCircle
 10
29.90225
 20
114.6016
 30
0.0
 40
0.30225
100
AcDbArc
 50
90.0
 51
270.0
  0
LINE
  5
B911
330
B7F8
100
AcDbEntity
  8
1
  6
Continuous
100
AcDbLine
 10
29.90225
 20
114.2993499999999
 30
0.0
 11
32.75
 21
113.72041
 31
0.0
  0
LINE
  5
B912
330
B7F8
100
AcDbEntity
  8
1
  6
Continuous
100
AcDbLine
 10
29.90225
 20
117.29285
 30
0.0
 11
35.59775
 21
116.71391
 31
0.0
  0
LINE
  5
B913
330
B7F8
100
AcDbEntity
  8
1
  6
Continuous
100
AcDbLine
 10
32.75
 20
116.10941
 30
0.0
 11
35.59775
 21
116.10941
 31
0.0
  0
ARC
  5
B914
330
B7F8
100
AcDbEntity
  8
1
  6
Continuous
100
AcDbCircle
 10
35.59775
 20
116.41166
 30
0.0
 40
0.30225
100
AcDbArc
 50
270.0
 51
90.0
  0
LINE
  5
B915
330
B7F8
100
AcDbEntity
  8
1
  6
Continuous
100
AcDbLine
 10
29.90225
 20
116.6883499999999
 30
0.0
 11
32.75
 21
116.10941
 31
0.0
  0
ARC
  5
B916
330
B7F8
100
AcDbEntity
  8
1
  6
Continuous
100
AcDbCircle
 10
29.90225
 20
116.9906
 30
0.0
 40
0.30225
100
AcDbArc
 50
90.0
 51
270.0
  0
ARC
  5
B917
330
B7F8
100
AcDbEntity
  8
1
  6
Continuous
100
AcDbCircle
 10
35.59775
 20
118.75666
 30
0.0
 40
0.30225
100
AcDbArc
 50
270.0
 51
90.0
  0
LINE
  5
B918
330
B7F8
100
AcDbEntity
  8
1
  6
Continuous
100
AcDbLine
 10
32.75
 20
118.45441
 30
0.0
 11
35.59775
 21
118.45441
 31
0.0
  0
LINE
  5
B919
330
B7F8
100
AcDbEntity
  8
1
  6
Continuous
100
AcDbLine
 10
29.90225
 20
119.63785
 30
0.0
 11
35.59775
 21
119.05891
 31
0.0
  0
ARC
  5
B91A
330
B7F8
100
AcDbEntity
  8
1
  6
Continuous
100
AcDbCircle
 10
29.90225
 20
119.3356
 30
0.0
 40
0.30225
100
AcDbArc
 50
90.0
 51
270.0
  0
LINE
  5
B91B
330
B7F8
100
AcDbEntity
  8
1
  6
Continuous
100
AcDbLine
 10
29.90225
 20
119.0333499999999
 30
0.0
 11
32.75
 21
118.45441
 31
0.0
  0
LINE
  5
B91C
330
B7F8
100
AcDbEntity
  8
1
  6
Continuous
100
AcDbLine
 10
29.90225
 20
107.78585
 30
0.0
 11
35.59775
 21
107.2069099999998
 31
0.0
  0
ARC
  5
B91D
330
B7F8
100
AcDbEntity
  8
1
  6
Continuous
100
AcDbCircle
 10
35.59775
 20
106.90466
 30
0.0
 40
0.30225
100
AcDbArc
 50
270.0
 51
90.0
  0
LINE
  5
B91E
330
B7F8
100
AcDbEntity
  8
1
  6
Continuous
100
AcDbLine
 10
32.75
 20
106.60241
 30
0.0
 11
35.59775
 21
106.60241
 31
0.0
  0
LINE
  5
B91F
330
B7F8
100
AcDbEntity
  8
1
  6
Continuous
100
AcDbLine
 10
29.90225
 20
107.1813499999999
 30
0.0
 11
32.75
 21
106.60241
 31
0.0
  0
ARC
  5
B920
330
B7F8
100
AcDbEntity
  8
1
  6
Continuous
100
AcDbCircle
 10
29.90225
 20
107.4835999999999
 30
0.0
 40
0.30225
100
AcDbArc
 50
90.0
 51
270.0
  0
LINE
  5
B921
330
B7F8
100
AcDbEntity
  8
1
  6
Continuous
100
AcDbLine
 10
32.75
 20
104.4474099999999
 30
0.0
 11
35.59775
 21
104.4474099999999
 31
0.0
  0
ARC
  5
B922
330
B7F8
100
AcDbEntity
  8
1
  6
Continuous
100
AcDbCircle
 10
35.59775
 20
104.7496599999999
 30
0.0
 40
0.30225
100
AcDbArc
 50
270.0
 51
90.0
  0
LINE
  5
B923
330
B7F8
100
AcDbEntity
  8
1
  6
Continuous
100
AcDbLine
 10
29.90225
 20
105.6308499999999
 30
0.0
 11
35.59775
 21
105.05191
 31
0.0
  0
ARC
  5
B924
330
B7F8
100
AcDbEntity
  8
1
  6
Continuous
100
AcDbCircle
 10
29.90225
 20
105.3285999999998
 30
0.0
 40
0.30225
100
AcDbArc
 50
90.0
 51
270.0
  0
LINE
  5
B925
330
B7F8
100
AcDbEntity
  8
1
  6
Continuous
100
AcDbLine
 10
29.90225
 20
105.02635
 30
0.0
 11
32.75
 21
104.4474099999999
 31
0.0
  0
ARC
  5
B926
330
B7F8
100
AcDbEntity
  8
1
  6
Continuous
100
AcDbCircle
 10
29.86975
 20
103.166386
 30
0.0
 40
0.26975
100
AcDbArc
 50
90.0
 51
270.0
  0
ARC
  5
B927
330
B7F8
100
AcDbEntity
  8
1
  6
Continuous
100
AcDbCircle
 10
35.63024999999999
 20
102.746439
 30
0.0
 40
0.26975
100
AcDbArc
 50
270.0
 51
90.0
  0
LINE
  5
B928
330
B7F8
100
AcDbEntity
  8
1
  6
Continuous
100
AcDbLine
 10
29.86975
 20
103.436136
 30
0.0
 11
35.63024999999999
 21
103.016189
 31
0.0
  0
LINE
  5
B929
330
B7F8
100
AcDbEntity
  8
1
  6
Continuous
100
AcDbLine
 10
29.86975
 20
102.896636
 30
0.0
 11
32.75
 21
102.4766889999998
 31
0.0
  0
LINE
  5
B92A
330
B7F8
100
AcDbEntity
  8
1
  6
Continuous
100
AcDbLine
 10
29.86975
 20
123.663136
 30
0.0
 11
35.63024999999999
 21
123.2431889999999
 31
0.0
  0
LINE
  5
B92B
330
B7F8
100
AcDbEntity
  8
1
  6
Continuous
100
AcDbLine
 10
32.75
 20
122.7036889999999
 30
0.0
 11
35.63024999999999
 21
122.7036889999999
 31
0.0
  0
LINE
  5
B92C
330
B7F8
100
AcDbEntity
  8
1
  6
Continuous
100
AcDbLine
 10
29.86975
 20
123.123636
 30
0.0
 11
32.75
 21
122.7036889999999
 31
0.0
  0
ARC
  5
B92D
330
B7F8
100
AcDbEntity
  8
1
  6
Continuous
100
AcDbCircle
 10
29.86975
 20
123.393386
 30
0.0
 40
0.26975
100
AcDbArc
 50
90.0
 51
270.0
  0
ARC
  5
B92E
330
B7F8
100
AcDbEntity
  8
1
  6
Continuous
100
AcDbCircle
 10
35.63024999999999
 20
122.9734389999999
 30
0.0
 40
0.26975
100
AcDbArc
 50
270.0
 51
90.0
  0
ARC
  5
B92F
330
B7F8
100
AcDbEntity
  8
1
  6
Continuous
100
AcDbCircle
 10
35.63024999999999
 20
124.8874389999999
 30
0.0
 40
0.26975
100
AcDbArc
 50
270.0
 51
90.0
  0
LINE
  5
B930
330
B7F8
100
AcDbEntity
  8
1
  6
Continuous
100
AcDbLine
 10
32.75
 20
124.6176889999998
 30
0.0
 11
35.63024999999999
 21
124.6176889999998
 31
0.0
  0
LINE
  5
B931
330
B7F8
100
AcDbEntity
  8
1
  6
Continuous
100
AcDbLine
 10
29.86975
 20
125.577136
 30
0.0
 11
35.63024999999999
 21
125.1571889999999
 31
0.0
  0
ARC
  5
B932
330
B7F8
100
AcDbEntity
  8
1
  6
Continuous
100
AcDbCircle
 10
29.86975
 20
125.3073859999999
 30
0.0
 40
0.26975
100
AcDbArc
 50
90.0
 51
270.0
  0
LINE
  5
B933
330
B7F8
100
AcDbEntity
  8
1
  6
Continuous
100
AcDbLine
 10
29.86975
 20
125.037636
 30
0.0
 11
32.75
 21
124.6176889999998
 31
0.0
  0
ARC
  5
B934
330
B7F8
100
AcDbEntity
  8
1
  6
Continuous
100
AcDbCircle
 10
35.63024999999999
 20
120.954439
 30
0.0
 40
0.26975
100
AcDbArc
 50
270.0
 51
90.0
  0
LINE
  5
B935
330
B7F8
100
AcDbEntity
  8
1
  6
Continuous
100
AcDbLine
 10
32.75
 20
120.684689
 30
0.0
 11
35.63024999999999
 21
120.684689
 31
0.0
  0
LINE
  5
B936
330
B7F8
100
AcDbEntity
  8
1
  6
Continuous
100
AcDbLine
 10
29.86975
 20
121.644136
 30
0.0
 11
35.63024999999999
 21
121.224189
 31
0.0
  0
ARC
  5
B937
330
B7F8
100
AcDbEntity
  8
1
  6
Continuous
100
AcDbCircle
 10
29.86975
 20
121.374386
 30
0.0
 40
0.26975
100
AcDbArc
 50
90.0
 51
270.0
  0
LINE
  5
B938
330
B7F8
100
AcDbEntity
  8
1
  6
Continuous
100
AcDbLine
 10
29.86975
 20
121.104636
 30
0.0
 11
32.75
 21
120.684689
 31
0.0
  0
LINE
  5
B939
330
B7F8
100
AcDbEntity
  8
1
  6
Continuous
100
AcDbLine
 10
32.75
 20
100.7326889999999
 30
0.0
 11
35.63024999999999
 21
100.7326889999999
 31
0.0
  0
ARC
  5
B93A
330
B7F8
100
AcDbEntity
  8
1
  6
Continuous
100
AcDbCircle
 10
35.63024999999999
 20
101.0024389999999
 30
0.0
 40
0.26975
100
AcDbArc
 50
270.0
 51
90.0
  0
LINE
  5
B93B
330
B7F8
100
AcDbEntity
  8
1
  6
Continuous
100
AcDbLine
 10
29.86975
 20
101.6921359999999
 30
0.0
 11
35.63024999999999
 21
101.2721889999999
 31
0.0
  0
ARC
  5
B93C
330
B7F8
100
AcDbEntity
  8
1
  6
Continuous
100
AcDbCircle
 10
29.86975
 20
101.4223859999999
 30
0.0
 40
0.26975
100
AcDbArc
 50
90.0
 51
270.0
  0
LINE
  5
B93D
330
B7F8
100
AcDbEntity
  8
1
  6
Continuous
100
AcDbLine
 10
29.86975
 20
101.1526359999999
 30
0.0
 11
32.75
 21
100.7326889999999
 31
0.0
  0
ARC
  5
B93E
330
B7F8
100
AcDbEntity
  8
1
  6
Continuous
100
AcDbCircle
 10
29.77625
 20
99.78112199999999
 30
0.0
 40
0.17625
100
AcDbArc
 50
90.0
 51
270.0
  0
ARC
  5
B93F
330
B7F8
100
AcDbEntity
  8
1
  6
Continuous
100
AcDbCircle
 10
35.72375
 20
99.42846299999999
 30
0.0
 40
0.17625
100
AcDbArc
 50
270.0
 51
90.0
  0
LINE
  5
B940
330
B7F8
100
AcDbEntity
  8
1
  6
Continuous
100
AcDbLine
 10
29.77625
 20
99.957372
 30
0.0
 11
35.72375
 21
99.60471300000001
 31
0.0
  0
LINE
  5
B941
330
B7F8
100
AcDbEntity
  8
1
  6
Continuous
100
AcDbLine
 10
29.77625
 20
99.60487200000001
 30
0.0
 11
32.75
 21
99.252213
 31
0.0
  0
ARC
  5
B942
330
B7F8
100
AcDbEntity
  8
1
  6
Continuous
100
AcDbCircle
 10
29.7385
 20
98.48243899999999
 30
0.0
 40
0.1385
100
AcDbArc
 50
90.0
 51
270.0
  0
ARC
  5
B943
330
B7F8
100
AcDbEntity
  8
1
  6
Continuous
100
AcDbCircle
 10
35.7615
 20
98.205418
 30
0.0
 40
0.1385
100
AcDbArc
 50
270.0
 51
90.0
  0
LINE
  5
B944
330
B7F8
100
AcDbEntity
  8
1
  6
Continuous
100
AcDbLine
 10
29.7385
 20
98.62093900000001
 30
0.0
 11
35.7615
 21
98.343918
 31
0.0
  0
LINE
  5
B945
330
B7F8
100
AcDbEntity
  8
1
  6
Continuous
100
AcDbLine
 10
29.7385
 20
98.34393900000002
 30
0.0
 11
32.75
 21
98.06691800000001
 31
0.0
  0
ARC
  5
B946
330
B7F8
100
AcDbEntity
  8
1
  6
Continuous
100
AcDbCircle
 10
29.69775
 20
97.495357
 30
0.0
 40
0.09775
100
AcDbArc
 50
90.0
 51
270.0
  0
ARC
  5
B947
330
B7F8
100
AcDbEntity
  8
1
  6
Continuous
100
AcDbCircle
 10
35.80225
 20
97.29978199999999
 30
0.0
 40
0.09775
100
AcDbArc
 50
270.0
 51
90.0
  0
LINE
  5
B948
330
B7F8
100
AcDbEntity
  8
1
  6
Continuous
100
AcDbLine
 10
29.69775
 20
97.593107
 30
0.0
 11
35.80225
 21
97.397532
 31
0.0
  0
LINE
  5
B949
330
B7F8
100
AcDbEntity
  8
1
  6
Continuous
100
AcDbLine
 10
29.69775
 20
97.39760699999999
 30
0.0
 11
32.75
 21
97.202032
 31
0.0
  0
ARC
  5
B94A
330
B7F8
100
AcDbEntity
  8
1
  6
Continuous
100
AcDbCircle
 10
35.7235
 20
126.411931
 30
0.0
 40
0.1765
100
AcDbArc
 50
270.0
 51
90.0
  0
ARC
  5
B94B
330
B7F8
100
AcDbEntity
  8
1
  6
Continuous
100
AcDbCircle
 10
29.7765
 20
126.764836
 30
0.0
 40
0.1765
100
AcDbArc
 50
90.0
 51
270.0
  0
LINE
  5
B94C
330
B7F8
100
AcDbEntity
  8
1
  6
Continuous
100
AcDbLine
 10
29.7765
 20
126.941336
 30
0.0
 11
35.7235
 21
126.588431
 31
0.0
  0
LINE
  5
B94D
330
B7F8
100
AcDbEntity
  8
1
  6
Continuous
100
AcDbLine
 10
29.7765
 20
126.588336
 30
0.0
 11
32.75
 21
126.235431
 31
0.0
  0
ARC
  5
B94E
330
B7F8
100
AcDbEntity
  8
1
  6
Continuous
100
AcDbCircle
 10
29.73874999999999
 20
127.98948
 30
0.0
 40
0.13875
100
AcDbArc
 50
90.0
 51
270.0
  0
ARC
  5
B94F
330
B7F8
100
AcDbEntity
  8
1
  6
Continuous
100
AcDbCircle
 10
35.76124999999999
 20
127.712143
 30
0.0
 40
0.13875
100
AcDbArc
 50
270.0
 51
90.0
  0
LINE
  5
B950
330
B7F8
100
AcDbEntity
  8
1
  6
Continuous
100
AcDbLine
 10
29.73874999999999
 20
128.1282299999998
 30
0.0
 11
35.76124999999999
 21
127.850893
 31
0.0
  0
LINE
  5
B951
330
B7F8
100
AcDbEntity
  8
1
  6
Continuous
100
AcDbLine
 10
29.73874999999999
 20
127.85073
 30
0.0
 11
32.75
 21
127.5733929999999
 31
0.0
  0
ARC
  5
B952
330
B7F8
100
AcDbEntity
  8
1
  6
Continuous
100
AcDbCircle
 10
29.68625
 20
128.8620899999999
 30
0.0
 40
0.08625
100
AcDbArc
 50
90.0
 51
270.0
  0
ARC
  5
B953
330
B7F8
100
AcDbEntity
  8
1
  6
Continuous
100
AcDbCircle
 10
35.81374999999999
 20
128.6891349999999
 30
0.0
 40
0.08625
100
AcDbArc
 50
270.0
 51
90.0
  0
LINE
  5
B954
330
B7F8
100
AcDbEntity
  8
1
  6
Continuous
100
AcDbLine
 10
29.68625
 20
128.7758399999999
 30
0.0
 11
32.75
 21
128.6028849999999
 31
0.0
  0
LINE
  5
B955
330
B7F8
100
AcDbEntity
  8
1
  6
Continuous
100
AcDbLine
 10
35.81374999999999
 20
128.775385
 30
0.0
 11
29.68625
 21
128.9483399999998
 31
0.0
  0
LINE
  5
B956
330
B7F8
100
AcDbEntity
  8
1
  6
Continuous
100
AcDbLine
 10
26.25
 20
129.0073149999997
 30
0.0
 11
39.25
 21
129.0073149999997
 31
0.0
  0
ARC
  5
B957
330
B7F8
100
AcDbEntity
  8
1
  6
Continuous
100
AcDbCircle
 10
107.689027
 20
189.516178
 30
0.0
 40
0.2465
100
AcDbArc
 50
49.155903
 51
163.492149
  0
ARC
  5
B958
330
B7F8
100
AcDbEntity
  8
1
  6
Continuous
100
AcDbCircle
 10
107.1961409999999
 20
183.709178
 30
0.0
 40
0.2465
100
AcDbArc
 50
180.0
 51
344.136685
  0
ARC
  5
B959
330
B7F8
100
AcDbEntity
  8
1
  6
Continuous
100
AcDbCircle
 10
105.8850269999999
 20
189.516178
 30
0.0
 40
0.2465
100
AcDbArc
 50
0.0
 51
180.0
  0
LINE
  5
B95A
330
B7F8
100
AcDbEntity
  8
1
  6
Continuous
100
AcDbLine
 10
105.638527
 20
189.516178
 30
0.0
 11
105.451483
 21
188.414335
 31
0.0
  0
LINE
  5
B95B
330
B7F8
100
AcDbEntity
  8
1
  6
Continuous
100
AcDbLine
 10
106.131527
 20
189.516178
 30
0.0
 11
106.0913629999999
 21
189.042977
 31
0.0
  0
LINE
  5
B95C
330
B7F8
100
AcDbEntity
  8
1
  6
Continuous
100
AcDbLine
 10
105.1456409999999
 20
185.3145449999999
 30
0.0
 11
105.1456409999999
 21
183.709178
 31
0.0
  0
ARC
  5
B95D
330
B7F8
100
AcDbEntity
  8
1
  6
Continuous
100
AcDbCircle
 10
105.392141
 20
183.709178
 30
0.0
 40
0.2465
100
AcDbArc
 50
180.0
 51
0.0
  0
ARC
  5
B95E
330
B7F8
100
AcDbEntity
  8
1
  6
Continuous
100
AcDbCircle
 10
104.151247
 20
189.5774279999999
 30
0.0
 40
0.18525
100
AcDbArc
 50
0.0
 51
180.0
  0
ARC
  5
B95F
330
B7F8
100
AcDbEntity
  8
1
  6
Continuous
100
AcDbCircle
 10
103.7810329999998
 20
183.647928
 30
0.0
 40
0.18525
100
AcDbArc
 50
180.0
 51
0.0
  0
LINE
  5
B960
330
B7F8
100
AcDbEntity
  8
1
  6
Continuous
100
AcDbLine
 10
104.336497
 20
189.5774279999999
 30
0.0
 11
103.9662829999999
 21
183.647928
 31
0.0
  0
LINE
  5
B961
330
B7F8
100
AcDbEntity
  8
1
  6
Continuous
100
AcDbLine
 10
103.595783
 20
186.6126779999999
 30
0.0
 11
103.9659969999999
 21
189.5774279999999
 31
0.0
  0
ARC
  5
B962
330
B7F8
100
AcDbEntity
  8
1
  6
Continuous
100
AcDbCircle
 10
102.8892469999999
 20
189.5774279999999
 30
0.0
 40
0.18525
100
AcDbArc
 50
0.0
 51
180.0
  0
LINE
  5
B963
330
B7F8
100
AcDbEntity
  8
1
  6
Continuous
100
AcDbLine
 10
102.333783
 20
186.6126779999999
 30
0.0
 11
102.703997
 21
189.5774279999999
 31
0.0
  0
LINE
  5
B964
330
B7F8
100
AcDbEntity
  8
1
  6
Continuous
100
AcDbLine
 10
103.0744969999998
 20
189.5774279999999
 30
0.0
 11
102.7042829999998
 21
183.647928
 31
0.0
  0
LINE
  5
B965
330
B7F8
100
AcDbEntity
  8
1
  6
Continuous
100
AcDbLine
 10
102.333783
 20
186.6126779999999
 30
0.0
 11
102.333783
 21
183.647928
 31
0.0
  0
ARC
  5
B966
330
B7F8
100
AcDbEntity
  8
1
  6
Continuous
100
AcDbCircle
 10
102.519033
 20
183.647928
 30
0.0
 40
0.18525
100
AcDbArc
 50
180.0
 51
0.0
  0
ARC
  5
B967
330
B7F8
100
AcDbEntity
  8
1
  6
Continuous
100
AcDbCircle
 10
101.711568
 20
189.654428
 30
0.0
 40
0.10825
100
AcDbArc
 50
0.0
 51
180.0
  0
ARC
  5
B968
330
B7F8
100
AcDbEntity
  8
1
  6
Continuous
100
AcDbCircle
 10
101.495336
 20
183.570928
 30
0.0
 40
0.10825
100
AcDbArc
 50
180.0
 51
0.0
  0
LINE
  5
B969
330
B7F8
100
AcDbEntity
  8
1
  6
Continuous
100
AcDbLine
 10
101.819818
 20
189.654428
 30
0.0
 11
101.6035859999998
 21
183.570928
 31
0.0
  0
LINE
  5
B96A
330
B7F8
100
AcDbEntity
  8
1
  6
Continuous
100
AcDbLine
 10
101.3870859999999
 20
186.6126779999999
 30
0.0
 11
101.6033179999999
 21
189.654428
 31
0.0
  0
ARC
  5
B96B
330
B7F8
100
AcDbEntity
  8
1
  6
Continuous
100
AcDbCircle
 10
100.9724419999999
 20
189.696928
 30
0.0
 40
0.06575
100
AcDbArc
 50
0.0
 51
180.0
  0
ARC
  5
B96C
330
B7F8
100
AcDbEntity
  8
1
  6
Continuous
100
AcDbCircle
 10
100.8407449999999
 20
183.5284279999999
 30
0.0
 40
0.06575
100
AcDbArc
 50
180.0
 51
0.0
  0
LINE
  5
B96D
330
B7F8
100
AcDbEntity
  8
1
  6
Continuous
100
AcDbLine
 10
100.9064949999998
 20
183.5284279999999
 30
0.0
 11
101.038192
 21
189.696928
 31
0.0
  0
LINE
  5
B96E
330
B7F8
100
AcDbEntity
  8
1
  6
Continuous
100
AcDbLine
 10
100.9066919999998
 20
189.696928
 30
0.0
 11
100.774995
 21
186.6126779999999
 31
0.0
  0
ARC
  5
B96F
330
B7F8
100
AcDbEntity
  8
1
  6
Continuous
100
AcDbCircle
 10
100.532847
 20
183.484678
 30
0.0
 40
0.022
100
AcDbArc
 50
180.0
 51
0.0
  0
ARC
  5
B970
330
B7F8
100
AcDbEntity
  8
1
  6
Continuous
100
AcDbCircle
 10
100.5768999999999
 20
189.740678
 30
0.0
 40
0.022
100
AcDbArc
 50
0.0
 51
180.0
  0
LINE
  5
B971
330
B7F8
100
AcDbEntity
  8
1
  6
Continuous
100
AcDbLine
 10
100.5549
 20
189.740678
 30
0.0
 11
100.5108469999999
 21
186.6126779999999
 31
0.0
  0
LINE
  5
B972
330
B7F8
100
AcDbEntity
  8
1
  6
Continuous
100
AcDbLine
 10
100.5548469999999
 20
183.484678
 30
0.0
 11
100.5989
 21
189.740678
 31
0.0
  0
ARC
  5
B973
330
B7F8
100
AcDbEntity
  8
1
  6
Continuous
100
AcDbCircle
 10
199.2112269999998
 20
115.920083
 30
0.0
 40
0.31075
100
AcDbArc
 50
90.0
 51
270.0
  0
ARC
  5
B974
330
B7F8
100
AcDbEntity
  8
1
  6
Continuous
100
AcDbCircle
 10
204.8897269999999
 20
115.298666
 30
0.0
 40
0.31075
100
AcDbArc
 50
270.0
 51
90.0
  0
LINE
  5
B975
330
B7F8
100
AcDbEntity
  8
1
  6
Continuous
100
AcDbLine
 10
199.2112269999998
 20
115.609333
 30
0.0
 11
204.8897269999999
 21
114.987916
 31
0.0
  0
LINE
  5
B976
330
B7F8
100
AcDbEntity
  8
1
  6
Continuous
100
AcDbLine
 10
204.8897269999999
 20
115.609416
 30
0.0
 11
202.050477
 21
116.230833
 31
0.0
  0
ARC
  5
B977
330
B7F8
100
AcDbEntity
  8
1
  6
Continuous
100
AcDbCircle
 10
204.8897269999999
 20
117.7276659999999
 30
0.0
 40
0.31075
100
AcDbArc
 50
270.0
 51
90.0
  0
LINE
  5
B978
330
B7F8
100
AcDbEntity
  8
1
  6
Continuous
100
AcDbLine
 10
204.8897269999999
 20
118.038416
 30
0.0
 11
202.050477
 21
118.659833
 31
0.0
  0
LINE
  5
B979
330
B7F8
100
AcDbEntity
  8
1
  6
Continuous
100
AcDbLine
 10
199.2112269999998
 20
118.0383329999999
 30
0.0
 11
204.8897269999999
 21
117.4169159999999
 31
0.0
  0
ARC
  5
B97A
330
B7F8
100
AcDbEntity
  8
1
  6
Continuous
100
AcDbCircle
 10
199.2112269999998
 20
118.349083
 30
0.0
 40
0.31075
100
AcDbArc
 50
90.0
 51
270.0
  0
LINE
  5
B97B
330
B7F8
100
AcDbEntity
  8
1
  6
Continuous
100
AcDbLine
 10
202.050477
 20
118.659833
 30
0.0
 11
199.2112269999998
 21
118.659833
 31
0.0
  0
LINE
  5
B97C
330
B7F8
100
AcDbEntity
  8
1
  6
Continuous
100
AcDbLine
 10
199.2112269999998
 20
120.349333
 30
0.0
 11
204.8897269999999
 21
119.7279159999998
 31
0.0
  0
LINE
  5
B97D
330
B7F8
100
AcDbEntity
  8
1
  6
Continuous
100
AcDbLine
 10
204.8897269999999
 20
120.3494159999999
 30
0.0
 11
202.050477
 21
120.970833
 31
0.0
  0
ARC
  5
B97E
330
B7F8
100
AcDbEntity
  8
1
  6
Continuous
100
AcDbCircle
 10
204.8897269999999
 20
120.0386659999999
 30
0.0
 40
0.31075
100
AcDbArc
 50
270.0
 51
90.0
  0
LINE
  5
B97F
330
B7F8
100
AcDbEntity
  8
1
  6
Continuous
100
AcDbLine
 10
202.050477
 20
120.970833
 30
0.0
 11
199.2112269999998
 21
120.970833
 31
0.0
  0
ARC
  5
B980
330
B7F8
100
AcDbEntity
  8
1
  6
Continuous
100
AcDbCircle
 10
199.2112269999998
 20
120.660083
 30
0.0
 40
0.31075
100
AcDbArc
 50
90.0
 51
270.0
  0
ARC
  5
B981
330
B7F8
100
AcDbEntity
  8
1
  6
Continuous
100
AcDbCircle
 10
199.1624769999999
 20
122.8516409999999
 30
0.0
 40
0.262
100
AcDbArc
 50
90.0
 51
270.0
  0
ARC
  5
B982
330
B7F8
100
AcDbEntity
  8
1
  6
Continuous
100
AcDbCircle
 10
204.938477
 20
122.3280889999999
 30
0.0
 40
0.262
100
AcDbArc
 50
270.0
 51
90.0
  0
LINE
  5
B983
330
B7F8
100
AcDbEntity
  8
1
  6
Continuous
100
AcDbLine
 10
199.1624769999999
 20
122.5896409999998
 30
0.0
 11
204.938477
 21
122.0660889999999
 31
0.0
  0
LINE
  5
B984
330
B7F8
100
AcDbEntity
  8
1
  6
Continuous
100
AcDbLine
 10
202.050477
 20
123.1136409999999
 30
0.0
 11
204.938477
 21
122.5900889999999
 31
0.0
  0
ARC
  5
B985
330
B7F8
100
AcDbEntity
  8
1
  6
Continuous
100
AcDbCircle
 10
204.938477
 20
124.2580889999999
 30
0.0
 40
0.262
100
AcDbArc
 50
270.0
 51
90.0
  0
LINE
  5
B986
330
B7F8
100
AcDbEntity
  8
1
  6
Continuous
100
AcDbLine
 10
202.050477
 20
125.043641
 30
0.0
 11
204.938477
 21
124.5200889999999
 31
0.0
  0
LINE
  5
B987
330
B7F8
100
AcDbEntity
  8
1
  6
Continuous
100
AcDbLine
 10
199.1624769999999
 20
124.5196409999998
 30
0.0
 11
204.938477
 21
123.9960889999998
 31
0.0
  0
ARC
  5
B988
330
B7F8
100
AcDbEntity
  8
1
  6
Continuous
100
AcDbCircle
 10
199.1624769999999
 20
124.7816409999998
 30
0.0
 40
0.262
100
AcDbArc
 50
90.0
 51
270.0
  0
LINE
  5
B989
330
B7F8
100
AcDbEntity
  8
1
  6
Continuous
100
AcDbLine
 10
202.050477
 20
125.043641
 30
0.0
 11
199.1624769999999
 21
125.043641
 31
0.0
  0
ARC
  5
B98A
330
B7F8
100
AcDbEntity
  8
1
  6
Continuous
100
AcDbCircle
 10
199.100477
 20
126.518142
 30
0.0
 40
0.2
100
AcDbArc
 50
90.0
 51
270.0
  0
ARC
  5
B98B
330
B7F8
100
AcDbEntity
  8
1
  6
Continuous
100
AcDbCircle
 10
205.000477
 20
126.1148379999999
 30
0.0
 40
0.2
100
AcDbArc
 50
270.0
 51
90.0
  0
LINE
  5
B98C
330
B7F8
100
AcDbEntity
  8
1
  6
Continuous
100
AcDbLine
 10
199.100477
 20
126.3181419999999
 30
0.0
 11
205.000477
 21
125.9148379999998
 31
0.0
  0
LINE
  5
B98D
330
B7F8
100
AcDbEntity
  8
1
  6
Continuous
100
AcDbLine
 10
205.000477
 20
126.314838
 30
0.0
 11
202.050477
 21
126.7181419999999
 31
0.0
  0
ARC
  5
B98E
330
B7F8
100
AcDbEntity
  8
1
  6
Continuous
100
AcDbCircle
 10
205.000477
 20
127.4998379999999
 30
0.0
 40
0.2
100
AcDbArc
 50
270.0
 51
90.0
  0
LINE
  5
B98F
330
B7F8
100
AcDbEntity
  8
1
  6
Continuous
100
AcDbLine
 10
199.100477
 20
127.7031419999999
 30
0.0
 11
200.748541
 21
127.590486
 31
0.0
  0
LINE
  5
B990
330
B7F8
100
AcDbEntity
  8
1
  6
Continuous
100
AcDbLine
 10
205.000477
 20
127.6998379999999
 30
0.0
 11
203.821089
 21
127.861076
 31
0.0
  0
ARC
  5
B991
330
B7F8
100
AcDbEntity
  8
1
  6
Continuous
100
AcDbCircle
 10
199.100477
 20
127.9031419999999
 30
0.0
 40
0.2
100
AcDbArc
 50
90.0
 51
270.0
  0
LINE
  5
B992
330
B7F8
100
AcDbEntity
  8
1
  6
Continuous
100
AcDbLine
 10
199.8605949999999
 20
128.1031419999999
 30
0.0
 11
199.100477
 21
128.1031419999999
 31
0.0
  0
LINE
  5
B993
330
B7F8
100
AcDbEntity
  8
1
  6
Continuous
100
AcDbLine
 10
203.0767589999999
 20
127.431337
 30
0.0
 11
205.000477
 21
127.2998379999998
 31
0.0
  0
LINE
  5
B994
330
B7F8
100
AcDbEntity
  8
1
  6
Continuous
100
AcDbLine
 10
111.600239
 20
42.25
 30
0.0
 11
111.600239
 21
41.0
 31
0.0
  0
LINE
  5
B995
330
B7F8
100
AcDbEntity
  8
1
  6
Continuous
100
AcDbLine
 10
122.6002389999998
 20
42.25
 30
0.0
 11
122.6002389999998
 21
41.0
 31
0.0
  0
LINE
  5
B996
330
B7F8
100
AcDbEntity
  8
1
  6
Continuous
100
AcDbLine
 10
122.6002389999998
 20
55.25
 30
0.0
 11
122.6002389999998
 21
56.5
 31
0.0
  0
LINE
  5
B997
330
B7F8
100
AcDbEntity
  8
1
  6
Continuous
100
AcDbLine
 10
111.600239
 20
55.25
 30
0.0
 11
111.600239
 21
56.5
 31
0.0
  0
LINE
  5
B998
330
B7F8
100
AcDbEntity
  8
1
  6
Continuous
100
AcDbLine
 10
111.3002389999999
 20
194.3626779999999
 30
0.0
 11
110.1002389999998
 21
192.8626779999999
 31
0.0
  0
LINE
  5
B999
330
B7F8
100
AcDbEntity
  8
1
  6
Continuous
100
AcDbLine
 10
122.9002389999999
 20
194.3626779999999
 30
0.0
 11
124.100239
 21
192.8626779999999
 31
0.0
  0
LINE
  5
B99A
330
B7F8
100
AcDbEntity
  8
1
  6
Continuous
100
AcDbLine
 10
110.1002389999998
 20
180.3626779999999
 30
0.0
 11
111.3002389999999
 21
178.8626779999999
 31
0.0
  0
LINE
  5
B99B
330
B7F8
100
AcDbEntity
  8
1
  6
Continuous
100
AcDbLine
 10
124.100239
 20
180.3626779999999
 30
0.0
 11
122.9002389999999
 21
178.8626779999999
 31
0.0
  0
ARC
  5
B99C
330
B7F8
100
AcDbEntity
  8
1
  6
Continuous
100
AcDbCircle
 10
117.1002389999999
 20
156.3626779999999
 30
0.0
 40
25.0
100
AcDbArc
 50
73.739795
 51
106.2602049999999
  0
ARC
  5
B99D
330
B7F8
100
AcDbEntity
  8
1
  6
Continuous
100
AcDbCircle
 10
117.1002389999999
 20
216.8626779999999
 30
0.0
 40
25.0
100
AcDbArc
 50
253.7397949999999
 51
286.2602049999999
  0
ARC
  5
B99E
330
B7F8
100
AcDbEntity
  8
1
  6
Continuous
100
AcDbCircle
 10
117.1002389999999
 20
127.462278
 30
0.0
 40
7.4
100
AcDbArc
 50
18.924644
 51
161.075356
  0
LINE
  5
B99F
330
B7F8
100
AcDbEntity
  8
1
  6
Continuous
100
AcDbLine
 10
111.3002389999999
 20
56.5
 30
0.0
 11
110.3002389999999
 21
55.25
 31
0.0
  0
LINE
  5
B9A0
330
B7F8
100
AcDbEntity
  8
1
  6
Continuous
100
AcDbLine
 10
122.9002389999999
 20
56.5
 30
0.0
 11
123.9002389999999
 21
55.25
 31
0.0
  0
LINE
  5
B9A1
330
B7F8
100
AcDbEntity
  8
1
  6
Continuous
100
AcDbLine
 10
123.9002389999999
 20
42.25
 30
0.0
 11
122.9002389999999
 21
41.0
 31
0.0
  0
LINE
  5
B9A2
330
B7F8
100
AcDbEntity
  8
1
  6
Continuous
100
AcDbLine
 10
110.3002389999999
 20
42.25
 30
0.0
 11
111.3002389999999
 21
41.0
 31
0.0
  0
LINE
  5
B9A3
330
B7F8
100
AcDbEntity
  8
1
  6
Continuous
100
AcDbLine
 10
105.7069169999999
 20
184.5135889999999
 30
0.0
 11
105.6386409999998
 21
183.709178
 31
0.0
  0
LINE
  5
B9A4
330
B7F8
100
AcDbEntity
  8
1
  6
Continuous
100
AcDbLine
 10
197.550477
 20
129.4368889999998
 30
0.0
 11
201.550477
 21
127.1274879999999
 31
0.0
  0
ARC
  5
B9A5
330
B7F8
100
AcDbEntity
  8
1
  6
Continuous
100
AcDbCircle
 10
202.050477
 20
127.9935129999998
 30
0.0
 40
1.0
100
AcDbArc
 50
239.9999999999999
 51
300.0
  0
LINE
  5
B9A6
330
B7F8
100
AcDbEntity
  8
1
  6
Continuous
100
AcDbLine
 10
202.5504769999999
 20
127.1274879999999
 30
0.0
 11
206.5504769999999
 21
129.4368889999998
 31
0.0
  0
ARC
  5
B9A7
330
B7F8
100
AcDbEntity
  8
1
  6
Continuous
100
AcDbCircle
 10
206.050477
 20
130.3029139999999
 30
0.0
 40
1.0
100
AcDbArc
 50
300.0
 51
0.0
  0
LINE
  5
B9A8
330
B7F8
100
AcDbEntity
  8
1
  6
Continuous
100
AcDbLine
 10
207.0504769999998
 20
130.3029139999999
 30
0.0
 11
207.0504769999998
 21
134.9217169999998
 31
0.0
  0
ARC
  5
B9A9
330
B7F8
100
AcDbEntity
  8
1
  6
Continuous
100
AcDbCircle
 10
206.050477
 20
134.9217169999998
 30
0.0
 40
1.0
100
AcDbArc
 50
0.0
 51
60.0
  0
LINE
  5
B9AA
330
B7F8
100
AcDbEntity
  8
1
  6
Continuous
100
AcDbLine
 10
206.5504769999999
 20
135.7877419999998
 30
0.0
 11
202.5504769999999
 21
138.0971429999999
 31
0.0
  0
ARC
  5
B9AB
330
B7F8
100
AcDbEntity
  8
1
  6
Continuous
100
AcDbCircle
 10
202.050477
 20
137.2311179999998
 30
0.0
 40
1.0
100
AcDbArc
 50
60.0
 51
119.9999999999999
  0
LINE
  5
B9AC
330
B7F8
100
AcDbEntity
  8
1
  6
Continuous
100
AcDbLine
 10
201.550477
 20
138.0971429999999
 30
0.0
 11
197.550477
 21
135.7877419999998
 31
0.0
  0
ARC
  5
B9AD
330
B7F8
100
AcDbEntity
  8
1
  6
Continuous
100
AcDbCircle
 10
198.0504769999998
 20
134.9217169999998
 30
0.0
 40
1.0
100
AcDbArc
 50
119.9999999999999
 51
180.0
  0
LINE
  5
B9AE
330
B7F8
100
AcDbEntity
  8
1
  6
Continuous
100
AcDbLine
 10
197.0504769999998
 20
134.9217169999998
 30
0.0
 11
197.0504769999998
 21
130.3029139999999
 31
0.0
  0
ARC
  5
B9AF
330
B7F8
100
AcDbEntity
  8
1
  6
Continuous
100
AcDbCircle
 10
198.0504769999998
 20
130.3029139999999
 30
0.0
 40
1.0
100
AcDbArc
 50
180.0
 51
239.9999999999999
  0
ENDSEC
  0
SECTION
  2
OBJECTS
  0
DICTIONARY
  5
B7E6
330
0
100
AcDbDictionary
281
     1
  3
ACAD_CIP_PREVIOUS_PRODUCT_INFO
350
BA0F
  3
ACAD_COLOR
350
B9F1
  3
ACAD_DETAILVIEWSTYLE
350
BA0A
  3
ACAD_GROUP
350
B7E7
  3
ACAD_LAYOUT
350
B7F3
  3
ACAD_MATERIAL
350
B9BF
  3
ACAD_MLEADERSTYLE
350
BA06
  3
ACAD_MLINESTYLE
350
B7F0
  3
ACAD_PLOTSETTINGS
350
B7F2
  3
ACAD_PLOTSTYLENAME
350
B9BD
  3
ACAD_SCALELIST
350
B9F4
  3
ACAD_SECTIONVIEWSTYLE
350
BA08
  3
ACAD_TABLESTYLE
350
B9F2
  3
ACAD_VISUALSTYLE
350
B9D8
  3
ACDB_RECOMPOSE_DATA
350
BA2D
  3
AcDbVariableDictionary
350
BA20
  3
DWGPROPS
350
BA2E
  0
DICTIONARY
  5
BA10
330
B7EA
100
AcDbDictionary
280
     1
281
     1
  3
ADSK_XREC_LAYER_RECONCILED
360
BA11
  0
DICTIONARY
  5
BA12
330
B800
100
AcDbDictionary
280
     1
281
     1
  3
ADSK_XREC_LAYER_RECONCILED
360
BA13
  0
DICTIONARY
  5
BA14
330
B801
100
AcDbDictionary
280
     1
281
     1
  3
ADSK_XREC_LAYER_RECONCILED
360
BA15
  0
DICTIONARY
  5
BA16
330
B802
100
AcDbDictionary
280
     1
281
     1
  3
ADSK_XREC_LAYER_RECONCILED
360
BA17
  0
DICTIONARY
  5
BA18
330
B803
100
AcDbDictionary
280
     1
281
     1
  3
ADSK_XREC_LAYER_RECONCILED
360
BA19
  0
DICTIONARY
  5
BA1A
330
B804
100
AcDbDictionary
280
     1
281
     1
  3
ADSK_XREC_LAYER_RECONCILED
360
BA1B
  0
DICTIONARY
  5
BA1C
330
B805
100
AcDbDictionary
280
     1
281
     1
  3
ADSK_XREC_LAYER_RECONCILED
360
BA1D
  0
DICTIONARY
  5
BA1E
330
B806
100
AcDbDictionary
280
     1
281
     1
  3
ADSK_XREC_LAYER_RECONCILED
360
BA1F
  0
DICTIONARY
  5
B9B8
330
B7F8
100
AcDbDictionary
281
     1
  3
ACAD_LAYOUTSELFREF
350
B9B9
  0
DICTIONARY
  5
B9B6
330
B7F4
100
AcDbDictionary
281
     1
  3
ACAD_LAYOUTSELFREF
350
B9B7
  0
XRECORD
  5
BA0F
102
{ACAD_REACTORS
330
B7E6
102
}
330
B7E6
100
AcDbXrecord
280
     1
300
ACDLT
300
2014
300
ACDLT_F_S
  0
DICTIONARY
  5
B9F1
102
{ACAD_REACTORS
330
B7E6
102
}
330
B7E6
100
AcDbDictionary
281
     1
  0
DICTIONARY
  5
BA0A
102
{ACAD_REACTORS
330
B7E6
102
}
330
B7E6
100
AcDbDictionary
281
     1
  3
Imperial24
350
BA0B
  0
DICTIONARY
  5
B7E7
102
{ACAD_REACTORS
330
B7E6
102
}
330
B7E6
100
AcDbDictionary
281
     1
  0
DICTIONARY
  5
B7F3
102
{ACAD_REACTORS
330
B7E6
102
}
330
B7E6
100
AcDbDictionary
281
     1
  3
Model
350
BA0C
  3
レイアウト1
350
BA0D
  0
DICTIONARY
  5
B9BF
102
{ACAD_REACTORS
330
B7E6
102
}
330
B7E6
100
AcDbDictionary
281
     1
  3
ByBlock
350
B9C8
  3
ByLayer
350
B9C0
  3
Global
350
B9D0
  0
DICTIONARY
  5
BA06
102
{ACAD_REACTORS
330
B7E6
102
}
330
B7E6
100
AcDbDictionary
281
     1
  3
Standard
350
BA07
  0
DICTIONARY
  5
B7F0
102
{ACAD_REACTORS
330
B7E6
102
}
330
B7E6
100
AcDbDictionary
281
     1
  3
STANDARD
350
B7F1
  0
DICTIONARY
  5
B7F2
102
{ACAD_REACTORS
330
B7E6
102
}
330
B7E6
100
AcDbDictionary
281
     1
  0
ACDBDICTIONARYWDFLT
  5
B9BD
102
{ACAD_REACTORS
330
B7E6
102
}
330
B7E6
100
AcDbDictionary
281
     1
  3
Normal
350
B9BE
100
AcDbDictionaryWithDefault
340
B9BE
  0
DICTIONARY
  5
B9F4
102
{ACAD_REACTORS
330
B7E6
102
}
330
B7E6
100
AcDbDictionary
281
     1
  3
A0
350
B9F5
  3
A1
350
B9F6
  3
A2
350
B9F7
  3
A3
350
B9F8
  3
A4
350
B9F9
  3
A5
350
B9FA
  3
A6
350
B9FB
  3
A7
350
B9FC
  3
A8
350
B9FD
  3
A9
350
B9FE
  3
B0
350
B9FF
  3
B1
350
BA00
  3
B2
350
BA01
  3
B3
350
BA02
  3
B4
350
BA03
  3
B5
350
BA04
  3
B6
350
BA05
  0
DICTIONARY
  5
BA08
102
{ACAD_REACTORS
330
B7E6
102
}
330
B7E6
100
AcDbDictionary
281
     1
  3
Imperial24
350
BA09
  0
DICTIONARY
  5
B9F2
102
{ACAD_REACTORS
330
B7E6
102
}
330
B7E6
100
AcDbDictionary
281
     1
  3
Standard
350
B9F3
  0
DICTIONARY
  5
B9D8
102
{ACAD_REACTORS
330
B7E6
102
}
330
B7E6
100
AcDbDictionary
281
     1
  3
2dWireframe
350
B9DE
  3
Basic
350
B9DD
  3
Brighten
350
B9E4
  3
ColorChange
350
B9E8
  3
Conceptual
350
B9E1
  3
Dim
350
B9E3
  3
EdgeColorOff
350
B9F0
  3
Facepattern
350
B9E7
  3
Flat
350
B9D9
  3
FlatWithEdges
350
B9DA
  3
Gouraud
350
B9DB
  3
GouraudWithEdges
350
B9DC
  3
Hidden
350
B9E0
  3
JitterOff
350
B9EE
  3
Linepattern
350
B9E6
  3
OverhangOff
350
B9EF
  3
Realistic
350
B9E2
  3
Shaded
350
B9ED
  3
Shaded with edges
350
B9EC
  3
Shades of Gray
350
B9E9
  3
Sketchy
350
B9EA
  3
Thicken
350
B9E5
  3
Wireframe
350
B9DF
  3
X-Ray
350
B9EB
  0
XRECORD
  5
BA2D
102
{ACAD_REACTORS
330
B7E6
102
}
330
B7E6
100
AcDbXrecord
280
     1
 90
        1
330
B9F3
  0
DICTIONARY
  5
BA20
102
{ACAD_REACTORS
330
B7E6
102
}
330
B7E6
100
AcDbDictionary
281
     1
  3
CANNOSCALE
350
BA25
  3
CMLEADERSTYLE
350
BA22
  3
CTABLESTYLE
350
BA21
  3
CVIEWDETAILSTYLE
350
BA23
  3
CVIEWSECTIONSTYLE
350
BA24
  3
DIMASSOC
350
BA28
  3
INDEXCTL
350
BA27
  3
SORTENTS
350
BA26
  3
XCLIPFRAME
350
BA29
  0
XRECORD
  5
BA2E
102
{ACAD_REACTORS
330
B7E6
102
}
330
B7E6
100
AcDbXrecord
280
     1
  1
DWGPROPS COOKIE
  2

  3

  4

  6

  7

  8
Yoshitsune
  9

300
=
301
=
302
=
303
=
304
=
305
=
306
=
307
=
308
=
309
=
 40
0.0000091435185185
 41
2451296.796100463
 42
2457192.658345903
  1

 90
        0
  0
XRECORD
  5
BA11
102
{ACAD_REACTORS
330
BA10
102
}
330
BA10
100
AcDbXrecord
280
     1
290
     1
  0
XRECORD
  5
BA13
102
{ACAD_REACTORS
330
BA12
102
}
330
BA12
100
AcDbXrecord
280
     1
290
     1
  0
XRECORD
  5
BA15
102
{ACAD_REACTORS
330
BA14
102
}
330
BA14
100
AcDbXrecord
280
     1
290
     1
  0
XRECORD
  5
BA17
102
{ACAD_REACTORS
330
BA16
102
}
330
BA16
100
AcDbXrecord
280
     1
290
     1
  0
XRECORD
  5
BA19
102
{ACAD_REACTORS
330
BA18
102
}
330
BA18
100
AcDbXrecord
280
     1
290
     1
  0
XRECORD
  5
BA1B
102
{ACAD_REACTORS
330
BA1A
102
}
330
BA1A
100
AcDbXrecord
280
     1
290
     1
  0
XRECORD
  5
BA1D
102
{ACAD_REACTORS
330
BA1C
102
}
330
BA1C
100
AcDbXrecord
280
     1
290
     1
  0
XRECORD
  5
BA1F
102
{ACAD_REACTORS
330
BA1E
102
}
330
BA1E
100
AcDbXrecord
280
     1
290
     1
  0
XRECORD
  5
B9B9
102
{ACAD_REACTORS
330
B9B8
102
}
330
B9B8
100
AcDbXrecord
280
     1
340
B7F8
  0
XRECORD
  5
B9B7
102
{ACAD_REACTORS
330
B9B6
102
}
330
B9B6
100
AcDbXrecord
280
     1
340
B7F4
  0
ACDBDETAILVIEWSTYLE
  5
BA0B
102
{ACAD_XDICTIONARY
360
BA66
102
}
102
{ACAD_REACTORS
330
BA0A
102
}
330
BA0A
100
AcDbModelDocViewStyle
 70
     0
  3
Imperial24
290
     0
100
AcDbDetailViewStyle
 70
     0
 71
     0
 90
        3
 71
     1
340
B7EB
 40
0.24
340
0
 40
0.24
300

 40
0.36
280
     3
 71
     2
340
B7EF
 90
       25
 71
     3
340
B7EB
 40
0.24
 90
        1
 40
0.75
 90
        1
300
%<\AcVar ViewType \f "%tc1">% %<\AcVar ViewDetailId>%\PSCALE %<\AcVar ViewScale \f "%sn">%
 71
     4
340
B7EF
 90
       25
340
B7EF
 90
       25
280
     0
  0
LAYOUT
  5
BA0C
102
{ACAD_XDICTIONARY
360
BA68
102
}
102
{ACAD_REACTORS
330
B7F3
102
}
330
B7F3
100
AcDbPlotSettings
  1

  2
Canon LBP9100C
  4

  6

 40
0.0
 41
0.0
 42
0.0
 43
0.0
 44
0.0
 45
0.0
 46
0.0
 47
0.0
 48
0.0
 49
0.0
140
0.0
141
0.0
142
1.0
143
1.0
 70
  1712
 72
     0
 73
     0
 74
     0
  7

 75
     0
147
1.0
148
0.0
149
0.0
100
AcDbLayout
  1
Model
 70
     1
 71
     0
 10
0.0
 20
0.0
 11
12.0
 21
9.0
 12
0.0
 22
0.0
 32
0.0
 14
0.0
 24
0.0
 34
0.0
 15
0.0
 25
0.0
 35
0.0
146
0.0
 13
0.0
 23
0.0
 33
0.0
 16
1.0
 26
0.0
 36
0.0
 17
0.0
 27
1.0
 37
0.0
 76
     0
330
B7F8
331
B9B5
  0
LAYOUT
  5
BA0D
102
{ACAD_XDICTIONARY
360
BA6A
102
}
102
{ACAD_REACTORS
330
B7F3
102
}
330
B7F3
100
AcDbPlotSettings
  1

  2
Canon LBP9100C
  4

  6

 40
0.0
 41
0.0
 42
0.0
 43
0.0
 44
0.0
 45
0.0
 46
0.0
 47
0.0
 48
0.0
 49
0.0
140
0.0
141
0.0
142
1.0
143
1.0
 70
   688
 72
     0
 73
     0
 74
     5
  7

 75
    16
147
1.0
148
0.0
149
0.0
100
AcDbLayout
  1
レイアウト1
 70
     0
 71
     1
 10
0.0
 20
0.0
 11
420.0
 21
297.0
 12
0.0
 22
0.0
 32
0.0
 14
1.000000000000000E+20
 24
1.000000000000000E+20
 34
1.000000000000000E+20
 15
-1.000000000000000E+20
 25
-1.000000000000000E+20
 35
-1.000000000000000E+20
146
0.0
 13
0.0
 23
0.0
 33
0.0
 16
1.0
 26
0.0
 36
0.0
 17
0.0
 27
1.0
 37
0.0
 76
     0
330
B7F4
  0
MATERIAL
  5
B9C8
102
{ACAD_XDICTIONARY
360
B9C9
102
}
102
{ACAD_REACTORS
330
B9BF
102
}
330
B9BF
100
AcDbMaterial
  1
ByBlock
 72
     0
 43
0.0208333333333333
 43
0.0
 43
0.0
 43
0.0
 43
0.0
 43
0.0208333333333333
 43
0.0
 43
0.0
 43
0.0
 43
0.0
 43
1.0
 43
0.0
 43
0.0
 43
0.0
 43
0.0
 43
1.0
 77
     0
 47
0.0208333333333333
 47
0.0
 47
0.0
 47
0.0
 47
0.0
 47
0.0208333333333333
 47
0.0
 47
0.0
 47
0.0
 47
0.0
 47
1.0
 47
0.0
 47
0.0
 47
0.0
 47
0.0
 47
1.0
171
     0
 49
0.0208333333333333
 49
0.0
 49
0.0
 49
0.0
 49
0.0
 49
0.0208333333333333
 49
0.0
 49
0.0
 49
0.0
 49
0.0
 49
1.0
 49
0.0
 49
0.0
 49
0.0
 49
0.0
 49
1.0
175
     0
142
0.0208333333333333
142
0.0
142
0.0
142
0.0
142
0.0
142
0.0208333333333333
142
0.0
142
0.0
142
0.0
142
0.0
142
1.0
142
0.0
142
0.0
142
0.0
142
0.0
142
1.0
179
     0
144
0.0208333333333333
144
0.0
144
0.0
144
0.0
144
0.0
144
0.0208333333333333
144
0.0
144
0.0
144
0.0
144
0.0
144
1.0
144
0.0
144
0.0
144
0.0
144
0.0
144
1.0
147
0.0208333333333333
147
0.0
147
0.0
147
0.0
147
0.0
147
0.0208333333333333
147
0.0
147
0.0
147
0.0
147
0.0
147
1.0
147
0.0
147
0.0
147
0.0
147
0.0
147
1.0
  0
MATERIAL
  5
B9C0
102
{ACAD_XDICTIONARY
360
B9C1
102
}
102
{ACAD_REACTORS
330
B9BF
102
}
330
B9BF
100
AcDbMaterial
  1
ByLayer
 72
     0
 43
0.0208333333333333
 43
0.0
 43
0.0
 43
0.0
 43
0.0
 43
0.0208333333333333
 43
0.0
 43
0.0
 43
0.0
 43
0.0
 43
1.0
 43
0.0
 43
0.0
 43
0.0
 43
0.0
 43
1.0
 77
     0
 47
0.0208333333333333
 47
0.0
 47
0.0
 47
0.0
 47
0.0
 47
0.0208333333333333
 47
0.0
 47
0.0
 47
0.0
 47
0.0
 47
1.0
 47
0.0
 47
0.0
 47
0.0
 47
0.0
 47
1.0
171
     0
 49
0.0208333333333333
 49
0.0
 49
0.0
 49
0.0
 49
0.0
 49
0.0208333333333333
 49
0.0
 49
0.0
 49
0.0
 49
0.0
 49
1.0
 49
0.0
 49
0.0
 49
0.0
 49
0.0
 49
1.0
175
     0
142
0.0208333333333333
142
0.0
142
0.0
142
0.0
142
0.0
142
0.0208333333333333
142
0.0
142
0.0
142
0.0
142
0.0
142
1.0
142
0.0
142
0.0
142
0.0
142
0.0
142
1.0
179
     0
144
0.0208333333333333
144
0.0
144
0.0
144
0.0
144
0.0
144
0.0208333333333333
144
0.0
144
0.0
144
0.0
144
0.0
144
1.0
144
0.0
144
0.0
144
0.0
144
0.0
144
1.0
147
0.0208333333333333
147
0.0
147
0.0
147
0.0
147
0.0
147
0.0208333333333333
147
0.0
147
0.0
147
0.0
147
0.0
147
1.0
147
0.0
147
0.0
147
0.0
147
0.0
147
1.0
  0
MATERIAL
  5
B9D0
102
{ACAD_XDICTIONARY
360
B9D1
102
}
102
{ACAD_REACTORS
330
B9BF
102
}
330
B9BF
100
AcDbMaterial
  1
Global
 72
     0
 43
0.0208333333333333
 43
0.0
 43
0.0
 43
0.0
 43
0.0
 43
0.0208333333333333
 43
0.0
 43
0.0
 43
0.0
 43
0.0
 43
1.0
 43
0.0
 43
0.0
 43
0.0
 43
0.0
 43
1.0
 77
     0
 47
0.0208333333333333
 47
0.0
 47
0.0
 47
0.0
 47
0.0
 47
0.0208333333333333
 47
0.0
 47
0.0
 47
0.0
 47
0.0
 47
1.0
 47
0.0
 47
0.0
 47
0.0
 47
0.0
 47
1.0
171
     0
 49
0.0208333333333333
 49
0.0
 49
0.0
 49
0.0
 49
0.0
 49
0.0208333333333333
 49
0.0
 49
0.0
 49
0.0
 49
0.0
 49
1.0
 49
0.0
 49
0.0
 49
0.0
 49
0.0
 49
1.0
175
     0
142
0.0208333333333333
142
0.0
142
0.0
142
0.0
142
0.0
142
0.0208333333333333
142
0.0
142
0.0
142
0.0
142
0.0
142
1.0
142
0.0
142
0.0
142
0.0
142
0.0
142
1.0
179
     0
144
0.0208333333333333
144
0.0
144
0.0
144
0.0
144
0.0
144
0.0208333333333333
144
0.0
144
0.0
144
0.0
144
0.0
144
1.0
144
0.0
144
0.0
144
0.0
144
0.0
144
1.0
147
0.0208333333333333
147
0.0
147
0.0
147
0.0
147
0.0
147
0.0208333333333333
147
0.0
147
0.0
147
0.0
147
0.0
147
1.0
147
0.0
147
0.0
147
0.0
147
0.0
147
1.0
  0
MLEADERSTYLE
  5
BA07
102
{ACAD_REACTORS
330
BA06
102
}
330
BA06
100
AcDbMLeaderStyle
170
     2
171
     1
172
     0
 90
        2
 40
0.0
 41
0.0
173
     1
 91
-1056964608
340
B7ED
 92
       -2
290
     1
 42
0.09
291
     1
 43
0.36
  3
Standard
 44
0.18
300

342
B7EB
174
     1
178
     6
175
     1
176
     0
 93
-1056964608
 45
0.18
292
     0
297
     0
 46
0.18
 94
-1056964608
 47
1.0
 49
1.0
140
1.0
293
     1
141
0.0
294
     1
177
     0
142
1.0
295
     0
296
     0
143
0.125
1001
ACAD_MLEADERVER
1070
     2
  0
MLINESTYLE
  5
B7F1
102
{ACAD_REACTORS
330
B7F0
102
}
330
B7F0
100
AcDbMlineStyle
  2
STANDARD
 70
     0
  3

 62
   256
 51
90.0
 52
90.0
 71
     2
 49
0.5
 62
   256
  6
BYLAYER
 49
-0.5
 62
   256
  6
BYLAYER
  0
ACDBPLACEHOLDER
  5
B9BE
102
{ACAD_REACTORS
330
B9BD
102
}
330
B9BD
  0
SCALE
  5
B9F5
102
{ACAD_REACTORS
330
B9F4
102
}
330
B9F4
100
AcDbScale
 70
     0
300
1:1
140
1.0
141
1.0
290
     1
  0
SCALE
  5
B9F6
102
{ACAD_REACTORS
330
B9F4
102
}
330
B9F4
100
AcDbScale
 70
     0
300
1/128" = 1'-0"
140
0.0078125
141
12.0
290
     0
  0
SCALE
  5
B9F7
102
{ACAD_REACTORS
330
B9F4
102
}
330
B9F4
100
AcDbScale
 70
     0
300
1/64" = 1'-0"
140
0.015625
141
12.0
290
     0
  0
SCALE
  5
B9F8
102
{ACAD_REACTORS
330
B9F4
102
}
330
B9F4
100
AcDbScale
 70
     0
300
1/32" = 1'-0"
140
0.03125
141
12.0
290
     0
  0
SCALE
  5
B9F9
102
{ACAD_REACTORS
330
B9F4
102
}
330
B9F4
100
AcDbScale
 70
     0
300
1/16" = 1'-0"
140
0.0625
141
12.0
290
     0
  0
SCALE
  5
B9FA
102
{ACAD_REACTORS
330
B9F4
102
}
330
B9F4
100
AcDbScale
 70
     0
300
3/32" = 1'-0"
140
0.09375
141
12.0
290
     0
  0
SCALE
  5
B9FB
102
{ACAD_REACTORS
330
B9F4
102
}
330
B9F4
100
AcDbScale
 70
     0
300
1/8" = 1'-0"
140
0.125
141
12.0
290
     0
  0
SCALE
  5
B9FC
102
{ACAD_REACTORS
330
B9F4
102
}
330
B9F4
100
AcDbScale
 70
     0
300
3/16" = 1'-0"
140
0.1875
141
12.0
290
     0
  0
SCALE
  5
B9FD
102
{ACAD_REACTORS
330
B9F4
102
}
330
B9F4
100
AcDbScale
 70
     0
300
1/4" = 1'-0"
140
0.25
141
12.0
290
     0
  0
SCALE
  5
B9FE
102
{ACAD_REACTORS
330
B9F4
102
}
330
B9F4
100
AcDbScale
 70
     0
300
3/8" = 1'-0"
140
0.375
141
12.0
290
     0
  0
SCALE
  5
B9FF
102
{ACAD_REACTORS
330
B9F4
102
}
330
B9F4
100
AcDbScale
 70
     0
300
1/2" = 1'-0"
140
0.5
141
12.0
290
     0
  0
SCALE
  5
BA00
102
{ACAD_REACTORS
330
B9F4
102
}
330
B9F4
100
AcDbScale
 70
     0
300
3/4" = 1'-0"
140
0.75
141
12.0
290
     0
  0
SCALE
  5
BA01
102
{ACAD_REACTORS
330
B9F4
102
}
330
B9F4
100
AcDbScale
 70
     0
300
1" = 1'-0"
140
1.0
141
12.0
290
     0
  0
SCALE
  5
BA02
102
{ACAD_REACTORS
330
B9F4
102
}
330
B9F4
100
AcDbScale
 70
     0
300
1-1/2" = 1'-0"
140
1.5
141
12.0
290
     0
  0
SCALE
  5
BA03
102
{ACAD_REACTORS
330
B9F4
102
}
330
B9F4
100
AcDbScale
 70
     0
300
3" = 1'-0"
140
3.0
141
12.0
290
     0
  0
SCALE
  5
BA04
102
{ACAD_REACTORS
330
B9F4
102
}
330
B9F4
100
AcDbScale
 70
     0
300
6" = 1'-0"
140
6.0
141
12.0
290
     0
  0
SCALE
  5
BA05
102
{ACAD_REACTORS
330
B9F4
102
}
330
B9F4
100
AcDbScale
 70
     0
300
1'-0" = 1'-0"
140
12.0
141
12.0
290
     0
  0
ACDBSECTIONVIEWSTYLE
  5
BA09
102
{ACAD_XDICTIONARY
360
BA64
102
}
102
{ACAD_REACTORS
330
BA08
102
}
330
BA08
100
AcDbModelDocViewStyle
 70
     0
  3
Imperial24
290
     0
100
AcDbSectionViewStyle
 70
     0
 71
     0
 90
       78
 71
     1
340
B7EB
 40
0.24
340
0
340
0
 40
0.24
300
I, O, Q, S, X, Z
 40
0.48
 90
        3
 40
0.18
 90
        1
 71
     2
340
B7EF
 90
       25
340
B7EF
 90
       50
 40
0.24
 40
0.0
 40
0.24
 71
     3
340
B7EB
 40
0.24
 90
        1
 40
0.75
 90
        1
300
%<\AcVar ViewType \f "%tc1">% %<\AcVar ViewSectionStartId>%-%<\AcVar ViewSectionEndId>%\PSCALE %<\AcVar ViewScale \f "%sn">%
 71
     4
300
ANSI31
 40
1.0
 90
        0
290
     0
290
     0
 90
        6
 40
0.0
 40
1.570796326794896
 40
0.2617993877991494
 40
1.308996938995747
 40
-0.2617993877991494
 40
1.832595714594046
  0
TABLESTYLE
  5
B9F3
102
{ACAD_XDICTIONARY
360
BA2B
102
}
102
{ACAD_REACTORS
330
B9F2
102
}
330
B9F2
100
AcDbTableStyle
  3
Standard
 70
     0
 71
     0
 40
0.06
 41
0.06
280
     0
281
     0
  7
STANDARD
140
0.18
170
     2
 62
     0
 63
     7
283
     0
274
    -2
284
     1
 64
     0
275
    -2
285
     1
 65
     0
276
    -2
286
     1
 66
     0
277
    -2
287
     1
 67
     0
278
    -2
288
     1
 68
     0
279
    -2
289
     1
 69
     0
  7
STANDARD
140
0.25
170
     5
 62
     0
 63
     7
283
     0
274
    -2
284
     1
 64
     0
275
    -2
285
     1
 65
     0
276
    -2
286
     1
 66
     0
277
    -2
287
     1
 67
     0
278
    -2
288
     1
 68
     0
279
    -2
289
     1
 69
     0
  7
STANDARD
140
0.18
170
     5
 62
     0
 63
     7
283
     0
274
    -2
284
     1
 64
     0
275
    -2
285
     1
 65
     0
276
    -2
286
     1
 66
     0
277
    -2
287
     1
 67
     0
278
    -2
288
     1
 68
     0
279
    -2
289
     1
 69
     0
  0
VISUALSTYLE
  5
B9DE
102
{ACAD_XDICTIONARY
360
BA3C
102
}
102
{ACAD_REACTORS
330
B9D8
102
}
330
B9D8
100
AcDbVisualStyle
  2
2dWireframe
 70
     4
 71
     0
 72
     2
 73
     0
 90
        0
 40
-0.6
 41
-30.0
 62
     5
 63
     7
 74
     1
 91
        4
 64
     7
 65
   257
 75
     1
175
     1
 42
1.0
 92
        0
 66
   257
 43
1.0
 76
     1
 77
     6
 78
     2
 67
     7
 79
     5
170
     0
171
     0
290
     0
174
     0
 93
        1
 44
0.0
173
     0
291
     0
 45
0.0
1001
ACAD
1000
AcDbSavedByObjectVersion
1070
     0
  0
VISUALSTYLE
  5
B9DD
102
{ACAD_XDICTIONARY
360
BA3A
102
}
102
{ACAD_REACTORS
330
B9D8
102
}
330
B9D8
100
AcDbVisualStyle
  2
Basic
 70
     7
 71
     1
 72
     0
 73
     1
 90
        0
 40
-0.6
 41
-30.0
 62
     5
 63
     7
 74
     0
 91
        4
 64
     7
 65
   257
 75
     1
175
     1
 42
1.0
 92
        8
 66
     7
 43
1.0
 76
     1
 77
     6
 78
     2
 67
     7
 79
     5
170
     0
171
     0
290
     0
174
     0
 93
        1
 44
0.0
173
     0
291
     1
 45
0.0
1001
ACAD
1000
AcDbSavedByObjectVersion
1070
     0
  0
VISUALSTYLE
  5
B9E4
102
{ACAD_XDICTIONARY
360
BA48
102
}
102
{ACAD_REACTORS
330
B9D8
102
}
330
B9D8
100
AcDbVisualStyle
  2
Brighten
 70
    12
 71
     2
 72
     2
 73
     0
 90
        0
 40
-0.6
 41
-30.0
 62
     5
 63
     7
 74
     1
 91
        4
 64
     7
 65
   257
 75
     1
175
     1
 42
1.0
 92
        8
 66
     7
 43
1.0
 76
     1
 77
     6
 78
     2
 67
     7
 79
     5
170
     0
171
     0
290
     0
174
     0
 93
        1
 44
50.0
173
     0
291
     1
 45
0.0
1001
ACAD
1000
AcDbSavedByObjectVersion
1070
     0
  0
VISUALSTYLE
  5
B9E8
102
{ACAD_XDICTIONARY
360
BA50
102
}
102
{ACAD_REACTORS
330
B9D8
102
}
330
B9D8
100
AcDbVisualStyle
  2
ColorChange
 70
    16
 71
     2
 72
     2
 73
     3
 90
        0
 40
-0.6
 41
-30.0
 62
     5
 63
     8
 74
     1
 91
        4
 64
     7
 65
   257
 75
     1
175
     1
 42
1.0
 92
        8
 66
     8
 43
1.0
 76
     1
 77
     6
 78
     2
 67
     7
 79
     5
170
     0
171
     0
290
     0
174
     0
 93
        1
 44
0.0
173
     0
291
     1
 45
0.0
1001
ACAD
1000
AcDbSavedByObjectVersion
1070
     0
  0
VISUALSTYLE
  5
B9E1
102
{ACAD_XDICTIONARY
360
BA42
102
}
102
{ACAD_REACTORS
330
B9D8
102
}
330
B9D8
100
AcDbVisualStyle
  2
Conceptual
 70
     9
 71
     3
 72
     2
 73
     0
 90
        0
 40
-0.6
 41
-30.0
 62
     5
 63
     7
 74
     2
 91
        2
 64
     7
 65
   257
 75
     1
175
     1
 42
179.0
 92
        8
 66
     7
 43
1.0
 76
     1
 77
     6
 78
     2
 67
     7
 79
     3
170
     0
171
     0
290
     0
174
     0
 93
        1
 44
0.0
173
     0
291
     0
 45
0.0
1001
ACAD
1000
AcDbSavedByObjectVersion
1070
     0
  0
VISUALSTYLE
  5
B9E3
102
{ACAD_XDICTIONARY
360
BA46
102
}
102
{ACAD_REACTORS
330
B9D8
102
}
330
B9D8
100
AcDbVisualStyle
  2
Dim
 70
    11
 71
     2
 72
     2
 73
     0
 90
        0
 40
-0.6
 41
-30.0
 62
     5
 63
     7
 74
     1
 91
        4
 64
     7
 65
   257
 75
     1
175
     1
 42
1.0
 92
        8
 66
     7
 43
1.0
 76
     1
 77
     6
 78
     2
 67
     7
 79
     5
170
     0
171
     0
290
     0
174
     0
 93
        1
 44
-50.0
173
     0
291
     1
 45
0.0
1001
ACAD
1000
AcDbSavedByObjectVersion
1070
     0
  0
VISUALSTYLE
  5
B9F0
102
{ACAD_XDICTIONARY
360
BA60
102
}
102
{ACAD_REACTORS
330
B9D8
102
}
330
B9D8
100
AcDbVisualStyle
  2
EdgeColorOff
 70
    22
 71
     2
 72
     2
 73
     0
 90
        0
 40
-0.6
 41
-30.0
 62
     5
 63
     7
 74
     1
 91
        4
 64
     7
 65
   257
 75
     1
175
     1
 42
1.0
 92
        8
 66
     7
 43
1.0
 76
     1
 77
     6
 78
     2
 67
     7
 79
     5
170
     0
171
     0
290
     0
174
     0
 93
        1
 44
0.0
173
     0
291
     1
 45
0.0
1001
ACAD
1000
AcDbSavedByObjectVersion
1070
     0
  0
VISUALSTYLE
  5
B9E7
102
{ACAD_XDICTIONARY
360
BA4E
102
}
102
{ACAD_REACTORS
330
B9D8
102
}
330
B9D8
100
AcDbVisualStyle
  2
Facepattern
 70
    15
 71
     2
 72
     2
 73
     0
 90
        0
 40
-0.6
 41
-30.0
 62
     5
 63
     7
 74
     1
 91
        4
 64
     7
 65
   257
 75
     1
175
     1
 42
1.0
 92
        8
 66
     7
 43
1.0
 76
     1
 77
     6
 78
     2
 67
     7
 79
     5
170
     0
171
     0
290
     0
174
     0
 93
        1
 44
0.0
173
     0
291
     1
 45
0.0
1001
ACAD
1000
AcDbSavedByObjectVersion
1070
     0
  0
VISUALSTYLE
  5
B9D9
102
{ACAD_XDICTIONARY
360
BA32
102
}
102
{ACAD_REACTORS
330
B9D8
102
}
330
B9D8
100
AcDbVisualStyle
  2
Flat
 70
     0
 71
     2
 72
     1
 73
     1
 90
        2
 40
-0.6
 41
30.0
 62
     5
 63
     7
 74
     0
 91
        0
 64
     7
 65
   257
 75
     1
175
     1
 42
1.0
 92
        8
 66
     7
 43
1.0
 76
     1
 77
     6
 78
     2
 67
     7
 79
     5
170
     0
171
     0
290
     0
174
     0
 93
       13
 44
0.0
173
     0
291
     1
 45
0.0
1001
ACAD
1000
AcDbSavedByObjectVersion
1070
     0
  0
VISUALSTYLE
  5
B9DA
102
{ACAD_XDICTIONARY
360
BA34
102
}
102
{ACAD_REACTORS
330
B9D8
102
}
330
B9D8
100
AcDbVisualStyle
  2
FlatWithEdges
 70
     1
 71
     2
 72
     1
 73
     1
 90
        2
 40
-0.6
 41
30.0
 62
     5
 63
     7
 74
     1
 91
        0
 64
     7
 65
   257
 75
     1
175
     1
 42
1.0
 92
        0
 66
   257
 43
1.0
 76
     1
 77
     6
 78
     2
 67
     7
 79
     5
170
     0
171
     0
290
     0
174
     0
 93
       13
 44
0.0
173
     0
291
     1
 45
0.0
1001
ACAD
1000
AcDbSavedByObjectVersion
1070
     0
  0
VISUALSTYLE
  5
B9DB
102
{ACAD_XDICTIONARY
360
BA36
102
}
102
{ACAD_REACTORS
330
B9D8
102
}
330
B9D8
100
AcDbVisualStyle
  2
Gouraud
 70
     2
 71
     2
 72
     2
 73
     1
 90
        2
 40
-0.6
 41
30.0
 62
     5
 63
     7
 74
     0
 91
        0
 64
     7
 65
   257
 75
     1
175
     1
 42
1.0
 92
        0
 66
     7
 43
1.0
 76
     1
 77
     6
 78
     2
 67
     7
 79
     5
170
     0
171
     0
290
     0
174
     0
 93
       13
 44
0.0
173
     0
291
     1
 45
0.0
1001
ACAD
1000
AcDbSavedByObjectVersion
1070
     0
  0
VISUALSTYLE
  5
B9DC
102
{ACAD_XDICTIONARY
360
BA38
102
}
102
{ACAD_REACTORS
330
B9D8
102
}
330
B9D8
100
AcDbVisualStyle
  2
GouraudWithEdges
 70
     3
 71
     2
 72
     2
 73
     1
 90
        2
 40
-0.6
 41
30.0
 62
     5
 63
     7
 74
     1
 91
        0
 64
     7
 65
   257
 75
     1
175
     1
 42
1.0
 92
        0
 66
   257
 43
1.0
 76
     1
 77
     6
 78
     2
 67
     7
 79
     5
170
     0
171
     0
290
     0
174
     0
 93
       13
 44
0.0
173
     0
291
     1
 45
0.0
1001
ACAD
1000
AcDbSavedByObjectVersion
1070
     0
  0
VISUALSTYLE
  5
B9E0
102
{ACAD_XDICTIONARY
360
BA40
102
}
102
{ACAD_REACTORS
330
B9D8
102
}
330
B9D8
100
AcDbVisualStyle
  2
Hidden
 70
     6
 71
     1
 72
     2
 73
     2
 90
        0
 40
-0.6
 41
-30.0
 62
     5
 63
     7
 74
     2
 91
        2
 64
     7
 65
   257
 75
     2
175
     1
 42
40.0
 92
        0
 66
   257
 43
1.0
 76
     1
 77
     6
 78
     2
 67
     7
 79
     3
170
     0
171
     0
290
     0
174
     0
 93
        1
 44
0.0
173
     0
291
     0
 45
0.0
1001
ACAD
1000
AcDbSavedByObjectVersion
1070
     0
  0
VISUALSTYLE
  5
B9EE
102
{ACAD_XDICTIONARY
360
BA5C
102
}
102
{ACAD_REACTORS
330
B9D8
102
}
330
B9D8
100
AcDbVisualStyle
  2
JitterOff
 70
    20
 71
     2
 72
     2
 73
     0
 90
        0
 40
-0.6
 41
-30.0
 62
     5
 63
     7
 74
     1
 91
        4
 64
     7
 65
   257
 75
     1
175
     1
 42
1.0
 92
       10
 66
     7
 43
1.0
 76
     1
 77
     6
 78
     2
 67
     7
 79
     5
170
     0
171
     0
290
     0
174
     0
 93
        1
 44
0.0
173
     0
291
     1
 45
0.0
1001
ACAD
1000
AcDbSavedByObjectVersion
1070
     0
  0
VISUALSTYLE
  5
B9E6
102
{ACAD_XDICTIONARY
360
BA4C
102
}
102
{ACAD_REACTORS
330
B9D8
102
}
330
B9D8
100
AcDbVisualStyle
  2
Linepattern
 70
    14
 71
     2
 72
     2
 73
     0
 90
        0
 40
-0.6
 41
-30.0
 62
     5
 63
     7
 74
     1
 91
        4
 64
     7
 65
   257
 75
     7
175
     7
 42
1.0
 92
        8
 66
     7
 43
1.0
 76
     1
 77
     6
 78
     2
 67
     7
 79
     5
170
     0
171
     0
290
     0
174
     0
 93
        1
 44
0.0
173
     0
291
     1
 45
0.0
1001
ACAD
1000
AcDbSavedByObjectVersion
1070
     0
  0
VISUALSTYLE
  5
B9EF
102
{ACAD_XDICTIONARY
360
BA5E
102
}
102
{ACAD_REACTORS
330
B9D8
102
}
330
B9D8
100
AcDbVisualStyle
  2
OverhangOff
 70
    21
 71
     2
 72
     2
 73
     0
 90
        0
 40
-0.6
 41
-30.0
 62
     5
 63
     7
 74
     1
 91
        4
 64
     7
 65
   257
 75
     1
175
     1
 42
1.0
 92
        9
 66
     7
 43
1.0
 76
     1
 77
     6
 78
     2
 67
     7
 79
     5
170
     0
171
     0
290
     0
174
     0
 93
        1
 44
0.0
173
     0
291
     1
 45
0.0
1001
ACAD
1000
AcDbSavedByObjectVersion
1070
     0
  0
VISUALSTYLE
  5
B9E2
102
{ACAD_XDICTIONARY
360
BA44
102
}
102
{ACAD_REACTORS
330
B9D8
102
}
330
B9D8
100
AcDbVisualStyle
  2
Realistic
 70
     8
 71
     2
 72
     3
 73
     0
 90
        2
 40
-0.6
 41
30.0
 62
     5
 63
     7
 74
     0
 91
        0
 64
     7
 65
   257
 75
     1
175
     1
 42
1.0
 92
        8
 66
   257
 43
1.0
 76
     1
 77
     6
 78
     2
 67
     7
 79
     3
170
     0
171
     0
290
     0
174
     0
 93
       13
 44
0.0
173
     0
291
     0
 45
0.0
1001
ACAD
1000
AcDbSavedByObjectVersion
1070
     0
  0
VISUALSTYLE
  5
B9ED
102
{ACAD_XDICTIONARY
360
BA5A
102
}
102
{ACAD_REACTORS
330
B9D8
102
}
330
B9D8
100
AcDbVisualStyle
  2
Shaded
 70
    27
 71
     2
 72
     2
 73
     1
 90
        2
 40
-0.6
 41
30.0
 62
     5
 63
     7
 74
     0
 91
        4
 64
     7
 65
   257
 75
     1
175
     1
 42
1.0
 92
        8
 66
   257
 43
1.0
 76
     1
 77
     6
 78
     2
 67
     8
 79
     3
170
     0
171
     0
290
     0
174
     0
 93
        5
 44
0.0
173
     0
291
     0
 45
0.0
1001
ACAD
1000
AcDbSavedByObjectVersion
1070
     0
  0
VISUALSTYLE
  5
B9EC
102
{ACAD_XDICTIONARY
360
BA58
102
}
102
{ACAD_REACTORS
330
B9D8
102
}
330
B9D8
100
AcDbVisualStyle
  2
Shaded with edges
 70
    26
 71
     2
 72
     2
 73
     1
 90
        2
 40
-0.6
 41
30.0
 62
     5
 63
     7
 74
     1
 91
       10
 64
     7
 65
   257
 75
     2
175
     1
 42
1.0
 92
        8
 66
   257
 43
1.0
 76
     1
 77
     6
 78
     2
 67
     7
 79
     3
170
     0
171
     0
290
     0
174
     0
 93
        5
 44
0.0
173
     0
291
     0
 45
0.0
1001
ACAD
1000
AcDbSavedByObjectVersion
1070
     0
  0
VISUALSTYLE
  5
B9E9
102
{ACAD_XDICTIONARY
360
BA52
102
}
102
{ACAD_REACTORS
330
B9D8
102
}
330
B9D8
100
AcDbVisualStyle
  2
Shades of Gray
 70
    23
 71
     2
 72
     2
 73
     3
 90
        0
 40
-0.6
 41
-30.0
 62
     5
 63
     7
 74
     2
 91
        2
 64
     7
 65
     7
 75
     1
175
     1
 42
40.0
 92
        8
 66
     7
 43
1.0
 76
     1
 77
     6
 78
     2
 67
     7
 79
     3
170
     0
171
     0
290
     0
174
     0
 93
        1
 44
0.0
173
     0
291
     0
 45
0.0
1001
ACAD
1000
AcDbSavedByObjectVersion
1070
     0
  0
VISUALSTYLE
  5
B9EA
102
{ACAD_XDICTIONARY
360
BA54
102
}
102
{ACAD_REACTORS
330
B9D8
102
}
330
B9D8
100
AcDbVisualStyle
  2
Sketchy
 70
    24
 71
     1
 72
     2
 73
     2
 90
        0
 40
-0.6
 41
-30.0
 62
     5
 63
     7
 74
     2
 91
        2
 64
     7
 65
     7
 75
     1
175
     1
 42
40.0
 92
       11
 66
     7
 43
1.0
 76
     1
 77
     6
 78
     2
 67
     7
 79
     6
170
     0
171
     0
290
     0
174
     0
 93
        1
 44
0.0
173
     0
291
     0
 45
0.0
1001
ACAD
1000
AcDbSavedByObjectVersion
1070
     0
  0
VISUALSTYLE
  5
B9E5
102
{ACAD_XDICTIONARY
360
BA4A
102
}
102
{ACAD_REACTORS
330
B9D8
102
}
330
B9D8
100
AcDbVisualStyle
  2
Thicken
 70
    13
 71
     2
 72
     2
 73
     0
 90
        0
 40
-0.6
 41
-30.0
 62
     5
 63
     7
 74
     1
 91
        4
 64
     7
 65
   257
 75
     1
175
     1
 42
1.0
 92
       12
 66
     7
 43
1.0
 76
     1
 77
     6
 78
     2
 67
     7
 79
     5
170
     0
171
     0
290
     0
174
     0
 93
        1
 44
0.0
173
     0
291
     1
 45
0.0
1001
ACAD
1000
AcDbSavedByObjectVersion
1070
     0
  0
VISUALSTYLE
  5
B9DF
102
{ACAD_XDICTIONARY
360
BA3E
102
}
102
{ACAD_REACTORS
330
B9D8
102
}
330
B9D8
100
AcDbVisualStyle
  2
Wireframe
 70
     5
 71
     0
 72
     2
 73
     0
 90
        0
 40
-0.6
 41
-30.0
 62
     5
 63
     7
 74
     1
 91
        4
 64
     7
 65
   257
 75
     1
175
     1
 42
1.0
 92
        0
 66
   257
 43
1.0
 76
     1
 77
     6
 78
     2
 67
     7
 79
     3
170
     0
171
     0
290
     0
174
     0
 93
        1
 44
0.0
173
     0
291
     0
 45
0.0
1001
ACAD
1000
AcDbSavedByObjectVersion
1070
     0
  0
VISUALSTYLE
  5
B9EB
102
{ACAD_XDICTIONARY
360
BA56
102
}
102
{ACAD_REACTORS
330
B9D8
102
}
330
B9D8
100
AcDbVisualStyle
  2
X-Ray
 70
    25
 71
     2
 72
     2
 73
     1
 90
        1
 40
0.5
 41
-30.0
 62
     5
 63
     7
 74
     1
 91
        0
 64
     7
 65
   257
 75
     1
175
     1
 42
1.0
 92
        8
 66
     7
 43
1.0
 76
     1
 77
     6
 78
     2
 67
     7
 79
     3
170
     0
171
     0
290
     0
174
     0
 93
       13
 44
0.0
173
     0
291
     0
 45
0.0
1001
ACAD
1000
AcDbSavedByObjectVersion
1070
     0
  0
DICTIONARYVAR
  5
BA25
102
{ACAD_REACTORS
330
BA20
102
}
330
BA20
100
DictionaryVariables
280
     0
  1
1:1
  0
DICTIONARYVAR
  5
BA22
102
{ACAD_REACTORS
330
BA20
102
}
330
BA20
100
DictionaryVariables
280
     0
  1
STANDARD
  0
DICTIONARYVAR
  5
BA21
102
{ACAD_REACTORS
330
BA20
102
}
330
BA20
100
DictionaryVariables
280
     0
  1
STANDARD
  0
DICTIONARYVAR
  5
BA23
102
{ACAD_REACTORS
330
BA20
102
}
330
BA20
100
DictionaryVariables
280
     0
  1
Imperial24
  0
DICTIONARYVAR
  5
BA24
102
{ACAD_REACTORS
330
BA20
102
}
330
BA20
100
DictionaryVariables
280
     0
  1
Imperial24
  0
DICTIONARYVAR
  5
BA28
102
{ACAD_REACTORS
330
BA20
102
}
330
BA20
100
DictionaryVariables
280
     0
  1
1
  0
DICTIONARYVAR
  5
BA27
102
{ACAD_REACTORS
330
BA20
102
}
330
BA20
100
DictionaryVariables
280
     0
  1
0
  0
DICTIONARYVAR
  5
BA26
102
{ACAD_REACTORS
330
BA20
102
}
330
BA20
100
DictionaryVariables
280
     0
  1
127
  0
DICTIONARYVAR
  5
BA29
102
{ACAD_REACTORS
330
BA20
102
}
330
BA20
100
DictionaryVariables
280
     0
  1
2
  0
DICTIONARY
  5
BA66
330
BA0B
100
AcDbDictionary
280
     1
281
     1
  3
ACAD_XREC_ROUNDTRIP
360
BA67
  0
DICTIONARY
  5
BA68
330
BA0C
100
AcDbDictionary
280
     1
281
     1
  3
ACAD_XREC_ROUNDTRIP
360
BA69
  0
DICTIONARY
  5
BA6A
330
BA0D
100
AcDbDictionary
280
     1
281
     1
  3
ACAD_XREC_ROUNDTRIP
360
BA6B
  0
DICTIONARY
  5
B9C9
330
B9C8
100
AcDbDictionary
280
     1
281
     1
  3
ACAD_XREC_ROUNDTRIP
360
BA30
  3
BUMPTILE
360
B9CB
  3
DIFFUSETILE
360
B9CA
  3
OPACITYTILE
360
B9CE
  3
REFLECTIONTILE
360
B9CD
  3
REFRACTIONTILE
360
B9CF
  3
SPECULARTILE
360
B9CC
  0
DICTIONARY
  5
B9C1
330
B9C0
100
AcDbDictionary
280
     1
281
     1
  3
ACAD_XREC_ROUNDTRIP
360
BA2F
  3
BUMPTILE
360
B9C3
  3
DIFFUSETILE
360
B9C2
  3
OPACITYTILE
360
B9C6
  3
REFLECTIONTILE
360
B9C5
  3
REFRACTIONTILE
360
B9C7
  3
SPECULARTILE
360
B9C4
  0
DICTIONARY
  5
B9D1
330
B9D0
100
AcDbDictionary
280
     1
281
     1
  3
ACAD_XREC_ROUNDTRIP
360
BA31
  3
BUMPTILE
360
B9D3
  3
DIFFUSETILE
360
B9D2
  3
OPACITYTILE
360
B9D6
  3
REFLECTIONTILE
360
B9D5
  3
REFRACTIONTILE
360
B9D7
  3
SPECULARTILE
360
B9D4
  0
DICTIONARY
  5
BA64
330
BA09
100
AcDbDictionary
280
     1
281
     1
  3
ACAD_XREC_ROUNDTRIP
360
BA65
  0
DICTIONARY
  5
BA2B
330
B9F3
100
AcDbDictionary
280
     1
281
     1
  3
ACAD_ROUNDTRIP_2008_TABLESTYLE_CELLSTYLEMAP
360
BA2C
  3
ACAD_XREC_ROUNDTRIP
360
BA62
  0
DICTIONARY
  5
BA3C
330
B9DE
100
AcDbDictionary
280
     1
281
     1
  3
ACAD_XREC_ROUNDTRIP
360
BA3D
  0
DICTIONARY
  5
BA3A
330
B9DD
100
AcDbDictionary
280
     1
281
     1
  3
ACAD_XREC_ROUNDTRIP
360
BA3B
  0
DICTIONARY
  5
BA48
330
B9E4
100
AcDbDictionary
280
     1
281
     1
  3
ACAD_XREC_ROUNDTRIP
360
BA49
  0
DICTIONARY
  5
BA50
330
B9E8
100
AcDbDictionary
280
     1
281
     1
  3
ACAD_XREC_ROUNDTRIP
360
BA51
  0
DICTIONARY
  5
BA42
330
B9E1
100
AcDbDictionary
280
     1
281
     1
  3
ACAD_XREC_ROUNDTRIP
360
BA43
  0
DICTIONARY
  5
BA46
330
B9E3
100
AcDbDictionary
280
     1
281
     1
  3
ACAD_XREC_ROUNDTRIP
360
BA47
  0
DICTIONARY
  5
BA60
330
B9F0
100
AcDbDictionary
280
     1
281
     1
  3
ACAD_XREC_ROUNDTRIP
360
BA61
  0
DICTIONARY
  5
BA4E
330
B9E7
100
AcDbDictionary
280
     1
281
     1
  3
ACAD_XREC_ROUNDTRIP
360
BA4F
  0
DICTIONARY
  5
BA32
330
B9D9
100
AcDbDictionary
280
     1
281
     1
  3
ACAD_XREC_ROUNDTRIP
360
BA33
  0
DICTIONARY
  5
BA34
330
B9DA
100
AcDbDictionary
280
     1
281
     1
  3
ACAD_XREC_ROUNDTRIP
360
BA35
  0
DICTIONARY
  5
BA36
330
B9DB
100
AcDbDictionary
280
     1
281
     1
  3
ACAD_XREC_ROUNDTRIP
360
BA37
  0
DICTIONARY
  5
BA38
330
B9DC
100
AcDbDictionary
280
     1
281
     1
  3
ACAD_XREC_ROUNDTRIP
360
BA39
  0
DICTIONARY
  5
BA40
330
B9E0
100
AcDbDictionary
280
     1
281
     1
  3
ACAD_XREC_ROUNDTRIP
360
BA41
  0
DICTIONARY
  5
BA5C
330
B9EE
100
AcDbDictionary
280
     1
281
     1
  3
ACAD_XREC_ROUNDTRIP
360
BA5D
  0
DICTIONARY
  5
BA4C
330
B9E6
100
AcDbDictionary
280
     1
281
     1
  3
ACAD_XREC_ROUNDTRIP
360
BA4D
  0
DICTIONARY
  5
BA5E
330
B9EF
100
AcDbDictionary
280
     1
281
     1
  3
ACAD_XREC_ROUNDTRIP
360
BA5F
  0
DICTIONARY
  5
BA44
330
B9E2
100
AcDbDictionary
280
     1
281
     1
  3
ACAD_XREC_ROUNDTRIP
360
BA45
  0
DICTIONARY
  5
BA5A
330
B9ED
100
AcDbDictionary
280
     1
281
     1
  3
ACAD_XREC_ROUNDTRIP
360
BA5B
  0
DICTIONARY
  5
BA58
330
B9EC
100
AcDbDictionary
280
     1
281
     1
  3
ACAD_XREC_ROUNDTRIP
360
BA59
  0
DICTIONARY
  5
BA52
330
B9E9
100
AcDbDictionary
280
     1
281
     1
  3
ACAD_XREC_ROUNDTRIP
360
BA53
  0
DICTIONARY
  5
BA54
330
B9EA
100
AcDbDictionary
280
     1
281
     1
  3
ACAD_XREC_ROUNDTRIP
360
BA55
  0
DICTIONARY
  5
BA4A
330
B9E5
100
AcDbDictionary
280
     1
281
     1
  3
ACAD_XREC_ROUNDTRIP
360
BA4B
  0
DICTIONARY
  5
BA3E
330
B9DF
100
AcDbDictionary
280
     1
281
     1
  3
ACAD_XREC_ROUNDTRIP
360
BA3F
  0
DICTIONARY
  5
BA56
330
B9EB
100
AcDbDictionary
280
     1
281
     1
  3
ACAD_XREC_ROUNDTRIP
360
BA57
  0
XRECORD
  5
BA67
102
{ACAD_REACTORS
330
BA66
102
}
330
BA66
100
AcDbXrecord
280
     1
102
DISPLAYNAME
  1
Imperial24
102
FLAGS
 90
        0
  0
XRECORD
  5
BA69
102
{ACAD_REACTORS
330
BA68
102
}
330
BA68
100
AcDbXrecord
280
     1
102
SHADEPLOT
 70
     0
102
SHADEPLOTRESLEVEL
 70
     2
102
SHADEPLOTCUSTOMDPI
 70
   300
  0
XRECORD
  5
BA6B
102
{ACAD_REACTORS
330
BA6A
102
}
330
BA6A
100
AcDbXrecord
280
     1
102
SHADEPLOT
 70
     0
102
SHADEPLOTRESLEVEL
 70
     2
102
SHADEPLOTCUSTOMDPI
 70
   300
  0
XRECORD
  5
BA30
102
{ACAD_REACTORS
330
B9C9
102
}
330
B9C9
100
AcDbXrecord
280
     1
102
MATERIAL
148
0.0
149
0.0
149
0.0
 93
        0
 94
      127
282
     0
 72
     0
 77
     0
171
     0
175
     0
179
     0
273
     0
  0
XRECORD
  5
B9CB
102
{ACAD_REACTORS
330
B9C9
102
}
330
B9C9
100
AcDbXrecord
280
     1
270
     1
271
     1
  0
XRECORD
  5
B9CA
102
{ACAD_REACTORS
330
B9C9
102
}
330
B9C9
100
AcDbXrecord
280
     1
270
     1
271
     1
  0
XRECORD
  5
B9CE
102
{ACAD_REACTORS
330
B9C9
102
}
330
B9C9
100
AcDbXrecord
280
     1
270
     1
271
     1
  0
XRECORD
  5
B9CD
102
{ACAD_REACTORS
330
B9C9
102
}
330
B9C9
100
AcDbXrecord
280
     1
270
     1
271
     1
  0
XRECORD
  5
B9CF
102
{ACAD_REACTORS
330
B9C9
102
}
330
B9C9
100
AcDbXrecord
280
     1
270
     1
271
     1
  0
XRECORD
  5
B9CC
102
{ACAD_REACTORS
330
B9C9
102
}
330
B9C9
100
AcDbXrecord
280
     1
270
     1
271
     1
  0
XRECORD
  5
BA2F
102
{ACAD_REACTORS
330
B9C1
102
}
330
B9C1
100
AcDbXrecord
280
     1
102
MATERIAL
148
0.0
149
0.0
149
0.0
 93
        0
 94
      127
282
     0
 72
     0
 77
     0
171
     0
175
     0
179
     0
273
     0
  0
XRECORD
  5
B9C3
102
{ACAD_REACTORS
330
B9C1
102
}
330
B9C1
100
AcDbXrecord
280
     1
270
     1
271
     1
  0
XRECORD
  5
B9C2
102
{ACAD_REACTORS
330
B9C1
102
}
330
B9C1
100
AcDbXrecord
280
     1
270
     1
271
     1
  0
XRECORD
  5
B9C6
102
{ACAD_REACTORS
330
B9C1
102
}
330
B9C1
100
AcDbXrecord
280
     1
270
     1
271
     1
  0
XRECORD
  5
B9C5
102
{ACAD_REACTORS
330
B9C1
102
}
330
B9C1
100
AcDbXrecord
280
     1
270
     1
271
     1
  0
XRECORD
  5
B9C7
102
{ACAD_REACTORS
330
B9C1
102
}
330
B9C1
100
AcDbXrecord
280
     1
270
     1
271
     1
  0
XRECORD
  5
B9C4
102
{ACAD_REACTORS
330
B9C1
102
}
330
B9C1
100
AcDbXrecord
280
     1
270
     1
271
     1
  0
XRECORD
  5
BA31
102
{ACAD_REACTORS
330
B9D1
102
}
330
B9D1
100
AcDbXrecord
280
     1
102
MATERIAL
148
0.0
149
0.0
149
0.0
 93
        0
 94
      127
282
     0
 72
     0
 77
     0
171
     0
175
     0
179
     0
273
     0
  0
XRECORD
  5
B9D3
102
{ACAD_REACTORS
330
B9D1
102
}
330
B9D1
100
AcDbXrecord
280
     1
270
     1
271
     1
  0
XRECORD
  5
B9D2
102
{ACAD_REACTORS
330
B9D1
102
}
330
B9D1
100
AcDbXrecord
280
     1
270
     1
271
     1
  0
XRECORD
  5
B9D6
102
{ACAD_REACTORS
330
B9D1
102
}
330
B9D1
100
AcDbXrecord
280
     1
270
     1
271
     1
  0
XRECORD
  5
B9D5
102
{ACAD_REACTORS
330
B9D1
102
}
330
B9D1
100
AcDbXrecord
280
     1
270
     1
271
     1
  0
XRECORD
  5
B9D7
102
{ACAD_REACTORS
330
B9D1
102
}
330
B9D1
100
AcDbXrecord
280
     1
270
     1
271
     1
  0
XRECORD
  5
B9D4
102
{ACAD_REACTORS
330
B9D1
102
}
330
B9D1
100
AcDbXrecord
280
     1
270
     1
271
     1
  0
XRECORD
  5
BA65
102
{ACAD_REACTORS
330
BA64
102
}
330
BA64
100
AcDbXrecord
280
     1
102
DISPLAYNAME
  1
Imperial24
102
FLAGS
 90
        0
  0
CELLSTYLEMAP
  5
BA2C
102
{ACAD_REACTORS
330
BA2B
102
}
330
BA2B
100
AcDbCellStyleMap
 90
        3
300
CELLSTYLE
  1
TABLEFORMAT_BEGIN
 90
        5
170
     1
 91
        0
 92
    32768
 62
   257
 93
        1
300
CONTENTFORMAT
  1
CONTENTFORMAT_BEGIN
 90
        0
 91
        0
 92
      512
 93
        0
300

 40
0.0
140
1.0
 94
        5
 62
     0
340
B7EB
144
0.25
309
CONTENTFORMAT_END
171
     0
 94
        0
309
TABLEFORMAT_END
  1
CELLSTYLE_BEGIN
 90
        1
 91
        1
300
_TITLE
309
CELLSTYLE_END
300
CELLSTYLE
  1
TABLEFORMAT_BEGIN
 90
        5
170
     1
 91
        0
 92
        0
 62
   257
 93
        1
300
CONTENTFORMAT
  1
CONTENTFORMAT_BEGIN
 90
        0
 91
        0
 92
      512
 93
        0
300

 40
0.0
140
1.0
 94
        5
 62
     0
340
B7EB
144
0.18
309
CONTENTFORMAT_END
171
     0
 94
        0
309
TABLEFORMAT_END
  1
CELLSTYLE_BEGIN
 90
        2
 91
        1
300
_HEADER
309
CELLSTYLE_END
300
CELLSTYLE
  1
TABLEFORMAT_BEGIN
 90
        5
170
     1
 91
        0
 92
        0
 62
   257
 93
        1
300
CONTENTFORMAT
  1
CONTENTFORMAT_BEGIN
 90
        0
 91
        0
 92
      512
 93
        0
300

 40
0.0
140
1.0
 94
        2
 62
     0
340
B7EB
144
0.18
309
CONTENTFORMAT_END
171
     0
 94
        0
309
TABLEFORMAT_END
  1
CELLSTYLE_BEGIN
 90
        3
 91
        2
300
_DATA
309
CELLSTYLE_END
  0
XRECORD
  5
BA62
102
{ACAD_REACTORS
330
BA2B
102
}
330
BA2B
100
AcDbXrecord
280
     1
102
ACAD_ROUNDTRIP_PRE2007_TABLESTYLE
 90
      512
 91
        0
  1

 92
      512
 93
        0
  2

 94
      512
 95
        0
  3

  0
XRECORD
  5
BA3D
102
{ACAD_REACTORS
330
BA3C
102
}
330
BA3C
100
AcDbXrecord
280
     1
102
RTVSPost2010Prop28
280
     1
102
RTVSPost2010PropOp28
 70
     1
102
RTVSPost2010Prop29
280
     1
102
RTVSPost2010PropOp29
 70
     1
102
RTVSPost2010Prop30
280
     0
102
RTVSPost2010PropOp30
 70
     1
102
RTVSPost2010Prop31
280
     0
102
RTVSPost2010PropOp31
 70
     1
102
RTVSPost2010Prop32
280
     0
102
RTVSPost2010PropOp32
 70
     1
102
RTVSPost2010Prop33
280
     0
102
RTVSPost2010PropOp33
 70
     1
102
RTVSPost2010Prop34
280
     0
102
RTVSPost2010PropOp34
 70
     1
102
RTVSPost2010Prop35
280
     0
102
RTVSPost2010PropOp35
 70
     1
102
RTVSPost2010Prop36
280
     0
102
RTVSPost2010PropOp36
 70
     1
102
RTVSPost2010Prop37
 90
       50
102
RTVSPost2010PropOp37
 70
     1
102
RTVSPost2010Prop38
140
0.0
102
RTVSPost2010PropOp38
 70
     1
102
RTVSPost2010Prop39
140
1.0
102
RTVSPost2010PropOp39
 70
     1
102
RTVSPost2010Prop40
 90
        0
102
RTVSPost2010PropOp40
 70
     1
102
RTVSPost2010Prop41ColorIndex
 90
       18
102
RTVSPost2010Prop41ColorRGB
 90
        0
102
RTVSPost2010PropOp41
 70
     1
102
RTVSPost2010Prop42
 90
       50
102
RTVSPost2010PropOp42
 70
     1
102
RTVSPost2010Prop43
 90
        3
102
RTVSPost2010PropOp43
 70
     1
102
RTVSPost2010Prop44ColorIndex
 90
        5
102
RTVSPost2010Prop44ColorRGB
 90
      255
102
RTVSPost2010PropOp44
 70
     1
102
RTVSPost2010Prop45
280
     0
102
RTVSPost2010PropOp45
 70
     1
102
RTVSPost2010Prop46
 90
       50
102
RTVSPost2010PropOp46
 70
     1
102
RTVSPost2010Prop47
 90
       50
102
RTVSPost2010PropOp47
 70
     1
102
RTVSPost2010Prop48
 90
       50
102
RTVSPost2010PropOp48
 70
     1
102
RTVSPost2010Prop49
280
     0
102
RTVSPost2010PropOp49
 70
     1
102
RTVSPost2010Prop50
 90
       50
102
RTVSPost2010PropOp50
 70
     1
102
RTVSPost2010Prop51ColorIndex
 90
      256
102
RTVSPost2010Prop51ColorRGB
 90
-16777216
102
RTVSPost2010PropOp51
 70
     0
102
RTVSPost2010Prop52
140
1.0
102
RTVSPost2010PropOp52
 70
     0
102
RTVSPost2010Prop53
 90
        2
102
RTVSPost2010PropOp53
 70
     1
102
RTVSPost2010Prop54
  1
strokes_ogs.tif
102
RTVSPost2010PropOp54
 70
     1
102
RTVSPost2010Prop55
280
     0
102
RTVSPost2010PropOp55
 70
     1
102
RTVSPost2010Prop56
140
1.0
102
RTVSPost2010PropOp56
 70
     1
102
RTVSPost2010Prop57
140
1.0
102
RTVSPost2010PropOp57
 70
     1
102
RTVSPropertyOp0
 70
     1
102
RTVSPropertyOp1
 70
     1
102
RTVSPropertyOp2
 70
     1
102
RTVSPropertyOp3
 70
     1
102
RTVSPropertyOp4
 70
     1
102
RTVSPropertyOp5
 70
     1
102
RTVSPropertyOp6
 70
     1
102
RTVSPropertyOp7
 70
     1
102
RTVSPropertyOp8
 70
     1
102
RTVSPropertyOp9
 70
     1
102
RTVSPropertyOp10
 70
     1
102
RTVSPropertyOp11
 70
     1
102
RTVSPropertyOp12
 70
     1
102
RTVSPropertyOp13
 70
     1
102
RTVSPropertyOp14
 70
     1
102
RTVSPropertyOp15
 70
     1
102
RTVSPropertyOp16
 70
     1
102
RTVSPropertyOp17
 70
     1
102
RTVSPropertyOp18
 70
     1
102
RTVSPropertyOp19
 70
     1
102
RTVSPropertyOp20
 70
     1
102
RTVSPropertyOp21
 70
     1
102
RTVSPropertyOp22
 70
     1
102
RTVSPropertyOp23
 70
     1
102
RTVSPropertyOp24
 70
     1
102
RTVSPropertyOp25
 70
     1
102
RTVSPropertyOp26
 70
     1
102
RTVSPropertyOp27
 70
     1
102
RTVSPropertyOp28
 70
     1
102
RTVSPropertyOp29
 70
     1
102
RTVSPropertyOp30
 70
     1
102
RTVSPropertyOp31
 70
     1
102
RTVSPropertyOp32
 70
     1
102
RTVSPropertyOp33
 70
     1
102
RTVSPropertyOp34
 70
     1
102
RTVSPropertyOp35
 70
     1
102
RTVSPropertyOp36
 70
     1
102
RTVSPropertyOp37
 70
     1
102
RTVSPropertyOp38
 70
     1
102
RTVSPropertyOp39
 70
     1
102
RTVSPropertyOp40
 70
     1
102
RTVSPropertyOp41
 70
     1
102
RTVSPropertyOp42
 70
     1
102
RTVSPropertyOp43
 70
     1
102
RTVSPropertyOp44
 70
     1
102
RTVSPropertyOp45
 70
     1
102
RTVSPropertyOp46
 70
     1
102
RTVSPropertyOp47
 70
     1
102
RTVSPropertyOp48
 70
     1
102
RTVSPropertyOp49
 70
     1
102
RTVSPropertyOp50
 70
     1
102
RTVSPropertyOp51
 70
     0
102
RTVSPropertyOp52
 70
     0
102
RTVSPropertyOp53
 70
     1
102
RTVSPropertyOp54
 70
     1
102
RTVSPropertyOp55
 70
     1
102
RTVSPropertyOp56
 70
     1
102
RTVSPropertyOp57
 70
     1
102
RTVSPropertyOp58
 70
     1
102
RTVSPropertyOp59
 70
     1
102
RTVSPropertyOp60
 70
     1
102
RTVSPropertyOp61
 70
     1
102
RTVSPropertyOp62
 70
     1
  0
XRECORD
  5
BA3B
102
{ACAD_REACTORS
330
BA3A
102
}
330
BA3A
100
AcDbXrecord
280
     1
102
RTVSPost2010Prop28
280
     0
102
RTVSPost2010PropOp28
 70
     1
102
RTVSPost2010Prop29
280
     1
102
RTVSPost2010PropOp29
 70
     1
102
RTVSPost2010Prop30
280
     1
102
RTVSPost2010PropOp30
 70
     1
102
RTVSPost2010Prop31
280
     0
102
RTVSPost2010PropOp31
 70
     1
102
RTVSPost2010Prop32
280
     0
102
RTVSPost2010PropOp32
 70
     1
102
RTVSPost2010Prop33
280
     0
102
RTVSPost2010PropOp33
 70
     1
102
RTVSPost2010Prop34
280
     0
102
RTVSPost2010PropOp34
 70
     1
102
RTVSPost2010Prop35
280
     0
102
RTVSPost2010PropOp35
 70
     1
102
RTVSPost2010Prop36
280
     0
102
RTVSPost2010PropOp36
 70
     1
102
RTVSPost2010Prop37
 90
       50
102
RTVSPost2010PropOp37
 70
     1
102
RTVSPost2010Prop38
140
0.0
102
RTVSPost2010PropOp38
 70
     1
102
RTVSPost2010Prop39
140
1.0
102
RTVSPost2010PropOp39
 70
     1
102
RTVSPost2010Prop40
 90
        0
102
RTVSPost2010PropOp40
 70
     1
102
RTVSPost2010Prop41ColorIndex
 90
       18
102
RTVSPost2010Prop41ColorRGB
 90
        0
102
RTVSPost2010PropOp41
 70
     1
102
RTVSPost2010Prop42
 90
       50
102
RTVSPost2010PropOp42
 70
     1
102
RTVSPost2010Prop43
 90
        3
102
RTVSPost2010PropOp43
 70
     1
102
RTVSPost2010Prop44ColorIndex
 90
        5
102
RTVSPost2010Prop44ColorRGB
 90
      255
102
RTVSPost2010PropOp44
 70
     1
102
RTVSPost2010Prop45
280
     0
102
RTVSPost2010PropOp45
 70
     1
102
RTVSPost2010Prop46
 90
       50
102
RTVSPost2010PropOp46
 70
     1
102
RTVSPost2010Prop47
 90
       50
102
RTVSPost2010PropOp47
 70
     1
102
RTVSPost2010Prop48
 90
       50
102
RTVSPost2010PropOp48
 70
     1
102
RTVSPost2010Prop49
280
     0
102
RTVSPost2010PropOp49
 70
     1
102
RTVSPost2010Prop50
 90
       50
102
RTVSPost2010PropOp50
 70
     1
102
RTVSPost2010Prop51ColorIndex
 90
      256
102
RTVSPost2010Prop51ColorRGB
 90
-16777216
102
RTVSPost2010PropOp51
 70
     0
102
RTVSPost2010Prop52
140
1.0
102
RTVSPost2010PropOp52
 70
     0
102
RTVSPost2010Prop53
 90
        2
102
RTVSPost2010PropOp53
 70
     1
102
RTVSPost2010Prop54
  1
strokes_ogs.tif
102
RTVSPost2010PropOp54
 70
     1
102
RTVSPost2010Prop55
280
     0
102
RTVSPost2010PropOp55
 70
     1
102
RTVSPost2010Prop56
140
1.0
102
RTVSPost2010PropOp56
 70
     1
102
RTVSPost2010Prop57
140
1.0
102
RTVSPost2010PropOp57
 70
     1
102
RTVSPropertyOp0
 70
     1
102
RTVSPropertyOp1
 70
     1
102
RTVSPropertyOp2
 70
     1
102
RTVSPropertyOp3
 70
     1
102
RTVSPropertyOp4
 70
     1
102
RTVSPropertyOp5
 70
     1
102
RTVSPropertyOp6
 70
     1
102
RTVSPropertyOp7
 70
     1
102
RTVSPropertyOp8
 70
     1
102
RTVSPropertyOp9
 70
     1
102
RTVSPropertyOp10
 70
     1
102
RTVSPropertyOp11
 70
     1
102
RTVSPropertyOp12
 70
     1
102
RTVSPropertyOp13
 70
     1
102
RTVSPropertyOp14
 70
     1
102
RTVSPropertyOp15
 70
     1
102
RTVSPropertyOp16
 70
     1
102
RTVSPropertyOp17
 70
     1
102
RTVSPropertyOp18
 70
     1
102
RTVSPropertyOp19
 70
     1
102
RTVSPropertyOp20
 70
     1
102
RTVSPropertyOp21
 70
     1
102
RTVSPropertyOp22
 70
     1
102
RTVSPropertyOp23
 70
     1
102
RTVSPropertyOp24
 70
     1
102
RTVSPropertyOp25
 70
     1
102
RTVSPropertyOp26
 70
     1
102
RTVSPropertyOp27
 70
     1
102
RTVSPropertyOp28
 70
     1
102
RTVSPropertyOp29
 70
     1
102
RTVSPropertyOp30
 70
     1
102
RTVSPropertyOp31
 70
     1
102
RTVSPropertyOp32
 70
     1
102
RTVSPropertyOp33
 70
     1
102
RTVSPropertyOp34
 70
     1
102
RTVSPropertyOp35
 70
     1
102
RTVSPropertyOp36
 70
     1
102
RTVSPropertyOp37
 70
     1
102
RTVSPropertyOp38
 70
     1
102
RTVSPropertyOp39
 70
     1
102
RTVSPropertyOp40
 70
     1
102
RTVSPropertyOp41
 70
     1
102
RTVSPropertyOp42
 70
     1
102
RTVSPropertyOp43
 70
     1
102
RTVSPropertyOp44
 70
     1
102
RTVSPropertyOp45
 70
     1
102
RTVSPropertyOp46
 70
     1
102
RTVSPropertyOp47
 70
     1
102
RTVSPropertyOp48
 70
     1
102
RTVSPropertyOp49
 70
     1
102
RTVSPropertyOp50
 70
     1
102
RTVSPropertyOp51
 70
     0
102
RTVSPropertyOp52
 70
     0
102
RTVSPropertyOp53
 70
     1
102
RTVSPropertyOp54
 70
     1
102
RTVSPropertyOp55
 70
     1
102
RTVSPropertyOp56
 70
     1
102
RTVSPropertyOp57
 70
     1
102
RTVSPropertyOp58
 70
     1
102
RTVSPropertyOp59
 70
     1
102
RTVSPropertyOp60
 70
     1
102
RTVSPropertyOp61
 70
     1
102
RTVSPropertyOp62
 70
     1
  0
XRECORD
  5
BA49
102
{ACAD_REACTORS
330
BA48
102
}
330
BA48
100
AcDbXrecord
280
     1
102
RTVSPost2010Prop28
280
     0
102
RTVSPost2010PropOp28
 70
     1
102
RTVSPost2010Prop29
280
     1
102
RTVSPost2010PropOp29
 70
     1
102
RTVSPost2010Prop30
280
     1
102
RTVSPost2010PropOp30
 70
     1
102
RTVSPost2010Prop31
280
     0
102
RTVSPost2010PropOp31
 70
     1
102
RTVSPost2010Prop32
280
     0
102
RTVSPost2010PropOp32
 70
     1
102
RTVSPost2010Prop33
280
     0
102
RTVSPost2010PropOp33
 70
     1
102
RTVSPost2010Prop34
280
     0
102
RTVSPost2010PropOp34
 70
     1
102
RTVSPost2010Prop35
280
     0
102
RTVSPost2010PropOp35
 70
     1
102
RTVSPost2010Prop36
280
     0
102
RTVSPost2010PropOp36
 70
     1
102
RTVSPost2010Prop37
 90
       50
102
RTVSPost2010PropOp37
 70
     1
102
RTVSPost2010Prop38
140
0.0
102
RTVSPost2010PropOp38
 70
     1
102
RTVSPost2010Prop39
140
1.0
102
RTVSPost2010PropOp39
 70
     1
102
RTVSPost2010Prop40
 90
        0
102
RTVSPost2010PropOp40
 70
     1
102
RTVSPost2010Prop41ColorIndex
 90
       18
102
RTVSPost2010Prop41ColorRGB
 90
        0
102
RTVSPost2010PropOp41
 70
     1
102
RTVSPost2010Prop42
 90
       50
102
RTVSPost2010PropOp42
 70
     1
102
RTVSPost2010Prop43
 90
        3
102
RTVSPost2010PropOp43
 70
     1
102
RTVSPost2010Prop44ColorIndex
 90
        5
102
RTVSPost2010Prop44ColorRGB
 90
      255
102
RTVSPost2010PropOp44
 70
     1
102
RTVSPost2010Prop45
280
     0
102
RTVSPost2010PropOp45
 70
     1
102
RTVSPost2010Prop46
 90
       50
102
RTVSPost2010PropOp46
 70
     1
102
RTVSPost2010Prop47
 90
       50
102
RTVSPost2010PropOp47
 70
     1
102
RTVSPost2010Prop48
 90
       50
102
RTVSPost2010PropOp48
 70
     1
102
RTVSPost2010Prop49
280
     0
102
RTVSPost2010PropOp49
 70
     1
102
RTVSPost2010Prop50
 90
       50
102
RTVSPost2010PropOp50
 70
     1
102
RTVSPost2010Prop51ColorIndex
 90
      256
102
RTVSPost2010Prop51ColorRGB
 90
-16777216
102
RTVSPost2010PropOp51
 70
     0
102
RTVSPost2010Prop52
140
1.0
102
RTVSPost2010PropOp52
 70
     0
102
RTVSPost2010Prop53
 90
        2
102
RTVSPost2010PropOp53
 70
     1
102
RTVSPost2010Prop54
  1
strokes_ogs.tif
102
RTVSPost2010PropOp54
 70
     1
102
RTVSPost2010Prop55
280
     0
102
RTVSPost2010PropOp55
 70
     1
102
RTVSPost2010Prop56
140
1.0
102
RTVSPost2010PropOp56
 70
     1
102
RTVSPost2010Prop57
140
1.0
102
RTVSPost2010PropOp57
 70
     1
102
RTVSPropertyOp0
 70
     1
102
RTVSPropertyOp1
 70
     1
102
RTVSPropertyOp2
 70
     1
102
RTVSPropertyOp3
 70
     1
102
RTVSPropertyOp4
 70
     1
102
RTVSPropertyOp5
 70
     1
102
RTVSPropertyOp6
 70
     1
102
RTVSPropertyOp7
 70
     1
102
RTVSPropertyOp8
 70
     1
102
RTVSPropertyOp9
 70
     1
102
RTVSPropertyOp10
 70
     1
102
RTVSPropertyOp11
 70
     1
102
RTVSPropertyOp12
 70
     1
102
RTVSPropertyOp13
 70
     1
102
RTVSPropertyOp14
 70
     1
102
RTVSPropertyOp15
 70
     1
102
RTVSPropertyOp16
 70
     1
102
RTVSPropertyOp17
 70
     1
102
RTVSPropertyOp18
 70
     1
102
RTVSPropertyOp19
 70
     1
102
RTVSPropertyOp20
 70
     1
102
RTVSPropertyOp21
 70
     1
102
RTVSPropertyOp22
 70
     1
102
RTVSPropertyOp23
 70
     1
102
RTVSPropertyOp24
 70
     1
102
RTVSPropertyOp25
 70
     1
102
RTVSPropertyOp26
 70
     1
102
RTVSPropertyOp27
 70
     1
102
RTVSPropertyOp28
 70
     1
102
RTVSPropertyOp29
 70
     1
102
RTVSPropertyOp30
 70
     1
102
RTVSPropertyOp31
 70
     1
102
RTVSPropertyOp32
 70
     1
102
RTVSPropertyOp33
 70
     1
102
RTVSPropertyOp34
 70
     1
102
RTVSPropertyOp35
 70
     1
102
RTVSPropertyOp36
 70
     1
102
RTVSPropertyOp37
 70
     1
102
RTVSPropertyOp38
 70
     1
102
RTVSPropertyOp39
 70
     1
102
RTVSPropertyOp40
 70
     1
102
RTVSPropertyOp41
 70
     1
102
RTVSPropertyOp42
 70
     1
102
RTVSPropertyOp43
 70
     1
102
RTVSPropertyOp44
 70
     1
102
RTVSPropertyOp45
 70
     1
102
RTVSPropertyOp46
 70
     1
102
RTVSPropertyOp47
 70
     1
102
RTVSPropertyOp48
 70
     1
102
RTVSPropertyOp49
 70
     1
102
RTVSPropertyOp50
 70
     1
102
RTVSPropertyOp51
 70
     0
102
RTVSPropertyOp52
 70
     0
102
RTVSPropertyOp53
 70
     1
102
RTVSPropertyOp54
 70
     1
102
RTVSPropertyOp55
 70
     1
102
RTVSPropertyOp56
 70
     1
102
RTVSPropertyOp57
 70
     1
102
RTVSPropertyOp58
 70
     1
102
RTVSPropertyOp59
 70
     1
102
RTVSPropertyOp60
 70
     1
102
RTVSPropertyOp61
 70
     1
102
RTVSPropertyOp62
 70
     1
  0
XRECORD
  5
BA51
102
{ACAD_REACTORS
330
BA50
102
}
330
BA50
100
AcDbXrecord
280
     1
102
RTVSPost2010Prop28
280
     0
102
RTVSPost2010PropOp28
 70
     1
102
RTVSPost2010Prop29
280
     1
102
RTVSPost2010PropOp29
 70
     1
102
RTVSPost2010Prop30
280
     1
102
RTVSPost2010PropOp30
 70
     1
102
RTVSPost2010Prop31
280
     0
102
RTVSPost2010PropOp31
 70
     1
102
RTVSPost2010Prop32
280
     0
102
RTVSPost2010PropOp32
 70
     1
102
RTVSPost2010Prop33
280
     0
102
RTVSPost2010PropOp33
 70
     1
102
RTVSPost2010Prop34
280
     0
102
RTVSPost2010PropOp34
 70
     1
102
RTVSPost2010Prop35
280
     0
102
RTVSPost2010PropOp35
 70
     1
102
RTVSPost2010Prop36
280
     0
102
RTVSPost2010PropOp36
 70
     1
102
RTVSPost2010Prop37
 90
       50
102
RTVSPost2010PropOp37
 70
     1
102
RTVSPost2010Prop38
140
0.0
102
RTVSPost2010PropOp38
 70
     1
102
RTVSPost2010Prop39
140
1.0
102
RTVSPost2010PropOp39
 70
     1
102
RTVSPost2010Prop40
 90
        0
102
RTVSPost2010PropOp40
 70
     1
102
RTVSPost2010Prop41ColorIndex
 90
       18
102
RTVSPost2010Prop41ColorRGB
 90
        0
102
RTVSPost2010PropOp41
 70
     1
102
RTVSPost2010Prop42
 90
       50
102
RTVSPost2010PropOp42
 70
     1
102
RTVSPost2010Prop43
 90
        3
102
RTVSPost2010PropOp43
 70
     1
102
RTVSPost2010Prop44ColorIndex
 90
        5
102
RTVSPost2010Prop44ColorRGB
 90
      255
102
RTVSPost2010PropOp44
 70
     1
102
RTVSPost2010Prop45
280
     0
102
RTVSPost2010PropOp45
 70
     1
102
RTVSPost2010Prop46
 90
       50
102
RTVSPost2010PropOp46
 70
     1
102
RTVSPost2010Prop47
 90
       50
102
RTVSPost2010PropOp47
 70
     1
102
RTVSPost2010Prop48
 90
       50
102
RTVSPost2010PropOp48
 70
     1
102
RTVSPost2010Prop49
280
     0
102
RTVSPost2010PropOp49
 70
     1
102
RTVSPost2010Prop50
 90
       50
102
RTVSPost2010PropOp50
 70
     1
102
RTVSPost2010Prop51ColorIndex
 90
      256
102
RTVSPost2010Prop51ColorRGB
 90
-16777216
102
RTVSPost2010PropOp51
 70
     0
102
RTVSPost2010Prop52
140
1.0
102
RTVSPost2010PropOp52
 70
     0
102
RTVSPost2010Prop53
 90
        2
102
RTVSPost2010PropOp53
 70
     1
102
RTVSPost2010Prop54
  1
strokes_ogs.tif
102
RTVSPost2010PropOp54
 70
     1
102
RTVSPost2010Prop55
280
     0
102
RTVSPost2010PropOp55
 70
     1
102
RTVSPost2010Prop56
140
1.0
102
RTVSPost2010PropOp56
 70
     1
102
RTVSPost2010Prop57
140
1.0
102
RTVSPost2010PropOp57
 70
     1
102
RTVSPropertyOp0
 70
     1
102
RTVSPropertyOp1
 70
     1
102
RTVSPropertyOp2
 70
     1
102
RTVSPropertyOp3
 70
     1
102
RTVSPropertyOp4
 70
     1
102
RTVSPropertyOp5
 70
     1
102
RTVSPropertyOp6
 70
     1
102
RTVSPropertyOp7
 70
     1
102
RTVSPropertyOp8
 70
     1
102
RTVSPropertyOp9
 70
     1
102
RTVSPropertyOp10
 70
     1
102
RTVSPropertyOp11
 70
     1
102
RTVSPropertyOp12
 70
     1
102
RTVSPropertyOp13
 70
     1
102
RTVSPropertyOp14
 70
     1
102
RTVSPropertyOp15
 70
     1
102
RTVSPropertyOp16
 70
     1
102
RTVSPropertyOp17
 70
     1
102
RTVSPropertyOp18
 70
     1
102
RTVSPropertyOp19
 70
     1
102
RTVSPropertyOp20
 70
     1
102
RTVSPropertyOp21
 70
     1
102
RTVSPropertyOp22
 70
     1
102
RTVSPropertyOp23
 70
     1
102
RTVSPropertyOp24
 70
     1
102
RTVSPropertyOp25
 70
     1
102
RTVSPropertyOp26
 70
     1
102
RTVSPropertyOp27
 70
     1
102
RTVSPropertyOp28
 70
     1
102
RTVSPropertyOp29
 70
     1
102
RTVSPropertyOp30
 70
     1
102
RTVSPropertyOp31
 70
     1
102
RTVSPropertyOp32
 70
     1
102
RTVSPropertyOp33
 70
     1
102
RTVSPropertyOp34
 70
     1
102
RTVSPropertyOp35
 70
     1
102
RTVSPropertyOp36
 70
     1
102
RTVSPropertyOp37
 70
     1
102
RTVSPropertyOp38
 70
     1
102
RTVSPropertyOp39
 70
     1
102
RTVSPropertyOp40
 70
     1
102
RTVSPropertyOp41
 70
     1
102
RTVSPropertyOp42
 70
     1
102
RTVSPropertyOp43
 70
     1
102
RTVSPropertyOp44
 70
     1
102
RTVSPropertyOp45
 70
     1
102
RTVSPropertyOp46
 70
     1
102
RTVSPropertyOp47
 70
     1
102
RTVSPropertyOp48
 70
     1
102
RTVSPropertyOp49
 70
     1
102
RTVSPropertyOp50
 70
     1
102
RTVSPropertyOp51
 70
     0
102
RTVSPropertyOp52
 70
     0
102
RTVSPropertyOp53
 70
     1
102
RTVSPropertyOp54
 70
     1
102
RTVSPropertyOp55
 70
     1
102
RTVSPropertyOp56
 70
     1
102
RTVSPropertyOp57
 70
     1
102
RTVSPropertyOp58
 70
     1
102
RTVSPropertyOp59
 70
     1
102
RTVSPropertyOp60
 70
     1
102
RTVSPropertyOp61
 70
     1
102
RTVSPropertyOp62
 70
     1
  0
XRECORD
  5
BA43
102
{ACAD_REACTORS
330
BA42
102
}
330
BA42
100
AcDbXrecord
280
     1
102
RTVSPost2010Prop28
280
     0
102
RTVSPost2010PropOp28
 70
     1
102
RTVSPost2010Prop29
280
     1
102
RTVSPost2010PropOp29
 70
     1
102
RTVSPost2010Prop30
280
     1
102
RTVSPost2010PropOp30
 70
     1
102
RTVSPost2010Prop31
280
     0
102
RTVSPost2010PropOp31
 70
     1
102
RTVSPost2010Prop32
280
     0
102
RTVSPost2010PropOp32
 70
     1
102
RTVSPost2010Prop33
280
     0
102
RTVSPost2010PropOp33
 70
     1
102
RTVSPost2010Prop34
280
     0
102
RTVSPost2010PropOp34
 70
     1
102
RTVSPost2010Prop35
280
     0
102
RTVSPost2010PropOp35
 70
     1
102
RTVSPost2010Prop36
280
     0
102
RTVSPost2010PropOp36
 70
     1
102
RTVSPost2010Prop37
 90
       50
102
RTVSPost2010PropOp37
 70
     1
102
RTVSPost2010Prop38
140
0.0
102
RTVSPost2010PropOp38
 70
     1
102
RTVSPost2010Prop39
140
1.0
102
RTVSPost2010PropOp39
 70
     1
102
RTVSPost2010Prop40
 90
        0
102
RTVSPost2010PropOp40
 70
     1
102
RTVSPost2010Prop41ColorIndex
 90
       18
102
RTVSPost2010Prop41ColorRGB
 90
        0
102
RTVSPost2010PropOp41
 70
     1
102
RTVSPost2010Prop42
 90
       50
102
RTVSPost2010PropOp42
 70
     1
102
RTVSPost2010Prop43
 90
        3
102
RTVSPost2010PropOp43
 70
     1
102
RTVSPost2010Prop44ColorIndex
 90
        5
102
RTVSPost2010Prop44ColorRGB
 90
      255
102
RTVSPost2010PropOp44
 70
     1
102
RTVSPost2010Prop45
280
     0
102
RTVSPost2010PropOp45
 70
     1
102
RTVSPost2010Prop46
 90
       50
102
RTVSPost2010PropOp46
 70
     1
102
RTVSPost2010Prop47
 90
       50
102
RTVSPost2010PropOp47
 70
     1
102
RTVSPost2010Prop48
 90
       50
102
RTVSPost2010PropOp48
 70
     1
102
RTVSPost2010Prop49
280
     0
102
RTVSPost2010PropOp49
 70
     1
102
RTVSPost2010Prop50
 90
       50
102
RTVSPost2010PropOp50
 70
     1
102
RTVSPost2010Prop51ColorIndex
 90
      256
102
RTVSPost2010Prop51ColorRGB
 90
-16777216
102
RTVSPost2010PropOp51
 70
     0
102
RTVSPost2010Prop52
140
1.0
102
RTVSPost2010PropOp52
 70
     0
102
RTVSPost2010Prop53
 90
        2
102
RTVSPost2010PropOp53
 70
     1
102
RTVSPost2010Prop54
  1
strokes_ogs.tif
102
RTVSPost2010PropOp54
 70
     1
102
RTVSPost2010Prop55
280
     0
102
RTVSPost2010PropOp55
 70
     1
102
RTVSPost2010Prop56
140
1.0
102
RTVSPost2010PropOp56
 70
     1
102
RTVSPost2010Prop57
140
1.0
102
RTVSPost2010PropOp57
 70
     1
102
RTVSPropertyOp0
 70
     1
102
RTVSPropertyOp1
 70
     1
102
RTVSPropertyOp2
 70
     1
102
RTVSPropertyOp3
 70
     1
102
RTVSPropertyOp4
 70
     1
102
RTVSPropertyOp5
 70
     1
102
RTVSPropertyOp6
 70
     1
102
RTVSPropertyOp7
 70
     1
102
RTVSPropertyOp8
 70
     1
102
RTVSPropertyOp9
 70
     1
102
RTVSPropertyOp10
 70
     1
102
RTVSPropertyOp11
 70
     1
102
RTVSPropertyOp12
 70
     1
102
RTVSPropertyOp13
 70
     1
102
RTVSPropertyOp14
 70
     1
102
RTVSPropertyOp15
 70
     1
102
RTVSPropertyOp16
 70
     1
102
RTVSPropertyOp17
 70
     1
102
RTVSPropertyOp18
 70
     1
102
RTVSPropertyOp19
 70
     1
102
RTVSPropertyOp20
 70
     1
102
RTVSPropertyOp21
 70
     1
102
RTVSPropertyOp22
 70
     1
102
RTVSPropertyOp23
 70
     1
102
RTVSPropertyOp24
 70
     1
102
RTVSPropertyOp25
 70
     1
102
RTVSPropertyOp26
 70
     1
102
RTVSPropertyOp27
 70
     1
102
RTVSPropertyOp28
 70
     1
102
RTVSPropertyOp29
 70
     1
102
RTVSPropertyOp30
 70
     1
102
RTVSPropertyOp31
 70
     1
102
RTVSPropertyOp32
 70
     1
102
RTVSPropertyOp33
 70
     1
102
RTVSPropertyOp34
 70
     1
102
RTVSPropertyOp35
 70
     1
102
RTVSPropertyOp36
 70
     1
102
RTVSPropertyOp37
 70
     1
102
RTVSPropertyOp38
 70
     1
102
RTVSPropertyOp39
 70
     1
102
RTVSPropertyOp40
 70
     1
102
RTVSPropertyOp41
 70
     1
102
RTVSPropertyOp42
 70
     1
102
RTVSPropertyOp43
 70
     1
102
RTVSPropertyOp44
 70
     1
102
RTVSPropertyOp45
 70
     1
102
RTVSPropertyOp46
 70
     1
102
RTVSPropertyOp47
 70
     1
102
RTVSPropertyOp48
 70
     1
102
RTVSPropertyOp49
 70
     1
102
RTVSPropertyOp50
 70
     1
102
RTVSPropertyOp51
 70
     0
102
RTVSPropertyOp52
 70
     0
102
RTVSPropertyOp53
 70
     1
102
RTVSPropertyOp54
 70
     1
102
RTVSPropertyOp55
 70
     1
102
RTVSPropertyOp56
 70
     1
102
RTVSPropertyOp57
 70
     1
102
RTVSPropertyOp58
 70
     1
102
RTVSPropertyOp59
 70
     1
102
RTVSPropertyOp60
 70
     1
102
RTVSPropertyOp61
 70
     1
102
RTVSPropertyOp62
 70
     1
  0
XRECORD
  5
BA47
102
{ACAD_REACTORS
330
BA46
102
}
330
BA46
100
AcDbXrecord
280
     1
102
RTVSPost2010Prop28
280
     0
102
RTVSPost2010PropOp28
 70
     1
102
RTVSPost2010Prop29
280
     1
102
RTVSPost2010PropOp29
 70
     1
102
RTVSPost2010Prop30
280
     1
102
RTVSPost2010PropOp30
 70
     1
102
RTVSPost2010Prop31
280
     0
102
RTVSPost2010PropOp31
 70
     1
102
RTVSPost2010Prop32
280
     0
102
RTVSPost2010PropOp32
 70
     1
102
RTVSPost2010Prop33
280
     0
102
RTVSPost2010PropOp33
 70
     1
102
RTVSPost2010Prop34
280
     0
102
RTVSPost2010PropOp34
 70
     1
102
RTVSPost2010Prop35
280
     0
102
RTVSPost2010PropOp35
 70
     1
102
RTVSPost2010Prop36
280
     0
102
RTVSPost2010PropOp36
 70
     1
102
RTVSPost2010Prop37
 90
       50
102
RTVSPost2010PropOp37
 70
     1
102
RTVSPost2010Prop38
140
0.0
102
RTVSPost2010PropOp38
 70
     1
102
RTVSPost2010Prop39
140
1.0
102
RTVSPost2010PropOp39
 70
     1
102
RTVSPost2010Prop40
 90
        0
102
RTVSPost2010PropOp40
 70
     1
102
RTVSPost2010Prop41ColorIndex
 90
       18
102
RTVSPost2010Prop41ColorRGB
 90
        0
102
RTVSPost2010PropOp41
 70
     1
102
RTVSPost2010Prop42
 90
       50
102
RTVSPost2010PropOp42
 70
     1
102
RTVSPost2010Prop43
 90
        3
102
RTVSPost2010PropOp43
 70
     1
102
RTVSPost2010Prop44ColorIndex
 90
        5
102
RTVSPost2010Prop44ColorRGB
 90
      255
102
RTVSPost2010PropOp44
 70
     1
102
RTVSPost2010Prop45
280
     0
102
RTVSPost2010PropOp45
 70
     1
102
RTVSPost2010Prop46
 90
       50
102
RTVSPost2010PropOp46
 70
     1
102
RTVSPost2010Prop47
 90
       50
102
RTVSPost2010PropOp47
 70
     1
102
RTVSPost2010Prop48
 90
       50
102
RTVSPost2010PropOp48
 70
     1
102
RTVSPost2010Prop49
280
     0
102
RTVSPost2010PropOp49
 70
     1
102
RTVSPost2010Prop50
 90
       50
102
RTVSPost2010PropOp50
 70
     1
102
RTVSPost2010Prop51ColorIndex
 90
      256
102
RTVSPost2010Prop51ColorRGB
 90
-16777216
102
RTVSPost2010PropOp51
 70
     0
102
RTVSPost2010Prop52
140
1.0
102
RTVSPost2010PropOp52
 70
     0
102
RTVSPost2010Prop53
 90
        2
102
RTVSPost2010PropOp53
 70
     1
102
RTVSPost2010Prop54
  1
strokes_ogs.tif
102
RTVSPost2010PropOp54
 70
     1
102
RTVSPost2010Prop55
280
     0
102
RTVSPost2010PropOp55
 70
     1
102
RTVSPost2010Prop56
140
1.0
102
RTVSPost2010PropOp56
 70
     1
102
RTVSPost2010Prop57
140
1.0
102
RTVSPost2010PropOp57
 70
     1
102
RTVSPropertyOp0
 70
     1
102
RTVSPropertyOp1
 70
     1
102
RTVSPropertyOp2
 70
     1
102
RTVSPropertyOp3
 70
     1
102
RTVSPropertyOp4
 70
     1
102
RTVSPropertyOp5
 70
     1
102
RTVSPropertyOp6
 70
     1
102
RTVSPropertyOp7
 70
     1
102
RTVSPropertyOp8
 70
     1
102
RTVSPropertyOp9
 70
     1
102
RTVSPropertyOp10
 70
     1
102
RTVSPropertyOp11
 70
     1
102
RTVSPropertyOp12
 70
     1
102
RTVSPropertyOp13
 70
     1
102
RTVSPropertyOp14
 70
     1
102
RTVSPropertyOp15
 70
     1
102
RTVSPropertyOp16
 70
     1
102
RTVSPropertyOp17
 70
     1
102
RTVSPropertyOp18
 70
     1
102
RTVSPropertyOp19
 70
     1
102
RTVSPropertyOp20
 70
     1
102
RTVSPropertyOp21
 70
     1
102
RTVSPropertyOp22
 70
     1
102
RTVSPropertyOp23
 70
     1
102
RTVSPropertyOp24
 70
     1
102
RTVSPropertyOp25
 70
     1
102
RTVSPropertyOp26
 70
     1
102
RTVSPropertyOp27
 70
     1
102
RTVSPropertyOp28
 70
     1
102
RTVSPropertyOp29
 70
     1
102
RTVSPropertyOp30
 70
     1
102
RTVSPropertyOp31
 70
     1
102
RTVSPropertyOp32
 70
     1
102
RTVSPropertyOp33
 70
     1
102
RTVSPropertyOp34
 70
     1
102
RTVSPropertyOp35
 70
     1
102
RTVSPropertyOp36
 70
     1
102
RTVSPropertyOp37
 70
     1
102
RTVSPropertyOp38
 70
     1
102
RTVSPropertyOp39
 70
     1
102
RTVSPropertyOp40
 70
     1
102
RTVSPropertyOp41
 70
     1
102
RTVSPropertyOp42
 70
     1
102
RTVSPropertyOp43
 70
     1
102
RTVSPropertyOp44
 70
     1
102
RTVSPropertyOp45
 70
     1
102
RTVSPropertyOp46
 70
     1
102
RTVSPropertyOp47
 70
     1
102
RTVSPropertyOp48
 70
     1
102
RTVSPropertyOp49
 70
     1
102
RTVSPropertyOp50
 70
     1
102
RTVSPropertyOp51
 70
     0
102
RTVSPropertyOp52
 70
     0
102
RTVSPropertyOp53
 70
     1
102
RTVSPropertyOp54
 70
     1
102
RTVSPropertyOp55
 70
     1
102
RTVSPropertyOp56
 70
     1
102
RTVSPropertyOp57
 70
     1
102
RTVSPropertyOp58
 70
     1
102
RTVSPropertyOp59
 70
     1
102
RTVSPropertyOp60
 70
     1
102
RTVSPropertyOp61
 70
     1
102
RTVSPropertyOp62
 70
     1
  0
XRECORD
  5
BA61
102
{ACAD_REACTORS
330
BA60
102
}
330
BA60
100
AcDbXrecord
280
     1
102
RTVSPost2010Prop28
280
     0
102
RTVSPost2010PropOp28
 70
     1
102
RTVSPost2010Prop29
280
     1
102
RTVSPost2010PropOp29
 70
     1
102
RTVSPost2010Prop30
280
     1
102
RTVSPost2010PropOp30
 70
     1
102
RTVSPost2010Prop31
280
     0
102
RTVSPost2010PropOp31
 70
     1
102
RTVSPost2010Prop32
280
     0
102
RTVSPost2010PropOp32
 70
     1
102
RTVSPost2010Prop33
280
     0
102
RTVSPost2010PropOp33
 70
     1
102
RTVSPost2010Prop34
280
     0
102
RTVSPost2010PropOp34
 70
     1
102
RTVSPost2010Prop35
280
     0
102
RTVSPost2010PropOp35
 70
     1
102
RTVSPost2010Prop36
280
     0
102
RTVSPost2010PropOp36
 70
     1
102
RTVSPost2010Prop37
 90
       50
102
RTVSPost2010PropOp37
 70
     0
102
RTVSPost2010Prop38
140
0.0
102
RTVSPost2010PropOp38
 70
     0
102
RTVSPost2010Prop39
140
1.0
102
RTVSPost2010PropOp39
 70
     0
102
RTVSPost2010Prop40
 90
        0
102
RTVSPost2010PropOp40
 70
     0
102
RTVSPost2010Prop41ColorIndex
 90
       18
102
RTVSPost2010Prop41ColorRGB
 90
        0
102
RTVSPost2010PropOp41
 70
     0
102
RTVSPost2010Prop42
 90
       50
102
RTVSPost2010PropOp42
 70
     0
102
RTVSPost2010Prop43
 90
        3
102
RTVSPost2010PropOp43
 70
     0
102
RTVSPost2010Prop44ColorIndex
 90
        5
102
RTVSPost2010Prop44ColorRGB
 90
      255
102
RTVSPost2010PropOp44
 70
     0
102
RTVSPost2010Prop45
280
     0
102
RTVSPost2010PropOp45
 70
     1
102
RTVSPost2010Prop46
 90
       50
102
RTVSPost2010PropOp46
 70
     0
102
RTVSPost2010Prop47
 90
       50
102
RTVSPost2010PropOp47
 70
     0
102
RTVSPost2010Prop48
 90
       50
102
RTVSPost2010PropOp48
 70
     0
102
RTVSPost2010Prop49
280
     0
102
RTVSPost2010PropOp49
 70
     1
102
RTVSPost2010Prop50
 90
       50
102
RTVSPost2010PropOp50
 70
     0
102
RTVSPost2010Prop51ColorIndex
 90
      256
102
RTVSPost2010Prop51ColorRGB
 90
-16777216
102
RTVSPost2010PropOp51
 70
     0
102
RTVSPost2010Prop52
140
1.0
102
RTVSPost2010PropOp52
 70
     0
102
RTVSPost2010Prop53
 90
        2
102
RTVSPost2010PropOp53
 70
     0
102
RTVSPost2010Prop54
  1
strokes_ogs.tif
102
RTVSPost2010PropOp54
 70
     0
102
RTVSPost2010Prop55
280
     0
102
RTVSPost2010PropOp55
 70
     1
102
RTVSPost2010Prop56
140
1.0
102
RTVSPost2010PropOp56
 70
     0
102
RTVSPost2010Prop57
140
1.0
102
RTVSPost2010PropOp57
 70
     0
102
RTVSPropertyOp0
 70
     0
102
RTVSPropertyOp1
 70
     0
102
RTVSPropertyOp2
 70
     0
102
RTVSPropertyOp3
 70
     0
102
RTVSPropertyOp4
 70
     0
102
RTVSPropertyOp5
 70
     0
102
RTVSPropertyOp6
 70
     0
102
RTVSPropertyOp7
 70
     0
102
RTVSPropertyOp8
 70
     0
102
RTVSPropertyOp9
 70
     0
102
RTVSPropertyOp10
 70
     0
102
RTVSPropertyOp11
 70
     0
102
RTVSPropertyOp12
 70
     0
102
RTVSPropertyOp13
 70
     0
102
RTVSPropertyOp14
 70
     2
102
RTVSPropertyOp15
 70
     0
102
RTVSPropertyOp16
 70
     0
102
RTVSPropertyOp17
 70
     0
102
RTVSPropertyOp18
 70
     0
102
RTVSPropertyOp19
 70
     0
102
RTVSPropertyOp20
 70
     0
102
RTVSPropertyOp21
 70
     0
102
RTVSPropertyOp22
 70
     0
102
RTVSPropertyOp23
 70
     0
102
RTVSPropertyOp24
 70
     0
102
RTVSPropertyOp25
 70
     0
102
RTVSPropertyOp26
 70
     0
102
RTVSPropertyOp27
 70
     0
102
RTVSPropertyOp28
 70
     1
102
RTVSPropertyOp29
 70
     1
102
RTVSPropertyOp30
 70
     1
102
RTVSPropertyOp31
 70
     1
102
RTVSPropertyOp32
 70
     1
102
RTVSPropertyOp33
 70
     1
102
RTVSPropertyOp34
 70
     1
102
RTVSPropertyOp35
 70
     1
102
RTVSPropertyOp36
 70
     1
102
RTVSPropertyOp37
 70
     0
102
RTVSPropertyOp38
 70
     0
102
RTVSPropertyOp39
 70
     0
102
RTVSPropertyOp40
 70
     0
102
RTVSPropertyOp41
 70
     0
102
RTVSPropertyOp42
 70
     0
102
RTVSPropertyOp43
 70
     0
102
RTVSPropertyOp44
 70
     0
102
RTVSPropertyOp45
 70
     1
102
RTVSPropertyOp46
 70
     0
102
RTVSPropertyOp47
 70
     0
102
RTVSPropertyOp48
 70
     0
102
RTVSPropertyOp49
 70
     1
102
RTVSPropertyOp50
 70
     0
102
RTVSPropertyOp51
 70
     0
102
RTVSPropertyOp52
 70
     0
102
RTVSPropertyOp53
 70
     0
102
RTVSPropertyOp54
 70
     0
102
RTVSPropertyOp55
 70
     1
102
RTVSPropertyOp56
 70
     0
102
RTVSPropertyOp57
 70
     0
102
RTVSPropertyOp58
 70
     0
102
RTVSPropertyOp59
 70
     0
102
RTVSPropertyOp60
 70
     0
102
RTVSPropertyOp61
 70
     0
102
RTVSPropertyOp62
 70
     0
  0
XRECORD
  5
BA4F
102
{ACAD_REACTORS
330
BA4E
102
}
330
BA4E
100
AcDbXrecord
280
     1
102
RTVSPost2010Prop28
280
     0
102
RTVSPost2010PropOp28
 70
     1
102
RTVSPost2010Prop29
280
     1
102
RTVSPost2010PropOp29
 70
     1
102
RTVSPost2010Prop30
280
     1
102
RTVSPost2010PropOp30
 70
     1
102
RTVSPost2010Prop31
280
     0
102
RTVSPost2010PropOp31
 70
     1
102
RTVSPost2010Prop32
280
     0
102
RTVSPost2010PropOp32
 70
     1
102
RTVSPost2010Prop33
280
     0
102
RTVSPost2010PropOp33
 70
     1
102
RTVSPost2010Prop34
280
     0
102
RTVSPost2010PropOp34
 70
     1
102
RTVSPost2010Prop35
280
     0
102
RTVSPost2010PropOp35
 70
     1
102
RTVSPost2010Prop36
280
     0
102
RTVSPost2010PropOp36
 70
     1
102
RTVSPost2010Prop37
 90
       50
102
RTVSPost2010PropOp37
 70
     1
102
RTVSPost2010Prop38
140
0.0
102
RTVSPost2010PropOp38
 70
     1
102
RTVSPost2010Prop39
140
1.0
102
RTVSPost2010PropOp39
 70
     1
102
RTVSPost2010Prop40
 90
        0
102
RTVSPost2010PropOp40
 70
     1
102
RTVSPost2010Prop41ColorIndex
 90
       18
102
RTVSPost2010Prop41ColorRGB
 90
        0
102
RTVSPost2010PropOp41
 70
     1
102
RTVSPost2010Prop42
 90
       50
102
RTVSPost2010PropOp42
 70
     1
102
RTVSPost2010Prop43
 90
        3
102
RTVSPost2010PropOp43
 70
     1
102
RTVSPost2010Prop44ColorIndex
 90
        5
102
RTVSPost2010Prop44ColorRGB
 90
      255
102
RTVSPost2010PropOp44
 70
     1
102
RTVSPost2010Prop45
280
     0
102
RTVSPost2010PropOp45
 70
     1
102
RTVSPost2010Prop46
 90
       50
102
RTVSPost2010PropOp46
 70
     1
102
RTVSPost2010Prop47
 90
       50
102
RTVSPost2010PropOp47
 70
     1
102
RTVSPost2010Prop48
 90
       50
102
RTVSPost2010PropOp48
 70
     1
102
RTVSPost2010Prop49
280
     0
102
RTVSPost2010PropOp49
 70
     1
102
RTVSPost2010Prop50
 90
       50
102
RTVSPost2010PropOp50
 70
     1
102
RTVSPost2010Prop51ColorIndex
 90
      256
102
RTVSPost2010Prop51ColorRGB
 90
-16777216
102
RTVSPost2010PropOp51
 70
     0
102
RTVSPost2010Prop52
140
1.0
102
RTVSPost2010PropOp52
 70
     0
102
RTVSPost2010Prop53
 90
        2
102
RTVSPost2010PropOp53
 70
     1
102
RTVSPost2010Prop54
  1
strokes_ogs.tif
102
RTVSPost2010PropOp54
 70
     1
102
RTVSPost2010Prop55
280
     0
102
RTVSPost2010PropOp55
 70
     1
102
RTVSPost2010Prop56
140
1.0
102
RTVSPost2010PropOp56
 70
     1
102
RTVSPost2010Prop57
140
1.0
102
RTVSPost2010PropOp57
 70
     1
102
RTVSPropertyOp0
 70
     1
102
RTVSPropertyOp1
 70
     1
102
RTVSPropertyOp2
 70
     1
102
RTVSPropertyOp3
 70
     1
102
RTVSPropertyOp4
 70
     1
102
RTVSPropertyOp5
 70
     1
102
RTVSPropertyOp6
 70
     1
102
RTVSPropertyOp7
 70
     1
102
RTVSPropertyOp8
 70
     1
102
RTVSPropertyOp9
 70
     1
102
RTVSPropertyOp10
 70
     1
102
RTVSPropertyOp11
 70
     1
102
RTVSPropertyOp12
 70
     1
102
RTVSPropertyOp13
 70
     1
102
RTVSPropertyOp14
 70
     1
102
RTVSPropertyOp15
 70
     1
102
RTVSPropertyOp16
 70
     1
102
RTVSPropertyOp17
 70
     1
102
RTVSPropertyOp18
 70
     1
102
RTVSPropertyOp19
 70
     1
102
RTVSPropertyOp20
 70
     1
102
RTVSPropertyOp21
 70
     1
102
RTVSPropertyOp22
 70
     1
102
RTVSPropertyOp23
 70
     1
102
RTVSPropertyOp24
 70
     1
102
RTVSPropertyOp25
 70
     1
102
RTVSPropertyOp26
 70
     1
102
RTVSPropertyOp27
 70
     1
102
RTVSPropertyOp28
 70
     1
102
RTVSPropertyOp29
 70
     1
102
RTVSPropertyOp30
 70
     1
102
RTVSPropertyOp31
 70
     1
102
RTVSPropertyOp32
 70
     1
102
RTVSPropertyOp33
 70
     1
102
RTVSPropertyOp34
 70
     1
102
RTVSPropertyOp35
 70
     1
102
RTVSPropertyOp36
 70
     1
102
RTVSPropertyOp37
 70
     1
102
RTVSPropertyOp38
 70
     1
102
RTVSPropertyOp39
 70
     1
102
RTVSPropertyOp40
 70
     1
102
RTVSPropertyOp41
 70
     1
102
RTVSPropertyOp42
 70
     1
102
RTVSPropertyOp43
 70
     1
102
RTVSPropertyOp44
 70
     1
102
RTVSPropertyOp45
 70
     1
102
RTVSPropertyOp46
 70
     1
102
RTVSPropertyOp47
 70
     1
102
RTVSPropertyOp48
 70
     1
102
RTVSPropertyOp49
 70
     1
102
RTVSPropertyOp50
 70
     1
102
RTVSPropertyOp51
 70
     0
102
RTVSPropertyOp52
 70
     0
102
RTVSPropertyOp53
 70
     1
102
RTVSPropertyOp54
 70
     1
102
RTVSPropertyOp55
 70
     1
102
RTVSPropertyOp56
 70
     1
102
RTVSPropertyOp57
 70
     1
102
RTVSPropertyOp58
 70
     1
102
RTVSPropertyOp59
 70
     1
102
RTVSPropertyOp60
 70
     1
102
RTVSPropertyOp61
 70
     1
102
RTVSPropertyOp62
 70
     1
  0
XRECORD
  5
BA33
102
{ACAD_REACTORS
330
BA32
102
}
330
BA32
100
AcDbXrecord
280
     1
102
RTVSPost2010Prop28
280
     0
102
RTVSPost2010PropOp28
 70
     1
102
RTVSPost2010Prop29
280
     1
102
RTVSPost2010PropOp29
 70
     1
102
RTVSPost2010Prop30
280
     1
102
RTVSPost2010PropOp30
 70
     1
102
RTVSPost2010Prop31
280
     0
102
RTVSPost2010PropOp31
 70
     1
102
RTVSPost2010Prop32
280
     0
102
RTVSPost2010PropOp32
 70
     1
102
RTVSPost2010Prop33
280
     0
102
RTVSPost2010PropOp33
 70
     1
102
RTVSPost2010Prop34
280
     0
102
RTVSPost2010PropOp34
 70
     1
102
RTVSPost2010Prop35
280
     0
102
RTVSPost2010PropOp35
 70
     1
102
RTVSPost2010Prop36
280
     0
102
RTVSPost2010PropOp36
 70
     1
102
RTVSPost2010Prop37
 90
       50
102
RTVSPost2010PropOp37
 70
     1
102
RTVSPost2010Prop38
140
0.0
102
RTVSPost2010PropOp38
 70
     1
102
RTVSPost2010Prop39
140
1.0
102
RTVSPost2010PropOp39
 70
     1
102
RTVSPost2010Prop40
 90
        0
102
RTVSPost2010PropOp40
 70
     1
102
RTVSPost2010Prop41ColorIndex
 90
       18
102
RTVSPost2010Prop41ColorRGB
 90
        0
102
RTVSPost2010PropOp41
 70
     1
102
RTVSPost2010Prop42
 90
       50
102
RTVSPost2010PropOp42
 70
     1
102
RTVSPost2010Prop43
 90
        3
102
RTVSPost2010PropOp43
 70
     1
102
RTVSPost2010Prop44ColorIndex
 90
        5
102
RTVSPost2010Prop44ColorRGB
 90
      255
102
RTVSPost2010PropOp44
 70
     1
102
RTVSPost2010Prop45
280
     0
102
RTVSPost2010PropOp45
 70
     1
102
RTVSPost2010Prop46
 90
       50
102
RTVSPost2010PropOp46
 70
     1
102
RTVSPost2010Prop47
 90
       50
102
RTVSPost2010PropOp47
 70
     1
102
RTVSPost2010Prop48
 90
       50
102
RTVSPost2010PropOp48
 70
     1
102
RTVSPost2010Prop49
280
     0
102
RTVSPost2010PropOp49
 70
     1
102
RTVSPost2010Prop50
 90
       50
102
RTVSPost2010PropOp50
 70
     1
102
RTVSPost2010Prop51ColorIndex
 90
      256
102
RTVSPost2010Prop51ColorRGB
 90
-16777216
102
RTVSPost2010PropOp51
 70
     0
102
RTVSPost2010Prop52
140
1.0
102
RTVSPost2010PropOp52
 70
     0
102
RTVSPost2010Prop53
 90
        2
102
RTVSPost2010PropOp53
 70
     1
102
RTVSPost2010Prop54
  1
strokes_ogs.tif
102
RTVSPost2010PropOp54
 70
     1
102
RTVSPost2010Prop55
280
     0
102
RTVSPost2010PropOp55
 70
     1
102
RTVSPost2010Prop56
140
1.0
102
RTVSPost2010PropOp56
 70
     1
102
RTVSPost2010Prop57
140
1.0
102
RTVSPost2010PropOp57
 70
     1
102
RTVSPropertyOp0
 70
     1
102
RTVSPropertyOp1
 70
     1
102
RTVSPropertyOp2
 70
     1
102
RTVSPropertyOp3
 70
     1
102
RTVSPropertyOp4
 70
     1
102
RTVSPropertyOp5
 70
     1
102
RTVSPropertyOp6
 70
     1
102
RTVSPropertyOp7
 70
     1
102
RTVSPropertyOp8
 70
     1
102
RTVSPropertyOp9
 70
     1
102
RTVSPropertyOp10
 70
     1
102
RTVSPropertyOp11
 70
     1
102
RTVSPropertyOp12
 70
     1
102
RTVSPropertyOp13
 70
     1
102
RTVSPropertyOp14
 70
     1
102
RTVSPropertyOp15
 70
     1
102
RTVSPropertyOp16
 70
     1
102
RTVSPropertyOp17
 70
     1
102
RTVSPropertyOp18
 70
     1
102
RTVSPropertyOp19
 70
     1
102
RTVSPropertyOp20
 70
     1
102
RTVSPropertyOp21
 70
     1
102
RTVSPropertyOp22
 70
     1
102
RTVSPropertyOp23
 70
     1
102
RTVSPropertyOp24
 70
     1
102
RTVSPropertyOp25
 70
     1
102
RTVSPropertyOp26
 70
     1
102
RTVSPropertyOp27
 70
     1
102
RTVSPropertyOp28
 70
     1
102
RTVSPropertyOp29
 70
     1
102
RTVSPropertyOp30
 70
     1
102
RTVSPropertyOp31
 70
     1
102
RTVSPropertyOp32
 70
     1
102
RTVSPropertyOp33
 70
     1
102
RTVSPropertyOp34
 70
     1
102
RTVSPropertyOp35
 70
     1
102
RTVSPropertyOp36
 70
     1
102
RTVSPropertyOp37
 70
     1
102
RTVSPropertyOp38
 70
     1
102
RTVSPropertyOp39
 70
     1
102
RTVSPropertyOp40
 70
     1
102
RTVSPropertyOp41
 70
     1
102
RTVSPropertyOp42
 70
     1
102
RTVSPropertyOp43
 70
     1
102
RTVSPropertyOp44
 70
     1
102
RTVSPropertyOp45
 70
     1
102
RTVSPropertyOp46
 70
     1
102
RTVSPropertyOp47
 70
     1
102
RTVSPropertyOp48
 70
     1
102
RTVSPropertyOp49
 70
     1
102
RTVSPropertyOp50
 70
     1
102
RTVSPropertyOp51
 70
     0
102
RTVSPropertyOp52
 70
     0
102
RTVSPropertyOp53
 70
     1
102
RTVSPropertyOp54
 70
     1
102
RTVSPropertyOp55
 70
     1
102
RTVSPropertyOp56
 70
     1
102
RTVSPropertyOp57
 70
     1
102
RTVSPropertyOp58
 70
     1
102
RTVSPropertyOp59
 70
     1
102
RTVSPropertyOp60
 70
     1
102
RTVSPropertyOp61
 70
     1
102
RTVSPropertyOp62
 70
     1
  0
XRECORD
  5
BA35
102
{ACAD_REACTORS
330
BA34
102
}
330
BA34
100
AcDbXrecord
280
     1
102
RTVSPost2010Prop28
280
     0
102
RTVSPost2010PropOp28
 70
     1
102
RTVSPost2010Prop29
280
     1
102
RTVSPost2010PropOp29
 70
     1
102
RTVSPost2010Prop30
280
     1
102
RTVSPost2010PropOp30
 70
     1
102
RTVSPost2010Prop31
280
     0
102
RTVSPost2010PropOp31
 70
     1
102
RTVSPost2010Prop32
280
     0
102
RTVSPost2010PropOp32
 70
     1
102
RTVSPost2010Prop33
280
     0
102
RTVSPost2010PropOp33
 70
     1
102
RTVSPost2010Prop34
280
     0
102
RTVSPost2010PropOp34
 70
     1
102
RTVSPost2010Prop35
280
     0
102
RTVSPost2010PropOp35
 70
     1
102
RTVSPost2010Prop36
280
     0
102
RTVSPost2010PropOp36
 70
     1
102
RTVSPost2010Prop37
 90
       50
102
RTVSPost2010PropOp37
 70
     1
102
RTVSPost2010Prop38
140
0.0
102
RTVSPost2010PropOp38
 70
     1
102
RTVSPost2010Prop39
140
1.0
102
RTVSPost2010PropOp39
 70
     1
102
RTVSPost2010Prop40
 90
        0
102
RTVSPost2010PropOp40
 70
     1
102
RTVSPost2010Prop41ColorIndex
 90
       18
102
RTVSPost2010Prop41ColorRGB
 90
        0
102
RTVSPost2010PropOp41
 70
     1
102
RTVSPost2010Prop42
 90
       50
102
RTVSPost2010PropOp42
 70
     1
102
RTVSPost2010Prop43
 90
        3
102
RTVSPost2010PropOp43
 70
     1
102
RTVSPost2010Prop44ColorIndex
 90
        5
102
RTVSPost2010Prop44ColorRGB
 90
      255
102
RTVSPost2010PropOp44
 70
     1
102
RTVSPost2010Prop45
280
     0
102
RTVSPost2010PropOp45
 70
     1
102
RTVSPost2010Prop46
 90
       50
102
RTVSPost2010PropOp46
 70
     1
102
RTVSPost2010Prop47
 90
       50
102
RTVSPost2010PropOp47
 70
     1
102
RTVSPost2010Prop48
 90
       50
102
RTVSPost2010PropOp48
 70
     1
102
RTVSPost2010Prop49
280
     0
102
RTVSPost2010PropOp49
 70
     1
102
RTVSPost2010Prop50
 90
       50
102
RTVSPost2010PropOp50
 70
     1
102
RTVSPost2010Prop51ColorIndex
 90
      256
102
RTVSPost2010Prop51ColorRGB
 90
-16777216
102
RTVSPost2010PropOp51
 70
     0
102
RTVSPost2010Prop52
140
1.0
102
RTVSPost2010PropOp52
 70
     0
102
RTVSPost2010Prop53
 90
        2
102
RTVSPost2010PropOp53
 70
     1
102
RTVSPost2010Prop54
  1
strokes_ogs.tif
102
RTVSPost2010PropOp54
 70
     1
102
RTVSPost2010Prop55
280
     0
102
RTVSPost2010PropOp55
 70
     1
102
RTVSPost2010Prop56
140
1.0
102
RTVSPost2010PropOp56
 70
     1
102
RTVSPost2010Prop57
140
1.0
102
RTVSPost2010PropOp57
 70
     1
102
RTVSPropertyOp0
 70
     1
102
RTVSPropertyOp1
 70
     1
102
RTVSPropertyOp2
 70
     1
102
RTVSPropertyOp3
 70
     1
102
RTVSPropertyOp4
 70
     1
102
RTVSPropertyOp5
 70
     1
102
RTVSPropertyOp6
 70
     1
102
RTVSPropertyOp7
 70
     1
102
RTVSPropertyOp8
 70
     1
102
RTVSPropertyOp9
 70
     1
102
RTVSPropertyOp10
 70
     1
102
RTVSPropertyOp11
 70
     1
102
RTVSPropertyOp12
 70
     1
102
RTVSPropertyOp13
 70
     1
102
RTVSPropertyOp14
 70
     1
102
RTVSPropertyOp15
 70
     1
102
RTVSPropertyOp16
 70
     1
102
RTVSPropertyOp17
 70
     1
102
RTVSPropertyOp18
 70
     1
102
RTVSPropertyOp19
 70
     1
102
RTVSPropertyOp20
 70
     1
102
RTVSPropertyOp21
 70
     1
102
RTVSPropertyOp22
 70
     1
102
RTVSPropertyOp23
 70
     1
102
RTVSPropertyOp24
 70
     1
102
RTVSPropertyOp25
 70
     1
102
RTVSPropertyOp26
 70
     1
102
RTVSPropertyOp27
 70
     1
102
RTVSPropertyOp28
 70
     1
102
RTVSPropertyOp29
 70
     1
102
RTVSPropertyOp30
 70
     1
102
RTVSPropertyOp31
 70
     1
102
RTVSPropertyOp32
 70
     1
102
RTVSPropertyOp33
 70
     1
102
RTVSPropertyOp34
 70
     1
102
RTVSPropertyOp35
 70
     1
102
RTVSPropertyOp36
 70
     1
102
RTVSPropertyOp37
 70
     1
102
RTVSPropertyOp38
 70
     1
102
RTVSPropertyOp39
 70
     1
102
RTVSPropertyOp40
 70
     1
102
RTVSPropertyOp41
 70
     1
102
RTVSPropertyOp42
 70
     1
102
RTVSPropertyOp43
 70
     1
102
RTVSPropertyOp44
 70
     1
102
RTVSPropertyOp45
 70
     1
102
RTVSPropertyOp46
 70
     1
102
RTVSPropertyOp47
 70
     1
102
RTVSPropertyOp48
 70
     1
102
RTVSPropertyOp49
 70
     1
102
RTVSPropertyOp50
 70
     1
102
RTVSPropertyOp51
 70
     0
102
RTVSPropertyOp52
 70
     0
102
RTVSPropertyOp53
 70
     1
102
RTVSPropertyOp54
 70
     1
102
RTVSPropertyOp55
 70
     1
102
RTVSPropertyOp56
 70
     1
102
RTVSPropertyOp57
 70
     1
102
RTVSPropertyOp58
 70
     1
102
RTVSPropertyOp59
 70
     1
102
RTVSPropertyOp60
 70
     1
102
RTVSPropertyOp61
 70
     1
102
RTVSPropertyOp62
 70
     1
  0
XRECORD
  5
BA37
102
{ACAD_REACTORS
330
BA36
102
}
330
BA36
100
AcDbXrecord
280
     1
102
RTVSPost2010Prop28
280
     0
102
RTVSPost2010PropOp28
 70
     1
102
RTVSPost2010Prop29
280
     1
102
RTVSPost2010PropOp29
 70
     1
102
RTVSPost2010Prop30
280
     1
102
RTVSPost2010PropOp30
 70
     1
102
RTVSPost2010Prop31
280
     0
102
RTVSPost2010PropOp31
 70
     1
102
RTVSPost2010Prop32
280
     0
102
RTVSPost2010PropOp32
 70
     1
102
RTVSPost2010Prop33
280
     0
102
RTVSPost2010PropOp33
 70
     1
102
RTVSPost2010Prop34
280
     0
102
RTVSPost2010PropOp34
 70
     1
102
RTVSPost2010Prop35
280
     0
102
RTVSPost2010PropOp35
 70
     1
102
RTVSPost2010Prop36
280
     0
102
RTVSPost2010PropOp36
 70
     1
102
RTVSPost2010Prop37
 90
       50
102
RTVSPost2010PropOp37
 70
     1
102
RTVSPost2010Prop38
140
0.0
102
RTVSPost2010PropOp38
 70
     1
102
RTVSPost2010Prop39
140
1.0
102
RTVSPost2010PropOp39
 70
     1
102
RTVSPost2010Prop40
 90
        0
102
RTVSPost2010PropOp40
 70
     1
102
RTVSPost2010Prop41ColorIndex
 90
       18
102
RTVSPost2010Prop41ColorRGB
 90
        0
102
RTVSPost2010PropOp41
 70
     1
102
RTVSPost2010Prop42
 90
       50
102
RTVSPost2010PropOp42
 70
     1
102
RTVSPost2010Prop43
 90
        3
102
RTVSPost2010PropOp43
 70
     1
102
RTVSPost2010Prop44ColorIndex
 90
        5
102
RTVSPost2010Prop44ColorRGB
 90
      255
102
RTVSPost2010PropOp44
 70
     1
102
RTVSPost2010Prop45
280
     0
102
RTVSPost2010PropOp45
 70
     1
102
RTVSPost2010Prop46
 90
       50
102
RTVSPost2010PropOp46
 70
     1
102
RTVSPost2010Prop47
 90
       50
102
RTVSPost2010PropOp47
 70
     1
102
RTVSPost2010Prop48
 90
       50
102
RTVSPost2010PropOp48
 70
     1
102
RTVSPost2010Prop49
280
     0
102
RTVSPost2010PropOp49
 70
     1
102
RTVSPost2010Prop50
 90
       50
102
RTVSPost2010PropOp50
 70
     1
102
RTVSPost2010Prop51ColorIndex
 90
      256
102
RTVSPost2010Prop51ColorRGB
 90
-16777216
102
RTVSPost2010PropOp51
 70
     0
102
RTVSPost2010Prop52
140
1.0
102
RTVSPost2010PropOp52
 70
     0
102
RTVSPost2010Prop53
 90
        2
102
RTVSPost2010PropOp53
 70
     1
102
RTVSPost2010Prop54
  1
strokes_ogs.tif
102
RTVSPost2010PropOp54
 70
     1
102
RTVSPost2010Prop55
280
     0
102
RTVSPost2010PropOp55
 70
     1
102
RTVSPost2010Prop56
140
1.0
102
RTVSPost2010PropOp56
 70
     1
102
RTVSPost2010Prop57
140
1.0
102
RTVSPost2010PropOp57
 70
     1
102
RTVSPropertyOp0
 70
     1
102
RTVSPropertyOp1
 70
     1
102
RTVSPropertyOp2
 70
     1
102
RTVSPropertyOp3
 70
     1
102
RTVSPropertyOp4
 70
     1
102
RTVSPropertyOp5
 70
     1
102
RTVSPropertyOp6
 70
     1
102
RTVSPropertyOp7
 70
     1
102
RTVSPropertyOp8
 70
     1
102
RTVSPropertyOp9
 70
     1
102
RTVSPropertyOp10
 70
     1
102
RTVSPropertyOp11
 70
     1
102
RTVSPropertyOp12
 70
     1
102
RTVSPropertyOp13
 70
     1
102
RTVSPropertyOp14
 70
     1
102
RTVSPropertyOp15
 70
     1
102
RTVSPropertyOp16
 70
     1
102
RTVSPropertyOp17
 70
     1
102
RTVSPropertyOp18
 70
     1
102
RTVSPropertyOp19
 70
     1
102
RTVSPropertyOp20
 70
     1
102
RTVSPropertyOp21
 70
     1
102
RTVSPropertyOp22
 70
     1
102
RTVSPropertyOp23
 70
     1
102
RTVSPropertyOp24
 70
     1
102
RTVSPropertyOp25
 70
     1
102
RTVSPropertyOp26
 70
     1
102
RTVSPropertyOp27
 70
     1
102
RTVSPropertyOp28
 70
     1
102
RTVSPropertyOp29
 70
     1
102
RTVSPropertyOp30
 70
     1
102
RTVSPropertyOp31
 70
     1
102
RTVSPropertyOp32
 70
     1
102
RTVSPropertyOp33
 70
     1
102
RTVSPropertyOp34
 70
     1
102
RTVSPropertyOp35
 70
     1
102
RTVSPropertyOp36
 70
     1
102
RTVSPropertyOp37
 70
     1
102
RTVSPropertyOp38
 70
     1
102
RTVSPropertyOp39
 70
     1
102
RTVSPropertyOp40
 70
     1
102
RTVSPropertyOp41
 70
     1
102
RTVSPropertyOp42
 70
     1
102
RTVSPropertyOp43
 70
     1
102
RTVSPropertyOp44
 70
     1
102
RTVSPropertyOp45
 70
     1
102
RTVSPropertyOp46
 70
     1
102
RTVSPropertyOp47
 70
     1
102
RTVSPropertyOp48
 70
     1
102
RTVSPropertyOp49
 70
     1
102
RTVSPropertyOp50
 70
     1
102
RTVSPropertyOp51
 70
     0
102
RTVSPropertyOp52
 70
     0
102
RTVSPropertyOp53
 70
     1
102
RTVSPropertyOp54
 70
     1
102
RTVSPropertyOp55
 70
     1
102
RTVSPropertyOp56
 70
     1
102
RTVSPropertyOp57
 70
     1
102
RTVSPropertyOp58
 70
     1
102
RTVSPropertyOp59
 70
     1
102
RTVSPropertyOp60
 70
     1
102
RTVSPropertyOp61
 70
     1
102
RTVSPropertyOp62
 70
     1
  0
XRECORD
  5
BA39
102
{ACAD_REACTORS
330
BA38
102
}
330
BA38
100
AcDbXrecord
280
     1
102
RTVSPost2010Prop28
280
     0
102
RTVSPost2010PropOp28
 70
     1
102
RTVSPost2010Prop29
280
     1
102
RTVSPost2010PropOp29
 70
     1
102
RTVSPost2010Prop30
280
     1
102
RTVSPost2010PropOp30
 70
     1
102
RTVSPost2010Prop31
280
     0
102
RTVSPost2010PropOp31
 70
     1
102
RTVSPost2010Prop32
280
     0
102
RTVSPost2010PropOp32
 70
     1
102
RTVSPost2010Prop33
280
     0
102
RTVSPost2010PropOp33
 70
     1
102
RTVSPost2010Prop34
280
     0
102
RTVSPost2010PropOp34
 70
     1
102
RTVSPost2010Prop35
280
     0
102
RTVSPost2010PropOp35
 70
     1
102
RTVSPost2010Prop36
280
     0
102
RTVSPost2010PropOp36
 70
     1
102
RTVSPost2010Prop37
 90
       50
102
RTVSPost2010PropOp37
 70
     1
102
RTVSPost2010Prop38
140
0.0
102
RTVSPost2010PropOp38
 70
     1
102
RTVSPost2010Prop39
140
1.0
102
RTVSPost2010PropOp39
 70
     1
102
RTVSPost2010Prop40
 90
        0
102
RTVSPost2010PropOp40
 70
     1
102
RTVSPost2010Prop41ColorIndex
 90
       18
102
RTVSPost2010Prop41ColorRGB
 90
        0
102
RTVSPost2010PropOp41
 70
     1
102
RTVSPost2010Prop42
 90
       50
102
RTVSPost2010PropOp42
 70
     1
102
RTVSPost2010Prop43
 90
        3
102
RTVSPost2010PropOp43
 70
     1
102
RTVSPost2010Prop44ColorIndex
 90
        5
102
RTVSPost2010Prop44ColorRGB
 90
      255
102
RTVSPost2010PropOp44
 70
     1
102
RTVSPost2010Prop45
280
     0
102
RTVSPost2010PropOp45
 70
     1
102
RTVSPost2010Prop46
 90
       50
102
RTVSPost2010PropOp46
 70
     1
102
RTVSPost2010Prop47
 90
       50
102
RTVSPost2010PropOp47
 70
     1
102
RTVSPost2010Prop48
 90
       50
102
RTVSPost2010PropOp48
 70
     1
102
RTVSPost2010Prop49
280
     0
102
RTVSPost2010PropOp49
 70
     1
102
RTVSPost2010Prop50
 90
       50
102
RTVSPost2010PropOp50
 70
     1
102
RTVSPost2010Prop51ColorIndex
 90
      256
102
RTVSPost2010Prop51ColorRGB
 90
-16777216
102
RTVSPost2010PropOp51
 70
     0
102
RTVSPost2010Prop52
140
1.0
102
RTVSPost2010PropOp52
 70
     0
102
RTVSPost2010Prop53
 90
        2
102
RTVSPost2010PropOp53
 70
     1
102
RTVSPost2010Prop54
  1
strokes_ogs.tif
102
RTVSPost2010PropOp54
 70
     1
102
RTVSPost2010Prop55
280
     0
102
RTVSPost2010PropOp55
 70
     1
102
RTVSPost2010Prop56
140
1.0
102
RTVSPost2010PropOp56
 70
     1
102
RTVSPost2010Prop57
140
1.0
102
RTVSPost2010PropOp57
 70
     1
102
RTVSPropertyOp0
 70
     1
102
RTVSPropertyOp1
 70
     1
102
RTVSPropertyOp2
 70
     1
102
RTVSPropertyOp3
 70
     1
102
RTVSPropertyOp4
 70
     1
102
RTVSPropertyOp5
 70
     1
102
RTVSPropertyOp6
 70
     1
102
RTVSPropertyOp7
 70
     1
102
RTVSPropertyOp8
 70
     1
102
RTVSPropertyOp9
 70
     1
102
RTVSPropertyOp10
 70
     1
102
RTVSPropertyOp11
 70
     1
102
RTVSPropertyOp12
 70
     1
102
RTVSPropertyOp13
 70
     1
102
RTVSPropertyOp14
 70
     1
102
RTVSPropertyOp15
 70
     1
102
RTVSPropertyOp16
 70
     1
102
RTVSPropertyOp17
 70
     1
102
RTVSPropertyOp18
 70
     1
102
RTVSPropertyOp19
 70
     1
102
RTVSPropertyOp20
 70
     1
102
RTVSPropertyOp21
 70
     1
102
RTVSPropertyOp22
 70
     1
102
RTVSPropertyOp23
 70
     1
102
RTVSPropertyOp24
 70
     1
102
RTVSPropertyOp25
 70
     1
102
RTVSPropertyOp26
 70
     1
102
RTVSPropertyOp27
 70
     1
102
RTVSPropertyOp28
 70
     1
102
RTVSPropertyOp29
 70
     1
102
RTVSPropertyOp30
 70
     1
102
RTVSPropertyOp31
 70
     1
102
RTVSPropertyOp32
 70
     1
102
RTVSPropertyOp33
 70
     1
102
RTVSPropertyOp34
 70
     1
102
RTVSPropertyOp35
 70
     1
102
RTVSPropertyOp36
 70
     1
102
RTVSPropertyOp37
 70
     1
102
RTVSPropertyOp38
 70
     1
102
RTVSPropertyOp39
 70
     1
102
RTVSPropertyOp40
 70
     1
102
RTVSPropertyOp41
 70
     1
102
RTVSPropertyOp42
 70
     1
102
RTVSPropertyOp43
 70
     1
102
RTVSPropertyOp44
 70
     1
102
RTVSPropertyOp45
 70
     1
102
RTVSPropertyOp46
 70
     1
102
RTVSPropertyOp47
 70
     1
102
RTVSPropertyOp48
 70
     1
102
RTVSPropertyOp49
 70
     1
102
RTVSPropertyOp50
 70
     1
102
RTVSPropertyOp51
 70
     0
102
RTVSPropertyOp52
 70
     0
102
RTVSPropertyOp53
 70
     1
102
RTVSPropertyOp54
 70
     1
102
RTVSPropertyOp55
 70
     1
102
RTVSPropertyOp56
 70
     1
102
RTVSPropertyOp57
 70
     1
102
RTVSPropertyOp58
 70
     1
102
RTVSPropertyOp59
 70
     1
102
RTVSPropertyOp60
 70
     1
102
RTVSPropertyOp61
 70
     1
102
RTVSPropertyOp62
 70
     1
  0
XRECORD
  5
BA41
102
{ACAD_REACTORS
330
BA40
102
}
330
BA40
100
AcDbXrecord
280
     1
102
RTVSPost2010Prop28
280
     0
102
RTVSPost2010PropOp28
 70
     1
102
RTVSPost2010Prop29
280
     1
102
RTVSPost2010PropOp29
 70
     1
102
RTVSPost2010Prop30
280
     1
102
RTVSPost2010PropOp30
 70
     1
102
RTVSPost2010Prop31
280
     0
102
RTVSPost2010PropOp31
 70
     1
102
RTVSPost2010Prop32
280
     0
102
RTVSPost2010PropOp32
 70
     1
102
RTVSPost2010Prop33
280
     0
102
RTVSPost2010PropOp33
 70
     1
102
RTVSPost2010Prop34
280
     0
102
RTVSPost2010PropOp34
 70
     1
102
RTVSPost2010Prop35
280
     0
102
RTVSPost2010PropOp35
 70
     1
102
RTVSPost2010Prop36
280
     0
102
RTVSPost2010PropOp36
 70
     1
102
RTVSPost2010Prop37
 90
       50
102
RTVSPost2010PropOp37
 70
     1
102
RTVSPost2010Prop38
140
0.0
102
RTVSPost2010PropOp38
 70
     1
102
RTVSPost2010Prop39
140
1.0
102
RTVSPost2010PropOp39
 70
     1
102
RTVSPost2010Prop40
 90
        0
102
RTVSPost2010PropOp40
 70
     1
102
RTVSPost2010Prop41ColorIndex
 90
       18
102
RTVSPost2010Prop41ColorRGB
 90
        0
102
RTVSPost2010PropOp41
 70
     1
102
RTVSPost2010Prop42
 90
       50
102
RTVSPost2010PropOp42
 70
     1
102
RTVSPost2010Prop43
 90
        3
102
RTVSPost2010PropOp43
 70
     1
102
RTVSPost2010Prop44ColorIndex
 90
        5
102
RTVSPost2010Prop44ColorRGB
 90
      255
102
RTVSPost2010PropOp44
 70
     1
102
RTVSPost2010Prop45
280
     0
102
RTVSPost2010PropOp45
 70
     1
102
RTVSPost2010Prop46
 90
       50
102
RTVSPost2010PropOp46
 70
     1
102
RTVSPost2010Prop47
 90
       50
102
RTVSPost2010PropOp47
 70
     1
102
RTVSPost2010Prop48
 90
       50
102
RTVSPost2010PropOp48
 70
     1
102
RTVSPost2010Prop49
280
     0
102
RTVSPost2010PropOp49
 70
     1
102
RTVSPost2010Prop50
 90
       50
102
RTVSPost2010PropOp50
 70
     1
102
RTVSPost2010Prop51ColorIndex
 90
      256
102
RTVSPost2010Prop51ColorRGB
 90
-16777216
102
RTVSPost2010PropOp51
 70
     0
102
RTVSPost2010Prop52
140
1.0
102
RTVSPost2010PropOp52
 70
     0
102
RTVSPost2010Prop53
 90
        2
102
RTVSPost2010PropOp53
 70
     1
102
RTVSPost2010Prop54
  1
strokes_ogs.tif
102
RTVSPost2010PropOp54
 70
     1
102
RTVSPost2010Prop55
280
     0
102
RTVSPost2010PropOp55
 70
     1
102
RTVSPost2010Prop56
140
1.0
102
RTVSPost2010PropOp56
 70
     1
102
RTVSPost2010Prop57
140
1.0
102
RTVSPost2010PropOp57
 70
     1
102
RTVSPropertyOp0
 70
     1
102
RTVSPropertyOp1
 70
     1
102
RTVSPropertyOp2
 70
     1
102
RTVSPropertyOp3
 70
     1
102
RTVSPropertyOp4
 70
     1
102
RTVSPropertyOp5
 70
     1
102
RTVSPropertyOp6
 70
     1
102
RTVSPropertyOp7
 70
     1
102
RTVSPropertyOp8
 70
     1
102
RTVSPropertyOp9
 70
     1
102
RTVSPropertyOp10
 70
     1
102
RTVSPropertyOp11
 70
     1
102
RTVSPropertyOp12
 70
     1
102
RTVSPropertyOp13
 70
     1
102
RTVSPropertyOp14
 70
     1
102
RTVSPropertyOp15
 70
     1
102
RTVSPropertyOp16
 70
     1
102
RTVSPropertyOp17
 70
     1
102
RTVSPropertyOp18
 70
     1
102
RTVSPropertyOp19
 70
     1
102
RTVSPropertyOp20
 70
     1
102
RTVSPropertyOp21
 70
     1
102
RTVSPropertyOp22
 70
     1
102
RTVSPropertyOp23
 70
     1
102
RTVSPropertyOp24
 70
     1
102
RTVSPropertyOp25
 70
     1
102
RTVSPropertyOp26
 70
     1
102
RTVSPropertyOp27
 70
     1
102
RTVSPropertyOp28
 70
     1
102
RTVSPropertyOp29
 70
     1
102
RTVSPropertyOp30
 70
     1
102
RTVSPropertyOp31
 70
     1
102
RTVSPropertyOp32
 70
     1
102
RTVSPropertyOp33
 70
     1
102
RTVSPropertyOp34
 70
     1
102
RTVSPropertyOp35
 70
     1
102
RTVSPropertyOp36
 70
     1
102
RTVSPropertyOp37
 70
     1
102
RTVSPropertyOp38
 70
     1
102
RTVSPropertyOp39
 70
     1
102
RTVSPropertyOp40
 70
     1
102
RTVSPropertyOp41
 70
     1
102
RTVSPropertyOp42
 70
     1
102
RTVSPropertyOp43
 70
     1
102
RTVSPropertyOp44
 70
     1
102
RTVSPropertyOp45
 70
     1
102
RTVSPropertyOp46
 70
     1
102
RTVSPropertyOp47
 70
     1
102
RTVSPropertyOp48
 70
     1
102
RTVSPropertyOp49
 70
     1
102
RTVSPropertyOp50
 70
     1
102
RTVSPropertyOp51
 70
     0
102
RTVSPropertyOp52
 70
     0
102
RTVSPropertyOp53
 70
     1
102
RTVSPropertyOp54
 70
     1
102
RTVSPropertyOp55
 70
     1
102
RTVSPropertyOp56
 70
     1
102
RTVSPropertyOp57
 70
     1
102
RTVSPropertyOp58
 70
     1
102
RTVSPropertyOp59
 70
     1
102
RTVSPropertyOp60
 70
     1
102
RTVSPropertyOp61
 70
     1
102
RTVSPropertyOp62
 70
     1
  0
XRECORD
  5
BA5D
102
{ACAD_REACTORS
330
BA5C
102
}
330
BA5C
100
AcDbXrecord
280
     1
102
RTVSPost2010Prop28
280
     0
102
RTVSPost2010PropOp28
 70
     1
102
RTVSPost2010Prop29
280
     1
102
RTVSPost2010PropOp29
 70
     1
102
RTVSPost2010Prop30
280
     1
102
RTVSPost2010PropOp30
 70
     1
102
RTVSPost2010Prop31
280
     0
102
RTVSPost2010PropOp31
 70
     1
102
RTVSPost2010Prop32
280
     0
102
RTVSPost2010PropOp32
 70
     1
102
RTVSPost2010Prop33
280
     0
102
RTVSPost2010PropOp33
 70
     1
102
RTVSPost2010Prop34
280
     0
102
RTVSPost2010PropOp34
 70
     1
102
RTVSPost2010Prop35
280
     0
102
RTVSPost2010PropOp35
 70
     1
102
RTVSPost2010Prop36
280
     0
102
RTVSPost2010PropOp36
 70
     1
102
RTVSPost2010Prop37
 90
       50
102
RTVSPost2010PropOp37
 70
     0
102
RTVSPost2010Prop38
140
0.0
102
RTVSPost2010PropOp38
 70
     0
102
RTVSPost2010Prop39
140
1.0
102
RTVSPost2010PropOp39
 70
     0
102
RTVSPost2010Prop40
 90
        0
102
RTVSPost2010PropOp40
 70
     0
102
RTVSPost2010Prop41ColorIndex
 90
       18
102
RTVSPost2010Prop41ColorRGB
 90
        0
102
RTVSPost2010PropOp41
 70
     0
102
RTVSPost2010Prop42
 90
       50
102
RTVSPost2010PropOp42
 70
     0
102
RTVSPost2010Prop43
 90
        3
102
RTVSPost2010PropOp43
 70
     0
102
RTVSPost2010Prop44ColorIndex
 90
        5
102
RTVSPost2010Prop44ColorRGB
 90
      255
102
RTVSPost2010PropOp44
 70
     0
102
RTVSPost2010Prop45
280
     0
102
RTVSPost2010PropOp45
 70
     1
102
RTVSPost2010Prop46
 90
       50
102
RTVSPost2010PropOp46
 70
     0
102
RTVSPost2010Prop47
 90
       50
102
RTVSPost2010PropOp47
 70
     0
102
RTVSPost2010Prop48
 90
       50
102
RTVSPost2010PropOp48
 70
     0
102
RTVSPost2010Prop49
280
     0
102
RTVSPost2010PropOp49
 70
     1
102
RTVSPost2010Prop50
 90
       50
102
RTVSPost2010PropOp50
 70
     0
102
RTVSPost2010Prop51ColorIndex
 90
      256
102
RTVSPost2010Prop51ColorRGB
 90
-16777216
102
RTVSPost2010PropOp51
 70
     0
102
RTVSPost2010Prop52
140
1.0
102
RTVSPost2010PropOp52
 70
     0
102
RTVSPost2010Prop53
 90
        2
102
RTVSPost2010PropOp53
 70
     0
102
RTVSPost2010Prop54
  1
strokes_ogs.tif
102
RTVSPost2010PropOp54
 70
     0
102
RTVSPost2010Prop55
280
     0
102
RTVSPost2010PropOp55
 70
     1
102
RTVSPost2010Prop56
140
1.0
102
RTVSPost2010PropOp56
 70
     0
102
RTVSPost2010Prop57
140
1.0
102
RTVSPost2010PropOp57
 70
     0
102
RTVSPropertyOp0
 70
     0
102
RTVSPropertyOp1
 70
     0
102
RTVSPropertyOp2
 70
     0
102
RTVSPropertyOp3
 70
     0
102
RTVSPropertyOp4
 70
     0
102
RTVSPropertyOp5
 70
     0
102
RTVSPropertyOp6
 70
     0
102
RTVSPropertyOp7
 70
     0
102
RTVSPropertyOp8
 70
     0
102
RTVSPropertyOp9
 70
     0
102
RTVSPropertyOp10
 70
     0
102
RTVSPropertyOp11
 70
     0
102
RTVSPropertyOp12
 70
     0
102
RTVSPropertyOp13
 70
     0
102
RTVSPropertyOp14
 70
     2
102
RTVSPropertyOp15
 70
     0
102
RTVSPropertyOp16
 70
     0
102
RTVSPropertyOp17
 70
     0
102
RTVSPropertyOp18
 70
     0
102
RTVSPropertyOp19
 70
     0
102
RTVSPropertyOp20
 70
     0
102
RTVSPropertyOp21
 70
     0
102
RTVSPropertyOp22
 70
     0
102
RTVSPropertyOp23
 70
     0
102
RTVSPropertyOp24
 70
     0
102
RTVSPropertyOp25
 70
     0
102
RTVSPropertyOp26
 70
     0
102
RTVSPropertyOp27
 70
     0
102
RTVSPropertyOp28
 70
     1
102
RTVSPropertyOp29
 70
     1
102
RTVSPropertyOp30
 70
     1
102
RTVSPropertyOp31
 70
     1
102
RTVSPropertyOp32
 70
     1
102
RTVSPropertyOp33
 70
     1
102
RTVSPropertyOp34
 70
     1
102
RTVSPropertyOp35
 70
     1
102
RTVSPropertyOp36
 70
     1
102
RTVSPropertyOp37
 70
     0
102
RTVSPropertyOp38
 70
     0
102
RTVSPropertyOp39
 70
     0
102
RTVSPropertyOp40
 70
     0
102
RTVSPropertyOp41
 70
     0
102
RTVSPropertyOp42
 70
     0
102
RTVSPropertyOp43
 70
     0
102
RTVSPropertyOp44
 70
     0
102
RTVSPropertyOp45
 70
     1
102
RTVSPropertyOp46
 70
     0
102
RTVSPropertyOp47
 70
     0
102
RTVSPropertyOp48
 70
     0
102
RTVSPropertyOp49
 70
     1
102
RTVSPropertyOp50
 70
     0
102
RTVSPropertyOp51
 70
     0
102
RTVSPropertyOp52
 70
     0
102
RTVSPropertyOp53
 70
     0
102
RTVSPropertyOp54
 70
     0
102
RTVSPropertyOp55
 70
     1
102
RTVSPropertyOp56
 70
     0
102
RTVSPropertyOp57
 70
     0
102
RTVSPropertyOp58
 70
     0
102
RTVSPropertyOp59
 70
     0
102
RTVSPropertyOp60
 70
     0
102
RTVSPropertyOp61
 70
     0
102
RTVSPropertyOp62
 70
     0
  0
XRECORD
  5
BA4D
102
{ACAD_REACTORS
330
BA4C
102
}
330
BA4C
100
AcDbXrecord
280
     1
102
RTVSPost2010Prop28
280
     0
102
RTVSPost2010PropOp28
 70
     1
102
RTVSPost2010Prop29
280
     1
102
RTVSPost2010PropOp29
 70
     1
102
RTVSPost2010Prop30
280
     1
102
RTVSPost2010PropOp30
 70
     1
102
RTVSPost2010Prop31
280
     0
102
RTVSPost2010PropOp31
 70
     1
102
RTVSPost2010Prop32
280
     0
102
RTVSPost2010PropOp32
 70
     1
102
RTVSPost2010Prop33
280
     0
102
RTVSPost2010PropOp33
 70
     1
102
RTVSPost2010Prop34
280
     0
102
RTVSPost2010PropOp34
 70
     1
102
RTVSPost2010Prop35
280
     0
102
RTVSPost2010PropOp35
 70
     1
102
RTVSPost2010Prop36
280
     0
102
RTVSPost2010PropOp36
 70
     1
102
RTVSPost2010Prop37
 90
       50
102
RTVSPost2010PropOp37
 70
     1
102
RTVSPost2010Prop38
140
0.0
102
RTVSPost2010PropOp38
 70
     1
102
RTVSPost2010Prop39
140
1.0
102
RTVSPost2010PropOp39
 70
     1
102
RTVSPost2010Prop40
 90
        0
102
RTVSPost2010PropOp40
 70
     1
102
RTVSPost2010Prop41ColorIndex
 90
       18
102
RTVSPost2010Prop41ColorRGB
 90
        0
102
RTVSPost2010PropOp41
 70
     1
102
RTVSPost2010Prop42
 90
       50
102
RTVSPost2010PropOp42
 70
     1
102
RTVSPost2010Prop43
 90
        3
102
RTVSPost2010PropOp43
 70
     1
102
RTVSPost2010Prop44ColorIndex
 90
        5
102
RTVSPost2010Prop44ColorRGB
 90
      255
102
RTVSPost2010PropOp44
 70
     1
102
RTVSPost2010Prop45
280
     0
102
RTVSPost2010PropOp45
 70
     1
102
RTVSPost2010Prop46
 90
       50
102
RTVSPost2010PropOp46
 70
     1
102
RTVSPost2010Prop47
 90
       50
102
RTVSPost2010PropOp47
 70
     1
102
RTVSPost2010Prop48
 90
       50
102
RTVSPost2010PropOp48
 70
     1
102
RTVSPost2010Prop49
280
     0
102
RTVSPost2010PropOp49
 70
     1
102
RTVSPost2010Prop50
 90
       50
102
RTVSPost2010PropOp50
 70
     1
102
RTVSPost2010Prop51ColorIndex
 90
      256
102
RTVSPost2010Prop51ColorRGB
 90
-16777216
102
RTVSPost2010PropOp51
 70
     0
102
RTVSPost2010Prop52
140
1.0
102
RTVSPost2010PropOp52
 70
     0
102
RTVSPost2010Prop53
 90
        2
102
RTVSPost2010PropOp53
 70
     1
102
RTVSPost2010Prop54
  1
strokes_ogs.tif
102
RTVSPost2010PropOp54
 70
     1
102
RTVSPost2010Prop55
280
     0
102
RTVSPost2010PropOp55
 70
     1
102
RTVSPost2010Prop56
140
1.0
102
RTVSPost2010PropOp56
 70
     1
102
RTVSPost2010Prop57
140
1.0
102
RTVSPost2010PropOp57
 70
     1
102
RTVSPropertyOp0
 70
     1
102
RTVSPropertyOp1
 70
     1
102
RTVSPropertyOp2
 70
     1
102
RTVSPropertyOp3
 70
     1
102
RTVSPropertyOp4
 70
     1
102
RTVSPropertyOp5
 70
     1
102
RTVSPropertyOp6
 70
     1
102
RTVSPropertyOp7
 70
     1
102
RTVSPropertyOp8
 70
     1
102
RTVSPropertyOp9
 70
     1
102
RTVSPropertyOp10
 70
     1
102
RTVSPropertyOp11
 70
     1
102
RTVSPropertyOp12
 70
     1
102
RTVSPropertyOp13
 70
     1
102
RTVSPropertyOp14
 70
     1
102
RTVSPropertyOp15
 70
     1
102
RTVSPropertyOp16
 70
     1
102
RTVSPropertyOp17
 70
     1
102
RTVSPropertyOp18
 70
     1
102
RTVSPropertyOp19
 70
     1
102
RTVSPropertyOp20
 70
     1
102
RTVSPropertyOp21
 70
     1
102
RTVSPropertyOp22
 70
     1
102
RTVSPropertyOp23
 70
     1
102
RTVSPropertyOp24
 70
     1
102
RTVSPropertyOp25
 70
     1
102
RTVSPropertyOp26
 70
     1
102
RTVSPropertyOp27
 70
     1
102
RTVSPropertyOp28
 70
     1
102
RTVSPropertyOp29
 70
     1
102
RTVSPropertyOp30
 70
     1
102
RTVSPropertyOp31
 70
     1
102
RTVSPropertyOp32
 70
     1
102
RTVSPropertyOp33
 70
     1
102
RTVSPropertyOp34
 70
     1
102
RTVSPropertyOp35
 70
     1
102
RTVSPropertyOp36
 70
     1
102
RTVSPropertyOp37
 70
     1
102
RTVSPropertyOp38
 70
     1
102
RTVSPropertyOp39
 70
     1
102
RTVSPropertyOp40
 70
     1
102
RTVSPropertyOp41
 70
     1
102
RTVSPropertyOp42
 70
     1
102
RTVSPropertyOp43
 70
     1
102
RTVSPropertyOp44
 70
     1
102
RTVSPropertyOp45
 70
     1
102
RTVSPropertyOp46
 70
     1
102
RTVSPropertyOp47
 70
     1
102
RTVSPropertyOp48
 70
     1
102
RTVSPropertyOp49
 70
     1
102
RTVSPropertyOp50
 70
     1
102
RTVSPropertyOp51
 70
     0
102
RTVSPropertyOp52
 70
     0
102
RTVSPropertyOp53
 70
     1
102
RTVSPropertyOp54
 70
     1
102
RTVSPropertyOp55
 70
     1
102
RTVSPropertyOp56
 70
     1
102
RTVSPropertyOp57
 70
     1
102
RTVSPropertyOp58
 70
     1
102
RTVSPropertyOp59
 70
     1
102
RTVSPropertyOp60
 70
     1
102
RTVSPropertyOp61
 70
     1
102
RTVSPropertyOp62
 70
     1
  0
XRECORD
  5
BA5F
102
{ACAD_REACTORS
330
BA5E
102
}
330
BA5E
100
AcDbXrecord
280
     1
102
RTVSPost2010Prop28
280
     0
102
RTVSPost2010PropOp28
 70
     1
102
RTVSPost2010Prop29
280
     1
102
RTVSPost2010PropOp29
 70
     1
102
RTVSPost2010Prop30
280
     1
102
RTVSPost2010PropOp30
 70
     1
102
RTVSPost2010Prop31
280
     0
102
RTVSPost2010PropOp31
 70
     1
102
RTVSPost2010Prop32
280
     0
102
RTVSPost2010PropOp32
 70
     1
102
RTVSPost2010Prop33
280
     0
102
RTVSPost2010PropOp33
 70
     1
102
RTVSPost2010Prop34
280
     0
102
RTVSPost2010PropOp34
 70
     1
102
RTVSPost2010Prop35
280
     0
102
RTVSPost2010PropOp35
 70
     1
102
RTVSPost2010Prop36
280
     0
102
RTVSPost2010PropOp36
 70
     1
102
RTVSPost2010Prop37
 90
       50
102
RTVSPost2010PropOp37
 70
     0
102
RTVSPost2010Prop38
140
0.0
102
RTVSPost2010PropOp38
 70
     0
102
RTVSPost2010Prop39
140
1.0
102
RTVSPost2010PropOp39
 70
     0
102
RTVSPost2010Prop40
 90
        0
102
RTVSPost2010PropOp40
 70
     0
102
RTVSPost2010Prop41ColorIndex
 90
       18
102
RTVSPost2010Prop41ColorRGB
 90
        0
102
RTVSPost2010PropOp41
 70
     0
102
RTVSPost2010Prop42
 90
       50
102
RTVSPost2010PropOp42
 70
     0
102
RTVSPost2010Prop43
 90
        3
102
RTVSPost2010PropOp43
 70
     0
102
RTVSPost2010Prop44ColorIndex
 90
        5
102
RTVSPost2010Prop44ColorRGB
 90
      255
102
RTVSPost2010PropOp44
 70
     0
102
RTVSPost2010Prop45
280
     0
102
RTVSPost2010PropOp45
 70
     1
102
RTVSPost2010Prop46
 90
       50
102
RTVSPost2010PropOp46
 70
     0
102
RTVSPost2010Prop47
 90
       50
102
RTVSPost2010PropOp47
 70
     0
102
RTVSPost2010Prop48
 90
       50
102
RTVSPost2010PropOp48
 70
     0
102
RTVSPost2010Prop49
280
     0
102
RTVSPost2010PropOp49
 70
     1
102
RTVSPost2010Prop50
 90
       50
102
RTVSPost2010PropOp50
 70
     0
102
RTVSPost2010Prop51ColorIndex
 90
      256
102
RTVSPost2010Prop51ColorRGB
 90
-16777216
102
RTVSPost2010PropOp51
 70
     0
102
RTVSPost2010Prop52
140
1.0
102
RTVSPost2010PropOp52
 70
     0
102
RTVSPost2010Prop53
 90
        2
102
RTVSPost2010PropOp53
 70
     0
102
RTVSPost2010Prop54
  1
strokes_ogs.tif
102
RTVSPost2010PropOp54
 70
     0
102
RTVSPost2010Prop55
280
     0
102
RTVSPost2010PropOp55
 70
     1
102
RTVSPost2010Prop56
140
1.0
102
RTVSPost2010PropOp56
 70
     0
102
RTVSPost2010Prop57
140
1.0
102
RTVSPost2010PropOp57
 70
     0
102
RTVSPropertyOp0
 70
     0
102
RTVSPropertyOp1
 70
     0
102
RTVSPropertyOp2
 70
     0
102
RTVSPropertyOp3
 70
     0
102
RTVSPropertyOp4
 70
     0
102
RTVSPropertyOp5
 70
     0
102
RTVSPropertyOp6
 70
     0
102
RTVSPropertyOp7
 70
     0
102
RTVSPropertyOp8
 70
     0
102
RTVSPropertyOp9
 70
     0
102
RTVSPropertyOp10
 70
     0
102
RTVSPropertyOp11
 70
     0
102
RTVSPropertyOp12
 70
     0
102
RTVSPropertyOp13
 70
     0
102
RTVSPropertyOp14
 70
     2
102
RTVSPropertyOp15
 70
     0
102
RTVSPropertyOp16
 70
     0
102
RTVSPropertyOp17
 70
     0
102
RTVSPropertyOp18
 70
     0
102
RTVSPropertyOp19
 70
     0
102
RTVSPropertyOp20
 70
     0
102
RTVSPropertyOp21
 70
     0
102
RTVSPropertyOp22
 70
     0
102
RTVSPropertyOp23
 70
     0
102
RTVSPropertyOp24
 70
     0
102
RTVSPropertyOp25
 70
     0
102
RTVSPropertyOp26
 70
     0
102
RTVSPropertyOp27
 70
     0
102
RTVSPropertyOp28
 70
     1
102
RTVSPropertyOp29
 70
     1
102
RTVSPropertyOp30
 70
     1
102
RTVSPropertyOp31
 70
     1
102
RTVSPropertyOp32
 70
     1
102
RTVSPropertyOp33
 70
     1
102
RTVSPropertyOp34
 70
     1
102
RTVSPropertyOp35
 70
     1
102
RTVSPropertyOp36
 70
     1
102
RTVSPropertyOp37
 70
     0
102
RTVSPropertyOp38
 70
     0
102
RTVSPropertyOp39
 70
     0
102
RTVSPropertyOp40
 70
     0
102
RTVSPropertyOp41
 70
     0
102
RTVSPropertyOp42
 70
     0
102
RTVSPropertyOp43
 70
     0
102
RTVSPropertyOp44
 70
     0
102
RTVSPropertyOp45
 70
     1
102
RTVSPropertyOp46
 70
     0
102
RTVSPropertyOp47
 70
     0
102
RTVSPropertyOp48
 70
     0
102
RTVSPropertyOp49
 70
     1
102
RTVSPropertyOp50
 70
     0
102
RTVSPropertyOp51
 70
     0
102
RTVSPropertyOp52
 70
     0
102
RTVSPropertyOp53
 70
     0
102
RTVSPropertyOp54
 70
     0
102
RTVSPropertyOp55
 70
     1
102
RTVSPropertyOp56
 70
     0
102
RTVSPropertyOp57
 70
     0
102
RTVSPropertyOp58
 70
     0
102
RTVSPropertyOp59
 70
     0
102
RTVSPropertyOp60
 70
     0
102
RTVSPropertyOp61
 70
     0
102
RTVSPropertyOp62
 70
     0
  0
XRECORD
  5
BA45
102
{ACAD_REACTORS
330
BA44
102
}
330
BA44
100
AcDbXrecord
280
     1
102
RTVSPost2010Prop28
280
     0
102
RTVSPost2010PropOp28
 70
     1
102
RTVSPost2010Prop29
280
     1
102
RTVSPost2010PropOp29
 70
     1
102
RTVSPost2010Prop30
280
     1
102
RTVSPost2010PropOp30
 70
     1
102
RTVSPost2010Prop31
280
     0
102
RTVSPost2010PropOp31
 70
     1
102
RTVSPost2010Prop32
280
     0
102
RTVSPost2010PropOp32
 70
     1
102
RTVSPost2010Prop33
280
     0
102
RTVSPost2010PropOp33
 70
     1
102
RTVSPost2010Prop34
280
     0
102
RTVSPost2010PropOp34
 70
     1
102
RTVSPost2010Prop35
280
     0
102
RTVSPost2010PropOp35
 70
     1
102
RTVSPost2010Prop36
280
     0
102
RTVSPost2010PropOp36
 70
     1
102
RTVSPost2010Prop37
 90
       50
102
RTVSPost2010PropOp37
 70
     1
102
RTVSPost2010Prop38
140
0.0
102
RTVSPost2010PropOp38
 70
     1
102
RTVSPost2010Prop39
140
1.0
102
RTVSPost2010PropOp39
 70
     1
102
RTVSPost2010Prop40
 90
        0
102
RTVSPost2010PropOp40
 70
     1
102
RTVSPost2010Prop41ColorIndex
 90
       18
102
RTVSPost2010Prop41ColorRGB
 90
        0
102
RTVSPost2010PropOp41
 70
     1
102
RTVSPost2010Prop42
 90
       50
102
RTVSPost2010PropOp42
 70
     1
102
RTVSPost2010Prop43
 90
        3
102
RTVSPost2010PropOp43
 70
     1
102
RTVSPost2010Prop44ColorIndex
 90
        5
102
RTVSPost2010Prop44ColorRGB
 90
      255
102
RTVSPost2010PropOp44
 70
     1
102
RTVSPost2010Prop45
280
     0
102
RTVSPost2010PropOp45
 70
     1
102
RTVSPost2010Prop46
 90
       50
102
RTVSPost2010PropOp46
 70
     1
102
RTVSPost2010Prop47
 90
       50
102
RTVSPost2010PropOp47
 70
     1
102
RTVSPost2010Prop48
 90
       50
102
RTVSPost2010PropOp48
 70
     1
102
RTVSPost2010Prop49
280
     0
102
RTVSPost2010PropOp49
 70
     1
102
RTVSPost2010Prop50
 90
       50
102
RTVSPost2010PropOp50
 70
     1
102
RTVSPost2010Prop51ColorIndex
 90
      256
102
RTVSPost2010Prop51ColorRGB
 90
-16777216
102
RTVSPost2010PropOp51
 70
     0
102
RTVSPost2010Prop52
140
1.0
102
RTVSPost2010PropOp52
 70
     0
102
RTVSPost2010Prop53
 90
        2
102
RTVSPost2010PropOp53
 70
     1
102
RTVSPost2010Prop54
  1
strokes_ogs.tif
102
RTVSPost2010PropOp54
 70
     1
102
RTVSPost2010Prop55
280
     0
102
RTVSPost2010PropOp55
 70
     1
102
RTVSPost2010Prop56
140
1.0
102
RTVSPost2010PropOp56
 70
     1
102
RTVSPost2010Prop57
140
1.0
102
RTVSPost2010PropOp57
 70
     1
102
RTVSPropertyOp0
 70
     1
102
RTVSPropertyOp1
 70
     1
102
RTVSPropertyOp2
 70
     1
102
RTVSPropertyOp3
 70
     1
102
RTVSPropertyOp4
 70
     1
102
RTVSPropertyOp5
 70
     1
102
RTVSPropertyOp6
 70
     1
102
RTVSPropertyOp7
 70
     1
102
RTVSPropertyOp8
 70
     1
102
RTVSPropertyOp9
 70
     1
102
RTVSPropertyOp10
 70
     1
102
RTVSPropertyOp11
 70
     1
102
RTVSPropertyOp12
 70
     1
102
RTVSPropertyOp13
 70
     1
102
RTVSPropertyOp14
 70
     1
102
RTVSPropertyOp15
 70
     1
102
RTVSPropertyOp16
 70
     1
102
RTVSPropertyOp17
 70
     1
102
RTVSPropertyOp18
 70
     1
102
RTVSPropertyOp19
 70
     1
102
RTVSPropertyOp20
 70
     1
102
RTVSPropertyOp21
 70
     1
102
RTVSPropertyOp22
 70
     1
102
RTVSPropertyOp23
 70
     1
102
RTVSPropertyOp24
 70
     1
102
RTVSPropertyOp25
 70
     1
102
RTVSPropertyOp26
 70
     1
102
RTVSPropertyOp27
 70
     1
102
RTVSPropertyOp28
 70
     1
102
RTVSPropertyOp29
 70
     1
102
RTVSPropertyOp30
 70
     1
102
RTVSPropertyOp31
 70
     1
102
RTVSPropertyOp32
 70
     1
102
RTVSPropertyOp33
 70
     1
102
RTVSPropertyOp34
 70
     1
102
RTVSPropertyOp35
 70
     1
102
RTVSPropertyOp36
 70
     1
102
RTVSPropertyOp37
 70
     1
102
RTVSPropertyOp38
 70
     1
102
RTVSPropertyOp39
 70
     1
102
RTVSPropertyOp40
 70
     1
102
RTVSPropertyOp41
 70
     1
102
RTVSPropertyOp42
 70
     1
102
RTVSPropertyOp43
 70
     1
102
RTVSPropertyOp44
 70
     1
102
RTVSPropertyOp45
 70
     1
102
RTVSPropertyOp46
 70
     1
102
RTVSPropertyOp47
 70
     1
102
RTVSPropertyOp48
 70
     1
102
RTVSPropertyOp49
 70
     1
102
RTVSPropertyOp50
 70
     1
102
RTVSPropertyOp51
 70
     0
102
RTVSPropertyOp52
 70
     0
102
RTVSPropertyOp53
 70
     1
102
RTVSPropertyOp54
 70
     1
102
RTVSPropertyOp55
 70
     1
102
RTVSPropertyOp56
 70
     1
102
RTVSPropertyOp57
 70
     1
102
RTVSPropertyOp58
 70
     1
102
RTVSPropertyOp59
 70
     1
102
RTVSPropertyOp60
 70
     1
102
RTVSPropertyOp61
 70
     1
102
RTVSPropertyOp62
 70
     1
  0
XRECORD
  5
BA5B
102
{ACAD_REACTORS
330
BA5A
102
}
330
BA5A
100
AcDbXrecord
280
     1
102
RTVSPost2010Prop28
280
     0
102
RTVSPost2010PropOp28
 70
     1
102
RTVSPost2010Prop29
280
     1
102
RTVSPost2010PropOp29
 70
     1
102
RTVSPost2010Prop30
280
     1
102
RTVSPost2010PropOp30
 70
     1
102
RTVSPost2010Prop31
280
     0
102
RTVSPost2010PropOp31
 70
     1
102
RTVSPost2010Prop32
280
     0
102
RTVSPost2010PropOp32
 70
     1
102
RTVSPost2010Prop33
280
     0
102
RTVSPost2010PropOp33
 70
     1
102
RTVSPost2010Prop34
280
     0
102
RTVSPost2010PropOp34
 70
     1
102
RTVSPost2010Prop35
280
     0
102
RTVSPost2010PropOp35
 70
     1
102
RTVSPost2010Prop36
280
     0
102
RTVSPost2010PropOp36
 70
     1
102
RTVSPost2010Prop37
 90
       50
102
RTVSPost2010PropOp37
 70
     1
102
RTVSPost2010Prop38
140
0.0
102
RTVSPost2010PropOp38
 70
     1
102
RTVSPost2010Prop39
140
1.0
102
RTVSPost2010PropOp39
 70
     1
102
RTVSPost2010Prop40
 90
        0
102
RTVSPost2010PropOp40
 70
     1
102
RTVSPost2010Prop41ColorIndex
 90
       18
102
RTVSPost2010Prop41ColorRGB
 90
        0
102
RTVSPost2010PropOp41
 70
     1
102
RTVSPost2010Prop42
 90
       50
102
RTVSPost2010PropOp42
 70
     1
102
RTVSPost2010Prop43
 90
        3
102
RTVSPost2010PropOp43
 70
     1
102
RTVSPost2010Prop44ColorIndex
 90
        5
102
RTVSPost2010Prop44ColorRGB
 90
      255
102
RTVSPost2010PropOp44
 70
     1
102
RTVSPost2010Prop45
280
     0
102
RTVSPost2010PropOp45
 70
     1
102
RTVSPost2010Prop46
 90
       50
102
RTVSPost2010PropOp46
 70
     1
102
RTVSPost2010Prop47
 90
       50
102
RTVSPost2010PropOp47
 70
     1
102
RTVSPost2010Prop48
 90
       50
102
RTVSPost2010PropOp48
 70
     1
102
RTVSPost2010Prop49
280
     0
102
RTVSPost2010PropOp49
 70
     1
102
RTVSPost2010Prop50
 90
       50
102
RTVSPost2010PropOp50
 70
     1
102
RTVSPost2010Prop51ColorIndex
 90
      256
102
RTVSPost2010Prop51ColorRGB
 90
-16777216
102
RTVSPost2010PropOp51
 70
     0
102
RTVSPost2010Prop52
140
1.0
102
RTVSPost2010PropOp52
 70
     0
102
RTVSPost2010Prop53
 90
        2
102
RTVSPost2010PropOp53
 70
     1
102
RTVSPost2010Prop54
  1
strokes_ogs.tif
102
RTVSPost2010PropOp54
 70
     1
102
RTVSPost2010Prop55
280
     0
102
RTVSPost2010PropOp55
 70
     1
102
RTVSPost2010Prop56
140
1.0
102
RTVSPost2010PropOp56
 70
     1
102
RTVSPost2010Prop57
140
1.0
102
RTVSPost2010PropOp57
 70
     1
102
RTVSPropertyOp0
 70
     1
102
RTVSPropertyOp1
 70
     1
102
RTVSPropertyOp2
 70
     1
102
RTVSPropertyOp3
 70
     1
102
RTVSPropertyOp4
 70
     1
102
RTVSPropertyOp5
 70
     1
102
RTVSPropertyOp6
 70
     1
102
RTVSPropertyOp7
 70
     1
102
RTVSPropertyOp8
 70
     1
102
RTVSPropertyOp9
 70
     1
102
RTVSPropertyOp10
 70
     1
102
RTVSPropertyOp11
 70
     1
102
RTVSPropertyOp12
 70
     1
102
RTVSPropertyOp13
 70
     1
102
RTVSPropertyOp14
 70
     1
102
RTVSPropertyOp15
 70
     1
102
RTVSPropertyOp16
 70
     1
102
RTVSPropertyOp17
 70
     1
102
RTVSPropertyOp18
 70
     1
102
RTVSPropertyOp19
 70
     1
102
RTVSPropertyOp20
 70
     1
102
RTVSPropertyOp21
 70
     1
102
RTVSPropertyOp22
 70
     1
102
RTVSPropertyOp23
 70
     1
102
RTVSPropertyOp24
 70
     1
102
RTVSPropertyOp25
 70
     1
102
RTVSPropertyOp26
 70
     1
102
RTVSPropertyOp27
 70
     1
102
RTVSPropertyOp28
 70
     1
102
RTVSPropertyOp29
 70
     1
102
RTVSPropertyOp30
 70
     1
102
RTVSPropertyOp31
 70
     1
102
RTVSPropertyOp32
 70
     1
102
RTVSPropertyOp33
 70
     1
102
RTVSPropertyOp34
 70
     1
102
RTVSPropertyOp35
 70
     1
102
RTVSPropertyOp36
 70
     1
102
RTVSPropertyOp37
 70
     1
102
RTVSPropertyOp38
 70
     1
102
RTVSPropertyOp39
 70
     1
102
RTVSPropertyOp40
 70
     1
102
RTVSPropertyOp41
 70
     1
102
RTVSPropertyOp42
 70
     1
102
RTVSPropertyOp43
 70
     1
102
RTVSPropertyOp44
 70
     1
102
RTVSPropertyOp45
 70
     1
102
RTVSPropertyOp46
 70
     1
102
RTVSPropertyOp47
 70
     1
102
RTVSPropertyOp48
 70
     1
102
RTVSPropertyOp49
 70
     1
102
RTVSPropertyOp50
 70
     1
102
RTVSPropertyOp51
 70
     0
102
RTVSPropertyOp52
 70
     0
102
RTVSPropertyOp53
 70
     1
102
RTVSPropertyOp54
 70
     1
102
RTVSPropertyOp55
 70
     1
102
RTVSPropertyOp56
 70
     1
102
RTVSPropertyOp57
 70
     1
102
RTVSPropertyOp58
 70
     1
102
RTVSPropertyOp59
 70
     1
102
RTVSPropertyOp60
 70
     1
102
RTVSPropertyOp61
 70
     1
102
RTVSPropertyOp62
 70
     1
  0
XRECORD
  5
BA59
102
{ACAD_REACTORS
330
BA58
102
}
330
BA58
100
AcDbXrecord
280
     1
102
RTVSPost2010Prop28
280
     0
102
RTVSPost2010PropOp28
 70
     1
102
RTVSPost2010Prop29
280
     1
102
RTVSPost2010PropOp29
 70
     1
102
RTVSPost2010Prop30
280
     1
102
RTVSPost2010PropOp30
 70
     1
102
RTVSPost2010Prop31
280
     0
102
RTVSPost2010PropOp31
 70
     1
102
RTVSPost2010Prop32
280
     0
102
RTVSPost2010PropOp32
 70
     1
102
RTVSPost2010Prop33
280
     0
102
RTVSPost2010PropOp33
 70
     1
102
RTVSPost2010Prop34
280
     0
102
RTVSPost2010PropOp34
 70
     1
102
RTVSPost2010Prop35
280
     0
102
RTVSPost2010PropOp35
 70
     1
102
RTVSPost2010Prop36
280
     0
102
RTVSPost2010PropOp36
 70
     1
102
RTVSPost2010Prop37
 90
       50
102
RTVSPost2010PropOp37
 70
     1
102
RTVSPost2010Prop38
140
0.0
102
RTVSPost2010PropOp38
 70
     1
102
RTVSPost2010Prop39
140
1.0
102
RTVSPost2010PropOp39
 70
     1
102
RTVSPost2010Prop40
 90
        0
102
RTVSPost2010PropOp40
 70
     1
102
RTVSPost2010Prop41ColorIndex
 90
       18
102
RTVSPost2010Prop41ColorRGB
 90
        0
102
RTVSPost2010PropOp41
 70
     1
102
RTVSPost2010Prop42
 90
       50
102
RTVSPost2010PropOp42
 70
     1
102
RTVSPost2010Prop43
 90
        3
102
RTVSPost2010PropOp43
 70
     1
102
RTVSPost2010Prop44ColorIndex
 90
        5
102
RTVSPost2010Prop44ColorRGB
 90
      255
102
RTVSPost2010PropOp44
 70
     1
102
RTVSPost2010Prop45
280
     0
102
RTVSPost2010PropOp45
 70
     1
102
RTVSPost2010Prop46
 90
       50
102
RTVSPost2010PropOp46
 70
     1
102
RTVSPost2010Prop47
 90
       50
102
RTVSPost2010PropOp47
 70
     1
102
RTVSPost2010Prop48
 90
       50
102
RTVSPost2010PropOp48
 70
     1
102
RTVSPost2010Prop49
280
     0
102
RTVSPost2010PropOp49
 70
     1
102
RTVSPost2010Prop50
 90
       50
102
RTVSPost2010PropOp50
 70
     1
102
RTVSPost2010Prop51ColorIndex
 90
      256
102
RTVSPost2010Prop51ColorRGB
 90
-16777216
102
RTVSPost2010PropOp51
 70
     0
102
RTVSPost2010Prop52
140
1.0
102
RTVSPost2010PropOp52
 70
     0
102
RTVSPost2010Prop53
 90
        2
102
RTVSPost2010PropOp53
 70
     1
102
RTVSPost2010Prop54
  1
strokes_ogs.tif
102
RTVSPost2010PropOp54
 70
     1
102
RTVSPost2010Prop55
280
     0
102
RTVSPost2010PropOp55
 70
     1
102
RTVSPost2010Prop56
140
1.0
102
RTVSPost2010PropOp56
 70
     1
102
RTVSPost2010Prop57
140
1.0
102
RTVSPost2010PropOp57
 70
     1
102
RTVSPropertyOp0
 70
     1
102
RTVSPropertyOp1
 70
     1
102
RTVSPropertyOp2
 70
     1
102
RTVSPropertyOp3
 70
     1
102
RTVSPropertyOp4
 70
     1
102
RTVSPropertyOp5
 70
     1
102
RTVSPropertyOp6
 70
     1
102
RTVSPropertyOp7
 70
     1
102
RTVSPropertyOp8
 70
     1
102
RTVSPropertyOp9
 70
     1
102
RTVSPropertyOp10
 70
     1
102
RTVSPropertyOp11
 70
     1
102
RTVSPropertyOp12
 70
     1
102
RTVSPropertyOp13
 70
     1
102
RTVSPropertyOp14
 70
     1
102
RTVSPropertyOp15
 70
     1
102
RTVSPropertyOp16
 70
     1
102
RTVSPropertyOp17
 70
     1
102
RTVSPropertyOp18
 70
     1
102
RTVSPropertyOp19
 70
     1
102
RTVSPropertyOp20
 70
     1
102
RTVSPropertyOp21
 70
     1
102
RTVSPropertyOp22
 70
     1
102
RTVSPropertyOp23
 70
     1
102
RTVSPropertyOp24
 70
     1
102
RTVSPropertyOp25
 70
     1
102
RTVSPropertyOp26
 70
     1
102
RTVSPropertyOp27
 70
     1
102
RTVSPropertyOp28
 70
     1
102
RTVSPropertyOp29
 70
     1
102
RTVSPropertyOp30
 70
     1
102
RTVSPropertyOp31
 70
     1
102
RTVSPropertyOp32
 70
     1
102
RTVSPropertyOp33
 70
     1
102
RTVSPropertyOp34
 70
     1
102
RTVSPropertyOp35
 70
     1
102
RTVSPropertyOp36
 70
     1
102
RTVSPropertyOp37
 70
     1
102
RTVSPropertyOp38
 70
     1
102
RTVSPropertyOp39
 70
     1
102
RTVSPropertyOp40
 70
     1
102
RTVSPropertyOp41
 70
     1
102
RTVSPropertyOp42
 70
     1
102
RTVSPropertyOp43
 70
     1
102
RTVSPropertyOp44
 70
     1
102
RTVSPropertyOp45
 70
     1
102
RTVSPropertyOp46
 70
     1
102
RTVSPropertyOp47
 70
     1
102
RTVSPropertyOp48
 70
     1
102
RTVSPropertyOp49
 70
     1
102
RTVSPropertyOp50
 70
     1
102
RTVSPropertyOp51
 70
     0
102
RTVSPropertyOp52
 70
     0
102
RTVSPropertyOp53
 70
     1
102
RTVSPropertyOp54
 70
     1
102
RTVSPropertyOp55
 70
     1
102
RTVSPropertyOp56
 70
     1
102
RTVSPropertyOp57
 70
     1
102
RTVSPropertyOp58
 70
     1
102
RTVSPropertyOp59
 70
     1
102
RTVSPropertyOp60
 70
     1
102
RTVSPropertyOp61
 70
     1
102
RTVSPropertyOp62
 70
     1
  0
XRECORD
  5
BA53
102
{ACAD_REACTORS
330
BA52
102
}
330
BA52
100
AcDbXrecord
280
     1
102
RTVSPost2010Prop28
280
     0
102
RTVSPost2010PropOp28
 70
     1
102
RTVSPost2010Prop29
280
     1
102
RTVSPost2010PropOp29
 70
     1
102
RTVSPost2010Prop30
280
     1
102
RTVSPost2010PropOp30
 70
     1
102
RTVSPost2010Prop31
280
     0
102
RTVSPost2010PropOp31
 70
     1
102
RTVSPost2010Prop32
280
     0
102
RTVSPost2010PropOp32
 70
     1
102
RTVSPost2010Prop33
280
     0
102
RTVSPost2010PropOp33
 70
     1
102
RTVSPost2010Prop34
280
     0
102
RTVSPost2010PropOp34
 70
     1
102
RTVSPost2010Prop35
280
     0
102
RTVSPost2010PropOp35
 70
     1
102
RTVSPost2010Prop36
280
     0
102
RTVSPost2010PropOp36
 70
     1
102
RTVSPost2010Prop37
 90
       50
102
RTVSPost2010PropOp37
 70
     1
102
RTVSPost2010Prop38
140
0.0
102
RTVSPost2010PropOp38
 70
     1
102
RTVSPost2010Prop39
140
1.0
102
RTVSPost2010PropOp39
 70
     1
102
RTVSPost2010Prop40
 90
        0
102
RTVSPost2010PropOp40
 70
     1
102
RTVSPost2010Prop41ColorIndex
 90
       18
102
RTVSPost2010Prop41ColorRGB
 90
        0
102
RTVSPost2010PropOp41
 70
     1
102
RTVSPost2010Prop42
 90
       50
102
RTVSPost2010PropOp42
 70
     1
102
RTVSPost2010Prop43
 90
        3
102
RTVSPost2010PropOp43
 70
     1
102
RTVSPost2010Prop44ColorIndex
 90
        5
102
RTVSPost2010Prop44ColorRGB
 90
      255
102
RTVSPost2010PropOp44
 70
     1
102
RTVSPost2010Prop45
280
     0
102
RTVSPost2010PropOp45
 70
     1
102
RTVSPost2010Prop46
 90
       50
102
RTVSPost2010PropOp46
 70
     1
102
RTVSPost2010Prop47
 90
       50
102
RTVSPost2010PropOp47
 70
     1
102
RTVSPost2010Prop48
 90
       50
102
RTVSPost2010PropOp48
 70
     1
102
RTVSPost2010Prop49
280
     0
102
RTVSPost2010PropOp49
 70
     1
102
RTVSPost2010Prop50
 90
       50
102
RTVSPost2010PropOp50
 70
     1
102
RTVSPost2010Prop51ColorIndex
 90
      256
102
RTVSPost2010Prop51ColorRGB
 90
-16777216
102
RTVSPost2010PropOp51
 70
     0
102
RTVSPost2010Prop52
140
1.0
102
RTVSPost2010PropOp52
 70
     0
102
RTVSPost2010Prop53
 90
        2
102
RTVSPost2010PropOp53
 70
     1
102
RTVSPost2010Prop54
  1
strokes_ogs.tif
102
RTVSPost2010PropOp54
 70
     1
102
RTVSPost2010Prop55
280
     0
102
RTVSPost2010PropOp55
 70
     1
102
RTVSPost2010Prop56
140
1.0
102
RTVSPost2010PropOp56
 70
     1
102
RTVSPost2010Prop57
140
1.0
102
RTVSPost2010PropOp57
 70
     1
102
RTVSPropertyOp0
 70
     1
102
RTVSPropertyOp1
 70
     1
102
RTVSPropertyOp2
 70
     1
102
RTVSPropertyOp3
 70
     1
102
RTVSPropertyOp4
 70
     1
102
RTVSPropertyOp5
 70
     1
102
RTVSPropertyOp6
 70
     1
102
RTVSPropertyOp7
 70
     1
102
RTVSPropertyOp8
 70
     1
102
RTVSPropertyOp9
 70
     1
102
RTVSPropertyOp10
 70
     1
102
RTVSPropertyOp11
 70
     1
102
RTVSPropertyOp12
 70
     1
102
RTVSPropertyOp13
 70
     1
102
RTVSPropertyOp14
 70
     1
102
RTVSPropertyOp15
 70
     1
102
RTVSPropertyOp16
 70
     1
102
RTVSPropertyOp17
 70
     1
102
RTVSPropertyOp18
 70
     1
102
RTVSPropertyOp19
 70
     1
102
RTVSPropertyOp20
 70
     1
102
RTVSPropertyOp21
 70
     1
102
RTVSPropertyOp22
 70
     1
102
RTVSPropertyOp23
 70
     1
102
RTVSPropertyOp24
 70
     1
102
RTVSPropertyOp25
 70
     1
102
RTVSPropertyOp26
 70
     1
102
RTVSPropertyOp27
 70
     1
102
RTVSPropertyOp28
 70
     1
102
RTVSPropertyOp29
 70
     1
102
RTVSPropertyOp30
 70
     1
102
RTVSPropertyOp31
 70
     1
102
RTVSPropertyOp32
 70
     1
102
RTVSPropertyOp33
 70
     1
102
RTVSPropertyOp34
 70
     1
102
RTVSPropertyOp35
 70
     1
102
RTVSPropertyOp36
 70
     1
102
RTVSPropertyOp37
 70
     1
102
RTVSPropertyOp38
 70
     1
102
RTVSPropertyOp39
 70
     1
102
RTVSPropertyOp40
 70
     1
102
RTVSPropertyOp41
 70
     1
102
RTVSPropertyOp42
 70
     1
102
RTVSPropertyOp43
 70
     1
102
RTVSPropertyOp44
 70
     1
102
RTVSPropertyOp45
 70
     1
102
RTVSPropertyOp46
 70
     1
102
RTVSPropertyOp47
 70
     1
102
RTVSPropertyOp48
 70
     1
102
RTVSPropertyOp49
 70
     1
102
RTVSPropertyOp50
 70
     1
102
RTVSPropertyOp51
 70
     0
102
RTVSPropertyOp52
 70
     0
102
RTVSPropertyOp53
 70
     1
102
RTVSPropertyOp54
 70
     1
102
RTVSPropertyOp55
 70
     1
102
RTVSPropertyOp56
 70
     1
102
RTVSPropertyOp57
 70
     1
102
RTVSPropertyOp58
 70
     1
102
RTVSPropertyOp59
 70
     1
102
RTVSPropertyOp60
 70
     1
102
RTVSPropertyOp61
 70
     1
102
RTVSPropertyOp62
 70
     1
  0
XRECORD
  5
BA55
102
{ACAD_REACTORS
330
BA54
102
}
330
BA54
100
AcDbXrecord
280
     1
102
RTVSPost2010Prop28
280
     0
102
RTVSPost2010PropOp28
 70
     1
102
RTVSPost2010Prop29
280
     1
102
RTVSPost2010PropOp29
 70
     1
102
RTVSPost2010Prop30
280
     1
102
RTVSPost2010PropOp30
 70
     1
102
RTVSPost2010Prop31
280
     0
102
RTVSPost2010PropOp31
 70
     1
102
RTVSPost2010Prop32
280
     0
102
RTVSPost2010PropOp32
 70
     1
102
RTVSPost2010Prop33
280
     0
102
RTVSPost2010PropOp33
 70
     1
102
RTVSPost2010Prop34
280
     0
102
RTVSPost2010PropOp34
 70
     1
102
RTVSPost2010Prop35
280
     0
102
RTVSPost2010PropOp35
 70
     1
102
RTVSPost2010Prop36
280
     0
102
RTVSPost2010PropOp36
 70
     1
102
RTVSPost2010Prop37
 90
       50
102
RTVSPost2010PropOp37
 70
     1
102
RTVSPost2010Prop38
140
0.0
102
RTVSPost2010PropOp38
 70
     1
102
RTVSPost2010Prop39
140
1.0
102
RTVSPost2010PropOp39
 70
     1
102
RTVSPost2010Prop40
 90
        0
102
RTVSPost2010PropOp40
 70
     1
102
RTVSPost2010Prop41ColorIndex
 90
       18
102
RTVSPost2010Prop41ColorRGB
 90
        0
102
RTVSPost2010PropOp41
 70
     1
102
RTVSPost2010Prop42
 90
       50
102
RTVSPost2010PropOp42
 70
     1
102
RTVSPost2010Prop43
 90
        3
102
RTVSPost2010PropOp43
 70
     1
102
RTVSPost2010Prop44ColorIndex
 90
        5
102
RTVSPost2010Prop44ColorRGB
 90
      255
102
RTVSPost2010PropOp44
 70
     1
102
RTVSPost2010Prop45
280
     0
102
RTVSPost2010PropOp45
 70
     1
102
RTVSPost2010Prop46
 90
       50
102
RTVSPost2010PropOp46
 70
     1
102
RTVSPost2010Prop47
 90
       50
102
RTVSPost2010PropOp47
 70
     1
102
RTVSPost2010Prop48
 90
       50
102
RTVSPost2010PropOp48
 70
     1
102
RTVSPost2010Prop49
280
     0
102
RTVSPost2010PropOp49
 70
     1
102
RTVSPost2010Prop50
 90
       50
102
RTVSPost2010PropOp50
 70
     1
102
RTVSPost2010Prop51ColorIndex
 90
      256
102
RTVSPost2010Prop51ColorRGB
 90
-16777216
102
RTVSPost2010PropOp51
 70
     0
102
RTVSPost2010Prop52
140
1.0
102
RTVSPost2010PropOp52
 70
     0
102
RTVSPost2010Prop53
 90
        2
102
RTVSPost2010PropOp53
 70
     1
102
RTVSPost2010Prop54
  1
strokes_ogs.tif
102
RTVSPost2010PropOp54
 70
     1
102
RTVSPost2010Prop55
280
     0
102
RTVSPost2010PropOp55
 70
     1
102
RTVSPost2010Prop56
140
1.0
102
RTVSPost2010PropOp56
 70
     1
102
RTVSPost2010Prop57
140
1.0
102
RTVSPost2010PropOp57
 70
     1
102
RTVSPropertyOp0
 70
     1
102
RTVSPropertyOp1
 70
     1
102
RTVSPropertyOp2
 70
     1
102
RTVSPropertyOp3
 70
     1
102
RTVSPropertyOp4
 70
     1
102
RTVSPropertyOp5
 70
     1
102
RTVSPropertyOp6
 70
     1
102
RTVSPropertyOp7
 70
     1
102
RTVSPropertyOp8
 70
     1
102
RTVSPropertyOp9
 70
     1
102
RTVSPropertyOp10
 70
     1
102
RTVSPropertyOp11
 70
     1
102
RTVSPropertyOp12
 70
     1
102
RTVSPropertyOp13
 70
     1
102
RTVSPropertyOp14
 70
     1
102
RTVSPropertyOp15
 70
     1
102
RTVSPropertyOp16
 70
     1
102
RTVSPropertyOp17
 70
     1
102
RTVSPropertyOp18
 70
     1
102
RTVSPropertyOp19
 70
     1
102
RTVSPropertyOp20
 70
     1
102
RTVSPropertyOp21
 70
     1
102
RTVSPropertyOp22
 70
     1
102
RTVSPropertyOp23
 70
     1
102
RTVSPropertyOp24
 70
     1
102
RTVSPropertyOp25
 70
     1
102
RTVSPropertyOp26
 70
     1
102
RTVSPropertyOp27
 70
     1
102
RTVSPropertyOp28
 70
     1
102
RTVSPropertyOp29
 70
     1
102
RTVSPropertyOp30
 70
     1
102
RTVSPropertyOp31
 70
     1
102
RTVSPropertyOp32
 70
     1
102
RTVSPropertyOp33
 70
     1
102
RTVSPropertyOp34
 70
     1
102
RTVSPropertyOp35
 70
     1
102
RTVSPropertyOp36
 70
     1
102
RTVSPropertyOp37
 70
     1
102
RTVSPropertyOp38
 70
     1
102
RTVSPropertyOp39
 70
     1
102
RTVSPropertyOp40
 70
     1
102
RTVSPropertyOp41
 70
     1
102
RTVSPropertyOp42
 70
     1
102
RTVSPropertyOp43
 70
     1
102
RTVSPropertyOp44
 70
     1
102
RTVSPropertyOp45
 70
     1
102
RTVSPropertyOp46
 70
     1
102
RTVSPropertyOp47
 70
     1
102
RTVSPropertyOp48
 70
     1
102
RTVSPropertyOp49
 70
     1
102
RTVSPropertyOp50
 70
     1
102
RTVSPropertyOp51
 70
     0
102
RTVSPropertyOp52
 70
     0
102
RTVSPropertyOp53
 70
     1
102
RTVSPropertyOp54
 70
     1
102
RTVSPropertyOp55
 70
     1
102
RTVSPropertyOp56
 70
     1
102
RTVSPropertyOp57
 70
     1
102
RTVSPropertyOp58
 70
     1
102
RTVSPropertyOp59
 70
     1
102
RTVSPropertyOp60
 70
     1
102
RTVSPropertyOp61
 70
     1
102
RTVSPropertyOp62
 70
     1
  0
XRECORD
  5
BA4B
102
{ACAD_REACTORS
330
BA4A
102
}
330
BA4A
100
AcDbXrecord
280
     1
102
RTVSPost2010Prop28
280
     0
102
RTVSPost2010PropOp28
 70
     1
102
RTVSPost2010Prop29
280
     1
102
RTVSPost2010PropOp29
 70
     1
102
RTVSPost2010Prop30
280
     1
102
RTVSPost2010PropOp30
 70
     1
102
RTVSPost2010Prop31
280
     0
102
RTVSPost2010PropOp31
 70
     1
102
RTVSPost2010Prop32
280
     0
102
RTVSPost2010PropOp32
 70
     1
102
RTVSPost2010Prop33
280
     0
102
RTVSPost2010PropOp33
 70
     1
102
RTVSPost2010Prop34
280
     0
102
RTVSPost2010PropOp34
 70
     1
102
RTVSPost2010Prop35
280
     0
102
RTVSPost2010PropOp35
 70
     1
102
RTVSPost2010Prop36
280
     0
102
RTVSPost2010PropOp36
 70
     1
102
RTVSPost2010Prop37
 90
       50
102
RTVSPost2010PropOp37
 70
     1
102
RTVSPost2010Prop38
140
0.0
102
RTVSPost2010PropOp38
 70
     1
102
RTVSPost2010Prop39
140
1.0
102
RTVSPost2010PropOp39
 70
     1
102
RTVSPost2010Prop40
 90
        0
102
RTVSPost2010PropOp40
 70
     1
102
RTVSPost2010Prop41ColorIndex
 90
       18
102
RTVSPost2010Prop41ColorRGB
 90
        0
102
RTVSPost2010PropOp41
 70
     1
102
RTVSPost2010Prop42
 90
       50
102
RTVSPost2010PropOp42
 70
     1
102
RTVSPost2010Prop43
 90
        3
102
RTVSPost2010PropOp43
 70
     1
102
RTVSPost2010Prop44ColorIndex
 90
        5
102
RTVSPost2010Prop44ColorRGB
 90
      255
102
RTVSPost2010PropOp44
 70
     1
102
RTVSPost2010Prop45
280
     0
102
RTVSPost2010PropOp45
 70
     1
102
RTVSPost2010Prop46
 90
       50
102
RTVSPost2010PropOp46
 70
     1
102
RTVSPost2010Prop47
 90
       50
102
RTVSPost2010PropOp47
 70
     1
102
RTVSPost2010Prop48
 90
       50
102
RTVSPost2010PropOp48
 70
     1
102
RTVSPost2010Prop49
280
     0
102
RTVSPost2010PropOp49
 70
     1
102
RTVSPost2010Prop50
 90
       50
102
RTVSPost2010PropOp50
 70
     1
102
RTVSPost2010Prop51ColorIndex
 90
      256
102
RTVSPost2010Prop51ColorRGB
 90
-16777216
102
RTVSPost2010PropOp51
 70
     0
102
RTVSPost2010Prop52
140
1.0
102
RTVSPost2010PropOp52
 70
     0
102
RTVSPost2010Prop53
 90
        2
102
RTVSPost2010PropOp53
 70
     1
102
RTVSPost2010Prop54
  1
strokes_ogs.tif
102
RTVSPost2010PropOp54
 70
     1
102
RTVSPost2010Prop55
280
     0
102
RTVSPost2010PropOp55
 70
     1
102
RTVSPost2010Prop56
140
1.0
102
RTVSPost2010PropOp56
 70
     1
102
RTVSPost2010Prop57
140
1.0
102
RTVSPost2010PropOp57
 70
     1
102
RTVSPropertyOp0
 70
     1
102
RTVSPropertyOp1
 70
     1
102
RTVSPropertyOp2
 70
     1
102
RTVSPropertyOp3
 70
     1
102
RTVSPropertyOp4
 70
     1
102
RTVSPropertyOp5
 70
     1
102
RTVSPropertyOp6
 70
     1
102
RTVSPropertyOp7
 70
     1
102
RTVSPropertyOp8
 70
     1
102
RTVSPropertyOp9
 70
     1
102
RTVSPropertyOp10
 70
     1
102
RTVSPropertyOp11
 70
     1
102
RTVSPropertyOp12
 70
     1
102
RTVSPropertyOp13
 70
     1
102
RTVSPropertyOp14
 70
     1
102
RTVSPropertyOp15
 70
     1
102
RTVSPropertyOp16
 70
     1
102
RTVSPropertyOp17
 70
     1
102
RTVSPropertyOp18
 70
     1
102
RTVSPropertyOp19
 70
     1
102
RTVSPropertyOp20
 70
     1
102
RTVSPropertyOp21
 70
     1
102
RTVSPropertyOp22
 70
     1
102
RTVSPropertyOp23
 70
     1
102
RTVSPropertyOp24
 70
     1
102
RTVSPropertyOp25
 70
     1
102
RTVSPropertyOp26
 70
     1
102
RTVSPropertyOp27
 70
     1
102
RTVSPropertyOp28
 70
     1
102
RTVSPropertyOp29
 70
     1
102
RTVSPropertyOp30
 70
     1
102
RTVSPropertyOp31
 70
     1
102
RTVSPropertyOp32
 70
     1
102
RTVSPropertyOp33
 70
     1
102
RTVSPropertyOp34
 70
     1
102
RTVSPropertyOp35
 70
     1
102
RTVSPropertyOp36
 70
     1
102
RTVSPropertyOp37
 70
     1
102
RTVSPropertyOp38
 70
     1
102
RTVSPropertyOp39
 70
     1
102
RTVSPropertyOp40
 70
     1
102
RTVSPropertyOp41
 70
     1
102
RTVSPropertyOp42
 70
     1
102
RTVSPropertyOp43
 70
     1
102
RTVSPropertyOp44
 70
     1
102
RTVSPropertyOp45
 70
     1
102
RTVSPropertyOp46
 70
     1
102
RTVSPropertyOp47
 70
     1
102
RTVSPropertyOp48
 70
     1
102
RTVSPropertyOp49
 70
     1
102
RTVSPropertyOp50
 70
     1
102
RTVSPropertyOp51
 70
     0
102
RTVSPropertyOp52
 70
     0
102
RTVSPropertyOp53
 70
     1
102
RTVSPropertyOp54
 70
     1
102
RTVSPropertyOp55
 70
     1
102
RTVSPropertyOp56
 70
     1
102
RTVSPropertyOp57
 70
     1
102
RTVSPropertyOp58
 70
     1
102
RTVSPropertyOp59
 70
     1
102
RTVSPropertyOp60
 70
     1
102
RTVSPropertyOp61
 70
     1
102
RTVSPropertyOp62
 70
     1
  0
XRECORD
  5
BA3F
102
{ACAD_REACTORS
330
BA3E
102
}
330
BA3E
100
AcDbXrecord
280
     1
102
RTVSPost2010Prop28
280
     0
102
RTVSPost2010PropOp28
 70
     1
102
RTVSPost2010Prop29
280
     1
102
RTVSPost2010PropOp29
 70
     1
102
RTVSPost2010Prop30
280
     1
102
RTVSPost2010PropOp30
 70
     1
102
RTVSPost2010Prop31
280
     0
102
RTVSPost2010PropOp31
 70
     1
102
RTVSPost2010Prop32
280
     0
102
RTVSPost2010PropOp32
 70
     1
102
RTVSPost2010Prop33
280
     0
102
RTVSPost2010PropOp33
 70
     1
102
RTVSPost2010Prop34
280
     0
102
RTVSPost2010PropOp34
 70
     1
102
RTVSPost2010Prop35
280
     0
102
RTVSPost2010PropOp35
 70
     1
102
RTVSPost2010Prop36
280
     0
102
RTVSPost2010PropOp36
 70
     1
102
RTVSPost2010Prop37
 90
       50
102
RTVSPost2010PropOp37
 70
     1
102
RTVSPost2010Prop38
140
0.0
102
RTVSPost2010PropOp38
 70
     1
102
RTVSPost2010Prop39
140
1.0
102
RTVSPost2010PropOp39
 70
     1
102
RTVSPost2010Prop40
 90
        0
102
RTVSPost2010PropOp40
 70
     1
102
RTVSPost2010Prop41ColorIndex
 90
       18
102
RTVSPost2010Prop41ColorRGB
 90
        0
102
RTVSPost2010PropOp41
 70
     1
102
RTVSPost2010Prop42
 90
       50
102
RTVSPost2010PropOp42
 70
     1
102
RTVSPost2010Prop43
 90
        3
102
RTVSPost2010PropOp43
 70
     1
102
RTVSPost2010Prop44ColorIndex
 90
        5
102
RTVSPost2010Prop44ColorRGB
 90
      255
102
RTVSPost2010PropOp44
 70
     1
102
RTVSPost2010Prop45
280
     0
102
RTVSPost2010PropOp45
 70
     1
102
RTVSPost2010Prop46
 90
       50
102
RTVSPost2010PropOp46
 70
     1
102
RTVSPost2010Prop47
 90
       50
102
RTVSPost2010PropOp47
 70
     1
102
RTVSPost2010Prop48
 90
       50
102
RTVSPost2010PropOp48
 70
     1
102
RTVSPost2010Prop49
280
     0
102
RTVSPost2010PropOp49
 70
     1
102
RTVSPost2010Prop50
 90
       50
102
RTVSPost2010PropOp50
 70
     1
102
RTVSPost2010Prop51ColorIndex
 90
      256
102
RTVSPost2010Prop51ColorRGB
 90
-16777216
102
RTVSPost2010PropOp51
 70
     0
102
RTVSPost2010Prop52
140
1.0
102
RTVSPost2010PropOp52
 70
     0
102
RTVSPost2010Prop53
 90
        2
102
RTVSPost2010PropOp53
 70
     1
102
RTVSPost2010Prop54
  1
strokes_ogs.tif
102
RTVSPost2010PropOp54
 70
     1
102
RTVSPost2010Prop55
280
     0
102
RTVSPost2010PropOp55
 70
     1
102
RTVSPost2010Prop56
140
1.0
102
RTVSPost2010PropOp56
 70
     1
102
RTVSPost2010Prop57
140
1.0
102
RTVSPost2010PropOp57
 70
     1
102
RTVSPropertyOp0
 70
     1
102
RTVSPropertyOp1
 70
     1
102
RTVSPropertyOp2
 70
     1
102
RTVSPropertyOp3
 70
     1
102
RTVSPropertyOp4
 70
     1
102
RTVSPropertyOp5
 70
     1
102
RTVSPropertyOp6
 70
     1
102
RTVSPropertyOp7
 70
     1
102
RTVSPropertyOp8
 70
     1
102
RTVSPropertyOp9
 70
     1
102
RTVSPropertyOp10
 70
     1
102
RTVSPropertyOp11
 70
     1
102
RTVSPropertyOp12
 70
     1
102
RTVSPropertyOp13
 70
     1
102
RTVSPropertyOp14
 70
     1
102
RTVSPropertyOp15
 70
     1
102
RTVSPropertyOp16
 70
     1
102
RTVSPropertyOp17
 70
     1
102
RTVSPropertyOp18
 70
     1
102
RTVSPropertyOp19
 70
     1
102
RTVSPropertyOp20
 70
     1
102
RTVSPropertyOp21
 70
     1
102
RTVSPropertyOp22
 70
     1
102
RTVSPropertyOp23
 70
     1
102
RTVSPropertyOp24
 70
     1
102
RTVSPropertyOp25
 70
     1
102
RTVSPropertyOp26
 70
     1
102
RTVSPropertyOp27
 70
     1
102
RTVSPropertyOp28
 70
     1
102
RTVSPropertyOp29
 70
     1
102
RTVSPropertyOp30
 70
     1
102
RTVSPropertyOp31
 70
     1
102
RTVSPropertyOp32
 70
     1
102
RTVSPropertyOp33
 70
     1
102
RTVSPropertyOp34
 70
     1
102
RTVSPropertyOp35
 70
     1
102
RTVSPropertyOp36
 70
     1
102
RTVSPropertyOp37
 70
     1
102
RTVSPropertyOp38
 70
     1
102
RTVSPropertyOp39
 70
     1
102
RTVSPropertyOp40
 70
     1
102
RTVSPropertyOp41
 70
     1
102
RTVSPropertyOp42
 70
     1
102
RTVSPropertyOp43
 70
     1
102
RTVSPropertyOp44
 70
     1
102
RTVSPropertyOp45
 70
     1
102
RTVSPropertyOp46
 70
     1
102
RTVSPropertyOp47
 70
     1
102
RTVSPropertyOp48
 70
     1
102
RTVSPropertyOp49
 70
     1
102
RTVSPropertyOp50
 70
     1
102
RTVSPropertyOp51
 70
     0
102
RTVSPropertyOp52
 70
     0
102
RTVSPropertyOp53
 70
     1
102
RTVSPropertyOp54
 70
     1
102
RTVSPropertyOp55
 70
     1
102
RTVSPropertyOp56
 70
     1
102
RTVSPropertyOp57
 70
     1
102
RTVSPropertyOp58
 70
     1
102
RTVSPropertyOp59
 70
     1
102
RTVSPropertyOp60
 70
     1
102
RTVSPropertyOp61
 70
     1
102
RTVSPropertyOp62
 70
     1
  0
XRECORD
  5
BA57
102
{ACAD_REACTORS
330
BA56
102
}
330
BA56
100
AcDbXrecord
280
     1
102
RTVSPost2010Prop28
280
     0
102
RTVSPost2010PropOp28
 70
     1
102
RTVSPost2010Prop29
280
     1
102
RTVSPost2010PropOp29
 70
     1
102
RTVSPost2010Prop30
280
     1
102
RTVSPost2010PropOp30
 70
     1
102
RTVSPost2010Prop31
280
     0
102
RTVSPost2010PropOp31
 70
     1
102
RTVSPost2010Prop32
280
     0
102
RTVSPost2010PropOp32
 70
     1
102
RTVSPost2010Prop33
280
     0
102
RTVSPost2010PropOp33
 70
     1
102
RTVSPost2010Prop34
280
     0
102
RTVSPost2010PropOp34
 70
     1
102
RTVSPost2010Prop35
280
     0
102
RTVSPost2010PropOp35
 70
     1
102
RTVSPost2010Prop36
280
     0
102
RTVSPost2010PropOp36
 70
     1
102
RTVSPost2010Prop37
 90
       50
102
RTVSPost2010PropOp37
 70
     1
102
RTVSPost2010Prop38
140
0.0
102
RTVSPost2010PropOp38
 70
     1
102
RTVSPost2010Prop39
140
1.0
102
RTVSPost2010PropOp39
 70
     1
102
RTVSPost2010Prop40
 90
        0
102
RTVSPost2010PropOp40
 70
     1
102
RTVSPost2010Prop41ColorIndex
 90
       18
102
RTVSPost2010Prop41ColorRGB
 90
        0
102
RTVSPost2010PropOp41
 70
     1
102
RTVSPost2010Prop42
 90
       50
102
RTVSPost2010PropOp42
 70
     1
102
RTVSPost2010Prop43
 90
        3
102
RTVSPost2010PropOp43
 70
     1
102
RTVSPost2010Prop44ColorIndex
 90
        5
102
RTVSPost2010Prop44ColorRGB
 90
      255
102
RTVSPost2010PropOp44
 70
     1
102
RTVSPost2010Prop45
280
     0
102
RTVSPost2010PropOp45
 70
     1
102
RTVSPost2010Prop46
 90
       50
102
RTVSPost2010PropOp46
 70
     1
102
RTVSPost2010Prop47
 90
       50
102
RTVSPost2010PropOp47
 70
     1
102
RTVSPost2010Prop48
 90
       50
102
RTVSPost2010PropOp48
 70
     1
102
RTVSPost2010Prop49
280
     0
102
RTVSPost2010PropOp49
 70
     1
102
RTVSPost2010Prop50
 90
       50
102
RTVSPost2010PropOp50
 70
     1
102
RTVSPost2010Prop51ColorIndex
 90
      256
102
RTVSPost2010Prop51ColorRGB
 90
-16777216
102
RTVSPost2010PropOp51
 70
     0
102
RTVSPost2010Prop52
140
1.0
102
RTVSPost2010PropOp52
 70
     0
102
RTVSPost2010Prop53
 90
        2
102
RTVSPost2010PropOp53
 70
     1
102
RTVSPost2010Prop54
  1
strokes_ogs.tif
102
RTVSPost2010PropOp54
 70
     1
102
RTVSPost2010Prop55
280
     0
102
RTVSPost2010PropOp55
 70
     1
102
RTVSPost2010Prop56
140
1.0
102
RTVSPost2010PropOp56
 70
     1
102
RTVSPost2010Prop57
140
1.0
102
RTVSPost2010PropOp57
 70
     1
102
RTVSPropertyOp0
 70
     1
102
RTVSPropertyOp1
 70
     1
102
RTVSPropertyOp2
 70
     1
102
RTVSPropertyOp3
 70
     1
102
RTVSPropertyOp4
 70
     1
102
RTVSPropertyOp5
 70
     1
102
RTVSPropertyOp6
 70
     1
102
RTVSPropertyOp7
 70
     1
102
RTVSPropertyOp8
 70
     1
102
RTVSPropertyOp9
 70
     1
102
RTVSPropertyOp10
 70
     1
102
RTVSPropertyOp11
 70
     1
102
RTVSPropertyOp12
 70
     1
102
RTVSPropertyOp13
 70
     1
102
RTVSPropertyOp14
 70
     1
102
RTVSPropertyOp15
 70
     1
102
RTVSPropertyOp16
 70
     1
102
RTVSPropertyOp17
 70
     1
102
RTVSPropertyOp18
 70
     1
102
RTVSPropertyOp19
 70
     1
102
RTVSPropertyOp20
 70
     1
102
RTVSPropertyOp21
 70
     1
102
RTVSPropertyOp22
 70
     1
102
RTVSPropertyOp23
 70
     1
102
RTVSPropertyOp24
 70
     1
102
RTVSPropertyOp25
 70
     1
102
RTVSPropertyOp26
 70
     1
102
RTVSPropertyOp27
 70
     1
102
RTVSPropertyOp28
 70
     1
102
RTVSPropertyOp29
 70
     1
102
RTVSPropertyOp30
 70
     1
102
RTVSPropertyOp31
 70
     1
102
RTVSPropertyOp32
 70
     1
102
RTVSPropertyOp33
 70
     1
102
RTVSPropertyOp34
 70
     1
102
RTVSPropertyOp35
 70
     1
102
RTVSPropertyOp36
 70
     1
102
RTVSPropertyOp37
 70
     1
102
RTVSPropertyOp38
 70
     1
102
RTVSPropertyOp39
 70
     1
102
RTVSPropertyOp40
 70
     1
102
RTVSPropertyOp41
 70
     1
102
RTVSPropertyOp42
 70
     1
102
RTVSPropertyOp43
 70
     1
102
RTVSPropertyOp44
 70
     1
102
RTVSPropertyOp45
 70
     1
102
RTVSPropertyOp46
 70
     1
102
RTVSPropertyOp47
 70
     1
102
RTVSPropertyOp48
 70
     1
102
RTVSPropertyOp49
 70
     1
102
RTVSPropertyOp50
 70
     1
102
RTVSPropertyOp51
 70
     0
102
RTVSPropertyOp52
 70
     0
102
RTVSPropertyOp53
 70
     1
102
RTVSPropertyOp54
 70
     1
102
RTVSPropertyOp55
 70
     1
102
RTVSPropertyOp56
 70
     1
102
RTVSPropertyOp57
 70
     1
102
RTVSPropertyOp58
 70
     1
102
RTVSPropertyOp59
 70
     1
102
RTVSPropertyOp60
 70
     1
102
RTVSPropertyOp61
 70
     1
102
RTVSPropertyOp62
 70
     1
  0
ENDSEC
  0
EOF
