  0
SECTION
  2
HEADER
  9
$ACADVER
  1
AC1015
  9
$ACADMAINTVER
 70
    20
  9
$DWGCODEPAGE
  3
ANSI_932
  9
$INSBASE
 10
0.0
 20
0.0
 30
0.0
  9
$EXTMIN
 10
10.0
 20
9.999999999999998
 30
0.0
  9
$EXTMAX
 10
225.9504769999999
 20
210.661821
 30
0.0
  9
$LIMMIN
 10
0.0
 20
0.0
  9
$LIMMAX
 10
396.0
 20
273.0
  9
$ORTHOMODE
 70
     1
  9
$REGENMODE
 70
     1
  9
$FILLMODE
 70
     1
  9
$QTEXTMODE
 70
     0
  9
$MIRRTEXT
 70
     1
  9
$LTSCALE
 40
20.0
  9
$ATTMODE
 70
     1
  9
$TEXTSIZE
 40
5.0
  9
$TRACEWID
 40
1.0
  9
$TEXTSTYLE
  7
STANDARD
  9
$CLAYER
  8
0
  9
$CELTYPE
  6
BYLAYER
  9
$CECOLOR
 62
   256
  9
$CELTSCALE
 40
1.0
  9
$DISPSILH
 70
     0
  9
$DIMSCALE
 40
1.0
  9
$DIMASZ
 40
2.5
  9
$DIMEXO
 40
1.0
  9
$DIMDLI
 40
10.0
  9
$DIMRND
 40
0.0
  9
$DIMDLE
 40
0.0
  9
$DIMEXE
 40
1.0
  9
$DIMTP
 40
0.0
  9
$DIMTM
 40
0.0
  9
$DIMTXT
 40
3.2
  9
$DIMCEN
 40
0.0
  9
$DIMTSZ
 40
0.0
  9
$DIMTOL
 70
     0
  9
$DIMLIM
 70
     0
  9
$DIMTIH
 70
     0
  9
$DIMTOH
 70
     0
  9
$DIMSE1
 70
     0
  9
$DIMSE2
 70
     0
  9
$DIMTAD
 70
     3
  9
$DIMZIN
 70
     8
  9
$DIMBLK
  1

  9
$DIMASO
 70
     1
  9
$DIMSHO
 70
     1
  9
$DIMPOST
  1

  9
$DIMAPOST
  1

  9
$DIMALT
 70
     0
  9
$DIMALTD
 70
     2
  9
$DIMALTF
 40
25.4
  9
$DIMLFAC
 40
1.0
  9
$DIMTOFL
 70
     1
  9
$DIMTVP
 40
0.0
  9
$DIMTIX
 70
     0
  9
$DIMSOXD
 70
     0
  9
$DIMSAH
 70
     1
  9
$DIMBLK1
  1

  9
$DIMBLK2
  1

  9
$DIMSTYLE
  2
STANDARD
  9
$DIMCLRD
 70
     0
  9
$DIMCLRE
 70
     0
  9
$DIMCLRT
 70
     0
  9
$DIMTFAC
 40
1.0
  9
$DIMGAP
 40
1.0
  9
$DIMJUST
 70
     0
  9
$DIMSD1
 70
     0
  9
$DIMSD2
 70
     0
  9
$DIMTOLJ
 70
     1
  9
$DIMTZIN
 70
     0
  9
$DIMALTZ
 70
     0
  9
$DIMALTTZ
 70
     0
  9
$DIMUPT
 70
     0
  9
$DIMDEC
 70
     4
  9
$DIMTDEC
 70
     4
  9
$DIMALTU
 70
     2
  9
$DIMALTTD
 70
     2
  9
$DIMTXSTY
  7
STANDARD
  9
$DIMAUNIT
 70
     0
  9
$DIMADEC
 70
     0
  9
$DIMALTRND
 40
0.0
  9
$DIMAZIN
 70
     0
  9
$DIMDSEP
 70
    46
  9
$DIMATFIT
 70
     3
  9
$DIMFRAC
 70
     0
  9
$DIMLDRBLK
  1

  9
$DIMLUNIT
 70
     2
  9
$DIMLWD
 70
    -2
  9
$DIMLWE
 70
    -2
  9
$DIMTMOVE
 70
     0
  9
$LUNITS
 70
     2
  9
$LUPREC
 70
     4
  9
$SKETCHINC
 40
1.0
  9
$FILLETRAD
 40
1.0
  9
$AUNITS
 70
     0
  9
$AUPREC
 70
     2
  9
$MENU
  1
.
  9
$ELEVATION
 40
0.0
  9
$PELEVATION
 40
0.0
  9
$THICKNESS
 40
0.0
  9
$LIMCHECK
 70
     0
  9
$CHAMFERA
 40
10.0
  9
$CHAMFERB
 40
10.0
  9
$CHAMFERC
 40
0.0
  9
$CHAMFERD
 40
0.0
  9
$SKPOLY
 70
     0
  9
$TDCREATE
 40
2451296.796417014
  9
$TDUCREATE
 40
2451296.421417014
  9
$TDUPDATE
 40
2457192.658369618
  9
$TDUUPDATE
 40
2457192.283369618
  9
$TDINDWG
 40
0.0000104167
  9
$TDUSRTIMER
 40
0.0000099190
  9
$USRTIMER
 70
     1
  9
$ANGBASE
 50
0.0
  9
$ANGDIR
 70
     0
  9
$PDMODE
 70
     0
  9
$PDSIZE
 40
0.0
  9
$PLINEWID
 40
0.0
  9
$SPLFRAME
 70
     0
  9
$SPLINETYPE
 70
     6
  9
$SPLINESEGS
 70
     8
  9
$HANDSEED
  5
C1B2
  9
$SURFTAB1
 70
     6
  9
$SURFTAB2
 70
     6
  9
$SURFTYPE
 70
     6
  9
$SURFU
 70
     6
  9
$SURFV
 70
     6
  9
$UCSBASE
  2

  9
$UCSNAME
  2

  9
$UCSORG
 10
0.0
 20
0.0
 30
0.0
  9
$UCSXDIR
 10
1.0
 20
0.0
 30
0.0
  9
$UCSYDIR
 10
0.0
 20
1.0
 30
0.0
  9
$UCSORTHOREF
  2

  9
$UCSORTHOVIEW
 70
     0
  9
$UCSORGTOP
 10
0.0
 20
0.0
 30
0.0
  9
$UCSORGBOTTOM
 10
0.0
 20
0.0
 30
0.0
  9
$UCSORGLEFT
 10
0.0
 20
0.0
 30
0.0
  9
$UCSORGRIGHT
 10
0.0
 20
0.0
 30
0.0
  9
$UCSORGFRONT
 10
0.0
 20
0.0
 30
0.0
  9
$UCSORGBACK
 10
0.0
 20
0.0
 30
0.0
  9
$PUCSBASE
  2

  9
$PUCSNAME
  2

  9
$PUCSORG
 10
0.0
 20
0.0
 30
0.0
  9
$PUCSXDIR
 10
1.0
 20
0.0
 30
0.0
  9
$PUCSYDIR
 10
0.0
 20
1.0
 30
0.0
  9
$PUCSORTHOREF
  2

  9
$PUCSORTHOVIEW
 70
     0
  9
$PUCSORGTOP
 10
0.0
 20
0.0
 30
0.0
  9
$PUCSORGBOTTOM
 10
0.0
 20
0.0
 30
0.0
  9
$PUCSORGLEFT
 10
0.0
 20
0.0
 30
0.0
  9
$PUCSORGRIGHT
 10
0.0
 20
0.0
 30
0.0
  9
$PUCSORGFRONT
 10
0.0
 20
0.0
 30
0.0
  9
$PUCSORGBACK
 10
0.0
 20
0.0
 30
0.0
  9
$USERI1
 70
     0
  9
$USERI2
 70
     0
  9
$USERI3
 70
     0
  9
$USERI4
 70
     0
  9
$USERI5
 70
     0
  9
$USERR1
 40
0.0
  9
$USERR2
 40
0.0
  9
$USERR3
 40
0.0
  9
$USERR4
 40
0.0
  9
$USERR5
 40
0.0
  9
$WORLDVIEW
 70
     1
  9
$SHADEDGE
 70
     3
  9
$SHADEDIF
 70
    70
  9
$TILEMODE
 70
     1
  9
$MAXACTVP
 70
    16
  9
$PINSBASE
 10
0.0
 20
0.0
 30
0.0
  9
$PLIMCHECK
 70
     0
  9
$PEXTMIN
 10
1.000000000000000E+20
 20
1.000000000000000E+20
 30
1.000000000000000E+20
  9
$PEXTMAX
 10
-1.000000000000000E+20
 20
-1.000000000000000E+20
 30
-1.000000000000000E+20
  9
$PLIMMIN
 10
0.0
 20
0.0
  9
$PLIMMAX
 10
420.0
 20
297.0
  9
$UNITMODE
 70
     0
  9
$VISRETAIN
 70
     0
  9
$PLINEGEN
 70
     0
  9
$PSLTSCALE
 70
     0
  9
$TREEDEPTH
 70
  3020
  9
$CMLSTYLE
  2
STANDARD
  9
$CMLJUST
 70
     0
  9
$CMLSCALE
 40
1.0
  9
$PROXYGRAPHICS
 70
     1
  9
$MEASUREMENT
 70
     0
  9
$CELWEIGHT
370
    -1
  9
$ENDCAPS
280
     0
  9
$JOINSTYLE
280
     0
  9
$LWDISPLAY
290
     0
  9
$INSUNITS
 70
     0
  9
$HYPERLINKBASE
  1

  9
$STYLESHEET
  1

  9
$XEDIT
290
     1
  9
$CEPSNTYPE
380
     0
  9
$PSTYLEMODE
290
     1
  9
$FINGERPRINTGUID
  2
{5193E289-710E-4E0C-9161-ECE0AF62497D}
  9
$VERSIONGUID
  2
{9E2EEC12-549C-4152-8DD6-1672BD973977}
  9
$EXTNAMES
290
     1
  9
$PSVPSCALE
 40
0.0
  9
$OLESTARTUP
290
     0
  0
ENDSEC
  0
SECTION
  2
CLASSES
  0
CLASS
  1
ACDBDICTIONARYWDFLT
  2
AcDbDictionaryWithDefault
  3
ObjectDBX Classes
 90
        0
280
     0
281
     0
  0
CLASS
  1
ACDBPLACEHOLDER
  2
AcDbPlaceHolder
  3
ObjectDBX Classes
 90
        0
280
     0
281
     0
  0
CLASS
  1
LAYOUT
  2
AcDbLayout
  3
ObjectDBX Classes
 90
        0
280
     0
281
     0
  0
CLASS
  1
DICTIONARYVAR
  2
AcDbDictionaryVar
  3
ObjectDBX Classes
 90
        0
280
     0
281
     0
  0
CLASS
  1
MATERIAL
  2
AcDbMaterial
  3
ObjectDBX Classes
 90
     1153
280
     0
281
     0
  0
CLASS
  1
VISUALSTYLE
  2
AcDbVisualStyle
  3
ObjectDBX Classes
 90
     4095
280
     0
281
     0
  0
CLASS
  1
TABLESTYLE
  2
AcDbTableStyle
  3
ObjectDBX Classes
 90
     4095
280
     0
281
     0
  0
CLASS
  1
SCALE
  2
AcDbScale
  3
ObjectDBX Classes
 90
     1153
280
     0
281
     0
  0
CLASS
  1
MLEADERSTYLE
  2
AcDbMLeaderStyle
  3
ACDB_MLEADERSTYLE_CLASS
 90
     4095
280
     0
281
     0
  0
CLASS
  1
ACDBSECTIONVIEWSTYLE
  2
AcDbSectionViewStyle
  3
ObjectDBX Classes
 90
     1025
280
     0
281
     0
  0
CLASS
  1
ACDBDETAILVIEWSTYLE
  2
AcDbDetailViewStyle
  3
ObjectDBX Classes
 90
     1025
280
     0
281
     0
  0
CLASS
  1
CELLSTYLEMAP
  2
AcDbCellStyleMap
  3
ObjectDBX Classes
 90
     1152
280
     0
281
     0
  0
ENDSEC
  0
SECTION
  2
TABLES
  0
TABLE
  2
VPORT
  5
BEFB
330
0
100
AcDbSymbolTable
 70
     1
  0
VPORT
  5
C0FB
330
BEFB
100
AcDbSymbolTableRecord
100
AcDbViewportTableRecord
  2
*ACTIVE
 70
     0
 10
0.0
 20
0.0
 11
1.0
 21
1.0
 12
178.7648527043873
 22
110.3293081613132
 13
0.0
 23
0.0
 14
10.0
 24
10.0
 15
10.0
 25
10.0
 16
0.0
 26
0.0
 36
1.0
 17
0.0
 27
0.0
 37
0.0
 40
202.924651172896
 41
1.899603698811096
 42
50.0
 43
0.0
 44
0.0
 50
0.0
 51
0.0
 71
     0
 72
   100
 73
     1
 74
     0
 75
     0
 76
     0
 77
     0
 78
     0
281
     0
 65
     1
110
0.0
120
0.0
130
0.0
111
1.0
121
0.0
131
0.0
112
0.0
122
1.0
132
0.0
 79
     0
146
0.0
1001
ACAD_NAV_VCDISPLAY
1070
     3
  0
ENDTAB
  0
TABLE
  2
LTYPE
  5
BEF8
330
0
100
AcDbSymbolTable
 70
     4
  0
LTYPE
  5
BF06
330
BEF8
100
AcDbSymbolTableRecord
100
AcDbLinetypeTableRecord
  2
BYBLOCK
 70
     0
  3

 72
    65
 73
     0
 40
0.0
  0
LTYPE
  5
BF07
330
BEF8
100
AcDbSymbolTableRecord
100
AcDbLinetypeTableRecord
  2
BYLAYER
 70
     0
  3

 72
    65
 73
     0
 40
0.0
  0
LTYPE
  5
BF08
330
BEF8
100
AcDbSymbolTableRecord
100
AcDbLinetypeTableRecord
  2
CONTINUOUS
 70
     0
  3
Solid line
 72
    65
 73
     0
 40
0.0
  0
LTYPE
  5
BF16
330
BEF8
100
AcDbSymbolTableRecord
100
AcDbLinetypeTableRecord
  2
DASHED
 70
     0
  3
__ __ __ __ __ __ __ __ __ __ __ __ __ __ __ __
 72
    65
 73
     2
 40
0.75
 49
0.5
 74
     0
 49
-0.25
 74
     0
  0
LTYPE
  5
BF17
330
BEF8
100
AcDbSymbolTableRecord
100
AcDbLinetypeTableRecord
  2
CENTER
 70
     0
  3
____ _ ____ _ ____ _ ____ _ ____ _ ____ _ ____ 
 72
    65
 73
     4
 40
2.0
 49
1.25
 74
     0
 49
-0.25
 74
     0
 49
0.25
 74
     0
 49
-0.25
 74
     0
  0
LTYPE
  5
BF18
330
BEF8
100
AcDbSymbolTableRecord
100
AcDbLinetypeTableRecord
  2
PHANTOM
 70
     0
  3
______  __  __  ______  __  __  ______  __  __ 
 72
    65
 73
     6
 40
2.5
 49
1.25
 74
     0
 49
-0.25
 74
     0
 49
0.25
 74
     0
 49
-0.25
 74
     0
 49
0.25
 74
     0
 49
-0.25
 74
     0
  0
ENDTAB
  0
TABLE
  2
LAYER
  5
BEF5
330
0
100
AcDbSymbolTable
 70
     8
  0
LAYER
  5
BF03
102
{ACAD_XDICTIONARY
360
C156
102
}
330
BEF5
100
AcDbSymbolTableRecord
100
AcDbLayerTableRecord
  2
0
 70
     0
 62
     7
  6
CONTINUOUS
370
    -3
390
C104
  0
LAYER
  5
BF19
102
{ACAD_XDICTIONARY
360
C158
102
}
330
BEF5
100
AcDbSymbolTableRecord
100
AcDbLayerTableRecord
  2
4
 70
     0
 62
     1
  6
CENTER
370
    -3
390
C104
  0
LAYER
  5
BF1A
102
{ACAD_XDICTIONARY
360
C15A
102
}
330
BEF5
100
AcDbSymbolTableRecord
100
AcDbLayerTableRecord
  2
5
 70
     0
 62
     6
  6
PHANTOM
370
    -3
390
C104
  0
LAYER
  5
BF1B
102
{ACAD_XDICTIONARY
360
C15C
102
}
330
BEF5
100
AcDbSymbolTableRecord
100
AcDbLayerTableRecord
  2
1
 70
     0
 62
     7
  6
CONTINUOUS
370
    -3
390
C104
  0
LAYER
  5
BF1C
102
{ACAD_XDICTIONARY
360
C15E
102
}
330
BEF5
100
AcDbSymbolTableRecord
100
AcDbLayerTableRecord
  2
2
 70
     0
 62
     4
  6
CONTINUOUS
370
    -3
390
C104
  0
LAYER
  5
BF1D
102
{ACAD_XDICTIONARY
360
C160
102
}
330
BEF5
100
AcDbSymbolTableRecord
100
AcDbLayerTableRecord
  2
3
 70
     0
 62
     2
  6
DASHED
370
    -3
390
C104
  0
LAYER
  5
BF1E
102
{ACAD_XDICTIONARY
360
C162
102
}
330
BEF5
100
AcDbSymbolTableRecord
100
AcDbLayerTableRecord
  2
6
 70
     0
 62
     5
  6
CONTINUOUS
370
    -3
390
C104
  0
LAYER
  5
BF1F
102
{ACAD_XDICTIONARY
360
C164
102
}
330
BEF5
100
AcDbSymbolTableRecord
100
AcDbLayerTableRecord
  2
7
 70
     0
 62
     3
  6
CONTINUOUS
370
    -3
390
C104
  0
ENDTAB
  0
TABLE
  2
STYLE
  5
BEF6
330
0
100
AcDbSymbolTable
 70
     1
  0
STYLE
  5
BF04
330
BEF6
100
AcDbSymbolTableRecord
100
AcDbTextStyleTableRecord
  2
STANDARD
 70
     0
 40
0.0
 41
1.0
 50
0.0
 71
     0
 42
5.0
  3
txt
  4

  0
ENDTAB
  0
TABLE
  2
VIEW
  5
BEF9
330
0
100
AcDbSymbolTable
 70
     0
  0
ENDTAB
  0
TABLE
  2
UCS
  5
BEFA
330
0
100
AcDbSymbolTable
 70
     0
  0
ENDTAB
  0
TABLE
  2
APPID
  5
BEFC
330
0
100
AcDbSymbolTable
 70
     3
  0
APPID
  5
BF05
330
BEFC
100
AcDbSymbolTableRecord
100
AcDbRegAppTableRecord
  2
ACAD
 70
     0
  0
APPID
  5
C170
330
BEFC
100
AcDbSymbolTableRecord
100
AcDbRegAppTableRecord
  2
ACAD_NAV_VCDISPLAY
 70
     0
  0
APPID
  5
C1A9
330
BEFC
100
AcDbSymbolTableRecord
100
AcDbRegAppTableRecord
  2
ACAD_MLEADERVER
 70
     0
  0
ENDTAB
  0
TABLE
  2
DIMSTYLE
  5
BEFD
330
0
100
AcDbSymbolTable
 70
     1
100
AcDbDimStyleTable
 71
     0
  0
DIMSTYLE
105
BF21
330
BEFD
100
AcDbSymbolTableRecord
100
AcDbDimStyleTableRecord
  2
STANDARD
 70
     0
 41
2.5
 42
1.0
 43
10.0
 44
1.0
 73
     0
 74
     0
 77
     3
 78
     8
140
3.2
141
0.0
147
1.0
172
     1
173
     1
284
     8
285
     8
286
     8
340
BF04
  0
ENDTAB
  0
TABLE
  2
BLOCK_RECORD
  5
BEF4
330
0
100
AcDbSymbolTable
 70
     0
  0
BLOCK_RECORD
  5
BF11
102
{ACAD_XDICTIONARY
360
C0FE
102
}
330
BEF4
100
AcDbSymbolTableRecord
100
AcDbBlockTableRecord
  2
*MODEL_SPACE
340
C152
  0
BLOCK_RECORD
  5
BF0D
102
{ACAD_XDICTIONARY
360
C0FC
102
}
330
BEF4
100
AcDbSymbolTableRecord
100
AcDbBlockTableRecord
  2
*PAPER_SPACE
340
C153
  0
ENDTAB
  0
ENDSEC
  0
SECTION
  2
BLOCKS
  0
BLOCK
  5
BF12
330
BF11
100
AcDbEntity
  8
0
100
AcDbBlockBegin
  2
*MODEL_SPACE
 70
     0
 10
0.0
 20
0.0
 30
0.0
  3
*MODEL_SPACE
  1

  0
ENDBLK
  5
BF13
330
BF11
100
AcDbEntity
  8
0
100
AcDbBlockEnd
  0
BLOCK
  5
BF0E
330
BF0D
100
AcDbEntity
 67
     1
  8
0
100
AcDbBlockBegin
  2
*PAPER_SPACE
 70
     0
 10
0.0
 20
0.0
 30
0.0
  3
*PAPER_SPACE
  1

  0
ENDBLK
  5
BF0F
330
BF0D
100
AcDbEntity
 67
     1
  8
0
100
AcDbBlockEnd
  0
ENDSEC
  0
SECTION
  2
ENTITIES
  0
TEXT
  5
BF29
330
BF11
100
AcDbEntity
  8
7
  6
Continuous
100
AcDbText
 10
10.0
 20
18.0
 30
0.0
 40
3.0
  1
TYPE No.TM-144SUS-45
100
AcDbText
  0
TEXT
  5
BF2A
330
BF11
100
AcDbEntity
  8
7
  6
Continuous
100
AcDbText
 10
10.0
 20
26.0
 30
0.0
 40
3.0
  1
CODE No.5715
100
AcDbText
  0
TEXT
  5
BF2B
330
BF11
100
AcDbEntity
  8
1
  6
Continuous
100
AcDbText
 10
10.0
 20
10.0
 30
0.0
 40
1.399999999999999
  1
LAYER
100
AcDbText
  0
TEXT
  5
BF2C
330
BF11
100
AcDbEntity
  8
1
  6
Continuous
100
AcDbText
 10
17.97951099999998
 20
10.04873699999998
 30
0.0
 40
1.399999999999999
  1
1
100
AcDbText
  0
TEXT
  5
BF2D
330
BF11
100
AcDbEntity
  8
7
  6
Continuous
100
AcDbText
 10
29.97951099999999
 20
10.04873699999998
 30
0.0
 40
1.399999999999999
  1
7
100
AcDbText
  0
TEXT
  5
BF2E
330
BF11
100
AcDbEntity
  8
4
  6
CENTER
100
AcDbText
 10
23.97951099999999
 20
10.04873699999998
 30
0.0
 40
1.399999999999999
  1
4
100
AcDbText
  0
TEXT
  5
BF2F
330
BF11
100
AcDbEntity
  8
3
  6
DASHED
100
AcDbText
 10
21.979511
 20
10.04873699999998
 30
0.0
 40
1.399999999999999
  1
3
100
AcDbText
  0
TEXT
  5
BF30
330
BF11
100
AcDbEntity
  8
2
  6
Continuous
100
AcDbText
 10
19.97951099999999
 20
10.04873699999998
 30
0.0
 40
1.399999999999999
  1
2
100
AcDbText
  0
TEXT
  5
BF31
330
BF11
100
AcDbEntity
  8
6
  6
Continuous
100
AcDbText
 10
27.979511
 20
10.04873699999998
 30
0.0
 40
1.399999999999999
  1
6
100
AcDbText
  0
TEXT
  5
BF32
330
BF11
100
AcDbEntity
  8
5
  6
PHANTOM
100
AcDbText
 10
25.97951099999999
 20
10.04873699999998
 30
0.0
 40
1.399999999999999
  1
5
100
AcDbText
  0
LINE
  5
BF33
330
BF11
100
AcDbEntity
  8
1
  6
Continuous
100
AcDbLine
 10
118.1002389999999
 20
140.1614209999999
 30
0.0
 11
129.1002389999998
 21
140.1614209999999
 31
0.0
  0
LINE
  5
BF34
330
BF11
100
AcDbEntity
  8
1
  6
Continuous
100
AcDbLine
 10
140.8502389999999
 20
141.1379209999998
 30
0.0
 11
140.8502389999999
 21
145.111421
 31
0.0
  0
LINE
  5
BF35
330
BF11
100
AcDbEntity
  8
1
  6
Continuous
100
AcDbLine
 10
132.8502389999999
 20
141.4114209999999
 30
0.0
 11
132.8502389999999
 21
150.6614209999999
 31
0.0
  0
LINE
  5
BF36
330
BF11
100
AcDbEntity
  8
1
  6
Continuous
100
AcDbLine
 10
114.3502389999998
 20
143.161421
 30
0.0
 11
114.3502389999998
 21
150.6614209999999
 31
0.0
  0
LINE
  5
BF37
330
BF11
100
AcDbEntity
  8
4
  6
CENTER
100
AcDbLine
 10
123.6002389999999
 20
91.5
 30
0.0
 11
123.6002389999999
 21
155.1614209999998
 31
0.0
  0
LINE
  5
BF38
330
BF11
100
AcDbEntity
  8
1
  6
Continuous
100
AcDbLine
 10
115.8502389999999
 20
152.1614209999999
 30
0.0
 11
131.3502389999999
 21
152.1614209999999
 31
0.0
  0
LINE
  5
BF39
330
BF11
100
AcDbEntity
  8
1
  6
Continuous
100
AcDbLine
 10
117.8002389999999
 20
192.161821
 30
0.0
 11
129.4002389999999
 21
192.161821
 31
0.0
  0
LINE
  5
BF3A
330
BF11
100
AcDbEntity
  8
1
  6
Continuous
100
AcDbLine
 10
117.8002389999999
 20
207.6618209999999
 30
0.0
 11
129.4002389999999
 21
207.6618209999999
 31
0.0
  0
LINE
  5
BF3B
330
BF11
100
AcDbEntity
  8
4
  6
CENTER
100
AcDbLine
 10
95.5
 20
199.9118209999998
 30
0.0
 11
151.7004769999998
 21
199.9118209999998
 31
0.0
  0
LINE
  5
BF3C
330
BF11
100
AcDbEntity
  8
4
  6
CENTER
100
AcDbLine
 10
214.450477
 20
91.5
 30
0.0
 11
214.450477
 21
155.1614589999998
 31
0.0
  0
LINE
  5
BF3D
330
BF11
100
AcDbEntity
  8
1
  6
Continuous
100
AcDbLine
 10
132.8502389999999
 20
195.161821
 30
0.0
 11
132.8502389999999
 21
204.661821
 31
0.0
  0
LINE
  5
BF3E
330
BF11
100
AcDbEntity
  8
4
  6
CENTER
100
AcDbLine
 10
123.6002389999999
 20
189.161821
 30
0.0
 11
123.6002389999999
 21
210.661821
 31
0.0
  0
LINE
  5
BF3F
330
BF11
100
AcDbEntity
  8
1
  6
Continuous
100
AcDbLine
 10
114.3502389999998
 20
195.161821
 30
0.0
 11
114.3502389999998
 21
204.661821
 31
0.0
  0
LINE
  5
BF40
330
BF11
100
AcDbEntity
  8
1
  6
Continuous
100
AcDbLine
 10
114.3294049999999
 20
143.161421
 30
0.0
 11
117.8002389999999
 21
143.161421
 31
0.0
  0
ARC
  5
BF41
330
BF11
100
AcDbEntity
  8
1
  6
Continuous
100
AcDbCircle
 10
115.8502389999999
 20
150.6614209999999
 30
0.0
 40
1.5
100
AcDbArc
 50
90.0
 51
180.0
  0
ARC
  5
BF42
330
BF11
100
AcDbEntity
  8
1
  6
Continuous
100
AcDbCircle
 10
131.3502389999999
 20
150.6614209999999
 30
0.0
 40
1.5
100
AcDbArc
 50
0.0
 51
90.0
  0
LINE
  5
BF43
330
BF11
100
AcDbEntity
  8
1
  6
Continuous
100
AcDbLine
 10
129.4002389999999
 20
143.161421
 30
0.0
 11
132.8502389999999
 21
143.161421
 31
0.0
  0
LINE
  5
BF44
330
BF11
100
AcDbEntity
  8
4
  6
CENTER
100
AcDbLine
 10
107.3502389999999
 20
145.9114209999999
 30
0.0
 11
143.8502389999999
 21
145.9114209999999
 31
0.0
  0
LINE
  5
BF45
330
BF11
100
AcDbEntity
  8
1
  6
Continuous
100
AcDbLine
 10
137.8502389999999
 20
146.711421
 30
0.0
 11
140.8502389999999
 21
146.711421
 31
0.0
  0
LINE
  5
BF46
330
BF11
100
AcDbEntity
  8
1
  6
Continuous
100
AcDbLine
 10
137.8502389999999
 20
145.111421
 30
0.0
 11
140.8502389999999
 21
145.111421
 31
0.0
  0
LINE
  5
BF47
330
BF11
100
AcDbEntity
  8
1
  6
Continuous
100
AcDbLine
 10
137.8502389999999
 20
145.111421
 30
0.0
 11
137.8502389999999
 21
146.711421
 31
0.0
  0
LINE
  5
BF48
330
BF11
100
AcDbEntity
  8
1
  6
Continuous
100
AcDbLine
 10
140.8502389999999
 20
146.711421
 30
0.0
 11
140.8502389999999
 21
150.684921
 31
0.0
  0
LINE
  5
BF49
330
BF11
100
AcDbEntity
  8
4
  6
CENTER
100
AcDbLine
 10
203.700477
 20
145.911459
 30
0.0
 11
225.200477
 21
145.911459
 31
0.0
  0
LINE
  5
BF4A
330
BF11
100
AcDbEntity
  8
1
  6
Continuous
100
AcDbLine
 10
209.4504769999999
 20
146.7114589999999
 30
0.0
 11
219.4504769999999
 21
146.7114589999999
 31
0.0
  0
LINE
  5
BF4B
330
BF11
100
AcDbEntity
  8
1
  6
Continuous
100
AcDbLine
 10
209.4504769999999
 20
145.1114589999999
 30
0.0
 11
219.4504769999999
 21
145.1114589999999
 31
0.0
  0
LINE
  5
BF4C
330
BF11
100
AcDbEntity
  8
1
  6
Continuous
100
AcDbLine
 10
220.700477
 20
143.161459
 30
0.0
 11
220.700477
 21
147.2931479999998
 31
0.0
  0
LINE
  5
BF4D
330
BF11
100
AcDbEntity
  8
1
  6
Continuous
100
AcDbLine
 10
208.200477
 20
143.161459
 30
0.0
 11
208.200477
 21
147.2931479999998
 31
0.0
  0
LINE
  5
BF4E
330
BF11
100
AcDbEntity
  8
1
  6
Continuous
100
AcDbLine
 10
207.7830539999999
 20
143.161459
 30
0.0
 11
209.552773
 21
143.161459
 31
0.0
  0
LINE
  5
BF4F
330
BF11
100
AcDbEntity
  8
1
  6
Continuous
100
AcDbLine
 10
219.348181
 20
143.161459
 30
0.0
 11
221.1179
 21
143.161459
 31
0.0
  0
ARC
  5
BF50
330
BF11
100
AcDbEntity
  8
1
  6
Continuous
100
AcDbCircle
 10
208.200477
 20
141.661459
 30
0.0
 40
1.5
100
AcDbArc
 50
180.0
 51
260.405932
  0
ARC
  5
BF51
330
BF11
100
AcDbEntity
  8
1
  6
Continuous
100
AcDbCircle
 10
220.700477
 20
141.661459
 30
0.0
 40
1.5
100
AcDbArc
 50
279.594068
 51
0.0
  0
LINE
  5
BF52
330
BF11
100
AcDbEntity
  8
1
  6
Continuous
100
AcDbLine
 10
115.8502389999999
 20
206.161821
 30
0.0
 11
116.6002389999998
 21
206.161821
 31
0.0
  0
LINE
  5
BF53
330
BF11
100
AcDbEntity
  8
1
  6
Continuous
100
AcDbLine
 10
115.8502389999999
 20
193.6618209999998
 30
0.0
 11
116.6002389999998
 21
193.6618209999998
 31
0.0
  0
LINE
  5
BF54
330
BF11
100
AcDbEntity
  8
1
  6
Continuous
100
AcDbLine
 10
130.6002389999999
 20
206.161821
 30
0.0
 11
131.3502389999999
 21
206.161821
 31
0.0
  0
LINE
  5
BF55
330
BF11
100
AcDbEntity
  8
1
  6
Continuous
100
AcDbLine
 10
130.6002389999999
 20
193.6618209999998
 30
0.0
 11
131.3502389999999
 21
193.6618209999998
 31
0.0
  0
LINE
  5
BF56
330
BF11
100
AcDbEntity
  8
1
  6
Continuous
100
AcDbLine
 10
221.362781
 20
141.0799749999999
 30
0.0
 11
220.950477
 21
141.061421
 31
0.0
  0
LINE
  5
BF57
330
BF11
100
AcDbEntity
  8
1
  6
Continuous
100
AcDbLine
 10
207.538174
 20
141.0799749999999
 30
0.0
 11
207.950477
 21
141.061421
 31
0.0
  0
ARC
  5
BF58
330
BF11
100
AcDbEntity
  8
1
  6
Continuous
100
AcDbCircle
 10
131.3502389999999
 20
204.661821
 30
0.0
 40
1.5
100
AcDbArc
 50
0.0
 51
90.0
  0
ARC
  5
BF59
330
BF11
100
AcDbEntity
  8
1
  6
Continuous
100
AcDbCircle
 10
115.8502389999999
 20
204.661821
 30
0.0
 40
1.5
100
AcDbArc
 50
90.0
 51
180.0
  0
ARC
  5
BF5A
330
BF11
100
AcDbEntity
  8
1
  6
Continuous
100
AcDbCircle
 10
115.8502389999999
 20
195.161821
 30
0.0
 40
1.5
100
AcDbArc
 50
180.0
 51
270.0
  0
ARC
  5
BF5B
330
BF11
100
AcDbEntity
  8
1
  6
Continuous
100
AcDbCircle
 10
131.3502389999999
 20
195.161821
 30
0.0
 40
1.5
100
AcDbArc
 50
270.0
 51
0.0
  0
ARC
  5
BF5C
330
BF11
100
AcDbEntity
  8
1
  6
Continuous
100
AcDbCircle
 10
114.3502389999998
 20
199.9118209999998
 30
0.0
 40
3.0
100
AcDbArc
 50
90.0
 51
270.0
  0
ARC
  5
BF5D
330
BF11
100
AcDbEntity
  8
1
  6
Continuous
100
AcDbCircle
 10
114.3398219999999
 20
146.161421
 30
0.0
 40
3.000017999999998
100
AcDbArc
 50
89.80105700000001
 51
270.1989429999999
  0
LINE
  5
BF5E
330
BF11
100
AcDbEntity
  8
1
  6
Continuous
100
AcDbLine
 10
129.1002389999998
 20
140.1614209999999
 30
0.0
 11
129.4002389999999
 21
143.161421
 31
0.0
  0
LINE
  5
BF5F
330
BF11
100
AcDbEntity
  8
1
  6
Continuous
100
AcDbLine
 10
117.8002389999999
 20
143.161421
 30
0.0
 11
118.1002389999999
 21
140.1614209999999
 31
0.0
  0
ARC
  5
BF60
330
BF11
100
AcDbEntity
  8
1
  6
Continuous
100
AcDbCircle
 10
123.6002389999999
 20
139.0547549999998
 30
0.0
 40
7.106666999999997
100
AcDbArc
 50
35.30024799999999
 51
144.6997519999999
  0
LINE
  5
BF61
330
BF11
100
AcDbEntity
  8
1
  6
Continuous
100
AcDbLine
 10
134.8502389999999
 20
140.6614209999998
 30
0.0
 11
134.8502389999999
 21
151.1614209999999
 31
0.0
  0
ARC
  5
BF62
330
BF11
100
AcDbEntity
  8
1
  6
Continuous
100
AcDbCircle
 10
139.8502389999999
 20
150.684921
 30
0.0
 40
1.0
100
AcDbArc
 50
0.0
 51
28.45706
  0
ARC
  5
BF63
330
BF11
100
AcDbEntity
  8
1
  6
Continuous
100
AcDbCircle
 10
139.8502389999999
 20
141.1379209999998
 30
0.0
 40
1.0
100
AcDbArc
 50
331.5429399999998
 51
0.0
  0
LINE
  5
BF64
330
BF11
100
AcDbEntity
  8
1
  6
Continuous
100
AcDbLine
 10
136.823584
 20
148.1614209999999
 30
0.0
 11
139.0502389999997
 21
148.1614209999999
 31
0.0
  0
LINE
  5
BF65
330
BF11
100
AcDbEntity
  8
1
  6
Continuous
100
AcDbLine
 10
136.823584
 20
143.6614209999999
 30
0.0
 11
139.0502389999997
 21
143.6614209999999
 31
0.0
  0
ARC
  5
BF66
330
BF11
100
AcDbEntity
  8
1
  6
Continuous
100
AcDbCircle
 10
137.936911
 20
149.5617889999998
 30
0.0
 40
6.004484999999997
100
AcDbArc
 50
239.065273
 51
259.3146159999998
  0
ARC
  5
BF67
330
BF11
100
AcDbEntity
  8
1
  6
Continuous
100
AcDbCircle
 10
137.936911
 20
142.2610539999998
 30
0.0
 40
6.004484999999997
100
AcDbArc
 50
60.974955
 51
79.314616
  0
ARC
  5
BF68
330
BF11
100
AcDbEntity
  8
1
  6
Continuous
100
AcDbCircle
 10
137.936911
 20
142.2610539999998
 30
0.0
 40
6.004484999999997
100
AcDbArc
 50
100.6853839999999
 51
120.934727
  0
ARC
  5
BF69
330
BF11
100
AcDbEntity
  8
1
  6
Continuous
100
AcDbCircle
 10
137.936911
 20
149.5617889999998
 30
0.0
 40
6.004484999999997
100
AcDbArc
 50
280.685384
 51
299.0250449999999
  0
LINE
  5
BF6A
330
BF11
100
AcDbEntity
  8
1
  6
Continuous
100
AcDbLine
 10
136.823584
 20
149.4614209999998
 30
0.0
 11
139.0502389999997
 21
149.4614209999998
 31
0.0
  0
LINE
  5
BF6B
330
BF11
100
AcDbEntity
  8
1
  6
Continuous
100
AcDbLine
 10
136.823584
 20
142.361421
 30
0.0
 11
139.0502389999997
 21
142.361421
 31
0.0
  0
ARC
  5
BF6C
330
BF11
100
AcDbEntity
  8
1
  6
Continuous
100
AcDbCircle
 10
137.936911
 20
155.3617889999999
 30
0.0
 40
6.004484999999997
100
AcDbArc
 50
239.065273
 51
259.3146159999998
  0
ARC
  5
BF6D
330
BF11
100
AcDbEntity
  8
1
  6
Continuous
100
AcDbCircle
 10
137.936911
 20
136.4610539999999
 30
0.0
 40
6.004484999999997
100
AcDbArc
 50
60.974955
 51
79.314616
  0
ARC
  5
BF6E
330
BF11
100
AcDbEntity
  8
1
  6
Continuous
100
AcDbCircle
 10
137.936911
 20
136.4610539999999
 30
0.0
 40
6.004484999999997
100
AcDbArc
 50
100.6853839999999
 51
120.934727
  0
ARC
  5
BF6F
330
BF11
100
AcDbEntity
  8
1
  6
Continuous
100
AcDbCircle
 10
137.936911
 20
155.3617889999999
 30
0.0
 40
6.004484999999997
100
AcDbArc
 50
280.685384
 51
299.0250449999999
  0
LINE
  5
BF70
330
BF11
100
AcDbEntity
  8
1
  6
Continuous
100
AcDbLine
 10
132.8502389999999
 20
150.411421
 30
0.0
 11
134.8502389999999
 21
150.411421
 31
0.0
  0
LINE
  5
BF71
330
BF11
100
AcDbEntity
  8
1
  6
Continuous
100
AcDbLine
 10
132.8502389999999
 20
141.4114209999999
 30
0.0
 11
134.8502389999999
 21
141.4114209999999
 31
0.0
  0
ARC
  5
BF72
330
BF11
100
AcDbEntity
  8
1
  6
Continuous
100
AcDbCircle
 10
137.789826
 20
147.135615
 30
0.0
 40
7.110299
100
AcDbArc
 50
245.5797249999998
 51
254.238518
  0
ARC
  5
BF73
330
BF11
100
AcDbEntity
  8
1
  6
Continuous
100
AcDbCircle
 10
137.789826
 20
144.687228
 30
0.0
 40
7.110299
100
AcDbArc
 50
65.57972499999999
 51
74.24076499999998
  0
ARC
  5
BF74
330
BF11
100
AcDbEntity
  8
1
  6
Continuous
100
AcDbCircle
 10
137.789826
 20
144.687228
 30
0.0
 40
7.110299
100
AcDbArc
 50
105.7592349999999
 51
114.420275
  0
ARC
  5
BF75
330
BF11
100
AcDbEntity
  8
1
  6
Continuous
100
AcDbCircle
 10
137.789826
 20
147.135615
 30
0.0
 40
7.110299
100
AcDbArc
 50
285.761482
 51
294.420275
  0
LINE
  5
BF76
330
BF11
100
AcDbEntity
  8
1
  6
Continuous
100
AcDbLine
 10
132.8502389999999
 20
204.411821
 30
0.0
 11
134.8502389999999
 21
204.411821
 31
0.0
  0
LINE
  5
BF77
330
BF11
100
AcDbEntity
  8
1
  6
Continuous
100
AcDbLine
 10
132.8502389999999
 20
195.411821
 30
0.0
 11
134.8502389999999
 21
195.411821
 31
0.0
  0
LINE
  5
BF78
330
BF11
100
AcDbEntity
  8
1
  6
Continuous
100
AcDbLine
 10
134.8502389999999
 20
194.911821
 30
0.0
 11
134.8502389999999
 21
204.911821
 31
0.0
  0
LINE
  5
BF79
330
BF11
100
AcDbEntity
  8
1
  6
Continuous
100
AcDbLine
 10
134.8502389999999
 20
204.911821
 30
0.0
 11
139.8502389999999
 21
204.911821
 31
0.0
  0
LINE
  5
BF7A
330
BF11
100
AcDbEntity
  8
1
  6
Continuous
100
AcDbLine
 10
134.8502389999999
 20
194.911821
 30
0.0
 11
139.8502389999999
 21
194.911821
 31
0.0
  0
LINE
  5
BF7B
330
BF11
100
AcDbEntity
  8
1
  6
Continuous
100
AcDbLine
 10
140.8502389999999
 20
195.9118209999998
 30
0.0
 11
140.8502389999999
 21
203.911821
 31
0.0
  0
LINE
  5
BF7C
330
BF11
100
AcDbEntity
  8
1
  6
Continuous
100
AcDbLine
 10
137.089369
 20
200.411821
 30
0.0
 11
139.0502389999997
 21
200.411821
 31
0.0
  0
LINE
  5
BF7D
330
BF11
100
AcDbEntity
  8
1
  6
Continuous
100
AcDbLine
 10
137.089369
 20
199.411821
 30
0.0
 11
139.0502389999997
 21
199.411821
 31
0.0
  0
ARC
  5
BF7E
330
BF11
100
AcDbEntity
  8
1
  6
Continuous
100
AcDbCircle
 10
138.069804
 20
204.296604
 30
0.0
 40
4.006592999999998
100
AcDbArc
 50
216.5279299999999
 51
255.8355779999999
  0
ARC
  5
BF7F
330
BF11
100
AcDbEntity
  8
1
  6
Continuous
100
AcDbCircle
 10
138.069804
 20
195.527039
 30
0.0
 40
4.006592999999998
100
AcDbArc
 50
46.05521399999997
 51
75.835578
  0
ARC
  5
BF80
330
BF11
100
AcDbEntity
  8
1
  6
Continuous
100
AcDbCircle
 10
138.069804
 20
204.296604
 30
0.0
 40
4.006592999999998
100
AcDbArc
 50
284.164422
 51
313.9447859999999
  0
ARC
  5
BF81
330
BF11
100
AcDbEntity
  8
1
  6
Continuous
100
AcDbCircle
 10
138.069804
 20
195.527039
 30
0.0
 40
4.006592999999998
100
AcDbArc
 50
104.164422
 51
143.4720699999998
  0
ARC
  5
BF82
330
BF11
100
AcDbEntity
  8
1
  6
Continuous
100
AcDbCircle
 10
139.8502389999999
 20
203.911821
 30
0.0
 40
1.0
100
AcDbArc
 50
0.0
 51
90.0
  0
ARC
  5
BF83
330
BF11
100
AcDbEntity
  8
1
  6
Continuous
100
AcDbCircle
 10
139.8502389999999
 20
195.9118209999998
 30
0.0
 40
1.0
100
AcDbArc
 50
270.0
 51
0.0
  0
ARC
  5
BF84
330
BF11
100
AcDbEntity
  8
1
  6
Continuous
100
AcDbCircle
 10
138.2145619999998
 20
199.101663
 30
0.0
 40
5.869947999999999
100
AcDbArc
 50
64.77410899999999
 51
81.81526300000001
  0
ARC
  5
BF85
330
BF11
100
AcDbEntity
  8
1
  6
Continuous
100
AcDbCircle
 10
138.2145619999998
 20
200.721979
 30
0.0
 40
5.869947999999999
100
AcDbArc
 50
235.030267
 51
261.815263
  0
ARC
  5
BF86
330
BF11
100
AcDbEntity
  8
1
  6
Continuous
100
AcDbCircle
 10
138.2145619999998
 20
199.101663
 30
0.0
 40
5.869947999999999
100
AcDbArc
 50
98.184737
 51
124.969733
  0
ARC
  5
BF87
330
BF11
100
AcDbEntity
  8
1
  6
Continuous
100
AcDbCircle
 10
138.2145619999998
 20
200.721979
 30
0.0
 40
5.869947999999999
100
AcDbArc
 50
278.1847369999999
 51
295.225891
  0
ARC
  5
BF88
330
BF11
100
AcDbEntity
  8
1
  6
Continuous
100
AcDbCircle
 10
214.450477
 20
145.911459
 30
0.0
 40
4.5
100
AcDbArc
 50
190.240348
 51
349.759652
  0
ARC
  5
BF89
330
BF11
100
AcDbEntity
  8
1
  6
Continuous
100
AcDbCircle
 10
214.450477
 20
145.911459
 30
0.0
 40
4.5
100
AcDbArc
 50
10.24034799999999
 51
169.7596519999999
  0
LINE
  5
BF8A
330
BF11
100
AcDbEntity
  8
1
  6
Continuous
100
AcDbLine
 10
222.200477
 20
141.661459
 30
0.0
 11
221.591627
 21
146.8366829999999
 31
0.0
  0
LINE
  5
BF8B
330
BF11
100
AcDbEntity
  8
1
  6
Continuous
100
AcDbLine
 10
206.700477
 20
141.661459
 30
0.0
 11
207.309327
 21
146.8366829999999
 31
0.0
  0
LINE
  5
BF8C
330
BF11
100
AcDbEntity
  8
1
  6
Continuous
100
AcDbLine
 10
207.538174
 20
141.0799749999999
 30
0.0
 11
207.7830539999999
 21
143.161459
 31
0.0
  0
LINE
  5
BF8D
330
BF11
100
AcDbEntity
  8
1
  6
Continuous
100
AcDbLine
 10
221.362781
 20
141.0799749999999
 30
0.0
 11
221.1179
 21
143.161459
 31
0.0
  0
LINE
  5
BF8E
330
BF11
100
AcDbEntity
  8
1
  6
Continuous
100
AcDbLine
 10
139.720952
 20
151.530261
 30
0.0
 11
135.8586999999999
 21
151.530261
 31
0.0
  0
LINE
  5
BF8F
330
BF11
100
AcDbEntity
  8
1
  6
Continuous
100
AcDbLine
 10
139.72122
 20
140.2926569999999
 30
0.0
 11
135.858432
 21
140.2926569999999
 31
0.0
  0
ARC
  5
BF90
330
BF11
100
AcDbEntity
  8
1
  6
Continuous
100
AcDbCircle
 10
214.450477
 20
145.715339
 30
0.0
 40
6.446082999999998
100
AcDbArc
 50
14.168254
 51
165.831746
  0
ARC
  5
BF91
330
BF11
100
AcDbEntity
  8
1
  6
Continuous
100
AcDbCircle
 10
208.7990529999999
 20
146.6614209999999
 30
0.0
 40
1.5
100
AcDbArc
 50
102.599855
 51
173.2901629999998
  0
ARC
  5
BF92
330
BF11
100
AcDbEntity
  8
1
  6
Continuous
100
AcDbCircle
 10
220.1019019999999
 20
146.6614209999999
 30
0.0
 40
1.5
100
AcDbArc
 50
6.709836999999998
 51
77.40014499999998
  0
LINE
  5
BF93
330
BF11
100
AcDbEntity
  8
1
  6
Continuous
100
AcDbLine
 10
207.950477
 20
142.3064589999999
 30
0.0
 11
210.694521
 21
142.3064589999999
 31
0.0
  0
LINE
  5
BF94
330
BF11
100
AcDbEntity
  8
1
  6
Continuous
100
AcDbLine
 10
220.950477
 20
96.5
 30
0.0
 11
220.950477
 21
142.3064589999999
 31
0.0
  0
LINE
  5
BF95
330
BF11
100
AcDbEntity
  8
1
  6
Continuous
100
AcDbLine
 10
207.950477
 20
96.5
 30
0.0
 11
207.950477
 21
142.3064589999999
 31
0.0
  0
LINE
  5
BF96
330
BF11
100
AcDbEntity
  8
1
  6
Continuous
100
AcDbLine
 10
218.2064339999998
 20
142.3064589999999
 30
0.0
 11
220.950477
 21
142.3064589999999
 31
0.0
  0
LINE
  5
BF97
330
BF11
100
AcDbEntity
  8
1
  6
Continuous
100
AcDbLine
 10
100.5
 20
206.411821
 30
0.0
 11
116.8002389999999
 21
206.411821
 31
0.0
  0
LINE
  5
BF98
330
BF11
100
AcDbEntity
  8
1
  6
Continuous
100
AcDbLine
 10
100.5
 20
193.411821
 30
0.0
 11
116.8002389999999
 21
193.411821
 31
0.0
  0
LINE
  5
BF99
330
BF11
100
AcDbEntity
  8
1
  6
Continuous
100
AcDbLine
 10
130.6002389999999
 20
206.411821
 30
0.0
 11
146.700477
 21
206.411821
 31
0.0
  0
LINE
  5
BF9A
330
BF11
100
AcDbEntity
  8
1
  6
Continuous
100
AcDbLine
 10
130.4002389999999
 20
193.411821
 30
0.0
 11
146.700477
 21
193.411821
 31
0.0
  0
LINE
  5
BF9B
330
BF11
100
AcDbEntity
  8
4
  6
CENTER
100
AcDbLine
 10
22.0
 20
145.911459
 30
0.0
 11
43.5
 21
145.911459
 31
0.0
  0
LINE
  5
BF9C
330
BF11
100
AcDbEntity
  8
4
  6
CENTER
100
AcDbLine
 10
32.75
 20
91.5
 30
0.0
 11
32.75
 21
155.1614589999998
 31
0.0
  0
ARC
  5
BF9D
330
BF11
100
AcDbEntity
  8
1
  6
Continuous
100
AcDbCircle
 10
32.75
 20
145.715339
 30
0.0
 40
6.446082999999998
100
AcDbArc
 50
14.168254
 51
165.831746
  0
LINE
  5
BF9E
330
BF11
100
AcDbEntity
  8
1
  6
Continuous
100
AcDbLine
 10
39.25
 20
96.5
 30
0.0
 11
39.25
 21
142.3064589999999
 31
0.0
  0
LINE
  5
BF9F
330
BF11
100
AcDbEntity
  8
1
  6
Continuous
100
AcDbLine
 10
26.25
 20
96.5
 30
0.0
 11
26.25
 21
142.3064589999999
 31
0.0
  0
ARC
  5
BFA0
330
BF11
100
AcDbEntity
  8
1
  6
Continuous
100
AcDbCircle
 10
26.5
 20
141.661459
 30
0.0
 40
1.5
100
AcDbArc
 50
180.0
 51
260.405932
  0
LINE
  5
BFA1
330
BF11
100
AcDbEntity
  8
1
  6
Continuous
100
AcDbLine
 10
25.0
 20
141.661459
 30
0.0
 11
25.60885
 21
146.8366829999999
 31
0.0
  0
ARC
  5
BFA2
330
BF11
100
AcDbEntity
  8
1
  6
Continuous
100
AcDbCircle
 10
27.098576
 20
146.6614209999999
 30
0.0
 40
1.5
100
AcDbArc
 50
102.599855
 51
173.2901629999998
  0
LINE
  5
BFA3
330
BF11
100
AcDbEntity
  8
1
  6
Continuous
100
AcDbLine
 10
39.0
 20
143.161459
 30
0.0
 11
39.0
 21
147.2931479999998
 31
0.0
  0
LINE
  5
BFA4
330
BF11
100
AcDbEntity
  8
1
  6
Continuous
100
AcDbLine
 10
37.68761400000001
 20
143.161459
 30
0.0
 11
39.41742299999999
 21
143.161459
 31
0.0
  0
ARC
  5
BFA5
330
BF11
100
AcDbEntity
  8
1
  6
Continuous
100
AcDbCircle
 10
39.0
 20
141.661459
 30
0.0
 40
1.5
100
AcDbArc
 50
279.594068
 51
0.0
  0
LINE
  5
BFA6
330
BF11
100
AcDbEntity
  8
1
  6
Continuous
100
AcDbLine
 10
39.662304
 20
141.0799749999999
 30
0.0
 11
39.25
 21
141.061421
 31
0.0
  0
LINE
  5
BFA7
330
BF11
100
AcDbEntity
  8
1
  6
Continuous
100
AcDbLine
 10
40.49999999999999
 20
141.661459
 30
0.0
 11
39.89115
 21
146.8366829999999
 31
0.0
  0
LINE
  5
BFA8
330
BF11
100
AcDbEntity
  8
1
  6
Continuous
100
AcDbLine
 10
39.662304
 20
141.0799749999999
 30
0.0
 11
39.41742299999999
 21
143.161459
 31
0.0
  0
ARC
  5
BFA9
330
BF11
100
AcDbEntity
  8
1
  6
Continuous
100
AcDbCircle
 10
38.40142399999999
 20
146.6614209999999
 30
0.0
 40
1.5
100
AcDbArc
 50
6.709836999999998
 51
77.40014499999998
  0
LINE
  5
BFAA
330
BF11
100
AcDbEntity
  8
1
  6
Continuous
100
AcDbLine
 10
26.5
 20
143.161459
 30
0.0
 11
26.5
 21
147.2931479999998
 31
0.0
  0
LINE
  5
BFAB
330
BF11
100
AcDbEntity
  8
1
  6
Continuous
100
AcDbLine
 10
25.837696
 20
141.0799749999999
 30
0.0
 11
26.25
 21
141.061421
 31
0.0
  0
LINE
  5
BFAC
330
BF11
100
AcDbEntity
  8
1
  6
Continuous
100
AcDbLine
 10
25.837696
 20
141.0799749999999
 30
0.0
 11
26.082577
 21
143.161459
 31
0.0
  0
LINE
  5
BFAD
330
BF11
100
AcDbEntity
  8
1
  6
Continuous
100
AcDbLine
 10
26.082577
 20
143.161459
 30
0.0
 11
27.812386
 21
143.161459
 31
0.0
  0
LINE
  5
BFAE
330
BF11
100
AcDbEntity
  8
1
  6
Continuous
100
AcDbLine
 10
26.25
 20
142.3064589999999
 30
0.0
 11
39.25
 21
142.3064589999999
 31
0.0
  0
CIRCLE
  5
BFAF
330
BF11
100
AcDbEntity
  8
1
  6
Continuous
100
AcDbCircle
 10
32.75
 20
146.161421
 30
0.0
 40
3.0
  0
LINE
  5
BFB0
330
BF11
100
AcDbEntity
  8
1
  6
Continuous
100
AcDbLine
 10
29.76504099999999
 20
146.4614589999999
 30
0.0
 11
28.74612899999998
 21
143.8035129999998
 31
0.0
  0
LINE
  5
BFB1
330
BF11
100
AcDbEntity
  8
1
  6
Continuous
100
AcDbLine
 10
35.73495900000001
 20
146.4614589999999
 30
0.0
 11
36.753871
 21
143.8035129999998
 31
0.0
  0
ARC
  5
BFB2
330
BF11
100
AcDbEntity
  8
1
  6
Continuous
100
AcDbCircle
 10
37.68761400000001
 20
144.161459
 30
0.0
 40
1.0
100
AcDbArc
 50
200.9741219999999
 51
270.0
  0
ARC
  5
BFB3
330
BF11
100
AcDbEntity
  8
1
  6
Continuous
100
AcDbCircle
 10
27.812386
 20
144.161459
 30
0.0
 40
1.0
100
AcDbArc
 50
270.0
 51
339.0258779999999
  0
LINE
  5
BFB4
330
BF11
100
AcDbEntity
  8
4
  6
CENTER
100
AcDbLine
 10
123.6002389999999
 20
38.0
 30
0.0
 11
123.6002389999999
 21
59.5
 31
0.0
  0
LINE
  5
BFB5
330
BF11
100
AcDbEntity
  8
1
  6
Continuous
100
AcDbLine
 10
100.5
 20
42.25
 30
0.0
 11
146.700477
 21
42.25
 31
0.0
  0
LINE
  5
BFB6
330
BF11
100
AcDbEntity
  8
1
  6
Continuous
100
AcDbLine
 10
117.8002389999999
 20
41.0
 30
0.0
 11
129.4002389999999
 21
41.0
 31
0.0
  0
LINE
  5
BFB7
330
BF11
100
AcDbEntity
  8
1
  6
Continuous
100
AcDbLine
 10
100.5
 20
55.25
 30
0.0
 11
146.700477
 21
55.25
 31
0.0
  0
LINE
  5
BFB8
330
BF11
100
AcDbEntity
  8
4
  6
CENTER
100
AcDbLine
 10
95.5
 20
48.75
 30
0.0
 11
151.7004769999998
 21
48.75
 31
0.0
  0
LINE
  5
BFB9
330
BF11
100
AcDbEntity
  8
1
  6
Continuous
100
AcDbLine
 10
117.8002389999999
 20
56.5
 30
0.0
 11
129.4002389999999
 21
56.5
 31
0.0
  0
LINE
  5
BFBA
330
BF11
100
AcDbEntity
  8
1
  6
Continuous
100
AcDbLine
 10
117.9777149999999
 20
141.3866559999999
 30
0.0
 11
112.947506
 21
138.3281889999999
 31
0.0
  0
LINE
  5
BFBB
330
BF11
100
AcDbEntity
  8
1
  6
Continuous
100
AcDbLine
 10
118.043911
 20
140.7247019999998
 30
0.0
 11
113.259221
 21
137.815516
 31
0.0
  0
LINE
  5
BFBC
330
BF11
100
AcDbEntity
  8
1
  6
Continuous
100
AcDbLine
 10
112.947506
 20
138.3281889999999
 30
0.0
 11
113.259221
 21
137.815516
 31
0.0
  0
LINE
  5
BFBD
330
BF11
100
AcDbEntity
  8
1
  6
Continuous
100
AcDbLine
 10
114.2291879999998
 20
139.1074769999999
 30
0.0
 11
114.5409029999999
 21
138.594804
 31
0.0
  0
ARC
  5
BFBE
330
BF11
100
AcDbEntity
  8
5
  6
PHANTOM
100
AcDbCircle
 10
123.845879
 20
123.7559899999999
 30
0.0
 40
18.500239
100
AcDbArc
 50
108.466212
 51
73.08151499999998
  0
ARC
  5
BFBF
330
BF11
100
AcDbEntity
  8
1
  6
Continuous
100
AcDbCircle
 10
123.6002389999999
 20
119.6002389999998
 30
0.0
 40
22.50023899999999
100
AcDbArc
 50
104.470842
 51
75.52915799999998
  0
ARC
  5
BFC0
330
BF11
100
AcDbEntity
  8
5
  6
PHANTOM
100
AcDbCircle
 10
123.845879
 20
123.7559899999999
 30
0.0
 40
19.10023899999998
100
AcDbArc
 50
108.0590869999999
 51
73.437934
  0
ARC
  5
BFC1
330
BF11
100
AcDbEntity
  8
5
  6
PHANTOM
100
AcDbCircle
 10
123.845879
 20
123.7559899999999
 30
0.0
 40
19.700239
100
AcDbArc
 50
311.259115
 51
73.77225600000001
  0
ARC
  5
BFC2
330
BF11
100
AcDbEntity
  8
1
  6
Continuous
100
AcDbCircle
 10
123.6002389999999
 20
119.6002389999998
 30
0.0
 40
23.100239
100
AcDbArc
 50
104.2415859999998
 51
75.758414
  0
ARC
  5
BFC3
330
BF11
100
AcDbEntity
  8
1
  6
Continuous
100
AcDbCircle
 10
123.6002389999999
 20
119.6002389999998
 30
0.0
 40
23.700239
100
AcDbArc
 50
36.87986699999999
 51
75.97593499999998
  0
LINE
  5
BFC4
330
BF11
100
AcDbEntity
  8
4
  6
CENTER
100
AcDbLine
 10
21.25
 20
119.6002389999998
 30
0.0
 11
44.24999999999999
 21
119.6002389999998
 31
0.0
  0
LINE
  5
BFC5
330
BF11
100
AcDbEntity
  8
1
  6
Continuous
100
AcDbLine
 10
26.25
 20
96.5
 30
0.0
 11
39.25
 21
96.5
 31
0.0
  0
LINE
  5
BFC6
330
BF11
100
AcDbEntity
  8
1
  6
Continuous
100
AcDbLine
 10
146.700477
 20
42.25
 30
0.0
 11
146.700477
 21
55.25
 31
0.0
  0
LINE
  5
BFC7
330
BF11
100
AcDbEntity
  8
1
  6
Continuous
100
AcDbLine
 10
207.950477
 20
96.5
 30
0.0
 11
220.950477
 21
96.5
 31
0.0
  0
LINE
  5
BFC8
330
BF11
100
AcDbEntity
  8
1
  6
Continuous
100
AcDbLine
 10
146.700477
 20
193.411821
 30
0.0
 11
146.700477
 21
206.411821
 31
0.0
  0
LINE
  5
BFC9
330
BF11
100
AcDbEntity
  8
4
  6
CENTER
100
AcDbLine
 10
95.5
 20
119.6002389999998
 30
0.0
 11
151.7004769999998
 21
119.6002389999998
 31
0.0
  0
LINE
  5
BFCA
330
BF11
100
AcDbEntity
  8
4
  6
CENTER
100
AcDbLine
 10
202.9504769999999
 20
119.6002389999998
 30
0.0
 11
225.9504769999999
 21
119.6002389999998
 31
0.0
  0
LINE
  5
BFCB
330
BF11
100
AcDbEntity
  8
1
  6
Continuous
100
AcDbLine
 10
129.4002389999999
 20
56.5
 30
0.0
 11
129.4002389999999
 21
55.25
 31
0.0
  0
LINE
  5
BFCC
330
BF11
100
AcDbEntity
  8
1
  6
Continuous
100
AcDbLine
 10
117.8002389999999
 20
56.5
 30
0.0
 11
117.8002389999999
 21
55.25
 31
0.0
  0
LINE
  5
BFCD
330
BF11
100
AcDbEntity
  8
1
  6
Continuous
100
AcDbLine
 10
129.4002389999999
 20
42.25
 30
0.0
 11
129.4002389999999
 21
41.0
 31
0.0
  0
LINE
  5
BFCE
330
BF11
100
AcDbEntity
  8
1
  6
Continuous
100
AcDbLine
 10
117.8002389999999
 20
42.25
 30
0.0
 11
117.8002389999999
 21
41.0
 31
0.0
  0
LINE
  5
BFCF
330
BF11
100
AcDbEntity
  8
1
  6
Continuous
100
AcDbLine
 10
142.0780179999999
 20
133.4635969999999
 30
0.0
 11
142.5579549999999
 21
133.8236809999999
 31
0.0
  0
LINE
  5
BFD0
330
BF11
100
AcDbEntity
  8
5
  6
PHANTOM
100
AcDbLine
 10
136.4418259999999
 20
109.397674
 30
0.0
 11
136.837505
 21
108.946633
 31
0.0
  0
LINE
  5
BFD1
330
BF11
100
AcDbEntity
  8
1
  6
Continuous
100
AcDbLine
 10
210.359577
 20
133.857774
 30
0.0
 11
214.192815
 21
134.8799709999999
 31
0.0
  0
LINE
  5
BFD2
330
BF11
100
AcDbEntity
  8
1
  6
Continuous
100
AcDbLine
 10
214.7081399999999
 20
134.8799709999999
 30
0.0
 11
218.5413779999999
 21
133.857774
 31
0.0
  0
LINE
  5
BFD3
330
BF11
100
AcDbEntity
  8
1
  6
Continuous
100
AcDbLine
 10
218.5413779999999
 20
133.4976909999998
 30
0.0
 11
214.7081399999999
 21
134.519887
 31
0.0
  0
LINE
  5
BFD4
330
BF11
100
AcDbEntity
  8
1
  6
Continuous
100
AcDbLine
 10
214.192815
 20
134.519887
 30
0.0
 11
210.359577
 21
133.4976909999998
 31
0.0
  0
ARC
  5
BFD5
330
BF11
100
AcDbEntity
  8
1
  6
Continuous
100
AcDbCircle
 10
218.7990399999999
 20
134.4639259999999
 30
0.0
 40
1.0
100
AcDbArc
 50
255.0685829999999
 51
300.9637569999998
  0
ARC
  5
BFD6
330
BF11
100
AcDbEntity
  8
1
  6
Continuous
100
AcDbCircle
 10
210.101914
 20
134.4639259999999
 30
0.0
 40
1.0
100
AcDbArc
 50
239.036243
 51
284.9314169999999
  0
ARC
  5
BFD7
330
BF11
100
AcDbEntity
  8
1
  6
Continuous
100
AcDbCircle
 10
210.101914
 20
134.824009
 30
0.0
 40
1.0
100
AcDbArc
 50
239.036243
 51
284.9314169999999
  0
ARC
  5
BFD8
330
BF11
100
AcDbEntity
  8
1
  6
Continuous
100
AcDbCircle
 10
218.7990399999999
 20
134.824009
 30
0.0
 40
1.0
100
AcDbArc
 50
255.0685829999999
 51
300.9637569999998
  0
ARC
  5
BFD9
330
BF11
100
AcDbEntity
  8
1
  6
Continuous
100
AcDbCircle
 10
214.450477
 20
133.913736
 30
0.0
 40
1.0
100
AcDbArc
 50
75.06858299999997
 51
104.9314169999999
  0
LINE
  5
BFDA
330
BF11
100
AcDbEntity
  8
1
  6
Continuous
100
AcDbLine
 10
220.950477
 20
135.023681
 30
0.0
 11
219.3135359999998
 21
133.9665159999998
 31
0.0
  0
LINE
  5
BFDB
330
BF11
100
AcDbEntity
  8
1
  6
Continuous
100
AcDbLine
 10
220.950477
 20
134.663597
 30
0.0
 11
219.3135359999998
 21
133.606433
 31
0.0
  0
LINE
  5
BFDC
330
BF11
100
AcDbEntity
  8
1
  6
Continuous
100
AcDbLine
 10
209.5874189999999
 20
133.9665159999998
 30
0.0
 11
207.950477
 21
135.023681
 31
0.0
  0
LINE
  5
BFDD
330
BF11
100
AcDbEntity
  8
1
  6
Continuous
100
AcDbLine
 10
209.5874189999999
 20
133.606433
 30
0.0
 11
207.950477
 21
134.663597
 31
0.0
  0
LINE
  5
BFDE
330
BF11
100
AcDbEntity
  8
1
  6
Continuous
100
AcDbLine
 10
142.523862
 20
195.8209209999999
 30
0.0
 11
141.501665
 21
199.6541589999999
 31
0.0
  0
LINE
  5
BFDF
330
BF11
100
AcDbEntity
  8
1
  6
Continuous
100
AcDbLine
 10
141.501665
 20
200.169484
 30
0.0
 11
142.523862
 21
204.002722
 31
0.0
  0
ARC
  5
BFE0
330
BF11
100
AcDbEntity
  8
1
  6
Continuous
100
AcDbCircle
 10
141.557627
 20
204.2603839999999
 30
0.0
 40
1.0
100
AcDbArc
 50
345.0685829999998
 51
30.96375700000001
  0
ARC
  5
BFE1
330
BF11
100
AcDbEntity
  8
1
  6
Continuous
100
AcDbCircle
 10
141.557627
 20
195.5632579999999
 30
0.0
 40
1.0
100
AcDbArc
 50
329.036243
 51
14.931417
  0
LINE
  5
BFE2
330
BF11
100
AcDbEntity
  8
1
  6
Continuous
100
AcDbLine
 10
142.41512
 20
195.0487629999998
 30
0.0
 11
141.357955
 21
193.411821
 31
0.0
  0
LINE
  5
BFE3
330
BF11
100
AcDbEntity
  8
1
  6
Continuous
100
AcDbLine
 10
142.41512
 20
204.7748799999999
 30
0.0
 11
141.357955
 21
206.411821
 31
0.0
  0
LINE
  5
BFE4
330
BF11
100
AcDbEntity
  8
1
  6
Continuous
100
AcDbLine
 10
100.5
 20
193.411821
 30
0.0
 11
100.5
 21
206.411821
 31
0.0
  0
LINE
  5
BFE5
330
BF11
100
AcDbEntity
  8
1
  6
Continuous
100
AcDbLine
 10
100.5
 20
55.25
 30
0.0
 11
100.5
 21
42.25
 31
0.0
  0
LINE
  5
BFE6
330
BF11
100
AcDbEntity
  8
1
  6
Continuous
100
AcDbLine
 10
35.89999999999999
 20
119.0002389999998
 30
0.0
 11
35.89999999999999
 21
119.6002389999998
 31
0.0
  0
LINE
  5
BFE7
330
BF11
100
AcDbEntity
  8
1
  6
Continuous
100
AcDbLine
 10
29.6
 20
119.6002389999998
 30
0.0
 11
29.6
 21
120.200239
 31
0.0
  0
LINE
  5
BFE8
330
BF11
100
AcDbEntity
  8
1
  6
Continuous
100
AcDbLine
 10
32.75
 20
119.0002389999998
 30
0.0
 11
35.89999999999999
 21
119.0002389999998
 31
0.0
  0
LINE
  5
BFE9
330
BF11
100
AcDbEntity
  8
1
  6
Continuous
100
AcDbLine
 10
29.6
 20
119.6002389999998
 30
0.0
 11
32.75
 21
119.0002389999998
 31
0.0
  0
LINE
  5
BFEA
330
BF11
100
AcDbEntity
  8
1
  6
Continuous
100
AcDbLine
 10
29.6
 20
120.200239
 30
0.0
 11
35.89999999999999
 21
119.6002389999998
 31
0.0
  0
LINE
  5
BFEB
330
BF11
100
AcDbEntity
  8
1
  6
Continuous
100
AcDbLine
 10
35.89999999999999
 20
121.4002389999998
 30
0.0
 11
35.89999999999999
 21
122.0002389999998
 31
0.0
  0
LINE
  5
BFEC
330
BF11
100
AcDbEntity
  8
1
  6
Continuous
100
AcDbLine
 10
32.75
 20
121.4002389999998
 30
0.0
 11
35.89999999999999
 21
121.4002389999998
 31
0.0
  0
LINE
  5
BFED
330
BF11
100
AcDbEntity
  8
1
  6
Continuous
100
AcDbLine
 10
29.6
 20
122.0002389999998
 30
0.0
 11
32.75
 21
121.4002389999998
 31
0.0
  0
LINE
  5
BFEE
330
BF11
100
AcDbEntity
  8
1
  6
Continuous
100
AcDbLine
 10
29.6
 20
122.6002389999998
 30
0.0
 11
35.89999999999999
 21
122.0002389999998
 31
0.0
  0
LINE
  5
BFEF
330
BF11
100
AcDbEntity
  8
1
  6
Continuous
100
AcDbLine
 10
29.6
 20
122.0002389999998
 30
0.0
 11
29.6
 21
122.6002389999998
 31
0.0
  0
LINE
  5
BFF0
330
BF11
100
AcDbEntity
  8
1
  6
Continuous
100
AcDbLine
 10
29.6
 20
125.0002389999998
 30
0.0
 11
35.89999999999999
 21
124.4002389999999
 31
0.0
  0
LINE
  5
BFF1
330
BF11
100
AcDbEntity
  8
1
  6
Continuous
100
AcDbLine
 10
32.75
 20
123.8002389999999
 30
0.0
 11
35.89999999999999
 21
123.8002389999999
 31
0.0
  0
LINE
  5
BFF2
330
BF11
100
AcDbEntity
  8
1
  6
Continuous
100
AcDbLine
 10
35.89999999999999
 20
123.8002389999999
 30
0.0
 11
35.89999999999999
 21
124.4002389999999
 31
0.0
  0
LINE
  5
BFF3
330
BF11
100
AcDbEntity
  8
1
  6
Continuous
100
AcDbLine
 10
29.6
 20
124.4002389999999
 30
0.0
 11
29.6
 21
125.0002389999998
 31
0.0
  0
LINE
  5
BFF4
330
BF11
100
AcDbEntity
  8
1
  6
Continuous
100
AcDbLine
 10
29.6
 20
124.4002389999999
 30
0.0
 11
32.75
 21
123.8002389999999
 31
0.0
  0
LINE
  5
BFF5
330
BF11
100
AcDbEntity
  8
1
  6
Continuous
100
AcDbLine
 10
35.89999999999999
 20
126.0002389999998
 30
0.0
 11
35.89999999999999
 21
126.6002389999999
 31
0.0
  0
LINE
  5
BFF6
330
BF11
100
AcDbEntity
  8
1
  6
Continuous
100
AcDbLine
 10
32.75
 20
126.0002389999998
 30
0.0
 11
35.89999999999999
 21
126.0002389999998
 31
0.0
  0
LINE
  5
BFF7
330
BF11
100
AcDbEntity
  8
1
  6
Continuous
100
AcDbLine
 10
29.6
 20
127.2002389999999
 30
0.0
 11
35.89999999999999
 21
126.6002389999999
 31
0.0
  0
LINE
  5
BFF8
330
BF11
100
AcDbEntity
  8
1
  6
Continuous
100
AcDbLine
 10
29.6
 20
126.6002389999999
 30
0.0
 11
32.75
 21
126.0002389999998
 31
0.0
  0
LINE
  5
BFF9
330
BF11
100
AcDbEntity
  8
1
  6
Continuous
100
AcDbLine
 10
29.6
 20
126.6002389999999
 30
0.0
 11
29.6
 21
127.2002389999999
 31
0.0
  0
LINE
  5
BFFA
330
BF11
100
AcDbEntity
  8
1
  6
Continuous
100
AcDbLine
 10
29.6
 20
129.2002389999999
 30
0.0
 11
35.89999999999999
 21
128.6002389999999
 31
0.0
  0
LINE
  5
BFFB
330
BF11
100
AcDbEntity
  8
1
  6
Continuous
100
AcDbLine
 10
32.75
 20
128.0002389999999
 30
0.0
 11
35.89999999999999
 21
128.0002389999999
 31
0.0
  0
LINE
  5
BFFC
330
BF11
100
AcDbEntity
  8
1
  6
Continuous
100
AcDbLine
 10
35.89999999999999
 20
128.0002389999999
 30
0.0
 11
35.89999999999999
 21
128.6002389999999
 31
0.0
  0
LINE
  5
BFFD
330
BF11
100
AcDbEntity
  8
1
  6
Continuous
100
AcDbLine
 10
29.6
 20
128.6002389999999
 30
0.0
 11
29.6
 21
129.2002389999999
 31
0.0
  0
LINE
  5
BFFE
330
BF11
100
AcDbEntity
  8
1
  6
Continuous
100
AcDbLine
 10
29.6
 20
128.6002389999999
 30
0.0
 11
32.75
 21
128.0002389999999
 31
0.0
  0
LINE
  5
BFFF
330
BF11
100
AcDbEntity
  8
1
  6
Continuous
100
AcDbLine
 10
35.89999999999999
 20
130.0002389999999
 30
0.0
 11
35.89999999999999
 21
130.4002389999999
 31
0.0
  0
LINE
  5
C000
330
BF11
100
AcDbEntity
  8
1
  6
Continuous
100
AcDbLine
 10
29.6
 20
131.0002389999999
 30
0.0
 11
35.89999999999999
 21
130.4002389999999
 31
0.0
  0
LINE
  5
C001
330
BF11
100
AcDbEntity
  8
1
  6
Continuous
100
AcDbLine
 10
29.6
 20
130.603834
 30
0.0
 11
29.6
 21
131.0002389999999
 31
0.0
  0
LINE
  5
C002
330
BF11
100
AcDbEntity
  8
1
  6
Continuous
100
AcDbLine
 10
32.768878
 20
130.0002389999999
 30
0.0
 11
35.89999999999999
 21
130.0002389999999
 31
0.0
  0
LINE
  5
C003
330
BF11
100
AcDbEntity
  8
1
  6
Continuous
100
AcDbLine
 10
29.6
 20
130.603834
 30
0.0
 11
32.768878
 21
130.0002389999999
 31
0.0
  0
LINE
  5
C004
330
BF11
100
AcDbEntity
  8
1
  6
Continuous
100
AcDbLine
 10
35.89999999999999
 20
131.8002389999997
 30
0.0
 11
35.89999999999999
 21
132.2002389999999
 31
0.0
  0
LINE
  5
C005
330
BF11
100
AcDbEntity
  8
1
  6
Continuous
100
AcDbLine
 10
32.768878
 20
131.8002389999997
 30
0.0
 11
35.89999999999999
 21
131.8002389999997
 31
0.0
  0
LINE
  5
C006
330
BF11
100
AcDbEntity
  8
1
  6
Continuous
100
AcDbLine
 10
29.6
 20
132.8002389999997
 30
0.0
 11
35.89999999999999
 21
132.2002389999999
 31
0.0
  0
LINE
  5
C007
330
BF11
100
AcDbEntity
  8
1
  6
Continuous
100
AcDbLine
 10
29.6
 20
132.4038339999999
 30
0.0
 11
29.6
 21
132.8002389999997
 31
0.0
  0
LINE
  5
C008
330
BF11
100
AcDbEntity
  8
1
  6
Continuous
100
AcDbLine
 10
29.6
 20
132.4038339999999
 30
0.0
 11
32.768878
 21
131.8002389999997
 31
0.0
  0
LINE
  5
C009
330
BF11
100
AcDbEntity
  8
1
  6
Continuous
100
AcDbLine
 10
29.6
 20
134.514531
 30
0.0
 11
35.89999999999999
 21
133.914531
 31
0.0
  0
LINE
  5
C00A
330
BF11
100
AcDbEntity
  8
1
  6
Continuous
100
AcDbLine
 10
32.768878
 20
133.514531
 30
0.0
 11
35.89999999999999
 21
133.514531
 31
0.0
  0
LINE
  5
C00B
330
BF11
100
AcDbEntity
  8
1
  6
Continuous
100
AcDbLine
 10
35.89999999999999
 20
133.514531
 30
0.0
 11
35.89999999999999
 21
133.914531
 31
0.0
  0
LINE
  5
C00C
330
BF11
100
AcDbEntity
  8
1
  6
Continuous
100
AcDbLine
 10
29.6
 20
134.1181269999999
 30
0.0
 11
32.768878
 21
133.514531
 31
0.0
  0
LINE
  5
C00D
330
BF11
100
AcDbEntity
  8
1
  6
Continuous
100
AcDbLine
 10
29.6
 20
134.1181269999999
 30
0.0
 11
29.6
 21
134.514531
 31
0.0
  0
LINE
  5
C00E
330
BF11
100
AcDbEntity
  8
1
  6
Continuous
100
AcDbLine
 10
36.00728999999999
 20
135.1216819999999
 30
0.0
 11
36.00728999999999
 21
135.521682
 31
0.0
  0
LINE
  5
C00F
330
BF11
100
AcDbEntity
  8
1
  6
Continuous
100
AcDbLine
 10
32.876168
 20
135.1216819999999
 30
0.0
 11
36.00728999999999
 21
135.1216819999999
 31
0.0
  0
LINE
  5
C010
330
BF11
100
AcDbEntity
  8
1
  6
Continuous
100
AcDbLine
 10
29.70729
 20
136.1216819999999
 30
0.0
 11
36.00728999999999
 21
135.521682
 31
0.0
  0
LINE
  5
C011
330
BF11
100
AcDbEntity
  8
1
  6
Continuous
100
AcDbLine
 10
29.70729
 20
135.725277
 30
0.0
 11
29.70729
 21
136.1216819999999
 31
0.0
  0
LINE
  5
C012
330
BF11
100
AcDbEntity
  8
1
  6
Continuous
100
AcDbLine
 10
29.70729
 20
135.725277
 30
0.0
 11
32.876168
 21
135.1216819999999
 31
0.0
  0
LINE
  5
C013
330
BF11
100
AcDbEntity
  8
1
  6
Continuous
100
AcDbLine
 10
29.70729
 20
137.568116
 30
0.0
 11
36.00728999999999
 21
136.9681159999998
 31
0.0
  0
LINE
  5
C014
330
BF11
100
AcDbEntity
  8
1
  6
Continuous
100
AcDbLine
 10
32.876168
 20
136.568116
 30
0.0
 11
36.00728999999999
 21
136.568116
 31
0.0
  0
LINE
  5
C015
330
BF11
100
AcDbEntity
  8
1
  6
Continuous
100
AcDbLine
 10
36.00728999999999
 20
136.568116
 30
0.0
 11
36.00728999999999
 21
136.9681159999998
 31
0.0
  0
LINE
  5
C016
330
BF11
100
AcDbEntity
  8
1
  6
Continuous
100
AcDbLine
 10
29.70729
 20
137.171712
 30
0.0
 11
32.876168
 21
136.568116
 31
0.0
  0
LINE
  5
C017
330
BF11
100
AcDbEntity
  8
1
  6
Continuous
100
AcDbLine
 10
29.70729
 20
137.171712
 30
0.0
 11
29.70729
 21
137.568116
 31
0.0
  0
LINE
  5
C018
330
BF11
100
AcDbEntity
  8
1
  6
Continuous
100
AcDbLine
 10
36.060935
 20
138.060979
 30
0.0
 11
36.060935
 21
138.3609789999999
 31
0.0
  0
LINE
  5
C019
330
BF11
100
AcDbEntity
  8
1
  6
Continuous
100
AcDbLine
 10
29.76093499999999
 20
138.960979
 30
0.0
 11
36.060935
 21
138.3609789999999
 31
0.0
  0
LINE
  5
C01A
330
BF11
100
AcDbEntity
  8
1
  6
Continuous
100
AcDbLine
 10
29.76093499999999
 20
138.666599
 30
0.0
 11
29.76093499999999
 21
138.960979
 31
0.0
  0
LINE
  5
C01B
330
BF11
100
AcDbEntity
  8
1
  6
Continuous
100
AcDbLine
 10
32.75
 20
138.060979
 30
0.0
 11
36.060935
 21
138.060979
 31
0.0
  0
LINE
  5
C01C
330
BF11
100
AcDbEntity
  8
1
  6
Continuous
100
AcDbLine
 10
32.75
 20
138.060979
 30
0.0
 11
29.76093499999999
 21
138.666599
 31
0.0
  0
LINE
  5
C01D
330
BF11
100
AcDbEntity
  8
1
  6
Continuous
100
AcDbLine
 10
36.168224
 20
139.1859849999999
 30
0.0
 11
36.168224
 21
139.485985
 31
0.0
  0
LINE
  5
C01E
330
BF11
100
AcDbEntity
  8
1
  6
Continuous
100
AcDbLine
 10
32.85728999999999
 20
139.1859849999999
 30
0.0
 11
36.168224
 21
139.1859849999999
 31
0.0
  0
LINE
  5
C01F
330
BF11
100
AcDbEntity
  8
1
  6
Continuous
100
AcDbLine
 10
29.86822399999999
 20
140.0859849999999
 30
0.0
 11
36.168224
 21
139.485985
 31
0.0
  0
LINE
  5
C020
330
BF11
100
AcDbEntity
  8
1
  6
Continuous
100
AcDbLine
 10
29.86822399999999
 20
139.791606
 30
0.0
 11
29.86822399999999
 21
140.0859849999999
 31
0.0
  0
LINE
  5
C021
330
BF11
100
AcDbEntity
  8
1
  6
Continuous
100
AcDbLine
 10
32.85728999999999
 20
139.1859849999999
 30
0.0
 11
29.86822399999999
 21
139.791606
 31
0.0
  0
LINE
  5
C022
330
BF11
100
AcDbEntity
  8
1
  6
Continuous
100
AcDbLine
 10
36.11457899999999
 20
140.5645599999998
 30
0.0
 11
36.11457899999999
 21
140.765012
 31
0.0
  0
LINE
  5
C023
330
BF11
100
AcDbEntity
  8
1
  6
Continuous
100
AcDbLine
 10
29.814579
 20
141.1742439999999
 30
0.0
 11
29.814579
 21
141.3650119999998
 31
0.0
  0
LINE
  5
C024
330
BF11
100
AcDbEntity
  8
1
  6
Continuous
100
AcDbLine
 10
32.82370199999999
 20
140.5645599999998
 30
0.0
 11
36.11457899999999
 21
140.5645599999998
 31
0.0
  0
LINE
  5
C025
330
BF11
100
AcDbEntity
  8
1
  6
Continuous
100
AcDbLine
 10
32.82370199999999
 20
140.5645599999998
 30
0.0
 11
29.814579
 21
141.1742439999999
 31
0.0
  0
LINE
  5
C026
330
BF11
100
AcDbEntity
  8
1
  6
Continuous
100
AcDbLine
 10
29.814579
 20
141.3650119999998
 30
0.0
 11
36.12406
 21
140.764109
 31
0.0
  0
LINE
  5
C027
330
BF11
100
AcDbEntity
  8
1
  6
Continuous
100
AcDbLine
 10
29.76093499999999
 20
142.168589
 30
0.0
 11
36.07041499999999
 21
141.567686
 31
0.0
  0
LINE
  5
C028
330
BF11
100
AcDbEntity
  8
1
  6
Continuous
100
AcDbLine
 10
36.060935
 20
141.3681359999999
 30
0.0
 11
36.060935
 21
141.5685889999998
 31
0.0
  0
LINE
  5
C029
330
BF11
100
AcDbEntity
  8
1
  6
Continuous
100
AcDbLine
 10
32.770057
 20
141.3681359999999
 30
0.0
 11
36.060935
 21
141.3681359999999
 31
0.0
  0
LINE
  5
C02A
330
BF11
100
AcDbEntity
  8
1
  6
Continuous
100
AcDbLine
 10
32.770057
 20
141.3681359999999
 30
0.0
 11
29.76093499999999
 21
141.977821
 31
0.0
  0
LINE
  5
C02B
330
BF11
100
AcDbEntity
  8
1
  6
Continuous
100
AcDbLine
 10
29.76093499999999
 20
141.977821
 30
0.0
 11
29.76093499999999
 21
142.168589
 31
0.0
  0
LINE
  5
C02C
330
BF11
100
AcDbEntity
  8
1
  6
Continuous
100
AcDbLine
 10
36.007426
 20
116.9360559999999
 30
0.0
 11
36.007426
 21
117.536056
 31
0.0
  0
LINE
  5
C02D
330
BF11
100
AcDbEntity
  8
1
  6
Continuous
100
AcDbLine
 10
32.85742599999999
 20
116.9360559999999
 30
0.0
 11
36.007426
 21
116.9360559999999
 31
0.0
  0
LINE
  5
C02E
330
BF11
100
AcDbEntity
  8
1
  6
Continuous
100
AcDbLine
 10
29.707426
 20
118.136056
 30
0.0
 11
36.007426
 21
117.536056
 31
0.0
  0
LINE
  5
C02F
330
BF11
100
AcDbEntity
  8
1
  6
Continuous
100
AcDbLine
 10
29.707426
 20
116.136056
 30
0.0
 11
36.007426
 21
115.536056
 31
0.0
  0
LINE
  5
C030
330
BF11
100
AcDbEntity
  8
1
  6
Continuous
100
AcDbLine
 10
32.85742599999999
 20
114.9360559999999
 30
0.0
 11
36.007426
 21
114.9360559999999
 31
0.0
  0
LINE
  5
C031
330
BF11
100
AcDbEntity
  8
1
  6
Continuous
100
AcDbLine
 10
36.007426
 20
114.9360559999999
 30
0.0
 11
36.007426
 21
115.536056
 31
0.0
  0
LINE
  5
C032
330
BF11
100
AcDbEntity
  8
1
  6
Continuous
100
AcDbLine
 10
29.707426
 20
117.536056
 30
0.0
 11
32.85742599999999
 21
116.9360559999999
 31
0.0
  0
LINE
  5
C033
330
BF11
100
AcDbEntity
  8
1
  6
Continuous
100
AcDbLine
 10
29.707426
 20
117.536056
 30
0.0
 11
29.707426
 21
118.136056
 31
0.0
  0
LINE
  5
C034
330
BF11
100
AcDbEntity
  8
1
  6
Continuous
100
AcDbLine
 10
29.707426
 20
115.536056
 30
0.0
 11
29.707426
 21
116.136056
 31
0.0
  0
LINE
  5
C035
330
BF11
100
AcDbEntity
  8
1
  6
Continuous
100
AcDbLine
 10
29.707426
 20
115.536056
 30
0.0
 11
32.85742599999999
 21
114.9360559999999
 31
0.0
  0
LINE
  5
C036
330
BF11
100
AcDbEntity
  8
1
  6
Continuous
100
AcDbLine
 10
29.51077899999999
 20
110.503486
 30
0.0
 11
35.81077899999999
 21
109.903486
 31
0.0
  0
LINE
  5
C037
330
BF11
100
AcDbEntity
  8
1
  6
Continuous
100
AcDbLine
 10
32.67965699999999
 20
109.503486
 30
0.0
 11
35.81077899999999
 21
109.503486
 31
0.0
  0
LINE
  5
C038
330
BF11
100
AcDbEntity
  8
1
  6
Continuous
100
AcDbLine
 10
35.81077899999999
 20
109.503486
 30
0.0
 11
35.81077899999999
 21
109.903486
 31
0.0
  0
LINE
  5
C039
330
BF11
100
AcDbEntity
  8
1
  6
Continuous
100
AcDbLine
 10
35.91806900000001
 20
111.185646
 30
0.0
 11
35.91806900000001
 21
111.585646
 31
0.0
  0
LINE
  5
C03A
330
BF11
100
AcDbEntity
  8
1
  6
Continuous
100
AcDbLine
 10
32.78694699999999
 20
111.185646
 30
0.0
 11
35.91806900000001
 21
111.185646
 31
0.0
  0
LINE
  5
C03B
330
BF11
100
AcDbEntity
  8
1
  6
Continuous
100
AcDbLine
 10
29.618069
 20
112.1856459999999
 30
0.0
 11
35.91806900000001
 21
111.585646
 31
0.0
  0
LINE
  5
C03C
330
BF11
100
AcDbEntity
  8
1
  6
Continuous
100
AcDbLine
 10
36.079003
 20
112.88209
 30
0.0
 11
36.079003
 21
113.4820899999999
 31
0.0
  0
LINE
  5
C03D
330
BF11
100
AcDbEntity
  8
1
  6
Continuous
100
AcDbLine
 10
32.929003
 20
112.88209
 30
0.0
 11
36.079003
 21
112.88209
 31
0.0
  0
LINE
  5
C03E
330
BF11
100
AcDbEntity
  8
1
  6
Continuous
100
AcDbLine
 10
29.77900299999999
 20
114.08209
 30
0.0
 11
36.079003
 21
113.4820899999999
 31
0.0
  0
LINE
  5
C03F
330
BF11
100
AcDbEntity
  8
1
  6
Continuous
100
AcDbLine
 10
35.757134
 20
103.7713189999999
 30
0.0
 11
35.757134
 21
104.171319
 31
0.0
  0
LINE
  5
C040
330
BF11
100
AcDbEntity
  8
1
  6
Continuous
100
AcDbLine
 10
32.62601200000001
 20
103.7713189999999
 30
0.0
 11
35.757134
 21
103.7713189999999
 31
0.0
  0
LINE
  5
C041
330
BF11
100
AcDbEntity
  8
1
  6
Continuous
100
AcDbLine
 10
29.45713400000001
 20
104.7713189999999
 30
0.0
 11
35.757134
 21
104.171319
 31
0.0
  0
LINE
  5
C042
330
BF11
100
AcDbEntity
  8
1
  6
Continuous
100
AcDbLine
 10
29.671714
 20
106.646327
 30
0.0
 11
35.971714
 21
106.046327
 31
0.0
  0
LINE
  5
C043
330
BF11
100
AcDbEntity
  8
1
  6
Continuous
100
AcDbLine
 10
32.84059099999999
 20
105.646327
 30
0.0
 11
35.971714
 21
105.646327
 31
0.0
  0
LINE
  5
C044
330
BF11
100
AcDbEntity
  8
1
  6
Continuous
100
AcDbLine
 10
35.971714
 20
105.646327
 30
0.0
 11
35.971714
 21
106.046327
 31
0.0
  0
LINE
  5
C045
330
BF11
100
AcDbEntity
  8
1
  6
Continuous
100
AcDbLine
 10
35.91806900000001
 20
107.574908
 30
0.0
 11
35.91806900000001
 21
107.974908
 31
0.0
  0
LINE
  5
C046
330
BF11
100
AcDbEntity
  8
1
  6
Continuous
100
AcDbLine
 10
32.78694699999999
 20
107.574908
 30
0.0
 11
35.91806900000001
 21
107.574908
 31
0.0
  0
LINE
  5
C047
330
BF11
100
AcDbEntity
  8
1
  6
Continuous
100
AcDbLine
 10
29.618069
 20
108.574908
 30
0.0
 11
35.91806900000001
 21
107.974908
 31
0.0
  0
LINE
  5
C048
330
BF11
100
AcDbEntity
  8
1
  6
Continuous
100
AcDbLine
 10
29.51077899999999
 20
110.1070809999999
 30
0.0
 11
32.67965699999999
 21
109.503486
 31
0.0
  0
LINE
  5
C049
330
BF11
100
AcDbEntity
  8
1
  6
Continuous
100
AcDbLine
 10
29.618069
 20
111.7892419999999
 30
0.0
 11
32.78694699999999
 21
111.185646
 31
0.0
  0
LINE
  5
C04A
330
BF11
100
AcDbEntity
  8
1
  6
Continuous
100
AcDbLine
 10
29.77900299999999
 20
113.4820899999999
 30
0.0
 11
32.929003
 21
112.88209
 31
0.0
  0
LINE
  5
C04B
330
BF11
100
AcDbEntity
  8
1
  6
Continuous
100
AcDbLine
 10
29.45713400000001
 20
104.374915
 30
0.0
 11
32.62601200000001
 21
103.7713189999999
 31
0.0
  0
LINE
  5
C04C
330
BF11
100
AcDbEntity
  8
1
  6
Continuous
100
AcDbLine
 10
29.671714
 20
106.249923
 30
0.0
 11
32.84059099999999
 21
105.646327
 31
0.0
  0
LINE
  5
C04D
330
BF11
100
AcDbEntity
  8
1
  6
Continuous
100
AcDbLine
 10
29.618069
 20
108.178503
 30
0.0
 11
32.78694699999999
 21
107.574908
 31
0.0
  0
LINE
  5
C04E
330
BF11
100
AcDbEntity
  8
1
  6
Continuous
100
AcDbLine
 10
29.45713400000001
 20
104.374915
 30
0.0
 11
29.45713400000001
 21
104.7713189999999
 31
0.0
  0
LINE
  5
C04F
330
BF11
100
AcDbEntity
  8
1
  6
Continuous
100
AcDbLine
 10
29.671714
 20
106.249923
 30
0.0
 11
29.671714
 21
106.646327
 31
0.0
  0
LINE
  5
C050
330
BF11
100
AcDbEntity
  8
1
  6
Continuous
100
AcDbLine
 10
29.618069
 20
108.178503
 30
0.0
 11
29.618069
 21
108.574908
 31
0.0
  0
LINE
  5
C051
330
BF11
100
AcDbEntity
  8
1
  6
Continuous
100
AcDbLine
 10
29.618069
 20
111.7892419999999
 30
0.0
 11
29.618069
 21
112.1856459999999
 31
0.0
  0
LINE
  5
C052
330
BF11
100
AcDbEntity
  8
1
  6
Continuous
100
AcDbLine
 10
29.51077899999999
 20
110.1070809999999
 30
0.0
 11
29.51077899999999
 21
110.503486
 31
0.0
  0
LINE
  5
C053
330
BF11
100
AcDbEntity
  8
1
  6
Continuous
100
AcDbLine
 10
29.77900299999999
 20
113.4820899999999
 30
0.0
 11
29.77900299999999
 21
114.08209
 31
0.0
  0
LINE
  5
C054
330
BF11
100
AcDbEntity
  8
1
  6
Continuous
100
AcDbLine
 10
110.310886
 20
45.653426
 30
0.0
 11
110.910886
 21
51.953426
 31
0.0
  0
LINE
  5
C055
330
BF11
100
AcDbEntity
  8
1
  6
Continuous
100
AcDbLine
 10
111.310886
 20
48.82230299999999
 30
0.0
 11
111.310886
 21
51.953426
 31
0.0
  0
LINE
  5
C056
330
BF11
100
AcDbEntity
  8
1
  6
Continuous
100
AcDbLine
 10
111.310886
 20
51.953426
 30
0.0
 11
110.910886
 21
51.953426
 31
0.0
  0
LINE
  5
C057
330
BF11
100
AcDbEntity
  8
1
  6
Continuous
100
AcDbLine
 10
113.1108859999999
 20
51.953426
 30
0.0
 11
112.710886
 21
51.953426
 31
0.0
  0
LINE
  5
C058
330
BF11
100
AcDbEntity
  8
1
  6
Continuous
100
AcDbLine
 10
113.1108859999999
 20
48.82230299999999
 30
0.0
 11
113.1108859999999
 21
51.953426
 31
0.0
  0
LINE
  5
C059
330
BF11
100
AcDbEntity
  8
1
  6
Continuous
100
AcDbLine
 10
112.1108859999999
 20
45.653426
 30
0.0
 11
112.710886
 21
51.953426
 31
0.0
  0
LINE
  5
C05A
330
BF11
100
AcDbEntity
  8
1
  6
Continuous
100
AcDbLine
 10
115.1108859999999
 20
51.953426
 30
0.0
 11
114.510886
 21
51.953426
 31
0.0
  0
LINE
  5
C05B
330
BF11
100
AcDbEntity
  8
1
  6
Continuous
100
AcDbLine
 10
115.1108859999999
 20
48.803426
 30
0.0
 11
115.1108859999999
 21
51.953426
 31
0.0
  0
LINE
  5
C05C
330
BF11
100
AcDbEntity
  8
1
  6
Continuous
100
AcDbLine
 10
113.910886
 20
45.653426
 30
0.0
 11
114.510886
 21
51.953426
 31
0.0
  0
LINE
  5
C05D
330
BF11
100
AcDbEntity
  8
1
  6
Continuous
100
AcDbLine
 10
115.910886
 20
45.653426
 30
0.0
 11
116.510886
 21
51.953426
 31
0.0
  0
LINE
  5
C05E
330
BF11
100
AcDbEntity
  8
1
  6
Continuous
100
AcDbLine
 10
117.1108859999999
 20
48.803426
 30
0.0
 11
117.1108859999999
 21
51.953426
 31
0.0
  0
LINE
  5
C05F
330
BF11
100
AcDbEntity
  8
1
  6
Continuous
100
AcDbLine
 10
117.1108859999999
 20
51.953426
 30
0.0
 11
116.510886
 21
51.953426
 31
0.0
  0
LINE
  5
C060
330
BF11
100
AcDbEntity
  8
1
  6
Continuous
100
AcDbLine
 10
118.1108859999999
 20
45.653426
 30
0.0
 11
118.710886
 21
51.953426
 31
0.0
  0
LINE
  5
C061
330
BF11
100
AcDbEntity
  8
1
  6
Continuous
100
AcDbLine
 10
101.742989
 20
48.823483
 30
0.0
 11
101.742989
 21
52.11435999999999
 31
0.0
  0
LINE
  5
C062
330
BF11
100
AcDbEntity
  8
1
  6
Continuous
100
AcDbLine
 10
101.742989
 20
52.11435999999999
 30
0.0
 11
101.542536
 21
52.11435999999999
 31
0.0
  0
LINE
  5
C063
330
BF11
100
AcDbEntity
  8
1
  6
Continuous
100
AcDbLine
 10
100.942536
 20
45.81436
 30
0.0
 11
101.543439
 21
52.123841
 31
0.0
  0
LINE
  5
C064
330
BF11
100
AcDbEntity
  8
1
  6
Continuous
100
AcDbLine
 10
101.746113
 20
45.86800499999998
 30
0.0
 11
102.347016
 21
52.177486
 31
0.0
  0
LINE
  5
C065
330
BF11
100
AcDbEntity
  8
1
  6
Continuous
100
AcDbLine
 10
102.546565
 20
52.168005
 30
0.0
 11
102.346113
 21
52.168005
 31
0.0
  0
LINE
  5
C066
330
BF11
100
AcDbEntity
  8
1
  6
Continuous
100
AcDbLine
 10
102.546565
 20
48.877128
 30
0.0
 11
102.546565
 21
52.168005
 31
0.0
  0
LINE
  5
C067
330
BF11
100
AcDbEntity
  8
1
  6
Continuous
100
AcDbLine
 10
103.02514
 20
45.92165
 30
0.0
 11
103.62514
 21
52.22165
 31
0.0
  0
LINE
  5
C068
330
BF11
100
AcDbEntity
  8
1
  6
Continuous
100
AcDbLine
 10
103.9251399999999
 20
48.910715
 30
0.0
 11
103.9251399999999
 21
52.22165
 31
0.0
  0
LINE
  5
C069
330
BF11
100
AcDbEntity
  8
1
  6
Continuous
100
AcDbLine
 10
103.9251399999999
 20
52.22165
 30
0.0
 11
103.62514
 21
52.22165
 31
0.0
  0
LINE
  5
C06A
330
BF11
100
AcDbEntity
  8
1
  6
Continuous
100
AcDbLine
 10
105.0501469999999
 20
52.11435999999999
 30
0.0
 11
104.750147
 21
52.11435999999999
 31
0.0
  0
LINE
  5
C06B
330
BF11
100
AcDbEntity
  8
1
  6
Continuous
100
AcDbLine
 10
105.0501469999999
 20
48.803426
 30
0.0
 11
105.0501469999999
 21
52.11435999999999
 31
0.0
  0
LINE
  5
C06C
330
BF11
100
AcDbEntity
  8
1
  6
Continuous
100
AcDbLine
 10
104.150147
 20
45.81436
 30
0.0
 11
104.750147
 21
52.11435999999999
 31
0.0
  0
LINE
  5
C06D
330
BF11
100
AcDbEntity
  8
1
  6
Continuous
100
AcDbLine
 10
106.543009
 20
52.060715
 30
0.0
 11
106.1430089999999
 21
52.060715
 31
0.0
  0
LINE
  5
C06E
330
BF11
100
AcDbEntity
  8
1
  6
Continuous
100
AcDbLine
 10
106.543009
 20
48.929593
 30
0.0
 11
106.543009
 21
52.060715
 31
0.0
  0
LINE
  5
C06F
330
BF11
100
AcDbEntity
  8
1
  6
Continuous
100
AcDbLine
 10
105.543009
 20
45.760715
 30
0.0
 11
106.1430089999999
 21
52.060715
 31
0.0
  0
LINE
  5
C070
330
BF11
100
AcDbEntity
  8
1
  6
Continuous
100
AcDbLine
 10
106.9894439999999
 20
45.760715
 30
0.0
 11
107.589444
 21
52.060715
 31
0.0
  0
LINE
  5
C071
330
BF11
100
AcDbEntity
  8
1
  6
Continuous
100
AcDbLine
 10
107.9894439999999
 20
48.929593
 30
0.0
 11
107.9894439999999
 21
52.060715
 31
0.0
  0
LINE
  5
C072
330
BF11
100
AcDbEntity
  8
1
  6
Continuous
100
AcDbLine
 10
107.9894439999999
 20
52.060715
 30
0.0
 11
107.589444
 21
52.060715
 31
0.0
  0
LINE
  5
C073
330
BF11
100
AcDbEntity
  8
1
  6
Continuous
100
AcDbLine
 10
109.5965939999999
 20
51.953426
 30
0.0
 11
109.1965939999999
 21
51.953426
 31
0.0
  0
LINE
  5
C074
330
BF11
100
AcDbEntity
  8
1
  6
Continuous
100
AcDbLine
 10
109.5965939999999
 20
48.82230299999999
 30
0.0
 11
109.5965939999999
 21
51.953426
 31
0.0
  0
LINE
  5
C075
330
BF11
100
AcDbEntity
  8
1
  6
Continuous
100
AcDbLine
 10
108.5965939999999
 20
45.653426
 30
0.0
 11
109.1965939999999
 21
51.953426
 31
0.0
  0
LINE
  5
C076
330
BF11
100
AcDbEntity
  8
1
  6
Continuous
100
AcDbLine
 10
110.707291
 20
45.653426
 30
0.0
 11
111.310886
 21
48.82230299999999
 31
0.0
  0
LINE
  5
C077
330
BF11
100
AcDbEntity
  8
1
  6
Continuous
100
AcDbLine
 10
110.707291
 20
45.653426
 30
0.0
 11
110.310886
 21
45.653426
 31
0.0
  0
LINE
  5
C078
330
BF11
100
AcDbEntity
  8
1
  6
Continuous
100
AcDbLine
 10
112.5072909999999
 20
45.653426
 30
0.0
 11
112.1108859999999
 21
45.653426
 31
0.0
  0
LINE
  5
C079
330
BF11
100
AcDbEntity
  8
1
  6
Continuous
100
AcDbLine
 10
112.5072909999999
 20
45.653426
 30
0.0
 11
113.1108859999999
 21
48.82230299999999
 31
0.0
  0
LINE
  5
C07A
330
BF11
100
AcDbEntity
  8
1
  6
Continuous
100
AcDbLine
 10
114.510886
 20
45.653426
 30
0.0
 11
115.1108859999999
 21
48.803426
 31
0.0
  0
LINE
  5
C07B
330
BF11
100
AcDbEntity
  8
1
  6
Continuous
100
AcDbLine
 10
114.510886
 20
45.653426
 30
0.0
 11
113.910886
 21
45.653426
 31
0.0
  0
LINE
  5
C07C
330
BF11
100
AcDbEntity
  8
1
  6
Continuous
100
AcDbLine
 10
116.510886
 20
45.653426
 30
0.0
 11
115.910886
 21
45.653426
 31
0.0
  0
LINE
  5
C07D
330
BF11
100
AcDbEntity
  8
1
  6
Continuous
100
AcDbLine
 10
116.510886
 20
45.653426
 30
0.0
 11
117.1108859999999
 21
48.803426
 31
0.0
  0
LINE
  5
C07E
330
BF11
100
AcDbEntity
  8
1
  6
Continuous
100
AcDbLine
 10
118.710886
 20
45.653426
 30
0.0
 11
119.310886
 21
48.803426
 31
0.0
  0
LINE
  5
C07F
330
BF11
100
AcDbEntity
  8
1
  6
Continuous
100
AcDbLine
 10
118.710886
 20
45.653426
 30
0.0
 11
118.1108859999999
 21
45.653426
 31
0.0
  0
LINE
  5
C080
330
BF11
100
AcDbEntity
  8
1
  6
Continuous
100
AcDbLine
 10
101.742989
 20
48.823483
 30
0.0
 11
101.133304
 21
45.81436
 31
0.0
  0
LINE
  5
C081
330
BF11
100
AcDbEntity
  8
1
  6
Continuous
100
AcDbLine
 10
101.936881
 20
45.86800499999998
 30
0.0
 11
101.746113
 21
45.86800499999998
 31
0.0
  0
LINE
  5
C082
330
BF11
100
AcDbEntity
  8
1
  6
Continuous
100
AcDbLine
 10
102.546565
 20
48.877128
 30
0.0
 11
101.936881
 21
45.86800499999998
 31
0.0
  0
LINE
  5
C083
330
BF11
100
AcDbEntity
  8
1
  6
Continuous
100
AcDbLine
 10
103.9251399999999
 20
48.910715
 30
0.0
 11
103.319519
 21
45.92165
 31
0.0
  0
LINE
  5
C084
330
BF11
100
AcDbEntity
  8
1
  6
Continuous
100
AcDbLine
 10
103.319519
 20
45.92165
 30
0.0
 11
103.02514
 21
45.92165
 31
0.0
  0
LINE
  5
C085
330
BF11
100
AcDbEntity
  8
1
  6
Continuous
100
AcDbLine
 10
104.444526
 20
45.81436
 30
0.0
 11
104.150147
 21
45.81436
 31
0.0
  0
LINE
  5
C086
330
BF11
100
AcDbEntity
  8
1
  6
Continuous
100
AcDbLine
 10
105.0501469999999
 20
48.803426
 30
0.0
 11
104.444526
 21
45.81436
 31
0.0
  0
LINE
  5
C087
330
BF11
100
AcDbEntity
  8
1
  6
Continuous
100
AcDbLine
 10
105.9394129999998
 20
45.760715
 30
0.0
 11
105.543009
 21
45.760715
 31
0.0
  0
LINE
  5
C088
330
BF11
100
AcDbEntity
  8
1
  6
Continuous
100
AcDbLine
 10
105.9394129999998
 20
45.760715
 30
0.0
 11
106.543009
 21
48.929593
 31
0.0
  0
LINE
  5
C089
330
BF11
100
AcDbEntity
  8
1
  6
Continuous
100
AcDbLine
 10
107.3858479999999
 20
45.760715
 30
0.0
 11
107.9894439999999
 21
48.929593
 31
0.0
  0
LINE
  5
C08A
330
BF11
100
AcDbEntity
  8
1
  6
Continuous
100
AcDbLine
 10
107.3858479999999
 20
45.760715
 30
0.0
 11
106.9894439999999
 21
45.760715
 31
0.0
  0
LINE
  5
C08B
330
BF11
100
AcDbEntity
  8
1
  6
Continuous
100
AcDbLine
 10
108.9929979999999
 20
45.653426
 30
0.0
 11
108.5965939999999
 21
45.653426
 31
0.0
  0
LINE
  5
C08C
330
BF11
100
AcDbEntity
  8
1
  6
Continuous
100
AcDbLine
 10
108.9929979999999
 20
45.653426
 30
0.0
 11
109.5965939999999
 21
48.82230299999999
 31
0.0
  0
LINE
  5
C08D
330
BF11
100
AcDbEntity
  8
1
  6
Continuous
100
AcDbLine
 10
101.133304
 20
45.81436
 30
0.0
 11
100.942536
 21
45.81436
 31
0.0
  0
LINE
  5
C08E
330
BF11
100
AcDbEntity
  8
1
  6
Continuous
100
AcDbLine
 10
119.310886
 20
51.953426
 30
0.0
 11
118.710886
 21
51.953426
 31
0.0
  0
LINE
  5
C08F
330
BF11
100
AcDbEntity
  8
1
  6
Continuous
100
AcDbLine
 10
119.310886
 20
48.803426
 30
0.0
 11
119.310886
 21
51.953426
 31
0.0
  0
LINE
  5
C090
330
BF11
100
AcDbEntity
  8
1
  6
Continuous
100
AcDbLine
 10
120.510886
 20
45.653426
 30
0.0
 11
121.1108859999999
 21
51.953426
 31
0.0
  0
LINE
  5
C091
330
BF11
100
AcDbEntity
  8
1
  6
Continuous
100
AcDbLine
 10
121.710886
 20
48.803426
 30
0.0
 11
121.710886
 21
51.953426
 31
0.0
  0
LINE
  5
C092
330
BF11
100
AcDbEntity
  8
1
  6
Continuous
100
AcDbLine
 10
121.710886
 20
51.953426
 30
0.0
 11
121.1108859999999
 21
51.953426
 31
0.0
  0
LINE
  5
C093
330
BF11
100
AcDbEntity
  8
1
  6
Continuous
100
AcDbLine
 10
121.1108859999999
 20
45.653426
 30
0.0
 11
120.510886
 21
45.653426
 31
0.0
  0
LINE
  5
C094
330
BF11
100
AcDbEntity
  8
1
  6
Continuous
100
AcDbLine
 10
121.1108859999999
 20
45.653426
 30
0.0
 11
121.710886
 21
48.803426
 31
0.0
  0
LINE
  5
C095
330
BF11
100
AcDbEntity
  8
1
  6
Continuous
100
AcDbLine
 10
103.128984
 20
196.712599
 30
0.0
 11
103.5289839999998
 21
196.712599
 31
0.0
  0
LINE
  5
C096
330
BF11
100
AcDbEntity
  8
1
  6
Continuous
100
AcDbLine
 10
104.7361339999998
 20
199.736432
 30
0.0
 11
104.7361339999998
 21
196.60531
 31
0.0
  0
LINE
  5
C097
330
BF11
100
AcDbEntity
  8
1
  6
Continuous
100
AcDbLine
 10
104.7361339999998
 20
196.60531
 30
0.0
 11
105.136134
 21
196.60531
 31
0.0
  0
LINE
  5
C098
330
BF11
100
AcDbEntity
  8
1
  6
Continuous
100
AcDbLine
 10
103.128984
 20
199.8437209999999
 30
0.0
 11
103.128984
 21
196.712599
 31
0.0
  0
LINE
  5
C099
330
BF11
100
AcDbEntity
  8
1
  6
Continuous
100
AcDbLine
 10
109.4721689999998
 20
199.7805579999999
 30
0.0
 11
109.4721689999998
 21
196.649436
 31
0.0
  0
LINE
  5
C09A
330
BF11
100
AcDbEntity
  8
1
  6
Continuous
100
AcDbLine
 10
109.4721689999998
 20
196.649436
 30
0.0
 11
109.872169
 21
196.649436
 31
0.0
  0
LINE
  5
C09B
330
BF11
100
AcDbEntity
  8
1
  6
Continuous
100
AcDbLine
 10
106.182569
 20
199.736432
 30
0.0
 11
106.182569
 21
196.60531
 31
0.0
  0
LINE
  5
C09C
330
BF11
100
AcDbEntity
  8
1
  6
Continuous
100
AcDbLine
 10
106.182569
 20
196.60531
 30
0.0
 11
106.582569
 21
196.60531
 31
0.0
  0
LINE
  5
C09D
330
BF11
100
AcDbEntity
  8
1
  6
Continuous
100
AcDbLine
 10
101.2013849999999
 20
200.0433539999999
 30
0.0
 11
101.2013849999999
 21
196.7524769999999
 31
0.0
  0
LINE
  5
C09E
330
BF11
100
AcDbEntity
  8
1
  6
Continuous
100
AcDbLine
 10
102.004961
 20
200.096999
 30
0.0
 11
102.004961
 21
196.8061219999999
 31
0.0
  0
LINE
  5
C09F
330
BF11
100
AcDbEntity
  8
1
  6
Continuous
100
AcDbLine
 10
101.2013849999999
 20
196.7524769999999
 30
0.0
 11
101.4018379999999
 21
196.7524769999999
 31
0.0
  0
LINE
  5
C0A0
330
BF11
100
AcDbEntity
  8
1
  6
Continuous
100
AcDbLine
 10
102.004961
 20
196.8061219999999
 30
0.0
 11
102.205414
 21
196.8061219999999
 31
0.0
  0
LINE
  5
C0A1
330
BF11
100
AcDbEntity
  8
1
  6
Continuous
100
AcDbLine
 10
104.128984
 20
203.012599
 30
0.0
 11
103.5289839999998
 21
196.712599
 31
0.0
  0
LINE
  5
C0A2
330
BF11
100
AcDbEntity
  8
1
  6
Continuous
100
AcDbLine
 10
105.736134
 20
202.90531
 30
0.0
 11
105.136134
 21
196.60531
 31
0.0
  0
LINE
  5
C0A3
330
BF11
100
AcDbEntity
  8
1
  6
Continuous
100
AcDbLine
 10
110.4721689999998
 20
202.949436
 30
0.0
 11
109.872169
 21
196.649436
 31
0.0
  0
LINE
  5
C0A4
330
BF11
100
AcDbEntity
  8
1
  6
Continuous
100
AcDbLine
 10
107.182569
 20
202.90531
 30
0.0
 11
106.582569
 21
196.60531
 31
0.0
  0
LINE
  5
C0A5
330
BF11
100
AcDbEntity
  8
1
  6
Continuous
100
AcDbLine
 10
102.001838
 20
203.0524769999999
 30
0.0
 11
101.4018379999999
 21
196.7524769999999
 31
0.0
  0
LINE
  5
C0A6
330
BF11
100
AcDbEntity
  8
1
  6
Continuous
100
AcDbLine
 10
102.805414
 20
203.106122
 30
0.0
 11
102.205414
 21
196.8061219999999
 31
0.0
  0
LINE
  5
C0A7
330
BF11
100
AcDbEntity
  8
1
  6
Continuous
100
AcDbLine
 10
111.050055
 20
199.8930599999999
 30
0.0
 11
111.050055
 21
196.74306
 31
0.0
  0
LINE
  5
C0A8
330
BF11
100
AcDbEntity
  8
1
  6
Continuous
100
AcDbLine
 10
113.050055
 20
197.208208
 30
0.0
 11
113.050055
 21
196.74306
 31
0.0
  0
LINE
  5
C0A9
330
BF11
100
AcDbEntity
  8
1
  6
Continuous
100
AcDbLine
 10
111.050055
 20
196.74306
 30
0.0
 11
111.650055
 21
196.74306
 31
0.0
  0
LINE
  5
C0AA
330
BF11
100
AcDbEntity
  8
1
  6
Continuous
100
AcDbLine
 10
113.050055
 20
196.74306
 30
0.0
 11
113.650055
 21
196.74306
 31
0.0
  0
LINE
  5
C0AB
330
BF11
100
AcDbEntity
  8
1
  6
Continuous
100
AcDbLine
 10
107.672169
 20
199.7805579999999
 30
0.0
 11
107.672169
 21
196.649436
 31
0.0
  0
LINE
  5
C0AC
330
BF11
100
AcDbEntity
  8
1
  6
Continuous
100
AcDbLine
 10
112.250055
 20
203.0430599999998
 30
0.0
 11
112.145614
 21
201.94643
 31
0.0
  0
LINE
  5
C0AD
330
BF11
100
AcDbEntity
  8
1
  6
Continuous
100
AcDbLine
 10
114.250055
 20
203.0430599999998
 30
0.0
 11
114.237354
 21
202.9096969999999
 31
0.0
  0
LINE
  5
C0AE
330
BF11
100
AcDbEntity
  8
1
  6
Continuous
100
AcDbLine
 10
108.672169
 20
202.949436
 30
0.0
 11
108.0721689999998
 21
196.649436
 31
0.0
  0
LINE
  5
C0AF
330
BF11
100
AcDbEntity
  8
1
  6
Continuous
100
AcDbLine
 10
103.73258
 20
203.012599
 30
0.0
 11
103.128984
 21
199.8437209999999
 31
0.0
  0
LINE
  5
C0B0
330
BF11
100
AcDbEntity
  8
1
  6
Continuous
100
AcDbLine
 10
103.73258
 20
203.012599
 30
0.0
 11
104.128984
 21
203.012599
 31
0.0
  0
LINE
  5
C0B1
330
BF11
100
AcDbEntity
  8
1
  6
Continuous
100
AcDbLine
 10
105.33973
 20
202.90531
 30
0.0
 11
105.736134
 21
202.90531
 31
0.0
  0
LINE
  5
C0B2
330
BF11
100
AcDbEntity
  8
1
  6
Continuous
100
AcDbLine
 10
105.33973
 20
202.90531
 30
0.0
 11
104.7361339999998
 21
199.736432
 31
0.0
  0
LINE
  5
C0B3
330
BF11
100
AcDbEntity
  8
1
  6
Continuous
100
AcDbLine
 10
110.075765
 20
202.949436
 30
0.0
 11
110.4721689999998
 21
202.949436
 31
0.0
  0
LINE
  5
C0B4
330
BF11
100
AcDbEntity
  8
1
  6
Continuous
100
AcDbLine
 10
110.075765
 20
202.949436
 30
0.0
 11
109.4721689999998
 21
199.7805579999999
 31
0.0
  0
LINE
  5
C0B5
330
BF11
100
AcDbEntity
  8
1
  6
Continuous
100
AcDbLine
 10
106.7861639999998
 20
202.90531
 30
0.0
 11
106.182569
 21
199.736432
 31
0.0
  0
LINE
  5
C0B6
330
BF11
100
AcDbEntity
  8
1
  6
Continuous
100
AcDbLine
 10
106.7861639999998
 20
202.90531
 30
0.0
 11
107.182569
 21
202.90531
 31
0.0
  0
LINE
  5
C0B7
330
BF11
100
AcDbEntity
  8
1
  6
Continuous
100
AcDbLine
 10
102.6146459999998
 20
203.106122
 30
0.0
 11
102.805414
 21
203.106122
 31
0.0
  0
LINE
  5
C0B8
330
BF11
100
AcDbEntity
  8
1
  6
Continuous
100
AcDbLine
 10
101.2013849999999
 20
200.0433539999999
 30
0.0
 11
101.81107
 21
203.0524769999999
 31
0.0
  0
LINE
  5
C0B9
330
BF11
100
AcDbEntity
  8
1
  6
Continuous
100
AcDbLine
 10
101.81107
 20
203.0524769999999
 30
0.0
 11
102.001838
 21
203.0524769999999
 31
0.0
  0
LINE
  5
C0BA
330
BF11
100
AcDbEntity
  8
1
  6
Continuous
100
AcDbLine
 10
102.004961
 20
200.096999
 30
0.0
 11
102.6146459999998
 21
203.106122
 31
0.0
  0
LINE
  5
C0BB
330
BF11
100
AcDbEntity
  8
1
  6
Continuous
100
AcDbLine
 10
111.650055
 20
203.0430599999998
 30
0.0
 11
111.050055
 21
199.8930599999999
 31
0.0
  0
LINE
  5
C0BC
330
BF11
100
AcDbEntity
  8
1
  6
Continuous
100
AcDbLine
 10
111.650055
 20
203.0430599999998
 30
0.0
 11
112.250055
 21
203.0430599999998
 31
0.0
  0
LINE
  5
C0BD
330
BF11
100
AcDbEntity
  8
1
  6
Continuous
100
AcDbLine
 10
113.650055
 20
203.0430599999998
 30
0.0
 11
114.250055
 21
203.0430599999998
 31
0.0
  0
LINE
  5
C0BE
330
BF11
100
AcDbEntity
  8
1
  6
Continuous
100
AcDbLine
 10
113.650055
 20
203.0430599999998
 30
0.0
 11
113.6072549999999
 21
202.818362
 31
0.0
  0
LINE
  5
C0BF
330
BF11
100
AcDbEntity
  8
1
  6
Continuous
100
AcDbLine
 10
108.275765
 20
202.949436
 30
0.0
 11
107.672169
 21
199.7805579999999
 31
0.0
  0
LINE
  5
C0C0
330
BF11
100
AcDbEntity
  8
1
  6
Continuous
100
AcDbLine
 10
108.275765
 20
202.949436
 30
0.0
 11
108.672169
 21
202.949436
 31
0.0
  0
LINE
  5
C0C1
330
BF11
100
AcDbEntity
  8
1
  6
Continuous
100
AcDbLine
 10
217.9594149999998
 20
140.772548
 30
0.0
 11
217.9594149999998
 21
140.3761429999998
 31
0.0
  0
LINE
  5
C0C2
330
BF11
100
AcDbEntity
  8
1
  6
Continuous
100
AcDbLine
 10
217.9594149999998
 20
140.772548
 30
0.0
 11
216.147424
 21
141.1176889999999
 31
0.0
  0
LINE
  5
C0C3
330
BF11
100
AcDbEntity
  8
1
  6
Continuous
100
AcDbLine
 10
217.9594149999998
 20
138.9725479999998
 30
0.0
 11
214.790537
 21
139.576143
 31
0.0
  0
LINE
  5
C0C4
330
BF11
100
AcDbEntity
  8
1
  6
Continuous
100
AcDbLine
 10
217.9594149999998
 20
138.9725479999998
 30
0.0
 11
217.9594149999998
 21
138.576143
 31
0.0
  0
LINE
  5
C0C5
330
BF11
100
AcDbEntity
  8
1
  6
Continuous
100
AcDbLine
 10
217.852125
 20
135.6511049999998
 30
0.0
 11
214.683247
 21
136.254701
 31
0.0
  0
LINE
  5
C0C6
330
BF11
100
AcDbEntity
  8
1
  6
Continuous
100
AcDbLine
 10
217.852125
 20
135.6511049999998
 30
0.0
 11
217.852125
 21
135.254701
 31
0.0
  0
LINE
  5
C0C7
330
BF11
100
AcDbEntity
  8
1
  6
Continuous
100
AcDbLine
 10
217.9594149999998
 20
137.2582549999999
 30
0.0
 11
217.9594149999998
 21
136.861851
 31
0.0
  0
LINE
  5
C0C8
330
BF11
100
AcDbEntity
  8
1
  6
Continuous
100
AcDbLine
 10
217.9594149999998
 20
137.2582549999999
 30
0.0
 11
214.790537
 21
137.861851
 31
0.0
  0
LINE
  5
C0C9
330
BF11
100
AcDbEntity
  8
1
  6
Continuous
100
AcDbLine
 10
217.9594149999998
 20
140.3761429999998
 30
0.0
 11
215.301476
 21
140.6292809999999
 31
0.0
  0
LINE
  5
C0CA
330
BF11
100
AcDbEntity
  8
1
  6
Continuous
100
AcDbLine
 10
212.3058749999999
 20
141.3761429999999
 30
0.0
 11
211.659415
 21
141.3761429999999
 31
0.0
  0
LINE
  5
C0CB
330
BF11
100
AcDbEntity
  8
1
  6
Continuous
100
AcDbLine
 10
211.659415
 20
141.3761429999999
 30
0.0
 11
211.659415
 21
140.976143
 31
0.0
  0
LINE
  5
C0CC
330
BF11
100
AcDbEntity
  8
1
  6
Continuous
100
AcDbLine
 10
217.9594149999998
 20
138.576143
 30
0.0
 11
211.659415
 21
139.176143
 31
0.0
  0
LINE
  5
C0CD
330
BF11
100
AcDbEntity
  8
1
  6
Continuous
100
AcDbLine
 10
217.852125
 20
135.254701
 30
0.0
 11
211.552125
 21
135.854701
 31
0.0
  0
LINE
  5
C0CE
330
BF11
100
AcDbEntity
  8
1
  6
Continuous
100
AcDbLine
 10
217.9594149999998
 20
136.861851
 30
0.0
 11
211.659415
 21
137.4618509999999
 31
0.0
  0
LINE
  5
C0CF
330
BF11
100
AcDbEntity
  8
1
  6
Continuous
100
AcDbLine
 10
211.659415
 20
139.576143
 30
0.0
 11
211.659415
 21
139.176143
 31
0.0
  0
LINE
  5
C0D0
330
BF11
100
AcDbEntity
  8
1
  6
Continuous
100
AcDbLine
 10
214.790537
 20
139.576143
 30
0.0
 11
211.659415
 21
139.576143
 31
0.0
  0
LINE
  5
C0D1
330
BF11
100
AcDbEntity
  8
1
  6
Continuous
100
AcDbLine
 10
214.790537
 20
137.861851
 30
0.0
 11
211.659415
 21
137.861851
 31
0.0
  0
LINE
  5
C0D2
330
BF11
100
AcDbEntity
  8
1
  6
Continuous
100
AcDbLine
 10
211.552125
 20
136.254701
 30
0.0
 11
211.552125
 21
135.854701
 31
0.0
  0
LINE
  5
C0D3
330
BF11
100
AcDbEntity
  8
1
  6
Continuous
100
AcDbLine
 10
214.683247
 20
136.254701
 30
0.0
 11
211.552125
 21
136.254701
 31
0.0
  0
LINE
  5
C0D4
330
BF11
100
AcDbEntity
  8
1
  6
Continuous
100
AcDbLine
 10
211.659415
 20
137.861851
 30
0.0
 11
211.659415
 21
137.4618509999999
 31
0.0
  0
LINE
  5
C0D5
330
BF11
100
AcDbEntity
  8
1
  6
Continuous
100
AcDbLine
 10
213.2632609999999
 20
140.823396
 30
0.0
 11
211.659415
 21
140.976143
 31
0.0
  0
LINE
  5
C0D6
330
BF11
100
AcDbEntity
  8
1
  6
Continuous
100
AcDbLine
 10
108.0721689999998
 20
196.649436
 30
0.0
 11
107.672169
 21
196.649436
 31
0.0
  0
LINE
  5
C0D7
330
BF11
100
AcDbEntity
  8
1
  6
Continuous
100
AcDbLine
 10
113.673492
 20
196.989149
 30
0.0
 11
113.650055
 21
196.74306
 31
0.0
  0
LINE
  5
C0D8
330
BF11
100
AcDbEntity
  8
1
  6
Continuous
100
AcDbLine
 10
118.1002389999999
 20
56.5
 30
0.0
 11
118.1002389999999
 21
55.25
 31
0.0
  0
LINE
  5
C0D9
330
BF11
100
AcDbEntity
  8
1
  6
Continuous
100
AcDbLine
 10
129.1002389999998
 20
56.5
 30
0.0
 11
129.1002389999998
 21
55.25
 31
0.0
  0
LINE
  5
C0DA
330
BF11
100
AcDbEntity
  8
1
  6
Continuous
100
AcDbLine
 10
118.1002389999999
 20
42.25
 30
0.0
 11
118.1002389999999
 21
41.0
 31
0.0
  0
LINE
  5
C0DB
330
BF11
100
AcDbEntity
  8
1
  6
Continuous
100
AcDbLine
 10
129.1002389999998
 20
42.25
 30
0.0
 11
129.1002389999998
 21
41.0
 31
0.0
  0
ARC
  5
C0DC
330
BF11
100
AcDbEntity
  8
1
  6
Continuous
100
AcDbCircle
 10
123.6002389999999
 20
140.761421
 30
0.0
 40
7.4
100
AcDbArc
 50
18.924644
 51
161.075356
  0
LINE
  5
C0DD
330
BF11
100
AcDbEntity
  8
1
  6
Continuous
100
AcDbLine
 10
117.8002389999999
 20
207.6618209999999
 30
0.0
 11
116.6002389999998
 21
206.161821
 31
0.0
  0
LINE
  5
C0DE
330
BF11
100
AcDbEntity
  8
1
  6
Continuous
100
AcDbLine
 10
129.4002389999999
 20
207.6618209999999
 30
0.0
 11
130.6002389999999
 21
206.161821
 31
0.0
  0
LINE
  5
C0DF
330
BF11
100
AcDbEntity
  8
1
  6
Continuous
100
AcDbLine
 10
116.6002389999998
 20
193.6618209999998
 30
0.0
 11
117.8002389999999
 21
192.161821
 31
0.0
  0
LINE
  5
C0E0
330
BF11
100
AcDbEntity
  8
1
  6
Continuous
100
AcDbLine
 10
130.6002389999999
 20
193.6618209999998
 30
0.0
 11
129.4002389999999
 21
192.161821
 31
0.0
  0
ARC
  5
C0E1
330
BF11
100
AcDbEntity
  8
1
  6
Continuous
100
AcDbCircle
 10
123.6002389999999
 20
230.1618209999999
 30
0.0
 40
25.0
100
AcDbArc
 50
253.7397949999999
 51
286.2602049999999
  0
ARC
  5
C0E2
330
BF11
100
AcDbEntity
  8
1
  6
Continuous
100
AcDbCircle
 10
123.6002389999999
 20
169.661821
 30
0.0
 40
25.0
100
AcDbArc
 50
73.739795
 51
106.2602049999999
  0
LINE
  5
C0E3
330
BF11
100
AcDbEntity
  8
1
  6
Continuous
100
AcDbLine
 10
117.8002389999999
 20
56.5
 30
0.0
 11
116.8002389999999
 21
55.25
 31
0.0
  0
LINE
  5
C0E4
330
BF11
100
AcDbEntity
  8
1
  6
Continuous
100
AcDbLine
 10
129.4002389999999
 20
56.5
 30
0.0
 11
130.4002389999999
 21
55.25
 31
0.0
  0
LINE
  5
C0E5
330
BF11
100
AcDbEntity
  8
1
  6
Continuous
100
AcDbLine
 10
130.4002389999999
 20
42.25
 30
0.0
 11
129.4002389999999
 21
41.0
 31
0.0
  0
LINE
  5
C0E6
330
BF11
100
AcDbEntity
  8
1
  6
Continuous
100
AcDbLine
 10
116.8002389999999
 20
42.25
 30
0.0
 11
117.8002389999999
 21
41.0
 31
0.0
  0
ARC
  5
C0E7
330
BF11
100
AcDbEntity
  8
1
  6
Continuous
100
AcDbCircle
 10
214.450477
 20
133.553652
 30
0.0
 40
1.0
100
AcDbArc
 50
75.06858299999997
 51
104.9314169999999
  0
LINE
  5
C0E8
330
BF11
100
AcDbEntity
  8
1
  6
Continuous
100
AcDbLine
 10
111.801187
 20
198.3299439999999
 30
0.0
 11
111.650055
 21
196.74306
 31
0.0
  0
ARC
  5
C0E9
330
BF11
100
AcDbEntity
  8
1
  6
Continuous
100
AcDbCircle
 10
142.4678999999999
 20
199.9118209999998
 30
0.0
 40
1.0
100
AcDbArc
 50
165.068583
 51
194.9314169999999
  0
LINE
  5
C0EA
330
BF11
100
AcDbEntity
  8
1
  6
Continuous
100
AcDbLine
 10
209.950477
 20
142.7360329999999
 30
0.0
 11
213.950477
 21
140.426632
 31
0.0
  0
ARC
  5
C0EB
330
BF11
100
AcDbEntity
  8
1
  6
Continuous
100
AcDbCircle
 10
214.450477
 20
141.2926569999999
 30
0.0
 40
1.0
100
AcDbArc
 50
239.9999999999999
 51
300.0
  0
LINE
  5
C0EC
330
BF11
100
AcDbEntity
  8
1
  6
Continuous
100
AcDbLine
 10
214.950477
 20
140.426632
 30
0.0
 11
218.950477
 21
142.7360329999999
 31
0.0
  0
ARC
  5
C0ED
330
BF11
100
AcDbEntity
  8
1
  6
Continuous
100
AcDbCircle
 10
218.450477
 20
143.602058
 30
0.0
 40
1.0
100
AcDbArc
 50
300.0
 51
0.0
  0
LINE
  5
C0EE
330
BF11
100
AcDbEntity
  8
1
  6
Continuous
100
AcDbLine
 10
219.4504769999999
 20
143.602058
 30
0.0
 11
219.4504769999999
 21
148.2208599999999
 31
0.0
  0
ARC
  5
C0EF
330
BF11
100
AcDbEntity
  8
1
  6
Continuous
100
AcDbCircle
 10
218.450477
 20
148.2208599999999
 30
0.0
 40
1.0
100
AcDbArc
 50
0.0
 51
60.0
  0
LINE
  5
C0F0
330
BF11
100
AcDbEntity
  8
1
  6
Continuous
100
AcDbLine
 10
218.950477
 20
149.0868859999999
 30
0.0
 11
214.950477
 21
151.396287
 31
0.0
  0
ARC
  5
C0F1
330
BF11
100
AcDbEntity
  8
1
  6
Continuous
100
AcDbCircle
 10
214.450477
 20
150.530261
 30
0.0
 40
1.0
100
AcDbArc
 50
60.0
 51
119.9999999999999
  0
LINE
  5
C0F2
330
BF11
100
AcDbEntity
  8
1
  6
Continuous
100
AcDbLine
 10
213.950477
 20
151.396287
 30
0.0
 11
209.950477
 21
149.0868859999999
 31
0.0
  0
ARC
  5
C0F3
330
BF11
100
AcDbEntity
  8
1
  6
Continuous
100
AcDbCircle
 10
210.450477
 20
148.2208599999999
 30
0.0
 40
1.0
100
AcDbArc
 50
119.9999999999999
 51
180.0
  0
LINE
  5
C0F4
330
BF11
100
AcDbEntity
  8
1
  6
Continuous
100
AcDbLine
 10
209.4504769999999
 20
148.2208599999999
 30
0.0
 11
209.4504769999999
 21
143.602058
 31
0.0
  0
ARC
  5
C0F5
330
BF11
100
AcDbEntity
  8
1
  6
Continuous
100
AcDbCircle
 10
210.450477
 20
143.602058
 30
0.0
 40
1.0
100
AcDbArc
 50
180.0
 51
239.9999999999999
  0
ENDSEC
  0
SECTION
  2
OBJECTS
  0
DICTIONARY
  5
BEFF
330
0
100
AcDbDictionary
281
     1
  3
ACAD_CIP_PREVIOUS_PRODUCT_INFO
350
C155
  3
ACAD_COLOR
350
C137
  3
ACAD_DETAILVIEWSTYLE
350
C150
  3
ACAD_GROUP
350
BF00
  3
ACAD_LAYOUT
350
BF0C
  3
ACAD_MATERIAL
350
C105
  3
ACAD_MLEADERSTYLE
350
C14C
  3
ACAD_MLINESTYLE
350
BF09
  3
ACAD_PLOTSETTINGS
350
BF0B
  3
ACAD_PLOTSTYLENAME
350
C103
  3
ACAD_SCALELIST
350
C13A
  3
ACAD_SECTIONVIEWSTYLE
350
C14E
  3
ACAD_TABLESTYLE
350
C138
  3
ACAD_VISUALSTYLE
350
C11E
  3
ACDB_RECOMPOSE_DATA
350
C173
  3
AcDbVariableDictionary
350
C166
  3
DWGPROPS
350
C174
  0
DICTIONARY
  5
C156
330
BF03
100
AcDbDictionary
280
     1
281
     1
  3
ADSK_XREC_LAYER_RECONCILED
360
C157
  0
DICTIONARY
  5
C158
330
BF19
100
AcDbDictionary
280
     1
281
     1
  3
ADSK_XREC_LAYER_RECONCILED
360
C159
  0
DICTIONARY
  5
C15A
330
BF1A
100
AcDbDictionary
280
     1
281
     1
  3
ADSK_XREC_LAYER_RECONCILED
360
C15B
  0
DICTIONARY
  5
C15C
330
BF1B
100
AcDbDictionary
280
     1
281
     1
  3
ADSK_XREC_LAYER_RECONCILED
360
C15D
  0
DICTIONARY
  5
C15E
330
BF1C
100
AcDbDictionary
280
     1
281
     1
  3
ADSK_XREC_LAYER_RECONCILED
360
C15F
  0
DICTIONARY
  5
C160
330
BF1D
100
AcDbDictionary
280
     1
281
     1
  3
ADSK_XREC_LAYER_RECONCILED
360
C161
  0
DICTIONARY
  5
C162
330
BF1E
100
AcDbDictionary
280
     1
281
     1
  3
ADSK_XREC_LAYER_RECONCILED
360
C163
  0
DICTIONARY
  5
C164
330
BF1F
100
AcDbDictionary
280
     1
281
     1
  3
ADSK_XREC_LAYER_RECONCILED
360
C165
  0
DICTIONARY
  5
C0FE
330
BF11
100
AcDbDictionary
281
     1
  3
ACAD_LAYOUTSELFREF
350
C0FF
  0
DICTIONARY
  5
C0FC
330
BF0D
100
AcDbDictionary
281
     1
  3
ACAD_LAYOUTSELFREF
350
C0FD
  0
XRECORD
  5
C155
102
{ACAD_REACTORS
330
BEFF
102
}
330
BEFF
100
AcDbXrecord
280
     1
300
ACDLT
300
2014
300
ACDLT_F_S
  0
DICTIONARY
  5
C137
102
{ACAD_REACTORS
330
BEFF
102
}
330
BEFF
100
AcDbDictionary
281
     1
  0
DICTIONARY
  5
C150
102
{ACAD_REACTORS
330
BEFF
102
}
330
BEFF
100
AcDbDictionary
281
     1
  3
Imperial24
350
C151
  0
DICTIONARY
  5
BF00
102
{ACAD_REACTORS
330
BEFF
102
}
330
BEFF
100
AcDbDictionary
281
     1
  0
DICTIONARY
  5
BF0C
102
{ACAD_REACTORS
330
BEFF
102
}
330
BEFF
100
AcDbDictionary
281
     1
  3
Model
350
C152
  3
レイアウト1
350
C153
  0
DICTIONARY
  5
C105
102
{ACAD_REACTORS
330
BEFF
102
}
330
BEFF
100
AcDbDictionary
281
     1
  3
ByBlock
350
C10E
  3
ByLayer
350
C106
  3
Global
350
C116
  0
DICTIONARY
  5
C14C
102
{ACAD_REACTORS
330
BEFF
102
}
330
BEFF
100
AcDbDictionary
281
     1
  3
Standard
350
C14D
  0
DICTIONARY
  5
BF09
102
{ACAD_REACTORS
330
BEFF
102
}
330
BEFF
100
AcDbDictionary
281
     1
  3
STANDARD
350
BF0A
  0
DICTIONARY
  5
BF0B
102
{ACAD_REACTORS
330
BEFF
102
}
330
BEFF
100
AcDbDictionary
281
     1
  0
ACDBDICTIONARYWDFLT
  5
C103
102
{ACAD_REACTORS
330
BEFF
102
}
330
BEFF
100
AcDbDictionary
281
     1
  3
Normal
350
C104
100
AcDbDictionaryWithDefault
340
C104
  0
DICTIONARY
  5
C13A
102
{ACAD_REACTORS
330
BEFF
102
}
330
BEFF
100
AcDbDictionary
281
     1
  3
A0
350
C13B
  3
A1
350
C13C
  3
A2
350
C13D
  3
A3
350
C13E
  3
A4
350
C13F
  3
A5
350
C140
  3
A6
350
C141
  3
A7
350
C142
  3
A8
350
C143
  3
A9
350
C144
  3
B0
350
C145
  3
B1
350
C146
  3
B2
350
C147
  3
B3
350
C148
  3
B4
350
C149
  3
B5
350
C14A
  3
B6
350
C14B
  0
DICTIONARY
  5
C14E
102
{ACAD_REACTORS
330
BEFF
102
}
330
BEFF
100
AcDbDictionary
281
     1
  3
Imperial24
350
C14F
  0
DICTIONARY
  5
C138
102
{ACAD_REACTORS
330
BEFF
102
}
330
BEFF
100
AcDbDictionary
281
     1
  3
Standard
350
C139
  0
DICTIONARY
  5
C11E
102
{ACAD_REACTORS
330
BEFF
102
}
330
BEFF
100
AcDbDictionary
281
     1
  3
2dWireframe
350
C124
  3
Basic
350
C123
  3
Brighten
350
C12A
  3
ColorChange
350
C12E
  3
Conceptual
350
C127
  3
Dim
350
C129
  3
EdgeColorOff
350
C136
  3
Facepattern
350
C12D
  3
Flat
350
C11F
  3
FlatWithEdges
350
C120
  3
Gouraud
350
C121
  3
GouraudWithEdges
350
C122
  3
Hidden
350
C126
  3
JitterOff
350
C134
  3
Linepattern
350
C12C
  3
OverhangOff
350
C135
  3
Realistic
350
C128
  3
Shaded
350
C133
  3
Shaded with edges
350
C132
  3
Shades of Gray
350
C12F
  3
Sketchy
350
C130
  3
Thicken
350
C12B
  3
Wireframe
350
C125
  3
X-Ray
350
C131
  0
XRECORD
  5
C173
102
{ACAD_REACTORS
330
BEFF
102
}
330
BEFF
100
AcDbXrecord
280
     1
 90
        1
330
C139
  0
DICTIONARY
  5
C166
102
{ACAD_REACTORS
330
BEFF
102
}
330
BEFF
100
AcDbDictionary
281
     1
  3
CANNOSCALE
350
C16B
  3
CMLEADERSTYLE
350
C168
  3
CTABLESTYLE
350
C167
  3
CVIEWDETAILSTYLE
350
C169
  3
CVIEWSECTIONSTYLE
350
C16A
  3
DIMASSOC
350
C16E
  3
INDEXCTL
350
C16D
  3
SORTENTS
350
C16C
  3
XCLIPFRAME
350
C16F
  0
XRECORD
  5
C174
102
{ACAD_REACTORS
330
BEFF
102
}
330
BEFF
100
AcDbXrecord
280
     1
  1
DWGPROPS COOKIE
  2

  3

  4

  6

  7

  8
Yoshitsune
  9

300
=
301
=
302
=
303
=
304
=
305
=
306
=
307
=
308
=
309
=
 40
0.0000097337962963
 41
2451296.796417014
 42
2457192.658369618
  1

 90
        0
  0
XRECORD
  5
C157
102
{ACAD_REACTORS
330
C156
102
}
330
C156
100
AcDbXrecord
280
     1
290
     1
  0
XRECORD
  5
C159
102
{ACAD_REACTORS
330
C158
102
}
330
C158
100
AcDbXrecord
280
     1
290
     1
  0
XRECORD
  5
C15B
102
{ACAD_REACTORS
330
C15A
102
}
330
C15A
100
AcDbXrecord
280
     1
290
     1
  0
XRECORD
  5
C15D
102
{ACAD_REACTORS
330
C15C
102
}
330
C15C
100
AcDbXrecord
280
     1
290
     1
  0
XRECORD
  5
C15F
102
{ACAD_REACTORS
330
C15E
102
}
330
C15E
100
AcDbXrecord
280
     1
290
     1
  0
XRECORD
  5
C161
102
{ACAD_REACTORS
330
C160
102
}
330
C160
100
AcDbXrecord
280
     1
290
     1
  0
XRECORD
  5
C163
102
{ACAD_REACTORS
330
C162
102
}
330
C162
100
AcDbXrecord
280
     1
290
     1
  0
XRECORD
  5
C165
102
{ACAD_REACTORS
330
C164
102
}
330
C164
100
AcDbXrecord
280
     1
290
     1
  0
XRECORD
  5
C0FF
102
{ACAD_REACTORS
330
C0FE
102
}
330
C0FE
100
AcDbXrecord
280
     1
340
BF11
  0
XRECORD
  5
C0FD
102
{ACAD_REACTORS
330
C0FC
102
}
330
C0FC
100
AcDbXrecord
280
     1
340
BF0D
  0
ACDBDETAILVIEWSTYLE
  5
C151
102
{ACAD_XDICTIONARY
360
C1AC
102
}
102
{ACAD_REACTORS
330
C150
102
}
330
C150
100
AcDbModelDocViewStyle
 70
     0
  3
Imperial24
290
     0
100
AcDbDetailViewStyle
 70
     0
 71
     0
 90
        3
 71
     1
340
BF04
 40
0.24
340
0
 40
0.24
300

 40
0.36
280
     3
 71
     2
340
BF08
 90
       25
 71
     3
340
BF04
 40
0.24
 90
        1
 40
0.75
 90
        1
300
%<\AcVar ViewType \f "%tc1">% %<\AcVar ViewDetailId>%\PSCALE %<\AcVar ViewScale \f "%sn">%
 71
     4
340
BF08
 90
       25
340
BF08
 90
       25
280
     0
  0
LAYOUT
  5
C152
102
{ACAD_XDICTIONARY
360
C1AE
102
}
102
{ACAD_REACTORS
330
BF0C
102
}
330
BF0C
100
AcDbPlotSettings
  1

  2
Canon LBP9100C
  4

  6

 40
0.0
 41
0.0
 42
0.0
 43
0.0
 44
0.0
 45
0.0
 46
0.0
 47
0.0
 48
0.0
 49
0.0
140
0.0
141
0.0
142
1.0
143
1.0
 70
  1712
 72
     0
 73
     0
 74
     0
  7

 75
     0
147
1.0
148
0.0
149
0.0
100
AcDbLayout
  1
Model
 70
     1
 71
     0
 10
0.0
 20
0.0
 11
12.0
 21
9.0
 12
0.0
 22
0.0
 32
0.0
 14
0.0
 24
0.0
 34
0.0
 15
0.0
 25
0.0
 35
0.0
146
0.0
 13
0.0
 23
0.0
 33
0.0
 16
1.0
 26
0.0
 36
0.0
 17
0.0
 27
1.0
 37
0.0
 76
     0
330
BF11
331
C0FB
  0
LAYOUT
  5
C153
102
{ACAD_XDICTIONARY
360
C1B0
102
}
102
{ACAD_REACTORS
330
BF0C
102
}
330
BF0C
100
AcDbPlotSettings
  1

  2
Canon LBP9100C
  4

  6

 40
0.0
 41
0.0
 42
0.0
 43
0.0
 44
0.0
 45
0.0
 46
0.0
 47
0.0
 48
0.0
 49
0.0
140
0.0
141
0.0
142
1.0
143
1.0
 70
   688
 72
     0
 73
     0
 74
     5
  7

 75
    16
147
1.0
148
0.0
149
0.0
100
AcDbLayout
  1
レイアウト1
 70
     0
 71
     1
 10
0.0
 20
0.0
 11
420.0
 21
297.0
 12
0.0
 22
0.0
 32
0.0
 14
1.000000000000000E+20
 24
1.000000000000000E+20
 34
1.000000000000000E+20
 15
-1.000000000000000E+20
 25
-1.000000000000000E+20
 35
-1.000000000000000E+20
146
0.0
 13
0.0
 23
0.0
 33
0.0
 16
1.0
 26
0.0
 36
0.0
 17
0.0
 27
1.0
 37
0.0
 76
     0
330
BF0D
  0
MATERIAL
  5
C10E
102
{ACAD_XDICTIONARY
360
C10F
102
}
102
{ACAD_REACTORS
330
C105
102
}
330
C105
100
AcDbMaterial
  1
ByBlock
 72
     0
 43
0.0208333333333333
 43
0.0
 43
0.0
 43
0.0
 43
0.0
 43
0.0208333333333333
 43
0.0
 43
0.0
 43
0.0
 43
0.0
 43
1.0
 43
0.0
 43
0.0
 43
0.0
 43
0.0
 43
1.0
 77
     0
 47
0.0208333333333333
 47
0.0
 47
0.0
 47
0.0
 47
0.0
 47
0.0208333333333333
 47
0.0
 47
0.0
 47
0.0
 47
0.0
 47
1.0
 47
0.0
 47
0.0
 47
0.0
 47
0.0
 47
1.0
171
     0
 49
0.0208333333333333
 49
0.0
 49
0.0
 49
0.0
 49
0.0
 49
0.0208333333333333
 49
0.0
 49
0.0
 49
0.0
 49
0.0
 49
1.0
 49
0.0
 49
0.0
 49
0.0
 49
0.0
 49
1.0
175
     0
142
0.0208333333333333
142
0.0
142
0.0
142
0.0
142
0.0
142
0.0208333333333333
142
0.0
142
0.0
142
0.0
142
0.0
142
1.0
142
0.0
142
0.0
142
0.0
142
0.0
142
1.0
179
     0
144
0.0208333333333333
144
0.0
144
0.0
144
0.0
144
0.0
144
0.0208333333333333
144
0.0
144
0.0
144
0.0
144
0.0
144
1.0
144
0.0
144
0.0
144
0.0
144
0.0
144
1.0
147
0.0208333333333333
147
0.0
147
0.0
147
0.0
147
0.0
147
0.0208333333333333
147
0.0
147
0.0
147
0.0
147
0.0
147
1.0
147
0.0
147
0.0
147
0.0
147
0.0
147
1.0
  0
MATERIAL
  5
C106
102
{ACAD_XDICTIONARY
360
C107
102
}
102
{ACAD_REACTORS
330
C105
102
}
330
C105
100
AcDbMaterial
  1
ByLayer
 72
     0
 43
0.0208333333333333
 43
0.0
 43
0.0
 43
0.0
 43
0.0
 43
0.0208333333333333
 43
0.0
 43
0.0
 43
0.0
 43
0.0
 43
1.0
 43
0.0
 43
0.0
 43
0.0
 43
0.0
 43
1.0
 77
     0
 47
0.0208333333333333
 47
0.0
 47
0.0
 47
0.0
 47
0.0
 47
0.0208333333333333
 47
0.0
 47
0.0
 47
0.0
 47
0.0
 47
1.0
 47
0.0
 47
0.0
 47
0.0
 47
0.0
 47
1.0
171
     0
 49
0.0208333333333333
 49
0.0
 49
0.0
 49
0.0
 49
0.0
 49
0.0208333333333333
 49
0.0
 49
0.0
 49
0.0
 49
0.0
 49
1.0
 49
0.0
 49
0.0
 49
0.0
 49
0.0
 49
1.0
175
     0
142
0.0208333333333333
142
0.0
142
0.0
142
0.0
142
0.0
142
0.0208333333333333
142
0.0
142
0.0
142
0.0
142
0.0
142
1.0
142
0.0
142
0.0
142
0.0
142
0.0
142
1.0
179
     0
144
0.0208333333333333
144
0.0
144
0.0
144
0.0
144
0.0
144
0.0208333333333333
144
0.0
144
0.0
144
0.0
144
0.0
144
1.0
144
0.0
144
0.0
144
0.0
144
0.0
144
1.0
147
0.0208333333333333
147
0.0
147
0.0
147
0.0
147
0.0
147
0.0208333333333333
147
0.0
147
0.0
147
0.0
147
0.0
147
1.0
147
0.0
147
0.0
147
0.0
147
0.0
147
1.0
  0
MATERIAL
  5
C116
102
{ACAD_XDICTIONARY
360
C117
102
}
102
{ACAD_REACTORS
330
C105
102
}
330
C105
100
AcDbMaterial
  1
Global
 72
     0
 43
0.0208333333333333
 43
0.0
 43
0.0
 43
0.0
 43
0.0
 43
0.0208333333333333
 43
0.0
 43
0.0
 43
0.0
 43
0.0
 43
1.0
 43
0.0
 43
0.0
 43
0.0
 43
0.0
 43
1.0
 77
     0
 47
0.0208333333333333
 47
0.0
 47
0.0
 47
0.0
 47
0.0
 47
0.0208333333333333
 47
0.0
 47
0.0
 47
0.0
 47
0.0
 47
1.0
 47
0.0
 47
0.0
 47
0.0
 47
0.0
 47
1.0
171
     0
 49
0.0208333333333333
 49
0.0
 49
0.0
 49
0.0
 49
0.0
 49
0.0208333333333333
 49
0.0
 49
0.0
 49
0.0
 49
0.0
 49
1.0
 49
0.0
 49
0.0
 49
0.0
 49
0.0
 49
1.0
175
     0
142
0.0208333333333333
142
0.0
142
0.0
142
0.0
142
0.0
142
0.0208333333333333
142
0.0
142
0.0
142
0.0
142
0.0
142
1.0
142
0.0
142
0.0
142
0.0
142
0.0
142
1.0
179
     0
144
0.0208333333333333
144
0.0
144
0.0
144
0.0
144
0.0
144
0.0208333333333333
144
0.0
144
0.0
144
0.0
144
0.0
144
1.0
144
0.0
144
0.0
144
0.0
144
0.0
144
1.0
147
0.0208333333333333
147
0.0
147
0.0
147
0.0
147
0.0
147
0.0208333333333333
147
0.0
147
0.0
147
0.0
147
0.0
147
1.0
147
0.0
147
0.0
147
0.0
147
0.0
147
1.0
  0
MLEADERSTYLE
  5
C14D
102
{ACAD_REACTORS
330
C14C
102
}
330
C14C
100
AcDbMLeaderStyle
170
     2
171
     1
172
     0
 90
        2
 40
0.0
 41
0.0
173
     1
 91
-1056964608
340
BF06
 92
       -2
290
     1
 42
0.09
291
     1
 43
0.36
  3
Standard
 44
0.18
300

342
BF04
174
     1
178
     6
175
     1
176
     0
 93
-1056964608
 45
0.18
292
     0
297
     0
 46
0.18
 94
-1056964608
 47
1.0
 49
1.0
140
1.0
293
     1
141
0.0
294
     1
177
     0
142
1.0
295
     0
296
     0
143
0.125
1001
ACAD_MLEADERVER
1070
     2
  0
MLINESTYLE
  5
BF0A
102
{ACAD_REACTORS
330
BF09
102
}
330
BF09
100
AcDbMlineStyle
  2
STANDARD
 70
     0
  3

 62
   256
 51
90.0
 52
90.0
 71
     2
 49
0.5
 62
   256
  6
BYLAYER
 49
-0.5
 62
   256
  6
BYLAYER
  0
ACDBPLACEHOLDER
  5
C104
102
{ACAD_REACTORS
330
C103
102
}
330
C103
  0
SCALE
  5
C13B
102
{ACAD_REACTORS
330
C13A
102
}
330
C13A
100
AcDbScale
 70
     0
300
1:1
140
1.0
141
1.0
290
     1
  0
SCALE
  5
C13C
102
{ACAD_REACTORS
330
C13A
102
}
330
C13A
100
AcDbScale
 70
     0
300
1/128" = 1'-0"
140
0.0078125
141
12.0
290
     0
  0
SCALE
  5
C13D
102
{ACAD_REACTORS
330
C13A
102
}
330
C13A
100
AcDbScale
 70
     0
300
1/64" = 1'-0"
140
0.015625
141
12.0
290
     0
  0
SCALE
  5
C13E
102
{ACAD_REACTORS
330
C13A
102
}
330
C13A
100
AcDbScale
 70
     0
300
1/32" = 1'-0"
140
0.03125
141
12.0
290
     0
  0
SCALE
  5
C13F
102
{ACAD_REACTORS
330
C13A
102
}
330
C13A
100
AcDbScale
 70
     0
300
1/16" = 1'-0"
140
0.0625
141
12.0
290
     0
  0
SCALE
  5
C140
102
{ACAD_REACTORS
330
C13A
102
}
330
C13A
100
AcDbScale
 70
     0
300
3/32" = 1'-0"
140
0.09375
141
12.0
290
     0
  0
SCALE
  5
C141
102
{ACAD_REACTORS
330
C13A
102
}
330
C13A
100
AcDbScale
 70
     0
300
1/8" = 1'-0"
140
0.125
141
12.0
290
     0
  0
SCALE
  5
C142
102
{ACAD_REACTORS
330
C13A
102
}
330
C13A
100
AcDbScale
 70
     0
300
3/16" = 1'-0"
140
0.1875
141
12.0
290
     0
  0
SCALE
  5
C143
102
{ACAD_REACTORS
330
C13A
102
}
330
C13A
100
AcDbScale
 70
     0
300
1/4" = 1'-0"
140
0.25
141
12.0
290
     0
  0
SCALE
  5
C144
102
{ACAD_REACTORS
330
C13A
102
}
330
C13A
100
AcDbScale
 70
     0
300
3/8" = 1'-0"
140
0.375
141
12.0
290
     0
  0
SCALE
  5
C145
102
{ACAD_REACTORS
330
C13A
102
}
330
C13A
100
AcDbScale
 70
     0
300
1/2" = 1'-0"
140
0.5
141
12.0
290
     0
  0
SCALE
  5
C146
102
{ACAD_REACTORS
330
C13A
102
}
330
C13A
100
AcDbScale
 70
     0
300
3/4" = 1'-0"
140
0.75
141
12.0
290
     0
  0
SCALE
  5
C147
102
{ACAD_REACTORS
330
C13A
102
}
330
C13A
100
AcDbScale
 70
     0
300
1" = 1'-0"
140
1.0
141
12.0
290
     0
  0
SCALE
  5
C148
102
{ACAD_REACTORS
330
C13A
102
}
330
C13A
100
AcDbScale
 70
     0
300
1-1/2" = 1'-0"
140
1.5
141
12.0
290
     0
  0
SCALE
  5
C149
102
{ACAD_REACTORS
330
C13A
102
}
330
C13A
100
AcDbScale
 70
     0
300
3" = 1'-0"
140
3.0
141
12.0
290
     0
  0
SCALE
  5
C14A
102
{ACAD_REACTORS
330
C13A
102
}
330
C13A
100
AcDbScale
 70
     0
300
6" = 1'-0"
140
6.0
141
12.0
290
     0
  0
SCALE
  5
C14B
102
{ACAD_REACTORS
330
C13A
102
}
330
C13A
100
AcDbScale
 70
     0
300
1'-0" = 1'-0"
140
12.0
141
12.0
290
     0
  0
ACDBSECTIONVIEWSTYLE
  5
C14F
102
{ACAD_XDICTIONARY
360
C1AA
102
}
102
{ACAD_REACTORS
330
C14E
102
}
330
C14E
100
AcDbModelDocViewStyle
 70
     0
  3
Imperial24
290
     0
100
AcDbSectionViewStyle
 70
     0
 71
     0
 90
       78
 71
     1
340
BF04
 40
0.24
340
0
340
0
 40
0.24
300
I, O, Q, S, X, Z
 40
0.48
 90
        3
 40
0.18
 90
        1
 71
     2
340
BF08
 90
       25
340
BF08
 90
       50
 40
0.24
 40
0.0
 40
0.24
 71
     3
340
BF04
 40
0.24
 90
        1
 40
0.75
 90
        1
300
%<\AcVar ViewType \f "%tc1">% %<\AcVar ViewSectionStartId>%-%<\AcVar ViewSectionEndId>%\PSCALE %<\AcVar ViewScale \f "%sn">%
 71
     4
300
ANSI31
 40
1.0
 90
        0
290
     0
290
     0
 90
        6
 40
0.0
 40
1.570796326794896
 40
0.2617993877991494
 40
1.308996938995747
 40
-0.2617993877991494
 40
1.832595714594046
  0
TABLESTYLE
  5
C139
102
{ACAD_XDICTIONARY
360
C171
102
}
102
{ACAD_REACTORS
330
C138
102
}
330
C138
100
AcDbTableStyle
  3
Standard
 70
     0
 71
     0
 40
0.06
 41
0.06
280
     0
281
     0
  7
STANDARD
140
0.18
170
     2
 62
     0
 63
     7
283
     0
274
    -2
284
     1
 64
     0
275
    -2
285
     1
 65
     0
276
    -2
286
     1
 66
     0
277
    -2
287
     1
 67
     0
278
    -2
288
     1
 68
     0
279
    -2
289
     1
 69
     0
  7
STANDARD
140
0.25
170
     5
 62
     0
 63
     7
283
     0
274
    -2
284
     1
 64
     0
275
    -2
285
     1
 65
     0
276
    -2
286
     1
 66
     0
277
    -2
287
     1
 67
     0
278
    -2
288
     1
 68
     0
279
    -2
289
     1
 69
     0
  7
STANDARD
140
0.18
170
     5
 62
     0
 63
     7
283
     0
274
    -2
284
     1
 64
     0
275
    -2
285
     1
 65
     0
276
    -2
286
     1
 66
     0
277
    -2
287
     1
 67
     0
278
    -2
288
     1
 68
     0
279
    -2
289
     1
 69
     0
  0
VISUALSTYLE
  5
C124
102
{ACAD_XDICTIONARY
360
C182
102
}
102
{ACAD_REACTORS
330
C11E
102
}
330
C11E
100
AcDbVisualStyle
  2
2dWireframe
 70
     4
 71
     0
 72
     2
 73
     0
 90
        0
 40
-0.6
 41
-30.0
 62
     5
 63
     7
 74
     1
 91
        4
 64
     7
 65
   257
 75
     1
175
     1
 42
1.0
 92
        0
 66
   257
 43
1.0
 76
     1
 77
     6
 78
     2
 67
     7
 79
     5
170
     0
171
     0
290
     0
174
     0
 93
        1
 44
0.0
173
     0
291
     0
 45
0.0
1001
ACAD
1000
AcDbSavedByObjectVersion
1070
     0
  0
VISUALSTYLE
  5
C123
102
{ACAD_XDICTIONARY
360
C180
102
}
102
{ACAD_REACTORS
330
C11E
102
}
330
C11E
100
AcDbVisualStyle
  2
Basic
 70
     7
 71
     1
 72
     0
 73
     1
 90
        0
 40
-0.6
 41
-30.0
 62
     5
 63
     7
 74
     0
 91
        4
 64
     7
 65
   257
 75
     1
175
     1
 42
1.0
 92
        8
 66
     7
 43
1.0
 76
     1
 77
     6
 78
     2
 67
     7
 79
     5
170
     0
171
     0
290
     0
174
     0
 93
        1
 44
0.0
173
     0
291
     1
 45
0.0
1001
ACAD
1000
AcDbSavedByObjectVersion
1070
     0
  0
VISUALSTYLE
  5
C12A
102
{ACAD_XDICTIONARY
360
C18E
102
}
102
{ACAD_REACTORS
330
C11E
102
}
330
C11E
100
AcDbVisualStyle
  2
Brighten
 70
    12
 71
     2
 72
     2
 73
     0
 90
        0
 40
-0.6
 41
-30.0
 62
     5
 63
     7
 74
     1
 91
        4
 64
     7
 65
   257
 75
     1
175
     1
 42
1.0
 92
        8
 66
     7
 43
1.0
 76
     1
 77
     6
 78
     2
 67
     7
 79
     5
170
     0
171
     0
290
     0
174
     0
 93
        1
 44
50.0
173
     0
291
     1
 45
0.0
1001
ACAD
1000
AcDbSavedByObjectVersion
1070
     0
  0
VISUALSTYLE
  5
C12E
102
{ACAD_XDICTIONARY
360
C196
102
}
102
{ACAD_REACTORS
330
C11E
102
}
330
C11E
100
AcDbVisualStyle
  2
ColorChange
 70
    16
 71
     2
 72
     2
 73
     3
 90
        0
 40
-0.6
 41
-30.0
 62
     5
 63
     8
 74
     1
 91
        4
 64
     7
 65
   257
 75
     1
175
     1
 42
1.0
 92
        8
 66
     8
 43
1.0
 76
     1
 77
     6
 78
     2
 67
     7
 79
     5
170
     0
171
     0
290
     0
174
     0
 93
        1
 44
0.0
173
     0
291
     1
 45
0.0
1001
ACAD
1000
AcDbSavedByObjectVersion
1070
     0
  0
VISUALSTYLE
  5
C127
102
{ACAD_XDICTIONARY
360
C188
102
}
102
{ACAD_REACTORS
330
C11E
102
}
330
C11E
100
AcDbVisualStyle
  2
Conceptual
 70
     9
 71
     3
 72
     2
 73
     0
 90
        0
 40
-0.6
 41
-30.0
 62
     5
 63
     7
 74
     2
 91
        2
 64
     7
 65
   257
 75
     1
175
     1
 42
179.0
 92
        8
 66
     7
 43
1.0
 76
     1
 77
     6
 78
     2
 67
     7
 79
     3
170
     0
171
     0
290
     0
174
     0
 93
        1
 44
0.0
173
     0
291
     0
 45
0.0
1001
ACAD
1000
AcDbSavedByObjectVersion
1070
     0
  0
VISUALSTYLE
  5
C129
102
{ACAD_XDICTIONARY
360
C18C
102
}
102
{ACAD_REACTORS
330
C11E
102
}
330
C11E
100
AcDbVisualStyle
  2
Dim
 70
    11
 71
     2
 72
     2
 73
     0
 90
        0
 40
-0.6
 41
-30.0
 62
     5
 63
     7
 74
     1
 91
        4
 64
     7
 65
   257
 75
     1
175
     1
 42
1.0
 92
        8
 66
     7
 43
1.0
 76
     1
 77
     6
 78
     2
 67
     7
 79
     5
170
     0
171
     0
290
     0
174
     0
 93
        1
 44
-50.0
173
     0
291
     1
 45
0.0
1001
ACAD
1000
AcDbSavedByObjectVersion
1070
     0
  0
VISUALSTYLE
  5
C136
102
{ACAD_XDICTIONARY
360
C1A6
102
}
102
{ACAD_REACTORS
330
C11E
102
}
330
C11E
100
AcDbVisualStyle
  2
EdgeColorOff
 70
    22
 71
     2
 72
     2
 73
     0
 90
        0
 40
-0.6
 41
-30.0
 62
     5
 63
     7
 74
     1
 91
        4
 64
     7
 65
   257
 75
     1
175
     1
 42
1.0
 92
        8
 66
     7
 43
1.0
 76
     1
 77
     6
 78
     2
 67
     7
 79
     5
170
     0
171
     0
290
     0
174
     0
 93
        1
 44
0.0
173
     0
291
     1
 45
0.0
1001
ACAD
1000
AcDbSavedByObjectVersion
1070
     0
  0
VISUALSTYLE
  5
C12D
102
{ACAD_XDICTIONARY
360
C194
102
}
102
{ACAD_REACTORS
330
C11E
102
}
330
C11E
100
AcDbVisualStyle
  2
Facepattern
 70
    15
 71
     2
 72
     2
 73
     0
 90
        0
 40
-0.6
 41
-30.0
 62
     5
 63
     7
 74
     1
 91
        4
 64
     7
 65
   257
 75
     1
175
     1
 42
1.0
 92
        8
 66
     7
 43
1.0
 76
     1
 77
     6
 78
     2
 67
     7
 79
     5
170
     0
171
     0
290
     0
174
     0
 93
        1
 44
0.0
173
     0
291
     1
 45
0.0
1001
ACAD
1000
AcDbSavedByObjectVersion
1070
     0
  0
VISUALSTYLE
  5
C11F
102
{ACAD_XDICTIONARY
360
C178
102
}
102
{ACAD_REACTORS
330
C11E
102
}
330
C11E
100
AcDbVisualStyle
  2
Flat
 70
     0
 71
     2
 72
     1
 73
     1
 90
        2
 40
-0.6
 41
30.0
 62
     5
 63
     7
 74
     0
 91
        0
 64
     7
 65
   257
 75
     1
175
     1
 42
1.0
 92
        8
 66
     7
 43
1.0
 76
     1
 77
     6
 78
     2
 67
     7
 79
     5
170
     0
171
     0
290
     0
174
     0
 93
       13
 44
0.0
173
     0
291
     1
 45
0.0
1001
ACAD
1000
AcDbSavedByObjectVersion
1070
     0
  0
VISUALSTYLE
  5
C120
102
{ACAD_XDICTIONARY
360
C17A
102
}
102
{ACAD_REACTORS
330
C11E
102
}
330
C11E
100
AcDbVisualStyle
  2
FlatWithEdges
 70
     1
 71
     2
 72
     1
 73
     1
 90
        2
 40
-0.6
 41
30.0
 62
     5
 63
     7
 74
     1
 91
        0
 64
     7
 65
   257
 75
     1
175
     1
 42
1.0
 92
        0
 66
   257
 43
1.0
 76
     1
 77
     6
 78
     2
 67
     7
 79
     5
170
     0
171
     0
290
     0
174
     0
 93
       13
 44
0.0
173
     0
291
     1
 45
0.0
1001
ACAD
1000
AcDbSavedByObjectVersion
1070
     0
  0
VISUALSTYLE
  5
C121
102
{ACAD_XDICTIONARY
360
C17C
102
}
102
{ACAD_REACTORS
330
C11E
102
}
330
C11E
100
AcDbVisualStyle
  2
Gouraud
 70
     2
 71
     2
 72
     2
 73
     1
 90
        2
 40
-0.6
 41
30.0
 62
     5
 63
     7
 74
     0
 91
        0
 64
     7
 65
   257
 75
     1
175
     1
 42
1.0
 92
        0
 66
     7
 43
1.0
 76
     1
 77
     6
 78
     2
 67
     7
 79
     5
170
     0
171
     0
290
     0
174
     0
 93
       13
 44
0.0
173
     0
291
     1
 45
0.0
1001
ACAD
1000
AcDbSavedByObjectVersion
1070
     0
  0
VISUALSTYLE
  5
C122
102
{ACAD_XDICTIONARY
360
C17E
102
}
102
{ACAD_REACTORS
330
C11E
102
}
330
C11E
100
AcDbVisualStyle
  2
GouraudWithEdges
 70
     3
 71
     2
 72
     2
 73
     1
 90
        2
 40
-0.6
 41
30.0
 62
     5
 63
     7
 74
     1
 91
        0
 64
     7
 65
   257
 75
     1
175
     1
 42
1.0
 92
        0
 66
   257
 43
1.0
 76
     1
 77
     6
 78
     2
 67
     7
 79
     5
170
     0
171
     0
290
     0
174
     0
 93
       13
 44
0.0
173
     0
291
     1
 45
0.0
1001
ACAD
1000
AcDbSavedByObjectVersion
1070
     0
  0
VISUALSTYLE
  5
C126
102
{ACAD_XDICTIONARY
360
C186
102
}
102
{ACAD_REACTORS
330
C11E
102
}
330
C11E
100
AcDbVisualStyle
  2
Hidden
 70
     6
 71
     1
 72
     2
 73
     2
 90
        0
 40
-0.6
 41
-30.0
 62
     5
 63
     7
 74
     2
 91
        2
 64
     7
 65
   257
 75
     2
175
     1
 42
40.0
 92
        0
 66
   257
 43
1.0
 76
     1
 77
     6
 78
     2
 67
     7
 79
     3
170
     0
171
     0
290
     0
174
     0
 93
        1
 44
0.0
173
     0
291
     0
 45
0.0
1001
ACAD
1000
AcDbSavedByObjectVersion
1070
     0
  0
VISUALSTYLE
  5
C134
102
{ACAD_XDICTIONARY
360
C1A2
102
}
102
{ACAD_REACTORS
330
C11E
102
}
330
C11E
100
AcDbVisualStyle
  2
JitterOff
 70
    20
 71
     2
 72
     2
 73
     0
 90
        0
 40
-0.6
 41
-30.0
 62
     5
 63
     7
 74
     1
 91
        4
 64
     7
 65
   257
 75
     1
175
     1
 42
1.0
 92
       10
 66
     7
 43
1.0
 76
     1
 77
     6
 78
     2
 67
     7
 79
     5
170
     0
171
     0
290
     0
174
     0
 93
        1
 44
0.0
173
     0
291
     1
 45
0.0
1001
ACAD
1000
AcDbSavedByObjectVersion
1070
     0
  0
VISUALSTYLE
  5
C12C
102
{ACAD_XDICTIONARY
360
C192
102
}
102
{ACAD_REACTORS
330
C11E
102
}
330
C11E
100
AcDbVisualStyle
  2
Linepattern
 70
    14
 71
     2
 72
     2
 73
     0
 90
        0
 40
-0.6
 41
-30.0
 62
     5
 63
     7
 74
     1
 91
        4
 64
     7
 65
   257
 75
     7
175
     7
 42
1.0
 92
        8
 66
     7
 43
1.0
 76
     1
 77
     6
 78
     2
 67
     7
 79
     5
170
     0
171
     0
290
     0
174
     0
 93
        1
 44
0.0
173
     0
291
     1
 45
0.0
1001
ACAD
1000
AcDbSavedByObjectVersion
1070
     0
  0
VISUALSTYLE
  5
C135
102
{ACAD_XDICTIONARY
360
C1A4
102
}
102
{ACAD_REACTORS
330
C11E
102
}
330
C11E
100
AcDbVisualStyle
  2
OverhangOff
 70
    21
 71
     2
 72
     2
 73
     0
 90
        0
 40
-0.6
 41
-30.0
 62
     5
 63
     7
 74
     1
 91
        4
 64
     7
 65
   257
 75
     1
175
     1
 42
1.0
 92
        9
 66
     7
 43
1.0
 76
     1
 77
     6
 78
     2
 67
     7
 79
     5
170
     0
171
     0
290
     0
174
     0
 93
        1
 44
0.0
173
     0
291
     1
 45
0.0
1001
ACAD
1000
AcDbSavedByObjectVersion
1070
     0
  0
VISUALSTYLE
  5
C128
102
{ACAD_XDICTIONARY
360
C18A
102
}
102
{ACAD_REACTORS
330
C11E
102
}
330
C11E
100
AcDbVisualStyle
  2
Realistic
 70
     8
 71
     2
 72
     3
 73
     0
 90
        2
 40
-0.6
 41
30.0
 62
     5
 63
     7
 74
     0
 91
        0
 64
     7
 65
   257
 75
     1
175
     1
 42
1.0
 92
        8
 66
   257
 43
1.0
 76
     1
 77
     6
 78
     2
 67
     7
 79
     3
170
     0
171
     0
290
     0
174
     0
 93
       13
 44
0.0
173
     0
291
     0
 45
0.0
1001
ACAD
1000
AcDbSavedByObjectVersion
1070
     0
  0
VISUALSTYLE
  5
C133
102
{ACAD_XDICTIONARY
360
C1A0
102
}
102
{ACAD_REACTORS
330
C11E
102
}
330
C11E
100
AcDbVisualStyle
  2
Shaded
 70
    27
 71
     2
 72
     2
 73
     1
 90
        2
 40
-0.6
 41
30.0
 62
     5
 63
     7
 74
     0
 91
        4
 64
     7
 65
   257
 75
     1
175
     1
 42
1.0
 92
        8
 66
   257
 43
1.0
 76
     1
 77
     6
 78
     2
 67
     8
 79
     3
170
     0
171
     0
290
     0
174
     0
 93
        5
 44
0.0
173
     0
291
     0
 45
0.0
1001
ACAD
1000
AcDbSavedByObjectVersion
1070
     0
  0
VISUALSTYLE
  5
C132
102
{ACAD_XDICTIONARY
360
C19E
102
}
102
{ACAD_REACTORS
330
C11E
102
}
330
C11E
100
AcDbVisualStyle
  2
Shaded with edges
 70
    26
 71
     2
 72
     2
 73
     1
 90
        2
 40
-0.6
 41
30.0
 62
     5
 63
     7
 74
     1
 91
       10
 64
     7
 65
   257
 75
     2
175
     1
 42
1.0
 92
        8
 66
   257
 43
1.0
 76
     1
 77
     6
 78
     2
 67
     7
 79
     3
170
     0
171
     0
290
     0
174
     0
 93
        5
 44
0.0
173
     0
291
     0
 45
0.0
1001
ACAD
1000
AcDbSavedByObjectVersion
1070
     0
  0
VISUALSTYLE
  5
C12F
102
{ACAD_XDICTIONARY
360
C198
102
}
102
{ACAD_REACTORS
330
C11E
102
}
330
C11E
100
AcDbVisualStyle
  2
Shades of Gray
 70
    23
 71
     2
 72
     2
 73
     3
 90
        0
 40
-0.6
 41
-30.0
 62
     5
 63
     7
 74
     2
 91
        2
 64
     7
 65
     7
 75
     1
175
     1
 42
40.0
 92
        8
 66
     7
 43
1.0
 76
     1
 77
     6
 78
     2
 67
     7
 79
     3
170
     0
171
     0
290
     0
174
     0
 93
        1
 44
0.0
173
     0
291
     0
 45
0.0
1001
ACAD
1000
AcDbSavedByObjectVersion
1070
     0
  0
VISUALSTYLE
  5
C130
102
{ACAD_XDICTIONARY
360
C19A
102
}
102
{ACAD_REACTORS
330
C11E
102
}
330
C11E
100
AcDbVisualStyle
  2
Sketchy
 70
    24
 71
     1
 72
     2
 73
     2
 90
        0
 40
-0.6
 41
-30.0
 62
     5
 63
     7
 74
     2
 91
        2
 64
     7
 65
     7
 75
     1
175
     1
 42
40.0
 92
       11
 66
     7
 43
1.0
 76
     1
 77
     6
 78
     2
 67
     7
 79
     6
170
     0
171
     0
290
     0
174
     0
 93
        1
 44
0.0
173
     0
291
     0
 45
0.0
1001
ACAD
1000
AcDbSavedByObjectVersion
1070
     0
  0
VISUALSTYLE
  5
C12B
102
{ACAD_XDICTIONARY
360
C190
102
}
102
{ACAD_REACTORS
330
C11E
102
}
330
C11E
100
AcDbVisualStyle
  2
Thicken
 70
    13
 71
     2
 72
     2
 73
     0
 90
        0
 40
-0.6
 41
-30.0
 62
     5
 63
     7
 74
     1
 91
        4
 64
     7
 65
   257
 75
     1
175
     1
 42
1.0
 92
       12
 66
     7
 43
1.0
 76
     1
 77
     6
 78
     2
 67
     7
 79
     5
170
     0
171
     0
290
     0
174
     0
 93
        1
 44
0.0
173
     0
291
     1
 45
0.0
1001
ACAD
1000
AcDbSavedByObjectVersion
1070
     0
  0
VISUALSTYLE
  5
C125
102
{ACAD_XDICTIONARY
360
C184
102
}
102
{ACAD_REACTORS
330
C11E
102
}
330
C11E
100
AcDbVisualStyle
  2
Wireframe
 70
     5
 71
     0
 72
     2
 73
     0
 90
        0
 40
-0.6
 41
-30.0
 62
     5
 63
     7
 74
     1
 91
        4
 64
     7
 65
   257
 75
     1
175
     1
 42
1.0
 92
        0
 66
   257
 43
1.0
 76
     1
 77
     6
 78
     2
 67
     7
 79
     3
170
     0
171
     0
290
     0
174
     0
 93
        1
 44
0.0
173
     0
291
     0
 45
0.0
1001
ACAD
1000
AcDbSavedByObjectVersion
1070
     0
  0
VISUALSTYLE
  5
C131
102
{ACAD_XDICTIONARY
360
C19C
102
}
102
{ACAD_REACTORS
330
C11E
102
}
330
C11E
100
AcDbVisualStyle
  2
X-Ray
 70
    25
 71
     2
 72
     2
 73
     1
 90
        1
 40
0.5
 41
-30.0
 62
     5
 63
     7
 74
     1
 91
        0
 64
     7
 65
   257
 75
     1
175
     1
 42
1.0
 92
        8
 66
     7
 43
1.0
 76
     1
 77
     6
 78
     2
 67
     7
 79
     3
170
     0
171
     0
290
     0
174
     0
 93
       13
 44
0.0
173
     0
291
     0
 45
0.0
1001
ACAD
1000
AcDbSavedByObjectVersion
1070
     0
  0
DICTIONARYVAR
  5
C16B
102
{ACAD_REACTORS
330
C166
102
}
330
C166
100
DictionaryVariables
280
     0
  1
1:1
  0
DICTIONARYVAR
  5
C168
102
{ACAD_REACTORS
330
C166
102
}
330
C166
100
DictionaryVariables
280
     0
  1
STANDARD
  0
DICTIONARYVAR
  5
C167
102
{ACAD_REACTORS
330
C166
102
}
330
C166
100
DictionaryVariables
280
     0
  1
STANDARD
  0
DICTIONARYVAR
  5
C169
102
{ACAD_REACTORS
330
C166
102
}
330
C166
100
DictionaryVariables
280
     0
  1
Imperial24
  0
DICTIONARYVAR
  5
C16A
102
{ACAD_REACTORS
330
C166
102
}
330
C166
100
DictionaryVariables
280
     0
  1
Imperial24
  0
DICTIONARYVAR
  5
C16E
102
{ACAD_REACTORS
330
C166
102
}
330
C166
100
DictionaryVariables
280
     0
  1
1
  0
DICTIONARYVAR
  5
C16D
102
{ACAD_REACTORS
330
C166
102
}
330
C166
100
DictionaryVariables
280
     0
  1
0
  0
DICTIONARYVAR
  5
C16C
102
{ACAD_REACTORS
330
C166
102
}
330
C166
100
DictionaryVariables
280
     0
  1
127
  0
DICTIONARYVAR
  5
C16F
102
{ACAD_REACTORS
330
C166
102
}
330
C166
100
DictionaryVariables
280
     0
  1
2
  0
DICTIONARY
  5
C1AC
330
C151
100
AcDbDictionary
280
     1
281
     1
  3
ACAD_XREC_ROUNDTRIP
360
C1AD
  0
DICTIONARY
  5
C1AE
330
C152
100
AcDbDictionary
280
     1
281
     1
  3
ACAD_XREC_ROUNDTRIP
360
C1AF
  0
DICTIONARY
  5
C1B0
330
C153
100
AcDbDictionary
280
     1
281
     1
  3
ACAD_XREC_ROUNDTRIP
360
C1B1
  0
DICTIONARY
  5
C10F
330
C10E
100
AcDbDictionary
280
     1
281
     1
  3
ACAD_XREC_ROUNDTRIP
360
C176
  3
BUMPTILE
360
C111
  3
DIFFUSETILE
360
C110
  3
OPACITYTILE
360
C114
  3
REFLECTIONTILE
360
C113
  3
REFRACTIONTILE
360
C115
  3
SPECULARTILE
360
C112
  0
DICTIONARY
  5
C107
330
C106
100
AcDbDictionary
280
     1
281
     1
  3
ACAD_XREC_ROUNDTRIP
360
C175
  3
BUMPTILE
360
C109
  3
DIFFUSETILE
360
C108
  3
OPACITYTILE
360
C10C
  3
REFLECTIONTILE
360
C10B
  3
REFRACTIONTILE
360
C10D
  3
SPECULARTILE
360
C10A
  0
DICTIONARY
  5
C117
330
C116
100
AcDbDictionary
280
     1
281
     1
  3
ACAD_XREC_ROUNDTRIP
360
C177
  3
BUMPTILE
360
C119
  3
DIFFUSETILE
360
C118
  3
OPACITYTILE
360
C11C
  3
REFLECTIONTILE
360
C11B
  3
REFRACTIONTILE
360
C11D
  3
SPECULARTILE
360
C11A
  0
DICTIONARY
  5
C1AA
330
C14F
100
AcDbDictionary
280
     1
281
     1
  3
ACAD_XREC_ROUNDTRIP
360
C1AB
  0
DICTIONARY
  5
C171
330
C139
100
AcDbDictionary
280
     1
281
     1
  3
ACAD_ROUNDTRIP_2008_TABLESTYLE_CELLSTYLEMAP
360
C172
  3
ACAD_XREC_ROUNDTRIP
360
C1A8
  0
DICTIONARY
  5
C182
330
C124
100
AcDbDictionary
280
     1
281
     1
  3
ACAD_XREC_ROUNDTRIP
360
C183
  0
DICTIONARY
  5
C180
330
C123
100
AcDbDictionary
280
     1
281
     1
  3
ACAD_XREC_ROUNDTRIP
360
C181
  0
DICTIONARY
  5
C18E
330
C12A
100
AcDbDictionary
280
     1
281
     1
  3
ACAD_XREC_ROUNDTRIP
360
C18F
  0
DICTIONARY
  5
C196
330
C12E
100
AcDbDictionary
280
     1
281
     1
  3
ACAD_XREC_ROUNDTRIP
360
C197
  0
DICTIONARY
  5
C188
330
C127
100
AcDbDictionary
280
     1
281
     1
  3
ACAD_XREC_ROUNDTRIP
360
C189
  0
DICTIONARY
  5
C18C
330
C129
100
AcDbDictionary
280
     1
281
     1
  3
ACAD_XREC_ROUNDTRIP
360
C18D
  0
DICTIONARY
  5
C1A6
330
C136
100
AcDbDictionary
280
     1
281
     1
  3
ACAD_XREC_ROUNDTRIP
360
C1A7
  0
DICTIONARY
  5
C194
330
C12D
100
AcDbDictionary
280
     1
281
     1
  3
ACAD_XREC_ROUNDTRIP
360
C195
  0
DICTIONARY
  5
C178
330
C11F
100
AcDbDictionary
280
     1
281
     1
  3
ACAD_XREC_ROUNDTRIP
360
C179
  0
DICTIONARY
  5
C17A
330
C120
100
AcDbDictionary
280
     1
281
     1
  3
ACAD_XREC_ROUNDTRIP
360
C17B
  0
DICTIONARY
  5
C17C
330
C121
100
AcDbDictionary
280
     1
281
     1
  3
ACAD_XREC_ROUNDTRIP
360
C17D
  0
DICTIONARY
  5
C17E
330
C122
100
AcDbDictionary
280
     1
281
     1
  3
ACAD_XREC_ROUNDTRIP
360
C17F
  0
DICTIONARY
  5
C186
330
C126
100
AcDbDictionary
280
     1
281
     1
  3
ACAD_XREC_ROUNDTRIP
360
C187
  0
DICTIONARY
  5
C1A2
330
C134
100
AcDbDictionary
280
     1
281
     1
  3
ACAD_XREC_ROUNDTRIP
360
C1A3
  0
DICTIONARY
  5
C192
330
C12C
100
AcDbDictionary
280
     1
281
     1
  3
ACAD_XREC_ROUNDTRIP
360
C193
  0
DICTIONARY
  5
C1A4
330
C135
100
AcDbDictionary
280
     1
281
     1
  3
ACAD_XREC_ROUNDTRIP
360
C1A5
  0
DICTIONARY
  5
C18A
330
C128
100
AcDbDictionary
280
     1
281
     1
  3
ACAD_XREC_ROUNDTRIP
360
C18B
  0
DICTIONARY
  5
C1A0
330
C133
100
AcDbDictionary
280
     1
281
     1
  3
ACAD_XREC_ROUNDTRIP
360
C1A1
  0
DICTIONARY
  5
C19E
330
C132
100
AcDbDictionary
280
     1
281
     1
  3
ACAD_XREC_ROUNDTRIP
360
C19F
  0
DICTIONARY
  5
C198
330
C12F
100
AcDbDictionary
280
     1
281
     1
  3
ACAD_XREC_ROUNDTRIP
360
C199
  0
DICTIONARY
  5
C19A
330
C130
100
AcDbDictionary
280
     1
281
     1
  3
ACAD_XREC_ROUNDTRIP
360
C19B
  0
DICTIONARY
  5
C190
330
C12B
100
AcDbDictionary
280
     1
281
     1
  3
ACAD_XREC_ROUNDTRIP
360
C191
  0
DICTIONARY
  5
C184
330
C125
100
AcDbDictionary
280
     1
281
     1
  3
ACAD_XREC_ROUNDTRIP
360
C185
  0
DICTIONARY
  5
C19C
330
C131
100
AcDbDictionary
280
     1
281
     1
  3
ACAD_XREC_ROUNDTRIP
360
C19D
  0
XRECORD
  5
C1AD
102
{ACAD_REACTORS
330
C1AC
102
}
330
C1AC
100
AcDbXrecord
280
     1
102
DISPLAYNAME
  1
Imperial24
102
FLAGS
 90
        0
  0
XRECORD
  5
C1AF
102
{ACAD_REACTORS
330
C1AE
102
}
330
C1AE
100
AcDbXrecord
280
     1
102
SHADEPLOT
 70
     0
102
SHADEPLOTRESLEVEL
 70
     2
102
SHADEPLOTCUSTOMDPI
 70
   300
  0
XRECORD
  5
C1B1
102
{ACAD_REACTORS
330
C1B0
102
}
330
C1B0
100
AcDbXrecord
280
     1
102
SHADEPLOT
 70
     0
102
SHADEPLOTRESLEVEL
 70
     2
102
SHADEPLOTCUSTOMDPI
 70
   300
  0
XRECORD
  5
C176
102
{ACAD_REACTORS
330
C10F
102
}
330
C10F
100
AcDbXrecord
280
     1
102
MATERIAL
148
0.0
149
0.0
149
0.0
 93
        0
 94
      127
282
     0
 72
     0
 77
     0
171
     0
175
     0
179
     0
273
     0
  0
XRECORD
  5
C111
102
{ACAD_REACTORS
330
C10F
102
}
330
C10F
100
AcDbXrecord
280
     1
270
     1
271
     1
  0
XRECORD
  5
C110
102
{ACAD_REACTORS
330
C10F
102
}
330
C10F
100
AcDbXrecord
280
     1
270
     1
271
     1
  0
XRECORD
  5
C114
102
{ACAD_REACTORS
330
C10F
102
}
330
C10F
100
AcDbXrecord
280
     1
270
     1
271
     1
  0
XRECORD
  5
C113
102
{ACAD_REACTORS
330
C10F
102
}
330
C10F
100
AcDbXrecord
280
     1
270
     1
271
     1
  0
XRECORD
  5
C115
102
{ACAD_REACTORS
330
C10F
102
}
330
C10F
100
AcDbXrecord
280
     1
270
     1
271
     1
  0
XRECORD
  5
C112
102
{ACAD_REACTORS
330
C10F
102
}
330
C10F
100
AcDbXrecord
280
     1
270
     1
271
     1
  0
XRECORD
  5
C175
102
{ACAD_REACTORS
330
C107
102
}
330
C107
100
AcDbXrecord
280
     1
102
MATERIAL
148
0.0
149
0.0
149
0.0
 93
        0
 94
      127
282
     0
 72
     0
 77
     0
171
     0
175
     0
179
     0
273
     0
  0
XRECORD
  5
C109
102
{ACAD_REACTORS
330
C107
102
}
330
C107
100
AcDbXrecord
280
     1
270
     1
271
     1
  0
XRECORD
  5
C108
102
{ACAD_REACTORS
330
C107
102
}
330
C107
100
AcDbXrecord
280
     1
270
     1
271
     1
  0
XRECORD
  5
C10C
102
{ACAD_REACTORS
330
C107
102
}
330
C107
100
AcDbXrecord
280
     1
270
     1
271
     1
  0
XRECORD
  5
C10B
102
{ACAD_REACTORS
330
C107
102
}
330
C107
100
AcDbXrecord
280
     1
270
     1
271
     1
  0
XRECORD
  5
C10D
102
{ACAD_REACTORS
330
C107
102
}
330
C107
100
AcDbXrecord
280
     1
270
     1
271
     1
  0
XRECORD
  5
C10A
102
{ACAD_REACTORS
330
C107
102
}
330
C107
100
AcDbXrecord
280
     1
270
     1
271
     1
  0
XRECORD
  5
C177
102
{ACAD_REACTORS
330
C117
102
}
330
C117
100
AcDbXrecord
280
     1
102
MATERIAL
148
0.0
149
0.0
149
0.0
 93
        0
 94
      127
282
     0
 72
     0
 77
     0
171
     0
175
     0
179
     0
273
     0
  0
XRECORD
  5
C119
102
{ACAD_REACTORS
330
C117
102
}
330
C117
100
AcDbXrecord
280
     1
270
     1
271
     1
  0
XRECORD
  5
C118
102
{ACAD_REACTORS
330
C117
102
}
330
C117
100
AcDbXrecord
280
     1
270
     1
271
     1
  0
XRECORD
  5
C11C
102
{ACAD_REACTORS
330
C117
102
}
330
C117
100
AcDbXrecord
280
     1
270
     1
271
     1
  0
XRECORD
  5
C11B
102
{ACAD_REACTORS
330
C117
102
}
330
C117
100
AcDbXrecord
280
     1
270
     1
271
     1
  0
XRECORD
  5
C11D
102
{ACAD_REACTORS
330
C117
102
}
330
C117
100
AcDbXrecord
280
     1
270
     1
271
     1
  0
XRECORD
  5
C11A
102
{ACAD_REACTORS
330
C117
102
}
330
C117
100
AcDbXrecord
280
     1
270
     1
271
     1
  0
XRECORD
  5
C1AB
102
{ACAD_REACTORS
330
C1AA
102
}
330
C1AA
100
AcDbXrecord
280
     1
102
DISPLAYNAME
  1
Imperial24
102
FLAGS
 90
        0
  0
CELLSTYLEMAP
  5
C172
102
{ACAD_REACTORS
330
C171
102
}
330
C171
100
AcDbCellStyleMap
 90
        3
300
CELLSTYLE
  1
TABLEFORMAT_BEGIN
 90
        5
170
     1
 91
        0
 92
    32768
 62
   257
 93
        1
300
CONTENTFORMAT
  1
CONTENTFORMAT_BEGIN
 90
        0
 91
        0
 92
      512
 93
        0
300

 40
0.0
140
1.0
 94
        5
 62
     0
340
BF04
144
0.25
309
CONTENTFORMAT_END
171
     0
 94
        0
309
TABLEFORMAT_END
  1
CELLSTYLE_BEGIN
 90
        1
 91
        1
300
_TITLE
309
CELLSTYLE_END
300
CELLSTYLE
  1
TABLEFORMAT_BEGIN
 90
        5
170
     1
 91
        0
 92
        0
 62
   257
 93
        1
300
CONTENTFORMAT
  1
CONTENTFORMAT_BEGIN
 90
        0
 91
        0
 92
      512
 93
        0
300

 40
0.0
140
1.0
 94
        5
 62
     0
340
BF04
144
0.18
309
CONTENTFORMAT_END
171
     0
 94
        0
309
TABLEFORMAT_END
  1
CELLSTYLE_BEGIN
 90
        2
 91
        1
300
_HEADER
309
CELLSTYLE_END
300
CELLSTYLE
  1
TABLEFORMAT_BEGIN
 90
        5
170
     1
 91
        0
 92
        0
 62
   257
 93
        1
300
CONTENTFORMAT
  1
CONTENTFORMAT_BEGIN
 90
        0
 91
        0
 92
      512
 93
        0
300

 40
0.0
140
1.0
 94
        2
 62
     0
340
BF04
144
0.18
309
CONTENTFORMAT_END
171
     0
 94
        0
309
TABLEFORMAT_END
  1
CELLSTYLE_BEGIN
 90
        3
 91
        2
300
_DATA
309
CELLSTYLE_END
  0
XRECORD
  5
C1A8
102
{ACAD_REACTORS
330
C171
102
}
330
C171
100
AcDbXrecord
280
     1
102
ACAD_ROUNDTRIP_PRE2007_TABLESTYLE
 90
      512
 91
        0
  1

 92
      512
 93
        0
  2

 94
      512
 95
        0
  3

  0
XRECORD
  5
C183
102
{ACAD_REACTORS
330
C182
102
}
330
C182
100
AcDbXrecord
280
     1
102
RTVSPost2010Prop28
280
     1
102
RTVSPost2010PropOp28
 70
     1
102
RTVSPost2010Prop29
280
     1
102
RTVSPost2010PropOp29
 70
     1
102
RTVSPost2010Prop30
280
     0
102
RTVSPost2010PropOp30
 70
     1
102
RTVSPost2010Prop31
280
     0
102
RTVSPost2010PropOp31
 70
     1
102
RTVSPost2010Prop32
280
     0
102
RTVSPost2010PropOp32
 70
     1
102
RTVSPost2010Prop33
280
     0
102
RTVSPost2010PropOp33
 70
     1
102
RTVSPost2010Prop34
280
     0
102
RTVSPost2010PropOp34
 70
     1
102
RTVSPost2010Prop35
280
     0
102
RTVSPost2010PropOp35
 70
     1
102
RTVSPost2010Prop36
280
     0
102
RTVSPost2010PropOp36
 70
     1
102
RTVSPost2010Prop37
 90
       50
102
RTVSPost2010PropOp37
 70
     1
102
RTVSPost2010Prop38
140
0.0
102
RTVSPost2010PropOp38
 70
     1
102
RTVSPost2010Prop39
140
1.0
102
RTVSPost2010PropOp39
 70
     1
102
RTVSPost2010Prop40
 90
        0
102
RTVSPost2010PropOp40
 70
     1
102
RTVSPost2010Prop41ColorIndex
 90
       18
102
RTVSPost2010Prop41ColorRGB
 90
        0
102
RTVSPost2010PropOp41
 70
     1
102
RTVSPost2010Prop42
 90
       50
102
RTVSPost2010PropOp42
 70
     1
102
RTVSPost2010Prop43
 90
        3
102
RTVSPost2010PropOp43
 70
     1
102
RTVSPost2010Prop44ColorIndex
 90
        5
102
RTVSPost2010Prop44ColorRGB
 90
      255
102
RTVSPost2010PropOp44
 70
     1
102
RTVSPost2010Prop45
280
     0
102
RTVSPost2010PropOp45
 70
     1
102
RTVSPost2010Prop46
 90
       50
102
RTVSPost2010PropOp46
 70
     1
102
RTVSPost2010Prop47
 90
       50
102
RTVSPost2010PropOp47
 70
     1
102
RTVSPost2010Prop48
 90
       50
102
RTVSPost2010PropOp48
 70
     1
102
RTVSPost2010Prop49
280
     0
102
RTVSPost2010PropOp49
 70
     1
102
RTVSPost2010Prop50
 90
       50
102
RTVSPost2010PropOp50
 70
     1
102
RTVSPost2010Prop51ColorIndex
 90
      256
102
RTVSPost2010Prop51ColorRGB
 90
-16777216
102
RTVSPost2010PropOp51
 70
     0
102
RTVSPost2010Prop52
140
1.0
102
RTVSPost2010PropOp52
 70
     0
102
RTVSPost2010Prop53
 90
        2
102
RTVSPost2010PropOp53
 70
     1
102
RTVSPost2010Prop54
  1
strokes_ogs.tif
102
RTVSPost2010PropOp54
 70
     1
102
RTVSPost2010Prop55
280
     0
102
RTVSPost2010PropOp55
 70
     1
102
RTVSPost2010Prop56
140
1.0
102
RTVSPost2010PropOp56
 70
     1
102
RTVSPost2010Prop57
140
1.0
102
RTVSPost2010PropOp57
 70
     1
102
RTVSPropertyOp0
 70
     1
102
RTVSPropertyOp1
 70
     1
102
RTVSPropertyOp2
 70
     1
102
RTVSPropertyOp3
 70
     1
102
RTVSPropertyOp4
 70
     1
102
RTVSPropertyOp5
 70
     1
102
RTVSPropertyOp6
 70
     1
102
RTVSPropertyOp7
 70
     1
102
RTVSPropertyOp8
 70
     1
102
RTVSPropertyOp9
 70
     1
102
RTVSPropertyOp10
 70
     1
102
RTVSPropertyOp11
 70
     1
102
RTVSPropertyOp12
 70
     1
102
RTVSPropertyOp13
 70
     1
102
RTVSPropertyOp14
 70
     1
102
RTVSPropertyOp15
 70
     1
102
RTVSPropertyOp16
 70
     1
102
RTVSPropertyOp17
 70
     1
102
RTVSPropertyOp18
 70
     1
102
RTVSPropertyOp19
 70
     1
102
RTVSPropertyOp20
 70
     1
102
RTVSPropertyOp21
 70
     1
102
RTVSPropertyOp22
 70
     1
102
RTVSPropertyOp23
 70
     1
102
RTVSPropertyOp24
 70
     1
102
RTVSPropertyOp25
 70
     1
102
RTVSPropertyOp26
 70
     1
102
RTVSPropertyOp27
 70
     1
102
RTVSPropertyOp28
 70
     1
102
RTVSPropertyOp29
 70
     1
102
RTVSPropertyOp30
 70
     1
102
RTVSPropertyOp31
 70
     1
102
RTVSPropertyOp32
 70
     1
102
RTVSPropertyOp33
 70
     1
102
RTVSPropertyOp34
 70
     1
102
RTVSPropertyOp35
 70
     1
102
RTVSPropertyOp36
 70
     1
102
RTVSPropertyOp37
 70
     1
102
RTVSPropertyOp38
 70
     1
102
RTVSPropertyOp39
 70
     1
102
RTVSPropertyOp40
 70
     1
102
RTVSPropertyOp41
 70
     1
102
RTVSPropertyOp42
 70
     1
102
RTVSPropertyOp43
 70
     1
102
RTVSPropertyOp44
 70
     1
102
RTVSPropertyOp45
 70
     1
102
RTVSPropertyOp46
 70
     1
102
RTVSPropertyOp47
 70
     1
102
RTVSPropertyOp48
 70
     1
102
RTVSPropertyOp49
 70
     1
102
RTVSPropertyOp50
 70
     1
102
RTVSPropertyOp51
 70
     0
102
RTVSPropertyOp52
 70
     0
102
RTVSPropertyOp53
 70
     1
102
RTVSPropertyOp54
 70
     1
102
RTVSPropertyOp55
 70
     1
102
RTVSPropertyOp56
 70
     1
102
RTVSPropertyOp57
 70
     1
102
RTVSPropertyOp58
 70
     1
102
RTVSPropertyOp59
 70
     1
102
RTVSPropertyOp60
 70
     1
102
RTVSPropertyOp61
 70
     1
102
RTVSPropertyOp62
 70
     1
  0
XRECORD
  5
C181
102
{ACAD_REACTORS
330
C180
102
}
330
C180
100
AcDbXrecord
280
     1
102
RTVSPost2010Prop28
280
     0
102
RTVSPost2010PropOp28
 70
     1
102
RTVSPost2010Prop29
280
     1
102
RTVSPost2010PropOp29
 70
     1
102
RTVSPost2010Prop30
280
     1
102
RTVSPost2010PropOp30
 70
     1
102
RTVSPost2010Prop31
280
     0
102
RTVSPost2010PropOp31
 70
     1
102
RTVSPost2010Prop32
280
     0
102
RTVSPost2010PropOp32
 70
     1
102
RTVSPost2010Prop33
280
     0
102
RTVSPost2010PropOp33
 70
     1
102
RTVSPost2010Prop34
280
     0
102
RTVSPost2010PropOp34
 70
     1
102
RTVSPost2010Prop35
280
     0
102
RTVSPost2010PropOp35
 70
     1
102
RTVSPost2010Prop36
280
     0
102
RTVSPost2010PropOp36
 70
     1
102
RTVSPost2010Prop37
 90
       50
102
RTVSPost2010PropOp37
 70
     1
102
RTVSPost2010Prop38
140
0.0
102
RTVSPost2010PropOp38
 70
     1
102
RTVSPost2010Prop39
140
1.0
102
RTVSPost2010PropOp39
 70
     1
102
RTVSPost2010Prop40
 90
        0
102
RTVSPost2010PropOp40
 70
     1
102
RTVSPost2010Prop41ColorIndex
 90
       18
102
RTVSPost2010Prop41ColorRGB
 90
        0
102
RTVSPost2010PropOp41
 70
     1
102
RTVSPost2010Prop42
 90
       50
102
RTVSPost2010PropOp42
 70
     1
102
RTVSPost2010Prop43
 90
        3
102
RTVSPost2010PropOp43
 70
     1
102
RTVSPost2010Prop44ColorIndex
 90
        5
102
RTVSPost2010Prop44ColorRGB
 90
      255
102
RTVSPost2010PropOp44
 70
     1
102
RTVSPost2010Prop45
280
     0
102
RTVSPost2010PropOp45
 70
     1
102
RTVSPost2010Prop46
 90
       50
102
RTVSPost2010PropOp46
 70
     1
102
RTVSPost2010Prop47
 90
       50
102
RTVSPost2010PropOp47
 70
     1
102
RTVSPost2010Prop48
 90
       50
102
RTVSPost2010PropOp48
 70
     1
102
RTVSPost2010Prop49
280
     0
102
RTVSPost2010PropOp49
 70
     1
102
RTVSPost2010Prop50
 90
       50
102
RTVSPost2010PropOp50
 70
     1
102
RTVSPost2010Prop51ColorIndex
 90
      256
102
RTVSPost2010Prop51ColorRGB
 90
-16777216
102
RTVSPost2010PropOp51
 70
     0
102
RTVSPost2010Prop52
140
1.0
102
RTVSPost2010PropOp52
 70
     0
102
RTVSPost2010Prop53
 90
        2
102
RTVSPost2010PropOp53
 70
     1
102
RTVSPost2010Prop54
  1
strokes_ogs.tif
102
RTVSPost2010PropOp54
 70
     1
102
RTVSPost2010Prop55
280
     0
102
RTVSPost2010PropOp55
 70
     1
102
RTVSPost2010Prop56
140
1.0
102
RTVSPost2010PropOp56
 70
     1
102
RTVSPost2010Prop57
140
1.0
102
RTVSPost2010PropOp57
 70
     1
102
RTVSPropertyOp0
 70
     1
102
RTVSPropertyOp1
 70
     1
102
RTVSPropertyOp2
 70
     1
102
RTVSPropertyOp3
 70
     1
102
RTVSPropertyOp4
 70
     1
102
RTVSPropertyOp5
 70
     1
102
RTVSPropertyOp6
 70
     1
102
RTVSPropertyOp7
 70
     1
102
RTVSPropertyOp8
 70
     1
102
RTVSPropertyOp9
 70
     1
102
RTVSPropertyOp10
 70
     1
102
RTVSPropertyOp11
 70
     1
102
RTVSPropertyOp12
 70
     1
102
RTVSPropertyOp13
 70
     1
102
RTVSPropertyOp14
 70
     1
102
RTVSPropertyOp15
 70
     1
102
RTVSPropertyOp16
 70
     1
102
RTVSPropertyOp17
 70
     1
102
RTVSPropertyOp18
 70
     1
102
RTVSPropertyOp19
 70
     1
102
RTVSPropertyOp20
 70
     1
102
RTVSPropertyOp21
 70
     1
102
RTVSPropertyOp22
 70
     1
102
RTVSPropertyOp23
 70
     1
102
RTVSPropertyOp24
 70
     1
102
RTVSPropertyOp25
 70
     1
102
RTVSPropertyOp26
 70
     1
102
RTVSPropertyOp27
 70
     1
102
RTVSPropertyOp28
 70
     1
102
RTVSPropertyOp29
 70
     1
102
RTVSPropertyOp30
 70
     1
102
RTVSPropertyOp31
 70
     1
102
RTVSPropertyOp32
 70
     1
102
RTVSPropertyOp33
 70
     1
102
RTVSPropertyOp34
 70
     1
102
RTVSPropertyOp35
 70
     1
102
RTVSPropertyOp36
 70
     1
102
RTVSPropertyOp37
 70
     1
102
RTVSPropertyOp38
 70
     1
102
RTVSPropertyOp39
 70
     1
102
RTVSPropertyOp40
 70
     1
102
RTVSPropertyOp41
 70
     1
102
RTVSPropertyOp42
 70
     1
102
RTVSPropertyOp43
 70
     1
102
RTVSPropertyOp44
 70
     1
102
RTVSPropertyOp45
 70
     1
102
RTVSPropertyOp46
 70
     1
102
RTVSPropertyOp47
 70
     1
102
RTVSPropertyOp48
 70
     1
102
RTVSPropertyOp49
 70
     1
102
RTVSPropertyOp50
 70
     1
102
RTVSPropertyOp51
 70
     0
102
RTVSPropertyOp52
 70
     0
102
RTVSPropertyOp53
 70
     1
102
RTVSPropertyOp54
 70
     1
102
RTVSPropertyOp55
 70
     1
102
RTVSPropertyOp56
 70
     1
102
RTVSPropertyOp57
 70
     1
102
RTVSPropertyOp58
 70
     1
102
RTVSPropertyOp59
 70
     1
102
RTVSPropertyOp60
 70
     1
102
RTVSPropertyOp61
 70
     1
102
RTVSPropertyOp62
 70
     1
  0
XRECORD
  5
C18F
102
{ACAD_REACTORS
330
C18E
102
}
330
C18E
100
AcDbXrecord
280
     1
102
RTVSPost2010Prop28
280
     0
102
RTVSPost2010PropOp28
 70
     1
102
RTVSPost2010Prop29
280
     1
102
RTVSPost2010PropOp29
 70
     1
102
RTVSPost2010Prop30
280
     1
102
RTVSPost2010PropOp30
 70
     1
102
RTVSPost2010Prop31
280
     0
102
RTVSPost2010PropOp31
 70
     1
102
RTVSPost2010Prop32
280
     0
102
RTVSPost2010PropOp32
 70
     1
102
RTVSPost2010Prop33
280
     0
102
RTVSPost2010PropOp33
 70
     1
102
RTVSPost2010Prop34
280
     0
102
RTVSPost2010PropOp34
 70
     1
102
RTVSPost2010Prop35
280
     0
102
RTVSPost2010PropOp35
 70
     1
102
RTVSPost2010Prop36
280
     0
102
RTVSPost2010PropOp36
 70
     1
102
RTVSPost2010Prop37
 90
       50
102
RTVSPost2010PropOp37
 70
     1
102
RTVSPost2010Prop38
140
0.0
102
RTVSPost2010PropOp38
 70
     1
102
RTVSPost2010Prop39
140
1.0
102
RTVSPost2010PropOp39
 70
     1
102
RTVSPost2010Prop40
 90
        0
102
RTVSPost2010PropOp40
 70
     1
102
RTVSPost2010Prop41ColorIndex
 90
       18
102
RTVSPost2010Prop41ColorRGB
 90
        0
102
RTVSPost2010PropOp41
 70
     1
102
RTVSPost2010Prop42
 90
       50
102
RTVSPost2010PropOp42
 70
     1
102
RTVSPost2010Prop43
 90
        3
102
RTVSPost2010PropOp43
 70
     1
102
RTVSPost2010Prop44ColorIndex
 90
        5
102
RTVSPost2010Prop44ColorRGB
 90
      255
102
RTVSPost2010PropOp44
 70
     1
102
RTVSPost2010Prop45
280
     0
102
RTVSPost2010PropOp45
 70
     1
102
RTVSPost2010Prop46
 90
       50
102
RTVSPost2010PropOp46
 70
     1
102
RTVSPost2010Prop47
 90
       50
102
RTVSPost2010PropOp47
 70
     1
102
RTVSPost2010Prop48
 90
       50
102
RTVSPost2010PropOp48
 70
     1
102
RTVSPost2010Prop49
280
     0
102
RTVSPost2010PropOp49
 70
     1
102
RTVSPost2010Prop50
 90
       50
102
RTVSPost2010PropOp50
 70
     1
102
RTVSPost2010Prop51ColorIndex
 90
      256
102
RTVSPost2010Prop51ColorRGB
 90
-16777216
102
RTVSPost2010PropOp51
 70
     0
102
RTVSPost2010Prop52
140
1.0
102
RTVSPost2010PropOp52
 70
     0
102
RTVSPost2010Prop53
 90
        2
102
RTVSPost2010PropOp53
 70
     1
102
RTVSPost2010Prop54
  1
strokes_ogs.tif
102
RTVSPost2010PropOp54
 70
     1
102
RTVSPost2010Prop55
280
     0
102
RTVSPost2010PropOp55
 70
     1
102
RTVSPost2010Prop56
140
1.0
102
RTVSPost2010PropOp56
 70
     1
102
RTVSPost2010Prop57
140
1.0
102
RTVSPost2010PropOp57
 70
     1
102
RTVSPropertyOp0
 70
     1
102
RTVSPropertyOp1
 70
     1
102
RTVSPropertyOp2
 70
     1
102
RTVSPropertyOp3
 70
     1
102
RTVSPropertyOp4
 70
     1
102
RTVSPropertyOp5
 70
     1
102
RTVSPropertyOp6
 70
     1
102
RTVSPropertyOp7
 70
     1
102
RTVSPropertyOp8
 70
     1
102
RTVSPropertyOp9
 70
     1
102
RTVSPropertyOp10
 70
     1
102
RTVSPropertyOp11
 70
     1
102
RTVSPropertyOp12
 70
     1
102
RTVSPropertyOp13
 70
     1
102
RTVSPropertyOp14
 70
     1
102
RTVSPropertyOp15
 70
     1
102
RTVSPropertyOp16
 70
     1
102
RTVSPropertyOp17
 70
     1
102
RTVSPropertyOp18
 70
     1
102
RTVSPropertyOp19
 70
     1
102
RTVSPropertyOp20
 70
     1
102
RTVSPropertyOp21
 70
     1
102
RTVSPropertyOp22
 70
     1
102
RTVSPropertyOp23
 70
     1
102
RTVSPropertyOp24
 70
     1
102
RTVSPropertyOp25
 70
     1
102
RTVSPropertyOp26
 70
     1
102
RTVSPropertyOp27
 70
     1
102
RTVSPropertyOp28
 70
     1
102
RTVSPropertyOp29
 70
     1
102
RTVSPropertyOp30
 70
     1
102
RTVSPropertyOp31
 70
     1
102
RTVSPropertyOp32
 70
     1
102
RTVSPropertyOp33
 70
     1
102
RTVSPropertyOp34
 70
     1
102
RTVSPropertyOp35
 70
     1
102
RTVSPropertyOp36
 70
     1
102
RTVSPropertyOp37
 70
     1
102
RTVSPropertyOp38
 70
     1
102
RTVSPropertyOp39
 70
     1
102
RTVSPropertyOp40
 70
     1
102
RTVSPropertyOp41
 70
     1
102
RTVSPropertyOp42
 70
     1
102
RTVSPropertyOp43
 70
     1
102
RTVSPropertyOp44
 70
     1
102
RTVSPropertyOp45
 70
     1
102
RTVSPropertyOp46
 70
     1
102
RTVSPropertyOp47
 70
     1
102
RTVSPropertyOp48
 70
     1
102
RTVSPropertyOp49
 70
     1
102
RTVSPropertyOp50
 70
     1
102
RTVSPropertyOp51
 70
     0
102
RTVSPropertyOp52
 70
     0
102
RTVSPropertyOp53
 70
     1
102
RTVSPropertyOp54
 70
     1
102
RTVSPropertyOp55
 70
     1
102
RTVSPropertyOp56
 70
     1
102
RTVSPropertyOp57
 70
     1
102
RTVSPropertyOp58
 70
     1
102
RTVSPropertyOp59
 70
     1
102
RTVSPropertyOp60
 70
     1
102
RTVSPropertyOp61
 70
     1
102
RTVSPropertyOp62
 70
     1
  0
XRECORD
  5
C197
102
{ACAD_REACTORS
330
C196
102
}
330
C196
100
AcDbXrecord
280
     1
102
RTVSPost2010Prop28
280
     0
102
RTVSPost2010PropOp28
 70
     1
102
RTVSPost2010Prop29
280
     1
102
RTVSPost2010PropOp29
 70
     1
102
RTVSPost2010Prop30
280
     1
102
RTVSPost2010PropOp30
 70
     1
102
RTVSPost2010Prop31
280
     0
102
RTVSPost2010PropOp31
 70
     1
102
RTVSPost2010Prop32
280
     0
102
RTVSPost2010PropOp32
 70
     1
102
RTVSPost2010Prop33
280
     0
102
RTVSPost2010PropOp33
 70
     1
102
RTVSPost2010Prop34
280
     0
102
RTVSPost2010PropOp34
 70
     1
102
RTVSPost2010Prop35
280
     0
102
RTVSPost2010PropOp35
 70
     1
102
RTVSPost2010Prop36
280
     0
102
RTVSPost2010PropOp36
 70
     1
102
RTVSPost2010Prop37
 90
       50
102
RTVSPost2010PropOp37
 70
     1
102
RTVSPost2010Prop38
140
0.0
102
RTVSPost2010PropOp38
 70
     1
102
RTVSPost2010Prop39
140
1.0
102
RTVSPost2010PropOp39
 70
     1
102
RTVSPost2010Prop40
 90
        0
102
RTVSPost2010PropOp40
 70
     1
102
RTVSPost2010Prop41ColorIndex
 90
       18
102
RTVSPost2010Prop41ColorRGB
 90
        0
102
RTVSPost2010PropOp41
 70
     1
102
RTVSPost2010Prop42
 90
       50
102
RTVSPost2010PropOp42
 70
     1
102
RTVSPost2010Prop43
 90
        3
102
RTVSPost2010PropOp43
 70
     1
102
RTVSPost2010Prop44ColorIndex
 90
        5
102
RTVSPost2010Prop44ColorRGB
 90
      255
102
RTVSPost2010PropOp44
 70
     1
102
RTVSPost2010Prop45
280
     0
102
RTVSPost2010PropOp45
 70
     1
102
RTVSPost2010Prop46
 90
       50
102
RTVSPost2010PropOp46
 70
     1
102
RTVSPost2010Prop47
 90
       50
102
RTVSPost2010PropOp47
 70
     1
102
RTVSPost2010Prop48
 90
       50
102
RTVSPost2010PropOp48
 70
     1
102
RTVSPost2010Prop49
280
     0
102
RTVSPost2010PropOp49
 70
     1
102
RTVSPost2010Prop50
 90
       50
102
RTVSPost2010PropOp50
 70
     1
102
RTVSPost2010Prop51ColorIndex
 90
      256
102
RTVSPost2010Prop51ColorRGB
 90
-16777216
102
RTVSPost2010PropOp51
 70
     0
102
RTVSPost2010Prop52
140
1.0
102
RTVSPost2010PropOp52
 70
     0
102
RTVSPost2010Prop53
 90
        2
102
RTVSPost2010PropOp53
 70
     1
102
RTVSPost2010Prop54
  1
strokes_ogs.tif
102
RTVSPost2010PropOp54
 70
     1
102
RTVSPost2010Prop55
280
     0
102
RTVSPost2010PropOp55
 70
     1
102
RTVSPost2010Prop56
140
1.0
102
RTVSPost2010PropOp56
 70
     1
102
RTVSPost2010Prop57
140
1.0
102
RTVSPost2010PropOp57
 70
     1
102
RTVSPropertyOp0
 70
     1
102
RTVSPropertyOp1
 70
     1
102
RTVSPropertyOp2
 70
     1
102
RTVSPropertyOp3
 70
     1
102
RTVSPropertyOp4
 70
     1
102
RTVSPropertyOp5
 70
     1
102
RTVSPropertyOp6
 70
     1
102
RTVSPropertyOp7
 70
     1
102
RTVSPropertyOp8
 70
     1
102
RTVSPropertyOp9
 70
     1
102
RTVSPropertyOp10
 70
     1
102
RTVSPropertyOp11
 70
     1
102
RTVSPropertyOp12
 70
     1
102
RTVSPropertyOp13
 70
     1
102
RTVSPropertyOp14
 70
     1
102
RTVSPropertyOp15
 70
     1
102
RTVSPropertyOp16
 70
     1
102
RTVSPropertyOp17
 70
     1
102
RTVSPropertyOp18
 70
     1
102
RTVSPropertyOp19
 70
     1
102
RTVSPropertyOp20
 70
     1
102
RTVSPropertyOp21
 70
     1
102
RTVSPropertyOp22
 70
     1
102
RTVSPropertyOp23
 70
     1
102
RTVSPropertyOp24
 70
     1
102
RTVSPropertyOp25
 70
     1
102
RTVSPropertyOp26
 70
     1
102
RTVSPropertyOp27
 70
     1
102
RTVSPropertyOp28
 70
     1
102
RTVSPropertyOp29
 70
     1
102
RTVSPropertyOp30
 70
     1
102
RTVSPropertyOp31
 70
     1
102
RTVSPropertyOp32
 70
     1
102
RTVSPropertyOp33
 70
     1
102
RTVSPropertyOp34
 70
     1
102
RTVSPropertyOp35
 70
     1
102
RTVSPropertyOp36
 70
     1
102
RTVSPropertyOp37
 70
     1
102
RTVSPropertyOp38
 70
     1
102
RTVSPropertyOp39
 70
     1
102
RTVSPropertyOp40
 70
     1
102
RTVSPropertyOp41
 70
     1
102
RTVSPropertyOp42
 70
     1
102
RTVSPropertyOp43
 70
     1
102
RTVSPropertyOp44
 70
     1
102
RTVSPropertyOp45
 70
     1
102
RTVSPropertyOp46
 70
     1
102
RTVSPropertyOp47
 70
     1
102
RTVSPropertyOp48
 70
     1
102
RTVSPropertyOp49
 70
     1
102
RTVSPropertyOp50
 70
     1
102
RTVSPropertyOp51
 70
     0
102
RTVSPropertyOp52
 70
     0
102
RTVSPropertyOp53
 70
     1
102
RTVSPropertyOp54
 70
     1
102
RTVSPropertyOp55
 70
     1
102
RTVSPropertyOp56
 70
     1
102
RTVSPropertyOp57
 70
     1
102
RTVSPropertyOp58
 70
     1
102
RTVSPropertyOp59
 70
     1
102
RTVSPropertyOp60
 70
     1
102
RTVSPropertyOp61
 70
     1
102
RTVSPropertyOp62
 70
     1
  0
XRECORD
  5
C189
102
{ACAD_REACTORS
330
C188
102
}
330
C188
100
AcDbXrecord
280
     1
102
RTVSPost2010Prop28
280
     0
102
RTVSPost2010PropOp28
 70
     1
102
RTVSPost2010Prop29
280
     1
102
RTVSPost2010PropOp29
 70
     1
102
RTVSPost2010Prop30
280
     1
102
RTVSPost2010PropOp30
 70
     1
102
RTVSPost2010Prop31
280
     0
102
RTVSPost2010PropOp31
 70
     1
102
RTVSPost2010Prop32
280
     0
102
RTVSPost2010PropOp32
 70
     1
102
RTVSPost2010Prop33
280
     0
102
RTVSPost2010PropOp33
 70
     1
102
RTVSPost2010Prop34
280
     0
102
RTVSPost2010PropOp34
 70
     1
102
RTVSPost2010Prop35
280
     0
102
RTVSPost2010PropOp35
 70
     1
102
RTVSPost2010Prop36
280
     0
102
RTVSPost2010PropOp36
 70
     1
102
RTVSPost2010Prop37
 90
       50
102
RTVSPost2010PropOp37
 70
     1
102
RTVSPost2010Prop38
140
0.0
102
RTVSPost2010PropOp38
 70
     1
102
RTVSPost2010Prop39
140
1.0
102
RTVSPost2010PropOp39
 70
     1
102
RTVSPost2010Prop40
 90
        0
102
RTVSPost2010PropOp40
 70
     1
102
RTVSPost2010Prop41ColorIndex
 90
       18
102
RTVSPost2010Prop41ColorRGB
 90
        0
102
RTVSPost2010PropOp41
 70
     1
102
RTVSPost2010Prop42
 90
       50
102
RTVSPost2010PropOp42
 70
     1
102
RTVSPost2010Prop43
 90
        3
102
RTVSPost2010PropOp43
 70
     1
102
RTVSPost2010Prop44ColorIndex
 90
        5
102
RTVSPost2010Prop44ColorRGB
 90
      255
102
RTVSPost2010PropOp44
 70
     1
102
RTVSPost2010Prop45
280
     0
102
RTVSPost2010PropOp45
 70
     1
102
RTVSPost2010Prop46
 90
       50
102
RTVSPost2010PropOp46
 70
     1
102
RTVSPost2010Prop47
 90
       50
102
RTVSPost2010PropOp47
 70
     1
102
RTVSPost2010Prop48
 90
       50
102
RTVSPost2010PropOp48
 70
     1
102
RTVSPost2010Prop49
280
     0
102
RTVSPost2010PropOp49
 70
     1
102
RTVSPost2010Prop50
 90
       50
102
RTVSPost2010PropOp50
 70
     1
102
RTVSPost2010Prop51ColorIndex
 90
      256
102
RTVSPost2010Prop51ColorRGB
 90
-16777216
102
RTVSPost2010PropOp51
 70
     0
102
RTVSPost2010Prop52
140
1.0
102
RTVSPost2010PropOp52
 70
     0
102
RTVSPost2010Prop53
 90
        2
102
RTVSPost2010PropOp53
 70
     1
102
RTVSPost2010Prop54
  1
strokes_ogs.tif
102
RTVSPost2010PropOp54
 70
     1
102
RTVSPost2010Prop55
280
     0
102
RTVSPost2010PropOp55
 70
     1
102
RTVSPost2010Prop56
140
1.0
102
RTVSPost2010PropOp56
 70
     1
102
RTVSPost2010Prop57
140
1.0
102
RTVSPost2010PropOp57
 70
     1
102
RTVSPropertyOp0
 70
     1
102
RTVSPropertyOp1
 70
     1
102
RTVSPropertyOp2
 70
     1
102
RTVSPropertyOp3
 70
     1
102
RTVSPropertyOp4
 70
     1
102
RTVSPropertyOp5
 70
     1
102
RTVSPropertyOp6
 70
     1
102
RTVSPropertyOp7
 70
     1
102
RTVSPropertyOp8
 70
     1
102
RTVSPropertyOp9
 70
     1
102
RTVSPropertyOp10
 70
     1
102
RTVSPropertyOp11
 70
     1
102
RTVSPropertyOp12
 70
     1
102
RTVSPropertyOp13
 70
     1
102
RTVSPropertyOp14
 70
     1
102
RTVSPropertyOp15
 70
     1
102
RTVSPropertyOp16
 70
     1
102
RTVSPropertyOp17
 70
     1
102
RTVSPropertyOp18
 70
     1
102
RTVSPropertyOp19
 70
     1
102
RTVSPropertyOp20
 70
     1
102
RTVSPropertyOp21
 70
     1
102
RTVSPropertyOp22
 70
     1
102
RTVSPropertyOp23
 70
     1
102
RTVSPropertyOp24
 70
     1
102
RTVSPropertyOp25
 70
     1
102
RTVSPropertyOp26
 70
     1
102
RTVSPropertyOp27
 70
     1
102
RTVSPropertyOp28
 70
     1
102
RTVSPropertyOp29
 70
     1
102
RTVSPropertyOp30
 70
     1
102
RTVSPropertyOp31
 70
     1
102
RTVSPropertyOp32
 70
     1
102
RTVSPropertyOp33
 70
     1
102
RTVSPropertyOp34
 70
     1
102
RTVSPropertyOp35
 70
     1
102
RTVSPropertyOp36
 70
     1
102
RTVSPropertyOp37
 70
     1
102
RTVSPropertyOp38
 70
     1
102
RTVSPropertyOp39
 70
     1
102
RTVSPropertyOp40
 70
     1
102
RTVSPropertyOp41
 70
     1
102
RTVSPropertyOp42
 70
     1
102
RTVSPropertyOp43
 70
     1
102
RTVSPropertyOp44
 70
     1
102
RTVSPropertyOp45
 70
     1
102
RTVSPropertyOp46
 70
     1
102
RTVSPropertyOp47
 70
     1
102
RTVSPropertyOp48
 70
     1
102
RTVSPropertyOp49
 70
     1
102
RTVSPropertyOp50
 70
     1
102
RTVSPropertyOp51
 70
     0
102
RTVSPropertyOp52
 70
     0
102
RTVSPropertyOp53
 70
     1
102
RTVSPropertyOp54
 70
     1
102
RTVSPropertyOp55
 70
     1
102
RTVSPropertyOp56
 70
     1
102
RTVSPropertyOp57
 70
     1
102
RTVSPropertyOp58
 70
     1
102
RTVSPropertyOp59
 70
     1
102
RTVSPropertyOp60
 70
     1
102
RTVSPropertyOp61
 70
     1
102
RTVSPropertyOp62
 70
     1
  0
XRECORD
  5
C18D
102
{ACAD_REACTORS
330
C18C
102
}
330
C18C
100
AcDbXrecord
280
     1
102
RTVSPost2010Prop28
280
     0
102
RTVSPost2010PropOp28
 70
     1
102
RTVSPost2010Prop29
280
     1
102
RTVSPost2010PropOp29
 70
     1
102
RTVSPost2010Prop30
280
     1
102
RTVSPost2010PropOp30
 70
     1
102
RTVSPost2010Prop31
280
     0
102
RTVSPost2010PropOp31
 70
     1
102
RTVSPost2010Prop32
280
     0
102
RTVSPost2010PropOp32
 70
     1
102
RTVSPost2010Prop33
280
     0
102
RTVSPost2010PropOp33
 70
     1
102
RTVSPost2010Prop34
280
     0
102
RTVSPost2010PropOp34
 70
     1
102
RTVSPost2010Prop35
280
     0
102
RTVSPost2010PropOp35
 70
     1
102
RTVSPost2010Prop36
280
     0
102
RTVSPost2010PropOp36
 70
     1
102
RTVSPost2010Prop37
 90
       50
102
RTVSPost2010PropOp37
 70
     1
102
RTVSPost2010Prop38
140
0.0
102
RTVSPost2010PropOp38
 70
     1
102
RTVSPost2010Prop39
140
1.0
102
RTVSPost2010PropOp39
 70
     1
102
RTVSPost2010Prop40
 90
        0
102
RTVSPost2010PropOp40
 70
     1
102
RTVSPost2010Prop41ColorIndex
 90
       18
102
RTVSPost2010Prop41ColorRGB
 90
        0
102
RTVSPost2010PropOp41
 70
     1
102
RTVSPost2010Prop42
 90
       50
102
RTVSPost2010PropOp42
 70
     1
102
RTVSPost2010Prop43
 90
        3
102
RTVSPost2010PropOp43
 70
     1
102
RTVSPost2010Prop44ColorIndex
 90
        5
102
RTVSPost2010Prop44ColorRGB
 90
      255
102
RTVSPost2010PropOp44
 70
     1
102
RTVSPost2010Prop45
280
     0
102
RTVSPost2010PropOp45
 70
     1
102
RTVSPost2010Prop46
 90
       50
102
RTVSPost2010PropOp46
 70
     1
102
RTVSPost2010Prop47
 90
       50
102
RTVSPost2010PropOp47
 70
     1
102
RTVSPost2010Prop48
 90
       50
102
RTVSPost2010PropOp48
 70
     1
102
RTVSPost2010Prop49
280
     0
102
RTVSPost2010PropOp49
 70
     1
102
RTVSPost2010Prop50
 90
       50
102
RTVSPost2010PropOp50
 70
     1
102
RTVSPost2010Prop51ColorIndex
 90
      256
102
RTVSPost2010Prop51ColorRGB
 90
-16777216
102
RTVSPost2010PropOp51
 70
     0
102
RTVSPost2010Prop52
140
1.0
102
RTVSPost2010PropOp52
 70
     0
102
RTVSPost2010Prop53
 90
        2
102
RTVSPost2010PropOp53
 70
     1
102
RTVSPost2010Prop54
  1
strokes_ogs.tif
102
RTVSPost2010PropOp54
 70
     1
102
RTVSPost2010Prop55
280
     0
102
RTVSPost2010PropOp55
 70
     1
102
RTVSPost2010Prop56
140
1.0
102
RTVSPost2010PropOp56
 70
     1
102
RTVSPost2010Prop57
140
1.0
102
RTVSPost2010PropOp57
 70
     1
102
RTVSPropertyOp0
 70
     1
102
RTVSPropertyOp1
 70
     1
102
RTVSPropertyOp2
 70
     1
102
RTVSPropertyOp3
 70
     1
102
RTVSPropertyOp4
 70
     1
102
RTVSPropertyOp5
 70
     1
102
RTVSPropertyOp6
 70
     1
102
RTVSPropertyOp7
 70
     1
102
RTVSPropertyOp8
 70
     1
102
RTVSPropertyOp9
 70
     1
102
RTVSPropertyOp10
 70
     1
102
RTVSPropertyOp11
 70
     1
102
RTVSPropertyOp12
 70
     1
102
RTVSPropertyOp13
 70
     1
102
RTVSPropertyOp14
 70
     1
102
RTVSPropertyOp15
 70
     1
102
RTVSPropertyOp16
 70
     1
102
RTVSPropertyOp17
 70
     1
102
RTVSPropertyOp18
 70
     1
102
RTVSPropertyOp19
 70
     1
102
RTVSPropertyOp20
 70
     1
102
RTVSPropertyOp21
 70
     1
102
RTVSPropertyOp22
 70
     1
102
RTVSPropertyOp23
 70
     1
102
RTVSPropertyOp24
 70
     1
102
RTVSPropertyOp25
 70
     1
102
RTVSPropertyOp26
 70
     1
102
RTVSPropertyOp27
 70
     1
102
RTVSPropertyOp28
 70
     1
102
RTVSPropertyOp29
 70
     1
102
RTVSPropertyOp30
 70
     1
102
RTVSPropertyOp31
 70
     1
102
RTVSPropertyOp32
 70
     1
102
RTVSPropertyOp33
 70
     1
102
RTVSPropertyOp34
 70
     1
102
RTVSPropertyOp35
 70
     1
102
RTVSPropertyOp36
 70
     1
102
RTVSPropertyOp37
 70
     1
102
RTVSPropertyOp38
 70
     1
102
RTVSPropertyOp39
 70
     1
102
RTVSPropertyOp40
 70
     1
102
RTVSPropertyOp41
 70
     1
102
RTVSPropertyOp42
 70
     1
102
RTVSPropertyOp43
 70
     1
102
RTVSPropertyOp44
 70
     1
102
RTVSPropertyOp45
 70
     1
102
RTVSPropertyOp46
 70
     1
102
RTVSPropertyOp47
 70
     1
102
RTVSPropertyOp48
 70
     1
102
RTVSPropertyOp49
 70
     1
102
RTVSPropertyOp50
 70
     1
102
RTVSPropertyOp51
 70
     0
102
RTVSPropertyOp52
 70
     0
102
RTVSPropertyOp53
 70
     1
102
RTVSPropertyOp54
 70
     1
102
RTVSPropertyOp55
 70
     1
102
RTVSPropertyOp56
 70
     1
102
RTVSPropertyOp57
 70
     1
102
RTVSPropertyOp58
 70
     1
102
RTVSPropertyOp59
 70
     1
102
RTVSPropertyOp60
 70
     1
102
RTVSPropertyOp61
 70
     1
102
RTVSPropertyOp62
 70
     1
  0
XRECORD
  5
C1A7
102
{ACAD_REACTORS
330
C1A6
102
}
330
C1A6
100
AcDbXrecord
280
     1
102
RTVSPost2010Prop28
280
     0
102
RTVSPost2010PropOp28
 70
     1
102
RTVSPost2010Prop29
280
     1
102
RTVSPost2010PropOp29
 70
     1
102
RTVSPost2010Prop30
280
     1
102
RTVSPost2010PropOp30
 70
     1
102
RTVSPost2010Prop31
280
     0
102
RTVSPost2010PropOp31
 70
     1
102
RTVSPost2010Prop32
280
     0
102
RTVSPost2010PropOp32
 70
     1
102
RTVSPost2010Prop33
280
     0
102
RTVSPost2010PropOp33
 70
     1
102
RTVSPost2010Prop34
280
     0
102
RTVSPost2010PropOp34
 70
     1
102
RTVSPost2010Prop35
280
     0
102
RTVSPost2010PropOp35
 70
     1
102
RTVSPost2010Prop36
280
     0
102
RTVSPost2010PropOp36
 70
     1
102
RTVSPost2010Prop37
 90
       50
102
RTVSPost2010PropOp37
 70
     0
102
RTVSPost2010Prop38
140
0.0
102
RTVSPost2010PropOp38
 70
     0
102
RTVSPost2010Prop39
140
1.0
102
RTVSPost2010PropOp39
 70
     0
102
RTVSPost2010Prop40
 90
        0
102
RTVSPost2010PropOp40
 70
     0
102
RTVSPost2010Prop41ColorIndex
 90
       18
102
RTVSPost2010Prop41ColorRGB
 90
        0
102
RTVSPost2010PropOp41
 70
     0
102
RTVSPost2010Prop42
 90
       50
102
RTVSPost2010PropOp42
 70
     0
102
RTVSPost2010Prop43
 90
        3
102
RTVSPost2010PropOp43
 70
     0
102
RTVSPost2010Prop44ColorIndex
 90
        5
102
RTVSPost2010Prop44ColorRGB
 90
      255
102
RTVSPost2010PropOp44
 70
     0
102
RTVSPost2010Prop45
280
     0
102
RTVSPost2010PropOp45
 70
     1
102
RTVSPost2010Prop46
 90
       50
102
RTVSPost2010PropOp46
 70
     0
102
RTVSPost2010Prop47
 90
       50
102
RTVSPost2010PropOp47
 70
     0
102
RTVSPost2010Prop48
 90
       50
102
RTVSPost2010PropOp48
 70
     0
102
RTVSPost2010Prop49
280
     0
102
RTVSPost2010PropOp49
 70
     1
102
RTVSPost2010Prop50
 90
       50
102
RTVSPost2010PropOp50
 70
     0
102
RTVSPost2010Prop51ColorIndex
 90
      256
102
RTVSPost2010Prop51ColorRGB
 90
-16777216
102
RTVSPost2010PropOp51
 70
     0
102
RTVSPost2010Prop52
140
1.0
102
RTVSPost2010PropOp52
 70
     0
102
RTVSPost2010Prop53
 90
        2
102
RTVSPost2010PropOp53
 70
     0
102
RTVSPost2010Prop54
  1
strokes_ogs.tif
102
RTVSPost2010PropOp54
 70
     0
102
RTVSPost2010Prop55
280
     0
102
RTVSPost2010PropOp55
 70
     1
102
RTVSPost2010Prop56
140
1.0
102
RTVSPost2010PropOp56
 70
     0
102
RTVSPost2010Prop57
140
1.0
102
RTVSPost2010PropOp57
 70
     0
102
RTVSPropertyOp0
 70
     0
102
RTVSPropertyOp1
 70
     0
102
RTVSPropertyOp2
 70
     0
102
RTVSPropertyOp3
 70
     0
102
RTVSPropertyOp4
 70
     0
102
RTVSPropertyOp5
 70
     0
102
RTVSPropertyOp6
 70
     0
102
RTVSPropertyOp7
 70
     0
102
RTVSPropertyOp8
 70
     0
102
RTVSPropertyOp9
 70
     0
102
RTVSPropertyOp10
 70
     0
102
RTVSPropertyOp11
 70
     0
102
RTVSPropertyOp12
 70
     0
102
RTVSPropertyOp13
 70
     0
102
RTVSPropertyOp14
 70
     2
102
RTVSPropertyOp15
 70
     0
102
RTVSPropertyOp16
 70
     0
102
RTVSPropertyOp17
 70
     0
102
RTVSPropertyOp18
 70
     0
102
RTVSPropertyOp19
 70
     0
102
RTVSPropertyOp20
 70
     0
102
RTVSPropertyOp21
 70
     0
102
RTVSPropertyOp22
 70
     0
102
RTVSPropertyOp23
 70
     0
102
RTVSPropertyOp24
 70
     0
102
RTVSPropertyOp25
 70
     0
102
RTVSPropertyOp26
 70
     0
102
RTVSPropertyOp27
 70
     0
102
RTVSPropertyOp28
 70
     1
102
RTVSPropertyOp29
 70
     1
102
RTVSPropertyOp30
 70
     1
102
RTVSPropertyOp31
 70
     1
102
RTVSPropertyOp32
 70
     1
102
RTVSPropertyOp33
 70
     1
102
RTVSPropertyOp34
 70
     1
102
RTVSPropertyOp35
 70
     1
102
RTVSPropertyOp36
 70
     1
102
RTVSPropertyOp37
 70
     0
102
RTVSPropertyOp38
 70
     0
102
RTVSPropertyOp39
 70
     0
102
RTVSPropertyOp40
 70
     0
102
RTVSPropertyOp41
 70
     0
102
RTVSPropertyOp42
 70
     0
102
RTVSPropertyOp43
 70
     0
102
RTVSPropertyOp44
 70
     0
102
RTVSPropertyOp45
 70
     1
102
RTVSPropertyOp46
 70
     0
102
RTVSPropertyOp47
 70
     0
102
RTVSPropertyOp48
 70
     0
102
RTVSPropertyOp49
 70
     1
102
RTVSPropertyOp50
 70
     0
102
RTVSPropertyOp51
 70
     0
102
RTVSPropertyOp52
 70
     0
102
RTVSPropertyOp53
 70
     0
102
RTVSPropertyOp54
 70
     0
102
RTVSPropertyOp55
 70
     1
102
RTVSPropertyOp56
 70
     0
102
RTVSPropertyOp57
 70
     0
102
RTVSPropertyOp58
 70
     0
102
RTVSPropertyOp59
 70
     0
102
RTVSPropertyOp60
 70
     0
102
RTVSPropertyOp61
 70
     0
102
RTVSPropertyOp62
 70
     0
  0
XRECORD
  5
C195
102
{ACAD_REACTORS
330
C194
102
}
330
C194
100
AcDbXrecord
280
     1
102
RTVSPost2010Prop28
280
     0
102
RTVSPost2010PropOp28
 70
     1
102
RTVSPost2010Prop29
280
     1
102
RTVSPost2010PropOp29
 70
     1
102
RTVSPost2010Prop30
280
     1
102
RTVSPost2010PropOp30
 70
     1
102
RTVSPost2010Prop31
280
     0
102
RTVSPost2010PropOp31
 70
     1
102
RTVSPost2010Prop32
280
     0
102
RTVSPost2010PropOp32
 70
     1
102
RTVSPost2010Prop33
280
     0
102
RTVSPost2010PropOp33
 70
     1
102
RTVSPost2010Prop34
280
     0
102
RTVSPost2010PropOp34
 70
     1
102
RTVSPost2010Prop35
280
     0
102
RTVSPost2010PropOp35
 70
     1
102
RTVSPost2010Prop36
280
     0
102
RTVSPost2010PropOp36
 70
     1
102
RTVSPost2010Prop37
 90
       50
102
RTVSPost2010PropOp37
 70
     1
102
RTVSPost2010Prop38
140
0.0
102
RTVSPost2010PropOp38
 70
     1
102
RTVSPost2010Prop39
140
1.0
102
RTVSPost2010PropOp39
 70
     1
102
RTVSPost2010Prop40
 90
        0
102
RTVSPost2010PropOp40
 70
     1
102
RTVSPost2010Prop41ColorIndex
 90
       18
102
RTVSPost2010Prop41ColorRGB
 90
        0
102
RTVSPost2010PropOp41
 70
     1
102
RTVSPost2010Prop42
 90
       50
102
RTVSPost2010PropOp42
 70
     1
102
RTVSPost2010Prop43
 90
        3
102
RTVSPost2010PropOp43
 70
     1
102
RTVSPost2010Prop44ColorIndex
 90
        5
102
RTVSPost2010Prop44ColorRGB
 90
      255
102
RTVSPost2010PropOp44
 70
     1
102
RTVSPost2010Prop45
280
     0
102
RTVSPost2010PropOp45
 70
     1
102
RTVSPost2010Prop46
 90
       50
102
RTVSPost2010PropOp46
 70
     1
102
RTVSPost2010Prop47
 90
       50
102
RTVSPost2010PropOp47
 70
     1
102
RTVSPost2010Prop48
 90
       50
102
RTVSPost2010PropOp48
 70
     1
102
RTVSPost2010Prop49
280
     0
102
RTVSPost2010PropOp49
 70
     1
102
RTVSPost2010Prop50
 90
       50
102
RTVSPost2010PropOp50
 70
     1
102
RTVSPost2010Prop51ColorIndex
 90
      256
102
RTVSPost2010Prop51ColorRGB
 90
-16777216
102
RTVSPost2010PropOp51
 70
     0
102
RTVSPost2010Prop52
140
1.0
102
RTVSPost2010PropOp52
 70
     0
102
RTVSPost2010Prop53
 90
        2
102
RTVSPost2010PropOp53
 70
     1
102
RTVSPost2010Prop54
  1
strokes_ogs.tif
102
RTVSPost2010PropOp54
 70
     1
102
RTVSPost2010Prop55
280
     0
102
RTVSPost2010PropOp55
 70
     1
102
RTVSPost2010Prop56
140
1.0
102
RTVSPost2010PropOp56
 70
     1
102
RTVSPost2010Prop57
140
1.0
102
RTVSPost2010PropOp57
 70
     1
102
RTVSPropertyOp0
 70
     1
102
RTVSPropertyOp1
 70
     1
102
RTVSPropertyOp2
 70
     1
102
RTVSPropertyOp3
 70
     1
102
RTVSPropertyOp4
 70
     1
102
RTVSPropertyOp5
 70
     1
102
RTVSPropertyOp6
 70
     1
102
RTVSPropertyOp7
 70
     1
102
RTVSPropertyOp8
 70
     1
102
RTVSPropertyOp9
 70
     1
102
RTVSPropertyOp10
 70
     1
102
RTVSPropertyOp11
 70
     1
102
RTVSPropertyOp12
 70
     1
102
RTVSPropertyOp13
 70
     1
102
RTVSPropertyOp14
 70
     1
102
RTVSPropertyOp15
 70
     1
102
RTVSPropertyOp16
 70
     1
102
RTVSPropertyOp17
 70
     1
102
RTVSPropertyOp18
 70
     1
102
RTVSPropertyOp19
 70
     1
102
RTVSPropertyOp20
 70
     1
102
RTVSPropertyOp21
 70
     1
102
RTVSPropertyOp22
 70
     1
102
RTVSPropertyOp23
 70
     1
102
RTVSPropertyOp24
 70
     1
102
RTVSPropertyOp25
 70
     1
102
RTVSPropertyOp26
 70
     1
102
RTVSPropertyOp27
 70
     1
102
RTVSPropertyOp28
 70
     1
102
RTVSPropertyOp29
 70
     1
102
RTVSPropertyOp30
 70
     1
102
RTVSPropertyOp31
 70
     1
102
RTVSPropertyOp32
 70
     1
102
RTVSPropertyOp33
 70
     1
102
RTVSPropertyOp34
 70
     1
102
RTVSPropertyOp35
 70
     1
102
RTVSPropertyOp36
 70
     1
102
RTVSPropertyOp37
 70
     1
102
RTVSPropertyOp38
 70
     1
102
RTVSPropertyOp39
 70
     1
102
RTVSPropertyOp40
 70
     1
102
RTVSPropertyOp41
 70
     1
102
RTVSPropertyOp42
 70
     1
102
RTVSPropertyOp43
 70
     1
102
RTVSPropertyOp44
 70
     1
102
RTVSPropertyOp45
 70
     1
102
RTVSPropertyOp46
 70
     1
102
RTVSPropertyOp47
 70
     1
102
RTVSPropertyOp48
 70
     1
102
RTVSPropertyOp49
 70
     1
102
RTVSPropertyOp50
 70
     1
102
RTVSPropertyOp51
 70
     0
102
RTVSPropertyOp52
 70
     0
102
RTVSPropertyOp53
 70
     1
102
RTVSPropertyOp54
 70
     1
102
RTVSPropertyOp55
 70
     1
102
RTVSPropertyOp56
 70
     1
102
RTVSPropertyOp57
 70
     1
102
RTVSPropertyOp58
 70
     1
102
RTVSPropertyOp59
 70
     1
102
RTVSPropertyOp60
 70
     1
102
RTVSPropertyOp61
 70
     1
102
RTVSPropertyOp62
 70
     1
  0
XRECORD
  5
C179
102
{ACAD_REACTORS
330
C178
102
}
330
C178
100
AcDbXrecord
280
     1
102
RTVSPost2010Prop28
280
     0
102
RTVSPost2010PropOp28
 70
     1
102
RTVSPost2010Prop29
280
     1
102
RTVSPost2010PropOp29
 70
     1
102
RTVSPost2010Prop30
280
     1
102
RTVSPost2010PropOp30
 70
     1
102
RTVSPost2010Prop31
280
     0
102
RTVSPost2010PropOp31
 70
     1
102
RTVSPost2010Prop32
280
     0
102
RTVSPost2010PropOp32
 70
     1
102
RTVSPost2010Prop33
280
     0
102
RTVSPost2010PropOp33
 70
     1
102
RTVSPost2010Prop34
280
     0
102
RTVSPost2010PropOp34
 70
     1
102
RTVSPost2010Prop35
280
     0
102
RTVSPost2010PropOp35
 70
     1
102
RTVSPost2010Prop36
280
     0
102
RTVSPost2010PropOp36
 70
     1
102
RTVSPost2010Prop37
 90
       50
102
RTVSPost2010PropOp37
 70
     1
102
RTVSPost2010Prop38
140
0.0
102
RTVSPost2010PropOp38
 70
     1
102
RTVSPost2010Prop39
140
1.0
102
RTVSPost2010PropOp39
 70
     1
102
RTVSPost2010Prop40
 90
        0
102
RTVSPost2010PropOp40
 70
     1
102
RTVSPost2010Prop41ColorIndex
 90
       18
102
RTVSPost2010Prop41ColorRGB
 90
        0
102
RTVSPost2010PropOp41
 70
     1
102
RTVSPost2010Prop42
 90
       50
102
RTVSPost2010PropOp42
 70
     1
102
RTVSPost2010Prop43
 90
        3
102
RTVSPost2010PropOp43
 70
     1
102
RTVSPost2010Prop44ColorIndex
 90
        5
102
RTVSPost2010Prop44ColorRGB
 90
      255
102
RTVSPost2010PropOp44
 70
     1
102
RTVSPost2010Prop45
280
     0
102
RTVSPost2010PropOp45
 70
     1
102
RTVSPost2010Prop46
 90
       50
102
RTVSPost2010PropOp46
 70
     1
102
RTVSPost2010Prop47
 90
       50
102
RTVSPost2010PropOp47
 70
     1
102
RTVSPost2010Prop48
 90
       50
102
RTVSPost2010PropOp48
 70
     1
102
RTVSPost2010Prop49
280
     0
102
RTVSPost2010PropOp49
 70
     1
102
RTVSPost2010Prop50
 90
       50
102
RTVSPost2010PropOp50
 70
     1
102
RTVSPost2010Prop51ColorIndex
 90
      256
102
RTVSPost2010Prop51ColorRGB
 90
-16777216
102
RTVSPost2010PropOp51
 70
     0
102
RTVSPost2010Prop52
140
1.0
102
RTVSPost2010PropOp52
 70
     0
102
RTVSPost2010Prop53
 90
        2
102
RTVSPost2010PropOp53
 70
     1
102
RTVSPost2010Prop54
  1
strokes_ogs.tif
102
RTVSPost2010PropOp54
 70
     1
102
RTVSPost2010Prop55
280
     0
102
RTVSPost2010PropOp55
 70
     1
102
RTVSPost2010Prop56
140
1.0
102
RTVSPost2010PropOp56
 70
     1
102
RTVSPost2010Prop57
140
1.0
102
RTVSPost2010PropOp57
 70
     1
102
RTVSPropertyOp0
 70
     1
102
RTVSPropertyOp1
 70
     1
102
RTVSPropertyOp2
 70
     1
102
RTVSPropertyOp3
 70
     1
102
RTVSPropertyOp4
 70
     1
102
RTVSPropertyOp5
 70
     1
102
RTVSPropertyOp6
 70
     1
102
RTVSPropertyOp7
 70
     1
102
RTVSPropertyOp8
 70
     1
102
RTVSPropertyOp9
 70
     1
102
RTVSPropertyOp10
 70
     1
102
RTVSPropertyOp11
 70
     1
102
RTVSPropertyOp12
 70
     1
102
RTVSPropertyOp13
 70
     1
102
RTVSPropertyOp14
 70
     1
102
RTVSPropertyOp15
 70
     1
102
RTVSPropertyOp16
 70
     1
102
RTVSPropertyOp17
 70
     1
102
RTVSPropertyOp18
 70
     1
102
RTVSPropertyOp19
 70
     1
102
RTVSPropertyOp20
 70
     1
102
RTVSPropertyOp21
 70
     1
102
RTVSPropertyOp22
 70
     1
102
RTVSPropertyOp23
 70
     1
102
RTVSPropertyOp24
 70
     1
102
RTVSPropertyOp25
 70
     1
102
RTVSPropertyOp26
 70
     1
102
RTVSPropertyOp27
 70
     1
102
RTVSPropertyOp28
 70
     1
102
RTVSPropertyOp29
 70
     1
102
RTVSPropertyOp30
 70
     1
102
RTVSPropertyOp31
 70
     1
102
RTVSPropertyOp32
 70
     1
102
RTVSPropertyOp33
 70
     1
102
RTVSPropertyOp34
 70
     1
102
RTVSPropertyOp35
 70
     1
102
RTVSPropertyOp36
 70
     1
102
RTVSPropertyOp37
 70
     1
102
RTVSPropertyOp38
 70
     1
102
RTVSPropertyOp39
 70
     1
102
RTVSPropertyOp40
 70
     1
102
RTVSPropertyOp41
 70
     1
102
RTVSPropertyOp42
 70
     1
102
RTVSPropertyOp43
 70
     1
102
RTVSPropertyOp44
 70
     1
102
RTVSPropertyOp45
 70
     1
102
RTVSPropertyOp46
 70
     1
102
RTVSPropertyOp47
 70
     1
102
RTVSPropertyOp48
 70
     1
102
RTVSPropertyOp49
 70
     1
102
RTVSPropertyOp50
 70
     1
102
RTVSPropertyOp51
 70
     0
102
RTVSPropertyOp52
 70
     0
102
RTVSPropertyOp53
 70
     1
102
RTVSPropertyOp54
 70
     1
102
RTVSPropertyOp55
 70
     1
102
RTVSPropertyOp56
 70
     1
102
RTVSPropertyOp57
 70
     1
102
RTVSPropertyOp58
 70
     1
102
RTVSPropertyOp59
 70
     1
102
RTVSPropertyOp60
 70
     1
102
RTVSPropertyOp61
 70
     1
102
RTVSPropertyOp62
 70
     1
  0
XRECORD
  5
C17B
102
{ACAD_REACTORS
330
C17A
102
}
330
C17A
100
AcDbXrecord
280
     1
102
RTVSPost2010Prop28
280
     0
102
RTVSPost2010PropOp28
 70
     1
102
RTVSPost2010Prop29
280
     1
102
RTVSPost2010PropOp29
 70
     1
102
RTVSPost2010Prop30
280
     1
102
RTVSPost2010PropOp30
 70
     1
102
RTVSPost2010Prop31
280
     0
102
RTVSPost2010PropOp31
 70
     1
102
RTVSPost2010Prop32
280
     0
102
RTVSPost2010PropOp32
 70
     1
102
RTVSPost2010Prop33
280
     0
102
RTVSPost2010PropOp33
 70
     1
102
RTVSPost2010Prop34
280
     0
102
RTVSPost2010PropOp34
 70
     1
102
RTVSPost2010Prop35
280
     0
102
RTVSPost2010PropOp35
 70
     1
102
RTVSPost2010Prop36
280
     0
102
RTVSPost2010PropOp36
 70
     1
102
RTVSPost2010Prop37
 90
       50
102
RTVSPost2010PropOp37
 70
     1
102
RTVSPost2010Prop38
140
0.0
102
RTVSPost2010PropOp38
 70
     1
102
RTVSPost2010Prop39
140
1.0
102
RTVSPost2010PropOp39
 70
     1
102
RTVSPost2010Prop40
 90
        0
102
RTVSPost2010PropOp40
 70
     1
102
RTVSPost2010Prop41ColorIndex
 90
       18
102
RTVSPost2010Prop41ColorRGB
 90
        0
102
RTVSPost2010PropOp41
 70
     1
102
RTVSPost2010Prop42
 90
       50
102
RTVSPost2010PropOp42
 70
     1
102
RTVSPost2010Prop43
 90
        3
102
RTVSPost2010PropOp43
 70
     1
102
RTVSPost2010Prop44ColorIndex
 90
        5
102
RTVSPost2010Prop44ColorRGB
 90
      255
102
RTVSPost2010PropOp44
 70
     1
102
RTVSPost2010Prop45
280
     0
102
RTVSPost2010PropOp45
 70
     1
102
RTVSPost2010Prop46
 90
       50
102
RTVSPost2010PropOp46
 70
     1
102
RTVSPost2010Prop47
 90
       50
102
RTVSPost2010PropOp47
 70
     1
102
RTVSPost2010Prop48
 90
       50
102
RTVSPost2010PropOp48
 70
     1
102
RTVSPost2010Prop49
280
     0
102
RTVSPost2010PropOp49
 70
     1
102
RTVSPost2010Prop50
 90
       50
102
RTVSPost2010PropOp50
 70
     1
102
RTVSPost2010Prop51ColorIndex
 90
      256
102
RTVSPost2010Prop51ColorRGB
 90
-16777216
102
RTVSPost2010PropOp51
 70
     0
102
RTVSPost2010Prop52
140
1.0
102
RTVSPost2010PropOp52
 70
     0
102
RTVSPost2010Prop53
 90
        2
102
RTVSPost2010PropOp53
 70
     1
102
RTVSPost2010Prop54
  1
strokes_ogs.tif
102
RTVSPost2010PropOp54
 70
     1
102
RTVSPost2010Prop55
280
     0
102
RTVSPost2010PropOp55
 70
     1
102
RTVSPost2010Prop56
140
1.0
102
RTVSPost2010PropOp56
 70
     1
102
RTVSPost2010Prop57
140
1.0
102
RTVSPost2010PropOp57
 70
     1
102
RTVSPropertyOp0
 70
     1
102
RTVSPropertyOp1
 70
     1
102
RTVSPropertyOp2
 70
     1
102
RTVSPropertyOp3
 70
     1
102
RTVSPropertyOp4
 70
     1
102
RTVSPropertyOp5
 70
     1
102
RTVSPropertyOp6
 70
     1
102
RTVSPropertyOp7
 70
     1
102
RTVSPropertyOp8
 70
     1
102
RTVSPropertyOp9
 70
     1
102
RTVSPropertyOp10
 70
     1
102
RTVSPropertyOp11
 70
     1
102
RTVSPropertyOp12
 70
     1
102
RTVSPropertyOp13
 70
     1
102
RTVSPropertyOp14
 70
     1
102
RTVSPropertyOp15
 70
     1
102
RTVSPropertyOp16
 70
     1
102
RTVSPropertyOp17
 70
     1
102
RTVSPropertyOp18
 70
     1
102
RTVSPropertyOp19
 70
     1
102
RTVSPropertyOp20
 70
     1
102
RTVSPropertyOp21
 70
     1
102
RTVSPropertyOp22
 70
     1
102
RTVSPropertyOp23
 70
     1
102
RTVSPropertyOp24
 70
     1
102
RTVSPropertyOp25
 70
     1
102
RTVSPropertyOp26
 70
     1
102
RTVSPropertyOp27
 70
     1
102
RTVSPropertyOp28
 70
     1
102
RTVSPropertyOp29
 70
     1
102
RTVSPropertyOp30
 70
     1
102
RTVSPropertyOp31
 70
     1
102
RTVSPropertyOp32
 70
     1
102
RTVSPropertyOp33
 70
     1
102
RTVSPropertyOp34
 70
     1
102
RTVSPropertyOp35
 70
     1
102
RTVSPropertyOp36
 70
     1
102
RTVSPropertyOp37
 70
     1
102
RTVSPropertyOp38
 70
     1
102
RTVSPropertyOp39
 70
     1
102
RTVSPropertyOp40
 70
     1
102
RTVSPropertyOp41
 70
     1
102
RTVSPropertyOp42
 70
     1
102
RTVSPropertyOp43
 70
     1
102
RTVSPropertyOp44
 70
     1
102
RTVSPropertyOp45
 70
     1
102
RTVSPropertyOp46
 70
     1
102
RTVSPropertyOp47
 70
     1
102
RTVSPropertyOp48
 70
     1
102
RTVSPropertyOp49
 70
     1
102
RTVSPropertyOp50
 70
     1
102
RTVSPropertyOp51
 70
     0
102
RTVSPropertyOp52
 70
     0
102
RTVSPropertyOp53
 70
     1
102
RTVSPropertyOp54
 70
     1
102
RTVSPropertyOp55
 70
     1
102
RTVSPropertyOp56
 70
     1
102
RTVSPropertyOp57
 70
     1
102
RTVSPropertyOp58
 70
     1
102
RTVSPropertyOp59
 70
     1
102
RTVSPropertyOp60
 70
     1
102
RTVSPropertyOp61
 70
     1
102
RTVSPropertyOp62
 70
     1
  0
XRECORD
  5
C17D
102
{ACAD_REACTORS
330
C17C
102
}
330
C17C
100
AcDbXrecord
280
     1
102
RTVSPost2010Prop28
280
     0
102
RTVSPost2010PropOp28
 70
     1
102
RTVSPost2010Prop29
280
     1
102
RTVSPost2010PropOp29
 70
     1
102
RTVSPost2010Prop30
280
     1
102
RTVSPost2010PropOp30
 70
     1
102
RTVSPost2010Prop31
280
     0
102
RTVSPost2010PropOp31
 70
     1
102
RTVSPost2010Prop32
280
     0
102
RTVSPost2010PropOp32
 70
     1
102
RTVSPost2010Prop33
280
     0
102
RTVSPost2010PropOp33
 70
     1
102
RTVSPost2010Prop34
280
     0
102
RTVSPost2010PropOp34
 70
     1
102
RTVSPost2010Prop35
280
     0
102
RTVSPost2010PropOp35
 70
     1
102
RTVSPost2010Prop36
280
     0
102
RTVSPost2010PropOp36
 70
     1
102
RTVSPost2010Prop37
 90
       50
102
RTVSPost2010PropOp37
 70
     1
102
RTVSPost2010Prop38
140
0.0
102
RTVSPost2010PropOp38
 70
     1
102
RTVSPost2010Prop39
140
1.0
102
RTVSPost2010PropOp39
 70
     1
102
RTVSPost2010Prop40
 90
        0
102
RTVSPost2010PropOp40
 70
     1
102
RTVSPost2010Prop41ColorIndex
 90
       18
102
RTVSPost2010Prop41ColorRGB
 90
        0
102
RTVSPost2010PropOp41
 70
     1
102
RTVSPost2010Prop42
 90
       50
102
RTVSPost2010PropOp42
 70
     1
102
RTVSPost2010Prop43
 90
        3
102
RTVSPost2010PropOp43
 70
     1
102
RTVSPost2010Prop44ColorIndex
 90
        5
102
RTVSPost2010Prop44ColorRGB
 90
      255
102
RTVSPost2010PropOp44
 70
     1
102
RTVSPost2010Prop45
280
     0
102
RTVSPost2010PropOp45
 70
     1
102
RTVSPost2010Prop46
 90
       50
102
RTVSPost2010PropOp46
 70
     1
102
RTVSPost2010Prop47
 90
       50
102
RTVSPost2010PropOp47
 70
     1
102
RTVSPost2010Prop48
 90
       50
102
RTVSPost2010PropOp48
 70
     1
102
RTVSPost2010Prop49
280
     0
102
RTVSPost2010PropOp49
 70
     1
102
RTVSPost2010Prop50
 90
       50
102
RTVSPost2010PropOp50
 70
     1
102
RTVSPost2010Prop51ColorIndex
 90
      256
102
RTVSPost2010Prop51ColorRGB
 90
-16777216
102
RTVSPost2010PropOp51
 70
     0
102
RTVSPost2010Prop52
140
1.0
102
RTVSPost2010PropOp52
 70
     0
102
RTVSPost2010Prop53
 90
        2
102
RTVSPost2010PropOp53
 70
     1
102
RTVSPost2010Prop54
  1
strokes_ogs.tif
102
RTVSPost2010PropOp54
 70
     1
102
RTVSPost2010Prop55
280
     0
102
RTVSPost2010PropOp55
 70
     1
102
RTVSPost2010Prop56
140
1.0
102
RTVSPost2010PropOp56
 70
     1
102
RTVSPost2010Prop57
140
1.0
102
RTVSPost2010PropOp57
 70
     1
102
RTVSPropertyOp0
 70
     1
102
RTVSPropertyOp1
 70
     1
102
RTVSPropertyOp2
 70
     1
102
RTVSPropertyOp3
 70
     1
102
RTVSPropertyOp4
 70
     1
102
RTVSPropertyOp5
 70
     1
102
RTVSPropertyOp6
 70
     1
102
RTVSPropertyOp7
 70
     1
102
RTVSPropertyOp8
 70
     1
102
RTVSPropertyOp9
 70
     1
102
RTVSPropertyOp10
 70
     1
102
RTVSPropertyOp11
 70
     1
102
RTVSPropertyOp12
 70
     1
102
RTVSPropertyOp13
 70
     1
102
RTVSPropertyOp14
 70
     1
102
RTVSPropertyOp15
 70
     1
102
RTVSPropertyOp16
 70
     1
102
RTVSPropertyOp17
 70
     1
102
RTVSPropertyOp18
 70
     1
102
RTVSPropertyOp19
 70
     1
102
RTVSPropertyOp20
 70
     1
102
RTVSPropertyOp21
 70
     1
102
RTVSPropertyOp22
 70
     1
102
RTVSPropertyOp23
 70
     1
102
RTVSPropertyOp24
 70
     1
102
RTVSPropertyOp25
 70
     1
102
RTVSPropertyOp26
 70
     1
102
RTVSPropertyOp27
 70
     1
102
RTVSPropertyOp28
 70
     1
102
RTVSPropertyOp29
 70
     1
102
RTVSPropertyOp30
 70
     1
102
RTVSPropertyOp31
 70
     1
102
RTVSPropertyOp32
 70
     1
102
RTVSPropertyOp33
 70
     1
102
RTVSPropertyOp34
 70
     1
102
RTVSPropertyOp35
 70
     1
102
RTVSPropertyOp36
 70
     1
102
RTVSPropertyOp37
 70
     1
102
RTVSPropertyOp38
 70
     1
102
RTVSPropertyOp39
 70
     1
102
RTVSPropertyOp40
 70
     1
102
RTVSPropertyOp41
 70
     1
102
RTVSPropertyOp42
 70
     1
102
RTVSPropertyOp43
 70
     1
102
RTVSPropertyOp44
 70
     1
102
RTVSPropertyOp45
 70
     1
102
RTVSPropertyOp46
 70
     1
102
RTVSPropertyOp47
 70
     1
102
RTVSPropertyOp48
 70
     1
102
RTVSPropertyOp49
 70
     1
102
RTVSPropertyOp50
 70
     1
102
RTVSPropertyOp51
 70
     0
102
RTVSPropertyOp52
 70
     0
102
RTVSPropertyOp53
 70
     1
102
RTVSPropertyOp54
 70
     1
102
RTVSPropertyOp55
 70
     1
102
RTVSPropertyOp56
 70
     1
102
RTVSPropertyOp57
 70
     1
102
RTVSPropertyOp58
 70
     1
102
RTVSPropertyOp59
 70
     1
102
RTVSPropertyOp60
 70
     1
102
RTVSPropertyOp61
 70
     1
102
RTVSPropertyOp62
 70
     1
  0
XRECORD
  5
C17F
102
{ACAD_REACTORS
330
C17E
102
}
330
C17E
100
AcDbXrecord
280
     1
102
RTVSPost2010Prop28
280
     0
102
RTVSPost2010PropOp28
 70
     1
102
RTVSPost2010Prop29
280
     1
102
RTVSPost2010PropOp29
 70
     1
102
RTVSPost2010Prop30
280
     1
102
RTVSPost2010PropOp30
 70
     1
102
RTVSPost2010Prop31
280
     0
102
RTVSPost2010PropOp31
 70
     1
102
RTVSPost2010Prop32
280
     0
102
RTVSPost2010PropOp32
 70
     1
102
RTVSPost2010Prop33
280
     0
102
RTVSPost2010PropOp33
 70
     1
102
RTVSPost2010Prop34
280
     0
102
RTVSPost2010PropOp34
 70
     1
102
RTVSPost2010Prop35
280
     0
102
RTVSPost2010PropOp35
 70
     1
102
RTVSPost2010Prop36
280
     0
102
RTVSPost2010PropOp36
 70
     1
102
RTVSPost2010Prop37
 90
       50
102
RTVSPost2010PropOp37
 70
     1
102
RTVSPost2010Prop38
140
0.0
102
RTVSPost2010PropOp38
 70
     1
102
RTVSPost2010Prop39
140
1.0
102
RTVSPost2010PropOp39
 70
     1
102
RTVSPost2010Prop40
 90
        0
102
RTVSPost2010PropOp40
 70
     1
102
RTVSPost2010Prop41ColorIndex
 90
       18
102
RTVSPost2010Prop41ColorRGB
 90
        0
102
RTVSPost2010PropOp41
 70
     1
102
RTVSPost2010Prop42
 90
       50
102
RTVSPost2010PropOp42
 70
     1
102
RTVSPost2010Prop43
 90
        3
102
RTVSPost2010PropOp43
 70
     1
102
RTVSPost2010Prop44ColorIndex
 90
        5
102
RTVSPost2010Prop44ColorRGB
 90
      255
102
RTVSPost2010PropOp44
 70
     1
102
RTVSPost2010Prop45
280
     0
102
RTVSPost2010PropOp45
 70
     1
102
RTVSPost2010Prop46
 90
       50
102
RTVSPost2010PropOp46
 70
     1
102
RTVSPost2010Prop47
 90
       50
102
RTVSPost2010PropOp47
 70
     1
102
RTVSPost2010Prop48
 90
       50
102
RTVSPost2010PropOp48
 70
     1
102
RTVSPost2010Prop49
280
     0
102
RTVSPost2010PropOp49
 70
     1
102
RTVSPost2010Prop50
 90
       50
102
RTVSPost2010PropOp50
 70
     1
102
RTVSPost2010Prop51ColorIndex
 90
      256
102
RTVSPost2010Prop51ColorRGB
 90
-16777216
102
RTVSPost2010PropOp51
 70
     0
102
RTVSPost2010Prop52
140
1.0
102
RTVSPost2010PropOp52
 70
     0
102
RTVSPost2010Prop53
 90
        2
102
RTVSPost2010PropOp53
 70
     1
102
RTVSPost2010Prop54
  1
strokes_ogs.tif
102
RTVSPost2010PropOp54
 70
     1
102
RTVSPost2010Prop55
280
     0
102
RTVSPost2010PropOp55
 70
     1
102
RTVSPost2010Prop56
140
1.0
102
RTVSPost2010PropOp56
 70
     1
102
RTVSPost2010Prop57
140
1.0
102
RTVSPost2010PropOp57
 70
     1
102
RTVSPropertyOp0
 70
     1
102
RTVSPropertyOp1
 70
     1
102
RTVSPropertyOp2
 70
     1
102
RTVSPropertyOp3
 70
     1
102
RTVSPropertyOp4
 70
     1
102
RTVSPropertyOp5
 70
     1
102
RTVSPropertyOp6
 70
     1
102
RTVSPropertyOp7
 70
     1
102
RTVSPropertyOp8
 70
     1
102
RTVSPropertyOp9
 70
     1
102
RTVSPropertyOp10
 70
     1
102
RTVSPropertyOp11
 70
     1
102
RTVSPropertyOp12
 70
     1
102
RTVSPropertyOp13
 70
     1
102
RTVSPropertyOp14
 70
     1
102
RTVSPropertyOp15
 70
     1
102
RTVSPropertyOp16
 70
     1
102
RTVSPropertyOp17
 70
     1
102
RTVSPropertyOp18
 70
     1
102
RTVSPropertyOp19
 70
     1
102
RTVSPropertyOp20
 70
     1
102
RTVSPropertyOp21
 70
     1
102
RTVSPropertyOp22
 70
     1
102
RTVSPropertyOp23
 70
     1
102
RTVSPropertyOp24
 70
     1
102
RTVSPropertyOp25
 70
     1
102
RTVSPropertyOp26
 70
     1
102
RTVSPropertyOp27
 70
     1
102
RTVSPropertyOp28
 70
     1
102
RTVSPropertyOp29
 70
     1
102
RTVSPropertyOp30
 70
     1
102
RTVSPropertyOp31
 70
     1
102
RTVSPropertyOp32
 70
     1
102
RTVSPropertyOp33
 70
     1
102
RTVSPropertyOp34
 70
     1
102
RTVSPropertyOp35
 70
     1
102
RTVSPropertyOp36
 70
     1
102
RTVSPropertyOp37
 70
     1
102
RTVSPropertyOp38
 70
     1
102
RTVSPropertyOp39
 70
     1
102
RTVSPropertyOp40
 70
     1
102
RTVSPropertyOp41
 70
     1
102
RTVSPropertyOp42
 70
     1
102
RTVSPropertyOp43
 70
     1
102
RTVSPropertyOp44
 70
     1
102
RTVSPropertyOp45
 70
     1
102
RTVSPropertyOp46
 70
     1
102
RTVSPropertyOp47
 70
     1
102
RTVSPropertyOp48
 70
     1
102
RTVSPropertyOp49
 70
     1
102
RTVSPropertyOp50
 70
     1
102
RTVSPropertyOp51
 70
     0
102
RTVSPropertyOp52
 70
     0
102
RTVSPropertyOp53
 70
     1
102
RTVSPropertyOp54
 70
     1
102
RTVSPropertyOp55
 70
     1
102
RTVSPropertyOp56
 70
     1
102
RTVSPropertyOp57
 70
     1
102
RTVSPropertyOp58
 70
     1
102
RTVSPropertyOp59
 70
     1
102
RTVSPropertyOp60
 70
     1
102
RTVSPropertyOp61
 70
     1
102
RTVSPropertyOp62
 70
     1
  0
XRECORD
  5
C187
102
{ACAD_REACTORS
330
C186
102
}
330
C186
100
AcDbXrecord
280
     1
102
RTVSPost2010Prop28
280
     0
102
RTVSPost2010PropOp28
 70
     1
102
RTVSPost2010Prop29
280
     1
102
RTVSPost2010PropOp29
 70
     1
102
RTVSPost2010Prop30
280
     1
102
RTVSPost2010PropOp30
 70
     1
102
RTVSPost2010Prop31
280
     0
102
RTVSPost2010PropOp31
 70
     1
102
RTVSPost2010Prop32
280
     0
102
RTVSPost2010PropOp32
 70
     1
102
RTVSPost2010Prop33
280
     0
102
RTVSPost2010PropOp33
 70
     1
102
RTVSPost2010Prop34
280
     0
102
RTVSPost2010PropOp34
 70
     1
102
RTVSPost2010Prop35
280
     0
102
RTVSPost2010PropOp35
 70
     1
102
RTVSPost2010Prop36
280
     0
102
RTVSPost2010PropOp36
 70
     1
102
RTVSPost2010Prop37
 90
       50
102
RTVSPost2010PropOp37
 70
     1
102
RTVSPost2010Prop38
140
0.0
102
RTVSPost2010PropOp38
 70
     1
102
RTVSPost2010Prop39
140
1.0
102
RTVSPost2010PropOp39
 70
     1
102
RTVSPost2010Prop40
 90
        0
102
RTVSPost2010PropOp40
 70
     1
102
RTVSPost2010Prop41ColorIndex
 90
       18
102
RTVSPost2010Prop41ColorRGB
 90
        0
102
RTVSPost2010PropOp41
 70
     1
102
RTVSPost2010Prop42
 90
       50
102
RTVSPost2010PropOp42
 70
     1
102
RTVSPost2010Prop43
 90
        3
102
RTVSPost2010PropOp43
 70
     1
102
RTVSPost2010Prop44ColorIndex
 90
        5
102
RTVSPost2010Prop44ColorRGB
 90
      255
102
RTVSPost2010PropOp44
 70
     1
102
RTVSPost2010Prop45
280
     0
102
RTVSPost2010PropOp45
 70
     1
102
RTVSPost2010Prop46
 90
       50
102
RTVSPost2010PropOp46
 70
     1
102
RTVSPost2010Prop47
 90
       50
102
RTVSPost2010PropOp47
 70
     1
102
RTVSPost2010Prop48
 90
       50
102
RTVSPost2010PropOp48
 70
     1
102
RTVSPost2010Prop49
280
     0
102
RTVSPost2010PropOp49
 70
     1
102
RTVSPost2010Prop50
 90
       50
102
RTVSPost2010PropOp50
 70
     1
102
RTVSPost2010Prop51ColorIndex
 90
      256
102
RTVSPost2010Prop51ColorRGB
 90
-16777216
102
RTVSPost2010PropOp51
 70
     0
102
RTVSPost2010Prop52
140
1.0
102
RTVSPost2010PropOp52
 70
     0
102
RTVSPost2010Prop53
 90
        2
102
RTVSPost2010PropOp53
 70
     1
102
RTVSPost2010Prop54
  1
strokes_ogs.tif
102
RTVSPost2010PropOp54
 70
     1
102
RTVSPost2010Prop55
280
     0
102
RTVSPost2010PropOp55
 70
     1
102
RTVSPost2010Prop56
140
1.0
102
RTVSPost2010PropOp56
 70
     1
102
RTVSPost2010Prop57
140
1.0
102
RTVSPost2010PropOp57
 70
     1
102
RTVSPropertyOp0
 70
     1
102
RTVSPropertyOp1
 70
     1
102
RTVSPropertyOp2
 70
     1
102
RTVSPropertyOp3
 70
     1
102
RTVSPropertyOp4
 70
     1
102
RTVSPropertyOp5
 70
     1
102
RTVSPropertyOp6
 70
     1
102
RTVSPropertyOp7
 70
     1
102
RTVSPropertyOp8
 70
     1
102
RTVSPropertyOp9
 70
     1
102
RTVSPropertyOp10
 70
     1
102
RTVSPropertyOp11
 70
     1
102
RTVSPropertyOp12
 70
     1
102
RTVSPropertyOp13
 70
     1
102
RTVSPropertyOp14
 70
     1
102
RTVSPropertyOp15
 70
     1
102
RTVSPropertyOp16
 70
     1
102
RTVSPropertyOp17
 70
     1
102
RTVSPropertyOp18
 70
     1
102
RTVSPropertyOp19
 70
     1
102
RTVSPropertyOp20
 70
     1
102
RTVSPropertyOp21
 70
     1
102
RTVSPropertyOp22
 70
     1
102
RTVSPropertyOp23
 70
     1
102
RTVSPropertyOp24
 70
     1
102
RTVSPropertyOp25
 70
     1
102
RTVSPropertyOp26
 70
     1
102
RTVSPropertyOp27
 70
     1
102
RTVSPropertyOp28
 70
     1
102
RTVSPropertyOp29
 70
     1
102
RTVSPropertyOp30
 70
     1
102
RTVSPropertyOp31
 70
     1
102
RTVSPropertyOp32
 70
     1
102
RTVSPropertyOp33
 70
     1
102
RTVSPropertyOp34
 70
     1
102
RTVSPropertyOp35
 70
     1
102
RTVSPropertyOp36
 70
     1
102
RTVSPropertyOp37
 70
     1
102
RTVSPropertyOp38
 70
     1
102
RTVSPropertyOp39
 70
     1
102
RTVSPropertyOp40
 70
     1
102
RTVSPropertyOp41
 70
     1
102
RTVSPropertyOp42
 70
     1
102
RTVSPropertyOp43
 70
     1
102
RTVSPropertyOp44
 70
     1
102
RTVSPropertyOp45
 70
     1
102
RTVSPropertyOp46
 70
     1
102
RTVSPropertyOp47
 70
     1
102
RTVSPropertyOp48
 70
     1
102
RTVSPropertyOp49
 70
     1
102
RTVSPropertyOp50
 70
     1
102
RTVSPropertyOp51
 70
     0
102
RTVSPropertyOp52
 70
     0
102
RTVSPropertyOp53
 70
     1
102
RTVSPropertyOp54
 70
     1
102
RTVSPropertyOp55
 70
     1
102
RTVSPropertyOp56
 70
     1
102
RTVSPropertyOp57
 70
     1
102
RTVSPropertyOp58
 70
     1
102
RTVSPropertyOp59
 70
     1
102
RTVSPropertyOp60
 70
     1
102
RTVSPropertyOp61
 70
     1
102
RTVSPropertyOp62
 70
     1
  0
XRECORD
  5
C1A3
102
{ACAD_REACTORS
330
C1A2
102
}
330
C1A2
100
AcDbXrecord
280
     1
102
RTVSPost2010Prop28
280
     0
102
RTVSPost2010PropOp28
 70
     1
102
RTVSPost2010Prop29
280
     1
102
RTVSPost2010PropOp29
 70
     1
102
RTVSPost2010Prop30
280
     1
102
RTVSPost2010PropOp30
 70
     1
102
RTVSPost2010Prop31
280
     0
102
RTVSPost2010PropOp31
 70
     1
102
RTVSPost2010Prop32
280
     0
102
RTVSPost2010PropOp32
 70
     1
102
RTVSPost2010Prop33
280
     0
102
RTVSPost2010PropOp33
 70
     1
102
RTVSPost2010Prop34
280
     0
102
RTVSPost2010PropOp34
 70
     1
102
RTVSPost2010Prop35
280
     0
102
RTVSPost2010PropOp35
 70
     1
102
RTVSPost2010Prop36
280
     0
102
RTVSPost2010PropOp36
 70
     1
102
RTVSPost2010Prop37
 90
       50
102
RTVSPost2010PropOp37
 70
     0
102
RTVSPost2010Prop38
140
0.0
102
RTVSPost2010PropOp38
 70
     0
102
RTVSPost2010Prop39
140
1.0
102
RTVSPost2010PropOp39
 70
     0
102
RTVSPost2010Prop40
 90
        0
102
RTVSPost2010PropOp40
 70
     0
102
RTVSPost2010Prop41ColorIndex
 90
       18
102
RTVSPost2010Prop41ColorRGB
 90
        0
102
RTVSPost2010PropOp41
 70
     0
102
RTVSPost2010Prop42
 90
       50
102
RTVSPost2010PropOp42
 70
     0
102
RTVSPost2010Prop43
 90
        3
102
RTVSPost2010PropOp43
 70
     0
102
RTVSPost2010Prop44ColorIndex
 90
        5
102
RTVSPost2010Prop44ColorRGB
 90
      255
102
RTVSPost2010PropOp44
 70
     0
102
RTVSPost2010Prop45
280
     0
102
RTVSPost2010PropOp45
 70
     1
102
RTVSPost2010Prop46
 90
       50
102
RTVSPost2010PropOp46
 70
     0
102
RTVSPost2010Prop47
 90
       50
102
RTVSPost2010PropOp47
 70
     0
102
RTVSPost2010Prop48
 90
       50
102
RTVSPost2010PropOp48
 70
     0
102
RTVSPost2010Prop49
280
     0
102
RTVSPost2010PropOp49
 70
     1
102
RTVSPost2010Prop50
 90
       50
102
RTVSPost2010PropOp50
 70
     0
102
RTVSPost2010Prop51ColorIndex
 90
      256
102
RTVSPost2010Prop51ColorRGB
 90
-16777216
102
RTVSPost2010PropOp51
 70
     0
102
RTVSPost2010Prop52
140
1.0
102
RTVSPost2010PropOp52
 70
     0
102
RTVSPost2010Prop53
 90
        2
102
RTVSPost2010PropOp53
 70
     0
102
RTVSPost2010Prop54
  1
strokes_ogs.tif
102
RTVSPost2010PropOp54
 70
     0
102
RTVSPost2010Prop55
280
     0
102
RTVSPost2010PropOp55
 70
     1
102
RTVSPost2010Prop56
140
1.0
102
RTVSPost2010PropOp56
 70
     0
102
RTVSPost2010Prop57
140
1.0
102
RTVSPost2010PropOp57
 70
     0
102
RTVSPropertyOp0
 70
     0
102
RTVSPropertyOp1
 70
     0
102
RTVSPropertyOp2
 70
     0
102
RTVSPropertyOp3
 70
     0
102
RTVSPropertyOp4
 70
     0
102
RTVSPropertyOp5
 70
     0
102
RTVSPropertyOp6
 70
     0
102
RTVSPropertyOp7
 70
     0
102
RTVSPropertyOp8
 70
     0
102
RTVSPropertyOp9
 70
     0
102
RTVSPropertyOp10
 70
     0
102
RTVSPropertyOp11
 70
     0
102
RTVSPropertyOp12
 70
     0
102
RTVSPropertyOp13
 70
     0
102
RTVSPropertyOp14
 70
     2
102
RTVSPropertyOp15
 70
     0
102
RTVSPropertyOp16
 70
     0
102
RTVSPropertyOp17
 70
     0
102
RTVSPropertyOp18
 70
     0
102
RTVSPropertyOp19
 70
     0
102
RTVSPropertyOp20
 70
     0
102
RTVSPropertyOp21
 70
     0
102
RTVSPropertyOp22
 70
     0
102
RTVSPropertyOp23
 70
     0
102
RTVSPropertyOp24
 70
     0
102
RTVSPropertyOp25
 70
     0
102
RTVSPropertyOp26
 70
     0
102
RTVSPropertyOp27
 70
     0
102
RTVSPropertyOp28
 70
     1
102
RTVSPropertyOp29
 70
     1
102
RTVSPropertyOp30
 70
     1
102
RTVSPropertyOp31
 70
     1
102
RTVSPropertyOp32
 70
     1
102
RTVSPropertyOp33
 70
     1
102
RTVSPropertyOp34
 70
     1
102
RTVSPropertyOp35
 70
     1
102
RTVSPropertyOp36
 70
     1
102
RTVSPropertyOp37
 70
     0
102
RTVSPropertyOp38
 70
     0
102
RTVSPropertyOp39
 70
     0
102
RTVSPropertyOp40
 70
     0
102
RTVSPropertyOp41
 70
     0
102
RTVSPropertyOp42
 70
     0
102
RTVSPropertyOp43
 70
     0
102
RTVSPropertyOp44
 70
     0
102
RTVSPropertyOp45
 70
     1
102
RTVSPropertyOp46
 70
     0
102
RTVSPropertyOp47
 70
     0
102
RTVSPropertyOp48
 70
     0
102
RTVSPropertyOp49
 70
     1
102
RTVSPropertyOp50
 70
     0
102
RTVSPropertyOp51
 70
     0
102
RTVSPropertyOp52
 70
     0
102
RTVSPropertyOp53
 70
     0
102
RTVSPropertyOp54
 70
     0
102
RTVSPropertyOp55
 70
     1
102
RTVSPropertyOp56
 70
     0
102
RTVSPropertyOp57
 70
     0
102
RTVSPropertyOp58
 70
     0
102
RTVSPropertyOp59
 70
     0
102
RTVSPropertyOp60
 70
     0
102
RTVSPropertyOp61
 70
     0
102
RTVSPropertyOp62
 70
     0
  0
XRECORD
  5
C193
102
{ACAD_REACTORS
330
C192
102
}
330
C192
100
AcDbXrecord
280
     1
102
RTVSPost2010Prop28
280
     0
102
RTVSPost2010PropOp28
 70
     1
102
RTVSPost2010Prop29
280
     1
102
RTVSPost2010PropOp29
 70
     1
102
RTVSPost2010Prop30
280
     1
102
RTVSPost2010PropOp30
 70
     1
102
RTVSPost2010Prop31
280
     0
102
RTVSPost2010PropOp31
 70
     1
102
RTVSPost2010Prop32
280
     0
102
RTVSPost2010PropOp32
 70
     1
102
RTVSPost2010Prop33
280
     0
102
RTVSPost2010PropOp33
 70
     1
102
RTVSPost2010Prop34
280
     0
102
RTVSPost2010PropOp34
 70
     1
102
RTVSPost2010Prop35
280
     0
102
RTVSPost2010PropOp35
 70
     1
102
RTVSPost2010Prop36
280
     0
102
RTVSPost2010PropOp36
 70
     1
102
RTVSPost2010Prop37
 90
       50
102
RTVSPost2010PropOp37
 70
     1
102
RTVSPost2010Prop38
140
0.0
102
RTVSPost2010PropOp38
 70
     1
102
RTVSPost2010Prop39
140
1.0
102
RTVSPost2010PropOp39
 70
     1
102
RTVSPost2010Prop40
 90
        0
102
RTVSPost2010PropOp40
 70
     1
102
RTVSPost2010Prop41ColorIndex
 90
       18
102
RTVSPost2010Prop41ColorRGB
 90
        0
102
RTVSPost2010PropOp41
 70
     1
102
RTVSPost2010Prop42
 90
       50
102
RTVSPost2010PropOp42
 70
     1
102
RTVSPost2010Prop43
 90
        3
102
RTVSPost2010PropOp43
 70
     1
102
RTVSPost2010Prop44ColorIndex
 90
        5
102
RTVSPost2010Prop44ColorRGB
 90
      255
102
RTVSPost2010PropOp44
 70
     1
102
RTVSPost2010Prop45
280
     0
102
RTVSPost2010PropOp45
 70
     1
102
RTVSPost2010Prop46
 90
       50
102
RTVSPost2010PropOp46
 70
     1
102
RTVSPost2010Prop47
 90
       50
102
RTVSPost2010PropOp47
 70
     1
102
RTVSPost2010Prop48
 90
       50
102
RTVSPost2010PropOp48
 70
     1
102
RTVSPost2010Prop49
280
     0
102
RTVSPost2010PropOp49
 70
     1
102
RTVSPost2010Prop50
 90
       50
102
RTVSPost2010PropOp50
 70
     1
102
RTVSPost2010Prop51ColorIndex
 90
      256
102
RTVSPost2010Prop51ColorRGB
 90
-16777216
102
RTVSPost2010PropOp51
 70
     0
102
RTVSPost2010Prop52
140
1.0
102
RTVSPost2010PropOp52
 70
     0
102
RTVSPost2010Prop53
 90
        2
102
RTVSPost2010PropOp53
 70
     1
102
RTVSPost2010Prop54
  1
strokes_ogs.tif
102
RTVSPost2010PropOp54
 70
     1
102
RTVSPost2010Prop55
280
     0
102
RTVSPost2010PropOp55
 70
     1
102
RTVSPost2010Prop56
140
1.0
102
RTVSPost2010PropOp56
 70
     1
102
RTVSPost2010Prop57
140
1.0
102
RTVSPost2010PropOp57
 70
     1
102
RTVSPropertyOp0
 70
     1
102
RTVSPropertyOp1
 70
     1
102
RTVSPropertyOp2
 70
     1
102
RTVSPropertyOp3
 70
     1
102
RTVSPropertyOp4
 70
     1
102
RTVSPropertyOp5
 70
     1
102
RTVSPropertyOp6
 70
     1
102
RTVSPropertyOp7
 70
     1
102
RTVSPropertyOp8
 70
     1
102
RTVSPropertyOp9
 70
     1
102
RTVSPropertyOp10
 70
     1
102
RTVSPropertyOp11
 70
     1
102
RTVSPropertyOp12
 70
     1
102
RTVSPropertyOp13
 70
     1
102
RTVSPropertyOp14
 70
     1
102
RTVSPropertyOp15
 70
     1
102
RTVSPropertyOp16
 70
     1
102
RTVSPropertyOp17
 70
     1
102
RTVSPropertyOp18
 70
     1
102
RTVSPropertyOp19
 70
     1
102
RTVSPropertyOp20
 70
     1
102
RTVSPropertyOp21
 70
     1
102
RTVSPropertyOp22
 70
     1
102
RTVSPropertyOp23
 70
     1
102
RTVSPropertyOp24
 70
     1
102
RTVSPropertyOp25
 70
     1
102
RTVSPropertyOp26
 70
     1
102
RTVSPropertyOp27
 70
     1
102
RTVSPropertyOp28
 70
     1
102
RTVSPropertyOp29
 70
     1
102
RTVSPropertyOp30
 70
     1
102
RTVSPropertyOp31
 70
     1
102
RTVSPropertyOp32
 70
     1
102
RTVSPropertyOp33
 70
     1
102
RTVSPropertyOp34
 70
     1
102
RTVSPropertyOp35
 70
     1
102
RTVSPropertyOp36
 70
     1
102
RTVSPropertyOp37
 70
     1
102
RTVSPropertyOp38
 70
     1
102
RTVSPropertyOp39
 70
     1
102
RTVSPropertyOp40
 70
     1
102
RTVSPropertyOp41
 70
     1
102
RTVSPropertyOp42
 70
     1
102
RTVSPropertyOp43
 70
     1
102
RTVSPropertyOp44
 70
     1
102
RTVSPropertyOp45
 70
     1
102
RTVSPropertyOp46
 70
     1
102
RTVSPropertyOp47
 70
     1
102
RTVSPropertyOp48
 70
     1
102
RTVSPropertyOp49
 70
     1
102
RTVSPropertyOp50
 70
     1
102
RTVSPropertyOp51
 70
     0
102
RTVSPropertyOp52
 70
     0
102
RTVSPropertyOp53
 70
     1
102
RTVSPropertyOp54
 70
     1
102
RTVSPropertyOp55
 70
     1
102
RTVSPropertyOp56
 70
     1
102
RTVSPropertyOp57
 70
     1
102
RTVSPropertyOp58
 70
     1
102
RTVSPropertyOp59
 70
     1
102
RTVSPropertyOp60
 70
     1
102
RTVSPropertyOp61
 70
     1
102
RTVSPropertyOp62
 70
     1
  0
XRECORD
  5
C1A5
102
{ACAD_REACTORS
330
C1A4
102
}
330
C1A4
100
AcDbXrecord
280
     1
102
RTVSPost2010Prop28
280
     0
102
RTVSPost2010PropOp28
 70
     1
102
RTVSPost2010Prop29
280
     1
102
RTVSPost2010PropOp29
 70
     1
102
RTVSPost2010Prop30
280
     1
102
RTVSPost2010PropOp30
 70
     1
102
RTVSPost2010Prop31
280
     0
102
RTVSPost2010PropOp31
 70
     1
102
RTVSPost2010Prop32
280
     0
102
RTVSPost2010PropOp32
 70
     1
102
RTVSPost2010Prop33
280
     0
102
RTVSPost2010PropOp33
 70
     1
102
RTVSPost2010Prop34
280
     0
102
RTVSPost2010PropOp34
 70
     1
102
RTVSPost2010Prop35
280
     0
102
RTVSPost2010PropOp35
 70
     1
102
RTVSPost2010Prop36
280
     0
102
RTVSPost2010PropOp36
 70
     1
102
RTVSPost2010Prop37
 90
       50
102
RTVSPost2010PropOp37
 70
     0
102
RTVSPost2010Prop38
140
0.0
102
RTVSPost2010PropOp38
 70
     0
102
RTVSPost2010Prop39
140
1.0
102
RTVSPost2010PropOp39
 70
     0
102
RTVSPost2010Prop40
 90
        0
102
RTVSPost2010PropOp40
 70
     0
102
RTVSPost2010Prop41ColorIndex
 90
       18
102
RTVSPost2010Prop41ColorRGB
 90
        0
102
RTVSPost2010PropOp41
 70
     0
102
RTVSPost2010Prop42
 90
       50
102
RTVSPost2010PropOp42
 70
     0
102
RTVSPost2010Prop43
 90
        3
102
RTVSPost2010PropOp43
 70
     0
102
RTVSPost2010Prop44ColorIndex
 90
        5
102
RTVSPost2010Prop44ColorRGB
 90
      255
102
RTVSPost2010PropOp44
 70
     0
102
RTVSPost2010Prop45
280
     0
102
RTVSPost2010PropOp45
 70
     1
102
RTVSPost2010Prop46
 90
       50
102
RTVSPost2010PropOp46
 70
     0
102
RTVSPost2010Prop47
 90
       50
102
RTVSPost2010PropOp47
 70
     0
102
RTVSPost2010Prop48
 90
       50
102
RTVSPost2010PropOp48
 70
     0
102
RTVSPost2010Prop49
280
     0
102
RTVSPost2010PropOp49
 70
     1
102
RTVSPost2010Prop50
 90
       50
102
RTVSPost2010PropOp50
 70
     0
102
RTVSPost2010Prop51ColorIndex
 90
      256
102
RTVSPost2010Prop51ColorRGB
 90
-16777216
102
RTVSPost2010PropOp51
 70
     0
102
RTVSPost2010Prop52
140
1.0
102
RTVSPost2010PropOp52
 70
     0
102
RTVSPost2010Prop53
 90
        2
102
RTVSPost2010PropOp53
 70
     0
102
RTVSPost2010Prop54
  1
strokes_ogs.tif
102
RTVSPost2010PropOp54
 70
     0
102
RTVSPost2010Prop55
280
     0
102
RTVSPost2010PropOp55
 70
     1
102
RTVSPost2010Prop56
140
1.0
102
RTVSPost2010PropOp56
 70
     0
102
RTVSPost2010Prop57
140
1.0
102
RTVSPost2010PropOp57
 70
     0
102
RTVSPropertyOp0
 70
     0
102
RTVSPropertyOp1
 70
     0
102
RTVSPropertyOp2
 70
     0
102
RTVSPropertyOp3
 70
     0
102
RTVSPropertyOp4
 70
     0
102
RTVSPropertyOp5
 70
     0
102
RTVSPropertyOp6
 70
     0
102
RTVSPropertyOp7
 70
     0
102
RTVSPropertyOp8
 70
     0
102
RTVSPropertyOp9
 70
     0
102
RTVSPropertyOp10
 70
     0
102
RTVSPropertyOp11
 70
     0
102
RTVSPropertyOp12
 70
     0
102
RTVSPropertyOp13
 70
     0
102
RTVSPropertyOp14
 70
     2
102
RTVSPropertyOp15
 70
     0
102
RTVSPropertyOp16
 70
     0
102
RTVSPropertyOp17
 70
     0
102
RTVSPropertyOp18
 70
     0
102
RTVSPropertyOp19
 70
     0
102
RTVSPropertyOp20
 70
     0
102
RTVSPropertyOp21
 70
     0
102
RTVSPropertyOp22
 70
     0
102
RTVSPropertyOp23
 70
     0
102
RTVSPropertyOp24
 70
     0
102
RTVSPropertyOp25
 70
     0
102
RTVSPropertyOp26
 70
     0
102
RTVSPropertyOp27
 70
     0
102
RTVSPropertyOp28
 70
     1
102
RTVSPropertyOp29
 70
     1
102
RTVSPropertyOp30
 70
     1
102
RTVSPropertyOp31
 70
     1
102
RTVSPropertyOp32
 70
     1
102
RTVSPropertyOp33
 70
     1
102
RTVSPropertyOp34
 70
     1
102
RTVSPropertyOp35
 70
     1
102
RTVSPropertyOp36
 70
     1
102
RTVSPropertyOp37
 70
     0
102
RTVSPropertyOp38
 70
     0
102
RTVSPropertyOp39
 70
     0
102
RTVSPropertyOp40
 70
     0
102
RTVSPropertyOp41
 70
     0
102
RTVSPropertyOp42
 70
     0
102
RTVSPropertyOp43
 70
     0
102
RTVSPropertyOp44
 70
     0
102
RTVSPropertyOp45
 70
     1
102
RTVSPropertyOp46
 70
     0
102
RTVSPropertyOp47
 70
     0
102
RTVSPropertyOp48
 70
     0
102
RTVSPropertyOp49
 70
     1
102
RTVSPropertyOp50
 70
     0
102
RTVSPropertyOp51
 70
     0
102
RTVSPropertyOp52
 70
     0
102
RTVSPropertyOp53
 70
     0
102
RTVSPropertyOp54
 70
     0
102
RTVSPropertyOp55
 70
     1
102
RTVSPropertyOp56
 70
     0
102
RTVSPropertyOp57
 70
     0
102
RTVSPropertyOp58
 70
     0
102
RTVSPropertyOp59
 70
     0
102
RTVSPropertyOp60
 70
     0
102
RTVSPropertyOp61
 70
     0
102
RTVSPropertyOp62
 70
     0
  0
XRECORD
  5
C18B
102
{ACAD_REACTORS
330
C18A
102
}
330
C18A
100
AcDbXrecord
280
     1
102
RTVSPost2010Prop28
280
     0
102
RTVSPost2010PropOp28
 70
     1
102
RTVSPost2010Prop29
280
     1
102
RTVSPost2010PropOp29
 70
     1
102
RTVSPost2010Prop30
280
     1
102
RTVSPost2010PropOp30
 70
     1
102
RTVSPost2010Prop31
280
     0
102
RTVSPost2010PropOp31
 70
     1
102
RTVSPost2010Prop32
280
     0
102
RTVSPost2010PropOp32
 70
     1
102
RTVSPost2010Prop33
280
     0
102
RTVSPost2010PropOp33
 70
     1
102
RTVSPost2010Prop34
280
     0
102
RTVSPost2010PropOp34
 70
     1
102
RTVSPost2010Prop35
280
     0
102
RTVSPost2010PropOp35
 70
     1
102
RTVSPost2010Prop36
280
     0
102
RTVSPost2010PropOp36
 70
     1
102
RTVSPost2010Prop37
 90
       50
102
RTVSPost2010PropOp37
 70
     1
102
RTVSPost2010Prop38
140
0.0
102
RTVSPost2010PropOp38
 70
     1
102
RTVSPost2010Prop39
140
1.0
102
RTVSPost2010PropOp39
 70
     1
102
RTVSPost2010Prop40
 90
        0
102
RTVSPost2010PropOp40
 70
     1
102
RTVSPost2010Prop41ColorIndex
 90
       18
102
RTVSPost2010Prop41ColorRGB
 90
        0
102
RTVSPost2010PropOp41
 70
     1
102
RTVSPost2010Prop42
 90
       50
102
RTVSPost2010PropOp42
 70
     1
102
RTVSPost2010Prop43
 90
        3
102
RTVSPost2010PropOp43
 70
     1
102
RTVSPost2010Prop44ColorIndex
 90
        5
102
RTVSPost2010Prop44ColorRGB
 90
      255
102
RTVSPost2010PropOp44
 70
     1
102
RTVSPost2010Prop45
280
     0
102
RTVSPost2010PropOp45
 70
     1
102
RTVSPost2010Prop46
 90
       50
102
RTVSPost2010PropOp46
 70
     1
102
RTVSPost2010Prop47
 90
       50
102
RTVSPost2010PropOp47
 70
     1
102
RTVSPost2010Prop48
 90
       50
102
RTVSPost2010PropOp48
 70
     1
102
RTVSPost2010Prop49
280
     0
102
RTVSPost2010PropOp49
 70
     1
102
RTVSPost2010Prop50
 90
       50
102
RTVSPost2010PropOp50
 70
     1
102
RTVSPost2010Prop51ColorIndex
 90
      256
102
RTVSPost2010Prop51ColorRGB
 90
-16777216
102
RTVSPost2010PropOp51
 70
     0
102
RTVSPost2010Prop52
140
1.0
102
RTVSPost2010PropOp52
 70
     0
102
RTVSPost2010Prop53
 90
        2
102
RTVSPost2010PropOp53
 70
     1
102
RTVSPost2010Prop54
  1
strokes_ogs.tif
102
RTVSPost2010PropOp54
 70
     1
102
RTVSPost2010Prop55
280
     0
102
RTVSPost2010PropOp55
 70
     1
102
RTVSPost2010Prop56
140
1.0
102
RTVSPost2010PropOp56
 70
     1
102
RTVSPost2010Prop57
140
1.0
102
RTVSPost2010PropOp57
 70
     1
102
RTVSPropertyOp0
 70
     1
102
RTVSPropertyOp1
 70
     1
102
RTVSPropertyOp2
 70
     1
102
RTVSPropertyOp3
 70
     1
102
RTVSPropertyOp4
 70
     1
102
RTVSPropertyOp5
 70
     1
102
RTVSPropertyOp6
 70
     1
102
RTVSPropertyOp7
 70
     1
102
RTVSPropertyOp8
 70
     1
102
RTVSPropertyOp9
 70
     1
102
RTVSPropertyOp10
 70
     1
102
RTVSPropertyOp11
 70
     1
102
RTVSPropertyOp12
 70
     1
102
RTVSPropertyOp13
 70
     1
102
RTVSPropertyOp14
 70
     1
102
RTVSPropertyOp15
 70
     1
102
RTVSPropertyOp16
 70
     1
102
RTVSPropertyOp17
 70
     1
102
RTVSPropertyOp18
 70
     1
102
RTVSPropertyOp19
 70
     1
102
RTVSPropertyOp20
 70
     1
102
RTVSPropertyOp21
 70
     1
102
RTVSPropertyOp22
 70
     1
102
RTVSPropertyOp23
 70
     1
102
RTVSPropertyOp24
 70
     1
102
RTVSPropertyOp25
 70
     1
102
RTVSPropertyOp26
 70
     1
102
RTVSPropertyOp27
 70
     1
102
RTVSPropertyOp28
 70
     1
102
RTVSPropertyOp29
 70
     1
102
RTVSPropertyOp30
 70
     1
102
RTVSPropertyOp31
 70
     1
102
RTVSPropertyOp32
 70
     1
102
RTVSPropertyOp33
 70
     1
102
RTVSPropertyOp34
 70
     1
102
RTVSPropertyOp35
 70
     1
102
RTVSPropertyOp36
 70
     1
102
RTVSPropertyOp37
 70
     1
102
RTVSPropertyOp38
 70
     1
102
RTVSPropertyOp39
 70
     1
102
RTVSPropertyOp40
 70
     1
102
RTVSPropertyOp41
 70
     1
102
RTVSPropertyOp42
 70
     1
102
RTVSPropertyOp43
 70
     1
102
RTVSPropertyOp44
 70
     1
102
RTVSPropertyOp45
 70
     1
102
RTVSPropertyOp46
 70
     1
102
RTVSPropertyOp47
 70
     1
102
RTVSPropertyOp48
 70
     1
102
RTVSPropertyOp49
 70
     1
102
RTVSPropertyOp50
 70
     1
102
RTVSPropertyOp51
 70
     0
102
RTVSPropertyOp52
 70
     0
102
RTVSPropertyOp53
 70
     1
102
RTVSPropertyOp54
 70
     1
102
RTVSPropertyOp55
 70
     1
102
RTVSPropertyOp56
 70
     1
102
RTVSPropertyOp57
 70
     1
102
RTVSPropertyOp58
 70
     1
102
RTVSPropertyOp59
 70
     1
102
RTVSPropertyOp60
 70
     1
102
RTVSPropertyOp61
 70
     1
102
RTVSPropertyOp62
 70
     1
  0
XRECORD
  5
C1A1
102
{ACAD_REACTORS
330
C1A0
102
}
330
C1A0
100
AcDbXrecord
280
     1
102
RTVSPost2010Prop28
280
     0
102
RTVSPost2010PropOp28
 70
     1
102
RTVSPost2010Prop29
280
     1
102
RTVSPost2010PropOp29
 70
     1
102
RTVSPost2010Prop30
280
     1
102
RTVSPost2010PropOp30
 70
     1
102
RTVSPost2010Prop31
280
     0
102
RTVSPost2010PropOp31
 70
     1
102
RTVSPost2010Prop32
280
     0
102
RTVSPost2010PropOp32
 70
     1
102
RTVSPost2010Prop33
280
     0
102
RTVSPost2010PropOp33
 70
     1
102
RTVSPost2010Prop34
280
     0
102
RTVSPost2010PropOp34
 70
     1
102
RTVSPost2010Prop35
280
     0
102
RTVSPost2010PropOp35
 70
     1
102
RTVSPost2010Prop36
280
     0
102
RTVSPost2010PropOp36
 70
     1
102
RTVSPost2010Prop37
 90
       50
102
RTVSPost2010PropOp37
 70
     1
102
RTVSPost2010Prop38
140
0.0
102
RTVSPost2010PropOp38
 70
     1
102
RTVSPost2010Prop39
140
1.0
102
RTVSPost2010PropOp39
 70
     1
102
RTVSPost2010Prop40
 90
        0
102
RTVSPost2010PropOp40
 70
     1
102
RTVSPost2010Prop41ColorIndex
 90
       18
102
RTVSPost2010Prop41ColorRGB
 90
        0
102
RTVSPost2010PropOp41
 70
     1
102
RTVSPost2010Prop42
 90
       50
102
RTVSPost2010PropOp42
 70
     1
102
RTVSPost2010Prop43
 90
        3
102
RTVSPost2010PropOp43
 70
     1
102
RTVSPost2010Prop44ColorIndex
 90
        5
102
RTVSPost2010Prop44ColorRGB
 90
      255
102
RTVSPost2010PropOp44
 70
     1
102
RTVSPost2010Prop45
280
     0
102
RTVSPost2010PropOp45
 70
     1
102
RTVSPost2010Prop46
 90
       50
102
RTVSPost2010PropOp46
 70
     1
102
RTVSPost2010Prop47
 90
       50
102
RTVSPost2010PropOp47
 70
     1
102
RTVSPost2010Prop48
 90
       50
102
RTVSPost2010PropOp48
 70
     1
102
RTVSPost2010Prop49
280
     0
102
RTVSPost2010PropOp49
 70
     1
102
RTVSPost2010Prop50
 90
       50
102
RTVSPost2010PropOp50
 70
     1
102
RTVSPost2010Prop51ColorIndex
 90
      256
102
RTVSPost2010Prop51ColorRGB
 90
-16777216
102
RTVSPost2010PropOp51
 70
     0
102
RTVSPost2010Prop52
140
1.0
102
RTVSPost2010PropOp52
 70
     0
102
RTVSPost2010Prop53
 90
        2
102
RTVSPost2010PropOp53
 70
     1
102
RTVSPost2010Prop54
  1
strokes_ogs.tif
102
RTVSPost2010PropOp54
 70
     1
102
RTVSPost2010Prop55
280
     0
102
RTVSPost2010PropOp55
 70
     1
102
RTVSPost2010Prop56
140
1.0
102
RTVSPost2010PropOp56
 70
     1
102
RTVSPost2010Prop57
140
1.0
102
RTVSPost2010PropOp57
 70
     1
102
RTVSPropertyOp0
 70
     1
102
RTVSPropertyOp1
 70
     1
102
RTVSPropertyOp2
 70
     1
102
RTVSPropertyOp3
 70
     1
102
RTVSPropertyOp4
 70
     1
102
RTVSPropertyOp5
 70
     1
102
RTVSPropertyOp6
 70
     1
102
RTVSPropertyOp7
 70
     1
102
RTVSPropertyOp8
 70
     1
102
RTVSPropertyOp9
 70
     1
102
RTVSPropertyOp10
 70
     1
102
RTVSPropertyOp11
 70
     1
102
RTVSPropertyOp12
 70
     1
102
RTVSPropertyOp13
 70
     1
102
RTVSPropertyOp14
 70
     1
102
RTVSPropertyOp15
 70
     1
102
RTVSPropertyOp16
 70
     1
102
RTVSPropertyOp17
 70
     1
102
RTVSPropertyOp18
 70
     1
102
RTVSPropertyOp19
 70
     1
102
RTVSPropertyOp20
 70
     1
102
RTVSPropertyOp21
 70
     1
102
RTVSPropertyOp22
 70
     1
102
RTVSPropertyOp23
 70
     1
102
RTVSPropertyOp24
 70
     1
102
RTVSPropertyOp25
 70
     1
102
RTVSPropertyOp26
 70
     1
102
RTVSPropertyOp27
 70
     1
102
RTVSPropertyOp28
 70
     1
102
RTVSPropertyOp29
 70
     1
102
RTVSPropertyOp30
 70
     1
102
RTVSPropertyOp31
 70
     1
102
RTVSPropertyOp32
 70
     1
102
RTVSPropertyOp33
 70
     1
102
RTVSPropertyOp34
 70
     1
102
RTVSPropertyOp35
 70
     1
102
RTVSPropertyOp36
 70
     1
102
RTVSPropertyOp37
 70
     1
102
RTVSPropertyOp38
 70
     1
102
RTVSPropertyOp39
 70
     1
102
RTVSPropertyOp40
 70
     1
102
RTVSPropertyOp41
 70
     1
102
RTVSPropertyOp42
 70
     1
102
RTVSPropertyOp43
 70
     1
102
RTVSPropertyOp44
 70
     1
102
RTVSPropertyOp45
 70
     1
102
RTVSPropertyOp46
 70
     1
102
RTVSPropertyOp47
 70
     1
102
RTVSPropertyOp48
 70
     1
102
RTVSPropertyOp49
 70
     1
102
RTVSPropertyOp50
 70
     1
102
RTVSPropertyOp51
 70
     0
102
RTVSPropertyOp52
 70
     0
102
RTVSPropertyOp53
 70
     1
102
RTVSPropertyOp54
 70
     1
102
RTVSPropertyOp55
 70
     1
102
RTVSPropertyOp56
 70
     1
102
RTVSPropertyOp57
 70
     1
102
RTVSPropertyOp58
 70
     1
102
RTVSPropertyOp59
 70
     1
102
RTVSPropertyOp60
 70
     1
102
RTVSPropertyOp61
 70
     1
102
RTVSPropertyOp62
 70
     1
  0
XRECORD
  5
C19F
102
{ACAD_REACTORS
330
C19E
102
}
330
C19E
100
AcDbXrecord
280
     1
102
RTVSPost2010Prop28
280
     0
102
RTVSPost2010PropOp28
 70
     1
102
RTVSPost2010Prop29
280
     1
102
RTVSPost2010PropOp29
 70
     1
102
RTVSPost2010Prop30
280
     1
102
RTVSPost2010PropOp30
 70
     1
102
RTVSPost2010Prop31
280
     0
102
RTVSPost2010PropOp31
 70
     1
102
RTVSPost2010Prop32
280
     0
102
RTVSPost2010PropOp32
 70
     1
102
RTVSPost2010Prop33
280
     0
102
RTVSPost2010PropOp33
 70
     1
102
RTVSPost2010Prop34
280
     0
102
RTVSPost2010PropOp34
 70
     1
102
RTVSPost2010Prop35
280
     0
102
RTVSPost2010PropOp35
 70
     1
102
RTVSPost2010Prop36
280
     0
102
RTVSPost2010PropOp36
 70
     1
102
RTVSPost2010Prop37
 90
       50
102
RTVSPost2010PropOp37
 70
     1
102
RTVSPost2010Prop38
140
0.0
102
RTVSPost2010PropOp38
 70
     1
102
RTVSPost2010Prop39
140
1.0
102
RTVSPost2010PropOp39
 70
     1
102
RTVSPost2010Prop40
 90
        0
102
RTVSPost2010PropOp40
 70
     1
102
RTVSPost2010Prop41ColorIndex
 90
       18
102
RTVSPost2010Prop41ColorRGB
 90
        0
102
RTVSPost2010PropOp41
 70
     1
102
RTVSPost2010Prop42
 90
       50
102
RTVSPost2010PropOp42
 70
     1
102
RTVSPost2010Prop43
 90
        3
102
RTVSPost2010PropOp43
 70
     1
102
RTVSPost2010Prop44ColorIndex
 90
        5
102
RTVSPost2010Prop44ColorRGB
 90
      255
102
RTVSPost2010PropOp44
 70
     1
102
RTVSPost2010Prop45
280
     0
102
RTVSPost2010PropOp45
 70
     1
102
RTVSPost2010Prop46
 90
       50
102
RTVSPost2010PropOp46
 70
     1
102
RTVSPost2010Prop47
 90
       50
102
RTVSPost2010PropOp47
 70
     1
102
RTVSPost2010Prop48
 90
       50
102
RTVSPost2010PropOp48
 70
     1
102
RTVSPost2010Prop49
280
     0
102
RTVSPost2010PropOp49
 70
     1
102
RTVSPost2010Prop50
 90
       50
102
RTVSPost2010PropOp50
 70
     1
102
RTVSPost2010Prop51ColorIndex
 90
      256
102
RTVSPost2010Prop51ColorRGB
 90
-16777216
102
RTVSPost2010PropOp51
 70
     0
102
RTVSPost2010Prop52
140
1.0
102
RTVSPost2010PropOp52
 70
     0
102
RTVSPost2010Prop53
 90
        2
102
RTVSPost2010PropOp53
 70
     1
102
RTVSPost2010Prop54
  1
strokes_ogs.tif
102
RTVSPost2010PropOp54
 70
     1
102
RTVSPost2010Prop55
280
     0
102
RTVSPost2010PropOp55
 70
     1
102
RTVSPost2010Prop56
140
1.0
102
RTVSPost2010PropOp56
 70
     1
102
RTVSPost2010Prop57
140
1.0
102
RTVSPost2010PropOp57
 70
     1
102
RTVSPropertyOp0
 70
     1
102
RTVSPropertyOp1
 70
     1
102
RTVSPropertyOp2
 70
     1
102
RTVSPropertyOp3
 70
     1
102
RTVSPropertyOp4
 70
     1
102
RTVSPropertyOp5
 70
     1
102
RTVSPropertyOp6
 70
     1
102
RTVSPropertyOp7
 70
     1
102
RTVSPropertyOp8
 70
     1
102
RTVSPropertyOp9
 70
     1
102
RTVSPropertyOp10
 70
     1
102
RTVSPropertyOp11
 70
     1
102
RTVSPropertyOp12
 70
     1
102
RTVSPropertyOp13
 70
     1
102
RTVSPropertyOp14
 70
     1
102
RTVSPropertyOp15
 70
     1
102
RTVSPropertyOp16
 70
     1
102
RTVSPropertyOp17
 70
     1
102
RTVSPropertyOp18
 70
     1
102
RTVSPropertyOp19
 70
     1
102
RTVSPropertyOp20
 70
     1
102
RTVSPropertyOp21
 70
     1
102
RTVSPropertyOp22
 70
     1
102
RTVSPropertyOp23
 70
     1
102
RTVSPropertyOp24
 70
     1
102
RTVSPropertyOp25
 70
     1
102
RTVSPropertyOp26
 70
     1
102
RTVSPropertyOp27
 70
     1
102
RTVSPropertyOp28
 70
     1
102
RTVSPropertyOp29
 70
     1
102
RTVSPropertyOp30
 70
     1
102
RTVSPropertyOp31
 70
     1
102
RTVSPropertyOp32
 70
     1
102
RTVSPropertyOp33
 70
     1
102
RTVSPropertyOp34
 70
     1
102
RTVSPropertyOp35
 70
     1
102
RTVSPropertyOp36
 70
     1
102
RTVSPropertyOp37
 70
     1
102
RTVSPropertyOp38
 70
     1
102
RTVSPropertyOp39
 70
     1
102
RTVSPropertyOp40
 70
     1
102
RTVSPropertyOp41
 70
     1
102
RTVSPropertyOp42
 70
     1
102
RTVSPropertyOp43
 70
     1
102
RTVSPropertyOp44
 70
     1
102
RTVSPropertyOp45
 70
     1
102
RTVSPropertyOp46
 70
     1
102
RTVSPropertyOp47
 70
     1
102
RTVSPropertyOp48
 70
     1
102
RTVSPropertyOp49
 70
     1
102
RTVSPropertyOp50
 70
     1
102
RTVSPropertyOp51
 70
     0
102
RTVSPropertyOp52
 70
     0
102
RTVSPropertyOp53
 70
     1
102
RTVSPropertyOp54
 70
     1
102
RTVSPropertyOp55
 70
     1
102
RTVSPropertyOp56
 70
     1
102
RTVSPropertyOp57
 70
     1
102
RTVSPropertyOp58
 70
     1
102
RTVSPropertyOp59
 70
     1
102
RTVSPropertyOp60
 70
     1
102
RTVSPropertyOp61
 70
     1
102
RTVSPropertyOp62
 70
     1
  0
XRECORD
  5
C199
102
{ACAD_REACTORS
330
C198
102
}
330
C198
100
AcDbXrecord
280
     1
102
RTVSPost2010Prop28
280
     0
102
RTVSPost2010PropOp28
 70
     1
102
RTVSPost2010Prop29
280
     1
102
RTVSPost2010PropOp29
 70
     1
102
RTVSPost2010Prop30
280
     1
102
RTVSPost2010PropOp30
 70
     1
102
RTVSPost2010Prop31
280
     0
102
RTVSPost2010PropOp31
 70
     1
102
RTVSPost2010Prop32
280
     0
102
RTVSPost2010PropOp32
 70
     1
102
RTVSPost2010Prop33
280
     0
102
RTVSPost2010PropOp33
 70
     1
102
RTVSPost2010Prop34
280
     0
102
RTVSPost2010PropOp34
 70
     1
102
RTVSPost2010Prop35
280
     0
102
RTVSPost2010PropOp35
 70
     1
102
RTVSPost2010Prop36
280
     0
102
RTVSPost2010PropOp36
 70
     1
102
RTVSPost2010Prop37
 90
       50
102
RTVSPost2010PropOp37
 70
     1
102
RTVSPost2010Prop38
140
0.0
102
RTVSPost2010PropOp38
 70
     1
102
RTVSPost2010Prop39
140
1.0
102
RTVSPost2010PropOp39
 70
     1
102
RTVSPost2010Prop40
 90
        0
102
RTVSPost2010PropOp40
 70
     1
102
RTVSPost2010Prop41ColorIndex
 90
       18
102
RTVSPost2010Prop41ColorRGB
 90
        0
102
RTVSPost2010PropOp41
 70
     1
102
RTVSPost2010Prop42
 90
       50
102
RTVSPost2010PropOp42
 70
     1
102
RTVSPost2010Prop43
 90
        3
102
RTVSPost2010PropOp43
 70
     1
102
RTVSPost2010Prop44ColorIndex
 90
        5
102
RTVSPost2010Prop44ColorRGB
 90
      255
102
RTVSPost2010PropOp44
 70
     1
102
RTVSPost2010Prop45
280
     0
102
RTVSPost2010PropOp45
 70
     1
102
RTVSPost2010Prop46
 90
       50
102
RTVSPost2010PropOp46
 70
     1
102
RTVSPost2010Prop47
 90
       50
102
RTVSPost2010PropOp47
 70
     1
102
RTVSPost2010Prop48
 90
       50
102
RTVSPost2010PropOp48
 70
     1
102
RTVSPost2010Prop49
280
     0
102
RTVSPost2010PropOp49
 70
     1
102
RTVSPost2010Prop50
 90
       50
102
RTVSPost2010PropOp50
 70
     1
102
RTVSPost2010Prop51ColorIndex
 90
      256
102
RTVSPost2010Prop51ColorRGB
 90
-16777216
102
RTVSPost2010PropOp51
 70
     0
102
RTVSPost2010Prop52
140
1.0
102
RTVSPost2010PropOp52
 70
     0
102
RTVSPost2010Prop53
 90
        2
102
RTVSPost2010PropOp53
 70
     1
102
RTVSPost2010Prop54
  1
strokes_ogs.tif
102
RTVSPost2010PropOp54
 70
     1
102
RTVSPost2010Prop55
280
     0
102
RTVSPost2010PropOp55
 70
     1
102
RTVSPost2010Prop56
140
1.0
102
RTVSPost2010PropOp56
 70
     1
102
RTVSPost2010Prop57
140
1.0
102
RTVSPost2010PropOp57
 70
     1
102
RTVSPropertyOp0
 70
     1
102
RTVSPropertyOp1
 70
     1
102
RTVSPropertyOp2
 70
     1
102
RTVSPropertyOp3
 70
     1
102
RTVSPropertyOp4
 70
     1
102
RTVSPropertyOp5
 70
     1
102
RTVSPropertyOp6
 70
     1
102
RTVSPropertyOp7
 70
     1
102
RTVSPropertyOp8
 70
     1
102
RTVSPropertyOp9
 70
     1
102
RTVSPropertyOp10
 70
     1
102
RTVSPropertyOp11
 70
     1
102
RTVSPropertyOp12
 70
     1
102
RTVSPropertyOp13
 70
     1
102
RTVSPropertyOp14
 70
     1
102
RTVSPropertyOp15
 70
     1
102
RTVSPropertyOp16
 70
     1
102
RTVSPropertyOp17
 70
     1
102
RTVSPropertyOp18
 70
     1
102
RTVSPropertyOp19
 70
     1
102
RTVSPropertyOp20
 70
     1
102
RTVSPropertyOp21
 70
     1
102
RTVSPropertyOp22
 70
     1
102
RTVSPropertyOp23
 70
     1
102
RTVSPropertyOp24
 70
     1
102
RTVSPropertyOp25
 70
     1
102
RTVSPropertyOp26
 70
     1
102
RTVSPropertyOp27
 70
     1
102
RTVSPropertyOp28
 70
     1
102
RTVSPropertyOp29
 70
     1
102
RTVSPropertyOp30
 70
     1
102
RTVSPropertyOp31
 70
     1
102
RTVSPropertyOp32
 70
     1
102
RTVSPropertyOp33
 70
     1
102
RTVSPropertyOp34
 70
     1
102
RTVSPropertyOp35
 70
     1
102
RTVSPropertyOp36
 70
     1
102
RTVSPropertyOp37
 70
     1
102
RTVSPropertyOp38
 70
     1
102
RTVSPropertyOp39
 70
     1
102
RTVSPropertyOp40
 70
     1
102
RTVSPropertyOp41
 70
     1
102
RTVSPropertyOp42
 70
     1
102
RTVSPropertyOp43
 70
     1
102
RTVSPropertyOp44
 70
     1
102
RTVSPropertyOp45
 70
     1
102
RTVSPropertyOp46
 70
     1
102
RTVSPropertyOp47
 70
     1
102
RTVSPropertyOp48
 70
     1
102
RTVSPropertyOp49
 70
     1
102
RTVSPropertyOp50
 70
     1
102
RTVSPropertyOp51
 70
     0
102
RTVSPropertyOp52
 70
     0
102
RTVSPropertyOp53
 70
     1
102
RTVSPropertyOp54
 70
     1
102
RTVSPropertyOp55
 70
     1
102
RTVSPropertyOp56
 70
     1
102
RTVSPropertyOp57
 70
     1
102
RTVSPropertyOp58
 70
     1
102
RTVSPropertyOp59
 70
     1
102
RTVSPropertyOp60
 70
     1
102
RTVSPropertyOp61
 70
     1
102
RTVSPropertyOp62
 70
     1
  0
XRECORD
  5
C19B
102
{ACAD_REACTORS
330
C19A
102
}
330
C19A
100
AcDbXrecord
280
     1
102
RTVSPost2010Prop28
280
     0
102
RTVSPost2010PropOp28
 70
     1
102
RTVSPost2010Prop29
280
     1
102
RTVSPost2010PropOp29
 70
     1
102
RTVSPost2010Prop30
280
     1
102
RTVSPost2010PropOp30
 70
     1
102
RTVSPost2010Prop31
280
     0
102
RTVSPost2010PropOp31
 70
     1
102
RTVSPost2010Prop32
280
     0
102
RTVSPost2010PropOp32
 70
     1
102
RTVSPost2010Prop33
280
     0
102
RTVSPost2010PropOp33
 70
     1
102
RTVSPost2010Prop34
280
     0
102
RTVSPost2010PropOp34
 70
     1
102
RTVSPost2010Prop35
280
     0
102
RTVSPost2010PropOp35
 70
     1
102
RTVSPost2010Prop36
280
     0
102
RTVSPost2010PropOp36
 70
     1
102
RTVSPost2010Prop37
 90
       50
102
RTVSPost2010PropOp37
 70
     1
102
RTVSPost2010Prop38
140
0.0
102
RTVSPost2010PropOp38
 70
     1
102
RTVSPost2010Prop39
140
1.0
102
RTVSPost2010PropOp39
 70
     1
102
RTVSPost2010Prop40
 90
        0
102
RTVSPost2010PropOp40
 70
     1
102
RTVSPost2010Prop41ColorIndex
 90
       18
102
RTVSPost2010Prop41ColorRGB
 90
        0
102
RTVSPost2010PropOp41
 70
     1
102
RTVSPost2010Prop42
 90
       50
102
RTVSPost2010PropOp42
 70
     1
102
RTVSPost2010Prop43
 90
        3
102
RTVSPost2010PropOp43
 70
     1
102
RTVSPost2010Prop44ColorIndex
 90
        5
102
RTVSPost2010Prop44ColorRGB
 90
      255
102
RTVSPost2010PropOp44
 70
     1
102
RTVSPost2010Prop45
280
     0
102
RTVSPost2010PropOp45
 70
     1
102
RTVSPost2010Prop46
 90
       50
102
RTVSPost2010PropOp46
 70
     1
102
RTVSPost2010Prop47
 90
       50
102
RTVSPost2010PropOp47
 70
     1
102
RTVSPost2010Prop48
 90
       50
102
RTVSPost2010PropOp48
 70
     1
102
RTVSPost2010Prop49
280
     0
102
RTVSPost2010PropOp49
 70
     1
102
RTVSPost2010Prop50
 90
       50
102
RTVSPost2010PropOp50
 70
     1
102
RTVSPost2010Prop51ColorIndex
 90
      256
102
RTVSPost2010Prop51ColorRGB
 90
-16777216
102
RTVSPost2010PropOp51
 70
     0
102
RTVSPost2010Prop52
140
1.0
102
RTVSPost2010PropOp52
 70
     0
102
RTVSPost2010Prop53
 90
        2
102
RTVSPost2010PropOp53
 70
     1
102
RTVSPost2010Prop54
  1
strokes_ogs.tif
102
RTVSPost2010PropOp54
 70
     1
102
RTVSPost2010Prop55
280
     0
102
RTVSPost2010PropOp55
 70
     1
102
RTVSPost2010Prop56
140
1.0
102
RTVSPost2010PropOp56
 70
     1
102
RTVSPost2010Prop57
140
1.0
102
RTVSPost2010PropOp57
 70
     1
102
RTVSPropertyOp0
 70
     1
102
RTVSPropertyOp1
 70
     1
102
RTVSPropertyOp2
 70
     1
102
RTVSPropertyOp3
 70
     1
102
RTVSPropertyOp4
 70
     1
102
RTVSPropertyOp5
 70
     1
102
RTVSPropertyOp6
 70
     1
102
RTVSPropertyOp7
 70
     1
102
RTVSPropertyOp8
 70
     1
102
RTVSPropertyOp9
 70
     1
102
RTVSPropertyOp10
 70
     1
102
RTVSPropertyOp11
 70
     1
102
RTVSPropertyOp12
 70
     1
102
RTVSPropertyOp13
 70
     1
102
RTVSPropertyOp14
 70
     1
102
RTVSPropertyOp15
 70
     1
102
RTVSPropertyOp16
 70
     1
102
RTVSPropertyOp17
 70
     1
102
RTVSPropertyOp18
 70
     1
102
RTVSPropertyOp19
 70
     1
102
RTVSPropertyOp20
 70
     1
102
RTVSPropertyOp21
 70
     1
102
RTVSPropertyOp22
 70
     1
102
RTVSPropertyOp23
 70
     1
102
RTVSPropertyOp24
 70
     1
102
RTVSPropertyOp25
 70
     1
102
RTVSPropertyOp26
 70
     1
102
RTVSPropertyOp27
 70
     1
102
RTVSPropertyOp28
 70
     1
102
RTVSPropertyOp29
 70
     1
102
RTVSPropertyOp30
 70
     1
102
RTVSPropertyOp31
 70
     1
102
RTVSPropertyOp32
 70
     1
102
RTVSPropertyOp33
 70
     1
102
RTVSPropertyOp34
 70
     1
102
RTVSPropertyOp35
 70
     1
102
RTVSPropertyOp36
 70
     1
102
RTVSPropertyOp37
 70
     1
102
RTVSPropertyOp38
 70
     1
102
RTVSPropertyOp39
 70
     1
102
RTVSPropertyOp40
 70
     1
102
RTVSPropertyOp41
 70
     1
102
RTVSPropertyOp42
 70
     1
102
RTVSPropertyOp43
 70
     1
102
RTVSPropertyOp44
 70
     1
102
RTVSPropertyOp45
 70
     1
102
RTVSPropertyOp46
 70
     1
102
RTVSPropertyOp47
 70
     1
102
RTVSPropertyOp48
 70
     1
102
RTVSPropertyOp49
 70
     1
102
RTVSPropertyOp50
 70
     1
102
RTVSPropertyOp51
 70
     0
102
RTVSPropertyOp52
 70
     0
102
RTVSPropertyOp53
 70
     1
102
RTVSPropertyOp54
 70
     1
102
RTVSPropertyOp55
 70
     1
102
RTVSPropertyOp56
 70
     1
102
RTVSPropertyOp57
 70
     1
102
RTVSPropertyOp58
 70
     1
102
RTVSPropertyOp59
 70
     1
102
RTVSPropertyOp60
 70
     1
102
RTVSPropertyOp61
 70
     1
102
RTVSPropertyOp62
 70
     1
  0
XRECORD
  5
C191
102
{ACAD_REACTORS
330
C190
102
}
330
C190
100
AcDbXrecord
280
     1
102
RTVSPost2010Prop28
280
     0
102
RTVSPost2010PropOp28
 70
     1
102
RTVSPost2010Prop29
280
     1
102
RTVSPost2010PropOp29
 70
     1
102
RTVSPost2010Prop30
280
     1
102
RTVSPost2010PropOp30
 70
     1
102
RTVSPost2010Prop31
280
     0
102
RTVSPost2010PropOp31
 70
     1
102
RTVSPost2010Prop32
280
     0
102
RTVSPost2010PropOp32
 70
     1
102
RTVSPost2010Prop33
280
     0
102
RTVSPost2010PropOp33
 70
     1
102
RTVSPost2010Prop34
280
     0
102
RTVSPost2010PropOp34
 70
     1
102
RTVSPost2010Prop35
280
     0
102
RTVSPost2010PropOp35
 70
     1
102
RTVSPost2010Prop36
280
     0
102
RTVSPost2010PropOp36
 70
     1
102
RTVSPost2010Prop37
 90
       50
102
RTVSPost2010PropOp37
 70
     1
102
RTVSPost2010Prop38
140
0.0
102
RTVSPost2010PropOp38
 70
     1
102
RTVSPost2010Prop39
140
1.0
102
RTVSPost2010PropOp39
 70
     1
102
RTVSPost2010Prop40
 90
        0
102
RTVSPost2010PropOp40
 70
     1
102
RTVSPost2010Prop41ColorIndex
 90
       18
102
RTVSPost2010Prop41ColorRGB
 90
        0
102
RTVSPost2010PropOp41
 70
     1
102
RTVSPost2010Prop42
 90
       50
102
RTVSPost2010PropOp42
 70
     1
102
RTVSPost2010Prop43
 90
        3
102
RTVSPost2010PropOp43
 70
     1
102
RTVSPost2010Prop44ColorIndex
 90
        5
102
RTVSPost2010Prop44ColorRGB
 90
      255
102
RTVSPost2010PropOp44
 70
     1
102
RTVSPost2010Prop45
280
     0
102
RTVSPost2010PropOp45
 70
     1
102
RTVSPost2010Prop46
 90
       50
102
RTVSPost2010PropOp46
 70
     1
102
RTVSPost2010Prop47
 90
       50
102
RTVSPost2010PropOp47
 70
     1
102
RTVSPost2010Prop48
 90
       50
102
RTVSPost2010PropOp48
 70
     1
102
RTVSPost2010Prop49
280
     0
102
RTVSPost2010PropOp49
 70
     1
102
RTVSPost2010Prop50
 90
       50
102
RTVSPost2010PropOp50
 70
     1
102
RTVSPost2010Prop51ColorIndex
 90
      256
102
RTVSPost2010Prop51ColorRGB
 90
-16777216
102
RTVSPost2010PropOp51
 70
     0
102
RTVSPost2010Prop52
140
1.0
102
RTVSPost2010PropOp52
 70
     0
102
RTVSPost2010Prop53
 90
        2
102
RTVSPost2010PropOp53
 70
     1
102
RTVSPost2010Prop54
  1
strokes_ogs.tif
102
RTVSPost2010PropOp54
 70
     1
102
RTVSPost2010Prop55
280
     0
102
RTVSPost2010PropOp55
 70
     1
102
RTVSPost2010Prop56
140
1.0
102
RTVSPost2010PropOp56
 70
     1
102
RTVSPost2010Prop57
140
1.0
102
RTVSPost2010PropOp57
 70
     1
102
RTVSPropertyOp0
 70
     1
102
RTVSPropertyOp1
 70
     1
102
RTVSPropertyOp2
 70
     1
102
RTVSPropertyOp3
 70
     1
102
RTVSPropertyOp4
 70
     1
102
RTVSPropertyOp5
 70
     1
102
RTVSPropertyOp6
 70
     1
102
RTVSPropertyOp7
 70
     1
102
RTVSPropertyOp8
 70
     1
102
RTVSPropertyOp9
 70
     1
102
RTVSPropertyOp10
 70
     1
102
RTVSPropertyOp11
 70
     1
102
RTVSPropertyOp12
 70
     1
102
RTVSPropertyOp13
 70
     1
102
RTVSPropertyOp14
 70
     1
102
RTVSPropertyOp15
 70
     1
102
RTVSPropertyOp16
 70
     1
102
RTVSPropertyOp17
 70
     1
102
RTVSPropertyOp18
 70
     1
102
RTVSPropertyOp19
 70
     1
102
RTVSPropertyOp20
 70
     1
102
RTVSPropertyOp21
 70
     1
102
RTVSPropertyOp22
 70
     1
102
RTVSPropertyOp23
 70
     1
102
RTVSPropertyOp24
 70
     1
102
RTVSPropertyOp25
 70
     1
102
RTVSPropertyOp26
 70
     1
102
RTVSPropertyOp27
 70
     1
102
RTVSPropertyOp28
 70
     1
102
RTVSPropertyOp29
 70
     1
102
RTVSPropertyOp30
 70
     1
102
RTVSPropertyOp31
 70
     1
102
RTVSPropertyOp32
 70
     1
102
RTVSPropertyOp33
 70
     1
102
RTVSPropertyOp34
 70
     1
102
RTVSPropertyOp35
 70
     1
102
RTVSPropertyOp36
 70
     1
102
RTVSPropertyOp37
 70
     1
102
RTVSPropertyOp38
 70
     1
102
RTVSPropertyOp39
 70
     1
102
RTVSPropertyOp40
 70
     1
102
RTVSPropertyOp41
 70
     1
102
RTVSPropertyOp42
 70
     1
102
RTVSPropertyOp43
 70
     1
102
RTVSPropertyOp44
 70
     1
102
RTVSPropertyOp45
 70
     1
102
RTVSPropertyOp46
 70
     1
102
RTVSPropertyOp47
 70
     1
102
RTVSPropertyOp48
 70
     1
102
RTVSPropertyOp49
 70
     1
102
RTVSPropertyOp50
 70
     1
102
RTVSPropertyOp51
 70
     0
102
RTVSPropertyOp52
 70
     0
102
RTVSPropertyOp53
 70
     1
102
RTVSPropertyOp54
 70
     1
102
RTVSPropertyOp55
 70
     1
102
RTVSPropertyOp56
 70
     1
102
RTVSPropertyOp57
 70
     1
102
RTVSPropertyOp58
 70
     1
102
RTVSPropertyOp59
 70
     1
102
RTVSPropertyOp60
 70
     1
102
RTVSPropertyOp61
 70
     1
102
RTVSPropertyOp62
 70
     1
  0
XRECORD
  5
C185
102
{ACAD_REACTORS
330
C184
102
}
330
C184
100
AcDbXrecord
280
     1
102
RTVSPost2010Prop28
280
     0
102
RTVSPost2010PropOp28
 70
     1
102
RTVSPost2010Prop29
280
     1
102
RTVSPost2010PropOp29
 70
     1
102
RTVSPost2010Prop30
280
     1
102
RTVSPost2010PropOp30
 70
     1
102
RTVSPost2010Prop31
280
     0
102
RTVSPost2010PropOp31
 70
     1
102
RTVSPost2010Prop32
280
     0
102
RTVSPost2010PropOp32
 70
     1
102
RTVSPost2010Prop33
280
     0
102
RTVSPost2010PropOp33
 70
     1
102
RTVSPost2010Prop34
280
     0
102
RTVSPost2010PropOp34
 70
     1
102
RTVSPost2010Prop35
280
     0
102
RTVSPost2010PropOp35
 70
     1
102
RTVSPost2010Prop36
280
     0
102
RTVSPost2010PropOp36
 70
     1
102
RTVSPost2010Prop37
 90
       50
102
RTVSPost2010PropOp37
 70
     1
102
RTVSPost2010Prop38
140
0.0
102
RTVSPost2010PropOp38
 70
     1
102
RTVSPost2010Prop39
140
1.0
102
RTVSPost2010PropOp39
 70
     1
102
RTVSPost2010Prop40
 90
        0
102
RTVSPost2010PropOp40
 70
     1
102
RTVSPost2010Prop41ColorIndex
 90
       18
102
RTVSPost2010Prop41ColorRGB
 90
        0
102
RTVSPost2010PropOp41
 70
     1
102
RTVSPost2010Prop42
 90
       50
102
RTVSPost2010PropOp42
 70
     1
102
RTVSPost2010Prop43
 90
        3
102
RTVSPost2010PropOp43
 70
     1
102
RTVSPost2010Prop44ColorIndex
 90
        5
102
RTVSPost2010Prop44ColorRGB
 90
      255
102
RTVSPost2010PropOp44
 70
     1
102
RTVSPost2010Prop45
280
     0
102
RTVSPost2010PropOp45
 70
     1
102
RTVSPost2010Prop46
 90
       50
102
RTVSPost2010PropOp46
 70
     1
102
RTVSPost2010Prop47
 90
       50
102
RTVSPost2010PropOp47
 70
     1
102
RTVSPost2010Prop48
 90
       50
102
RTVSPost2010PropOp48
 70
     1
102
RTVSPost2010Prop49
280
     0
102
RTVSPost2010PropOp49
 70
     1
102
RTVSPost2010Prop50
 90
       50
102
RTVSPost2010PropOp50
 70
     1
102
RTVSPost2010Prop51ColorIndex
 90
      256
102
RTVSPost2010Prop51ColorRGB
 90
-16777216
102
RTVSPost2010PropOp51
 70
     0
102
RTVSPost2010Prop52
140
1.0
102
RTVSPost2010PropOp52
 70
     0
102
RTVSPost2010Prop53
 90
        2
102
RTVSPost2010PropOp53
 70
     1
102
RTVSPost2010Prop54
  1
strokes_ogs.tif
102
RTVSPost2010PropOp54
 70
     1
102
RTVSPost2010Prop55
280
     0
102
RTVSPost2010PropOp55
 70
     1
102
RTVSPost2010Prop56
140
1.0
102
RTVSPost2010PropOp56
 70
     1
102
RTVSPost2010Prop57
140
1.0
102
RTVSPost2010PropOp57
 70
     1
102
RTVSPropertyOp0
 70
     1
102
RTVSPropertyOp1
 70
     1
102
RTVSPropertyOp2
 70
     1
102
RTVSPropertyOp3
 70
     1
102
RTVSPropertyOp4
 70
     1
102
RTVSPropertyOp5
 70
     1
102
RTVSPropertyOp6
 70
     1
102
RTVSPropertyOp7
 70
     1
102
RTVSPropertyOp8
 70
     1
102
RTVSPropertyOp9
 70
     1
102
RTVSPropertyOp10
 70
     1
102
RTVSPropertyOp11
 70
     1
102
RTVSPropertyOp12
 70
     1
102
RTVSPropertyOp13
 70
     1
102
RTVSPropertyOp14
 70
     1
102
RTVSPropertyOp15
 70
     1
102
RTVSPropertyOp16
 70
     1
102
RTVSPropertyOp17
 70
     1
102
RTVSPropertyOp18
 70
     1
102
RTVSPropertyOp19
 70
     1
102
RTVSPropertyOp20
 70
     1
102
RTVSPropertyOp21
 70
     1
102
RTVSPropertyOp22
 70
     1
102
RTVSPropertyOp23
 70
     1
102
RTVSPropertyOp24
 70
     1
102
RTVSPropertyOp25
 70
     1
102
RTVSPropertyOp26
 70
     1
102
RTVSPropertyOp27
 70
     1
102
RTVSPropertyOp28
 70
     1
102
RTVSPropertyOp29
 70
     1
102
RTVSPropertyOp30
 70
     1
102
RTVSPropertyOp31
 70
     1
102
RTVSPropertyOp32
 70
     1
102
RTVSPropertyOp33
 70
     1
102
RTVSPropertyOp34
 70
     1
102
RTVSPropertyOp35
 70
     1
102
RTVSPropertyOp36
 70
     1
102
RTVSPropertyOp37
 70
     1
102
RTVSPropertyOp38
 70
     1
102
RTVSPropertyOp39
 70
     1
102
RTVSPropertyOp40
 70
     1
102
RTVSPropertyOp41
 70
     1
102
RTVSPropertyOp42
 70
     1
102
RTVSPropertyOp43
 70
     1
102
RTVSPropertyOp44
 70
     1
102
RTVSPropertyOp45
 70
     1
102
RTVSPropertyOp46
 70
     1
102
RTVSPropertyOp47
 70
     1
102
RTVSPropertyOp48
 70
     1
102
RTVSPropertyOp49
 70
     1
102
RTVSPropertyOp50
 70
     1
102
RTVSPropertyOp51
 70
     0
102
RTVSPropertyOp52
 70
     0
102
RTVSPropertyOp53
 70
     1
102
RTVSPropertyOp54
 70
     1
102
RTVSPropertyOp55
 70
     1
102
RTVSPropertyOp56
 70
     1
102
RTVSPropertyOp57
 70
     1
102
RTVSPropertyOp58
 70
     1
102
RTVSPropertyOp59
 70
     1
102
RTVSPropertyOp60
 70
     1
102
RTVSPropertyOp61
 70
     1
102
RTVSPropertyOp62
 70
     1
  0
XRECORD
  5
C19D
102
{ACAD_REACTORS
330
C19C
102
}
330
C19C
100
AcDbXrecord
280
     1
102
RTVSPost2010Prop28
280
     0
102
RTVSPost2010PropOp28
 70
     1
102
RTVSPost2010Prop29
280
     1
102
RTVSPost2010PropOp29
 70
     1
102
RTVSPost2010Prop30
280
     1
102
RTVSPost2010PropOp30
 70
     1
102
RTVSPost2010Prop31
280
     0
102
RTVSPost2010PropOp31
 70
     1
102
RTVSPost2010Prop32
280
     0
102
RTVSPost2010PropOp32
 70
     1
102
RTVSPost2010Prop33
280
     0
102
RTVSPost2010PropOp33
 70
     1
102
RTVSPost2010Prop34
280
     0
102
RTVSPost2010PropOp34
 70
     1
102
RTVSPost2010Prop35
280
     0
102
RTVSPost2010PropOp35
 70
     1
102
RTVSPost2010Prop36
280
     0
102
RTVSPost2010PropOp36
 70
     1
102
RTVSPost2010Prop37
 90
       50
102
RTVSPost2010PropOp37
 70
     1
102
RTVSPost2010Prop38
140
0.0
102
RTVSPost2010PropOp38
 70
     1
102
RTVSPost2010Prop39
140
1.0
102
RTVSPost2010PropOp39
 70
     1
102
RTVSPost2010Prop40
 90
        0
102
RTVSPost2010PropOp40
 70
     1
102
RTVSPost2010Prop41ColorIndex
 90
       18
102
RTVSPost2010Prop41ColorRGB
 90
        0
102
RTVSPost2010PropOp41
 70
     1
102
RTVSPost2010Prop42
 90
       50
102
RTVSPost2010PropOp42
 70
     1
102
RTVSPost2010Prop43
 90
        3
102
RTVSPost2010PropOp43
 70
     1
102
RTVSPost2010Prop44ColorIndex
 90
        5
102
RTVSPost2010Prop44ColorRGB
 90
      255
102
RTVSPost2010PropOp44
 70
     1
102
RTVSPost2010Prop45
280
     0
102
RTVSPost2010PropOp45
 70
     1
102
RTVSPost2010Prop46
 90
       50
102
RTVSPost2010PropOp46
 70
     1
102
RTVSPost2010Prop47
 90
       50
102
RTVSPost2010PropOp47
 70
     1
102
RTVSPost2010Prop48
 90
       50
102
RTVSPost2010PropOp48
 70
     1
102
RTVSPost2010Prop49
280
     0
102
RTVSPost2010PropOp49
 70
     1
102
RTVSPost2010Prop50
 90
       50
102
RTVSPost2010PropOp50
 70
     1
102
RTVSPost2010Prop51ColorIndex
 90
      256
102
RTVSPost2010Prop51ColorRGB
 90
-16777216
102
RTVSPost2010PropOp51
 70
     0
102
RTVSPost2010Prop52
140
1.0
102
RTVSPost2010PropOp52
 70
     0
102
RTVSPost2010Prop53
 90
        2
102
RTVSPost2010PropOp53
 70
     1
102
RTVSPost2010Prop54
  1
strokes_ogs.tif
102
RTVSPost2010PropOp54
 70
     1
102
RTVSPost2010Prop55
280
     0
102
RTVSPost2010PropOp55
 70
     1
102
RTVSPost2010Prop56
140
1.0
102
RTVSPost2010PropOp56
 70
     1
102
RTVSPost2010Prop57
140
1.0
102
RTVSPost2010PropOp57
 70
     1
102
RTVSPropertyOp0
 70
     1
102
RTVSPropertyOp1
 70
     1
102
RTVSPropertyOp2
 70
     1
102
RTVSPropertyOp3
 70
     1
102
RTVSPropertyOp4
 70
     1
102
RTVSPropertyOp5
 70
     1
102
RTVSPropertyOp6
 70
     1
102
RTVSPropertyOp7
 70
     1
102
RTVSPropertyOp8
 70
     1
102
RTVSPropertyOp9
 70
     1
102
RTVSPropertyOp10
 70
     1
102
RTVSPropertyOp11
 70
     1
102
RTVSPropertyOp12
 70
     1
102
RTVSPropertyOp13
 70
     1
102
RTVSPropertyOp14
 70
     1
102
RTVSPropertyOp15
 70
     1
102
RTVSPropertyOp16
 70
     1
102
RTVSPropertyOp17
 70
     1
102
RTVSPropertyOp18
 70
     1
102
RTVSPropertyOp19
 70
     1
102
RTVSPropertyOp20
 70
     1
102
RTVSPropertyOp21
 70
     1
102
RTVSPropertyOp22
 70
     1
102
RTVSPropertyOp23
 70
     1
102
RTVSPropertyOp24
 70
     1
102
RTVSPropertyOp25
 70
     1
102
RTVSPropertyOp26
 70
     1
102
RTVSPropertyOp27
 70
     1
102
RTVSPropertyOp28
 70
     1
102
RTVSPropertyOp29
 70
     1
102
RTVSPropertyOp30
 70
     1
102
RTVSPropertyOp31
 70
     1
102
RTVSPropertyOp32
 70
     1
102
RTVSPropertyOp33
 70
     1
102
RTVSPropertyOp34
 70
     1
102
RTVSPropertyOp35
 70
     1
102
RTVSPropertyOp36
 70
     1
102
RTVSPropertyOp37
 70
     1
102
RTVSPropertyOp38
 70
     1
102
RTVSPropertyOp39
 70
     1
102
RTVSPropertyOp40
 70
     1
102
RTVSPropertyOp41
 70
     1
102
RTVSPropertyOp42
 70
     1
102
RTVSPropertyOp43
 70
     1
102
RTVSPropertyOp44
 70
     1
102
RTVSPropertyOp45
 70
     1
102
RTVSPropertyOp46
 70
     1
102
RTVSPropertyOp47
 70
     1
102
RTVSPropertyOp48
 70
     1
102
RTVSPropertyOp49
 70
     1
102
RTVSPropertyOp50
 70
     1
102
RTVSPropertyOp51
 70
     0
102
RTVSPropertyOp52
 70
     0
102
RTVSPropertyOp53
 70
     1
102
RTVSPropertyOp54
 70
     1
102
RTVSPropertyOp55
 70
     1
102
RTVSPropertyOp56
 70
     1
102
RTVSPropertyOp57
 70
     1
102
RTVSPropertyOp58
 70
     1
102
RTVSPropertyOp59
 70
     1
102
RTVSPropertyOp60
 70
     1
102
RTVSPropertyOp61
 70
     1
102
RTVSPropertyOp62
 70
     1
  0
ENDSEC
  0
EOF
