  0
SECTION
  2
HEADER
  9
$ACADVER
  1
AC1015
  9
$ACADMAINTVER
 70
    20
  9
$DWGCODEPAGE
  3
ANSI_932
  9
$INSBASE
 10
0.0
 20
0.0
 30
0.0
  9
$EXTMIN
 10
9.99995
 20
9.999999999999998
 30
0.0
  9
$EXTMAX
 10
263.3219029999998
 20
143.5
 30
0.0
  9
$LIMMIN
 10
0.0
 20
0.0
  9
$LIMMAX
 10
396.0
 20
273.0
  9
$ORTHOMODE
 70
     0
  9
$REGENMODE
 70
     1
  9
$FILLMODE
 70
     1
  9
$QTEXTMODE
 70
     0
  9
$MIRRTEXT
 70
     1
  9
$LTSCALE
 40
20.0
  9
$ATTMODE
 70
     1
  9
$TEXTSIZE
 40
5.0
  9
$TRACEWID
 40
1.0
  9
$TEXTSTYLE
  7
STANDARD
  9
$CLAYER
  8
0
  9
$CELTYPE
  6
BYLAYER
  9
$CECOLOR
 62
   256
  9
$CELTSCALE
 40
1.0
  9
$DISPSILH
 70
     0
  9
$DIMSCALE
 40
1.0
  9
$DIMASZ
 40
3.0
  9
$DIMEXO
 40
1.0
  9
$DIMDLI
 40
10.0
  9
$DIMRND
 40
0.0
  9
$DIMDLE
 40
0.0
  9
$DIMEXE
 40
1.0
  9
$DIMTP
 40
0.0
  9
$DIMTM
 40
0.0
  9
$DIMTXT
 40
3.2
  9
$DIMCEN
 40
0.0
  9
$DIMTSZ
 40
0.0
  9
$DIMTOL
 70
     0
  9
$DIMLIM
 70
     0
  9
$DIMTIH
 70
     0
  9
$DIMTOH
 70
     0
  9
$DIMSE1
 70
     0
  9
$DIMSE2
 70
     0
  9
$DIMTAD
 70
     3
  9
$DIMZIN
 70
     8
  9
$DIMBLK
  1

  9
$DIMASO
 70
     1
  9
$DIMSHO
 70
     1
  9
$DIMPOST
  1

  9
$DIMAPOST
  1

  9
$DIMALT
 70
     0
  9
$DIMALTD
 70
     2
  9
$DIMALTF
 40
25.4
  9
$DIMLFAC
 40
1.0
  9
$DIMTOFL
 70
     1
  9
$DIMTVP
 40
0.0
  9
$DIMTIX
 70
     0
  9
$DIMSOXD
 70
     0
  9
$DIMSAH
 70
     1
  9
$DIMBLK1
  1

  9
$DIMBLK2
  1

  9
$DIMSTYLE
  2
STANDARD
  9
$DIMCLRD
 70
     0
  9
$DIMCLRE
 70
     0
  9
$DIMCLRT
 70
     0
  9
$DIMTFAC
 40
1.0
  9
$DIMGAP
 40
1.0
  9
$DIMJUST
 70
     0
  9
$DIMSD1
 70
     0
  9
$DIMSD2
 70
     0
  9
$DIMTOLJ
 70
     1
  9
$DIMTZIN
 70
     0
  9
$DIMALTZ
 70
     0
  9
$DIMALTTZ
 70
     0
  9
$DIMUPT
 70
     0
  9
$DIMDEC
 70
     4
  9
$DIMTDEC
 70
     4
  9
$DIMALTU
 70
     2
  9
$DIMALTTD
 70
     2
  9
$DIMTXSTY
  7
STANDARD
  9
$DIMAUNIT
 70
     0
  9
$DIMADEC
 70
     0
  9
$DIMALTRND
 40
0.0
  9
$DIMAZIN
 70
     0
  9
$DIMDSEP
 70
    46
  9
$DIMATFIT
 70
     3
  9
$DIMFRAC
 70
     0
  9
$DIMLDRBLK
  1

  9
$DIMLUNIT
 70
     2
  9
$DIMLWD
 70
    -2
  9
$DIMLWE
 70
    -2
  9
$DIMTMOVE
 70
     0
  9
$LUNITS
 70
     2
  9
$LUPREC
 70
     4
  9
$SKETCHINC
 40
1.0
  9
$FILLETRAD
 40
0.5
  9
$AUNITS
 70
     0
  9
$AUPREC
 70
     2
  9
$MENU
  1
.
  9
$ELEVATION
 40
0.0
  9
$PELEVATION
 40
0.0
  9
$THICKNESS
 40
0.0
  9
$LIMCHECK
 70
     0
  9
$CHAMFERA
 40
10.0
  9
$CHAMFERB
 40
10.0
  9
$CHAMFERC
 40
0.0
  9
$CHAMFERD
 40
0.0
  9
$SKPOLY
 70
     0
  9
$TDCREATE
 40
2451285.444331944
  9
$TDUCREATE
 40
2451285.069331945
  9
$TDUPDATE
 40
2457192.659194063
  9
$TDUUPDATE
 40
2457192.284194062
  9
$TDINDWG
 40
0.0000112384
  9
$TDUSRTIMER
 40
0.0000107407
  9
$USRTIMER
 70
     1
  9
$ANGBASE
 50
0.0
  9
$ANGDIR
 70
     0
  9
$PDMODE
 70
    34
  9
$PDSIZE
 40
0.0
  9
$PLINEWID
 40
0.0
  9
$SPLFRAME
 70
     0
  9
$SPLINETYPE
 70
     6
  9
$SPLINESEGS
 70
     8
  9
$HANDSEED
  5
E644
  9
$SURFTAB1
 70
     6
  9
$SURFTAB2
 70
     6
  9
$SURFTYPE
 70
     6
  9
$SURFU
 70
     6
  9
$SURFV
 70
     6
  9
$UCSBASE
  2

  9
$UCSNAME
  2

  9
$UCSORG
 10
0.0
 20
0.0
 30
0.0
  9
$UCSXDIR
 10
1.0
 20
0.0
 30
0.0
  9
$UCSYDIR
 10
0.0
 20
1.0
 30
0.0
  9
$UCSORTHOREF
  2

  9
$UCSORTHOVIEW
 70
     0
  9
$UCSORGTOP
 10
0.0
 20
0.0
 30
0.0
  9
$UCSORGBOTTOM
 10
0.0
 20
0.0
 30
0.0
  9
$UCSORGLEFT
 10
0.0
 20
0.0
 30
0.0
  9
$UCSORGRIGHT
 10
0.0
 20
0.0
 30
0.0
  9
$UCSORGFRONT
 10
0.0
 20
0.0
 30
0.0
  9
$UCSORGBACK
 10
0.0
 20
0.0
 30
0.0
  9
$PUCSBASE
  2

  9
$PUCSNAME
  2

  9
$PUCSORG
 10
0.0
 20
0.0
 30
0.0
  9
$PUCSXDIR
 10
1.0
 20
0.0
 30
0.0
  9
$PUCSYDIR
 10
0.0
 20
1.0
 30
0.0
  9
$PUCSORTHOREF
  2

  9
$PUCSORTHOVIEW
 70
     0
  9
$PUCSORGTOP
 10
0.0
 20
0.0
 30
0.0
  9
$PUCSORGBOTTOM
 10
0.0
 20
0.0
 30
0.0
  9
$PUCSORGLEFT
 10
0.0
 20
0.0
 30
0.0
  9
$PUCSORGRIGHT
 10
0.0
 20
0.0
 30
0.0
  9
$PUCSORGFRONT
 10
0.0
 20
0.0
 30
0.0
  9
$PUCSORGBACK
 10
0.0
 20
0.0
 30
0.0
  9
$USERI1
 70
     0
  9
$USERI2
 70
     0
  9
$USERI3
 70
     0
  9
$USERI4
 70
     0
  9
$USERI5
 70
     0
  9
$USERR1
 40
0.0
  9
$USERR2
 40
0.0
  9
$USERR3
 40
0.0
  9
$USERR4
 40
0.0
  9
$USERR5
 40
0.0
  9
$WORLDVIEW
 70
     1
  9
$SHADEDGE
 70
     3
  9
$SHADEDIF
 70
    70
  9
$TILEMODE
 70
     1
  9
$MAXACTVP
 70
    16
  9
$PINSBASE
 10
0.0
 20
0.0
 30
0.0
  9
$PLIMCHECK
 70
     0
  9
$PEXTMIN
 10
1.000000000000000E+20
 20
1.000000000000000E+20
 30
1.000000000000000E+20
  9
$PEXTMAX
 10
-1.000000000000000E+20
 20
-1.000000000000000E+20
 30
-1.000000000000000E+20
  9
$PLIMMIN
 10
0.0
 20
0.0
  9
$PLIMMAX
 10
420.0
 20
297.0
  9
$UNITMODE
 70
     0
  9
$VISRETAIN
 70
     0
  9
$PLINEGEN
 70
     0
  9
$PSLTSCALE
 70
     0
  9
$TREEDEPTH
 70
  3020
  9
$CMLSTYLE
  2
STANDARD
  9
$CMLJUST
 70
     0
  9
$CMLSCALE
 40
1.0
  9
$PROXYGRAPHICS
 70
     1
  9
$MEASUREMENT
 70
     0
  9
$CELWEIGHT
370
    -1
  9
$ENDCAPS
280
     0
  9
$JOINSTYLE
280
     0
  9
$LWDISPLAY
290
     0
  9
$INSUNITS
 70
     0
  9
$HYPERLINKBASE
  1

  9
$STYLESHEET
  1

  9
$XEDIT
290
     1
  9
$CEPSNTYPE
380
     0
  9
$PSTYLEMODE
290
     1
  9
$FINGERPRINTGUID
  2
{B744DBE9-00C3-4808-B726-6DEB3F884F68}
  9
$VERSIONGUID
  2
{F0D03827-B102-4B59-BB97-4D67B7395A60}
  9
$EXTNAMES
290
     1
  9
$PSVPSCALE
 40
0.0
  9
$OLESTARTUP
290
     0
  0
ENDSEC
  0
SECTION
  2
CLASSES
  0
CLASS
  1
ACDBDICTIONARYWDFLT
  2
AcDbDictionaryWithDefault
  3
ObjectDBX Classes
 90
        0
280
     0
281
     0
  0
CLASS
  1
ACDBPLACEHOLDER
  2
AcDbPlaceHolder
  3
ObjectDBX Classes
 90
        0
280
     0
281
     0
  0
CLASS
  1
LAYOUT
  2
AcDbLayout
  3
ObjectDBX Classes
 90
        0
280
     0
281
     0
  0
CLASS
  1
DICTIONARYVAR
  2
AcDbDictionaryVar
  3
ObjectDBX Classes
 90
        0
280
     0
281
     0
  0
CLASS
  1
MATERIAL
  2
AcDbMaterial
  3
ObjectDBX Classes
 90
     1153
280
     0
281
     0
  0
CLASS
  1
VISUALSTYLE
  2
AcDbVisualStyle
  3
ObjectDBX Classes
 90
     4095
280
     0
281
     0
  0
CLASS
  1
TABLESTYLE
  2
AcDbTableStyle
  3
ObjectDBX Classes
 90
     4095
280
     0
281
     0
  0
CLASS
  1
SCALE
  2
AcDbScale
  3
ObjectDBX Classes
 90
     1153
280
     0
281
     0
  0
CLASS
  1
MLEADERSTYLE
  2
AcDbMLeaderStyle
  3
ACDB_MLEADERSTYLE_CLASS
 90
     4095
280
     0
281
     0
  0
CLASS
  1
ACDBSECTIONVIEWSTYLE
  2
AcDbSectionViewStyle
  3
ObjectDBX Classes
 90
     1025
280
     0
281
     0
  0
CLASS
  1
ACDBDETAILVIEWSTYLE
  2
AcDbDetailViewStyle
  3
ObjectDBX Classes
 90
     1025
280
     0
281
     0
  0
CLASS
  1
CELLSTYLEMAP
  2
AcDbCellStyleMap
  3
ObjectDBX Classes
 90
     1152
280
     0
281
     0
  0
ENDSEC
  0
SECTION
  2
TABLES
  0
TABLE
  2
VPORT
  5
E37D
330
0
100
AcDbSymbolTable
 70
     1
  0
VPORT
  5
E58D
330
E37D
100
AcDbSymbolTableRecord
100
AcDbViewportTableRecord
  2
*ACTIVE
 70
     0
 10
0.0
 20
0.0
 11
1.0
 21
1.0
 12
180.2908882175618
 22
76.75417384488288
 13
0.0
 23
0.0
 14
10.0
 24
10.0
 15
10.0
 25
10.0
 16
0.0
 26
0.0
 36
1.0
 17
0.0
 27
0.0
 37
0.0
 40
145.6341345728228
 41
1.899603698811096
 42
50.0
 43
0.0
 44
0.0
 50
0.0
 51
0.0
 71
     0
 72
   100
 73
     1
 74
     0
 75
     0
 76
     0
 77
     0
 78
     0
281
     0
 65
     1
110
0.0
120
0.0
130
0.0
111
1.0
121
0.0
131
0.0
112
0.0
122
1.0
132
0.0
 79
     0
146
0.0
1001
ACAD_NAV_VCDISPLAY
1070
     3
  0
ENDTAB
  0
TABLE
  2
LTYPE
  5
E37A
330
0
100
AcDbSymbolTable
 70
     4
  0
LTYPE
  5
E388
330
E37A
100
AcDbSymbolTableRecord
100
AcDbLinetypeTableRecord
  2
BYBLOCK
 70
     0
  3

 72
    65
 73
     0
 40
0.0
  0
LTYPE
  5
E389
330
E37A
100
AcDbSymbolTableRecord
100
AcDbLinetypeTableRecord
  2
BYLAYER
 70
     0
  3

 72
    65
 73
     0
 40
0.0
  0
LTYPE
  5
E38A
330
E37A
100
AcDbSymbolTableRecord
100
AcDbLinetypeTableRecord
  2
CONTINUOUS
 70
     0
  3
Solid line
 72
    65
 73
     0
 40
0.0
  0
LTYPE
  5
E398
330
E37A
100
AcDbSymbolTableRecord
100
AcDbLinetypeTableRecord
  2
DASHED
 70
     0
  3
__ __ __ __ __ __ __ __ __ __ __ __ __ __ __ __
 72
    65
 73
     2
 40
0.75
 49
0.5
 74
     0
 49
-0.25
 74
     0
  0
LTYPE
  5
E399
330
E37A
100
AcDbSymbolTableRecord
100
AcDbLinetypeTableRecord
  2
CENTER
 70
     0
  3
____ _ ____ _ ____ _ ____ _ ____ _ ____ _ ____ 
 72
    65
 73
     4
 40
2.0
 49
1.25
 74
     0
 49
-0.25
 74
     0
 49
0.25
 74
     0
 49
-0.25
 74
     0
  0
LTYPE
  5
E39A
330
E37A
100
AcDbSymbolTableRecord
100
AcDbLinetypeTableRecord
  2
PHANTOM
 70
     0
  3
______  __  __  ______  __  __  ______  __  __ 
 72
    65
 73
     6
 40
2.5
 49
1.25
 74
     0
 49
-0.25
 74
     0
 49
0.25
 74
     0
 49
-0.25
 74
     0
 49
0.25
 74
     0
 49
-0.25
 74
     0
  0
ENDTAB
  0
TABLE
  2
LAYER
  5
E377
330
0
100
AcDbSymbolTable
 70
     8
  0
LAYER
  5
E385
102
{ACAD_XDICTIONARY
360
E5E8
102
}
330
E377
100
AcDbSymbolTableRecord
100
AcDbLayerTableRecord
  2
0
 70
     0
 62
     7
  6
CONTINUOUS
370
    -3
390
E596
  0
LAYER
  5
E39B
102
{ACAD_XDICTIONARY
360
E5EA
102
}
330
E377
100
AcDbSymbolTableRecord
100
AcDbLayerTableRecord
  2
4
 70
     0
 62
     1
  6
CENTER
370
    -3
390
E596
  0
LAYER
  5
E39C
102
{ACAD_XDICTIONARY
360
E5EC
102
}
330
E377
100
AcDbSymbolTableRecord
100
AcDbLayerTableRecord
  2
5
 70
     0
 62
     6
  6
PHANTOM
370
    -3
390
E596
  0
LAYER
  5
E39D
102
{ACAD_XDICTIONARY
360
E5EE
102
}
330
E377
100
AcDbSymbolTableRecord
100
AcDbLayerTableRecord
  2
1
 70
     0
 62
     7
  6
CONTINUOUS
370
    -3
390
E596
  0
LAYER
  5
E39E
102
{ACAD_XDICTIONARY
360
E5F0
102
}
330
E377
100
AcDbSymbolTableRecord
100
AcDbLayerTableRecord
  2
2
 70
     0
 62
     4
  6
CONTINUOUS
370
    -3
390
E596
  0
LAYER
  5
E39F
102
{ACAD_XDICTIONARY
360
E5F2
102
}
330
E377
100
AcDbSymbolTableRecord
100
AcDbLayerTableRecord
  2
3
 70
     0
 62
     2
  6
DASHED
370
    -3
390
E596
  0
LAYER
  5
E3A0
102
{ACAD_XDICTIONARY
360
E5F4
102
}
330
E377
100
AcDbSymbolTableRecord
100
AcDbLayerTableRecord
  2
6
 70
     0
 62
     5
  6
CONTINUOUS
370
    -3
390
E596
  0
LAYER
  5
E3A1
102
{ACAD_XDICTIONARY
360
E5F6
102
}
330
E377
100
AcDbSymbolTableRecord
100
AcDbLayerTableRecord
  2
7
 70
     0
 62
     3
  6
CONTINUOUS
370
    -3
390
E596
  0
ENDTAB
  0
TABLE
  2
STYLE
  5
E378
330
0
100
AcDbSymbolTable
 70
     1
  0
STYLE
  5
E386
330
E378
100
AcDbSymbolTableRecord
100
AcDbTextStyleTableRecord
  2
STANDARD
 70
     0
 40
0.0
 41
1.0
 50
0.0
 71
     0
 42
5.0
  3
txt
  4

  0
ENDTAB
  0
TABLE
  2
VIEW
  5
E37B
330
0
100
AcDbSymbolTable
 70
     2
  0
VIEW
  5
E3A2
330
E37B
100
AcDbSymbolTableRecord
100
AcDbViewTableRecord
  2
7
 70
     0
 40
113.5991649999999
 10
207.7781589999999
 20
100.5444229999999
 41
223.824098
 11
0.0
 21
0.0
 31
1.0
 12
0.0
 22
0.0
 32
0.0
 42
50.0
 43
0.0
 44
0.0
 50
0.0
 71
     0
281
     0
 72
     0
  0
VIEW
  5
E3A3
330
E37B
100
AcDbSymbolTableRecord
100
AcDbViewTableRecord
  2
6
 70
     0
 40
267.146964
 10
253.9720659999999
 20
125.781695
 41
526.35887
 11
0.0
 21
0.0
 31
1.0
 12
0.0
 22
0.0
 32
0.0
 42
50.0
 43
0.0
 44
0.0
 50
0.0
 71
     0
281
     0
 72
     0
  0
ENDTAB
  0
TABLE
  2
UCS
  5
E37C
330
0
100
AcDbSymbolTable
 70
     0
  0
ENDTAB
  0
TABLE
  2
APPID
  5
E37E
330
0
100
AcDbSymbolTable
 70
     3
  0
APPID
  5
E387
330
E37E
100
AcDbSymbolTableRecord
100
AcDbRegAppTableRecord
  2
ACAD
 70
     0
  0
APPID
  5
E602
330
E37E
100
AcDbSymbolTableRecord
100
AcDbRegAppTableRecord
  2
ACAD_NAV_VCDISPLAY
 70
     0
  0
APPID
  5
E63B
330
E37E
100
AcDbSymbolTableRecord
100
AcDbRegAppTableRecord
  2
ACAD_MLEADERVER
 70
     0
  0
ENDTAB
  0
TABLE
  2
DIMSTYLE
  5
E37F
330
0
100
AcDbSymbolTable
 70
     1
100
AcDbDimStyleTable
 71
     0
  0
DIMSTYLE
105
E3A5
330
E37F
100
AcDbSymbolTableRecord
100
AcDbDimStyleTableRecord
  2
STANDARD
 70
     0
 41
3.0
 42
1.0
 43
10.0
 44
1.0
 73
     0
 74
     0
 77
     3
 78
     8
140
3.2
141
0.0
147
1.0
172
     1
173
     1
284
     8
285
     8
286
     8
340
E386
  0
ENDTAB
  0
TABLE
  2
BLOCK_RECORD
  5
E376
330
0
100
AcDbSymbolTable
 70
     0
  0
BLOCK_RECORD
  5
E393
102
{ACAD_XDICTIONARY
360
E590
102
}
330
E376
100
AcDbSymbolTableRecord
100
AcDbBlockTableRecord
  2
*MODEL_SPACE
340
E5E4
  0
BLOCK_RECORD
  5
E38F
102
{ACAD_XDICTIONARY
360
E58E
102
}
330
E376
100
AcDbSymbolTableRecord
100
AcDbBlockTableRecord
  2
*PAPER_SPACE
340
E5E5
  0
ENDTAB
  0
ENDSEC
  0
SECTION
  2
BLOCKS
  0
BLOCK
  5
E394
330
E393
100
AcDbEntity
  8
0
100
AcDbBlockBegin
  2
*MODEL_SPACE
 70
     0
 10
0.0
 20
0.0
 30
0.0
  3
*MODEL_SPACE
  1

  0
ENDBLK
  5
E395
330
E393
100
AcDbEntity
  8
0
100
AcDbBlockEnd
  0
BLOCK
  5
E390
330
E38F
100
AcDbEntity
 67
     1
  8
0
100
AcDbBlockBegin
  2
*PAPER_SPACE
 70
     0
 10
0.0
 20
0.0
 30
0.0
  3
*PAPER_SPACE
  1

  0
ENDBLK
  5
E391
330
E38F
100
AcDbEntity
 67
     1
  8
0
100
AcDbBlockEnd
  0
ENDSEC
  0
SECTION
  2
ENTITIES
  0
TEXT
  5
E3AD
330
E393
100
AcDbEntity
  8
6
  6
Continuous
100
AcDbText
 10
27.97945
 20
10.0487
 30
0.0
 40
1.399999999999999
  1
6
 41
1.069393
100
AcDbText
  0
TEXT
  5
E3AE
330
E393
100
AcDbEntity
  8
1
  6
Continuous
100
AcDbText
 10
17.97945
 20
10.0487
 30
0.0
 40
1.399999999999999
  1
1
 41
1.069393
100
AcDbText
  0
TEXT
  5
E3AF
330
E393
100
AcDbEntity
  8
1
  6
Continuous
100
AcDbText
 10
9.99995
 20
10.0
 30
0.0
 40
1.399999999999999
  1
LAYER
 41
1.009912999999997
100
AcDbText
  0
TEXT
  5
E3B0
330
E393
100
AcDbEntity
  8
2
  6
Continuous
100
AcDbText
 10
19.97944999999998
 20
10.0487
 30
0.0
 40
1.399999999999999
  1
2
 41
1.069393
100
AcDbText
  0
TEXT
  5
E3B1
330
E393
100
AcDbEntity
  8
3
  6
DASHED
100
AcDbText
 10
21.97945
 20
10.0487
 30
0.0
 40
1.399999999999999
  1
3
 41
1.069393
100
AcDbText
  0
TEXT
  5
E3B2
330
E393
100
AcDbEntity
  8
4
  6
CENTER
100
AcDbText
 10
23.97944999999999
 20
10.0487
 30
0.0
 40
1.399999999999999
  1
4
 41
1.069393
100
AcDbText
  0
TEXT
  5
E3B3
330
E393
100
AcDbEntity
  8
5
  6
PHANTOM
100
AcDbText
 10
25.97945
 20
10.0487
 30
0.0
 40
1.399999999999999
  1
5
 41
1.069393
100
AcDbText
  0
TEXT
  5
E3B4
330
E393
100
AcDbEntity
  8
7
  6
Continuous
100
AcDbText
 10
10.00005
 20
26.0
 30
0.0
 40
3.0
  1
CODE No.5866
 41
1.003962999999999
100
AcDbText
  0
TEXT
  5
E3B5
330
E393
100
AcDbEntity
  8
7
  6
Continuous
100
AcDbText
 10
10.00005
 20
18.0
 30
0.0
 40
3.0
  1
TYPE No.TM-14-1
 41
1.002350999999998
100
AcDbText
  0
TEXT
  5
E3B6
330
E393
100
AcDbEntity
  8
7
  6
Continuous
100
AcDbText
 10
29.97944999999999
 20
10.0487
 30
0.0
 40
1.399999999999999
  1
7
 41
1.069393
100
AcDbText
  0
CIRCLE
  5
E3B7
330
E393
100
AcDbEntity
  8
1
  6
Continuous
100
AcDbCircle
 10
37.4
 20
90.5
 30
0.0
 40
1.6
  0
CIRCLE
  5
E3B8
330
E393
100
AcDbEntity
  8
1
  6
Continuous
100
AcDbCircle
 10
41.9
 20
90.5
 30
0.0
 40
1.6
  0
CIRCLE
  5
E3B9
330
E393
100
AcDbEntity
  8
1
  6
Continuous
100
AcDbCircle
 10
46.39999999999999
 20
90.5
 30
0.0
 40
1.6
  0
CIRCLE
  5
E3BA
330
E393
100
AcDbEntity
  8
1
  6
Continuous
100
AcDbCircle
 10
50.89999999999999
 20
90.5
 30
0.0
 40
1.6
  0
CIRCLE
  5
E3BB
330
E393
100
AcDbEntity
  8
1
  6
Continuous
100
AcDbCircle
 10
55.4
 20
90.5
 30
0.0
 40
1.6
  0
CIRCLE
  5
E3BC
330
E393
100
AcDbEntity
  8
1
  6
Continuous
100
AcDbCircle
 10
59.9
 20
90.5
 30
0.0
 40
1.6
  0
LINE
  5
E3BD
330
E393
100
AcDbEntity
  8
1
  6
Continuous
100
AcDbLine
 10
39.467793
 20
90.90000000000001
 30
0.0
 11
40.350807
 21
90.90000000000001
 31
0.0
  0
LINE
  5
E3BE
330
E393
100
AcDbEntity
  8
1
  6
Continuous
100
AcDbLine
 10
39.467793
 20
90.09999999999999
 30
0.0
 11
40.350807
 21
90.09999999999999
 31
0.0
  0
LINE
  5
E3BF
330
E393
100
AcDbEntity
  8
1
  6
Continuous
100
AcDbLine
 10
43.44919299999999
 20
90.90000000000001
 30
0.0
 11
44.850807
 21
90.90000000000001
 31
0.0
  0
LINE
  5
E3C0
330
E393
100
AcDbEntity
  8
1
  6
Continuous
100
AcDbLine
 10
43.44919299999999
 20
90.09999999999999
 30
0.0
 11
44.850807
 21
90.09999999999999
 31
0.0
  0
LINE
  5
E3C1
330
E393
100
AcDbEntity
  8
1
  6
Continuous
100
AcDbLine
 10
47.949193
 20
90.90000000000001
 30
0.0
 11
49.350807
 21
90.90000000000001
 31
0.0
  0
LINE
  5
E3C2
330
E393
100
AcDbEntity
  8
1
  6
Continuous
100
AcDbLine
 10
47.949193
 20
90.09999999999999
 30
0.0
 11
49.350807
 21
90.09999999999999
 31
0.0
  0
LINE
  5
E3C3
330
E393
100
AcDbEntity
  8
1
  6
Continuous
100
AcDbLine
 10
52.44919300000001
 20
90.90000000000001
 30
0.0
 11
53.85080699999999
 21
90.90000000000001
 31
0.0
  0
LINE
  5
E3C4
330
E393
100
AcDbEntity
  8
1
  6
Continuous
100
AcDbLine
 10
52.44919300000001
 20
90.09999999999999
 30
0.0
 11
53.85080699999999
 21
90.09999999999999
 31
0.0
  0
LINE
  5
E3C5
330
E393
100
AcDbEntity
  8
1
  6
Continuous
100
AcDbLine
 10
56.94919300000001
 20
90.90000000000001
 30
0.0
 11
58.35080699999998
 21
90.90000000000001
 31
0.0
  0
LINE
  5
E3C6
330
E393
100
AcDbEntity
  8
1
  6
Continuous
100
AcDbLine
 10
56.94919300000001
 20
90.09999999999999
 30
0.0
 11
58.35080699999998
 21
90.09999999999999
 31
0.0
  0
CIRCLE
  5
E3C7
330
E393
100
AcDbEntity
  8
1
  6
Continuous
100
AcDbCircle
 10
68.9
 20
90.5
 30
0.0
 40
1.6
  0
LINE
  5
E3C8
330
E393
100
AcDbEntity
  8
1
  6
Continuous
100
AcDbLine
 10
65.94919299999999
 20
90.09999999999999
 30
0.0
 11
67.35080699999999
 21
90.09999999999999
 31
0.0
  0
LINE
  5
E3C9
330
E393
100
AcDbEntity
  8
1
  6
Continuous
100
AcDbLine
 10
65.94919299999999
 20
90.90000000000001
 30
0.0
 11
67.35080699999999
 21
90.90000000000001
 31
0.0
  0
CIRCLE
  5
E3CA
330
E393
100
AcDbEntity
  8
1
  6
Continuous
100
AcDbCircle
 10
64.40000000000001
 20
90.5
 30
0.0
 40
1.6
  0
CIRCLE
  5
E3CB
330
E393
100
AcDbEntity
  8
1
  6
Continuous
100
AcDbCircle
 10
82.4
 20
90.5
 30
0.0
 40
1.6
  0
LINE
  5
E3CC
330
E393
100
AcDbEntity
  8
1
  6
Continuous
100
AcDbLine
 10
79.44919299999998
 20
90.09999999999999
 30
0.0
 11
80.85080699999997
 21
90.09999999999999
 31
0.0
  0
LINE
  5
E3CD
330
E393
100
AcDbEntity
  8
1
  6
Continuous
100
AcDbLine
 10
79.44919299999998
 20
90.90000000000001
 30
0.0
 11
80.85080699999997
 21
90.90000000000001
 31
0.0
  0
LINE
  5
E3CE
330
E393
100
AcDbEntity
  8
1
  6
Continuous
100
AcDbLine
 10
74.94919299999998
 20
90.09999999999999
 30
0.0
 11
76.35080699999999
 21
90.09999999999999
 31
0.0
  0
LINE
  5
E3CF
330
E393
100
AcDbEntity
  8
1
  6
Continuous
100
AcDbLine
 10
74.94919299999998
 20
90.90000000000001
 30
0.0
 11
76.35080699999999
 21
90.90000000000001
 31
0.0
  0
LINE
  5
E3D0
330
E393
100
AcDbEntity
  8
1
  6
Continuous
100
AcDbLine
 10
70.449193
 20
90.09999999999999
 30
0.0
 11
71.85080699999997
 21
90.09999999999999
 31
0.0
  0
LINE
  5
E3D1
330
E393
100
AcDbEntity
  8
1
  6
Continuous
100
AcDbLine
 10
70.449193
 20
90.90000000000001
 30
0.0
 11
71.85080699999997
 21
90.90000000000001
 31
0.0
  0
CIRCLE
  5
E3D2
330
E393
100
AcDbEntity
  8
1
  6
Continuous
100
AcDbCircle
 10
77.9
 20
90.5
 30
0.0
 40
1.6
  0
CIRCLE
  5
E3D3
330
E393
100
AcDbEntity
  8
1
  6
Continuous
100
AcDbCircle
 10
73.4
 20
90.5
 30
0.0
 40
1.6
  0
LINE
  5
E3D4
330
E393
100
AcDbEntity
  8
1
  6
Continuous
100
AcDbLine
 10
83.94919299999997
 20
90.09999999999999
 30
0.0
 11
85.35080699999998
 21
90.09999999999999
 31
0.0
  0
LINE
  5
E3D5
330
E393
100
AcDbEntity
  8
1
  6
Continuous
100
AcDbLine
 10
83.94919299999997
 20
90.90000000000001
 30
0.0
 11
85.35080699999998
 21
90.90000000000001
 31
0.0
  0
CIRCLE
  5
E3D6
330
E393
100
AcDbEntity
  8
1
  6
Continuous
100
AcDbCircle
 10
86.90000000000003
 20
90.5
 30
0.0
 40
1.6
  0
CIRCLE
  5
E3D7
330
E393
100
AcDbEntity
  8
1
  6
Continuous
100
AcDbCircle
 10
127.4
 20
90.5
 30
0.0
 40
1.6
  0
CIRCLE
  5
E3D8
330
E393
100
AcDbEntity
  8
1
  6
Continuous
100
AcDbCircle
 10
95.90000000000001
 20
90.5
 30
0.0
 40
1.6
  0
LINE
  5
E3D9
330
E393
100
AcDbEntity
  8
1
  6
Continuous
100
AcDbLine
 10
92.94919300000001
 20
90.09999999999999
 30
0.0
 11
94.35080699999996
 21
90.09999999999999
 31
0.0
  0
LINE
  5
E3DA
330
E393
100
AcDbEntity
  8
1
  6
Continuous
100
AcDbLine
 10
92.94919300000001
 20
90.90000000000001
 30
0.0
 11
94.35080699999996
 21
90.90000000000001
 31
0.0
  0
CIRCLE
  5
E3DB
330
E393
100
AcDbEntity
  8
1
  6
Continuous
100
AcDbCircle
 10
91.4
 20
90.5
 30
0.0
 40
1.6
  0
CIRCLE
  5
E3DC
330
E393
100
AcDbEntity
  8
1
  6
Continuous
100
AcDbCircle
 10
109.4
 20
90.5
 30
0.0
 40
1.6
  0
LINE
  5
E3DD
330
E393
100
AcDbEntity
  8
1
  6
Continuous
100
AcDbLine
 10
106.4491929999998
 20
90.09999999999999
 30
0.0
 11
107.850807
 21
90.09999999999999
 31
0.0
  0
LINE
  5
E3DE
330
E393
100
AcDbEntity
  8
1
  6
Continuous
100
AcDbLine
 10
106.4491929999998
 20
90.90000000000001
 30
0.0
 11
107.850807
 21
90.90000000000001
 31
0.0
  0
LINE
  5
E3DF
330
E393
100
AcDbEntity
  8
1
  6
Continuous
100
AcDbLine
 10
101.949193
 20
90.09999999999999
 30
0.0
 11
103.3508069999999
 21
90.09999999999999
 31
0.0
  0
LINE
  5
E3E0
330
E393
100
AcDbEntity
  8
1
  6
Continuous
100
AcDbLine
 10
101.949193
 20
90.90000000000001
 30
0.0
 11
103.3508069999999
 21
90.90000000000001
 31
0.0
  0
LINE
  5
E3E1
330
E393
100
AcDbEntity
  8
1
  6
Continuous
100
AcDbLine
 10
97.44919299999999
 20
90.09999999999999
 30
0.0
 11
98.85080700000001
 21
90.09999999999999
 31
0.0
  0
LINE
  5
E3E2
330
E393
100
AcDbEntity
  8
1
  6
Continuous
100
AcDbLine
 10
97.44919299999999
 20
90.90000000000001
 30
0.0
 11
98.85080700000001
 21
90.90000000000001
 31
0.0
  0
CIRCLE
  5
E3E3
330
E393
100
AcDbEntity
  8
1
  6
Continuous
100
AcDbCircle
 10
104.9
 20
90.5
 30
0.0
 40
1.6
  0
CIRCLE
  5
E3E4
330
E393
100
AcDbEntity
  8
1
  6
Continuous
100
AcDbCircle
 10
100.4
 20
90.5
 30
0.0
 40
1.6
  0
LINE
  5
E3E5
330
E393
100
AcDbEntity
  8
1
  6
Continuous
100
AcDbLine
 10
124.4491929999998
 20
90.90000000000001
 30
0.0
 11
125.8508069999999
 21
90.90000000000001
 31
0.0
  0
LINE
  5
E3E6
330
E393
100
AcDbEntity
  8
1
  6
Continuous
100
AcDbLine
 10
124.4491929999998
 20
90.09999999999999
 30
0.0
 11
125.8508069999999
 21
90.09999999999999
 31
0.0
  0
CIRCLE
  5
E3E7
330
E393
100
AcDbEntity
  8
1
  6
Continuous
100
AcDbCircle
 10
118.4
 20
90.5
 30
0.0
 40
1.6
  0
LINE
  5
E3E8
330
E393
100
AcDbEntity
  8
1
  6
Continuous
100
AcDbLine
 10
119.9491929999998
 20
90.90000000000001
 30
0.0
 11
121.350807
 21
90.90000000000001
 31
0.0
  0
LINE
  5
E3E9
330
E393
100
AcDbEntity
  8
1
  6
Continuous
100
AcDbLine
 10
119.9491929999998
 20
90.09999999999999
 30
0.0
 11
121.350807
 21
90.09999999999999
 31
0.0
  0
CIRCLE
  5
E3EA
330
E393
100
AcDbEntity
  8
1
  6
Continuous
100
AcDbCircle
 10
122.9
 20
90.5
 30
0.0
 40
1.6
  0
LINE
  5
E3EB
330
E393
100
AcDbEntity
  8
1
  6
Continuous
100
AcDbLine
 10
110.9491929999998
 20
90.09999999999999
 30
0.0
 11
112.3508069999999
 21
90.09999999999999
 31
0.0
  0
LINE
  5
E3EC
330
E393
100
AcDbEntity
  8
1
  6
Continuous
100
AcDbLine
 10
110.9491929999998
 20
90.90000000000001
 30
0.0
 11
112.3508069999999
 21
90.90000000000001
 31
0.0
  0
CIRCLE
  5
E3ED
330
E393
100
AcDbEntity
  8
1
  6
Continuous
100
AcDbCircle
 10
113.9
 20
90.5
 30
0.0
 40
1.6
  0
CIRCLE
  5
E3EE
330
E393
100
AcDbEntity
  8
1
  6
Continuous
100
AcDbCircle
 10
140.8999999999998
 20
90.5
 30
0.0
 40
1.6
  0
LINE
  5
E3EF
330
E393
100
AcDbEntity
  8
1
  6
Continuous
100
AcDbLine
 10
137.9491929999998
 20
90.90000000000001
 30
0.0
 11
139.3508069999998
 21
90.90000000000001
 31
0.0
  0
LINE
  5
E3F0
330
E393
100
AcDbEntity
  8
1
  6
Continuous
100
AcDbLine
 10
137.9491929999998
 20
90.09999999999999
 30
0.0
 11
139.3508069999998
 21
90.09999999999999
 31
0.0
  0
CIRCLE
  5
E3F1
330
E393
100
AcDbEntity
  8
1
  6
Continuous
100
AcDbCircle
 10
131.9
 20
90.5
 30
0.0
 40
1.6
  0
LINE
  5
E3F2
330
E393
100
AcDbEntity
  8
1
  6
Continuous
100
AcDbLine
 10
128.9491929999998
 20
90.90000000000001
 30
0.0
 11
130.350807
 21
90.90000000000001
 31
0.0
  0
LINE
  5
E3F3
330
E393
100
AcDbEntity
  8
1
  6
Continuous
100
AcDbLine
 10
128.9491929999998
 20
90.09999999999999
 30
0.0
 11
130.350807
 21
90.09999999999999
 31
0.0
  0
LINE
  5
E3F4
330
E393
100
AcDbEntity
  8
1
  6
Continuous
100
AcDbLine
 10
133.4491929999997
 20
90.90000000000001
 30
0.0
 11
134.850807
 21
90.90000000000001
 31
0.0
  0
LINE
  5
E3F5
330
E393
100
AcDbEntity
  8
1
  6
Continuous
100
AcDbLine
 10
133.4491929999997
 20
90.09999999999999
 30
0.0
 11
134.850807
 21
90.09999999999999
 31
0.0
  0
CIRCLE
  5
E3F6
330
E393
100
AcDbEntity
  8
1
  6
Continuous
100
AcDbCircle
 10
136.4
 20
90.5
 30
0.0
 40
1.6
  0
CIRCLE
  5
E3F7
330
E393
100
AcDbEntity
  8
1
  6
Continuous
100
AcDbCircle
 10
181.4
 20
90.5
 30
0.0
 40
1.6
  0
CIRCLE
  5
E3F8
330
E393
100
AcDbEntity
  8
1
  6
Continuous
100
AcDbCircle
 10
149.9
 20
90.5
 30
0.0
 40
1.6
  0
LINE
  5
E3F9
330
E393
100
AcDbEntity
  8
1
  6
Continuous
100
AcDbLine
 10
146.9491929999998
 20
90.09999999999999
 30
0.0
 11
148.350807
 21
90.09999999999999
 31
0.0
  0
LINE
  5
E3FA
330
E393
100
AcDbEntity
  8
1
  6
Continuous
100
AcDbLine
 10
146.9491929999998
 20
90.90000000000001
 30
0.0
 11
148.350807
 21
90.90000000000001
 31
0.0
  0
CIRCLE
  5
E3FB
330
E393
100
AcDbEntity
  8
1
  6
Continuous
100
AcDbCircle
 10
145.4
 20
90.5
 30
0.0
 40
1.6
  0
CIRCLE
  5
E3FC
330
E393
100
AcDbEntity
  8
1
  6
Continuous
100
AcDbCircle
 10
163.4
 20
90.5
 30
0.0
 40
1.6
  0
LINE
  5
E3FD
330
E393
100
AcDbEntity
  8
1
  6
Continuous
100
AcDbLine
 10
160.4491929999998
 20
90.09999999999999
 30
0.0
 11
161.850807
 21
90.09999999999999
 31
0.0
  0
LINE
  5
E3FE
330
E393
100
AcDbEntity
  8
1
  6
Continuous
100
AcDbLine
 10
160.4491929999998
 20
90.90000000000001
 30
0.0
 11
161.850807
 21
90.90000000000001
 31
0.0
  0
LINE
  5
E3FF
330
E393
100
AcDbEntity
  8
1
  6
Continuous
100
AcDbLine
 10
155.9491929999998
 20
90.09999999999999
 30
0.0
 11
157.350807
 21
90.09999999999999
 31
0.0
  0
LINE
  5
E400
330
E393
100
AcDbEntity
  8
1
  6
Continuous
100
AcDbLine
 10
155.9491929999998
 20
90.90000000000001
 30
0.0
 11
157.350807
 21
90.90000000000001
 31
0.0
  0
LINE
  5
E401
330
E393
100
AcDbEntity
  8
1
  6
Continuous
100
AcDbLine
 10
151.4491929999998
 20
90.09999999999999
 30
0.0
 11
152.8508069999998
 21
90.09999999999999
 31
0.0
  0
LINE
  5
E402
330
E393
100
AcDbEntity
  8
1
  6
Continuous
100
AcDbLine
 10
151.4491929999998
 20
90.90000000000001
 30
0.0
 11
152.8508069999998
 21
90.90000000000001
 31
0.0
  0
CIRCLE
  5
E403
330
E393
100
AcDbEntity
  8
1
  6
Continuous
100
AcDbCircle
 10
158.9
 20
90.5
 30
0.0
 40
1.6
  0
CIRCLE
  5
E404
330
E393
100
AcDbEntity
  8
1
  6
Continuous
100
AcDbCircle
 10
154.4
 20
90.5
 30
0.0
 40
1.6
  0
LINE
  5
E405
330
E393
100
AcDbEntity
  8
1
  6
Continuous
100
AcDbLine
 10
178.4491929999999
 20
90.90000000000001
 30
0.0
 11
179.850807
 21
90.90000000000001
 31
0.0
  0
LINE
  5
E406
330
E393
100
AcDbEntity
  8
1
  6
Continuous
100
AcDbLine
 10
178.4491929999999
 20
90.09999999999999
 30
0.0
 11
179.850807
 21
90.09999999999999
 31
0.0
  0
CIRCLE
  5
E407
330
E393
100
AcDbEntity
  8
1
  6
Continuous
100
AcDbCircle
 10
172.4
 20
90.5
 30
0.0
 40
1.6
  0
LINE
  5
E408
330
E393
100
AcDbEntity
  8
1
  6
Continuous
100
AcDbLine
 10
173.9491929999998
 20
90.90000000000001
 30
0.0
 11
175.350807
 21
90.90000000000001
 31
0.0
  0
LINE
  5
E409
330
E393
100
AcDbEntity
  8
1
  6
Continuous
100
AcDbLine
 10
173.9491929999998
 20
90.09999999999999
 30
0.0
 11
175.350807
 21
90.09999999999999
 31
0.0
  0
CIRCLE
  5
E40A
330
E393
100
AcDbEntity
  8
1
  6
Continuous
100
AcDbCircle
 10
176.9
 20
90.5
 30
0.0
 40
1.6
  0
LINE
  5
E40B
330
E393
100
AcDbEntity
  8
1
  6
Continuous
100
AcDbLine
 10
164.9491929999998
 20
90.09999999999999
 30
0.0
 11
166.3508069999998
 21
90.09999999999999
 31
0.0
  0
LINE
  5
E40C
330
E393
100
AcDbEntity
  8
1
  6
Continuous
100
AcDbLine
 10
164.9491929999998
 20
90.90000000000001
 30
0.0
 11
166.3508069999998
 21
90.90000000000001
 31
0.0
  0
CIRCLE
  5
E40D
330
E393
100
AcDbEntity
  8
1
  6
Continuous
100
AcDbCircle
 10
167.9
 20
90.5
 30
0.0
 40
1.6
  0
CIRCLE
  5
E40E
330
E393
100
AcDbEntity
  8
1
  6
Continuous
100
AcDbCircle
 10
212.9
 20
90.5
 30
0.0
 40
1.6
  0
CIRCLE
  5
E40F
330
E393
100
AcDbEntity
  8
1
  6
Continuous
100
AcDbCircle
 10
194.9
 20
90.5
 30
0.0
 40
1.6
  0
LINE
  5
E410
330
E393
100
AcDbEntity
  8
1
  6
Continuous
100
AcDbLine
 10
191.9491929999999
 20
90.90000000000001
 30
0.0
 11
193.350807
 21
90.90000000000001
 31
0.0
  0
LINE
  5
E411
330
E393
100
AcDbEntity
  8
1
  6
Continuous
100
AcDbLine
 10
191.9491929999999
 20
90.09999999999999
 30
0.0
 11
193.350807
 21
90.09999999999999
 31
0.0
  0
CIRCLE
  5
E412
330
E393
100
AcDbEntity
  8
1
  6
Continuous
100
AcDbCircle
 10
185.8999999999998
 20
90.5
 30
0.0
 40
1.6
  0
LINE
  5
E413
330
E393
100
AcDbEntity
  8
1
  6
Continuous
100
AcDbLine
 10
182.9491929999998
 20
90.90000000000001
 30
0.0
 11
184.350807
 21
90.90000000000001
 31
0.0
  0
LINE
  5
E414
330
E393
100
AcDbEntity
  8
1
  6
Continuous
100
AcDbLine
 10
182.9491929999998
 20
90.09999999999999
 30
0.0
 11
184.350807
 21
90.09999999999999
 31
0.0
  0
LINE
  5
E415
330
E393
100
AcDbEntity
  8
1
  6
Continuous
100
AcDbLine
 10
187.4491929999998
 20
90.90000000000001
 30
0.0
 11
188.850807
 21
90.90000000000001
 31
0.0
  0
LINE
  5
E416
330
E393
100
AcDbEntity
  8
1
  6
Continuous
100
AcDbLine
 10
187.4491929999998
 20
90.09999999999999
 30
0.0
 11
188.850807
 21
90.09999999999999
 31
0.0
  0
CIRCLE
  5
E417
330
E393
100
AcDbEntity
  8
1
  6
Continuous
100
AcDbCircle
 10
190.4
 20
90.5
 30
0.0
 40
1.6
  0
CIRCLE
  5
E418
330
E393
100
AcDbEntity
  8
1
  6
Continuous
100
AcDbCircle
 10
208.4
 20
90.5
 30
0.0
 40
1.6
  0
LINE
  5
E419
330
E393
100
AcDbEntity
  8
1
  6
Continuous
100
AcDbLine
 10
205.4491929999998
 20
90.90000000000001
 30
0.0
 11
206.850807
 21
90.90000000000001
 31
0.0
  0
LINE
  5
E41A
330
E393
100
AcDbEntity
  8
1
  6
Continuous
100
AcDbLine
 10
205.4491929999998
 20
90.09999999999999
 30
0.0
 11
206.850807
 21
90.09999999999999
 31
0.0
  0
LINE
  5
E41B
330
E393
100
AcDbEntity
  8
1
  6
Continuous
100
AcDbLine
 10
209.949193
 20
90.90000000000001
 30
0.0
 11
211.3508069999999
 21
90.90000000000001
 31
0.0
  0
LINE
  5
E41C
330
E393
100
AcDbEntity
  8
1
  6
Continuous
100
AcDbLine
 10
209.949193
 20
90.09999999999999
 30
0.0
 11
211.3508069999999
 21
90.09999999999999
 31
0.0
  0
CIRCLE
  5
E41D
330
E393
100
AcDbEntity
  8
1
  6
Continuous
100
AcDbCircle
 10
199.3999999999998
 20
90.5
 30
0.0
 40
1.6
  0
LINE
  5
E41E
330
E393
100
AcDbEntity
  8
1
  6
Continuous
100
AcDbLine
 10
200.9491929999998
 20
90.90000000000001
 30
0.0
 11
202.350807
 21
90.90000000000001
 31
0.0
  0
LINE
  5
E41F
330
E393
100
AcDbEntity
  8
1
  6
Continuous
100
AcDbLine
 10
200.9491929999998
 20
90.09999999999999
 30
0.0
 11
202.350807
 21
90.09999999999999
 31
0.0
  0
CIRCLE
  5
E420
330
E393
100
AcDbEntity
  8
1
  6
Continuous
100
AcDbCircle
 10
203.9
 20
90.5
 30
0.0
 40
1.6
  0
LINE
  5
E421
330
E393
100
AcDbEntity
  8
1
  6
Continuous
100
AcDbLine
 10
218.9491929999999
 20
90.90000000000001
 30
0.0
 11
219.8322069999999
 21
90.90000000000001
 31
0.0
  0
LINE
  5
E422
330
E393
100
AcDbEntity
  8
1
  6
Continuous
100
AcDbLine
 10
218.9491929999999
 20
90.09999999999999
 30
0.0
 11
219.8322069999999
 21
90.09999999999999
 31
0.0
  0
LINE
  5
E423
330
E393
100
AcDbEntity
  8
1
  6
Continuous
100
AcDbLine
 10
196.4491929999999
 20
90.90000000000001
 30
0.0
 11
197.850807
 21
90.90000000000001
 31
0.0
  0
LINE
  5
E424
330
E393
100
AcDbEntity
  8
1
  6
Continuous
100
AcDbLine
 10
196.4491929999999
 20
90.09999999999999
 30
0.0
 11
197.850807
 21
90.09999999999999
 31
0.0
  0
LINE
  5
E425
330
E393
100
AcDbEntity
  8
1
  6
Continuous
100
AcDbLine
 10
169.4491929999998
 20
90.90000000000001
 30
0.0
 11
170.850807
 21
90.90000000000001
 31
0.0
  0
LINE
  5
E426
330
E393
100
AcDbEntity
  8
1
  6
Continuous
100
AcDbLine
 10
169.4491929999998
 20
90.09999999999999
 30
0.0
 11
170.850807
 21
90.09999999999999
 31
0.0
  0
LINE
  5
E427
330
E393
100
AcDbEntity
  8
1
  6
Continuous
100
AcDbLine
 10
142.4491929999998
 20
90.90000000000001
 30
0.0
 11
143.850807
 21
90.90000000000001
 31
0.0
  0
LINE
  5
E428
330
E393
100
AcDbEntity
  8
1
  6
Continuous
100
AcDbLine
 10
142.4491929999998
 20
90.09999999999999
 30
0.0
 11
143.850807
 21
90.09999999999999
 31
0.0
  0
LINE
  5
E429
330
E393
100
AcDbEntity
  8
1
  6
Continuous
100
AcDbLine
 10
115.449193
 20
90.90000000000001
 30
0.0
 11
116.850807
 21
90.90000000000001
 31
0.0
  0
LINE
  5
E42A
330
E393
100
AcDbEntity
  8
1
  6
Continuous
100
AcDbLine
 10
115.449193
 20
90.09999999999999
 30
0.0
 11
116.850807
 21
90.09999999999999
 31
0.0
  0
LINE
  5
E42B
330
E393
100
AcDbEntity
  8
1
  6
Continuous
100
AcDbLine
 10
88.44919299999999
 20
90.90000000000001
 30
0.0
 11
89.85080700000002
 21
90.90000000000001
 31
0.0
  0
LINE
  5
E42C
330
E393
100
AcDbEntity
  8
1
  6
Continuous
100
AcDbLine
 10
88.44919299999999
 20
90.09999999999999
 30
0.0
 11
89.85080700000002
 21
90.09999999999999
 31
0.0
  0
LINE
  5
E42D
330
E393
100
AcDbEntity
  8
1
  6
Continuous
100
AcDbLine
 10
61.44919300000001
 20
90.90000000000001
 30
0.0
 11
62.85080699999999
 21
90.90000000000001
 31
0.0
  0
LINE
  5
E42E
330
E393
100
AcDbEntity
  8
1
  6
Continuous
100
AcDbLine
 10
61.44919300000001
 20
90.09999999999999
 30
0.0
 11
62.85080699999999
 21
90.09999999999999
 31
0.0
  0
LINE
  5
E42F
330
E393
100
AcDbEntity
  8
4
  6
CENTER
100
AcDbLine
 10
37.4
 20
87.29999999999998
 30
0.0
 11
37.4
 21
93.7
 31
0.0
  0
CIRCLE
  5
E430
330
E393
100
AcDbEntity
  8
1
  6
Continuous
100
AcDbCircle
 10
217.3999999999999
 20
90.5
 30
0.0
 40
1.6
  0
LINE
  5
E431
330
E393
100
AcDbEntity
  8
1
  6
Continuous
100
AcDbLine
 10
214.449193
 20
90.90000000000001
 30
0.0
 11
215.8508069999999
 21
90.90000000000001
 31
0.0
  0
LINE
  5
E432
330
E393
100
AcDbEntity
  8
1
  6
Continuous
100
AcDbLine
 10
214.449193
 20
90.09999999999999
 30
0.0
 11
215.8508069999999
 21
90.09999999999999
 31
0.0
  0
LINE
  5
E433
330
E393
100
AcDbEntity
  8
4
  6
CENTER
100
AcDbLine
 10
28.5
 20
87.0
 30
0.0
 11
28.5
 21
90.0
 31
0.0
  0
LINE
  5
E434
330
E393
100
AcDbEntity
  8
4
  6
CENTER
100
AcDbLine
 10
37.0
 20
95.5
 30
0.0
 11
37.0
 21
85.5
 31
0.0
  0
LINE
  5
E435
330
E393
100
AcDbEntity
  8
4
  6
CENTER
100
AcDbLine
 10
227.3
 20
90.5
 30
0.0
 11
32.0
 21
90.5
 31
0.0
  0
LINE
  5
E436
330
E393
100
AcDbEntity
  8
1
  6
Continuous
100
AcDbLine
 10
25.0
 20
88.49999999999999
 30
0.0
 11
37.0
 21
88.49999999999999
 31
0.0
  0
LINE
  5
E437
330
E393
100
AcDbEntity
  8
1
  6
Continuous
100
AcDbLine
 10
25.0
 20
89.0
 30
0.0
 11
33.53589799999999
 21
89.0
 31
0.0
  0
LINE
  5
E438
330
E393
100
AcDbEntity
  8
1
  6
Continuous
100
AcDbLine
 10
25.0
 20
88.0
 30
0.0
 11
37.0
 21
88.0
 31
0.0
  0
LINE
  5
E439
330
E393
100
AcDbEntity
  8
1
  6
Continuous
100
AcDbLine
 10
25.0
 20
88.0
 30
0.0
 11
25.0
 21
89.0
 31
0.0
  0
ARC
  5
E43A
330
E393
100
AcDbEntity
  8
1
  6
Continuous
100
AcDbCircle
 10
37.0
 20
90.5
 30
0.0
 40
2.0
100
AcDbArc
 50
270.0
 51
188.213211
  0
ARC
  5
E43B
330
E393
100
AcDbEntity
  8
1
  6
Continuous
100
AcDbCircle
 10
33.53589799999999
 20
90.0
 30
0.0
 40
1.0
100
AcDbArc
 50
270.0
 51
8.213210999999997
  0
ARC
  5
E43C
330
E393
100
AcDbEntity
  8
1
  6
Continuous
100
AcDbCircle
 10
33.53589799999999
 20
90.0
 30
0.0
 40
1.5
100
AcDbArc
 50
270.0
 51
8.213210999999997
  0
LINE
  5
E43D
330
E393
100
AcDbEntity
  8
1
  6
Continuous
100
AcDbLine
 10
31.372281
 20
89.0
 30
0.0
 11
31.372281
 21
88.0
 31
0.0
  0
ARC
  5
E43E
330
E393
100
AcDbEntity
  8
1
  6
Continuous
100
AcDbCircle
 10
37.0
 20
90.5
 30
0.0
 40
2.5
100
AcDbArc
 50
270.0
 51
188.213211
  0
LINE
  5
E43F
330
E393
100
AcDbEntity
  8
1
  6
Continuous
100
AcDbLine
 10
121.350807
 20
136.0999999999999
 30
0.0
 11
119.9491929999998
 21
136.0999999999999
 31
0.0
  0
LINE
  5
E440
330
E393
100
AcDbEntity
  8
1
  6
Continuous
100
AcDbLine
 10
121.350807
 20
136.8999999999997
 30
0.0
 11
119.9491929999998
 21
136.8999999999997
 31
0.0
  0
CIRCLE
  5
E441
330
E393
100
AcDbEntity
  8
1
  6
Continuous
100
AcDbCircle
 10
185.8999999999998
 20
136.4999999999998
 30
0.0
 40
1.6
  0
CIRCLE
  5
E442
330
E393
100
AcDbEntity
  8
1
  6
Continuous
100
AcDbCircle
 10
194.9
 20
136.4999999999998
 30
0.0
 40
1.6
  0
CIRCLE
  5
E443
330
E393
100
AcDbEntity
  8
1
  6
Continuous
100
AcDbCircle
 10
190.4
 20
136.4999999999998
 30
0.0
 40
1.6
  0
CIRCLE
  5
E444
330
E393
100
AcDbEntity
  8
1
  6
Continuous
100
AcDbCircle
 10
199.3999999999998
 20
136.4999999999998
 30
0.0
 40
1.6
  0
CIRCLE
  5
E445
330
E393
100
AcDbEntity
  8
1
  6
Continuous
100
AcDbCircle
 10
203.9
 20
136.4999999999998
 30
0.0
 40
1.6
  0
CIRCLE
  5
E446
330
E393
100
AcDbEntity
  8
1
  6
Continuous
100
AcDbCircle
 10
208.4
 20
136.4999999999998
 30
0.0
 40
1.6
  0
CIRCLE
  5
E447
330
E393
100
AcDbEntity
  8
1
  6
Continuous
100
AcDbCircle
 10
212.9
 20
136.4999999999998
 30
0.0
 40
1.6
  0
CIRCLE
  5
E448
330
E393
100
AcDbEntity
  8
1
  6
Continuous
100
AcDbCircle
 10
217.3999999999999
 20
136.4999999999998
 30
0.0
 40
1.6
  0
LINE
  5
E449
330
E393
100
AcDbEntity
  8
1
  6
Continuous
100
AcDbLine
 10
220.3508069999998
 20
136.0999999999999
 30
0.0
 11
218.9491929999999
 21
136.0999999999999
 31
0.0
  0
LINE
  5
E44A
330
E393
100
AcDbEntity
  8
1
  6
Continuous
100
AcDbLine
 10
202.350807
 20
136.0999999999999
 30
0.0
 11
200.9491929999998
 21
136.0999999999999
 31
0.0
  0
LINE
  5
E44B
330
E393
100
AcDbEntity
  8
1
  6
Continuous
100
AcDbLine
 10
206.850807
 20
136.0999999999999
 30
0.0
 11
205.4491929999998
 21
136.0999999999999
 31
0.0
  0
LINE
  5
E44C
330
E393
100
AcDbEntity
  8
1
  6
Continuous
100
AcDbLine
 10
211.3508069999999
 20
136.0999999999999
 30
0.0
 11
209.949193
 21
136.0999999999999
 31
0.0
  0
LINE
  5
E44D
330
E393
100
AcDbEntity
  8
1
  6
Continuous
100
AcDbLine
 10
215.8508069999999
 20
136.0999999999999
 30
0.0
 11
214.449193
 21
136.0999999999999
 31
0.0
  0
LINE
  5
E44E
330
E393
100
AcDbEntity
  8
1
  6
Continuous
100
AcDbLine
 10
197.850807
 20
136.0999999999999
 30
0.0
 11
196.4491929999999
 21
136.0999999999999
 31
0.0
  0
LINE
  5
E44F
330
E393
100
AcDbEntity
  8
1
  6
Continuous
100
AcDbLine
 10
188.850807
 20
136.0999999999999
 30
0.0
 11
187.4491929999998
 21
136.0999999999999
 31
0.0
  0
LINE
  5
E450
330
E393
100
AcDbEntity
  8
1
  6
Continuous
100
AcDbLine
 10
193.350807
 20
136.0999999999999
 30
0.0
 11
191.9491929999999
 21
136.0999999999999
 31
0.0
  0
LINE
  5
E451
330
E393
100
AcDbEntity
  8
1
  6
Continuous
100
AcDbLine
 10
220.3508069999998
 20
136.8999999999997
 30
0.0
 11
218.9491929999999
 21
136.8999999999997
 31
0.0
  0
LINE
  5
E452
330
E393
100
AcDbEntity
  8
1
  6
Continuous
100
AcDbLine
 10
202.350807
 20
136.8999999999997
 30
0.0
 11
200.9491929999998
 21
136.8999999999997
 31
0.0
  0
LINE
  5
E453
330
E393
100
AcDbEntity
  8
1
  6
Continuous
100
AcDbLine
 10
206.850807
 20
136.8999999999997
 30
0.0
 11
205.4491929999998
 21
136.8999999999997
 31
0.0
  0
LINE
  5
E454
330
E393
100
AcDbEntity
  8
1
  6
Continuous
100
AcDbLine
 10
211.3508069999999
 20
136.8999999999997
 30
0.0
 11
209.949193
 21
136.8999999999997
 31
0.0
  0
LINE
  5
E455
330
E393
100
AcDbEntity
  8
1
  6
Continuous
100
AcDbLine
 10
215.8508069999999
 20
136.8999999999997
 30
0.0
 11
214.449193
 21
136.8999999999997
 31
0.0
  0
LINE
  5
E456
330
E393
100
AcDbEntity
  8
1
  6
Continuous
100
AcDbLine
 10
197.850807
 20
136.8999999999997
 30
0.0
 11
196.4491929999999
 21
136.8999999999997
 31
0.0
  0
LINE
  5
E457
330
E393
100
AcDbEntity
  8
1
  6
Continuous
100
AcDbLine
 10
188.850807
 20
136.8999999999997
 30
0.0
 11
187.4491929999998
 21
136.8999999999997
 31
0.0
  0
LINE
  5
E458
330
E393
100
AcDbEntity
  8
1
  6
Continuous
100
AcDbLine
 10
193.350807
 20
136.8999999999997
 30
0.0
 11
191.9491929999999
 21
136.8999999999997
 31
0.0
  0
CIRCLE
  5
E459
330
E393
100
AcDbEntity
  8
1
  6
Continuous
100
AcDbCircle
 10
122.9
 20
136.4999999999998
 30
0.0
 40
1.6
  0
CIRCLE
  5
E45A
330
E393
100
AcDbEntity
  8
1
  6
Continuous
100
AcDbCircle
 10
127.4
 20
136.4999999999998
 30
0.0
 40
1.6
  0
CIRCLE
  5
E45B
330
E393
100
AcDbEntity
  8
1
  6
Continuous
100
AcDbCircle
 10
145.4
 20
136.4999999999998
 30
0.0
 40
1.6
  0
CIRCLE
  5
E45C
330
E393
100
AcDbEntity
  8
1
  6
Continuous
100
AcDbCircle
 10
136.4
 20
136.4999999999998
 30
0.0
 40
1.6
  0
CIRCLE
  5
E45D
330
E393
100
AcDbEntity
  8
1
  6
Continuous
100
AcDbCircle
 10
140.8999999999998
 20
136.4999999999998
 30
0.0
 40
1.6
  0
CIRCLE
  5
E45E
330
E393
100
AcDbEntity
  8
1
  6
Continuous
100
AcDbCircle
 10
158.9
 20
136.4999999999998
 30
0.0
 40
1.6
  0
CIRCLE
  5
E45F
330
E393
100
AcDbEntity
  8
1
  6
Continuous
100
AcDbCircle
 10
154.4
 20
136.4999999999998
 30
0.0
 40
1.6
  0
CIRCLE
  5
E460
330
E393
100
AcDbEntity
  8
1
  6
Continuous
100
AcDbCircle
 10
149.9
 20
136.4999999999998
 30
0.0
 40
1.6
  0
CIRCLE
  5
E461
330
E393
100
AcDbEntity
  8
1
  6
Continuous
100
AcDbCircle
 10
167.9
 20
136.4999999999998
 30
0.0
 40
1.6
  0
CIRCLE
  5
E462
330
E393
100
AcDbEntity
  8
1
  6
Continuous
100
AcDbCircle
 10
163.4
 20
136.4999999999998
 30
0.0
 40
1.6
  0
CIRCLE
  5
E463
330
E393
100
AcDbEntity
  8
1
  6
Continuous
100
AcDbCircle
 10
131.9
 20
136.4999999999998
 30
0.0
 40
1.6
  0
CIRCLE
  5
E464
330
E393
100
AcDbEntity
  8
1
  6
Continuous
100
AcDbCircle
 10
172.4
 20
136.4999999999998
 30
0.0
 40
1.6
  0
CIRCLE
  5
E465
330
E393
100
AcDbEntity
  8
1
  6
Continuous
100
AcDbCircle
 10
181.4
 20
136.4999999999998
 30
0.0
 40
1.6
  0
CIRCLE
  5
E466
330
E393
100
AcDbEntity
  8
1
  6
Continuous
100
AcDbCircle
 10
176.9
 20
136.4999999999998
 30
0.0
 40
1.6
  0
LINE
  5
E467
330
E393
100
AcDbEntity
  8
1
  6
Continuous
100
AcDbLine
 10
152.8508069999998
 20
136.0999999999999
 30
0.0
 11
151.4491929999998
 21
136.0999999999999
 31
0.0
  0
LINE
  5
E468
330
E393
100
AcDbEntity
  8
1
  6
Continuous
100
AcDbLine
 10
170.850807
 20
136.0999999999999
 30
0.0
 11
169.4491929999998
 21
136.0999999999999
 31
0.0
  0
LINE
  5
E469
330
E393
100
AcDbEntity
  8
1
  6
Continuous
100
AcDbLine
 10
175.350807
 20
136.0999999999999
 30
0.0
 11
173.9491929999998
 21
136.0999999999999
 31
0.0
  0
LINE
  5
E46A
330
E393
100
AcDbEntity
  8
1
  6
Continuous
100
AcDbLine
 10
184.350807
 20
136.0999999999999
 30
0.0
 11
182.9491929999998
 21
136.0999999999999
 31
0.0
  0
LINE
  5
E46B
330
E393
100
AcDbEntity
  8
1
  6
Continuous
100
AcDbLine
 10
179.850807
 20
136.0999999999999
 30
0.0
 11
178.4491929999999
 21
136.0999999999999
 31
0.0
  0
LINE
  5
E46C
330
E393
100
AcDbEntity
  8
1
  6
Continuous
100
AcDbLine
 10
161.850807
 20
136.0999999999999
 30
0.0
 11
160.4491929999998
 21
136.0999999999999
 31
0.0
  0
LINE
  5
E46D
330
E393
100
AcDbEntity
  8
1
  6
Continuous
100
AcDbLine
 10
157.350807
 20
136.0999999999999
 30
0.0
 11
155.9491929999998
 21
136.0999999999999
 31
0.0
  0
LINE
  5
E46E
330
E393
100
AcDbEntity
  8
1
  6
Continuous
100
AcDbLine
 10
166.3508069999998
 20
136.0999999999999
 30
0.0
 11
164.9491929999998
 21
136.0999999999999
 31
0.0
  0
LINE
  5
E46F
330
E393
100
AcDbEntity
  8
1
  6
Continuous
100
AcDbLine
 10
143.850807
 20
136.0999999999999
 30
0.0
 11
142.4491929999998
 21
136.0999999999999
 31
0.0
  0
LINE
  5
E470
330
E393
100
AcDbEntity
  8
1
  6
Continuous
100
AcDbLine
 10
148.350807
 20
136.0999999999999
 30
0.0
 11
146.9491929999998
 21
136.0999999999999
 31
0.0
  0
LINE
  5
E471
330
E393
100
AcDbEntity
  8
1
  6
Continuous
100
AcDbLine
 10
139.3508069999998
 20
136.0999999999999
 30
0.0
 11
137.9491929999998
 21
136.0999999999999
 31
0.0
  0
LINE
  5
E472
330
E393
100
AcDbEntity
  8
1
  6
Continuous
100
AcDbLine
 10
125.8508069999999
 20
136.0999999999999
 30
0.0
 11
124.4491929999998
 21
136.0999999999999
 31
0.0
  0
LINE
  5
E473
330
E393
100
AcDbEntity
  8
1
  6
Continuous
100
AcDbLine
 10
130.350807
 20
136.0999999999999
 30
0.0
 11
128.9491929999998
 21
136.0999999999999
 31
0.0
  0
LINE
  5
E474
330
E393
100
AcDbEntity
  8
1
  6
Continuous
100
AcDbLine
 10
134.850807
 20
136.0999999999999
 30
0.0
 11
133.4491929999997
 21
136.0999999999999
 31
0.0
  0
LINE
  5
E475
330
E393
100
AcDbEntity
  8
1
  6
Continuous
100
AcDbLine
 10
152.8508069999998
 20
136.8999999999997
 30
0.0
 11
151.4491929999998
 21
136.8999999999997
 31
0.0
  0
LINE
  5
E476
330
E393
100
AcDbEntity
  8
1
  6
Continuous
100
AcDbLine
 10
170.850807
 20
136.8999999999997
 30
0.0
 11
169.4491929999998
 21
136.8999999999997
 31
0.0
  0
LINE
  5
E477
330
E393
100
AcDbEntity
  8
1
  6
Continuous
100
AcDbLine
 10
175.350807
 20
136.8999999999997
 30
0.0
 11
173.9491929999998
 21
136.8999999999997
 31
0.0
  0
LINE
  5
E478
330
E393
100
AcDbEntity
  8
1
  6
Continuous
100
AcDbLine
 10
184.350807
 20
136.8999999999997
 30
0.0
 11
182.9491929999998
 21
136.8999999999997
 31
0.0
  0
LINE
  5
E479
330
E393
100
AcDbEntity
  8
1
  6
Continuous
100
AcDbLine
 10
179.850807
 20
136.8999999999997
 30
0.0
 11
178.4491929999999
 21
136.8999999999997
 31
0.0
  0
LINE
  5
E47A
330
E393
100
AcDbEntity
  8
1
  6
Continuous
100
AcDbLine
 10
161.850807
 20
136.8999999999997
 30
0.0
 11
160.4491929999998
 21
136.8999999999997
 31
0.0
  0
LINE
  5
E47B
330
E393
100
AcDbEntity
  8
1
  6
Continuous
100
AcDbLine
 10
157.350807
 20
136.8999999999997
 30
0.0
 11
155.9491929999998
 21
136.8999999999997
 31
0.0
  0
LINE
  5
E47C
330
E393
100
AcDbEntity
  8
1
  6
Continuous
100
AcDbLine
 10
166.3508069999998
 20
136.8999999999997
 30
0.0
 11
164.9491929999998
 21
136.8999999999997
 31
0.0
  0
LINE
  5
E47D
330
E393
100
AcDbEntity
  8
1
  6
Continuous
100
AcDbLine
 10
143.850807
 20
136.8999999999997
 30
0.0
 11
142.4491929999998
 21
136.8999999999997
 31
0.0
  0
LINE
  5
E47E
330
E393
100
AcDbEntity
  8
1
  6
Continuous
100
AcDbLine
 10
148.350807
 20
136.8999999999997
 30
0.0
 11
146.9491929999998
 21
136.8999999999997
 31
0.0
  0
LINE
  5
E47F
330
E393
100
AcDbEntity
  8
1
  6
Continuous
100
AcDbLine
 10
139.3508069999998
 20
136.8999999999997
 30
0.0
 11
137.9491929999998
 21
136.8999999999997
 31
0.0
  0
LINE
  5
E480
330
E393
100
AcDbEntity
  8
1
  6
Continuous
100
AcDbLine
 10
125.8508069999999
 20
136.8999999999997
 30
0.0
 11
124.4491929999998
 21
136.8999999999997
 31
0.0
  0
LINE
  5
E481
330
E393
100
AcDbEntity
  8
1
  6
Continuous
100
AcDbLine
 10
130.350807
 20
136.8999999999997
 30
0.0
 11
128.9491929999998
 21
136.8999999999997
 31
0.0
  0
LINE
  5
E482
330
E393
100
AcDbEntity
  8
1
  6
Continuous
100
AcDbLine
 10
134.850807
 20
136.8999999999997
 30
0.0
 11
133.4491929999997
 21
136.8999999999997
 31
0.0
  0
LINE
  5
E483
330
E393
100
AcDbEntity
  8
1
  6
Continuous
100
AcDbLine
 10
58.35080699999998
 20
136.0999999999999
 30
0.0
 11
56.94919300000001
 21
136.0999999999999
 31
0.0
  0
LINE
  5
E484
330
E393
100
AcDbEntity
  8
1
  6
Continuous
100
AcDbLine
 10
58.35080699999998
 20
136.8999999999997
 30
0.0
 11
56.94919300000001
 21
136.8999999999997
 31
0.0
  0
CIRCLE
  5
E485
330
E393
100
AcDbEntity
  8
1
  6
Continuous
100
AcDbCircle
 10
59.9
 20
136.4999999999998
 30
0.0
 40
1.6
  0
CIRCLE
  5
E486
330
E393
100
AcDbEntity
  8
1
  6
Continuous
100
AcDbCircle
 10
68.9
 20
136.4999999999998
 30
0.0
 40
1.6
  0
CIRCLE
  5
E487
330
E393
100
AcDbEntity
  8
1
  6
Continuous
100
AcDbCircle
 10
73.4
 20
136.4999999999998
 30
0.0
 40
1.6
  0
CIRCLE
  5
E488
330
E393
100
AcDbEntity
  8
1
  6
Continuous
100
AcDbCircle
 10
64.40000000000001
 20
136.4999999999998
 30
0.0
 40
1.6
  0
CIRCLE
  5
E489
330
E393
100
AcDbEntity
  8
1
  6
Continuous
100
AcDbCircle
 10
91.4
 20
136.4999999999998
 30
0.0
 40
1.6
  0
CIRCLE
  5
E48A
330
E393
100
AcDbEntity
  8
1
  6
Continuous
100
AcDbCircle
 10
82.4
 20
136.4999999999998
 30
0.0
 40
1.6
  0
CIRCLE
  5
E48B
330
E393
100
AcDbEntity
  8
1
  6
Continuous
100
AcDbCircle
 10
86.90000000000003
 20
136.4999999999998
 30
0.0
 40
1.6
  0
CIRCLE
  5
E48C
330
E393
100
AcDbEntity
  8
1
  6
Continuous
100
AcDbCircle
 10
104.9
 20
136.4999999999998
 30
0.0
 40
1.6
  0
CIRCLE
  5
E48D
330
E393
100
AcDbEntity
  8
1
  6
Continuous
100
AcDbCircle
 10
100.4
 20
136.4999999999998
 30
0.0
 40
1.6
  0
CIRCLE
  5
E48E
330
E393
100
AcDbEntity
  8
1
  6
Continuous
100
AcDbCircle
 10
95.90000000000001
 20
136.4999999999998
 30
0.0
 40
1.6
  0
CIRCLE
  5
E48F
330
E393
100
AcDbEntity
  8
1
  6
Continuous
100
AcDbCircle
 10
113.9
 20
136.4999999999998
 30
0.0
 40
1.6
  0
CIRCLE
  5
E490
330
E393
100
AcDbEntity
  8
1
  6
Continuous
100
AcDbCircle
 10
109.4
 20
136.4999999999998
 30
0.0
 40
1.6
  0
CIRCLE
  5
E491
330
E393
100
AcDbEntity
  8
1
  6
Continuous
100
AcDbCircle
 10
77.9
 20
136.4999999999998
 30
0.0
 40
1.6
  0
CIRCLE
  5
E492
330
E393
100
AcDbEntity
  8
1
  6
Continuous
100
AcDbCircle
 10
118.4
 20
136.4999999999998
 30
0.0
 40
1.6
  0
LINE
  5
E493
330
E393
100
AcDbEntity
  8
1
  6
Continuous
100
AcDbLine
 10
89.85080700000002
 20
136.0999999999999
 30
0.0
 11
88.44919299999999
 21
136.0999999999999
 31
0.0
  0
LINE
  5
E494
330
E393
100
AcDbEntity
  8
1
  6
Continuous
100
AcDbLine
 10
116.850807
 20
136.0999999999999
 30
0.0
 11
115.449193
 21
136.0999999999999
 31
0.0
  0
LINE
  5
E495
330
E393
100
AcDbEntity
  8
1
  6
Continuous
100
AcDbLine
 10
107.850807
 20
136.0999999999999
 30
0.0
 11
106.4491929999998
 21
136.0999999999999
 31
0.0
  0
LINE
  5
E496
330
E393
100
AcDbEntity
  8
1
  6
Continuous
100
AcDbLine
 10
112.3508069999999
 20
136.0999999999999
 30
0.0
 11
110.9491929999998
 21
136.0999999999999
 31
0.0
  0
LINE
  5
E497
330
E393
100
AcDbEntity
  8
1
  6
Continuous
100
AcDbLine
 10
94.35080699999996
 20
136.0999999999999
 30
0.0
 11
92.94919300000001
 21
136.0999999999999
 31
0.0
  0
LINE
  5
E498
330
E393
100
AcDbEntity
  8
1
  6
Continuous
100
AcDbLine
 10
103.3508069999999
 20
136.0999999999999
 30
0.0
 11
101.949193
 21
136.0999999999999
 31
0.0
  0
LINE
  5
E499
330
E393
100
AcDbEntity
  8
1
  6
Continuous
100
AcDbLine
 10
98.85080700000001
 20
136.0999999999999
 30
0.0
 11
97.44919299999999
 21
136.0999999999999
 31
0.0
  0
LINE
  5
E49A
330
E393
100
AcDbEntity
  8
1
  6
Continuous
100
AcDbLine
 10
76.35080699999999
 20
136.0999999999999
 30
0.0
 11
74.94919299999998
 21
136.0999999999999
 31
0.0
  0
LINE
  5
E49B
330
E393
100
AcDbEntity
  8
1
  6
Continuous
100
AcDbLine
 10
85.35080699999998
 20
136.0999999999999
 30
0.0
 11
83.94919299999997
 21
136.0999999999999
 31
0.0
  0
LINE
  5
E49C
330
E393
100
AcDbEntity
  8
1
  6
Continuous
100
AcDbLine
 10
80.85080699999997
 20
136.0999999999999
 30
0.0
 11
79.44919299999998
 21
136.0999999999999
 31
0.0
  0
LINE
  5
E49D
330
E393
100
AcDbEntity
  8
1
  6
Continuous
100
AcDbLine
 10
62.85080699999999
 20
136.0999999999999
 30
0.0
 11
61.44919300000001
 21
136.0999999999999
 31
0.0
  0
LINE
  5
E49E
330
E393
100
AcDbEntity
  8
1
  6
Continuous
100
AcDbLine
 10
71.85080699999997
 20
136.0999999999999
 30
0.0
 11
70.449193
 21
136.0999999999999
 31
0.0
  0
LINE
  5
E49F
330
E393
100
AcDbEntity
  8
1
  6
Continuous
100
AcDbLine
 10
67.35080699999999
 20
136.0999999999999
 30
0.0
 11
65.94919299999999
 21
136.0999999999999
 31
0.0
  0
LINE
  5
E4A0
330
E393
100
AcDbEntity
  8
1
  6
Continuous
100
AcDbLine
 10
89.85080700000002
 20
136.8999999999997
 30
0.0
 11
88.44919299999999
 21
136.8999999999997
 31
0.0
  0
LINE
  5
E4A1
330
E393
100
AcDbEntity
  8
1
  6
Continuous
100
AcDbLine
 10
116.850807
 20
136.8999999999997
 30
0.0
 11
115.449193
 21
136.8999999999997
 31
0.0
  0
LINE
  5
E4A2
330
E393
100
AcDbEntity
  8
1
  6
Continuous
100
AcDbLine
 10
107.850807
 20
136.8999999999997
 30
0.0
 11
106.4491929999998
 21
136.8999999999997
 31
0.0
  0
LINE
  5
E4A3
330
E393
100
AcDbEntity
  8
1
  6
Continuous
100
AcDbLine
 10
112.3508069999999
 20
136.8999999999997
 30
0.0
 11
110.9491929999998
 21
136.8999999999997
 31
0.0
  0
LINE
  5
E4A4
330
E393
100
AcDbEntity
  8
1
  6
Continuous
100
AcDbLine
 10
94.35080699999996
 20
136.8999999999997
 30
0.0
 11
92.94919300000001
 21
136.8999999999997
 31
0.0
  0
LINE
  5
E4A5
330
E393
100
AcDbEntity
  8
1
  6
Continuous
100
AcDbLine
 10
103.3508069999999
 20
136.8999999999997
 30
0.0
 11
101.949193
 21
136.8999999999997
 31
0.0
  0
LINE
  5
E4A6
330
E393
100
AcDbEntity
  8
1
  6
Continuous
100
AcDbLine
 10
98.85080700000001
 20
136.8999999999997
 30
0.0
 11
97.44919299999999
 21
136.8999999999997
 31
0.0
  0
LINE
  5
E4A7
330
E393
100
AcDbEntity
  8
1
  6
Continuous
100
AcDbLine
 10
76.35080699999999
 20
136.8999999999997
 30
0.0
 11
74.94919299999998
 21
136.8999999999997
 31
0.0
  0
LINE
  5
E4A8
330
E393
100
AcDbEntity
  8
1
  6
Continuous
100
AcDbLine
 10
85.35080699999998
 20
136.8999999999997
 30
0.0
 11
83.94919299999997
 21
136.8999999999997
 31
0.0
  0
LINE
  5
E4A9
330
E393
100
AcDbEntity
  8
1
  6
Continuous
100
AcDbLine
 10
80.85080699999997
 20
136.8999999999997
 30
0.0
 11
79.44919299999998
 21
136.8999999999997
 31
0.0
  0
LINE
  5
E4AA
330
E393
100
AcDbEntity
  8
1
  6
Continuous
100
AcDbLine
 10
62.85080699999999
 20
136.8999999999997
 30
0.0
 11
61.44919300000001
 21
136.8999999999997
 31
0.0
  0
LINE
  5
E4AB
330
E393
100
AcDbEntity
  8
1
  6
Continuous
100
AcDbLine
 10
71.85080699999997
 20
136.8999999999997
 30
0.0
 11
70.449193
 21
136.8999999999997
 31
0.0
  0
LINE
  5
E4AC
330
E393
100
AcDbEntity
  8
1
  6
Continuous
100
AcDbLine
 10
67.35080699999999
 20
136.8999999999997
 30
0.0
 11
65.94919299999999
 21
136.8999999999997
 31
0.0
  0
ARC
  5
E4AD
330
E393
100
AcDbEntity
  8
1
  6
Continuous
100
AcDbCircle
 10
37.4
 20
136.4999999999998
 30
0.0
 40
1.6
100
AcDbArc
 50
337.975687
 51
22.024313
  0
LINE
  5
E4AE
330
E393
100
AcDbEntity
  8
4
  6
CENTER
100
AcDbLine
 10
28.5
 20
129.4999999999998
 30
0.0
 11
28.5
 21
143.5
 31
0.0
  0
LINE
  5
E4AF
330
E393
100
AcDbEntity
  8
4
  6
CENTER
100
AcDbLine
 10
37.0
 20
140.5
 30
0.0
 11
37.0
 21
132.4999999999998
 31
0.0
  0
ARC
  5
E4B0
330
E393
100
AcDbEntity
  8
1
  6
Continuous
100
AcDbCircle
 10
28.5
 20
136.4999999999998
 30
0.0
 40
3.5
100
AcDbArc
 50
34.849905
 51
325.150095
  0
CIRCLE
  5
E4B1
330
E393
100
AcDbEntity
  8
1
  6
Continuous
100
AcDbCircle
 10
28.5
 20
136.4999999999998
 30
0.0
 40
1.8
  0
CIRCLE
  5
E4B2
330
E393
100
AcDbEntity
  8
1
  6
Continuous
100
AcDbCircle
 10
41.9
 20
136.4999999999998
 30
0.0
 40
1.6
  0
LINE
  5
E4B3
330
E393
100
AcDbEntity
  8
4
  6
CENTER
100
AcDbLine
 10
37.4
 20
133.3
 30
0.0
 11
37.4
 21
139.7
 31
0.0
  0
ARC
  5
E4B4
330
E393
100
AcDbEntity
  8
1
  6
Continuous
100
AcDbCircle
 10
37.4
 20
136.4999999999998
 30
0.0
 40
1.6
100
AcDbArc
 50
157.9756869999999
 51
202.0243129999999
  0
CIRCLE
  5
E4B5
330
E393
100
AcDbEntity
  8
1
  6
Continuous
100
AcDbCircle
 10
55.4
 20
136.4999999999998
 30
0.0
 40
1.6
  0
CIRCLE
  5
E4B6
330
E393
100
AcDbEntity
  8
1
  6
Continuous
100
AcDbCircle
 10
50.89999999999999
 20
136.4999999999998
 30
0.0
 40
1.6
  0
CIRCLE
  5
E4B7
330
E393
100
AcDbEntity
  8
1
  6
Continuous
100
AcDbCircle
 10
46.39999999999999
 20
136.4999999999998
 30
0.0
 40
1.6
  0
LINE
  5
E4B8
330
E393
100
AcDbEntity
  8
1
  6
Continuous
100
AcDbLine
 10
44.850807
 20
136.0999999999999
 30
0.0
 11
43.44919299999999
 21
136.0999999999999
 31
0.0
  0
LINE
  5
E4B9
330
E393
100
AcDbEntity
  8
1
  6
Continuous
100
AcDbLine
 10
49.350807
 20
136.0999999999999
 30
0.0
 11
47.949193
 21
136.0999999999999
 31
0.0
  0
LINE
  5
E4BA
330
E393
100
AcDbEntity
  8
1
  6
Continuous
100
AcDbLine
 10
53.85080699999999
 20
136.0999999999999
 30
0.0
 11
52.44919300000001
 21
136.0999999999999
 31
0.0
  0
LINE
  5
E4BB
330
E393
100
AcDbEntity
  8
1
  6
Continuous
100
AcDbLine
 10
39.5
 20
135.8999999999997
 30
0.0
 11
30.19705599999999
 21
135.8999999999997
 31
0.0
  0
LINE
  5
E4BC
330
E393
100
AcDbEntity
  8
1
  6
Continuous
100
AcDbLine
 10
39.5
 20
134.4999999999998
 30
0.0
 11
31.372281
 21
134.4999999999998
 31
0.0
  0
LINE
  5
E4BD
330
E393
100
AcDbEntity
  8
1
  6
Continuous
100
AcDbLine
 10
39.5
 20
134.4999999999998
 30
0.0
 11
39.5
 21
135.8999999999997
 31
0.0
  0
LINE
  5
E4BE
330
E393
100
AcDbEntity
  8
1
  6
Continuous
100
AcDbLine
 10
40.350807
 20
136.0999999999999
 30
0.0
 11
38.949193
 21
136.0999999999999
 31
0.0
  0
LINE
  5
E4BF
330
E393
100
AcDbEntity
  8
4
  6
CENTER
100
AcDbLine
 10
21.49999999999999
 20
136.4999999999998
 30
0.0
 11
237.8
 21
136.4999999999998
 31
0.0
  0
LINE
  5
E4C0
330
E393
100
AcDbEntity
  8
1
  6
Continuous
100
AcDbLine
 10
44.850807
 20
136.8999999999997
 30
0.0
 11
43.44919299999999
 21
136.8999999999997
 31
0.0
  0
LINE
  5
E4C1
330
E393
100
AcDbEntity
  8
1
  6
Continuous
100
AcDbLine
 10
49.350807
 20
136.8999999999997
 30
0.0
 11
47.949193
 21
136.8999999999997
 31
0.0
  0
LINE
  5
E4C2
330
E393
100
AcDbEntity
  8
1
  6
Continuous
100
AcDbLine
 10
53.85080699999999
 20
136.8999999999997
 30
0.0
 11
52.44919300000001
 21
136.8999999999997
 31
0.0
  0
LINE
  5
E4C3
330
E393
100
AcDbEntity
  8
1
  6
Continuous
100
AcDbLine
 10
39.5
 20
137.0999999999999
 30
0.0
 11
30.19705599999999
 21
137.0999999999999
 31
0.0
  0
LINE
  5
E4C4
330
E393
100
AcDbEntity
  8
1
  6
Continuous
100
AcDbLine
 10
39.5
 20
138.5
 30
0.0
 11
31.372281
 21
138.5
 31
0.0
  0
LINE
  5
E4C5
330
E393
100
AcDbEntity
  8
1
  6
Continuous
100
AcDbLine
 10
39.5
 20
137.0999999999999
 30
0.0
 11
39.5
 21
138.5
 31
0.0
  0
LINE
  5
E4C6
330
E393
100
AcDbEntity
  8
1
  6
Continuous
100
AcDbLine
 10
40.350807
 20
136.8999999999997
 30
0.0
 11
38.949193
 21
136.8999999999997
 31
0.0
  0
LINE
  5
E4C7
330
E393
100
AcDbEntity
  8
1
  6
Continuous
100
AcDbLine
 10
34.3229
 20
137.3
 30
0.0
 11
34.3229
 21
138.3
 31
0.0
  0
LINE
  5
E4C8
330
E393
100
AcDbEntity
  8
1
  6
Continuous
100
AcDbLine
 10
34.3229
 20
134.6999999999999
 30
0.0
 11
34.3229
 21
135.6999999999999
 31
0.0
  0
LINE
  5
E4C9
330
E393
100
AcDbEntity
  8
1
  6
Continuous
100
AcDbLine
 10
139.3508069999998
 20
44.9
 30
0.0
 11
137.9491929999998
 21
44.9
 31
0.0
  0
LINE
  5
E4CA
330
E393
100
AcDbEntity
  8
1
  6
Continuous
100
AcDbLine
 10
139.3508069999998
 20
44.1
 30
0.0
 11
137.9491929999998
 21
44.1
 31
0.0
  0
LINE
  5
E4CB
330
E393
100
AcDbEntity
  8
4
  6
CENTER
100
AcDbLine
 10
28.5
 20
51.5
 30
0.0
 11
28.5
 21
37.5
 31
0.0
  0
CIRCLE
  5
E4CC
330
E393
100
AcDbEntity
  8
1
  6
Continuous
100
AcDbCircle
 10
73.4
 20
44.5
 30
0.0
 40
1.6
  0
CIRCLE
  5
E4CD
330
E393
100
AcDbEntity
  8
1
  6
Continuous
100
AcDbCircle
 10
41.9
 20
44.5
 30
0.0
 40
1.6
  0
CIRCLE
  5
E4CE
330
E393
100
AcDbEntity
  8
1
  6
Continuous
100
AcDbCircle
 10
28.5
 20
44.5
 30
0.0
 40
1.8
  0
ARC
  5
E4CF
330
E393
100
AcDbEntity
  8
1
  6
Continuous
100
AcDbCircle
 10
28.5
 20
44.5
 30
0.0
 40
3.5
100
AcDbArc
 50
34.849905
 51
325.150095
  0
LINE
  5
E4D0
330
E393
100
AcDbEntity
  8
4
  6
CENTER
100
AcDbLine
 10
21.49999999999999
 20
44.5
 30
0.0
 11
237.8
 21
44.5
 31
0.0
  0
ARC
  5
E4D1
330
E393
100
AcDbEntity
  8
1
  6
Continuous
100
AcDbCircle
 10
37.4
 20
44.5
 30
0.0
 40
1.6
100
AcDbArc
 50
337.975687
 51
22.024313
  0
LINE
  5
E4D2
330
E393
100
AcDbEntity
  8
4
  6
CENTER
100
AcDbLine
 10
37.0
 20
40.49999999999999
 30
0.0
 11
37.0
 21
48.5
 31
0.0
  0
LINE
  5
E4D3
330
E393
100
AcDbEntity
  8
4
  6
CENTER
100
AcDbLine
 10
37.4
 20
47.7
 30
0.0
 11
37.4
 21
41.29999999999999
 31
0.0
  0
LINE
  5
E4D4
330
E393
100
AcDbEntity
  8
1
  6
Continuous
100
AcDbLine
 10
39.5
 20
45.1
 30
0.0
 11
37.0
 21
45.1
 31
0.0
  0
LINE
  5
E4D5
330
E393
100
AcDbEntity
  8
1
  6
Continuous
100
AcDbLine
 10
39.5
 20
46.5
 30
0.0
 11
31.372281
 21
46.5
 31
0.0
  0
LINE
  5
E4D6
330
E393
100
AcDbEntity
  8
1
  6
Continuous
100
AcDbLine
 10
39.5
 20
46.5
 30
0.0
 11
39.5
 21
45.1
 31
0.0
  0
LINE
  5
E4D7
330
E393
100
AcDbEntity
  8
1
  6
Continuous
100
AcDbLine
 10
40.350807
 20
44.9
 30
0.0
 11
38.949193
 21
44.9
 31
0.0
  0
LINE
  5
E4D8
330
E393
100
AcDbEntity
  8
1
  6
Continuous
100
AcDbLine
 10
39.5
 20
43.89999999999999
 30
0.0
 11
37.0
 21
43.89999999999999
 31
0.0
  0
LINE
  5
E4D9
330
E393
100
AcDbEntity
  8
1
  6
Continuous
100
AcDbLine
 10
39.5
 20
42.5
 30
0.0
 11
31.372281
 21
42.5
 31
0.0
  0
LINE
  5
E4DA
330
E393
100
AcDbEntity
  8
1
  6
Continuous
100
AcDbLine
 10
39.5
 20
43.89999999999999
 30
0.0
 11
39.5
 21
42.5
 31
0.0
  0
LINE
  5
E4DB
330
E393
100
AcDbEntity
  8
1
  6
Continuous
100
AcDbLine
 10
40.350807
 20
44.1
 30
0.0
 11
38.949193
 21
44.1
 31
0.0
  0
CIRCLE
  5
E4DC
330
E393
100
AcDbEntity
  8
1
  6
Continuous
100
AcDbCircle
 10
59.9
 20
44.5
 30
0.0
 40
1.6
  0
CIRCLE
  5
E4DD
330
E393
100
AcDbEntity
  8
1
  6
Continuous
100
AcDbCircle
 10
55.4
 20
44.5
 30
0.0
 40
1.6
  0
CIRCLE
  5
E4DE
330
E393
100
AcDbEntity
  8
1
  6
Continuous
100
AcDbCircle
 10
50.89999999999999
 20
44.5
 30
0.0
 40
1.6
  0
CIRCLE
  5
E4DF
330
E393
100
AcDbEntity
  8
1
  6
Continuous
100
AcDbCircle
 10
46.39999999999999
 20
44.5
 30
0.0
 40
1.6
  0
LINE
  5
E4E0
330
E393
100
AcDbEntity
  8
1
  6
Continuous
100
AcDbLine
 10
44.850807
 20
44.9
 30
0.0
 11
43.44919299999999
 21
44.9
 31
0.0
  0
LINE
  5
E4E1
330
E393
100
AcDbEntity
  8
1
  6
Continuous
100
AcDbLine
 10
49.350807
 20
44.9
 30
0.0
 11
47.949193
 21
44.9
 31
0.0
  0
LINE
  5
E4E2
330
E393
100
AcDbEntity
  8
1
  6
Continuous
100
AcDbLine
 10
53.85080699999999
 20
44.9
 30
0.0
 11
52.44919300000001
 21
44.9
 31
0.0
  0
LINE
  5
E4E3
330
E393
100
AcDbEntity
  8
1
  6
Continuous
100
AcDbLine
 10
44.850807
 20
44.1
 30
0.0
 11
43.44919299999999
 21
44.1
 31
0.0
  0
LINE
  5
E4E4
330
E393
100
AcDbEntity
  8
1
  6
Continuous
100
AcDbLine
 10
49.350807
 20
44.1
 30
0.0
 11
47.949193
 21
44.1
 31
0.0
  0
LINE
  5
E4E5
330
E393
100
AcDbEntity
  8
1
  6
Continuous
100
AcDbLine
 10
53.85080699999999
 20
44.1
 30
0.0
 11
52.44919300000001
 21
44.1
 31
0.0
  0
LINE
  5
E4E6
330
E393
100
AcDbEntity
  8
1
  6
Continuous
100
AcDbLine
 10
58.35080699999998
 20
44.9
 30
0.0
 11
56.94919300000001
 21
44.9
 31
0.0
  0
LINE
  5
E4E7
330
E393
100
AcDbEntity
  8
1
  6
Continuous
100
AcDbLine
 10
58.35080699999998
 20
44.1
 30
0.0
 11
56.94919300000001
 21
44.1
 31
0.0
  0
CIRCLE
  5
E4E8
330
E393
100
AcDbEntity
  8
1
  6
Continuous
100
AcDbCircle
 10
68.9
 20
44.5
 30
0.0
 40
1.6
  0
CIRCLE
  5
E4E9
330
E393
100
AcDbEntity
  8
1
  6
Continuous
100
AcDbCircle
 10
64.40000000000001
 20
44.5
 30
0.0
 40
1.6
  0
LINE
  5
E4EA
330
E393
100
AcDbEntity
  8
1
  6
Continuous
100
AcDbLine
 10
62.85080699999999
 20
44.9
 30
0.0
 11
61.44919300000001
 21
44.9
 31
0.0
  0
LINE
  5
E4EB
330
E393
100
AcDbEntity
  8
1
  6
Continuous
100
AcDbLine
 10
71.85080699999997
 20
44.9
 30
0.0
 11
70.449193
 21
44.9
 31
0.0
  0
LINE
  5
E4EC
330
E393
100
AcDbEntity
  8
1
  6
Continuous
100
AcDbLine
 10
67.35080699999999
 20
44.9
 30
0.0
 11
65.94919299999999
 21
44.9
 31
0.0
  0
LINE
  5
E4ED
330
E393
100
AcDbEntity
  8
1
  6
Continuous
100
AcDbLine
 10
62.85080699999999
 20
44.1
 30
0.0
 11
61.44919300000001
 21
44.1
 31
0.0
  0
LINE
  5
E4EE
330
E393
100
AcDbEntity
  8
1
  6
Continuous
100
AcDbLine
 10
71.85080699999997
 20
44.1
 30
0.0
 11
70.449193
 21
44.1
 31
0.0
  0
LINE
  5
E4EF
330
E393
100
AcDbEntity
  8
1
  6
Continuous
100
AcDbLine
 10
67.35080699999999
 20
44.1
 30
0.0
 11
65.94919299999999
 21
44.1
 31
0.0
  0
LINE
  5
E4F0
330
E393
100
AcDbEntity
  8
1
  6
Continuous
100
AcDbLine
 10
107.850807
 20
44.9
 30
0.0
 11
106.4491929999998
 21
44.9
 31
0.0
  0
LINE
  5
E4F1
330
E393
100
AcDbEntity
  8
1
  6
Continuous
100
AcDbLine
 10
107.850807
 20
44.1
 30
0.0
 11
106.4491929999998
 21
44.1
 31
0.0
  0
CIRCLE
  5
E4F2
330
E393
100
AcDbEntity
  8
1
  6
Continuous
100
AcDbCircle
 10
91.4
 20
44.5
 30
0.0
 40
1.6
  0
CIRCLE
  5
E4F3
330
E393
100
AcDbEntity
  8
1
  6
Continuous
100
AcDbCircle
 10
82.4
 20
44.5
 30
0.0
 40
1.6
  0
CIRCLE
  5
E4F4
330
E393
100
AcDbEntity
  8
1
  6
Continuous
100
AcDbCircle
 10
86.90000000000003
 20
44.5
 30
0.0
 40
1.6
  0
CIRCLE
  5
E4F5
330
E393
100
AcDbEntity
  8
1
  6
Continuous
100
AcDbCircle
 10
77.9
 20
44.5
 30
0.0
 40
1.6
  0
LINE
  5
E4F6
330
E393
100
AcDbEntity
  8
1
  6
Continuous
100
AcDbLine
 10
76.35080699999999
 20
44.9
 30
0.0
 11
74.94919299999998
 21
44.9
 31
0.0
  0
LINE
  5
E4F7
330
E393
100
AcDbEntity
  8
1
  6
Continuous
100
AcDbLine
 10
85.35080699999998
 20
44.9
 30
0.0
 11
83.94919299999997
 21
44.9
 31
0.0
  0
LINE
  5
E4F8
330
E393
100
AcDbEntity
  8
1
  6
Continuous
100
AcDbLine
 10
80.85080699999997
 20
44.9
 30
0.0
 11
79.44919299999998
 21
44.9
 31
0.0
  0
LINE
  5
E4F9
330
E393
100
AcDbEntity
  8
1
  6
Continuous
100
AcDbLine
 10
76.35080699999999
 20
44.1
 30
0.0
 11
74.94919299999998
 21
44.1
 31
0.0
  0
LINE
  5
E4FA
330
E393
100
AcDbEntity
  8
1
  6
Continuous
100
AcDbLine
 10
85.35080699999998
 20
44.1
 30
0.0
 11
83.94919299999997
 21
44.1
 31
0.0
  0
LINE
  5
E4FB
330
E393
100
AcDbEntity
  8
1
  6
Continuous
100
AcDbLine
 10
80.85080699999997
 20
44.1
 30
0.0
 11
79.44919299999998
 21
44.1
 31
0.0
  0
LINE
  5
E4FC
330
E393
100
AcDbEntity
  8
1
  6
Continuous
100
AcDbLine
 10
89.85080700000002
 20
44.9
 30
0.0
 11
88.44919299999999
 21
44.9
 31
0.0
  0
LINE
  5
E4FD
330
E393
100
AcDbEntity
  8
1
  6
Continuous
100
AcDbLine
 10
89.85080700000002
 20
44.1
 30
0.0
 11
88.44919299999999
 21
44.1
 31
0.0
  0
CIRCLE
  5
E4FE
330
E393
100
AcDbEntity
  8
1
  6
Continuous
100
AcDbCircle
 10
100.4
 20
44.5
 30
0.0
 40
1.6
  0
CIRCLE
  5
E4FF
330
E393
100
AcDbEntity
  8
1
  6
Continuous
100
AcDbCircle
 10
95.90000000000001
 20
44.5
 30
0.0
 40
1.6
  0
LINE
  5
E500
330
E393
100
AcDbEntity
  8
1
  6
Continuous
100
AcDbLine
 10
94.35080699999996
 20
44.9
 30
0.0
 11
92.94919300000001
 21
44.9
 31
0.0
  0
LINE
  5
E501
330
E393
100
AcDbEntity
  8
1
  6
Continuous
100
AcDbLine
 10
103.3508069999999
 20
44.9
 30
0.0
 11
101.949193
 21
44.9
 31
0.0
  0
LINE
  5
E502
330
E393
100
AcDbEntity
  8
1
  6
Continuous
100
AcDbLine
 10
98.85080700000001
 20
44.9
 30
0.0
 11
97.44919299999999
 21
44.9
 31
0.0
  0
LINE
  5
E503
330
E393
100
AcDbEntity
  8
1
  6
Continuous
100
AcDbLine
 10
94.35080699999996
 20
44.1
 30
0.0
 11
92.94919300000001
 21
44.1
 31
0.0
  0
LINE
  5
E504
330
E393
100
AcDbEntity
  8
1
  6
Continuous
100
AcDbLine
 10
103.3508069999999
 20
44.1
 30
0.0
 11
101.949193
 21
44.1
 31
0.0
  0
LINE
  5
E505
330
E393
100
AcDbEntity
  8
1
  6
Continuous
100
AcDbLine
 10
98.85080700000001
 20
44.1
 30
0.0
 11
97.44919299999999
 21
44.1
 31
0.0
  0
CIRCLE
  5
E506
330
E393
100
AcDbEntity
  8
1
  6
Continuous
100
AcDbCircle
 10
104.9
 20
44.5
 30
0.0
 40
1.6
  0
CIRCLE
  5
E507
330
E393
100
AcDbEntity
  8
1
  6
Continuous
100
AcDbCircle
 10
122.9
 20
44.5
 30
0.0
 40
1.6
  0
CIRCLE
  5
E508
330
E393
100
AcDbEntity
  8
1
  6
Continuous
100
AcDbCircle
 10
113.9
 20
44.5
 30
0.0
 40
1.6
  0
CIRCLE
  5
E509
330
E393
100
AcDbEntity
  8
1
  6
Continuous
100
AcDbCircle
 10
109.4
 20
44.5
 30
0.0
 40
1.6
  0
CIRCLE
  5
E50A
330
E393
100
AcDbEntity
  8
1
  6
Continuous
100
AcDbCircle
 10
118.4
 20
44.5
 30
0.0
 40
1.6
  0
LINE
  5
E50B
330
E393
100
AcDbEntity
  8
1
  6
Continuous
100
AcDbLine
 10
116.850807
 20
44.9
 30
0.0
 11
115.449193
 21
44.9
 31
0.0
  0
LINE
  5
E50C
330
E393
100
AcDbEntity
  8
1
  6
Continuous
100
AcDbLine
 10
112.3508069999999
 20
44.9
 30
0.0
 11
110.9491929999998
 21
44.9
 31
0.0
  0
LINE
  5
E50D
330
E393
100
AcDbEntity
  8
1
  6
Continuous
100
AcDbLine
 10
116.850807
 20
44.1
 30
0.0
 11
115.449193
 21
44.1
 31
0.0
  0
LINE
  5
E50E
330
E393
100
AcDbEntity
  8
1
  6
Continuous
100
AcDbLine
 10
112.3508069999999
 20
44.1
 30
0.0
 11
110.9491929999998
 21
44.1
 31
0.0
  0
LINE
  5
E50F
330
E393
100
AcDbEntity
  8
1
  6
Continuous
100
AcDbLine
 10
121.350807
 20
44.9
 30
0.0
 11
119.9491929999998
 21
44.9
 31
0.0
  0
LINE
  5
E510
330
E393
100
AcDbEntity
  8
1
  6
Continuous
100
AcDbLine
 10
121.350807
 20
44.1
 30
0.0
 11
119.9491929999998
 21
44.1
 31
0.0
  0
CIRCLE
  5
E511
330
E393
100
AcDbEntity
  8
1
  6
Continuous
100
AcDbCircle
 10
127.4
 20
44.5
 30
0.0
 40
1.6
  0
CIRCLE
  5
E512
330
E393
100
AcDbEntity
  8
1
  6
Continuous
100
AcDbCircle
 10
131.9
 20
44.5
 30
0.0
 40
1.6
  0
LINE
  5
E513
330
E393
100
AcDbEntity
  8
1
  6
Continuous
100
AcDbLine
 10
125.8508069999999
 20
44.9
 30
0.0
 11
124.4491929999998
 21
44.9
 31
0.0
  0
LINE
  5
E514
330
E393
100
AcDbEntity
  8
1
  6
Continuous
100
AcDbLine
 10
130.350807
 20
44.9
 30
0.0
 11
128.9491929999998
 21
44.9
 31
0.0
  0
LINE
  5
E515
330
E393
100
AcDbEntity
  8
1
  6
Continuous
100
AcDbLine
 10
134.850807
 20
44.9
 30
0.0
 11
133.4491929999997
 21
44.9
 31
0.0
  0
LINE
  5
E516
330
E393
100
AcDbEntity
  8
1
  6
Continuous
100
AcDbLine
 10
125.8508069999999
 20
44.1
 30
0.0
 11
124.4491929999998
 21
44.1
 31
0.0
  0
LINE
  5
E517
330
E393
100
AcDbEntity
  8
1
  6
Continuous
100
AcDbLine
 10
130.350807
 20
44.1
 30
0.0
 11
128.9491929999998
 21
44.1
 31
0.0
  0
LINE
  5
E518
330
E393
100
AcDbEntity
  8
1
  6
Continuous
100
AcDbLine
 10
134.850807
 20
44.1
 30
0.0
 11
133.4491929999997
 21
44.1
 31
0.0
  0
CIRCLE
  5
E519
330
E393
100
AcDbEntity
  8
1
  6
Continuous
100
AcDbCircle
 10
136.4
 20
44.5
 30
0.0
 40
1.6
  0
LINE
  5
E51A
330
E393
100
AcDbEntity
  8
1
  6
Continuous
100
AcDbLine
 10
202.350807
 20
44.9
 30
0.0
 11
200.9491929999998
 21
44.9
 31
0.0
  0
LINE
  5
E51B
330
E393
100
AcDbEntity
  8
1
  6
Continuous
100
AcDbLine
 10
202.350807
 20
44.1
 30
0.0
 11
200.9491929999998
 21
44.1
 31
0.0
  0
LINE
  5
E51C
330
E393
100
AcDbEntity
  8
1
  6
Continuous
100
AcDbLine
 10
170.850807
 20
44.9
 30
0.0
 11
169.4491929999998
 21
44.9
 31
0.0
  0
LINE
  5
E51D
330
E393
100
AcDbEntity
  8
1
  6
Continuous
100
AcDbLine
 10
170.850807
 20
44.1
 30
0.0
 11
169.4491929999998
 21
44.1
 31
0.0
  0
CIRCLE
  5
E51E
330
E393
100
AcDbEntity
  8
1
  6
Continuous
100
AcDbCircle
 10
154.4
 20
44.5
 30
0.0
 40
1.6
  0
CIRCLE
  5
E51F
330
E393
100
AcDbEntity
  8
1
  6
Continuous
100
AcDbCircle
 10
145.4
 20
44.5
 30
0.0
 40
1.6
  0
CIRCLE
  5
E520
330
E393
100
AcDbEntity
  8
1
  6
Continuous
100
AcDbCircle
 10
140.8999999999998
 20
44.5
 30
0.0
 40
1.6
  0
CIRCLE
  5
E521
330
E393
100
AcDbEntity
  8
1
  6
Continuous
100
AcDbCircle
 10
149.9
 20
44.5
 30
0.0
 40
1.6
  0
LINE
  5
E522
330
E393
100
AcDbEntity
  8
1
  6
Continuous
100
AcDbLine
 10
143.850807
 20
44.9
 30
0.0
 11
142.4491929999998
 21
44.9
 31
0.0
  0
LINE
  5
E523
330
E393
100
AcDbEntity
  8
1
  6
Continuous
100
AcDbLine
 10
148.350807
 20
44.9
 30
0.0
 11
146.9491929999998
 21
44.9
 31
0.0
  0
LINE
  5
E524
330
E393
100
AcDbEntity
  8
1
  6
Continuous
100
AcDbLine
 10
143.850807
 20
44.1
 30
0.0
 11
142.4491929999998
 21
44.1
 31
0.0
  0
LINE
  5
E525
330
E393
100
AcDbEntity
  8
1
  6
Continuous
100
AcDbLine
 10
148.350807
 20
44.1
 30
0.0
 11
146.9491929999998
 21
44.1
 31
0.0
  0
LINE
  5
E526
330
E393
100
AcDbEntity
  8
1
  6
Continuous
100
AcDbLine
 10
152.8508069999998
 20
44.9
 30
0.0
 11
151.4491929999998
 21
44.9
 31
0.0
  0
LINE
  5
E527
330
E393
100
AcDbEntity
  8
1
  6
Continuous
100
AcDbLine
 10
152.8508069999998
 20
44.1
 30
0.0
 11
151.4491929999998
 21
44.1
 31
0.0
  0
CIRCLE
  5
E528
330
E393
100
AcDbEntity
  8
1
  6
Continuous
100
AcDbCircle
 10
158.9
 20
44.5
 30
0.0
 40
1.6
  0
CIRCLE
  5
E529
330
E393
100
AcDbEntity
  8
1
  6
Continuous
100
AcDbCircle
 10
163.4
 20
44.5
 30
0.0
 40
1.6
  0
LINE
  5
E52A
330
E393
100
AcDbEntity
  8
1
  6
Continuous
100
AcDbLine
 10
161.850807
 20
44.9
 30
0.0
 11
160.4491929999998
 21
44.9
 31
0.0
  0
LINE
  5
E52B
330
E393
100
AcDbEntity
  8
1
  6
Continuous
100
AcDbLine
 10
157.350807
 20
44.9
 30
0.0
 11
155.9491929999998
 21
44.9
 31
0.0
  0
LINE
  5
E52C
330
E393
100
AcDbEntity
  8
1
  6
Continuous
100
AcDbLine
 10
166.3508069999998
 20
44.9
 30
0.0
 11
164.9491929999998
 21
44.9
 31
0.0
  0
LINE
  5
E52D
330
E393
100
AcDbEntity
  8
1
  6
Continuous
100
AcDbLine
 10
161.850807
 20
44.1
 30
0.0
 11
160.4491929999998
 21
44.1
 31
0.0
  0
LINE
  5
E52E
330
E393
100
AcDbEntity
  8
1
  6
Continuous
100
AcDbLine
 10
157.350807
 20
44.1
 30
0.0
 11
155.9491929999998
 21
44.1
 31
0.0
  0
LINE
  5
E52F
330
E393
100
AcDbEntity
  8
1
  6
Continuous
100
AcDbLine
 10
166.3508069999998
 20
44.1
 30
0.0
 11
164.9491929999998
 21
44.1
 31
0.0
  0
CIRCLE
  5
E530
330
E393
100
AcDbEntity
  8
1
  6
Continuous
100
AcDbCircle
 10
167.9
 20
44.5
 30
0.0
 40
1.6
  0
CIRCLE
  5
E531
330
E393
100
AcDbEntity
  8
1
  6
Continuous
100
AcDbCircle
 10
185.8999999999998
 20
44.5
 30
0.0
 40
1.6
  0
CIRCLE
  5
E532
330
E393
100
AcDbEntity
  8
1
  6
Continuous
100
AcDbCircle
 10
172.4
 20
44.5
 30
0.0
 40
1.6
  0
CIRCLE
  5
E533
330
E393
100
AcDbEntity
  8
1
  6
Continuous
100
AcDbCircle
 10
181.4
 20
44.5
 30
0.0
 40
1.6
  0
CIRCLE
  5
E534
330
E393
100
AcDbEntity
  8
1
  6
Continuous
100
AcDbCircle
 10
176.9
 20
44.5
 30
0.0
 40
1.6
  0
LINE
  5
E535
330
E393
100
AcDbEntity
  8
1
  6
Continuous
100
AcDbLine
 10
175.350807
 20
44.9
 30
0.0
 11
173.9491929999998
 21
44.9
 31
0.0
  0
LINE
  5
E536
330
E393
100
AcDbEntity
  8
1
  6
Continuous
100
AcDbLine
 10
184.350807
 20
44.9
 30
0.0
 11
182.9491929999998
 21
44.9
 31
0.0
  0
LINE
  5
E537
330
E393
100
AcDbEntity
  8
1
  6
Continuous
100
AcDbLine
 10
179.850807
 20
44.9
 30
0.0
 11
178.4491929999999
 21
44.9
 31
0.0
  0
LINE
  5
E538
330
E393
100
AcDbEntity
  8
1
  6
Continuous
100
AcDbLine
 10
175.350807
 20
44.1
 30
0.0
 11
173.9491929999998
 21
44.1
 31
0.0
  0
LINE
  5
E539
330
E393
100
AcDbEntity
  8
1
  6
Continuous
100
AcDbLine
 10
184.350807
 20
44.1
 30
0.0
 11
182.9491929999998
 21
44.1
 31
0.0
  0
LINE
  5
E53A
330
E393
100
AcDbEntity
  8
1
  6
Continuous
100
AcDbLine
 10
179.850807
 20
44.1
 30
0.0
 11
178.4491929999999
 21
44.1
 31
0.0
  0
CIRCLE
  5
E53B
330
E393
100
AcDbEntity
  8
1
  6
Continuous
100
AcDbCircle
 10
194.9
 20
44.5
 30
0.0
 40
1.6
  0
CIRCLE
  5
E53C
330
E393
100
AcDbEntity
  8
1
  6
Continuous
100
AcDbCircle
 10
190.4
 20
44.5
 30
0.0
 40
1.6
  0
LINE
  5
E53D
330
E393
100
AcDbEntity
  8
1
  6
Continuous
100
AcDbLine
 10
197.850807
 20
44.9
 30
0.0
 11
196.4491929999999
 21
44.9
 31
0.0
  0
LINE
  5
E53E
330
E393
100
AcDbEntity
  8
1
  6
Continuous
100
AcDbLine
 10
188.850807
 20
44.9
 30
0.0
 11
187.4491929999998
 21
44.9
 31
0.0
  0
LINE
  5
E53F
330
E393
100
AcDbEntity
  8
1
  6
Continuous
100
AcDbLine
 10
193.350807
 20
44.9
 30
0.0
 11
191.9491929999999
 21
44.9
 31
0.0
  0
LINE
  5
E540
330
E393
100
AcDbEntity
  8
1
  6
Continuous
100
AcDbLine
 10
197.850807
 20
44.1
 30
0.0
 11
196.4491929999999
 21
44.1
 31
0.0
  0
LINE
  5
E541
330
E393
100
AcDbEntity
  8
1
  6
Continuous
100
AcDbLine
 10
188.850807
 20
44.1
 30
0.0
 11
187.4491929999998
 21
44.1
 31
0.0
  0
LINE
  5
E542
330
E393
100
AcDbEntity
  8
1
  6
Continuous
100
AcDbLine
 10
193.350807
 20
44.1
 30
0.0
 11
191.9491929999999
 21
44.1
 31
0.0
  0
CIRCLE
  5
E543
330
E393
100
AcDbEntity
  8
1
  6
Continuous
100
AcDbCircle
 10
199.3999999999998
 20
44.5
 30
0.0
 40
1.6
  0
CIRCLE
  5
E544
330
E393
100
AcDbEntity
  8
1
  6
Continuous
100
AcDbCircle
 10
217.3999999999999
 20
44.5
 30
0.0
 40
1.6
  0
CIRCLE
  5
E545
330
E393
100
AcDbEntity
  8
1
  6
Continuous
100
AcDbCircle
 10
203.9
 20
44.5
 30
0.0
 40
1.6
  0
CIRCLE
  5
E546
330
E393
100
AcDbEntity
  8
1
  6
Continuous
100
AcDbCircle
 10
208.4
 20
44.5
 30
0.0
 40
1.6
  0
CIRCLE
  5
E547
330
E393
100
AcDbEntity
  8
1
  6
Continuous
100
AcDbCircle
 10
212.9
 20
44.5
 30
0.0
 40
1.6
  0
LINE
  5
E548
330
E393
100
AcDbEntity
  8
1
  6
Continuous
100
AcDbLine
 10
206.850807
 20
44.9
 30
0.0
 11
205.4491929999998
 21
44.9
 31
0.0
  0
LINE
  5
E549
330
E393
100
AcDbEntity
  8
1
  6
Continuous
100
AcDbLine
 10
211.3508069999999
 20
44.9
 30
0.0
 11
209.949193
 21
44.9
 31
0.0
  0
LINE
  5
E54A
330
E393
100
AcDbEntity
  8
1
  6
Continuous
100
AcDbLine
 10
215.8508069999999
 20
44.9
 30
0.0
 11
214.449193
 21
44.9
 31
0.0
  0
LINE
  5
E54B
330
E393
100
AcDbEntity
  8
1
  6
Continuous
100
AcDbLine
 10
206.850807
 20
44.1
 30
0.0
 11
205.4491929999998
 21
44.1
 31
0.0
  0
LINE
  5
E54C
330
E393
100
AcDbEntity
  8
1
  6
Continuous
100
AcDbLine
 10
211.3508069999999
 20
44.1
 30
0.0
 11
209.949193
 21
44.1
 31
0.0
  0
LINE
  5
E54D
330
E393
100
AcDbEntity
  8
1
  6
Continuous
100
AcDbLine
 10
215.8508069999999
 20
44.1
 30
0.0
 11
214.449193
 21
44.1
 31
0.0
  0
LINE
  5
E54E
330
E393
100
AcDbEntity
  8
4
  6
CENTER
100
AcDbLine
 10
222.3
 20
39.5
 30
0.0
 11
222.3
 21
49.5
 31
0.0
  0
LINE
  5
E54F
330
E393
100
AcDbEntity
  8
4
  6
CENTER
100
AcDbLine
 10
221.9
 20
47.7
 30
0.0
 11
221.9
 21
41.29999999999999
 31
0.0
  0
LINE
  5
E550
330
E393
100
AcDbEntity
  8
1
  6
Continuous
100
AcDbLine
 10
219.8322069999999
 20
44.9
 30
0.0
 11
218.9491929999999
 21
44.9
 31
0.0
  0
LINE
  5
E551
330
E393
100
AcDbEntity
  8
1
  6
Continuous
100
AcDbLine
 10
219.8322069999999
 20
44.1
 30
0.0
 11
218.9491929999999
 21
44.1
 31
0.0
  0
LINE
  5
E552
330
E393
100
AcDbEntity
  8
1
  6
Continuous
100
AcDbLine
 10
37.0
 20
43.89999999999999
 30
0.0
 11
37.0
 21
45.1
 31
0.0
  0
LINE
  5
E553
330
E393
100
AcDbEntity
  8
4
  6
CENTER
100
AcDbLine
 10
222.3
 20
95.5
 30
0.0
 11
222.3
 21
85.5
 31
0.0
  0
LINE
  5
E554
330
E393
100
AcDbEntity
  8
4
  6
CENTER
100
AcDbLine
 10
230.8
 20
87.0
 30
0.0
 11
230.8
 21
90.0
 31
0.0
  0
ARC
  5
E555
330
E393
100
AcDbEntity
  8
1
  6
Continuous
100
AcDbCircle
 10
222.3
 20
90.5
 30
0.0
 40
2.5
100
AcDbArc
 50
351.786789
 51
270.0
  0
ARC
  5
E556
330
E393
100
AcDbEntity
  8
1
  6
Continuous
100
AcDbCircle
 10
222.3
 20
90.5
 30
0.0
 40
2.0
100
AcDbArc
 50
351.786789
 51
270.0
  0
LINE
  5
E557
330
E393
100
AcDbEntity
  8
1
  6
Continuous
100
AcDbLine
 10
234.2999999999999
 20
88.0
 30
0.0
 11
222.3
 21
88.0
 31
0.0
  0
LINE
  5
E558
330
E393
100
AcDbEntity
  8
1
  6
Continuous
100
AcDbLine
 10
234.2999999999999
 20
88.49999999999999
 30
0.0
 11
222.3
 21
88.49999999999999
 31
0.0
  0
CIRCLE
  5
E559
330
E393
100
AcDbEntity
  8
1
  6
Continuous
100
AcDbCircle
 10
221.9
 20
90.5
 30
0.0
 40
1.6
  0
LINE
  5
E55A
330
E393
100
AcDbEntity
  8
1
  6
Continuous
100
AcDbLine
 10
227.927719
 20
89.0
 30
0.0
 11
227.927719
 21
88.0
 31
0.0
  0
ARC
  5
E55B
330
E393
100
AcDbEntity
  8
1
  6
Continuous
100
AcDbCircle
 10
225.764102
 20
90.0
 30
0.0
 40
1.5
100
AcDbArc
 50
171.7867889999999
 51
270.0
  0
ARC
  5
E55C
330
E393
100
AcDbEntity
  8
1
  6
Continuous
100
AcDbCircle
 10
225.764102
 20
90.0
 30
0.0
 40
1.0
100
AcDbArc
 50
171.7867889999999
 51
270.0
  0
LINE
  5
E55D
330
E393
100
AcDbEntity
  8
1
  6
Continuous
100
AcDbLine
 10
234.2999999999999
 20
88.0
 30
0.0
 11
234.2999999999999
 21
89.0
 31
0.0
  0
LINE
  5
E55E
330
E393
100
AcDbEntity
  8
1
  6
Continuous
100
AcDbLine
 10
234.2999999999999
 20
89.0
 30
0.0
 11
225.764102
 21
89.0
 31
0.0
  0
LINE
  5
E55F
330
E393
100
AcDbEntity
  8
4
  6
CENTER
100
AcDbLine
 10
221.9
 20
87.29999999999998
 30
0.0
 11
221.9
 21
93.7
 31
0.0
  0
LINE
  5
E560
330
E393
100
AcDbEntity
  8
1
  6
Continuous
100
AcDbLine
 10
219.7999999999999
 20
138.5
 30
0.0
 11
227.927719
 21
138.5
 31
0.0
  0
LINE
  5
E561
330
E393
100
AcDbEntity
  8
1
  6
Continuous
100
AcDbLine
 10
219.7999999999999
 20
137.0999999999999
 30
0.0
 11
229.1029439999999
 21
137.0999999999999
 31
0.0
  0
LINE
  5
E562
330
E393
100
AcDbEntity
  8
1
  6
Continuous
100
AcDbLine
 10
219.7999999999999
 20
134.4999999999998
 30
0.0
 11
227.927719
 21
134.4999999999998
 31
0.0
  0
LINE
  5
E563
330
E393
100
AcDbEntity
  8
1
  6
Continuous
100
AcDbLine
 10
219.7999999999999
 20
135.8999999999997
 30
0.0
 11
229.1029439999999
 21
135.8999999999997
 31
0.0
  0
LINE
  5
E564
330
E393
100
AcDbEntity
  8
1
  6
Continuous
100
AcDbLine
 10
224.9770999999999
 20
134.6999999999999
 30
0.0
 11
224.9770999999999
 21
135.6999999999999
 31
0.0
  0
LINE
  5
E565
330
E393
100
AcDbEntity
  8
1
  6
Continuous
100
AcDbLine
 10
224.9770999999999
 20
137.3
 30
0.0
 11
224.9770999999999
 21
138.3
 31
0.0
  0
ARC
  5
E566
330
E393
100
AcDbEntity
  8
1
  6
Continuous
100
AcDbCircle
 10
221.9
 20
136.4999999999998
 30
0.0
 40
1.6
100
AcDbArc
 50
337.975687
 51
22.024313
  0
CIRCLE
  5
E567
330
E393
100
AcDbEntity
  8
1
  6
Continuous
100
AcDbCircle
 10
230.8
 20
136.4999999999998
 30
0.0
 40
1.8
  0
ARC
  5
E568
330
E393
100
AcDbEntity
  8
1
  6
Continuous
100
AcDbCircle
 10
230.8
 20
136.4999999999998
 30
0.0
 40
3.5
100
AcDbArc
 50
214.8499049999998
 51
145.1500949999999
  0
LINE
  5
E569
330
E393
100
AcDbEntity
  8
1
  6
Continuous
100
AcDbLine
 10
219.7999999999999
 20
137.0999999999999
 30
0.0
 11
219.7999999999999
 21
138.5
 31
0.0
  0
LINE
  5
E56A
330
E393
100
AcDbEntity
  8
1
  6
Continuous
100
AcDbLine
 10
219.7999999999999
 20
134.4999999999998
 30
0.0
 11
219.7999999999999
 21
135.8999999999997
 31
0.0
  0
LINE
  5
E56B
330
E393
100
AcDbEntity
  8
4
  6
CENTER
100
AcDbLine
 10
221.9
 20
133.3
 30
0.0
 11
221.9
 21
139.7
 31
0.0
  0
LINE
  5
E56C
330
E393
100
AcDbEntity
  8
4
  6
CENTER
100
AcDbLine
 10
222.3
 20
140.5
 30
0.0
 11
222.3
 21
132.4999999999998
 31
0.0
  0
ARC
  5
E56D
330
E393
100
AcDbEntity
  8
1
  6
Continuous
100
AcDbCircle
 10
221.9
 20
136.4999999999998
 30
0.0
 40
1.6
100
AcDbArc
 50
157.9756869999999
 51
202.0243129999999
  0
LINE
  5
E56E
330
E393
100
AcDbEntity
  8
4
  6
CENTER
100
AcDbLine
 10
230.8
 20
129.4999999999998
 30
0.0
 11
230.8
 21
143.5
 31
0.0
  0
LINE
  5
E56F
330
E393
100
AcDbEntity
  8
1
  6
Continuous
100
AcDbLine
 10
219.7999999999999
 20
42.5
 30
0.0
 11
227.927719
 21
42.5
 31
0.0
  0
LINE
  5
E570
330
E393
100
AcDbEntity
  8
1
  6
Continuous
100
AcDbLine
 10
219.7999999999999
 20
46.5
 30
0.0
 11
227.927719
 21
46.5
 31
0.0
  0
ARC
  5
E571
330
E393
100
AcDbEntity
  8
1
  6
Continuous
100
AcDbCircle
 10
230.8
 20
44.5
 30
0.0
 40
3.5
100
AcDbArc
 50
214.8499049999998
 51
145.1500949999999
  0
CIRCLE
  5
E572
330
E393
100
AcDbEntity
  8
1
  6
Continuous
100
AcDbCircle
 10
230.8
 20
44.5
 30
0.0
 40
1.8
  0
LINE
  5
E573
330
E393
100
AcDbEntity
  8
1
  6
Continuous
100
AcDbLine
 10
222.3
 20
43.89999999999999
 30
0.0
 11
222.3
 21
45.1
 31
0.0
  0
ARC
  5
E574
330
E393
100
AcDbEntity
  8
1
  6
Continuous
100
AcDbCircle
 10
221.9
 20
44.5
 30
0.0
 40
1.6
100
AcDbArc
 50
157.9756869999999
 51
202.0243129999999
  0
LINE
  5
E575
330
E393
100
AcDbEntity
  8
1
  6
Continuous
100
AcDbLine
 10
219.7999999999999
 20
43.89999999999999
 30
0.0
 11
219.7999999999999
 21
42.5
 31
0.0
  0
LINE
  5
E576
330
E393
100
AcDbEntity
  8
1
  6
Continuous
100
AcDbLine
 10
219.7999999999999
 20
43.89999999999999
 30
0.0
 11
222.3
 21
43.89999999999999
 31
0.0
  0
LINE
  5
E577
330
E393
100
AcDbEntity
  8
1
  6
Continuous
100
AcDbLine
 10
219.7999999999999
 20
46.5
 30
0.0
 11
219.7999999999999
 21
45.1
 31
0.0
  0
LINE
  5
E578
330
E393
100
AcDbEntity
  8
1
  6
Continuous
100
AcDbLine
 10
219.7999999999999
 20
45.1
 30
0.0
 11
222.3
 21
45.1
 31
0.0
  0
LINE
  5
E579
330
E393
100
AcDbEntity
  8
4
  6
CENTER
100
AcDbLine
 10
230.8
 20
51.5
 30
0.0
 11
230.8
 21
37.5
 31
0.0
  0
LINE
  5
E57A
330
E393
100
AcDbEntity
  8
4
  6
CENTER
100
AcDbLine
 10
257.8
 20
95.5
 30
0.0
 11
257.8
 21
85.5
 31
0.0
  0
LINE
  5
E57B
330
E393
100
AcDbEntity
  8
1
  6
Continuous
100
AcDbLine
 10
261.2999999999999
 20
88.0
 30
0.0
 11
254.3
 21
88.0
 31
0.0
  0
LINE
  5
E57C
330
E393
100
AcDbEntity
  8
4
  6
CENTER
100
AcDbLine
 10
252.3219029999999
 20
90.5
 30
0.0
 11
263.3219029999998
 21
90.5
 31
0.0
  0
LINE
  5
E57D
330
E393
100
AcDbEntity
  8
1
  6
Continuous
100
AcDbLine
 10
261.2999999999999
 20
89.0
 30
0.0
 11
254.3
 21
89.0
 31
0.0
  0
LINE
  5
E57E
330
E393
100
AcDbEntity
  8
1
  6
Continuous
100
AcDbLine
 10
261.2999999999999
 20
88.49999999999999
 30
0.0
 11
254.3
 21
88.49999999999999
 31
0.0
  0
LINE
  5
E57F
330
E393
100
AcDbEntity
  8
1
  6
Continuous
100
AcDbLine
 10
259.8
 20
93.0
 30
0.0
 11
259.8
 21
89.0
 31
0.0
  0
ARC
  5
E580
330
E393
100
AcDbEntity
  8
1
  6
Continuous
100
AcDbCircle
 10
257.8
 20
90.5
 30
0.0
 40
1.6
100
AcDbArc
 50
67.97568699999999
 51
112.0243129999999
  0
LINE
  5
E581
330
E393
100
AcDbEntity
  8
1
  6
Continuous
100
AcDbLine
 10
261.2999999999999
 20
89.0
 30
0.0
 11
261.2999999999999
 21
88.0
 31
0.0
  0
LINE
  5
E582
330
E393
100
AcDbEntity
  8
1
  6
Continuous
100
AcDbLine
 10
259.8
 20
93.0
 30
0.0
 11
258.3999999999999
 21
93.0
 31
0.0
  0
LINE
  5
E583
330
E393
100
AcDbEntity
  8
1
  6
Continuous
100
AcDbLine
 10
257.2
 20
93.0
 30
0.0
 11
255.8
 21
93.0
 31
0.0
  0
LINE
  5
E584
330
E393
100
AcDbEntity
  8
1
  6
Continuous
100
AcDbLine
 10
255.8
 20
93.0
 30
0.0
 11
255.8
 21
89.0
 31
0.0
  0
LINE
  5
E585
330
E393
100
AcDbEntity
  8
1
  6
Continuous
100
AcDbLine
 10
257.2
 20
93.0
 30
0.0
 11
257.2
 21
89.0
 31
0.0
  0
LINE
  5
E586
330
E393
100
AcDbEntity
  8
1
  6
Continuous
100
AcDbLine
 10
258.3999999999999
 20
93.0
 30
0.0
 11
258.3999999999999
 21
89.0
 31
0.0
  0
LINE
  5
E587
330
E393
100
AcDbEntity
  8
1
  6
Continuous
100
AcDbLine
 10
254.3
 20
89.0
 30
0.0
 11
254.3
 21
88.0
 31
0.0
  0
ENDSEC
  0
SECTION
  2
OBJECTS
  0
DICTIONARY
  5
E381
330
0
100
AcDbDictionary
281
     1
  3
ACAD_CIP_PREVIOUS_PRODUCT_INFO
350
E5E7
  3
ACAD_COLOR
350
E5C9
  3
ACAD_DETAILVIEWSTYLE
350
E5E2
  3
ACAD_GROUP
350
E382
  3
ACAD_LAYOUT
350
E38E
  3
ACAD_MATERIAL
350
E597
  3
ACAD_MLEADERSTYLE
350
E5DE
  3
ACAD_MLINESTYLE
350
E38B
  3
ACAD_PLOTSETTINGS
350
E38D
  3
ACAD_PLOTSTYLENAME
350
E595
  3
ACAD_SCALELIST
350
E5CC
  3
ACAD_SECTIONVIEWSTYLE
350
E5E0
  3
ACAD_TABLESTYLE
350
E5CA
  3
ACAD_VISUALSTYLE
350
E5B0
  3
ACDB_RECOMPOSE_DATA
350
E605
  3
AcDbVariableDictionary
350
E5F8
  3
DWGPROPS
350
E606
  0
DICTIONARY
  5
E5E8
330
E385
100
AcDbDictionary
280
     1
281
     1
  3
ADSK_XREC_LAYER_RECONCILED
360
E5E9
  0
DICTIONARY
  5
E5EA
330
E39B
100
AcDbDictionary
280
     1
281
     1
  3
ADSK_XREC_LAYER_RECONCILED
360
E5EB
  0
DICTIONARY
  5
E5EC
330
E39C
100
AcDbDictionary
280
     1
281
     1
  3
ADSK_XREC_LAYER_RECONCILED
360
E5ED
  0
DICTIONARY
  5
E5EE
330
E39D
100
AcDbDictionary
280
     1
281
     1
  3
ADSK_XREC_LAYER_RECONCILED
360
E5EF
  0
DICTIONARY
  5
E5F0
330
E39E
100
AcDbDictionary
280
     1
281
     1
  3
ADSK_XREC_LAYER_RECONCILED
360
E5F1
  0
DICTIONARY
  5
E5F2
330
E39F
100
AcDbDictionary
280
     1
281
     1
  3
ADSK_XREC_LAYER_RECONCILED
360
E5F3
  0
DICTIONARY
  5
E5F4
330
E3A0
100
AcDbDictionary
280
     1
281
     1
  3
ADSK_XREC_LAYER_RECONCILED
360
E5F5
  0
DICTIONARY
  5
E5F6
330
E3A1
100
AcDbDictionary
280
     1
281
     1
  3
ADSK_XREC_LAYER_RECONCILED
360
E5F7
  0
DICTIONARY
  5
E590
330
E393
100
AcDbDictionary
281
     1
  3
ACAD_LAYOUTSELFREF
350
E591
  0
DICTIONARY
  5
E58E
330
E38F
100
AcDbDictionary
281
     1
  3
ACAD_LAYOUTSELFREF
350
E58F
  0
XRECORD
  5
E5E7
102
{ACAD_REACTORS
330
E381
102
}
330
E381
100
AcDbXrecord
280
     1
300
ACDLT
300
2014
300
ACDLT_F_S
  0
DICTIONARY
  5
E5C9
102
{ACAD_REACTORS
330
E381
102
}
330
E381
100
AcDbDictionary
281
     1
  0
DICTIONARY
  5
E5E2
102
{ACAD_REACTORS
330
E381
102
}
330
E381
100
AcDbDictionary
281
     1
  3
Imperial24
350
E5E3
  0
DICTIONARY
  5
E382
102
{ACAD_REACTORS
330
E381
102
}
330
E381
100
AcDbDictionary
281
     1
  0
DICTIONARY
  5
E38E
102
{ACAD_REACTORS
330
E381
102
}
330
E381
100
AcDbDictionary
281
     1
  3
Model
350
E5E4
  3
レイアウト1
350
E5E5
  0
DICTIONARY
  5
E597
102
{ACAD_REACTORS
330
E381
102
}
330
E381
100
AcDbDictionary
281
     1
  3
ByBlock
350
E5A0
  3
ByLayer
350
E598
  3
Global
350
E5A8
  0
DICTIONARY
  5
E5DE
102
{ACAD_REACTORS
330
E381
102
}
330
E381
100
AcDbDictionary
281
     1
  3
Standard
350
E5DF
  0
DICTIONARY
  5
E38B
102
{ACAD_REACTORS
330
E381
102
}
330
E381
100
AcDbDictionary
281
     1
  3
STANDARD
350
E38C
  0
DICTIONARY
  5
E38D
102
{ACAD_REACTORS
330
E381
102
}
330
E381
100
AcDbDictionary
281
     1
  0
ACDBDICTIONARYWDFLT
  5
E595
102
{ACAD_REACTORS
330
E381
102
}
330
E381
100
AcDbDictionary
281
     1
  3
Normal
350
E596
100
AcDbDictionaryWithDefault
340
E596
  0
DICTIONARY
  5
E5CC
102
{ACAD_REACTORS
330
E381
102
}
330
E381
100
AcDbDictionary
281
     1
  3
A0
350
E5CD
  3
A1
350
E5CE
  3
A2
350
E5CF
  3
A3
350
E5D0
  3
A4
350
E5D1
  3
A5
350
E5D2
  3
A6
350
E5D3
  3
A7
350
E5D4
  3
A8
350
E5D5
  3
A9
350
E5D6
  3
B0
350
E5D7
  3
B1
350
E5D8
  3
B2
350
E5D9
  3
B3
350
E5DA
  3
B4
350
E5DB
  3
B5
350
E5DC
  3
B6
350
E5DD
  0
DICTIONARY
  5
E5E0
102
{ACAD_REACTORS
330
E381
102
}
330
E381
100
AcDbDictionary
281
     1
  3
Imperial24
350
E5E1
  0
DICTIONARY
  5
E5CA
102
{ACAD_REACTORS
330
E381
102
}
330
E381
100
AcDbDictionary
281
     1
  3
Standard
350
E5CB
  0
DICTIONARY
  5
E5B0
102
{ACAD_REACTORS
330
E381
102
}
330
E381
100
AcDbDictionary
281
     1
  3
2dWireframe
350
E5B6
  3
Basic
350
E5B5
  3
Brighten
350
E5BC
  3
ColorChange
350
E5C0
  3
Conceptual
350
E5B9
  3
Dim
350
E5BB
  3
EdgeColorOff
350
E5C8
  3
Facepattern
350
E5BF
  3
Flat
350
E5B1
  3
FlatWithEdges
350
E5B2
  3
Gouraud
350
E5B3
  3
GouraudWithEdges
350
E5B4
  3
Hidden
350
E5B8
  3
JitterOff
350
E5C6
  3
Linepattern
350
E5BE
  3
OverhangOff
350
E5C7
  3
Realistic
350
E5BA
  3
Shaded
350
E5C5
  3
Shaded with edges
350
E5C4
  3
Shades of Gray
350
E5C1
  3
Sketchy
350
E5C2
  3
Thicken
350
E5BD
  3
Wireframe
350
E5B7
  3
X-Ray
350
E5C3
  0
XRECORD
  5
E605
102
{ACAD_REACTORS
330
E381
102
}
330
E381
100
AcDbXrecord
280
     1
 90
        1
330
E5CB
  0
DICTIONARY
  5
E5F8
102
{ACAD_REACTORS
330
E381
102
}
330
E381
100
AcDbDictionary
281
     1
  3
CANNOSCALE
350
E5FD
  3
CMLEADERSTYLE
350
E5FA
  3
CTABLESTYLE
350
E5F9
  3
CVIEWDETAILSTYLE
350
E5FB
  3
CVIEWSECTIONSTYLE
350
E5FC
  3
DIMASSOC
350
E600
  3
INDEXCTL
350
E5FF
  3
SORTENTS
350
E5FE
  3
XCLIPFRAME
350
E601
  0
XRECORD
  5
E606
102
{ACAD_REACTORS
330
E381
102
}
330
E381
100
AcDbXrecord
280
     1
  1
DWGPROPS COOKIE
  2

  3

  4

  6

  7

  8
Yoshitsune
  9

300
=
301
=
302
=
303
=
304
=
305
=
306
=
307
=
308
=
309
=
 40
0.0000105555555556
 41
2451285.444331944
 42
2457192.659194063
  1

 90
        0
  0
XRECORD
  5
E5E9
102
{ACAD_REACTORS
330
E5E8
102
}
330
E5E8
100
AcDbXrecord
280
     1
290
     1
  0
XRECORD
  5
E5EB
102
{ACAD_REACTORS
330
E5EA
102
}
330
E5EA
100
AcDbXrecord
280
     1
290
     1
  0
XRECORD
  5
E5ED
102
{ACAD_REACTORS
330
E5EC
102
}
330
E5EC
100
AcDbXrecord
280
     1
290
     1
  0
XRECORD
  5
E5EF
102
{ACAD_REACTORS
330
E5EE
102
}
330
E5EE
100
AcDbXrecord
280
     1
290
     1
  0
XRECORD
  5
E5F1
102
{ACAD_REACTORS
330
E5F0
102
}
330
E5F0
100
AcDbXrecord
280
     1
290
     1
  0
XRECORD
  5
E5F3
102
{ACAD_REACTORS
330
E5F2
102
}
330
E5F2
100
AcDbXrecord
280
     1
290
     1
  0
XRECORD
  5
E5F5
102
{ACAD_REACTORS
330
E5F4
102
}
330
E5F4
100
AcDbXrecord
280
     1
290
     1
  0
XRECORD
  5
E5F7
102
{ACAD_REACTORS
330
E5F6
102
}
330
E5F6
100
AcDbXrecord
280
     1
290
     1
  0
XRECORD
  5
E591
102
{ACAD_REACTORS
330
E590
102
}
330
E590
100
AcDbXrecord
280
     1
340
E393
  0
XRECORD
  5
E58F
102
{ACAD_REACTORS
330
E58E
102
}
330
E58E
100
AcDbXrecord
280
     1
340
E38F
  0
ACDBDETAILVIEWSTYLE
  5
E5E3
102
{ACAD_XDICTIONARY
360
E63E
102
}
102
{ACAD_REACTORS
330
E5E2
102
}
330
E5E2
100
AcDbModelDocViewStyle
 70
     0
  3
Imperial24
290
     0
100
AcDbDetailViewStyle
 70
     0
 71
     0
 90
        3
 71
     1
340
E386
 40
0.24
340
0
 40
0.24
300

 40
0.36
280
     3
 71
     2
340
E38A
 90
       25
 71
     3
340
E386
 40
0.24
 90
        1
 40
0.75
 90
        1
300
%<\AcVar ViewType \f "%tc1">% %<\AcVar ViewDetailId>%\PSCALE %<\AcVar ViewScale \f "%sn">%
 71
     4
340
E38A
 90
       25
340
E38A
 90
       25
280
     0
  0
LAYOUT
  5
E5E4
102
{ACAD_XDICTIONARY
360
E640
102
}
102
{ACAD_REACTORS
330
E38E
102
}
330
E38E
100
AcDbPlotSettings
  1

  2
Canon LBP9100C
  4

  6

 40
0.0
 41
0.0
 42
0.0
 43
0.0
 44
0.0
 45
0.0
 46
0.0
 47
0.0
 48
0.0
 49
0.0
140
0.0
141
0.0
142
1.0
143
1.0
 70
  1712
 72
     0
 73
     0
 74
     0
  7

 75
     0
147
1.0
148
0.0
149
0.0
100
AcDbLayout
  1
Model
 70
     1
 71
     0
 10
0.0
 20
0.0
 11
12.0
 21
9.0
 12
0.0
 22
0.0
 32
0.0
 14
0.0
 24
0.0
 34
0.0
 15
0.0
 25
0.0
 35
0.0
146
0.0
 13
0.0
 23
0.0
 33
0.0
 16
1.0
 26
0.0
 36
0.0
 17
0.0
 27
1.0
 37
0.0
 76
     0
330
E393
331
E58D
  0
LAYOUT
  5
E5E5
102
{ACAD_XDICTIONARY
360
E642
102
}
102
{ACAD_REACTORS
330
E38E
102
}
330
E38E
100
AcDbPlotSettings
  1

  2
Canon LBP9100C
  4

  6

 40
0.0
 41
0.0
 42
0.0
 43
0.0
 44
0.0
 45
0.0
 46
0.0
 47
0.0
 48
0.0
 49
0.0
140
0.0
141
0.0
142
1.0
143
1.0
 70
   688
 72
     0
 73
     0
 74
     5
  7

 75
    16
147
1.0
148
0.0
149
0.0
100
AcDbLayout
  1
レイアウト1
 70
     0
 71
     1
 10
0.0
 20
0.0
 11
420.0
 21
297.0
 12
0.0
 22
0.0
 32
0.0
 14
1.000000000000000E+20
 24
1.000000000000000E+20
 34
1.000000000000000E+20
 15
-1.000000000000000E+20
 25
-1.000000000000000E+20
 35
-1.000000000000000E+20
146
0.0
 13
0.0
 23
0.0
 33
0.0
 16
1.0
 26
0.0
 36
0.0
 17
0.0
 27
1.0
 37
0.0
 76
     0
330
E38F
  0
MATERIAL
  5
E5A0
102
{ACAD_XDICTIONARY
360
E5A1
102
}
102
{ACAD_REACTORS
330
E597
102
}
330
E597
100
AcDbMaterial
  1
ByBlock
 72
     0
 43
0.0208333333333333
 43
0.0
 43
0.0
 43
0.0
 43
0.0
 43
0.0208333333333333
 43
0.0
 43
0.0
 43
0.0
 43
0.0
 43
1.0
 43
0.0
 43
0.0
 43
0.0
 43
0.0
 43
1.0
 77
     0
 47
0.0208333333333333
 47
0.0
 47
0.0
 47
0.0
 47
0.0
 47
0.0208333333333333
 47
0.0
 47
0.0
 47
0.0
 47
0.0
 47
1.0
 47
0.0
 47
0.0
 47
0.0
 47
0.0
 47
1.0
171
     0
 49
0.0208333333333333
 49
0.0
 49
0.0
 49
0.0
 49
0.0
 49
0.0208333333333333
 49
0.0
 49
0.0
 49
0.0
 49
0.0
 49
1.0
 49
0.0
 49
0.0
 49
0.0
 49
0.0
 49
1.0
175
     0
142
0.0208333333333333
142
0.0
142
0.0
142
0.0
142
0.0
142
0.0208333333333333
142
0.0
142
0.0
142
0.0
142
0.0
142
1.0
142
0.0
142
0.0
142
0.0
142
0.0
142
1.0
179
     0
144
0.0208333333333333
144
0.0
144
0.0
144
0.0
144
0.0
144
0.0208333333333333
144
0.0
144
0.0
144
0.0
144
0.0
144
1.0
144
0.0
144
0.0
144
0.0
144
0.0
144
1.0
147
0.0208333333333333
147
0.0
147
0.0
147
0.0
147
0.0
147
0.0208333333333333
147
0.0
147
0.0
147
0.0
147
0.0
147
1.0
147
0.0
147
0.0
147
0.0
147
0.0
147
1.0
  0
MATERIAL
  5
E598
102
{ACAD_XDICTIONARY
360
E599
102
}
102
{ACAD_REACTORS
330
E597
102
}
330
E597
100
AcDbMaterial
  1
ByLayer
 72
     0
 43
0.0208333333333333
 43
0.0
 43
0.0
 43
0.0
 43
0.0
 43
0.0208333333333333
 43
0.0
 43
0.0
 43
0.0
 43
0.0
 43
1.0
 43
0.0
 43
0.0
 43
0.0
 43
0.0
 43
1.0
 77
     0
 47
0.0208333333333333
 47
0.0
 47
0.0
 47
0.0
 47
0.0
 47
0.0208333333333333
 47
0.0
 47
0.0
 47
0.0
 47
0.0
 47
1.0
 47
0.0
 47
0.0
 47
0.0
 47
0.0
 47
1.0
171
     0
 49
0.0208333333333333
 49
0.0
 49
0.0
 49
0.0
 49
0.0
 49
0.0208333333333333
 49
0.0
 49
0.0
 49
0.0
 49
0.0
 49
1.0
 49
0.0
 49
0.0
 49
0.0
 49
0.0
 49
1.0
175
     0
142
0.0208333333333333
142
0.0
142
0.0
142
0.0
142
0.0
142
0.0208333333333333
142
0.0
142
0.0
142
0.0
142
0.0
142
1.0
142
0.0
142
0.0
142
0.0
142
0.0
142
1.0
179
     0
144
0.0208333333333333
144
0.0
144
0.0
144
0.0
144
0.0
144
0.0208333333333333
144
0.0
144
0.0
144
0.0
144
0.0
144
1.0
144
0.0
144
0.0
144
0.0
144
0.0
144
1.0
147
0.0208333333333333
147
0.0
147
0.0
147
0.0
147
0.0
147
0.0208333333333333
147
0.0
147
0.0
147
0.0
147
0.0
147
1.0
147
0.0
147
0.0
147
0.0
147
0.0
147
1.0
  0
MATERIAL
  5
E5A8
102
{ACAD_XDICTIONARY
360
E5A9
102
}
102
{ACAD_REACTORS
330
E597
102
}
330
E597
100
AcDbMaterial
  1
Global
 72
     0
 43
0.0208333333333333
 43
0.0
 43
0.0
 43
0.0
 43
0.0
 43
0.0208333333333333
 43
0.0
 43
0.0
 43
0.0
 43
0.0
 43
1.0
 43
0.0
 43
0.0
 43
0.0
 43
0.0
 43
1.0
 77
     0
 47
0.0208333333333333
 47
0.0
 47
0.0
 47
0.0
 47
0.0
 47
0.0208333333333333
 47
0.0
 47
0.0
 47
0.0
 47
0.0
 47
1.0
 47
0.0
 47
0.0
 47
0.0
 47
0.0
 47
1.0
171
     0
 49
0.0208333333333333
 49
0.0
 49
0.0
 49
0.0
 49
0.0
 49
0.0208333333333333
 49
0.0
 49
0.0
 49
0.0
 49
0.0
 49
1.0
 49
0.0
 49
0.0
 49
0.0
 49
0.0
 49
1.0
175
     0
142
0.0208333333333333
142
0.0
142
0.0
142
0.0
142
0.0
142
0.0208333333333333
142
0.0
142
0.0
142
0.0
142
0.0
142
1.0
142
0.0
142
0.0
142
0.0
142
0.0
142
1.0
179
     0
144
0.0208333333333333
144
0.0
144
0.0
144
0.0
144
0.0
144
0.0208333333333333
144
0.0
144
0.0
144
0.0
144
0.0
144
1.0
144
0.0
144
0.0
144
0.0
144
0.0
144
1.0
147
0.0208333333333333
147
0.0
147
0.0
147
0.0
147
0.0
147
0.0208333333333333
147
0.0
147
0.0
147
0.0
147
0.0
147
1.0
147
0.0
147
0.0
147
0.0
147
0.0
147
1.0
  0
MLEADERSTYLE
  5
E5DF
102
{ACAD_REACTORS
330
E5DE
102
}
330
E5DE
100
AcDbMLeaderStyle
170
     2
171
     1
172
     0
 90
        2
 40
0.0
 41
0.0
173
     1
 91
-1056964608
340
E388
 92
       -2
290
     1
 42
0.09
291
     1
 43
0.36
  3
Standard
 44
0.18
300

342
E386
174
     1
178
     6
175
     1
176
     0
 93
-1056964608
 45
0.18
292
     0
297
     0
 46
0.18
 94
-1056964608
 47
1.0
 49
1.0
140
1.0
293
     1
141
0.0
294
     1
177
     0
142
1.0
295
     0
296
     0
143
0.125
1001
ACAD_MLEADERVER
1070
     2
  0
MLINESTYLE
  5
E38C
102
{ACAD_REACTORS
330
E38B
102
}
330
E38B
100
AcDbMlineStyle
  2
STANDARD
 70
     0
  3

 62
   256
 51
90.0
 52
90.0
 71
     2
 49
0.5
 62
   256
  6
BYLAYER
 49
-0.5
 62
   256
  6
BYLAYER
  0
ACDBPLACEHOLDER
  5
E596
102
{ACAD_REACTORS
330
E595
102
}
330
E595
  0
SCALE
  5
E5CD
102
{ACAD_REACTORS
330
E5CC
102
}
330
E5CC
100
AcDbScale
 70
     0
300
1:1
140
1.0
141
1.0
290
     1
  0
SCALE
  5
E5CE
102
{ACAD_REACTORS
330
E5CC
102
}
330
E5CC
100
AcDbScale
 70
     0
300
1/128" = 1'-0"
140
0.0078125
141
12.0
290
     0
  0
SCALE
  5
E5CF
102
{ACAD_REACTORS
330
E5CC
102
}
330
E5CC
100
AcDbScale
 70
     0
300
1/64" = 1'-0"
140
0.015625
141
12.0
290
     0
  0
SCALE
  5
E5D0
102
{ACAD_REACTORS
330
E5CC
102
}
330
E5CC
100
AcDbScale
 70
     0
300
1/32" = 1'-0"
140
0.03125
141
12.0
290
     0
  0
SCALE
  5
E5D1
102
{ACAD_REACTORS
330
E5CC
102
}
330
E5CC
100
AcDbScale
 70
     0
300
1/16" = 1'-0"
140
0.0625
141
12.0
290
     0
  0
SCALE
  5
E5D2
102
{ACAD_REACTORS
330
E5CC
102
}
330
E5CC
100
AcDbScale
 70
     0
300
3/32" = 1'-0"
140
0.09375
141
12.0
290
     0
  0
SCALE
  5
E5D3
102
{ACAD_REACTORS
330
E5CC
102
}
330
E5CC
100
AcDbScale
 70
     0
300
1/8" = 1'-0"
140
0.125
141
12.0
290
     0
  0
SCALE
  5
E5D4
102
{ACAD_REACTORS
330
E5CC
102
}
330
E5CC
100
AcDbScale
 70
     0
300
3/16" = 1'-0"
140
0.1875
141
12.0
290
     0
  0
SCALE
  5
E5D5
102
{ACAD_REACTORS
330
E5CC
102
}
330
E5CC
100
AcDbScale
 70
     0
300
1/4" = 1'-0"
140
0.25
141
12.0
290
     0
  0
SCALE
  5
E5D6
102
{ACAD_REACTORS
330
E5CC
102
}
330
E5CC
100
AcDbScale
 70
     0
300
3/8" = 1'-0"
140
0.375
141
12.0
290
     0
  0
SCALE
  5
E5D7
102
{ACAD_REACTORS
330
E5CC
102
}
330
E5CC
100
AcDbScale
 70
     0
300
1/2" = 1'-0"
140
0.5
141
12.0
290
     0
  0
SCALE
  5
E5D8
102
{ACAD_REACTORS
330
E5CC
102
}
330
E5CC
100
AcDbScale
 70
     0
300
3/4" = 1'-0"
140
0.75
141
12.0
290
     0
  0
SCALE
  5
E5D9
102
{ACAD_REACTORS
330
E5CC
102
}
330
E5CC
100
AcDbScale
 70
     0
300
1" = 1'-0"
140
1.0
141
12.0
290
     0
  0
SCALE
  5
E5DA
102
{ACAD_REACTORS
330
E5CC
102
}
330
E5CC
100
AcDbScale
 70
     0
300
1-1/2" = 1'-0"
140
1.5
141
12.0
290
     0
  0
SCALE
  5
E5DB
102
{ACAD_REACTORS
330
E5CC
102
}
330
E5CC
100
AcDbScale
 70
     0
300
3" = 1'-0"
140
3.0
141
12.0
290
     0
  0
SCALE
  5
E5DC
102
{ACAD_REACTORS
330
E5CC
102
}
330
E5CC
100
AcDbScale
 70
     0
300
6" = 1'-0"
140
6.0
141
12.0
290
     0
  0
SCALE
  5
E5DD
102
{ACAD_REACTORS
330
E5CC
102
}
330
E5CC
100
AcDbScale
 70
     0
300
1'-0" = 1'-0"
140
12.0
141
12.0
290
     0
  0
ACDBSECTIONVIEWSTYLE
  5
E5E1
102
{ACAD_XDICTIONARY
360
E63C
102
}
102
{ACAD_REACTORS
330
E5E0
102
}
330
E5E0
100
AcDbModelDocViewStyle
 70
     0
  3
Imperial24
290
     0
100
AcDbSectionViewStyle
 70
     0
 71
     0
 90
       78
 71
     1
340
E386
 40
0.24
340
0
340
0
 40
0.24
300
I, O, Q, S, X, Z
 40
0.48
 90
        3
 40
0.18
 90
        1
 71
     2
340
E38A
 90
       25
340
E38A
 90
       50
 40
0.24
 40
0.0
 40
0.24
 71
     3
340
E386
 40
0.24
 90
        1
 40
0.75
 90
        1
300
%<\AcVar ViewType \f "%tc1">% %<\AcVar ViewSectionStartId>%-%<\AcVar ViewSectionEndId>%\PSCALE %<\AcVar ViewScale \f "%sn">%
 71
     4
300
ANSI31
 40
1.0
 90
        0
290
     0
290
     0
 90
        6
 40
0.0
 40
1.570796326794896
 40
0.2617993877991494
 40
1.308996938995747
 40
-0.2617993877991494
 40
1.832595714594046
  0
TABLESTYLE
  5
E5CB
102
{ACAD_XDICTIONARY
360
E603
102
}
102
{ACAD_REACTORS
330
E5CA
102
}
330
E5CA
100
AcDbTableStyle
  3
Standard
 70
     0
 71
     0
 40
0.06
 41
0.06
280
     0
281
     0
  7
STANDARD
140
0.18
170
     2
 62
     0
 63
     7
283
     0
274
    -2
284
     1
 64
     0
275
    -2
285
     1
 65
     0
276
    -2
286
     1
 66
     0
277
    -2
287
     1
 67
     0
278
    -2
288
     1
 68
     0
279
    -2
289
     1
 69
     0
  7
STANDARD
140
0.25
170
     5
 62
     0
 63
     7
283
     0
274
    -2
284
     1
 64
     0
275
    -2
285
     1
 65
     0
276
    -2
286
     1
 66
     0
277
    -2
287
     1
 67
     0
278
    -2
288
     1
 68
     0
279
    -2
289
     1
 69
     0
  7
STANDARD
140
0.18
170
     5
 62
     0
 63
     7
283
     0
274
    -2
284
     1
 64
     0
275
    -2
285
     1
 65
     0
276
    -2
286
     1
 66
     0
277
    -2
287
     1
 67
     0
278
    -2
288
     1
 68
     0
279
    -2
289
     1
 69
     0
  0
VISUALSTYLE
  5
E5B6
102
{ACAD_XDICTIONARY
360
E614
102
}
102
{ACAD_REACTORS
330
E5B0
102
}
330
E5B0
100
AcDbVisualStyle
  2
2dWireframe
 70
     4
 71
     0
 72
     2
 73
     0
 90
        0
 40
-0.6
 41
-30.0
 62
     5
 63
     7
 74
     1
 91
        4
 64
     7
 65
   257
 75
     1
175
     1
 42
1.0
 92
        0
 66
   257
 43
1.0
 76
     1
 77
     6
 78
     2
 67
     7
 79
     5
170
     0
171
     0
290
     0
174
     0
 93
        1
 44
0.0
173
     0
291
     0
 45
0.0
1001
ACAD
1000
AcDbSavedByObjectVersion
1070
     0
  0
VISUALSTYLE
  5
E5B5
102
{ACAD_XDICTIONARY
360
E612
102
}
102
{ACAD_REACTORS
330
E5B0
102
}
330
E5B0
100
AcDbVisualStyle
  2
Basic
 70
     7
 71
     1
 72
     0
 73
     1
 90
        0
 40
-0.6
 41
-30.0
 62
     5
 63
     7
 74
     0
 91
        4
 64
     7
 65
   257
 75
     1
175
     1
 42
1.0
 92
        8
 66
     7
 43
1.0
 76
     1
 77
     6
 78
     2
 67
     7
 79
     5
170
     0
171
     0
290
     0
174
     0
 93
        1
 44
0.0
173
     0
291
     1
 45
0.0
1001
ACAD
1000
AcDbSavedByObjectVersion
1070
     0
  0
VISUALSTYLE
  5
E5BC
102
{ACAD_XDICTIONARY
360
E620
102
}
102
{ACAD_REACTORS
330
E5B0
102
}
330
E5B0
100
AcDbVisualStyle
  2
Brighten
 70
    12
 71
     2
 72
     2
 73
     0
 90
        0
 40
-0.6
 41
-30.0
 62
     5
 63
     7
 74
     1
 91
        4
 64
     7
 65
   257
 75
     1
175
     1
 42
1.0
 92
        8
 66
     7
 43
1.0
 76
     1
 77
     6
 78
     2
 67
     7
 79
     5
170
     0
171
     0
290
     0
174
     0
 93
        1
 44
50.0
173
     0
291
     1
 45
0.0
1001
ACAD
1000
AcDbSavedByObjectVersion
1070
     0
  0
VISUALSTYLE
  5
E5C0
102
{ACAD_XDICTIONARY
360
E628
102
}
102
{ACAD_REACTORS
330
E5B0
102
}
330
E5B0
100
AcDbVisualStyle
  2
ColorChange
 70
    16
 71
     2
 72
     2
 73
     3
 90
        0
 40
-0.6
 41
-30.0
 62
     5
 63
     8
 74
     1
 91
        4
 64
     7
 65
   257
 75
     1
175
     1
 42
1.0
 92
        8
 66
     8
 43
1.0
 76
     1
 77
     6
 78
     2
 67
     7
 79
     5
170
     0
171
     0
290
     0
174
     0
 93
        1
 44
0.0
173
     0
291
     1
 45
0.0
1001
ACAD
1000
AcDbSavedByObjectVersion
1070
     0
  0
VISUALSTYLE
  5
E5B9
102
{ACAD_XDICTIONARY
360
E61A
102
}
102
{ACAD_REACTORS
330
E5B0
102
}
330
E5B0
100
AcDbVisualStyle
  2
Conceptual
 70
     9
 71
     3
 72
     2
 73
     0
 90
        0
 40
-0.6
 41
-30.0
 62
     5
 63
     7
 74
     2
 91
        2
 64
     7
 65
   257
 75
     1
175
     1
 42
179.0
 92
        8
 66
     7
 43
1.0
 76
     1
 77
     6
 78
     2
 67
     7
 79
     3
170
     0
171
     0
290
     0
174
     0
 93
        1
 44
0.0
173
     0
291
     0
 45
0.0
1001
ACAD
1000
AcDbSavedByObjectVersion
1070
     0
  0
VISUALSTYLE
  5
E5BB
102
{ACAD_XDICTIONARY
360
E61E
102
}
102
{ACAD_REACTORS
330
E5B0
102
}
330
E5B0
100
AcDbVisualStyle
  2
Dim
 70
    11
 71
     2
 72
     2
 73
     0
 90
        0
 40
-0.6
 41
-30.0
 62
     5
 63
     7
 74
     1
 91
        4
 64
     7
 65
   257
 75
     1
175
     1
 42
1.0
 92
        8
 66
     7
 43
1.0
 76
     1
 77
     6
 78
     2
 67
     7
 79
     5
170
     0
171
     0
290
     0
174
     0
 93
        1
 44
-50.0
173
     0
291
     1
 45
0.0
1001
ACAD
1000
AcDbSavedByObjectVersion
1070
     0
  0
VISUALSTYLE
  5
E5C8
102
{ACAD_XDICTIONARY
360
E638
102
}
102
{ACAD_REACTORS
330
E5B0
102
}
330
E5B0
100
AcDbVisualStyle
  2
EdgeColorOff
 70
    22
 71
     2
 72
     2
 73
     0
 90
        0
 40
-0.6
 41
-30.0
 62
     5
 63
     7
 74
     1
 91
        4
 64
     7
 65
   257
 75
     1
175
     1
 42
1.0
 92
        8
 66
     7
 43
1.0
 76
     1
 77
     6
 78
     2
 67
     7
 79
     5
170
     0
171
     0
290
     0
174
     0
 93
        1
 44
0.0
173
     0
291
     1
 45
0.0
1001
ACAD
1000
AcDbSavedByObjectVersion
1070
     0
  0
VISUALSTYLE
  5
E5BF
102
{ACAD_XDICTIONARY
360
E626
102
}
102
{ACAD_REACTORS
330
E5B0
102
}
330
E5B0
100
AcDbVisualStyle
  2
Facepattern
 70
    15
 71
     2
 72
     2
 73
     0
 90
        0
 40
-0.6
 41
-30.0
 62
     5
 63
     7
 74
     1
 91
        4
 64
     7
 65
   257
 75
     1
175
     1
 42
1.0
 92
        8
 66
     7
 43
1.0
 76
     1
 77
     6
 78
     2
 67
     7
 79
     5
170
     0
171
     0
290
     0
174
     0
 93
        1
 44
0.0
173
     0
291
     1
 45
0.0
1001
ACAD
1000
AcDbSavedByObjectVersion
1070
     0
  0
VISUALSTYLE
  5
E5B1
102
{ACAD_XDICTIONARY
360
E60A
102
}
102
{ACAD_REACTORS
330
E5B0
102
}
330
E5B0
100
AcDbVisualStyle
  2
Flat
 70
     0
 71
     2
 72
     1
 73
     1
 90
        2
 40
-0.6
 41
30.0
 62
     5
 63
     7
 74
     0
 91
        0
 64
     7
 65
   257
 75
     1
175
     1
 42
1.0
 92
        8
 66
     7
 43
1.0
 76
     1
 77
     6
 78
     2
 67
     7
 79
     5
170
     0
171
     0
290
     0
174
     0
 93
       13
 44
0.0
173
     0
291
     1
 45
0.0
1001
ACAD
1000
AcDbSavedByObjectVersion
1070
     0
  0
VISUALSTYLE
  5
E5B2
102
{ACAD_XDICTIONARY
360
E60C
102
}
102
{ACAD_REACTORS
330
E5B0
102
}
330
E5B0
100
AcDbVisualStyle
  2
FlatWithEdges
 70
     1
 71
     2
 72
     1
 73
     1
 90
        2
 40
-0.6
 41
30.0
 62
     5
 63
     7
 74
     1
 91
        0
 64
     7
 65
   257
 75
     1
175
     1
 42
1.0
 92
        0
 66
   257
 43
1.0
 76
     1
 77
     6
 78
     2
 67
     7
 79
     5
170
     0
171
     0
290
     0
174
     0
 93
       13
 44
0.0
173
     0
291
     1
 45
0.0
1001
ACAD
1000
AcDbSavedByObjectVersion
1070
     0
  0
VISUALSTYLE
  5
E5B3
102
{ACAD_XDICTIONARY
360
E60E
102
}
102
{ACAD_REACTORS
330
E5B0
102
}
330
E5B0
100
AcDbVisualStyle
  2
Gouraud
 70
     2
 71
     2
 72
     2
 73
     1
 90
        2
 40
-0.6
 41
30.0
 62
     5
 63
     7
 74
     0
 91
        0
 64
     7
 65
   257
 75
     1
175
     1
 42
1.0
 92
        0
 66
     7
 43
1.0
 76
     1
 77
     6
 78
     2
 67
     7
 79
     5
170
     0
171
     0
290
     0
174
     0
 93
       13
 44
0.0
173
     0
291
     1
 45
0.0
1001
ACAD
1000
AcDbSavedByObjectVersion
1070
     0
  0
VISUALSTYLE
  5
E5B4
102
{ACAD_XDICTIONARY
360
E610
102
}
102
{ACAD_REACTORS
330
E5B0
102
}
330
E5B0
100
AcDbVisualStyle
  2
GouraudWithEdges
 70
     3
 71
     2
 72
     2
 73
     1
 90
        2
 40
-0.6
 41
30.0
 62
     5
 63
     7
 74
     1
 91
        0
 64
     7
 65
   257
 75
     1
175
     1
 42
1.0
 92
        0
 66
   257
 43
1.0
 76
     1
 77
     6
 78
     2
 67
     7
 79
     5
170
     0
171
     0
290
     0
174
     0
 93
       13
 44
0.0
173
     0
291
     1
 45
0.0
1001
ACAD
1000
AcDbSavedByObjectVersion
1070
     0
  0
VISUALSTYLE
  5
E5B8
102
{ACAD_XDICTIONARY
360
E618
102
}
102
{ACAD_REACTORS
330
E5B0
102
}
330
E5B0
100
AcDbVisualStyle
  2
Hidden
 70
     6
 71
     1
 72
     2
 73
     2
 90
        0
 40
-0.6
 41
-30.0
 62
     5
 63
     7
 74
     2
 91
        2
 64
     7
 65
   257
 75
     2
175
     1
 42
40.0
 92
        0
 66
   257
 43
1.0
 76
     1
 77
     6
 78
     2
 67
     7
 79
     3
170
     0
171
     0
290
     0
174
     0
 93
        1
 44
0.0
173
     0
291
     0
 45
0.0
1001
ACAD
1000
AcDbSavedByObjectVersion
1070
     0
  0
VISUALSTYLE
  5
E5C6
102
{ACAD_XDICTIONARY
360
E634
102
}
102
{ACAD_REACTORS
330
E5B0
102
}
330
E5B0
100
AcDbVisualStyle
  2
JitterOff
 70
    20
 71
     2
 72
     2
 73
     0
 90
        0
 40
-0.6
 41
-30.0
 62
     5
 63
     7
 74
     1
 91
        4
 64
     7
 65
   257
 75
     1
175
     1
 42
1.0
 92
       10
 66
     7
 43
1.0
 76
     1
 77
     6
 78
     2
 67
     7
 79
     5
170
     0
171
     0
290
     0
174
     0
 93
        1
 44
0.0
173
     0
291
     1
 45
0.0
1001
ACAD
1000
AcDbSavedByObjectVersion
1070
     0
  0
VISUALSTYLE
  5
E5BE
102
{ACAD_XDICTIONARY
360
E624
102
}
102
{ACAD_REACTORS
330
E5B0
102
}
330
E5B0
100
AcDbVisualStyle
  2
Linepattern
 70
    14
 71
     2
 72
     2
 73
     0
 90
        0
 40
-0.6
 41
-30.0
 62
     5
 63
     7
 74
     1
 91
        4
 64
     7
 65
   257
 75
     7
175
     7
 42
1.0
 92
        8
 66
     7
 43
1.0
 76
     1
 77
     6
 78
     2
 67
     7
 79
     5
170
     0
171
     0
290
     0
174
     0
 93
        1
 44
0.0
173
     0
291
     1
 45
0.0
1001
ACAD
1000
AcDbSavedByObjectVersion
1070
     0
  0
VISUALSTYLE
  5
E5C7
102
{ACAD_XDICTIONARY
360
E636
102
}
102
{ACAD_REACTORS
330
E5B0
102
}
330
E5B0
100
AcDbVisualStyle
  2
OverhangOff
 70
    21
 71
     2
 72
     2
 73
     0
 90
        0
 40
-0.6
 41
-30.0
 62
     5
 63
     7
 74
     1
 91
        4
 64
     7
 65
   257
 75
     1
175
     1
 42
1.0
 92
        9
 66
     7
 43
1.0
 76
     1
 77
     6
 78
     2
 67
     7
 79
     5
170
     0
171
     0
290
     0
174
     0
 93
        1
 44
0.0
173
     0
291
     1
 45
0.0
1001
ACAD
1000
AcDbSavedByObjectVersion
1070
     0
  0
VISUALSTYLE
  5
E5BA
102
{ACAD_XDICTIONARY
360
E61C
102
}
102
{ACAD_REACTORS
330
E5B0
102
}
330
E5B0
100
AcDbVisualStyle
  2
Realistic
 70
     8
 71
     2
 72
     3
 73
     0
 90
        2
 40
-0.6
 41
30.0
 62
     5
 63
     7
 74
     0
 91
        0
 64
     7
 65
   257
 75
     1
175
     1
 42
1.0
 92
        8
 66
   257
 43
1.0
 76
     1
 77
     6
 78
     2
 67
     7
 79
     3
170
     0
171
     0
290
     0
174
     0
 93
       13
 44
0.0
173
     0
291
     0
 45
0.0
1001
ACAD
1000
AcDbSavedByObjectVersion
1070
     0
  0
VISUALSTYLE
  5
E5C5
102
{ACAD_XDICTIONARY
360
E632
102
}
102
{ACAD_REACTORS
330
E5B0
102
}
330
E5B0
100
AcDbVisualStyle
  2
Shaded
 70
    27
 71
     2
 72
     2
 73
     1
 90
        2
 40
-0.6
 41
30.0
 62
     5
 63
     7
 74
     0
 91
        4
 64
     7
 65
   257
 75
     1
175
     1
 42
1.0
 92
        8
 66
   257
 43
1.0
 76
     1
 77
     6
 78
     2
 67
     8
 79
     3
170
     0
171
     0
290
     0
174
     0
 93
        5
 44
0.0
173
     0
291
     0
 45
0.0
1001
ACAD
1000
AcDbSavedByObjectVersion
1070
     0
  0
VISUALSTYLE
  5
E5C4
102
{ACAD_XDICTIONARY
360
E630
102
}
102
{ACAD_REACTORS
330
E5B0
102
}
330
E5B0
100
AcDbVisualStyle
  2
Shaded with edges
 70
    26
 71
     2
 72
     2
 73
     1
 90
        2
 40
-0.6
 41
30.0
 62
     5
 63
     7
 74
     1
 91
       10
 64
     7
 65
   257
 75
     2
175
     1
 42
1.0
 92
        8
 66
   257
 43
1.0
 76
     1
 77
     6
 78
     2
 67
     7
 79
     3
170
     0
171
     0
290
     0
174
     0
 93
        5
 44
0.0
173
     0
291
     0
 45
0.0
1001
ACAD
1000
AcDbSavedByObjectVersion
1070
     0
  0
VISUALSTYLE
  5
E5C1
102
{ACAD_XDICTIONARY
360
E62A
102
}
102
{ACAD_REACTORS
330
E5B0
102
}
330
E5B0
100
AcDbVisualStyle
  2
Shades of Gray
 70
    23
 71
     2
 72
     2
 73
     3
 90
        0
 40
-0.6
 41
-30.0
 62
     5
 63
     7
 74
     2
 91
        2
 64
     7
 65
     7
 75
     1
175
     1
 42
40.0
 92
        8
 66
     7
 43
1.0
 76
     1
 77
     6
 78
     2
 67
     7
 79
     3
170
     0
171
     0
290
     0
174
     0
 93
        1
 44
0.0
173
     0
291
     0
 45
0.0
1001
ACAD
1000
AcDbSavedByObjectVersion
1070
     0
  0
VISUALSTYLE
  5
E5C2
102
{ACAD_XDICTIONARY
360
E62C
102
}
102
{ACAD_REACTORS
330
E5B0
102
}
330
E5B0
100
AcDbVisualStyle
  2
Sketchy
 70
    24
 71
     1
 72
     2
 73
     2
 90
        0
 40
-0.6
 41
-30.0
 62
     5
 63
     7
 74
     2
 91
        2
 64
     7
 65
     7
 75
     1
175
     1
 42
40.0
 92
       11
 66
     7
 43
1.0
 76
     1
 77
     6
 78
     2
 67
     7
 79
     6
170
     0
171
     0
290
     0
174
     0
 93
        1
 44
0.0
173
     0
291
     0
 45
0.0
1001
ACAD
1000
AcDbSavedByObjectVersion
1070
     0
  0
VISUALSTYLE
  5
E5BD
102
{ACAD_XDICTIONARY
360
E622
102
}
102
{ACAD_REACTORS
330
E5B0
102
}
330
E5B0
100
AcDbVisualStyle
  2
Thicken
 70
    13
 71
     2
 72
     2
 73
     0
 90
        0
 40
-0.6
 41
-30.0
 62
     5
 63
     7
 74
     1
 91
        4
 64
     7
 65
   257
 75
     1
175
     1
 42
1.0
 92
       12
 66
     7
 43
1.0
 76
     1
 77
     6
 78
     2
 67
     7
 79
     5
170
     0
171
     0
290
     0
174
     0
 93
        1
 44
0.0
173
     0
291
     1
 45
0.0
1001
ACAD
1000
AcDbSavedByObjectVersion
1070
     0
  0
VISUALSTYLE
  5
E5B7
102
{ACAD_XDICTIONARY
360
E616
102
}
102
{ACAD_REACTORS
330
E5B0
102
}
330
E5B0
100
AcDbVisualStyle
  2
Wireframe
 70
     5
 71
     0
 72
     2
 73
     0
 90
        0
 40
-0.6
 41
-30.0
 62
     5
 63
     7
 74
     1
 91
        4
 64
     7
 65
   257
 75
     1
175
     1
 42
1.0
 92
        0
 66
   257
 43
1.0
 76
     1
 77
     6
 78
     2
 67
     7
 79
     3
170
     0
171
     0
290
     0
174
     0
 93
        1
 44
0.0
173
     0
291
     0
 45
0.0
1001
ACAD
1000
AcDbSavedByObjectVersion
1070
     0
  0
VISUALSTYLE
  5
E5C3
102
{ACAD_XDICTIONARY
360
E62E
102
}
102
{ACAD_REACTORS
330
E5B0
102
}
330
E5B0
100
AcDbVisualStyle
  2
X-Ray
 70
    25
 71
     2
 72
     2
 73
     1
 90
        1
 40
0.5
 41
-30.0
 62
     5
 63
     7
 74
     1
 91
        0
 64
     7
 65
   257
 75
     1
175
     1
 42
1.0
 92
        8
 66
     7
 43
1.0
 76
     1
 77
     6
 78
     2
 67
     7
 79
     3
170
     0
171
     0
290
     0
174
     0
 93
       13
 44
0.0
173
     0
291
     0
 45
0.0
1001
ACAD
1000
AcDbSavedByObjectVersion
1070
     0
  0
DICTIONARYVAR
  5
E5FD
102
{ACAD_REACTORS
330
E5F8
102
}
330
E5F8
100
DictionaryVariables
280
     0
  1
1:1
  0
DICTIONARYVAR
  5
E5FA
102
{ACAD_REACTORS
330
E5F8
102
}
330
E5F8
100
DictionaryVariables
280
     0
  1
STANDARD
  0
DICTIONARYVAR
  5
E5F9
102
{ACAD_REACTORS
330
E5F8
102
}
330
E5F8
100
DictionaryVariables
280
     0
  1
STANDARD
  0
DICTIONARYVAR
  5
E5FB
102
{ACAD_REACTORS
330
E5F8
102
}
330
E5F8
100
DictionaryVariables
280
     0
  1
Imperial24
  0
DICTIONARYVAR
  5
E5FC
102
{ACAD_REACTORS
330
E5F8
102
}
330
E5F8
100
DictionaryVariables
280
     0
  1
Imperial24
  0
DICTIONARYVAR
  5
E600
102
{ACAD_REACTORS
330
E5F8
102
}
330
E5F8
100
DictionaryVariables
280
     0
  1
1
  0
DICTIONARYVAR
  5
E5FF
102
{ACAD_REACTORS
330
E5F8
102
}
330
E5F8
100
DictionaryVariables
280
     0
  1
0
  0
DICTIONARYVAR
  5
E5FE
102
{ACAD_REACTORS
330
E5F8
102
}
330
E5F8
100
DictionaryVariables
280
     0
  1
127
  0
DICTIONARYVAR
  5
E601
102
{ACAD_REACTORS
330
E5F8
102
}
330
E5F8
100
DictionaryVariables
280
     0
  1
2
  0
DICTIONARY
  5
E63E
330
E5E3
100
AcDbDictionary
280
     1
281
     1
  3
ACAD_XREC_ROUNDTRIP
360
E63F
  0
DICTIONARY
  5
E640
330
E5E4
100
AcDbDictionary
280
     1
281
     1
  3
ACAD_XREC_ROUNDTRIP
360
E641
  0
DICTIONARY
  5
E642
330
E5E5
100
AcDbDictionary
280
     1
281
     1
  3
ACAD_XREC_ROUNDTRIP
360
E643
  0
DICTIONARY
  5
E5A1
330
E5A0
100
AcDbDictionary
280
     1
281
     1
  3
ACAD_XREC_ROUNDTRIP
360
E608
  3
BUMPTILE
360
E5A3
  3
DIFFUSETILE
360
E5A2
  3
OPACITYTILE
360
E5A6
  3
REFLECTIONTILE
360
E5A5
  3
REFRACTIONTILE
360
E5A7
  3
SPECULARTILE
360
E5A4
  0
DICTIONARY
  5
E599
330
E598
100
AcDbDictionary
280
     1
281
     1
  3
ACAD_XREC_ROUNDTRIP
360
E607
  3
BUMPTILE
360
E59B
  3
DIFFUSETILE
360
E59A
  3
OPACITYTILE
360
E59E
  3
REFLECTIONTILE
360
E59D
  3
REFRACTIONTILE
360
E59F
  3
SPECULARTILE
360
E59C
  0
DICTIONARY
  5
E5A9
330
E5A8
100
AcDbDictionary
280
     1
281
     1
  3
ACAD_XREC_ROUNDTRIP
360
E609
  3
BUMPTILE
360
E5AB
  3
DIFFUSETILE
360
E5AA
  3
OPACITYTILE
360
E5AE
  3
REFLECTIONTILE
360
E5AD
  3
REFRACTIONTILE
360
E5AF
  3
SPECULARTILE
360
E5AC
  0
DICTIONARY
  5
E63C
330
E5E1
100
AcDbDictionary
280
     1
281
     1
  3
ACAD_XREC_ROUNDTRIP
360
E63D
  0
DICTIONARY
  5
E603
330
E5CB
100
AcDbDictionary
280
     1
281
     1
  3
ACAD_ROUNDTRIP_2008_TABLESTYLE_CELLSTYLEMAP
360
E604
  3
ACAD_XREC_ROUNDTRIP
360
E63A
  0
DICTIONARY
  5
E614
330
E5B6
100
AcDbDictionary
280
     1
281
     1
  3
ACAD_XREC_ROUNDTRIP
360
E615
  0
DICTIONARY
  5
E612
330
E5B5
100
AcDbDictionary
280
     1
281
     1
  3
ACAD_XREC_ROUNDTRIP
360
E613
  0
DICTIONARY
  5
E620
330
E5BC
100
AcDbDictionary
280
     1
281
     1
  3
ACAD_XREC_ROUNDTRIP
360
E621
  0
DICTIONARY
  5
E628
330
E5C0
100
AcDbDictionary
280
     1
281
     1
  3
ACAD_XREC_ROUNDTRIP
360
E629
  0
DICTIONARY
  5
E61A
330
E5B9
100
AcDbDictionary
280
     1
281
     1
  3
ACAD_XREC_ROUNDTRIP
360
E61B
  0
DICTIONARY
  5
E61E
330
E5BB
100
AcDbDictionary
280
     1
281
     1
  3
ACAD_XREC_ROUNDTRIP
360
E61F
  0
DICTIONARY
  5
E638
330
E5C8
100
AcDbDictionary
280
     1
281
     1
  3
ACAD_XREC_ROUNDTRIP
360
E639
  0
DICTIONARY
  5
E626
330
E5BF
100
AcDbDictionary
280
     1
281
     1
  3
ACAD_XREC_ROUNDTRIP
360
E627
  0
DICTIONARY
  5
E60A
330
E5B1
100
AcDbDictionary
280
     1
281
     1
  3
ACAD_XREC_ROUNDTRIP
360
E60B
  0
DICTIONARY
  5
E60C
330
E5B2
100
AcDbDictionary
280
     1
281
     1
  3
ACAD_XREC_ROUNDTRIP
360
E60D
  0
DICTIONARY
  5
E60E
330
E5B3
100
AcDbDictionary
280
     1
281
     1
  3
ACAD_XREC_ROUNDTRIP
360
E60F
  0
DICTIONARY
  5
E610
330
E5B4
100
AcDbDictionary
280
     1
281
     1
  3
ACAD_XREC_ROUNDTRIP
360
E611
  0
DICTIONARY
  5
E618
330
E5B8
100
AcDbDictionary
280
     1
281
     1
  3
ACAD_XREC_ROUNDTRIP
360
E619
  0
DICTIONARY
  5
E634
330
E5C6
100
AcDbDictionary
280
     1
281
     1
  3
ACAD_XREC_ROUNDTRIP
360
E635
  0
DICTIONARY
  5
E624
330
E5BE
100
AcDbDictionary
280
     1
281
     1
  3
ACAD_XREC_ROUNDTRIP
360
E625
  0
DICTIONARY
  5
E636
330
E5C7
100
AcDbDictionary
280
     1
281
     1
  3
ACAD_XREC_ROUNDTRIP
360
E637
  0
DICTIONARY
  5
E61C
330
E5BA
100
AcDbDictionary
280
     1
281
     1
  3
ACAD_XREC_ROUNDTRIP
360
E61D
  0
DICTIONARY
  5
E632
330
E5C5
100
AcDbDictionary
280
     1
281
     1
  3
ACAD_XREC_ROUNDTRIP
360
E633
  0
DICTIONARY
  5
E630
330
E5C4
100
AcDbDictionary
280
     1
281
     1
  3
ACAD_XREC_ROUNDTRIP
360
E631
  0
DICTIONARY
  5
E62A
330
E5C1
100
AcDbDictionary
280
     1
281
     1
  3
ACAD_XREC_ROUNDTRIP
360
E62B
  0
DICTIONARY
  5
E62C
330
E5C2
100
AcDbDictionary
280
     1
281
     1
  3
ACAD_XREC_ROUNDTRIP
360
E62D
  0
DICTIONARY
  5
E622
330
E5BD
100
AcDbDictionary
280
     1
281
     1
  3
ACAD_XREC_ROUNDTRIP
360
E623
  0
DICTIONARY
  5
E616
330
E5B7
100
AcDbDictionary
280
     1
281
     1
  3
ACAD_XREC_ROUNDTRIP
360
E617
  0
DICTIONARY
  5
E62E
330
E5C3
100
AcDbDictionary
280
     1
281
     1
  3
ACAD_XREC_ROUNDTRIP
360
E62F
  0
XRECORD
  5
E63F
102
{ACAD_REACTORS
330
E63E
102
}
330
E63E
100
AcDbXrecord
280
     1
102
DISPLAYNAME
  1
Imperial24
102
FLAGS
 90
        0
  0
XRECORD
  5
E641
102
{ACAD_REACTORS
330
E640
102
}
330
E640
100
AcDbXrecord
280
     1
102
SHADEPLOT
 70
     0
102
SHADEPLOTRESLEVEL
 70
     2
102
SHADEPLOTCUSTOMDPI
 70
   300
  0
XRECORD
  5
E643
102
{ACAD_REACTORS
330
E642
102
}
330
E642
100
AcDbXrecord
280
     1
102
SHADEPLOT
 70
     0
102
SHADEPLOTRESLEVEL
 70
     2
102
SHADEPLOTCUSTOMDPI
 70
   300
  0
XRECORD
  5
E608
102
{ACAD_REACTORS
330
E5A1
102
}
330
E5A1
100
AcDbXrecord
280
     1
102
MATERIAL
148
0.0
149
0.0
149
0.0
 93
        0
 94
      127
282
     0
 72
     0
 77
     0
171
     0
175
     0
179
     0
273
     0
  0
XRECORD
  5
E5A3
102
{ACAD_REACTORS
330
E5A1
102
}
330
E5A1
100
AcDbXrecord
280
     1
270
     1
271
     1
  0
XRECORD
  5
E5A2
102
{ACAD_REACTORS
330
E5A1
102
}
330
E5A1
100
AcDbXrecord
280
     1
270
     1
271
     1
  0
XRECORD
  5
E5A6
102
{ACAD_REACTORS
330
E5A1
102
}
330
E5A1
100
AcDbXrecord
280
     1
270
     1
271
     1
  0
XRECORD
  5
E5A5
102
{ACAD_REACTORS
330
E5A1
102
}
330
E5A1
100
AcDbXrecord
280
     1
270
     1
271
     1
  0
XRECORD
  5
E5A7
102
{ACAD_REACTORS
330
E5A1
102
}
330
E5A1
100
AcDbXrecord
280
     1
270
     1
271
     1
  0
XRECORD
  5
E5A4
102
{ACAD_REACTORS
330
E5A1
102
}
330
E5A1
100
AcDbXrecord
280
     1
270
     1
271
     1
  0
XRECORD
  5
E607
102
{ACAD_REACTORS
330
E599
102
}
330
E599
100
AcDbXrecord
280
     1
102
MATERIAL
148
0.0
149
0.0
149
0.0
 93
        0
 94
      127
282
     0
 72
     0
 77
     0
171
     0
175
     0
179
     0
273
     0
  0
XRECORD
  5
E59B
102
{ACAD_REACTORS
330
E599
102
}
330
E599
100
AcDbXrecord
280
     1
270
     1
271
     1
  0
XRECORD
  5
E59A
102
{ACAD_REACTORS
330
E599
102
}
330
E599
100
AcDbXrecord
280
     1
270
     1
271
     1
  0
XRECORD
  5
E59E
102
{ACAD_REACTORS
330
E599
102
}
330
E599
100
AcDbXrecord
280
     1
270
     1
271
     1
  0
XRECORD
  5
E59D
102
{ACAD_REACTORS
330
E599
102
}
330
E599
100
AcDbXrecord
280
     1
270
     1
271
     1
  0
XRECORD
  5
E59F
102
{ACAD_REACTORS
330
E599
102
}
330
E599
100
AcDbXrecord
280
     1
270
     1
271
     1
  0
XRECORD
  5
E59C
102
{ACAD_REACTORS
330
E599
102
}
330
E599
100
AcDbXrecord
280
     1
270
     1
271
     1
  0
XRECORD
  5
E609
102
{ACAD_REACTORS
330
E5A9
102
}
330
E5A9
100
AcDbXrecord
280
     1
102
MATERIAL
148
0.0
149
0.0
149
0.0
 93
        0
 94
      127
282
     0
 72
     0
 77
     0
171
     0
175
     0
179
     0
273
     0
  0
XRECORD
  5
E5AB
102
{ACAD_REACTORS
330
E5A9
102
}
330
E5A9
100
AcDbXrecord
280
     1
270
     1
271
     1
  0
XRECORD
  5
E5AA
102
{ACAD_REACTORS
330
E5A9
102
}
330
E5A9
100
AcDbXrecord
280
     1
270
     1
271
     1
  0
XRECORD
  5
E5AE
102
{ACAD_REACTORS
330
E5A9
102
}
330
E5A9
100
AcDbXrecord
280
     1
270
     1
271
     1
  0
XRECORD
  5
E5AD
102
{ACAD_REACTORS
330
E5A9
102
}
330
E5A9
100
AcDbXrecord
280
     1
270
     1
271
     1
  0
XRECORD
  5
E5AF
102
{ACAD_REACTORS
330
E5A9
102
}
330
E5A9
100
AcDbXrecord
280
     1
270
     1
271
     1
  0
XRECORD
  5
E5AC
102
{ACAD_REACTORS
330
E5A9
102
}
330
E5A9
100
AcDbXrecord
280
     1
270
     1
271
     1
  0
XRECORD
  5
E63D
102
{ACAD_REACTORS
330
E63C
102
}
330
E63C
100
AcDbXrecord
280
     1
102
DISPLAYNAME
  1
Imperial24
102
FLAGS
 90
        0
  0
CELLSTYLEMAP
  5
E604
102
{ACAD_REACTORS
330
E603
102
}
330
E603
100
AcDbCellStyleMap
 90
        3
300
CELLSTYLE
  1
TABLEFORMAT_BEGIN
 90
        5
170
     1
 91
        0
 92
    32768
 62
   257
 93
        1
300
CONTENTFORMAT
  1
CONTENTFORMAT_BEGIN
 90
        0
 91
        0
 92
      512
 93
        0
300

 40
0.0
140
1.0
 94
        5
 62
     0
340
E386
144
0.25
309
CONTENTFORMAT_END
171
     0
 94
        0
309
TABLEFORMAT_END
  1
CELLSTYLE_BEGIN
 90
        1
 91
        1
300
_TITLE
309
CELLSTYLE_END
300
CELLSTYLE
  1
TABLEFORMAT_BEGIN
 90
        5
170
     1
 91
        0
 92
        0
 62
   257
 93
        1
300
CONTENTFORMAT
  1
CONTENTFORMAT_BEGIN
 90
        0
 91
        0
 92
      512
 93
        0
300

 40
0.0
140
1.0
 94
        5
 62
     0
340
E386
144
0.18
309
CONTENTFORMAT_END
171
     0
 94
        0
309
TABLEFORMAT_END
  1
CELLSTYLE_BEGIN
 90
        2
 91
        1
300
_HEADER
309
CELLSTYLE_END
300
CELLSTYLE
  1
TABLEFORMAT_BEGIN
 90
        5
170
     1
 91
        0
 92
        0
 62
   257
 93
        1
300
CONTENTFORMAT
  1
CONTENTFORMAT_BEGIN
 90
        0
 91
        0
 92
      512
 93
        0
300

 40
0.0
140
1.0
 94
        2
 62
     0
340
E386
144
0.18
309
CONTENTFORMAT_END
171
     0
 94
        0
309
TABLEFORMAT_END
  1
CELLSTYLE_BEGIN
 90
        3
 91
        2
300
_DATA
309
CELLSTYLE_END
  0
XRECORD
  5
E63A
102
{ACAD_REACTORS
330
E603
102
}
330
E603
100
AcDbXrecord
280
     1
102
ACAD_ROUNDTRIP_PRE2007_TABLESTYLE
 90
      512
 91
        0
  1

 92
      512
 93
        0
  2

 94
      512
 95
        0
  3

  0
XRECORD
  5
E615
102
{ACAD_REACTORS
330
E614
102
}
330
E614
100
AcDbXrecord
280
     1
102
RTVSPost2010Prop28
280
     1
102
RTVSPost2010PropOp28
 70
     1
102
RTVSPost2010Prop29
280
     1
102
RTVSPost2010PropOp29
 70
     1
102
RTVSPost2010Prop30
280
     0
102
RTVSPost2010PropOp30
 70
     1
102
RTVSPost2010Prop31
280
     0
102
RTVSPost2010PropOp31
 70
     1
102
RTVSPost2010Prop32
280
     0
102
RTVSPost2010PropOp32
 70
     1
102
RTVSPost2010Prop33
280
     0
102
RTVSPost2010PropOp33
 70
     1
102
RTVSPost2010Prop34
280
     0
102
RTVSPost2010PropOp34
 70
     1
102
RTVSPost2010Prop35
280
     0
102
RTVSPost2010PropOp35
 70
     1
102
RTVSPost2010Prop36
280
     0
102
RTVSPost2010PropOp36
 70
     1
102
RTVSPost2010Prop37
 90
       50
102
RTVSPost2010PropOp37
 70
     1
102
RTVSPost2010Prop38
140
0.0
102
RTVSPost2010PropOp38
 70
     1
102
RTVSPost2010Prop39
140
1.0
102
RTVSPost2010PropOp39
 70
     1
102
RTVSPost2010Prop40
 90
        0
102
RTVSPost2010PropOp40
 70
     1
102
RTVSPost2010Prop41ColorIndex
 90
       18
102
RTVSPost2010Prop41ColorRGB
 90
        0
102
RTVSPost2010PropOp41
 70
     1
102
RTVSPost2010Prop42
 90
       50
102
RTVSPost2010PropOp42
 70
     1
102
RTVSPost2010Prop43
 90
        3
102
RTVSPost2010PropOp43
 70
     1
102
RTVSPost2010Prop44ColorIndex
 90
        5
102
RTVSPost2010Prop44ColorRGB
 90
      255
102
RTVSPost2010PropOp44
 70
     1
102
RTVSPost2010Prop45
280
     0
102
RTVSPost2010PropOp45
 70
     1
102
RTVSPost2010Prop46
 90
       50
102
RTVSPost2010PropOp46
 70
     1
102
RTVSPost2010Prop47
 90
       50
102
RTVSPost2010PropOp47
 70
     1
102
RTVSPost2010Prop48
 90
       50
102
RTVSPost2010PropOp48
 70
     1
102
RTVSPost2010Prop49
280
     0
102
RTVSPost2010PropOp49
 70
     1
102
RTVSPost2010Prop50
 90
       50
102
RTVSPost2010PropOp50
 70
     1
102
RTVSPost2010Prop51ColorIndex
 90
      256
102
RTVSPost2010Prop51ColorRGB
 90
-16777216
102
RTVSPost2010PropOp51
 70
     0
102
RTVSPost2010Prop52
140
1.0
102
RTVSPost2010PropOp52
 70
     0
102
RTVSPost2010Prop53
 90
        2
102
RTVSPost2010PropOp53
 70
     1
102
RTVSPost2010Prop54
  1
strokes_ogs.tif
102
RTVSPost2010PropOp54
 70
     1
102
RTVSPost2010Prop55
280
     0
102
RTVSPost2010PropOp55
 70
     1
102
RTVSPost2010Prop56
140
1.0
102
RTVSPost2010PropOp56
 70
     1
102
RTVSPost2010Prop57
140
1.0
102
RTVSPost2010PropOp57
 70
     1
102
RTVSPropertyOp0
 70
     1
102
RTVSPropertyOp1
 70
     1
102
RTVSPropertyOp2
 70
     1
102
RTVSPropertyOp3
 70
     1
102
RTVSPropertyOp4
 70
     1
102
RTVSPropertyOp5
 70
     1
102
RTVSPropertyOp6
 70
     1
102
RTVSPropertyOp7
 70
     1
102
RTVSPropertyOp8
 70
     1
102
RTVSPropertyOp9
 70
     1
102
RTVSPropertyOp10
 70
     1
102
RTVSPropertyOp11
 70
     1
102
RTVSPropertyOp12
 70
     1
102
RTVSPropertyOp13
 70
     1
102
RTVSPropertyOp14
 70
     1
102
RTVSPropertyOp15
 70
     1
102
RTVSPropertyOp16
 70
     1
102
RTVSPropertyOp17
 70
     1
102
RTVSPropertyOp18
 70
     1
102
RTVSPropertyOp19
 70
     1
102
RTVSPropertyOp20
 70
     1
102
RTVSPropertyOp21
 70
     1
102
RTVSPropertyOp22
 70
     1
102
RTVSPropertyOp23
 70
     1
102
RTVSPropertyOp24
 70
     1
102
RTVSPropertyOp25
 70
     1
102
RTVSPropertyOp26
 70
     1
102
RTVSPropertyOp27
 70
     1
102
RTVSPropertyOp28
 70
     1
102
RTVSPropertyOp29
 70
     1
102
RTVSPropertyOp30
 70
     1
102
RTVSPropertyOp31
 70
     1
102
RTVSPropertyOp32
 70
     1
102
RTVSPropertyOp33
 70
     1
102
RTVSPropertyOp34
 70
     1
102
RTVSPropertyOp35
 70
     1
102
RTVSPropertyOp36
 70
     1
102
RTVSPropertyOp37
 70
     1
102
RTVSPropertyOp38
 70
     1
102
RTVSPropertyOp39
 70
     1
102
RTVSPropertyOp40
 70
     1
102
RTVSPropertyOp41
 70
     1
102
RTVSPropertyOp42
 70
     1
102
RTVSPropertyOp43
 70
     1
102
RTVSPropertyOp44
 70
     1
102
RTVSPropertyOp45
 70
     1
102
RTVSPropertyOp46
 70
     1
102
RTVSPropertyOp47
 70
     1
102
RTVSPropertyOp48
 70
     1
102
RTVSPropertyOp49
 70
     1
102
RTVSPropertyOp50
 70
     1
102
RTVSPropertyOp51
 70
     0
102
RTVSPropertyOp52
 70
     0
102
RTVSPropertyOp53
 70
     1
102
RTVSPropertyOp54
 70
     1
102
RTVSPropertyOp55
 70
     1
102
RTVSPropertyOp56
 70
     1
102
RTVSPropertyOp57
 70
     1
102
RTVSPropertyOp58
 70
     1
102
RTVSPropertyOp59
 70
     1
102
RTVSPropertyOp60
 70
     1
102
RTVSPropertyOp61
 70
     1
102
RTVSPropertyOp62
 70
     1
  0
XRECORD
  5
E613
102
{ACAD_REACTORS
330
E612
102
}
330
E612
100
AcDbXrecord
280
     1
102
RTVSPost2010Prop28
280
     0
102
RTVSPost2010PropOp28
 70
     1
102
RTVSPost2010Prop29
280
     1
102
RTVSPost2010PropOp29
 70
     1
102
RTVSPost2010Prop30
280
     1
102
RTVSPost2010PropOp30
 70
     1
102
RTVSPost2010Prop31
280
     0
102
RTVSPost2010PropOp31
 70
     1
102
RTVSPost2010Prop32
280
     0
102
RTVSPost2010PropOp32
 70
     1
102
RTVSPost2010Prop33
280
     0
102
RTVSPost2010PropOp33
 70
     1
102
RTVSPost2010Prop34
280
     0
102
RTVSPost2010PropOp34
 70
     1
102
RTVSPost2010Prop35
280
     0
102
RTVSPost2010PropOp35
 70
     1
102
RTVSPost2010Prop36
280
     0
102
RTVSPost2010PropOp36
 70
     1
102
RTVSPost2010Prop37
 90
       50
102
RTVSPost2010PropOp37
 70
     1
102
RTVSPost2010Prop38
140
0.0
102
RTVSPost2010PropOp38
 70
     1
102
RTVSPost2010Prop39
140
1.0
102
RTVSPost2010PropOp39
 70
     1
102
RTVSPost2010Prop40
 90
        0
102
RTVSPost2010PropOp40
 70
     1
102
RTVSPost2010Prop41ColorIndex
 90
       18
102
RTVSPost2010Prop41ColorRGB
 90
        0
102
RTVSPost2010PropOp41
 70
     1
102
RTVSPost2010Prop42
 90
       50
102
RTVSPost2010PropOp42
 70
     1
102
RTVSPost2010Prop43
 90
        3
102
RTVSPost2010PropOp43
 70
     1
102
RTVSPost2010Prop44ColorIndex
 90
        5
102
RTVSPost2010Prop44ColorRGB
 90
      255
102
RTVSPost2010PropOp44
 70
     1
102
RTVSPost2010Prop45
280
     0
102
RTVSPost2010PropOp45
 70
     1
102
RTVSPost2010Prop46
 90
       50
102
RTVSPost2010PropOp46
 70
     1
102
RTVSPost2010Prop47
 90
       50
102
RTVSPost2010PropOp47
 70
     1
102
RTVSPost2010Prop48
 90
       50
102
RTVSPost2010PropOp48
 70
     1
102
RTVSPost2010Prop49
280
     0
102
RTVSPost2010PropOp49
 70
     1
102
RTVSPost2010Prop50
 90
       50
102
RTVSPost2010PropOp50
 70
     1
102
RTVSPost2010Prop51ColorIndex
 90
      256
102
RTVSPost2010Prop51ColorRGB
 90
-16777216
102
RTVSPost2010PropOp51
 70
     0
102
RTVSPost2010Prop52
140
1.0
102
RTVSPost2010PropOp52
 70
     0
102
RTVSPost2010Prop53
 90
        2
102
RTVSPost2010PropOp53
 70
     1
102
RTVSPost2010Prop54
  1
strokes_ogs.tif
102
RTVSPost2010PropOp54
 70
     1
102
RTVSPost2010Prop55
280
     0
102
RTVSPost2010PropOp55
 70
     1
102
RTVSPost2010Prop56
140
1.0
102
RTVSPost2010PropOp56
 70
     1
102
RTVSPost2010Prop57
140
1.0
102
RTVSPost2010PropOp57
 70
     1
102
RTVSPropertyOp0
 70
     1
102
RTVSPropertyOp1
 70
     1
102
RTVSPropertyOp2
 70
     1
102
RTVSPropertyOp3
 70
     1
102
RTVSPropertyOp4
 70
     1
102
RTVSPropertyOp5
 70
     1
102
RTVSPropertyOp6
 70
     1
102
RTVSPropertyOp7
 70
     1
102
RTVSPropertyOp8
 70
     1
102
RTVSPropertyOp9
 70
     1
102
RTVSPropertyOp10
 70
     1
102
RTVSPropertyOp11
 70
     1
102
RTVSPropertyOp12
 70
     1
102
RTVSPropertyOp13
 70
     1
102
RTVSPropertyOp14
 70
     1
102
RTVSPropertyOp15
 70
     1
102
RTVSPropertyOp16
 70
     1
102
RTVSPropertyOp17
 70
     1
102
RTVSPropertyOp18
 70
     1
102
RTVSPropertyOp19
 70
     1
102
RTVSPropertyOp20
 70
     1
102
RTVSPropertyOp21
 70
     1
102
RTVSPropertyOp22
 70
     1
102
RTVSPropertyOp23
 70
     1
102
RTVSPropertyOp24
 70
     1
102
RTVSPropertyOp25
 70
     1
102
RTVSPropertyOp26
 70
     1
102
RTVSPropertyOp27
 70
     1
102
RTVSPropertyOp28
 70
     1
102
RTVSPropertyOp29
 70
     1
102
RTVSPropertyOp30
 70
     1
102
RTVSPropertyOp31
 70
     1
102
RTVSPropertyOp32
 70
     1
102
RTVSPropertyOp33
 70
     1
102
RTVSPropertyOp34
 70
     1
102
RTVSPropertyOp35
 70
     1
102
RTVSPropertyOp36
 70
     1
102
RTVSPropertyOp37
 70
     1
102
RTVSPropertyOp38
 70
     1
102
RTVSPropertyOp39
 70
     1
102
RTVSPropertyOp40
 70
     1
102
RTVSPropertyOp41
 70
     1
102
RTVSPropertyOp42
 70
     1
102
RTVSPropertyOp43
 70
     1
102
RTVSPropertyOp44
 70
     1
102
RTVSPropertyOp45
 70
     1
102
RTVSPropertyOp46
 70
     1
102
RTVSPropertyOp47
 70
     1
102
RTVSPropertyOp48
 70
     1
102
RTVSPropertyOp49
 70
     1
102
RTVSPropertyOp50
 70
     1
102
RTVSPropertyOp51
 70
     0
102
RTVSPropertyOp52
 70
     0
102
RTVSPropertyOp53
 70
     1
102
RTVSPropertyOp54
 70
     1
102
RTVSPropertyOp55
 70
     1
102
RTVSPropertyOp56
 70
     1
102
RTVSPropertyOp57
 70
     1
102
RTVSPropertyOp58
 70
     1
102
RTVSPropertyOp59
 70
     1
102
RTVSPropertyOp60
 70
     1
102
RTVSPropertyOp61
 70
     1
102
RTVSPropertyOp62
 70
     1
  0
XRECORD
  5
E621
102
{ACAD_REACTORS
330
E620
102
}
330
E620
100
AcDbXrecord
280
     1
102
RTVSPost2010Prop28
280
     0
102
RTVSPost2010PropOp28
 70
     1
102
RTVSPost2010Prop29
280
     1
102
RTVSPost2010PropOp29
 70
     1
102
RTVSPost2010Prop30
280
     1
102
RTVSPost2010PropOp30
 70
     1
102
RTVSPost2010Prop31
280
     0
102
RTVSPost2010PropOp31
 70
     1
102
RTVSPost2010Prop32
280
     0
102
RTVSPost2010PropOp32
 70
     1
102
RTVSPost2010Prop33
280
     0
102
RTVSPost2010PropOp33
 70
     1
102
RTVSPost2010Prop34
280
     0
102
RTVSPost2010PropOp34
 70
     1
102
RTVSPost2010Prop35
280
     0
102
RTVSPost2010PropOp35
 70
     1
102
RTVSPost2010Prop36
280
     0
102
RTVSPost2010PropOp36
 70
     1
102
RTVSPost2010Prop37
 90
       50
102
RTVSPost2010PropOp37
 70
     1
102
RTVSPost2010Prop38
140
0.0
102
RTVSPost2010PropOp38
 70
     1
102
RTVSPost2010Prop39
140
1.0
102
RTVSPost2010PropOp39
 70
     1
102
RTVSPost2010Prop40
 90
        0
102
RTVSPost2010PropOp40
 70
     1
102
RTVSPost2010Prop41ColorIndex
 90
       18
102
RTVSPost2010Prop41ColorRGB
 90
        0
102
RTVSPost2010PropOp41
 70
     1
102
RTVSPost2010Prop42
 90
       50
102
RTVSPost2010PropOp42
 70
     1
102
RTVSPost2010Prop43
 90
        3
102
RTVSPost2010PropOp43
 70
     1
102
RTVSPost2010Prop44ColorIndex
 90
        5
102
RTVSPost2010Prop44ColorRGB
 90
      255
102
RTVSPost2010PropOp44
 70
     1
102
RTVSPost2010Prop45
280
     0
102
RTVSPost2010PropOp45
 70
     1
102
RTVSPost2010Prop46
 90
       50
102
RTVSPost2010PropOp46
 70
     1
102
RTVSPost2010Prop47
 90
       50
102
RTVSPost2010PropOp47
 70
     1
102
RTVSPost2010Prop48
 90
       50
102
RTVSPost2010PropOp48
 70
     1
102
RTVSPost2010Prop49
280
     0
102
RTVSPost2010PropOp49
 70
     1
102
RTVSPost2010Prop50
 90
       50
102
RTVSPost2010PropOp50
 70
     1
102
RTVSPost2010Prop51ColorIndex
 90
      256
102
RTVSPost2010Prop51ColorRGB
 90
-16777216
102
RTVSPost2010PropOp51
 70
     0
102
RTVSPost2010Prop52
140
1.0
102
RTVSPost2010PropOp52
 70
     0
102
RTVSPost2010Prop53
 90
        2
102
RTVSPost2010PropOp53
 70
     1
102
RTVSPost2010Prop54
  1
strokes_ogs.tif
102
RTVSPost2010PropOp54
 70
     1
102
RTVSPost2010Prop55
280
     0
102
RTVSPost2010PropOp55
 70
     1
102
RTVSPost2010Prop56
140
1.0
102
RTVSPost2010PropOp56
 70
     1
102
RTVSPost2010Prop57
140
1.0
102
RTVSPost2010PropOp57
 70
     1
102
RTVSPropertyOp0
 70
     1
102
RTVSPropertyOp1
 70
     1
102
RTVSPropertyOp2
 70
     1
102
RTVSPropertyOp3
 70
     1
102
RTVSPropertyOp4
 70
     1
102
RTVSPropertyOp5
 70
     1
102
RTVSPropertyOp6
 70
     1
102
RTVSPropertyOp7
 70
     1
102
RTVSPropertyOp8
 70
     1
102
RTVSPropertyOp9
 70
     1
102
RTVSPropertyOp10
 70
     1
102
RTVSPropertyOp11
 70
     1
102
RTVSPropertyOp12
 70
     1
102
RTVSPropertyOp13
 70
     1
102
RTVSPropertyOp14
 70
     1
102
RTVSPropertyOp15
 70
     1
102
RTVSPropertyOp16
 70
     1
102
RTVSPropertyOp17
 70
     1
102
RTVSPropertyOp18
 70
     1
102
RTVSPropertyOp19
 70
     1
102
RTVSPropertyOp20
 70
     1
102
RTVSPropertyOp21
 70
     1
102
RTVSPropertyOp22
 70
     1
102
RTVSPropertyOp23
 70
     1
102
RTVSPropertyOp24
 70
     1
102
RTVSPropertyOp25
 70
     1
102
RTVSPropertyOp26
 70
     1
102
RTVSPropertyOp27
 70
     1
102
RTVSPropertyOp28
 70
     1
102
RTVSPropertyOp29
 70
     1
102
RTVSPropertyOp30
 70
     1
102
RTVSPropertyOp31
 70
     1
102
RTVSPropertyOp32
 70
     1
102
RTVSPropertyOp33
 70
     1
102
RTVSPropertyOp34
 70
     1
102
RTVSPropertyOp35
 70
     1
102
RTVSPropertyOp36
 70
     1
102
RTVSPropertyOp37
 70
     1
102
RTVSPropertyOp38
 70
     1
102
RTVSPropertyOp39
 70
     1
102
RTVSPropertyOp40
 70
     1
102
RTVSPropertyOp41
 70
     1
102
RTVSPropertyOp42
 70
     1
102
RTVSPropertyOp43
 70
     1
102
RTVSPropertyOp44
 70
     1
102
RTVSPropertyOp45
 70
     1
102
RTVSPropertyOp46
 70
     1
102
RTVSPropertyOp47
 70
     1
102
RTVSPropertyOp48
 70
     1
102
RTVSPropertyOp49
 70
     1
102
RTVSPropertyOp50
 70
     1
102
RTVSPropertyOp51
 70
     0
102
RTVSPropertyOp52
 70
     0
102
RTVSPropertyOp53
 70
     1
102
RTVSPropertyOp54
 70
     1
102
RTVSPropertyOp55
 70
     1
102
RTVSPropertyOp56
 70
     1
102
RTVSPropertyOp57
 70
     1
102
RTVSPropertyOp58
 70
     1
102
RTVSPropertyOp59
 70
     1
102
RTVSPropertyOp60
 70
     1
102
RTVSPropertyOp61
 70
     1
102
RTVSPropertyOp62
 70
     1
  0
XRECORD
  5
E629
102
{ACAD_REACTORS
330
E628
102
}
330
E628
100
AcDbXrecord
280
     1
102
RTVSPost2010Prop28
280
     0
102
RTVSPost2010PropOp28
 70
     1
102
RTVSPost2010Prop29
280
     1
102
RTVSPost2010PropOp29
 70
     1
102
RTVSPost2010Prop30
280
     1
102
RTVSPost2010PropOp30
 70
     1
102
RTVSPost2010Prop31
280
     0
102
RTVSPost2010PropOp31
 70
     1
102
RTVSPost2010Prop32
280
     0
102
RTVSPost2010PropOp32
 70
     1
102
RTVSPost2010Prop33
280
     0
102
RTVSPost2010PropOp33
 70
     1
102
RTVSPost2010Prop34
280
     0
102
RTVSPost2010PropOp34
 70
     1
102
RTVSPost2010Prop35
280
     0
102
RTVSPost2010PropOp35
 70
     1
102
RTVSPost2010Prop36
280
     0
102
RTVSPost2010PropOp36
 70
     1
102
RTVSPost2010Prop37
 90
       50
102
RTVSPost2010PropOp37
 70
     1
102
RTVSPost2010Prop38
140
0.0
102
RTVSPost2010PropOp38
 70
     1
102
RTVSPost2010Prop39
140
1.0
102
RTVSPost2010PropOp39
 70
     1
102
RTVSPost2010Prop40
 90
        0
102
RTVSPost2010PropOp40
 70
     1
102
RTVSPost2010Prop41ColorIndex
 90
       18
102
RTVSPost2010Prop41ColorRGB
 90
        0
102
RTVSPost2010PropOp41
 70
     1
102
RTVSPost2010Prop42
 90
       50
102
RTVSPost2010PropOp42
 70
     1
102
RTVSPost2010Prop43
 90
        3
102
RTVSPost2010PropOp43
 70
     1
102
RTVSPost2010Prop44ColorIndex
 90
        5
102
RTVSPost2010Prop44ColorRGB
 90
      255
102
RTVSPost2010PropOp44
 70
     1
102
RTVSPost2010Prop45
280
     0
102
RTVSPost2010PropOp45
 70
     1
102
RTVSPost2010Prop46
 90
       50
102
RTVSPost2010PropOp46
 70
     1
102
RTVSPost2010Prop47
 90
       50
102
RTVSPost2010PropOp47
 70
     1
102
RTVSPost2010Prop48
 90
       50
102
RTVSPost2010PropOp48
 70
     1
102
RTVSPost2010Prop49
280
     0
102
RTVSPost2010PropOp49
 70
     1
102
RTVSPost2010Prop50
 90
       50
102
RTVSPost2010PropOp50
 70
     1
102
RTVSPost2010Prop51ColorIndex
 90
      256
102
RTVSPost2010Prop51ColorRGB
 90
-16777216
102
RTVSPost2010PropOp51
 70
     0
102
RTVSPost2010Prop52
140
1.0
102
RTVSPost2010PropOp52
 70
     0
102
RTVSPost2010Prop53
 90
        2
102
RTVSPost2010PropOp53
 70
     1
102
RTVSPost2010Prop54
  1
strokes_ogs.tif
102
RTVSPost2010PropOp54
 70
     1
102
RTVSPost2010Prop55
280
     0
102
RTVSPost2010PropOp55
 70
     1
102
RTVSPost2010Prop56
140
1.0
102
RTVSPost2010PropOp56
 70
     1
102
RTVSPost2010Prop57
140
1.0
102
RTVSPost2010PropOp57
 70
     1
102
RTVSPropertyOp0
 70
     1
102
RTVSPropertyOp1
 70
     1
102
RTVSPropertyOp2
 70
     1
102
RTVSPropertyOp3
 70
     1
102
RTVSPropertyOp4
 70
     1
102
RTVSPropertyOp5
 70
     1
102
RTVSPropertyOp6
 70
     1
102
RTVSPropertyOp7
 70
     1
102
RTVSPropertyOp8
 70
     1
102
RTVSPropertyOp9
 70
     1
102
RTVSPropertyOp10
 70
     1
102
RTVSPropertyOp11
 70
     1
102
RTVSPropertyOp12
 70
     1
102
RTVSPropertyOp13
 70
     1
102
RTVSPropertyOp14
 70
     1
102
RTVSPropertyOp15
 70
     1
102
RTVSPropertyOp16
 70
     1
102
RTVSPropertyOp17
 70
     1
102
RTVSPropertyOp18
 70
     1
102
RTVSPropertyOp19
 70
     1
102
RTVSPropertyOp20
 70
     1
102
RTVSPropertyOp21
 70
     1
102
RTVSPropertyOp22
 70
     1
102
RTVSPropertyOp23
 70
     1
102
RTVSPropertyOp24
 70
     1
102
RTVSPropertyOp25
 70
     1
102
RTVSPropertyOp26
 70
     1
102
RTVSPropertyOp27
 70
     1
102
RTVSPropertyOp28
 70
     1
102
RTVSPropertyOp29
 70
     1
102
RTVSPropertyOp30
 70
     1
102
RTVSPropertyOp31
 70
     1
102
RTVSPropertyOp32
 70
     1
102
RTVSPropertyOp33
 70
     1
102
RTVSPropertyOp34
 70
     1
102
RTVSPropertyOp35
 70
     1
102
RTVSPropertyOp36
 70
     1
102
RTVSPropertyOp37
 70
     1
102
RTVSPropertyOp38
 70
     1
102
RTVSPropertyOp39
 70
     1
102
RTVSPropertyOp40
 70
     1
102
RTVSPropertyOp41
 70
     1
102
RTVSPropertyOp42
 70
     1
102
RTVSPropertyOp43
 70
     1
102
RTVSPropertyOp44
 70
     1
102
RTVSPropertyOp45
 70
     1
102
RTVSPropertyOp46
 70
     1
102
RTVSPropertyOp47
 70
     1
102
RTVSPropertyOp48
 70
     1
102
RTVSPropertyOp49
 70
     1
102
RTVSPropertyOp50
 70
     1
102
RTVSPropertyOp51
 70
     0
102
RTVSPropertyOp52
 70
     0
102
RTVSPropertyOp53
 70
     1
102
RTVSPropertyOp54
 70
     1
102
RTVSPropertyOp55
 70
     1
102
RTVSPropertyOp56
 70
     1
102
RTVSPropertyOp57
 70
     1
102
RTVSPropertyOp58
 70
     1
102
RTVSPropertyOp59
 70
     1
102
RTVSPropertyOp60
 70
     1
102
RTVSPropertyOp61
 70
     1
102
RTVSPropertyOp62
 70
     1
  0
XRECORD
  5
E61B
102
{ACAD_REACTORS
330
E61A
102
}
330
E61A
100
AcDbXrecord
280
     1
102
RTVSPost2010Prop28
280
     0
102
RTVSPost2010PropOp28
 70
     1
102
RTVSPost2010Prop29
280
     1
102
RTVSPost2010PropOp29
 70
     1
102
RTVSPost2010Prop30
280
     1
102
RTVSPost2010PropOp30
 70
     1
102
RTVSPost2010Prop31
280
     0
102
RTVSPost2010PropOp31
 70
     1
102
RTVSPost2010Prop32
280
     0
102
RTVSPost2010PropOp32
 70
     1
102
RTVSPost2010Prop33
280
     0
102
RTVSPost2010PropOp33
 70
     1
102
RTVSPost2010Prop34
280
     0
102
RTVSPost2010PropOp34
 70
     1
102
RTVSPost2010Prop35
280
     0
102
RTVSPost2010PropOp35
 70
     1
102
RTVSPost2010Prop36
280
     0
102
RTVSPost2010PropOp36
 70
     1
102
RTVSPost2010Prop37
 90
       50
102
RTVSPost2010PropOp37
 70
     1
102
RTVSPost2010Prop38
140
0.0
102
RTVSPost2010PropOp38
 70
     1
102
RTVSPost2010Prop39
140
1.0
102
RTVSPost2010PropOp39
 70
     1
102
RTVSPost2010Prop40
 90
        0
102
RTVSPost2010PropOp40
 70
     1
102
RTVSPost2010Prop41ColorIndex
 90
       18
102
RTVSPost2010Prop41ColorRGB
 90
        0
102
RTVSPost2010PropOp41
 70
     1
102
RTVSPost2010Prop42
 90
       50
102
RTVSPost2010PropOp42
 70
     1
102
RTVSPost2010Prop43
 90
        3
102
RTVSPost2010PropOp43
 70
     1
102
RTVSPost2010Prop44ColorIndex
 90
        5
102
RTVSPost2010Prop44ColorRGB
 90
      255
102
RTVSPost2010PropOp44
 70
     1
102
RTVSPost2010Prop45
280
     0
102
RTVSPost2010PropOp45
 70
     1
102
RTVSPost2010Prop46
 90
       50
102
RTVSPost2010PropOp46
 70
     1
102
RTVSPost2010Prop47
 90
       50
102
RTVSPost2010PropOp47
 70
     1
102
RTVSPost2010Prop48
 90
       50
102
RTVSPost2010PropOp48
 70
     1
102
RTVSPost2010Prop49
280
     0
102
RTVSPost2010PropOp49
 70
     1
102
RTVSPost2010Prop50
 90
       50
102
RTVSPost2010PropOp50
 70
     1
102
RTVSPost2010Prop51ColorIndex
 90
      256
102
RTVSPost2010Prop51ColorRGB
 90
-16777216
102
RTVSPost2010PropOp51
 70
     0
102
RTVSPost2010Prop52
140
1.0
102
RTVSPost2010PropOp52
 70
     0
102
RTVSPost2010Prop53
 90
        2
102
RTVSPost2010PropOp53
 70
     1
102
RTVSPost2010Prop54
  1
strokes_ogs.tif
102
RTVSPost2010PropOp54
 70
     1
102
RTVSPost2010Prop55
280
     0
102
RTVSPost2010PropOp55
 70
     1
102
RTVSPost2010Prop56
140
1.0
102
RTVSPost2010PropOp56
 70
     1
102
RTVSPost2010Prop57
140
1.0
102
RTVSPost2010PropOp57
 70
     1
102
RTVSPropertyOp0
 70
     1
102
RTVSPropertyOp1
 70
     1
102
RTVSPropertyOp2
 70
     1
102
RTVSPropertyOp3
 70
     1
102
RTVSPropertyOp4
 70
     1
102
RTVSPropertyOp5
 70
     1
102
RTVSPropertyOp6
 70
     1
102
RTVSPropertyOp7
 70
     1
102
RTVSPropertyOp8
 70
     1
102
RTVSPropertyOp9
 70
     1
102
RTVSPropertyOp10
 70
     1
102
RTVSPropertyOp11
 70
     1
102
RTVSPropertyOp12
 70
     1
102
RTVSPropertyOp13
 70
     1
102
RTVSPropertyOp14
 70
     1
102
RTVSPropertyOp15
 70
     1
102
RTVSPropertyOp16
 70
     1
102
RTVSPropertyOp17
 70
     1
102
RTVSPropertyOp18
 70
     1
102
RTVSPropertyOp19
 70
     1
102
RTVSPropertyOp20
 70
     1
102
RTVSPropertyOp21
 70
     1
102
RTVSPropertyOp22
 70
     1
102
RTVSPropertyOp23
 70
     1
102
RTVSPropertyOp24
 70
     1
102
RTVSPropertyOp25
 70
     1
102
RTVSPropertyOp26
 70
     1
102
RTVSPropertyOp27
 70
     1
102
RTVSPropertyOp28
 70
     1
102
RTVSPropertyOp29
 70
     1
102
RTVSPropertyOp30
 70
     1
102
RTVSPropertyOp31
 70
     1
102
RTVSPropertyOp32
 70
     1
102
RTVSPropertyOp33
 70
     1
102
RTVSPropertyOp34
 70
     1
102
RTVSPropertyOp35
 70
     1
102
RTVSPropertyOp36
 70
     1
102
RTVSPropertyOp37
 70
     1
102
RTVSPropertyOp38
 70
     1
102
RTVSPropertyOp39
 70
     1
102
RTVSPropertyOp40
 70
     1
102
RTVSPropertyOp41
 70
     1
102
RTVSPropertyOp42
 70
     1
102
RTVSPropertyOp43
 70
     1
102
RTVSPropertyOp44
 70
     1
102
RTVSPropertyOp45
 70
     1
102
RTVSPropertyOp46
 70
     1
102
RTVSPropertyOp47
 70
     1
102
RTVSPropertyOp48
 70
     1
102
RTVSPropertyOp49
 70
     1
102
RTVSPropertyOp50
 70
     1
102
RTVSPropertyOp51
 70
     0
102
RTVSPropertyOp52
 70
     0
102
RTVSPropertyOp53
 70
     1
102
RTVSPropertyOp54
 70
     1
102
RTVSPropertyOp55
 70
     1
102
RTVSPropertyOp56
 70
     1
102
RTVSPropertyOp57
 70
     1
102
RTVSPropertyOp58
 70
     1
102
RTVSPropertyOp59
 70
     1
102
RTVSPropertyOp60
 70
     1
102
RTVSPropertyOp61
 70
     1
102
RTVSPropertyOp62
 70
     1
  0
XRECORD
  5
E61F
102
{ACAD_REACTORS
330
E61E
102
}
330
E61E
100
AcDbXrecord
280
     1
102
RTVSPost2010Prop28
280
     0
102
RTVSPost2010PropOp28
 70
     1
102
RTVSPost2010Prop29
280
     1
102
RTVSPost2010PropOp29
 70
     1
102
RTVSPost2010Prop30
280
     1
102
RTVSPost2010PropOp30
 70
     1
102
RTVSPost2010Prop31
280
     0
102
RTVSPost2010PropOp31
 70
     1
102
RTVSPost2010Prop32
280
     0
102
RTVSPost2010PropOp32
 70
     1
102
RTVSPost2010Prop33
280
     0
102
RTVSPost2010PropOp33
 70
     1
102
RTVSPost2010Prop34
280
     0
102
RTVSPost2010PropOp34
 70
     1
102
RTVSPost2010Prop35
280
     0
102
RTVSPost2010PropOp35
 70
     1
102
RTVSPost2010Prop36
280
     0
102
RTVSPost2010PropOp36
 70
     1
102
RTVSPost2010Prop37
 90
       50
102
RTVSPost2010PropOp37
 70
     1
102
RTVSPost2010Prop38
140
0.0
102
RTVSPost2010PropOp38
 70
     1
102
RTVSPost2010Prop39
140
1.0
102
RTVSPost2010PropOp39
 70
     1
102
RTVSPost2010Prop40
 90
        0
102
RTVSPost2010PropOp40
 70
     1
102
RTVSPost2010Prop41ColorIndex
 90
       18
102
RTVSPost2010Prop41ColorRGB
 90
        0
102
RTVSPost2010PropOp41
 70
     1
102
RTVSPost2010Prop42
 90
       50
102
RTVSPost2010PropOp42
 70
     1
102
RTVSPost2010Prop43
 90
        3
102
RTVSPost2010PropOp43
 70
     1
102
RTVSPost2010Prop44ColorIndex
 90
        5
102
RTVSPost2010Prop44ColorRGB
 90
      255
102
RTVSPost2010PropOp44
 70
     1
102
RTVSPost2010Prop45
280
     0
102
RTVSPost2010PropOp45
 70
     1
102
RTVSPost2010Prop46
 90
       50
102
RTVSPost2010PropOp46
 70
     1
102
RTVSPost2010Prop47
 90
       50
102
RTVSPost2010PropOp47
 70
     1
102
RTVSPost2010Prop48
 90
       50
102
RTVSPost2010PropOp48
 70
     1
102
RTVSPost2010Prop49
280
     0
102
RTVSPost2010PropOp49
 70
     1
102
RTVSPost2010Prop50
 90
       50
102
RTVSPost2010PropOp50
 70
     1
102
RTVSPost2010Prop51ColorIndex
 90
      256
102
RTVSPost2010Prop51ColorRGB
 90
-16777216
102
RTVSPost2010PropOp51
 70
     0
102
RTVSPost2010Prop52
140
1.0
102
RTVSPost2010PropOp52
 70
     0
102
RTVSPost2010Prop53
 90
        2
102
RTVSPost2010PropOp53
 70
     1
102
RTVSPost2010Prop54
  1
strokes_ogs.tif
102
RTVSPost2010PropOp54
 70
     1
102
RTVSPost2010Prop55
280
     0
102
RTVSPost2010PropOp55
 70
     1
102
RTVSPost2010Prop56
140
1.0
102
RTVSPost2010PropOp56
 70
     1
102
RTVSPost2010Prop57
140
1.0
102
RTVSPost2010PropOp57
 70
     1
102
RTVSPropertyOp0
 70
     1
102
RTVSPropertyOp1
 70
     1
102
RTVSPropertyOp2
 70
     1
102
RTVSPropertyOp3
 70
     1
102
RTVSPropertyOp4
 70
     1
102
RTVSPropertyOp5
 70
     1
102
RTVSPropertyOp6
 70
     1
102
RTVSPropertyOp7
 70
     1
102
RTVSPropertyOp8
 70
     1
102
RTVSPropertyOp9
 70
     1
102
RTVSPropertyOp10
 70
     1
102
RTVSPropertyOp11
 70
     1
102
RTVSPropertyOp12
 70
     1
102
RTVSPropertyOp13
 70
     1
102
RTVSPropertyOp14
 70
     1
102
RTVSPropertyOp15
 70
     1
102
RTVSPropertyOp16
 70
     1
102
RTVSPropertyOp17
 70
     1
102
RTVSPropertyOp18
 70
     1
102
RTVSPropertyOp19
 70
     1
102
RTVSPropertyOp20
 70
     1
102
RTVSPropertyOp21
 70
     1
102
RTVSPropertyOp22
 70
     1
102
RTVSPropertyOp23
 70
     1
102
RTVSPropertyOp24
 70
     1
102
RTVSPropertyOp25
 70
     1
102
RTVSPropertyOp26
 70
     1
102
RTVSPropertyOp27
 70
     1
102
RTVSPropertyOp28
 70
     1
102
RTVSPropertyOp29
 70
     1
102
RTVSPropertyOp30
 70
     1
102
RTVSPropertyOp31
 70
     1
102
RTVSPropertyOp32
 70
     1
102
RTVSPropertyOp33
 70
     1
102
RTVSPropertyOp34
 70
     1
102
RTVSPropertyOp35
 70
     1
102
RTVSPropertyOp36
 70
     1
102
RTVSPropertyOp37
 70
     1
102
RTVSPropertyOp38
 70
     1
102
RTVSPropertyOp39
 70
     1
102
RTVSPropertyOp40
 70
     1
102
RTVSPropertyOp41
 70
     1
102
RTVSPropertyOp42
 70
     1
102
RTVSPropertyOp43
 70
     1
102
RTVSPropertyOp44
 70
     1
102
RTVSPropertyOp45
 70
     1
102
RTVSPropertyOp46
 70
     1
102
RTVSPropertyOp47
 70
     1
102
RTVSPropertyOp48
 70
     1
102
RTVSPropertyOp49
 70
     1
102
RTVSPropertyOp50
 70
     1
102
RTVSPropertyOp51
 70
     0
102
RTVSPropertyOp52
 70
     0
102
RTVSPropertyOp53
 70
     1
102
RTVSPropertyOp54
 70
     1
102
RTVSPropertyOp55
 70
     1
102
RTVSPropertyOp56
 70
     1
102
RTVSPropertyOp57
 70
     1
102
RTVSPropertyOp58
 70
     1
102
RTVSPropertyOp59
 70
     1
102
RTVSPropertyOp60
 70
     1
102
RTVSPropertyOp61
 70
     1
102
RTVSPropertyOp62
 70
     1
  0
XRECORD
  5
E639
102
{ACAD_REACTORS
330
E638
102
}
330
E638
100
AcDbXrecord
280
     1
102
RTVSPost2010Prop28
280
     0
102
RTVSPost2010PropOp28
 70
     1
102
RTVSPost2010Prop29
280
     1
102
RTVSPost2010PropOp29
 70
     1
102
RTVSPost2010Prop30
280
     1
102
RTVSPost2010PropOp30
 70
     1
102
RTVSPost2010Prop31
280
     0
102
RTVSPost2010PropOp31
 70
     1
102
RTVSPost2010Prop32
280
     0
102
RTVSPost2010PropOp32
 70
     1
102
RTVSPost2010Prop33
280
     0
102
RTVSPost2010PropOp33
 70
     1
102
RTVSPost2010Prop34
280
     0
102
RTVSPost2010PropOp34
 70
     1
102
RTVSPost2010Prop35
280
     0
102
RTVSPost2010PropOp35
 70
     1
102
RTVSPost2010Prop36
280
     0
102
RTVSPost2010PropOp36
 70
     1
102
RTVSPost2010Prop37
 90
       50
102
RTVSPost2010PropOp37
 70
     0
102
RTVSPost2010Prop38
140
0.0
102
RTVSPost2010PropOp38
 70
     0
102
RTVSPost2010Prop39
140
1.0
102
RTVSPost2010PropOp39
 70
     0
102
RTVSPost2010Prop40
 90
        0
102
RTVSPost2010PropOp40
 70
     0
102
RTVSPost2010Prop41ColorIndex
 90
       18
102
RTVSPost2010Prop41ColorRGB
 90
        0
102
RTVSPost2010PropOp41
 70
     0
102
RTVSPost2010Prop42
 90
       50
102
RTVSPost2010PropOp42
 70
     0
102
RTVSPost2010Prop43
 90
        3
102
RTVSPost2010PropOp43
 70
     0
102
RTVSPost2010Prop44ColorIndex
 90
        5
102
RTVSPost2010Prop44ColorRGB
 90
      255
102
RTVSPost2010PropOp44
 70
     0
102
RTVSPost2010Prop45
280
     0
102
RTVSPost2010PropOp45
 70
     1
102
RTVSPost2010Prop46
 90
       50
102
RTVSPost2010PropOp46
 70
     0
102
RTVSPost2010Prop47
 90
       50
102
RTVSPost2010PropOp47
 70
     0
102
RTVSPost2010Prop48
 90
       50
102
RTVSPost2010PropOp48
 70
     0
102
RTVSPost2010Prop49
280
     0
102
RTVSPost2010PropOp49
 70
     1
102
RTVSPost2010Prop50
 90
       50
102
RTVSPost2010PropOp50
 70
     0
102
RTVSPost2010Prop51ColorIndex
 90
      256
102
RTVSPost2010Prop51ColorRGB
 90
-16777216
102
RTVSPost2010PropOp51
 70
     0
102
RTVSPost2010Prop52
140
1.0
102
RTVSPost2010PropOp52
 70
     0
102
RTVSPost2010Prop53
 90
        2
102
RTVSPost2010PropOp53
 70
     0
102
RTVSPost2010Prop54
  1
strokes_ogs.tif
102
RTVSPost2010PropOp54
 70
     0
102
RTVSPost2010Prop55
280
     0
102
RTVSPost2010PropOp55
 70
     1
102
RTVSPost2010Prop56
140
1.0
102
RTVSPost2010PropOp56
 70
     0
102
RTVSPost2010Prop57
140
1.0
102
RTVSPost2010PropOp57
 70
     0
102
RTVSPropertyOp0
 70
     0
102
RTVSPropertyOp1
 70
     0
102
RTVSPropertyOp2
 70
     0
102
RTVSPropertyOp3
 70
     0
102
RTVSPropertyOp4
 70
     0
102
RTVSPropertyOp5
 70
     0
102
RTVSPropertyOp6
 70
     0
102
RTVSPropertyOp7
 70
     0
102
RTVSPropertyOp8
 70
     0
102
RTVSPropertyOp9
 70
     0
102
RTVSPropertyOp10
 70
     0
102
RTVSPropertyOp11
 70
     0
102
RTVSPropertyOp12
 70
     0
102
RTVSPropertyOp13
 70
     0
102
RTVSPropertyOp14
 70
     2
102
RTVSPropertyOp15
 70
     0
102
RTVSPropertyOp16
 70
     0
102
RTVSPropertyOp17
 70
     0
102
RTVSPropertyOp18
 70
     0
102
RTVSPropertyOp19
 70
     0
102
RTVSPropertyOp20
 70
     0
102
RTVSPropertyOp21
 70
     0
102
RTVSPropertyOp22
 70
     0
102
RTVSPropertyOp23
 70
     0
102
RTVSPropertyOp24
 70
     0
102
RTVSPropertyOp25
 70
     0
102
RTVSPropertyOp26
 70
     0
102
RTVSPropertyOp27
 70
     0
102
RTVSPropertyOp28
 70
     1
102
RTVSPropertyOp29
 70
     1
102
RTVSPropertyOp30
 70
     1
102
RTVSPropertyOp31
 70
     1
102
RTVSPropertyOp32
 70
     1
102
RTVSPropertyOp33
 70
     1
102
RTVSPropertyOp34
 70
     1
102
RTVSPropertyOp35
 70
     1
102
RTVSPropertyOp36
 70
     1
102
RTVSPropertyOp37
 70
     0
102
RTVSPropertyOp38
 70
     0
102
RTVSPropertyOp39
 70
     0
102
RTVSPropertyOp40
 70
     0
102
RTVSPropertyOp41
 70
     0
102
RTVSPropertyOp42
 70
     0
102
RTVSPropertyOp43
 70
     0
102
RTVSPropertyOp44
 70
     0
102
RTVSPropertyOp45
 70
     1
102
RTVSPropertyOp46
 70
     0
102
RTVSPropertyOp47
 70
     0
102
RTVSPropertyOp48
 70
     0
102
RTVSPropertyOp49
 70
     1
102
RTVSPropertyOp50
 70
     0
102
RTVSPropertyOp51
 70
     0
102
RTVSPropertyOp52
 70
     0
102
RTVSPropertyOp53
 70
     0
102
RTVSPropertyOp54
 70
     0
102
RTVSPropertyOp55
 70
     1
102
RTVSPropertyOp56
 70
     0
102
RTVSPropertyOp57
 70
     0
102
RTVSPropertyOp58
 70
     0
102
RTVSPropertyOp59
 70
     0
102
RTVSPropertyOp60
 70
     0
102
RTVSPropertyOp61
 70
     0
102
RTVSPropertyOp62
 70
     0
  0
XRECORD
  5
E627
102
{ACAD_REACTORS
330
E626
102
}
330
E626
100
AcDbXrecord
280
     1
102
RTVSPost2010Prop28
280
     0
102
RTVSPost2010PropOp28
 70
     1
102
RTVSPost2010Prop29
280
     1
102
RTVSPost2010PropOp29
 70
     1
102
RTVSPost2010Prop30
280
     1
102
RTVSPost2010PropOp30
 70
     1
102
RTVSPost2010Prop31
280
     0
102
RTVSPost2010PropOp31
 70
     1
102
RTVSPost2010Prop32
280
     0
102
RTVSPost2010PropOp32
 70
     1
102
RTVSPost2010Prop33
280
     0
102
RTVSPost2010PropOp33
 70
     1
102
RTVSPost2010Prop34
280
     0
102
RTVSPost2010PropOp34
 70
     1
102
RTVSPost2010Prop35
280
     0
102
RTVSPost2010PropOp35
 70
     1
102
RTVSPost2010Prop36
280
     0
102
RTVSPost2010PropOp36
 70
     1
102
RTVSPost2010Prop37
 90
       50
102
RTVSPost2010PropOp37
 70
     1
102
RTVSPost2010Prop38
140
0.0
102
RTVSPost2010PropOp38
 70
     1
102
RTVSPost2010Prop39
140
1.0
102
RTVSPost2010PropOp39
 70
     1
102
RTVSPost2010Prop40
 90
        0
102
RTVSPost2010PropOp40
 70
     1
102
RTVSPost2010Prop41ColorIndex
 90
       18
102
RTVSPost2010Prop41ColorRGB
 90
        0
102
RTVSPost2010PropOp41
 70
     1
102
RTVSPost2010Prop42
 90
       50
102
RTVSPost2010PropOp42
 70
     1
102
RTVSPost2010Prop43
 90
        3
102
RTVSPost2010PropOp43
 70
     1
102
RTVSPost2010Prop44ColorIndex
 90
        5
102
RTVSPost2010Prop44ColorRGB
 90
      255
102
RTVSPost2010PropOp44
 70
     1
102
RTVSPost2010Prop45
280
     0
102
RTVSPost2010PropOp45
 70
     1
102
RTVSPost2010Prop46
 90
       50
102
RTVSPost2010PropOp46
 70
     1
102
RTVSPost2010Prop47
 90
       50
102
RTVSPost2010PropOp47
 70
     1
102
RTVSPost2010Prop48
 90
       50
102
RTVSPost2010PropOp48
 70
     1
102
RTVSPost2010Prop49
280
     0
102
RTVSPost2010PropOp49
 70
     1
102
RTVSPost2010Prop50
 90
       50
102
RTVSPost2010PropOp50
 70
     1
102
RTVSPost2010Prop51ColorIndex
 90
      256
102
RTVSPost2010Prop51ColorRGB
 90
-16777216
102
RTVSPost2010PropOp51
 70
     0
102
RTVSPost2010Prop52
140
1.0
102
RTVSPost2010PropOp52
 70
     0
102
RTVSPost2010Prop53
 90
        2
102
RTVSPost2010PropOp53
 70
     1
102
RTVSPost2010Prop54
  1
strokes_ogs.tif
102
RTVSPost2010PropOp54
 70
     1
102
RTVSPost2010Prop55
280
     0
102
RTVSPost2010PropOp55
 70
     1
102
RTVSPost2010Prop56
140
1.0
102
RTVSPost2010PropOp56
 70
     1
102
RTVSPost2010Prop57
140
1.0
102
RTVSPost2010PropOp57
 70
     1
102
RTVSPropertyOp0
 70
     1
102
RTVSPropertyOp1
 70
     1
102
RTVSPropertyOp2
 70
     1
102
RTVSPropertyOp3
 70
     1
102
RTVSPropertyOp4
 70
     1
102
RTVSPropertyOp5
 70
     1
102
RTVSPropertyOp6
 70
     1
102
RTVSPropertyOp7
 70
     1
102
RTVSPropertyOp8
 70
     1
102
RTVSPropertyOp9
 70
     1
102
RTVSPropertyOp10
 70
     1
102
RTVSPropertyOp11
 70
     1
102
RTVSPropertyOp12
 70
     1
102
RTVSPropertyOp13
 70
     1
102
RTVSPropertyOp14
 70
     1
102
RTVSPropertyOp15
 70
     1
102
RTVSPropertyOp16
 70
     1
102
RTVSPropertyOp17
 70
     1
102
RTVSPropertyOp18
 70
     1
102
RTVSPropertyOp19
 70
     1
102
RTVSPropertyOp20
 70
     1
102
RTVSPropertyOp21
 70
     1
102
RTVSPropertyOp22
 70
     1
102
RTVSPropertyOp23
 70
     1
102
RTVSPropertyOp24
 70
     1
102
RTVSPropertyOp25
 70
     1
102
RTVSPropertyOp26
 70
     1
102
RTVSPropertyOp27
 70
     1
102
RTVSPropertyOp28
 70
     1
102
RTVSPropertyOp29
 70
     1
102
RTVSPropertyOp30
 70
     1
102
RTVSPropertyOp31
 70
     1
102
RTVSPropertyOp32
 70
     1
102
RTVSPropertyOp33
 70
     1
102
RTVSPropertyOp34
 70
     1
102
RTVSPropertyOp35
 70
     1
102
RTVSPropertyOp36
 70
     1
102
RTVSPropertyOp37
 70
     1
102
RTVSPropertyOp38
 70
     1
102
RTVSPropertyOp39
 70
     1
102
RTVSPropertyOp40
 70
     1
102
RTVSPropertyOp41
 70
     1
102
RTVSPropertyOp42
 70
     1
102
RTVSPropertyOp43
 70
     1
102
RTVSPropertyOp44
 70
     1
102
RTVSPropertyOp45
 70
     1
102
RTVSPropertyOp46
 70
     1
102
RTVSPropertyOp47
 70
     1
102
RTVSPropertyOp48
 70
     1
102
RTVSPropertyOp49
 70
     1
102
RTVSPropertyOp50
 70
     1
102
RTVSPropertyOp51
 70
     0
102
RTVSPropertyOp52
 70
     0
102
RTVSPropertyOp53
 70
     1
102
RTVSPropertyOp54
 70
     1
102
RTVSPropertyOp55
 70
     1
102
RTVSPropertyOp56
 70
     1
102
RTVSPropertyOp57
 70
     1
102
RTVSPropertyOp58
 70
     1
102
RTVSPropertyOp59
 70
     1
102
RTVSPropertyOp60
 70
     1
102
RTVSPropertyOp61
 70
     1
102
RTVSPropertyOp62
 70
     1
  0
XRECORD
  5
E60B
102
{ACAD_REACTORS
330
E60A
102
}
330
E60A
100
AcDbXrecord
280
     1
102
RTVSPost2010Prop28
280
     0
102
RTVSPost2010PropOp28
 70
     1
102
RTVSPost2010Prop29
280
     1
102
RTVSPost2010PropOp29
 70
     1
102
RTVSPost2010Prop30
280
     1
102
RTVSPost2010PropOp30
 70
     1
102
RTVSPost2010Prop31
280
     0
102
RTVSPost2010PropOp31
 70
     1
102
RTVSPost2010Prop32
280
     0
102
RTVSPost2010PropOp32
 70
     1
102
RTVSPost2010Prop33
280
     0
102
RTVSPost2010PropOp33
 70
     1
102
RTVSPost2010Prop34
280
     0
102
RTVSPost2010PropOp34
 70
     1
102
RTVSPost2010Prop35
280
     0
102
RTVSPost2010PropOp35
 70
     1
102
RTVSPost2010Prop36
280
     0
102
RTVSPost2010PropOp36
 70
     1
102
RTVSPost2010Prop37
 90
       50
102
RTVSPost2010PropOp37
 70
     1
102
RTVSPost2010Prop38
140
0.0
102
RTVSPost2010PropOp38
 70
     1
102
RTVSPost2010Prop39
140
1.0
102
RTVSPost2010PropOp39
 70
     1
102
RTVSPost2010Prop40
 90
        0
102
RTVSPost2010PropOp40
 70
     1
102
RTVSPost2010Prop41ColorIndex
 90
       18
102
RTVSPost2010Prop41ColorRGB
 90
        0
102
RTVSPost2010PropOp41
 70
     1
102
RTVSPost2010Prop42
 90
       50
102
RTVSPost2010PropOp42
 70
     1
102
RTVSPost2010Prop43
 90
        3
102
RTVSPost2010PropOp43
 70
     1
102
RTVSPost2010Prop44ColorIndex
 90
        5
102
RTVSPost2010Prop44ColorRGB
 90
      255
102
RTVSPost2010PropOp44
 70
     1
102
RTVSPost2010Prop45
280
     0
102
RTVSPost2010PropOp45
 70
     1
102
RTVSPost2010Prop46
 90
       50
102
RTVSPost2010PropOp46
 70
     1
102
RTVSPost2010Prop47
 90
       50
102
RTVSPost2010PropOp47
 70
     1
102
RTVSPost2010Prop48
 90
       50
102
RTVSPost2010PropOp48
 70
     1
102
RTVSPost2010Prop49
280
     0
102
RTVSPost2010PropOp49
 70
     1
102
RTVSPost2010Prop50
 90
       50
102
RTVSPost2010PropOp50
 70
     1
102
RTVSPost2010Prop51ColorIndex
 90
      256
102
RTVSPost2010Prop51ColorRGB
 90
-16777216
102
RTVSPost2010PropOp51
 70
     0
102
RTVSPost2010Prop52
140
1.0
102
RTVSPost2010PropOp52
 70
     0
102
RTVSPost2010Prop53
 90
        2
102
RTVSPost2010PropOp53
 70
     1
102
RTVSPost2010Prop54
  1
strokes_ogs.tif
102
RTVSPost2010PropOp54
 70
     1
102
RTVSPost2010Prop55
280
     0
102
RTVSPost2010PropOp55
 70
     1
102
RTVSPost2010Prop56
140
1.0
102
RTVSPost2010PropOp56
 70
     1
102
RTVSPost2010Prop57
140
1.0
102
RTVSPost2010PropOp57
 70
     1
102
RTVSPropertyOp0
 70
     1
102
RTVSPropertyOp1
 70
     1
102
RTVSPropertyOp2
 70
     1
102
RTVSPropertyOp3
 70
     1
102
RTVSPropertyOp4
 70
     1
102
RTVSPropertyOp5
 70
     1
102
RTVSPropertyOp6
 70
     1
102
RTVSPropertyOp7
 70
     1
102
RTVSPropertyOp8
 70
     1
102
RTVSPropertyOp9
 70
     1
102
RTVSPropertyOp10
 70
     1
102
RTVSPropertyOp11
 70
     1
102
RTVSPropertyOp12
 70
     1
102
RTVSPropertyOp13
 70
     1
102
RTVSPropertyOp14
 70
     1
102
RTVSPropertyOp15
 70
     1
102
RTVSPropertyOp16
 70
     1
102
RTVSPropertyOp17
 70
     1
102
RTVSPropertyOp18
 70
     1
102
RTVSPropertyOp19
 70
     1
102
RTVSPropertyOp20
 70
     1
102
RTVSPropertyOp21
 70
     1
102
RTVSPropertyOp22
 70
     1
102
RTVSPropertyOp23
 70
     1
102
RTVSPropertyOp24
 70
     1
102
RTVSPropertyOp25
 70
     1
102
RTVSPropertyOp26
 70
     1
102
RTVSPropertyOp27
 70
     1
102
RTVSPropertyOp28
 70
     1
102
RTVSPropertyOp29
 70
     1
102
RTVSPropertyOp30
 70
     1
102
RTVSPropertyOp31
 70
     1
102
RTVSPropertyOp32
 70
     1
102
RTVSPropertyOp33
 70
     1
102
RTVSPropertyOp34
 70
     1
102
RTVSPropertyOp35
 70
     1
102
RTVSPropertyOp36
 70
     1
102
RTVSPropertyOp37
 70
     1
102
RTVSPropertyOp38
 70
     1
102
RTVSPropertyOp39
 70
     1
102
RTVSPropertyOp40
 70
     1
102
RTVSPropertyOp41
 70
     1
102
RTVSPropertyOp42
 70
     1
102
RTVSPropertyOp43
 70
     1
102
RTVSPropertyOp44
 70
     1
102
RTVSPropertyOp45
 70
     1
102
RTVSPropertyOp46
 70
     1
102
RTVSPropertyOp47
 70
     1
102
RTVSPropertyOp48
 70
     1
102
RTVSPropertyOp49
 70
     1
102
RTVSPropertyOp50
 70
     1
102
RTVSPropertyOp51
 70
     0
102
RTVSPropertyOp52
 70
     0
102
RTVSPropertyOp53
 70
     1
102
RTVSPropertyOp54
 70
     1
102
RTVSPropertyOp55
 70
     1
102
RTVSPropertyOp56
 70
     1
102
RTVSPropertyOp57
 70
     1
102
RTVSPropertyOp58
 70
     1
102
RTVSPropertyOp59
 70
     1
102
RTVSPropertyOp60
 70
     1
102
RTVSPropertyOp61
 70
     1
102
RTVSPropertyOp62
 70
     1
  0
XRECORD
  5
E60D
102
{ACAD_REACTORS
330
E60C
102
}
330
E60C
100
AcDbXrecord
280
     1
102
RTVSPost2010Prop28
280
     0
102
RTVSPost2010PropOp28
 70
     1
102
RTVSPost2010Prop29
280
     1
102
RTVSPost2010PropOp29
 70
     1
102
RTVSPost2010Prop30
280
     1
102
RTVSPost2010PropOp30
 70
     1
102
RTVSPost2010Prop31
280
     0
102
RTVSPost2010PropOp31
 70
     1
102
RTVSPost2010Prop32
280
     0
102
RTVSPost2010PropOp32
 70
     1
102
RTVSPost2010Prop33
280
     0
102
RTVSPost2010PropOp33
 70
     1
102
RTVSPost2010Prop34
280
     0
102
RTVSPost2010PropOp34
 70
     1
102
RTVSPost2010Prop35
280
     0
102
RTVSPost2010PropOp35
 70
     1
102
RTVSPost2010Prop36
280
     0
102
RTVSPost2010PropOp36
 70
     1
102
RTVSPost2010Prop37
 90
       50
102
RTVSPost2010PropOp37
 70
     1
102
RTVSPost2010Prop38
140
0.0
102
RTVSPost2010PropOp38
 70
     1
102
RTVSPost2010Prop39
140
1.0
102
RTVSPost2010PropOp39
 70
     1
102
RTVSPost2010Prop40
 90
        0
102
RTVSPost2010PropOp40
 70
     1
102
RTVSPost2010Prop41ColorIndex
 90
       18
102
RTVSPost2010Prop41ColorRGB
 90
        0
102
RTVSPost2010PropOp41
 70
     1
102
RTVSPost2010Prop42
 90
       50
102
RTVSPost2010PropOp42
 70
     1
102
RTVSPost2010Prop43
 90
        3
102
RTVSPost2010PropOp43
 70
     1
102
RTVSPost2010Prop44ColorIndex
 90
        5
102
RTVSPost2010Prop44ColorRGB
 90
      255
102
RTVSPost2010PropOp44
 70
     1
102
RTVSPost2010Prop45
280
     0
102
RTVSPost2010PropOp45
 70
     1
102
RTVSPost2010Prop46
 90
       50
102
RTVSPost2010PropOp46
 70
     1
102
RTVSPost2010Prop47
 90
       50
102
RTVSPost2010PropOp47
 70
     1
102
RTVSPost2010Prop48
 90
       50
102
RTVSPost2010PropOp48
 70
     1
102
RTVSPost2010Prop49
280
     0
102
RTVSPost2010PropOp49
 70
     1
102
RTVSPost2010Prop50
 90
       50
102
RTVSPost2010PropOp50
 70
     1
102
RTVSPost2010Prop51ColorIndex
 90
      256
102
RTVSPost2010Prop51ColorRGB
 90
-16777216
102
RTVSPost2010PropOp51
 70
     0
102
RTVSPost2010Prop52
140
1.0
102
RTVSPost2010PropOp52
 70
     0
102
RTVSPost2010Prop53
 90
        2
102
RTVSPost2010PropOp53
 70
     1
102
RTVSPost2010Prop54
  1
strokes_ogs.tif
102
RTVSPost2010PropOp54
 70
     1
102
RTVSPost2010Prop55
280
     0
102
RTVSPost2010PropOp55
 70
     1
102
RTVSPost2010Prop56
140
1.0
102
RTVSPost2010PropOp56
 70
     1
102
RTVSPost2010Prop57
140
1.0
102
RTVSPost2010PropOp57
 70
     1
102
RTVSPropertyOp0
 70
     1
102
RTVSPropertyOp1
 70
     1
102
RTVSPropertyOp2
 70
     1
102
RTVSPropertyOp3
 70
     1
102
RTVSPropertyOp4
 70
     1
102
RTVSPropertyOp5
 70
     1
102
RTVSPropertyOp6
 70
     1
102
RTVSPropertyOp7
 70
     1
102
RTVSPropertyOp8
 70
     1
102
RTVSPropertyOp9
 70
     1
102
RTVSPropertyOp10
 70
     1
102
RTVSPropertyOp11
 70
     1
102
RTVSPropertyOp12
 70
     1
102
RTVSPropertyOp13
 70
     1
102
RTVSPropertyOp14
 70
     1
102
RTVSPropertyOp15
 70
     1
102
RTVSPropertyOp16
 70
     1
102
RTVSPropertyOp17
 70
     1
102
RTVSPropertyOp18
 70
     1
102
RTVSPropertyOp19
 70
     1
102
RTVSPropertyOp20
 70
     1
102
RTVSPropertyOp21
 70
     1
102
RTVSPropertyOp22
 70
     1
102
RTVSPropertyOp23
 70
     1
102
RTVSPropertyOp24
 70
     1
102
RTVSPropertyOp25
 70
     1
102
RTVSPropertyOp26
 70
     1
102
RTVSPropertyOp27
 70
     1
102
RTVSPropertyOp28
 70
     1
102
RTVSPropertyOp29
 70
     1
102
RTVSPropertyOp30
 70
     1
102
RTVSPropertyOp31
 70
     1
102
RTVSPropertyOp32
 70
     1
102
RTVSPropertyOp33
 70
     1
102
RTVSPropertyOp34
 70
     1
102
RTVSPropertyOp35
 70
     1
102
RTVSPropertyOp36
 70
     1
102
RTVSPropertyOp37
 70
     1
102
RTVSPropertyOp38
 70
     1
102
RTVSPropertyOp39
 70
     1
102
RTVSPropertyOp40
 70
     1
102
RTVSPropertyOp41
 70
     1
102
RTVSPropertyOp42
 70
     1
102
RTVSPropertyOp43
 70
     1
102
RTVSPropertyOp44
 70
     1
102
RTVSPropertyOp45
 70
     1
102
RTVSPropertyOp46
 70
     1
102
RTVSPropertyOp47
 70
     1
102
RTVSPropertyOp48
 70
     1
102
RTVSPropertyOp49
 70
     1
102
RTVSPropertyOp50
 70
     1
102
RTVSPropertyOp51
 70
     0
102
RTVSPropertyOp52
 70
     0
102
RTVSPropertyOp53
 70
     1
102
RTVSPropertyOp54
 70
     1
102
RTVSPropertyOp55
 70
     1
102
RTVSPropertyOp56
 70
     1
102
RTVSPropertyOp57
 70
     1
102
RTVSPropertyOp58
 70
     1
102
RTVSPropertyOp59
 70
     1
102
RTVSPropertyOp60
 70
     1
102
RTVSPropertyOp61
 70
     1
102
RTVSPropertyOp62
 70
     1
  0
XRECORD
  5
E60F
102
{ACAD_REACTORS
330
E60E
102
}
330
E60E
100
AcDbXrecord
280
     1
102
RTVSPost2010Prop28
280
     0
102
RTVSPost2010PropOp28
 70
     1
102
RTVSPost2010Prop29
280
     1
102
RTVSPost2010PropOp29
 70
     1
102
RTVSPost2010Prop30
280
     1
102
RTVSPost2010PropOp30
 70
     1
102
RTVSPost2010Prop31
280
     0
102
RTVSPost2010PropOp31
 70
     1
102
RTVSPost2010Prop32
280
     0
102
RTVSPost2010PropOp32
 70
     1
102
RTVSPost2010Prop33
280
     0
102
RTVSPost2010PropOp33
 70
     1
102
RTVSPost2010Prop34
280
     0
102
RTVSPost2010PropOp34
 70
     1
102
RTVSPost2010Prop35
280
     0
102
RTVSPost2010PropOp35
 70
     1
102
RTVSPost2010Prop36
280
     0
102
RTVSPost2010PropOp36
 70
     1
102
RTVSPost2010Prop37
 90
       50
102
RTVSPost2010PropOp37
 70
     1
102
RTVSPost2010Prop38
140
0.0
102
RTVSPost2010PropOp38
 70
     1
102
RTVSPost2010Prop39
140
1.0
102
RTVSPost2010PropOp39
 70
     1
102
RTVSPost2010Prop40
 90
        0
102
RTVSPost2010PropOp40
 70
     1
102
RTVSPost2010Prop41ColorIndex
 90
       18
102
RTVSPost2010Prop41ColorRGB
 90
        0
102
RTVSPost2010PropOp41
 70
     1
102
RTVSPost2010Prop42
 90
       50
102
RTVSPost2010PropOp42
 70
     1
102
RTVSPost2010Prop43
 90
        3
102
RTVSPost2010PropOp43
 70
     1
102
RTVSPost2010Prop44ColorIndex
 90
        5
102
RTVSPost2010Prop44ColorRGB
 90
      255
102
RTVSPost2010PropOp44
 70
     1
102
RTVSPost2010Prop45
280
     0
102
RTVSPost2010PropOp45
 70
     1
102
RTVSPost2010Prop46
 90
       50
102
RTVSPost2010PropOp46
 70
     1
102
RTVSPost2010Prop47
 90
       50
102
RTVSPost2010PropOp47
 70
     1
102
RTVSPost2010Prop48
 90
       50
102
RTVSPost2010PropOp48
 70
     1
102
RTVSPost2010Prop49
280
     0
102
RTVSPost2010PropOp49
 70
     1
102
RTVSPost2010Prop50
 90
       50
102
RTVSPost2010PropOp50
 70
     1
102
RTVSPost2010Prop51ColorIndex
 90
      256
102
RTVSPost2010Prop51ColorRGB
 90
-16777216
102
RTVSPost2010PropOp51
 70
     0
102
RTVSPost2010Prop52
140
1.0
102
RTVSPost2010PropOp52
 70
     0
102
RTVSPost2010Prop53
 90
        2
102
RTVSPost2010PropOp53
 70
     1
102
RTVSPost2010Prop54
  1
strokes_ogs.tif
102
RTVSPost2010PropOp54
 70
     1
102
RTVSPost2010Prop55
280
     0
102
RTVSPost2010PropOp55
 70
     1
102
RTVSPost2010Prop56
140
1.0
102
RTVSPost2010PropOp56
 70
     1
102
RTVSPost2010Prop57
140
1.0
102
RTVSPost2010PropOp57
 70
     1
102
RTVSPropertyOp0
 70
     1
102
RTVSPropertyOp1
 70
     1
102
RTVSPropertyOp2
 70
     1
102
RTVSPropertyOp3
 70
     1
102
RTVSPropertyOp4
 70
     1
102
RTVSPropertyOp5
 70
     1
102
RTVSPropertyOp6
 70
     1
102
RTVSPropertyOp7
 70
     1
102
RTVSPropertyOp8
 70
     1
102
RTVSPropertyOp9
 70
     1
102
RTVSPropertyOp10
 70
     1
102
RTVSPropertyOp11
 70
     1
102
RTVSPropertyOp12
 70
     1
102
RTVSPropertyOp13
 70
     1
102
RTVSPropertyOp14
 70
     1
102
RTVSPropertyOp15
 70
     1
102
RTVSPropertyOp16
 70
     1
102
RTVSPropertyOp17
 70
     1
102
RTVSPropertyOp18
 70
     1
102
RTVSPropertyOp19
 70
     1
102
RTVSPropertyOp20
 70
     1
102
RTVSPropertyOp21
 70
     1
102
RTVSPropertyOp22
 70
     1
102
RTVSPropertyOp23
 70
     1
102
RTVSPropertyOp24
 70
     1
102
RTVSPropertyOp25
 70
     1
102
RTVSPropertyOp26
 70
     1
102
RTVSPropertyOp27
 70
     1
102
RTVSPropertyOp28
 70
     1
102
RTVSPropertyOp29
 70
     1
102
RTVSPropertyOp30
 70
     1
102
RTVSPropertyOp31
 70
     1
102
RTVSPropertyOp32
 70
     1
102
RTVSPropertyOp33
 70
     1
102
RTVSPropertyOp34
 70
     1
102
RTVSPropertyOp35
 70
     1
102
RTVSPropertyOp36
 70
     1
102
RTVSPropertyOp37
 70
     1
102
RTVSPropertyOp38
 70
     1
102
RTVSPropertyOp39
 70
     1
102
RTVSPropertyOp40
 70
     1
102
RTVSPropertyOp41
 70
     1
102
RTVSPropertyOp42
 70
     1
102
RTVSPropertyOp43
 70
     1
102
RTVSPropertyOp44
 70
     1
102
RTVSPropertyOp45
 70
     1
102
RTVSPropertyOp46
 70
     1
102
RTVSPropertyOp47
 70
     1
102
RTVSPropertyOp48
 70
     1
102
RTVSPropertyOp49
 70
     1
102
RTVSPropertyOp50
 70
     1
102
RTVSPropertyOp51
 70
     0
102
RTVSPropertyOp52
 70
     0
102
RTVSPropertyOp53
 70
     1
102
RTVSPropertyOp54
 70
     1
102
RTVSPropertyOp55
 70
     1
102
RTVSPropertyOp56
 70
     1
102
RTVSPropertyOp57
 70
     1
102
RTVSPropertyOp58
 70
     1
102
RTVSPropertyOp59
 70
     1
102
RTVSPropertyOp60
 70
     1
102
RTVSPropertyOp61
 70
     1
102
RTVSPropertyOp62
 70
     1
  0
XRECORD
  5
E611
102
{ACAD_REACTORS
330
E610
102
}
330
E610
100
AcDbXrecord
280
     1
102
RTVSPost2010Prop28
280
     0
102
RTVSPost2010PropOp28
 70
     1
102
RTVSPost2010Prop29
280
     1
102
RTVSPost2010PropOp29
 70
     1
102
RTVSPost2010Prop30
280
     1
102
RTVSPost2010PropOp30
 70
     1
102
RTVSPost2010Prop31
280
     0
102
RTVSPost2010PropOp31
 70
     1
102
RTVSPost2010Prop32
280
     0
102
RTVSPost2010PropOp32
 70
     1
102
RTVSPost2010Prop33
280
     0
102
RTVSPost2010PropOp33
 70
     1
102
RTVSPost2010Prop34
280
     0
102
RTVSPost2010PropOp34
 70
     1
102
RTVSPost2010Prop35
280
     0
102
RTVSPost2010PropOp35
 70
     1
102
RTVSPost2010Prop36
280
     0
102
RTVSPost2010PropOp36
 70
     1
102
RTVSPost2010Prop37
 90
       50
102
RTVSPost2010PropOp37
 70
     1
102
RTVSPost2010Prop38
140
0.0
102
RTVSPost2010PropOp38
 70
     1
102
RTVSPost2010Prop39
140
1.0
102
RTVSPost2010PropOp39
 70
     1
102
RTVSPost2010Prop40
 90
        0
102
RTVSPost2010PropOp40
 70
     1
102
RTVSPost2010Prop41ColorIndex
 90
       18
102
RTVSPost2010Prop41ColorRGB
 90
        0
102
RTVSPost2010PropOp41
 70
     1
102
RTVSPost2010Prop42
 90
       50
102
RTVSPost2010PropOp42
 70
     1
102
RTVSPost2010Prop43
 90
        3
102
RTVSPost2010PropOp43
 70
     1
102
RTVSPost2010Prop44ColorIndex
 90
        5
102
RTVSPost2010Prop44ColorRGB
 90
      255
102
RTVSPost2010PropOp44
 70
     1
102
RTVSPost2010Prop45
280
     0
102
RTVSPost2010PropOp45
 70
     1
102
RTVSPost2010Prop46
 90
       50
102
RTVSPost2010PropOp46
 70
     1
102
RTVSPost2010Prop47
 90
       50
102
RTVSPost2010PropOp47
 70
     1
102
RTVSPost2010Prop48
 90
       50
102
RTVSPost2010PropOp48
 70
     1
102
RTVSPost2010Prop49
280
     0
102
RTVSPost2010PropOp49
 70
     1
102
RTVSPost2010Prop50
 90
       50
102
RTVSPost2010PropOp50
 70
     1
102
RTVSPost2010Prop51ColorIndex
 90
      256
102
RTVSPost2010Prop51ColorRGB
 90
-16777216
102
RTVSPost2010PropOp51
 70
     0
102
RTVSPost2010Prop52
140
1.0
102
RTVSPost2010PropOp52
 70
     0
102
RTVSPost2010Prop53
 90
        2
102
RTVSPost2010PropOp53
 70
     1
102
RTVSPost2010Prop54
  1
strokes_ogs.tif
102
RTVSPost2010PropOp54
 70
     1
102
RTVSPost2010Prop55
280
     0
102
RTVSPost2010PropOp55
 70
     1
102
RTVSPost2010Prop56
140
1.0
102
RTVSPost2010PropOp56
 70
     1
102
RTVSPost2010Prop57
140
1.0
102
RTVSPost2010PropOp57
 70
     1
102
RTVSPropertyOp0
 70
     1
102
RTVSPropertyOp1
 70
     1
102
RTVSPropertyOp2
 70
     1
102
RTVSPropertyOp3
 70
     1
102
RTVSPropertyOp4
 70
     1
102
RTVSPropertyOp5
 70
     1
102
RTVSPropertyOp6
 70
     1
102
RTVSPropertyOp7
 70
     1
102
RTVSPropertyOp8
 70
     1
102
RTVSPropertyOp9
 70
     1
102
RTVSPropertyOp10
 70
     1
102
RTVSPropertyOp11
 70
     1
102
RTVSPropertyOp12
 70
     1
102
RTVSPropertyOp13
 70
     1
102
RTVSPropertyOp14
 70
     1
102
RTVSPropertyOp15
 70
     1
102
RTVSPropertyOp16
 70
     1
102
RTVSPropertyOp17
 70
     1
102
RTVSPropertyOp18
 70
     1
102
RTVSPropertyOp19
 70
     1
102
RTVSPropertyOp20
 70
     1
102
RTVSPropertyOp21
 70
     1
102
RTVSPropertyOp22
 70
     1
102
RTVSPropertyOp23
 70
     1
102
RTVSPropertyOp24
 70
     1
102
RTVSPropertyOp25
 70
     1
102
RTVSPropertyOp26
 70
     1
102
RTVSPropertyOp27
 70
     1
102
RTVSPropertyOp28
 70
     1
102
RTVSPropertyOp29
 70
     1
102
RTVSPropertyOp30
 70
     1
102
RTVSPropertyOp31
 70
     1
102
RTVSPropertyOp32
 70
     1
102
RTVSPropertyOp33
 70
     1
102
RTVSPropertyOp34
 70
     1
102
RTVSPropertyOp35
 70
     1
102
RTVSPropertyOp36
 70
     1
102
RTVSPropertyOp37
 70
     1
102
RTVSPropertyOp38
 70
     1
102
RTVSPropertyOp39
 70
     1
102
RTVSPropertyOp40
 70
     1
102
RTVSPropertyOp41
 70
     1
102
RTVSPropertyOp42
 70
     1
102
RTVSPropertyOp43
 70
     1
102
RTVSPropertyOp44
 70
     1
102
RTVSPropertyOp45
 70
     1
102
RTVSPropertyOp46
 70
     1
102
RTVSPropertyOp47
 70
     1
102
RTVSPropertyOp48
 70
     1
102
RTVSPropertyOp49
 70
     1
102
RTVSPropertyOp50
 70
     1
102
RTVSPropertyOp51
 70
     0
102
RTVSPropertyOp52
 70
     0
102
RTVSPropertyOp53
 70
     1
102
RTVSPropertyOp54
 70
     1
102
RTVSPropertyOp55
 70
     1
102
RTVSPropertyOp56
 70
     1
102
RTVSPropertyOp57
 70
     1
102
RTVSPropertyOp58
 70
     1
102
RTVSPropertyOp59
 70
     1
102
RTVSPropertyOp60
 70
     1
102
RTVSPropertyOp61
 70
     1
102
RTVSPropertyOp62
 70
     1
  0
XRECORD
  5
E619
102
{ACAD_REACTORS
330
E618
102
}
330
E618
100
AcDbXrecord
280
     1
102
RTVSPost2010Prop28
280
     0
102
RTVSPost2010PropOp28
 70
     1
102
RTVSPost2010Prop29
280
     1
102
RTVSPost2010PropOp29
 70
     1
102
RTVSPost2010Prop30
280
     1
102
RTVSPost2010PropOp30
 70
     1
102
RTVSPost2010Prop31
280
     0
102
RTVSPost2010PropOp31
 70
     1
102
RTVSPost2010Prop32
280
     0
102
RTVSPost2010PropOp32
 70
     1
102
RTVSPost2010Prop33
280
     0
102
RTVSPost2010PropOp33
 70
     1
102
RTVSPost2010Prop34
280
     0
102
RTVSPost2010PropOp34
 70
     1
102
RTVSPost2010Prop35
280
     0
102
RTVSPost2010PropOp35
 70
     1
102
RTVSPost2010Prop36
280
     0
102
RTVSPost2010PropOp36
 70
     1
102
RTVSPost2010Prop37
 90
       50
102
RTVSPost2010PropOp37
 70
     1
102
RTVSPost2010Prop38
140
0.0
102
RTVSPost2010PropOp38
 70
     1
102
RTVSPost2010Prop39
140
1.0
102
RTVSPost2010PropOp39
 70
     1
102
RTVSPost2010Prop40
 90
        0
102
RTVSPost2010PropOp40
 70
     1
102
RTVSPost2010Prop41ColorIndex
 90
       18
102
RTVSPost2010Prop41ColorRGB
 90
        0
102
RTVSPost2010PropOp41
 70
     1
102
RTVSPost2010Prop42
 90
       50
102
RTVSPost2010PropOp42
 70
     1
102
RTVSPost2010Prop43
 90
        3
102
RTVSPost2010PropOp43
 70
     1
102
RTVSPost2010Prop44ColorIndex
 90
        5
102
RTVSPost2010Prop44ColorRGB
 90
      255
102
RTVSPost2010PropOp44
 70
     1
102
RTVSPost2010Prop45
280
     0
102
RTVSPost2010PropOp45
 70
     1
102
RTVSPost2010Prop46
 90
       50
102
RTVSPost2010PropOp46
 70
     1
102
RTVSPost2010Prop47
 90
       50
102
RTVSPost2010PropOp47
 70
     1
102
RTVSPost2010Prop48
 90
       50
102
RTVSPost2010PropOp48
 70
     1
102
RTVSPost2010Prop49
280
     0
102
RTVSPost2010PropOp49
 70
     1
102
RTVSPost2010Prop50
 90
       50
102
RTVSPost2010PropOp50
 70
     1
102
RTVSPost2010Prop51ColorIndex
 90
      256
102
RTVSPost2010Prop51ColorRGB
 90
-16777216
102
RTVSPost2010PropOp51
 70
     0
102
RTVSPost2010Prop52
140
1.0
102
RTVSPost2010PropOp52
 70
     0
102
RTVSPost2010Prop53
 90
        2
102
RTVSPost2010PropOp53
 70
     1
102
RTVSPost2010Prop54
  1
strokes_ogs.tif
102
RTVSPost2010PropOp54
 70
     1
102
RTVSPost2010Prop55
280
     0
102
RTVSPost2010PropOp55
 70
     1
102
RTVSPost2010Prop56
140
1.0
102
RTVSPost2010PropOp56
 70
     1
102
RTVSPost2010Prop57
140
1.0
102
RTVSPost2010PropOp57
 70
     1
102
RTVSPropertyOp0
 70
     1
102
RTVSPropertyOp1
 70
     1
102
RTVSPropertyOp2
 70
     1
102
RTVSPropertyOp3
 70
     1
102
RTVSPropertyOp4
 70
     1
102
RTVSPropertyOp5
 70
     1
102
RTVSPropertyOp6
 70
     1
102
RTVSPropertyOp7
 70
     1
102
RTVSPropertyOp8
 70
     1
102
RTVSPropertyOp9
 70
     1
102
RTVSPropertyOp10
 70
     1
102
RTVSPropertyOp11
 70
     1
102
RTVSPropertyOp12
 70
     1
102
RTVSPropertyOp13
 70
     1
102
RTVSPropertyOp14
 70
     1
102
RTVSPropertyOp15
 70
     1
102
RTVSPropertyOp16
 70
     1
102
RTVSPropertyOp17
 70
     1
102
RTVSPropertyOp18
 70
     1
102
RTVSPropertyOp19
 70
     1
102
RTVSPropertyOp20
 70
     1
102
RTVSPropertyOp21
 70
     1
102
RTVSPropertyOp22
 70
     1
102
RTVSPropertyOp23
 70
     1
102
RTVSPropertyOp24
 70
     1
102
RTVSPropertyOp25
 70
     1
102
RTVSPropertyOp26
 70
     1
102
RTVSPropertyOp27
 70
     1
102
RTVSPropertyOp28
 70
     1
102
RTVSPropertyOp29
 70
     1
102
RTVSPropertyOp30
 70
     1
102
RTVSPropertyOp31
 70
     1
102
RTVSPropertyOp32
 70
     1
102
RTVSPropertyOp33
 70
     1
102
RTVSPropertyOp34
 70
     1
102
RTVSPropertyOp35
 70
     1
102
RTVSPropertyOp36
 70
     1
102
RTVSPropertyOp37
 70
     1
102
RTVSPropertyOp38
 70
     1
102
RTVSPropertyOp39
 70
     1
102
RTVSPropertyOp40
 70
     1
102
RTVSPropertyOp41
 70
     1
102
RTVSPropertyOp42
 70
     1
102
RTVSPropertyOp43
 70
     1
102
RTVSPropertyOp44
 70
     1
102
RTVSPropertyOp45
 70
     1
102
RTVSPropertyOp46
 70
     1
102
RTVSPropertyOp47
 70
     1
102
RTVSPropertyOp48
 70
     1
102
RTVSPropertyOp49
 70
     1
102
RTVSPropertyOp50
 70
     1
102
RTVSPropertyOp51
 70
     0
102
RTVSPropertyOp52
 70
     0
102
RTVSPropertyOp53
 70
     1
102
RTVSPropertyOp54
 70
     1
102
RTVSPropertyOp55
 70
     1
102
RTVSPropertyOp56
 70
     1
102
RTVSPropertyOp57
 70
     1
102
RTVSPropertyOp58
 70
     1
102
RTVSPropertyOp59
 70
     1
102
RTVSPropertyOp60
 70
     1
102
RTVSPropertyOp61
 70
     1
102
RTVSPropertyOp62
 70
     1
  0
XRECORD
  5
E635
102
{ACAD_REACTORS
330
E634
102
}
330
E634
100
AcDbXrecord
280
     1
102
RTVSPost2010Prop28
280
     0
102
RTVSPost2010PropOp28
 70
     1
102
RTVSPost2010Prop29
280
     1
102
RTVSPost2010PropOp29
 70
     1
102
RTVSPost2010Prop30
280
     1
102
RTVSPost2010PropOp30
 70
     1
102
RTVSPost2010Prop31
280
     0
102
RTVSPost2010PropOp31
 70
     1
102
RTVSPost2010Prop32
280
     0
102
RTVSPost2010PropOp32
 70
     1
102
RTVSPost2010Prop33
280
     0
102
RTVSPost2010PropOp33
 70
     1
102
RTVSPost2010Prop34
280
     0
102
RTVSPost2010PropOp34
 70
     1
102
RTVSPost2010Prop35
280
     0
102
RTVSPost2010PropOp35
 70
     1
102
RTVSPost2010Prop36
280
     0
102
RTVSPost2010PropOp36
 70
     1
102
RTVSPost2010Prop37
 90
       50
102
RTVSPost2010PropOp37
 70
     0
102
RTVSPost2010Prop38
140
0.0
102
RTVSPost2010PropOp38
 70
     0
102
RTVSPost2010Prop39
140
1.0
102
RTVSPost2010PropOp39
 70
     0
102
RTVSPost2010Prop40
 90
        0
102
RTVSPost2010PropOp40
 70
     0
102
RTVSPost2010Prop41ColorIndex
 90
       18
102
RTVSPost2010Prop41ColorRGB
 90
        0
102
RTVSPost2010PropOp41
 70
     0
102
RTVSPost2010Prop42
 90
       50
102
RTVSPost2010PropOp42
 70
     0
102
RTVSPost2010Prop43
 90
        3
102
RTVSPost2010PropOp43
 70
     0
102
RTVSPost2010Prop44ColorIndex
 90
        5
102
RTVSPost2010Prop44ColorRGB
 90
      255
102
RTVSPost2010PropOp44
 70
     0
102
RTVSPost2010Prop45
280
     0
102
RTVSPost2010PropOp45
 70
     1
102
RTVSPost2010Prop46
 90
       50
102
RTVSPost2010PropOp46
 70
     0
102
RTVSPost2010Prop47
 90
       50
102
RTVSPost2010PropOp47
 70
     0
102
RTVSPost2010Prop48
 90
       50
102
RTVSPost2010PropOp48
 70
     0
102
RTVSPost2010Prop49
280
     0
102
RTVSPost2010PropOp49
 70
     1
102
RTVSPost2010Prop50
 90
       50
102
RTVSPost2010PropOp50
 70
     0
102
RTVSPost2010Prop51ColorIndex
 90
      256
102
RTVSPost2010Prop51ColorRGB
 90
-16777216
102
RTVSPost2010PropOp51
 70
     0
102
RTVSPost2010Prop52
140
1.0
102
RTVSPost2010PropOp52
 70
     0
102
RTVSPost2010Prop53
 90
        2
102
RTVSPost2010PropOp53
 70
     0
102
RTVSPost2010Prop54
  1
strokes_ogs.tif
102
RTVSPost2010PropOp54
 70
     0
102
RTVSPost2010Prop55
280
     0
102
RTVSPost2010PropOp55
 70
     1
102
RTVSPost2010Prop56
140
1.0
102
RTVSPost2010PropOp56
 70
     0
102
RTVSPost2010Prop57
140
1.0
102
RTVSPost2010PropOp57
 70
     0
102
RTVSPropertyOp0
 70
     0
102
RTVSPropertyOp1
 70
     0
102
RTVSPropertyOp2
 70
     0
102
RTVSPropertyOp3
 70
     0
102
RTVSPropertyOp4
 70
     0
102
RTVSPropertyOp5
 70
     0
102
RTVSPropertyOp6
 70
     0
102
RTVSPropertyOp7
 70
     0
102
RTVSPropertyOp8
 70
     0
102
RTVSPropertyOp9
 70
     0
102
RTVSPropertyOp10
 70
     0
102
RTVSPropertyOp11
 70
     0
102
RTVSPropertyOp12
 70
     0
102
RTVSPropertyOp13
 70
     0
102
RTVSPropertyOp14
 70
     2
102
RTVSPropertyOp15
 70
     0
102
RTVSPropertyOp16
 70
     0
102
RTVSPropertyOp17
 70
     0
102
RTVSPropertyOp18
 70
     0
102
RTVSPropertyOp19
 70
     0
102
RTVSPropertyOp20
 70
     0
102
RTVSPropertyOp21
 70
     0
102
RTVSPropertyOp22
 70
     0
102
RTVSPropertyOp23
 70
     0
102
RTVSPropertyOp24
 70
     0
102
RTVSPropertyOp25
 70
     0
102
RTVSPropertyOp26
 70
     0
102
RTVSPropertyOp27
 70
     0
102
RTVSPropertyOp28
 70
     1
102
RTVSPropertyOp29
 70
     1
102
RTVSPropertyOp30
 70
     1
102
RTVSPropertyOp31
 70
     1
102
RTVSPropertyOp32
 70
     1
102
RTVSPropertyOp33
 70
     1
102
RTVSPropertyOp34
 70
     1
102
RTVSPropertyOp35
 70
     1
102
RTVSPropertyOp36
 70
     1
102
RTVSPropertyOp37
 70
     0
102
RTVSPropertyOp38
 70
     0
102
RTVSPropertyOp39
 70
     0
102
RTVSPropertyOp40
 70
     0
102
RTVSPropertyOp41
 70
     0
102
RTVSPropertyOp42
 70
     0
102
RTVSPropertyOp43
 70
     0
102
RTVSPropertyOp44
 70
     0
102
RTVSPropertyOp45
 70
     1
102
RTVSPropertyOp46
 70
     0
102
RTVSPropertyOp47
 70
     0
102
RTVSPropertyOp48
 70
     0
102
RTVSPropertyOp49
 70
     1
102
RTVSPropertyOp50
 70
     0
102
RTVSPropertyOp51
 70
     0
102
RTVSPropertyOp52
 70
     0
102
RTVSPropertyOp53
 70
     0
102
RTVSPropertyOp54
 70
     0
102
RTVSPropertyOp55
 70
     1
102
RTVSPropertyOp56
 70
     0
102
RTVSPropertyOp57
 70
     0
102
RTVSPropertyOp58
 70
     0
102
RTVSPropertyOp59
 70
     0
102
RTVSPropertyOp60
 70
     0
102
RTVSPropertyOp61
 70
     0
102
RTVSPropertyOp62
 70
     0
  0
XRECORD
  5
E625
102
{ACAD_REACTORS
330
E624
102
}
330
E624
100
AcDbXrecord
280
     1
102
RTVSPost2010Prop28
280
     0
102
RTVSPost2010PropOp28
 70
     1
102
RTVSPost2010Prop29
280
     1
102
RTVSPost2010PropOp29
 70
     1
102
RTVSPost2010Prop30
280
     1
102
RTVSPost2010PropOp30
 70
     1
102
RTVSPost2010Prop31
280
     0
102
RTVSPost2010PropOp31
 70
     1
102
RTVSPost2010Prop32
280
     0
102
RTVSPost2010PropOp32
 70
     1
102
RTVSPost2010Prop33
280
     0
102
RTVSPost2010PropOp33
 70
     1
102
RTVSPost2010Prop34
280
     0
102
RTVSPost2010PropOp34
 70
     1
102
RTVSPost2010Prop35
280
     0
102
RTVSPost2010PropOp35
 70
     1
102
RTVSPost2010Prop36
280
     0
102
RTVSPost2010PropOp36
 70
     1
102
RTVSPost2010Prop37
 90
       50
102
RTVSPost2010PropOp37
 70
     1
102
RTVSPost2010Prop38
140
0.0
102
RTVSPost2010PropOp38
 70
     1
102
RTVSPost2010Prop39
140
1.0
102
RTVSPost2010PropOp39
 70
     1
102
RTVSPost2010Prop40
 90
        0
102
RTVSPost2010PropOp40
 70
     1
102
RTVSPost2010Prop41ColorIndex
 90
       18
102
RTVSPost2010Prop41ColorRGB
 90
        0
102
RTVSPost2010PropOp41
 70
     1
102
RTVSPost2010Prop42
 90
       50
102
RTVSPost2010PropOp42
 70
     1
102
RTVSPost2010Prop43
 90
        3
102
RTVSPost2010PropOp43
 70
     1
102
RTVSPost2010Prop44ColorIndex
 90
        5
102
RTVSPost2010Prop44ColorRGB
 90
      255
102
RTVSPost2010PropOp44
 70
     1
102
RTVSPost2010Prop45
280
     0
102
RTVSPost2010PropOp45
 70
     1
102
RTVSPost2010Prop46
 90
       50
102
RTVSPost2010PropOp46
 70
     1
102
RTVSPost2010Prop47
 90
       50
102
RTVSPost2010PropOp47
 70
     1
102
RTVSPost2010Prop48
 90
       50
102
RTVSPost2010PropOp48
 70
     1
102
RTVSPost2010Prop49
280
     0
102
RTVSPost2010PropOp49
 70
     1
102
RTVSPost2010Prop50
 90
       50
102
RTVSPost2010PropOp50
 70
     1
102
RTVSPost2010Prop51ColorIndex
 90
      256
102
RTVSPost2010Prop51ColorRGB
 90
-16777216
102
RTVSPost2010PropOp51
 70
     0
102
RTVSPost2010Prop52
140
1.0
102
RTVSPost2010PropOp52
 70
     0
102
RTVSPost2010Prop53
 90
        2
102
RTVSPost2010PropOp53
 70
     1
102
RTVSPost2010Prop54
  1
strokes_ogs.tif
102
RTVSPost2010PropOp54
 70
     1
102
RTVSPost2010Prop55
280
     0
102
RTVSPost2010PropOp55
 70
     1
102
RTVSPost2010Prop56
140
1.0
102
RTVSPost2010PropOp56
 70
     1
102
RTVSPost2010Prop57
140
1.0
102
RTVSPost2010PropOp57
 70
     1
102
RTVSPropertyOp0
 70
     1
102
RTVSPropertyOp1
 70
     1
102
RTVSPropertyOp2
 70
     1
102
RTVSPropertyOp3
 70
     1
102
RTVSPropertyOp4
 70
     1
102
RTVSPropertyOp5
 70
     1
102
RTVSPropertyOp6
 70
     1
102
RTVSPropertyOp7
 70
     1
102
RTVSPropertyOp8
 70
     1
102
RTVSPropertyOp9
 70
     1
102
RTVSPropertyOp10
 70
     1
102
RTVSPropertyOp11
 70
     1
102
RTVSPropertyOp12
 70
     1
102
RTVSPropertyOp13
 70
     1
102
RTVSPropertyOp14
 70
     1
102
RTVSPropertyOp15
 70
     1
102
RTVSPropertyOp16
 70
     1
102
RTVSPropertyOp17
 70
     1
102
RTVSPropertyOp18
 70
     1
102
RTVSPropertyOp19
 70
     1
102
RTVSPropertyOp20
 70
     1
102
RTVSPropertyOp21
 70
     1
102
RTVSPropertyOp22
 70
     1
102
RTVSPropertyOp23
 70
     1
102
RTVSPropertyOp24
 70
     1
102
RTVSPropertyOp25
 70
     1
102
RTVSPropertyOp26
 70
     1
102
RTVSPropertyOp27
 70
     1
102
RTVSPropertyOp28
 70
     1
102
RTVSPropertyOp29
 70
     1
102
RTVSPropertyOp30
 70
     1
102
RTVSPropertyOp31
 70
     1
102
RTVSPropertyOp32
 70
     1
102
RTVSPropertyOp33
 70
     1
102
RTVSPropertyOp34
 70
     1
102
RTVSPropertyOp35
 70
     1
102
RTVSPropertyOp36
 70
     1
102
RTVSPropertyOp37
 70
     1
102
RTVSPropertyOp38
 70
     1
102
RTVSPropertyOp39
 70
     1
102
RTVSPropertyOp40
 70
     1
102
RTVSPropertyOp41
 70
     1
102
RTVSPropertyOp42
 70
     1
102
RTVSPropertyOp43
 70
     1
102
RTVSPropertyOp44
 70
     1
102
RTVSPropertyOp45
 70
     1
102
RTVSPropertyOp46
 70
     1
102
RTVSPropertyOp47
 70
     1
102
RTVSPropertyOp48
 70
     1
102
RTVSPropertyOp49
 70
     1
102
RTVSPropertyOp50
 70
     1
102
RTVSPropertyOp51
 70
     0
102
RTVSPropertyOp52
 70
     0
102
RTVSPropertyOp53
 70
     1
102
RTVSPropertyOp54
 70
     1
102
RTVSPropertyOp55
 70
     1
102
RTVSPropertyOp56
 70
     1
102
RTVSPropertyOp57
 70
     1
102
RTVSPropertyOp58
 70
     1
102
RTVSPropertyOp59
 70
     1
102
RTVSPropertyOp60
 70
     1
102
RTVSPropertyOp61
 70
     1
102
RTVSPropertyOp62
 70
     1
  0
XRECORD
  5
E637
102
{ACAD_REACTORS
330
E636
102
}
330
E636
100
AcDbXrecord
280
     1
102
RTVSPost2010Prop28
280
     0
102
RTVSPost2010PropOp28
 70
     1
102
RTVSPost2010Prop29
280
     1
102
RTVSPost2010PropOp29
 70
     1
102
RTVSPost2010Prop30
280
     1
102
RTVSPost2010PropOp30
 70
     1
102
RTVSPost2010Prop31
280
     0
102
RTVSPost2010PropOp31
 70
     1
102
RTVSPost2010Prop32
280
     0
102
RTVSPost2010PropOp32
 70
     1
102
RTVSPost2010Prop33
280
     0
102
RTVSPost2010PropOp33
 70
     1
102
RTVSPost2010Prop34
280
     0
102
RTVSPost2010PropOp34
 70
     1
102
RTVSPost2010Prop35
280
     0
102
RTVSPost2010PropOp35
 70
     1
102
RTVSPost2010Prop36
280
     0
102
RTVSPost2010PropOp36
 70
     1
102
RTVSPost2010Prop37
 90
       50
102
RTVSPost2010PropOp37
 70
     0
102
RTVSPost2010Prop38
140
0.0
102
RTVSPost2010PropOp38
 70
     0
102
RTVSPost2010Prop39
140
1.0
102
RTVSPost2010PropOp39
 70
     0
102
RTVSPost2010Prop40
 90
        0
102
RTVSPost2010PropOp40
 70
     0
102
RTVSPost2010Prop41ColorIndex
 90
       18
102
RTVSPost2010Prop41ColorRGB
 90
        0
102
RTVSPost2010PropOp41
 70
     0
102
RTVSPost2010Prop42
 90
       50
102
RTVSPost2010PropOp42
 70
     0
102
RTVSPost2010Prop43
 90
        3
102
RTVSPost2010PropOp43
 70
     0
102
RTVSPost2010Prop44ColorIndex
 90
        5
102
RTVSPost2010Prop44ColorRGB
 90
      255
102
RTVSPost2010PropOp44
 70
     0
102
RTVSPost2010Prop45
280
     0
102
RTVSPost2010PropOp45
 70
     1
102
RTVSPost2010Prop46
 90
       50
102
RTVSPost2010PropOp46
 70
     0
102
RTVSPost2010Prop47
 90
       50
102
RTVSPost2010PropOp47
 70
     0
102
RTVSPost2010Prop48
 90
       50
102
RTVSPost2010PropOp48
 70
     0
102
RTVSPost2010Prop49
280
     0
102
RTVSPost2010PropOp49
 70
     1
102
RTVSPost2010Prop50
 90
       50
102
RTVSPost2010PropOp50
 70
     0
102
RTVSPost2010Prop51ColorIndex
 90
      256
102
RTVSPost2010Prop51ColorRGB
 90
-16777216
102
RTVSPost2010PropOp51
 70
     0
102
RTVSPost2010Prop52
140
1.0
102
RTVSPost2010PropOp52
 70
     0
102
RTVSPost2010Prop53
 90
        2
102
RTVSPost2010PropOp53
 70
     0
102
RTVSPost2010Prop54
  1
strokes_ogs.tif
102
RTVSPost2010PropOp54
 70
     0
102
RTVSPost2010Prop55
280
     0
102
RTVSPost2010PropOp55
 70
     1
102
RTVSPost2010Prop56
140
1.0
102
RTVSPost2010PropOp56
 70
     0
102
RTVSPost2010Prop57
140
1.0
102
RTVSPost2010PropOp57
 70
     0
102
RTVSPropertyOp0
 70
     0
102
RTVSPropertyOp1
 70
     0
102
RTVSPropertyOp2
 70
     0
102
RTVSPropertyOp3
 70
     0
102
RTVSPropertyOp4
 70
     0
102
RTVSPropertyOp5
 70
     0
102
RTVSPropertyOp6
 70
     0
102
RTVSPropertyOp7
 70
     0
102
RTVSPropertyOp8
 70
     0
102
RTVSPropertyOp9
 70
     0
102
RTVSPropertyOp10
 70
     0
102
RTVSPropertyOp11
 70
     0
102
RTVSPropertyOp12
 70
     0
102
RTVSPropertyOp13
 70
     0
102
RTVSPropertyOp14
 70
     2
102
RTVSPropertyOp15
 70
     0
102
RTVSPropertyOp16
 70
     0
102
RTVSPropertyOp17
 70
     0
102
RTVSPropertyOp18
 70
     0
102
RTVSPropertyOp19
 70
     0
102
RTVSPropertyOp20
 70
     0
102
RTVSPropertyOp21
 70
     0
102
RTVSPropertyOp22
 70
     0
102
RTVSPropertyOp23
 70
     0
102
RTVSPropertyOp24
 70
     0
102
RTVSPropertyOp25
 70
     0
102
RTVSPropertyOp26
 70
     0
102
RTVSPropertyOp27
 70
     0
102
RTVSPropertyOp28
 70
     1
102
RTVSPropertyOp29
 70
     1
102
RTVSPropertyOp30
 70
     1
102
RTVSPropertyOp31
 70
     1
102
RTVSPropertyOp32
 70
     1
102
RTVSPropertyOp33
 70
     1
102
RTVSPropertyOp34
 70
     1
102
RTVSPropertyOp35
 70
     1
102
RTVSPropertyOp36
 70
     1
102
RTVSPropertyOp37
 70
     0
102
RTVSPropertyOp38
 70
     0
102
RTVSPropertyOp39
 70
     0
102
RTVSPropertyOp40
 70
     0
102
RTVSPropertyOp41
 70
     0
102
RTVSPropertyOp42
 70
     0
102
RTVSPropertyOp43
 70
     0
102
RTVSPropertyOp44
 70
     0
102
RTVSPropertyOp45
 70
     1
102
RTVSPropertyOp46
 70
     0
102
RTVSPropertyOp47
 70
     0
102
RTVSPropertyOp48
 70
     0
102
RTVSPropertyOp49
 70
     1
102
RTVSPropertyOp50
 70
     0
102
RTVSPropertyOp51
 70
     0
102
RTVSPropertyOp52
 70
     0
102
RTVSPropertyOp53
 70
     0
102
RTVSPropertyOp54
 70
     0
102
RTVSPropertyOp55
 70
     1
102
RTVSPropertyOp56
 70
     0
102
RTVSPropertyOp57
 70
     0
102
RTVSPropertyOp58
 70
     0
102
RTVSPropertyOp59
 70
     0
102
RTVSPropertyOp60
 70
     0
102
RTVSPropertyOp61
 70
     0
102
RTVSPropertyOp62
 70
     0
  0
XRECORD
  5
E61D
102
{ACAD_REACTORS
330
E61C
102
}
330
E61C
100
AcDbXrecord
280
     1
102
RTVSPost2010Prop28
280
     0
102
RTVSPost2010PropOp28
 70
     1
102
RTVSPost2010Prop29
280
     1
102
RTVSPost2010PropOp29
 70
     1
102
RTVSPost2010Prop30
280
     1
102
RTVSPost2010PropOp30
 70
     1
102
RTVSPost2010Prop31
280
     0
102
RTVSPost2010PropOp31
 70
     1
102
RTVSPost2010Prop32
280
     0
102
RTVSPost2010PropOp32
 70
     1
102
RTVSPost2010Prop33
280
     0
102
RTVSPost2010PropOp33
 70
     1
102
RTVSPost2010Prop34
280
     0
102
RTVSPost2010PropOp34
 70
     1
102
RTVSPost2010Prop35
280
     0
102
RTVSPost2010PropOp35
 70
     1
102
RTVSPost2010Prop36
280
     0
102
RTVSPost2010PropOp36
 70
     1
102
RTVSPost2010Prop37
 90
       50
102
RTVSPost2010PropOp37
 70
     1
102
RTVSPost2010Prop38
140
0.0
102
RTVSPost2010PropOp38
 70
     1
102
RTVSPost2010Prop39
140
1.0
102
RTVSPost2010PropOp39
 70
     1
102
RTVSPost2010Prop40
 90
        0
102
RTVSPost2010PropOp40
 70
     1
102
RTVSPost2010Prop41ColorIndex
 90
       18
102
RTVSPost2010Prop41ColorRGB
 90
        0
102
RTVSPost2010PropOp41
 70
     1
102
RTVSPost2010Prop42
 90
       50
102
RTVSPost2010PropOp42
 70
     1
102
RTVSPost2010Prop43
 90
        3
102
RTVSPost2010PropOp43
 70
     1
102
RTVSPost2010Prop44ColorIndex
 90
        5
102
RTVSPost2010Prop44ColorRGB
 90
      255
102
RTVSPost2010PropOp44
 70
     1
102
RTVSPost2010Prop45
280
     0
102
RTVSPost2010PropOp45
 70
     1
102
RTVSPost2010Prop46
 90
       50
102
RTVSPost2010PropOp46
 70
     1
102
RTVSPost2010Prop47
 90
       50
102
RTVSPost2010PropOp47
 70
     1
102
RTVSPost2010Prop48
 90
       50
102
RTVSPost2010PropOp48
 70
     1
102
RTVSPost2010Prop49
280
     0
102
RTVSPost2010PropOp49
 70
     1
102
RTVSPost2010Prop50
 90
       50
102
RTVSPost2010PropOp50
 70
     1
102
RTVSPost2010Prop51ColorIndex
 90
      256
102
RTVSPost2010Prop51ColorRGB
 90
-16777216
102
RTVSPost2010PropOp51
 70
     0
102
RTVSPost2010Prop52
140
1.0
102
RTVSPost2010PropOp52
 70
     0
102
RTVSPost2010Prop53
 90
        2
102
RTVSPost2010PropOp53
 70
     1
102
RTVSPost2010Prop54
  1
strokes_ogs.tif
102
RTVSPost2010PropOp54
 70
     1
102
RTVSPost2010Prop55
280
     0
102
RTVSPost2010PropOp55
 70
     1
102
RTVSPost2010Prop56
140
1.0
102
RTVSPost2010PropOp56
 70
     1
102
RTVSPost2010Prop57
140
1.0
102
RTVSPost2010PropOp57
 70
     1
102
RTVSPropertyOp0
 70
     1
102
RTVSPropertyOp1
 70
     1
102
RTVSPropertyOp2
 70
     1
102
RTVSPropertyOp3
 70
     1
102
RTVSPropertyOp4
 70
     1
102
RTVSPropertyOp5
 70
     1
102
RTVSPropertyOp6
 70
     1
102
RTVSPropertyOp7
 70
     1
102
RTVSPropertyOp8
 70
     1
102
RTVSPropertyOp9
 70
     1
102
RTVSPropertyOp10
 70
     1
102
RTVSPropertyOp11
 70
     1
102
RTVSPropertyOp12
 70
     1
102
RTVSPropertyOp13
 70
     1
102
RTVSPropertyOp14
 70
     1
102
RTVSPropertyOp15
 70
     1
102
RTVSPropertyOp16
 70
     1
102
RTVSPropertyOp17
 70
     1
102
RTVSPropertyOp18
 70
     1
102
RTVSPropertyOp19
 70
     1
102
RTVSPropertyOp20
 70
     1
102
RTVSPropertyOp21
 70
     1
102
RTVSPropertyOp22
 70
     1
102
RTVSPropertyOp23
 70
     1
102
RTVSPropertyOp24
 70
     1
102
RTVSPropertyOp25
 70
     1
102
RTVSPropertyOp26
 70
     1
102
RTVSPropertyOp27
 70
     1
102
RTVSPropertyOp28
 70
     1
102
RTVSPropertyOp29
 70
     1
102
RTVSPropertyOp30
 70
     1
102
RTVSPropertyOp31
 70
     1
102
RTVSPropertyOp32
 70
     1
102
RTVSPropertyOp33
 70
     1
102
RTVSPropertyOp34
 70
     1
102
RTVSPropertyOp35
 70
     1
102
RTVSPropertyOp36
 70
     1
102
RTVSPropertyOp37
 70
     1
102
RTVSPropertyOp38
 70
     1
102
RTVSPropertyOp39
 70
     1
102
RTVSPropertyOp40
 70
     1
102
RTVSPropertyOp41
 70
     1
102
RTVSPropertyOp42
 70
     1
102
RTVSPropertyOp43
 70
     1
102
RTVSPropertyOp44
 70
     1
102
RTVSPropertyOp45
 70
     1
102
RTVSPropertyOp46
 70
     1
102
RTVSPropertyOp47
 70
     1
102
RTVSPropertyOp48
 70
     1
102
RTVSPropertyOp49
 70
     1
102
RTVSPropertyOp50
 70
     1
102
RTVSPropertyOp51
 70
     0
102
RTVSPropertyOp52
 70
     0
102
RTVSPropertyOp53
 70
     1
102
RTVSPropertyOp54
 70
     1
102
RTVSPropertyOp55
 70
     1
102
RTVSPropertyOp56
 70
     1
102
RTVSPropertyOp57
 70
     1
102
RTVSPropertyOp58
 70
     1
102
RTVSPropertyOp59
 70
     1
102
RTVSPropertyOp60
 70
     1
102
RTVSPropertyOp61
 70
     1
102
RTVSPropertyOp62
 70
     1
  0
XRECORD
  5
E633
102
{ACAD_REACTORS
330
E632
102
}
330
E632
100
AcDbXrecord
280
     1
102
RTVSPost2010Prop28
280
     0
102
RTVSPost2010PropOp28
 70
     1
102
RTVSPost2010Prop29
280
     1
102
RTVSPost2010PropOp29
 70
     1
102
RTVSPost2010Prop30
280
     1
102
RTVSPost2010PropOp30
 70
     1
102
RTVSPost2010Prop31
280
     0
102
RTVSPost2010PropOp31
 70
     1
102
RTVSPost2010Prop32
280
     0
102
RTVSPost2010PropOp32
 70
     1
102
RTVSPost2010Prop33
280
     0
102
RTVSPost2010PropOp33
 70
     1
102
RTVSPost2010Prop34
280
     0
102
RTVSPost2010PropOp34
 70
     1
102
RTVSPost2010Prop35
280
     0
102
RTVSPost2010PropOp35
 70
     1
102
RTVSPost2010Prop36
280
     0
102
RTVSPost2010PropOp36
 70
     1
102
RTVSPost2010Prop37
 90
       50
102
RTVSPost2010PropOp37
 70
     1
102
RTVSPost2010Prop38
140
0.0
102
RTVSPost2010PropOp38
 70
     1
102
RTVSPost2010Prop39
140
1.0
102
RTVSPost2010PropOp39
 70
     1
102
RTVSPost2010Prop40
 90
        0
102
RTVSPost2010PropOp40
 70
     1
102
RTVSPost2010Prop41ColorIndex
 90
       18
102
RTVSPost2010Prop41ColorRGB
 90
        0
102
RTVSPost2010PropOp41
 70
     1
102
RTVSPost2010Prop42
 90
       50
102
RTVSPost2010PropOp42
 70
     1
102
RTVSPost2010Prop43
 90
        3
102
RTVSPost2010PropOp43
 70
     1
102
RTVSPost2010Prop44ColorIndex
 90
        5
102
RTVSPost2010Prop44ColorRGB
 90
      255
102
RTVSPost2010PropOp44
 70
     1
102
RTVSPost2010Prop45
280
     0
102
RTVSPost2010PropOp45
 70
     1
102
RTVSPost2010Prop46
 90
       50
102
RTVSPost2010PropOp46
 70
     1
102
RTVSPost2010Prop47
 90
       50
102
RTVSPost2010PropOp47
 70
     1
102
RTVSPost2010Prop48
 90
       50
102
RTVSPost2010PropOp48
 70
     1
102
RTVSPost2010Prop49
280
     0
102
RTVSPost2010PropOp49
 70
     1
102
RTVSPost2010Prop50
 90
       50
102
RTVSPost2010PropOp50
 70
     1
102
RTVSPost2010Prop51ColorIndex
 90
      256
102
RTVSPost2010Prop51ColorRGB
 90
-16777216
102
RTVSPost2010PropOp51
 70
     0
102
RTVSPost2010Prop52
140
1.0
102
RTVSPost2010PropOp52
 70
     0
102
RTVSPost2010Prop53
 90
        2
102
RTVSPost2010PropOp53
 70
     1
102
RTVSPost2010Prop54
  1
strokes_ogs.tif
102
RTVSPost2010PropOp54
 70
     1
102
RTVSPost2010Prop55
280
     0
102
RTVSPost2010PropOp55
 70
     1
102
RTVSPost2010Prop56
140
1.0
102
RTVSPost2010PropOp56
 70
     1
102
RTVSPost2010Prop57
140
1.0
102
RTVSPost2010PropOp57
 70
     1
102
RTVSPropertyOp0
 70
     1
102
RTVSPropertyOp1
 70
     1
102
RTVSPropertyOp2
 70
     1
102
RTVSPropertyOp3
 70
     1
102
RTVSPropertyOp4
 70
     1
102
RTVSPropertyOp5
 70
     1
102
RTVSPropertyOp6
 70
     1
102
RTVSPropertyOp7
 70
     1
102
RTVSPropertyOp8
 70
     1
102
RTVSPropertyOp9
 70
     1
102
RTVSPropertyOp10
 70
     1
102
RTVSPropertyOp11
 70
     1
102
RTVSPropertyOp12
 70
     1
102
RTVSPropertyOp13
 70
     1
102
RTVSPropertyOp14
 70
     1
102
RTVSPropertyOp15
 70
     1
102
RTVSPropertyOp16
 70
     1
102
RTVSPropertyOp17
 70
     1
102
RTVSPropertyOp18
 70
     1
102
RTVSPropertyOp19
 70
     1
102
RTVSPropertyOp20
 70
     1
102
RTVSPropertyOp21
 70
     1
102
RTVSPropertyOp22
 70
     1
102
RTVSPropertyOp23
 70
     1
102
RTVSPropertyOp24
 70
     1
102
RTVSPropertyOp25
 70
     1
102
RTVSPropertyOp26
 70
     1
102
RTVSPropertyOp27
 70
     1
102
RTVSPropertyOp28
 70
     1
102
RTVSPropertyOp29
 70
     1
102
RTVSPropertyOp30
 70
     1
102
RTVSPropertyOp31
 70
     1
102
RTVSPropertyOp32
 70
     1
102
RTVSPropertyOp33
 70
     1
102
RTVSPropertyOp34
 70
     1
102
RTVSPropertyOp35
 70
     1
102
RTVSPropertyOp36
 70
     1
102
RTVSPropertyOp37
 70
     1
102
RTVSPropertyOp38
 70
     1
102
RTVSPropertyOp39
 70
     1
102
RTVSPropertyOp40
 70
     1
102
RTVSPropertyOp41
 70
     1
102
RTVSPropertyOp42
 70
     1
102
RTVSPropertyOp43
 70
     1
102
RTVSPropertyOp44
 70
     1
102
RTVSPropertyOp45
 70
     1
102
RTVSPropertyOp46
 70
     1
102
RTVSPropertyOp47
 70
     1
102
RTVSPropertyOp48
 70
     1
102
RTVSPropertyOp49
 70
     1
102
RTVSPropertyOp50
 70
     1
102
RTVSPropertyOp51
 70
     0
102
RTVSPropertyOp52
 70
     0
102
RTVSPropertyOp53
 70
     1
102
RTVSPropertyOp54
 70
     1
102
RTVSPropertyOp55
 70
     1
102
RTVSPropertyOp56
 70
     1
102
RTVSPropertyOp57
 70
     1
102
RTVSPropertyOp58
 70
     1
102
RTVSPropertyOp59
 70
     1
102
RTVSPropertyOp60
 70
     1
102
RTVSPropertyOp61
 70
     1
102
RTVSPropertyOp62
 70
     1
  0
XRECORD
  5
E631
102
{ACAD_REACTORS
330
E630
102
}
330
E630
100
AcDbXrecord
280
     1
102
RTVSPost2010Prop28
280
     0
102
RTVSPost2010PropOp28
 70
     1
102
RTVSPost2010Prop29
280
     1
102
RTVSPost2010PropOp29
 70
     1
102
RTVSPost2010Prop30
280
     1
102
RTVSPost2010PropOp30
 70
     1
102
RTVSPost2010Prop31
280
     0
102
RTVSPost2010PropOp31
 70
     1
102
RTVSPost2010Prop32
280
     0
102
RTVSPost2010PropOp32
 70
     1
102
RTVSPost2010Prop33
280
     0
102
RTVSPost2010PropOp33
 70
     1
102
RTVSPost2010Prop34
280
     0
102
RTVSPost2010PropOp34
 70
     1
102
RTVSPost2010Prop35
280
     0
102
RTVSPost2010PropOp35
 70
     1
102
RTVSPost2010Prop36
280
     0
102
RTVSPost2010PropOp36
 70
     1
102
RTVSPost2010Prop37
 90
       50
102
RTVSPost2010PropOp37
 70
     1
102
RTVSPost2010Prop38
140
0.0
102
RTVSPost2010PropOp38
 70
     1
102
RTVSPost2010Prop39
140
1.0
102
RTVSPost2010PropOp39
 70
     1
102
RTVSPost2010Prop40
 90
        0
102
RTVSPost2010PropOp40
 70
     1
102
RTVSPost2010Prop41ColorIndex
 90
       18
102
RTVSPost2010Prop41ColorRGB
 90
        0
102
RTVSPost2010PropOp41
 70
     1
102
RTVSPost2010Prop42
 90
       50
102
RTVSPost2010PropOp42
 70
     1
102
RTVSPost2010Prop43
 90
        3
102
RTVSPost2010PropOp43
 70
     1
102
RTVSPost2010Prop44ColorIndex
 90
        5
102
RTVSPost2010Prop44ColorRGB
 90
      255
102
RTVSPost2010PropOp44
 70
     1
102
RTVSPost2010Prop45
280
     0
102
RTVSPost2010PropOp45
 70
     1
102
RTVSPost2010Prop46
 90
       50
102
RTVSPost2010PropOp46
 70
     1
102
RTVSPost2010Prop47
 90
       50
102
RTVSPost2010PropOp47
 70
     1
102
RTVSPost2010Prop48
 90
       50
102
RTVSPost2010PropOp48
 70
     1
102
RTVSPost2010Prop49
280
     0
102
RTVSPost2010PropOp49
 70
     1
102
RTVSPost2010Prop50
 90
       50
102
RTVSPost2010PropOp50
 70
     1
102
RTVSPost2010Prop51ColorIndex
 90
      256
102
RTVSPost2010Prop51ColorRGB
 90
-16777216
102
RTVSPost2010PropOp51
 70
     0
102
RTVSPost2010Prop52
140
1.0
102
RTVSPost2010PropOp52
 70
     0
102
RTVSPost2010Prop53
 90
        2
102
RTVSPost2010PropOp53
 70
     1
102
RTVSPost2010Prop54
  1
strokes_ogs.tif
102
RTVSPost2010PropOp54
 70
     1
102
RTVSPost2010Prop55
280
     0
102
RTVSPost2010PropOp55
 70
     1
102
RTVSPost2010Prop56
140
1.0
102
RTVSPost2010PropOp56
 70
     1
102
RTVSPost2010Prop57
140
1.0
102
RTVSPost2010PropOp57
 70
     1
102
RTVSPropertyOp0
 70
     1
102
RTVSPropertyOp1
 70
     1
102
RTVSPropertyOp2
 70
     1
102
RTVSPropertyOp3
 70
     1
102
RTVSPropertyOp4
 70
     1
102
RTVSPropertyOp5
 70
     1
102
RTVSPropertyOp6
 70
     1
102
RTVSPropertyOp7
 70
     1
102
RTVSPropertyOp8
 70
     1
102
RTVSPropertyOp9
 70
     1
102
RTVSPropertyOp10
 70
     1
102
RTVSPropertyOp11
 70
     1
102
RTVSPropertyOp12
 70
     1
102
RTVSPropertyOp13
 70
     1
102
RTVSPropertyOp14
 70
     1
102
RTVSPropertyOp15
 70
     1
102
RTVSPropertyOp16
 70
     1
102
RTVSPropertyOp17
 70
     1
102
RTVSPropertyOp18
 70
     1
102
RTVSPropertyOp19
 70
     1
102
RTVSPropertyOp20
 70
     1
102
RTVSPropertyOp21
 70
     1
102
RTVSPropertyOp22
 70
     1
102
RTVSPropertyOp23
 70
     1
102
RTVSPropertyOp24
 70
     1
102
RTVSPropertyOp25
 70
     1
102
RTVSPropertyOp26
 70
     1
102
RTVSPropertyOp27
 70
     1
102
RTVSPropertyOp28
 70
     1
102
RTVSPropertyOp29
 70
     1
102
RTVSPropertyOp30
 70
     1
102
RTVSPropertyOp31
 70
     1
102
RTVSPropertyOp32
 70
     1
102
RTVSPropertyOp33
 70
     1
102
RTVSPropertyOp34
 70
     1
102
RTVSPropertyOp35
 70
     1
102
RTVSPropertyOp36
 70
     1
102
RTVSPropertyOp37
 70
     1
102
RTVSPropertyOp38
 70
     1
102
RTVSPropertyOp39
 70
     1
102
RTVSPropertyOp40
 70
     1
102
RTVSPropertyOp41
 70
     1
102
RTVSPropertyOp42
 70
     1
102
RTVSPropertyOp43
 70
     1
102
RTVSPropertyOp44
 70
     1
102
RTVSPropertyOp45
 70
     1
102
RTVSPropertyOp46
 70
     1
102
RTVSPropertyOp47
 70
     1
102
RTVSPropertyOp48
 70
     1
102
RTVSPropertyOp49
 70
     1
102
RTVSPropertyOp50
 70
     1
102
RTVSPropertyOp51
 70
     0
102
RTVSPropertyOp52
 70
     0
102
RTVSPropertyOp53
 70
     1
102
RTVSPropertyOp54
 70
     1
102
RTVSPropertyOp55
 70
     1
102
RTVSPropertyOp56
 70
     1
102
RTVSPropertyOp57
 70
     1
102
RTVSPropertyOp58
 70
     1
102
RTVSPropertyOp59
 70
     1
102
RTVSPropertyOp60
 70
     1
102
RTVSPropertyOp61
 70
     1
102
RTVSPropertyOp62
 70
     1
  0
XRECORD
  5
E62B
102
{ACAD_REACTORS
330
E62A
102
}
330
E62A
100
AcDbXrecord
280
     1
102
RTVSPost2010Prop28
280
     0
102
RTVSPost2010PropOp28
 70
     1
102
RTVSPost2010Prop29
280
     1
102
RTVSPost2010PropOp29
 70
     1
102
RTVSPost2010Prop30
280
     1
102
RTVSPost2010PropOp30
 70
     1
102
RTVSPost2010Prop31
280
     0
102
RTVSPost2010PropOp31
 70
     1
102
RTVSPost2010Prop32
280
     0
102
RTVSPost2010PropOp32
 70
     1
102
RTVSPost2010Prop33
280
     0
102
RTVSPost2010PropOp33
 70
     1
102
RTVSPost2010Prop34
280
     0
102
RTVSPost2010PropOp34
 70
     1
102
RTVSPost2010Prop35
280
     0
102
RTVSPost2010PropOp35
 70
     1
102
RTVSPost2010Prop36
280
     0
102
RTVSPost2010PropOp36
 70
     1
102
RTVSPost2010Prop37
 90
       50
102
RTVSPost2010PropOp37
 70
     1
102
RTVSPost2010Prop38
140
0.0
102
RTVSPost2010PropOp38
 70
     1
102
RTVSPost2010Prop39
140
1.0
102
RTVSPost2010PropOp39
 70
     1
102
RTVSPost2010Prop40
 90
        0
102
RTVSPost2010PropOp40
 70
     1
102
RTVSPost2010Prop41ColorIndex
 90
       18
102
RTVSPost2010Prop41ColorRGB
 90
        0
102
RTVSPost2010PropOp41
 70
     1
102
RTVSPost2010Prop42
 90
       50
102
RTVSPost2010PropOp42
 70
     1
102
RTVSPost2010Prop43
 90
        3
102
RTVSPost2010PropOp43
 70
     1
102
RTVSPost2010Prop44ColorIndex
 90
        5
102
RTVSPost2010Prop44ColorRGB
 90
      255
102
RTVSPost2010PropOp44
 70
     1
102
RTVSPost2010Prop45
280
     0
102
RTVSPost2010PropOp45
 70
     1
102
RTVSPost2010Prop46
 90
       50
102
RTVSPost2010PropOp46
 70
     1
102
RTVSPost2010Prop47
 90
       50
102
RTVSPost2010PropOp47
 70
     1
102
RTVSPost2010Prop48
 90
       50
102
RTVSPost2010PropOp48
 70
     1
102
RTVSPost2010Prop49
280
     0
102
RTVSPost2010PropOp49
 70
     1
102
RTVSPost2010Prop50
 90
       50
102
RTVSPost2010PropOp50
 70
     1
102
RTVSPost2010Prop51ColorIndex
 90
      256
102
RTVSPost2010Prop51ColorRGB
 90
-16777216
102
RTVSPost2010PropOp51
 70
     0
102
RTVSPost2010Prop52
140
1.0
102
RTVSPost2010PropOp52
 70
     0
102
RTVSPost2010Prop53
 90
        2
102
RTVSPost2010PropOp53
 70
     1
102
RTVSPost2010Prop54
  1
strokes_ogs.tif
102
RTVSPost2010PropOp54
 70
     1
102
RTVSPost2010Prop55
280
     0
102
RTVSPost2010PropOp55
 70
     1
102
RTVSPost2010Prop56
140
1.0
102
RTVSPost2010PropOp56
 70
     1
102
RTVSPost2010Prop57
140
1.0
102
RTVSPost2010PropOp57
 70
     1
102
RTVSPropertyOp0
 70
     1
102
RTVSPropertyOp1
 70
     1
102
RTVSPropertyOp2
 70
     1
102
RTVSPropertyOp3
 70
     1
102
RTVSPropertyOp4
 70
     1
102
RTVSPropertyOp5
 70
     1
102
RTVSPropertyOp6
 70
     1
102
RTVSPropertyOp7
 70
     1
102
RTVSPropertyOp8
 70
     1
102
RTVSPropertyOp9
 70
     1
102
RTVSPropertyOp10
 70
     1
102
RTVSPropertyOp11
 70
     1
102
RTVSPropertyOp12
 70
     1
102
RTVSPropertyOp13
 70
     1
102
RTVSPropertyOp14
 70
     1
102
RTVSPropertyOp15
 70
     1
102
RTVSPropertyOp16
 70
     1
102
RTVSPropertyOp17
 70
     1
102
RTVSPropertyOp18
 70
     1
102
RTVSPropertyOp19
 70
     1
102
RTVSPropertyOp20
 70
     1
102
RTVSPropertyOp21
 70
     1
102
RTVSPropertyOp22
 70
     1
102
RTVSPropertyOp23
 70
     1
102
RTVSPropertyOp24
 70
     1
102
RTVSPropertyOp25
 70
     1
102
RTVSPropertyOp26
 70
     1
102
RTVSPropertyOp27
 70
     1
102
RTVSPropertyOp28
 70
     1
102
RTVSPropertyOp29
 70
     1
102
RTVSPropertyOp30
 70
     1
102
RTVSPropertyOp31
 70
     1
102
RTVSPropertyOp32
 70
     1
102
RTVSPropertyOp33
 70
     1
102
RTVSPropertyOp34
 70
     1
102
RTVSPropertyOp35
 70
     1
102
RTVSPropertyOp36
 70
     1
102
RTVSPropertyOp37
 70
     1
102
RTVSPropertyOp38
 70
     1
102
RTVSPropertyOp39
 70
     1
102
RTVSPropertyOp40
 70
     1
102
RTVSPropertyOp41
 70
     1
102
RTVSPropertyOp42
 70
     1
102
RTVSPropertyOp43
 70
     1
102
RTVSPropertyOp44
 70
     1
102
RTVSPropertyOp45
 70
     1
102
RTVSPropertyOp46
 70
     1
102
RTVSPropertyOp47
 70
     1
102
RTVSPropertyOp48
 70
     1
102
RTVSPropertyOp49
 70
     1
102
RTVSPropertyOp50
 70
     1
102
RTVSPropertyOp51
 70
     0
102
RTVSPropertyOp52
 70
     0
102
RTVSPropertyOp53
 70
     1
102
RTVSPropertyOp54
 70
     1
102
RTVSPropertyOp55
 70
     1
102
RTVSPropertyOp56
 70
     1
102
RTVSPropertyOp57
 70
     1
102
RTVSPropertyOp58
 70
     1
102
RTVSPropertyOp59
 70
     1
102
RTVSPropertyOp60
 70
     1
102
RTVSPropertyOp61
 70
     1
102
RTVSPropertyOp62
 70
     1
  0
XRECORD
  5
E62D
102
{ACAD_REACTORS
330
E62C
102
}
330
E62C
100
AcDbXrecord
280
     1
102
RTVSPost2010Prop28
280
     0
102
RTVSPost2010PropOp28
 70
     1
102
RTVSPost2010Prop29
280
     1
102
RTVSPost2010PropOp29
 70
     1
102
RTVSPost2010Prop30
280
     1
102
RTVSPost2010PropOp30
 70
     1
102
RTVSPost2010Prop31
280
     0
102
RTVSPost2010PropOp31
 70
     1
102
RTVSPost2010Prop32
280
     0
102
RTVSPost2010PropOp32
 70
     1
102
RTVSPost2010Prop33
280
     0
102
RTVSPost2010PropOp33
 70
     1
102
RTVSPost2010Prop34
280
     0
102
RTVSPost2010PropOp34
 70
     1
102
RTVSPost2010Prop35
280
     0
102
RTVSPost2010PropOp35
 70
     1
102
RTVSPost2010Prop36
280
     0
102
RTVSPost2010PropOp36
 70
     1
102
RTVSPost2010Prop37
 90
       50
102
RTVSPost2010PropOp37
 70
     1
102
RTVSPost2010Prop38
140
0.0
102
RTVSPost2010PropOp38
 70
     1
102
RTVSPost2010Prop39
140
1.0
102
RTVSPost2010PropOp39
 70
     1
102
RTVSPost2010Prop40
 90
        0
102
RTVSPost2010PropOp40
 70
     1
102
RTVSPost2010Prop41ColorIndex
 90
       18
102
RTVSPost2010Prop41ColorRGB
 90
        0
102
RTVSPost2010PropOp41
 70
     1
102
RTVSPost2010Prop42
 90
       50
102
RTVSPost2010PropOp42
 70
     1
102
RTVSPost2010Prop43
 90
        3
102
RTVSPost2010PropOp43
 70
     1
102
RTVSPost2010Prop44ColorIndex
 90
        5
102
RTVSPost2010Prop44ColorRGB
 90
      255
102
RTVSPost2010PropOp44
 70
     1
102
RTVSPost2010Prop45
280
     0
102
RTVSPost2010PropOp45
 70
     1
102
RTVSPost2010Prop46
 90
       50
102
RTVSPost2010PropOp46
 70
     1
102
RTVSPost2010Prop47
 90
       50
102
RTVSPost2010PropOp47
 70
     1
102
RTVSPost2010Prop48
 90
       50
102
RTVSPost2010PropOp48
 70
     1
102
RTVSPost2010Prop49
280
     0
102
RTVSPost2010PropOp49
 70
     1
102
RTVSPost2010Prop50
 90
       50
102
RTVSPost2010PropOp50
 70
     1
102
RTVSPost2010Prop51ColorIndex
 90
      256
102
RTVSPost2010Prop51ColorRGB
 90
-16777216
102
RTVSPost2010PropOp51
 70
     0
102
RTVSPost2010Prop52
140
1.0
102
RTVSPost2010PropOp52
 70
     0
102
RTVSPost2010Prop53
 90
        2
102
RTVSPost2010PropOp53
 70
     1
102
RTVSPost2010Prop54
  1
strokes_ogs.tif
102
RTVSPost2010PropOp54
 70
     1
102
RTVSPost2010Prop55
280
     0
102
RTVSPost2010PropOp55
 70
     1
102
RTVSPost2010Prop56
140
1.0
102
RTVSPost2010PropOp56
 70
     1
102
RTVSPost2010Prop57
140
1.0
102
RTVSPost2010PropOp57
 70
     1
102
RTVSPropertyOp0
 70
     1
102
RTVSPropertyOp1
 70
     1
102
RTVSPropertyOp2
 70
     1
102
RTVSPropertyOp3
 70
     1
102
RTVSPropertyOp4
 70
     1
102
RTVSPropertyOp5
 70
     1
102
RTVSPropertyOp6
 70
     1
102
RTVSPropertyOp7
 70
     1
102
RTVSPropertyOp8
 70
     1
102
RTVSPropertyOp9
 70
     1
102
RTVSPropertyOp10
 70
     1
102
RTVSPropertyOp11
 70
     1
102
RTVSPropertyOp12
 70
     1
102
RTVSPropertyOp13
 70
     1
102
RTVSPropertyOp14
 70
     1
102
RTVSPropertyOp15
 70
     1
102
RTVSPropertyOp16
 70
     1
102
RTVSPropertyOp17
 70
     1
102
RTVSPropertyOp18
 70
     1
102
RTVSPropertyOp19
 70
     1
102
RTVSPropertyOp20
 70
     1
102
RTVSPropertyOp21
 70
     1
102
RTVSPropertyOp22
 70
     1
102
RTVSPropertyOp23
 70
     1
102
RTVSPropertyOp24
 70
     1
102
RTVSPropertyOp25
 70
     1
102
RTVSPropertyOp26
 70
     1
102
RTVSPropertyOp27
 70
     1
102
RTVSPropertyOp28
 70
     1
102
RTVSPropertyOp29
 70
     1
102
RTVSPropertyOp30
 70
     1
102
RTVSPropertyOp31
 70
     1
102
RTVSPropertyOp32
 70
     1
102
RTVSPropertyOp33
 70
     1
102
RTVSPropertyOp34
 70
     1
102
RTVSPropertyOp35
 70
     1
102
RTVSPropertyOp36
 70
     1
102
RTVSPropertyOp37
 70
     1
102
RTVSPropertyOp38
 70
     1
102
RTVSPropertyOp39
 70
     1
102
RTVSPropertyOp40
 70
     1
102
RTVSPropertyOp41
 70
     1
102
RTVSPropertyOp42
 70
     1
102
RTVSPropertyOp43
 70
     1
102
RTVSPropertyOp44
 70
     1
102
RTVSPropertyOp45
 70
     1
102
RTVSPropertyOp46
 70
     1
102
RTVSPropertyOp47
 70
     1
102
RTVSPropertyOp48
 70
     1
102
RTVSPropertyOp49
 70
     1
102
RTVSPropertyOp50
 70
     1
102
RTVSPropertyOp51
 70
     0
102
RTVSPropertyOp52
 70
     0
102
RTVSPropertyOp53
 70
     1
102
RTVSPropertyOp54
 70
     1
102
RTVSPropertyOp55
 70
     1
102
RTVSPropertyOp56
 70
     1
102
RTVSPropertyOp57
 70
     1
102
RTVSPropertyOp58
 70
     1
102
RTVSPropertyOp59
 70
     1
102
RTVSPropertyOp60
 70
     1
102
RTVSPropertyOp61
 70
     1
102
RTVSPropertyOp62
 70
     1
  0
XRECORD
  5
E623
102
{ACAD_REACTORS
330
E622
102
}
330
E622
100
AcDbXrecord
280
     1
102
RTVSPost2010Prop28
280
     0
102
RTVSPost2010PropOp28
 70
     1
102
RTVSPost2010Prop29
280
     1
102
RTVSPost2010PropOp29
 70
     1
102
RTVSPost2010Prop30
280
     1
102
RTVSPost2010PropOp30
 70
     1
102
RTVSPost2010Prop31
280
     0
102
RTVSPost2010PropOp31
 70
     1
102
RTVSPost2010Prop32
280
     0
102
RTVSPost2010PropOp32
 70
     1
102
RTVSPost2010Prop33
280
     0
102
RTVSPost2010PropOp33
 70
     1
102
RTVSPost2010Prop34
280
     0
102
RTVSPost2010PropOp34
 70
     1
102
RTVSPost2010Prop35
280
     0
102
RTVSPost2010PropOp35
 70
     1
102
RTVSPost2010Prop36
280
     0
102
RTVSPost2010PropOp36
 70
     1
102
RTVSPost2010Prop37
 90
       50
102
RTVSPost2010PropOp37
 70
     1
102
RTVSPost2010Prop38
140
0.0
102
RTVSPost2010PropOp38
 70
     1
102
RTVSPost2010Prop39
140
1.0
102
RTVSPost2010PropOp39
 70
     1
102
RTVSPost2010Prop40
 90
        0
102
RTVSPost2010PropOp40
 70
     1
102
RTVSPost2010Prop41ColorIndex
 90
       18
102
RTVSPost2010Prop41ColorRGB
 90
        0
102
RTVSPost2010PropOp41
 70
     1
102
RTVSPost2010Prop42
 90
       50
102
RTVSPost2010PropOp42
 70
     1
102
RTVSPost2010Prop43
 90
        3
102
RTVSPost2010PropOp43
 70
     1
102
RTVSPost2010Prop44ColorIndex
 90
        5
102
RTVSPost2010Prop44ColorRGB
 90
      255
102
RTVSPost2010PropOp44
 70
     1
102
RTVSPost2010Prop45
280
     0
102
RTVSPost2010PropOp45
 70
     1
102
RTVSPost2010Prop46
 90
       50
102
RTVSPost2010PropOp46
 70
     1
102
RTVSPost2010Prop47
 90
       50
102
RTVSPost2010PropOp47
 70
     1
102
RTVSPost2010Prop48
 90
       50
102
RTVSPost2010PropOp48
 70
     1
102
RTVSPost2010Prop49
280
     0
102
RTVSPost2010PropOp49
 70
     1
102
RTVSPost2010Prop50
 90
       50
102
RTVSPost2010PropOp50
 70
     1
102
RTVSPost2010Prop51ColorIndex
 90
      256
102
RTVSPost2010Prop51ColorRGB
 90
-16777216
102
RTVSPost2010PropOp51
 70
     0
102
RTVSPost2010Prop52
140
1.0
102
RTVSPost2010PropOp52
 70
     0
102
RTVSPost2010Prop53
 90
        2
102
RTVSPost2010PropOp53
 70
     1
102
RTVSPost2010Prop54
  1
strokes_ogs.tif
102
RTVSPost2010PropOp54
 70
     1
102
RTVSPost2010Prop55
280
     0
102
RTVSPost2010PropOp55
 70
     1
102
RTVSPost2010Prop56
140
1.0
102
RTVSPost2010PropOp56
 70
     1
102
RTVSPost2010Prop57
140
1.0
102
RTVSPost2010PropOp57
 70
     1
102
RTVSPropertyOp0
 70
     1
102
RTVSPropertyOp1
 70
     1
102
RTVSPropertyOp2
 70
     1
102
RTVSPropertyOp3
 70
     1
102
RTVSPropertyOp4
 70
     1
102
RTVSPropertyOp5
 70
     1
102
RTVSPropertyOp6
 70
     1
102
RTVSPropertyOp7
 70
     1
102
RTVSPropertyOp8
 70
     1
102
RTVSPropertyOp9
 70
     1
102
RTVSPropertyOp10
 70
     1
102
RTVSPropertyOp11
 70
     1
102
RTVSPropertyOp12
 70
     1
102
RTVSPropertyOp13
 70
     1
102
RTVSPropertyOp14
 70
     1
102
RTVSPropertyOp15
 70
     1
102
RTVSPropertyOp16
 70
     1
102
RTVSPropertyOp17
 70
     1
102
RTVSPropertyOp18
 70
     1
102
RTVSPropertyOp19
 70
     1
102
RTVSPropertyOp20
 70
     1
102
RTVSPropertyOp21
 70
     1
102
RTVSPropertyOp22
 70
     1
102
RTVSPropertyOp23
 70
     1
102
RTVSPropertyOp24
 70
     1
102
RTVSPropertyOp25
 70
     1
102
RTVSPropertyOp26
 70
     1
102
RTVSPropertyOp27
 70
     1
102
RTVSPropertyOp28
 70
     1
102
RTVSPropertyOp29
 70
     1
102
RTVSPropertyOp30
 70
     1
102
RTVSPropertyOp31
 70
     1
102
RTVSPropertyOp32
 70
     1
102
RTVSPropertyOp33
 70
     1
102
RTVSPropertyOp34
 70
     1
102
RTVSPropertyOp35
 70
     1
102
RTVSPropertyOp36
 70
     1
102
RTVSPropertyOp37
 70
     1
102
RTVSPropertyOp38
 70
     1
102
RTVSPropertyOp39
 70
     1
102
RTVSPropertyOp40
 70
     1
102
RTVSPropertyOp41
 70
     1
102
RTVSPropertyOp42
 70
     1
102
RTVSPropertyOp43
 70
     1
102
RTVSPropertyOp44
 70
     1
102
RTVSPropertyOp45
 70
     1
102
RTVSPropertyOp46
 70
     1
102
RTVSPropertyOp47
 70
     1
102
RTVSPropertyOp48
 70
     1
102
RTVSPropertyOp49
 70
     1
102
RTVSPropertyOp50
 70
     1
102
RTVSPropertyOp51
 70
     0
102
RTVSPropertyOp52
 70
     0
102
RTVSPropertyOp53
 70
     1
102
RTVSPropertyOp54
 70
     1
102
RTVSPropertyOp55
 70
     1
102
RTVSPropertyOp56
 70
     1
102
RTVSPropertyOp57
 70
     1
102
RTVSPropertyOp58
 70
     1
102
RTVSPropertyOp59
 70
     1
102
RTVSPropertyOp60
 70
     1
102
RTVSPropertyOp61
 70
     1
102
RTVSPropertyOp62
 70
     1
  0
XRECORD
  5
E617
102
{ACAD_REACTORS
330
E616
102
}
330
E616
100
AcDbXrecord
280
     1
102
RTVSPost2010Prop28
280
     0
102
RTVSPost2010PropOp28
 70
     1
102
RTVSPost2010Prop29
280
     1
102
RTVSPost2010PropOp29
 70
     1
102
RTVSPost2010Prop30
280
     1
102
RTVSPost2010PropOp30
 70
     1
102
RTVSPost2010Prop31
280
     0
102
RTVSPost2010PropOp31
 70
     1
102
RTVSPost2010Prop32
280
     0
102
RTVSPost2010PropOp32
 70
     1
102
RTVSPost2010Prop33
280
     0
102
RTVSPost2010PropOp33
 70
     1
102
RTVSPost2010Prop34
280
     0
102
RTVSPost2010PropOp34
 70
     1
102
RTVSPost2010Prop35
280
     0
102
RTVSPost2010PropOp35
 70
     1
102
RTVSPost2010Prop36
280
     0
102
RTVSPost2010PropOp36
 70
     1
102
RTVSPost2010Prop37
 90
       50
102
RTVSPost2010PropOp37
 70
     1
102
RTVSPost2010Prop38
140
0.0
102
RTVSPost2010PropOp38
 70
     1
102
RTVSPost2010Prop39
140
1.0
102
RTVSPost2010PropOp39
 70
     1
102
RTVSPost2010Prop40
 90
        0
102
RTVSPost2010PropOp40
 70
     1
102
RTVSPost2010Prop41ColorIndex
 90
       18
102
RTVSPost2010Prop41ColorRGB
 90
        0
102
RTVSPost2010PropOp41
 70
     1
102
RTVSPost2010Prop42
 90
       50
102
RTVSPost2010PropOp42
 70
     1
102
RTVSPost2010Prop43
 90
        3
102
RTVSPost2010PropOp43
 70
     1
102
RTVSPost2010Prop44ColorIndex
 90
        5
102
RTVSPost2010Prop44ColorRGB
 90
      255
102
RTVSPost2010PropOp44
 70
     1
102
RTVSPost2010Prop45
280
     0
102
RTVSPost2010PropOp45
 70
     1
102
RTVSPost2010Prop46
 90
       50
102
RTVSPost2010PropOp46
 70
     1
102
RTVSPost2010Prop47
 90
       50
102
RTVSPost2010PropOp47
 70
     1
102
RTVSPost2010Prop48
 90
       50
102
RTVSPost2010PropOp48
 70
     1
102
RTVSPost2010Prop49
280
     0
102
RTVSPost2010PropOp49
 70
     1
102
RTVSPost2010Prop50
 90
       50
102
RTVSPost2010PropOp50
 70
     1
102
RTVSPost2010Prop51ColorIndex
 90
      256
102
RTVSPost2010Prop51ColorRGB
 90
-16777216
102
RTVSPost2010PropOp51
 70
     0
102
RTVSPost2010Prop52
140
1.0
102
RTVSPost2010PropOp52
 70
     0
102
RTVSPost2010Prop53
 90
        2
102
RTVSPost2010PropOp53
 70
     1
102
RTVSPost2010Prop54
  1
strokes_ogs.tif
102
RTVSPost2010PropOp54
 70
     1
102
RTVSPost2010Prop55
280
     0
102
RTVSPost2010PropOp55
 70
     1
102
RTVSPost2010Prop56
140
1.0
102
RTVSPost2010PropOp56
 70
     1
102
RTVSPost2010Prop57
140
1.0
102
RTVSPost2010PropOp57
 70
     1
102
RTVSPropertyOp0
 70
     1
102
RTVSPropertyOp1
 70
     1
102
RTVSPropertyOp2
 70
     1
102
RTVSPropertyOp3
 70
     1
102
RTVSPropertyOp4
 70
     1
102
RTVSPropertyOp5
 70
     1
102
RTVSPropertyOp6
 70
     1
102
RTVSPropertyOp7
 70
     1
102
RTVSPropertyOp8
 70
     1
102
RTVSPropertyOp9
 70
     1
102
RTVSPropertyOp10
 70
     1
102
RTVSPropertyOp11
 70
     1
102
RTVSPropertyOp12
 70
     1
102
RTVSPropertyOp13
 70
     1
102
RTVSPropertyOp14
 70
     1
102
RTVSPropertyOp15
 70
     1
102
RTVSPropertyOp16
 70
     1
102
RTVSPropertyOp17
 70
     1
102
RTVSPropertyOp18
 70
     1
102
RTVSPropertyOp19
 70
     1
102
RTVSPropertyOp20
 70
     1
102
RTVSPropertyOp21
 70
     1
102
RTVSPropertyOp22
 70
     1
102
RTVSPropertyOp23
 70
     1
102
RTVSPropertyOp24
 70
     1
102
RTVSPropertyOp25
 70
     1
102
RTVSPropertyOp26
 70
     1
102
RTVSPropertyOp27
 70
     1
102
RTVSPropertyOp28
 70
     1
102
RTVSPropertyOp29
 70
     1
102
RTVSPropertyOp30
 70
     1
102
RTVSPropertyOp31
 70
     1
102
RTVSPropertyOp32
 70
     1
102
RTVSPropertyOp33
 70
     1
102
RTVSPropertyOp34
 70
     1
102
RTVSPropertyOp35
 70
     1
102
RTVSPropertyOp36
 70
     1
102
RTVSPropertyOp37
 70
     1
102
RTVSPropertyOp38
 70
     1
102
RTVSPropertyOp39
 70
     1
102
RTVSPropertyOp40
 70
     1
102
RTVSPropertyOp41
 70
     1
102
RTVSPropertyOp42
 70
     1
102
RTVSPropertyOp43
 70
     1
102
RTVSPropertyOp44
 70
     1
102
RTVSPropertyOp45
 70
     1
102
RTVSPropertyOp46
 70
     1
102
RTVSPropertyOp47
 70
     1
102
RTVSPropertyOp48
 70
     1
102
RTVSPropertyOp49
 70
     1
102
RTVSPropertyOp50
 70
     1
102
RTVSPropertyOp51
 70
     0
102
RTVSPropertyOp52
 70
     0
102
RTVSPropertyOp53
 70
     1
102
RTVSPropertyOp54
 70
     1
102
RTVSPropertyOp55
 70
     1
102
RTVSPropertyOp56
 70
     1
102
RTVSPropertyOp57
 70
     1
102
RTVSPropertyOp58
 70
     1
102
RTVSPropertyOp59
 70
     1
102
RTVSPropertyOp60
 70
     1
102
RTVSPropertyOp61
 70
     1
102
RTVSPropertyOp62
 70
     1
  0
XRECORD
  5
E62F
102
{ACAD_REACTORS
330
E62E
102
}
330
E62E
100
AcDbXrecord
280
     1
102
RTVSPost2010Prop28
280
     0
102
RTVSPost2010PropOp28
 70
     1
102
RTVSPost2010Prop29
280
     1
102
RTVSPost2010PropOp29
 70
     1
102
RTVSPost2010Prop30
280
     1
102
RTVSPost2010PropOp30
 70
     1
102
RTVSPost2010Prop31
280
     0
102
RTVSPost2010PropOp31
 70
     1
102
RTVSPost2010Prop32
280
     0
102
RTVSPost2010PropOp32
 70
     1
102
RTVSPost2010Prop33
280
     0
102
RTVSPost2010PropOp33
 70
     1
102
RTVSPost2010Prop34
280
     0
102
RTVSPost2010PropOp34
 70
     1
102
RTVSPost2010Prop35
280
     0
102
RTVSPost2010PropOp35
 70
     1
102
RTVSPost2010Prop36
280
     0
102
RTVSPost2010PropOp36
 70
     1
102
RTVSPost2010Prop37
 90
       50
102
RTVSPost2010PropOp37
 70
     1
102
RTVSPost2010Prop38
140
0.0
102
RTVSPost2010PropOp38
 70
     1
102
RTVSPost2010Prop39
140
1.0
102
RTVSPost2010PropOp39
 70
     1
102
RTVSPost2010Prop40
 90
        0
102
RTVSPost2010PropOp40
 70
     1
102
RTVSPost2010Prop41ColorIndex
 90
       18
102
RTVSPost2010Prop41ColorRGB
 90
        0
102
RTVSPost2010PropOp41
 70
     1
102
RTVSPost2010Prop42
 90
       50
102
RTVSPost2010PropOp42
 70
     1
102
RTVSPost2010Prop43
 90
        3
102
RTVSPost2010PropOp43
 70
     1
102
RTVSPost2010Prop44ColorIndex
 90
        5
102
RTVSPost2010Prop44ColorRGB
 90
      255
102
RTVSPost2010PropOp44
 70
     1
102
RTVSPost2010Prop45
280
     0
102
RTVSPost2010PropOp45
 70
     1
102
RTVSPost2010Prop46
 90
       50
102
RTVSPost2010PropOp46
 70
     1
102
RTVSPost2010Prop47
 90
       50
102
RTVSPost2010PropOp47
 70
     1
102
RTVSPost2010Prop48
 90
       50
102
RTVSPost2010PropOp48
 70
     1
102
RTVSPost2010Prop49
280
     0
102
RTVSPost2010PropOp49
 70
     1
102
RTVSPost2010Prop50
 90
       50
102
RTVSPost2010PropOp50
 70
     1
102
RTVSPost2010Prop51ColorIndex
 90
      256
102
RTVSPost2010Prop51ColorRGB
 90
-16777216
102
RTVSPost2010PropOp51
 70
     0
102
RTVSPost2010Prop52
140
1.0
102
RTVSPost2010PropOp52
 70
     0
102
RTVSPost2010Prop53
 90
        2
102
RTVSPost2010PropOp53
 70
     1
102
RTVSPost2010Prop54
  1
strokes_ogs.tif
102
RTVSPost2010PropOp54
 70
     1
102
RTVSPost2010Prop55
280
     0
102
RTVSPost2010PropOp55
 70
     1
102
RTVSPost2010Prop56
140
1.0
102
RTVSPost2010PropOp56
 70
     1
102
RTVSPost2010Prop57
140
1.0
102
RTVSPost2010PropOp57
 70
     1
102
RTVSPropertyOp0
 70
     1
102
RTVSPropertyOp1
 70
     1
102
RTVSPropertyOp2
 70
     1
102
RTVSPropertyOp3
 70
     1
102
RTVSPropertyOp4
 70
     1
102
RTVSPropertyOp5
 70
     1
102
RTVSPropertyOp6
 70
     1
102
RTVSPropertyOp7
 70
     1
102
RTVSPropertyOp8
 70
     1
102
RTVSPropertyOp9
 70
     1
102
RTVSPropertyOp10
 70
     1
102
RTVSPropertyOp11
 70
     1
102
RTVSPropertyOp12
 70
     1
102
RTVSPropertyOp13
 70
     1
102
RTVSPropertyOp14
 70
     1
102
RTVSPropertyOp15
 70
     1
102
RTVSPropertyOp16
 70
     1
102
RTVSPropertyOp17
 70
     1
102
RTVSPropertyOp18
 70
     1
102
RTVSPropertyOp19
 70
     1
102
RTVSPropertyOp20
 70
     1
102
RTVSPropertyOp21
 70
     1
102
RTVSPropertyOp22
 70
     1
102
RTVSPropertyOp23
 70
     1
102
RTVSPropertyOp24
 70
     1
102
RTVSPropertyOp25
 70
     1
102
RTVSPropertyOp26
 70
     1
102
RTVSPropertyOp27
 70
     1
102
RTVSPropertyOp28
 70
     1
102
RTVSPropertyOp29
 70
     1
102
RTVSPropertyOp30
 70
     1
102
RTVSPropertyOp31
 70
     1
102
RTVSPropertyOp32
 70
     1
102
RTVSPropertyOp33
 70
     1
102
RTVSPropertyOp34
 70
     1
102
RTVSPropertyOp35
 70
     1
102
RTVSPropertyOp36
 70
     1
102
RTVSPropertyOp37
 70
     1
102
RTVSPropertyOp38
 70
     1
102
RTVSPropertyOp39
 70
     1
102
RTVSPropertyOp40
 70
     1
102
RTVSPropertyOp41
 70
     1
102
RTVSPropertyOp42
 70
     1
102
RTVSPropertyOp43
 70
     1
102
RTVSPropertyOp44
 70
     1
102
RTVSPropertyOp45
 70
     1
102
RTVSPropertyOp46
 70
     1
102
RTVSPropertyOp47
 70
     1
102
RTVSPropertyOp48
 70
     1
102
RTVSPropertyOp49
 70
     1
102
RTVSPropertyOp50
 70
     1
102
RTVSPropertyOp51
 70
     0
102
RTVSPropertyOp52
 70
     0
102
RTVSPropertyOp53
 70
     1
102
RTVSPropertyOp54
 70
     1
102
RTVSPropertyOp55
 70
     1
102
RTVSPropertyOp56
 70
     1
102
RTVSPropertyOp57
 70
     1
102
RTVSPropertyOp58
 70
     1
102
RTVSPropertyOp59
 70
     1
102
RTVSPropertyOp60
 70
     1
102
RTVSPropertyOp61
 70
     1
102
RTVSPropertyOp62
 70
     1
  0
ENDSEC
  0
EOF
