  0
SECTION
  2
HEADER
  9
$ACADVER
  1
AC1015
  9
$ACADMAINTVER
 70
    20
  9
$DWGCODEPAGE
  3
ANSI_932
  9
$INSBASE
 10
0.0
 20
0.0
 30
0.0
  9
$EXTMIN
 10
9.99995
 20
9.999999999999998
 30
0.0
  9
$EXTMAX
 10
263.3219029999998
 20
145.5
 30
0.0
  9
$LIMMIN
 10
0.0
 20
0.0
  9
$LIMMAX
 10
396.0
 20
273.0
  9
$ORTHOMODE
 70
     1
  9
$REGENMODE
 70
     1
  9
$FILLMODE
 70
     1
  9
$QTEXTMODE
 70
     0
  9
$MIRRTEXT
 70
     1
  9
$LTSCALE
 40
20.0
  9
$ATTMODE
 70
     1
  9
$TEXTSIZE
 40
5.0
  9
$TRACEWID
 40
1.0
  9
$TEXTSTYLE
  7
STANDARD
  9
$CLAYER
  8
0
  9
$CELTYPE
  6
BYLAYER
  9
$CECOLOR
 62
   256
  9
$CELTSCALE
 40
1.0
  9
$DISPSILH
 70
     0
  9
$DIMSCALE
 40
1.0
  9
$DIMASZ
 40
3.0
  9
$DIMEXO
 40
1.0
  9
$DIMDLI
 40
10.0
  9
$DIMRND
 40
0.0
  9
$DIMDLE
 40
0.0
  9
$DIMEXE
 40
1.0
  9
$DIMTP
 40
0.0
  9
$DIMTM
 40
0.0
  9
$DIMTXT
 40
3.2
  9
$DIMCEN
 40
0.0
  9
$DIMTSZ
 40
0.0
  9
$DIMTOL
 70
     0
  9
$DIMLIM
 70
     0
  9
$DIMTIH
 70
     0
  9
$DIMTOH
 70
     0
  9
$DIMSE1
 70
     0
  9
$DIMSE2
 70
     0
  9
$DIMTAD
 70
     3
  9
$DIMZIN
 70
     8
  9
$DIMBLK
  1

  9
$DIMASO
 70
     1
  9
$DIMSHO
 70
     1
  9
$DIMPOST
  1

  9
$DIMAPOST
  1

  9
$DIMALT
 70
     0
  9
$DIMALTD
 70
     2
  9
$DIMALTF
 40
25.4
  9
$DIMLFAC
 40
1.0
  9
$DIMTOFL
 70
     1
  9
$DIMTVP
 40
0.0
  9
$DIMTIX
 70
     0
  9
$DIMSOXD
 70
     0
  9
$DIMSAH
 70
     1
  9
$DIMBLK1
  1

  9
$DIMBLK2
  1

  9
$DIMSTYLE
  2
STANDARD
  9
$DIMCLRD
 70
     0
  9
$DIMCLRE
 70
     0
  9
$DIMCLRT
 70
     0
  9
$DIMTFAC
 40
1.0
  9
$DIMGAP
 40
1.0
  9
$DIMJUST
 70
     0
  9
$DIMSD1
 70
     0
  9
$DIMSD2
 70
     0
  9
$DIMTOLJ
 70
     1
  9
$DIMTZIN
 70
     0
  9
$DIMALTZ
 70
     0
  9
$DIMALTTZ
 70
     0
  9
$DIMUPT
 70
     0
  9
$DIMDEC
 70
     4
  9
$DIMTDEC
 70
     4
  9
$DIMALTU
 70
     2
  9
$DIMALTTD
 70
     2
  9
$DIMTXSTY
  7
STANDARD
  9
$DIMAUNIT
 70
     0
  9
$DIMADEC
 70
     0
  9
$DIMALTRND
 40
0.0
  9
$DIMAZIN
 70
     0
  9
$DIMDSEP
 70
    46
  9
$DIMATFIT
 70
     3
  9
$DIMFRAC
 70
     0
  9
$DIMLDRBLK
  1

  9
$DIMLUNIT
 70
     2
  9
$DIMLWD
 70
    -2
  9
$DIMLWE
 70
    -2
  9
$DIMTMOVE
 70
     0
  9
$LUNITS
 70
     2
  9
$LUPREC
 70
     4
  9
$SKETCHINC
 40
1.0
  9
$FILLETRAD
 40
0.5
  9
$AUNITS
 70
     0
  9
$AUPREC
 70
     2
  9
$MENU
  1
.
  9
$ELEVATION
 40
0.0
  9
$PELEVATION
 40
0.0
  9
$THICKNESS
 40
0.0
  9
$LIMCHECK
 70
     0
  9
$CHAMFERA
 40
10.0
  9
$CHAMFERB
 40
10.0
  9
$CHAMFERC
 40
0.0
  9
$CHAMFERD
 40
0.0
  9
$SKPOLY
 70
     0
  9
$TDCREATE
 40
2451285.444698148
  9
$TDUCREATE
 40
2451285.069698148
  9
$TDUPDATE
 40
2457192.659225116
  9
$TDUUPDATE
 40
2457192.284225116
  9
$TDINDWG
 40
0.0000107407
  9
$TDUSRTIMER
 40
0.0000103241
  9
$USRTIMER
 70
     1
  9
$ANGBASE
 50
0.0
  9
$ANGDIR
 70
     0
  9
$PDMODE
 70
    34
  9
$PDSIZE
 40
0.0
  9
$PLINEWID
 40
0.0
  9
$SPLFRAME
 70
     0
  9
$SPLINETYPE
 70
     6
  9
$SPLINESEGS
 70
     8
  9
$HANDSEED
  5
E71F
  9
$SURFTAB1
 70
     6
  9
$SURFTAB2
 70
     6
  9
$SURFTYPE
 70
     6
  9
$SURFU
 70
     6
  9
$SURFV
 70
     6
  9
$UCSBASE
  2

  9
$UCSNAME
  2

  9
$UCSORG
 10
0.0
 20
0.0
 30
0.0
  9
$UCSXDIR
 10
1.0
 20
0.0
 30
0.0
  9
$UCSYDIR
 10
0.0
 20
1.0
 30
0.0
  9
$UCSORTHOREF
  2

  9
$UCSORTHOVIEW
 70
     0
  9
$UCSORGTOP
 10
0.0
 20
0.0
 30
0.0
  9
$UCSORGBOTTOM
 10
0.0
 20
0.0
 30
0.0
  9
$UCSORGLEFT
 10
0.0
 20
0.0
 30
0.0
  9
$UCSORGRIGHT
 10
0.0
 20
0.0
 30
0.0
  9
$UCSORGFRONT
 10
0.0
 20
0.0
 30
0.0
  9
$UCSORGBACK
 10
0.0
 20
0.0
 30
0.0
  9
$PUCSBASE
  2

  9
$PUCSNAME
  2

  9
$PUCSORG
 10
0.0
 20
0.0
 30
0.0
  9
$PUCSXDIR
 10
1.0
 20
0.0
 30
0.0
  9
$PUCSYDIR
 10
0.0
 20
1.0
 30
0.0
  9
$PUCSORTHOREF
  2

  9
$PUCSORTHOVIEW
 70
     0
  9
$PUCSORGTOP
 10
0.0
 20
0.0
 30
0.0
  9
$PUCSORGBOTTOM
 10
0.0
 20
0.0
 30
0.0
  9
$PUCSORGLEFT
 10
0.0
 20
0.0
 30
0.0
  9
$PUCSORGRIGHT
 10
0.0
 20
0.0
 30
0.0
  9
$PUCSORGFRONT
 10
0.0
 20
0.0
 30
0.0
  9
$PUCSORGBACK
 10
0.0
 20
0.0
 30
0.0
  9
$USERI1
 70
     0
  9
$USERI2
 70
     0
  9
$USERI3
 70
     0
  9
$USERI4
 70
     0
  9
$USERI5
 70
     0
  9
$USERR1
 40
0.0
  9
$USERR2
 40
0.0
  9
$USERR3
 40
0.0
  9
$USERR4
 40
0.0
  9
$USERR5
 40
0.0
  9
$WORLDVIEW
 70
     1
  9
$SHADEDGE
 70
     3
  9
$SHADEDIF
 70
    70
  9
$TILEMODE
 70
     1
  9
$MAXACTVP
 70
    16
  9
$PINSBASE
 10
0.0
 20
0.0
 30
0.0
  9
$PLIMCHECK
 70
     0
  9
$PEXTMIN
 10
1.000000000000000E+20
 20
1.000000000000000E+20
 30
1.000000000000000E+20
  9
$PEXTMAX
 10
-1.000000000000000E+20
 20
-1.000000000000000E+20
 30
-1.000000000000000E+20
  9
$PLIMMIN
 10
0.0
 20
0.0
  9
$PLIMMAX
 10
420.0
 20
297.0
  9
$UNITMODE
 70
     0
  9
$VISRETAIN
 70
     0
  9
$PLINEGEN
 70
     0
  9
$PSLTSCALE
 70
     0
  9
$TREEDEPTH
 70
  3020
  9
$CMLSTYLE
  2
STANDARD
  9
$CMLJUST
 70
     0
  9
$CMLSCALE
 40
1.0
  9
$PROXYGRAPHICS
 70
     1
  9
$MEASUREMENT
 70
     0
  9
$CELWEIGHT
370
    -1
  9
$ENDCAPS
280
     0
  9
$JOINSTYLE
280
     0
  9
$LWDISPLAY
290
     0
  9
$INSUNITS
 70
     0
  9
$HYPERLINKBASE
  1

  9
$STYLESHEET
  1

  9
$XEDIT
290
     1
  9
$CEPSNTYPE
380
     0
  9
$PSTYLEMODE
290
     1
  9
$FINGERPRINTGUID
  2
{57CD9ADE-64FA-4FAA-A670-A016B62B3D6F}
  9
$VERSIONGUID
  2
{32ED9D69-5895-4D46-9AC3-165893659E9B}
  9
$EXTNAMES
290
     1
  9
$PSVPSCALE
 40
0.0
  9
$OLESTARTUP
290
     0
  0
ENDSEC
  0
SECTION
  2
CLASSES
  0
CLASS
  1
ACDBDICTIONARYWDFLT
  2
AcDbDictionaryWithDefault
  3
ObjectDBX Classes
 90
        0
280
     0
281
     0
  0
CLASS
  1
ACDBPLACEHOLDER
  2
AcDbPlaceHolder
  3
ObjectDBX Classes
 90
        0
280
     0
281
     0
  0
CLASS
  1
LAYOUT
  2
AcDbLayout
  3
ObjectDBX Classes
 90
        0
280
     0
281
     0
  0
CLASS
  1
DICTIONARYVAR
  2
AcDbDictionaryVar
  3
ObjectDBX Classes
 90
        0
280
     0
281
     0
  0
CLASS
  1
MATERIAL
  2
AcDbMaterial
  3
ObjectDBX Classes
 90
     1153
280
     0
281
     0
  0
CLASS
  1
VISUALSTYLE
  2
AcDbVisualStyle
  3
ObjectDBX Classes
 90
     4095
280
     0
281
     0
  0
CLASS
  1
TABLESTYLE
  2
AcDbTableStyle
  3
ObjectDBX Classes
 90
     4095
280
     0
281
     0
  0
CLASS
  1
SCALE
  2
AcDbScale
  3
ObjectDBX Classes
 90
     1153
280
     0
281
     0
  0
CLASS
  1
MLEADERSTYLE
  2
AcDbMLeaderStyle
  3
ACDB_MLEADERSTYLE_CLASS
 90
     4095
280
     0
281
     0
  0
CLASS
  1
ACDBSECTIONVIEWSTYLE
  2
AcDbSectionViewStyle
  3
ObjectDBX Classes
 90
     1025
280
     0
281
     0
  0
CLASS
  1
ACDBDETAILVIEWSTYLE
  2
AcDbDetailViewStyle
  3
ObjectDBX Classes
 90
     1025
280
     0
281
     0
  0
CLASS
  1
CELLSTYLEMAP
  2
AcDbCellStyleMap
  3
ObjectDBX Classes
 90
     1152
280
     0
281
     0
  0
ENDSEC
  0
SECTION
  2
TABLES
  0
TABLE
  2
VPORT
  5
E456
330
0
100
AcDbSymbolTable
 70
     1
  0
VPORT
  5
E668
330
E456
100
AcDbSymbolTableRecord
100
AcDbViewportTableRecord
  2
*ACTIVE
 70
     0
 10
0.0
 20
0.0
 11
1.0
 21
1.0
 12
180.2908882175618
 22
77.75392970542174
 13
0.0
 23
0.0
 14
10.0
 24
10.0
 15
10.0
 25
10.0
 16
0.0
 26
0.0
 36
1.0
 17
0.0
 27
0.0
 37
0.0
 40
145.6341345728228
 41
1.899603698811096
 42
50.0
 43
0.0
 44
0.0
 50
0.0
 51
0.0
 71
     0
 72
   100
 73
     1
 74
     0
 75
     0
 76
     0
 77
     0
 78
     0
281
     0
 65
     1
110
0.0
120
0.0
130
0.0
111
1.0
121
0.0
131
0.0
112
0.0
122
1.0
132
0.0
 79
     0
146
0.0
1001
ACAD_NAV_VCDISPLAY
1070
     3
  0
ENDTAB
  0
TABLE
  2
LTYPE
  5
E453
330
0
100
AcDbSymbolTable
 70
     4
  0
LTYPE
  5
E461
330
E453
100
AcDbSymbolTableRecord
100
AcDbLinetypeTableRecord
  2
BYBLOCK
 70
     0
  3

 72
    65
 73
     0
 40
0.0
  0
LTYPE
  5
E462
330
E453
100
AcDbSymbolTableRecord
100
AcDbLinetypeTableRecord
  2
BYLAYER
 70
     0
  3

 72
    65
 73
     0
 40
0.0
  0
LTYPE
  5
E463
330
E453
100
AcDbSymbolTableRecord
100
AcDbLinetypeTableRecord
  2
CONTINUOUS
 70
     0
  3
Solid line
 72
    65
 73
     0
 40
0.0
  0
LTYPE
  5
E471
330
E453
100
AcDbSymbolTableRecord
100
AcDbLinetypeTableRecord
  2
DASHED
 70
     0
  3
__ __ __ __ __ __ __ __ __ __ __ __ __ __ __ __
 72
    65
 73
     2
 40
0.75
 49
0.5
 74
     0
 49
-0.25
 74
     0
  0
LTYPE
  5
E472
330
E453
100
AcDbSymbolTableRecord
100
AcDbLinetypeTableRecord
  2
CENTER
 70
     0
  3
____ _ ____ _ ____ _ ____ _ ____ _ ____ _ ____ 
 72
    65
 73
     4
 40
2.0
 49
1.25
 74
     0
 49
-0.25
 74
     0
 49
0.25
 74
     0
 49
-0.25
 74
     0
  0
LTYPE
  5
E473
330
E453
100
AcDbSymbolTableRecord
100
AcDbLinetypeTableRecord
  2
PHANTOM
 70
     0
  3
______  __  __  ______  __  __  ______  __  __ 
 72
    65
 73
     6
 40
2.5
 49
1.25
 74
     0
 49
-0.25
 74
     0
 49
0.25
 74
     0
 49
-0.25
 74
     0
 49
0.25
 74
     0
 49
-0.25
 74
     0
  0
ENDTAB
  0
TABLE
  2
LAYER
  5
E450
330
0
100
AcDbSymbolTable
 70
     8
  0
LAYER
  5
E45E
102
{ACAD_XDICTIONARY
360
E6C3
102
}
330
E450
100
AcDbSymbolTableRecord
100
AcDbLayerTableRecord
  2
0
 70
     0
 62
     7
  6
CONTINUOUS
370
    -3
390
E671
  0
LAYER
  5
E474
102
{ACAD_XDICTIONARY
360
E6C5
102
}
330
E450
100
AcDbSymbolTableRecord
100
AcDbLayerTableRecord
  2
4
 70
     0
 62
     1
  6
CENTER
370
    -3
390
E671
  0
LAYER
  5
E475
102
{ACAD_XDICTIONARY
360
E6C7
102
}
330
E450
100
AcDbSymbolTableRecord
100
AcDbLayerTableRecord
  2
5
 70
     0
 62
     6
  6
PHANTOM
370
    -3
390
E671
  0
LAYER
  5
E476
102
{ACAD_XDICTIONARY
360
E6C9
102
}
330
E450
100
AcDbSymbolTableRecord
100
AcDbLayerTableRecord
  2
1
 70
     0
 62
     7
  6
CONTINUOUS
370
    -3
390
E671
  0
LAYER
  5
E477
102
{ACAD_XDICTIONARY
360
E6CB
102
}
330
E450
100
AcDbSymbolTableRecord
100
AcDbLayerTableRecord
  2
2
 70
     0
 62
     4
  6
CONTINUOUS
370
    -3
390
E671
  0
LAYER
  5
E478
102
{ACAD_XDICTIONARY
360
E6CD
102
}
330
E450
100
AcDbSymbolTableRecord
100
AcDbLayerTableRecord
  2
3
 70
     0
 62
     2
  6
DASHED
370
    -3
390
E671
  0
LAYER
  5
E479
102
{ACAD_XDICTIONARY
360
E6CF
102
}
330
E450
100
AcDbSymbolTableRecord
100
AcDbLayerTableRecord
  2
6
 70
     0
 62
     5
  6
CONTINUOUS
370
    -3
390
E671
  0
LAYER
  5
E47A
102
{ACAD_XDICTIONARY
360
E6D1
102
}
330
E450
100
AcDbSymbolTableRecord
100
AcDbLayerTableRecord
  2
7
 70
     0
 62
     3
  6
CONTINUOUS
370
    -3
390
E671
  0
ENDTAB
  0
TABLE
  2
STYLE
  5
E451
330
0
100
AcDbSymbolTable
 70
     1
  0
STYLE
  5
E45F
330
E451
100
AcDbSymbolTableRecord
100
AcDbTextStyleTableRecord
  2
STANDARD
 70
     0
 40
0.0
 41
1.0
 50
0.0
 71
     0
 42
5.0
  3
txt
  4

  0
ENDTAB
  0
TABLE
  2
VIEW
  5
E454
330
0
100
AcDbSymbolTable
 70
     2
  0
VIEW
  5
E47B
330
E454
100
AcDbSymbolTableRecord
100
AcDbViewTableRecord
  2
7
 70
     0
 40
113.5991649999999
 10
207.7781589999999
 20
100.5444229999999
 41
223.824098
 11
0.0
 21
0.0
 31
1.0
 12
0.0
 22
0.0
 32
0.0
 42
50.0
 43
0.0
 44
0.0
 50
0.0
 71
     0
281
     0
 72
     0
  0
VIEW
  5
E47C
330
E454
100
AcDbSymbolTableRecord
100
AcDbViewTableRecord
  2
6
 70
     0
 40
267.146964
 10
253.9720659999999
 20
125.781695
 41
526.35887
 11
0.0
 21
0.0
 31
1.0
 12
0.0
 22
0.0
 32
0.0
 42
50.0
 43
0.0
 44
0.0
 50
0.0
 71
     0
281
     0
 72
     0
  0
ENDTAB
  0
TABLE
  2
UCS
  5
E455
330
0
100
AcDbSymbolTable
 70
     0
  0
ENDTAB
  0
TABLE
  2
APPID
  5
E457
330
0
100
AcDbSymbolTable
 70
     3
  0
APPID
  5
E460
330
E457
100
AcDbSymbolTableRecord
100
AcDbRegAppTableRecord
  2
ACAD
 70
     0
  0
APPID
  5
E6DD
330
E457
100
AcDbSymbolTableRecord
100
AcDbRegAppTableRecord
  2
ACAD_NAV_VCDISPLAY
 70
     0
  0
APPID
  5
E716
330
E457
100
AcDbSymbolTableRecord
100
AcDbRegAppTableRecord
  2
ACAD_MLEADERVER
 70
     0
  0
ENDTAB
  0
TABLE
  2
DIMSTYLE
  5
E458
330
0
100
AcDbSymbolTable
 70
     1
100
AcDbDimStyleTable
 71
     0
  0
DIMSTYLE
105
E47E
330
E458
100
AcDbSymbolTableRecord
100
AcDbDimStyleTableRecord
  2
STANDARD
 70
     0
 41
3.0
 42
1.0
 43
10.0
 44
1.0
 73
     0
 74
     0
 77
     3
 78
     8
140
3.2
141
0.0
147
1.0
172
     1
173
     1
284
     8
285
     8
286
     8
340
E45F
  0
ENDTAB
  0
TABLE
  2
BLOCK_RECORD
  5
E44F
330
0
100
AcDbSymbolTable
 70
     0
  0
BLOCK_RECORD
  5
E46C
102
{ACAD_XDICTIONARY
360
E66B
102
}
330
E44F
100
AcDbSymbolTableRecord
100
AcDbBlockTableRecord
  2
*MODEL_SPACE
340
E6BF
  0
BLOCK_RECORD
  5
E468
102
{ACAD_XDICTIONARY
360
E669
102
}
330
E44F
100
AcDbSymbolTableRecord
100
AcDbBlockTableRecord
  2
*PAPER_SPACE
340
E6C0
  0
ENDTAB
  0
ENDSEC
  0
SECTION
  2
BLOCKS
  0
BLOCK
  5
E46D
330
E46C
100
AcDbEntity
  8
0
100
AcDbBlockBegin
  2
*MODEL_SPACE
 70
     0
 10
0.0
 20
0.0
 30
0.0
  3
*MODEL_SPACE
  1

  0
ENDBLK
  5
E46E
330
E46C
100
AcDbEntity
  8
0
100
AcDbBlockEnd
  0
BLOCK
  5
E469
330
E468
100
AcDbEntity
 67
     1
  8
0
100
AcDbBlockBegin
  2
*PAPER_SPACE
 70
     0
 10
0.0
 20
0.0
 30
0.0
  3
*PAPER_SPACE
  1

  0
ENDBLK
  5
E46A
330
E468
100
AcDbEntity
 67
     1
  8
0
100
AcDbBlockEnd
  0
ENDSEC
  0
SECTION
  2
ENTITIES
  0
TEXT
  5
E486
330
E46C
100
AcDbEntity
  8
6
  6
Continuous
100
AcDbText
 10
27.97945
 20
10.0487
 30
0.0
 40
1.399999999999999
  1
6
 41
1.069393
100
AcDbText
  0
TEXT
  5
E487
330
E46C
100
AcDbEntity
  8
1
  6
Continuous
100
AcDbText
 10
17.97945
 20
10.0487
 30
0.0
 40
1.399999999999999
  1
1
 41
1.069393
100
AcDbText
  0
TEXT
  5
E488
330
E46C
100
AcDbEntity
  8
1
  6
Continuous
100
AcDbText
 10
9.99995
 20
10.0
 30
0.0
 40
1.399999999999999
  1
LAYER
 41
1.009912999999997
100
AcDbText
  0
TEXT
  5
E489
330
E46C
100
AcDbEntity
  8
2
  6
Continuous
100
AcDbText
 10
19.97944999999998
 20
10.0487
 30
0.0
 40
1.399999999999999
  1
2
 41
1.069393
100
AcDbText
  0
TEXT
  5
E48A
330
E46C
100
AcDbEntity
  8
3
  6
DASHED
100
AcDbText
 10
21.97945
 20
10.0487
 30
0.0
 40
1.399999999999999
  1
3
 41
1.069393
100
AcDbText
  0
TEXT
  5
E48B
330
E46C
100
AcDbEntity
  8
4
  6
CENTER
100
AcDbText
 10
23.97944999999999
 20
10.0487
 30
0.0
 40
1.399999999999999
  1
4
 41
1.069393
100
AcDbText
  0
TEXT
  5
E48C
330
E46C
100
AcDbEntity
  8
5
  6
PHANTOM
100
AcDbText
 10
25.97945
 20
10.0487
 30
0.0
 40
1.399999999999999
  1
5
 41
1.069393
100
AcDbText
  0
TEXT
  5
E48D
330
E46C
100
AcDbEntity
  8
7
  6
Continuous
100
AcDbText
 10
10.00005
 20
26.0
 30
0.0
 40
3.0
  1
CODE No.5867
 41
1.003962999999999
100
AcDbText
  0
TEXT
  5
E48E
330
E46C
100
AcDbEntity
  8
7
  6
Continuous
100
AcDbText
 10
10.00005
 20
18.0
 30
0.0
 40
3.0
  1
TYPE No.TM-14-2
 41
1.002350999999998
100
AcDbText
  0
TEXT
  5
E48F
330
E46C
100
AcDbEntity
  8
7
  6
Continuous
100
AcDbText
 10
29.97944999999999
 20
10.0487
 30
0.0
 40
1.399999999999999
  1
7
 41
1.069393
100
AcDbText
  0
CIRCLE
  5
E490
330
E46C
100
AcDbEntity
  8
1
  6
Continuous
100
AcDbCircle
 10
37.4
 20
91.5
 30
0.0
 40
1.6
  0
CIRCLE
  5
E491
330
E46C
100
AcDbEntity
  8
1
  6
Continuous
100
AcDbCircle
 10
41.9
 20
91.5
 30
0.0
 40
1.6
  0
CIRCLE
  5
E492
330
E46C
100
AcDbEntity
  8
1
  6
Continuous
100
AcDbCircle
 10
46.39999999999999
 20
91.5
 30
0.0
 40
1.6
  0
CIRCLE
  5
E493
330
E46C
100
AcDbEntity
  8
1
  6
Continuous
100
AcDbCircle
 10
50.89999999999999
 20
91.5
 30
0.0
 40
1.6
  0
CIRCLE
  5
E494
330
E46C
100
AcDbEntity
  8
1
  6
Continuous
100
AcDbCircle
 10
55.4
 20
91.5
 30
0.0
 40
1.6
  0
CIRCLE
  5
E495
330
E46C
100
AcDbEntity
  8
1
  6
Continuous
100
AcDbCircle
 10
59.9
 20
91.5
 30
0.0
 40
1.6
  0
LINE
  5
E496
330
E46C
100
AcDbEntity
  8
1
  6
Continuous
100
AcDbLine
 10
39.467793
 20
91.90000000000001
 30
0.0
 11
40.350807
 21
91.90000000000001
 31
0.0
  0
LINE
  5
E497
330
E46C
100
AcDbEntity
  8
1
  6
Continuous
100
AcDbLine
 10
39.467793
 20
91.09999999999999
 30
0.0
 11
40.350807
 21
91.09999999999999
 31
0.0
  0
LINE
  5
E498
330
E46C
100
AcDbEntity
  8
1
  6
Continuous
100
AcDbLine
 10
43.44919299999999
 20
91.90000000000001
 30
0.0
 11
44.850807
 21
91.90000000000001
 31
0.0
  0
LINE
  5
E499
330
E46C
100
AcDbEntity
  8
1
  6
Continuous
100
AcDbLine
 10
43.44919299999999
 20
91.09999999999999
 30
0.0
 11
44.850807
 21
91.09999999999999
 31
0.0
  0
LINE
  5
E49A
330
E46C
100
AcDbEntity
  8
1
  6
Continuous
100
AcDbLine
 10
47.949193
 20
91.90000000000001
 30
0.0
 11
49.350807
 21
91.90000000000001
 31
0.0
  0
LINE
  5
E49B
330
E46C
100
AcDbEntity
  8
1
  6
Continuous
100
AcDbLine
 10
47.949193
 20
91.09999999999999
 30
0.0
 11
49.350807
 21
91.09999999999999
 31
0.0
  0
LINE
  5
E49C
330
E46C
100
AcDbEntity
  8
1
  6
Continuous
100
AcDbLine
 10
52.44919300000001
 20
91.90000000000001
 30
0.0
 11
53.85080699999999
 21
91.90000000000001
 31
0.0
  0
LINE
  5
E49D
330
E46C
100
AcDbEntity
  8
1
  6
Continuous
100
AcDbLine
 10
52.44919300000001
 20
91.09999999999999
 30
0.0
 11
53.85080699999999
 21
91.09999999999999
 31
0.0
  0
LINE
  5
E49E
330
E46C
100
AcDbEntity
  8
1
  6
Continuous
100
AcDbLine
 10
56.94919300000001
 20
91.90000000000001
 30
0.0
 11
58.35080699999998
 21
91.90000000000001
 31
0.0
  0
LINE
  5
E49F
330
E46C
100
AcDbEntity
  8
1
  6
Continuous
100
AcDbLine
 10
56.94919300000001
 20
91.09999999999999
 30
0.0
 11
58.35080699999998
 21
91.09999999999999
 31
0.0
  0
CIRCLE
  5
E4A0
330
E46C
100
AcDbEntity
  8
1
  6
Continuous
100
AcDbCircle
 10
68.9
 20
91.5
 30
0.0
 40
1.6
  0
LINE
  5
E4A1
330
E46C
100
AcDbEntity
  8
1
  6
Continuous
100
AcDbLine
 10
65.94919299999999
 20
91.09999999999999
 30
0.0
 11
67.35080699999999
 21
91.09999999999999
 31
0.0
  0
LINE
  5
E4A2
330
E46C
100
AcDbEntity
  8
1
  6
Continuous
100
AcDbLine
 10
65.94919299999999
 20
91.90000000000001
 30
0.0
 11
67.35080699999999
 21
91.90000000000001
 31
0.0
  0
CIRCLE
  5
E4A3
330
E46C
100
AcDbEntity
  8
1
  6
Continuous
100
AcDbCircle
 10
64.40000000000001
 20
91.5
 30
0.0
 40
1.6
  0
CIRCLE
  5
E4A4
330
E46C
100
AcDbEntity
  8
1
  6
Continuous
100
AcDbCircle
 10
82.4
 20
91.5
 30
0.0
 40
1.6
  0
LINE
  5
E4A5
330
E46C
100
AcDbEntity
  8
1
  6
Continuous
100
AcDbLine
 10
79.44919299999998
 20
91.09999999999999
 30
0.0
 11
80.85080699999997
 21
91.09999999999999
 31
0.0
  0
LINE
  5
E4A6
330
E46C
100
AcDbEntity
  8
1
  6
Continuous
100
AcDbLine
 10
79.44919299999998
 20
91.90000000000001
 30
0.0
 11
80.85080699999997
 21
91.90000000000001
 31
0.0
  0
LINE
  5
E4A7
330
E46C
100
AcDbEntity
  8
1
  6
Continuous
100
AcDbLine
 10
74.94919299999998
 20
91.09999999999999
 30
0.0
 11
76.35080699999999
 21
91.09999999999999
 31
0.0
  0
LINE
  5
E4A8
330
E46C
100
AcDbEntity
  8
1
  6
Continuous
100
AcDbLine
 10
74.94919299999998
 20
91.90000000000001
 30
0.0
 11
76.35080699999999
 21
91.90000000000001
 31
0.0
  0
LINE
  5
E4A9
330
E46C
100
AcDbEntity
  8
1
  6
Continuous
100
AcDbLine
 10
70.449193
 20
91.09999999999999
 30
0.0
 11
71.85080699999997
 21
91.09999999999999
 31
0.0
  0
LINE
  5
E4AA
330
E46C
100
AcDbEntity
  8
1
  6
Continuous
100
AcDbLine
 10
70.449193
 20
91.90000000000001
 30
0.0
 11
71.85080699999997
 21
91.90000000000001
 31
0.0
  0
CIRCLE
  5
E4AB
330
E46C
100
AcDbEntity
  8
1
  6
Continuous
100
AcDbCircle
 10
77.9
 20
91.5
 30
0.0
 40
1.6
  0
CIRCLE
  5
E4AC
330
E46C
100
AcDbEntity
  8
1
  6
Continuous
100
AcDbCircle
 10
73.4
 20
91.5
 30
0.0
 40
1.6
  0
LINE
  5
E4AD
330
E46C
100
AcDbEntity
  8
1
  6
Continuous
100
AcDbLine
 10
83.94919299999997
 20
91.09999999999999
 30
0.0
 11
85.35080699999998
 21
91.09999999999999
 31
0.0
  0
LINE
  5
E4AE
330
E46C
100
AcDbEntity
  8
1
  6
Continuous
100
AcDbLine
 10
83.94919299999997
 20
91.90000000000001
 30
0.0
 11
85.35080699999998
 21
91.90000000000001
 31
0.0
  0
CIRCLE
  5
E4AF
330
E46C
100
AcDbEntity
  8
1
  6
Continuous
100
AcDbCircle
 10
86.90000000000003
 20
91.5
 30
0.0
 40
1.6
  0
CIRCLE
  5
E4B0
330
E46C
100
AcDbEntity
  8
1
  6
Continuous
100
AcDbCircle
 10
127.4
 20
91.5
 30
0.0
 40
1.6
  0
CIRCLE
  5
E4B1
330
E46C
100
AcDbEntity
  8
1
  6
Continuous
100
AcDbCircle
 10
95.90000000000001
 20
91.5
 30
0.0
 40
1.6
  0
LINE
  5
E4B2
330
E46C
100
AcDbEntity
  8
1
  6
Continuous
100
AcDbLine
 10
92.94919300000001
 20
91.09999999999999
 30
0.0
 11
94.35080699999996
 21
91.09999999999999
 31
0.0
  0
LINE
  5
E4B3
330
E46C
100
AcDbEntity
  8
1
  6
Continuous
100
AcDbLine
 10
92.94919300000001
 20
91.90000000000001
 30
0.0
 11
94.35080699999996
 21
91.90000000000001
 31
0.0
  0
CIRCLE
  5
E4B4
330
E46C
100
AcDbEntity
  8
1
  6
Continuous
100
AcDbCircle
 10
91.4
 20
91.5
 30
0.0
 40
1.6
  0
CIRCLE
  5
E4B5
330
E46C
100
AcDbEntity
  8
1
  6
Continuous
100
AcDbCircle
 10
109.4
 20
91.5
 30
0.0
 40
1.6
  0
LINE
  5
E4B6
330
E46C
100
AcDbEntity
  8
1
  6
Continuous
100
AcDbLine
 10
106.4491929999998
 20
91.09999999999999
 30
0.0
 11
107.850807
 21
91.09999999999999
 31
0.0
  0
LINE
  5
E4B7
330
E46C
100
AcDbEntity
  8
1
  6
Continuous
100
AcDbLine
 10
106.4491929999998
 20
91.90000000000001
 30
0.0
 11
107.850807
 21
91.90000000000001
 31
0.0
  0
LINE
  5
E4B8
330
E46C
100
AcDbEntity
  8
1
  6
Continuous
100
AcDbLine
 10
101.949193
 20
91.09999999999999
 30
0.0
 11
103.3508069999999
 21
91.09999999999999
 31
0.0
  0
LINE
  5
E4B9
330
E46C
100
AcDbEntity
  8
1
  6
Continuous
100
AcDbLine
 10
101.949193
 20
91.90000000000001
 30
0.0
 11
103.3508069999999
 21
91.90000000000001
 31
0.0
  0
LINE
  5
E4BA
330
E46C
100
AcDbEntity
  8
1
  6
Continuous
100
AcDbLine
 10
97.44919299999999
 20
91.09999999999999
 30
0.0
 11
98.85080700000001
 21
91.09999999999999
 31
0.0
  0
LINE
  5
E4BB
330
E46C
100
AcDbEntity
  8
1
  6
Continuous
100
AcDbLine
 10
97.44919299999999
 20
91.90000000000001
 30
0.0
 11
98.85080700000001
 21
91.90000000000001
 31
0.0
  0
CIRCLE
  5
E4BC
330
E46C
100
AcDbEntity
  8
1
  6
Continuous
100
AcDbCircle
 10
104.9
 20
91.5
 30
0.0
 40
1.6
  0
CIRCLE
  5
E4BD
330
E46C
100
AcDbEntity
  8
1
  6
Continuous
100
AcDbCircle
 10
100.4
 20
91.5
 30
0.0
 40
1.6
  0
LINE
  5
E4BE
330
E46C
100
AcDbEntity
  8
1
  6
Continuous
100
AcDbLine
 10
124.4491929999998
 20
91.90000000000001
 30
0.0
 11
125.8508069999999
 21
91.90000000000001
 31
0.0
  0
LINE
  5
E4BF
330
E46C
100
AcDbEntity
  8
1
  6
Continuous
100
AcDbLine
 10
124.4491929999998
 20
91.09999999999999
 30
0.0
 11
125.8508069999999
 21
91.09999999999999
 31
0.0
  0
CIRCLE
  5
E4C0
330
E46C
100
AcDbEntity
  8
1
  6
Continuous
100
AcDbCircle
 10
118.4
 20
91.5
 30
0.0
 40
1.6
  0
LINE
  5
E4C1
330
E46C
100
AcDbEntity
  8
1
  6
Continuous
100
AcDbLine
 10
119.9491929999998
 20
91.90000000000001
 30
0.0
 11
121.350807
 21
91.90000000000001
 31
0.0
  0
LINE
  5
E4C2
330
E46C
100
AcDbEntity
  8
1
  6
Continuous
100
AcDbLine
 10
119.9491929999998
 20
91.09999999999999
 30
0.0
 11
121.350807
 21
91.09999999999999
 31
0.0
  0
CIRCLE
  5
E4C3
330
E46C
100
AcDbEntity
  8
1
  6
Continuous
100
AcDbCircle
 10
122.9
 20
91.5
 30
0.0
 40
1.6
  0
LINE
  5
E4C4
330
E46C
100
AcDbEntity
  8
1
  6
Continuous
100
AcDbLine
 10
110.9491929999998
 20
91.09999999999999
 30
0.0
 11
112.3508069999999
 21
91.09999999999999
 31
0.0
  0
LINE
  5
E4C5
330
E46C
100
AcDbEntity
  8
1
  6
Continuous
100
AcDbLine
 10
110.9491929999998
 20
91.90000000000001
 30
0.0
 11
112.3508069999999
 21
91.90000000000001
 31
0.0
  0
CIRCLE
  5
E4C6
330
E46C
100
AcDbEntity
  8
1
  6
Continuous
100
AcDbCircle
 10
113.9
 20
91.5
 30
0.0
 40
1.6
  0
CIRCLE
  5
E4C7
330
E46C
100
AcDbEntity
  8
1
  6
Continuous
100
AcDbCircle
 10
140.8999999999998
 20
91.5
 30
0.0
 40
1.6
  0
LINE
  5
E4C8
330
E46C
100
AcDbEntity
  8
1
  6
Continuous
100
AcDbLine
 10
137.9491929999998
 20
91.90000000000001
 30
0.0
 11
139.3508069999998
 21
91.90000000000001
 31
0.0
  0
LINE
  5
E4C9
330
E46C
100
AcDbEntity
  8
1
  6
Continuous
100
AcDbLine
 10
137.9491929999998
 20
91.09999999999999
 30
0.0
 11
139.3508069999998
 21
91.09999999999999
 31
0.0
  0
CIRCLE
  5
E4CA
330
E46C
100
AcDbEntity
  8
1
  6
Continuous
100
AcDbCircle
 10
131.9
 20
91.5
 30
0.0
 40
1.6
  0
LINE
  5
E4CB
330
E46C
100
AcDbEntity
  8
1
  6
Continuous
100
AcDbLine
 10
128.9491929999998
 20
91.90000000000001
 30
0.0
 11
130.350807
 21
91.90000000000001
 31
0.0
  0
LINE
  5
E4CC
330
E46C
100
AcDbEntity
  8
1
  6
Continuous
100
AcDbLine
 10
128.9491929999998
 20
91.09999999999999
 30
0.0
 11
130.350807
 21
91.09999999999999
 31
0.0
  0
LINE
  5
E4CD
330
E46C
100
AcDbEntity
  8
1
  6
Continuous
100
AcDbLine
 10
133.4491929999997
 20
91.90000000000001
 30
0.0
 11
134.850807
 21
91.90000000000001
 31
0.0
  0
LINE
  5
E4CE
330
E46C
100
AcDbEntity
  8
1
  6
Continuous
100
AcDbLine
 10
133.4491929999997
 20
91.09999999999999
 30
0.0
 11
134.850807
 21
91.09999999999999
 31
0.0
  0
CIRCLE
  5
E4CF
330
E46C
100
AcDbEntity
  8
1
  6
Continuous
100
AcDbCircle
 10
136.4
 20
91.5
 30
0.0
 40
1.6
  0
CIRCLE
  5
E4D0
330
E46C
100
AcDbEntity
  8
1
  6
Continuous
100
AcDbCircle
 10
181.4
 20
91.5
 30
0.0
 40
1.6
  0
CIRCLE
  5
E4D1
330
E46C
100
AcDbEntity
  8
1
  6
Continuous
100
AcDbCircle
 10
149.9
 20
91.5
 30
0.0
 40
1.6
  0
LINE
  5
E4D2
330
E46C
100
AcDbEntity
  8
1
  6
Continuous
100
AcDbLine
 10
146.9491929999998
 20
91.09999999999999
 30
0.0
 11
148.350807
 21
91.09999999999999
 31
0.0
  0
LINE
  5
E4D3
330
E46C
100
AcDbEntity
  8
1
  6
Continuous
100
AcDbLine
 10
146.9491929999998
 20
91.90000000000001
 30
0.0
 11
148.350807
 21
91.90000000000001
 31
0.0
  0
CIRCLE
  5
E4D4
330
E46C
100
AcDbEntity
  8
1
  6
Continuous
100
AcDbCircle
 10
145.4
 20
91.5
 30
0.0
 40
1.6
  0
CIRCLE
  5
E4D5
330
E46C
100
AcDbEntity
  8
1
  6
Continuous
100
AcDbCircle
 10
163.4
 20
91.5
 30
0.0
 40
1.6
  0
LINE
  5
E4D6
330
E46C
100
AcDbEntity
  8
1
  6
Continuous
100
AcDbLine
 10
160.4491929999998
 20
91.09999999999999
 30
0.0
 11
161.850807
 21
91.09999999999999
 31
0.0
  0
LINE
  5
E4D7
330
E46C
100
AcDbEntity
  8
1
  6
Continuous
100
AcDbLine
 10
160.4491929999998
 20
91.90000000000001
 30
0.0
 11
161.850807
 21
91.90000000000001
 31
0.0
  0
LINE
  5
E4D8
330
E46C
100
AcDbEntity
  8
1
  6
Continuous
100
AcDbLine
 10
155.9491929999998
 20
91.09999999999999
 30
0.0
 11
157.350807
 21
91.09999999999999
 31
0.0
  0
LINE
  5
E4D9
330
E46C
100
AcDbEntity
  8
1
  6
Continuous
100
AcDbLine
 10
155.9491929999998
 20
91.90000000000001
 30
0.0
 11
157.350807
 21
91.90000000000001
 31
0.0
  0
LINE
  5
E4DA
330
E46C
100
AcDbEntity
  8
1
  6
Continuous
100
AcDbLine
 10
151.4491929999998
 20
91.09999999999999
 30
0.0
 11
152.8508069999998
 21
91.09999999999999
 31
0.0
  0
LINE
  5
E4DB
330
E46C
100
AcDbEntity
  8
1
  6
Continuous
100
AcDbLine
 10
151.4491929999998
 20
91.90000000000001
 30
0.0
 11
152.8508069999998
 21
91.90000000000001
 31
0.0
  0
CIRCLE
  5
E4DC
330
E46C
100
AcDbEntity
  8
1
  6
Continuous
100
AcDbCircle
 10
158.9
 20
91.5
 30
0.0
 40
1.6
  0
CIRCLE
  5
E4DD
330
E46C
100
AcDbEntity
  8
1
  6
Continuous
100
AcDbCircle
 10
154.4
 20
91.5
 30
0.0
 40
1.6
  0
LINE
  5
E4DE
330
E46C
100
AcDbEntity
  8
1
  6
Continuous
100
AcDbLine
 10
178.4491929999999
 20
91.90000000000001
 30
0.0
 11
179.850807
 21
91.90000000000001
 31
0.0
  0
LINE
  5
E4DF
330
E46C
100
AcDbEntity
  8
1
  6
Continuous
100
AcDbLine
 10
178.4491929999999
 20
91.09999999999999
 30
0.0
 11
179.850807
 21
91.09999999999999
 31
0.0
  0
CIRCLE
  5
E4E0
330
E46C
100
AcDbEntity
  8
1
  6
Continuous
100
AcDbCircle
 10
172.4
 20
91.5
 30
0.0
 40
1.6
  0
LINE
  5
E4E1
330
E46C
100
AcDbEntity
  8
1
  6
Continuous
100
AcDbLine
 10
173.9491929999998
 20
91.90000000000001
 30
0.0
 11
175.350807
 21
91.90000000000001
 31
0.0
  0
LINE
  5
E4E2
330
E46C
100
AcDbEntity
  8
1
  6
Continuous
100
AcDbLine
 10
173.9491929999998
 20
91.09999999999999
 30
0.0
 11
175.350807
 21
91.09999999999999
 31
0.0
  0
CIRCLE
  5
E4E3
330
E46C
100
AcDbEntity
  8
1
  6
Continuous
100
AcDbCircle
 10
176.9
 20
91.5
 30
0.0
 40
1.6
  0
LINE
  5
E4E4
330
E46C
100
AcDbEntity
  8
1
  6
Continuous
100
AcDbLine
 10
164.9491929999998
 20
91.09999999999999
 30
0.0
 11
166.3508069999998
 21
91.09999999999999
 31
0.0
  0
LINE
  5
E4E5
330
E46C
100
AcDbEntity
  8
1
  6
Continuous
100
AcDbLine
 10
164.9491929999998
 20
91.90000000000001
 30
0.0
 11
166.3508069999998
 21
91.90000000000001
 31
0.0
  0
CIRCLE
  5
E4E6
330
E46C
100
AcDbEntity
  8
1
  6
Continuous
100
AcDbCircle
 10
167.9
 20
91.5
 30
0.0
 40
1.6
  0
CIRCLE
  5
E4E7
330
E46C
100
AcDbEntity
  8
1
  6
Continuous
100
AcDbCircle
 10
212.9
 20
91.5
 30
0.0
 40
1.6
  0
CIRCLE
  5
E4E8
330
E46C
100
AcDbEntity
  8
1
  6
Continuous
100
AcDbCircle
 10
194.9
 20
91.5
 30
0.0
 40
1.6
  0
LINE
  5
E4E9
330
E46C
100
AcDbEntity
  8
1
  6
Continuous
100
AcDbLine
 10
191.9491929999999
 20
91.90000000000001
 30
0.0
 11
193.350807
 21
91.90000000000001
 31
0.0
  0
LINE
  5
E4EA
330
E46C
100
AcDbEntity
  8
1
  6
Continuous
100
AcDbLine
 10
191.9491929999999
 20
91.09999999999999
 30
0.0
 11
193.350807
 21
91.09999999999999
 31
0.0
  0
CIRCLE
  5
E4EB
330
E46C
100
AcDbEntity
  8
1
  6
Continuous
100
AcDbCircle
 10
185.8999999999998
 20
91.5
 30
0.0
 40
1.6
  0
LINE
  5
E4EC
330
E46C
100
AcDbEntity
  8
1
  6
Continuous
100
AcDbLine
 10
182.9491929999998
 20
91.90000000000001
 30
0.0
 11
184.350807
 21
91.90000000000001
 31
0.0
  0
LINE
  5
E4ED
330
E46C
100
AcDbEntity
  8
1
  6
Continuous
100
AcDbLine
 10
182.9491929999998
 20
91.09999999999999
 30
0.0
 11
184.350807
 21
91.09999999999999
 31
0.0
  0
LINE
  5
E4EE
330
E46C
100
AcDbEntity
  8
1
  6
Continuous
100
AcDbLine
 10
187.4491929999998
 20
91.90000000000001
 30
0.0
 11
188.850807
 21
91.90000000000001
 31
0.0
  0
LINE
  5
E4EF
330
E46C
100
AcDbEntity
  8
1
  6
Continuous
100
AcDbLine
 10
187.4491929999998
 20
91.09999999999999
 30
0.0
 11
188.850807
 21
91.09999999999999
 31
0.0
  0
CIRCLE
  5
E4F0
330
E46C
100
AcDbEntity
  8
1
  6
Continuous
100
AcDbCircle
 10
190.4
 20
91.5
 30
0.0
 40
1.6
  0
CIRCLE
  5
E4F1
330
E46C
100
AcDbEntity
  8
1
  6
Continuous
100
AcDbCircle
 10
208.4
 20
91.5
 30
0.0
 40
1.6
  0
LINE
  5
E4F2
330
E46C
100
AcDbEntity
  8
1
  6
Continuous
100
AcDbLine
 10
205.4491929999998
 20
91.90000000000001
 30
0.0
 11
206.850807
 21
91.90000000000001
 31
0.0
  0
LINE
  5
E4F3
330
E46C
100
AcDbEntity
  8
1
  6
Continuous
100
AcDbLine
 10
205.4491929999998
 20
91.09999999999999
 30
0.0
 11
206.850807
 21
91.09999999999999
 31
0.0
  0
LINE
  5
E4F4
330
E46C
100
AcDbEntity
  8
1
  6
Continuous
100
AcDbLine
 10
209.949193
 20
91.90000000000001
 30
0.0
 11
211.3508069999999
 21
91.90000000000001
 31
0.0
  0
LINE
  5
E4F5
330
E46C
100
AcDbEntity
  8
1
  6
Continuous
100
AcDbLine
 10
209.949193
 20
91.09999999999999
 30
0.0
 11
211.3508069999999
 21
91.09999999999999
 31
0.0
  0
CIRCLE
  5
E4F6
330
E46C
100
AcDbEntity
  8
1
  6
Continuous
100
AcDbCircle
 10
199.3999999999998
 20
91.5
 30
0.0
 40
1.6
  0
LINE
  5
E4F7
330
E46C
100
AcDbEntity
  8
1
  6
Continuous
100
AcDbLine
 10
200.9491929999998
 20
91.90000000000001
 30
0.0
 11
202.350807
 21
91.90000000000001
 31
0.0
  0
LINE
  5
E4F8
330
E46C
100
AcDbEntity
  8
1
  6
Continuous
100
AcDbLine
 10
200.9491929999998
 20
91.09999999999999
 30
0.0
 11
202.350807
 21
91.09999999999999
 31
0.0
  0
CIRCLE
  5
E4F9
330
E46C
100
AcDbEntity
  8
1
  6
Continuous
100
AcDbCircle
 10
203.9
 20
91.5
 30
0.0
 40
1.6
  0
LINE
  5
E4FA
330
E46C
100
AcDbEntity
  8
1
  6
Continuous
100
AcDbLine
 10
218.9491929999999
 20
91.90000000000001
 30
0.0
 11
219.8322069999999
 21
91.90000000000001
 31
0.0
  0
LINE
  5
E4FB
330
E46C
100
AcDbEntity
  8
1
  6
Continuous
100
AcDbLine
 10
218.9491929999999
 20
91.09999999999999
 30
0.0
 11
219.8322069999999
 21
91.09999999999999
 31
0.0
  0
LINE
  5
E4FC
330
E46C
100
AcDbEntity
  8
1
  6
Continuous
100
AcDbLine
 10
196.4491929999999
 20
91.90000000000001
 30
0.0
 11
197.850807
 21
91.90000000000001
 31
0.0
  0
LINE
  5
E4FD
330
E46C
100
AcDbEntity
  8
1
  6
Continuous
100
AcDbLine
 10
196.4491929999999
 20
91.09999999999999
 30
0.0
 11
197.850807
 21
91.09999999999999
 31
0.0
  0
LINE
  5
E4FE
330
E46C
100
AcDbEntity
  8
1
  6
Continuous
100
AcDbLine
 10
169.4491929999998
 20
91.90000000000001
 30
0.0
 11
170.850807
 21
91.90000000000001
 31
0.0
  0
LINE
  5
E4FF
330
E46C
100
AcDbEntity
  8
1
  6
Continuous
100
AcDbLine
 10
169.4491929999998
 20
91.09999999999999
 30
0.0
 11
170.850807
 21
91.09999999999999
 31
0.0
  0
LINE
  5
E500
330
E46C
100
AcDbEntity
  8
1
  6
Continuous
100
AcDbLine
 10
142.4491929999998
 20
91.90000000000001
 30
0.0
 11
143.850807
 21
91.90000000000001
 31
0.0
  0
LINE
  5
E501
330
E46C
100
AcDbEntity
  8
1
  6
Continuous
100
AcDbLine
 10
142.4491929999998
 20
91.09999999999999
 30
0.0
 11
143.850807
 21
91.09999999999999
 31
0.0
  0
LINE
  5
E502
330
E46C
100
AcDbEntity
  8
1
  6
Continuous
100
AcDbLine
 10
115.449193
 20
91.90000000000001
 30
0.0
 11
116.850807
 21
91.90000000000001
 31
0.0
  0
LINE
  5
E503
330
E46C
100
AcDbEntity
  8
1
  6
Continuous
100
AcDbLine
 10
115.449193
 20
91.09999999999999
 30
0.0
 11
116.850807
 21
91.09999999999999
 31
0.0
  0
LINE
  5
E504
330
E46C
100
AcDbEntity
  8
1
  6
Continuous
100
AcDbLine
 10
88.44919299999999
 20
91.90000000000001
 30
0.0
 11
89.85080700000002
 21
91.90000000000001
 31
0.0
  0
LINE
  5
E505
330
E46C
100
AcDbEntity
  8
1
  6
Continuous
100
AcDbLine
 10
88.44919299999999
 20
91.09999999999999
 30
0.0
 11
89.85080700000002
 21
91.09999999999999
 31
0.0
  0
LINE
  5
E506
330
E46C
100
AcDbEntity
  8
1
  6
Continuous
100
AcDbLine
 10
61.44919300000001
 20
91.90000000000001
 30
0.0
 11
62.85080699999999
 21
91.90000000000001
 31
0.0
  0
LINE
  5
E507
330
E46C
100
AcDbEntity
  8
1
  6
Continuous
100
AcDbLine
 10
61.44919300000001
 20
91.09999999999999
 30
0.0
 11
62.85080699999999
 21
91.09999999999999
 31
0.0
  0
LINE
  5
E508
330
E46C
100
AcDbEntity
  8
4
  6
CENTER
100
AcDbLine
 10
37.4
 20
88.29999999999998
 30
0.0
 11
37.4
 21
94.7
 31
0.0
  0
CIRCLE
  5
E509
330
E46C
100
AcDbEntity
  8
1
  6
Continuous
100
AcDbCircle
 10
217.3999999999999
 20
91.5
 30
0.0
 40
1.6
  0
LINE
  5
E50A
330
E46C
100
AcDbEntity
  8
1
  6
Continuous
100
AcDbLine
 10
214.449193
 20
91.90000000000001
 30
0.0
 11
215.8508069999999
 21
91.90000000000001
 31
0.0
  0
LINE
  5
E50B
330
E46C
100
AcDbEntity
  8
1
  6
Continuous
100
AcDbLine
 10
214.449193
 20
91.09999999999999
 30
0.0
 11
215.8508069999999
 21
91.09999999999999
 31
0.0
  0
LINE
  5
E50C
330
E46C
100
AcDbEntity
  8
4
  6
CENTER
100
AcDbLine
 10
28.5
 20
88.0
 30
0.0
 11
28.5
 21
91.0
 31
0.0
  0
LINE
  5
E50D
330
E46C
100
AcDbEntity
  8
4
  6
CENTER
100
AcDbLine
 10
37.0
 20
96.5
 30
0.0
 11
37.0
 21
86.5
 31
0.0
  0
LINE
  5
E50E
330
E46C
100
AcDbEntity
  8
4
  6
CENTER
100
AcDbLine
 10
227.3
 20
91.5
 30
0.0
 11
32.0
 21
91.5
 31
0.0
  0
LINE
  5
E50F
330
E46C
100
AcDbEntity
  8
1
  6
Continuous
100
AcDbLine
 10
25.0
 20
89.50000000000001
 30
0.0
 11
37.0
 21
89.50000000000001
 31
0.0
  0
LINE
  5
E510
330
E46C
100
AcDbEntity
  8
1
  6
Continuous
100
AcDbLine
 10
25.0
 20
90.0
 30
0.0
 11
33.53589799999999
 21
90.0
 31
0.0
  0
LINE
  5
E511
330
E46C
100
AcDbEntity
  8
1
  6
Continuous
100
AcDbLine
 10
25.0
 20
89.0
 30
0.0
 11
37.0
 21
89.0
 31
0.0
  0
LINE
  5
E512
330
E46C
100
AcDbEntity
  8
1
  6
Continuous
100
AcDbLine
 10
25.0
 20
89.0
 30
0.0
 11
25.0
 21
90.0
 31
0.0
  0
ARC
  5
E513
330
E46C
100
AcDbEntity
  8
1
  6
Continuous
100
AcDbCircle
 10
37.0
 20
91.5
 30
0.0
 40
2.0
100
AcDbArc
 50
270.0
 51
188.213211
  0
ARC
  5
E514
330
E46C
100
AcDbEntity
  8
1
  6
Continuous
100
AcDbCircle
 10
33.53589799999999
 20
91.0
 30
0.0
 40
1.0
100
AcDbArc
 50
270.0
 51
8.213210999999997
  0
ARC
  5
E515
330
E46C
100
AcDbEntity
  8
1
  6
Continuous
100
AcDbCircle
 10
33.53589799999999
 20
91.0
 30
0.0
 40
1.5
100
AcDbArc
 50
270.0
 51
8.213210999999997
  0
LINE
  5
E516
330
E46C
100
AcDbEntity
  8
1
  6
Continuous
100
AcDbLine
 10
31.372281
 20
90.0
 30
0.0
 11
31.372281
 21
89.0
 31
0.0
  0
ARC
  5
E517
330
E46C
100
AcDbEntity
  8
1
  6
Continuous
100
AcDbCircle
 10
37.0
 20
91.5
 30
0.0
 40
2.5
100
AcDbArc
 50
270.0
 51
188.213211
  0
LINE
  5
E518
330
E46C
100
AcDbEntity
  8
1
  6
Continuous
100
AcDbLine
 10
121.350807
 20
138.1
 30
0.0
 11
119.9491929999998
 21
138.1
 31
0.0
  0
LINE
  5
E519
330
E46C
100
AcDbEntity
  8
1
  6
Continuous
100
AcDbLine
 10
121.350807
 20
138.9
 30
0.0
 11
119.9491929999998
 21
138.9
 31
0.0
  0
CIRCLE
  5
E51A
330
E46C
100
AcDbEntity
  8
1
  6
Continuous
100
AcDbCircle
 10
185.8999999999998
 20
138.5
 30
0.0
 40
1.6
  0
CIRCLE
  5
E51B
330
E46C
100
AcDbEntity
  8
1
  6
Continuous
100
AcDbCircle
 10
194.9
 20
138.5
 30
0.0
 40
1.6
  0
CIRCLE
  5
E51C
330
E46C
100
AcDbEntity
  8
1
  6
Continuous
100
AcDbCircle
 10
190.4
 20
138.5
 30
0.0
 40
1.6
  0
CIRCLE
  5
E51D
330
E46C
100
AcDbEntity
  8
1
  6
Continuous
100
AcDbCircle
 10
199.3999999999998
 20
138.5
 30
0.0
 40
1.6
  0
CIRCLE
  5
E51E
330
E46C
100
AcDbEntity
  8
1
  6
Continuous
100
AcDbCircle
 10
203.9
 20
138.5
 30
0.0
 40
1.6
  0
CIRCLE
  5
E51F
330
E46C
100
AcDbEntity
  8
1
  6
Continuous
100
AcDbCircle
 10
208.4
 20
138.5
 30
0.0
 40
1.6
  0
CIRCLE
  5
E520
330
E46C
100
AcDbEntity
  8
1
  6
Continuous
100
AcDbCircle
 10
212.9
 20
138.5
 30
0.0
 40
1.6
  0
CIRCLE
  5
E521
330
E46C
100
AcDbEntity
  8
1
  6
Continuous
100
AcDbCircle
 10
217.3999999999999
 20
138.5
 30
0.0
 40
1.6
  0
LINE
  5
E522
330
E46C
100
AcDbEntity
  8
1
  6
Continuous
100
AcDbLine
 10
220.3508069999998
 20
138.1
 30
0.0
 11
218.9491929999999
 21
138.1
 31
0.0
  0
LINE
  5
E523
330
E46C
100
AcDbEntity
  8
1
  6
Continuous
100
AcDbLine
 10
202.350807
 20
138.1
 30
0.0
 11
200.9491929999998
 21
138.1
 31
0.0
  0
LINE
  5
E524
330
E46C
100
AcDbEntity
  8
1
  6
Continuous
100
AcDbLine
 10
206.850807
 20
138.1
 30
0.0
 11
205.4491929999998
 21
138.1
 31
0.0
  0
LINE
  5
E525
330
E46C
100
AcDbEntity
  8
1
  6
Continuous
100
AcDbLine
 10
211.3508069999999
 20
138.1
 30
0.0
 11
209.949193
 21
138.1
 31
0.0
  0
LINE
  5
E526
330
E46C
100
AcDbEntity
  8
1
  6
Continuous
100
AcDbLine
 10
215.8508069999999
 20
138.1
 30
0.0
 11
214.449193
 21
138.1
 31
0.0
  0
LINE
  5
E527
330
E46C
100
AcDbEntity
  8
1
  6
Continuous
100
AcDbLine
 10
197.850807
 20
138.1
 30
0.0
 11
196.4491929999999
 21
138.1
 31
0.0
  0
LINE
  5
E528
330
E46C
100
AcDbEntity
  8
1
  6
Continuous
100
AcDbLine
 10
188.850807
 20
138.1
 30
0.0
 11
187.4491929999998
 21
138.1
 31
0.0
  0
LINE
  5
E529
330
E46C
100
AcDbEntity
  8
1
  6
Continuous
100
AcDbLine
 10
193.350807
 20
138.1
 30
0.0
 11
191.9491929999999
 21
138.1
 31
0.0
  0
LINE
  5
E52A
330
E46C
100
AcDbEntity
  8
1
  6
Continuous
100
AcDbLine
 10
220.3508069999998
 20
138.9
 30
0.0
 11
218.9491929999999
 21
138.9
 31
0.0
  0
LINE
  5
E52B
330
E46C
100
AcDbEntity
  8
1
  6
Continuous
100
AcDbLine
 10
202.350807
 20
138.9
 30
0.0
 11
200.9491929999998
 21
138.9
 31
0.0
  0
LINE
  5
E52C
330
E46C
100
AcDbEntity
  8
1
  6
Continuous
100
AcDbLine
 10
206.850807
 20
138.9
 30
0.0
 11
205.4491929999998
 21
138.9
 31
0.0
  0
LINE
  5
E52D
330
E46C
100
AcDbEntity
  8
1
  6
Continuous
100
AcDbLine
 10
211.3508069999999
 20
138.9
 30
0.0
 11
209.949193
 21
138.9
 31
0.0
  0
LINE
  5
E52E
330
E46C
100
AcDbEntity
  8
1
  6
Continuous
100
AcDbLine
 10
215.8508069999999
 20
138.9
 30
0.0
 11
214.449193
 21
138.9
 31
0.0
  0
LINE
  5
E52F
330
E46C
100
AcDbEntity
  8
1
  6
Continuous
100
AcDbLine
 10
197.850807
 20
138.9
 30
0.0
 11
196.4491929999999
 21
138.9
 31
0.0
  0
LINE
  5
E530
330
E46C
100
AcDbEntity
  8
1
  6
Continuous
100
AcDbLine
 10
188.850807
 20
138.9
 30
0.0
 11
187.4491929999998
 21
138.9
 31
0.0
  0
LINE
  5
E531
330
E46C
100
AcDbEntity
  8
1
  6
Continuous
100
AcDbLine
 10
193.350807
 20
138.9
 30
0.0
 11
191.9491929999999
 21
138.9
 31
0.0
  0
CIRCLE
  5
E532
330
E46C
100
AcDbEntity
  8
1
  6
Continuous
100
AcDbCircle
 10
122.9
 20
138.5
 30
0.0
 40
1.6
  0
CIRCLE
  5
E533
330
E46C
100
AcDbEntity
  8
1
  6
Continuous
100
AcDbCircle
 10
127.4
 20
138.5
 30
0.0
 40
1.6
  0
CIRCLE
  5
E534
330
E46C
100
AcDbEntity
  8
1
  6
Continuous
100
AcDbCircle
 10
145.4
 20
138.5
 30
0.0
 40
1.6
  0
CIRCLE
  5
E535
330
E46C
100
AcDbEntity
  8
1
  6
Continuous
100
AcDbCircle
 10
136.4
 20
138.5
 30
0.0
 40
1.6
  0
CIRCLE
  5
E536
330
E46C
100
AcDbEntity
  8
1
  6
Continuous
100
AcDbCircle
 10
140.8999999999998
 20
138.5
 30
0.0
 40
1.6
  0
CIRCLE
  5
E537
330
E46C
100
AcDbEntity
  8
1
  6
Continuous
100
AcDbCircle
 10
158.9
 20
138.5
 30
0.0
 40
1.6
  0
CIRCLE
  5
E538
330
E46C
100
AcDbEntity
  8
1
  6
Continuous
100
AcDbCircle
 10
154.4
 20
138.5
 30
0.0
 40
1.6
  0
CIRCLE
  5
E539
330
E46C
100
AcDbEntity
  8
1
  6
Continuous
100
AcDbCircle
 10
149.9
 20
138.5
 30
0.0
 40
1.6
  0
CIRCLE
  5
E53A
330
E46C
100
AcDbEntity
  8
1
  6
Continuous
100
AcDbCircle
 10
167.9
 20
138.5
 30
0.0
 40
1.6
  0
CIRCLE
  5
E53B
330
E46C
100
AcDbEntity
  8
1
  6
Continuous
100
AcDbCircle
 10
163.4
 20
138.5
 30
0.0
 40
1.6
  0
CIRCLE
  5
E53C
330
E46C
100
AcDbEntity
  8
1
  6
Continuous
100
AcDbCircle
 10
131.9
 20
138.5
 30
0.0
 40
1.6
  0
CIRCLE
  5
E53D
330
E46C
100
AcDbEntity
  8
1
  6
Continuous
100
AcDbCircle
 10
172.4
 20
138.5
 30
0.0
 40
1.6
  0
CIRCLE
  5
E53E
330
E46C
100
AcDbEntity
  8
1
  6
Continuous
100
AcDbCircle
 10
181.4
 20
138.5
 30
0.0
 40
1.6
  0
CIRCLE
  5
E53F
330
E46C
100
AcDbEntity
  8
1
  6
Continuous
100
AcDbCircle
 10
176.9
 20
138.5
 30
0.0
 40
1.6
  0
LINE
  5
E540
330
E46C
100
AcDbEntity
  8
1
  6
Continuous
100
AcDbLine
 10
152.8508069999998
 20
138.1
 30
0.0
 11
151.4491929999998
 21
138.1
 31
0.0
  0
LINE
  5
E541
330
E46C
100
AcDbEntity
  8
1
  6
Continuous
100
AcDbLine
 10
170.850807
 20
138.1
 30
0.0
 11
169.4491929999998
 21
138.1
 31
0.0
  0
LINE
  5
E542
330
E46C
100
AcDbEntity
  8
1
  6
Continuous
100
AcDbLine
 10
175.350807
 20
138.1
 30
0.0
 11
173.9491929999998
 21
138.1
 31
0.0
  0
LINE
  5
E543
330
E46C
100
AcDbEntity
  8
1
  6
Continuous
100
AcDbLine
 10
184.350807
 20
138.1
 30
0.0
 11
182.9491929999998
 21
138.1
 31
0.0
  0
LINE
  5
E544
330
E46C
100
AcDbEntity
  8
1
  6
Continuous
100
AcDbLine
 10
179.850807
 20
138.1
 30
0.0
 11
178.4491929999999
 21
138.1
 31
0.0
  0
LINE
  5
E545
330
E46C
100
AcDbEntity
  8
1
  6
Continuous
100
AcDbLine
 10
161.850807
 20
138.1
 30
0.0
 11
160.4491929999998
 21
138.1
 31
0.0
  0
LINE
  5
E546
330
E46C
100
AcDbEntity
  8
1
  6
Continuous
100
AcDbLine
 10
157.350807
 20
138.1
 30
0.0
 11
155.9491929999998
 21
138.1
 31
0.0
  0
LINE
  5
E547
330
E46C
100
AcDbEntity
  8
1
  6
Continuous
100
AcDbLine
 10
166.3508069999998
 20
138.1
 30
0.0
 11
164.9491929999998
 21
138.1
 31
0.0
  0
LINE
  5
E548
330
E46C
100
AcDbEntity
  8
1
  6
Continuous
100
AcDbLine
 10
143.850807
 20
138.1
 30
0.0
 11
142.4491929999998
 21
138.1
 31
0.0
  0
LINE
  5
E549
330
E46C
100
AcDbEntity
  8
1
  6
Continuous
100
AcDbLine
 10
148.350807
 20
138.1
 30
0.0
 11
146.9491929999998
 21
138.1
 31
0.0
  0
LINE
  5
E54A
330
E46C
100
AcDbEntity
  8
1
  6
Continuous
100
AcDbLine
 10
139.3508069999998
 20
138.1
 30
0.0
 11
137.9491929999998
 21
138.1
 31
0.0
  0
LINE
  5
E54B
330
E46C
100
AcDbEntity
  8
1
  6
Continuous
100
AcDbLine
 10
125.8508069999999
 20
138.1
 30
0.0
 11
124.4491929999998
 21
138.1
 31
0.0
  0
LINE
  5
E54C
330
E46C
100
AcDbEntity
  8
1
  6
Continuous
100
AcDbLine
 10
130.350807
 20
138.1
 30
0.0
 11
128.9491929999998
 21
138.1
 31
0.0
  0
LINE
  5
E54D
330
E46C
100
AcDbEntity
  8
1
  6
Continuous
100
AcDbLine
 10
134.850807
 20
138.1
 30
0.0
 11
133.4491929999997
 21
138.1
 31
0.0
  0
LINE
  5
E54E
330
E46C
100
AcDbEntity
  8
1
  6
Continuous
100
AcDbLine
 10
152.8508069999998
 20
138.9
 30
0.0
 11
151.4491929999998
 21
138.9
 31
0.0
  0
LINE
  5
E54F
330
E46C
100
AcDbEntity
  8
1
  6
Continuous
100
AcDbLine
 10
170.850807
 20
138.9
 30
0.0
 11
169.4491929999998
 21
138.9
 31
0.0
  0
LINE
  5
E550
330
E46C
100
AcDbEntity
  8
1
  6
Continuous
100
AcDbLine
 10
175.350807
 20
138.9
 30
0.0
 11
173.9491929999998
 21
138.9
 31
0.0
  0
LINE
  5
E551
330
E46C
100
AcDbEntity
  8
1
  6
Continuous
100
AcDbLine
 10
184.350807
 20
138.9
 30
0.0
 11
182.9491929999998
 21
138.9
 31
0.0
  0
LINE
  5
E552
330
E46C
100
AcDbEntity
  8
1
  6
Continuous
100
AcDbLine
 10
179.850807
 20
138.9
 30
0.0
 11
178.4491929999999
 21
138.9
 31
0.0
  0
LINE
  5
E553
330
E46C
100
AcDbEntity
  8
1
  6
Continuous
100
AcDbLine
 10
161.850807
 20
138.9
 30
0.0
 11
160.4491929999998
 21
138.9
 31
0.0
  0
LINE
  5
E554
330
E46C
100
AcDbEntity
  8
1
  6
Continuous
100
AcDbLine
 10
157.350807
 20
138.9
 30
0.0
 11
155.9491929999998
 21
138.9
 31
0.0
  0
LINE
  5
E555
330
E46C
100
AcDbEntity
  8
1
  6
Continuous
100
AcDbLine
 10
166.3508069999998
 20
138.9
 30
0.0
 11
164.9491929999998
 21
138.9
 31
0.0
  0
LINE
  5
E556
330
E46C
100
AcDbEntity
  8
1
  6
Continuous
100
AcDbLine
 10
143.850807
 20
138.9
 30
0.0
 11
142.4491929999998
 21
138.9
 31
0.0
  0
LINE
  5
E557
330
E46C
100
AcDbEntity
  8
1
  6
Continuous
100
AcDbLine
 10
148.350807
 20
138.9
 30
0.0
 11
146.9491929999998
 21
138.9
 31
0.0
  0
LINE
  5
E558
330
E46C
100
AcDbEntity
  8
1
  6
Continuous
100
AcDbLine
 10
139.3508069999998
 20
138.9
 30
0.0
 11
137.9491929999998
 21
138.9
 31
0.0
  0
LINE
  5
E559
330
E46C
100
AcDbEntity
  8
1
  6
Continuous
100
AcDbLine
 10
125.8508069999999
 20
138.9
 30
0.0
 11
124.4491929999998
 21
138.9
 31
0.0
  0
LINE
  5
E55A
330
E46C
100
AcDbEntity
  8
1
  6
Continuous
100
AcDbLine
 10
130.350807
 20
138.9
 30
0.0
 11
128.9491929999998
 21
138.9
 31
0.0
  0
LINE
  5
E55B
330
E46C
100
AcDbEntity
  8
1
  6
Continuous
100
AcDbLine
 10
134.850807
 20
138.9
 30
0.0
 11
133.4491929999997
 21
138.9
 31
0.0
  0
LINE
  5
E55C
330
E46C
100
AcDbEntity
  8
1
  6
Continuous
100
AcDbLine
 10
58.35080699999998
 20
138.1
 30
0.0
 11
56.94919300000001
 21
138.1
 31
0.0
  0
LINE
  5
E55D
330
E46C
100
AcDbEntity
  8
1
  6
Continuous
100
AcDbLine
 10
58.35080699999998
 20
138.9
 30
0.0
 11
56.94919300000001
 21
138.9
 31
0.0
  0
CIRCLE
  5
E55E
330
E46C
100
AcDbEntity
  8
1
  6
Continuous
100
AcDbCircle
 10
59.9
 20
138.5
 30
0.0
 40
1.6
  0
CIRCLE
  5
E55F
330
E46C
100
AcDbEntity
  8
1
  6
Continuous
100
AcDbCircle
 10
68.9
 20
138.5
 30
0.0
 40
1.6
  0
CIRCLE
  5
E560
330
E46C
100
AcDbEntity
  8
1
  6
Continuous
100
AcDbCircle
 10
73.4
 20
138.5
 30
0.0
 40
1.6
  0
CIRCLE
  5
E561
330
E46C
100
AcDbEntity
  8
1
  6
Continuous
100
AcDbCircle
 10
64.40000000000001
 20
138.5
 30
0.0
 40
1.6
  0
CIRCLE
  5
E562
330
E46C
100
AcDbEntity
  8
1
  6
Continuous
100
AcDbCircle
 10
91.4
 20
138.5
 30
0.0
 40
1.6
  0
CIRCLE
  5
E563
330
E46C
100
AcDbEntity
  8
1
  6
Continuous
100
AcDbCircle
 10
82.4
 20
138.5
 30
0.0
 40
1.6
  0
CIRCLE
  5
E564
330
E46C
100
AcDbEntity
  8
1
  6
Continuous
100
AcDbCircle
 10
86.90000000000003
 20
138.5
 30
0.0
 40
1.6
  0
CIRCLE
  5
E565
330
E46C
100
AcDbEntity
  8
1
  6
Continuous
100
AcDbCircle
 10
104.9
 20
138.5
 30
0.0
 40
1.6
  0
CIRCLE
  5
E566
330
E46C
100
AcDbEntity
  8
1
  6
Continuous
100
AcDbCircle
 10
100.4
 20
138.5
 30
0.0
 40
1.6
  0
CIRCLE
  5
E567
330
E46C
100
AcDbEntity
  8
1
  6
Continuous
100
AcDbCircle
 10
95.90000000000001
 20
138.5
 30
0.0
 40
1.6
  0
CIRCLE
  5
E568
330
E46C
100
AcDbEntity
  8
1
  6
Continuous
100
AcDbCircle
 10
113.9
 20
138.5
 30
0.0
 40
1.6
  0
CIRCLE
  5
E569
330
E46C
100
AcDbEntity
  8
1
  6
Continuous
100
AcDbCircle
 10
109.4
 20
138.5
 30
0.0
 40
1.6
  0
CIRCLE
  5
E56A
330
E46C
100
AcDbEntity
  8
1
  6
Continuous
100
AcDbCircle
 10
77.9
 20
138.5
 30
0.0
 40
1.6
  0
CIRCLE
  5
E56B
330
E46C
100
AcDbEntity
  8
1
  6
Continuous
100
AcDbCircle
 10
118.4
 20
138.5
 30
0.0
 40
1.6
  0
LINE
  5
E56C
330
E46C
100
AcDbEntity
  8
1
  6
Continuous
100
AcDbLine
 10
89.85080700000002
 20
138.1
 30
0.0
 11
88.44919299999999
 21
138.1
 31
0.0
  0
LINE
  5
E56D
330
E46C
100
AcDbEntity
  8
1
  6
Continuous
100
AcDbLine
 10
116.850807
 20
138.1
 30
0.0
 11
115.449193
 21
138.1
 31
0.0
  0
LINE
  5
E56E
330
E46C
100
AcDbEntity
  8
1
  6
Continuous
100
AcDbLine
 10
107.850807
 20
138.1
 30
0.0
 11
106.4491929999998
 21
138.1
 31
0.0
  0
LINE
  5
E56F
330
E46C
100
AcDbEntity
  8
1
  6
Continuous
100
AcDbLine
 10
112.3508069999999
 20
138.1
 30
0.0
 11
110.9491929999998
 21
138.1
 31
0.0
  0
LINE
  5
E570
330
E46C
100
AcDbEntity
  8
1
  6
Continuous
100
AcDbLine
 10
94.35080699999996
 20
138.1
 30
0.0
 11
92.94919300000001
 21
138.1
 31
0.0
  0
LINE
  5
E571
330
E46C
100
AcDbEntity
  8
1
  6
Continuous
100
AcDbLine
 10
103.3508069999999
 20
138.1
 30
0.0
 11
101.949193
 21
138.1
 31
0.0
  0
LINE
  5
E572
330
E46C
100
AcDbEntity
  8
1
  6
Continuous
100
AcDbLine
 10
98.85080700000001
 20
138.1
 30
0.0
 11
97.44919299999999
 21
138.1
 31
0.0
  0
LINE
  5
E573
330
E46C
100
AcDbEntity
  8
1
  6
Continuous
100
AcDbLine
 10
76.35080699999999
 20
138.1
 30
0.0
 11
74.94919299999998
 21
138.1
 31
0.0
  0
LINE
  5
E574
330
E46C
100
AcDbEntity
  8
1
  6
Continuous
100
AcDbLine
 10
85.35080699999998
 20
138.1
 30
0.0
 11
83.94919299999997
 21
138.1
 31
0.0
  0
LINE
  5
E575
330
E46C
100
AcDbEntity
  8
1
  6
Continuous
100
AcDbLine
 10
80.85080699999997
 20
138.1
 30
0.0
 11
79.44919299999998
 21
138.1
 31
0.0
  0
LINE
  5
E576
330
E46C
100
AcDbEntity
  8
1
  6
Continuous
100
AcDbLine
 10
62.85080699999999
 20
138.1
 30
0.0
 11
61.44919300000001
 21
138.1
 31
0.0
  0
LINE
  5
E577
330
E46C
100
AcDbEntity
  8
1
  6
Continuous
100
AcDbLine
 10
71.85080699999997
 20
138.1
 30
0.0
 11
70.449193
 21
138.1
 31
0.0
  0
LINE
  5
E578
330
E46C
100
AcDbEntity
  8
1
  6
Continuous
100
AcDbLine
 10
67.35080699999999
 20
138.1
 30
0.0
 11
65.94919299999999
 21
138.1
 31
0.0
  0
LINE
  5
E579
330
E46C
100
AcDbEntity
  8
1
  6
Continuous
100
AcDbLine
 10
89.85080700000002
 20
138.9
 30
0.0
 11
88.44919299999999
 21
138.9
 31
0.0
  0
LINE
  5
E57A
330
E46C
100
AcDbEntity
  8
1
  6
Continuous
100
AcDbLine
 10
116.850807
 20
138.9
 30
0.0
 11
115.449193
 21
138.9
 31
0.0
  0
LINE
  5
E57B
330
E46C
100
AcDbEntity
  8
1
  6
Continuous
100
AcDbLine
 10
107.850807
 20
138.9
 30
0.0
 11
106.4491929999998
 21
138.9
 31
0.0
  0
LINE
  5
E57C
330
E46C
100
AcDbEntity
  8
1
  6
Continuous
100
AcDbLine
 10
112.3508069999999
 20
138.9
 30
0.0
 11
110.9491929999998
 21
138.9
 31
0.0
  0
LINE
  5
E57D
330
E46C
100
AcDbEntity
  8
1
  6
Continuous
100
AcDbLine
 10
94.35080699999996
 20
138.9
 30
0.0
 11
92.94919300000001
 21
138.9
 31
0.0
  0
LINE
  5
E57E
330
E46C
100
AcDbEntity
  8
1
  6
Continuous
100
AcDbLine
 10
103.3508069999999
 20
138.9
 30
0.0
 11
101.949193
 21
138.9
 31
0.0
  0
LINE
  5
E57F
330
E46C
100
AcDbEntity
  8
1
  6
Continuous
100
AcDbLine
 10
98.85080700000001
 20
138.9
 30
0.0
 11
97.44919299999999
 21
138.9
 31
0.0
  0
LINE
  5
E580
330
E46C
100
AcDbEntity
  8
1
  6
Continuous
100
AcDbLine
 10
76.35080699999999
 20
138.9
 30
0.0
 11
74.94919299999998
 21
138.9
 31
0.0
  0
LINE
  5
E581
330
E46C
100
AcDbEntity
  8
1
  6
Continuous
100
AcDbLine
 10
85.35080699999998
 20
138.9
 30
0.0
 11
83.94919299999997
 21
138.9
 31
0.0
  0
LINE
  5
E582
330
E46C
100
AcDbEntity
  8
1
  6
Continuous
100
AcDbLine
 10
80.85080699999997
 20
138.9
 30
0.0
 11
79.44919299999998
 21
138.9
 31
0.0
  0
LINE
  5
E583
330
E46C
100
AcDbEntity
  8
1
  6
Continuous
100
AcDbLine
 10
62.85080699999999
 20
138.9
 30
0.0
 11
61.44919300000001
 21
138.9
 31
0.0
  0
LINE
  5
E584
330
E46C
100
AcDbEntity
  8
1
  6
Continuous
100
AcDbLine
 10
71.85080699999997
 20
138.9
 30
0.0
 11
70.449193
 21
138.9
 31
0.0
  0
LINE
  5
E585
330
E46C
100
AcDbEntity
  8
1
  6
Continuous
100
AcDbLine
 10
67.35080699999999
 20
138.9
 30
0.0
 11
65.94919299999999
 21
138.9
 31
0.0
  0
ARC
  5
E586
330
E46C
100
AcDbEntity
  8
1
  6
Continuous
100
AcDbCircle
 10
37.4
 20
138.5
 30
0.0
 40
1.6
100
AcDbArc
 50
337.975687
 51
22.024313
  0
LINE
  5
E587
330
E46C
100
AcDbEntity
  8
4
  6
CENTER
100
AcDbLine
 10
28.5
 20
131.4999999999998
 30
0.0
 11
28.5
 21
145.5
 31
0.0
  0
LINE
  5
E588
330
E46C
100
AcDbEntity
  8
4
  6
CENTER
100
AcDbLine
 10
37.0
 20
142.5
 30
0.0
 11
37.0
 21
134.4999999999998
 31
0.0
  0
ARC
  5
E589
330
E46C
100
AcDbEntity
  8
1
  6
Continuous
100
AcDbCircle
 10
28.5
 20
138.5
 30
0.0
 40
3.5
100
AcDbArc
 50
34.849905
 51
325.150095
  0
CIRCLE
  5
E58A
330
E46C
100
AcDbEntity
  8
1
  6
Continuous
100
AcDbCircle
 10
41.9
 20
138.5
 30
0.0
 40
1.6
  0
LINE
  5
E58B
330
E46C
100
AcDbEntity
  8
4
  6
CENTER
100
AcDbLine
 10
37.4
 20
135.3
 30
0.0
 11
37.4
 21
141.6999999999999
 31
0.0
  0
ARC
  5
E58C
330
E46C
100
AcDbEntity
  8
1
  6
Continuous
100
AcDbCircle
 10
37.4
 20
138.5
 30
0.0
 40
1.6
100
AcDbArc
 50
157.9756869999999
 51
202.0243129999999
  0
CIRCLE
  5
E58D
330
E46C
100
AcDbEntity
  8
1
  6
Continuous
100
AcDbCircle
 10
55.4
 20
138.5
 30
0.0
 40
1.6
  0
CIRCLE
  5
E58E
330
E46C
100
AcDbEntity
  8
1
  6
Continuous
100
AcDbCircle
 10
50.89999999999999
 20
138.5
 30
0.0
 40
1.6
  0
CIRCLE
  5
E58F
330
E46C
100
AcDbEntity
  8
1
  6
Continuous
100
AcDbCircle
 10
46.39999999999999
 20
138.5
 30
0.0
 40
1.6
  0
LINE
  5
E590
330
E46C
100
AcDbEntity
  8
1
  6
Continuous
100
AcDbLine
 10
44.850807
 20
138.1
 30
0.0
 11
43.44919299999999
 21
138.1
 31
0.0
  0
LINE
  5
E591
330
E46C
100
AcDbEntity
  8
1
  6
Continuous
100
AcDbLine
 10
49.350807
 20
138.1
 30
0.0
 11
47.949193
 21
138.1
 31
0.0
  0
LINE
  5
E592
330
E46C
100
AcDbEntity
  8
1
  6
Continuous
100
AcDbLine
 10
53.85080699999999
 20
138.1
 30
0.0
 11
52.44919300000001
 21
138.1
 31
0.0
  0
LINE
  5
E593
330
E46C
100
AcDbEntity
  8
1
  6
Continuous
100
AcDbLine
 10
39.5
 20
137.9
 30
0.0
 11
30.512461
 21
137.9
 31
0.0
  0
LINE
  5
E594
330
E46C
100
AcDbEntity
  8
1
  6
Continuous
100
AcDbLine
 10
39.5
 20
136.4999999999998
 30
0.0
 11
31.372281
 21
136.4999999999998
 31
0.0
  0
LINE
  5
E595
330
E46C
100
AcDbEntity
  8
1
  6
Continuous
100
AcDbLine
 10
39.5
 20
136.4999999999998
 30
0.0
 11
39.5
 21
137.9
 31
0.0
  0
LINE
  5
E596
330
E46C
100
AcDbEntity
  8
1
  6
Continuous
100
AcDbLine
 10
40.350807
 20
138.1
 30
0.0
 11
38.949193
 21
138.1
 31
0.0
  0
LINE
  5
E597
330
E46C
100
AcDbEntity
  8
4
  6
CENTER
100
AcDbLine
 10
21.49999999999999
 20
138.5
 30
0.0
 11
237.8
 21
138.5
 31
0.0
  0
LINE
  5
E598
330
E46C
100
AcDbEntity
  8
1
  6
Continuous
100
AcDbLine
 10
44.850807
 20
138.9
 30
0.0
 11
43.44919299999999
 21
138.9
 31
0.0
  0
LINE
  5
E599
330
E46C
100
AcDbEntity
  8
1
  6
Continuous
100
AcDbLine
 10
49.350807
 20
138.9
 30
0.0
 11
47.949193
 21
138.9
 31
0.0
  0
LINE
  5
E59A
330
E46C
100
AcDbEntity
  8
1
  6
Continuous
100
AcDbLine
 10
53.85080699999999
 20
138.9
 30
0.0
 11
52.44919300000001
 21
138.9
 31
0.0
  0
LINE
  5
E59B
330
E46C
100
AcDbEntity
  8
1
  6
Continuous
100
AcDbLine
 10
39.5
 20
139.1
 30
0.0
 11
30.512461
 21
139.1
 31
0.0
  0
LINE
  5
E59C
330
E46C
100
AcDbEntity
  8
1
  6
Continuous
100
AcDbLine
 10
39.5
 20
140.5
 30
0.0
 11
31.372281
 21
140.5
 31
0.0
  0
LINE
  5
E59D
330
E46C
100
AcDbEntity
  8
1
  6
Continuous
100
AcDbLine
 10
39.5
 20
139.1
 30
0.0
 11
39.5
 21
140.5
 31
0.0
  0
LINE
  5
E59E
330
E46C
100
AcDbEntity
  8
1
  6
Continuous
100
AcDbLine
 10
40.350807
 20
138.9
 30
0.0
 11
38.949193
 21
138.9
 31
0.0
  0
LINE
  5
E59F
330
E46C
100
AcDbEntity
  8
1
  6
Continuous
100
AcDbLine
 10
34.3229
 20
139.3
 30
0.0
 11
34.3229
 21
140.3
 31
0.0
  0
LINE
  5
E5A0
330
E46C
100
AcDbEntity
  8
1
  6
Continuous
100
AcDbLine
 10
34.3229
 20
136.6999999999999
 30
0.0
 11
34.3229
 21
137.7
 31
0.0
  0
CIRCLE
  5
E5A1
330
E46C
100
AcDbEntity
  8
1
  6
Continuous
100
AcDbCircle
 10
28.5
 20
138.5
 30
0.0
 40
2.1
  0
LINE
  5
E5A2
330
E46C
100
AcDbEntity
  8
4
  6
CENTER
100
AcDbLine
 10
222.3
 20
96.5
 30
0.0
 11
222.3
 21
86.5
 31
0.0
  0
LINE
  5
E5A3
330
E46C
100
AcDbEntity
  8
4
  6
CENTER
100
AcDbLine
 10
230.8
 20
88.0
 30
0.0
 11
230.8
 21
91.0
 31
0.0
  0
ARC
  5
E5A4
330
E46C
100
AcDbEntity
  8
1
  6
Continuous
100
AcDbCircle
 10
222.3
 20
91.5
 30
0.0
 40
2.5
100
AcDbArc
 50
351.786789
 51
270.0
  0
ARC
  5
E5A5
330
E46C
100
AcDbEntity
  8
1
  6
Continuous
100
AcDbCircle
 10
222.3
 20
91.5
 30
0.0
 40
2.0
100
AcDbArc
 50
351.786789
 51
270.0
  0
LINE
  5
E5A6
330
E46C
100
AcDbEntity
  8
1
  6
Continuous
100
AcDbLine
 10
234.2999999999999
 20
89.0
 30
0.0
 11
222.3
 21
89.0
 31
0.0
  0
LINE
  5
E5A7
330
E46C
100
AcDbEntity
  8
1
  6
Continuous
100
AcDbLine
 10
234.2999999999999
 20
89.50000000000001
 30
0.0
 11
222.3
 21
89.50000000000001
 31
0.0
  0
CIRCLE
  5
E5A8
330
E46C
100
AcDbEntity
  8
1
  6
Continuous
100
AcDbCircle
 10
221.9
 20
91.5
 30
0.0
 40
1.6
  0
LINE
  5
E5A9
330
E46C
100
AcDbEntity
  8
1
  6
Continuous
100
AcDbLine
 10
227.927719
 20
90.0
 30
0.0
 11
227.927719
 21
89.0
 31
0.0
  0
ARC
  5
E5AA
330
E46C
100
AcDbEntity
  8
1
  6
Continuous
100
AcDbCircle
 10
225.764102
 20
91.0
 30
0.0
 40
1.5
100
AcDbArc
 50
171.7867889999999
 51
270.0
  0
ARC
  5
E5AB
330
E46C
100
AcDbEntity
  8
1
  6
Continuous
100
AcDbCircle
 10
225.764102
 20
91.0
 30
0.0
 40
1.0
100
AcDbArc
 50
171.7867889999999
 51
270.0
  0
LINE
  5
E5AC
330
E46C
100
AcDbEntity
  8
1
  6
Continuous
100
AcDbLine
 10
234.2999999999999
 20
89.0
 30
0.0
 11
234.2999999999999
 21
90.0
 31
0.0
  0
LINE
  5
E5AD
330
E46C
100
AcDbEntity
  8
1
  6
Continuous
100
AcDbLine
 10
234.2999999999999
 20
90.0
 30
0.0
 11
225.764102
 21
90.0
 31
0.0
  0
LINE
  5
E5AE
330
E46C
100
AcDbEntity
  8
4
  6
CENTER
100
AcDbLine
 10
221.9
 20
88.29999999999998
 30
0.0
 11
221.9
 21
94.7
 31
0.0
  0
LINE
  5
E5AF
330
E46C
100
AcDbEntity
  8
1
  6
Continuous
100
AcDbLine
 10
219.7999999999999
 20
140.5
 30
0.0
 11
227.927719
 21
140.5
 31
0.0
  0
LINE
  5
E5B0
330
E46C
100
AcDbEntity
  8
1
  6
Continuous
100
AcDbLine
 10
219.7999999999999
 20
136.4999999999998
 30
0.0
 11
227.927719
 21
136.4999999999998
 31
0.0
  0
LINE
  5
E5B1
330
E46C
100
AcDbEntity
  8
1
  6
Continuous
100
AcDbLine
 10
219.7999999999999
 20
137.9
 30
0.0
 11
228.7875389999999
 21
137.9
 31
0.0
  0
CIRCLE
  5
E5B2
330
E46C
100
AcDbEntity
  8
1
  6
Continuous
100
AcDbCircle
 10
230.8
 20
138.5
 30
0.0
 40
2.1
  0
LINE
  5
E5B3
330
E46C
100
AcDbEntity
  8
1
  6
Continuous
100
AcDbLine
 10
224.9770999999999
 20
136.6999999999999
 30
0.0
 11
224.9770999999999
 21
137.7
 31
0.0
  0
LINE
  5
E5B4
330
E46C
100
AcDbEntity
  8
1
  6
Continuous
100
AcDbLine
 10
224.9770999999999
 20
139.3
 30
0.0
 11
224.9770999999999
 21
140.3
 31
0.0
  0
ARC
  5
E5B5
330
E46C
100
AcDbEntity
  8
1
  6
Continuous
100
AcDbCircle
 10
221.9
 20
138.5
 30
0.0
 40
1.6
100
AcDbArc
 50
337.975687
 51
22.024313
  0
ARC
  5
E5B6
330
E46C
100
AcDbEntity
  8
1
  6
Continuous
100
AcDbCircle
 10
230.8
 20
138.5
 30
0.0
 40
3.5
100
AcDbArc
 50
214.8499049999998
 51
145.1500949999999
  0
LINE
  5
E5B7
330
E46C
100
AcDbEntity
  8
1
  6
Continuous
100
AcDbLine
 10
219.7999999999999
 20
139.1
 30
0.0
 11
219.7999999999999
 21
140.5
 31
0.0
  0
LINE
  5
E5B8
330
E46C
100
AcDbEntity
  8
1
  6
Continuous
100
AcDbLine
 10
219.7999999999999
 20
136.4999999999998
 30
0.0
 11
219.7999999999999
 21
137.9
 31
0.0
  0
LINE
  5
E5B9
330
E46C
100
AcDbEntity
  8
4
  6
CENTER
100
AcDbLine
 10
221.9
 20
135.3
 30
0.0
 11
221.9
 21
141.6999999999999
 31
0.0
  0
LINE
  5
E5BA
330
E46C
100
AcDbEntity
  8
4
  6
CENTER
100
AcDbLine
 10
222.3
 20
142.5
 30
0.0
 11
222.3
 21
134.4999999999998
 31
0.0
  0
ARC
  5
E5BB
330
E46C
100
AcDbEntity
  8
1
  6
Continuous
100
AcDbCircle
 10
221.9
 20
138.5
 30
0.0
 40
1.6
100
AcDbArc
 50
157.9756869999999
 51
202.0243129999999
  0
LINE
  5
E5BC
330
E46C
100
AcDbEntity
  8
4
  6
CENTER
100
AcDbLine
 10
230.8
 20
131.4999999999998
 30
0.0
 11
230.8
 21
145.5
 31
0.0
  0
LINE
  5
E5BD
330
E46C
100
AcDbEntity
  8
1
  6
Continuous
100
AcDbLine
 10
228.7875389999999
 20
139.1
 30
0.0
 11
219.7999999999999
 21
139.1
 31
0.0
  0
LINE
  5
E5BE
330
E46C
100
AcDbEntity
  8
1
  6
Continuous
100
AcDbLine
 10
222.3
 20
43.89999999999999
 30
0.0
 11
219.7999999999999
 21
43.89999999999999
 31
0.0
  0
ARC
  5
E5BF
330
E46C
100
AcDbEntity
  8
1
  6
Continuous
100
AcDbCircle
 10
230.8
 20
44.5
 30
0.0
 40
3.5
100
AcDbArc
 50
214.8499049999998
 51
145.1500949999999
  0
LINE
  5
E5C0
330
E46C
100
AcDbEntity
  8
1
  6
Continuous
100
AcDbLine
 10
219.7999999999999
 20
45.1
 30
0.0
 11
222.3
 21
45.1
 31
0.0
  0
LINE
  5
E5C1
330
E46C
100
AcDbEntity
  8
4
  6
CENTER
100
AcDbLine
 10
21.49999999999999
 20
44.5
 30
0.0
 11
237.8
 21
44.5
 31
0.0
  0
CIRCLE
  5
E5C2
330
E46C
100
AcDbEntity
  8
1
  6
Continuous
100
AcDbCircle
 10
100.4
 20
44.5
 30
0.0
 40
1.6
  0
LINE
  5
E5C3
330
E46C
100
AcDbEntity
  8
1
  6
Continuous
100
AcDbLine
 10
39.5
 20
42.5
 30
0.0
 11
31.372281
 21
42.5
 31
0.0
  0
LINE
  5
E5C4
330
E46C
100
AcDbEntity
  8
1
  6
Continuous
100
AcDbLine
 10
39.5
 20
43.89999999999999
 30
0.0
 11
37.0
 21
43.89999999999999
 31
0.0
  0
LINE
  5
E5C5
330
E46C
100
AcDbEntity
  8
1
  6
Continuous
100
AcDbLine
 10
39.5
 20
46.5
 30
0.0
 11
31.372281
 21
46.5
 31
0.0
  0
LINE
  5
E5C6
330
E46C
100
AcDbEntity
  8
1
  6
Continuous
100
AcDbLine
 10
39.5
 20
45.1
 30
0.0
 11
37.0
 21
45.1
 31
0.0
  0
LINE
  5
E5C7
330
E46C
100
AcDbEntity
  8
4
  6
CENTER
100
AcDbLine
 10
28.5
 20
51.5
 30
0.0
 11
28.5
 21
37.5
 31
0.0
  0
CIRCLE
  5
E5C8
330
E46C
100
AcDbEntity
  8
1
  6
Continuous
100
AcDbCircle
 10
28.5
 20
44.5
 30
0.0
 40
2.1
  0
LINE
  5
E5C9
330
E46C
100
AcDbEntity
  8
1
  6
Continuous
100
AcDbLine
 10
34.3229
 20
46.1
 30
0.0
 11
34.3229
 21
42.9
 31
0.0
  0
ARC
  5
E5CA
330
E46C
100
AcDbEntity
  8
1
  6
Continuous
100
AcDbCircle
 10
28.5
 20
44.5
 30
0.0
 40
3.5
100
AcDbArc
 50
34.849905
 51
325.150095
  0
CIRCLE
  5
E5CB
330
E46C
100
AcDbEntity
  8
1
  6
Continuous
100
AcDbCircle
 10
68.9
 20
44.5
 30
0.0
 40
1.6
  0
LINE
  5
E5CC
330
E46C
100
AcDbEntity
  8
1
  6
Continuous
100
AcDbLine
 10
53.85080699999999
 20
44.1
 30
0.0
 11
52.44919300000001
 21
44.1
 31
0.0
  0
LINE
  5
E5CD
330
E46C
100
AcDbEntity
  8
1
  6
Continuous
100
AcDbLine
 10
53.85080699999999
 20
44.9
 30
0.0
 11
52.44919300000001
 21
44.9
 31
0.0
  0
LINE
  5
E5CE
330
E46C
100
AcDbEntity
  8
1
  6
Continuous
100
AcDbLine
 10
40.350807
 20
44.1
 30
0.0
 11
38.949193
 21
44.1
 31
0.0
  0
LINE
  5
E5CF
330
E46C
100
AcDbEntity
  8
1
  6
Continuous
100
AcDbLine
 10
39.5
 20
43.89999999999999
 30
0.0
 11
39.5
 21
42.5
 31
0.0
  0
LINE
  5
E5D0
330
E46C
100
AcDbEntity
  8
1
  6
Continuous
100
AcDbLine
 10
49.350807
 20
44.1
 30
0.0
 11
47.949193
 21
44.1
 31
0.0
  0
LINE
  5
E5D1
330
E46C
100
AcDbEntity
  8
1
  6
Continuous
100
AcDbLine
 10
44.850807
 20
44.1
 30
0.0
 11
43.44919299999999
 21
44.1
 31
0.0
  0
LINE
  5
E5D2
330
E46C
100
AcDbEntity
  8
1
  6
Continuous
100
AcDbLine
 10
40.350807
 20
44.9
 30
0.0
 11
38.949193
 21
44.9
 31
0.0
  0
LINE
  5
E5D3
330
E46C
100
AcDbEntity
  8
1
  6
Continuous
100
AcDbLine
 10
39.5
 20
46.5
 30
0.0
 11
39.5
 21
45.1
 31
0.0
  0
LINE
  5
E5D4
330
E46C
100
AcDbEntity
  8
1
  6
Continuous
100
AcDbLine
 10
49.350807
 20
44.9
 30
0.0
 11
47.949193
 21
44.9
 31
0.0
  0
LINE
  5
E5D5
330
E46C
100
AcDbEntity
  8
1
  6
Continuous
100
AcDbLine
 10
44.850807
 20
44.9
 30
0.0
 11
43.44919299999999
 21
44.9
 31
0.0
  0
CIRCLE
  5
E5D6
330
E46C
100
AcDbEntity
  8
1
  6
Continuous
100
AcDbCircle
 10
46.39999999999999
 20
44.5
 30
0.0
 40
1.6
  0
CIRCLE
  5
E5D7
330
E46C
100
AcDbEntity
  8
1
  6
Continuous
100
AcDbCircle
 10
50.89999999999999
 20
44.5
 30
0.0
 40
1.6
  0
LINE
  5
E5D8
330
E46C
100
AcDbEntity
  8
4
  6
CENTER
100
AcDbLine
 10
37.4
 20
47.7
 30
0.0
 11
37.4
 21
41.29999999999999
 31
0.0
  0
CIRCLE
  5
E5D9
330
E46C
100
AcDbEntity
  8
1
  6
Continuous
100
AcDbCircle
 10
41.9
 20
44.5
 30
0.0
 40
1.6
  0
LINE
  5
E5DA
330
E46C
100
AcDbEntity
  8
4
  6
CENTER
100
AcDbLine
 10
37.0
 20
40.49999999999999
 30
0.0
 11
37.0
 21
48.5
 31
0.0
  0
ARC
  5
E5DB
330
E46C
100
AcDbEntity
  8
1
  6
Continuous
100
AcDbCircle
 10
37.4
 20
44.5
 30
0.0
 40
1.6
100
AcDbArc
 50
337.975687
 51
22.024313
  0
CIRCLE
  5
E5DC
330
E46C
100
AcDbEntity
  8
1
  6
Continuous
100
AcDbCircle
 10
55.4
 20
44.5
 30
0.0
 40
1.6
  0
LINE
  5
E5DD
330
E46C
100
AcDbEntity
  8
1
  6
Continuous
100
AcDbLine
 10
67.35080699999999
 20
44.1
 30
0.0
 11
65.94919299999999
 21
44.1
 31
0.0
  0
LINE
  5
E5DE
330
E46C
100
AcDbEntity
  8
1
  6
Continuous
100
AcDbLine
 10
62.85080699999999
 20
44.1
 30
0.0
 11
61.44919300000001
 21
44.1
 31
0.0
  0
LINE
  5
E5DF
330
E46C
100
AcDbEntity
  8
1
  6
Continuous
100
AcDbLine
 10
67.35080699999999
 20
44.9
 30
0.0
 11
65.94919299999999
 21
44.9
 31
0.0
  0
LINE
  5
E5E0
330
E46C
100
AcDbEntity
  8
1
  6
Continuous
100
AcDbLine
 10
62.85080699999999
 20
44.9
 30
0.0
 11
61.44919300000001
 21
44.9
 31
0.0
  0
CIRCLE
  5
E5E1
330
E46C
100
AcDbEntity
  8
1
  6
Continuous
100
AcDbCircle
 10
64.40000000000001
 20
44.5
 30
0.0
 40
1.6
  0
CIRCLE
  5
E5E2
330
E46C
100
AcDbEntity
  8
1
  6
Continuous
100
AcDbCircle
 10
59.9
 20
44.5
 30
0.0
 40
1.6
  0
LINE
  5
E5E3
330
E46C
100
AcDbEntity
  8
1
  6
Continuous
100
AcDbLine
 10
58.35080699999998
 20
44.1
 30
0.0
 11
56.94919300000001
 21
44.1
 31
0.0
  0
LINE
  5
E5E4
330
E46C
100
AcDbEntity
  8
1
  6
Continuous
100
AcDbLine
 10
58.35080699999998
 20
44.9
 30
0.0
 11
56.94919300000001
 21
44.9
 31
0.0
  0
LINE
  5
E5E5
330
E46C
100
AcDbEntity
  8
1
  6
Continuous
100
AcDbLine
 10
85.35080699999998
 20
44.1
 30
0.0
 11
83.94919299999997
 21
44.1
 31
0.0
  0
LINE
  5
E5E6
330
E46C
100
AcDbEntity
  8
1
  6
Continuous
100
AcDbLine
 10
85.35080699999998
 20
44.9
 30
0.0
 11
83.94919299999997
 21
44.9
 31
0.0
  0
LINE
  5
E5E7
330
E46C
100
AcDbEntity
  8
1
  6
Continuous
100
AcDbLine
 10
71.85080699999997
 20
44.1
 30
0.0
 11
70.449193
 21
44.1
 31
0.0
  0
LINE
  5
E5E8
330
E46C
100
AcDbEntity
  8
1
  6
Continuous
100
AcDbLine
 10
80.85080699999997
 20
44.1
 30
0.0
 11
79.44919299999998
 21
44.1
 31
0.0
  0
LINE
  5
E5E9
330
E46C
100
AcDbEntity
  8
1
  6
Continuous
100
AcDbLine
 10
76.35080699999999
 20
44.1
 30
0.0
 11
74.94919299999998
 21
44.1
 31
0.0
  0
LINE
  5
E5EA
330
E46C
100
AcDbEntity
  8
1
  6
Continuous
100
AcDbLine
 10
71.85080699999997
 20
44.9
 30
0.0
 11
70.449193
 21
44.9
 31
0.0
  0
LINE
  5
E5EB
330
E46C
100
AcDbEntity
  8
1
  6
Continuous
100
AcDbLine
 10
80.85080699999997
 20
44.9
 30
0.0
 11
79.44919299999998
 21
44.9
 31
0.0
  0
LINE
  5
E5EC
330
E46C
100
AcDbEntity
  8
1
  6
Continuous
100
AcDbLine
 10
76.35080699999999
 20
44.9
 30
0.0
 11
74.94919299999998
 21
44.9
 31
0.0
  0
CIRCLE
  5
E5ED
330
E46C
100
AcDbEntity
  8
1
  6
Continuous
100
AcDbCircle
 10
77.9
 20
44.5
 30
0.0
 40
1.6
  0
CIRCLE
  5
E5EE
330
E46C
100
AcDbEntity
  8
1
  6
Continuous
100
AcDbCircle
 10
82.4
 20
44.5
 30
0.0
 40
1.6
  0
CIRCLE
  5
E5EF
330
E46C
100
AcDbEntity
  8
1
  6
Continuous
100
AcDbCircle
 10
73.4
 20
44.5
 30
0.0
 40
1.6
  0
LINE
  5
E5F0
330
E46C
100
AcDbEntity
  8
1
  6
Continuous
100
AcDbLine
 10
98.85080700000001
 20
44.1
 30
0.0
 11
97.44919299999999
 21
44.1
 31
0.0
  0
LINE
  5
E5F1
330
E46C
100
AcDbEntity
  8
1
  6
Continuous
100
AcDbLine
 10
94.35080699999996
 20
44.1
 30
0.0
 11
92.94919300000001
 21
44.1
 31
0.0
  0
LINE
  5
E5F2
330
E46C
100
AcDbEntity
  8
1
  6
Continuous
100
AcDbLine
 10
89.85080700000002
 20
44.1
 30
0.0
 11
88.44919299999999
 21
44.1
 31
0.0
  0
LINE
  5
E5F3
330
E46C
100
AcDbEntity
  8
1
  6
Continuous
100
AcDbLine
 10
98.85080700000001
 20
44.9
 30
0.0
 11
97.44919299999999
 21
44.9
 31
0.0
  0
LINE
  5
E5F4
330
E46C
100
AcDbEntity
  8
1
  6
Continuous
100
AcDbLine
 10
94.35080699999996
 20
44.9
 30
0.0
 11
92.94919300000001
 21
44.9
 31
0.0
  0
LINE
  5
E5F5
330
E46C
100
AcDbEntity
  8
1
  6
Continuous
100
AcDbLine
 10
89.85080700000002
 20
44.9
 30
0.0
 11
88.44919299999999
 21
44.9
 31
0.0
  0
CIRCLE
  5
E5F6
330
E46C
100
AcDbEntity
  8
1
  6
Continuous
100
AcDbCircle
 10
95.90000000000001
 20
44.5
 30
0.0
 40
1.6
  0
CIRCLE
  5
E5F7
330
E46C
100
AcDbEntity
  8
1
  6
Continuous
100
AcDbCircle
 10
86.90000000000003
 20
44.5
 30
0.0
 40
1.6
  0
CIRCLE
  5
E5F8
330
E46C
100
AcDbEntity
  8
1
  6
Continuous
100
AcDbCircle
 10
91.4
 20
44.5
 30
0.0
 40
1.6
  0
CIRCLE
  5
E5F9
330
E46C
100
AcDbEntity
  8
1
  6
Continuous
100
AcDbCircle
 10
163.4
 20
44.5
 30
0.0
 40
1.6
  0
CIRCLE
  5
E5FA
330
E46C
100
AcDbEntity
  8
1
  6
Continuous
100
AcDbCircle
 10
131.9
 20
44.5
 30
0.0
 40
1.6
  0
LINE
  5
E5FB
330
E46C
100
AcDbEntity
  8
1
  6
Continuous
100
AcDbLine
 10
116.850807
 20
44.1
 30
0.0
 11
115.449193
 21
44.1
 31
0.0
  0
LINE
  5
E5FC
330
E46C
100
AcDbEntity
  8
1
  6
Continuous
100
AcDbLine
 10
116.850807
 20
44.9
 30
0.0
 11
115.449193
 21
44.9
 31
0.0
  0
LINE
  5
E5FD
330
E46C
100
AcDbEntity
  8
1
  6
Continuous
100
AcDbLine
 10
103.3508069999999
 20
44.1
 30
0.0
 11
101.949193
 21
44.1
 31
0.0
  0
LINE
  5
E5FE
330
E46C
100
AcDbEntity
  8
1
  6
Continuous
100
AcDbLine
 10
112.3508069999999
 20
44.1
 30
0.0
 11
110.9491929999998
 21
44.1
 31
0.0
  0
LINE
  5
E5FF
330
E46C
100
AcDbEntity
  8
1
  6
Continuous
100
AcDbLine
 10
107.850807
 20
44.1
 30
0.0
 11
106.4491929999998
 21
44.1
 31
0.0
  0
LINE
  5
E600
330
E46C
100
AcDbEntity
  8
1
  6
Continuous
100
AcDbLine
 10
103.3508069999999
 20
44.9
 30
0.0
 11
101.949193
 21
44.9
 31
0.0
  0
LINE
  5
E601
330
E46C
100
AcDbEntity
  8
1
  6
Continuous
100
AcDbLine
 10
112.3508069999999
 20
44.9
 30
0.0
 11
110.9491929999998
 21
44.9
 31
0.0
  0
LINE
  5
E602
330
E46C
100
AcDbEntity
  8
1
  6
Continuous
100
AcDbLine
 10
107.850807
 20
44.9
 30
0.0
 11
106.4491929999998
 21
44.9
 31
0.0
  0
CIRCLE
  5
E603
330
E46C
100
AcDbEntity
  8
1
  6
Continuous
100
AcDbCircle
 10
109.4
 20
44.5
 30
0.0
 40
1.6
  0
CIRCLE
  5
E604
330
E46C
100
AcDbEntity
  8
1
  6
Continuous
100
AcDbCircle
 10
113.9
 20
44.5
 30
0.0
 40
1.6
  0
CIRCLE
  5
E605
330
E46C
100
AcDbEntity
  8
1
  6
Continuous
100
AcDbCircle
 10
104.9
 20
44.5
 30
0.0
 40
1.6
  0
CIRCLE
  5
E606
330
E46C
100
AcDbEntity
  8
1
  6
Continuous
100
AcDbCircle
 10
118.4
 20
44.5
 30
0.0
 40
1.6
  0
LINE
  5
E607
330
E46C
100
AcDbEntity
  8
1
  6
Continuous
100
AcDbLine
 10
130.350807
 20
44.1
 30
0.0
 11
128.9491929999998
 21
44.1
 31
0.0
  0
LINE
  5
E608
330
E46C
100
AcDbEntity
  8
1
  6
Continuous
100
AcDbLine
 10
125.8508069999999
 20
44.1
 30
0.0
 11
124.4491929999998
 21
44.1
 31
0.0
  0
LINE
  5
E609
330
E46C
100
AcDbEntity
  8
1
  6
Continuous
100
AcDbLine
 10
130.350807
 20
44.9
 30
0.0
 11
128.9491929999998
 21
44.9
 31
0.0
  0
LINE
  5
E60A
330
E46C
100
AcDbEntity
  8
1
  6
Continuous
100
AcDbLine
 10
125.8508069999999
 20
44.9
 30
0.0
 11
124.4491929999998
 21
44.9
 31
0.0
  0
CIRCLE
  5
E60B
330
E46C
100
AcDbEntity
  8
1
  6
Continuous
100
AcDbCircle
 10
127.4
 20
44.5
 30
0.0
 40
1.6
  0
CIRCLE
  5
E60C
330
E46C
100
AcDbEntity
  8
1
  6
Continuous
100
AcDbCircle
 10
122.9
 20
44.5
 30
0.0
 40
1.6
  0
LINE
  5
E60D
330
E46C
100
AcDbEntity
  8
1
  6
Continuous
100
AcDbLine
 10
121.350807
 20
44.1
 30
0.0
 11
119.9491929999998
 21
44.1
 31
0.0
  0
LINE
  5
E60E
330
E46C
100
AcDbEntity
  8
1
  6
Continuous
100
AcDbLine
 10
121.350807
 20
44.9
 30
0.0
 11
119.9491929999998
 21
44.9
 31
0.0
  0
CIRCLE
  5
E60F
330
E46C
100
AcDbEntity
  8
1
  6
Continuous
100
AcDbCircle
 10
149.9
 20
44.5
 30
0.0
 40
1.6
  0
LINE
  5
E610
330
E46C
100
AcDbEntity
  8
1
  6
Continuous
100
AcDbLine
 10
134.850807
 20
44.1
 30
0.0
 11
133.4491929999997
 21
44.1
 31
0.0
  0
LINE
  5
E611
330
E46C
100
AcDbEntity
  8
1
  6
Continuous
100
AcDbLine
 10
139.3508069999998
 20
44.1
 30
0.0
 11
137.9491929999998
 21
44.1
 31
0.0
  0
LINE
  5
E612
330
E46C
100
AcDbEntity
  8
1
  6
Continuous
100
AcDbLine
 10
148.350807
 20
44.1
 30
0.0
 11
146.9491929999998
 21
44.1
 31
0.0
  0
LINE
  5
E613
330
E46C
100
AcDbEntity
  8
1
  6
Continuous
100
AcDbLine
 10
143.850807
 20
44.1
 30
0.0
 11
142.4491929999998
 21
44.1
 31
0.0
  0
LINE
  5
E614
330
E46C
100
AcDbEntity
  8
1
  6
Continuous
100
AcDbLine
 10
134.850807
 20
44.9
 30
0.0
 11
133.4491929999997
 21
44.9
 31
0.0
  0
LINE
  5
E615
330
E46C
100
AcDbEntity
  8
1
  6
Continuous
100
AcDbLine
 10
139.3508069999998
 20
44.9
 30
0.0
 11
137.9491929999998
 21
44.9
 31
0.0
  0
LINE
  5
E616
330
E46C
100
AcDbEntity
  8
1
  6
Continuous
100
AcDbLine
 10
148.350807
 20
44.9
 30
0.0
 11
146.9491929999998
 21
44.9
 31
0.0
  0
LINE
  5
E617
330
E46C
100
AcDbEntity
  8
1
  6
Continuous
100
AcDbLine
 10
143.850807
 20
44.9
 30
0.0
 11
142.4491929999998
 21
44.9
 31
0.0
  0
CIRCLE
  5
E618
330
E46C
100
AcDbEntity
  8
1
  6
Continuous
100
AcDbCircle
 10
140.8999999999998
 20
44.5
 30
0.0
 40
1.6
  0
CIRCLE
  5
E619
330
E46C
100
AcDbEntity
  8
1
  6
Continuous
100
AcDbCircle
 10
136.4
 20
44.5
 30
0.0
 40
1.6
  0
CIRCLE
  5
E61A
330
E46C
100
AcDbEntity
  8
1
  6
Continuous
100
AcDbCircle
 10
145.4
 20
44.5
 30
0.0
 40
1.6
  0
LINE
  5
E61B
330
E46C
100
AcDbEntity
  8
1
  6
Continuous
100
AcDbLine
 10
157.350807
 20
44.1
 30
0.0
 11
155.9491929999998
 21
44.1
 31
0.0
  0
LINE
  5
E61C
330
E46C
100
AcDbEntity
  8
1
  6
Continuous
100
AcDbLine
 10
161.850807
 20
44.1
 30
0.0
 11
160.4491929999998
 21
44.1
 31
0.0
  0
LINE
  5
E61D
330
E46C
100
AcDbEntity
  8
1
  6
Continuous
100
AcDbLine
 10
152.8508069999998
 20
44.1
 30
0.0
 11
151.4491929999998
 21
44.1
 31
0.0
  0
LINE
  5
E61E
330
E46C
100
AcDbEntity
  8
1
  6
Continuous
100
AcDbLine
 10
157.350807
 20
44.9
 30
0.0
 11
155.9491929999998
 21
44.9
 31
0.0
  0
LINE
  5
E61F
330
E46C
100
AcDbEntity
  8
1
  6
Continuous
100
AcDbLine
 10
161.850807
 20
44.9
 30
0.0
 11
160.4491929999998
 21
44.9
 31
0.0
  0
LINE
  5
E620
330
E46C
100
AcDbEntity
  8
1
  6
Continuous
100
AcDbLine
 10
152.8508069999998
 20
44.9
 30
0.0
 11
151.4491929999998
 21
44.9
 31
0.0
  0
CIRCLE
  5
E621
330
E46C
100
AcDbEntity
  8
1
  6
Continuous
100
AcDbCircle
 10
154.4
 20
44.5
 30
0.0
 40
1.6
  0
CIRCLE
  5
E622
330
E46C
100
AcDbEntity
  8
1
  6
Continuous
100
AcDbCircle
 10
158.9
 20
44.5
 30
0.0
 40
1.6
  0
CIRCLE
  5
E623
330
E46C
100
AcDbEntity
  8
1
  6
Continuous
100
AcDbCircle
 10
194.9
 20
44.5
 30
0.0
 40
1.6
  0
CIRCLE
  5
E624
330
E46C
100
AcDbEntity
  8
1
  6
Continuous
100
AcDbCircle
 10
181.4
 20
44.5
 30
0.0
 40
1.6
  0
LINE
  5
E625
330
E46C
100
AcDbEntity
  8
1
  6
Continuous
100
AcDbLine
 10
166.3508069999998
 20
44.1
 30
0.0
 11
164.9491929999998
 21
44.1
 31
0.0
  0
LINE
  5
E626
330
E46C
100
AcDbEntity
  8
1
  6
Continuous
100
AcDbLine
 10
179.850807
 20
44.1
 30
0.0
 11
178.4491929999999
 21
44.1
 31
0.0
  0
LINE
  5
E627
330
E46C
100
AcDbEntity
  8
1
  6
Continuous
100
AcDbLine
 10
175.350807
 20
44.1
 30
0.0
 11
173.9491929999998
 21
44.1
 31
0.0
  0
LINE
  5
E628
330
E46C
100
AcDbEntity
  8
1
  6
Continuous
100
AcDbLine
 10
170.850807
 20
44.1
 30
0.0
 11
169.4491929999998
 21
44.1
 31
0.0
  0
LINE
  5
E629
330
E46C
100
AcDbEntity
  8
1
  6
Continuous
100
AcDbLine
 10
166.3508069999998
 20
44.9
 30
0.0
 11
164.9491929999998
 21
44.9
 31
0.0
  0
LINE
  5
E62A
330
E46C
100
AcDbEntity
  8
1
  6
Continuous
100
AcDbLine
 10
179.850807
 20
44.9
 30
0.0
 11
178.4491929999999
 21
44.9
 31
0.0
  0
LINE
  5
E62B
330
E46C
100
AcDbEntity
  8
1
  6
Continuous
100
AcDbLine
 10
175.350807
 20
44.9
 30
0.0
 11
173.9491929999998
 21
44.9
 31
0.0
  0
LINE
  5
E62C
330
E46C
100
AcDbEntity
  8
1
  6
Continuous
100
AcDbLine
 10
170.850807
 20
44.9
 30
0.0
 11
169.4491929999998
 21
44.9
 31
0.0
  0
CIRCLE
  5
E62D
330
E46C
100
AcDbEntity
  8
1
  6
Continuous
100
AcDbCircle
 10
176.9
 20
44.5
 30
0.0
 40
1.6
  0
CIRCLE
  5
E62E
330
E46C
100
AcDbEntity
  8
1
  6
Continuous
100
AcDbCircle
 10
172.4
 20
44.5
 30
0.0
 40
1.6
  0
CIRCLE
  5
E62F
330
E46C
100
AcDbEntity
  8
1
  6
Continuous
100
AcDbCircle
 10
167.9
 20
44.5
 30
0.0
 40
1.6
  0
LINE
  5
E630
330
E46C
100
AcDbEntity
  8
1
  6
Continuous
100
AcDbLine
 10
184.350807
 20
44.1
 30
0.0
 11
182.9491929999998
 21
44.1
 31
0.0
  0
LINE
  5
E631
330
E46C
100
AcDbEntity
  8
1
  6
Continuous
100
AcDbLine
 10
184.350807
 20
44.9
 30
0.0
 11
182.9491929999998
 21
44.9
 31
0.0
  0
LINE
  5
E632
330
E46C
100
AcDbEntity
  8
1
  6
Continuous
100
AcDbLine
 10
193.350807
 20
44.1
 30
0.0
 11
191.9491929999999
 21
44.1
 31
0.0
  0
LINE
  5
E633
330
E46C
100
AcDbEntity
  8
1
  6
Continuous
100
AcDbLine
 10
188.850807
 20
44.1
 30
0.0
 11
187.4491929999998
 21
44.1
 31
0.0
  0
LINE
  5
E634
330
E46C
100
AcDbEntity
  8
1
  6
Continuous
100
AcDbLine
 10
193.350807
 20
44.9
 30
0.0
 11
191.9491929999999
 21
44.9
 31
0.0
  0
LINE
  5
E635
330
E46C
100
AcDbEntity
  8
1
  6
Continuous
100
AcDbLine
 10
188.850807
 20
44.9
 30
0.0
 11
187.4491929999998
 21
44.9
 31
0.0
  0
CIRCLE
  5
E636
330
E46C
100
AcDbEntity
  8
1
  6
Continuous
100
AcDbCircle
 10
190.4
 20
44.5
 30
0.0
 40
1.6
  0
CIRCLE
  5
E637
330
E46C
100
AcDbEntity
  8
1
  6
Continuous
100
AcDbCircle
 10
185.8999999999998
 20
44.5
 30
0.0
 40
1.6
  0
CIRCLE
  5
E638
330
E46C
100
AcDbEntity
  8
1
  6
Continuous
100
AcDbCircle
 10
212.9
 20
44.5
 30
0.0
 40
1.6
  0
LINE
  5
E639
330
E46C
100
AcDbEntity
  8
1
  6
Continuous
100
AcDbLine
 10
197.850807
 20
44.1
 30
0.0
 11
196.4491929999999
 21
44.1
 31
0.0
  0
LINE
  5
E63A
330
E46C
100
AcDbEntity
  8
1
  6
Continuous
100
AcDbLine
 10
211.3508069999999
 20
44.1
 30
0.0
 11
209.949193
 21
44.1
 31
0.0
  0
LINE
  5
E63B
330
E46C
100
AcDbEntity
  8
1
  6
Continuous
100
AcDbLine
 10
206.850807
 20
44.1
 30
0.0
 11
205.4491929999998
 21
44.1
 31
0.0
  0
LINE
  5
E63C
330
E46C
100
AcDbEntity
  8
1
  6
Continuous
100
AcDbLine
 10
202.350807
 20
44.1
 30
0.0
 11
200.9491929999998
 21
44.1
 31
0.0
  0
LINE
  5
E63D
330
E46C
100
AcDbEntity
  8
1
  6
Continuous
100
AcDbLine
 10
197.850807
 20
44.9
 30
0.0
 11
196.4491929999999
 21
44.9
 31
0.0
  0
LINE
  5
E63E
330
E46C
100
AcDbEntity
  8
1
  6
Continuous
100
AcDbLine
 10
211.3508069999999
 20
44.9
 30
0.0
 11
209.949193
 21
44.9
 31
0.0
  0
LINE
  5
E63F
330
E46C
100
AcDbEntity
  8
1
  6
Continuous
100
AcDbLine
 10
206.850807
 20
44.9
 30
0.0
 11
205.4491929999998
 21
44.9
 31
0.0
  0
LINE
  5
E640
330
E46C
100
AcDbEntity
  8
1
  6
Continuous
100
AcDbLine
 10
202.350807
 20
44.9
 30
0.0
 11
200.9491929999998
 21
44.9
 31
0.0
  0
CIRCLE
  5
E641
330
E46C
100
AcDbEntity
  8
1
  6
Continuous
100
AcDbCircle
 10
208.4
 20
44.5
 30
0.0
 40
1.6
  0
CIRCLE
  5
E642
330
E46C
100
AcDbEntity
  8
1
  6
Continuous
100
AcDbCircle
 10
203.9
 20
44.5
 30
0.0
 40
1.6
  0
CIRCLE
  5
E643
330
E46C
100
AcDbEntity
  8
1
  6
Continuous
100
AcDbCircle
 10
199.3999999999998
 20
44.5
 30
0.0
 40
1.6
  0
LINE
  5
E644
330
E46C
100
AcDbEntity
  8
1
  6
Continuous
100
AcDbLine
 10
220.3508069999998
 20
44.9
 30
0.0
 11
218.9491929999999
 21
44.9
 31
0.0
  0
LINE
  5
E645
330
E46C
100
AcDbEntity
  8
1
  6
Continuous
100
AcDbLine
 10
220.3508069999998
 20
44.1
 30
0.0
 11
218.9491929999999
 21
44.1
 31
0.0
  0
ARC
  5
E646
330
E46C
100
AcDbEntity
  8
1
  6
Continuous
100
AcDbCircle
 10
221.9
 20
44.5
 30
0.0
 40
1.6
100
AcDbArc
 50
157.9756869999999
 51
202.0243129999999
  0
LINE
  5
E647
330
E46C
100
AcDbEntity
  8
4
  6
CENTER
100
AcDbLine
 10
222.3
 20
40.49999999999999
 30
0.0
 11
222.3
 21
48.5
 31
0.0
  0
LINE
  5
E648
330
E46C
100
AcDbEntity
  8
4
  6
CENTER
100
AcDbLine
 10
221.9
 20
47.7
 30
0.0
 11
221.9
 21
41.29999999999999
 31
0.0
  0
LINE
  5
E649
330
E46C
100
AcDbEntity
  8
1
  6
Continuous
100
AcDbLine
 10
219.7999999999999
 20
46.5
 30
0.0
 11
219.7999999999999
 21
45.1
 31
0.0
  0
LINE
  5
E64A
330
E46C
100
AcDbEntity
  8
1
  6
Continuous
100
AcDbLine
 10
219.7999999999999
 20
43.89999999999999
 30
0.0
 11
219.7999999999999
 21
42.5
 31
0.0
  0
LINE
  5
E64B
330
E46C
100
AcDbEntity
  8
1
  6
Continuous
100
AcDbLine
 10
224.9770999999999
 20
46.1
 30
0.0
 11
224.9770999999999
 21
42.9
 31
0.0
  0
LINE
  5
E64C
330
E46C
100
AcDbEntity
  8
1
  6
Continuous
100
AcDbLine
 10
219.7999999999999
 20
46.5
 30
0.0
 11
227.927719
 21
46.5
 31
0.0
  0
LINE
  5
E64D
330
E46C
100
AcDbEntity
  8
1
  6
Continuous
100
AcDbLine
 10
219.7999999999999
 20
42.5
 30
0.0
 11
227.927719
 21
42.5
 31
0.0
  0
LINE
  5
E64E
330
E46C
100
AcDbEntity
  8
1
  6
Continuous
100
AcDbLine
 10
215.8508069999999
 20
44.1
 30
0.0
 11
214.449193
 21
44.1
 31
0.0
  0
LINE
  5
E64F
330
E46C
100
AcDbEntity
  8
1
  6
Continuous
100
AcDbLine
 10
215.8508069999999
 20
44.9
 30
0.0
 11
214.449193
 21
44.9
 31
0.0
  0
CIRCLE
  5
E650
330
E46C
100
AcDbEntity
  8
1
  6
Continuous
100
AcDbCircle
 10
217.3999999999999
 20
44.5
 30
0.0
 40
1.6
  0
LINE
  5
E651
330
E46C
100
AcDbEntity
  8
4
  6
CENTER
100
AcDbLine
 10
230.8
 20
51.5
 30
0.0
 11
230.8
 21
37.5
 31
0.0
  0
CIRCLE
  5
E652
330
E46C
100
AcDbEntity
  8
1
  6
Continuous
100
AcDbCircle
 10
230.8
 20
44.5
 30
0.0
 40
2.1
  0
LINE
  5
E653
330
E46C
100
AcDbEntity
  8
1
  6
Continuous
100
AcDbLine
 10
37.0
 20
45.1
 30
0.0
 11
37.0
 21
43.89999999999999
 31
0.0
  0
LINE
  5
E654
330
E46C
100
AcDbEntity
  8
1
  6
Continuous
100
AcDbLine
 10
222.3
 20
45.1
 30
0.0
 11
222.3
 21
43.89999999999999
 31
0.0
  0
LINE
  5
E655
330
E46C
100
AcDbEntity
  8
4
  6
CENTER
100
AcDbLine
 10
257.8
 20
96.5
 30
0.0
 11
257.8
 21
86.5
 31
0.0
  0
LINE
  5
E656
330
E46C
100
AcDbEntity
  8
1
  6
Continuous
100
AcDbLine
 10
261.2999999999999
 20
89.0
 30
0.0
 11
254.3
 21
89.0
 31
0.0
  0
LINE
  5
E657
330
E46C
100
AcDbEntity
  8
4
  6
CENTER
100
AcDbLine
 10
252.3219029999999
 20
91.5
 30
0.0
 11
263.3219029999998
 21
91.5
 31
0.0
  0
LINE
  5
E658
330
E46C
100
AcDbEntity
  8
1
  6
Continuous
100
AcDbLine
 10
261.2999999999999
 20
90.0
 30
0.0
 11
254.3
 21
90.0
 31
0.0
  0
LINE
  5
E659
330
E46C
100
AcDbEntity
  8
1
  6
Continuous
100
AcDbLine
 10
261.2999999999999
 20
89.50000000000001
 30
0.0
 11
254.3
 21
89.50000000000001
 31
0.0
  0
LINE
  5
E65A
330
E46C
100
AcDbEntity
  8
1
  6
Continuous
100
AcDbLine
 10
259.8
 20
94.0
 30
0.0
 11
259.8
 21
90.0
 31
0.0
  0
ARC
  5
E65B
330
E46C
100
AcDbEntity
  8
1
  6
Continuous
100
AcDbCircle
 10
257.8
 20
91.5
 30
0.0
 40
1.6
100
AcDbArc
 50
67.97568699999999
 51
112.0243129999999
  0
LINE
  5
E65C
330
E46C
100
AcDbEntity
  8
1
  6
Continuous
100
AcDbLine
 10
261.2999999999999
 20
90.0
 30
0.0
 11
261.2999999999999
 21
89.0
 31
0.0
  0
LINE
  5
E65D
330
E46C
100
AcDbEntity
  8
1
  6
Continuous
100
AcDbLine
 10
259.8
 20
94.0
 30
0.0
 11
258.3999999999999
 21
94.0
 31
0.0
  0
LINE
  5
E65E
330
E46C
100
AcDbEntity
  8
1
  6
Continuous
100
AcDbLine
 10
257.2
 20
94.0
 30
0.0
 11
255.8
 21
94.0
 31
0.0
  0
LINE
  5
E65F
330
E46C
100
AcDbEntity
  8
1
  6
Continuous
100
AcDbLine
 10
255.8
 20
94.0
 30
0.0
 11
255.8
 21
90.0
 31
0.0
  0
LINE
  5
E660
330
E46C
100
AcDbEntity
  8
1
  6
Continuous
100
AcDbLine
 10
257.2
 20
94.0
 30
0.0
 11
257.2
 21
90.0
 31
0.0
  0
LINE
  5
E661
330
E46C
100
AcDbEntity
  8
1
  6
Continuous
100
AcDbLine
 10
258.3999999999999
 20
94.0
 30
0.0
 11
258.3999999999999
 21
90.0
 31
0.0
  0
LINE
  5
E662
330
E46C
100
AcDbEntity
  8
1
  6
Continuous
100
AcDbLine
 10
254.3
 20
90.0
 30
0.0
 11
254.3
 21
89.0
 31
0.0
  0
ENDSEC
  0
SECTION
  2
OBJECTS
  0
DICTIONARY
  5
E45A
330
0
100
AcDbDictionary
281
     1
  3
ACAD_CIP_PREVIOUS_PRODUCT_INFO
350
E6C2
  3
ACAD_COLOR
350
E6A4
  3
ACAD_DETAILVIEWSTYLE
350
E6BD
  3
ACAD_GROUP
350
E45B
  3
ACAD_LAYOUT
350
E467
  3
ACAD_MATERIAL
350
E672
  3
ACAD_MLEADERSTYLE
350
E6B9
  3
ACAD_MLINESTYLE
350
E464
  3
ACAD_PLOTSETTINGS
350
E466
  3
ACAD_PLOTSTYLENAME
350
E670
  3
ACAD_SCALELIST
350
E6A7
  3
ACAD_SECTIONVIEWSTYLE
350
E6BB
  3
ACAD_TABLESTYLE
350
E6A5
  3
ACAD_VISUALSTYLE
350
E68B
  3
ACDB_RECOMPOSE_DATA
350
E6E0
  3
AcDbVariableDictionary
350
E6D3
  3
DWGPROPS
350
E6E1
  0
DICTIONARY
  5
E6C3
330
E45E
100
AcDbDictionary
280
     1
281
     1
  3
ADSK_XREC_LAYER_RECONCILED
360
E6C4
  0
DICTIONARY
  5
E6C5
330
E474
100
AcDbDictionary
280
     1
281
     1
  3
ADSK_XREC_LAYER_RECONCILED
360
E6C6
  0
DICTIONARY
  5
E6C7
330
E475
100
AcDbDictionary
280
     1
281
     1
  3
ADSK_XREC_LAYER_RECONCILED
360
E6C8
  0
DICTIONARY
  5
E6C9
330
E476
100
AcDbDictionary
280
     1
281
     1
  3
ADSK_XREC_LAYER_RECONCILED
360
E6CA
  0
DICTIONARY
  5
E6CB
330
E477
100
AcDbDictionary
280
     1
281
     1
  3
ADSK_XREC_LAYER_RECONCILED
360
E6CC
  0
DICTIONARY
  5
E6CD
330
E478
100
AcDbDictionary
280
     1
281
     1
  3
ADSK_XREC_LAYER_RECONCILED
360
E6CE
  0
DICTIONARY
  5
E6CF
330
E479
100
AcDbDictionary
280
     1
281
     1
  3
ADSK_XREC_LAYER_RECONCILED
360
E6D0
  0
DICTIONARY
  5
E6D1
330
E47A
100
AcDbDictionary
280
     1
281
     1
  3
ADSK_XREC_LAYER_RECONCILED
360
E6D2
  0
DICTIONARY
  5
E66B
330
E46C
100
AcDbDictionary
281
     1
  3
ACAD_LAYOUTSELFREF
350
E66C
  0
DICTIONARY
  5
E669
330
E468
100
AcDbDictionary
281
     1
  3
ACAD_LAYOUTSELFREF
350
E66A
  0
XRECORD
  5
E6C2
102
{ACAD_REACTORS
330
E45A
102
}
330
E45A
100
AcDbXrecord
280
     1
300
ACDLT
300
2014
300
ACDLT_F_S
  0
DICTIONARY
  5
E6A4
102
{ACAD_REACTORS
330
E45A
102
}
330
E45A
100
AcDbDictionary
281
     1
  0
DICTIONARY
  5
E6BD
102
{ACAD_REACTORS
330
E45A
102
}
330
E45A
100
AcDbDictionary
281
     1
  3
Imperial24
350
E6BE
  0
DICTIONARY
  5
E45B
102
{ACAD_REACTORS
330
E45A
102
}
330
E45A
100
AcDbDictionary
281
     1
  0
DICTIONARY
  5
E467
102
{ACAD_REACTORS
330
E45A
102
}
330
E45A
100
AcDbDictionary
281
     1
  3
Model
350
E6BF
  3
レイアウト1
350
E6C0
  0
DICTIONARY
  5
E672
102
{ACAD_REACTORS
330
E45A
102
}
330
E45A
100
AcDbDictionary
281
     1
  3
ByBlock
350
E67B
  3
ByLayer
350
E673
  3
Global
350
E683
  0
DICTIONARY
  5
E6B9
102
{ACAD_REACTORS
330
E45A
102
}
330
E45A
100
AcDbDictionary
281
     1
  3
Standard
350
E6BA
  0
DICTIONARY
  5
E464
102
{ACAD_REACTORS
330
E45A
102
}
330
E45A
100
AcDbDictionary
281
     1
  3
STANDARD
350
E465
  0
DICTIONARY
  5
E466
102
{ACAD_REACTORS
330
E45A
102
}
330
E45A
100
AcDbDictionary
281
     1
  0
ACDBDICTIONARYWDFLT
  5
E670
102
{ACAD_REACTORS
330
E45A
102
}
330
E45A
100
AcDbDictionary
281
     1
  3
Normal
350
E671
100
AcDbDictionaryWithDefault
340
E671
  0
DICTIONARY
  5
E6A7
102
{ACAD_REACTORS
330
E45A
102
}
330
E45A
100
AcDbDictionary
281
     1
  3
A0
350
E6A8
  3
A1
350
E6A9
  3
A2
350
E6AA
  3
A3
350
E6AB
  3
A4
350
E6AC
  3
A5
350
E6AD
  3
A6
350
E6AE
  3
A7
350
E6AF
  3
A8
350
E6B0
  3
A9
350
E6B1
  3
B0
350
E6B2
  3
B1
350
E6B3
  3
B2
350
E6B4
  3
B3
350
E6B5
  3
B4
350
E6B6
  3
B5
350
E6B7
  3
B6
350
E6B8
  0
DICTIONARY
  5
E6BB
102
{ACAD_REACTORS
330
E45A
102
}
330
E45A
100
AcDbDictionary
281
     1
  3
Imperial24
350
E6BC
  0
DICTIONARY
  5
E6A5
102
{ACAD_REACTORS
330
E45A
102
}
330
E45A
100
AcDbDictionary
281
     1
  3
Standard
350
E6A6
  0
DICTIONARY
  5
E68B
102
{ACAD_REACTORS
330
E45A
102
}
330
E45A
100
AcDbDictionary
281
     1
  3
2dWireframe
350
E691
  3
Basic
350
E690
  3
Brighten
350
E697
  3
ColorChange
350
E69B
  3
Conceptual
350
E694
  3
Dim
350
E696
  3
EdgeColorOff
350
E6A3
  3
Facepattern
350
E69A
  3
Flat
350
E68C
  3
FlatWithEdges
350
E68D
  3
Gouraud
350
E68E
  3
GouraudWithEdges
350
E68F
  3
Hidden
350
E693
  3
JitterOff
350
E6A1
  3
Linepattern
350
E699
  3
OverhangOff
350
E6A2
  3
Realistic
350
E695
  3
Shaded
350
E6A0
  3
Shaded with edges
350
E69F
  3
Shades of Gray
350
E69C
  3
Sketchy
350
E69D
  3
Thicken
350
E698
  3
Wireframe
350
E692
  3
X-Ray
350
E69E
  0
XRECORD
  5
E6E0
102
{ACAD_REACTORS
330
E45A
102
}
330
E45A
100
AcDbXrecord
280
     1
 90
        1
330
E6A6
  0
DICTIONARY
  5
E6D3
102
{ACAD_REACTORS
330
E45A
102
}
330
E45A
100
AcDbDictionary
281
     1
  3
CANNOSCALE
350
E6D8
  3
CMLEADERSTYLE
350
E6D5
  3
CTABLESTYLE
350
E6D4
  3
CVIEWDETAILSTYLE
350
E6D6
  3
CVIEWSECTIONSTYLE
350
E6D7
  3
DIMASSOC
350
E6DB
  3
INDEXCTL
350
E6DA
  3
SORTENTS
350
E6D9
  3
XCLIPFRAME
350
E6DC
  0
XRECORD
  5
E6E1
102
{ACAD_REACTORS
330
E45A
102
}
330
E45A
100
AcDbXrecord
280
     1
  1
DWGPROPS COOKIE
  2

  3

  4

  6

  7

  8
Yoshitsune
  9

300
=
301
=
302
=
303
=
304
=
305
=
306
=
307
=
308
=
309
=
 40
0.0000100810185185
 41
2451285.444698148
 42
2457192.659225116
  1

 90
        0
  0
XRECORD
  5
E6C4
102
{ACAD_REACTORS
330
E6C3
102
}
330
E6C3
100
AcDbXrecord
280
     1
290
     1
  0
XRECORD
  5
E6C6
102
{ACAD_REACTORS
330
E6C5
102
}
330
E6C5
100
AcDbXrecord
280
     1
290
     1
  0
XRECORD
  5
E6C8
102
{ACAD_REACTORS
330
E6C7
102
}
330
E6C7
100
AcDbXrecord
280
     1
290
     1
  0
XRECORD
  5
E6CA
102
{ACAD_REACTORS
330
E6C9
102
}
330
E6C9
100
AcDbXrecord
280
     1
290
     1
  0
XRECORD
  5
E6CC
102
{ACAD_REACTORS
330
E6CB
102
}
330
E6CB
100
AcDbXrecord
280
     1
290
     1
  0
XRECORD
  5
E6CE
102
{ACAD_REACTORS
330
E6CD
102
}
330
E6CD
100
AcDbXrecord
280
     1
290
     1
  0
XRECORD
  5
E6D0
102
{ACAD_REACTORS
330
E6CF
102
}
330
E6CF
100
AcDbXrecord
280
     1
290
     1
  0
XRECORD
  5
E6D2
102
{ACAD_REACTORS
330
E6D1
102
}
330
E6D1
100
AcDbXrecord
280
     1
290
     1
  0
XRECORD
  5
E66C
102
{ACAD_REACTORS
330
E66B
102
}
330
E66B
100
AcDbXrecord
280
     1
340
E46C
  0
XRECORD
  5
E66A
102
{ACAD_REACTORS
330
E669
102
}
330
E669
100
AcDbXrecord
280
     1
340
E468
  0
ACDBDETAILVIEWSTYLE
  5
E6BE
102
{ACAD_XDICTIONARY
360
E719
102
}
102
{ACAD_REACTORS
330
E6BD
102
}
330
E6BD
100
AcDbModelDocViewStyle
 70
     0
  3
Imperial24
290
     0
100
AcDbDetailViewStyle
 70
     0
 71
     0
 90
        3
 71
     1
340
E45F
 40
0.24
340
0
 40
0.24
300

 40
0.36
280
     3
 71
     2
340
E463
 90
       25
 71
     3
340
E45F
 40
0.24
 90
        1
 40
0.75
 90
        1
300
%<\AcVar ViewType \f "%tc1">% %<\AcVar ViewDetailId>%\PSCALE %<\AcVar ViewScale \f "%sn">%
 71
     4
340
E463
 90
       25
340
E463
 90
       25
280
     0
  0
LAYOUT
  5
E6BF
102
{ACAD_XDICTIONARY
360
E71B
102
}
102
{ACAD_REACTORS
330
E467
102
}
330
E467
100
AcDbPlotSettings
  1

  2
Canon LBP9100C
  4

  6

 40
0.0
 41
0.0
 42
0.0
 43
0.0
 44
0.0
 45
0.0
 46
0.0
 47
0.0
 48
0.0
 49
0.0
140
0.0
141
0.0
142
1.0
143
1.0
 70
  1712
 72
     0
 73
     0
 74
     0
  7

 75
     0
147
1.0
148
0.0
149
0.0
100
AcDbLayout
  1
Model
 70
     1
 71
     0
 10
0.0
 20
0.0
 11
12.0
 21
9.0
 12
0.0
 22
0.0
 32
0.0
 14
0.0
 24
0.0
 34
0.0
 15
0.0
 25
0.0
 35
0.0
146
0.0
 13
0.0
 23
0.0
 33
0.0
 16
1.0
 26
0.0
 36
0.0
 17
0.0
 27
1.0
 37
0.0
 76
     0
330
E46C
331
E668
  0
LAYOUT
  5
E6C0
102
{ACAD_XDICTIONARY
360
E71D
102
}
102
{ACAD_REACTORS
330
E467
102
}
330
E467
100
AcDbPlotSettings
  1

  2
Canon LBP9100C
  4

  6

 40
0.0
 41
0.0
 42
0.0
 43
0.0
 44
0.0
 45
0.0
 46
0.0
 47
0.0
 48
0.0
 49
0.0
140
0.0
141
0.0
142
1.0
143
1.0
 70
   688
 72
     0
 73
     0
 74
     5
  7

 75
    16
147
1.0
148
0.0
149
0.0
100
AcDbLayout
  1
レイアウト1
 70
     0
 71
     1
 10
0.0
 20
0.0
 11
420.0
 21
297.0
 12
0.0
 22
0.0
 32
0.0
 14
1.000000000000000E+20
 24
1.000000000000000E+20
 34
1.000000000000000E+20
 15
-1.000000000000000E+20
 25
-1.000000000000000E+20
 35
-1.000000000000000E+20
146
0.0
 13
0.0
 23
0.0
 33
0.0
 16
1.0
 26
0.0
 36
0.0
 17
0.0
 27
1.0
 37
0.0
 76
     0
330
E468
  0
MATERIAL
  5
E67B
102
{ACAD_XDICTIONARY
360
E67C
102
}
102
{ACAD_REACTORS
330
E672
102
}
330
E672
100
AcDbMaterial
  1
ByBlock
 72
     0
 43
0.0208333333333333
 43
0.0
 43
0.0
 43
0.0
 43
0.0
 43
0.0208333333333333
 43
0.0
 43
0.0
 43
0.0
 43
0.0
 43
1.0
 43
0.0
 43
0.0
 43
0.0
 43
0.0
 43
1.0
 77
     0
 47
0.0208333333333333
 47
0.0
 47
0.0
 47
0.0
 47
0.0
 47
0.0208333333333333
 47
0.0
 47
0.0
 47
0.0
 47
0.0
 47
1.0
 47
0.0
 47
0.0
 47
0.0
 47
0.0
 47
1.0
171
     0
 49
0.0208333333333333
 49
0.0
 49
0.0
 49
0.0
 49
0.0
 49
0.0208333333333333
 49
0.0
 49
0.0
 49
0.0
 49
0.0
 49
1.0
 49
0.0
 49
0.0
 49
0.0
 49
0.0
 49
1.0
175
     0
142
0.0208333333333333
142
0.0
142
0.0
142
0.0
142
0.0
142
0.0208333333333333
142
0.0
142
0.0
142
0.0
142
0.0
142
1.0
142
0.0
142
0.0
142
0.0
142
0.0
142
1.0
179
     0
144
0.0208333333333333
144
0.0
144
0.0
144
0.0
144
0.0
144
0.0208333333333333
144
0.0
144
0.0
144
0.0
144
0.0
144
1.0
144
0.0
144
0.0
144
0.0
144
0.0
144
1.0
147
0.0208333333333333
147
0.0
147
0.0
147
0.0
147
0.0
147
0.0208333333333333
147
0.0
147
0.0
147
0.0
147
0.0
147
1.0
147
0.0
147
0.0
147
0.0
147
0.0
147
1.0
  0
MATERIAL
  5
E673
102
{ACAD_XDICTIONARY
360
E674
102
}
102
{ACAD_REACTORS
330
E672
102
}
330
E672
100
AcDbMaterial
  1
ByLayer
 72
     0
 43
0.0208333333333333
 43
0.0
 43
0.0
 43
0.0
 43
0.0
 43
0.0208333333333333
 43
0.0
 43
0.0
 43
0.0
 43
0.0
 43
1.0
 43
0.0
 43
0.0
 43
0.0
 43
0.0
 43
1.0
 77
     0
 47
0.0208333333333333
 47
0.0
 47
0.0
 47
0.0
 47
0.0
 47
0.0208333333333333
 47
0.0
 47
0.0
 47
0.0
 47
0.0
 47
1.0
 47
0.0
 47
0.0
 47
0.0
 47
0.0
 47
1.0
171
     0
 49
0.0208333333333333
 49
0.0
 49
0.0
 49
0.0
 49
0.0
 49
0.0208333333333333
 49
0.0
 49
0.0
 49
0.0
 49
0.0
 49
1.0
 49
0.0
 49
0.0
 49
0.0
 49
0.0
 49
1.0
175
     0
142
0.0208333333333333
142
0.0
142
0.0
142
0.0
142
0.0
142
0.0208333333333333
142
0.0
142
0.0
142
0.0
142
0.0
142
1.0
142
0.0
142
0.0
142
0.0
142
0.0
142
1.0
179
     0
144
0.0208333333333333
144
0.0
144
0.0
144
0.0
144
0.0
144
0.0208333333333333
144
0.0
144
0.0
144
0.0
144
0.0
144
1.0
144
0.0
144
0.0
144
0.0
144
0.0
144
1.0
147
0.0208333333333333
147
0.0
147
0.0
147
0.0
147
0.0
147
0.0208333333333333
147
0.0
147
0.0
147
0.0
147
0.0
147
1.0
147
0.0
147
0.0
147
0.0
147
0.0
147
1.0
  0
MATERIAL
  5
E683
102
{ACAD_XDICTIONARY
360
E684
102
}
102
{ACAD_REACTORS
330
E672
102
}
330
E672
100
AcDbMaterial
  1
Global
 72
     0
 43
0.0208333333333333
 43
0.0
 43
0.0
 43
0.0
 43
0.0
 43
0.0208333333333333
 43
0.0
 43
0.0
 43
0.0
 43
0.0
 43
1.0
 43
0.0
 43
0.0
 43
0.0
 43
0.0
 43
1.0
 77
     0
 47
0.0208333333333333
 47
0.0
 47
0.0
 47
0.0
 47
0.0
 47
0.0208333333333333
 47
0.0
 47
0.0
 47
0.0
 47
0.0
 47
1.0
 47
0.0
 47
0.0
 47
0.0
 47
0.0
 47
1.0
171
     0
 49
0.0208333333333333
 49
0.0
 49
0.0
 49
0.0
 49
0.0
 49
0.0208333333333333
 49
0.0
 49
0.0
 49
0.0
 49
0.0
 49
1.0
 49
0.0
 49
0.0
 49
0.0
 49
0.0
 49
1.0
175
     0
142
0.0208333333333333
142
0.0
142
0.0
142
0.0
142
0.0
142
0.0208333333333333
142
0.0
142
0.0
142
0.0
142
0.0
142
1.0
142
0.0
142
0.0
142
0.0
142
0.0
142
1.0
179
     0
144
0.0208333333333333
144
0.0
144
0.0
144
0.0
144
0.0
144
0.0208333333333333
144
0.0
144
0.0
144
0.0
144
0.0
144
1.0
144
0.0
144
0.0
144
0.0
144
0.0
144
1.0
147
0.0208333333333333
147
0.0
147
0.0
147
0.0
147
0.0
147
0.0208333333333333
147
0.0
147
0.0
147
0.0
147
0.0
147
1.0
147
0.0
147
0.0
147
0.0
147
0.0
147
1.0
  0
MLEADERSTYLE
  5
E6BA
102
{ACAD_REACTORS
330
E6B9
102
}
330
E6B9
100
AcDbMLeaderStyle
170
     2
171
     1
172
     0
 90
        2
 40
0.0
 41
0.0
173
     1
 91
-1056964608
340
E461
 92
       -2
290
     1
 42
0.09
291
     1
 43
0.36
  3
Standard
 44
0.18
300

342
E45F
174
     1
178
     6
175
     1
176
     0
 93
-1056964608
 45
0.18
292
     0
297
     0
 46
0.18
 94
-1056964608
 47
1.0
 49
1.0
140
1.0
293
     1
141
0.0
294
     1
177
     0
142
1.0
295
     0
296
     0
143
0.125
1001
ACAD_MLEADERVER
1070
     2
  0
MLINESTYLE
  5
E465
102
{ACAD_REACTORS
330
E464
102
}
330
E464
100
AcDbMlineStyle
  2
STANDARD
 70
     0
  3

 62
   256
 51
90.0
 52
90.0
 71
     2
 49
0.5
 62
   256
  6
BYLAYER
 49
-0.5
 62
   256
  6
BYLAYER
  0
ACDBPLACEHOLDER
  5
E671
102
{ACAD_REACTORS
330
E670
102
}
330
E670
  0
SCALE
  5
E6A8
102
{ACAD_REACTORS
330
E6A7
102
}
330
E6A7
100
AcDbScale
 70
     0
300
1:1
140
1.0
141
1.0
290
     1
  0
SCALE
  5
E6A9
102
{ACAD_REACTORS
330
E6A7
102
}
330
E6A7
100
AcDbScale
 70
     0
300
1/128" = 1'-0"
140
0.0078125
141
12.0
290
     0
  0
SCALE
  5
E6AA
102
{ACAD_REACTORS
330
E6A7
102
}
330
E6A7
100
AcDbScale
 70
     0
300
1/64" = 1'-0"
140
0.015625
141
12.0
290
     0
  0
SCALE
  5
E6AB
102
{ACAD_REACTORS
330
E6A7
102
}
330
E6A7
100
AcDbScale
 70
     0
300
1/32" = 1'-0"
140
0.03125
141
12.0
290
     0
  0
SCALE
  5
E6AC
102
{ACAD_REACTORS
330
E6A7
102
}
330
E6A7
100
AcDbScale
 70
     0
300
1/16" = 1'-0"
140
0.0625
141
12.0
290
     0
  0
SCALE
  5
E6AD
102
{ACAD_REACTORS
330
E6A7
102
}
330
E6A7
100
AcDbScale
 70
     0
300
3/32" = 1'-0"
140
0.09375
141
12.0
290
     0
  0
SCALE
  5
E6AE
102
{ACAD_REACTORS
330
E6A7
102
}
330
E6A7
100
AcDbScale
 70
     0
300
1/8" = 1'-0"
140
0.125
141
12.0
290
     0
  0
SCALE
  5
E6AF
102
{ACAD_REACTORS
330
E6A7
102
}
330
E6A7
100
AcDbScale
 70
     0
300
3/16" = 1'-0"
140
0.1875
141
12.0
290
     0
  0
SCALE
  5
E6B0
102
{ACAD_REACTORS
330
E6A7
102
}
330
E6A7
100
AcDbScale
 70
     0
300
1/4" = 1'-0"
140
0.25
141
12.0
290
     0
  0
SCALE
  5
E6B1
102
{ACAD_REACTORS
330
E6A7
102
}
330
E6A7
100
AcDbScale
 70
     0
300
3/8" = 1'-0"
140
0.375
141
12.0
290
     0
  0
SCALE
  5
E6B2
102
{ACAD_REACTORS
330
E6A7
102
}
330
E6A7
100
AcDbScale
 70
     0
300
1/2" = 1'-0"
140
0.5
141
12.0
290
     0
  0
SCALE
  5
E6B3
102
{ACAD_REACTORS
330
E6A7
102
}
330
E6A7
100
AcDbScale
 70
     0
300
3/4" = 1'-0"
140
0.75
141
12.0
290
     0
  0
SCALE
  5
E6B4
102
{ACAD_REACTORS
330
E6A7
102
}
330
E6A7
100
AcDbScale
 70
     0
300
1" = 1'-0"
140
1.0
141
12.0
290
     0
  0
SCALE
  5
E6B5
102
{ACAD_REACTORS
330
E6A7
102
}
330
E6A7
100
AcDbScale
 70
     0
300
1-1/2" = 1'-0"
140
1.5
141
12.0
290
     0
  0
SCALE
  5
E6B6
102
{ACAD_REACTORS
330
E6A7
102
}
330
E6A7
100
AcDbScale
 70
     0
300
3" = 1'-0"
140
3.0
141
12.0
290
     0
  0
SCALE
  5
E6B7
102
{ACAD_REACTORS
330
E6A7
102
}
330
E6A7
100
AcDbScale
 70
     0
300
6" = 1'-0"
140
6.0
141
12.0
290
     0
  0
SCALE
  5
E6B8
102
{ACAD_REACTORS
330
E6A7
102
}
330
E6A7
100
AcDbScale
 70
     0
300
1'-0" = 1'-0"
140
12.0
141
12.0
290
     0
  0
ACDBSECTIONVIEWSTYLE
  5
E6BC
102
{ACAD_XDICTIONARY
360
E717
102
}
102
{ACAD_REACTORS
330
E6BB
102
}
330
E6BB
100
AcDbModelDocViewStyle
 70
     0
  3
Imperial24
290
     0
100
AcDbSectionViewStyle
 70
     0
 71
     0
 90
       78
 71
     1
340
E45F
 40
0.24
340
0
340
0
 40
0.24
300
I, O, Q, S, X, Z
 40
0.48
 90
        3
 40
0.18
 90
        1
 71
     2
340
E463
 90
       25
340
E463
 90
       50
 40
0.24
 40
0.0
 40
0.24
 71
     3
340
E45F
 40
0.24
 90
        1
 40
0.75
 90
        1
300
%<\AcVar ViewType \f "%tc1">% %<\AcVar ViewSectionStartId>%-%<\AcVar ViewSectionEndId>%\PSCALE %<\AcVar ViewScale \f "%sn">%
 71
     4
300
ANSI31
 40
1.0
 90
        0
290
     0
290
     0
 90
        6
 40
0.0
 40
1.570796326794896
 40
0.2617993877991494
 40
1.308996938995747
 40
-0.2617993877991494
 40
1.832595714594046
  0
TABLESTYLE
  5
E6A6
102
{ACAD_XDICTIONARY
360
E6DE
102
}
102
{ACAD_REACTORS
330
E6A5
102
}
330
E6A5
100
AcDbTableStyle
  3
Standard
 70
     0
 71
     0
 40
0.06
 41
0.06
280
     0
281
     0
  7
STANDARD
140
0.18
170
     2
 62
     0
 63
     7
283
     0
274
    -2
284
     1
 64
     0
275
    -2
285
     1
 65
     0
276
    -2
286
     1
 66
     0
277
    -2
287
     1
 67
     0
278
    -2
288
     1
 68
     0
279
    -2
289
     1
 69
     0
  7
STANDARD
140
0.25
170
     5
 62
     0
 63
     7
283
     0
274
    -2
284
     1
 64
     0
275
    -2
285
     1
 65
     0
276
    -2
286
     1
 66
     0
277
    -2
287
     1
 67
     0
278
    -2
288
     1
 68
     0
279
    -2
289
     1
 69
     0
  7
STANDARD
140
0.18
170
     5
 62
     0
 63
     7
283
     0
274
    -2
284
     1
 64
     0
275
    -2
285
     1
 65
     0
276
    -2
286
     1
 66
     0
277
    -2
287
     1
 67
     0
278
    -2
288
     1
 68
     0
279
    -2
289
     1
 69
     0
  0
VISUALSTYLE
  5
E691
102
{ACAD_XDICTIONARY
360
E6EF
102
}
102
{ACAD_REACTORS
330
E68B
102
}
330
E68B
100
AcDbVisualStyle
  2
2dWireframe
 70
     4
 71
     0
 72
     2
 73
     0
 90
        0
 40
-0.6
 41
-30.0
 62
     5
 63
     7
 74
     1
 91
        4
 64
     7
 65
   257
 75
     1
175
     1
 42
1.0
 92
        0
 66
   257
 43
1.0
 76
     1
 77
     6
 78
     2
 67
     7
 79
     5
170
     0
171
     0
290
     0
174
     0
 93
        1
 44
0.0
173
     0
291
     0
 45
0.0
1001
ACAD
1000
AcDbSavedByObjectVersion
1070
     0
  0
VISUALSTYLE
  5
E690
102
{ACAD_XDICTIONARY
360
E6ED
102
}
102
{ACAD_REACTORS
330
E68B
102
}
330
E68B
100
AcDbVisualStyle
  2
Basic
 70
     7
 71
     1
 72
     0
 73
     1
 90
        0
 40
-0.6
 41
-30.0
 62
     5
 63
     7
 74
     0
 91
        4
 64
     7
 65
   257
 75
     1
175
     1
 42
1.0
 92
        8
 66
     7
 43
1.0
 76
     1
 77
     6
 78
     2
 67
     7
 79
     5
170
     0
171
     0
290
     0
174
     0
 93
        1
 44
0.0
173
     0
291
     1
 45
0.0
1001
ACAD
1000
AcDbSavedByObjectVersion
1070
     0
  0
VISUALSTYLE
  5
E697
102
{ACAD_XDICTIONARY
360
E6FB
102
}
102
{ACAD_REACTORS
330
E68B
102
}
330
E68B
100
AcDbVisualStyle
  2
Brighten
 70
    12
 71
     2
 72
     2
 73
     0
 90
        0
 40
-0.6
 41
-30.0
 62
     5
 63
     7
 74
     1
 91
        4
 64
     7
 65
   257
 75
     1
175
     1
 42
1.0
 92
        8
 66
     7
 43
1.0
 76
     1
 77
     6
 78
     2
 67
     7
 79
     5
170
     0
171
     0
290
     0
174
     0
 93
        1
 44
50.0
173
     0
291
     1
 45
0.0
1001
ACAD
1000
AcDbSavedByObjectVersion
1070
     0
  0
VISUALSTYLE
  5
E69B
102
{ACAD_XDICTIONARY
360
E703
102
}
102
{ACAD_REACTORS
330
E68B
102
}
330
E68B
100
AcDbVisualStyle
  2
ColorChange
 70
    16
 71
     2
 72
     2
 73
     3
 90
        0
 40
-0.6
 41
-30.0
 62
     5
 63
     8
 74
     1
 91
        4
 64
     7
 65
   257
 75
     1
175
     1
 42
1.0
 92
        8
 66
     8
 43
1.0
 76
     1
 77
     6
 78
     2
 67
     7
 79
     5
170
     0
171
     0
290
     0
174
     0
 93
        1
 44
0.0
173
     0
291
     1
 45
0.0
1001
ACAD
1000
AcDbSavedByObjectVersion
1070
     0
  0
VISUALSTYLE
  5
E694
102
{ACAD_XDICTIONARY
360
E6F5
102
}
102
{ACAD_REACTORS
330
E68B
102
}
330
E68B
100
AcDbVisualStyle
  2
Conceptual
 70
     9
 71
     3
 72
     2
 73
     0
 90
        0
 40
-0.6
 41
-30.0
 62
     5
 63
     7
 74
     2
 91
        2
 64
     7
 65
   257
 75
     1
175
     1
 42
179.0
 92
        8
 66
     7
 43
1.0
 76
     1
 77
     6
 78
     2
 67
     7
 79
     3
170
     0
171
     0
290
     0
174
     0
 93
        1
 44
0.0
173
     0
291
     0
 45
0.0
1001
ACAD
1000
AcDbSavedByObjectVersion
1070
     0
  0
VISUALSTYLE
  5
E696
102
{ACAD_XDICTIONARY
360
E6F9
102
}
102
{ACAD_REACTORS
330
E68B
102
}
330
E68B
100
AcDbVisualStyle
  2
Dim
 70
    11
 71
     2
 72
     2
 73
     0
 90
        0
 40
-0.6
 41
-30.0
 62
     5
 63
     7
 74
     1
 91
        4
 64
     7
 65
   257
 75
     1
175
     1
 42
1.0
 92
        8
 66
     7
 43
1.0
 76
     1
 77
     6
 78
     2
 67
     7
 79
     5
170
     0
171
     0
290
     0
174
     0
 93
        1
 44
-50.0
173
     0
291
     1
 45
0.0
1001
ACAD
1000
AcDbSavedByObjectVersion
1070
     0
  0
VISUALSTYLE
  5
E6A3
102
{ACAD_XDICTIONARY
360
E713
102
}
102
{ACAD_REACTORS
330
E68B
102
}
330
E68B
100
AcDbVisualStyle
  2
EdgeColorOff
 70
    22
 71
     2
 72
     2
 73
     0
 90
        0
 40
-0.6
 41
-30.0
 62
     5
 63
     7
 74
     1
 91
        4
 64
     7
 65
   257
 75
     1
175
     1
 42
1.0
 92
        8
 66
     7
 43
1.0
 76
     1
 77
     6
 78
     2
 67
     7
 79
     5
170
     0
171
     0
290
     0
174
     0
 93
        1
 44
0.0
173
     0
291
     1
 45
0.0
1001
ACAD
1000
AcDbSavedByObjectVersion
1070
     0
  0
VISUALSTYLE
  5
E69A
102
{ACAD_XDICTIONARY
360
E701
102
}
102
{ACAD_REACTORS
330
E68B
102
}
330
E68B
100
AcDbVisualStyle
  2
Facepattern
 70
    15
 71
     2
 72
     2
 73
     0
 90
        0
 40
-0.6
 41
-30.0
 62
     5
 63
     7
 74
     1
 91
        4
 64
     7
 65
   257
 75
     1
175
     1
 42
1.0
 92
        8
 66
     7
 43
1.0
 76
     1
 77
     6
 78
     2
 67
     7
 79
     5
170
     0
171
     0
290
     0
174
     0
 93
        1
 44
0.0
173
     0
291
     1
 45
0.0
1001
ACAD
1000
AcDbSavedByObjectVersion
1070
     0
  0
VISUALSTYLE
  5
E68C
102
{ACAD_XDICTIONARY
360
E6E5
102
}
102
{ACAD_REACTORS
330
E68B
102
}
330
E68B
100
AcDbVisualStyle
  2
Flat
 70
     0
 71
     2
 72
     1
 73
     1
 90
        2
 40
-0.6
 41
30.0
 62
     5
 63
     7
 74
     0
 91
        0
 64
     7
 65
   257
 75
     1
175
     1
 42
1.0
 92
        8
 66
     7
 43
1.0
 76
     1
 77
     6
 78
     2
 67
     7
 79
     5
170
     0
171
     0
290
     0
174
     0
 93
       13
 44
0.0
173
     0
291
     1
 45
0.0
1001
ACAD
1000
AcDbSavedByObjectVersion
1070
     0
  0
VISUALSTYLE
  5
E68D
102
{ACAD_XDICTIONARY
360
E6E7
102
}
102
{ACAD_REACTORS
330
E68B
102
}
330
E68B
100
AcDbVisualStyle
  2
FlatWithEdges
 70
     1
 71
     2
 72
     1
 73
     1
 90
        2
 40
-0.6
 41
30.0
 62
     5
 63
     7
 74
     1
 91
        0
 64
     7
 65
   257
 75
     1
175
     1
 42
1.0
 92
        0
 66
   257
 43
1.0
 76
     1
 77
     6
 78
     2
 67
     7
 79
     5
170
     0
171
     0
290
     0
174
     0
 93
       13
 44
0.0
173
     0
291
     1
 45
0.0
1001
ACAD
1000
AcDbSavedByObjectVersion
1070
     0
  0
VISUALSTYLE
  5
E68E
102
{ACAD_XDICTIONARY
360
E6E9
102
}
102
{ACAD_REACTORS
330
E68B
102
}
330
E68B
100
AcDbVisualStyle
  2
Gouraud
 70
     2
 71
     2
 72
     2
 73
     1
 90
        2
 40
-0.6
 41
30.0
 62
     5
 63
     7
 74
     0
 91
        0
 64
     7
 65
   257
 75
     1
175
     1
 42
1.0
 92
        0
 66
     7
 43
1.0
 76
     1
 77
     6
 78
     2
 67
     7
 79
     5
170
     0
171
     0
290
     0
174
     0
 93
       13
 44
0.0
173
     0
291
     1
 45
0.0
1001
ACAD
1000
AcDbSavedByObjectVersion
1070
     0
  0
VISUALSTYLE
  5
E68F
102
{ACAD_XDICTIONARY
360
E6EB
102
}
102
{ACAD_REACTORS
330
E68B
102
}
330
E68B
100
AcDbVisualStyle
  2
GouraudWithEdges
 70
     3
 71
     2
 72
     2
 73
     1
 90
        2
 40
-0.6
 41
30.0
 62
     5
 63
     7
 74
     1
 91
        0
 64
     7
 65
   257
 75
     1
175
     1
 42
1.0
 92
        0
 66
   257
 43
1.0
 76
     1
 77
     6
 78
     2
 67
     7
 79
     5
170
     0
171
     0
290
     0
174
     0
 93
       13
 44
0.0
173
     0
291
     1
 45
0.0
1001
ACAD
1000
AcDbSavedByObjectVersion
1070
     0
  0
VISUALSTYLE
  5
E693
102
{ACAD_XDICTIONARY
360
E6F3
102
}
102
{ACAD_REACTORS
330
E68B
102
}
330
E68B
100
AcDbVisualStyle
  2
Hidden
 70
     6
 71
     1
 72
     2
 73
     2
 90
        0
 40
-0.6
 41
-30.0
 62
     5
 63
     7
 74
     2
 91
        2
 64
     7
 65
   257
 75
     2
175
     1
 42
40.0
 92
        0
 66
   257
 43
1.0
 76
     1
 77
     6
 78
     2
 67
     7
 79
     3
170
     0
171
     0
290
     0
174
     0
 93
        1
 44
0.0
173
     0
291
     0
 45
0.0
1001
ACAD
1000
AcDbSavedByObjectVersion
1070
     0
  0
VISUALSTYLE
  5
E6A1
102
{ACAD_XDICTIONARY
360
E70F
102
}
102
{ACAD_REACTORS
330
E68B
102
}
330
E68B
100
AcDbVisualStyle
  2
JitterOff
 70
    20
 71
     2
 72
     2
 73
     0
 90
        0
 40
-0.6
 41
-30.0
 62
     5
 63
     7
 74
     1
 91
        4
 64
     7
 65
   257
 75
     1
175
     1
 42
1.0
 92
       10
 66
     7
 43
1.0
 76
     1
 77
     6
 78
     2
 67
     7
 79
     5
170
     0
171
     0
290
     0
174
     0
 93
        1
 44
0.0
173
     0
291
     1
 45
0.0
1001
ACAD
1000
AcDbSavedByObjectVersion
1070
     0
  0
VISUALSTYLE
  5
E699
102
{ACAD_XDICTIONARY
360
E6FF
102
}
102
{ACAD_REACTORS
330
E68B
102
}
330
E68B
100
AcDbVisualStyle
  2
Linepattern
 70
    14
 71
     2
 72
     2
 73
     0
 90
        0
 40
-0.6
 41
-30.0
 62
     5
 63
     7
 74
     1
 91
        4
 64
     7
 65
   257
 75
     7
175
     7
 42
1.0
 92
        8
 66
     7
 43
1.0
 76
     1
 77
     6
 78
     2
 67
     7
 79
     5
170
     0
171
     0
290
     0
174
     0
 93
        1
 44
0.0
173
     0
291
     1
 45
0.0
1001
ACAD
1000
AcDbSavedByObjectVersion
1070
     0
  0
VISUALSTYLE
  5
E6A2
102
{ACAD_XDICTIONARY
360
E711
102
}
102
{ACAD_REACTORS
330
E68B
102
}
330
E68B
100
AcDbVisualStyle
  2
OverhangOff
 70
    21
 71
     2
 72
     2
 73
     0
 90
        0
 40
-0.6
 41
-30.0
 62
     5
 63
     7
 74
     1
 91
        4
 64
     7
 65
   257
 75
     1
175
     1
 42
1.0
 92
        9
 66
     7
 43
1.0
 76
     1
 77
     6
 78
     2
 67
     7
 79
     5
170
     0
171
     0
290
     0
174
     0
 93
        1
 44
0.0
173
     0
291
     1
 45
0.0
1001
ACAD
1000
AcDbSavedByObjectVersion
1070
     0
  0
VISUALSTYLE
  5
E695
102
{ACAD_XDICTIONARY
360
E6F7
102
}
102
{ACAD_REACTORS
330
E68B
102
}
330
E68B
100
AcDbVisualStyle
  2
Realistic
 70
     8
 71
     2
 72
     3
 73
     0
 90
        2
 40
-0.6
 41
30.0
 62
     5
 63
     7
 74
     0
 91
        0
 64
     7
 65
   257
 75
     1
175
     1
 42
1.0
 92
        8
 66
   257
 43
1.0
 76
     1
 77
     6
 78
     2
 67
     7
 79
     3
170
     0
171
     0
290
     0
174
     0
 93
       13
 44
0.0
173
     0
291
     0
 45
0.0
1001
ACAD
1000
AcDbSavedByObjectVersion
1070
     0
  0
VISUALSTYLE
  5
E6A0
102
{ACAD_XDICTIONARY
360
E70D
102
}
102
{ACAD_REACTORS
330
E68B
102
}
330
E68B
100
AcDbVisualStyle
  2
Shaded
 70
    27
 71
     2
 72
     2
 73
     1
 90
        2
 40
-0.6
 41
30.0
 62
     5
 63
     7
 74
     0
 91
        4
 64
     7
 65
   257
 75
     1
175
     1
 42
1.0
 92
        8
 66
   257
 43
1.0
 76
     1
 77
     6
 78
     2
 67
     8
 79
     3
170
     0
171
     0
290
     0
174
     0
 93
        5
 44
0.0
173
     0
291
     0
 45
0.0
1001
ACAD
1000
AcDbSavedByObjectVersion
1070
     0
  0
VISUALSTYLE
  5
E69F
102
{ACAD_XDICTIONARY
360
E70B
102
}
102
{ACAD_REACTORS
330
E68B
102
}
330
E68B
100
AcDbVisualStyle
  2
Shaded with edges
 70
    26
 71
     2
 72
     2
 73
     1
 90
        2
 40
-0.6
 41
30.0
 62
     5
 63
     7
 74
     1
 91
       10
 64
     7
 65
   257
 75
     2
175
     1
 42
1.0
 92
        8
 66
   257
 43
1.0
 76
     1
 77
     6
 78
     2
 67
     7
 79
     3
170
     0
171
     0
290
     0
174
     0
 93
        5
 44
0.0
173
     0
291
     0
 45
0.0
1001
ACAD
1000
AcDbSavedByObjectVersion
1070
     0
  0
VISUALSTYLE
  5
E69C
102
{ACAD_XDICTIONARY
360
E705
102
}
102
{ACAD_REACTORS
330
E68B
102
}
330
E68B
100
AcDbVisualStyle
  2
Shades of Gray
 70
    23
 71
     2
 72
     2
 73
     3
 90
        0
 40
-0.6
 41
-30.0
 62
     5
 63
     7
 74
     2
 91
        2
 64
     7
 65
     7
 75
     1
175
     1
 42
40.0
 92
        8
 66
     7
 43
1.0
 76
     1
 77
     6
 78
     2
 67
     7
 79
     3
170
     0
171
     0
290
     0
174
     0
 93
        1
 44
0.0
173
     0
291
     0
 45
0.0
1001
ACAD
1000
AcDbSavedByObjectVersion
1070
     0
  0
VISUALSTYLE
  5
E69D
102
{ACAD_XDICTIONARY
360
E707
102
}
102
{ACAD_REACTORS
330
E68B
102
}
330
E68B
100
AcDbVisualStyle
  2
Sketchy
 70
    24
 71
     1
 72
     2
 73
     2
 90
        0
 40
-0.6
 41
-30.0
 62
     5
 63
     7
 74
     2
 91
        2
 64
     7
 65
     7
 75
     1
175
     1
 42
40.0
 92
       11
 66
     7
 43
1.0
 76
     1
 77
     6
 78
     2
 67
     7
 79
     6
170
     0
171
     0
290
     0
174
     0
 93
        1
 44
0.0
173
     0
291
     0
 45
0.0
1001
ACAD
1000
AcDbSavedByObjectVersion
1070
     0
  0
VISUALSTYLE
  5
E698
102
{ACAD_XDICTIONARY
360
E6FD
102
}
102
{ACAD_REACTORS
330
E68B
102
}
330
E68B
100
AcDbVisualStyle
  2
Thicken
 70
    13
 71
     2
 72
     2
 73
     0
 90
        0
 40
-0.6
 41
-30.0
 62
     5
 63
     7
 74
     1
 91
        4
 64
     7
 65
   257
 75
     1
175
     1
 42
1.0
 92
       12
 66
     7
 43
1.0
 76
     1
 77
     6
 78
     2
 67
     7
 79
     5
170
     0
171
     0
290
     0
174
     0
 93
        1
 44
0.0
173
     0
291
     1
 45
0.0
1001
ACAD
1000
AcDbSavedByObjectVersion
1070
     0
  0
VISUALSTYLE
  5
E692
102
{ACAD_XDICTIONARY
360
E6F1
102
}
102
{ACAD_REACTORS
330
E68B
102
}
330
E68B
100
AcDbVisualStyle
  2
Wireframe
 70
     5
 71
     0
 72
     2
 73
     0
 90
        0
 40
-0.6
 41
-30.0
 62
     5
 63
     7
 74
     1
 91
        4
 64
     7
 65
   257
 75
     1
175
     1
 42
1.0
 92
        0
 66
   257
 43
1.0
 76
     1
 77
     6
 78
     2
 67
     7
 79
     3
170
     0
171
     0
290
     0
174
     0
 93
        1
 44
0.0
173
     0
291
     0
 45
0.0
1001
ACAD
1000
AcDbSavedByObjectVersion
1070
     0
  0
VISUALSTYLE
  5
E69E
102
{ACAD_XDICTIONARY
360
E709
102
}
102
{ACAD_REACTORS
330
E68B
102
}
330
E68B
100
AcDbVisualStyle
  2
X-Ray
 70
    25
 71
     2
 72
     2
 73
     1
 90
        1
 40
0.5
 41
-30.0
 62
     5
 63
     7
 74
     1
 91
        0
 64
     7
 65
   257
 75
     1
175
     1
 42
1.0
 92
        8
 66
     7
 43
1.0
 76
     1
 77
     6
 78
     2
 67
     7
 79
     3
170
     0
171
     0
290
     0
174
     0
 93
       13
 44
0.0
173
     0
291
     0
 45
0.0
1001
ACAD
1000
AcDbSavedByObjectVersion
1070
     0
  0
DICTIONARYVAR
  5
E6D8
102
{ACAD_REACTORS
330
E6D3
102
}
330
E6D3
100
DictionaryVariables
280
     0
  1
1:1
  0
DICTIONARYVAR
  5
E6D5
102
{ACAD_REACTORS
330
E6D3
102
}
330
E6D3
100
DictionaryVariables
280
     0
  1
STANDARD
  0
DICTIONARYVAR
  5
E6D4
102
{ACAD_REACTORS
330
E6D3
102
}
330
E6D3
100
DictionaryVariables
280
     0
  1
STANDARD
  0
DICTIONARYVAR
  5
E6D6
102
{ACAD_REACTORS
330
E6D3
102
}
330
E6D3
100
DictionaryVariables
280
     0
  1
Imperial24
  0
DICTIONARYVAR
  5
E6D7
102
{ACAD_REACTORS
330
E6D3
102
}
330
E6D3
100
DictionaryVariables
280
     0
  1
Imperial24
  0
DICTIONARYVAR
  5
E6DB
102
{ACAD_REACTORS
330
E6D3
102
}
330
E6D3
100
DictionaryVariables
280
     0
  1
1
  0
DICTIONARYVAR
  5
E6DA
102
{ACAD_REACTORS
330
E6D3
102
}
330
E6D3
100
DictionaryVariables
280
     0
  1
0
  0
DICTIONARYVAR
  5
E6D9
102
{ACAD_REACTORS
330
E6D3
102
}
330
E6D3
100
DictionaryVariables
280
     0
  1
127
  0
DICTIONARYVAR
  5
E6DC
102
{ACAD_REACTORS
330
E6D3
102
}
330
E6D3
100
DictionaryVariables
280
     0
  1
2
  0
DICTIONARY
  5
E719
330
E6BE
100
AcDbDictionary
280
     1
281
     1
  3
ACAD_XREC_ROUNDTRIP
360
E71A
  0
DICTIONARY
  5
E71B
330
E6BF
100
AcDbDictionary
280
     1
281
     1
  3
ACAD_XREC_ROUNDTRIP
360
E71C
  0
DICTIONARY
  5
E71D
330
E6C0
100
AcDbDictionary
280
     1
281
     1
  3
ACAD_XREC_ROUNDTRIP
360
E71E
  0
DICTIONARY
  5
E67C
330
E67B
100
AcDbDictionary
280
     1
281
     1
  3
ACAD_XREC_ROUNDTRIP
360
E6E3
  3
BUMPTILE
360
E67E
  3
DIFFUSETILE
360
E67D
  3
OPACITYTILE
360
E681
  3
REFLECTIONTILE
360
E680
  3
REFRACTIONTILE
360
E682
  3
SPECULARTILE
360
E67F
  0
DICTIONARY
  5
E674
330
E673
100
AcDbDictionary
280
     1
281
     1
  3
ACAD_XREC_ROUNDTRIP
360
E6E2
  3
BUMPTILE
360
E676
  3
DIFFUSETILE
360
E675
  3
OPACITYTILE
360
E679
  3
REFLECTIONTILE
360
E678
  3
REFRACTIONTILE
360
E67A
  3
SPECULARTILE
360
E677
  0
DICTIONARY
  5
E684
330
E683
100
AcDbDictionary
280
     1
281
     1
  3
ACAD_XREC_ROUNDTRIP
360
E6E4
  3
BUMPTILE
360
E686
  3
DIFFUSETILE
360
E685
  3
OPACITYTILE
360
E689
  3
REFLECTIONTILE
360
E688
  3
REFRACTIONTILE
360
E68A
  3
SPECULARTILE
360
E687
  0
DICTIONARY
  5
E717
330
E6BC
100
AcDbDictionary
280
     1
281
     1
  3
ACAD_XREC_ROUNDTRIP
360
E718
  0
DICTIONARY
  5
E6DE
330
E6A6
100
AcDbDictionary
280
     1
281
     1
  3
ACAD_ROUNDTRIP_2008_TABLESTYLE_CELLSTYLEMAP
360
E6DF
  3
ACAD_XREC_ROUNDTRIP
360
E715
  0
DICTIONARY
  5
E6EF
330
E691
100
AcDbDictionary
280
     1
281
     1
  3
ACAD_XREC_ROUNDTRIP
360
E6F0
  0
DICTIONARY
  5
E6ED
330
E690
100
AcDbDictionary
280
     1
281
     1
  3
ACAD_XREC_ROUNDTRIP
360
E6EE
  0
DICTIONARY
  5
E6FB
330
E697
100
AcDbDictionary
280
     1
281
     1
  3
ACAD_XREC_ROUNDTRIP
360
E6FC
  0
DICTIONARY
  5
E703
330
E69B
100
AcDbDictionary
280
     1
281
     1
  3
ACAD_XREC_ROUNDTRIP
360
E704
  0
DICTIONARY
  5
E6F5
330
E694
100
AcDbDictionary
280
     1
281
     1
  3
ACAD_XREC_ROUNDTRIP
360
E6F6
  0
DICTIONARY
  5
E6F9
330
E696
100
AcDbDictionary
280
     1
281
     1
  3
ACAD_XREC_ROUNDTRIP
360
E6FA
  0
DICTIONARY
  5
E713
330
E6A3
100
AcDbDictionary
280
     1
281
     1
  3
ACAD_XREC_ROUNDTRIP
360
E714
  0
DICTIONARY
  5
E701
330
E69A
100
AcDbDictionary
280
     1
281
     1
  3
ACAD_XREC_ROUNDTRIP
360
E702
  0
DICTIONARY
  5
E6E5
330
E68C
100
AcDbDictionary
280
     1
281
     1
  3
ACAD_XREC_ROUNDTRIP
360
E6E6
  0
DICTIONARY
  5
E6E7
330
E68D
100
AcDbDictionary
280
     1
281
     1
  3
ACAD_XREC_ROUNDTRIP
360
E6E8
  0
DICTIONARY
  5
E6E9
330
E68E
100
AcDbDictionary
280
     1
281
     1
  3
ACAD_XREC_ROUNDTRIP
360
E6EA
  0
DICTIONARY
  5
E6EB
330
E68F
100
AcDbDictionary
280
     1
281
     1
  3
ACAD_XREC_ROUNDTRIP
360
E6EC
  0
DICTIONARY
  5
E6F3
330
E693
100
AcDbDictionary
280
     1
281
     1
  3
ACAD_XREC_ROUNDTRIP
360
E6F4
  0
DICTIONARY
  5
E70F
330
E6A1
100
AcDbDictionary
280
     1
281
     1
  3
ACAD_XREC_ROUNDTRIP
360
E710
  0
DICTIONARY
  5
E6FF
330
E699
100
AcDbDictionary
280
     1
281
     1
  3
ACAD_XREC_ROUNDTRIP
360
E700
  0
DICTIONARY
  5
E711
330
E6A2
100
AcDbDictionary
280
     1
281
     1
  3
ACAD_XREC_ROUNDTRIP
360
E712
  0
DICTIONARY
  5
E6F7
330
E695
100
AcDbDictionary
280
     1
281
     1
  3
ACAD_XREC_ROUNDTRIP
360
E6F8
  0
DICTIONARY
  5
E70D
330
E6A0
100
AcDbDictionary
280
     1
281
     1
  3
ACAD_XREC_ROUNDTRIP
360
E70E
  0
DICTIONARY
  5
E70B
330
E69F
100
AcDbDictionary
280
     1
281
     1
  3
ACAD_XREC_ROUNDTRIP
360
E70C
  0
DICTIONARY
  5
E705
330
E69C
100
AcDbDictionary
280
     1
281
     1
  3
ACAD_XREC_ROUNDTRIP
360
E706
  0
DICTIONARY
  5
E707
330
E69D
100
AcDbDictionary
280
     1
281
     1
  3
ACAD_XREC_ROUNDTRIP
360
E708
  0
DICTIONARY
  5
E6FD
330
E698
100
AcDbDictionary
280
     1
281
     1
  3
ACAD_XREC_ROUNDTRIP
360
E6FE
  0
DICTIONARY
  5
E6F1
330
E692
100
AcDbDictionary
280
     1
281
     1
  3
ACAD_XREC_ROUNDTRIP
360
E6F2
  0
DICTIONARY
  5
E709
330
E69E
100
AcDbDictionary
280
     1
281
     1
  3
ACAD_XREC_ROUNDTRIP
360
E70A
  0
XRECORD
  5
E71A
102
{ACAD_REACTORS
330
E719
102
}
330
E719
100
AcDbXrecord
280
     1
102
DISPLAYNAME
  1
Imperial24
102
FLAGS
 90
        0
  0
XRECORD
  5
E71C
102
{ACAD_REACTORS
330
E71B
102
}
330
E71B
100
AcDbXrecord
280
     1
102
SHADEPLOT
 70
     0
102
SHADEPLOTRESLEVEL
 70
     2
102
SHADEPLOTCUSTOMDPI
 70
   300
  0
XRECORD
  5
E71E
102
{ACAD_REACTORS
330
E71D
102
}
330
E71D
100
AcDbXrecord
280
     1
102
SHADEPLOT
 70
     0
102
SHADEPLOTRESLEVEL
 70
     2
102
SHADEPLOTCUSTOMDPI
 70
   300
  0
XRECORD
  5
E6E3
102
{ACAD_REACTORS
330
E67C
102
}
330
E67C
100
AcDbXrecord
280
     1
102
MATERIAL
148
0.0
149
0.0
149
0.0
 93
        0
 94
      127
282
     0
 72
     0
 77
     0
171
     0
175
     0
179
     0
273
     0
  0
XRECORD
  5
E67E
102
{ACAD_REACTORS
330
E67C
102
}
330
E67C
100
AcDbXrecord
280
     1
270
     1
271
     1
  0
XRECORD
  5
E67D
102
{ACAD_REACTORS
330
E67C
102
}
330
E67C
100
AcDbXrecord
280
     1
270
     1
271
     1
  0
XRECORD
  5
E681
102
{ACAD_REACTORS
330
E67C
102
}
330
E67C
100
AcDbXrecord
280
     1
270
     1
271
     1
  0
XRECORD
  5
E680
102
{ACAD_REACTORS
330
E67C
102
}
330
E67C
100
AcDbXrecord
280
     1
270
     1
271
     1
  0
XRECORD
  5
E682
102
{ACAD_REACTORS
330
E67C
102
}
330
E67C
100
AcDbXrecord
280
     1
270
     1
271
     1
  0
XRECORD
  5
E67F
102
{ACAD_REACTORS
330
E67C
102
}
330
E67C
100
AcDbXrecord
280
     1
270
     1
271
     1
  0
XRECORD
  5
E6E2
102
{ACAD_REACTORS
330
E674
102
}
330
E674
100
AcDbXrecord
280
     1
102
MATERIAL
148
0.0
149
0.0
149
0.0
 93
        0
 94
      127
282
     0
 72
     0
 77
     0
171
     0
175
     0
179
     0
273
     0
  0
XRECORD
  5
E676
102
{ACAD_REACTORS
330
E674
102
}
330
E674
100
AcDbXrecord
280
     1
270
     1
271
     1
  0
XRECORD
  5
E675
102
{ACAD_REACTORS
330
E674
102
}
330
E674
100
AcDbXrecord
280
     1
270
     1
271
     1
  0
XRECORD
  5
E679
102
{ACAD_REACTORS
330
E674
102
}
330
E674
100
AcDbXrecord
280
     1
270
     1
271
     1
  0
XRECORD
  5
E678
102
{ACAD_REACTORS
330
E674
102
}
330
E674
100
AcDbXrecord
280
     1
270
     1
271
     1
  0
XRECORD
  5
E67A
102
{ACAD_REACTORS
330
E674
102
}
330
E674
100
AcDbXrecord
280
     1
270
     1
271
     1
  0
XRECORD
  5
E677
102
{ACAD_REACTORS
330
E674
102
}
330
E674
100
AcDbXrecord
280
     1
270
     1
271
     1
  0
XRECORD
  5
E6E4
102
{ACAD_REACTORS
330
E684
102
}
330
E684
100
AcDbXrecord
280
     1
102
MATERIAL
148
0.0
149
0.0
149
0.0
 93
        0
 94
      127
282
     0
 72
     0
 77
     0
171
     0
175
     0
179
     0
273
     0
  0
XRECORD
  5
E686
102
{ACAD_REACTORS
330
E684
102
}
330
E684
100
AcDbXrecord
280
     1
270
     1
271
     1
  0
XRECORD
  5
E685
102
{ACAD_REACTORS
330
E684
102
}
330
E684
100
AcDbXrecord
280
     1
270
     1
271
     1
  0
XRECORD
  5
E689
102
{ACAD_REACTORS
330
E684
102
}
330
E684
100
AcDbXrecord
280
     1
270
     1
271
     1
  0
XRECORD
  5
E688
102
{ACAD_REACTORS
330
E684
102
}
330
E684
100
AcDbXrecord
280
     1
270
     1
271
     1
  0
XRECORD
  5
E68A
102
{ACAD_REACTORS
330
E684
102
}
330
E684
100
AcDbXrecord
280
     1
270
     1
271
     1
  0
XRECORD
  5
E687
102
{ACAD_REACTORS
330
E684
102
}
330
E684
100
AcDbXrecord
280
     1
270
     1
271
     1
  0
XRECORD
  5
E718
102
{ACAD_REACTORS
330
E717
102
}
330
E717
100
AcDbXrecord
280
     1
102
DISPLAYNAME
  1
Imperial24
102
FLAGS
 90
        0
  0
CELLSTYLEMAP
  5
E6DF
102
{ACAD_REACTORS
330
E6DE
102
}
330
E6DE
100
AcDbCellStyleMap
 90
        3
300
CELLSTYLE
  1
TABLEFORMAT_BEGIN
 90
        5
170
     1
 91
        0
 92
    32768
 62
   257
 93
        1
300
CONTENTFORMAT
  1
CONTENTFORMAT_BEGIN
 90
        0
 91
        0
 92
      512
 93
        0
300

 40
0.0
140
1.0
 94
        5
 62
     0
340
E45F
144
0.25
309
CONTENTFORMAT_END
171
     0
 94
        0
309
TABLEFORMAT_END
  1
CELLSTYLE_BEGIN
 90
        1
 91
        1
300
_TITLE
309
CELLSTYLE_END
300
CELLSTYLE
  1
TABLEFORMAT_BEGIN
 90
        5
170
     1
 91
        0
 92
        0
 62
   257
 93
        1
300
CONTENTFORMAT
  1
CONTENTFORMAT_BEGIN
 90
        0
 91
        0
 92
      512
 93
        0
300

 40
0.0
140
1.0
 94
        5
 62
     0
340
E45F
144
0.18
309
CONTENTFORMAT_END
171
     0
 94
        0
309
TABLEFORMAT_END
  1
CELLSTYLE_BEGIN
 90
        2
 91
        1
300
_HEADER
309
CELLSTYLE_END
300
CELLSTYLE
  1
TABLEFORMAT_BEGIN
 90
        5
170
     1
 91
        0
 92
        0
 62
   257
 93
        1
300
CONTENTFORMAT
  1
CONTENTFORMAT_BEGIN
 90
        0
 91
        0
 92
      512
 93
        0
300

 40
0.0
140
1.0
 94
        2
 62
     0
340
E45F
144
0.18
309
CONTENTFORMAT_END
171
     0
 94
        0
309
TABLEFORMAT_END
  1
CELLSTYLE_BEGIN
 90
        3
 91
        2
300
_DATA
309
CELLSTYLE_END
  0
XRECORD
  5
E715
102
{ACAD_REACTORS
330
E6DE
102
}
330
E6DE
100
AcDbXrecord
280
     1
102
ACAD_ROUNDTRIP_PRE2007_TABLESTYLE
 90
      512
 91
        0
  1

 92
      512
 93
        0
  2

 94
      512
 95
        0
  3

  0
XRECORD
  5
E6F0
102
{ACAD_REACTORS
330
E6EF
102
}
330
E6EF
100
AcDbXrecord
280
     1
102
RTVSPost2010Prop28
280
     1
102
RTVSPost2010PropOp28
 70
     1
102
RTVSPost2010Prop29
280
     1
102
RTVSPost2010PropOp29
 70
     1
102
RTVSPost2010Prop30
280
     0
102
RTVSPost2010PropOp30
 70
     1
102
RTVSPost2010Prop31
280
     0
102
RTVSPost2010PropOp31
 70
     1
102
RTVSPost2010Prop32
280
     0
102
RTVSPost2010PropOp32
 70
     1
102
RTVSPost2010Prop33
280
     0
102
RTVSPost2010PropOp33
 70
     1
102
RTVSPost2010Prop34
280
     0
102
RTVSPost2010PropOp34
 70
     1
102
RTVSPost2010Prop35
280
     0
102
RTVSPost2010PropOp35
 70
     1
102
RTVSPost2010Prop36
280
     0
102
RTVSPost2010PropOp36
 70
     1
102
RTVSPost2010Prop37
 90
       50
102
RTVSPost2010PropOp37
 70
     1
102
RTVSPost2010Prop38
140
0.0
102
RTVSPost2010PropOp38
 70
     1
102
RTVSPost2010Prop39
140
1.0
102
RTVSPost2010PropOp39
 70
     1
102
RTVSPost2010Prop40
 90
        0
102
RTVSPost2010PropOp40
 70
     1
102
RTVSPost2010Prop41ColorIndex
 90
       18
102
RTVSPost2010Prop41ColorRGB
 90
        0
102
RTVSPost2010PropOp41
 70
     1
102
RTVSPost2010Prop42
 90
       50
102
RTVSPost2010PropOp42
 70
     1
102
RTVSPost2010Prop43
 90
        3
102
RTVSPost2010PropOp43
 70
     1
102
RTVSPost2010Prop44ColorIndex
 90
        5
102
RTVSPost2010Prop44ColorRGB
 90
      255
102
RTVSPost2010PropOp44
 70
     1
102
RTVSPost2010Prop45
280
     0
102
RTVSPost2010PropOp45
 70
     1
102
RTVSPost2010Prop46
 90
       50
102
RTVSPost2010PropOp46
 70
     1
102
RTVSPost2010Prop47
 90
       50
102
RTVSPost2010PropOp47
 70
     1
102
RTVSPost2010Prop48
 90
       50
102
RTVSPost2010PropOp48
 70
     1
102
RTVSPost2010Prop49
280
     0
102
RTVSPost2010PropOp49
 70
     1
102
RTVSPost2010Prop50
 90
       50
102
RTVSPost2010PropOp50
 70
     1
102
RTVSPost2010Prop51ColorIndex
 90
      256
102
RTVSPost2010Prop51ColorRGB
 90
-16777216
102
RTVSPost2010PropOp51
 70
     0
102
RTVSPost2010Prop52
140
1.0
102
RTVSPost2010PropOp52
 70
     0
102
RTVSPost2010Prop53
 90
        2
102
RTVSPost2010PropOp53
 70
     1
102
RTVSPost2010Prop54
  1
strokes_ogs.tif
102
RTVSPost2010PropOp54
 70
     1
102
RTVSPost2010Prop55
280
     0
102
RTVSPost2010PropOp55
 70
     1
102
RTVSPost2010Prop56
140
1.0
102
RTVSPost2010PropOp56
 70
     1
102
RTVSPost2010Prop57
140
1.0
102
RTVSPost2010PropOp57
 70
     1
102
RTVSPropertyOp0
 70
     1
102
RTVSPropertyOp1
 70
     1
102
RTVSPropertyOp2
 70
     1
102
RTVSPropertyOp3
 70
     1
102
RTVSPropertyOp4
 70
     1
102
RTVSPropertyOp5
 70
     1
102
RTVSPropertyOp6
 70
     1
102
RTVSPropertyOp7
 70
     1
102
RTVSPropertyOp8
 70
     1
102
RTVSPropertyOp9
 70
     1
102
RTVSPropertyOp10
 70
     1
102
RTVSPropertyOp11
 70
     1
102
RTVSPropertyOp12
 70
     1
102
RTVSPropertyOp13
 70
     1
102
RTVSPropertyOp14
 70
     1
102
RTVSPropertyOp15
 70
     1
102
RTVSPropertyOp16
 70
     1
102
RTVSPropertyOp17
 70
     1
102
RTVSPropertyOp18
 70
     1
102
RTVSPropertyOp19
 70
     1
102
RTVSPropertyOp20
 70
     1
102
RTVSPropertyOp21
 70
     1
102
RTVSPropertyOp22
 70
     1
102
RTVSPropertyOp23
 70
     1
102
RTVSPropertyOp24
 70
     1
102
RTVSPropertyOp25
 70
     1
102
RTVSPropertyOp26
 70
     1
102
RTVSPropertyOp27
 70
     1
102
RTVSPropertyOp28
 70
     1
102
RTVSPropertyOp29
 70
     1
102
RTVSPropertyOp30
 70
     1
102
RTVSPropertyOp31
 70
     1
102
RTVSPropertyOp32
 70
     1
102
RTVSPropertyOp33
 70
     1
102
RTVSPropertyOp34
 70
     1
102
RTVSPropertyOp35
 70
     1
102
RTVSPropertyOp36
 70
     1
102
RTVSPropertyOp37
 70
     1
102
RTVSPropertyOp38
 70
     1
102
RTVSPropertyOp39
 70
     1
102
RTVSPropertyOp40
 70
     1
102
RTVSPropertyOp41
 70
     1
102
RTVSPropertyOp42
 70
     1
102
RTVSPropertyOp43
 70
     1
102
RTVSPropertyOp44
 70
     1
102
RTVSPropertyOp45
 70
     1
102
RTVSPropertyOp46
 70
     1
102
RTVSPropertyOp47
 70
     1
102
RTVSPropertyOp48
 70
     1
102
RTVSPropertyOp49
 70
     1
102
RTVSPropertyOp50
 70
     1
102
RTVSPropertyOp51
 70
     0
102
RTVSPropertyOp52
 70
     0
102
RTVSPropertyOp53
 70
     1
102
RTVSPropertyOp54
 70
     1
102
RTVSPropertyOp55
 70
     1
102
RTVSPropertyOp56
 70
     1
102
RTVSPropertyOp57
 70
     1
102
RTVSPropertyOp58
 70
     1
102
RTVSPropertyOp59
 70
     1
102
RTVSPropertyOp60
 70
     1
102
RTVSPropertyOp61
 70
     1
102
RTVSPropertyOp62
 70
     1
  0
XRECORD
  5
E6EE
102
{ACAD_REACTORS
330
E6ED
102
}
330
E6ED
100
AcDbXrecord
280
     1
102
RTVSPost2010Prop28
280
     0
102
RTVSPost2010PropOp28
 70
     1
102
RTVSPost2010Prop29
280
     1
102
RTVSPost2010PropOp29
 70
     1
102
RTVSPost2010Prop30
280
     1
102
RTVSPost2010PropOp30
 70
     1
102
RTVSPost2010Prop31
280
     0
102
RTVSPost2010PropOp31
 70
     1
102
RTVSPost2010Prop32
280
     0
102
RTVSPost2010PropOp32
 70
     1
102
RTVSPost2010Prop33
280
     0
102
RTVSPost2010PropOp33
 70
     1
102
RTVSPost2010Prop34
280
     0
102
RTVSPost2010PropOp34
 70
     1
102
RTVSPost2010Prop35
280
     0
102
RTVSPost2010PropOp35
 70
     1
102
RTVSPost2010Prop36
280
     0
102
RTVSPost2010PropOp36
 70
     1
102
RTVSPost2010Prop37
 90
       50
102
RTVSPost2010PropOp37
 70
     1
102
RTVSPost2010Prop38
140
0.0
102
RTVSPost2010PropOp38
 70
     1
102
RTVSPost2010Prop39
140
1.0
102
RTVSPost2010PropOp39
 70
     1
102
RTVSPost2010Prop40
 90
        0
102
RTVSPost2010PropOp40
 70
     1
102
RTVSPost2010Prop41ColorIndex
 90
       18
102
RTVSPost2010Prop41ColorRGB
 90
        0
102
RTVSPost2010PropOp41
 70
     1
102
RTVSPost2010Prop42
 90
       50
102
RTVSPost2010PropOp42
 70
     1
102
RTVSPost2010Prop43
 90
        3
102
RTVSPost2010PropOp43
 70
     1
102
RTVSPost2010Prop44ColorIndex
 90
        5
102
RTVSPost2010Prop44ColorRGB
 90
      255
102
RTVSPost2010PropOp44
 70
     1
102
RTVSPost2010Prop45
280
     0
102
RTVSPost2010PropOp45
 70
     1
102
RTVSPost2010Prop46
 90
       50
102
RTVSPost2010PropOp46
 70
     1
102
RTVSPost2010Prop47
 90
       50
102
RTVSPost2010PropOp47
 70
     1
102
RTVSPost2010Prop48
 90
       50
102
RTVSPost2010PropOp48
 70
     1
102
RTVSPost2010Prop49
280
     0
102
RTVSPost2010PropOp49
 70
     1
102
RTVSPost2010Prop50
 90
       50
102
RTVSPost2010PropOp50
 70
     1
102
RTVSPost2010Prop51ColorIndex
 90
      256
102
RTVSPost2010Prop51ColorRGB
 90
-16777216
102
RTVSPost2010PropOp51
 70
     0
102
RTVSPost2010Prop52
140
1.0
102
RTVSPost2010PropOp52
 70
     0
102
RTVSPost2010Prop53
 90
        2
102
RTVSPost2010PropOp53
 70
     1
102
RTVSPost2010Prop54
  1
strokes_ogs.tif
102
RTVSPost2010PropOp54
 70
     1
102
RTVSPost2010Prop55
280
     0
102
RTVSPost2010PropOp55
 70
     1
102
RTVSPost2010Prop56
140
1.0
102
RTVSPost2010PropOp56
 70
     1
102
RTVSPost2010Prop57
140
1.0
102
RTVSPost2010PropOp57
 70
     1
102
RTVSPropertyOp0
 70
     1
102
RTVSPropertyOp1
 70
     1
102
RTVSPropertyOp2
 70
     1
102
RTVSPropertyOp3
 70
     1
102
RTVSPropertyOp4
 70
     1
102
RTVSPropertyOp5
 70
     1
102
RTVSPropertyOp6
 70
     1
102
RTVSPropertyOp7
 70
     1
102
RTVSPropertyOp8
 70
     1
102
RTVSPropertyOp9
 70
     1
102
RTVSPropertyOp10
 70
     1
102
RTVSPropertyOp11
 70
     1
102
RTVSPropertyOp12
 70
     1
102
RTVSPropertyOp13
 70
     1
102
RTVSPropertyOp14
 70
     1
102
RTVSPropertyOp15
 70
     1
102
RTVSPropertyOp16
 70
     1
102
RTVSPropertyOp17
 70
     1
102
RTVSPropertyOp18
 70
     1
102
RTVSPropertyOp19
 70
     1
102
RTVSPropertyOp20
 70
     1
102
RTVSPropertyOp21
 70
     1
102
RTVSPropertyOp22
 70
     1
102
RTVSPropertyOp23
 70
     1
102
RTVSPropertyOp24
 70
     1
102
RTVSPropertyOp25
 70
     1
102
RTVSPropertyOp26
 70
     1
102
RTVSPropertyOp27
 70
     1
102
RTVSPropertyOp28
 70
     1
102
RTVSPropertyOp29
 70
     1
102
RTVSPropertyOp30
 70
     1
102
RTVSPropertyOp31
 70
     1
102
RTVSPropertyOp32
 70
     1
102
RTVSPropertyOp33
 70
     1
102
RTVSPropertyOp34
 70
     1
102
RTVSPropertyOp35
 70
     1
102
RTVSPropertyOp36
 70
     1
102
RTVSPropertyOp37
 70
     1
102
RTVSPropertyOp38
 70
     1
102
RTVSPropertyOp39
 70
     1
102
RTVSPropertyOp40
 70
     1
102
RTVSPropertyOp41
 70
     1
102
RTVSPropertyOp42
 70
     1
102
RTVSPropertyOp43
 70
     1
102
RTVSPropertyOp44
 70
     1
102
RTVSPropertyOp45
 70
     1
102
RTVSPropertyOp46
 70
     1
102
RTVSPropertyOp47
 70
     1
102
RTVSPropertyOp48
 70
     1
102
RTVSPropertyOp49
 70
     1
102
RTVSPropertyOp50
 70
     1
102
RTVSPropertyOp51
 70
     0
102
RTVSPropertyOp52
 70
     0
102
RTVSPropertyOp53
 70
     1
102
RTVSPropertyOp54
 70
     1
102
RTVSPropertyOp55
 70
     1
102
RTVSPropertyOp56
 70
     1
102
RTVSPropertyOp57
 70
     1
102
RTVSPropertyOp58
 70
     1
102
RTVSPropertyOp59
 70
     1
102
RTVSPropertyOp60
 70
     1
102
RTVSPropertyOp61
 70
     1
102
RTVSPropertyOp62
 70
     1
  0
XRECORD
  5
E6FC
102
{ACAD_REACTORS
330
E6FB
102
}
330
E6FB
100
AcDbXrecord
280
     1
102
RTVSPost2010Prop28
280
     0
102
RTVSPost2010PropOp28
 70
     1
102
RTVSPost2010Prop29
280
     1
102
RTVSPost2010PropOp29
 70
     1
102
RTVSPost2010Prop30
280
     1
102
RTVSPost2010PropOp30
 70
     1
102
RTVSPost2010Prop31
280
     0
102
RTVSPost2010PropOp31
 70
     1
102
RTVSPost2010Prop32
280
     0
102
RTVSPost2010PropOp32
 70
     1
102
RTVSPost2010Prop33
280
     0
102
RTVSPost2010PropOp33
 70
     1
102
RTVSPost2010Prop34
280
     0
102
RTVSPost2010PropOp34
 70
     1
102
RTVSPost2010Prop35
280
     0
102
RTVSPost2010PropOp35
 70
     1
102
RTVSPost2010Prop36
280
     0
102
RTVSPost2010PropOp36
 70
     1
102
RTVSPost2010Prop37
 90
       50
102
RTVSPost2010PropOp37
 70
     1
102
RTVSPost2010Prop38
140
0.0
102
RTVSPost2010PropOp38
 70
     1
102
RTVSPost2010Prop39
140
1.0
102
RTVSPost2010PropOp39
 70
     1
102
RTVSPost2010Prop40
 90
        0
102
RTVSPost2010PropOp40
 70
     1
102
RTVSPost2010Prop41ColorIndex
 90
       18
102
RTVSPost2010Prop41ColorRGB
 90
        0
102
RTVSPost2010PropOp41
 70
     1
102
RTVSPost2010Prop42
 90
       50
102
RTVSPost2010PropOp42
 70
     1
102
RTVSPost2010Prop43
 90
        3
102
RTVSPost2010PropOp43
 70
     1
102
RTVSPost2010Prop44ColorIndex
 90
        5
102
RTVSPost2010Prop44ColorRGB
 90
      255
102
RTVSPost2010PropOp44
 70
     1
102
RTVSPost2010Prop45
280
     0
102
RTVSPost2010PropOp45
 70
     1
102
RTVSPost2010Prop46
 90
       50
102
RTVSPost2010PropOp46
 70
     1
102
RTVSPost2010Prop47
 90
       50
102
RTVSPost2010PropOp47
 70
     1
102
RTVSPost2010Prop48
 90
       50
102
RTVSPost2010PropOp48
 70
     1
102
RTVSPost2010Prop49
280
     0
102
RTVSPost2010PropOp49
 70
     1
102
RTVSPost2010Prop50
 90
       50
102
RTVSPost2010PropOp50
 70
     1
102
RTVSPost2010Prop51ColorIndex
 90
      256
102
RTVSPost2010Prop51ColorRGB
 90
-16777216
102
RTVSPost2010PropOp51
 70
     0
102
RTVSPost2010Prop52
140
1.0
102
RTVSPost2010PropOp52
 70
     0
102
RTVSPost2010Prop53
 90
        2
102
RTVSPost2010PropOp53
 70
     1
102
RTVSPost2010Prop54
  1
strokes_ogs.tif
102
RTVSPost2010PropOp54
 70
     1
102
RTVSPost2010Prop55
280
     0
102
RTVSPost2010PropOp55
 70
     1
102
RTVSPost2010Prop56
140
1.0
102
RTVSPost2010PropOp56
 70
     1
102
RTVSPost2010Prop57
140
1.0
102
RTVSPost2010PropOp57
 70
     1
102
RTVSPropertyOp0
 70
     1
102
RTVSPropertyOp1
 70
     1
102
RTVSPropertyOp2
 70
     1
102
RTVSPropertyOp3
 70
     1
102
RTVSPropertyOp4
 70
     1
102
RTVSPropertyOp5
 70
     1
102
RTVSPropertyOp6
 70
     1
102
RTVSPropertyOp7
 70
     1
102
RTVSPropertyOp8
 70
     1
102
RTVSPropertyOp9
 70
     1
102
RTVSPropertyOp10
 70
     1
102
RTVSPropertyOp11
 70
     1
102
RTVSPropertyOp12
 70
     1
102
RTVSPropertyOp13
 70
     1
102
RTVSPropertyOp14
 70
     1
102
RTVSPropertyOp15
 70
     1
102
RTVSPropertyOp16
 70
     1
102
RTVSPropertyOp17
 70
     1
102
RTVSPropertyOp18
 70
     1
102
RTVSPropertyOp19
 70
     1
102
RTVSPropertyOp20
 70
     1
102
RTVSPropertyOp21
 70
     1
102
RTVSPropertyOp22
 70
     1
102
RTVSPropertyOp23
 70
     1
102
RTVSPropertyOp24
 70
     1
102
RTVSPropertyOp25
 70
     1
102
RTVSPropertyOp26
 70
     1
102
RTVSPropertyOp27
 70
     1
102
RTVSPropertyOp28
 70
     1
102
RTVSPropertyOp29
 70
     1
102
RTVSPropertyOp30
 70
     1
102
RTVSPropertyOp31
 70
     1
102
RTVSPropertyOp32
 70
     1
102
RTVSPropertyOp33
 70
     1
102
RTVSPropertyOp34
 70
     1
102
RTVSPropertyOp35
 70
     1
102
RTVSPropertyOp36
 70
     1
102
RTVSPropertyOp37
 70
     1
102
RTVSPropertyOp38
 70
     1
102
RTVSPropertyOp39
 70
     1
102
RTVSPropertyOp40
 70
     1
102
RTVSPropertyOp41
 70
     1
102
RTVSPropertyOp42
 70
     1
102
RTVSPropertyOp43
 70
     1
102
RTVSPropertyOp44
 70
     1
102
RTVSPropertyOp45
 70
     1
102
RTVSPropertyOp46
 70
     1
102
RTVSPropertyOp47
 70
     1
102
RTVSPropertyOp48
 70
     1
102
RTVSPropertyOp49
 70
     1
102
RTVSPropertyOp50
 70
     1
102
RTVSPropertyOp51
 70
     0
102
RTVSPropertyOp52
 70
     0
102
RTVSPropertyOp53
 70
     1
102
RTVSPropertyOp54
 70
     1
102
RTVSPropertyOp55
 70
     1
102
RTVSPropertyOp56
 70
     1
102
RTVSPropertyOp57
 70
     1
102
RTVSPropertyOp58
 70
     1
102
RTVSPropertyOp59
 70
     1
102
RTVSPropertyOp60
 70
     1
102
RTVSPropertyOp61
 70
     1
102
RTVSPropertyOp62
 70
     1
  0
XRECORD
  5
E704
102
{ACAD_REACTORS
330
E703
102
}
330
E703
100
AcDbXrecord
280
     1
102
RTVSPost2010Prop28
280
     0
102
RTVSPost2010PropOp28
 70
     1
102
RTVSPost2010Prop29
280
     1
102
RTVSPost2010PropOp29
 70
     1
102
RTVSPost2010Prop30
280
     1
102
RTVSPost2010PropOp30
 70
     1
102
RTVSPost2010Prop31
280
     0
102
RTVSPost2010PropOp31
 70
     1
102
RTVSPost2010Prop32
280
     0
102
RTVSPost2010PropOp32
 70
     1
102
RTVSPost2010Prop33
280
     0
102
RTVSPost2010PropOp33
 70
     1
102
RTVSPost2010Prop34
280
     0
102
RTVSPost2010PropOp34
 70
     1
102
RTVSPost2010Prop35
280
     0
102
RTVSPost2010PropOp35
 70
     1
102
RTVSPost2010Prop36
280
     0
102
RTVSPost2010PropOp36
 70
     1
102
RTVSPost2010Prop37
 90
       50
102
RTVSPost2010PropOp37
 70
     1
102
RTVSPost2010Prop38
140
0.0
102
RTVSPost2010PropOp38
 70
     1
102
RTVSPost2010Prop39
140
1.0
102
RTVSPost2010PropOp39
 70
     1
102
RTVSPost2010Prop40
 90
        0
102
RTVSPost2010PropOp40
 70
     1
102
RTVSPost2010Prop41ColorIndex
 90
       18
102
RTVSPost2010Prop41ColorRGB
 90
        0
102
RTVSPost2010PropOp41
 70
     1
102
RTVSPost2010Prop42
 90
       50
102
RTVSPost2010PropOp42
 70
     1
102
RTVSPost2010Prop43
 90
        3
102
RTVSPost2010PropOp43
 70
     1
102
RTVSPost2010Prop44ColorIndex
 90
        5
102
RTVSPost2010Prop44ColorRGB
 90
      255
102
RTVSPost2010PropOp44
 70
     1
102
RTVSPost2010Prop45
280
     0
102
RTVSPost2010PropOp45
 70
     1
102
RTVSPost2010Prop46
 90
       50
102
RTVSPost2010PropOp46
 70
     1
102
RTVSPost2010Prop47
 90
       50
102
RTVSPost2010PropOp47
 70
     1
102
RTVSPost2010Prop48
 90
       50
102
RTVSPost2010PropOp48
 70
     1
102
RTVSPost2010Prop49
280
     0
102
RTVSPost2010PropOp49
 70
     1
102
RTVSPost2010Prop50
 90
       50
102
RTVSPost2010PropOp50
 70
     1
102
RTVSPost2010Prop51ColorIndex
 90
      256
102
RTVSPost2010Prop51ColorRGB
 90
-16777216
102
RTVSPost2010PropOp51
 70
     0
102
RTVSPost2010Prop52
140
1.0
102
RTVSPost2010PropOp52
 70
     0
102
RTVSPost2010Prop53
 90
        2
102
RTVSPost2010PropOp53
 70
     1
102
RTVSPost2010Prop54
  1
strokes_ogs.tif
102
RTVSPost2010PropOp54
 70
     1
102
RTVSPost2010Prop55
280
     0
102
RTVSPost2010PropOp55
 70
     1
102
RTVSPost2010Prop56
140
1.0
102
RTVSPost2010PropOp56
 70
     1
102
RTVSPost2010Prop57
140
1.0
102
RTVSPost2010PropOp57
 70
     1
102
RTVSPropertyOp0
 70
     1
102
RTVSPropertyOp1
 70
     1
102
RTVSPropertyOp2
 70
     1
102
RTVSPropertyOp3
 70
     1
102
RTVSPropertyOp4
 70
     1
102
RTVSPropertyOp5
 70
     1
102
RTVSPropertyOp6
 70
     1
102
RTVSPropertyOp7
 70
     1
102
RTVSPropertyOp8
 70
     1
102
RTVSPropertyOp9
 70
     1
102
RTVSPropertyOp10
 70
     1
102
RTVSPropertyOp11
 70
     1
102
RTVSPropertyOp12
 70
     1
102
RTVSPropertyOp13
 70
     1
102
RTVSPropertyOp14
 70
     1
102
RTVSPropertyOp15
 70
     1
102
RTVSPropertyOp16
 70
     1
102
RTVSPropertyOp17
 70
     1
102
RTVSPropertyOp18
 70
     1
102
RTVSPropertyOp19
 70
     1
102
RTVSPropertyOp20
 70
     1
102
RTVSPropertyOp21
 70
     1
102
RTVSPropertyOp22
 70
     1
102
RTVSPropertyOp23
 70
     1
102
RTVSPropertyOp24
 70
     1
102
RTVSPropertyOp25
 70
     1
102
RTVSPropertyOp26
 70
     1
102
RTVSPropertyOp27
 70
     1
102
RTVSPropertyOp28
 70
     1
102
RTVSPropertyOp29
 70
     1
102
RTVSPropertyOp30
 70
     1
102
RTVSPropertyOp31
 70
     1
102
RTVSPropertyOp32
 70
     1
102
RTVSPropertyOp33
 70
     1
102
RTVSPropertyOp34
 70
     1
102
RTVSPropertyOp35
 70
     1
102
RTVSPropertyOp36
 70
     1
102
RTVSPropertyOp37
 70
     1
102
RTVSPropertyOp38
 70
     1
102
RTVSPropertyOp39
 70
     1
102
RTVSPropertyOp40
 70
     1
102
RTVSPropertyOp41
 70
     1
102
RTVSPropertyOp42
 70
     1
102
RTVSPropertyOp43
 70
     1
102
RTVSPropertyOp44
 70
     1
102
RTVSPropertyOp45
 70
     1
102
RTVSPropertyOp46
 70
     1
102
RTVSPropertyOp47
 70
     1
102
RTVSPropertyOp48
 70
     1
102
RTVSPropertyOp49
 70
     1
102
RTVSPropertyOp50
 70
     1
102
RTVSPropertyOp51
 70
     0
102
RTVSPropertyOp52
 70
     0
102
RTVSPropertyOp53
 70
     1
102
RTVSPropertyOp54
 70
     1
102
RTVSPropertyOp55
 70
     1
102
RTVSPropertyOp56
 70
     1
102
RTVSPropertyOp57
 70
     1
102
RTVSPropertyOp58
 70
     1
102
RTVSPropertyOp59
 70
     1
102
RTVSPropertyOp60
 70
     1
102
RTVSPropertyOp61
 70
     1
102
RTVSPropertyOp62
 70
     1
  0
XRECORD
  5
E6F6
102
{ACAD_REACTORS
330
E6F5
102
}
330
E6F5
100
AcDbXrecord
280
     1
102
RTVSPost2010Prop28
280
     0
102
RTVSPost2010PropOp28
 70
     1
102
RTVSPost2010Prop29
280
     1
102
RTVSPost2010PropOp29
 70
     1
102
RTVSPost2010Prop30
280
     1
102
RTVSPost2010PropOp30
 70
     1
102
RTVSPost2010Prop31
280
     0
102
RTVSPost2010PropOp31
 70
     1
102
RTVSPost2010Prop32
280
     0
102
RTVSPost2010PropOp32
 70
     1
102
RTVSPost2010Prop33
280
     0
102
RTVSPost2010PropOp33
 70
     1
102
RTVSPost2010Prop34
280
     0
102
RTVSPost2010PropOp34
 70
     1
102
RTVSPost2010Prop35
280
     0
102
RTVSPost2010PropOp35
 70
     1
102
RTVSPost2010Prop36
280
     0
102
RTVSPost2010PropOp36
 70
     1
102
RTVSPost2010Prop37
 90
       50
102
RTVSPost2010PropOp37
 70
     1
102
RTVSPost2010Prop38
140
0.0
102
RTVSPost2010PropOp38
 70
     1
102
RTVSPost2010Prop39
140
1.0
102
RTVSPost2010PropOp39
 70
     1
102
RTVSPost2010Prop40
 90
        0
102
RTVSPost2010PropOp40
 70
     1
102
RTVSPost2010Prop41ColorIndex
 90
       18
102
RTVSPost2010Prop41ColorRGB
 90
        0
102
RTVSPost2010PropOp41
 70
     1
102
RTVSPost2010Prop42
 90
       50
102
RTVSPost2010PropOp42
 70
     1
102
RTVSPost2010Prop43
 90
        3
102
RTVSPost2010PropOp43
 70
     1
102
RTVSPost2010Prop44ColorIndex
 90
        5
102
RTVSPost2010Prop44ColorRGB
 90
      255
102
RTVSPost2010PropOp44
 70
     1
102
RTVSPost2010Prop45
280
     0
102
RTVSPost2010PropOp45
 70
     1
102
RTVSPost2010Prop46
 90
       50
102
RTVSPost2010PropOp46
 70
     1
102
RTVSPost2010Prop47
 90
       50
102
RTVSPost2010PropOp47
 70
     1
102
RTVSPost2010Prop48
 90
       50
102
RTVSPost2010PropOp48
 70
     1
102
RTVSPost2010Prop49
280
     0
102
RTVSPost2010PropOp49
 70
     1
102
RTVSPost2010Prop50
 90
       50
102
RTVSPost2010PropOp50
 70
     1
102
RTVSPost2010Prop51ColorIndex
 90
      256
102
RTVSPost2010Prop51ColorRGB
 90
-16777216
102
RTVSPost2010PropOp51
 70
     0
102
RTVSPost2010Prop52
140
1.0
102
RTVSPost2010PropOp52
 70
     0
102
RTVSPost2010Prop53
 90
        2
102
RTVSPost2010PropOp53
 70
     1
102
RTVSPost2010Prop54
  1
strokes_ogs.tif
102
RTVSPost2010PropOp54
 70
     1
102
RTVSPost2010Prop55
280
     0
102
RTVSPost2010PropOp55
 70
     1
102
RTVSPost2010Prop56
140
1.0
102
RTVSPost2010PropOp56
 70
     1
102
RTVSPost2010Prop57
140
1.0
102
RTVSPost2010PropOp57
 70
     1
102
RTVSPropertyOp0
 70
     1
102
RTVSPropertyOp1
 70
     1
102
RTVSPropertyOp2
 70
     1
102
RTVSPropertyOp3
 70
     1
102
RTVSPropertyOp4
 70
     1
102
RTVSPropertyOp5
 70
     1
102
RTVSPropertyOp6
 70
     1
102
RTVSPropertyOp7
 70
     1
102
RTVSPropertyOp8
 70
     1
102
RTVSPropertyOp9
 70
     1
102
RTVSPropertyOp10
 70
     1
102
RTVSPropertyOp11
 70
     1
102
RTVSPropertyOp12
 70
     1
102
RTVSPropertyOp13
 70
     1
102
RTVSPropertyOp14
 70
     1
102
RTVSPropertyOp15
 70
     1
102
RTVSPropertyOp16
 70
     1
102
RTVSPropertyOp17
 70
     1
102
RTVSPropertyOp18
 70
     1
102
RTVSPropertyOp19
 70
     1
102
RTVSPropertyOp20
 70
     1
102
RTVSPropertyOp21
 70
     1
102
RTVSPropertyOp22
 70
     1
102
RTVSPropertyOp23
 70
     1
102
RTVSPropertyOp24
 70
     1
102
RTVSPropertyOp25
 70
     1
102
RTVSPropertyOp26
 70
     1
102
RTVSPropertyOp27
 70
     1
102
RTVSPropertyOp28
 70
     1
102
RTVSPropertyOp29
 70
     1
102
RTVSPropertyOp30
 70
     1
102
RTVSPropertyOp31
 70
     1
102
RTVSPropertyOp32
 70
     1
102
RTVSPropertyOp33
 70
     1
102
RTVSPropertyOp34
 70
     1
102
RTVSPropertyOp35
 70
     1
102
RTVSPropertyOp36
 70
     1
102
RTVSPropertyOp37
 70
     1
102
RTVSPropertyOp38
 70
     1
102
RTVSPropertyOp39
 70
     1
102
RTVSPropertyOp40
 70
     1
102
RTVSPropertyOp41
 70
     1
102
RTVSPropertyOp42
 70
     1
102
RTVSPropertyOp43
 70
     1
102
RTVSPropertyOp44
 70
     1
102
RTVSPropertyOp45
 70
     1
102
RTVSPropertyOp46
 70
     1
102
RTVSPropertyOp47
 70
     1
102
RTVSPropertyOp48
 70
     1
102
RTVSPropertyOp49
 70
     1
102
RTVSPropertyOp50
 70
     1
102
RTVSPropertyOp51
 70
     0
102
RTVSPropertyOp52
 70
     0
102
RTVSPropertyOp53
 70
     1
102
RTVSPropertyOp54
 70
     1
102
RTVSPropertyOp55
 70
     1
102
RTVSPropertyOp56
 70
     1
102
RTVSPropertyOp57
 70
     1
102
RTVSPropertyOp58
 70
     1
102
RTVSPropertyOp59
 70
     1
102
RTVSPropertyOp60
 70
     1
102
RTVSPropertyOp61
 70
     1
102
RTVSPropertyOp62
 70
     1
  0
XRECORD
  5
E6FA
102
{ACAD_REACTORS
330
E6F9
102
}
330
E6F9
100
AcDbXrecord
280
     1
102
RTVSPost2010Prop28
280
     0
102
RTVSPost2010PropOp28
 70
     1
102
RTVSPost2010Prop29
280
     1
102
RTVSPost2010PropOp29
 70
     1
102
RTVSPost2010Prop30
280
     1
102
RTVSPost2010PropOp30
 70
     1
102
RTVSPost2010Prop31
280
     0
102
RTVSPost2010PropOp31
 70
     1
102
RTVSPost2010Prop32
280
     0
102
RTVSPost2010PropOp32
 70
     1
102
RTVSPost2010Prop33
280
     0
102
RTVSPost2010PropOp33
 70
     1
102
RTVSPost2010Prop34
280
     0
102
RTVSPost2010PropOp34
 70
     1
102
RTVSPost2010Prop35
280
     0
102
RTVSPost2010PropOp35
 70
     1
102
RTVSPost2010Prop36
280
     0
102
RTVSPost2010PropOp36
 70
     1
102
RTVSPost2010Prop37
 90
       50
102
RTVSPost2010PropOp37
 70
     1
102
RTVSPost2010Prop38
140
0.0
102
RTVSPost2010PropOp38
 70
     1
102
RTVSPost2010Prop39
140
1.0
102
RTVSPost2010PropOp39
 70
     1
102
RTVSPost2010Prop40
 90
        0
102
RTVSPost2010PropOp40
 70
     1
102
RTVSPost2010Prop41ColorIndex
 90
       18
102
RTVSPost2010Prop41ColorRGB
 90
        0
102
RTVSPost2010PropOp41
 70
     1
102
RTVSPost2010Prop42
 90
       50
102
RTVSPost2010PropOp42
 70
     1
102
RTVSPost2010Prop43
 90
        3
102
RTVSPost2010PropOp43
 70
     1
102
RTVSPost2010Prop44ColorIndex
 90
        5
102
RTVSPost2010Prop44ColorRGB
 90
      255
102
RTVSPost2010PropOp44
 70
     1
102
RTVSPost2010Prop45
280
     0
102
RTVSPost2010PropOp45
 70
     1
102
RTVSPost2010Prop46
 90
       50
102
RTVSPost2010PropOp46
 70
     1
102
RTVSPost2010Prop47
 90
       50
102
RTVSPost2010PropOp47
 70
     1
102
RTVSPost2010Prop48
 90
       50
102
RTVSPost2010PropOp48
 70
     1
102
RTVSPost2010Prop49
280
     0
102
RTVSPost2010PropOp49
 70
     1
102
RTVSPost2010Prop50
 90
       50
102
RTVSPost2010PropOp50
 70
     1
102
RTVSPost2010Prop51ColorIndex
 90
      256
102
RTVSPost2010Prop51ColorRGB
 90
-16777216
102
RTVSPost2010PropOp51
 70
     0
102
RTVSPost2010Prop52
140
1.0
102
RTVSPost2010PropOp52
 70
     0
102
RTVSPost2010Prop53
 90
        2
102
RTVSPost2010PropOp53
 70
     1
102
RTVSPost2010Prop54
  1
strokes_ogs.tif
102
RTVSPost2010PropOp54
 70
     1
102
RTVSPost2010Prop55
280
     0
102
RTVSPost2010PropOp55
 70
     1
102
RTVSPost2010Prop56
140
1.0
102
RTVSPost2010PropOp56
 70
     1
102
RTVSPost2010Prop57
140
1.0
102
RTVSPost2010PropOp57
 70
     1
102
RTVSPropertyOp0
 70
     1
102
RTVSPropertyOp1
 70
     1
102
RTVSPropertyOp2
 70
     1
102
RTVSPropertyOp3
 70
     1
102
RTVSPropertyOp4
 70
     1
102
RTVSPropertyOp5
 70
     1
102
RTVSPropertyOp6
 70
     1
102
RTVSPropertyOp7
 70
     1
102
RTVSPropertyOp8
 70
     1
102
RTVSPropertyOp9
 70
     1
102
RTVSPropertyOp10
 70
     1
102
RTVSPropertyOp11
 70
     1
102
RTVSPropertyOp12
 70
     1
102
RTVSPropertyOp13
 70
     1
102
RTVSPropertyOp14
 70
     1
102
RTVSPropertyOp15
 70
     1
102
RTVSPropertyOp16
 70
     1
102
RTVSPropertyOp17
 70
     1
102
RTVSPropertyOp18
 70
     1
102
RTVSPropertyOp19
 70
     1
102
RTVSPropertyOp20
 70
     1
102
RTVSPropertyOp21
 70
     1
102
RTVSPropertyOp22
 70
     1
102
RTVSPropertyOp23
 70
     1
102
RTVSPropertyOp24
 70
     1
102
RTVSPropertyOp25
 70
     1
102
RTVSPropertyOp26
 70
     1
102
RTVSPropertyOp27
 70
     1
102
RTVSPropertyOp28
 70
     1
102
RTVSPropertyOp29
 70
     1
102
RTVSPropertyOp30
 70
     1
102
RTVSPropertyOp31
 70
     1
102
RTVSPropertyOp32
 70
     1
102
RTVSPropertyOp33
 70
     1
102
RTVSPropertyOp34
 70
     1
102
RTVSPropertyOp35
 70
     1
102
RTVSPropertyOp36
 70
     1
102
RTVSPropertyOp37
 70
     1
102
RTVSPropertyOp38
 70
     1
102
RTVSPropertyOp39
 70
     1
102
RTVSPropertyOp40
 70
     1
102
RTVSPropertyOp41
 70
     1
102
RTVSPropertyOp42
 70
     1
102
RTVSPropertyOp43
 70
     1
102
RTVSPropertyOp44
 70
     1
102
RTVSPropertyOp45
 70
     1
102
RTVSPropertyOp46
 70
     1
102
RTVSPropertyOp47
 70
     1
102
RTVSPropertyOp48
 70
     1
102
RTVSPropertyOp49
 70
     1
102
RTVSPropertyOp50
 70
     1
102
RTVSPropertyOp51
 70
     0
102
RTVSPropertyOp52
 70
     0
102
RTVSPropertyOp53
 70
     1
102
RTVSPropertyOp54
 70
     1
102
RTVSPropertyOp55
 70
     1
102
RTVSPropertyOp56
 70
     1
102
RTVSPropertyOp57
 70
     1
102
RTVSPropertyOp58
 70
     1
102
RTVSPropertyOp59
 70
     1
102
RTVSPropertyOp60
 70
     1
102
RTVSPropertyOp61
 70
     1
102
RTVSPropertyOp62
 70
     1
  0
XRECORD
  5
E714
102
{ACAD_REACTORS
330
E713
102
}
330
E713
100
AcDbXrecord
280
     1
102
RTVSPost2010Prop28
280
     0
102
RTVSPost2010PropOp28
 70
     1
102
RTVSPost2010Prop29
280
     1
102
RTVSPost2010PropOp29
 70
     1
102
RTVSPost2010Prop30
280
     1
102
RTVSPost2010PropOp30
 70
     1
102
RTVSPost2010Prop31
280
     0
102
RTVSPost2010PropOp31
 70
     1
102
RTVSPost2010Prop32
280
     0
102
RTVSPost2010PropOp32
 70
     1
102
RTVSPost2010Prop33
280
     0
102
RTVSPost2010PropOp33
 70
     1
102
RTVSPost2010Prop34
280
     0
102
RTVSPost2010PropOp34
 70
     1
102
RTVSPost2010Prop35
280
     0
102
RTVSPost2010PropOp35
 70
     1
102
RTVSPost2010Prop36
280
     0
102
RTVSPost2010PropOp36
 70
     1
102
RTVSPost2010Prop37
 90
       50
102
RTVSPost2010PropOp37
 70
     0
102
RTVSPost2010Prop38
140
0.0
102
RTVSPost2010PropOp38
 70
     0
102
RTVSPost2010Prop39
140
1.0
102
RTVSPost2010PropOp39
 70
     0
102
RTVSPost2010Prop40
 90
        0
102
RTVSPost2010PropOp40
 70
     0
102
RTVSPost2010Prop41ColorIndex
 90
       18
102
RTVSPost2010Prop41ColorRGB
 90
        0
102
RTVSPost2010PropOp41
 70
     0
102
RTVSPost2010Prop42
 90
       50
102
RTVSPost2010PropOp42
 70
     0
102
RTVSPost2010Prop43
 90
        3
102
RTVSPost2010PropOp43
 70
     0
102
RTVSPost2010Prop44ColorIndex
 90
        5
102
RTVSPost2010Prop44ColorRGB
 90
      255
102
RTVSPost2010PropOp44
 70
     0
102
RTVSPost2010Prop45
280
     0
102
RTVSPost2010PropOp45
 70
     1
102
RTVSPost2010Prop46
 90
       50
102
RTVSPost2010PropOp46
 70
     0
102
RTVSPost2010Prop47
 90
       50
102
RTVSPost2010PropOp47
 70
     0
102
RTVSPost2010Prop48
 90
       50
102
RTVSPost2010PropOp48
 70
     0
102
RTVSPost2010Prop49
280
     0
102
RTVSPost2010PropOp49
 70
     1
102
RTVSPost2010Prop50
 90
       50
102
RTVSPost2010PropOp50
 70
     0
102
RTVSPost2010Prop51ColorIndex
 90
      256
102
RTVSPost2010Prop51ColorRGB
 90
-16777216
102
RTVSPost2010PropOp51
 70
     0
102
RTVSPost2010Prop52
140
1.0
102
RTVSPost2010PropOp52
 70
     0
102
RTVSPost2010Prop53
 90
        2
102
RTVSPost2010PropOp53
 70
     0
102
RTVSPost2010Prop54
  1
strokes_ogs.tif
102
RTVSPost2010PropOp54
 70
     0
102
RTVSPost2010Prop55
280
     0
102
RTVSPost2010PropOp55
 70
     1
102
RTVSPost2010Prop56
140
1.0
102
RTVSPost2010PropOp56
 70
     0
102
RTVSPost2010Prop57
140
1.0
102
RTVSPost2010PropOp57
 70
     0
102
RTVSPropertyOp0
 70
     0
102
RTVSPropertyOp1
 70
     0
102
RTVSPropertyOp2
 70
     0
102
RTVSPropertyOp3
 70
     0
102
RTVSPropertyOp4
 70
     0
102
RTVSPropertyOp5
 70
     0
102
RTVSPropertyOp6
 70
     0
102
RTVSPropertyOp7
 70
     0
102
RTVSPropertyOp8
 70
     0
102
RTVSPropertyOp9
 70
     0
102
RTVSPropertyOp10
 70
     0
102
RTVSPropertyOp11
 70
     0
102
RTVSPropertyOp12
 70
     0
102
RTVSPropertyOp13
 70
     0
102
RTVSPropertyOp14
 70
     2
102
RTVSPropertyOp15
 70
     0
102
RTVSPropertyOp16
 70
     0
102
RTVSPropertyOp17
 70
     0
102
RTVSPropertyOp18
 70
     0
102
RTVSPropertyOp19
 70
     0
102
RTVSPropertyOp20
 70
     0
102
RTVSPropertyOp21
 70
     0
102
RTVSPropertyOp22
 70
     0
102
RTVSPropertyOp23
 70
     0
102
RTVSPropertyOp24
 70
     0
102
RTVSPropertyOp25
 70
     0
102
RTVSPropertyOp26
 70
     0
102
RTVSPropertyOp27
 70
     0
102
RTVSPropertyOp28
 70
     1
102
RTVSPropertyOp29
 70
     1
102
RTVSPropertyOp30
 70
     1
102
RTVSPropertyOp31
 70
     1
102
RTVSPropertyOp32
 70
     1
102
RTVSPropertyOp33
 70
     1
102
RTVSPropertyOp34
 70
     1
102
RTVSPropertyOp35
 70
     1
102
RTVSPropertyOp36
 70
     1
102
RTVSPropertyOp37
 70
     0
102
RTVSPropertyOp38
 70
     0
102
RTVSPropertyOp39
 70
     0
102
RTVSPropertyOp40
 70
     0
102
RTVSPropertyOp41
 70
     0
102
RTVSPropertyOp42
 70
     0
102
RTVSPropertyOp43
 70
     0
102
RTVSPropertyOp44
 70
     0
102
RTVSPropertyOp45
 70
     1
102
RTVSPropertyOp46
 70
     0
102
RTVSPropertyOp47
 70
     0
102
RTVSPropertyOp48
 70
     0
102
RTVSPropertyOp49
 70
     1
102
RTVSPropertyOp50
 70
     0
102
RTVSPropertyOp51
 70
     0
102
RTVSPropertyOp52
 70
     0
102
RTVSPropertyOp53
 70
     0
102
RTVSPropertyOp54
 70
     0
102
RTVSPropertyOp55
 70
     1
102
RTVSPropertyOp56
 70
     0
102
RTVSPropertyOp57
 70
     0
102
RTVSPropertyOp58
 70
     0
102
RTVSPropertyOp59
 70
     0
102
RTVSPropertyOp60
 70
     0
102
RTVSPropertyOp61
 70
     0
102
RTVSPropertyOp62
 70
     0
  0
XRECORD
  5
E702
102
{ACAD_REACTORS
330
E701
102
}
330
E701
100
AcDbXrecord
280
     1
102
RTVSPost2010Prop28
280
     0
102
RTVSPost2010PropOp28
 70
     1
102
RTVSPost2010Prop29
280
     1
102
RTVSPost2010PropOp29
 70
     1
102
RTVSPost2010Prop30
280
     1
102
RTVSPost2010PropOp30
 70
     1
102
RTVSPost2010Prop31
280
     0
102
RTVSPost2010PropOp31
 70
     1
102
RTVSPost2010Prop32
280
     0
102
RTVSPost2010PropOp32
 70
     1
102
RTVSPost2010Prop33
280
     0
102
RTVSPost2010PropOp33
 70
     1
102
RTVSPost2010Prop34
280
     0
102
RTVSPost2010PropOp34
 70
     1
102
RTVSPost2010Prop35
280
     0
102
RTVSPost2010PropOp35
 70
     1
102
RTVSPost2010Prop36
280
     0
102
RTVSPost2010PropOp36
 70
     1
102
RTVSPost2010Prop37
 90
       50
102
RTVSPost2010PropOp37
 70
     1
102
RTVSPost2010Prop38
140
0.0
102
RTVSPost2010PropOp38
 70
     1
102
RTVSPost2010Prop39
140
1.0
102
RTVSPost2010PropOp39
 70
     1
102
RTVSPost2010Prop40
 90
        0
102
RTVSPost2010PropOp40
 70
     1
102
RTVSPost2010Prop41ColorIndex
 90
       18
102
RTVSPost2010Prop41ColorRGB
 90
        0
102
RTVSPost2010PropOp41
 70
     1
102
RTVSPost2010Prop42
 90
       50
102
RTVSPost2010PropOp42
 70
     1
102
RTVSPost2010Prop43
 90
        3
102
RTVSPost2010PropOp43
 70
     1
102
RTVSPost2010Prop44ColorIndex
 90
        5
102
RTVSPost2010Prop44ColorRGB
 90
      255
102
RTVSPost2010PropOp44
 70
     1
102
RTVSPost2010Prop45
280
     0
102
RTVSPost2010PropOp45
 70
     1
102
RTVSPost2010Prop46
 90
       50
102
RTVSPost2010PropOp46
 70
     1
102
RTVSPost2010Prop47
 90
       50
102
RTVSPost2010PropOp47
 70
     1
102
RTVSPost2010Prop48
 90
       50
102
RTVSPost2010PropOp48
 70
     1
102
RTVSPost2010Prop49
280
     0
102
RTVSPost2010PropOp49
 70
     1
102
RTVSPost2010Prop50
 90
       50
102
RTVSPost2010PropOp50
 70
     1
102
RTVSPost2010Prop51ColorIndex
 90
      256
102
RTVSPost2010Prop51ColorRGB
 90
-16777216
102
RTVSPost2010PropOp51
 70
     0
102
RTVSPost2010Prop52
140
1.0
102
RTVSPost2010PropOp52
 70
     0
102
RTVSPost2010Prop53
 90
        2
102
RTVSPost2010PropOp53
 70
     1
102
RTVSPost2010Prop54
  1
strokes_ogs.tif
102
RTVSPost2010PropOp54
 70
     1
102
RTVSPost2010Prop55
280
     0
102
RTVSPost2010PropOp55
 70
     1
102
RTVSPost2010Prop56
140
1.0
102
RTVSPost2010PropOp56
 70
     1
102
RTVSPost2010Prop57
140
1.0
102
RTVSPost2010PropOp57
 70
     1
102
RTVSPropertyOp0
 70
     1
102
RTVSPropertyOp1
 70
     1
102
RTVSPropertyOp2
 70
     1
102
RTVSPropertyOp3
 70
     1
102
RTVSPropertyOp4
 70
     1
102
RTVSPropertyOp5
 70
     1
102
RTVSPropertyOp6
 70
     1
102
RTVSPropertyOp7
 70
     1
102
RTVSPropertyOp8
 70
     1
102
RTVSPropertyOp9
 70
     1
102
RTVSPropertyOp10
 70
     1
102
RTVSPropertyOp11
 70
     1
102
RTVSPropertyOp12
 70
     1
102
RTVSPropertyOp13
 70
     1
102
RTVSPropertyOp14
 70
     1
102
RTVSPropertyOp15
 70
     1
102
RTVSPropertyOp16
 70
     1
102
RTVSPropertyOp17
 70
     1
102
RTVSPropertyOp18
 70
     1
102
RTVSPropertyOp19
 70
     1
102
RTVSPropertyOp20
 70
     1
102
RTVSPropertyOp21
 70
     1
102
RTVSPropertyOp22
 70
     1
102
RTVSPropertyOp23
 70
     1
102
RTVSPropertyOp24
 70
     1
102
RTVSPropertyOp25
 70
     1
102
RTVSPropertyOp26
 70
     1
102
RTVSPropertyOp27
 70
     1
102
RTVSPropertyOp28
 70
     1
102
RTVSPropertyOp29
 70
     1
102
RTVSPropertyOp30
 70
     1
102
RTVSPropertyOp31
 70
     1
102
RTVSPropertyOp32
 70
     1
102
RTVSPropertyOp33
 70
     1
102
RTVSPropertyOp34
 70
     1
102
RTVSPropertyOp35
 70
     1
102
RTVSPropertyOp36
 70
     1
102
RTVSPropertyOp37
 70
     1
102
RTVSPropertyOp38
 70
     1
102
RTVSPropertyOp39
 70
     1
102
RTVSPropertyOp40
 70
     1
102
RTVSPropertyOp41
 70
     1
102
RTVSPropertyOp42
 70
     1
102
RTVSPropertyOp43
 70
     1
102
RTVSPropertyOp44
 70
     1
102
RTVSPropertyOp45
 70
     1
102
RTVSPropertyOp46
 70
     1
102
RTVSPropertyOp47
 70
     1
102
RTVSPropertyOp48
 70
     1
102
RTVSPropertyOp49
 70
     1
102
RTVSPropertyOp50
 70
     1
102
RTVSPropertyOp51
 70
     0
102
RTVSPropertyOp52
 70
     0
102
RTVSPropertyOp53
 70
     1
102
RTVSPropertyOp54
 70
     1
102
RTVSPropertyOp55
 70
     1
102
RTVSPropertyOp56
 70
     1
102
RTVSPropertyOp57
 70
     1
102
RTVSPropertyOp58
 70
     1
102
RTVSPropertyOp59
 70
     1
102
RTVSPropertyOp60
 70
     1
102
RTVSPropertyOp61
 70
     1
102
RTVSPropertyOp62
 70
     1
  0
XRECORD
  5
E6E6
102
{ACAD_REACTORS
330
E6E5
102
}
330
E6E5
100
AcDbXrecord
280
     1
102
RTVSPost2010Prop28
280
     0
102
RTVSPost2010PropOp28
 70
     1
102
RTVSPost2010Prop29
280
     1
102
RTVSPost2010PropOp29
 70
     1
102
RTVSPost2010Prop30
280
     1
102
RTVSPost2010PropOp30
 70
     1
102
RTVSPost2010Prop31
280
     0
102
RTVSPost2010PropOp31
 70
     1
102
RTVSPost2010Prop32
280
     0
102
RTVSPost2010PropOp32
 70
     1
102
RTVSPost2010Prop33
280
     0
102
RTVSPost2010PropOp33
 70
     1
102
RTVSPost2010Prop34
280
     0
102
RTVSPost2010PropOp34
 70
     1
102
RTVSPost2010Prop35
280
     0
102
RTVSPost2010PropOp35
 70
     1
102
RTVSPost2010Prop36
280
     0
102
RTVSPost2010PropOp36
 70
     1
102
RTVSPost2010Prop37
 90
       50
102
RTVSPost2010PropOp37
 70
     1
102
RTVSPost2010Prop38
140
0.0
102
RTVSPost2010PropOp38
 70
     1
102
RTVSPost2010Prop39
140
1.0
102
RTVSPost2010PropOp39
 70
     1
102
RTVSPost2010Prop40
 90
        0
102
RTVSPost2010PropOp40
 70
     1
102
RTVSPost2010Prop41ColorIndex
 90
       18
102
RTVSPost2010Prop41ColorRGB
 90
        0
102
RTVSPost2010PropOp41
 70
     1
102
RTVSPost2010Prop42
 90
       50
102
RTVSPost2010PropOp42
 70
     1
102
RTVSPost2010Prop43
 90
        3
102
RTVSPost2010PropOp43
 70
     1
102
RTVSPost2010Prop44ColorIndex
 90
        5
102
RTVSPost2010Prop44ColorRGB
 90
      255
102
RTVSPost2010PropOp44
 70
     1
102
RTVSPost2010Prop45
280
     0
102
RTVSPost2010PropOp45
 70
     1
102
RTVSPost2010Prop46
 90
       50
102
RTVSPost2010PropOp46
 70
     1
102
RTVSPost2010Prop47
 90
       50
102
RTVSPost2010PropOp47
 70
     1
102
RTVSPost2010Prop48
 90
       50
102
RTVSPost2010PropOp48
 70
     1
102
RTVSPost2010Prop49
280
     0
102
RTVSPost2010PropOp49
 70
     1
102
RTVSPost2010Prop50
 90
       50
102
RTVSPost2010PropOp50
 70
     1
102
RTVSPost2010Prop51ColorIndex
 90
      256
102
RTVSPost2010Prop51ColorRGB
 90
-16777216
102
RTVSPost2010PropOp51
 70
     0
102
RTVSPost2010Prop52
140
1.0
102
RTVSPost2010PropOp52
 70
     0
102
RTVSPost2010Prop53
 90
        2
102
RTVSPost2010PropOp53
 70
     1
102
RTVSPost2010Prop54
  1
strokes_ogs.tif
102
RTVSPost2010PropOp54
 70
     1
102
RTVSPost2010Prop55
280
     0
102
RTVSPost2010PropOp55
 70
     1
102
RTVSPost2010Prop56
140
1.0
102
RTVSPost2010PropOp56
 70
     1
102
RTVSPost2010Prop57
140
1.0
102
RTVSPost2010PropOp57
 70
     1
102
RTVSPropertyOp0
 70
     1
102
RTVSPropertyOp1
 70
     1
102
RTVSPropertyOp2
 70
     1
102
RTVSPropertyOp3
 70
     1
102
RTVSPropertyOp4
 70
     1
102
RTVSPropertyOp5
 70
     1
102
RTVSPropertyOp6
 70
     1
102
RTVSPropertyOp7
 70
     1
102
RTVSPropertyOp8
 70
     1
102
RTVSPropertyOp9
 70
     1
102
RTVSPropertyOp10
 70
     1
102
RTVSPropertyOp11
 70
     1
102
RTVSPropertyOp12
 70
     1
102
RTVSPropertyOp13
 70
     1
102
RTVSPropertyOp14
 70
     1
102
RTVSPropertyOp15
 70
     1
102
RTVSPropertyOp16
 70
     1
102
RTVSPropertyOp17
 70
     1
102
RTVSPropertyOp18
 70
     1
102
RTVSPropertyOp19
 70
     1
102
RTVSPropertyOp20
 70
     1
102
RTVSPropertyOp21
 70
     1
102
RTVSPropertyOp22
 70
     1
102
RTVSPropertyOp23
 70
     1
102
RTVSPropertyOp24
 70
     1
102
RTVSPropertyOp25
 70
     1
102
RTVSPropertyOp26
 70
     1
102
RTVSPropertyOp27
 70
     1
102
RTVSPropertyOp28
 70
     1
102
RTVSPropertyOp29
 70
     1
102
RTVSPropertyOp30
 70
     1
102
RTVSPropertyOp31
 70
     1
102
RTVSPropertyOp32
 70
     1
102
RTVSPropertyOp33
 70
     1
102
RTVSPropertyOp34
 70
     1
102
RTVSPropertyOp35
 70
     1
102
RTVSPropertyOp36
 70
     1
102
RTVSPropertyOp37
 70
     1
102
RTVSPropertyOp38
 70
     1
102
RTVSPropertyOp39
 70
     1
102
RTVSPropertyOp40
 70
     1
102
RTVSPropertyOp41
 70
     1
102
RTVSPropertyOp42
 70
     1
102
RTVSPropertyOp43
 70
     1
102
RTVSPropertyOp44
 70
     1
102
RTVSPropertyOp45
 70
     1
102
RTVSPropertyOp46
 70
     1
102
RTVSPropertyOp47
 70
     1
102
RTVSPropertyOp48
 70
     1
102
RTVSPropertyOp49
 70
     1
102
RTVSPropertyOp50
 70
     1
102
RTVSPropertyOp51
 70
     0
102
RTVSPropertyOp52
 70
     0
102
RTVSPropertyOp53
 70
     1
102
RTVSPropertyOp54
 70
     1
102
RTVSPropertyOp55
 70
     1
102
RTVSPropertyOp56
 70
     1
102
RTVSPropertyOp57
 70
     1
102
RTVSPropertyOp58
 70
     1
102
RTVSPropertyOp59
 70
     1
102
RTVSPropertyOp60
 70
     1
102
RTVSPropertyOp61
 70
     1
102
RTVSPropertyOp62
 70
     1
  0
XRECORD
  5
E6E8
102
{ACAD_REACTORS
330
E6E7
102
}
330
E6E7
100
AcDbXrecord
280
     1
102
RTVSPost2010Prop28
280
     0
102
RTVSPost2010PropOp28
 70
     1
102
RTVSPost2010Prop29
280
     1
102
RTVSPost2010PropOp29
 70
     1
102
RTVSPost2010Prop30
280
     1
102
RTVSPost2010PropOp30
 70
     1
102
RTVSPost2010Prop31
280
     0
102
RTVSPost2010PropOp31
 70
     1
102
RTVSPost2010Prop32
280
     0
102
RTVSPost2010PropOp32
 70
     1
102
RTVSPost2010Prop33
280
     0
102
RTVSPost2010PropOp33
 70
     1
102
RTVSPost2010Prop34
280
     0
102
RTVSPost2010PropOp34
 70
     1
102
RTVSPost2010Prop35
280
     0
102
RTVSPost2010PropOp35
 70
     1
102
RTVSPost2010Prop36
280
     0
102
RTVSPost2010PropOp36
 70
     1
102
RTVSPost2010Prop37
 90
       50
102
RTVSPost2010PropOp37
 70
     1
102
RTVSPost2010Prop38
140
0.0
102
RTVSPost2010PropOp38
 70
     1
102
RTVSPost2010Prop39
140
1.0
102
RTVSPost2010PropOp39
 70
     1
102
RTVSPost2010Prop40
 90
        0
102
RTVSPost2010PropOp40
 70
     1
102
RTVSPost2010Prop41ColorIndex
 90
       18
102
RTVSPost2010Prop41ColorRGB
 90
        0
102
RTVSPost2010PropOp41
 70
     1
102
RTVSPost2010Prop42
 90
       50
102
RTVSPost2010PropOp42
 70
     1
102
RTVSPost2010Prop43
 90
        3
102
RTVSPost2010PropOp43
 70
     1
102
RTVSPost2010Prop44ColorIndex
 90
        5
102
RTVSPost2010Prop44ColorRGB
 90
      255
102
RTVSPost2010PropOp44
 70
     1
102
RTVSPost2010Prop45
280
     0
102
RTVSPost2010PropOp45
 70
     1
102
RTVSPost2010Prop46
 90
       50
102
RTVSPost2010PropOp46
 70
     1
102
RTVSPost2010Prop47
 90
       50
102
RTVSPost2010PropOp47
 70
     1
102
RTVSPost2010Prop48
 90
       50
102
RTVSPost2010PropOp48
 70
     1
102
RTVSPost2010Prop49
280
     0
102
RTVSPost2010PropOp49
 70
     1
102
RTVSPost2010Prop50
 90
       50
102
RTVSPost2010PropOp50
 70
     1
102
RTVSPost2010Prop51ColorIndex
 90
      256
102
RTVSPost2010Prop51ColorRGB
 90
-16777216
102
RTVSPost2010PropOp51
 70
     0
102
RTVSPost2010Prop52
140
1.0
102
RTVSPost2010PropOp52
 70
     0
102
RTVSPost2010Prop53
 90
        2
102
RTVSPost2010PropOp53
 70
     1
102
RTVSPost2010Prop54
  1
strokes_ogs.tif
102
RTVSPost2010PropOp54
 70
     1
102
RTVSPost2010Prop55
280
     0
102
RTVSPost2010PropOp55
 70
     1
102
RTVSPost2010Prop56
140
1.0
102
RTVSPost2010PropOp56
 70
     1
102
RTVSPost2010Prop57
140
1.0
102
RTVSPost2010PropOp57
 70
     1
102
RTVSPropertyOp0
 70
     1
102
RTVSPropertyOp1
 70
     1
102
RTVSPropertyOp2
 70
     1
102
RTVSPropertyOp3
 70
     1
102
RTVSPropertyOp4
 70
     1
102
RTVSPropertyOp5
 70
     1
102
RTVSPropertyOp6
 70
     1
102
RTVSPropertyOp7
 70
     1
102
RTVSPropertyOp8
 70
     1
102
RTVSPropertyOp9
 70
     1
102
RTVSPropertyOp10
 70
     1
102
RTVSPropertyOp11
 70
     1
102
RTVSPropertyOp12
 70
     1
102
RTVSPropertyOp13
 70
     1
102
RTVSPropertyOp14
 70
     1
102
RTVSPropertyOp15
 70
     1
102
RTVSPropertyOp16
 70
     1
102
RTVSPropertyOp17
 70
     1
102
RTVSPropertyOp18
 70
     1
102
RTVSPropertyOp19
 70
     1
102
RTVSPropertyOp20
 70
     1
102
RTVSPropertyOp21
 70
     1
102
RTVSPropertyOp22
 70
     1
102
RTVSPropertyOp23
 70
     1
102
RTVSPropertyOp24
 70
     1
102
RTVSPropertyOp25
 70
     1
102
RTVSPropertyOp26
 70
     1
102
RTVSPropertyOp27
 70
     1
102
RTVSPropertyOp28
 70
     1
102
RTVSPropertyOp29
 70
     1
102
RTVSPropertyOp30
 70
     1
102
RTVSPropertyOp31
 70
     1
102
RTVSPropertyOp32
 70
     1
102
RTVSPropertyOp33
 70
     1
102
RTVSPropertyOp34
 70
     1
102
RTVSPropertyOp35
 70
     1
102
RTVSPropertyOp36
 70
     1
102
RTVSPropertyOp37
 70
     1
102
RTVSPropertyOp38
 70
     1
102
RTVSPropertyOp39
 70
     1
102
RTVSPropertyOp40
 70
     1
102
RTVSPropertyOp41
 70
     1
102
RTVSPropertyOp42
 70
     1
102
RTVSPropertyOp43
 70
     1
102
RTVSPropertyOp44
 70
     1
102
RTVSPropertyOp45
 70
     1
102
RTVSPropertyOp46
 70
     1
102
RTVSPropertyOp47
 70
     1
102
RTVSPropertyOp48
 70
     1
102
RTVSPropertyOp49
 70
     1
102
RTVSPropertyOp50
 70
     1
102
RTVSPropertyOp51
 70
     0
102
RTVSPropertyOp52
 70
     0
102
RTVSPropertyOp53
 70
     1
102
RTVSPropertyOp54
 70
     1
102
RTVSPropertyOp55
 70
     1
102
RTVSPropertyOp56
 70
     1
102
RTVSPropertyOp57
 70
     1
102
RTVSPropertyOp58
 70
     1
102
RTVSPropertyOp59
 70
     1
102
RTVSPropertyOp60
 70
     1
102
RTVSPropertyOp61
 70
     1
102
RTVSPropertyOp62
 70
     1
  0
XRECORD
  5
E6EA
102
{ACAD_REACTORS
330
E6E9
102
}
330
E6E9
100
AcDbXrecord
280
     1
102
RTVSPost2010Prop28
280
     0
102
RTVSPost2010PropOp28
 70
     1
102
RTVSPost2010Prop29
280
     1
102
RTVSPost2010PropOp29
 70
     1
102
RTVSPost2010Prop30
280
     1
102
RTVSPost2010PropOp30
 70
     1
102
RTVSPost2010Prop31
280
     0
102
RTVSPost2010PropOp31
 70
     1
102
RTVSPost2010Prop32
280
     0
102
RTVSPost2010PropOp32
 70
     1
102
RTVSPost2010Prop33
280
     0
102
RTVSPost2010PropOp33
 70
     1
102
RTVSPost2010Prop34
280
     0
102
RTVSPost2010PropOp34
 70
     1
102
RTVSPost2010Prop35
280
     0
102
RTVSPost2010PropOp35
 70
     1
102
RTVSPost2010Prop36
280
     0
102
RTVSPost2010PropOp36
 70
     1
102
RTVSPost2010Prop37
 90
       50
102
RTVSPost2010PropOp37
 70
     1
102
RTVSPost2010Prop38
140
0.0
102
RTVSPost2010PropOp38
 70
     1
102
RTVSPost2010Prop39
140
1.0
102
RTVSPost2010PropOp39
 70
     1
102
RTVSPost2010Prop40
 90
        0
102
RTVSPost2010PropOp40
 70
     1
102
RTVSPost2010Prop41ColorIndex
 90
       18
102
RTVSPost2010Prop41ColorRGB
 90
        0
102
RTVSPost2010PropOp41
 70
     1
102
RTVSPost2010Prop42
 90
       50
102
RTVSPost2010PropOp42
 70
     1
102
RTVSPost2010Prop43
 90
        3
102
RTVSPost2010PropOp43
 70
     1
102
RTVSPost2010Prop44ColorIndex
 90
        5
102
RTVSPost2010Prop44ColorRGB
 90
      255
102
RTVSPost2010PropOp44
 70
     1
102
RTVSPost2010Prop45
280
     0
102
RTVSPost2010PropOp45
 70
     1
102
RTVSPost2010Prop46
 90
       50
102
RTVSPost2010PropOp46
 70
     1
102
RTVSPost2010Prop47
 90
       50
102
RTVSPost2010PropOp47
 70
     1
102
RTVSPost2010Prop48
 90
       50
102
RTVSPost2010PropOp48
 70
     1
102
RTVSPost2010Prop49
280
     0
102
RTVSPost2010PropOp49
 70
     1
102
RTVSPost2010Prop50
 90
       50
102
RTVSPost2010PropOp50
 70
     1
102
RTVSPost2010Prop51ColorIndex
 90
      256
102
RTVSPost2010Prop51ColorRGB
 90
-16777216
102
RTVSPost2010PropOp51
 70
     0
102
RTVSPost2010Prop52
140
1.0
102
RTVSPost2010PropOp52
 70
     0
102
RTVSPost2010Prop53
 90
        2
102
RTVSPost2010PropOp53
 70
     1
102
RTVSPost2010Prop54
  1
strokes_ogs.tif
102
RTVSPost2010PropOp54
 70
     1
102
RTVSPost2010Prop55
280
     0
102
RTVSPost2010PropOp55
 70
     1
102
RTVSPost2010Prop56
140
1.0
102
RTVSPost2010PropOp56
 70
     1
102
RTVSPost2010Prop57
140
1.0
102
RTVSPost2010PropOp57
 70
     1
102
RTVSPropertyOp0
 70
     1
102
RTVSPropertyOp1
 70
     1
102
RTVSPropertyOp2
 70
     1
102
RTVSPropertyOp3
 70
     1
102
RTVSPropertyOp4
 70
     1
102
RTVSPropertyOp5
 70
     1
102
RTVSPropertyOp6
 70
     1
102
RTVSPropertyOp7
 70
     1
102
RTVSPropertyOp8
 70
     1
102
RTVSPropertyOp9
 70
     1
102
RTVSPropertyOp10
 70
     1
102
RTVSPropertyOp11
 70
     1
102
RTVSPropertyOp12
 70
     1
102
RTVSPropertyOp13
 70
     1
102
RTVSPropertyOp14
 70
     1
102
RTVSPropertyOp15
 70
     1
102
RTVSPropertyOp16
 70
     1
102
RTVSPropertyOp17
 70
     1
102
RTVSPropertyOp18
 70
     1
102
RTVSPropertyOp19
 70
     1
102
RTVSPropertyOp20
 70
     1
102
RTVSPropertyOp21
 70
     1
102
RTVSPropertyOp22
 70
     1
102
RTVSPropertyOp23
 70
     1
102
RTVSPropertyOp24
 70
     1
102
RTVSPropertyOp25
 70
     1
102
RTVSPropertyOp26
 70
     1
102
RTVSPropertyOp27
 70
     1
102
RTVSPropertyOp28
 70
     1
102
RTVSPropertyOp29
 70
     1
102
RTVSPropertyOp30
 70
     1
102
RTVSPropertyOp31
 70
     1
102
RTVSPropertyOp32
 70
     1
102
RTVSPropertyOp33
 70
     1
102
RTVSPropertyOp34
 70
     1
102
RTVSPropertyOp35
 70
     1
102
RTVSPropertyOp36
 70
     1
102
RTVSPropertyOp37
 70
     1
102
RTVSPropertyOp38
 70
     1
102
RTVSPropertyOp39
 70
     1
102
RTVSPropertyOp40
 70
     1
102
RTVSPropertyOp41
 70
     1
102
RTVSPropertyOp42
 70
     1
102
RTVSPropertyOp43
 70
     1
102
RTVSPropertyOp44
 70
     1
102
RTVSPropertyOp45
 70
     1
102
RTVSPropertyOp46
 70
     1
102
RTVSPropertyOp47
 70
     1
102
RTVSPropertyOp48
 70
     1
102
RTVSPropertyOp49
 70
     1
102
RTVSPropertyOp50
 70
     1
102
RTVSPropertyOp51
 70
     0
102
RTVSPropertyOp52
 70
     0
102
RTVSPropertyOp53
 70
     1
102
RTVSPropertyOp54
 70
     1
102
RTVSPropertyOp55
 70
     1
102
RTVSPropertyOp56
 70
     1
102
RTVSPropertyOp57
 70
     1
102
RTVSPropertyOp58
 70
     1
102
RTVSPropertyOp59
 70
     1
102
RTVSPropertyOp60
 70
     1
102
RTVSPropertyOp61
 70
     1
102
RTVSPropertyOp62
 70
     1
  0
XRECORD
  5
E6EC
102
{ACAD_REACTORS
330
E6EB
102
}
330
E6EB
100
AcDbXrecord
280
     1
102
RTVSPost2010Prop28
280
     0
102
RTVSPost2010PropOp28
 70
     1
102
RTVSPost2010Prop29
280
     1
102
RTVSPost2010PropOp29
 70
     1
102
RTVSPost2010Prop30
280
     1
102
RTVSPost2010PropOp30
 70
     1
102
RTVSPost2010Prop31
280
     0
102
RTVSPost2010PropOp31
 70
     1
102
RTVSPost2010Prop32
280
     0
102
RTVSPost2010PropOp32
 70
     1
102
RTVSPost2010Prop33
280
     0
102
RTVSPost2010PropOp33
 70
     1
102
RTVSPost2010Prop34
280
     0
102
RTVSPost2010PropOp34
 70
     1
102
RTVSPost2010Prop35
280
     0
102
RTVSPost2010PropOp35
 70
     1
102
RTVSPost2010Prop36
280
     0
102
RTVSPost2010PropOp36
 70
     1
102
RTVSPost2010Prop37
 90
       50
102
RTVSPost2010PropOp37
 70
     1
102
RTVSPost2010Prop38
140
0.0
102
RTVSPost2010PropOp38
 70
     1
102
RTVSPost2010Prop39
140
1.0
102
RTVSPost2010PropOp39
 70
     1
102
RTVSPost2010Prop40
 90
        0
102
RTVSPost2010PropOp40
 70
     1
102
RTVSPost2010Prop41ColorIndex
 90
       18
102
RTVSPost2010Prop41ColorRGB
 90
        0
102
RTVSPost2010PropOp41
 70
     1
102
RTVSPost2010Prop42
 90
       50
102
RTVSPost2010PropOp42
 70
     1
102
RTVSPost2010Prop43
 90
        3
102
RTVSPost2010PropOp43
 70
     1
102
RTVSPost2010Prop44ColorIndex
 90
        5
102
RTVSPost2010Prop44ColorRGB
 90
      255
102
RTVSPost2010PropOp44
 70
     1
102
RTVSPost2010Prop45
280
     0
102
RTVSPost2010PropOp45
 70
     1
102
RTVSPost2010Prop46
 90
       50
102
RTVSPost2010PropOp46
 70
     1
102
RTVSPost2010Prop47
 90
       50
102
RTVSPost2010PropOp47
 70
     1
102
RTVSPost2010Prop48
 90
       50
102
RTVSPost2010PropOp48
 70
     1
102
RTVSPost2010Prop49
280
     0
102
RTVSPost2010PropOp49
 70
     1
102
RTVSPost2010Prop50
 90
       50
102
RTVSPost2010PropOp50
 70
     1
102
RTVSPost2010Prop51ColorIndex
 90
      256
102
RTVSPost2010Prop51ColorRGB
 90
-16777216
102
RTVSPost2010PropOp51
 70
     0
102
RTVSPost2010Prop52
140
1.0
102
RTVSPost2010PropOp52
 70
     0
102
RTVSPost2010Prop53
 90
        2
102
RTVSPost2010PropOp53
 70
     1
102
RTVSPost2010Prop54
  1
strokes_ogs.tif
102
RTVSPost2010PropOp54
 70
     1
102
RTVSPost2010Prop55
280
     0
102
RTVSPost2010PropOp55
 70
     1
102
RTVSPost2010Prop56
140
1.0
102
RTVSPost2010PropOp56
 70
     1
102
RTVSPost2010Prop57
140
1.0
102
RTVSPost2010PropOp57
 70
     1
102
RTVSPropertyOp0
 70
     1
102
RTVSPropertyOp1
 70
     1
102
RTVSPropertyOp2
 70
     1
102
RTVSPropertyOp3
 70
     1
102
RTVSPropertyOp4
 70
     1
102
RTVSPropertyOp5
 70
     1
102
RTVSPropertyOp6
 70
     1
102
RTVSPropertyOp7
 70
     1
102
RTVSPropertyOp8
 70
     1
102
RTVSPropertyOp9
 70
     1
102
RTVSPropertyOp10
 70
     1
102
RTVSPropertyOp11
 70
     1
102
RTVSPropertyOp12
 70
     1
102
RTVSPropertyOp13
 70
     1
102
RTVSPropertyOp14
 70
     1
102
RTVSPropertyOp15
 70
     1
102
RTVSPropertyOp16
 70
     1
102
RTVSPropertyOp17
 70
     1
102
RTVSPropertyOp18
 70
     1
102
RTVSPropertyOp19
 70
     1
102
RTVSPropertyOp20
 70
     1
102
RTVSPropertyOp21
 70
     1
102
RTVSPropertyOp22
 70
     1
102
RTVSPropertyOp23
 70
     1
102
RTVSPropertyOp24
 70
     1
102
RTVSPropertyOp25
 70
     1
102
RTVSPropertyOp26
 70
     1
102
RTVSPropertyOp27
 70
     1
102
RTVSPropertyOp28
 70
     1
102
RTVSPropertyOp29
 70
     1
102
RTVSPropertyOp30
 70
     1
102
RTVSPropertyOp31
 70
     1
102
RTVSPropertyOp32
 70
     1
102
RTVSPropertyOp33
 70
     1
102
RTVSPropertyOp34
 70
     1
102
RTVSPropertyOp35
 70
     1
102
RTVSPropertyOp36
 70
     1
102
RTVSPropertyOp37
 70
     1
102
RTVSPropertyOp38
 70
     1
102
RTVSPropertyOp39
 70
     1
102
RTVSPropertyOp40
 70
     1
102
RTVSPropertyOp41
 70
     1
102
RTVSPropertyOp42
 70
     1
102
RTVSPropertyOp43
 70
     1
102
RTVSPropertyOp44
 70
     1
102
RTVSPropertyOp45
 70
     1
102
RTVSPropertyOp46
 70
     1
102
RTVSPropertyOp47
 70
     1
102
RTVSPropertyOp48
 70
     1
102
RTVSPropertyOp49
 70
     1
102
RTVSPropertyOp50
 70
     1
102
RTVSPropertyOp51
 70
     0
102
RTVSPropertyOp52
 70
     0
102
RTVSPropertyOp53
 70
     1
102
RTVSPropertyOp54
 70
     1
102
RTVSPropertyOp55
 70
     1
102
RTVSPropertyOp56
 70
     1
102
RTVSPropertyOp57
 70
     1
102
RTVSPropertyOp58
 70
     1
102
RTVSPropertyOp59
 70
     1
102
RTVSPropertyOp60
 70
     1
102
RTVSPropertyOp61
 70
     1
102
RTVSPropertyOp62
 70
     1
  0
XRECORD
  5
E6F4
102
{ACAD_REACTORS
330
E6F3
102
}
330
E6F3
100
AcDbXrecord
280
     1
102
RTVSPost2010Prop28
280
     0
102
RTVSPost2010PropOp28
 70
     1
102
RTVSPost2010Prop29
280
     1
102
RTVSPost2010PropOp29
 70
     1
102
RTVSPost2010Prop30
280
     1
102
RTVSPost2010PropOp30
 70
     1
102
RTVSPost2010Prop31
280
     0
102
RTVSPost2010PropOp31
 70
     1
102
RTVSPost2010Prop32
280
     0
102
RTVSPost2010PropOp32
 70
     1
102
RTVSPost2010Prop33
280
     0
102
RTVSPost2010PropOp33
 70
     1
102
RTVSPost2010Prop34
280
     0
102
RTVSPost2010PropOp34
 70
     1
102
RTVSPost2010Prop35
280
     0
102
RTVSPost2010PropOp35
 70
     1
102
RTVSPost2010Prop36
280
     0
102
RTVSPost2010PropOp36
 70
     1
102
RTVSPost2010Prop37
 90
       50
102
RTVSPost2010PropOp37
 70
     1
102
RTVSPost2010Prop38
140
0.0
102
RTVSPost2010PropOp38
 70
     1
102
RTVSPost2010Prop39
140
1.0
102
RTVSPost2010PropOp39
 70
     1
102
RTVSPost2010Prop40
 90
        0
102
RTVSPost2010PropOp40
 70
     1
102
RTVSPost2010Prop41ColorIndex
 90
       18
102
RTVSPost2010Prop41ColorRGB
 90
        0
102
RTVSPost2010PropOp41
 70
     1
102
RTVSPost2010Prop42
 90
       50
102
RTVSPost2010PropOp42
 70
     1
102
RTVSPost2010Prop43
 90
        3
102
RTVSPost2010PropOp43
 70
     1
102
RTVSPost2010Prop44ColorIndex
 90
        5
102
RTVSPost2010Prop44ColorRGB
 90
      255
102
RTVSPost2010PropOp44
 70
     1
102
RTVSPost2010Prop45
280
     0
102
RTVSPost2010PropOp45
 70
     1
102
RTVSPost2010Prop46
 90
       50
102
RTVSPost2010PropOp46
 70
     1
102
RTVSPost2010Prop47
 90
       50
102
RTVSPost2010PropOp47
 70
     1
102
RTVSPost2010Prop48
 90
       50
102
RTVSPost2010PropOp48
 70
     1
102
RTVSPost2010Prop49
280
     0
102
RTVSPost2010PropOp49
 70
     1
102
RTVSPost2010Prop50
 90
       50
102
RTVSPost2010PropOp50
 70
     1
102
RTVSPost2010Prop51ColorIndex
 90
      256
102
RTVSPost2010Prop51ColorRGB
 90
-16777216
102
RTVSPost2010PropOp51
 70
     0
102
RTVSPost2010Prop52
140
1.0
102
RTVSPost2010PropOp52
 70
     0
102
RTVSPost2010Prop53
 90
        2
102
RTVSPost2010PropOp53
 70
     1
102
RTVSPost2010Prop54
  1
strokes_ogs.tif
102
RTVSPost2010PropOp54
 70
     1
102
RTVSPost2010Prop55
280
     0
102
RTVSPost2010PropOp55
 70
     1
102
RTVSPost2010Prop56
140
1.0
102
RTVSPost2010PropOp56
 70
     1
102
RTVSPost2010Prop57
140
1.0
102
RTVSPost2010PropOp57
 70
     1
102
RTVSPropertyOp0
 70
     1
102
RTVSPropertyOp1
 70
     1
102
RTVSPropertyOp2
 70
     1
102
RTVSPropertyOp3
 70
     1
102
RTVSPropertyOp4
 70
     1
102
RTVSPropertyOp5
 70
     1
102
RTVSPropertyOp6
 70
     1
102
RTVSPropertyOp7
 70
     1
102
RTVSPropertyOp8
 70
     1
102
RTVSPropertyOp9
 70
     1
102
RTVSPropertyOp10
 70
     1
102
RTVSPropertyOp11
 70
     1
102
RTVSPropertyOp12
 70
     1
102
RTVSPropertyOp13
 70
     1
102
RTVSPropertyOp14
 70
     1
102
RTVSPropertyOp15
 70
     1
102
RTVSPropertyOp16
 70
     1
102
RTVSPropertyOp17
 70
     1
102
RTVSPropertyOp18
 70
     1
102
RTVSPropertyOp19
 70
     1
102
RTVSPropertyOp20
 70
     1
102
RTVSPropertyOp21
 70
     1
102
RTVSPropertyOp22
 70
     1
102
RTVSPropertyOp23
 70
     1
102
RTVSPropertyOp24
 70
     1
102
RTVSPropertyOp25
 70
     1
102
RTVSPropertyOp26
 70
     1
102
RTVSPropertyOp27
 70
     1
102
RTVSPropertyOp28
 70
     1
102
RTVSPropertyOp29
 70
     1
102
RTVSPropertyOp30
 70
     1
102
RTVSPropertyOp31
 70
     1
102
RTVSPropertyOp32
 70
     1
102
RTVSPropertyOp33
 70
     1
102
RTVSPropertyOp34
 70
     1
102
RTVSPropertyOp35
 70
     1
102
RTVSPropertyOp36
 70
     1
102
RTVSPropertyOp37
 70
     1
102
RTVSPropertyOp38
 70
     1
102
RTVSPropertyOp39
 70
     1
102
RTVSPropertyOp40
 70
     1
102
RTVSPropertyOp41
 70
     1
102
RTVSPropertyOp42
 70
     1
102
RTVSPropertyOp43
 70
     1
102
RTVSPropertyOp44
 70
     1
102
RTVSPropertyOp45
 70
     1
102
RTVSPropertyOp46
 70
     1
102
RTVSPropertyOp47
 70
     1
102
RTVSPropertyOp48
 70
     1
102
RTVSPropertyOp49
 70
     1
102
RTVSPropertyOp50
 70
     1
102
RTVSPropertyOp51
 70
     0
102
RTVSPropertyOp52
 70
     0
102
RTVSPropertyOp53
 70
     1
102
RTVSPropertyOp54
 70
     1
102
RTVSPropertyOp55
 70
     1
102
RTVSPropertyOp56
 70
     1
102
RTVSPropertyOp57
 70
     1
102
RTVSPropertyOp58
 70
     1
102
RTVSPropertyOp59
 70
     1
102
RTVSPropertyOp60
 70
     1
102
RTVSPropertyOp61
 70
     1
102
RTVSPropertyOp62
 70
     1
  0
XRECORD
  5
E710
102
{ACAD_REACTORS
330
E70F
102
}
330
E70F
100
AcDbXrecord
280
     1
102
RTVSPost2010Prop28
280
     0
102
RTVSPost2010PropOp28
 70
     1
102
RTVSPost2010Prop29
280
     1
102
RTVSPost2010PropOp29
 70
     1
102
RTVSPost2010Prop30
280
     1
102
RTVSPost2010PropOp30
 70
     1
102
RTVSPost2010Prop31
280
     0
102
RTVSPost2010PropOp31
 70
     1
102
RTVSPost2010Prop32
280
     0
102
RTVSPost2010PropOp32
 70
     1
102
RTVSPost2010Prop33
280
     0
102
RTVSPost2010PropOp33
 70
     1
102
RTVSPost2010Prop34
280
     0
102
RTVSPost2010PropOp34
 70
     1
102
RTVSPost2010Prop35
280
     0
102
RTVSPost2010PropOp35
 70
     1
102
RTVSPost2010Prop36
280
     0
102
RTVSPost2010PropOp36
 70
     1
102
RTVSPost2010Prop37
 90
       50
102
RTVSPost2010PropOp37
 70
     0
102
RTVSPost2010Prop38
140
0.0
102
RTVSPost2010PropOp38
 70
     0
102
RTVSPost2010Prop39
140
1.0
102
RTVSPost2010PropOp39
 70
     0
102
RTVSPost2010Prop40
 90
        0
102
RTVSPost2010PropOp40
 70
     0
102
RTVSPost2010Prop41ColorIndex
 90
       18
102
RTVSPost2010Prop41ColorRGB
 90
        0
102
RTVSPost2010PropOp41
 70
     0
102
RTVSPost2010Prop42
 90
       50
102
RTVSPost2010PropOp42
 70
     0
102
RTVSPost2010Prop43
 90
        3
102
RTVSPost2010PropOp43
 70
     0
102
RTVSPost2010Prop44ColorIndex
 90
        5
102
RTVSPost2010Prop44ColorRGB
 90
      255
102
RTVSPost2010PropOp44
 70
     0
102
RTVSPost2010Prop45
280
     0
102
RTVSPost2010PropOp45
 70
     1
102
RTVSPost2010Prop46
 90
       50
102
RTVSPost2010PropOp46
 70
     0
102
RTVSPost2010Prop47
 90
       50
102
RTVSPost2010PropOp47
 70
     0
102
RTVSPost2010Prop48
 90
       50
102
RTVSPost2010PropOp48
 70
     0
102
RTVSPost2010Prop49
280
     0
102
RTVSPost2010PropOp49
 70
     1
102
RTVSPost2010Prop50
 90
       50
102
RTVSPost2010PropOp50
 70
     0
102
RTVSPost2010Prop51ColorIndex
 90
      256
102
RTVSPost2010Prop51ColorRGB
 90
-16777216
102
RTVSPost2010PropOp51
 70
     0
102
RTVSPost2010Prop52
140
1.0
102
RTVSPost2010PropOp52
 70
     0
102
RTVSPost2010Prop53
 90
        2
102
RTVSPost2010PropOp53
 70
     0
102
RTVSPost2010Prop54
  1
strokes_ogs.tif
102
RTVSPost2010PropOp54
 70
     0
102
RTVSPost2010Prop55
280
     0
102
RTVSPost2010PropOp55
 70
     1
102
RTVSPost2010Prop56
140
1.0
102
RTVSPost2010PropOp56
 70
     0
102
RTVSPost2010Prop57
140
1.0
102
RTVSPost2010PropOp57
 70
     0
102
RTVSPropertyOp0
 70
     0
102
RTVSPropertyOp1
 70
     0
102
RTVSPropertyOp2
 70
     0
102
RTVSPropertyOp3
 70
     0
102
RTVSPropertyOp4
 70
     0
102
RTVSPropertyOp5
 70
     0
102
RTVSPropertyOp6
 70
     0
102
RTVSPropertyOp7
 70
     0
102
RTVSPropertyOp8
 70
     0
102
RTVSPropertyOp9
 70
     0
102
RTVSPropertyOp10
 70
     0
102
RTVSPropertyOp11
 70
     0
102
RTVSPropertyOp12
 70
     0
102
RTVSPropertyOp13
 70
     0
102
RTVSPropertyOp14
 70
     2
102
RTVSPropertyOp15
 70
     0
102
RTVSPropertyOp16
 70
     0
102
RTVSPropertyOp17
 70
     0
102
RTVSPropertyOp18
 70
     0
102
RTVSPropertyOp19
 70
     0
102
RTVSPropertyOp20
 70
     0
102
RTVSPropertyOp21
 70
     0
102
RTVSPropertyOp22
 70
     0
102
RTVSPropertyOp23
 70
     0
102
RTVSPropertyOp24
 70
     0
102
RTVSPropertyOp25
 70
     0
102
RTVSPropertyOp26
 70
     0
102
RTVSPropertyOp27
 70
     0
102
RTVSPropertyOp28
 70
     1
102
RTVSPropertyOp29
 70
     1
102
RTVSPropertyOp30
 70
     1
102
RTVSPropertyOp31
 70
     1
102
RTVSPropertyOp32
 70
     1
102
RTVSPropertyOp33
 70
     1
102
RTVSPropertyOp34
 70
     1
102
RTVSPropertyOp35
 70
     1
102
RTVSPropertyOp36
 70
     1
102
RTVSPropertyOp37
 70
     0
102
RTVSPropertyOp38
 70
     0
102
RTVSPropertyOp39
 70
     0
102
RTVSPropertyOp40
 70
     0
102
RTVSPropertyOp41
 70
     0
102
RTVSPropertyOp42
 70
     0
102
RTVSPropertyOp43
 70
     0
102
RTVSPropertyOp44
 70
     0
102
RTVSPropertyOp45
 70
     1
102
RTVSPropertyOp46
 70
     0
102
RTVSPropertyOp47
 70
     0
102
RTVSPropertyOp48
 70
     0
102
RTVSPropertyOp49
 70
     1
102
RTVSPropertyOp50
 70
     0
102
RTVSPropertyOp51
 70
     0
102
RTVSPropertyOp52
 70
     0
102
RTVSPropertyOp53
 70
     0
102
RTVSPropertyOp54
 70
     0
102
RTVSPropertyOp55
 70
     1
102
RTVSPropertyOp56
 70
     0
102
RTVSPropertyOp57
 70
     0
102
RTVSPropertyOp58
 70
     0
102
RTVSPropertyOp59
 70
     0
102
RTVSPropertyOp60
 70
     0
102
RTVSPropertyOp61
 70
     0
102
RTVSPropertyOp62
 70
     0
  0
XRECORD
  5
E700
102
{ACAD_REACTORS
330
E6FF
102
}
330
E6FF
100
AcDbXrecord
280
     1
102
RTVSPost2010Prop28
280
     0
102
RTVSPost2010PropOp28
 70
     1
102
RTVSPost2010Prop29
280
     1
102
RTVSPost2010PropOp29
 70
     1
102
RTVSPost2010Prop30
280
     1
102
RTVSPost2010PropOp30
 70
     1
102
RTVSPost2010Prop31
280
     0
102
RTVSPost2010PropOp31
 70
     1
102
RTVSPost2010Prop32
280
     0
102
RTVSPost2010PropOp32
 70
     1
102
RTVSPost2010Prop33
280
     0
102
RTVSPost2010PropOp33
 70
     1
102
RTVSPost2010Prop34
280
     0
102
RTVSPost2010PropOp34
 70
     1
102
RTVSPost2010Prop35
280
     0
102
RTVSPost2010PropOp35
 70
     1
102
RTVSPost2010Prop36
280
     0
102
RTVSPost2010PropOp36
 70
     1
102
RTVSPost2010Prop37
 90
       50
102
RTVSPost2010PropOp37
 70
     1
102
RTVSPost2010Prop38
140
0.0
102
RTVSPost2010PropOp38
 70
     1
102
RTVSPost2010Prop39
140
1.0
102
RTVSPost2010PropOp39
 70
     1
102
RTVSPost2010Prop40
 90
        0
102
RTVSPost2010PropOp40
 70
     1
102
RTVSPost2010Prop41ColorIndex
 90
       18
102
RTVSPost2010Prop41ColorRGB
 90
        0
102
RTVSPost2010PropOp41
 70
     1
102
RTVSPost2010Prop42
 90
       50
102
RTVSPost2010PropOp42
 70
     1
102
RTVSPost2010Prop43
 90
        3
102
RTVSPost2010PropOp43
 70
     1
102
RTVSPost2010Prop44ColorIndex
 90
        5
102
RTVSPost2010Prop44ColorRGB
 90
      255
102
RTVSPost2010PropOp44
 70
     1
102
RTVSPost2010Prop45
280
     0
102
RTVSPost2010PropOp45
 70
     1
102
RTVSPost2010Prop46
 90
       50
102
RTVSPost2010PropOp46
 70
     1
102
RTVSPost2010Prop47
 90
       50
102
RTVSPost2010PropOp47
 70
     1
102
RTVSPost2010Prop48
 90
       50
102
RTVSPost2010PropOp48
 70
     1
102
RTVSPost2010Prop49
280
     0
102
RTVSPost2010PropOp49
 70
     1
102
RTVSPost2010Prop50
 90
       50
102
RTVSPost2010PropOp50
 70
     1
102
RTVSPost2010Prop51ColorIndex
 90
      256
102
RTVSPost2010Prop51ColorRGB
 90
-16777216
102
RTVSPost2010PropOp51
 70
     0
102
RTVSPost2010Prop52
140
1.0
102
RTVSPost2010PropOp52
 70
     0
102
RTVSPost2010Prop53
 90
        2
102
RTVSPost2010PropOp53
 70
     1
102
RTVSPost2010Prop54
  1
strokes_ogs.tif
102
RTVSPost2010PropOp54
 70
     1
102
RTVSPost2010Prop55
280
     0
102
RTVSPost2010PropOp55
 70
     1
102
RTVSPost2010Prop56
140
1.0
102
RTVSPost2010PropOp56
 70
     1
102
RTVSPost2010Prop57
140
1.0
102
RTVSPost2010PropOp57
 70
     1
102
RTVSPropertyOp0
 70
     1
102
RTVSPropertyOp1
 70
     1
102
RTVSPropertyOp2
 70
     1
102
RTVSPropertyOp3
 70
     1
102
RTVSPropertyOp4
 70
     1
102
RTVSPropertyOp5
 70
     1
102
RTVSPropertyOp6
 70
     1
102
RTVSPropertyOp7
 70
     1
102
RTVSPropertyOp8
 70
     1
102
RTVSPropertyOp9
 70
     1
102
RTVSPropertyOp10
 70
     1
102
RTVSPropertyOp11
 70
     1
102
RTVSPropertyOp12
 70
     1
102
RTVSPropertyOp13
 70
     1
102
RTVSPropertyOp14
 70
     1
102
RTVSPropertyOp15
 70
     1
102
RTVSPropertyOp16
 70
     1
102
RTVSPropertyOp17
 70
     1
102
RTVSPropertyOp18
 70
     1
102
RTVSPropertyOp19
 70
     1
102
RTVSPropertyOp20
 70
     1
102
RTVSPropertyOp21
 70
     1
102
RTVSPropertyOp22
 70
     1
102
RTVSPropertyOp23
 70
     1
102
RTVSPropertyOp24
 70
     1
102
RTVSPropertyOp25
 70
     1
102
RTVSPropertyOp26
 70
     1
102
RTVSPropertyOp27
 70
     1
102
RTVSPropertyOp28
 70
     1
102
RTVSPropertyOp29
 70
     1
102
RTVSPropertyOp30
 70
     1
102
RTVSPropertyOp31
 70
     1
102
RTVSPropertyOp32
 70
     1
102
RTVSPropertyOp33
 70
     1
102
RTVSPropertyOp34
 70
     1
102
RTVSPropertyOp35
 70
     1
102
RTVSPropertyOp36
 70
     1
102
RTVSPropertyOp37
 70
     1
102
RTVSPropertyOp38
 70
     1
102
RTVSPropertyOp39
 70
     1
102
RTVSPropertyOp40
 70
     1
102
RTVSPropertyOp41
 70
     1
102
RTVSPropertyOp42
 70
     1
102
RTVSPropertyOp43
 70
     1
102
RTVSPropertyOp44
 70
     1
102
RTVSPropertyOp45
 70
     1
102
RTVSPropertyOp46
 70
     1
102
RTVSPropertyOp47
 70
     1
102
RTVSPropertyOp48
 70
     1
102
RTVSPropertyOp49
 70
     1
102
RTVSPropertyOp50
 70
     1
102
RTVSPropertyOp51
 70
     0
102
RTVSPropertyOp52
 70
     0
102
RTVSPropertyOp53
 70
     1
102
RTVSPropertyOp54
 70
     1
102
RTVSPropertyOp55
 70
     1
102
RTVSPropertyOp56
 70
     1
102
RTVSPropertyOp57
 70
     1
102
RTVSPropertyOp58
 70
     1
102
RTVSPropertyOp59
 70
     1
102
RTVSPropertyOp60
 70
     1
102
RTVSPropertyOp61
 70
     1
102
RTVSPropertyOp62
 70
     1
  0
XRECORD
  5
E712
102
{ACAD_REACTORS
330
E711
102
}
330
E711
100
AcDbXrecord
280
     1
102
RTVSPost2010Prop28
280
     0
102
RTVSPost2010PropOp28
 70
     1
102
RTVSPost2010Prop29
280
     1
102
RTVSPost2010PropOp29
 70
     1
102
RTVSPost2010Prop30
280
     1
102
RTVSPost2010PropOp30
 70
     1
102
RTVSPost2010Prop31
280
     0
102
RTVSPost2010PropOp31
 70
     1
102
RTVSPost2010Prop32
280
     0
102
RTVSPost2010PropOp32
 70
     1
102
RTVSPost2010Prop33
280
     0
102
RTVSPost2010PropOp33
 70
     1
102
RTVSPost2010Prop34
280
     0
102
RTVSPost2010PropOp34
 70
     1
102
RTVSPost2010Prop35
280
     0
102
RTVSPost2010PropOp35
 70
     1
102
RTVSPost2010Prop36
280
     0
102
RTVSPost2010PropOp36
 70
     1
102
RTVSPost2010Prop37
 90
       50
102
RTVSPost2010PropOp37
 70
     0
102
RTVSPost2010Prop38
140
0.0
102
RTVSPost2010PropOp38
 70
     0
102
RTVSPost2010Prop39
140
1.0
102
RTVSPost2010PropOp39
 70
     0
102
RTVSPost2010Prop40
 90
        0
102
RTVSPost2010PropOp40
 70
     0
102
RTVSPost2010Prop41ColorIndex
 90
       18
102
RTVSPost2010Prop41ColorRGB
 90
        0
102
RTVSPost2010PropOp41
 70
     0
102
RTVSPost2010Prop42
 90
       50
102
RTVSPost2010PropOp42
 70
     0
102
RTVSPost2010Prop43
 90
        3
102
RTVSPost2010PropOp43
 70
     0
102
RTVSPost2010Prop44ColorIndex
 90
        5
102
RTVSPost2010Prop44ColorRGB
 90
      255
102
RTVSPost2010PropOp44
 70
     0
102
RTVSPost2010Prop45
280
     0
102
RTVSPost2010PropOp45
 70
     1
102
RTVSPost2010Prop46
 90
       50
102
RTVSPost2010PropOp46
 70
     0
102
RTVSPost2010Prop47
 90
       50
102
RTVSPost2010PropOp47
 70
     0
102
RTVSPost2010Prop48
 90
       50
102
RTVSPost2010PropOp48
 70
     0
102
RTVSPost2010Prop49
280
     0
102
RTVSPost2010PropOp49
 70
     1
102
RTVSPost2010Prop50
 90
       50
102
RTVSPost2010PropOp50
 70
     0
102
RTVSPost2010Prop51ColorIndex
 90
      256
102
RTVSPost2010Prop51ColorRGB
 90
-16777216
102
RTVSPost2010PropOp51
 70
     0
102
RTVSPost2010Prop52
140
1.0
102
RTVSPost2010PropOp52
 70
     0
102
RTVSPost2010Prop53
 90
        2
102
RTVSPost2010PropOp53
 70
     0
102
RTVSPost2010Prop54
  1
strokes_ogs.tif
102
RTVSPost2010PropOp54
 70
     0
102
RTVSPost2010Prop55
280
     0
102
RTVSPost2010PropOp55
 70
     1
102
RTVSPost2010Prop56
140
1.0
102
RTVSPost2010PropOp56
 70
     0
102
RTVSPost2010Prop57
140
1.0
102
RTVSPost2010PropOp57
 70
     0
102
RTVSPropertyOp0
 70
     0
102
RTVSPropertyOp1
 70
     0
102
RTVSPropertyOp2
 70
     0
102
RTVSPropertyOp3
 70
     0
102
RTVSPropertyOp4
 70
     0
102
RTVSPropertyOp5
 70
     0
102
RTVSPropertyOp6
 70
     0
102
RTVSPropertyOp7
 70
     0
102
RTVSPropertyOp8
 70
     0
102
RTVSPropertyOp9
 70
     0
102
RTVSPropertyOp10
 70
     0
102
RTVSPropertyOp11
 70
     0
102
RTVSPropertyOp12
 70
     0
102
RTVSPropertyOp13
 70
     0
102
RTVSPropertyOp14
 70
     2
102
RTVSPropertyOp15
 70
     0
102
RTVSPropertyOp16
 70
     0
102
RTVSPropertyOp17
 70
     0
102
RTVSPropertyOp18
 70
     0
102
RTVSPropertyOp19
 70
     0
102
RTVSPropertyOp20
 70
     0
102
RTVSPropertyOp21
 70
     0
102
RTVSPropertyOp22
 70
     0
102
RTVSPropertyOp23
 70
     0
102
RTVSPropertyOp24
 70
     0
102
RTVSPropertyOp25
 70
     0
102
RTVSPropertyOp26
 70
     0
102
RTVSPropertyOp27
 70
     0
102
RTVSPropertyOp28
 70
     1
102
RTVSPropertyOp29
 70
     1
102
RTVSPropertyOp30
 70
     1
102
RTVSPropertyOp31
 70
     1
102
RTVSPropertyOp32
 70
     1
102
RTVSPropertyOp33
 70
     1
102
RTVSPropertyOp34
 70
     1
102
RTVSPropertyOp35
 70
     1
102
RTVSPropertyOp36
 70
     1
102
RTVSPropertyOp37
 70
     0
102
RTVSPropertyOp38
 70
     0
102
RTVSPropertyOp39
 70
     0
102
RTVSPropertyOp40
 70
     0
102
RTVSPropertyOp41
 70
     0
102
RTVSPropertyOp42
 70
     0
102
RTVSPropertyOp43
 70
     0
102
RTVSPropertyOp44
 70
     0
102
RTVSPropertyOp45
 70
     1
102
RTVSPropertyOp46
 70
     0
102
RTVSPropertyOp47
 70
     0
102
RTVSPropertyOp48
 70
     0
102
RTVSPropertyOp49
 70
     1
102
RTVSPropertyOp50
 70
     0
102
RTVSPropertyOp51
 70
     0
102
RTVSPropertyOp52
 70
     0
102
RTVSPropertyOp53
 70
     0
102
RTVSPropertyOp54
 70
     0
102
RTVSPropertyOp55
 70
     1
102
RTVSPropertyOp56
 70
     0
102
RTVSPropertyOp57
 70
     0
102
RTVSPropertyOp58
 70
     0
102
RTVSPropertyOp59
 70
     0
102
RTVSPropertyOp60
 70
     0
102
RTVSPropertyOp61
 70
     0
102
RTVSPropertyOp62
 70
     0
  0
XRECORD
  5
E6F8
102
{ACAD_REACTORS
330
E6F7
102
}
330
E6F7
100
AcDbXrecord
280
     1
102
RTVSPost2010Prop28
280
     0
102
RTVSPost2010PropOp28
 70
     1
102
RTVSPost2010Prop29
280
     1
102
RTVSPost2010PropOp29
 70
     1
102
RTVSPost2010Prop30
280
     1
102
RTVSPost2010PropOp30
 70
     1
102
RTVSPost2010Prop31
280
     0
102
RTVSPost2010PropOp31
 70
     1
102
RTVSPost2010Prop32
280
     0
102
RTVSPost2010PropOp32
 70
     1
102
RTVSPost2010Prop33
280
     0
102
RTVSPost2010PropOp33
 70
     1
102
RTVSPost2010Prop34
280
     0
102
RTVSPost2010PropOp34
 70
     1
102
RTVSPost2010Prop35
280
     0
102
RTVSPost2010PropOp35
 70
     1
102
RTVSPost2010Prop36
280
     0
102
RTVSPost2010PropOp36
 70
     1
102
RTVSPost2010Prop37
 90
       50
102
RTVSPost2010PropOp37
 70
     1
102
RTVSPost2010Prop38
140
0.0
102
RTVSPost2010PropOp38
 70
     1
102
RTVSPost2010Prop39
140
1.0
102
RTVSPost2010PropOp39
 70
     1
102
RTVSPost2010Prop40
 90
        0
102
RTVSPost2010PropOp40
 70
     1
102
RTVSPost2010Prop41ColorIndex
 90
       18
102
RTVSPost2010Prop41ColorRGB
 90
        0
102
RTVSPost2010PropOp41
 70
     1
102
RTVSPost2010Prop42
 90
       50
102
RTVSPost2010PropOp42
 70
     1
102
RTVSPost2010Prop43
 90
        3
102
RTVSPost2010PropOp43
 70
     1
102
RTVSPost2010Prop44ColorIndex
 90
        5
102
RTVSPost2010Prop44ColorRGB
 90
      255
102
RTVSPost2010PropOp44
 70
     1
102
RTVSPost2010Prop45
280
     0
102
RTVSPost2010PropOp45
 70
     1
102
RTVSPost2010Prop46
 90
       50
102
RTVSPost2010PropOp46
 70
     1
102
RTVSPost2010Prop47
 90
       50
102
RTVSPost2010PropOp47
 70
     1
102
RTVSPost2010Prop48
 90
       50
102
RTVSPost2010PropOp48
 70
     1
102
RTVSPost2010Prop49
280
     0
102
RTVSPost2010PropOp49
 70
     1
102
RTVSPost2010Prop50
 90
       50
102
RTVSPost2010PropOp50
 70
     1
102
RTVSPost2010Prop51ColorIndex
 90
      256
102
RTVSPost2010Prop51ColorRGB
 90
-16777216
102
RTVSPost2010PropOp51
 70
     0
102
RTVSPost2010Prop52
140
1.0
102
RTVSPost2010PropOp52
 70
     0
102
RTVSPost2010Prop53
 90
        2
102
RTVSPost2010PropOp53
 70
     1
102
RTVSPost2010Prop54
  1
strokes_ogs.tif
102
RTVSPost2010PropOp54
 70
     1
102
RTVSPost2010Prop55
280
     0
102
RTVSPost2010PropOp55
 70
     1
102
RTVSPost2010Prop56
140
1.0
102
RTVSPost2010PropOp56
 70
     1
102
RTVSPost2010Prop57
140
1.0
102
RTVSPost2010PropOp57
 70
     1
102
RTVSPropertyOp0
 70
     1
102
RTVSPropertyOp1
 70
     1
102
RTVSPropertyOp2
 70
     1
102
RTVSPropertyOp3
 70
     1
102
RTVSPropertyOp4
 70
     1
102
RTVSPropertyOp5
 70
     1
102
RTVSPropertyOp6
 70
     1
102
RTVSPropertyOp7
 70
     1
102
RTVSPropertyOp8
 70
     1
102
RTVSPropertyOp9
 70
     1
102
RTVSPropertyOp10
 70
     1
102
RTVSPropertyOp11
 70
     1
102
RTVSPropertyOp12
 70
     1
102
RTVSPropertyOp13
 70
     1
102
RTVSPropertyOp14
 70
     1
102
RTVSPropertyOp15
 70
     1
102
RTVSPropertyOp16
 70
     1
102
RTVSPropertyOp17
 70
     1
102
RTVSPropertyOp18
 70
     1
102
RTVSPropertyOp19
 70
     1
102
RTVSPropertyOp20
 70
     1
102
RTVSPropertyOp21
 70
     1
102
RTVSPropertyOp22
 70
     1
102
RTVSPropertyOp23
 70
     1
102
RTVSPropertyOp24
 70
     1
102
RTVSPropertyOp25
 70
     1
102
RTVSPropertyOp26
 70
     1
102
RTVSPropertyOp27
 70
     1
102
RTVSPropertyOp28
 70
     1
102
RTVSPropertyOp29
 70
     1
102
RTVSPropertyOp30
 70
     1
102
RTVSPropertyOp31
 70
     1
102
RTVSPropertyOp32
 70
     1
102
RTVSPropertyOp33
 70
     1
102
RTVSPropertyOp34
 70
     1
102
RTVSPropertyOp35
 70
     1
102
RTVSPropertyOp36
 70
     1
102
RTVSPropertyOp37
 70
     1
102
RTVSPropertyOp38
 70
     1
102
RTVSPropertyOp39
 70
     1
102
RTVSPropertyOp40
 70
     1
102
RTVSPropertyOp41
 70
     1
102
RTVSPropertyOp42
 70
     1
102
RTVSPropertyOp43
 70
     1
102
RTVSPropertyOp44
 70
     1
102
RTVSPropertyOp45
 70
     1
102
RTVSPropertyOp46
 70
     1
102
RTVSPropertyOp47
 70
     1
102
RTVSPropertyOp48
 70
     1
102
RTVSPropertyOp49
 70
     1
102
RTVSPropertyOp50
 70
     1
102
RTVSPropertyOp51
 70
     0
102
RTVSPropertyOp52
 70
     0
102
RTVSPropertyOp53
 70
     1
102
RTVSPropertyOp54
 70
     1
102
RTVSPropertyOp55
 70
     1
102
RTVSPropertyOp56
 70
     1
102
RTVSPropertyOp57
 70
     1
102
RTVSPropertyOp58
 70
     1
102
RTVSPropertyOp59
 70
     1
102
RTVSPropertyOp60
 70
     1
102
RTVSPropertyOp61
 70
     1
102
RTVSPropertyOp62
 70
     1
  0
XRECORD
  5
E70E
102
{ACAD_REACTORS
330
E70D
102
}
330
E70D
100
AcDbXrecord
280
     1
102
RTVSPost2010Prop28
280
     0
102
RTVSPost2010PropOp28
 70
     1
102
RTVSPost2010Prop29
280
     1
102
RTVSPost2010PropOp29
 70
     1
102
RTVSPost2010Prop30
280
     1
102
RTVSPost2010PropOp30
 70
     1
102
RTVSPost2010Prop31
280
     0
102
RTVSPost2010PropOp31
 70
     1
102
RTVSPost2010Prop32
280
     0
102
RTVSPost2010PropOp32
 70
     1
102
RTVSPost2010Prop33
280
     0
102
RTVSPost2010PropOp33
 70
     1
102
RTVSPost2010Prop34
280
     0
102
RTVSPost2010PropOp34
 70
     1
102
RTVSPost2010Prop35
280
     0
102
RTVSPost2010PropOp35
 70
     1
102
RTVSPost2010Prop36
280
     0
102
RTVSPost2010PropOp36
 70
     1
102
RTVSPost2010Prop37
 90
       50
102
RTVSPost2010PropOp37
 70
     1
102
RTVSPost2010Prop38
140
0.0
102
RTVSPost2010PropOp38
 70
     1
102
RTVSPost2010Prop39
140
1.0
102
RTVSPost2010PropOp39
 70
     1
102
RTVSPost2010Prop40
 90
        0
102
RTVSPost2010PropOp40
 70
     1
102
RTVSPost2010Prop41ColorIndex
 90
       18
102
RTVSPost2010Prop41ColorRGB
 90
        0
102
RTVSPost2010PropOp41
 70
     1
102
RTVSPost2010Prop42
 90
       50
102
RTVSPost2010PropOp42
 70
     1
102
RTVSPost2010Prop43
 90
        3
102
RTVSPost2010PropOp43
 70
     1
102
RTVSPost2010Prop44ColorIndex
 90
        5
102
RTVSPost2010Prop44ColorRGB
 90
      255
102
RTVSPost2010PropOp44
 70
     1
102
RTVSPost2010Prop45
280
     0
102
RTVSPost2010PropOp45
 70
     1
102
RTVSPost2010Prop46
 90
       50
102
RTVSPost2010PropOp46
 70
     1
102
RTVSPost2010Prop47
 90
       50
102
RTVSPost2010PropOp47
 70
     1
102
RTVSPost2010Prop48
 90
       50
102
RTVSPost2010PropOp48
 70
     1
102
RTVSPost2010Prop49
280
     0
102
RTVSPost2010PropOp49
 70
     1
102
RTVSPost2010Prop50
 90
       50
102
RTVSPost2010PropOp50
 70
     1
102
RTVSPost2010Prop51ColorIndex
 90
      256
102
RTVSPost2010Prop51ColorRGB
 90
-16777216
102
RTVSPost2010PropOp51
 70
     0
102
RTVSPost2010Prop52
140
1.0
102
RTVSPost2010PropOp52
 70
     0
102
RTVSPost2010Prop53
 90
        2
102
RTVSPost2010PropOp53
 70
     1
102
RTVSPost2010Prop54
  1
strokes_ogs.tif
102
RTVSPost2010PropOp54
 70
     1
102
RTVSPost2010Prop55
280
     0
102
RTVSPost2010PropOp55
 70
     1
102
RTVSPost2010Prop56
140
1.0
102
RTVSPost2010PropOp56
 70
     1
102
RTVSPost2010Prop57
140
1.0
102
RTVSPost2010PropOp57
 70
     1
102
RTVSPropertyOp0
 70
     1
102
RTVSPropertyOp1
 70
     1
102
RTVSPropertyOp2
 70
     1
102
RTVSPropertyOp3
 70
     1
102
RTVSPropertyOp4
 70
     1
102
RTVSPropertyOp5
 70
     1
102
RTVSPropertyOp6
 70
     1
102
RTVSPropertyOp7
 70
     1
102
RTVSPropertyOp8
 70
     1
102
RTVSPropertyOp9
 70
     1
102
RTVSPropertyOp10
 70
     1
102
RTVSPropertyOp11
 70
     1
102
RTVSPropertyOp12
 70
     1
102
RTVSPropertyOp13
 70
     1
102
RTVSPropertyOp14
 70
     1
102
RTVSPropertyOp15
 70
     1
102
RTVSPropertyOp16
 70
     1
102
RTVSPropertyOp17
 70
     1
102
RTVSPropertyOp18
 70
     1
102
RTVSPropertyOp19
 70
     1
102
RTVSPropertyOp20
 70
     1
102
RTVSPropertyOp21
 70
     1
102
RTVSPropertyOp22
 70
     1
102
RTVSPropertyOp23
 70
     1
102
RTVSPropertyOp24
 70
     1
102
RTVSPropertyOp25
 70
     1
102
RTVSPropertyOp26
 70
     1
102
RTVSPropertyOp27
 70
     1
102
RTVSPropertyOp28
 70
     1
102
RTVSPropertyOp29
 70
     1
102
RTVSPropertyOp30
 70
     1
102
RTVSPropertyOp31
 70
     1
102
RTVSPropertyOp32
 70
     1
102
RTVSPropertyOp33
 70
     1
102
RTVSPropertyOp34
 70
     1
102
RTVSPropertyOp35
 70
     1
102
RTVSPropertyOp36
 70
     1
102
RTVSPropertyOp37
 70
     1
102
RTVSPropertyOp38
 70
     1
102
RTVSPropertyOp39
 70
     1
102
RTVSPropertyOp40
 70
     1
102
RTVSPropertyOp41
 70
     1
102
RTVSPropertyOp42
 70
     1
102
RTVSPropertyOp43
 70
     1
102
RTVSPropertyOp44
 70
     1
102
RTVSPropertyOp45
 70
     1
102
RTVSPropertyOp46
 70
     1
102
RTVSPropertyOp47
 70
     1
102
RTVSPropertyOp48
 70
     1
102
RTVSPropertyOp49
 70
     1
102
RTVSPropertyOp50
 70
     1
102
RTVSPropertyOp51
 70
     0
102
RTVSPropertyOp52
 70
     0
102
RTVSPropertyOp53
 70
     1
102
RTVSPropertyOp54
 70
     1
102
RTVSPropertyOp55
 70
     1
102
RTVSPropertyOp56
 70
     1
102
RTVSPropertyOp57
 70
     1
102
RTVSPropertyOp58
 70
     1
102
RTVSPropertyOp59
 70
     1
102
RTVSPropertyOp60
 70
     1
102
RTVSPropertyOp61
 70
     1
102
RTVSPropertyOp62
 70
     1
  0
XRECORD
  5
E70C
102
{ACAD_REACTORS
330
E70B
102
}
330
E70B
100
AcDbXrecord
280
     1
102
RTVSPost2010Prop28
280
     0
102
RTVSPost2010PropOp28
 70
     1
102
RTVSPost2010Prop29
280
     1
102
RTVSPost2010PropOp29
 70
     1
102
RTVSPost2010Prop30
280
     1
102
RTVSPost2010PropOp30
 70
     1
102
RTVSPost2010Prop31
280
     0
102
RTVSPost2010PropOp31
 70
     1
102
RTVSPost2010Prop32
280
     0
102
RTVSPost2010PropOp32
 70
     1
102
RTVSPost2010Prop33
280
     0
102
RTVSPost2010PropOp33
 70
     1
102
RTVSPost2010Prop34
280
     0
102
RTVSPost2010PropOp34
 70
     1
102
RTVSPost2010Prop35
280
     0
102
RTVSPost2010PropOp35
 70
     1
102
RTVSPost2010Prop36
280
     0
102
RTVSPost2010PropOp36
 70
     1
102
RTVSPost2010Prop37
 90
       50
102
RTVSPost2010PropOp37
 70
     1
102
RTVSPost2010Prop38
140
0.0
102
RTVSPost2010PropOp38
 70
     1
102
RTVSPost2010Prop39
140
1.0
102
RTVSPost2010PropOp39
 70
     1
102
RTVSPost2010Prop40
 90
        0
102
RTVSPost2010PropOp40
 70
     1
102
RTVSPost2010Prop41ColorIndex
 90
       18
102
RTVSPost2010Prop41ColorRGB
 90
        0
102
RTVSPost2010PropOp41
 70
     1
102
RTVSPost2010Prop42
 90
       50
102
RTVSPost2010PropOp42
 70
     1
102
RTVSPost2010Prop43
 90
        3
102
RTVSPost2010PropOp43
 70
     1
102
RTVSPost2010Prop44ColorIndex
 90
        5
102
RTVSPost2010Prop44ColorRGB
 90
      255
102
RTVSPost2010PropOp44
 70
     1
102
RTVSPost2010Prop45
280
     0
102
RTVSPost2010PropOp45
 70
     1
102
RTVSPost2010Prop46
 90
       50
102
RTVSPost2010PropOp46
 70
     1
102
RTVSPost2010Prop47
 90
       50
102
RTVSPost2010PropOp47
 70
     1
102
RTVSPost2010Prop48
 90
       50
102
RTVSPost2010PropOp48
 70
     1
102
RTVSPost2010Prop49
280
     0
102
RTVSPost2010PropOp49
 70
     1
102
RTVSPost2010Prop50
 90
       50
102
RTVSPost2010PropOp50
 70
     1
102
RTVSPost2010Prop51ColorIndex
 90
      256
102
RTVSPost2010Prop51ColorRGB
 90
-16777216
102
RTVSPost2010PropOp51
 70
     0
102
RTVSPost2010Prop52
140
1.0
102
RTVSPost2010PropOp52
 70
     0
102
RTVSPost2010Prop53
 90
        2
102
RTVSPost2010PropOp53
 70
     1
102
RTVSPost2010Prop54
  1
strokes_ogs.tif
102
RTVSPost2010PropOp54
 70
     1
102
RTVSPost2010Prop55
280
     0
102
RTVSPost2010PropOp55
 70
     1
102
RTVSPost2010Prop56
140
1.0
102
RTVSPost2010PropOp56
 70
     1
102
RTVSPost2010Prop57
140
1.0
102
RTVSPost2010PropOp57
 70
     1
102
RTVSPropertyOp0
 70
     1
102
RTVSPropertyOp1
 70
     1
102
RTVSPropertyOp2
 70
     1
102
RTVSPropertyOp3
 70
     1
102
RTVSPropertyOp4
 70
     1
102
RTVSPropertyOp5
 70
     1
102
RTVSPropertyOp6
 70
     1
102
RTVSPropertyOp7
 70
     1
102
RTVSPropertyOp8
 70
     1
102
RTVSPropertyOp9
 70
     1
102
RTVSPropertyOp10
 70
     1
102
RTVSPropertyOp11
 70
     1
102
RTVSPropertyOp12
 70
     1
102
RTVSPropertyOp13
 70
     1
102
RTVSPropertyOp14
 70
     1
102
RTVSPropertyOp15
 70
     1
102
RTVSPropertyOp16
 70
     1
102
RTVSPropertyOp17
 70
     1
102
RTVSPropertyOp18
 70
     1
102
RTVSPropertyOp19
 70
     1
102
RTVSPropertyOp20
 70
     1
102
RTVSPropertyOp21
 70
     1
102
RTVSPropertyOp22
 70
     1
102
RTVSPropertyOp23
 70
     1
102
RTVSPropertyOp24
 70
     1
102
RTVSPropertyOp25
 70
     1
102
RTVSPropertyOp26
 70
     1
102
RTVSPropertyOp27
 70
     1
102
RTVSPropertyOp28
 70
     1
102
RTVSPropertyOp29
 70
     1
102
RTVSPropertyOp30
 70
     1
102
RTVSPropertyOp31
 70
     1
102
RTVSPropertyOp32
 70
     1
102
RTVSPropertyOp33
 70
     1
102
RTVSPropertyOp34
 70
     1
102
RTVSPropertyOp35
 70
     1
102
RTVSPropertyOp36
 70
     1
102
RTVSPropertyOp37
 70
     1
102
RTVSPropertyOp38
 70
     1
102
RTVSPropertyOp39
 70
     1
102
RTVSPropertyOp40
 70
     1
102
RTVSPropertyOp41
 70
     1
102
RTVSPropertyOp42
 70
     1
102
RTVSPropertyOp43
 70
     1
102
RTVSPropertyOp44
 70
     1
102
RTVSPropertyOp45
 70
     1
102
RTVSPropertyOp46
 70
     1
102
RTVSPropertyOp47
 70
     1
102
RTVSPropertyOp48
 70
     1
102
RTVSPropertyOp49
 70
     1
102
RTVSPropertyOp50
 70
     1
102
RTVSPropertyOp51
 70
     0
102
RTVSPropertyOp52
 70
     0
102
RTVSPropertyOp53
 70
     1
102
RTVSPropertyOp54
 70
     1
102
RTVSPropertyOp55
 70
     1
102
RTVSPropertyOp56
 70
     1
102
RTVSPropertyOp57
 70
     1
102
RTVSPropertyOp58
 70
     1
102
RTVSPropertyOp59
 70
     1
102
RTVSPropertyOp60
 70
     1
102
RTVSPropertyOp61
 70
     1
102
RTVSPropertyOp62
 70
     1
  0
XRECORD
  5
E706
102
{ACAD_REACTORS
330
E705
102
}
330
E705
100
AcDbXrecord
280
     1
102
RTVSPost2010Prop28
280
     0
102
RTVSPost2010PropOp28
 70
     1
102
RTVSPost2010Prop29
280
     1
102
RTVSPost2010PropOp29
 70
     1
102
RTVSPost2010Prop30
280
     1
102
RTVSPost2010PropOp30
 70
     1
102
RTVSPost2010Prop31
280
     0
102
RTVSPost2010PropOp31
 70
     1
102
RTVSPost2010Prop32
280
     0
102
RTVSPost2010PropOp32
 70
     1
102
RTVSPost2010Prop33
280
     0
102
RTVSPost2010PropOp33
 70
     1
102
RTVSPost2010Prop34
280
     0
102
RTVSPost2010PropOp34
 70
     1
102
RTVSPost2010Prop35
280
     0
102
RTVSPost2010PropOp35
 70
     1
102
RTVSPost2010Prop36
280
     0
102
RTVSPost2010PropOp36
 70
     1
102
RTVSPost2010Prop37
 90
       50
102
RTVSPost2010PropOp37
 70
     1
102
RTVSPost2010Prop38
140
0.0
102
RTVSPost2010PropOp38
 70
     1
102
RTVSPost2010Prop39
140
1.0
102
RTVSPost2010PropOp39
 70
     1
102
RTVSPost2010Prop40
 90
        0
102
RTVSPost2010PropOp40
 70
     1
102
RTVSPost2010Prop41ColorIndex
 90
       18
102
RTVSPost2010Prop41ColorRGB
 90
        0
102
RTVSPost2010PropOp41
 70
     1
102
RTVSPost2010Prop42
 90
       50
102
RTVSPost2010PropOp42
 70
     1
102
RTVSPost2010Prop43
 90
        3
102
RTVSPost2010PropOp43
 70
     1
102
RTVSPost2010Prop44ColorIndex
 90
        5
102
RTVSPost2010Prop44ColorRGB
 90
      255
102
RTVSPost2010PropOp44
 70
     1
102
RTVSPost2010Prop45
280
     0
102
RTVSPost2010PropOp45
 70
     1
102
RTVSPost2010Prop46
 90
       50
102
RTVSPost2010PropOp46
 70
     1
102
RTVSPost2010Prop47
 90
       50
102
RTVSPost2010PropOp47
 70
     1
102
RTVSPost2010Prop48
 90
       50
102
RTVSPost2010PropOp48
 70
     1
102
RTVSPost2010Prop49
280
     0
102
RTVSPost2010PropOp49
 70
     1
102
RTVSPost2010Prop50
 90
       50
102
RTVSPost2010PropOp50
 70
     1
102
RTVSPost2010Prop51ColorIndex
 90
      256
102
RTVSPost2010Prop51ColorRGB
 90
-16777216
102
RTVSPost2010PropOp51
 70
     0
102
RTVSPost2010Prop52
140
1.0
102
RTVSPost2010PropOp52
 70
     0
102
RTVSPost2010Prop53
 90
        2
102
RTVSPost2010PropOp53
 70
     1
102
RTVSPost2010Prop54
  1
strokes_ogs.tif
102
RTVSPost2010PropOp54
 70
     1
102
RTVSPost2010Prop55
280
     0
102
RTVSPost2010PropOp55
 70
     1
102
RTVSPost2010Prop56
140
1.0
102
RTVSPost2010PropOp56
 70
     1
102
RTVSPost2010Prop57
140
1.0
102
RTVSPost2010PropOp57
 70
     1
102
RTVSPropertyOp0
 70
     1
102
RTVSPropertyOp1
 70
     1
102
RTVSPropertyOp2
 70
     1
102
RTVSPropertyOp3
 70
     1
102
RTVSPropertyOp4
 70
     1
102
RTVSPropertyOp5
 70
     1
102
RTVSPropertyOp6
 70
     1
102
RTVSPropertyOp7
 70
     1
102
RTVSPropertyOp8
 70
     1
102
RTVSPropertyOp9
 70
     1
102
RTVSPropertyOp10
 70
     1
102
RTVSPropertyOp11
 70
     1
102
RTVSPropertyOp12
 70
     1
102
RTVSPropertyOp13
 70
     1
102
RTVSPropertyOp14
 70
     1
102
RTVSPropertyOp15
 70
     1
102
RTVSPropertyOp16
 70
     1
102
RTVSPropertyOp17
 70
     1
102
RTVSPropertyOp18
 70
     1
102
RTVSPropertyOp19
 70
     1
102
RTVSPropertyOp20
 70
     1
102
RTVSPropertyOp21
 70
     1
102
RTVSPropertyOp22
 70
     1
102
RTVSPropertyOp23
 70
     1
102
RTVSPropertyOp24
 70
     1
102
RTVSPropertyOp25
 70
     1
102
RTVSPropertyOp26
 70
     1
102
RTVSPropertyOp27
 70
     1
102
RTVSPropertyOp28
 70
     1
102
RTVSPropertyOp29
 70
     1
102
RTVSPropertyOp30
 70
     1
102
RTVSPropertyOp31
 70
     1
102
RTVSPropertyOp32
 70
     1
102
RTVSPropertyOp33
 70
     1
102
RTVSPropertyOp34
 70
     1
102
RTVSPropertyOp35
 70
     1
102
RTVSPropertyOp36
 70
     1
102
RTVSPropertyOp37
 70
     1
102
RTVSPropertyOp38
 70
     1
102
RTVSPropertyOp39
 70
     1
102
RTVSPropertyOp40
 70
     1
102
RTVSPropertyOp41
 70
     1
102
RTVSPropertyOp42
 70
     1
102
RTVSPropertyOp43
 70
     1
102
RTVSPropertyOp44
 70
     1
102
RTVSPropertyOp45
 70
     1
102
RTVSPropertyOp46
 70
     1
102
RTVSPropertyOp47
 70
     1
102
RTVSPropertyOp48
 70
     1
102
RTVSPropertyOp49
 70
     1
102
RTVSPropertyOp50
 70
     1
102
RTVSPropertyOp51
 70
     0
102
RTVSPropertyOp52
 70
     0
102
RTVSPropertyOp53
 70
     1
102
RTVSPropertyOp54
 70
     1
102
RTVSPropertyOp55
 70
     1
102
RTVSPropertyOp56
 70
     1
102
RTVSPropertyOp57
 70
     1
102
RTVSPropertyOp58
 70
     1
102
RTVSPropertyOp59
 70
     1
102
RTVSPropertyOp60
 70
     1
102
RTVSPropertyOp61
 70
     1
102
RTVSPropertyOp62
 70
     1
  0
XRECORD
  5
E708
102
{ACAD_REACTORS
330
E707
102
}
330
E707
100
AcDbXrecord
280
     1
102
RTVSPost2010Prop28
280
     0
102
RTVSPost2010PropOp28
 70
     1
102
RTVSPost2010Prop29
280
     1
102
RTVSPost2010PropOp29
 70
     1
102
RTVSPost2010Prop30
280
     1
102
RTVSPost2010PropOp30
 70
     1
102
RTVSPost2010Prop31
280
     0
102
RTVSPost2010PropOp31
 70
     1
102
RTVSPost2010Prop32
280
     0
102
RTVSPost2010PropOp32
 70
     1
102
RTVSPost2010Prop33
280
     0
102
RTVSPost2010PropOp33
 70
     1
102
RTVSPost2010Prop34
280
     0
102
RTVSPost2010PropOp34
 70
     1
102
RTVSPost2010Prop35
280
     0
102
RTVSPost2010PropOp35
 70
     1
102
RTVSPost2010Prop36
280
     0
102
RTVSPost2010PropOp36
 70
     1
102
RTVSPost2010Prop37
 90
       50
102
RTVSPost2010PropOp37
 70
     1
102
RTVSPost2010Prop38
140
0.0
102
RTVSPost2010PropOp38
 70
     1
102
RTVSPost2010Prop39
140
1.0
102
RTVSPost2010PropOp39
 70
     1
102
RTVSPost2010Prop40
 90
        0
102
RTVSPost2010PropOp40
 70
     1
102
RTVSPost2010Prop41ColorIndex
 90
       18
102
RTVSPost2010Prop41ColorRGB
 90
        0
102
RTVSPost2010PropOp41
 70
     1
102
RTVSPost2010Prop42
 90
       50
102
RTVSPost2010PropOp42
 70
     1
102
RTVSPost2010Prop43
 90
        3
102
RTVSPost2010PropOp43
 70
     1
102
RTVSPost2010Prop44ColorIndex
 90
        5
102
RTVSPost2010Prop44ColorRGB
 90
      255
102
RTVSPost2010PropOp44
 70
     1
102
RTVSPost2010Prop45
280
     0
102
RTVSPost2010PropOp45
 70
     1
102
RTVSPost2010Prop46
 90
       50
102
RTVSPost2010PropOp46
 70
     1
102
RTVSPost2010Prop47
 90
       50
102
RTVSPost2010PropOp47
 70
     1
102
RTVSPost2010Prop48
 90
       50
102
RTVSPost2010PropOp48
 70
     1
102
RTVSPost2010Prop49
280
     0
102
RTVSPost2010PropOp49
 70
     1
102
RTVSPost2010Prop50
 90
       50
102
RTVSPost2010PropOp50
 70
     1
102
RTVSPost2010Prop51ColorIndex
 90
      256
102
RTVSPost2010Prop51ColorRGB
 90
-16777216
102
RTVSPost2010PropOp51
 70
     0
102
RTVSPost2010Prop52
140
1.0
102
RTVSPost2010PropOp52
 70
     0
102
RTVSPost2010Prop53
 90
        2
102
RTVSPost2010PropOp53
 70
     1
102
RTVSPost2010Prop54
  1
strokes_ogs.tif
102
RTVSPost2010PropOp54
 70
     1
102
RTVSPost2010Prop55
280
     0
102
RTVSPost2010PropOp55
 70
     1
102
RTVSPost2010Prop56
140
1.0
102
RTVSPost2010PropOp56
 70
     1
102
RTVSPost2010Prop57
140
1.0
102
RTVSPost2010PropOp57
 70
     1
102
RTVSPropertyOp0
 70
     1
102
RTVSPropertyOp1
 70
     1
102
RTVSPropertyOp2
 70
     1
102
RTVSPropertyOp3
 70
     1
102
RTVSPropertyOp4
 70
     1
102
RTVSPropertyOp5
 70
     1
102
RTVSPropertyOp6
 70
     1
102
RTVSPropertyOp7
 70
     1
102
RTVSPropertyOp8
 70
     1
102
RTVSPropertyOp9
 70
     1
102
RTVSPropertyOp10
 70
     1
102
RTVSPropertyOp11
 70
     1
102
RTVSPropertyOp12
 70
     1
102
RTVSPropertyOp13
 70
     1
102
RTVSPropertyOp14
 70
     1
102
RTVSPropertyOp15
 70
     1
102
RTVSPropertyOp16
 70
     1
102
RTVSPropertyOp17
 70
     1
102
RTVSPropertyOp18
 70
     1
102
RTVSPropertyOp19
 70
     1
102
RTVSPropertyOp20
 70
     1
102
RTVSPropertyOp21
 70
     1
102
RTVSPropertyOp22
 70
     1
102
RTVSPropertyOp23
 70
     1
102
RTVSPropertyOp24
 70
     1
102
RTVSPropertyOp25
 70
     1
102
RTVSPropertyOp26
 70
     1
102
RTVSPropertyOp27
 70
     1
102
RTVSPropertyOp28
 70
     1
102
RTVSPropertyOp29
 70
     1
102
RTVSPropertyOp30
 70
     1
102
RTVSPropertyOp31
 70
     1
102
RTVSPropertyOp32
 70
     1
102
RTVSPropertyOp33
 70
     1
102
RTVSPropertyOp34
 70
     1
102
RTVSPropertyOp35
 70
     1
102
RTVSPropertyOp36
 70
     1
102
RTVSPropertyOp37
 70
     1
102
RTVSPropertyOp38
 70
     1
102
RTVSPropertyOp39
 70
     1
102
RTVSPropertyOp40
 70
     1
102
RTVSPropertyOp41
 70
     1
102
RTVSPropertyOp42
 70
     1
102
RTVSPropertyOp43
 70
     1
102
RTVSPropertyOp44
 70
     1
102
RTVSPropertyOp45
 70
     1
102
RTVSPropertyOp46
 70
     1
102
RTVSPropertyOp47
 70
     1
102
RTVSPropertyOp48
 70
     1
102
RTVSPropertyOp49
 70
     1
102
RTVSPropertyOp50
 70
     1
102
RTVSPropertyOp51
 70
     0
102
RTVSPropertyOp52
 70
     0
102
RTVSPropertyOp53
 70
     1
102
RTVSPropertyOp54
 70
     1
102
RTVSPropertyOp55
 70
     1
102
RTVSPropertyOp56
 70
     1
102
RTVSPropertyOp57
 70
     1
102
RTVSPropertyOp58
 70
     1
102
RTVSPropertyOp59
 70
     1
102
RTVSPropertyOp60
 70
     1
102
RTVSPropertyOp61
 70
     1
102
RTVSPropertyOp62
 70
     1
  0
XRECORD
  5
E6FE
102
{ACAD_REACTORS
330
E6FD
102
}
330
E6FD
100
AcDbXrecord
280
     1
102
RTVSPost2010Prop28
280
     0
102
RTVSPost2010PropOp28
 70
     1
102
RTVSPost2010Prop29
280
     1
102
RTVSPost2010PropOp29
 70
     1
102
RTVSPost2010Prop30
280
     1
102
RTVSPost2010PropOp30
 70
     1
102
RTVSPost2010Prop31
280
     0
102
RTVSPost2010PropOp31
 70
     1
102
RTVSPost2010Prop32
280
     0
102
RTVSPost2010PropOp32
 70
     1
102
RTVSPost2010Prop33
280
     0
102
RTVSPost2010PropOp33
 70
     1
102
RTVSPost2010Prop34
280
     0
102
RTVSPost2010PropOp34
 70
     1
102
RTVSPost2010Prop35
280
     0
102
RTVSPost2010PropOp35
 70
     1
102
RTVSPost2010Prop36
280
     0
102
RTVSPost2010PropOp36
 70
     1
102
RTVSPost2010Prop37
 90
       50
102
RTVSPost2010PropOp37
 70
     1
102
RTVSPost2010Prop38
140
0.0
102
RTVSPost2010PropOp38
 70
     1
102
RTVSPost2010Prop39
140
1.0
102
RTVSPost2010PropOp39
 70
     1
102
RTVSPost2010Prop40
 90
        0
102
RTVSPost2010PropOp40
 70
     1
102
RTVSPost2010Prop41ColorIndex
 90
       18
102
RTVSPost2010Prop41ColorRGB
 90
        0
102
RTVSPost2010PropOp41
 70
     1
102
RTVSPost2010Prop42
 90
       50
102
RTVSPost2010PropOp42
 70
     1
102
RTVSPost2010Prop43
 90
        3
102
RTVSPost2010PropOp43
 70
     1
102
RTVSPost2010Prop44ColorIndex
 90
        5
102
RTVSPost2010Prop44ColorRGB
 90
      255
102
RTVSPost2010PropOp44
 70
     1
102
RTVSPost2010Prop45
280
     0
102
RTVSPost2010PropOp45
 70
     1
102
RTVSPost2010Prop46
 90
       50
102
RTVSPost2010PropOp46
 70
     1
102
RTVSPost2010Prop47
 90
       50
102
RTVSPost2010PropOp47
 70
     1
102
RTVSPost2010Prop48
 90
       50
102
RTVSPost2010PropOp48
 70
     1
102
RTVSPost2010Prop49
280
     0
102
RTVSPost2010PropOp49
 70
     1
102
RTVSPost2010Prop50
 90
       50
102
RTVSPost2010PropOp50
 70
     1
102
RTVSPost2010Prop51ColorIndex
 90
      256
102
RTVSPost2010Prop51ColorRGB
 90
-16777216
102
RTVSPost2010PropOp51
 70
     0
102
RTVSPost2010Prop52
140
1.0
102
RTVSPost2010PropOp52
 70
     0
102
RTVSPost2010Prop53
 90
        2
102
RTVSPost2010PropOp53
 70
     1
102
RTVSPost2010Prop54
  1
strokes_ogs.tif
102
RTVSPost2010PropOp54
 70
     1
102
RTVSPost2010Prop55
280
     0
102
RTVSPost2010PropOp55
 70
     1
102
RTVSPost2010Prop56
140
1.0
102
RTVSPost2010PropOp56
 70
     1
102
RTVSPost2010Prop57
140
1.0
102
RTVSPost2010PropOp57
 70
     1
102
RTVSPropertyOp0
 70
     1
102
RTVSPropertyOp1
 70
     1
102
RTVSPropertyOp2
 70
     1
102
RTVSPropertyOp3
 70
     1
102
RTVSPropertyOp4
 70
     1
102
RTVSPropertyOp5
 70
     1
102
RTVSPropertyOp6
 70
     1
102
RTVSPropertyOp7
 70
     1
102
RTVSPropertyOp8
 70
     1
102
RTVSPropertyOp9
 70
     1
102
RTVSPropertyOp10
 70
     1
102
RTVSPropertyOp11
 70
     1
102
RTVSPropertyOp12
 70
     1
102
RTVSPropertyOp13
 70
     1
102
RTVSPropertyOp14
 70
     1
102
RTVSPropertyOp15
 70
     1
102
RTVSPropertyOp16
 70
     1
102
RTVSPropertyOp17
 70
     1
102
RTVSPropertyOp18
 70
     1
102
RTVSPropertyOp19
 70
     1
102
RTVSPropertyOp20
 70
     1
102
RTVSPropertyOp21
 70
     1
102
RTVSPropertyOp22
 70
     1
102
RTVSPropertyOp23
 70
     1
102
RTVSPropertyOp24
 70
     1
102
RTVSPropertyOp25
 70
     1
102
RTVSPropertyOp26
 70
     1
102
RTVSPropertyOp27
 70
     1
102
RTVSPropertyOp28
 70
     1
102
RTVSPropertyOp29
 70
     1
102
RTVSPropertyOp30
 70
     1
102
RTVSPropertyOp31
 70
     1
102
RTVSPropertyOp32
 70
     1
102
RTVSPropertyOp33
 70
     1
102
RTVSPropertyOp34
 70
     1
102
RTVSPropertyOp35
 70
     1
102
RTVSPropertyOp36
 70
     1
102
RTVSPropertyOp37
 70
     1
102
RTVSPropertyOp38
 70
     1
102
RTVSPropertyOp39
 70
     1
102
RTVSPropertyOp40
 70
     1
102
RTVSPropertyOp41
 70
     1
102
RTVSPropertyOp42
 70
     1
102
RTVSPropertyOp43
 70
     1
102
RTVSPropertyOp44
 70
     1
102
RTVSPropertyOp45
 70
     1
102
RTVSPropertyOp46
 70
     1
102
RTVSPropertyOp47
 70
     1
102
RTVSPropertyOp48
 70
     1
102
RTVSPropertyOp49
 70
     1
102
RTVSPropertyOp50
 70
     1
102
RTVSPropertyOp51
 70
     0
102
RTVSPropertyOp52
 70
     0
102
RTVSPropertyOp53
 70
     1
102
RTVSPropertyOp54
 70
     1
102
RTVSPropertyOp55
 70
     1
102
RTVSPropertyOp56
 70
     1
102
RTVSPropertyOp57
 70
     1
102
RTVSPropertyOp58
 70
     1
102
RTVSPropertyOp59
 70
     1
102
RTVSPropertyOp60
 70
     1
102
RTVSPropertyOp61
 70
     1
102
RTVSPropertyOp62
 70
     1
  0
XRECORD
  5
E6F2
102
{ACAD_REACTORS
330
E6F1
102
}
330
E6F1
100
AcDbXrecord
280
     1
102
RTVSPost2010Prop28
280
     0
102
RTVSPost2010PropOp28
 70
     1
102
RTVSPost2010Prop29
280
     1
102
RTVSPost2010PropOp29
 70
     1
102
RTVSPost2010Prop30
280
     1
102
RTVSPost2010PropOp30
 70
     1
102
RTVSPost2010Prop31
280
     0
102
RTVSPost2010PropOp31
 70
     1
102
RTVSPost2010Prop32
280
     0
102
RTVSPost2010PropOp32
 70
     1
102
RTVSPost2010Prop33
280
     0
102
RTVSPost2010PropOp33
 70
     1
102
RTVSPost2010Prop34
280
     0
102
RTVSPost2010PropOp34
 70
     1
102
RTVSPost2010Prop35
280
     0
102
RTVSPost2010PropOp35
 70
     1
102
RTVSPost2010Prop36
280
     0
102
RTVSPost2010PropOp36
 70
     1
102
RTVSPost2010Prop37
 90
       50
102
RTVSPost2010PropOp37
 70
     1
102
RTVSPost2010Prop38
140
0.0
102
RTVSPost2010PropOp38
 70
     1
102
RTVSPost2010Prop39
140
1.0
102
RTVSPost2010PropOp39
 70
     1
102
RTVSPost2010Prop40
 90
        0
102
RTVSPost2010PropOp40
 70
     1
102
RTVSPost2010Prop41ColorIndex
 90
       18
102
RTVSPost2010Prop41ColorRGB
 90
        0
102
RTVSPost2010PropOp41
 70
     1
102
RTVSPost2010Prop42
 90
       50
102
RTVSPost2010PropOp42
 70
     1
102
RTVSPost2010Prop43
 90
        3
102
RTVSPost2010PropOp43
 70
     1
102
RTVSPost2010Prop44ColorIndex
 90
        5
102
RTVSPost2010Prop44ColorRGB
 90
      255
102
RTVSPost2010PropOp44
 70
     1
102
RTVSPost2010Prop45
280
     0
102
RTVSPost2010PropOp45
 70
     1
102
RTVSPost2010Prop46
 90
       50
102
RTVSPost2010PropOp46
 70
     1
102
RTVSPost2010Prop47
 90
       50
102
RTVSPost2010PropOp47
 70
     1
102
RTVSPost2010Prop48
 90
       50
102
RTVSPost2010PropOp48
 70
     1
102
RTVSPost2010Prop49
280
     0
102
RTVSPost2010PropOp49
 70
     1
102
RTVSPost2010Prop50
 90
       50
102
RTVSPost2010PropOp50
 70
     1
102
RTVSPost2010Prop51ColorIndex
 90
      256
102
RTVSPost2010Prop51ColorRGB
 90
-16777216
102
RTVSPost2010PropOp51
 70
     0
102
RTVSPost2010Prop52
140
1.0
102
RTVSPost2010PropOp52
 70
     0
102
RTVSPost2010Prop53
 90
        2
102
RTVSPost2010PropOp53
 70
     1
102
RTVSPost2010Prop54
  1
strokes_ogs.tif
102
RTVSPost2010PropOp54
 70
     1
102
RTVSPost2010Prop55
280
     0
102
RTVSPost2010PropOp55
 70
     1
102
RTVSPost2010Prop56
140
1.0
102
RTVSPost2010PropOp56
 70
     1
102
RTVSPost2010Prop57
140
1.0
102
RTVSPost2010PropOp57
 70
     1
102
RTVSPropertyOp0
 70
     1
102
RTVSPropertyOp1
 70
     1
102
RTVSPropertyOp2
 70
     1
102
RTVSPropertyOp3
 70
     1
102
RTVSPropertyOp4
 70
     1
102
RTVSPropertyOp5
 70
     1
102
RTVSPropertyOp6
 70
     1
102
RTVSPropertyOp7
 70
     1
102
RTVSPropertyOp8
 70
     1
102
RTVSPropertyOp9
 70
     1
102
RTVSPropertyOp10
 70
     1
102
RTVSPropertyOp11
 70
     1
102
RTVSPropertyOp12
 70
     1
102
RTVSPropertyOp13
 70
     1
102
RTVSPropertyOp14
 70
     1
102
RTVSPropertyOp15
 70
     1
102
RTVSPropertyOp16
 70
     1
102
RTVSPropertyOp17
 70
     1
102
RTVSPropertyOp18
 70
     1
102
RTVSPropertyOp19
 70
     1
102
RTVSPropertyOp20
 70
     1
102
RTVSPropertyOp21
 70
     1
102
RTVSPropertyOp22
 70
     1
102
RTVSPropertyOp23
 70
     1
102
RTVSPropertyOp24
 70
     1
102
RTVSPropertyOp25
 70
     1
102
RTVSPropertyOp26
 70
     1
102
RTVSPropertyOp27
 70
     1
102
RTVSPropertyOp28
 70
     1
102
RTVSPropertyOp29
 70
     1
102
RTVSPropertyOp30
 70
     1
102
RTVSPropertyOp31
 70
     1
102
RTVSPropertyOp32
 70
     1
102
RTVSPropertyOp33
 70
     1
102
RTVSPropertyOp34
 70
     1
102
RTVSPropertyOp35
 70
     1
102
RTVSPropertyOp36
 70
     1
102
RTVSPropertyOp37
 70
     1
102
RTVSPropertyOp38
 70
     1
102
RTVSPropertyOp39
 70
     1
102
RTVSPropertyOp40
 70
     1
102
RTVSPropertyOp41
 70
     1
102
RTVSPropertyOp42
 70
     1
102
RTVSPropertyOp43
 70
     1
102
RTVSPropertyOp44
 70
     1
102
RTVSPropertyOp45
 70
     1
102
RTVSPropertyOp46
 70
     1
102
RTVSPropertyOp47
 70
     1
102
RTVSPropertyOp48
 70
     1
102
RTVSPropertyOp49
 70
     1
102
RTVSPropertyOp50
 70
     1
102
RTVSPropertyOp51
 70
     0
102
RTVSPropertyOp52
 70
     0
102
RTVSPropertyOp53
 70
     1
102
RTVSPropertyOp54
 70
     1
102
RTVSPropertyOp55
 70
     1
102
RTVSPropertyOp56
 70
     1
102
RTVSPropertyOp57
 70
     1
102
RTVSPropertyOp58
 70
     1
102
RTVSPropertyOp59
 70
     1
102
RTVSPropertyOp60
 70
     1
102
RTVSPropertyOp61
 70
     1
102
RTVSPropertyOp62
 70
     1
  0
XRECORD
  5
E70A
102
{ACAD_REACTORS
330
E709
102
}
330
E709
100
AcDbXrecord
280
     1
102
RTVSPost2010Prop28
280
     0
102
RTVSPost2010PropOp28
 70
     1
102
RTVSPost2010Prop29
280
     1
102
RTVSPost2010PropOp29
 70
     1
102
RTVSPost2010Prop30
280
     1
102
RTVSPost2010PropOp30
 70
     1
102
RTVSPost2010Prop31
280
     0
102
RTVSPost2010PropOp31
 70
     1
102
RTVSPost2010Prop32
280
     0
102
RTVSPost2010PropOp32
 70
     1
102
RTVSPost2010Prop33
280
     0
102
RTVSPost2010PropOp33
 70
     1
102
RTVSPost2010Prop34
280
     0
102
RTVSPost2010PropOp34
 70
     1
102
RTVSPost2010Prop35
280
     0
102
RTVSPost2010PropOp35
 70
     1
102
RTVSPost2010Prop36
280
     0
102
RTVSPost2010PropOp36
 70
     1
102
RTVSPost2010Prop37
 90
       50
102
RTVSPost2010PropOp37
 70
     1
102
RTVSPost2010Prop38
140
0.0
102
RTVSPost2010PropOp38
 70
     1
102
RTVSPost2010Prop39
140
1.0
102
RTVSPost2010PropOp39
 70
     1
102
RTVSPost2010Prop40
 90
        0
102
RTVSPost2010PropOp40
 70
     1
102
RTVSPost2010Prop41ColorIndex
 90
       18
102
RTVSPost2010Prop41ColorRGB
 90
        0
102
RTVSPost2010PropOp41
 70
     1
102
RTVSPost2010Prop42
 90
       50
102
RTVSPost2010PropOp42
 70
     1
102
RTVSPost2010Prop43
 90
        3
102
RTVSPost2010PropOp43
 70
     1
102
RTVSPost2010Prop44ColorIndex
 90
        5
102
RTVSPost2010Prop44ColorRGB
 90
      255
102
RTVSPost2010PropOp44
 70
     1
102
RTVSPost2010Prop45
280
     0
102
RTVSPost2010PropOp45
 70
     1
102
RTVSPost2010Prop46
 90
       50
102
RTVSPost2010PropOp46
 70
     1
102
RTVSPost2010Prop47
 90
       50
102
RTVSPost2010PropOp47
 70
     1
102
RTVSPost2010Prop48
 90
       50
102
RTVSPost2010PropOp48
 70
     1
102
RTVSPost2010Prop49
280
     0
102
RTVSPost2010PropOp49
 70
     1
102
RTVSPost2010Prop50
 90
       50
102
RTVSPost2010PropOp50
 70
     1
102
RTVSPost2010Prop51ColorIndex
 90
      256
102
RTVSPost2010Prop51ColorRGB
 90
-16777216
102
RTVSPost2010PropOp51
 70
     0
102
RTVSPost2010Prop52
140
1.0
102
RTVSPost2010PropOp52
 70
     0
102
RTVSPost2010Prop53
 90
        2
102
RTVSPost2010PropOp53
 70
     1
102
RTVSPost2010Prop54
  1
strokes_ogs.tif
102
RTVSPost2010PropOp54
 70
     1
102
RTVSPost2010Prop55
280
     0
102
RTVSPost2010PropOp55
 70
     1
102
RTVSPost2010Prop56
140
1.0
102
RTVSPost2010PropOp56
 70
     1
102
RTVSPost2010Prop57
140
1.0
102
RTVSPost2010PropOp57
 70
     1
102
RTVSPropertyOp0
 70
     1
102
RTVSPropertyOp1
 70
     1
102
RTVSPropertyOp2
 70
     1
102
RTVSPropertyOp3
 70
     1
102
RTVSPropertyOp4
 70
     1
102
RTVSPropertyOp5
 70
     1
102
RTVSPropertyOp6
 70
     1
102
RTVSPropertyOp7
 70
     1
102
RTVSPropertyOp8
 70
     1
102
RTVSPropertyOp9
 70
     1
102
RTVSPropertyOp10
 70
     1
102
RTVSPropertyOp11
 70
     1
102
RTVSPropertyOp12
 70
     1
102
RTVSPropertyOp13
 70
     1
102
RTVSPropertyOp14
 70
     1
102
RTVSPropertyOp15
 70
     1
102
RTVSPropertyOp16
 70
     1
102
RTVSPropertyOp17
 70
     1
102
RTVSPropertyOp18
 70
     1
102
RTVSPropertyOp19
 70
     1
102
RTVSPropertyOp20
 70
     1
102
RTVSPropertyOp21
 70
     1
102
RTVSPropertyOp22
 70
     1
102
RTVSPropertyOp23
 70
     1
102
RTVSPropertyOp24
 70
     1
102
RTVSPropertyOp25
 70
     1
102
RTVSPropertyOp26
 70
     1
102
RTVSPropertyOp27
 70
     1
102
RTVSPropertyOp28
 70
     1
102
RTVSPropertyOp29
 70
     1
102
RTVSPropertyOp30
 70
     1
102
RTVSPropertyOp31
 70
     1
102
RTVSPropertyOp32
 70
     1
102
RTVSPropertyOp33
 70
     1
102
RTVSPropertyOp34
 70
     1
102
RTVSPropertyOp35
 70
     1
102
RTVSPropertyOp36
 70
     1
102
RTVSPropertyOp37
 70
     1
102
RTVSPropertyOp38
 70
     1
102
RTVSPropertyOp39
 70
     1
102
RTVSPropertyOp40
 70
     1
102
RTVSPropertyOp41
 70
     1
102
RTVSPropertyOp42
 70
     1
102
RTVSPropertyOp43
 70
     1
102
RTVSPropertyOp44
 70
     1
102
RTVSPropertyOp45
 70
     1
102
RTVSPropertyOp46
 70
     1
102
RTVSPropertyOp47
 70
     1
102
RTVSPropertyOp48
 70
     1
102
RTVSPropertyOp49
 70
     1
102
RTVSPropertyOp50
 70
     1
102
RTVSPropertyOp51
 70
     0
102
RTVSPropertyOp52
 70
     0
102
RTVSPropertyOp53
 70
     1
102
RTVSPropertyOp54
 70
     1
102
RTVSPropertyOp55
 70
     1
102
RTVSPropertyOp56
 70
     1
102
RTVSPropertyOp57
 70
     1
102
RTVSPropertyOp58
 70
     1
102
RTVSPropertyOp59
 70
     1
102
RTVSPropertyOp60
 70
     1
102
RTVSPropertyOp61
 70
     1
102
RTVSPropertyOp62
 70
     1
  0
ENDSEC
  0
EOF
