  0
SECTION
  2
HEADER
  9
$ACADVER
  1
AC1015
  9
$ACADMAINTVER
 70
    20
  9
$DWGCODEPAGE
  3
ANSI_932
  9
$INSBASE
 10
0.0
 20
0.0
 30
0.0
  9
$EXTMIN
 10
9.99995
 20
9.999999999999998
 30
0.0
  9
$EXTMAX
 10
550.000336
 20
765.1501459999997
 30
0.0
  9
$LIMMIN
 10
0.0
 20
0.0
  9
$LIMMAX
 10
1108.8
 20
764.4
  9
$ORTHOMODE
 70
     1
  9
$REGENMODE
 70
     1
  9
$FILLMODE
 70
     1
  9
$QTEXTMODE
 70
     0
  9
$MIRRTEXT
 70
     1
  9
$LTSCALE
 40
20.0
  9
$ATTMODE
 70
     1
  9
$TEXTSIZE
 40
5.0
  9
$TRACEWID
 40
1.0
  9
$TEXTSTYLE
  7
STANDARD
  9
$CLAYER
  8
0
  9
$CELTYPE
  6
BYLAYER
  9
$CECOLOR
 62
   256
  9
$CELTSCALE
 40
1.0
  9
$DISPSILH
 70
     0
  9
$DIMSCALE
 40
1.0
  9
$DIMASZ
 40
3.0
  9
$DIMEXO
 40
1.0
  9
$DIMDLI
 40
10.0
  9
$DIMRND
 40
0.0
  9
$DIMDLE
 40
0.0
  9
$DIMEXE
 40
1.0
  9
$DIMTP
 40
0.0
  9
$DIMTM
 40
0.0
  9
$DIMTXT
 40
3.2
  9
$DIMCEN
 40
0.0
  9
$DIMTSZ
 40
0.0
  9
$DIMTOL
 70
     0
  9
$DIMLIM
 70
     0
  9
$DIMTIH
 70
     0
  9
$DIMTOH
 70
     0
  9
$DIMSE1
 70
     0
  9
$DIMSE2
 70
     0
  9
$DIMTAD
 70
     3
  9
$DIMZIN
 70
     8
  9
$DIMBLK
  1

  9
$DIMASO
 70
     1
  9
$DIMSHO
 70
     1
  9
$DIMPOST
  1

  9
$DIMAPOST
  1

  9
$DIMALT
 70
     0
  9
$DIMALTD
 70
     2
  9
$DIMALTF
 40
25.4
  9
$DIMLFAC
 40
1.0
  9
$DIMTOFL
 70
     1
  9
$DIMTVP
 40
0.0
  9
$DIMTIX
 70
     0
  9
$DIMSOXD
 70
     0
  9
$DIMSAH
 70
     1
  9
$DIMBLK1
  1

  9
$DIMBLK2
  1

  9
$DIMSTYLE
  2
STANDARD
  9
$DIMCLRD
 70
     0
  9
$DIMCLRE
 70
     0
  9
$DIMCLRT
 70
     0
  9
$DIMTFAC
 40
1.0
  9
$DIMGAP
 40
1.0
  9
$DIMJUST
 70
     0
  9
$DIMSD1
 70
     0
  9
$DIMSD2
 70
     0
  9
$DIMTOLJ
 70
     1
  9
$DIMTZIN
 70
     0
  9
$DIMALTZ
 70
     0
  9
$DIMALTTZ
 70
     0
  9
$DIMUPT
 70
     0
  9
$DIMDEC
 70
     4
  9
$DIMTDEC
 70
     4
  9
$DIMALTU
 70
     2
  9
$DIMALTTD
 70
     2
  9
$DIMTXSTY
  7
STANDARD
  9
$DIMAUNIT
 70
     0
  9
$DIMADEC
 70
     0
  9
$DIMALTRND
 40
0.0
  9
$DIMAZIN
 70
     0
  9
$DIMDSEP
 70
    46
  9
$DIMATFIT
 70
     3
  9
$DIMFRAC
 70
     0
  9
$DIMLDRBLK
  1

  9
$DIMLUNIT
 70
     2
  9
$DIMLWD
 70
    -2
  9
$DIMLWE
 70
    -2
  9
$DIMTMOVE
 70
     0
  9
$LUNITS
 70
     2
  9
$LUPREC
 70
     4
  9
$SKETCHINC
 40
1.0
  9
$FILLETRAD
 40
0.0
  9
$AUNITS
 70
     0
  9
$AUPREC
 70
     2
  9
$MENU
  1
.
  9
$ELEVATION
 40
0.0
  9
$PELEVATION
 40
0.0
  9
$THICKNESS
 40
0.0
  9
$LIMCHECK
 70
     0
  9
$CHAMFERA
 40
10.0
  9
$CHAMFERB
 40
10.0
  9
$CHAMFERC
 40
0.0
  9
$CHAMFERD
 40
0.0
  9
$SKPOLY
 70
     0
  9
$TDCREATE
 40
2451069.679224190
  9
$TDUCREATE
 40
2451069.304224190
  9
$TDUPDATE
 40
2457192.621085602
  9
$TDUUPDATE
 40
2457192.246085602
  9
$TDINDWG
 40
0.0000147338
  9
$TDUSRTIMER
 40
0.0000141319
  9
$USRTIMER
 70
     1
  9
$ANGBASE
 50
0.0
  9
$ANGDIR
 70
     0
  9
$PDMODE
 70
     0
  9
$PDSIZE
 40
0.0
  9
$PLINEWID
 40
0.0
  9
$SPLFRAME
 70
     0
  9
$SPLINETYPE
 70
     6
  9
$SPLINESEGS
 70
     8
  9
$HANDSEED
  5
491
  9
$SURFTAB1
 70
     6
  9
$SURFTAB2
 70
     6
  9
$SURFTYPE
 70
     6
  9
$SURFU
 70
     6
  9
$SURFV
 70
     6
  9
$UCSBASE
  2

  9
$UCSNAME
  2

  9
$UCSORG
 10
0.0
 20
0.0
 30
0.0
  9
$UCSXDIR
 10
1.0
 20
0.0
 30
0.0
  9
$UCSYDIR
 10
0.0
 20
1.0
 30
0.0
  9
$UCSORTHOREF
  2

  9
$UCSORTHOVIEW
 70
     0
  9
$UCSORGTOP
 10
0.0
 20
0.0
 30
0.0
  9
$UCSORGBOTTOM
 10
0.0
 20
0.0
 30
0.0
  9
$UCSORGLEFT
 10
0.0
 20
0.0
 30
0.0
  9
$UCSORGRIGHT
 10
0.0
 20
0.0
 30
0.0
  9
$UCSORGFRONT
 10
0.0
 20
0.0
 30
0.0
  9
$UCSORGBACK
 10
0.0
 20
0.0
 30
0.0
  9
$PUCSBASE
  2

  9
$PUCSNAME
  2

  9
$PUCSORG
 10
0.0
 20
0.0
 30
0.0
  9
$PUCSXDIR
 10
1.0
 20
0.0
 30
0.0
  9
$PUCSYDIR
 10
0.0
 20
1.0
 30
0.0
  9
$PUCSORTHOREF
  2

  9
$PUCSORTHOVIEW
 70
     0
  9
$PUCSORGTOP
 10
0.0
 20
0.0
 30
0.0
  9
$PUCSORGBOTTOM
 10
0.0
 20
0.0
 30
0.0
  9
$PUCSORGLEFT
 10
0.0
 20
0.0
 30
0.0
  9
$PUCSORGRIGHT
 10
0.0
 20
0.0
 30
0.0
  9
$PUCSORGFRONT
 10
0.0
 20
0.0
 30
0.0
  9
$PUCSORGBACK
 10
0.0
 20
0.0
 30
0.0
  9
$USERI1
 70
     0
  9
$USERI2
 70
     0
  9
$USERI3
 70
     0
  9
$USERI4
 70
     0
  9
$USERI5
 70
     0
  9
$USERR1
 40
0.0
  9
$USERR2
 40
0.0
  9
$USERR3
 40
0.0
  9
$USERR4
 40
0.0
  9
$USERR5
 40
0.0
  9
$WORLDVIEW
 70
     1
  9
$SHADEDGE
 70
     3
  9
$SHADEDIF
 70
    70
  9
$TILEMODE
 70
     1
  9
$MAXACTVP
 70
    16
  9
$PINSBASE
 10
0.0
 20
0.0
 30
0.0
  9
$PLIMCHECK
 70
     0
  9
$PEXTMIN
 10
1.000000000000000E+20
 20
1.000000000000000E+20
 30
1.000000000000000E+20
  9
$PEXTMAX
 10
-1.000000000000000E+20
 20
-1.000000000000000E+20
 30
-1.000000000000000E+20
  9
$PLIMMIN
 10
0.0
 20
0.0
  9
$PLIMMAX
 10
420.0
 20
297.0
  9
$UNITMODE
 70
     0
  9
$VISRETAIN
 70
     0
  9
$PLINEGEN
 70
     0
  9
$PSLTSCALE
 70
     0
  9
$TREEDEPTH
 70
  3020
  9
$CMLSTYLE
  2
STANDARD
  9
$CMLJUST
 70
     0
  9
$CMLSCALE
 40
1.0
  9
$PROXYGRAPHICS
 70
     1
  9
$MEASUREMENT
 70
     0
  9
$CELWEIGHT
370
    -1
  9
$ENDCAPS
280
     0
  9
$JOINSTYLE
280
     0
  9
$LWDISPLAY
290
     0
  9
$INSUNITS
 70
     0
  9
$HYPERLINKBASE
  1

  9
$STYLESHEET
  1

  9
$XEDIT
290
     1
  9
$CEPSNTYPE
380
     0
  9
$PSTYLEMODE
290
     1
  9
$FINGERPRINTGUID
  2
{D821DC89-F224-4437-B8CC-1373D76DE267}
  9
$VERSIONGUID
  2
{BDEC9281-8E2E-4845-8D48-53C758296596}
  9
$EXTNAMES
290
     1
  9
$PSVPSCALE
 40
0.0
  9
$OLESTARTUP
290
     0
  0
ENDSEC
  0
SECTION
  2
CLASSES
  0
CLASS
  1
ACDBDICTIONARYWDFLT
  2
AcDbDictionaryWithDefault
  3
ObjectDBX Classes
 90
        0
280
     0
281
     0
  0
CLASS
  1
ACDBPLACEHOLDER
  2
AcDbPlaceHolder
  3
ObjectDBX Classes
 90
        0
280
     0
281
     0
  0
CLASS
  1
LAYOUT
  2
AcDbLayout
  3
ObjectDBX Classes
 90
        0
280
     0
281
     0
  0
CLASS
  1
DICTIONARYVAR
  2
AcDbDictionaryVar
  3
ObjectDBX Classes
 90
        0
280
     0
281
     0
  0
CLASS
  1
MATERIAL
  2
AcDbMaterial
  3
ObjectDBX Classes
 90
     1153
280
     0
281
     0
  0
CLASS
  1
VISUALSTYLE
  2
AcDbVisualStyle
  3
ObjectDBX Classes
 90
     4095
280
     0
281
     0
  0
CLASS
  1
TABLESTYLE
  2
AcDbTableStyle
  3
ObjectDBX Classes
 90
     4095
280
     0
281
     0
  0
CLASS
  1
SCALE
  2
AcDbScale
  3
ObjectDBX Classes
 90
     1153
280
     0
281
     0
  0
CLASS
  1
MLEADERSTYLE
  2
AcDbMLeaderStyle
  3
ACDB_MLEADERSTYLE_CLASS
 90
     4095
280
     0
281
     0
  0
CLASS
  1
ACDBSECTIONVIEWSTYLE
  2
AcDbSectionViewStyle
  3
ObjectDBX Classes
 90
     1025
280
     0
281
     0
  0
CLASS
  1
ACDBDETAILVIEWSTYLE
  2
AcDbDetailViewStyle
  3
ObjectDBX Classes
 90
     1025
280
     0
281
     0
  0
CLASS
  1
CELLSTYLEMAP
  2
AcDbCellStyleMap
  3
ObjectDBX Classes
 90
     1152
280
     0
281
     0
  0
ENDSEC
  0
SECTION
  2
TABLES
  0
TABLE
  2
VPORT
  5
1EF
330
0
100
AcDbSymbolTable
 70
     1
  0
VPORT
  5
3DA
330
1EF
100
AcDbSymbolTableRecord
100
AcDbViewportTableRecord
  2
*ACTIVE
 70
     0
 10
0.0
 20
0.0
 11
1.0
 21
1.0
 12
508.7209268487062
 22
387.5653582313157
 13
0.0
 23
0.0
 14
10.0
 24
10.0
 15
10.0
 25
10.0
 16
0.0
 26
0.0
 36
1.0
 17
0.0
 27
0.0
 37
0.0
 40
763.6790715632746
 41
1.899603698811096
 42
50.0
 43
0.0
 44
0.0
 50
0.0
 51
0.0
 71
     0
 72
   100
 73
     1
 74
     0
 75
     0
 76
     0
 77
     0
 78
     0
281
     0
 65
     1
110
0.0
120
0.0
130
0.0
111
1.0
121
0.0
131
0.0
112
0.0
122
1.0
132
0.0
 79
     0
146
0.0
1001
ACAD_NAV_VCDISPLAY
1070
     3
  0
ENDTAB
  0
TABLE
  2
LTYPE
  5
1EC
330
0
100
AcDbSymbolTable
 70
     4
  0
LTYPE
  5
1FA
330
1EC
100
AcDbSymbolTableRecord
100
AcDbLinetypeTableRecord
  2
BYBLOCK
 70
     0
  3

 72
    65
 73
     0
 40
0.0
  0
LTYPE
  5
1FB
330
1EC
100
AcDbSymbolTableRecord
100
AcDbLinetypeTableRecord
  2
BYLAYER
 70
     0
  3

 72
    65
 73
     0
 40
0.0
  0
LTYPE
  5
1FC
330
1EC
100
AcDbSymbolTableRecord
100
AcDbLinetypeTableRecord
  2
CONTINUOUS
 70
     0
  3
Solid line
 72
    65
 73
     0
 40
0.0
  0
LTYPE
  5
20A
330
1EC
100
AcDbSymbolTableRecord
100
AcDbLinetypeTableRecord
  2
DASHED
 70
     0
  3
__ __ __ __ __ __ __ __ __ __ __ __ __ __ __ __
 72
    65
 73
     2
 40
0.75
 49
0.5
 74
     0
 49
-0.25
 74
     0
  0
LTYPE
  5
20B
330
1EC
100
AcDbSymbolTableRecord
100
AcDbLinetypeTableRecord
  2
CENTER
 70
     0
  3
____ _ ____ _ ____ _ ____ _ ____ _ ____ _ ____ 
 72
    65
 73
     4
 40
2.0
 49
1.25
 74
     0
 49
-0.25
 74
     0
 49
0.25
 74
     0
 49
-0.25
 74
     0
  0
LTYPE
  5
20C
330
1EC
100
AcDbSymbolTableRecord
100
AcDbLinetypeTableRecord
  2
PHANTOM
 70
     0
  3
______  __  __  ______  __  __  ______  __  __ 
 72
    65
 73
     6
 40
2.5
 49
1.25
 74
     0
 49
-0.25
 74
     0
 49
0.25
 74
     0
 49
-0.25
 74
     0
 49
0.25
 74
     0
 49
-0.25
 74
     0
  0
ENDTAB
  0
TABLE
  2
LAYER
  5
1E9
330
0
100
AcDbSymbolTable
 70
     8
  0
LAYER
  5
1F7
102
{ACAD_XDICTIONARY
360
435
102
}
330
1E9
100
AcDbSymbolTableRecord
100
AcDbLayerTableRecord
  2
0
 70
     0
 62
     7
  6
CONTINUOUS
370
    -3
390
3E3
  0
LAYER
  5
20D
102
{ACAD_XDICTIONARY
360
437
102
}
330
1E9
100
AcDbSymbolTableRecord
100
AcDbLayerTableRecord
  2
4
 70
     0
 62
     1
  6
CENTER
370
    -3
390
3E3
  0
LAYER
  5
20E
102
{ACAD_XDICTIONARY
360
439
102
}
330
1E9
100
AcDbSymbolTableRecord
100
AcDbLayerTableRecord
  2
5
 70
     0
 62
     6
  6
PHANTOM
370
    -3
390
3E3
  0
LAYER
  5
20F
102
{ACAD_XDICTIONARY
360
43B
102
}
330
1E9
100
AcDbSymbolTableRecord
100
AcDbLayerTableRecord
  2
1
 70
     0
 62
     7
  6
CONTINUOUS
370
    -3
390
3E3
  0
LAYER
  5
210
102
{ACAD_XDICTIONARY
360
43D
102
}
330
1E9
100
AcDbSymbolTableRecord
100
AcDbLayerTableRecord
  2
2
 70
     0
 62
     4
  6
CONTINUOUS
370
    -3
390
3E3
  0
LAYER
  5
211
102
{ACAD_XDICTIONARY
360
43F
102
}
330
1E9
100
AcDbSymbolTableRecord
100
AcDbLayerTableRecord
  2
3
 70
     0
 62
     2
  6
DASHED
370
    -3
390
3E3
  0
LAYER
  5
212
102
{ACAD_XDICTIONARY
360
441
102
}
330
1E9
100
AcDbSymbolTableRecord
100
AcDbLayerTableRecord
  2
6
 70
     0
 62
     5
  6
CONTINUOUS
370
    -3
390
3E3
  0
LAYER
  5
213
102
{ACAD_XDICTIONARY
360
443
102
}
330
1E9
100
AcDbSymbolTableRecord
100
AcDbLayerTableRecord
  2
7
 70
     0
 62
     3
  6
CONTINUOUS
370
    -3
390
3E3
  0
ENDTAB
  0
TABLE
  2
STYLE
  5
1EA
330
0
100
AcDbSymbolTable
 70
     1
  0
STYLE
  5
1F8
330
1EA
100
AcDbSymbolTableRecord
100
AcDbTextStyleTableRecord
  2
STANDARD
 70
     0
 40
0.0
 41
1.0
 50
0.0
 71
     0
 42
5.0
  3
txt
  4

  0
ENDTAB
  0
TABLE
  2
VIEW
  5
1ED
330
0
100
AcDbSymbolTable
 70
     0
  0
ENDTAB
  0
TABLE
  2
UCS
  5
1EE
330
0
100
AcDbSymbolTable
 70
     0
  0
ENDTAB
  0
TABLE
  2
APPID
  5
1F0
330
0
100
AcDbSymbolTable
 70
     3
  0
APPID
  5
1F9
330
1F0
100
AcDbSymbolTableRecord
100
AcDbRegAppTableRecord
  2
ACAD
 70
     0
  0
APPID
  5
44F
330
1F0
100
AcDbSymbolTableRecord
100
AcDbRegAppTableRecord
  2
ACAD_NAV_VCDISPLAY
 70
     0
  0
APPID
  5
488
330
1F0
100
AcDbSymbolTableRecord
100
AcDbRegAppTableRecord
  2
ACAD_MLEADERVER
 70
     0
  0
ENDTAB
  0
TABLE
  2
DIMSTYLE
  5
1F1
330
0
100
AcDbSymbolTable
 70
     1
100
AcDbDimStyleTable
 71
     0
  0
DIMSTYLE
105
215
330
1F1
100
AcDbSymbolTableRecord
100
AcDbDimStyleTableRecord
  2
STANDARD
 70
     0
 41
3.0
 42
1.0
 43
10.0
 44
1.0
 73
     0
 74
     0
 77
     3
 78
     8
140
3.2
141
0.0
147
1.0
172
     1
173
     1
284
     8
285
     8
286
     8
340
1F8
  0
ENDTAB
  0
TABLE
  2
BLOCK_RECORD
  5
1E8
330
0
100
AcDbSymbolTable
 70
     0
  0
BLOCK_RECORD
  5
205
102
{ACAD_XDICTIONARY
360
3DD
102
}
330
1E8
100
AcDbSymbolTableRecord
100
AcDbBlockTableRecord
  2
*MODEL_SPACE
340
431
  0
BLOCK_RECORD
  5
201
102
{ACAD_XDICTIONARY
360
3DB
102
}
330
1E8
100
AcDbSymbolTableRecord
100
AcDbBlockTableRecord
  2
*PAPER_SPACE
340
432
  0
ENDTAB
  0
ENDSEC
  0
SECTION
  2
BLOCKS
  0
BLOCK
  5
206
330
205
100
AcDbEntity
  8
0
100
AcDbBlockBegin
  2
*MODEL_SPACE
 70
     0
 10
0.0
 20
0.0
 30
0.0
  3
*MODEL_SPACE
  1

  0
ENDBLK
  5
207
330
205
100
AcDbEntity
  8
0
100
AcDbBlockEnd
  0
BLOCK
  5
202
330
201
100
AcDbEntity
 67
     1
  8
0
100
AcDbBlockBegin
  2
*PAPER_SPACE
 70
     0
 10
0.0
 20
0.0
 30
0.0
  3
*PAPER_SPACE
  1

  0
ENDBLK
  5
203
330
201
100
AcDbEntity
 67
     1
  8
0
100
AcDbBlockEnd
  0
ENDSEC
  0
SECTION
  2
ENTITIES
  0
LINE
  5
21D
330
205
100
AcDbEntity
  8
1
  6
Continuous
100
AcDbLine
 10
27.0
 20
137.8231479999998
 30
0.0
 11
27.0
 21
149.4642489999999
 31
0.0
  0
LINE
  5
21E
330
205
100
AcDbEntity
  8
1
  6
Continuous
100
AcDbLine
 10
45.0
 20
137.8231479999998
 30
0.0
 11
45.0
 21
149.4642489999999
 31
0.0
  0
LINE
  5
21F
330
205
100
AcDbEntity
  8
1
  6
Continuous
100
AcDbLine
 10
47.0
 20
157.464249
 30
0.0
 11
25.0
 21
157.464249
 31
0.0
  0
LINE
  5
220
330
205
100
AcDbEntity
  8
1
  6
Continuous
100
AcDbLine
 10
47.0
 20
154.264252
 30
0.0
 11
25.0
 21
154.264252
 31
0.0
  0
LINE
  5
221
330
205
100
AcDbEntity
  8
1
  6
Continuous
100
AcDbLine
 10
25.0
 20
154.264252
 30
0.0
 11
25.0
 21
157.464249
 31
0.0
  0
LINE
  5
222
330
205
100
AcDbEntity
  8
1
  6
Continuous
100
AcDbLine
 10
47.0
 20
154.264252
 30
0.0
 11
47.0
 21
157.464249
 31
0.0
  0
LINE
  5
223
330
205
100
AcDbEntity
  8
1
  6
Continuous
100
AcDbLine
 10
42.0
 20
154.264252
 30
0.0
 11
45.0
 21
149.4642489999999
 31
0.0
  0
LINE
  5
224
330
205
100
AcDbEntity
  8
1
  6
Continuous
100
AcDbLine
 10
30.0
 20
154.264252
 30
0.0
 11
27.0
 21
149.4642489999999
 31
0.0
  0
LINE
  5
225
330
205
100
AcDbEntity
  8
1
  6
Continuous
100
AcDbLine
 10
45.0
 20
149.4642489999999
 30
0.0
 11
47.0
 21
154.264252
 31
0.0
  0
LINE
  5
226
330
205
100
AcDbEntity
  8
1
  6
Continuous
100
AcDbLine
 10
27.0
 20
149.4642489999999
 30
0.0
 11
25.0
 21
154.264252
 31
0.0
  0
LINE
  5
227
330
205
100
AcDbEntity
  8
1
  6
Continuous
100
AcDbLine
 10
47.0
 20
154.264252
 30
0.0
 11
45.0
 21
145.4642489999999
 31
0.0
  0
LINE
  5
228
330
205
100
AcDbEntity
  8
1
  6
Continuous
100
AcDbLine
 10
27.0
 20
145.4642489999999
 30
0.0
 11
25.0
 21
154.264252
 31
0.0
  0
LINE
  5
229
330
205
100
AcDbEntity
  8
5
  6
PHANTOM
100
AcDbLine
 10
168.500092
 20
307.4642329999999
 30
0.0
 11
181.000092
 21
307.4642329999999
 31
0.0
  0
LINE
  5
22A
330
205
100
AcDbEntity
  8
5
  6
PHANTOM
100
AcDbLine
 10
168.500092
 20
304.264252
 30
0.0
 11
171.901474
 21
304.264252
 31
0.0
  0
LINE
  5
22B
330
205
100
AcDbEntity
  8
5
  6
PHANTOM
100
AcDbLine
 10
168.500092
 20
307.4642329999999
 30
0.0
 11
168.500092
 21
304.264252
 31
0.0
  0
LINE
  5
22C
330
205
100
AcDbEntity
  8
5
  6
PHANTOM
100
AcDbLine
 10
179.800095
 20
298.385712
 30
0.0
 11
179.800095
 21
274.464233
 31
0.0
  0
LINE
  5
22D
330
205
100
AcDbEntity
  8
5
  6
PHANTOM
100
AcDbLine
 10
173.0002899999998
 20
303.9353639999998
 30
0.0
 11
178.8989109999999
 21
300.056824
 31
0.0
  0
LINE
  5
22E
330
205
100
AcDbEntity
  8
5
  6
PHANTOM
100
AcDbLine
 10
174.758377
 20
306.609131
 30
0.0
 11
180.6570129999998
 21
302.7305909999999
 31
0.0
  0
LINE
  5
22F
330
205
100
AcDbEntity
  8
5
  6
PHANTOM
100
AcDbLine
 10
183.0000919999999
 20
302.4642329999999
 30
0.0
 11
183.0000919999999
 21
274.464233
 31
0.0
  0
LINE
  5
230
330
205
100
AcDbEntity
  8
5
  6
PHANTOM
100
AcDbLine
 10
179.800095
 20
274.464233
 30
0.0
 11
183.0000919999999
 21
274.464233
 31
0.0
  0
LINE
  5
231
330
205
100
AcDbEntity
  8
1
  6
Continuous
100
AcDbLine
 10
27.0
 20
655.105334
 30
0.0
 11
27.0
 21
643.464233
 31
0.0
  0
LINE
  5
232
330
205
100
AcDbEntity
  8
1
  6
Continuous
100
AcDbLine
 10
45.0
 20
655.105334
 30
0.0
 11
45.0
 21
643.464233
 31
0.0
  0
LINE
  5
233
330
205
100
AcDbEntity
  8
1
  6
Continuous
100
AcDbLine
 10
47.0
 20
635.464233
 30
0.0
 11
25.0
 21
635.464233
 31
0.0
  0
LINE
  5
234
330
205
100
AcDbEntity
  8
1
  6
Continuous
100
AcDbLine
 10
47.0
 20
638.6642460000001
 30
0.0
 11
25.0
 21
638.6642460000001
 31
0.0
  0
LINE
  5
235
330
205
100
AcDbEntity
  8
1
  6
Continuous
100
AcDbLine
 10
25.0
 20
638.6642460000001
 30
0.0
 11
25.0
 21
635.464233
 31
0.0
  0
LINE
  5
236
330
205
100
AcDbEntity
  8
1
  6
Continuous
100
AcDbLine
 10
47.0
 20
638.6642460000001
 30
0.0
 11
47.0
 21
635.464233
 31
0.0
  0
LINE
  5
237
330
205
100
AcDbEntity
  8
1
  6
Continuous
100
AcDbLine
 10
42.0
 20
638.6642460000001
 30
0.0
 11
45.0
 21
643.464233
 31
0.0
  0
LINE
  5
238
330
205
100
AcDbEntity
  8
1
  6
Continuous
100
AcDbLine
 10
30.0
 20
638.6642460000001
 30
0.0
 11
27.0
 21
643.464233
 31
0.0
  0
LINE
  5
239
330
205
100
AcDbEntity
  8
1
  6
Continuous
100
AcDbLine
 10
45.0
 20
643.464233
 30
0.0
 11
47.0
 21
638.6642460000001
 31
0.0
  0
LINE
  5
23A
330
205
100
AcDbEntity
  8
1
  6
Continuous
100
AcDbLine
 10
27.0
 20
643.464233
 30
0.0
 11
25.0
 21
638.6642460000001
 31
0.0
  0
LINE
  5
23B
330
205
100
AcDbEntity
  8
1
  6
Continuous
100
AcDbLine
 10
47.0
 20
638.6642460000001
 30
0.0
 11
45.0
 21
647.464233
 31
0.0
  0
LINE
  5
23C
330
205
100
AcDbEntity
  8
1
  6
Continuous
100
AcDbLine
 10
27.0
 20
647.464233
 30
0.0
 11
25.0
 21
638.6642460000001
 31
0.0
  0
LINE
  5
23D
330
205
100
AcDbEntity
  8
1
  6
Continuous
100
AcDbLine
 10
168.500092
 20
635.464233
 30
0.0
 11
178.0000919999999
 21
635.464233
 31
0.0
  0
LINE
  5
23E
330
205
100
AcDbEntity
  8
1
  6
Continuous
100
AcDbLine
 10
168.500092
 20
638.6642460000001
 30
0.0
 11
171.901474
 21
638.6642460000001
 31
0.0
  0
LINE
  5
23F
330
205
100
AcDbEntity
  8
1
  6
Continuous
100
AcDbLine
 10
168.500092
 20
635.464233
 30
0.0
 11
168.500092
 21
638.6642460000001
 31
0.0
  0
LINE
  5
240
330
205
100
AcDbEntity
  8
1
  6
Continuous
100
AcDbLine
 10
179.800095
 20
644.5427859999997
 30
0.0
 11
179.800095
 21
668.464233
 31
0.0
  0
LINE
  5
241
330
205
100
AcDbEntity
  8
1
  6
Continuous
100
AcDbLine
 10
173.0002899999998
 20
638.993164
 30
0.0
 11
178.8989109999999
 21
642.871704
 31
0.0
  0
LINE
  5
242
330
205
100
AcDbEntity
  8
1
  6
Continuous
100
AcDbLine
 10
174.758377
 20
636.319336
 30
0.0
 11
180.6570129999998
 21
640.197937
 31
0.0
  0
LINE
  5
243
330
205
100
AcDbEntity
  8
1
  6
Continuous
100
AcDbLine
 10
183.0000919999999
 20
640.464233
 30
0.0
 11
183.0000919999999
 21
668.464233
 31
0.0
  0
LINE
  5
244
330
205
100
AcDbEntity
  8
1
  6
Continuous
100
AcDbLine
 10
179.800095
 20
668.464233
 30
0.0
 11
183.0000919999999
 21
668.464233
 31
0.0
  0
LINE
  5
245
330
205
100
AcDbEntity
  8
1
  6
Continuous
100
AcDbLine
 10
46.0
 20
632.964233
 30
0.0
 11
26.0
 21
632.964233
 31
0.0
  0
LINE
  5
246
330
205
100
AcDbEntity
  8
1
  6
Continuous
100
AcDbLine
 10
47.0
 20
630.964233
 30
0.0
 11
25.0
 21
630.964233
 31
0.0
  0
LINE
  5
247
330
205
100
AcDbEntity
  8
1
  6
Continuous
100
AcDbLine
 10
29.0
 20
632.964233
 30
0.0
 11
31.5
 21
635.464233
 31
0.0
  0
LINE
  5
248
330
205
100
AcDbEntity
  8
1
  6
Continuous
100
AcDbLine
 10
43.0
 20
632.964233
 30
0.0
 11
40.49999999999999
 21
635.464233
 31
0.0
  0
LINE
  5
249
330
205
100
AcDbEntity
  8
1
  6
Continuous
100
AcDbLine
 10
25.0
 20
630.964233
 30
0.0
 11
26.0
 21
632.964233
 31
0.0
  0
LINE
  5
24A
330
205
100
AcDbEntity
  8
1
  6
Continuous
100
AcDbLine
 10
47.0
 20
630.964233
 30
0.0
 11
46.0
 21
632.964233
 31
0.0
  0
LINE
  5
24B
330
205
100
AcDbEntity
  8
1
  6
Continuous
100
AcDbLine
 10
169.0000919999999
 20
632.964233
 30
0.0
 11
171.500092
 21
635.464233
 31
0.0
  0
LINE
  5
24C
330
205
100
AcDbEntity
  8
1
  6
Continuous
100
AcDbLine
 10
183.0000919999999
 20
632.964233
 30
0.0
 11
180.057281
 21
635.907044
 31
0.0
  0
LINE
  5
24D
330
205
100
AcDbEntity
  8
1
  6
Continuous
100
AcDbLine
 10
187.000092
 20
630.964233
 30
0.0
 11
165.000092
 21
630.964233
 31
0.0
  0
LINE
  5
24E
330
205
100
AcDbEntity
  8
1
  6
Continuous
100
AcDbLine
 10
186.000092
 20
632.964233
 30
0.0
 11
166.0000919999999
 21
632.964233
 31
0.0
  0
LINE
  5
24F
330
205
100
AcDbEntity
  8
1
  6
Continuous
100
AcDbLine
 10
187.000092
 20
630.964233
 30
0.0
 11
186.000092
 21
632.964233
 31
0.0
  0
LINE
  5
250
330
205
100
AcDbEntity
  8
1
  6
Continuous
100
AcDbLine
 10
165.000092
 20
630.964233
 30
0.0
 11
166.0000919999999
 21
632.964233
 31
0.0
  0
LINE
  5
251
330
205
100
AcDbEntity
  8
1
  6
Continuous
100
AcDbLine
 10
47.0
 20
318.4642329999999
 30
0.0
 11
25.0
 21
318.4642329999999
 31
0.0
  0
LINE
  5
252
330
205
100
AcDbEntity
  8
1
  6
Continuous
100
AcDbLine
 10
46.0
 20
316.4642329999999
 30
0.0
 11
26.0
 21
316.4642329999999
 31
0.0
  0
LINE
  5
253
330
205
100
AcDbEntity
  8
1
  6
Continuous
100
AcDbLine
 10
46.0
 20
318.4642329999999
 30
0.0
 11
46.0
 21
316.4642329999999
 31
0.0
  0
LINE
  5
254
330
205
100
AcDbEntity
  8
1
  6
Continuous
100
AcDbLine
 10
26.0
 20
318.4642329999999
 30
0.0
 11
26.0
 21
316.4642329999999
 31
0.0
  0
LINE
  5
255
330
205
100
AcDbEntity
  8
1
  6
Continuous
100
AcDbLine
 10
47.0
 20
322.464233
 30
0.0
 11
25.0
 21
322.464233
 31
0.0
  0
LINE
  5
256
330
205
100
AcDbEntity
  8
1
  6
Continuous
100
AcDbLine
 10
47.0
 20
324.464233
 30
0.0
 11
25.0
 21
324.464233
 31
0.0
  0
LINE
  5
257
330
205
100
AcDbEntity
  8
1
  6
Continuous
100
AcDbLine
 10
47.0
 20
335.9642329999999
 30
0.0
 11
25.0
 21
335.9642329999999
 31
0.0
  0
LINE
  5
258
330
205
100
AcDbEntity
  8
1
  6
Continuous
100
AcDbLine
 10
47.0
 20
337.9642329999999
 30
0.0
 11
25.0
 21
337.9642329999999
 31
0.0
  0
LINE
  5
259
330
205
100
AcDbEntity
  8
1
  6
Continuous
100
AcDbLine
 10
25.0
 20
318.4642329999999
 30
0.0
 11
25.0
 21
322.464233
 31
0.0
  0
LINE
  5
25A
330
205
100
AcDbEntity
  8
1
  6
Continuous
100
AcDbLine
 10
25.0
 20
324.464233
 30
0.0
 11
25.0
 21
335.9642329999999
 31
0.0
  0
LINE
  5
25B
330
205
100
AcDbEntity
  8
1
  6
Continuous
100
AcDbLine
 10
25.0
 20
337.9642329999999
 30
0.0
 11
25.0
 21
630.964233
 31
0.0
  0
LINE
  5
25C
330
205
100
AcDbEntity
  8
1
  6
Continuous
100
AcDbLine
 10
47.0
 20
318.4642329999999
 30
0.0
 11
47.0
 21
322.464233
 31
0.0
  0
LINE
  5
25D
330
205
100
AcDbEntity
  8
1
  6
Continuous
100
AcDbLine
 10
47.0
 20
324.464233
 30
0.0
 11
47.0
 21
335.9642329999999
 31
0.0
  0
LINE
  5
25E
330
205
100
AcDbEntity
  8
1
  6
Continuous
100
AcDbLine
 10
47.0
 20
337.9642329999999
 30
0.0
 11
47.0
 21
630.964233
 31
0.0
  0
LINE
  5
25F
330
205
100
AcDbEntity
  8
4
  6
CENTER
100
AcDbLine
 10
176.0000919999999
 20
678.964233
 30
0.0
 11
176.0000919999999
 21
114.9642489999999
 31
0.0
  0
LINE
  5
260
330
205
100
AcDbEntity
  8
1
  6
Continuous
100
AcDbLine
 10
187.000092
 20
318.4642329999999
 30
0.0
 11
165.000092
 21
318.4642329999999
 31
0.0
  0
LINE
  5
261
330
205
100
AcDbEntity
  8
1
  6
Continuous
100
AcDbLine
 10
186.000092
 20
316.4642329999999
 30
0.0
 11
166.0000919999999
 21
316.4642329999999
 31
0.0
  0
LINE
  5
262
330
205
100
AcDbEntity
  8
1
  6
Continuous
100
AcDbLine
 10
186.000092
 20
318.4642329999999
 30
0.0
 11
186.000092
 21
316.4642329999999
 31
0.0
  0
LINE
  5
263
330
205
100
AcDbEntity
  8
1
  6
Continuous
100
AcDbLine
 10
166.0000919999999
 20
318.4642329999999
 30
0.0
 11
166.0000919999999
 21
316.4642329999999
 31
0.0
  0
LINE
  5
264
330
205
100
AcDbEntity
  8
1
  6
Continuous
100
AcDbLine
 10
187.000092
 20
322.464233
 30
0.0
 11
165.000092
 21
322.464233
 31
0.0
  0
LINE
  5
265
330
205
100
AcDbEntity
  8
1
  6
Continuous
100
AcDbLine
 10
187.000092
 20
324.464233
 30
0.0
 11
165.000092
 21
324.464233
 31
0.0
  0
LINE
  5
266
330
205
100
AcDbEntity
  8
1
  6
Continuous
100
AcDbLine
 10
187.000092
 20
335.9642329999999
 30
0.0
 11
165.000092
 21
335.9642329999999
 31
0.0
  0
LINE
  5
267
330
205
100
AcDbEntity
  8
1
  6
Continuous
100
AcDbLine
 10
187.000092
 20
337.9642329999999
 30
0.0
 11
165.000092
 21
337.9642329999999
 31
0.0
  0
LINE
  5
268
330
205
100
AcDbEntity
  8
1
  6
Continuous
100
AcDbLine
 10
165.000092
 20
318.4642329999999
 30
0.0
 11
165.000092
 21
322.464233
 31
0.0
  0
LINE
  5
269
330
205
100
AcDbEntity
  8
1
  6
Continuous
100
AcDbLine
 10
165.000092
 20
324.464233
 30
0.0
 11
165.000092
 21
335.9642329999999
 31
0.0
  0
LINE
  5
26A
330
205
100
AcDbEntity
  8
1
  6
Continuous
100
AcDbLine
 10
165.000092
 20
337.9642329999999
 30
0.0
 11
165.000092
 21
630.964233
 31
0.0
  0
LINE
  5
26B
330
205
100
AcDbEntity
  8
1
  6
Continuous
100
AcDbLine
 10
187.000092
 20
318.4642329999999
 30
0.0
 11
187.000092
 21
322.464233
 31
0.0
  0
LINE
  5
26C
330
205
100
AcDbEntity
  8
1
  6
Continuous
100
AcDbLine
 10
187.000092
 20
324.464233
 30
0.0
 11
187.000092
 21
335.9642329999999
 31
0.0
  0
LINE
  5
26D
330
205
100
AcDbEntity
  8
1
  6
Continuous
100
AcDbLine
 10
187.000092
 20
337.9642329999999
 30
0.0
 11
187.000092
 21
630.964233
 31
0.0
  0
LINE
  5
26E
330
205
100
AcDbEntity
  8
1
  6
Continuous
100
AcDbLine
 10
171.0000919999998
 20
316.4642329999999
 30
0.0
 11
171.0000919999998
 21
157.464249
 31
0.0
  0
LINE
  5
26F
330
205
100
AcDbEntity
  8
1
  6
Continuous
100
AcDbLine
 10
181.000092
 20
316.4642329999999
 30
0.0
 11
181.000092
 21
156.4642489999999
 31
0.0
  0
LINE
  5
270
330
205
100
AcDbEntity
  8
1
  6
Continuous
100
AcDbLine
 10
31.0
 20
316.4642329999999
 30
0.0
 11
31.0
 21
157.464249
 31
0.0
  0
LINE
  5
271
330
205
100
AcDbEntity
  8
1
  6
Continuous
100
AcDbLine
 10
41.0
 20
316.4642329999999
 30
0.0
 11
41.0
 21
157.464249
 31
0.0
  0
LINE
  5
272
330
205
100
AcDbEntity
  8
5
  6
PHANTOM
100
AcDbLine
 10
27.0
 20
283.4642329999999
 30
0.0
 11
27.0
 21
299.4642329999999
 31
0.0
  0
LINE
  5
273
330
205
100
AcDbEntity
  8
5
  6
PHANTOM
100
AcDbLine
 10
45.0
 20
283.4642329999999
 30
0.0
 11
45.0
 21
299.4642329999999
 31
0.0
  0
LINE
  5
274
330
205
100
AcDbEntity
  8
5
  6
PHANTOM
100
AcDbLine
 10
47.0
 20
307.4642329999999
 30
0.0
 11
25.0
 21
307.4642329999999
 31
0.0
  0
LINE
  5
275
330
205
100
AcDbEntity
  8
5
  6
PHANTOM
100
AcDbLine
 10
47.0
 20
304.264252
 30
0.0
 11
25.0
 21
304.264252
 31
0.0
  0
LINE
  5
276
330
205
100
AcDbEntity
  8
5
  6
PHANTOM
100
AcDbLine
 10
25.0
 20
304.264252
 30
0.0
 11
25.0
 21
307.4642329999999
 31
0.0
  0
LINE
  5
277
330
205
100
AcDbEntity
  8
5
  6
PHANTOM
100
AcDbLine
 10
47.0
 20
304.264252
 30
0.0
 11
47.0
 21
307.4642329999999
 31
0.0
  0
LINE
  5
278
330
205
100
AcDbEntity
  8
5
  6
PHANTOM
100
AcDbLine
 10
42.0
 20
304.264252
 30
0.0
 11
45.0
 21
299.4642329999999
 31
0.0
  0
LINE
  5
279
330
205
100
AcDbEntity
  8
5
  6
PHANTOM
100
AcDbLine
 10
30.0
 20
304.264252
 30
0.0
 11
27.0
 21
299.4642329999999
 31
0.0
  0
LINE
  5
27A
330
205
100
AcDbEntity
  8
5
  6
PHANTOM
100
AcDbLine
 10
45.0
 20
299.4642329999999
 30
0.0
 11
47.0
 21
304.264252
 31
0.0
  0
LINE
  5
27B
330
205
100
AcDbEntity
  8
5
  6
PHANTOM
100
AcDbLine
 10
27.0
 20
299.4642329999999
 30
0.0
 11
25.0
 21
304.264252
 31
0.0
  0
LINE
  5
27C
330
205
100
AcDbEntity
  8
5
  6
PHANTOM
100
AcDbLine
 10
47.0
 20
304.264252
 30
0.0
 11
45.0
 21
295.464233
 31
0.0
  0
LINE
  5
27D
330
205
100
AcDbEntity
  8
5
  6
PHANTOM
100
AcDbLine
 10
27.0
 20
295.464233
 30
0.0
 11
25.0
 21
304.264252
 31
0.0
  0
LINE
  5
27E
330
205
100
AcDbEntity
  8
4
  6
CENTER
100
AcDbLine
 10
243.5000759999998
 20
51.973351
 30
0.0
 11
102.0000459999998
 21
51.973351
 31
0.0
  0
LINE
  5
27F
330
205
100
AcDbEntity
  8
4
  6
CENTER
100
AcDbLine
 10
36.0
 20
674.464233
 30
0.0
 11
36.0
 21
118.4642489999999
 31
0.0
  0
LINE
  5
280
330
205
100
AcDbEntity
  8
4
  6
CENTER
100
AcDbLine
 10
21.0
 20
133.464249
 30
0.0
 11
51.0
 21
133.464249
 31
0.0
  0
LINE
  5
281
330
205
100
AcDbEntity
  8
4
  6
CENTER
100
AcDbLine
 10
26.0
 20
283.4642329999999
 30
0.0
 11
46.0
 21
283.4642329999999
 31
0.0
  0
LINE
  5
282
330
205
100
AcDbEntity
  8
4
  6
CENTER
100
AcDbLine
 10
341.000183
 20
133.464249
 30
0.0
 11
311.0001829999998
 21
133.464249
 31
0.0
  0
LINE
  5
283
330
205
100
AcDbEntity
  8
4
  6
CENTER
100
AcDbLine
 10
326.000183
 20
674.464233
 30
0.0
 11
326.000183
 21
118.4642489999999
 31
0.0
  0
LINE
  5
284
330
205
100
AcDbEntity
  8
4
  6
CENTER
100
AcDbLine
 10
341.000183
 20
659.464233
 30
0.0
 11
311.0001829999998
 21
659.464233
 31
0.0
  0
LINE
  5
285
330
205
100
AcDbEntity
  8
1
  6
Continuous
100
AcDbLine
 10
321.0001829999999
 20
316.4642329999999
 30
0.0
 11
321.0001829999999
 21
157.464249
 31
0.0
  0
LINE
  5
286
330
205
100
AcDbEntity
  8
1
  6
Continuous
100
AcDbLine
 10
331.000183
 20
316.4642329999999
 30
0.0
 11
331.000183
 21
157.464249
 31
0.0
  0
LINE
  5
287
330
205
100
AcDbEntity
  8
1
  6
Continuous
100
AcDbLine
 10
315.0001829999999
 20
337.9642329999999
 30
0.0
 11
315.0001829999999
 21
630.964233
 31
0.0
  0
LINE
  5
288
330
205
100
AcDbEntity
  8
1
  6
Continuous
100
AcDbLine
 10
315.0001829999999
 20
324.464233
 30
0.0
 11
315.0001829999999
 21
335.9642329999999
 31
0.0
  0
LINE
  5
289
330
205
100
AcDbEntity
  8
1
  6
Continuous
100
AcDbLine
 10
315.0001829999999
 20
318.4642329999999
 30
0.0
 11
315.0001829999999
 21
322.464233
 31
0.0
  0
LINE
  5
28A
330
205
100
AcDbEntity
  8
1
  6
Continuous
100
AcDbLine
 10
337.000183
 20
337.9642329999999
 30
0.0
 11
337.000183
 21
630.964233
 31
0.0
  0
LINE
  5
28B
330
205
100
AcDbEntity
  8
1
  6
Continuous
100
AcDbLine
 10
337.000183
 20
324.464233
 30
0.0
 11
337.000183
 21
335.9642329999999
 31
0.0
  0
LINE
  5
28C
330
205
100
AcDbEntity
  8
1
  6
Continuous
100
AcDbLine
 10
337.000183
 20
318.4642329999999
 30
0.0
 11
337.000183
 21
322.464233
 31
0.0
  0
LINE
  5
28D
330
205
100
AcDbEntity
  8
1
  6
Continuous
100
AcDbLine
 10
315.0001829999999
 20
337.9642329999999
 30
0.0
 11
337.000183
 21
337.9642329999999
 31
0.0
  0
LINE
  5
28E
330
205
100
AcDbEntity
  8
1
  6
Continuous
100
AcDbLine
 10
315.0001829999999
 20
335.9642329999999
 30
0.0
 11
337.000183
 21
335.9642329999999
 31
0.0
  0
LINE
  5
28F
330
205
100
AcDbEntity
  8
1
  6
Continuous
100
AcDbLine
 10
315.0001829999999
 20
324.464233
 30
0.0
 11
337.000183
 21
324.464233
 31
0.0
  0
LINE
  5
290
330
205
100
AcDbEntity
  8
1
  6
Continuous
100
AcDbLine
 10
315.0001829999999
 20
322.464233
 30
0.0
 11
337.000183
 21
322.464233
 31
0.0
  0
LINE
  5
291
330
205
100
AcDbEntity
  8
1
  6
Continuous
100
AcDbLine
 10
336.0001829999998
 20
318.4642329999999
 30
0.0
 11
336.0001829999998
 21
316.4642329999999
 31
0.0
  0
LINE
  5
292
330
205
100
AcDbEntity
  8
1
  6
Continuous
100
AcDbLine
 10
316.000183
 20
318.4642329999999
 30
0.0
 11
316.000183
 21
316.4642329999999
 31
0.0
  0
LINE
  5
293
330
205
100
AcDbEntity
  8
1
  6
Continuous
100
AcDbLine
 10
316.000183
 20
316.4642329999999
 30
0.0
 11
336.0001829999998
 21
316.4642329999999
 31
0.0
  0
LINE
  5
294
330
205
100
AcDbEntity
  8
1
  6
Continuous
100
AcDbLine
 10
315.0001829999999
 20
318.4642329999999
 30
0.0
 11
337.000183
 21
318.4642329999999
 31
0.0
  0
LINE
  5
295
330
205
100
AcDbEntity
  8
1
  6
Continuous
100
AcDbLine
 10
315.0001829999999
 20
630.964233
 30
0.0
 11
316.000183
 21
632.964233
 31
0.0
  0
LINE
  5
296
330
205
100
AcDbEntity
  8
1
  6
Continuous
100
AcDbLine
 10
337.000183
 20
630.964233
 30
0.0
 11
336.0001829999998
 21
632.964233
 31
0.0
  0
LINE
  5
297
330
205
100
AcDbEntity
  8
1
  6
Continuous
100
AcDbLine
 10
319.0001829999999
 20
632.964233
 30
0.0
 11
321.5001829999998
 21
635.464233
 31
0.0
  0
LINE
  5
298
330
205
100
AcDbEntity
  8
1
  6
Continuous
100
AcDbLine
 10
333.000183
 20
632.964233
 30
0.0
 11
330.500183
 21
635.464233
 31
0.0
  0
LINE
  5
299
330
205
100
AcDbEntity
  8
1
  6
Continuous
100
AcDbLine
 10
315.0001829999999
 20
630.964233
 30
0.0
 11
337.000183
 21
630.964233
 31
0.0
  0
LINE
  5
29A
330
205
100
AcDbEntity
  8
1
  6
Continuous
100
AcDbLine
 10
316.000183
 20
632.964233
 30
0.0
 11
336.0001829999998
 21
632.964233
 31
0.0
  0
LINE
  5
29B
330
205
100
AcDbEntity
  8
1
  6
Continuous
100
AcDbLine
 10
317.0001829999999
 20
635.464233
 30
0.0
 11
335.000183
 21
635.464233
 31
0.0
  0
LINE
  5
29C
330
205
100
AcDbEntity
  8
1
  6
Continuous
100
AcDbLine
 10
317.0001829999999
 20
659.464233
 30
0.0
 11
317.0001829999999
 21
644.5427859999997
 31
0.0
  0
LINE
  5
29D
330
205
100
AcDbEntity
  8
1
  6
Continuous
100
AcDbLine
 10
335.000183
 20
659.464233
 30
0.0
 11
335.000183
 21
644.5427859999997
 31
0.0
  0
LINE
  5
29E
330
205
100
AcDbEntity
  8
1
  6
Continuous
100
AcDbLine
 10
317.0001829999999
 20
157.464249
 30
0.0
 11
335.000214
 21
157.464249
 31
0.0
  0
LINE
  5
29F
330
205
100
AcDbEntity
  8
1
  6
Continuous
100
AcDbLine
 10
317.0001829999999
 20
133.464249
 30
0.0
 11
317.0001829999999
 21
148.3856959999999
 31
0.0
  0
LINE
  5
2A0
330
205
100
AcDbEntity
  8
1
  6
Continuous
100
AcDbLine
 10
335.000183
 20
133.464249
 30
0.0
 11
335.000183
 21
148.3856959999999
 31
0.0
  0
LINE
  5
2A1
330
205
100
AcDbEntity
  8
1
  6
Continuous
100
AcDbLine
 10
317.0001829999999
 20
644.5427859999997
 30
0.0
 11
315.0001829999999
 21
637.464233
 31
0.0
  0
LINE
  5
2A2
330
205
100
AcDbEntity
  8
1
  6
Continuous
100
AcDbLine
 10
335.000183
 20
644.5427859999997
 30
0.0
 11
337.000183
 21
637.464233
 31
0.0
  0
LINE
  5
2A3
330
205
100
AcDbEntity
  8
1
  6
Continuous
100
AcDbLine
 10
335.000183
 20
148.3856959999999
 30
0.0
 11
337.000183
 21
155.4642489999999
 31
0.0
  0
LINE
  5
2A4
330
205
100
AcDbEntity
  8
1
  6
Continuous
100
AcDbLine
 10
317.0001829999999
 20
148.3856959999999
 30
0.0
 11
315.0001829999999
 21
155.4642489999999
 31
0.0
  0
LINE
  5
2A5
330
205
100
AcDbEntity
  8
4
  6
CENTER
100
AcDbLine
 10
336.0001829999998
 20
283.4642329999999
 30
0.0
 11
316.000183
 21
283.4642329999999
 31
0.0
  0
LINE
  5
2A6
330
205
100
AcDbEntity
  8
5
  6
PHANTOM
100
AcDbLine
 10
335.000183
 20
298.385712
 30
0.0
 11
337.000183
 21
305.464233
 31
0.0
  0
LINE
  5
2A7
330
205
100
AcDbEntity
  8
5
  6
PHANTOM
100
AcDbLine
 10
317.0001829999999
 20
298.385712
 30
0.0
 11
315.0001829999999
 21
305.464233
 31
0.0
  0
LINE
  5
2A8
330
205
100
AcDbEntity
  8
5
  6
PHANTOM
100
AcDbLine
 10
317.0001829999999
 20
307.4642329999999
 30
0.0
 11
335.000214
 21
307.4642329999999
 31
0.0
  0
LINE
  5
2A9
330
205
100
AcDbEntity
  8
5
  6
PHANTOM
100
AcDbLine
 10
317.0001829999999
 20
283.4642329999999
 30
0.0
 11
317.0001829999999
 21
298.385712
 31
0.0
  0
LINE
  5
2AA
330
205
100
AcDbEntity
  8
5
  6
PHANTOM
100
AcDbLine
 10
335.000183
 20
283.4642329999999
 30
0.0
 11
335.000183
 21
298.385712
 31
0.0
  0
LINE
  5
2AB
330
205
100
AcDbEntity
  8
1
  6
Continuous
100
AcDbLine
 10
183.0000919999999
 20
60.973351
 30
0.0
 11
183.0000919999999
 21
42.973351
 31
0.0
  0
LINE
  5
2AC
330
205
100
AcDbEntity
  8
1
  6
Continuous
100
AcDbLine
 10
179.800095
 20
60.973351
 30
0.0
 11
183.0000919999999
 21
60.973351
 31
0.0
  0
LINE
  5
2AD
330
205
100
AcDbEntity
  8
1
  6
Continuous
100
AcDbLine
 10
179.800095
 20
42.973351
 30
0.0
 11
183.0000919999999
 21
42.973351
 31
0.0
  0
LINE
  5
2AE
330
205
100
AcDbEntity
  8
1
  6
Continuous
100
AcDbLine
 10
179.800095
 20
60.973351
 30
0.0
 11
179.800095
 21
42.973351
 31
0.0
  0
LINE
  5
2AF
330
205
100
AcDbEntity
  8
4
  6
CENTER
100
AcDbLine
 10
176.0000919999999
 20
73.97335099999998
 30
0.0
 11
176.0000919999999
 21
29.973351
 31
0.0
  0
LINE
  5
2B0
330
205
100
AcDbEntity
  8
1
  6
Continuous
100
AcDbLine
 10
183.0000919999999
 20
734.1501459999997
 30
0.0
 11
183.0000919999999
 21
752.1501459999996
 31
0.0
  0
LINE
  5
2B1
330
205
100
AcDbEntity
  8
4
  6
CENTER
100
AcDbLine
 10
176.0000919999999
 20
721.1501459999997
 30
0.0
 11
176.0000919999999
 21
765.1501459999997
 31
0.0
  0
LINE
  5
2B2
330
205
100
AcDbEntity
  8
1
  6
Continuous
100
AcDbLine
 10
172.1705929999999
 20
754.123474
 30
0.0
 11
179.800095
 21
749.1501459999997
 31
0.0
  0
LINE
  5
2B3
330
205
100
AcDbEntity
  8
1
  6
Continuous
100
AcDbLine
 10
172.1705929999999
 20
732.1767579999997
 30
0.0
 11
179.800095
 21
737.1501459999997
 31
0.0
  0
LINE
  5
2B4
330
205
100
AcDbEntity
  8
1
  6
Continuous
100
AcDbLine
 10
179.800095
 20
734.1501459999997
 30
0.0
 11
183.0000919999999
 21
734.1501459999997
 31
0.0
  0
LINE
  5
2B5
330
205
100
AcDbEntity
  8
1
  6
Continuous
100
AcDbLine
 10
179.800095
 20
752.1501459999996
 30
0.0
 11
183.0000919999999
 21
752.1501459999996
 31
0.0
  0
LINE
  5
2B6
330
205
100
AcDbEntity
  8
1
  6
Continuous
100
AcDbLine
 10
179.800095
 20
734.1501459999997
 30
0.0
 11
179.800095
 21
752.1501459999996
 31
0.0
  0
LINE
  5
2B7
330
205
100
AcDbEntity
  8
1
  6
Continuous
100
AcDbLine
 10
183.0000919999999
 20
752.1501459999996
 30
0.0
 11
172.1705929999999
 21
754.123474
 31
0.0
  0
LINE
  5
2B8
330
205
100
AcDbEntity
  8
1
  6
Continuous
100
AcDbLine
 10
183.0000919999999
 20
734.1501459999997
 30
0.0
 11
172.1705929999999
 21
732.1767579999997
 31
0.0
  0
LINE
  5
2B9
330
205
100
AcDbEntity
  8
1
  6
Continuous
100
AcDbLine
 10
183.0000919999999
 20
60.973351
 30
0.0
 11
172.171387
 21
62.94670100000001
 31
0.0
  0
LINE
  5
2BA
330
205
100
AcDbEntity
  8
1
  6
Continuous
100
AcDbLine
 10
172.1713709999999
 20
62.946705
 30
0.0
 11
179.800095
 21
57.973351
 31
0.0
  0
LINE
  5
2BB
330
205
100
AcDbEntity
  8
1
  6
Continuous
100
AcDbLine
 10
172.1713709999999
 20
40.999996
 30
0.0
 11
179.800095
 21
45.973351
 31
0.0
  0
LINE
  5
2BC
330
205
100
AcDbEntity
  8
1
  6
Continuous
100
AcDbLine
 10
183.0000919999999
 20
42.973351
 30
0.0
 11
172.171387
 21
41.0
 31
0.0
  0
LINE
  5
2BD
330
205
100
AcDbEntity
  8
1
  6
Continuous
100
AcDbLine
 10
471.000305
 20
316.4642329999999
 30
0.0
 11
471.000305
 21
156.4642489999999
 31
0.0
  0
LINE
  5
2BE
330
205
100
AcDbEntity
  8
1
  6
Continuous
100
AcDbLine
 10
481.0003049999998
 20
316.4642329999999
 30
0.0
 11
481.0003049999998
 21
157.464249
 31
0.0
  0
LINE
  5
2BF
330
205
100
AcDbEntity
  8
1
  6
Continuous
100
AcDbLine
 10
465.0003049999998
 20
337.9642329999999
 30
0.0
 11
465.0003049999998
 21
630.964233
 31
0.0
  0
LINE
  5
2C0
330
205
100
AcDbEntity
  8
1
  6
Continuous
100
AcDbLine
 10
465.0003049999998
 20
324.464233
 30
0.0
 11
465.0003049999998
 21
335.9642329999999
 31
0.0
  0
LINE
  5
2C1
330
205
100
AcDbEntity
  8
1
  6
Continuous
100
AcDbLine
 10
465.0003049999998
 20
318.4642329999999
 30
0.0
 11
465.0003049999998
 21
322.464233
 31
0.0
  0
LINE
  5
2C2
330
205
100
AcDbEntity
  8
1
  6
Continuous
100
AcDbLine
 10
487.000305
 20
337.9642329999999
 30
0.0
 11
487.000305
 21
630.964233
 31
0.0
  0
LINE
  5
2C3
330
205
100
AcDbEntity
  8
1
  6
Continuous
100
AcDbLine
 10
487.000305
 20
324.464233
 30
0.0
 11
487.000305
 21
335.9642329999999
 31
0.0
  0
LINE
  5
2C4
330
205
100
AcDbEntity
  8
1
  6
Continuous
100
AcDbLine
 10
487.000305
 20
318.4642329999999
 30
0.0
 11
487.000305
 21
322.464233
 31
0.0
  0
LINE
  5
2C5
330
205
100
AcDbEntity
  8
1
  6
Continuous
100
AcDbLine
 10
465.0003049999998
 20
337.9642329999999
 30
0.0
 11
487.000305
 21
337.9642329999999
 31
0.0
  0
LINE
  5
2C6
330
205
100
AcDbEntity
  8
1
  6
Continuous
100
AcDbLine
 10
465.0003049999998
 20
335.9642329999999
 30
0.0
 11
487.000305
 21
335.9642329999999
 31
0.0
  0
LINE
  5
2C7
330
205
100
AcDbEntity
  8
1
  6
Continuous
100
AcDbLine
 10
465.0003049999998
 20
324.464233
 30
0.0
 11
487.000305
 21
324.464233
 31
0.0
  0
LINE
  5
2C8
330
205
100
AcDbEntity
  8
1
  6
Continuous
100
AcDbLine
 10
465.0003049999998
 20
322.464233
 30
0.0
 11
487.000305
 21
322.464233
 31
0.0
  0
LINE
  5
2C9
330
205
100
AcDbEntity
  8
1
  6
Continuous
100
AcDbLine
 10
486.0003049999998
 20
318.4642329999999
 30
0.0
 11
486.0003049999998
 21
316.4642329999999
 31
0.0
  0
LINE
  5
2CA
330
205
100
AcDbEntity
  8
1
  6
Continuous
100
AcDbLine
 10
466.0003049999998
 20
318.4642329999999
 30
0.0
 11
466.0003049999998
 21
316.4642329999999
 31
0.0
  0
LINE
  5
2CB
330
205
100
AcDbEntity
  8
1
  6
Continuous
100
AcDbLine
 10
466.0003049999998
 20
316.4642329999999
 30
0.0
 11
486.0003049999998
 21
316.4642329999999
 31
0.0
  0
LINE
  5
2CC
330
205
100
AcDbEntity
  8
1
  6
Continuous
100
AcDbLine
 10
465.0003049999998
 20
318.4642329999999
 30
0.0
 11
487.000305
 21
318.4642329999999
 31
0.0
  0
LINE
  5
2CD
330
205
100
AcDbEntity
  8
4
  6
CENTER
100
AcDbLine
 10
476.0003049999999
 20
678.964233
 30
0.0
 11
476.0003049999999
 21
114.9642489999999
 31
0.0
  0
LINE
  5
2CE
330
205
100
AcDbEntity
  8
1
  6
Continuous
100
AcDbLine
 10
487.000305
 20
630.964233
 30
0.0
 11
486.0003049999998
 21
632.964233
 31
0.0
  0
LINE
  5
2CF
330
205
100
AcDbEntity
  8
1
  6
Continuous
100
AcDbLine
 10
465.0003049999998
 20
630.964233
 30
0.0
 11
466.0003049999998
 21
632.964233
 31
0.0
  0
LINE
  5
2D0
330
205
100
AcDbEntity
  8
1
  6
Continuous
100
AcDbLine
 10
466.0003049999998
 20
632.964233
 30
0.0
 11
486.0003049999998
 21
632.964233
 31
0.0
  0
LINE
  5
2D1
330
205
100
AcDbEntity
  8
1
  6
Continuous
100
AcDbLine
 10
465.0003049999998
 20
630.964233
 30
0.0
 11
487.000305
 21
630.964233
 31
0.0
  0
LINE
  5
2D2
330
205
100
AcDbEntity
  8
1
  6
Continuous
100
AcDbLine
 10
469.0003049999998
 20
632.964233
 30
0.0
 11
471.943116
 21
635.907044
 31
0.0
  0
LINE
  5
2D3
330
205
100
AcDbEntity
  8
1
  6
Continuous
100
AcDbLine
 10
483.000305
 20
632.964233
 30
0.0
 11
480.5003049999998
 21
635.464233
 31
0.0
  0
LINE
  5
2D4
330
205
100
AcDbEntity
  8
1
  6
Continuous
100
AcDbLine
 10
472.2002869999998
 20
668.464233
 30
0.0
 11
469.0003049999998
 21
668.464233
 31
0.0
  0
LINE
  5
2D5
330
205
100
AcDbEntity
  8
1
  6
Continuous
100
AcDbLine
 10
469.0003049999998
 20
640.464233
 30
0.0
 11
469.0003049999998
 21
668.464233
 31
0.0
  0
LINE
  5
2D6
330
205
100
AcDbEntity
  8
1
  6
Continuous
100
AcDbLine
 10
477.242004
 20
636.319336
 30
0.0
 11
471.3433839999998
 21
640.197937
 31
0.0
  0
LINE
  5
2D7
330
205
100
AcDbEntity
  8
1
  6
Continuous
100
AcDbLine
 10
479.0001219999998
 20
638.993164
 30
0.0
 11
473.101471
 21
642.871704
 31
0.0
  0
LINE
  5
2D8
330
205
100
AcDbEntity
  8
1
  6
Continuous
100
AcDbLine
 10
472.2002869999998
 20
644.5427859999997
 30
0.0
 11
472.2002869999998
 21
668.464233
 31
0.0
  0
LINE
  5
2D9
330
205
100
AcDbEntity
  8
1
  6
Continuous
100
AcDbLine
 10
483.500305
 20
635.464233
 30
0.0
 11
483.500305
 21
638.6642460000001
 31
0.0
  0
LINE
  5
2DA
330
205
100
AcDbEntity
  8
1
  6
Continuous
100
AcDbLine
 10
483.500305
 20
638.6642460000001
 30
0.0
 11
480.0989379999998
 21
638.6642460000001
 31
0.0
  0
LINE
  5
2DB
330
205
100
AcDbEntity
  8
1
  6
Continuous
100
AcDbLine
 10
483.500305
 20
635.464233
 30
0.0
 11
474.0003049999998
 21
635.464233
 31
0.0
  0
LINE
  5
2DC
330
205
100
AcDbEntity
  8
5
  6
PHANTOM
100
AcDbLine
 10
472.2002869999998
 20
274.464233
 30
0.0
 11
469.0003049999998
 21
274.464233
 31
0.0
  0
LINE
  5
2DD
330
205
100
AcDbEntity
  8
5
  6
PHANTOM
100
AcDbLine
 10
469.0003049999998
 20
302.4642329999999
 30
0.0
 11
469.0003049999998
 21
274.464233
 31
0.0
  0
LINE
  5
2DE
330
205
100
AcDbEntity
  8
5
  6
PHANTOM
100
AcDbLine
 10
477.242004
 20
306.609131
 30
0.0
 11
471.3433839999998
 21
302.7305909999999
 31
0.0
  0
LINE
  5
2DF
330
205
100
AcDbEntity
  8
5
  6
PHANTOM
100
AcDbLine
 10
479.0001219999998
 20
303.9353639999998
 30
0.0
 11
473.101471
 21
300.056824
 31
0.0
  0
LINE
  5
2E0
330
205
100
AcDbEntity
  8
5
  6
PHANTOM
100
AcDbLine
 10
472.2002869999998
 20
298.385712
 30
0.0
 11
472.2002869999998
 21
274.464233
 31
0.0
  0
LINE
  5
2E1
330
205
100
AcDbEntity
  8
5
  6
PHANTOM
100
AcDbLine
 10
483.500305
 20
307.4642329999999
 30
0.0
 11
483.500305
 21
304.264252
 31
0.0
  0
LINE
  5
2E2
330
205
100
AcDbEntity
  8
5
  6
PHANTOM
100
AcDbLine
 10
483.500305
 20
304.264252
 30
0.0
 11
480.0989379999998
 21
304.264252
 31
0.0
  0
LINE
  5
2E3
330
205
100
AcDbEntity
  8
5
  6
PHANTOM
100
AcDbLine
 10
483.500305
 20
307.4642329999999
 30
0.0
 11
471.000305
 21
307.4642329999999
 31
0.0
  0
LINE
  5
2E4
330
205
100
AcDbEntity
  8
1
  6
Continuous
100
AcDbLine
 10
238.500076
 20
59.973351
 30
0.0
 11
238.500076
 21
43.973351
 31
0.0
  0
LINE
  5
2E5
330
205
100
AcDbEntity
  8
1
  6
Continuous
100
AcDbLine
 10
238.0000759999998
 20
59.973351
 30
0.0
 11
238.0000759999998
 21
43.973351
 31
0.0
  0
LINE
  5
2E6
330
205
100
AcDbEntity
  8
1
  6
Continuous
100
AcDbLine
 10
238.500076
 20
43.973351
 30
0.0
 11
238.0000759999998
 21
43.973351
 31
0.0
  0
LINE
  5
2E7
330
205
100
AcDbEntity
  8
1
  6
Continuous
100
AcDbLine
 10
238.500076
 20
59.973351
 30
0.0
 11
238.0000759999998
 21
59.973351
 31
0.0
  0
LINE
  5
2E8
330
205
100
AcDbEntity
  8
4
  6
CENTER
100
AcDbLine
 10
108.0000459999999
 20
63.473351
 30
0.0
 11
108.0000459999999
 21
40.473351
 31
0.0
  0
LINE
  5
2E9
330
205
100
AcDbEntity
  8
1
  6
Continuous
100
AcDbLine
 10
317.0001829999999
 20
134.214249
 30
0.0
 11
316.855762
 21
134.214249
 31
0.0
  0
LINE
  5
2EA
330
205
100
AcDbEntity
  8
1
  6
Continuous
100
AcDbLine
 10
317.031487
 20
132.7142489999999
 30
0.0
 11
316.855762
 21
132.7142489999999
 31
0.0
  0
LINE
  5
2EB
330
205
100
AcDbEntity
  8
1
  6
Continuous
100
AcDbLine
 10
335.144606
 20
134.214249
 30
0.0
 11
335.000183
 21
134.214249
 31
0.0
  0
LINE
  5
2EC
330
205
100
AcDbEntity
  8
1
  6
Continuous
100
AcDbLine
 10
335.144606
 20
132.7142489999999
 30
0.0
 11
334.9688779999999
 21
132.7142489999999
 31
0.0
  0
LINE
  5
2ED
330
205
100
AcDbEntity
  8
1
  6
Continuous
100
AcDbLine
 10
331.2219119999999
 20
125.919937
 30
0.0
 11
331.13405
 21
126.072128
 31
0.0
  0
LINE
  5
2EE
330
205
100
AcDbEntity
  8
1
  6
Continuous
100
AcDbLine
 10
329.9228739999999
 20
125.169937
 30
0.0
 11
329.835011
 21
125.3221279999999
 31
0.0
  0
LINE
  5
2EF
330
205
100
AcDbEntity
  8
1
  6
Continuous
100
AcDbLine
 10
320.8663179999998
 20
126.072128
 30
0.0
 11
320.778454
 21
125.919937
 31
0.0
  0
LINE
  5
2F0
330
205
100
AcDbEntity
  8
1
  6
Continuous
100
AcDbLine
 10
322.165356
 20
125.3221279999999
 30
0.0
 11
322.077492
 21
125.169937
 31
0.0
  0
LINE
  5
2F1
330
205
100
AcDbEntity
  8
1
  6
Continuous
100
AcDbLine
 10
29.943512
 20
134.214249
 30
0.0
 11
26.85556
 21
134.214249
 31
0.0
  0
LINE
  5
2F2
330
205
100
AcDbEntity
  8
1
  6
Continuous
100
AcDbLine
 10
29.943512
 20
132.7142489999999
 30
0.0
 11
26.85556
 21
132.7142489999999
 31
0.0
  0
LINE
  5
2F3
330
205
100
AcDbEntity
  8
1
  6
Continuous
100
AcDbLine
 10
45.144409
 20
134.214249
 30
0.0
 11
42.056458
 21
134.214249
 31
0.0
  0
LINE
  5
2F4
330
205
100
AcDbEntity
  8
1
  6
Continuous
100
AcDbLine
 10
45.144409
 20
132.7142489999999
 30
0.0
 11
42.056458
 21
132.7142489999999
 31
0.0
  0
LINE
  5
2F5
330
205
100
AcDbEntity
  8
1
  6
Continuous
100
AcDbLine
 10
41.22170999999997
 20
125.919937
 30
0.0
 11
39.677734
 21
128.5941769999998
 31
0.0
  0
LINE
  5
2F6
330
205
100
AcDbEntity
  8
1
  6
Continuous
100
AcDbLine
 10
39.922668
 20
125.169937
 30
0.0
 11
38.37869299999999
 21
127.844177
 31
0.0
  0
LINE
  5
2F7
330
205
100
AcDbEntity
  8
1
  6
Continuous
100
AcDbLine
 10
33.621277
 20
139.0843199999999
 30
0.0
 11
32.077301
 21
141.7585449999999
 31
0.0
  0
LINE
  5
2F8
330
205
100
AcDbEntity
  8
1
  6
Continuous
100
AcDbLine
 10
32.32223499999999
 20
138.3343199999999
 30
0.0
 11
30.77825900000001
 21
141.0085449999999
 31
0.0
  0
LINE
  5
2F9
330
205
100
AcDbEntity
  8
1
  6
Continuous
100
AcDbLine
 10
32.32223499999999
 20
128.5941769999998
 30
0.0
 11
30.77825900000001
 21
125.919937
 31
0.0
  0
LINE
  5
2FA
330
205
100
AcDbEntity
  8
1
  6
Continuous
100
AcDbLine
 10
33.621277
 20
127.844177
 30
0.0
 11
32.077301
 21
125.169937
 31
0.0
  0
LINE
  5
2FB
330
205
100
AcDbEntity
  8
1
  6
Continuous
100
AcDbLine
 10
39.922668
 20
141.7585449999999
 30
0.0
 11
38.37869299999999
 21
139.0843199999999
 31
0.0
  0
LINE
  5
2FC
330
205
100
AcDbEntity
  8
1
  6
Continuous
100
AcDbLine
 10
41.22170999999997
 20
141.0085449999999
 30
0.0
 11
39.677734
 21
138.3343199999999
 31
0.0
  0
LINE
  5
2FD
330
205
100
AcDbEntity
  8
4
  6
CENTER
100
AcDbLine
 10
21.0
 20
659.464233
 30
0.0
 11
51.0
 21
659.464233
 31
0.0
  0
LINE
  5
2FE
330
205
100
AcDbEntity
  8
1
  6
Continuous
100
AcDbLine
 10
317.0001829999999
 20
658.714233
 30
0.0
 11
316.855762
 21
658.714233
 31
0.0
  0
LINE
  5
2FF
330
205
100
AcDbEntity
  8
1
  6
Continuous
100
AcDbLine
 10
317.031487
 20
660.214233
 30
0.0
 11
316.855762
 21
660.214233
 31
0.0
  0
LINE
  5
300
330
205
100
AcDbEntity
  8
1
  6
Continuous
100
AcDbLine
 10
335.144606
 20
658.714233
 30
0.0
 11
335.000183
 21
658.714233
 31
0.0
  0
LINE
  5
301
330
205
100
AcDbEntity
  8
1
  6
Continuous
100
AcDbLine
 10
335.144606
 20
660.214233
 30
0.0
 11
334.9688779999999
 21
660.214233
 31
0.0
  0
LINE
  5
302
330
205
100
AcDbEntity
  8
1
  6
Continuous
100
AcDbLine
 10
331.2219119999999
 20
667.008545
 30
0.0
 11
331.13405
 21
666.8563839999998
 31
0.0
  0
LINE
  5
303
330
205
100
AcDbEntity
  8
1
  6
Continuous
100
AcDbLine
 10
329.9228739999999
 20
667.758545
 30
0.0
 11
329.835011
 21
667.6063839999998
 31
0.0
  0
LINE
  5
304
330
205
100
AcDbEntity
  8
1
  6
Continuous
100
AcDbLine
 10
320.8663179999998
 20
666.8563839999998
 30
0.0
 11
320.778454
 21
667.008545
 31
0.0
  0
LINE
  5
305
330
205
100
AcDbEntity
  8
1
  6
Continuous
100
AcDbLine
 10
322.165356
 20
667.6063839999998
 30
0.0
 11
322.077492
 21
667.758545
 31
0.0
  0
LINE
  5
306
330
205
100
AcDbEntity
  8
1
  6
Continuous
100
AcDbLine
 10
45.144409
 20
658.714233
 30
0.0
 11
42.056458
 21
658.714233
 31
0.0
  0
LINE
  5
307
330
205
100
AcDbEntity
  8
1
  6
Continuous
100
AcDbLine
 10
29.943512
 20
660.214233
 30
0.0
 11
26.85556
 21
660.214233
 31
0.0
  0
LINE
  5
308
330
205
100
AcDbEntity
  8
1
  6
Continuous
100
AcDbLine
 10
29.943512
 20
658.714233
 30
0.0
 11
26.85556
 21
658.714233
 31
0.0
  0
LINE
  5
309
330
205
100
AcDbEntity
  8
1
  6
Continuous
100
AcDbLine
 10
45.144409
 20
660.214233
 30
0.0
 11
42.056458
 21
660.214233
 31
0.0
  0
LINE
  5
30A
330
205
100
AcDbEntity
  8
1
  6
Continuous
100
AcDbLine
 10
41.22170999999997
 20
667.008545
 30
0.0
 11
39.677734
 21
664.33429
 31
0.0
  0
LINE
  5
30B
330
205
100
AcDbEntity
  8
1
  6
Continuous
100
AcDbLine
 10
39.922668
 20
667.758545
 30
0.0
 11
38.37869299999999
 21
665.08429
 31
0.0
  0
LINE
  5
30C
330
205
100
AcDbEntity
  8
1
  6
Continuous
100
AcDbLine
 10
33.621277
 20
653.8441769999998
 30
0.0
 11
32.077301
 21
651.1699219999997
 31
0.0
  0
LINE
  5
30D
330
205
100
AcDbEntity
  8
1
  6
Continuous
100
AcDbLine
 10
32.32223499999999
 20
654.5941769999998
 30
0.0
 11
30.77825900000001
 21
651.9199219999998
 31
0.0
  0
LINE
  5
30E
330
205
100
AcDbEntity
  8
1
  6
Continuous
100
AcDbLine
 10
32.32223499999999
 20
664.33429
 30
0.0
 11
30.77825900000001
 21
667.008545
 31
0.0
  0
LINE
  5
30F
330
205
100
AcDbEntity
  8
1
  6
Continuous
100
AcDbLine
 10
33.621277
 20
665.08429
 30
0.0
 11
32.077301
 21
667.758545
 31
0.0
  0
LINE
  5
310
330
205
100
AcDbEntity
  8
1
  6
Continuous
100
AcDbLine
 10
39.922668
 20
651.1699219999997
 30
0.0
 11
38.37869299999999
 21
653.8441769999998
 31
0.0
  0
LINE
  5
311
330
205
100
AcDbEntity
  8
1
  6
Continuous
100
AcDbLine
 10
41.22170999999997
 20
651.9199219999998
 30
0.0
 11
39.677734
 21
654.5941769999998
 31
0.0
  0
LINE
  5
312
330
205
100
AcDbEntity
  8
4
  6
CENTER
100
AcDbLine
 10
243.5000759999998
 20
743.1501459999997
 30
0.0
 11
102.0000459999998
 21
743.1501459999997
 31
0.0
  0
LINE
  5
313
330
205
100
AcDbEntity
  8
1
  6
Continuous
100
AcDbLine
 10
238.500076
 20
735.1501459999997
 30
0.0
 11
238.500076
 21
751.1501459999997
 31
0.0
  0
LINE
  5
314
330
205
100
AcDbEntity
  8
1
  6
Continuous
100
AcDbLine
 10
238.0000759999998
 20
735.1501459999997
 30
0.0
 11
238.0000759999998
 21
751.1501459999997
 31
0.0
  0
LINE
  5
315
330
205
100
AcDbEntity
  8
1
  6
Continuous
100
AcDbLine
 10
238.500076
 20
751.1501459999997
 30
0.0
 11
238.0000759999998
 21
751.1501459999997
 31
0.0
  0
LINE
  5
316
330
205
100
AcDbEntity
  8
1
  6
Continuous
100
AcDbLine
 10
238.500076
 20
735.1501459999997
 30
0.0
 11
238.0000759999998
 21
735.1501459999997
 31
0.0
  0
LINE
  5
317
330
205
100
AcDbEntity
  8
4
  6
CENTER
100
AcDbLine
 10
108.0000459999999
 20
731.6501459999997
 30
0.0
 11
108.0000459999999
 21
754.6501459999997
 31
0.0
  0
LINE
  5
318
330
205
100
AcDbEntity
  8
4
  6
CENTER
100
AcDbLine
 10
408.500305
 20
133.464249
 30
0.0
 11
550.000336
 21
133.464249
 31
0.0
  0
LINE
  5
319
330
205
100
AcDbEntity
  8
1
  6
Continuous
100
AcDbLine
 10
413.5003049999999
 20
141.464249
 30
0.0
 11
413.5003049999999
 21
125.4642489999999
 31
0.0
  0
LINE
  5
31A
330
205
100
AcDbEntity
  8
1
  6
Continuous
100
AcDbLine
 10
414.0003049999998
 20
141.464249
 30
0.0
 11
414.0003049999998
 21
125.4642489999999
 31
0.0
  0
LINE
  5
31B
330
205
100
AcDbEntity
  8
1
  6
Continuous
100
AcDbLine
 10
413.5003049999999
 20
125.4642489999999
 30
0.0
 11
414.0003049999998
 21
125.4642489999999
 31
0.0
  0
LINE
  5
31C
330
205
100
AcDbEntity
  8
1
  6
Continuous
100
AcDbLine
 10
413.5003049999999
 20
141.464249
 30
0.0
 11
414.0003049999998
 21
141.464249
 31
0.0
  0
LINE
  5
31D
330
205
100
AcDbEntity
  8
4
  6
CENTER
100
AcDbLine
 10
544.0003359999998
 20
144.964249
 30
0.0
 11
544.0003359999998
 21
121.964249
 31
0.0
  0
LINE
  5
31E
330
205
100
AcDbEntity
  8
4
  6
CENTER
100
AcDbLine
 10
544.0003359999998
 20
647.964233
 30
0.0
 11
544.0003359999998
 21
670.964233
 31
0.0
  0
LINE
  5
31F
330
205
100
AcDbEntity
  8
1
  6
Continuous
100
AcDbLine
 10
413.5003049999999
 20
651.464233
 30
0.0
 11
414.0003049999998
 21
651.464233
 31
0.0
  0
LINE
  5
320
330
205
100
AcDbEntity
  8
4
  6
CENTER
100
AcDbLine
 10
408.500305
 20
659.464233
 30
0.0
 11
550.000336
 21
659.464233
 31
0.0
  0
LINE
  5
321
330
205
100
AcDbEntity
  8
1
  6
Continuous
100
AcDbLine
 10
413.5003049999999
 20
667.464233
 30
0.0
 11
414.0003049999998
 21
667.464233
 31
0.0
  0
LINE
  5
322
330
205
100
AcDbEntity
  8
1
  6
Continuous
100
AcDbLine
 10
414.0003049999998
 20
651.464233
 30
0.0
 11
414.0003049999998
 21
667.464233
 31
0.0
  0
LINE
  5
323
330
205
100
AcDbEntity
  8
1
  6
Continuous
100
AcDbLine
 10
413.5003049999999
 20
651.464233
 30
0.0
 11
413.5003049999999
 21
667.464233
 31
0.0
  0
LINE
  5
324
330
205
100
AcDbEntity
  8
1
  6
Continuous
100
AcDbLine
 10
173.0002899999998
 20
153.9353639999999
 30
0.0
 11
178.8989109999999
 21
150.0568079999999
 31
0.0
  0
LINE
  5
325
330
205
100
AcDbEntity
  8
1
  6
Continuous
100
AcDbLine
 10
174.758377
 20
156.609131
 30
0.0
 11
180.6570129999998
 21
152.730591
 31
0.0
  0
LINE
  5
326
330
205
100
AcDbEntity
  8
1
  6
Continuous
100
AcDbLine
 10
183.0000919999999
 20
152.4642489999999
 30
0.0
 11
183.0000919999999
 21
124.4642489999999
 31
0.0
  0
LINE
  5
327
330
205
100
AcDbEntity
  8
1
  6
Continuous
100
AcDbLine
 10
179.800095
 20
148.3856959999999
 30
0.0
 11
179.800095
 21
124.4642489999999
 31
0.0
  0
LINE
  5
328
330
205
100
AcDbEntity
  8
1
  6
Continuous
100
AcDbLine
 10
179.800095
 20
124.4642489999999
 30
0.0
 11
183.0000919999999
 21
124.4642489999999
 31
0.0
  0
LINE
  5
329
330
205
100
AcDbEntity
  8
1
  6
Continuous
100
AcDbLine
 10
168.500092
 20
154.264252
 30
0.0
 11
171.901474
 21
154.264252
 31
0.0
  0
LINE
  5
32A
330
205
100
AcDbEntity
  8
1
  6
Continuous
100
AcDbLine
 10
168.500092
 20
157.464249
 30
0.0
 11
168.500092
 21
154.264252
 31
0.0
  0
LINE
  5
32B
330
205
100
AcDbEntity
  8
1
  6
Continuous
100
AcDbLine
 10
168.500092
 20
157.464249
 30
0.0
 11
181.000092
 21
157.464249
 31
0.0
  0
LINE
  5
32C
330
205
100
AcDbEntity
  8
1
  6
Continuous
100
AcDbLine
 10
483.500305
 20
157.464249
 30
0.0
 11
483.500305
 21
154.264252
 31
0.0
  0
LINE
  5
32D
330
205
100
AcDbEntity
  8
1
  6
Continuous
100
AcDbLine
 10
479.0001219999998
 20
153.9353639999999
 30
0.0
 11
473.101471
 21
150.0568079999999
 31
0.0
  0
LINE
  5
32E
330
205
100
AcDbEntity
  8
1
  6
Continuous
100
AcDbLine
 10
483.500305
 20
154.264252
 30
0.0
 11
480.0989379999998
 21
154.264252
 31
0.0
  0
LINE
  5
32F
330
205
100
AcDbEntity
  8
1
  6
Continuous
100
AcDbLine
 10
477.242004
 20
156.609131
 30
0.0
 11
471.3433839999998
 21
152.730591
 31
0.0
  0
LINE
  5
330
330
205
100
AcDbEntity
  8
1
  6
Continuous
100
AcDbLine
 10
469.0003049999998
 20
152.4642489999999
 30
0.0
 11
469.0003049999998
 21
124.4642489999999
 31
0.0
  0
LINE
  5
331
330
205
100
AcDbEntity
  8
1
  6
Continuous
100
AcDbLine
 10
472.2002869999998
 20
148.3856959999999
 30
0.0
 11
472.2002869999998
 21
124.4642489999999
 31
0.0
  0
LINE
  5
332
330
205
100
AcDbEntity
  8
1
  6
Continuous
100
AcDbLine
 10
472.2002869999998
 20
124.4642489999999
 30
0.0
 11
469.0003049999998
 21
124.4642489999999
 31
0.0
  0
LINE
  5
333
330
205
100
AcDbEntity
  8
1
  6
Continuous
100
AcDbLine
 10
483.500305
 20
157.464249
 30
0.0
 11
471.000305
 21
157.464249
 31
0.0
  0
LINE
  5
334
330
205
100
AcDbEntity
  8
4
  6
CENTER
100
AcDbLine
 10
160.760681
 20
283.4642329999999
 30
0.0
 11
191.9513699999999
 21
283.4642329999999
 31
0.0
  0
LINE
  5
335
330
205
100
AcDbEntity
  8
4
  6
CENTER
100
AcDbLine
 10
462.6866759999998
 20
283.4642329999999
 30
0.0
 11
490.7583009999998
 21
283.4642329999999
 31
0.0
  0
LINE
  5
336
330
205
100
AcDbEntity
  8
4
  6
CENTER
100
AcDbLine
 10
243.5000759999998
 20
133.464249
 30
0.0
 11
102.0000459999998
 21
133.464249
 31
0.0
  0
LINE
  5
337
330
205
100
AcDbEntity
  8
1
  6
Continuous
100
AcDbLine
 10
238.500076
 20
141.464249
 30
0.0
 11
238.500076
 21
125.4642489999999
 31
0.0
  0
LINE
  5
338
330
205
100
AcDbEntity
  8
1
  6
Continuous
100
AcDbLine
 10
238.0000759999998
 20
141.464249
 30
0.0
 11
238.0000759999998
 21
125.4642489999999
 31
0.0
  0
LINE
  5
339
330
205
100
AcDbEntity
  8
1
  6
Continuous
100
AcDbLine
 10
238.500076
 20
125.4642489999999
 30
0.0
 11
238.0000759999998
 21
125.4642489999999
 31
0.0
  0
LINE
  5
33A
330
205
100
AcDbEntity
  8
1
  6
Continuous
100
AcDbLine
 10
238.500076
 20
141.464249
 30
0.0
 11
238.0000759999998
 21
141.464249
 31
0.0
  0
LINE
  5
33B
330
205
100
AcDbEntity
  8
4
  6
CENTER
100
AcDbLine
 10
108.0000459999999
 20
144.964249
 30
0.0
 11
108.0000459999999
 21
121.964249
 31
0.0
  0
LINE
  5
33C
330
205
100
AcDbEntity
  8
4
  6
CENTER
100
AcDbLine
 10
243.5000759999998
 20
659.464233
 30
0.0
 11
102.0000459999998
 21
659.464233
 31
0.0
  0
LINE
  5
33D
330
205
100
AcDbEntity
  8
1
  6
Continuous
100
AcDbLine
 10
238.500076
 20
651.464233
 30
0.0
 11
238.500076
 21
667.464233
 31
0.0
  0
LINE
  5
33E
330
205
100
AcDbEntity
  8
1
  6
Continuous
100
AcDbLine
 10
238.0000759999998
 20
651.464233
 30
0.0
 11
238.0000759999998
 21
667.464233
 31
0.0
  0
LINE
  5
33F
330
205
100
AcDbEntity
  8
1
  6
Continuous
100
AcDbLine
 10
238.500076
 20
667.464233
 30
0.0
 11
238.0000759999998
 21
667.464233
 31
0.0
  0
LINE
  5
340
330
205
100
AcDbEntity
  8
1
  6
Continuous
100
AcDbLine
 10
238.500076
 20
651.464233
 30
0.0
 11
238.0000759999998
 21
651.464233
 31
0.0
  0
LINE
  5
341
330
205
100
AcDbEntity
  8
4
  6
CENTER
100
AcDbLine
 10
108.0000459999999
 20
647.964233
 30
0.0
 11
108.0000459999999
 21
670.964233
 31
0.0
  0
CIRCLE
  5
342
330
205
100
AcDbEntity
  8
1
  6
Continuous
100
AcDbCircle
 10
326.000183
 20
133.464249
 30
0.0
 40
5.0
  0
ARC
  5
343
330
205
100
AcDbEntity
  8
1
  6
Continuous
100
AcDbCircle
 10
326.000183
 20
133.464249
 30
0.0
 40
9.0
100
AcDbArc
 50
180.0
 51
0.000005
  0
ARC
  5
344
330
205
100
AcDbEntity
  8
5
  6
PHANTOM
100
AcDbCircle
 10
177.800095
 20
298.385712
 30
0.0
 40
2.0
100
AcDbArc
 50
0.0
 51
56.67370999999999
  0
ARC
  5
345
330
205
100
AcDbEntity
  8
5
  6
PHANTOM
100
AcDbCircle
 10
171.901474
 20
302.264252
 30
0.0
 40
2.0
100
AcDbArc
 50
56.67370999999999
 51
90.00000300000001
  0
ARC
  5
346
330
205
100
AcDbEntity
  8
5
  6
PHANTOM
100
AcDbCircle
 10
177.800095
 20
298.385712
 30
0.0
 40
5.2
100
AcDbArc
 50
0.0
 51
56.67370999999999
  0
ARC
  5
347
330
205
100
AcDbEntity
  8
5
  6
PHANTOM
100
AcDbCircle
 10
171.901474
 20
302.264252
 30
0.0
 40
5.2
100
AcDbArc
 50
56.67370999999999
 51
90.00000300000001
  0
ARC
  5
348
330
205
100
AcDbEntity
  8
5
  6
PHANTOM
100
AcDbCircle
 10
178.0000919999999
 20
302.4642329999999
 30
0.0
 40
5.0
100
AcDbArc
 50
0.0
 51
90.00000300000001
  0
CIRCLE
  5
349
330
205
100
AcDbEntity
  8
1
  6
Continuous
100
AcDbCircle
 10
326.000183
 20
659.464233
 30
0.0
 40
5.0
  0
ARC
  5
34A
330
205
100
AcDbEntity
  8
1
  6
Continuous
100
AcDbCircle
 10
326.000183
 20
659.464233
 30
0.0
 40
9.0
100
AcDbArc
 50
359.999995
 51
180.0
  0
ARC
  5
34B
330
205
100
AcDbEntity
  8
1
  6
Continuous
100
AcDbCircle
 10
177.800095
 20
644.5427859999997
 30
0.0
 40
2.0
100
AcDbArc
 50
303.3262899999999
 51
0.0
  0
ARC
  5
34C
330
205
100
AcDbEntity
  8
1
  6
Continuous
100
AcDbCircle
 10
171.901474
 20
640.6642460000001
 30
0.0
 40
2.0
100
AcDbArc
 50
269.9999969999999
 51
303.3262899999999
  0
ARC
  5
34D
330
205
100
AcDbEntity
  8
1
  6
Continuous
100
AcDbCircle
 10
177.800095
 20
644.5427859999997
 30
0.0
 40
5.2
100
AcDbArc
 50
303.3262899999999
 51
0.0
  0
ARC
  5
34E
330
205
100
AcDbEntity
  8
1
  6
Continuous
100
AcDbCircle
 10
171.901474
 20
640.6642460000001
 30
0.0
 40
5.2
100
AcDbArc
 50
269.9999969999999
 51
303.3262899999999
  0
ARC
  5
34F
330
205
100
AcDbEntity
  8
1
  6
Continuous
100
AcDbCircle
 10
178.0000919999999
 20
640.464233
 30
0.0
 40
5.0
100
AcDbArc
 50
269.9999969999999
 51
0.0
  0
ARC
  5
350
330
205
100
AcDbEntity
  8
1
  6
Continuous
100
AcDbCircle
 10
25.0
 20
323.4642329999999
 30
0.0
 40
1.0
100
AcDbArc
 50
269.9999969999999
 51
90.00000300000001
  0
ARC
  5
351
330
205
100
AcDbEntity
  8
1
  6
Continuous
100
AcDbCircle
 10
25.0
 20
336.964233
 30
0.0
 40
1.0
100
AcDbArc
 50
269.9999969999999
 51
90.00000300000001
  0
ARC
  5
352
330
205
100
AcDbEntity
  8
1
  6
Continuous
100
AcDbCircle
 10
47.0
 20
323.4642329999999
 30
0.0
 40
1.0
100
AcDbArc
 50
90.00000300000001
 51
270.000001
  0
ARC
  5
353
330
205
100
AcDbEntity
  8
1
  6
Continuous
100
AcDbCircle
 10
47.0
 20
336.964233
 30
0.0
 40
1.0
100
AcDbArc
 50
90.00000300000001
 51
270.000001
  0
ARC
  5
354
330
205
100
AcDbEntity
  8
1
  6
Continuous
100
AcDbCircle
 10
165.000092
 20
323.4642329999999
 30
0.0
 40
1.0
100
AcDbArc
 50
269.9999969999999
 51
90.00000300000001
  0
ARC
  5
355
330
205
100
AcDbEntity
  8
1
  6
Continuous
100
AcDbCircle
 10
165.000092
 20
336.964233
 30
0.0
 40
1.0
100
AcDbArc
 50
269.9999969999999
 51
90.00000300000001
  0
ARC
  5
356
330
205
100
AcDbEntity
  8
1
  6
Continuous
100
AcDbCircle
 10
187.000092
 20
323.4642329999999
 30
0.0
 40
1.0
100
AcDbArc
 50
90.00000300000001
 51
270.000001
  0
ARC
  5
357
330
205
100
AcDbEntity
  8
1
  6
Continuous
100
AcDbCircle
 10
187.000092
 20
336.964233
 30
0.0
 40
1.0
100
AcDbArc
 50
90.00000300000001
 51
270.000001
  0
CIRCLE
  5
358
330
205
100
AcDbEntity
  8
5
  6
PHANTOM
100
AcDbCircle
 10
36.0
 20
283.4642329999999
 30
0.0
 40
5.0
  0
ARC
  5
359
330
205
100
AcDbEntity
  8
5
  6
PHANTOM
100
AcDbCircle
 10
36.0
 20
283.4642329999999
 30
0.0
 40
9.0
100
AcDbArc
 50
179.9999949999999
 51
0.0
  0
ARC
  5
35A
330
205
100
AcDbEntity
  8
1
  6
Continuous
100
AcDbCircle
 10
315.0001829999999
 20
336.964233
 30
0.0
 40
1.0
100
AcDbArc
 50
269.9999969999999
 51
90.00000300000001
  0
ARC
  5
35B
330
205
100
AcDbEntity
  8
1
  6
Continuous
100
AcDbCircle
 10
315.0001829999999
 20
323.4642329999999
 30
0.0
 40
1.0
100
AcDbArc
 50
269.9999969999999
 51
90.00000300000001
  0
ARC
  5
35C
330
205
100
AcDbEntity
  8
1
  6
Continuous
100
AcDbCircle
 10
337.000183
 20
336.964233
 30
0.0
 40
1.0
100
AcDbArc
 50
90.00000300000001
 51
270.000001
  0
ARC
  5
35D
330
205
100
AcDbEntity
  8
1
  6
Continuous
100
AcDbCircle
 10
337.000183
 20
323.4642329999999
 30
0.0
 40
1.0
100
AcDbArc
 50
90.00000300000001
 51
270.000001
  0
CIRCLE
  5
35E
330
205
100
AcDbEntity
  8
1
  6
Continuous
100
AcDbCircle
 10
36.0
 20
659.464233
 30
0.0
 40
5.0
  0
CIRCLE
  5
35F
330
205
100
AcDbEntity
  8
1
  6
Continuous
100
AcDbCircle
 10
36.0
 20
133.464249
 30
0.0
 40
5.0
  0
ARC
  5
360
330
205
100
AcDbEntity
  8
1
  6
Continuous
100
AcDbCircle
 10
317.0001829999999
 20
637.464233
 30
0.0
 40
2.0
100
AcDbArc
 50
180.000005
 51
270.000001
  0
ARC
  5
361
330
205
100
AcDbEntity
  8
1
  6
Continuous
100
AcDbCircle
 10
335.000183
 20
637.464233
 30
0.0
 40
2.0
100
AcDbArc
 50
269.9999969999999
 51
0.0
  0
ARC
  5
362
330
205
100
AcDbEntity
  8
1
  6
Continuous
100
AcDbCircle
 10
311.6716609999999
 20
640.00354
 30
0.0
 40
6.999888999999998
100
AcDbArc
 50
319.573046
 51
40.42695399999997
  0
ARC
  5
363
330
205
100
AcDbEntity
  8
1
  6
Continuous
100
AcDbCircle
 10
335.000183
 20
637.464233
 30
0.0
 40
2.0
100
AcDbArc
 50
269.9999969999999
 51
0.0
  0
ARC
  5
364
330
205
100
AcDbEntity
  8
1
  6
Continuous
100
AcDbCircle
 10
340.3287349999998
 20
640.00354
 30
0.0
 40
6.999888999999998
100
AcDbArc
 50
139.5730439999999
 51
220.4269519999999
  0
ARC
  5
365
330
205
100
AcDbEntity
  8
1
  6
Continuous
100
AcDbCircle
 10
335.000183
 20
155.4642489999999
 30
0.0
 40
2.0
100
AcDbArc
 50
0.0
 51
90.00000300000001
  0
ARC
  5
366
330
205
100
AcDbEntity
  8
1
  6
Continuous
100
AcDbCircle
 10
317.0001829999999
 20
155.4642489999999
 30
0.0
 40
2.0
100
AcDbArc
 50
90.00000300000001
 51
180.000005
  0
ARC
  5
367
330
205
100
AcDbEntity
  8
1
  6
Continuous
100
AcDbCircle
 10
335.000183
 20
155.4642489999999
 30
0.0
 40
2.0
100
AcDbArc
 50
0.0
 51
90.00000300000001
  0
ARC
  5
368
330
205
100
AcDbEntity
  8
1
  6
Continuous
100
AcDbCircle
 10
340.3287349999998
 20
152.924973
 30
0.0
 40
6.999888999999998
100
AcDbArc
 50
139.5730439999999
 51
220.4269519999999
  0
ARC
  5
369
330
205
100
AcDbEntity
  8
1
  6
Continuous
100
AcDbCircle
 10
311.6716609999999
 20
152.924973
 30
0.0
 40
6.999888999999998
100
AcDbArc
 50
319.573046
 51
40.42695399999997
  0
ARC
  5
36A
330
205
100
AcDbEntity
  8
5
  6
PHANTOM
100
AcDbCircle
 10
335.000183
 20
305.464233
 30
0.0
 40
2.0
100
AcDbArc
 50
0.0
 51
90.00000300000001
  0
ARC
  5
36B
330
205
100
AcDbEntity
  8
5
  6
PHANTOM
100
AcDbCircle
 10
340.3287349999998
 20
302.924957
 30
0.0
 40
6.999888999999998
100
AcDbArc
 50
139.5730439999999
 51
220.4269519999999
  0
ARC
  5
36C
330
205
100
AcDbEntity
  8
5
  6
PHANTOM
100
AcDbCircle
 10
335.000183
 20
305.464233
 30
0.0
 40
2.0
100
AcDbArc
 50
0.0
 51
90.00000300000001
  0
ARC
  5
36D
330
205
100
AcDbEntity
  8
5
  6
PHANTOM
100
AcDbCircle
 10
317.0001829999999
 20
305.464233
 30
0.0
 40
2.0
100
AcDbArc
 50
90.00000300000001
 51
180.000005
  0
ARC
  5
36E
330
205
100
AcDbEntity
  8
5
  6
PHANTOM
100
AcDbCircle
 10
311.6716609999999
 20
302.924957
 30
0.0
 40
6.999888999999998
100
AcDbArc
 50
319.573046
 51
40.42695399999997
  0
ARC
  5
36F
330
205
100
AcDbEntity
  8
5
  6
PHANTOM
100
AcDbCircle
 10
326.000183
 20
283.4642329999999
 30
0.0
 40
9.0
100
AcDbArc
 50
180.000005
 51
0.00001
  0
CIRCLE
  5
370
330
205
100
AcDbEntity
  8
5
  6
PHANTOM
100
AcDbCircle
 10
326.000183
 20
283.4642329999999
 30
0.0
 40
5.0
  0
ARC
  5
371
330
205
100
AcDbEntity
  8
1
  6
Continuous
100
AcDbCircle
 10
176.0000919999999
 20
51.973351
 30
0.0
 40
11.0
100
AcDbArc
 50
121.699054
 51
238.300929
  0
ARC
  5
372
330
205
100
AcDbEntity
  8
1
  6
Continuous
100
AcDbCircle
 10
171.8899079999999
 20
61.473351
 30
0.0
 40
1.5
100
AcDbArc
 50
79.184487
 51
157.0912909999999
  0
ARC
  5
373
330
205
100
AcDbEntity
  8
1
  6
Continuous
100
AcDbCircle
 10
176.0000919999999
 20
51.973351
 30
0.0
 40
11.0
100
AcDbArc
 50
256.9562619999999
 51
303.5456049999999
  0
ARC
  5
374
330
205
100
AcDbEntity
  8
1
  6
Continuous
100
AcDbCircle
 10
176.0000919999999
 20
51.973351
 30
0.0
 40
10.0
100
AcDbArc
 50
129.3300139999997
 51
230.6699959999999
  0
ARC
  5
375
330
205
100
AcDbEntity
  8
1
  6
Continuous
100
AcDbCircle
 10
176.0000919999999
 20
51.973351
 30
0.0
 40
10.0
100
AcDbArc
 50
314.427004
 51
45.572996
  0
ARC
  5
376
330
205
100
AcDbEntity
  8
1
  6
Continuous
100
AcDbCircle
 10
176.0000919999999
 20
743.1501459999997
 30
0.0
 40
11.0
100
AcDbArc
 50
121.704327
 51
238.295656
  0
ARC
  5
377
330
205
100
AcDbEntity
  8
1
  6
Continuous
100
AcDbCircle
 10
176.0000919999999
 20
743.1501459999997
 30
0.0
 40
11.0
100
AcDbArc
 50
256.95463
 51
303.545722
  0
ARC
  5
378
330
205
100
AcDbEntity
  8
1
  6
Continuous
100
AcDbCircle
 10
194.832581
 20
743.1501459999997
 30
0.0
 40
26.33248299999999
100
AcDbArc
 50
157.507441
 51
202.4925559999998
  0
ARC
  5
379
330
205
100
AcDbEntity
  8
1
  6
Continuous
100
AcDbCircle
 10
171.8891299999999
 20
733.6501459999997
 30
0.0
 40
1.5
100
AcDbArc
 50
202.9087089999999
 51
280.815513
  0
ARC
  5
37A
330
205
100
AcDbEntity
  8
1
  6
Continuous
100
AcDbCircle
 10
171.8891299999999
 20
752.6501459999997
 30
0.0
 40
1.5
100
AcDbArc
 50
79.184487
 51
157.0912909999999
  0
ARC
  5
37B
330
205
100
AcDbEntity
  8
1
  6
Continuous
100
AcDbCircle
 10
171.8899079999999
 20
42.47335099999999
 30
0.0
 40
1.5
100
AcDbArc
 50
202.9087089999999
 51
280.815513
  0
ARC
  5
37C
330
205
100
AcDbEntity
  8
1
  6
Continuous
100
AcDbCircle
 10
194.823151
 20
51.973351
 30
0.0
 40
26.323055
100
AcDbArc
 50
157.4984249999999
 51
202.5015709999999
  0
ARC
  5
37D
330
205
100
AcDbEntity
  8
1
  6
Continuous
100
AcDbCircle
 10
176.0000919999999
 20
51.973351
 30
0.0
 40
11.0
100
AcDbArc
 50
309.5211959999998
 51
50.478804
  0
ARC
  5
37E
330
205
100
AcDbEntity
  8
1
  6
Continuous
100
AcDbCircle
 10
176.0000919999999
 20
51.973351
 30
0.0
 40
11.0
100
AcDbArc
 50
56.45439499999999
 51
103.043738
  0
ARC
  5
37F
330
205
100
AcDbEntity
  8
1
  6
Continuous
100
AcDbCircle
 10
465.0003049999998
 20
336.964233
 30
0.0
 40
1.0
100
AcDbArc
 50
269.9999969999999
 51
90.00000300000001
  0
ARC
  5
380
330
205
100
AcDbEntity
  8
1
  6
Continuous
100
AcDbCircle
 10
465.0003049999998
 20
323.4642329999999
 30
0.0
 40
1.0
100
AcDbArc
 50
269.9999969999999
 51
90.00000300000001
  0
ARC
  5
381
330
205
100
AcDbEntity
  8
1
  6
Continuous
100
AcDbCircle
 10
487.000305
 20
336.964233
 30
0.0
 40
1.0
100
AcDbArc
 50
90.00000300000001
 51
270.000001
  0
ARC
  5
382
330
205
100
AcDbEntity
  8
1
  6
Continuous
100
AcDbCircle
 10
487.000305
 20
323.4642329999999
 30
0.0
 40
1.0
100
AcDbArc
 50
90.00000300000001
 51
270.000001
  0
ARC
  5
383
330
205
100
AcDbEntity
  8
1
  6
Continuous
100
AcDbCircle
 10
474.0003049999998
 20
640.464233
 30
0.0
 40
5.0
100
AcDbArc
 50
180.000005
 51
270.000001
  0
ARC
  5
384
330
205
100
AcDbEntity
  8
1
  6
Continuous
100
AcDbCircle
 10
480.0989379999998
 20
640.6642460000001
 30
0.0
 40
5.2
100
AcDbArc
 50
236.673708
 51
269.9999969999999
  0
ARC
  5
385
330
205
100
AcDbEntity
  8
1
  6
Continuous
100
AcDbCircle
 10
474.200287
 20
644.5427859999997
 30
0.0
 40
5.2
100
AcDbArc
 50
179.9999949999999
 51
236.673708
  0
ARC
  5
386
330
205
100
AcDbEntity
  8
1
  6
Continuous
100
AcDbCircle
 10
480.0989379999998
 20
640.6642460000001
 30
0.0
 40
2.0
100
AcDbArc
 50
236.673708
 51
269.9999969999999
  0
ARC
  5
387
330
205
100
AcDbEntity
  8
1
  6
Continuous
100
AcDbCircle
 10
474.200287
 20
644.5427859999997
 30
0.0
 40
2.0
100
AcDbArc
 50
179.9999949999999
 51
236.673708
  0
ARC
  5
388
330
205
100
AcDbEntity
  8
5
  6
PHANTOM
100
AcDbCircle
 10
474.0003049999998
 20
302.4642329999999
 30
0.0
 40
5.0
100
AcDbArc
 50
90.00000300000001
 51
180.000005
  0
ARC
  5
389
330
205
100
AcDbEntity
  8
5
  6
PHANTOM
100
AcDbCircle
 10
480.0989379999998
 20
302.264252
 30
0.0
 40
5.2
100
AcDbArc
 50
90.00000300000001
 51
123.326292
  0
ARC
  5
38A
330
205
100
AcDbEntity
  8
5
  6
PHANTOM
100
AcDbCircle
 10
474.200287
 20
298.385712
 30
0.0
 40
5.2
100
AcDbArc
 50
123.326292
 51
180.000005
  0
ARC
  5
38B
330
205
100
AcDbEntity
  8
5
  6
PHANTOM
100
AcDbCircle
 10
480.0989379999998
 20
302.264252
 30
0.0
 40
2.0
100
AcDbArc
 50
90.00000300000001
 51
123.326292
  0
ARC
  5
38C
330
205
100
AcDbEntity
  8
5
  6
PHANTOM
100
AcDbCircle
 10
474.200287
 20
298.385712
 30
0.0
 40
2.0
100
AcDbArc
 50
123.326292
 51
180.000005
  0
ARC
  5
38D
330
205
100
AcDbEntity
  8
1
  6
Continuous
100
AcDbCircle
 10
111.518478
 20
44.808289
 30
0.0
 40
4.518431999999998
100
AcDbArc
 50
141.1402709999999
 51
218.8597289999999
  0
ARC
  5
38E
330
205
100
AcDbEntity
  8
1
  6
Continuous
100
AcDbCircle
 10
116.875046
 20
51.973351
 30
0.0
 40
9.875
100
AcDbArc
 50
153.992176
 51
206.007824
  0
ARC
  5
38F
330
205
100
AcDbEntity
  8
1
  6
Continuous
100
AcDbCircle
 10
111.518478
 20
59.138412
 30
0.0
 40
4.518431999999998
100
AcDbArc
 50
141.1402709999999
 51
218.8597289999999
  0
ARC
  5
390
330
205
100
AcDbEntity
  8
1
  6
Continuous
100
AcDbCircle
 10
104.481613
 20
44.808289
 30
0.0
 40
4.518431999999998
100
AcDbArc
 50
321.1402759999999
 51
38.85972799999999
  0
ARC
  5
391
330
205
100
AcDbEntity
  8
1
  6
Continuous
100
AcDbCircle
 10
99.125046
 20
51.973351
 30
0.0
 40
9.875
100
AcDbArc
 50
333.9921779999999
 51
26.007825
  0
ARC
  5
392
330
205
100
AcDbEntity
  8
1
  6
Continuous
100
AcDbCircle
 10
104.481613
 20
59.138412
 30
0.0
 40
4.518431999999998
100
AcDbArc
 50
321.1402759999999
 51
38.85972799999999
  0
CIRCLE
  5
393
330
205
100
AcDbEntity
  8
1
  6
Continuous
100
AcDbCircle
 10
326.000183
 20
133.464249
 30
0.0
 40
8.0
  0
ARC
  5
394
330
205
100
AcDbEntity
  8
1
  6
Continuous
100
AcDbCircle
 10
326.000183
 20
133.464249
 30
0.0
 40
10.0
100
AcDbArc
 50
154.1580789999999
 51
25.841934
  0
CIRCLE
  5
395
330
205
100
AcDbEntity
  8
1
  6
Continuous
100
AcDbCircle
 10
36.0
 20
133.464249
 30
0.0
 40
10.0
  0
CIRCLE
  5
396
330
205
100
AcDbEntity
  8
1
  6
Continuous
100
AcDbCircle
 10
326.000183
 20
659.464233
 30
0.0
 40
8.0
  0
ARC
  5
397
330
205
100
AcDbEntity
  8
1
  6
Continuous
100
AcDbCircle
 10
326.000183
 20
659.464233
 30
0.0
 40
10.0
100
AcDbArc
 50
334.15807
 51
205.841932
  0
CIRCLE
  5
398
330
205
100
AcDbEntity
  8
1
  6
Continuous
100
AcDbCircle
 10
36.0
 20
659.464233
 30
0.0
 40
10.0
  0
ARC
  5
399
330
205
100
AcDbEntity
  8
1
  6
Continuous
100
AcDbCircle
 10
111.518478
 20
750.315186
 30
0.0
 40
4.518431999999998
100
AcDbArc
 50
141.1402709999999
 51
218.8597289999999
  0
ARC
  5
39A
330
205
100
AcDbEntity
  8
1
  6
Continuous
100
AcDbCircle
 10
116.875046
 20
743.1501459999997
 30
0.0
 40
9.875
100
AcDbArc
 50
153.992176
 51
206.007824
  0
ARC
  5
39B
330
205
100
AcDbEntity
  8
1
  6
Continuous
100
AcDbCircle
 10
111.518478
 20
735.985046
 30
0.0
 40
4.518431999999998
100
AcDbArc
 50
141.1402709999999
 51
218.8597289999999
  0
ARC
  5
39C
330
205
100
AcDbEntity
  8
1
  6
Continuous
100
AcDbCircle
 10
104.481613
 20
750.315186
 30
0.0
 40
4.518431999999998
100
AcDbArc
 50
321.1402759999999
 51
38.85972799999999
  0
ARC
  5
39D
330
205
100
AcDbEntity
  8
1
  6
Continuous
100
AcDbCircle
 10
99.125046
 20
743.1501459999997
 30
0.0
 40
9.875
100
AcDbArc
 50
333.9921779999999
 51
26.007825
  0
ARC
  5
39E
330
205
100
AcDbEntity
  8
1
  6
Continuous
100
AcDbCircle
 10
104.481613
 20
735.985046
 30
0.0
 40
4.518431999999998
100
AcDbArc
 50
321.1402759999999
 51
38.85972799999999
  0
ARC
  5
39F
330
205
100
AcDbEntity
  8
1
  6
Continuous
100
AcDbCircle
 10
540.4819029999998
 20
126.299179
 30
0.0
 40
4.518431999999998
100
AcDbArc
 50
321.1402759999999
 51
38.85972799999999
  0
ARC
  5
3A0
330
205
100
AcDbEntity
  8
1
  6
Continuous
100
AcDbCircle
 10
535.1253359999998
 20
133.464249
 30
0.0
 40
9.875
100
AcDbArc
 50
333.9921779999999
 51
26.007825
  0
ARC
  5
3A1
330
205
100
AcDbEntity
  8
1
  6
Continuous
100
AcDbCircle
 10
540.4819029999998
 20
140.629303
 30
0.0
 40
4.518431999999998
100
AcDbArc
 50
321.1402759999999
 51
38.85972799999999
  0
ARC
  5
3A2
330
205
100
AcDbEntity
  8
1
  6
Continuous
100
AcDbCircle
 10
547.518768
 20
126.299179
 30
0.0
 40
4.518431999999998
100
AcDbArc
 50
141.1402709999999
 51
218.8597289999999
  0
ARC
  5
3A3
330
205
100
AcDbEntity
  8
1
  6
Continuous
100
AcDbCircle
 10
552.8753359999998
 20
133.464249
 30
0.0
 40
9.875
100
AcDbArc
 50
153.992176
 51
206.007824
  0
ARC
  5
3A4
330
205
100
AcDbEntity
  8
1
  6
Continuous
100
AcDbCircle
 10
547.518768
 20
140.629303
 30
0.0
 40
4.518431999999998
100
AcDbArc
 50
141.1402709999999
 51
218.8597289999999
  0
ARC
  5
3A5
330
205
100
AcDbEntity
  8
1
  6
Continuous
100
AcDbCircle
 10
547.518768
 20
652.2991940000001
 30
0.0
 40
4.518431999999998
100
AcDbArc
 50
141.1402709999999
 51
218.8597289999999
  0
ARC
  5
3A6
330
205
100
AcDbEntity
  8
1
  6
Continuous
100
AcDbCircle
 10
552.8753359999998
 20
659.464233
 30
0.0
 40
9.875
100
AcDbArc
 50
153.992176
 51
206.007824
  0
ARC
  5
3A7
330
205
100
AcDbEntity
  8
1
  6
Continuous
100
AcDbCircle
 10
540.4819029999998
 20
666.629333
 30
0.0
 40
4.518431999999998
100
AcDbArc
 50
321.1402759999999
 51
38.85972799999999
  0
ARC
  5
3A8
330
205
100
AcDbEntity
  8
1
  6
Continuous
100
AcDbCircle
 10
547.518768
 20
666.629333
 30
0.0
 40
4.518431999999998
100
AcDbArc
 50
141.1402709999999
 51
218.8597289999999
  0
ARC
  5
3A9
330
205
100
AcDbEntity
  8
1
  6
Continuous
100
AcDbCircle
 10
540.4819029999998
 20
652.2991940000001
 30
0.0
 40
4.518431999999998
100
AcDbArc
 50
321.1402759999999
 51
38.85972799999999
  0
ARC
  5
3AA
330
205
100
AcDbEntity
  8
1
  6
Continuous
100
AcDbCircle
 10
535.1253359999998
 20
659.464233
 30
0.0
 40
9.875
100
AcDbArc
 50
333.9921779999999
 51
26.007825
  0
ARC
  5
3AB
330
205
100
AcDbEntity
  8
1
  6
Continuous
100
AcDbCircle
 10
176.0000919999999
 20
743.1501459999997
 30
0.0
 40
10.0
100
AcDbArc
 50
314.427004
 51
45.572996
  0
ARC
  5
3AC
330
205
100
AcDbEntity
  8
1
  6
Continuous
100
AcDbCircle
 10
176.0000919999999
 20
743.1501459999997
 30
0.0
 40
10.0
100
AcDbArc
 50
129.3343169999999
 51
230.6656789999999
  0
ARC
  5
3AD
330
205
100
AcDbEntity
  8
1
  6
Continuous
100
AcDbCircle
 10
178.0000919999999
 20
152.4642489999999
 30
0.0
 40
5.0
100
AcDbArc
 50
0.0
 51
90.00000300000001
  0
ARC
  5
3AE
330
205
100
AcDbEntity
  8
1
  6
Continuous
100
AcDbCircle
 10
171.901474
 20
152.2642519999999
 30
0.0
 40
5.2
100
AcDbArc
 50
56.67370999999999
 51
90.00000300000001
  0
ARC
  5
3AF
330
205
100
AcDbEntity
  8
1
  6
Continuous
100
AcDbCircle
 10
177.800095
 20
148.3856959999999
 30
0.0
 40
5.2
100
AcDbArc
 50
0.0
 51
56.67370999999999
  0
ARC
  5
3B0
330
205
100
AcDbEntity
  8
1
  6
Continuous
100
AcDbCircle
 10
177.800095
 20
148.3856959999999
 30
0.0
 40
2.0
100
AcDbArc
 50
0.0
 51
56.67370999999999
  0
ARC
  5
3B1
330
205
100
AcDbEntity
  8
1
  6
Continuous
100
AcDbCircle
 10
474.200287
 20
148.3856959999999
 30
0.0
 40
5.2
100
AcDbArc
 50
123.326292
 51
180.000005
  0
ARC
  5
3B2
330
205
100
AcDbEntity
  8
1
  6
Continuous
100
AcDbCircle
 10
474.200287
 20
148.3856959999999
 30
0.0
 40
2.0
100
AcDbArc
 50
123.326292
 51
180.000005
  0
ARC
  5
3B3
330
205
100
AcDbEntity
  8
1
  6
Continuous
100
AcDbCircle
 10
480.0989379999998
 20
152.2642519999999
 30
0.0
 40
5.2
100
AcDbArc
 50
90.00000300000001
 51
123.326292
  0
ARC
  5
3B4
330
205
100
AcDbEntity
  8
1
  6
Continuous
100
AcDbCircle
 10
474.0003049999998
 20
152.4642489999999
 30
0.0
 40
5.0
100
AcDbArc
 50
90.00000300000001
 51
180.000005
  0
ARC
  5
3B5
330
205
100
AcDbEntity
  8
1
  6
Continuous
100
AcDbCircle
 10
171.901474
 20
152.2642519999999
 30
0.0
 40
2.0
100
AcDbArc
 50
56.67370999999999
 51
90.00000300000001
  0
ARC
  5
3B6
330
205
100
AcDbEntity
  8
1
  6
Continuous
100
AcDbCircle
 10
480.0989379999998
 20
152.2642519999999
 30
0.0
 40
2.0
100
AcDbArc
 50
90.00000300000001
 51
123.326292
  0
ARC
  5
3B7
330
205
100
AcDbEntity
  8
1
  6
Continuous
100
AcDbCircle
 10
111.518478
 20
126.299179
 30
0.0
 40
4.518431999999998
100
AcDbArc
 50
141.1402709999999
 51
218.8597289999999
  0
ARC
  5
3B8
330
205
100
AcDbEntity
  8
1
  6
Continuous
100
AcDbCircle
 10
116.875046
 20
133.464249
 30
0.0
 40
9.875
100
AcDbArc
 50
153.992176
 51
206.007824
  0
ARC
  5
3B9
330
205
100
AcDbEntity
  8
1
  6
Continuous
100
AcDbCircle
 10
111.518478
 20
140.629303
 30
0.0
 40
4.518431999999998
100
AcDbArc
 50
141.1402709999999
 51
218.8597289999999
  0
ARC
  5
3BA
330
205
100
AcDbEntity
  8
1
  6
Continuous
100
AcDbCircle
 10
104.481613
 20
126.299179
 30
0.0
 40
4.518431999999998
100
AcDbArc
 50
321.1402759999999
 51
38.85972799999999
  0
ARC
  5
3BB
330
205
100
AcDbEntity
  8
1
  6
Continuous
100
AcDbCircle
 10
99.125046
 20
133.464249
 30
0.0
 40
9.875
100
AcDbArc
 50
333.9921779999999
 51
26.007825
  0
ARC
  5
3BC
330
205
100
AcDbEntity
  8
1
  6
Continuous
100
AcDbCircle
 10
104.481613
 20
140.629303
 30
0.0
 40
4.518431999999998
100
AcDbArc
 50
321.1402759999999
 51
38.85972799999999
  0
ARC
  5
3BD
330
205
100
AcDbEntity
  8
1
  6
Continuous
100
AcDbCircle
 10
111.518478
 20
666.629333
 30
0.0
 40
4.518431999999998
100
AcDbArc
 50
141.1402709999999
 51
218.8597289999999
  0
ARC
  5
3BE
330
205
100
AcDbEntity
  8
1
  6
Continuous
100
AcDbCircle
 10
116.875046
 20
659.464233
 30
0.0
 40
9.875
100
AcDbArc
 50
153.992176
 51
206.007824
  0
ARC
  5
3BF
330
205
100
AcDbEntity
  8
1
  6
Continuous
100
AcDbCircle
 10
111.518478
 20
652.2991940000001
 30
0.0
 40
4.518431999999998
100
AcDbArc
 50
141.1402709999999
 51
218.8597289999999
  0
ARC
  5
3C0
330
205
100
AcDbEntity
  8
1
  6
Continuous
100
AcDbCircle
 10
104.481613
 20
666.629333
 30
0.0
 40
4.518431999999998
100
AcDbArc
 50
321.1402759999999
 51
38.85972799999999
  0
ARC
  5
3C1
330
205
100
AcDbEntity
  8
1
  6
Continuous
100
AcDbCircle
 10
99.125046
 20
659.464233
 30
0.0
 40
9.875
100
AcDbArc
 50
333.9921779999999
 51
26.007825
  0
ARC
  5
3C2
330
205
100
AcDbEntity
  8
1
  6
Continuous
100
AcDbCircle
 10
104.481613
 20
652.2991940000001
 30
0.0
 40
4.518431999999998
100
AcDbArc
 50
321.1402759999999
 51
38.85972799999999
  0
TEXT
  5
3C3
330
205
100
AcDbEntity
  8
6
  6
Continuous
100
AcDbText
 10
27.97945
 20
10.0487
 30
0.0
 40
1.399999999999999
  1
6
 41
1.069393
100
AcDbText
  0
TEXT
  5
3C4
330
205
100
AcDbEntity
  8
1
  6
Continuous
100
AcDbText
 10
17.97945
 20
10.0487
 30
0.0
 40
1.399999999999999
  1
1
 41
1.069393
100
AcDbText
  0
TEXT
  5
3C5
330
205
100
AcDbEntity
  8
1
  6
Continuous
100
AcDbText
 10
9.99995
 20
10.0
 30
0.0
 40
1.399999999999999
  1
LAYER
 41
1.009912999999997
100
AcDbText
  0
TEXT
  5
3C6
330
205
100
AcDbEntity
  8
2
  6
Continuous
100
AcDbText
 10
19.97944999999998
 20
10.0487
 30
0.0
 40
1.399999999999999
  1
2
 41
1.069393
100
AcDbText
  0
TEXT
  5
3C7
330
205
100
AcDbEntity
  8
3
  6
DASHED
100
AcDbText
 10
21.97945
 20
10.0487
 30
0.0
 40
1.399999999999999
  1
3
 41
1.069393
100
AcDbText
  0
TEXT
  5
3C8
330
205
100
AcDbEntity
  8
4
  6
CENTER
100
AcDbText
 10
23.97944999999999
 20
10.0487
 30
0.0
 40
1.399999999999999
  1
4
 41
1.069393
100
AcDbText
  0
TEXT
  5
3C9
330
205
100
AcDbEntity
  8
5
  6
PHANTOM
100
AcDbText
 10
25.97945
 20
10.0487
 30
0.0
 40
1.399999999999999
  1
5
 41
1.069393
100
AcDbText
  0
TEXT
  5
3CA
330
205
100
AcDbEntity
  8
7
  6
Continuous
100
AcDbText
 10
10.00005
 20
26.0
 30
0.0
 40
3.0
  1
CODE No.5664
 41
1.003962999999999
100
AcDbText
  0
TEXT
  5
3CB
330
205
100
AcDbEntity
  8
7
  6
Continuous
100
AcDbText
 10
10.00005
 20
18.0
 30
0.0
 40
3.0
  1
TYPE No.TM-150-150-40
 41
1.002237
100
AcDbText
  0
TEXT
  5
3CC
330
205
100
AcDbEntity
  8
7
  6
Continuous
100
AcDbText
 10
29.97944999999999
 20
10.0487
 30
0.0
 40
1.399999999999999
  1
7
 41
1.069393
100
AcDbText
  0
ARC
  5
3CD
330
205
100
AcDbEntity
  8
1
  6
Continuous
100
AcDbCircle
 10
176.0000919999999
 20
743.1501459999997
 30
0.0
 40
11.0
100
AcDbArc
 50
56.45420999999998
 51
103.04537
  0
ARC
  5
3CE
330
205
100
AcDbEntity
  8
1
  6
Continuous
100
AcDbCircle
 10
176.0000919999999
 20
743.1501459999997
 30
0.0
 40
11.0
100
AcDbArc
 50
309.5211959999998
 51
50.478804
  0
ENDSEC
  0
SECTION
  2
OBJECTS
  0
DICTIONARY
  5
1F3
330
0
100
AcDbDictionary
281
     1
  3
ACAD_CIP_PREVIOUS_PRODUCT_INFO
350
434
  3
ACAD_COLOR
350
416
  3
ACAD_DETAILVIEWSTYLE
350
42F
  3
ACAD_GROUP
350
1F4
  3
ACAD_LAYOUT
350
200
  3
ACAD_MATERIAL
350
3E4
  3
ACAD_MLEADERSTYLE
350
42B
  3
ACAD_MLINESTYLE
350
1FD
  3
ACAD_PLOTSETTINGS
350
1FF
  3
ACAD_PLOTSTYLENAME
350
3E2
  3
ACAD_SCALELIST
350
419
  3
ACAD_SECTIONVIEWSTYLE
350
42D
  3
ACAD_TABLESTYLE
350
417
  3
ACAD_VISUALSTYLE
350
3FD
  3
ACDB_RECOMPOSE_DATA
350
452
  3
AcDbVariableDictionary
350
445
  3
DWGPROPS
350
453
  0
DICTIONARY
  5
435
330
1F7
100
AcDbDictionary
280
     1
281
     1
  3
ADSK_XREC_LAYER_RECONCILED
360
436
  0
DICTIONARY
  5
437
330
20D
100
AcDbDictionary
280
     1
281
     1
  3
ADSK_XREC_LAYER_RECONCILED
360
438
  0
DICTIONARY
  5
439
330
20E
100
AcDbDictionary
280
     1
281
     1
  3
ADSK_XREC_LAYER_RECONCILED
360
43A
  0
DICTIONARY
  5
43B
330
20F
100
AcDbDictionary
280
     1
281
     1
  3
ADSK_XREC_LAYER_RECONCILED
360
43C
  0
DICTIONARY
  5
43D
330
210
100
AcDbDictionary
280
     1
281
     1
  3
ADSK_XREC_LAYER_RECONCILED
360
43E
  0
DICTIONARY
  5
43F
330
211
100
AcDbDictionary
280
     1
281
     1
  3
ADSK_XREC_LAYER_RECONCILED
360
440
  0
DICTIONARY
  5
441
330
212
100
AcDbDictionary
280
     1
281
     1
  3
ADSK_XREC_LAYER_RECONCILED
360
442
  0
DICTIONARY
  5
443
330
213
100
AcDbDictionary
280
     1
281
     1
  3
ADSK_XREC_LAYER_RECONCILED
360
444
  0
DICTIONARY
  5
3DD
330
205
100
AcDbDictionary
281
     1
  3
ACAD_LAYOUTSELFREF
350
3DE
  0
DICTIONARY
  5
3DB
330
201
100
AcDbDictionary
281
     1
  3
ACAD_LAYOUTSELFREF
350
3DC
  0
XRECORD
  5
434
102
{ACAD_REACTORS
330
1F3
102
}
330
1F3
100
AcDbXrecord
280
     1
300
ACDLT
300
2014
300
ACDLT_F_S
  0
DICTIONARY
  5
416
102
{ACAD_REACTORS
330
1F3
102
}
330
1F3
100
AcDbDictionary
281
     1
  0
DICTIONARY
  5
42F
102
{ACAD_REACTORS
330
1F3
102
}
330
1F3
100
AcDbDictionary
281
     1
  3
Imperial24
350
430
  0
DICTIONARY
  5
1F4
102
{ACAD_REACTORS
330
1F3
102
}
330
1F3
100
AcDbDictionary
281
     1
  0
DICTIONARY
  5
200
102
{ACAD_REACTORS
330
1F3
102
}
330
1F3
100
AcDbDictionary
281
     1
  3
Model
350
431
  3
レイアウト1
350
432
  0
DICTIONARY
  5
3E4
102
{ACAD_REACTORS
330
1F3
102
}
330
1F3
100
AcDbDictionary
281
     1
  3
ByBlock
350
3ED
  3
ByLayer
350
3E5
  3
Global
350
3F5
  0
DICTIONARY
  5
42B
102
{ACAD_REACTORS
330
1F3
102
}
330
1F3
100
AcDbDictionary
281
     1
  3
Standard
350
42C
  0
DICTIONARY
  5
1FD
102
{ACAD_REACTORS
330
1F3
102
}
330
1F3
100
AcDbDictionary
281
     1
  3
STANDARD
350
1FE
  0
DICTIONARY
  5
1FF
102
{ACAD_REACTORS
330
1F3
102
}
330
1F3
100
AcDbDictionary
281
     1
  0
ACDBDICTIONARYWDFLT
  5
3E2
102
{ACAD_REACTORS
330
1F3
102
}
330
1F3
100
AcDbDictionary
281
     1
  3
Normal
350
3E3
100
AcDbDictionaryWithDefault
340
3E3
  0
DICTIONARY
  5
419
102
{ACAD_REACTORS
330
1F3
102
}
330
1F3
100
AcDbDictionary
281
     1
  3
A0
350
41A
  3
A1
350
41B
  3
A2
350
41C
  3
A3
350
41D
  3
A4
350
41E
  3
A5
350
41F
  3
A6
350
420
  3
A7
350
421
  3
A8
350
422
  3
A9
350
423
  3
B0
350
424
  3
B1
350
425
  3
B2
350
426
  3
B3
350
427
  3
B4
350
428
  3
B5
350
429
  3
B6
350
42A
  0
DICTIONARY
  5
42D
102
{ACAD_REACTORS
330
1F3
102
}
330
1F3
100
AcDbDictionary
281
     1
  3
Imperial24
350
42E
  0
DICTIONARY
  5
417
102
{ACAD_REACTORS
330
1F3
102
}
330
1F3
100
AcDbDictionary
281
     1
  3
Standard
350
418
  0
DICTIONARY
  5
3FD
102
{ACAD_REACTORS
330
1F3
102
}
330
1F3
100
AcDbDictionary
281
     1
  3
2dWireframe
350
403
  3
Basic
350
402
  3
Brighten
350
409
  3
ColorChange
350
40D
  3
Conceptual
350
406
  3
Dim
350
408
  3
EdgeColorOff
350
415
  3
Facepattern
350
40C
  3
Flat
350
3FE
  3
FlatWithEdges
350
3FF
  3
Gouraud
350
400
  3
GouraudWithEdges
350
401
  3
Hidden
350
405
  3
JitterOff
350
413
  3
Linepattern
350
40B
  3
OverhangOff
350
414
  3
Realistic
350
407
  3
Shaded
350
412
  3
Shaded with edges
350
411
  3
Shades of Gray
350
40E
  3
Sketchy
350
40F
  3
Thicken
350
40A
  3
Wireframe
350
404
  3
X-Ray
350
410
  0
XRECORD
  5
452
102
{ACAD_REACTORS
330
1F3
102
}
330
1F3
100
AcDbXrecord
280
     1
 90
        1
330
418
  0
DICTIONARY
  5
445
102
{ACAD_REACTORS
330
1F3
102
}
330
1F3
100
AcDbDictionary
281
     1
  3
CANNOSCALE
350
44A
  3
CMLEADERSTYLE
350
447
  3
CTABLESTYLE
350
446
  3
CVIEWDETAILSTYLE
350
448
  3
CVIEWSECTIONSTYLE
350
449
  3
DIMASSOC
350
44D
  3
INDEXCTL
350
44C
  3
SORTENTS
350
44B
  3
XCLIPFRAME
350
44E
  0
XRECORD
  5
453
102
{ACAD_REACTORS
330
1F3
102
}
330
1F3
100
AcDbXrecord
280
     1
  1
DWGPROPS COOKIE
  2

  3

  4

  6

  7

  8
Yoshitsune
  9

300
=
301
=
302
=
303
=
304
=
305
=
306
=
307
=
308
=
309
=
 40
0.0000140509259259
 41
2451069.67922419
 42
2457192.621085602
  1

 90
        0
  0
XRECORD
  5
436
102
{ACAD_REACTORS
330
435
102
}
330
435
100
AcDbXrecord
280
     1
290
     1
  0
XRECORD
  5
438
102
{ACAD_REACTORS
330
437
102
}
330
437
100
AcDbXrecord
280
     1
290
     1
  0
XRECORD
  5
43A
102
{ACAD_REACTORS
330
439
102
}
330
439
100
AcDbXrecord
280
     1
290
     1
  0
XRECORD
  5
43C
102
{ACAD_REACTORS
330
43B
102
}
330
43B
100
AcDbXrecord
280
     1
290
     1
  0
XRECORD
  5
43E
102
{ACAD_REACTORS
330
43D
102
}
330
43D
100
AcDbXrecord
280
     1
290
     1
  0
XRECORD
  5
440
102
{ACAD_REACTORS
330
43F
102
}
330
43F
100
AcDbXrecord
280
     1
290
     1
  0
XRECORD
  5
442
102
{ACAD_REACTORS
330
441
102
}
330
441
100
AcDbXrecord
280
     1
290
     1
  0
XRECORD
  5
444
102
{ACAD_REACTORS
330
443
102
}
330
443
100
AcDbXrecord
280
     1
290
     1
  0
XRECORD
  5
3DE
102
{ACAD_REACTORS
330
3DD
102
}
330
3DD
100
AcDbXrecord
280
     1
340
205
  0
XRECORD
  5
3DC
102
{ACAD_REACTORS
330
3DB
102
}
330
3DB
100
AcDbXrecord
280
     1
340
201
  0
ACDBDETAILVIEWSTYLE
  5
430
102
{ACAD_XDICTIONARY
360
48B
102
}
102
{ACAD_REACTORS
330
42F
102
}
330
42F
100
AcDbModelDocViewStyle
 70
     0
  3
Imperial24
290
     0
100
AcDbDetailViewStyle
 70
     0
 71
     0
 90
        3
 71
     1
340
1F8
 40
0.24
340
0
 40
0.24
300

 40
0.36
280
     3
 71
     2
340
1FC
 90
       25
 71
     3
340
1F8
 40
0.24
 90
        1
 40
0.75
 90
        1
300
%<\AcVar ViewType \f "%tc1">% %<\AcVar ViewDetailId>%\PSCALE %<\AcVar ViewScale \f "%sn">%
 71
     4
340
1FC
 90
       25
340
1FC
 90
       25
280
     0
  0
LAYOUT
  5
431
102
{ACAD_XDICTIONARY
360
48D
102
}
102
{ACAD_REACTORS
330
200
102
}
330
200
100
AcDbPlotSettings
  1

  2
Canon LBP9100C
  4

  6

 40
0.0
 41
0.0
 42
0.0
 43
0.0
 44
0.0
 45
0.0
 46
0.0
 47
0.0
 48
0.0
 49
0.0
140
0.0
141
0.0
142
1.0
143
1.0
 70
  1712
 72
     0
 73
     0
 74
     0
  7

 75
     0
147
1.0
148
0.0
149
0.0
100
AcDbLayout
  1
Model
 70
     1
 71
     0
 10
0.0
 20
0.0
 11
12.0
 21
9.0
 12
0.0
 22
0.0
 32
0.0
 14
0.0
 24
0.0
 34
0.0
 15
0.0
 25
0.0
 35
0.0
146
0.0
 13
0.0
 23
0.0
 33
0.0
 16
1.0
 26
0.0
 36
0.0
 17
0.0
 27
1.0
 37
0.0
 76
     0
330
205
331
3DA
  0
LAYOUT
  5
432
102
{ACAD_XDICTIONARY
360
48F
102
}
102
{ACAD_REACTORS
330
200
102
}
330
200
100
AcDbPlotSettings
  1

  2
Canon LBP9100C
  4

  6

 40
0.0
 41
0.0
 42
0.0
 43
0.0
 44
0.0
 45
0.0
 46
0.0
 47
0.0
 48
0.0
 49
0.0
140
0.0
141
0.0
142
1.0
143
1.0
 70
   688
 72
     0
 73
     0
 74
     5
  7

 75
    16
147
1.0
148
0.0
149
0.0
100
AcDbLayout
  1
レイアウト1
 70
     0
 71
     1
 10
0.0
 20
0.0
 11
420.0
 21
297.0
 12
0.0
 22
0.0
 32
0.0
 14
1.000000000000000E+20
 24
1.000000000000000E+20
 34
1.000000000000000E+20
 15
-1.000000000000000E+20
 25
-1.000000000000000E+20
 35
-1.000000000000000E+20
146
0.0
 13
0.0
 23
0.0
 33
0.0
 16
1.0
 26
0.0
 36
0.0
 17
0.0
 27
1.0
 37
0.0
 76
     0
330
201
  0
MATERIAL
  5
3ED
102
{ACAD_XDICTIONARY
360
3EE
102
}
102
{ACAD_REACTORS
330
3E4
102
}
330
3E4
100
AcDbMaterial
  1
ByBlock
 72
     0
 43
0.0208333333333333
 43
0.0
 43
0.0
 43
0.0
 43
0.0
 43
0.0208333333333333
 43
0.0
 43
0.0
 43
0.0
 43
0.0
 43
1.0
 43
0.0
 43
0.0
 43
0.0
 43
0.0
 43
1.0
 77
     0
 47
0.0208333333333333
 47
0.0
 47
0.0
 47
0.0
 47
0.0
 47
0.0208333333333333
 47
0.0
 47
0.0
 47
0.0
 47
0.0
 47
1.0
 47
0.0
 47
0.0
 47
0.0
 47
0.0
 47
1.0
171
     0
 49
0.0208333333333333
 49
0.0
 49
0.0
 49
0.0
 49
0.0
 49
0.0208333333333333
 49
0.0
 49
0.0
 49
0.0
 49
0.0
 49
1.0
 49
0.0
 49
0.0
 49
0.0
 49
0.0
 49
1.0
175
     0
142
0.0208333333333333
142
0.0
142
0.0
142
0.0
142
0.0
142
0.0208333333333333
142
0.0
142
0.0
142
0.0
142
0.0
142
1.0
142
0.0
142
0.0
142
0.0
142
0.0
142
1.0
179
     0
144
0.0208333333333333
144
0.0
144
0.0
144
0.0
144
0.0
144
0.0208333333333333
144
0.0
144
0.0
144
0.0
144
0.0
144
1.0
144
0.0
144
0.0
144
0.0
144
0.0
144
1.0
147
0.0208333333333333
147
0.0
147
0.0
147
0.0
147
0.0
147
0.0208333333333333
147
0.0
147
0.0
147
0.0
147
0.0
147
1.0
147
0.0
147
0.0
147
0.0
147
0.0
147
1.0
  0
MATERIAL
  5
3E5
102
{ACAD_XDICTIONARY
360
3E6
102
}
102
{ACAD_REACTORS
330
3E4
102
}
330
3E4
100
AcDbMaterial
  1
ByLayer
 72
     0
 43
0.0208333333333333
 43
0.0
 43
0.0
 43
0.0
 43
0.0
 43
0.0208333333333333
 43
0.0
 43
0.0
 43
0.0
 43
0.0
 43
1.0
 43
0.0
 43
0.0
 43
0.0
 43
0.0
 43
1.0
 77
     0
 47
0.0208333333333333
 47
0.0
 47
0.0
 47
0.0
 47
0.0
 47
0.0208333333333333
 47
0.0
 47
0.0
 47
0.0
 47
0.0
 47
1.0
 47
0.0
 47
0.0
 47
0.0
 47
0.0
 47
1.0
171
     0
 49
0.0208333333333333
 49
0.0
 49
0.0
 49
0.0
 49
0.0
 49
0.0208333333333333
 49
0.0
 49
0.0
 49
0.0
 49
0.0
 49
1.0
 49
0.0
 49
0.0
 49
0.0
 49
0.0
 49
1.0
175
     0
142
0.0208333333333333
142
0.0
142
0.0
142
0.0
142
0.0
142
0.0208333333333333
142
0.0
142
0.0
142
0.0
142
0.0
142
1.0
142
0.0
142
0.0
142
0.0
142
0.0
142
1.0
179
     0
144
0.0208333333333333
144
0.0
144
0.0
144
0.0
144
0.0
144
0.0208333333333333
144
0.0
144
0.0
144
0.0
144
0.0
144
1.0
144
0.0
144
0.0
144
0.0
144
0.0
144
1.0
147
0.0208333333333333
147
0.0
147
0.0
147
0.0
147
0.0
147
0.0208333333333333
147
0.0
147
0.0
147
0.0
147
0.0
147
1.0
147
0.0
147
0.0
147
0.0
147
0.0
147
1.0
  0
MATERIAL
  5
3F5
102
{ACAD_XDICTIONARY
360
3F6
102
}
102
{ACAD_REACTORS
330
3E4
102
}
330
3E4
100
AcDbMaterial
  1
Global
 72
     0
 43
0.0208333333333333
 43
0.0
 43
0.0
 43
0.0
 43
0.0
 43
0.0208333333333333
 43
0.0
 43
0.0
 43
0.0
 43
0.0
 43
1.0
 43
0.0
 43
0.0
 43
0.0
 43
0.0
 43
1.0
 77
     0
 47
0.0208333333333333
 47
0.0
 47
0.0
 47
0.0
 47
0.0
 47
0.0208333333333333
 47
0.0
 47
0.0
 47
0.0
 47
0.0
 47
1.0
 47
0.0
 47
0.0
 47
0.0
 47
0.0
 47
1.0
171
     0
 49
0.0208333333333333
 49
0.0
 49
0.0
 49
0.0
 49
0.0
 49
0.0208333333333333
 49
0.0
 49
0.0
 49
0.0
 49
0.0
 49
1.0
 49
0.0
 49
0.0
 49
0.0
 49
0.0
 49
1.0
175
     0
142
0.0208333333333333
142
0.0
142
0.0
142
0.0
142
0.0
142
0.0208333333333333
142
0.0
142
0.0
142
0.0
142
0.0
142
1.0
142
0.0
142
0.0
142
0.0
142
0.0
142
1.0
179
     0
144
0.0208333333333333
144
0.0
144
0.0
144
0.0
144
0.0
144
0.0208333333333333
144
0.0
144
0.0
144
0.0
144
0.0
144
1.0
144
0.0
144
0.0
144
0.0
144
0.0
144
1.0
147
0.0208333333333333
147
0.0
147
0.0
147
0.0
147
0.0
147
0.0208333333333333
147
0.0
147
0.0
147
0.0
147
0.0
147
1.0
147
0.0
147
0.0
147
0.0
147
0.0
147
1.0
  0
MLEADERSTYLE
  5
42C
102
{ACAD_REACTORS
330
42B
102
}
330
42B
100
AcDbMLeaderStyle
170
     2
171
     1
172
     0
 90
        2
 40
0.0
 41
0.0
173
     1
 91
-1056964608
340
1FA
 92
       -2
290
     1
 42
0.09
291
     1
 43
0.36
  3
Standard
 44
0.18
300

342
1F8
174
     1
178
     6
175
     1
176
     0
 93
-1056964608
 45
0.18
292
     0
297
     0
 46
0.18
 94
-1056964608
 47
1.0
 49
1.0
140
1.0
293
     1
141
0.0
294
     1
177
     0
142
1.0
295
     0
296
     0
143
0.125
1001
ACAD_MLEADERVER
1070
     2
  0
MLINESTYLE
  5
1FE
102
{ACAD_REACTORS
330
1FD
102
}
330
1FD
100
AcDbMlineStyle
  2
STANDARD
 70
     0
  3

 62
   256
 51
90.0
 52
90.0
 71
     2
 49
0.5
 62
   256
  6
BYLAYER
 49
-0.5
 62
   256
  6
BYLAYER
  0
ACDBPLACEHOLDER
  5
3E3
102
{ACAD_REACTORS
330
3E2
102
}
330
3E2
  0
SCALE
  5
41A
102
{ACAD_REACTORS
330
419
102
}
330
419
100
AcDbScale
 70
     0
300
1:1
140
1.0
141
1.0
290
     1
  0
SCALE
  5
41B
102
{ACAD_REACTORS
330
419
102
}
330
419
100
AcDbScale
 70
     0
300
1/128" = 1'-0"
140
0.0078125
141
12.0
290
     0
  0
SCALE
  5
41C
102
{ACAD_REACTORS
330
419
102
}
330
419
100
AcDbScale
 70
     0
300
1/64" = 1'-0"
140
0.015625
141
12.0
290
     0
  0
SCALE
  5
41D
102
{ACAD_REACTORS
330
419
102
}
330
419
100
AcDbScale
 70
     0
300
1/32" = 1'-0"
140
0.03125
141
12.0
290
     0
  0
SCALE
  5
41E
102
{ACAD_REACTORS
330
419
102
}
330
419
100
AcDbScale
 70
     0
300
1/16" = 1'-0"
140
0.0625
141
12.0
290
     0
  0
SCALE
  5
41F
102
{ACAD_REACTORS
330
419
102
}
330
419
100
AcDbScale
 70
     0
300
3/32" = 1'-0"
140
0.09375
141
12.0
290
     0
  0
SCALE
  5
420
102
{ACAD_REACTORS
330
419
102
}
330
419
100
AcDbScale
 70
     0
300
1/8" = 1'-0"
140
0.125
141
12.0
290
     0
  0
SCALE
  5
421
102
{ACAD_REACTORS
330
419
102
}
330
419
100
AcDbScale
 70
     0
300
3/16" = 1'-0"
140
0.1875
141
12.0
290
     0
  0
SCALE
  5
422
102
{ACAD_REACTORS
330
419
102
}
330
419
100
AcDbScale
 70
     0
300
1/4" = 1'-0"
140
0.25
141
12.0
290
     0
  0
SCALE
  5
423
102
{ACAD_REACTORS
330
419
102
}
330
419
100
AcDbScale
 70
     0
300
3/8" = 1'-0"
140
0.375
141
12.0
290
     0
  0
SCALE
  5
424
102
{ACAD_REACTORS
330
419
102
}
330
419
100
AcDbScale
 70
     0
300
1/2" = 1'-0"
140
0.5
141
12.0
290
     0
  0
SCALE
  5
425
102
{ACAD_REACTORS
330
419
102
}
330
419
100
AcDbScale
 70
     0
300
3/4" = 1'-0"
140
0.75
141
12.0
290
     0
  0
SCALE
  5
426
102
{ACAD_REACTORS
330
419
102
}
330
419
100
AcDbScale
 70
     0
300
1" = 1'-0"
140
1.0
141
12.0
290
     0
  0
SCALE
  5
427
102
{ACAD_REACTORS
330
419
102
}
330
419
100
AcDbScale
 70
     0
300
1-1/2" = 1'-0"
140
1.5
141
12.0
290
     0
  0
SCALE
  5
428
102
{ACAD_REACTORS
330
419
102
}
330
419
100
AcDbScale
 70
     0
300
3" = 1'-0"
140
3.0
141
12.0
290
     0
  0
SCALE
  5
429
102
{ACAD_REACTORS
330
419
102
}
330
419
100
AcDbScale
 70
     0
300
6" = 1'-0"
140
6.0
141
12.0
290
     0
  0
SCALE
  5
42A
102
{ACAD_REACTORS
330
419
102
}
330
419
100
AcDbScale
 70
     0
300
1'-0" = 1'-0"
140
12.0
141
12.0
290
     0
  0
ACDBSECTIONVIEWSTYLE
  5
42E
102
{ACAD_XDICTIONARY
360
489
102
}
102
{ACAD_REACTORS
330
42D
102
}
330
42D
100
AcDbModelDocViewStyle
 70
     0
  3
Imperial24
290
     0
100
AcDbSectionViewStyle
 70
     0
 71
     0
 90
       78
 71
     1
340
1F8
 40
0.24
340
0
340
0
 40
0.24
300
I, O, Q, S, X, Z
 40
0.48
 90
        3
 40
0.18
 90
        1
 71
     2
340
1FC
 90
       25
340
1FC
 90
       50
 40
0.24
 40
0.0
 40
0.24
 71
     3
340
1F8
 40
0.24
 90
        1
 40
0.75
 90
        1
300
%<\AcVar ViewType \f "%tc1">% %<\AcVar ViewSectionStartId>%-%<\AcVar ViewSectionEndId>%\PSCALE %<\AcVar ViewScale \f "%sn">%
 71
     4
300
ANSI31
 40
1.0
 90
        0
290
     0
290
     0
 90
        6
 40
0.0
 40
1.570796326794896
 40
0.2617993877991494
 40
1.308996938995747
 40
-0.2617993877991494
 40
1.832595714594046
  0
TABLESTYLE
  5
418
102
{ACAD_XDICTIONARY
360
450
102
}
102
{ACAD_REACTORS
330
417
102
}
330
417
100
AcDbTableStyle
  3
Standard
 70
     0
 71
     0
 40
0.06
 41
0.06
280
     0
281
     0
  7
STANDARD
140
0.18
170
     2
 62
     0
 63
     7
283
     0
274
    -2
284
     1
 64
     0
275
    -2
285
     1
 65
     0
276
    -2
286
     1
 66
     0
277
    -2
287
     1
 67
     0
278
    -2
288
     1
 68
     0
279
    -2
289
     1
 69
     0
  7
STANDARD
140
0.25
170
     5
 62
     0
 63
     7
283
     0
274
    -2
284
     1
 64
     0
275
    -2
285
     1
 65
     0
276
    -2
286
     1
 66
     0
277
    -2
287
     1
 67
     0
278
    -2
288
     1
 68
     0
279
    -2
289
     1
 69
     0
  7
STANDARD
140
0.18
170
     5
 62
     0
 63
     7
283
     0
274
    -2
284
     1
 64
     0
275
    -2
285
     1
 65
     0
276
    -2
286
     1
 66
     0
277
    -2
287
     1
 67
     0
278
    -2
288
     1
 68
     0
279
    -2
289
     1
 69
     0
  0
VISUALSTYLE
  5
403
102
{ACAD_XDICTIONARY
360
461
102
}
102
{ACAD_REACTORS
330
3FD
102
}
330
3FD
100
AcDbVisualStyle
  2
2dWireframe
 70
     4
 71
     0
 72
     2
 73
     0
 90
        0
 40
-0.6
 41
-30.0
 62
     5
 63
     7
 74
     1
 91
        4
 64
     7
 65
   257
 75
     1
175
     1
 42
1.0
 92
        0
 66
   257
 43
1.0
 76
     1
 77
     6
 78
     2
 67
     7
 79
     5
170
     0
171
     0
290
     0
174
     0
 93
        1
 44
0.0
173
     0
291
     0
 45
0.0
1001
ACAD
1000
AcDbSavedByObjectVersion
1070
     0
  0
VISUALSTYLE
  5
402
102
{ACAD_XDICTIONARY
360
45F
102
}
102
{ACAD_REACTORS
330
3FD
102
}
330
3FD
100
AcDbVisualStyle
  2
Basic
 70
     7
 71
     1
 72
     0
 73
     1
 90
        0
 40
-0.6
 41
-30.0
 62
     5
 63
     7
 74
     0
 91
        4
 64
     7
 65
   257
 75
     1
175
     1
 42
1.0
 92
        8
 66
     7
 43
1.0
 76
     1
 77
     6
 78
     2
 67
     7
 79
     5
170
     0
171
     0
290
     0
174
     0
 93
        1
 44
0.0
173
     0
291
     1
 45
0.0
1001
ACAD
1000
AcDbSavedByObjectVersion
1070
     0
  0
VISUALSTYLE
  5
409
102
{ACAD_XDICTIONARY
360
46D
102
}
102
{ACAD_REACTORS
330
3FD
102
}
330
3FD
100
AcDbVisualStyle
  2
Brighten
 70
    12
 71
     2
 72
     2
 73
     0
 90
        0
 40
-0.6
 41
-30.0
 62
     5
 63
     7
 74
     1
 91
        4
 64
     7
 65
   257
 75
     1
175
     1
 42
1.0
 92
        8
 66
     7
 43
1.0
 76
     1
 77
     6
 78
     2
 67
     7
 79
     5
170
     0
171
     0
290
     0
174
     0
 93
        1
 44
50.0
173
     0
291
     1
 45
0.0
1001
ACAD
1000
AcDbSavedByObjectVersion
1070
     0
  0
VISUALSTYLE
  5
40D
102
{ACAD_XDICTIONARY
360
475
102
}
102
{ACAD_REACTORS
330
3FD
102
}
330
3FD
100
AcDbVisualStyle
  2
ColorChange
 70
    16
 71
     2
 72
     2
 73
     3
 90
        0
 40
-0.6
 41
-30.0
 62
     5
 63
     8
 74
     1
 91
        4
 64
     7
 65
   257
 75
     1
175
     1
 42
1.0
 92
        8
 66
     8
 43
1.0
 76
     1
 77
     6
 78
     2
 67
     7
 79
     5
170
     0
171
     0
290
     0
174
     0
 93
        1
 44
0.0
173
     0
291
     1
 45
0.0
1001
ACAD
1000
AcDbSavedByObjectVersion
1070
     0
  0
VISUALSTYLE
  5
406
102
{ACAD_XDICTIONARY
360
467
102
}
102
{ACAD_REACTORS
330
3FD
102
}
330
3FD
100
AcDbVisualStyle
  2
Conceptual
 70
     9
 71
     3
 72
     2
 73
     0
 90
        0
 40
-0.6
 41
-30.0
 62
     5
 63
     7
 74
     2
 91
        2
 64
     7
 65
   257
 75
     1
175
     1
 42
179.0
 92
        8
 66
     7
 43
1.0
 76
     1
 77
     6
 78
     2
 67
     7
 79
     3
170
     0
171
     0
290
     0
174
     0
 93
        1
 44
0.0
173
     0
291
     0
 45
0.0
1001
ACAD
1000
AcDbSavedByObjectVersion
1070
     0
  0
VISUALSTYLE
  5
408
102
{ACAD_XDICTIONARY
360
46B
102
}
102
{ACAD_REACTORS
330
3FD
102
}
330
3FD
100
AcDbVisualStyle
  2
Dim
 70
    11
 71
     2
 72
     2
 73
     0
 90
        0
 40
-0.6
 41
-30.0
 62
     5
 63
     7
 74
     1
 91
        4
 64
     7
 65
   257
 75
     1
175
     1
 42
1.0
 92
        8
 66
     7
 43
1.0
 76
     1
 77
     6
 78
     2
 67
     7
 79
     5
170
     0
171
     0
290
     0
174
     0
 93
        1
 44
-50.0
173
     0
291
     1
 45
0.0
1001
ACAD
1000
AcDbSavedByObjectVersion
1070
     0
  0
VISUALSTYLE
  5
415
102
{ACAD_XDICTIONARY
360
485
102
}
102
{ACAD_REACTORS
330
3FD
102
}
330
3FD
100
AcDbVisualStyle
  2
EdgeColorOff
 70
    22
 71
     2
 72
     2
 73
     0
 90
        0
 40
-0.6
 41
-30.0
 62
     5
 63
     7
 74
     1
 91
        4
 64
     7
 65
   257
 75
     1
175
     1
 42
1.0
 92
        8
 66
     7
 43
1.0
 76
     1
 77
     6
 78
     2
 67
     7
 79
     5
170
     0
171
     0
290
     0
174
     0
 93
        1
 44
0.0
173
     0
291
     1
 45
0.0
1001
ACAD
1000
AcDbSavedByObjectVersion
1070
     0
  0
VISUALSTYLE
  5
40C
102
{ACAD_XDICTIONARY
360
473
102
}
102
{ACAD_REACTORS
330
3FD
102
}
330
3FD
100
AcDbVisualStyle
  2
Facepattern
 70
    15
 71
     2
 72
     2
 73
     0
 90
        0
 40
-0.6
 41
-30.0
 62
     5
 63
     7
 74
     1
 91
        4
 64
     7
 65
   257
 75
     1
175
     1
 42
1.0
 92
        8
 66
     7
 43
1.0
 76
     1
 77
     6
 78
     2
 67
     7
 79
     5
170
     0
171
     0
290
     0
174
     0
 93
        1
 44
0.0
173
     0
291
     1
 45
0.0
1001
ACAD
1000
AcDbSavedByObjectVersion
1070
     0
  0
VISUALSTYLE
  5
3FE
102
{ACAD_XDICTIONARY
360
457
102
}
102
{ACAD_REACTORS
330
3FD
102
}
330
3FD
100
AcDbVisualStyle
  2
Flat
 70
     0
 71
     2
 72
     1
 73
     1
 90
        2
 40
-0.6
 41
30.0
 62
     5
 63
     7
 74
     0
 91
        0
 64
     7
 65
   257
 75
     1
175
     1
 42
1.0
 92
        8
 66
     7
 43
1.0
 76
     1
 77
     6
 78
     2
 67
     7
 79
     5
170
     0
171
     0
290
     0
174
     0
 93
       13
 44
0.0
173
     0
291
     1
 45
0.0
1001
ACAD
1000
AcDbSavedByObjectVersion
1070
     0
  0
VISUALSTYLE
  5
3FF
102
{ACAD_XDICTIONARY
360
459
102
}
102
{ACAD_REACTORS
330
3FD
102
}
330
3FD
100
AcDbVisualStyle
  2
FlatWithEdges
 70
     1
 71
     2
 72
     1
 73
     1
 90
        2
 40
-0.6
 41
30.0
 62
     5
 63
     7
 74
     1
 91
        0
 64
     7
 65
   257
 75
     1
175
     1
 42
1.0
 92
        0
 66
   257
 43
1.0
 76
     1
 77
     6
 78
     2
 67
     7
 79
     5
170
     0
171
     0
290
     0
174
     0
 93
       13
 44
0.0
173
     0
291
     1
 45
0.0
1001
ACAD
1000
AcDbSavedByObjectVersion
1070
     0
  0
VISUALSTYLE
  5
400
102
{ACAD_XDICTIONARY
360
45B
102
}
102
{ACAD_REACTORS
330
3FD
102
}
330
3FD
100
AcDbVisualStyle
  2
Gouraud
 70
     2
 71
     2
 72
     2
 73
     1
 90
        2
 40
-0.6
 41
30.0
 62
     5
 63
     7
 74
     0
 91
        0
 64
     7
 65
   257
 75
     1
175
     1
 42
1.0
 92
        0
 66
     7
 43
1.0
 76
     1
 77
     6
 78
     2
 67
     7
 79
     5
170
     0
171
     0
290
     0
174
     0
 93
       13
 44
0.0
173
     0
291
     1
 45
0.0
1001
ACAD
1000
AcDbSavedByObjectVersion
1070
     0
  0
VISUALSTYLE
  5
401
102
{ACAD_XDICTIONARY
360
45D
102
}
102
{ACAD_REACTORS
330
3FD
102
}
330
3FD
100
AcDbVisualStyle
  2
GouraudWithEdges
 70
     3
 71
     2
 72
     2
 73
     1
 90
        2
 40
-0.6
 41
30.0
 62
     5
 63
     7
 74
     1
 91
        0
 64
     7
 65
   257
 75
     1
175
     1
 42
1.0
 92
        0
 66
   257
 43
1.0
 76
     1
 77
     6
 78
     2
 67
     7
 79
     5
170
     0
171
     0
290
     0
174
     0
 93
       13
 44
0.0
173
     0
291
     1
 45
0.0
1001
ACAD
1000
AcDbSavedByObjectVersion
1070
     0
  0
VISUALSTYLE
  5
405
102
{ACAD_XDICTIONARY
360
465
102
}
102
{ACAD_REACTORS
330
3FD
102
}
330
3FD
100
AcDbVisualStyle
  2
Hidden
 70
     6
 71
     1
 72
     2
 73
     2
 90
        0
 40
-0.6
 41
-30.0
 62
     5
 63
     7
 74
     2
 91
        2
 64
     7
 65
   257
 75
     2
175
     1
 42
40.0
 92
        0
 66
   257
 43
1.0
 76
     1
 77
     6
 78
     2
 67
     7
 79
     3
170
     0
171
     0
290
     0
174
     0
 93
        1
 44
0.0
173
     0
291
     0
 45
0.0
1001
ACAD
1000
AcDbSavedByObjectVersion
1070
     0
  0
VISUALSTYLE
  5
413
102
{ACAD_XDICTIONARY
360
481
102
}
102
{ACAD_REACTORS
330
3FD
102
}
330
3FD
100
AcDbVisualStyle
  2
JitterOff
 70
    20
 71
     2
 72
     2
 73
     0
 90
        0
 40
-0.6
 41
-30.0
 62
     5
 63
     7
 74
     1
 91
        4
 64
     7
 65
   257
 75
     1
175
     1
 42
1.0
 92
       10
 66
     7
 43
1.0
 76
     1
 77
     6
 78
     2
 67
     7
 79
     5
170
     0
171
     0
290
     0
174
     0
 93
        1
 44
0.0
173
     0
291
     1
 45
0.0
1001
ACAD
1000
AcDbSavedByObjectVersion
1070
     0
  0
VISUALSTYLE
  5
40B
102
{ACAD_XDICTIONARY
360
471
102
}
102
{ACAD_REACTORS
330
3FD
102
}
330
3FD
100
AcDbVisualStyle
  2
Linepattern
 70
    14
 71
     2
 72
     2
 73
     0
 90
        0
 40
-0.6
 41
-30.0
 62
     5
 63
     7
 74
     1
 91
        4
 64
     7
 65
   257
 75
     7
175
     7
 42
1.0
 92
        8
 66
     7
 43
1.0
 76
     1
 77
     6
 78
     2
 67
     7
 79
     5
170
     0
171
     0
290
     0
174
     0
 93
        1
 44
0.0
173
     0
291
     1
 45
0.0
1001
ACAD
1000
AcDbSavedByObjectVersion
1070
     0
  0
VISUALSTYLE
  5
414
102
{ACAD_XDICTIONARY
360
483
102
}
102
{ACAD_REACTORS
330
3FD
102
}
330
3FD
100
AcDbVisualStyle
  2
OverhangOff
 70
    21
 71
     2
 72
     2
 73
     0
 90
        0
 40
-0.6
 41
-30.0
 62
     5
 63
     7
 74
     1
 91
        4
 64
     7
 65
   257
 75
     1
175
     1
 42
1.0
 92
        9
 66
     7
 43
1.0
 76
     1
 77
     6
 78
     2
 67
     7
 79
     5
170
     0
171
     0
290
     0
174
     0
 93
        1
 44
0.0
173
     0
291
     1
 45
0.0
1001
ACAD
1000
AcDbSavedByObjectVersion
1070
     0
  0
VISUALSTYLE
  5
407
102
{ACAD_XDICTIONARY
360
469
102
}
102
{ACAD_REACTORS
330
3FD
102
}
330
3FD
100
AcDbVisualStyle
  2
Realistic
 70
     8
 71
     2
 72
     3
 73
     0
 90
        2
 40
-0.6
 41
30.0
 62
     5
 63
     7
 74
     0
 91
        0
 64
     7
 65
   257
 75
     1
175
     1
 42
1.0
 92
        8
 66
   257
 43
1.0
 76
     1
 77
     6
 78
     2
 67
     7
 79
     3
170
     0
171
     0
290
     0
174
     0
 93
       13
 44
0.0
173
     0
291
     0
 45
0.0
1001
ACAD
1000
AcDbSavedByObjectVersion
1070
     0
  0
VISUALSTYLE
  5
412
102
{ACAD_XDICTIONARY
360
47F
102
}
102
{ACAD_REACTORS
330
3FD
102
}
330
3FD
100
AcDbVisualStyle
  2
Shaded
 70
    27
 71
     2
 72
     2
 73
     1
 90
        2
 40
-0.6
 41
30.0
 62
     5
 63
     7
 74
     0
 91
        4
 64
     7
 65
   257
 75
     1
175
     1
 42
1.0
 92
        8
 66
   257
 43
1.0
 76
     1
 77
     6
 78
     2
 67
     8
 79
     3
170
     0
171
     0
290
     0
174
     0
 93
        5
 44
0.0
173
     0
291
     0
 45
0.0
1001
ACAD
1000
AcDbSavedByObjectVersion
1070
     0
  0
VISUALSTYLE
  5
411
102
{ACAD_XDICTIONARY
360
47D
102
}
102
{ACAD_REACTORS
330
3FD
102
}
330
3FD
100
AcDbVisualStyle
  2
Shaded with edges
 70
    26
 71
     2
 72
     2
 73
     1
 90
        2
 40
-0.6
 41
30.0
 62
     5
 63
     7
 74
     1
 91
       10
 64
     7
 65
   257
 75
     2
175
     1
 42
1.0
 92
        8
 66
   257
 43
1.0
 76
     1
 77
     6
 78
     2
 67
     7
 79
     3
170
     0
171
     0
290
     0
174
     0
 93
        5
 44
0.0
173
     0
291
     0
 45
0.0
1001
ACAD
1000
AcDbSavedByObjectVersion
1070
     0
  0
VISUALSTYLE
  5
40E
102
{ACAD_XDICTIONARY
360
477
102
}
102
{ACAD_REACTORS
330
3FD
102
}
330
3FD
100
AcDbVisualStyle
  2
Shades of Gray
 70
    23
 71
     2
 72
     2
 73
     3
 90
        0
 40
-0.6
 41
-30.0
 62
     5
 63
     7
 74
     2
 91
        2
 64
     7
 65
     7
 75
     1
175
     1
 42
40.0
 92
        8
 66
     7
 43
1.0
 76
     1
 77
     6
 78
     2
 67
     7
 79
     3
170
     0
171
     0
290
     0
174
     0
 93
        1
 44
0.0
173
     0
291
     0
 45
0.0
1001
ACAD
1000
AcDbSavedByObjectVersion
1070
     0
  0
VISUALSTYLE
  5
40F
102
{ACAD_XDICTIONARY
360
479
102
}
102
{ACAD_REACTORS
330
3FD
102
}
330
3FD
100
AcDbVisualStyle
  2
Sketchy
 70
    24
 71
     1
 72
     2
 73
     2
 90
        0
 40
-0.6
 41
-30.0
 62
     5
 63
     7
 74
     2
 91
        2
 64
     7
 65
     7
 75
     1
175
     1
 42
40.0
 92
       11
 66
     7
 43
1.0
 76
     1
 77
     6
 78
     2
 67
     7
 79
     6
170
     0
171
     0
290
     0
174
     0
 93
        1
 44
0.0
173
     0
291
     0
 45
0.0
1001
ACAD
1000
AcDbSavedByObjectVersion
1070
     0
  0
VISUALSTYLE
  5
40A
102
{ACAD_XDICTIONARY
360
46F
102
}
102
{ACAD_REACTORS
330
3FD
102
}
330
3FD
100
AcDbVisualStyle
  2
Thicken
 70
    13
 71
     2
 72
     2
 73
     0
 90
        0
 40
-0.6
 41
-30.0
 62
     5
 63
     7
 74
     1
 91
        4
 64
     7
 65
   257
 75
     1
175
     1
 42
1.0
 92
       12
 66
     7
 43
1.0
 76
     1
 77
     6
 78
     2
 67
     7
 79
     5
170
     0
171
     0
290
     0
174
     0
 93
        1
 44
0.0
173
     0
291
     1
 45
0.0
1001
ACAD
1000
AcDbSavedByObjectVersion
1070
     0
  0
VISUALSTYLE
  5
404
102
{ACAD_XDICTIONARY
360
463
102
}
102
{ACAD_REACTORS
330
3FD
102
}
330
3FD
100
AcDbVisualStyle
  2
Wireframe
 70
     5
 71
     0
 72
     2
 73
     0
 90
        0
 40
-0.6
 41
-30.0
 62
     5
 63
     7
 74
     1
 91
        4
 64
     7
 65
   257
 75
     1
175
     1
 42
1.0
 92
        0
 66
   257
 43
1.0
 76
     1
 77
     6
 78
     2
 67
     7
 79
     3
170
     0
171
     0
290
     0
174
     0
 93
        1
 44
0.0
173
     0
291
     0
 45
0.0
1001
ACAD
1000
AcDbSavedByObjectVersion
1070
     0
  0
VISUALSTYLE
  5
410
102
{ACAD_XDICTIONARY
360
47B
102
}
102
{ACAD_REACTORS
330
3FD
102
}
330
3FD
100
AcDbVisualStyle
  2
X-Ray
 70
    25
 71
     2
 72
     2
 73
     1
 90
        1
 40
0.5
 41
-30.0
 62
     5
 63
     7
 74
     1
 91
        0
 64
     7
 65
   257
 75
     1
175
     1
 42
1.0
 92
        8
 66
     7
 43
1.0
 76
     1
 77
     6
 78
     2
 67
     7
 79
     3
170
     0
171
     0
290
     0
174
     0
 93
       13
 44
0.0
173
     0
291
     0
 45
0.0
1001
ACAD
1000
AcDbSavedByObjectVersion
1070
     0
  0
DICTIONARYVAR
  5
44A
102
{ACAD_REACTORS
330
445
102
}
330
445
100
DictionaryVariables
280
     0
  1
1:1
  0
DICTIONARYVAR
  5
447
102
{ACAD_REACTORS
330
445
102
}
330
445
100
DictionaryVariables
280
     0
  1
STANDARD
  0
DICTIONARYVAR
  5
446
102
{ACAD_REACTORS
330
445
102
}
330
445
100
DictionaryVariables
280
     0
  1
STANDARD
  0
DICTIONARYVAR
  5
448
102
{ACAD_REACTORS
330
445
102
}
330
445
100
DictionaryVariables
280
     0
  1
Imperial24
  0
DICTIONARYVAR
  5
449
102
{ACAD_REACTORS
330
445
102
}
330
445
100
DictionaryVariables
280
     0
  1
Imperial24
  0
DICTIONARYVAR
  5
44D
102
{ACAD_REACTORS
330
445
102
}
330
445
100
DictionaryVariables
280
     0
  1
1
  0
DICTIONARYVAR
  5
44C
102
{ACAD_REACTORS
330
445
102
}
330
445
100
DictionaryVariables
280
     0
  1
0
  0
DICTIONARYVAR
  5
44B
102
{ACAD_REACTORS
330
445
102
}
330
445
100
DictionaryVariables
280
     0
  1
127
  0
DICTIONARYVAR
  5
44E
102
{ACAD_REACTORS
330
445
102
}
330
445
100
DictionaryVariables
280
     0
  1
2
  0
DICTIONARY
  5
48B
330
430
100
AcDbDictionary
280
     1
281
     1
  3
ACAD_XREC_ROUNDTRIP
360
48C
  0
DICTIONARY
  5
48D
330
431
100
AcDbDictionary
280
     1
281
     1
  3
ACAD_XREC_ROUNDTRIP
360
48E
  0
DICTIONARY
  5
48F
330
432
100
AcDbDictionary
280
     1
281
     1
  3
ACAD_XREC_ROUNDTRIP
360
490
  0
DICTIONARY
  5
3EE
330
3ED
100
AcDbDictionary
280
     1
281
     1
  3
ACAD_XREC_ROUNDTRIP
360
455
  3
BUMPTILE
360
3F0
  3
DIFFUSETILE
360
3EF
  3
OPACITYTILE
360
3F3
  3
REFLECTIONTILE
360
3F2
  3
REFRACTIONTILE
360
3F4
  3
SPECULARTILE
360
3F1
  0
DICTIONARY
  5
3E6
330
3E5
100
AcDbDictionary
280
     1
281
     1
  3
ACAD_XREC_ROUNDTRIP
360
454
  3
BUMPTILE
360
3E8
  3
DIFFUSETILE
360
3E7
  3
OPACITYTILE
360
3EB
  3
REFLECTIONTILE
360
3EA
  3
REFRACTIONTILE
360
3EC
  3
SPECULARTILE
360
3E9
  0
DICTIONARY
  5
3F6
330
3F5
100
AcDbDictionary
280
     1
281
     1
  3
ACAD_XREC_ROUNDTRIP
360
456
  3
BUMPTILE
360
3F8
  3
DIFFUSETILE
360
3F7
  3
OPACITYTILE
360
3FB
  3
REFLECTIONTILE
360
3FA
  3
REFRACTIONTILE
360
3FC
  3
SPECULARTILE
360
3F9
  0
DICTIONARY
  5
489
330
42E
100
AcDbDictionary
280
     1
281
     1
  3
ACAD_XREC_ROUNDTRIP
360
48A
  0
DICTIONARY
  5
450
330
418
100
AcDbDictionary
280
     1
281
     1
  3
ACAD_ROUNDTRIP_2008_TABLESTYLE_CELLSTYLEMAP
360
451
  3
ACAD_XREC_ROUNDTRIP
360
487
  0
DICTIONARY
  5
461
330
403
100
AcDbDictionary
280
     1
281
     1
  3
ACAD_XREC_ROUNDTRIP
360
462
  0
DICTIONARY
  5
45F
330
402
100
AcDbDictionary
280
     1
281
     1
  3
ACAD_XREC_ROUNDTRIP
360
460
  0
DICTIONARY
  5
46D
330
409
100
AcDbDictionary
280
     1
281
     1
  3
ACAD_XREC_ROUNDTRIP
360
46E
  0
DICTIONARY
  5
475
330
40D
100
AcDbDictionary
280
     1
281
     1
  3
ACAD_XREC_ROUNDTRIP
360
476
  0
DICTIONARY
  5
467
330
406
100
AcDbDictionary
280
     1
281
     1
  3
ACAD_XREC_ROUNDTRIP
360
468
  0
DICTIONARY
  5
46B
330
408
100
AcDbDictionary
280
     1
281
     1
  3
ACAD_XREC_ROUNDTRIP
360
46C
  0
DICTIONARY
  5
485
330
415
100
AcDbDictionary
280
     1
281
     1
  3
ACAD_XREC_ROUNDTRIP
360
486
  0
DICTIONARY
  5
473
330
40C
100
AcDbDictionary
280
     1
281
     1
  3
ACAD_XREC_ROUNDTRIP
360
474
  0
DICTIONARY
  5
457
330
3FE
100
AcDbDictionary
280
     1
281
     1
  3
ACAD_XREC_ROUNDTRIP
360
458
  0
DICTIONARY
  5
459
330
3FF
100
AcDbDictionary
280
     1
281
     1
  3
ACAD_XREC_ROUNDTRIP
360
45A
  0
DICTIONARY
  5
45B
330
400
100
AcDbDictionary
280
     1
281
     1
  3
ACAD_XREC_ROUNDTRIP
360
45C
  0
DICTIONARY
  5
45D
330
401
100
AcDbDictionary
280
     1
281
     1
  3
ACAD_XREC_ROUNDTRIP
360
45E
  0
DICTIONARY
  5
465
330
405
100
AcDbDictionary
280
     1
281
     1
  3
ACAD_XREC_ROUNDTRIP
360
466
  0
DICTIONARY
  5
481
330
413
100
AcDbDictionary
280
     1
281
     1
  3
ACAD_XREC_ROUNDTRIP
360
482
  0
DICTIONARY
  5
471
330
40B
100
AcDbDictionary
280
     1
281
     1
  3
ACAD_XREC_ROUNDTRIP
360
472
  0
DICTIONARY
  5
483
330
414
100
AcDbDictionary
280
     1
281
     1
  3
ACAD_XREC_ROUNDTRIP
360
484
  0
DICTIONARY
  5
469
330
407
100
AcDbDictionary
280
     1
281
     1
  3
ACAD_XREC_ROUNDTRIP
360
46A
  0
DICTIONARY
  5
47F
330
412
100
AcDbDictionary
280
     1
281
     1
  3
ACAD_XREC_ROUNDTRIP
360
480
  0
DICTIONARY
  5
47D
330
411
100
AcDbDictionary
280
     1
281
     1
  3
ACAD_XREC_ROUNDTRIP
360
47E
  0
DICTIONARY
  5
477
330
40E
100
AcDbDictionary
280
     1
281
     1
  3
ACAD_XREC_ROUNDTRIP
360
478
  0
DICTIONARY
  5
479
330
40F
100
AcDbDictionary
280
     1
281
     1
  3
ACAD_XREC_ROUNDTRIP
360
47A
  0
DICTIONARY
  5
46F
330
40A
100
AcDbDictionary
280
     1
281
     1
  3
ACAD_XREC_ROUNDTRIP
360
470
  0
DICTIONARY
  5
463
330
404
100
AcDbDictionary
280
     1
281
     1
  3
ACAD_XREC_ROUNDTRIP
360
464
  0
DICTIONARY
  5
47B
330
410
100
AcDbDictionary
280
     1
281
     1
  3
ACAD_XREC_ROUNDTRIP
360
47C
  0
XRECORD
  5
48C
102
{ACAD_REACTORS
330
48B
102
}
330
48B
100
AcDbXrecord
280
     1
102
DISPLAYNAME
  1
Imperial24
102
FLAGS
 90
        0
  0
XRECORD
  5
48E
102
{ACAD_REACTORS
330
48D
102
}
330
48D
100
AcDbXrecord
280
     1
102
SHADEPLOT
 70
     0
102
SHADEPLOTRESLEVEL
 70
     2
102
SHADEPLOTCUSTOMDPI
 70
   300
  0
XRECORD
  5
490
102
{ACAD_REACTORS
330
48F
102
}
330
48F
100
AcDbXrecord
280
     1
102
SHADEPLOT
 70
     0
102
SHADEPLOTRESLEVEL
 70
     2
102
SHADEPLOTCUSTOMDPI
 70
   300
  0
XRECORD
  5
455
102
{ACAD_REACTORS
330
3EE
102
}
330
3EE
100
AcDbXrecord
280
     1
102
MATERIAL
148
0.0
149
0.0
149
0.0
 93
        0
 94
      127
282
     0
 72
     0
 77
     0
171
     0
175
     0
179
     0
273
     0
  0
XRECORD
  5
3F0
102
{ACAD_REACTORS
330
3EE
102
}
330
3EE
100
AcDbXrecord
280
     1
270
     1
271
     1
  0
XRECORD
  5
3EF
102
{ACAD_REACTORS
330
3EE
102
}
330
3EE
100
AcDbXrecord
280
     1
270
     1
271
     1
  0
XRECORD
  5
3F3
102
{ACAD_REACTORS
330
3EE
102
}
330
3EE
100
AcDbXrecord
280
     1
270
     1
271
     1
  0
XRECORD
  5
3F2
102
{ACAD_REACTORS
330
3EE
102
}
330
3EE
100
AcDbXrecord
280
     1
270
     1
271
     1
  0
XRECORD
  5
3F4
102
{ACAD_REACTORS
330
3EE
102
}
330
3EE
100
AcDbXrecord
280
     1
270
     1
271
     1
  0
XRECORD
  5
3F1
102
{ACAD_REACTORS
330
3EE
102
}
330
3EE
100
AcDbXrecord
280
     1
270
     1
271
     1
  0
XRECORD
  5
454
102
{ACAD_REACTORS
330
3E6
102
}
330
3E6
100
AcDbXrecord
280
     1
102
MATERIAL
148
0.0
149
0.0
149
0.0
 93
        0
 94
      127
282
     0
 72
     0
 77
     0
171
     0
175
     0
179
     0
273
     0
  0
XRECORD
  5
3E8
102
{ACAD_REACTORS
330
3E6
102
}
330
3E6
100
AcDbXrecord
280
     1
270
     1
271
     1
  0
XRECORD
  5
3E7
102
{ACAD_REACTORS
330
3E6
102
}
330
3E6
100
AcDbXrecord
280
     1
270
     1
271
     1
  0
XRECORD
  5
3EB
102
{ACAD_REACTORS
330
3E6
102
}
330
3E6
100
AcDbXrecord
280
     1
270
     1
271
     1
  0
XRECORD
  5
3EA
102
{ACAD_REACTORS
330
3E6
102
}
330
3E6
100
AcDbXrecord
280
     1
270
     1
271
     1
  0
XRECORD
  5
3EC
102
{ACAD_REACTORS
330
3E6
102
}
330
3E6
100
AcDbXrecord
280
     1
270
     1
271
     1
  0
XRECORD
  5
3E9
102
{ACAD_REACTORS
330
3E6
102
}
330
3E6
100
AcDbXrecord
280
     1
270
     1
271
     1
  0
XRECORD
  5
456
102
{ACAD_REACTORS
330
3F6
102
}
330
3F6
100
AcDbXrecord
280
     1
102
MATERIAL
148
0.0
149
0.0
149
0.0
 93
        0
 94
      127
282
     0
 72
     0
 77
     0
171
     0
175
     0
179
     0
273
     0
  0
XRECORD
  5
3F8
102
{ACAD_REACTORS
330
3F6
102
}
330
3F6
100
AcDbXrecord
280
     1
270
     1
271
     1
  0
XRECORD
  5
3F7
102
{ACAD_REACTORS
330
3F6
102
}
330
3F6
100
AcDbXrecord
280
     1
270
     1
271
     1
  0
XRECORD
  5
3FB
102
{ACAD_REACTORS
330
3F6
102
}
330
3F6
100
AcDbXrecord
280
     1
270
     1
271
     1
  0
XRECORD
  5
3FA
102
{ACAD_REACTORS
330
3F6
102
}
330
3F6
100
AcDbXrecord
280
     1
270
     1
271
     1
  0
XRECORD
  5
3FC
102
{ACAD_REACTORS
330
3F6
102
}
330
3F6
100
AcDbXrecord
280
     1
270
     1
271
     1
  0
XRECORD
  5
3F9
102
{ACAD_REACTORS
330
3F6
102
}
330
3F6
100
AcDbXrecord
280
     1
270
     1
271
     1
  0
XRECORD
  5
48A
102
{ACAD_REACTORS
330
489
102
}
330
489
100
AcDbXrecord
280
     1
102
DISPLAYNAME
  1
Imperial24
102
FLAGS
 90
        0
  0
CELLSTYLEMAP
  5
451
102
{ACAD_REACTORS
330
450
102
}
330
450
100
AcDbCellStyleMap
 90
        3
300
CELLSTYLE
  1
TABLEFORMAT_BEGIN
 90
        5
170
     1
 91
        0
 92
    32768
 62
   257
 93
        1
300
CONTENTFORMAT
  1
CONTENTFORMAT_BEGIN
 90
        0
 91
        0
 92
      512
 93
        0
300

 40
0.0
140
1.0
 94
        5
 62
     0
340
1F8
144
0.25
309
CONTENTFORMAT_END
171
     0
 94
        0
309
TABLEFORMAT_END
  1
CELLSTYLE_BEGIN
 90
        1
 91
        1
300
_TITLE
309
CELLSTYLE_END
300
CELLSTYLE
  1
TABLEFORMAT_BEGIN
 90
        5
170
     1
 91
        0
 92
        0
 62
   257
 93
        1
300
CONTENTFORMAT
  1
CONTENTFORMAT_BEGIN
 90
        0
 91
        0
 92
      512
 93
        0
300

 40
0.0
140
1.0
 94
        5
 62
     0
340
1F8
144
0.18
309
CONTENTFORMAT_END
171
     0
 94
        0
309
TABLEFORMAT_END
  1
CELLSTYLE_BEGIN
 90
        2
 91
        1
300
_HEADER
309
CELLSTYLE_END
300
CELLSTYLE
  1
TABLEFORMAT_BEGIN
 90
        5
170
     1
 91
        0
 92
        0
 62
   257
 93
        1
300
CONTENTFORMAT
  1
CONTENTFORMAT_BEGIN
 90
        0
 91
        0
 92
      512
 93
        0
300

 40
0.0
140
1.0
 94
        2
 62
     0
340
1F8
144
0.18
309
CONTENTFORMAT_END
171
     0
 94
        0
309
TABLEFORMAT_END
  1
CELLSTYLE_BEGIN
 90
        3
 91
        2
300
_DATA
309
CELLSTYLE_END
  0
XRECORD
  5
487
102
{ACAD_REACTORS
330
450
102
}
330
450
100
AcDbXrecord
280
     1
102
ACAD_ROUNDTRIP_PRE2007_TABLESTYLE
 90
      512
 91
        0
  1

 92
      512
 93
        0
  2

 94
      512
 95
        0
  3

  0
XRECORD
  5
462
102
{ACAD_REACTORS
330
461
102
}
330
461
100
AcDbXrecord
280
     1
102
RTVSPost2010Prop28
280
     1
102
RTVSPost2010PropOp28
 70
     1
102
RTVSPost2010Prop29
280
     1
102
RTVSPost2010PropOp29
 70
     1
102
RTVSPost2010Prop30
280
     0
102
RTVSPost2010PropOp30
 70
     1
102
RTVSPost2010Prop31
280
     0
102
RTVSPost2010PropOp31
 70
     1
102
RTVSPost2010Prop32
280
     0
102
RTVSPost2010PropOp32
 70
     1
102
RTVSPost2010Prop33
280
     0
102
RTVSPost2010PropOp33
 70
     1
102
RTVSPost2010Prop34
280
     0
102
RTVSPost2010PropOp34
 70
     1
102
RTVSPost2010Prop35
280
     0
102
RTVSPost2010PropOp35
 70
     1
102
RTVSPost2010Prop36
280
     0
102
RTVSPost2010PropOp36
 70
     1
102
RTVSPost2010Prop37
 90
       50
102
RTVSPost2010PropOp37
 70
     1
102
RTVSPost2010Prop38
140
0.0
102
RTVSPost2010PropOp38
 70
     1
102
RTVSPost2010Prop39
140
1.0
102
RTVSPost2010PropOp39
 70
     1
102
RTVSPost2010Prop40
 90
        0
102
RTVSPost2010PropOp40
 70
     1
102
RTVSPost2010Prop41ColorIndex
 90
       18
102
RTVSPost2010Prop41ColorRGB
 90
        0
102
RTVSPost2010PropOp41
 70
     1
102
RTVSPost2010Prop42
 90
       50
102
RTVSPost2010PropOp42
 70
     1
102
RTVSPost2010Prop43
 90
        3
102
RTVSPost2010PropOp43
 70
     1
102
RTVSPost2010Prop44ColorIndex
 90
        5
102
RTVSPost2010Prop44ColorRGB
 90
      255
102
RTVSPost2010PropOp44
 70
     1
102
RTVSPost2010Prop45
280
     0
102
RTVSPost2010PropOp45
 70
     1
102
RTVSPost2010Prop46
 90
       50
102
RTVSPost2010PropOp46
 70
     1
102
RTVSPost2010Prop47
 90
       50
102
RTVSPost2010PropOp47
 70
     1
102
RTVSPost2010Prop48
 90
       50
102
RTVSPost2010PropOp48
 70
     1
102
RTVSPost2010Prop49
280
     0
102
RTVSPost2010PropOp49
 70
     1
102
RTVSPost2010Prop50
 90
       50
102
RTVSPost2010PropOp50
 70
     1
102
RTVSPost2010Prop51ColorIndex
 90
      256
102
RTVSPost2010Prop51ColorRGB
 90
-16777216
102
RTVSPost2010PropOp51
 70
     0
102
RTVSPost2010Prop52
140
1.0
102
RTVSPost2010PropOp52
 70
     0
102
RTVSPost2010Prop53
 90
        2
102
RTVSPost2010PropOp53
 70
     1
102
RTVSPost2010Prop54
  1
strokes_ogs.tif
102
RTVSPost2010PropOp54
 70
     1
102
RTVSPost2010Prop55
280
     0
102
RTVSPost2010PropOp55
 70
     1
102
RTVSPost2010Prop56
140
1.0
102
RTVSPost2010PropOp56
 70
     1
102
RTVSPost2010Prop57
140
1.0
102
RTVSPost2010PropOp57
 70
     1
102
RTVSPropertyOp0
 70
     1
102
RTVSPropertyOp1
 70
     1
102
RTVSPropertyOp2
 70
     1
102
RTVSPropertyOp3
 70
     1
102
RTVSPropertyOp4
 70
     1
102
RTVSPropertyOp5
 70
     1
102
RTVSPropertyOp6
 70
     1
102
RTVSPropertyOp7
 70
     1
102
RTVSPropertyOp8
 70
     1
102
RTVSPropertyOp9
 70
     1
102
RTVSPropertyOp10
 70
     1
102
RTVSPropertyOp11
 70
     1
102
RTVSPropertyOp12
 70
     1
102
RTVSPropertyOp13
 70
     1
102
RTVSPropertyOp14
 70
     1
102
RTVSPropertyOp15
 70
     1
102
RTVSPropertyOp16
 70
     1
102
RTVSPropertyOp17
 70
     1
102
RTVSPropertyOp18
 70
     1
102
RTVSPropertyOp19
 70
     1
102
RTVSPropertyOp20
 70
     1
102
RTVSPropertyOp21
 70
     1
102
RTVSPropertyOp22
 70
     1
102
RTVSPropertyOp23
 70
     1
102
RTVSPropertyOp24
 70
     1
102
RTVSPropertyOp25
 70
     1
102
RTVSPropertyOp26
 70
     1
102
RTVSPropertyOp27
 70
     1
102
RTVSPropertyOp28
 70
     1
102
RTVSPropertyOp29
 70
     1
102
RTVSPropertyOp30
 70
     1
102
RTVSPropertyOp31
 70
     1
102
RTVSPropertyOp32
 70
     1
102
RTVSPropertyOp33
 70
     1
102
RTVSPropertyOp34
 70
     1
102
RTVSPropertyOp35
 70
     1
102
RTVSPropertyOp36
 70
     1
102
RTVSPropertyOp37
 70
     1
102
RTVSPropertyOp38
 70
     1
102
RTVSPropertyOp39
 70
     1
102
RTVSPropertyOp40
 70
     1
102
RTVSPropertyOp41
 70
     1
102
RTVSPropertyOp42
 70
     1
102
RTVSPropertyOp43
 70
     1
102
RTVSPropertyOp44
 70
     1
102
RTVSPropertyOp45
 70
     1
102
RTVSPropertyOp46
 70
     1
102
RTVSPropertyOp47
 70
     1
102
RTVSPropertyOp48
 70
     1
102
RTVSPropertyOp49
 70
     1
102
RTVSPropertyOp50
 70
     1
102
RTVSPropertyOp51
 70
     0
102
RTVSPropertyOp52
 70
     0
102
RTVSPropertyOp53
 70
     1
102
RTVSPropertyOp54
 70
     1
102
RTVSPropertyOp55
 70
     1
102
RTVSPropertyOp56
 70
     1
102
RTVSPropertyOp57
 70
     1
102
RTVSPropertyOp58
 70
     1
102
RTVSPropertyOp59
 70
     1
102
RTVSPropertyOp60
 70
     1
102
RTVSPropertyOp61
 70
     1
102
RTVSPropertyOp62
 70
     1
  0
XRECORD
  5
460
102
{ACAD_REACTORS
330
45F
102
}
330
45F
100
AcDbXrecord
280
     1
102
RTVSPost2010Prop28
280
     0
102
RTVSPost2010PropOp28
 70
     1
102
RTVSPost2010Prop29
280
     1
102
RTVSPost2010PropOp29
 70
     1
102
RTVSPost2010Prop30
280
     1
102
RTVSPost2010PropOp30
 70
     1
102
RTVSPost2010Prop31
280
     0
102
RTVSPost2010PropOp31
 70
     1
102
RTVSPost2010Prop32
280
     0
102
RTVSPost2010PropOp32
 70
     1
102
RTVSPost2010Prop33
280
     0
102
RTVSPost2010PropOp33
 70
     1
102
RTVSPost2010Prop34
280
     0
102
RTVSPost2010PropOp34
 70
     1
102
RTVSPost2010Prop35
280
     0
102
RTVSPost2010PropOp35
 70
     1
102
RTVSPost2010Prop36
280
     0
102
RTVSPost2010PropOp36
 70
     1
102
RTVSPost2010Prop37
 90
       50
102
RTVSPost2010PropOp37
 70
     1
102
RTVSPost2010Prop38
140
0.0
102
RTVSPost2010PropOp38
 70
     1
102
RTVSPost2010Prop39
140
1.0
102
RTVSPost2010PropOp39
 70
     1
102
RTVSPost2010Prop40
 90
        0
102
RTVSPost2010PropOp40
 70
     1
102
RTVSPost2010Prop41ColorIndex
 90
       18
102
RTVSPost2010Prop41ColorRGB
 90
        0
102
RTVSPost2010PropOp41
 70
     1
102
RTVSPost2010Prop42
 90
       50
102
RTVSPost2010PropOp42
 70
     1
102
RTVSPost2010Prop43
 90
        3
102
RTVSPost2010PropOp43
 70
     1
102
RTVSPost2010Prop44ColorIndex
 90
        5
102
RTVSPost2010Prop44ColorRGB
 90
      255
102
RTVSPost2010PropOp44
 70
     1
102
RTVSPost2010Prop45
280
     0
102
RTVSPost2010PropOp45
 70
     1
102
RTVSPost2010Prop46
 90
       50
102
RTVSPost2010PropOp46
 70
     1
102
RTVSPost2010Prop47
 90
       50
102
RTVSPost2010PropOp47
 70
     1
102
RTVSPost2010Prop48
 90
       50
102
RTVSPost2010PropOp48
 70
     1
102
RTVSPost2010Prop49
280
     0
102
RTVSPost2010PropOp49
 70
     1
102
RTVSPost2010Prop50
 90
       50
102
RTVSPost2010PropOp50
 70
     1
102
RTVSPost2010Prop51ColorIndex
 90
      256
102
RTVSPost2010Prop51ColorRGB
 90
-16777216
102
RTVSPost2010PropOp51
 70
     0
102
RTVSPost2010Prop52
140
1.0
102
RTVSPost2010PropOp52
 70
     0
102
RTVSPost2010Prop53
 90
        2
102
RTVSPost2010PropOp53
 70
     1
102
RTVSPost2010Prop54
  1
strokes_ogs.tif
102
RTVSPost2010PropOp54
 70
     1
102
RTVSPost2010Prop55
280
     0
102
RTVSPost2010PropOp55
 70
     1
102
RTVSPost2010Prop56
140
1.0
102
RTVSPost2010PropOp56
 70
     1
102
RTVSPost2010Prop57
140
1.0
102
RTVSPost2010PropOp57
 70
     1
102
RTVSPropertyOp0
 70
     1
102
RTVSPropertyOp1
 70
     1
102
RTVSPropertyOp2
 70
     1
102
RTVSPropertyOp3
 70
     1
102
RTVSPropertyOp4
 70
     1
102
RTVSPropertyOp5
 70
     1
102
RTVSPropertyOp6
 70
     1
102
RTVSPropertyOp7
 70
     1
102
RTVSPropertyOp8
 70
     1
102
RTVSPropertyOp9
 70
     1
102
RTVSPropertyOp10
 70
     1
102
RTVSPropertyOp11
 70
     1
102
RTVSPropertyOp12
 70
     1
102
RTVSPropertyOp13
 70
     1
102
RTVSPropertyOp14
 70
     1
102
RTVSPropertyOp15
 70
     1
102
RTVSPropertyOp16
 70
     1
102
RTVSPropertyOp17
 70
     1
102
RTVSPropertyOp18
 70
     1
102
RTVSPropertyOp19
 70
     1
102
RTVSPropertyOp20
 70
     1
102
RTVSPropertyOp21
 70
     1
102
RTVSPropertyOp22
 70
     1
102
RTVSPropertyOp23
 70
     1
102
RTVSPropertyOp24
 70
     1
102
RTVSPropertyOp25
 70
     1
102
RTVSPropertyOp26
 70
     1
102
RTVSPropertyOp27
 70
     1
102
RTVSPropertyOp28
 70
     1
102
RTVSPropertyOp29
 70
     1
102
RTVSPropertyOp30
 70
     1
102
RTVSPropertyOp31
 70
     1
102
RTVSPropertyOp32
 70
     1
102
RTVSPropertyOp33
 70
     1
102
RTVSPropertyOp34
 70
     1
102
RTVSPropertyOp35
 70
     1
102
RTVSPropertyOp36
 70
     1
102
RTVSPropertyOp37
 70
     1
102
RTVSPropertyOp38
 70
     1
102
RTVSPropertyOp39
 70
     1
102
RTVSPropertyOp40
 70
     1
102
RTVSPropertyOp41
 70
     1
102
RTVSPropertyOp42
 70
     1
102
RTVSPropertyOp43
 70
     1
102
RTVSPropertyOp44
 70
     1
102
RTVSPropertyOp45
 70
     1
102
RTVSPropertyOp46
 70
     1
102
RTVSPropertyOp47
 70
     1
102
RTVSPropertyOp48
 70
     1
102
RTVSPropertyOp49
 70
     1
102
RTVSPropertyOp50
 70
     1
102
RTVSPropertyOp51
 70
     0
102
RTVSPropertyOp52
 70
     0
102
RTVSPropertyOp53
 70
     1
102
RTVSPropertyOp54
 70
     1
102
RTVSPropertyOp55
 70
     1
102
RTVSPropertyOp56
 70
     1
102
RTVSPropertyOp57
 70
     1
102
RTVSPropertyOp58
 70
     1
102
RTVSPropertyOp59
 70
     1
102
RTVSPropertyOp60
 70
     1
102
RTVSPropertyOp61
 70
     1
102
RTVSPropertyOp62
 70
     1
  0
XRECORD
  5
46E
102
{ACAD_REACTORS
330
46D
102
}
330
46D
100
AcDbXrecord
280
     1
102
RTVSPost2010Prop28
280
     0
102
RTVSPost2010PropOp28
 70
     1
102
RTVSPost2010Prop29
280
     1
102
RTVSPost2010PropOp29
 70
     1
102
RTVSPost2010Prop30
280
     1
102
RTVSPost2010PropOp30
 70
     1
102
RTVSPost2010Prop31
280
     0
102
RTVSPost2010PropOp31
 70
     1
102
RTVSPost2010Prop32
280
     0
102
RTVSPost2010PropOp32
 70
     1
102
RTVSPost2010Prop33
280
     0
102
RTVSPost2010PropOp33
 70
     1
102
RTVSPost2010Prop34
280
     0
102
RTVSPost2010PropOp34
 70
     1
102
RTVSPost2010Prop35
280
     0
102
RTVSPost2010PropOp35
 70
     1
102
RTVSPost2010Prop36
280
     0
102
RTVSPost2010PropOp36
 70
     1
102
RTVSPost2010Prop37
 90
       50
102
RTVSPost2010PropOp37
 70
     1
102
RTVSPost2010Prop38
140
0.0
102
RTVSPost2010PropOp38
 70
     1
102
RTVSPost2010Prop39
140
1.0
102
RTVSPost2010PropOp39
 70
     1
102
RTVSPost2010Prop40
 90
        0
102
RTVSPost2010PropOp40
 70
     1
102
RTVSPost2010Prop41ColorIndex
 90
       18
102
RTVSPost2010Prop41ColorRGB
 90
        0
102
RTVSPost2010PropOp41
 70
     1
102
RTVSPost2010Prop42
 90
       50
102
RTVSPost2010PropOp42
 70
     1
102
RTVSPost2010Prop43
 90
        3
102
RTVSPost2010PropOp43
 70
     1
102
RTVSPost2010Prop44ColorIndex
 90
        5
102
RTVSPost2010Prop44ColorRGB
 90
      255
102
RTVSPost2010PropOp44
 70
     1
102
RTVSPost2010Prop45
280
     0
102
RTVSPost2010PropOp45
 70
     1
102
RTVSPost2010Prop46
 90
       50
102
RTVSPost2010PropOp46
 70
     1
102
RTVSPost2010Prop47
 90
       50
102
RTVSPost2010PropOp47
 70
     1
102
RTVSPost2010Prop48
 90
       50
102
RTVSPost2010PropOp48
 70
     1
102
RTVSPost2010Prop49
280
     0
102
RTVSPost2010PropOp49
 70
     1
102
RTVSPost2010Prop50
 90
       50
102
RTVSPost2010PropOp50
 70
     1
102
RTVSPost2010Prop51ColorIndex
 90
      256
102
RTVSPost2010Prop51ColorRGB
 90
-16777216
102
RTVSPost2010PropOp51
 70
     0
102
RTVSPost2010Prop52
140
1.0
102
RTVSPost2010PropOp52
 70
     0
102
RTVSPost2010Prop53
 90
        2
102
RTVSPost2010PropOp53
 70
     1
102
RTVSPost2010Prop54
  1
strokes_ogs.tif
102
RTVSPost2010PropOp54
 70
     1
102
RTVSPost2010Prop55
280
     0
102
RTVSPost2010PropOp55
 70
     1
102
RTVSPost2010Prop56
140
1.0
102
RTVSPost2010PropOp56
 70
     1
102
RTVSPost2010Prop57
140
1.0
102
RTVSPost2010PropOp57
 70
     1
102
RTVSPropertyOp0
 70
     1
102
RTVSPropertyOp1
 70
     1
102
RTVSPropertyOp2
 70
     1
102
RTVSPropertyOp3
 70
     1
102
RTVSPropertyOp4
 70
     1
102
RTVSPropertyOp5
 70
     1
102
RTVSPropertyOp6
 70
     1
102
RTVSPropertyOp7
 70
     1
102
RTVSPropertyOp8
 70
     1
102
RTVSPropertyOp9
 70
     1
102
RTVSPropertyOp10
 70
     1
102
RTVSPropertyOp11
 70
     1
102
RTVSPropertyOp12
 70
     1
102
RTVSPropertyOp13
 70
     1
102
RTVSPropertyOp14
 70
     1
102
RTVSPropertyOp15
 70
     1
102
RTVSPropertyOp16
 70
     1
102
RTVSPropertyOp17
 70
     1
102
RTVSPropertyOp18
 70
     1
102
RTVSPropertyOp19
 70
     1
102
RTVSPropertyOp20
 70
     1
102
RTVSPropertyOp21
 70
     1
102
RTVSPropertyOp22
 70
     1
102
RTVSPropertyOp23
 70
     1
102
RTVSPropertyOp24
 70
     1
102
RTVSPropertyOp25
 70
     1
102
RTVSPropertyOp26
 70
     1
102
RTVSPropertyOp27
 70
     1
102
RTVSPropertyOp28
 70
     1
102
RTVSPropertyOp29
 70
     1
102
RTVSPropertyOp30
 70
     1
102
RTVSPropertyOp31
 70
     1
102
RTVSPropertyOp32
 70
     1
102
RTVSPropertyOp33
 70
     1
102
RTVSPropertyOp34
 70
     1
102
RTVSPropertyOp35
 70
     1
102
RTVSPropertyOp36
 70
     1
102
RTVSPropertyOp37
 70
     1
102
RTVSPropertyOp38
 70
     1
102
RTVSPropertyOp39
 70
     1
102
RTVSPropertyOp40
 70
     1
102
RTVSPropertyOp41
 70
     1
102
RTVSPropertyOp42
 70
     1
102
RTVSPropertyOp43
 70
     1
102
RTVSPropertyOp44
 70
     1
102
RTVSPropertyOp45
 70
     1
102
RTVSPropertyOp46
 70
     1
102
RTVSPropertyOp47
 70
     1
102
RTVSPropertyOp48
 70
     1
102
RTVSPropertyOp49
 70
     1
102
RTVSPropertyOp50
 70
     1
102
RTVSPropertyOp51
 70
     0
102
RTVSPropertyOp52
 70
     0
102
RTVSPropertyOp53
 70
     1
102
RTVSPropertyOp54
 70
     1
102
RTVSPropertyOp55
 70
     1
102
RTVSPropertyOp56
 70
     1
102
RTVSPropertyOp57
 70
     1
102
RTVSPropertyOp58
 70
     1
102
RTVSPropertyOp59
 70
     1
102
RTVSPropertyOp60
 70
     1
102
RTVSPropertyOp61
 70
     1
102
RTVSPropertyOp62
 70
     1
  0
XRECORD
  5
476
102
{ACAD_REACTORS
330
475
102
}
330
475
100
AcDbXrecord
280
     1
102
RTVSPost2010Prop28
280
     0
102
RTVSPost2010PropOp28
 70
     1
102
RTVSPost2010Prop29
280
     1
102
RTVSPost2010PropOp29
 70
     1
102
RTVSPost2010Prop30
280
     1
102
RTVSPost2010PropOp30
 70
     1
102
RTVSPost2010Prop31
280
     0
102
RTVSPost2010PropOp31
 70
     1
102
RTVSPost2010Prop32
280
     0
102
RTVSPost2010PropOp32
 70
     1
102
RTVSPost2010Prop33
280
     0
102
RTVSPost2010PropOp33
 70
     1
102
RTVSPost2010Prop34
280
     0
102
RTVSPost2010PropOp34
 70
     1
102
RTVSPost2010Prop35
280
     0
102
RTVSPost2010PropOp35
 70
     1
102
RTVSPost2010Prop36
280
     0
102
RTVSPost2010PropOp36
 70
     1
102
RTVSPost2010Prop37
 90
       50
102
RTVSPost2010PropOp37
 70
     1
102
RTVSPost2010Prop38
140
0.0
102
RTVSPost2010PropOp38
 70
     1
102
RTVSPost2010Prop39
140
1.0
102
RTVSPost2010PropOp39
 70
     1
102
RTVSPost2010Prop40
 90
        0
102
RTVSPost2010PropOp40
 70
     1
102
RTVSPost2010Prop41ColorIndex
 90
       18
102
RTVSPost2010Prop41ColorRGB
 90
        0
102
RTVSPost2010PropOp41
 70
     1
102
RTVSPost2010Prop42
 90
       50
102
RTVSPost2010PropOp42
 70
     1
102
RTVSPost2010Prop43
 90
        3
102
RTVSPost2010PropOp43
 70
     1
102
RTVSPost2010Prop44ColorIndex
 90
        5
102
RTVSPost2010Prop44ColorRGB
 90
      255
102
RTVSPost2010PropOp44
 70
     1
102
RTVSPost2010Prop45
280
     0
102
RTVSPost2010PropOp45
 70
     1
102
RTVSPost2010Prop46
 90
       50
102
RTVSPost2010PropOp46
 70
     1
102
RTVSPost2010Prop47
 90
       50
102
RTVSPost2010PropOp47
 70
     1
102
RTVSPost2010Prop48
 90
       50
102
RTVSPost2010PropOp48
 70
     1
102
RTVSPost2010Prop49
280
     0
102
RTVSPost2010PropOp49
 70
     1
102
RTVSPost2010Prop50
 90
       50
102
RTVSPost2010PropOp50
 70
     1
102
RTVSPost2010Prop51ColorIndex
 90
      256
102
RTVSPost2010Prop51ColorRGB
 90
-16777216
102
RTVSPost2010PropOp51
 70
     0
102
RTVSPost2010Prop52
140
1.0
102
RTVSPost2010PropOp52
 70
     0
102
RTVSPost2010Prop53
 90
        2
102
RTVSPost2010PropOp53
 70
     1
102
RTVSPost2010Prop54
  1
strokes_ogs.tif
102
RTVSPost2010PropOp54
 70
     1
102
RTVSPost2010Prop55
280
     0
102
RTVSPost2010PropOp55
 70
     1
102
RTVSPost2010Prop56
140
1.0
102
RTVSPost2010PropOp56
 70
     1
102
RTVSPost2010Prop57
140
1.0
102
RTVSPost2010PropOp57
 70
     1
102
RTVSPropertyOp0
 70
     1
102
RTVSPropertyOp1
 70
     1
102
RTVSPropertyOp2
 70
     1
102
RTVSPropertyOp3
 70
     1
102
RTVSPropertyOp4
 70
     1
102
RTVSPropertyOp5
 70
     1
102
RTVSPropertyOp6
 70
     1
102
RTVSPropertyOp7
 70
     1
102
RTVSPropertyOp8
 70
     1
102
RTVSPropertyOp9
 70
     1
102
RTVSPropertyOp10
 70
     1
102
RTVSPropertyOp11
 70
     1
102
RTVSPropertyOp12
 70
     1
102
RTVSPropertyOp13
 70
     1
102
RTVSPropertyOp14
 70
     1
102
RTVSPropertyOp15
 70
     1
102
RTVSPropertyOp16
 70
     1
102
RTVSPropertyOp17
 70
     1
102
RTVSPropertyOp18
 70
     1
102
RTVSPropertyOp19
 70
     1
102
RTVSPropertyOp20
 70
     1
102
RTVSPropertyOp21
 70
     1
102
RTVSPropertyOp22
 70
     1
102
RTVSPropertyOp23
 70
     1
102
RTVSPropertyOp24
 70
     1
102
RTVSPropertyOp25
 70
     1
102
RTVSPropertyOp26
 70
     1
102
RTVSPropertyOp27
 70
     1
102
RTVSPropertyOp28
 70
     1
102
RTVSPropertyOp29
 70
     1
102
RTVSPropertyOp30
 70
     1
102
RTVSPropertyOp31
 70
     1
102
RTVSPropertyOp32
 70
     1
102
RTVSPropertyOp33
 70
     1
102
RTVSPropertyOp34
 70
     1
102
RTVSPropertyOp35
 70
     1
102
RTVSPropertyOp36
 70
     1
102
RTVSPropertyOp37
 70
     1
102
RTVSPropertyOp38
 70
     1
102
RTVSPropertyOp39
 70
     1
102
RTVSPropertyOp40
 70
     1
102
RTVSPropertyOp41
 70
     1
102
RTVSPropertyOp42
 70
     1
102
RTVSPropertyOp43
 70
     1
102
RTVSPropertyOp44
 70
     1
102
RTVSPropertyOp45
 70
     1
102
RTVSPropertyOp46
 70
     1
102
RTVSPropertyOp47
 70
     1
102
RTVSPropertyOp48
 70
     1
102
RTVSPropertyOp49
 70
     1
102
RTVSPropertyOp50
 70
     1
102
RTVSPropertyOp51
 70
     0
102
RTVSPropertyOp52
 70
     0
102
RTVSPropertyOp53
 70
     1
102
RTVSPropertyOp54
 70
     1
102
RTVSPropertyOp55
 70
     1
102
RTVSPropertyOp56
 70
     1
102
RTVSPropertyOp57
 70
     1
102
RTVSPropertyOp58
 70
     1
102
RTVSPropertyOp59
 70
     1
102
RTVSPropertyOp60
 70
     1
102
RTVSPropertyOp61
 70
     1
102
RTVSPropertyOp62
 70
     1
  0
XRECORD
  5
468
102
{ACAD_REACTORS
330
467
102
}
330
467
100
AcDbXrecord
280
     1
102
RTVSPost2010Prop28
280
     0
102
RTVSPost2010PropOp28
 70
     1
102
RTVSPost2010Prop29
280
     1
102
RTVSPost2010PropOp29
 70
     1
102
RTVSPost2010Prop30
280
     1
102
RTVSPost2010PropOp30
 70
     1
102
RTVSPost2010Prop31
280
     0
102
RTVSPost2010PropOp31
 70
     1
102
RTVSPost2010Prop32
280
     0
102
RTVSPost2010PropOp32
 70
     1
102
RTVSPost2010Prop33
280
     0
102
RTVSPost2010PropOp33
 70
     1
102
RTVSPost2010Prop34
280
     0
102
RTVSPost2010PropOp34
 70
     1
102
RTVSPost2010Prop35
280
     0
102
RTVSPost2010PropOp35
 70
     1
102
RTVSPost2010Prop36
280
     0
102
RTVSPost2010PropOp36
 70
     1
102
RTVSPost2010Prop37
 90
       50
102
RTVSPost2010PropOp37
 70
     1
102
RTVSPost2010Prop38
140
0.0
102
RTVSPost2010PropOp38
 70
     1
102
RTVSPost2010Prop39
140
1.0
102
RTVSPost2010PropOp39
 70
     1
102
RTVSPost2010Prop40
 90
        0
102
RTVSPost2010PropOp40
 70
     1
102
RTVSPost2010Prop41ColorIndex
 90
       18
102
RTVSPost2010Prop41ColorRGB
 90
        0
102
RTVSPost2010PropOp41
 70
     1
102
RTVSPost2010Prop42
 90
       50
102
RTVSPost2010PropOp42
 70
     1
102
RTVSPost2010Prop43
 90
        3
102
RTVSPost2010PropOp43
 70
     1
102
RTVSPost2010Prop44ColorIndex
 90
        5
102
RTVSPost2010Prop44ColorRGB
 90
      255
102
RTVSPost2010PropOp44
 70
     1
102
RTVSPost2010Prop45
280
     0
102
RTVSPost2010PropOp45
 70
     1
102
RTVSPost2010Prop46
 90
       50
102
RTVSPost2010PropOp46
 70
     1
102
RTVSPost2010Prop47
 90
       50
102
RTVSPost2010PropOp47
 70
     1
102
RTVSPost2010Prop48
 90
       50
102
RTVSPost2010PropOp48
 70
     1
102
RTVSPost2010Prop49
280
     0
102
RTVSPost2010PropOp49
 70
     1
102
RTVSPost2010Prop50
 90
       50
102
RTVSPost2010PropOp50
 70
     1
102
RTVSPost2010Prop51ColorIndex
 90
      256
102
RTVSPost2010Prop51ColorRGB
 90
-16777216
102
RTVSPost2010PropOp51
 70
     0
102
RTVSPost2010Prop52
140
1.0
102
RTVSPost2010PropOp52
 70
     0
102
RTVSPost2010Prop53
 90
        2
102
RTVSPost2010PropOp53
 70
     1
102
RTVSPost2010Prop54
  1
strokes_ogs.tif
102
RTVSPost2010PropOp54
 70
     1
102
RTVSPost2010Prop55
280
     0
102
RTVSPost2010PropOp55
 70
     1
102
RTVSPost2010Prop56
140
1.0
102
RTVSPost2010PropOp56
 70
     1
102
RTVSPost2010Prop57
140
1.0
102
RTVSPost2010PropOp57
 70
     1
102
RTVSPropertyOp0
 70
     1
102
RTVSPropertyOp1
 70
     1
102
RTVSPropertyOp2
 70
     1
102
RTVSPropertyOp3
 70
     1
102
RTVSPropertyOp4
 70
     1
102
RTVSPropertyOp5
 70
     1
102
RTVSPropertyOp6
 70
     1
102
RTVSPropertyOp7
 70
     1
102
RTVSPropertyOp8
 70
     1
102
RTVSPropertyOp9
 70
     1
102
RTVSPropertyOp10
 70
     1
102
RTVSPropertyOp11
 70
     1
102
RTVSPropertyOp12
 70
     1
102
RTVSPropertyOp13
 70
     1
102
RTVSPropertyOp14
 70
     1
102
RTVSPropertyOp15
 70
     1
102
RTVSPropertyOp16
 70
     1
102
RTVSPropertyOp17
 70
     1
102
RTVSPropertyOp18
 70
     1
102
RTVSPropertyOp19
 70
     1
102
RTVSPropertyOp20
 70
     1
102
RTVSPropertyOp21
 70
     1
102
RTVSPropertyOp22
 70
     1
102
RTVSPropertyOp23
 70
     1
102
RTVSPropertyOp24
 70
     1
102
RTVSPropertyOp25
 70
     1
102
RTVSPropertyOp26
 70
     1
102
RTVSPropertyOp27
 70
     1
102
RTVSPropertyOp28
 70
     1
102
RTVSPropertyOp29
 70
     1
102
RTVSPropertyOp30
 70
     1
102
RTVSPropertyOp31
 70
     1
102
RTVSPropertyOp32
 70
     1
102
RTVSPropertyOp33
 70
     1
102
RTVSPropertyOp34
 70
     1
102
RTVSPropertyOp35
 70
     1
102
RTVSPropertyOp36
 70
     1
102
RTVSPropertyOp37
 70
     1
102
RTVSPropertyOp38
 70
     1
102
RTVSPropertyOp39
 70
     1
102
RTVSPropertyOp40
 70
     1
102
RTVSPropertyOp41
 70
     1
102
RTVSPropertyOp42
 70
     1
102
RTVSPropertyOp43
 70
     1
102
RTVSPropertyOp44
 70
     1
102
RTVSPropertyOp45
 70
     1
102
RTVSPropertyOp46
 70
     1
102
RTVSPropertyOp47
 70
     1
102
RTVSPropertyOp48
 70
     1
102
RTVSPropertyOp49
 70
     1
102
RTVSPropertyOp50
 70
     1
102
RTVSPropertyOp51
 70
     0
102
RTVSPropertyOp52
 70
     0
102
RTVSPropertyOp53
 70
     1
102
RTVSPropertyOp54
 70
     1
102
RTVSPropertyOp55
 70
     1
102
RTVSPropertyOp56
 70
     1
102
RTVSPropertyOp57
 70
     1
102
RTVSPropertyOp58
 70
     1
102
RTVSPropertyOp59
 70
     1
102
RTVSPropertyOp60
 70
     1
102
RTVSPropertyOp61
 70
     1
102
RTVSPropertyOp62
 70
     1
  0
XRECORD
  5
46C
102
{ACAD_REACTORS
330
46B
102
}
330
46B
100
AcDbXrecord
280
     1
102
RTVSPost2010Prop28
280
     0
102
RTVSPost2010PropOp28
 70
     1
102
RTVSPost2010Prop29
280
     1
102
RTVSPost2010PropOp29
 70
     1
102
RTVSPost2010Prop30
280
     1
102
RTVSPost2010PropOp30
 70
     1
102
RTVSPost2010Prop31
280
     0
102
RTVSPost2010PropOp31
 70
     1
102
RTVSPost2010Prop32
280
     0
102
RTVSPost2010PropOp32
 70
     1
102
RTVSPost2010Prop33
280
     0
102
RTVSPost2010PropOp33
 70
     1
102
RTVSPost2010Prop34
280
     0
102
RTVSPost2010PropOp34
 70
     1
102
RTVSPost2010Prop35
280
     0
102
RTVSPost2010PropOp35
 70
     1
102
RTVSPost2010Prop36
280
     0
102
RTVSPost2010PropOp36
 70
     1
102
RTVSPost2010Prop37
 90
       50
102
RTVSPost2010PropOp37
 70
     1
102
RTVSPost2010Prop38
140
0.0
102
RTVSPost2010PropOp38
 70
     1
102
RTVSPost2010Prop39
140
1.0
102
RTVSPost2010PropOp39
 70
     1
102
RTVSPost2010Prop40
 90
        0
102
RTVSPost2010PropOp40
 70
     1
102
RTVSPost2010Prop41ColorIndex
 90
       18
102
RTVSPost2010Prop41ColorRGB
 90
        0
102
RTVSPost2010PropOp41
 70
     1
102
RTVSPost2010Prop42
 90
       50
102
RTVSPost2010PropOp42
 70
     1
102
RTVSPost2010Prop43
 90
        3
102
RTVSPost2010PropOp43
 70
     1
102
RTVSPost2010Prop44ColorIndex
 90
        5
102
RTVSPost2010Prop44ColorRGB
 90
      255
102
RTVSPost2010PropOp44
 70
     1
102
RTVSPost2010Prop45
280
     0
102
RTVSPost2010PropOp45
 70
     1
102
RTVSPost2010Prop46
 90
       50
102
RTVSPost2010PropOp46
 70
     1
102
RTVSPost2010Prop47
 90
       50
102
RTVSPost2010PropOp47
 70
     1
102
RTVSPost2010Prop48
 90
       50
102
RTVSPost2010PropOp48
 70
     1
102
RTVSPost2010Prop49
280
     0
102
RTVSPost2010PropOp49
 70
     1
102
RTVSPost2010Prop50
 90
       50
102
RTVSPost2010PropOp50
 70
     1
102
RTVSPost2010Prop51ColorIndex
 90
      256
102
RTVSPost2010Prop51ColorRGB
 90
-16777216
102
RTVSPost2010PropOp51
 70
     0
102
RTVSPost2010Prop52
140
1.0
102
RTVSPost2010PropOp52
 70
     0
102
RTVSPost2010Prop53
 90
        2
102
RTVSPost2010PropOp53
 70
     1
102
RTVSPost2010Prop54
  1
strokes_ogs.tif
102
RTVSPost2010PropOp54
 70
     1
102
RTVSPost2010Prop55
280
     0
102
RTVSPost2010PropOp55
 70
     1
102
RTVSPost2010Prop56
140
1.0
102
RTVSPost2010PropOp56
 70
     1
102
RTVSPost2010Prop57
140
1.0
102
RTVSPost2010PropOp57
 70
     1
102
RTVSPropertyOp0
 70
     1
102
RTVSPropertyOp1
 70
     1
102
RTVSPropertyOp2
 70
     1
102
RTVSPropertyOp3
 70
     1
102
RTVSPropertyOp4
 70
     1
102
RTVSPropertyOp5
 70
     1
102
RTVSPropertyOp6
 70
     1
102
RTVSPropertyOp7
 70
     1
102
RTVSPropertyOp8
 70
     1
102
RTVSPropertyOp9
 70
     1
102
RTVSPropertyOp10
 70
     1
102
RTVSPropertyOp11
 70
     1
102
RTVSPropertyOp12
 70
     1
102
RTVSPropertyOp13
 70
     1
102
RTVSPropertyOp14
 70
     1
102
RTVSPropertyOp15
 70
     1
102
RTVSPropertyOp16
 70
     1
102
RTVSPropertyOp17
 70
     1
102
RTVSPropertyOp18
 70
     1
102
RTVSPropertyOp19
 70
     1
102
RTVSPropertyOp20
 70
     1
102
RTVSPropertyOp21
 70
     1
102
RTVSPropertyOp22
 70
     1
102
RTVSPropertyOp23
 70
     1
102
RTVSPropertyOp24
 70
     1
102
RTVSPropertyOp25
 70
     1
102
RTVSPropertyOp26
 70
     1
102
RTVSPropertyOp27
 70
     1
102
RTVSPropertyOp28
 70
     1
102
RTVSPropertyOp29
 70
     1
102
RTVSPropertyOp30
 70
     1
102
RTVSPropertyOp31
 70
     1
102
RTVSPropertyOp32
 70
     1
102
RTVSPropertyOp33
 70
     1
102
RTVSPropertyOp34
 70
     1
102
RTVSPropertyOp35
 70
     1
102
RTVSPropertyOp36
 70
     1
102
RTVSPropertyOp37
 70
     1
102
RTVSPropertyOp38
 70
     1
102
RTVSPropertyOp39
 70
     1
102
RTVSPropertyOp40
 70
     1
102
RTVSPropertyOp41
 70
     1
102
RTVSPropertyOp42
 70
     1
102
RTVSPropertyOp43
 70
     1
102
RTVSPropertyOp44
 70
     1
102
RTVSPropertyOp45
 70
     1
102
RTVSPropertyOp46
 70
     1
102
RTVSPropertyOp47
 70
     1
102
RTVSPropertyOp48
 70
     1
102
RTVSPropertyOp49
 70
     1
102
RTVSPropertyOp50
 70
     1
102
RTVSPropertyOp51
 70
     0
102
RTVSPropertyOp52
 70
     0
102
RTVSPropertyOp53
 70
     1
102
RTVSPropertyOp54
 70
     1
102
RTVSPropertyOp55
 70
     1
102
RTVSPropertyOp56
 70
     1
102
RTVSPropertyOp57
 70
     1
102
RTVSPropertyOp58
 70
     1
102
RTVSPropertyOp59
 70
     1
102
RTVSPropertyOp60
 70
     1
102
RTVSPropertyOp61
 70
     1
102
RTVSPropertyOp62
 70
     1
  0
XRECORD
  5
486
102
{ACAD_REACTORS
330
485
102
}
330
485
100
AcDbXrecord
280
     1
102
RTVSPost2010Prop28
280
     0
102
RTVSPost2010PropOp28
 70
     1
102
RTVSPost2010Prop29
280
     1
102
RTVSPost2010PropOp29
 70
     1
102
RTVSPost2010Prop30
280
     1
102
RTVSPost2010PropOp30
 70
     1
102
RTVSPost2010Prop31
280
     0
102
RTVSPost2010PropOp31
 70
     1
102
RTVSPost2010Prop32
280
     0
102
RTVSPost2010PropOp32
 70
     1
102
RTVSPost2010Prop33
280
     0
102
RTVSPost2010PropOp33
 70
     1
102
RTVSPost2010Prop34
280
     0
102
RTVSPost2010PropOp34
 70
     1
102
RTVSPost2010Prop35
280
     0
102
RTVSPost2010PropOp35
 70
     1
102
RTVSPost2010Prop36
280
     0
102
RTVSPost2010PropOp36
 70
     1
102
RTVSPost2010Prop37
 90
       50
102
RTVSPost2010PropOp37
 70
     0
102
RTVSPost2010Prop38
140
0.0
102
RTVSPost2010PropOp38
 70
     0
102
RTVSPost2010Prop39
140
1.0
102
RTVSPost2010PropOp39
 70
     0
102
RTVSPost2010Prop40
 90
        0
102
RTVSPost2010PropOp40
 70
     0
102
RTVSPost2010Prop41ColorIndex
 90
       18
102
RTVSPost2010Prop41ColorRGB
 90
        0
102
RTVSPost2010PropOp41
 70
     0
102
RTVSPost2010Prop42
 90
       50
102
RTVSPost2010PropOp42
 70
     0
102
RTVSPost2010Prop43
 90
        3
102
RTVSPost2010PropOp43
 70
     0
102
RTVSPost2010Prop44ColorIndex
 90
        5
102
RTVSPost2010Prop44ColorRGB
 90
      255
102
RTVSPost2010PropOp44
 70
     0
102
RTVSPost2010Prop45
280
     0
102
RTVSPost2010PropOp45
 70
     1
102
RTVSPost2010Prop46
 90
       50
102
RTVSPost2010PropOp46
 70
     0
102
RTVSPost2010Prop47
 90
       50
102
RTVSPost2010PropOp47
 70
     0
102
RTVSPost2010Prop48
 90
       50
102
RTVSPost2010PropOp48
 70
     0
102
RTVSPost2010Prop49
280
     0
102
RTVSPost2010PropOp49
 70
     1
102
RTVSPost2010Prop50
 90
       50
102
RTVSPost2010PropOp50
 70
     0
102
RTVSPost2010Prop51ColorIndex
 90
      256
102
RTVSPost2010Prop51ColorRGB
 90
-16777216
102
RTVSPost2010PropOp51
 70
     0
102
RTVSPost2010Prop52
140
1.0
102
RTVSPost2010PropOp52
 70
     0
102
RTVSPost2010Prop53
 90
        2
102
RTVSPost2010PropOp53
 70
     0
102
RTVSPost2010Prop54
  1
strokes_ogs.tif
102
RTVSPost2010PropOp54
 70
     0
102
RTVSPost2010Prop55
280
     0
102
RTVSPost2010PropOp55
 70
     1
102
RTVSPost2010Prop56
140
1.0
102
RTVSPost2010PropOp56
 70
     0
102
RTVSPost2010Prop57
140
1.0
102
RTVSPost2010PropOp57
 70
     0
102
RTVSPropertyOp0
 70
     0
102
RTVSPropertyOp1
 70
     0
102
RTVSPropertyOp2
 70
     0
102
RTVSPropertyOp3
 70
     0
102
RTVSPropertyOp4
 70
     0
102
RTVSPropertyOp5
 70
     0
102
RTVSPropertyOp6
 70
     0
102
RTVSPropertyOp7
 70
     0
102
RTVSPropertyOp8
 70
     0
102
RTVSPropertyOp9
 70
     0
102
RTVSPropertyOp10
 70
     0
102
RTVSPropertyOp11
 70
     0
102
RTVSPropertyOp12
 70
     0
102
RTVSPropertyOp13
 70
     0
102
RTVSPropertyOp14
 70
     2
102
RTVSPropertyOp15
 70
     0
102
RTVSPropertyOp16
 70
     0
102
RTVSPropertyOp17
 70
     0
102
RTVSPropertyOp18
 70
     0
102
RTVSPropertyOp19
 70
     0
102
RTVSPropertyOp20
 70
     0
102
RTVSPropertyOp21
 70
     0
102
RTVSPropertyOp22
 70
     0
102
RTVSPropertyOp23
 70
     0
102
RTVSPropertyOp24
 70
     0
102
RTVSPropertyOp25
 70
     0
102
RTVSPropertyOp26
 70
     0
102
RTVSPropertyOp27
 70
     0
102
RTVSPropertyOp28
 70
     1
102
RTVSPropertyOp29
 70
     1
102
RTVSPropertyOp30
 70
     1
102
RTVSPropertyOp31
 70
     1
102
RTVSPropertyOp32
 70
     1
102
RTVSPropertyOp33
 70
     1
102
RTVSPropertyOp34
 70
     1
102
RTVSPropertyOp35
 70
     1
102
RTVSPropertyOp36
 70
     1
102
RTVSPropertyOp37
 70
     0
102
RTVSPropertyOp38
 70
     0
102
RTVSPropertyOp39
 70
     0
102
RTVSPropertyOp40
 70
     0
102
RTVSPropertyOp41
 70
     0
102
RTVSPropertyOp42
 70
     0
102
RTVSPropertyOp43
 70
     0
102
RTVSPropertyOp44
 70
     0
102
RTVSPropertyOp45
 70
     1
102
RTVSPropertyOp46
 70
     0
102
RTVSPropertyOp47
 70
     0
102
RTVSPropertyOp48
 70
     0
102
RTVSPropertyOp49
 70
     1
102
RTVSPropertyOp50
 70
     0
102
RTVSPropertyOp51
 70
     0
102
RTVSPropertyOp52
 70
     0
102
RTVSPropertyOp53
 70
     0
102
RTVSPropertyOp54
 70
     0
102
RTVSPropertyOp55
 70
     1
102
RTVSPropertyOp56
 70
     0
102
RTVSPropertyOp57
 70
     0
102
RTVSPropertyOp58
 70
     0
102
RTVSPropertyOp59
 70
     0
102
RTVSPropertyOp60
 70
     0
102
RTVSPropertyOp61
 70
     0
102
RTVSPropertyOp62
 70
     0
  0
XRECORD
  5
474
102
{ACAD_REACTORS
330
473
102
}
330
473
100
AcDbXrecord
280
     1
102
RTVSPost2010Prop28
280
     0
102
RTVSPost2010PropOp28
 70
     1
102
RTVSPost2010Prop29
280
     1
102
RTVSPost2010PropOp29
 70
     1
102
RTVSPost2010Prop30
280
     1
102
RTVSPost2010PropOp30
 70
     1
102
RTVSPost2010Prop31
280
     0
102
RTVSPost2010PropOp31
 70
     1
102
RTVSPost2010Prop32
280
     0
102
RTVSPost2010PropOp32
 70
     1
102
RTVSPost2010Prop33
280
     0
102
RTVSPost2010PropOp33
 70
     1
102
RTVSPost2010Prop34
280
     0
102
RTVSPost2010PropOp34
 70
     1
102
RTVSPost2010Prop35
280
     0
102
RTVSPost2010PropOp35
 70
     1
102
RTVSPost2010Prop36
280
     0
102
RTVSPost2010PropOp36
 70
     1
102
RTVSPost2010Prop37
 90
       50
102
RTVSPost2010PropOp37
 70
     1
102
RTVSPost2010Prop38
140
0.0
102
RTVSPost2010PropOp38
 70
     1
102
RTVSPost2010Prop39
140
1.0
102
RTVSPost2010PropOp39
 70
     1
102
RTVSPost2010Prop40
 90
        0
102
RTVSPost2010PropOp40
 70
     1
102
RTVSPost2010Prop41ColorIndex
 90
       18
102
RTVSPost2010Prop41ColorRGB
 90
        0
102
RTVSPost2010PropOp41
 70
     1
102
RTVSPost2010Prop42
 90
       50
102
RTVSPost2010PropOp42
 70
     1
102
RTVSPost2010Prop43
 90
        3
102
RTVSPost2010PropOp43
 70
     1
102
RTVSPost2010Prop44ColorIndex
 90
        5
102
RTVSPost2010Prop44ColorRGB
 90
      255
102
RTVSPost2010PropOp44
 70
     1
102
RTVSPost2010Prop45
280
     0
102
RTVSPost2010PropOp45
 70
     1
102
RTVSPost2010Prop46
 90
       50
102
RTVSPost2010PropOp46
 70
     1
102
RTVSPost2010Prop47
 90
       50
102
RTVSPost2010PropOp47
 70
     1
102
RTVSPost2010Prop48
 90
       50
102
RTVSPost2010PropOp48
 70
     1
102
RTVSPost2010Prop49
280
     0
102
RTVSPost2010PropOp49
 70
     1
102
RTVSPost2010Prop50
 90
       50
102
RTVSPost2010PropOp50
 70
     1
102
RTVSPost2010Prop51ColorIndex
 90
      256
102
RTVSPost2010Prop51ColorRGB
 90
-16777216
102
RTVSPost2010PropOp51
 70
     0
102
RTVSPost2010Prop52
140
1.0
102
RTVSPost2010PropOp52
 70
     0
102
RTVSPost2010Prop53
 90
        2
102
RTVSPost2010PropOp53
 70
     1
102
RTVSPost2010Prop54
  1
strokes_ogs.tif
102
RTVSPost2010PropOp54
 70
     1
102
RTVSPost2010Prop55
280
     0
102
RTVSPost2010PropOp55
 70
     1
102
RTVSPost2010Prop56
140
1.0
102
RTVSPost2010PropOp56
 70
     1
102
RTVSPost2010Prop57
140
1.0
102
RTVSPost2010PropOp57
 70
     1
102
RTVSPropertyOp0
 70
     1
102
RTVSPropertyOp1
 70
     1
102
RTVSPropertyOp2
 70
     1
102
RTVSPropertyOp3
 70
     1
102
RTVSPropertyOp4
 70
     1
102
RTVSPropertyOp5
 70
     1
102
RTVSPropertyOp6
 70
     1
102
RTVSPropertyOp7
 70
     1
102
RTVSPropertyOp8
 70
     1
102
RTVSPropertyOp9
 70
     1
102
RTVSPropertyOp10
 70
     1
102
RTVSPropertyOp11
 70
     1
102
RTVSPropertyOp12
 70
     1
102
RTVSPropertyOp13
 70
     1
102
RTVSPropertyOp14
 70
     1
102
RTVSPropertyOp15
 70
     1
102
RTVSPropertyOp16
 70
     1
102
RTVSPropertyOp17
 70
     1
102
RTVSPropertyOp18
 70
     1
102
RTVSPropertyOp19
 70
     1
102
RTVSPropertyOp20
 70
     1
102
RTVSPropertyOp21
 70
     1
102
RTVSPropertyOp22
 70
     1
102
RTVSPropertyOp23
 70
     1
102
RTVSPropertyOp24
 70
     1
102
RTVSPropertyOp25
 70
     1
102
RTVSPropertyOp26
 70
     1
102
RTVSPropertyOp27
 70
     1
102
RTVSPropertyOp28
 70
     1
102
RTVSPropertyOp29
 70
     1
102
RTVSPropertyOp30
 70
     1
102
RTVSPropertyOp31
 70
     1
102
RTVSPropertyOp32
 70
     1
102
RTVSPropertyOp33
 70
     1
102
RTVSPropertyOp34
 70
     1
102
RTVSPropertyOp35
 70
     1
102
RTVSPropertyOp36
 70
     1
102
RTVSPropertyOp37
 70
     1
102
RTVSPropertyOp38
 70
     1
102
RTVSPropertyOp39
 70
     1
102
RTVSPropertyOp40
 70
     1
102
RTVSPropertyOp41
 70
     1
102
RTVSPropertyOp42
 70
     1
102
RTVSPropertyOp43
 70
     1
102
RTVSPropertyOp44
 70
     1
102
RTVSPropertyOp45
 70
     1
102
RTVSPropertyOp46
 70
     1
102
RTVSPropertyOp47
 70
     1
102
RTVSPropertyOp48
 70
     1
102
RTVSPropertyOp49
 70
     1
102
RTVSPropertyOp50
 70
     1
102
RTVSPropertyOp51
 70
     0
102
RTVSPropertyOp52
 70
     0
102
RTVSPropertyOp53
 70
     1
102
RTVSPropertyOp54
 70
     1
102
RTVSPropertyOp55
 70
     1
102
RTVSPropertyOp56
 70
     1
102
RTVSPropertyOp57
 70
     1
102
RTVSPropertyOp58
 70
     1
102
RTVSPropertyOp59
 70
     1
102
RTVSPropertyOp60
 70
     1
102
RTVSPropertyOp61
 70
     1
102
RTVSPropertyOp62
 70
     1
  0
XRECORD
  5
458
102
{ACAD_REACTORS
330
457
102
}
330
457
100
AcDbXrecord
280
     1
102
RTVSPost2010Prop28
280
     0
102
RTVSPost2010PropOp28
 70
     1
102
RTVSPost2010Prop29
280
     1
102
RTVSPost2010PropOp29
 70
     1
102
RTVSPost2010Prop30
280
     1
102
RTVSPost2010PropOp30
 70
     1
102
RTVSPost2010Prop31
280
     0
102
RTVSPost2010PropOp31
 70
     1
102
RTVSPost2010Prop32
280
     0
102
RTVSPost2010PropOp32
 70
     1
102
RTVSPost2010Prop33
280
     0
102
RTVSPost2010PropOp33
 70
     1
102
RTVSPost2010Prop34
280
     0
102
RTVSPost2010PropOp34
 70
     1
102
RTVSPost2010Prop35
280
     0
102
RTVSPost2010PropOp35
 70
     1
102
RTVSPost2010Prop36
280
     0
102
RTVSPost2010PropOp36
 70
     1
102
RTVSPost2010Prop37
 90
       50
102
RTVSPost2010PropOp37
 70
     1
102
RTVSPost2010Prop38
140
0.0
102
RTVSPost2010PropOp38
 70
     1
102
RTVSPost2010Prop39
140
1.0
102
RTVSPost2010PropOp39
 70
     1
102
RTVSPost2010Prop40
 90
        0
102
RTVSPost2010PropOp40
 70
     1
102
RTVSPost2010Prop41ColorIndex
 90
       18
102
RTVSPost2010Prop41ColorRGB
 90
        0
102
RTVSPost2010PropOp41
 70
     1
102
RTVSPost2010Prop42
 90
       50
102
RTVSPost2010PropOp42
 70
     1
102
RTVSPost2010Prop43
 90
        3
102
RTVSPost2010PropOp43
 70
     1
102
RTVSPost2010Prop44ColorIndex
 90
        5
102
RTVSPost2010Prop44ColorRGB
 90
      255
102
RTVSPost2010PropOp44
 70
     1
102
RTVSPost2010Prop45
280
     0
102
RTVSPost2010PropOp45
 70
     1
102
RTVSPost2010Prop46
 90
       50
102
RTVSPost2010PropOp46
 70
     1
102
RTVSPost2010Prop47
 90
       50
102
RTVSPost2010PropOp47
 70
     1
102
RTVSPost2010Prop48
 90
       50
102
RTVSPost2010PropOp48
 70
     1
102
RTVSPost2010Prop49
280
     0
102
RTVSPost2010PropOp49
 70
     1
102
RTVSPost2010Prop50
 90
       50
102
RTVSPost2010PropOp50
 70
     1
102
RTVSPost2010Prop51ColorIndex
 90
      256
102
RTVSPost2010Prop51ColorRGB
 90
-16777216
102
RTVSPost2010PropOp51
 70
     0
102
RTVSPost2010Prop52
140
1.0
102
RTVSPost2010PropOp52
 70
     0
102
RTVSPost2010Prop53
 90
        2
102
RTVSPost2010PropOp53
 70
     1
102
RTVSPost2010Prop54
  1
strokes_ogs.tif
102
RTVSPost2010PropOp54
 70
     1
102
RTVSPost2010Prop55
280
     0
102
RTVSPost2010PropOp55
 70
     1
102
RTVSPost2010Prop56
140
1.0
102
RTVSPost2010PropOp56
 70
     1
102
RTVSPost2010Prop57
140
1.0
102
RTVSPost2010PropOp57
 70
     1
102
RTVSPropertyOp0
 70
     1
102
RTVSPropertyOp1
 70
     1
102
RTVSPropertyOp2
 70
     1
102
RTVSPropertyOp3
 70
     1
102
RTVSPropertyOp4
 70
     1
102
RTVSPropertyOp5
 70
     1
102
RTVSPropertyOp6
 70
     1
102
RTVSPropertyOp7
 70
     1
102
RTVSPropertyOp8
 70
     1
102
RTVSPropertyOp9
 70
     1
102
RTVSPropertyOp10
 70
     1
102
RTVSPropertyOp11
 70
     1
102
RTVSPropertyOp12
 70
     1
102
RTVSPropertyOp13
 70
     1
102
RTVSPropertyOp14
 70
     1
102
RTVSPropertyOp15
 70
     1
102
RTVSPropertyOp16
 70
     1
102
RTVSPropertyOp17
 70
     1
102
RTVSPropertyOp18
 70
     1
102
RTVSPropertyOp19
 70
     1
102
RTVSPropertyOp20
 70
     1
102
RTVSPropertyOp21
 70
     1
102
RTVSPropertyOp22
 70
     1
102
RTVSPropertyOp23
 70
     1
102
RTVSPropertyOp24
 70
     1
102
RTVSPropertyOp25
 70
     1
102
RTVSPropertyOp26
 70
     1
102
RTVSPropertyOp27
 70
     1
102
RTVSPropertyOp28
 70
     1
102
RTVSPropertyOp29
 70
     1
102
RTVSPropertyOp30
 70
     1
102
RTVSPropertyOp31
 70
     1
102
RTVSPropertyOp32
 70
     1
102
RTVSPropertyOp33
 70
     1
102
RTVSPropertyOp34
 70
     1
102
RTVSPropertyOp35
 70
     1
102
RTVSPropertyOp36
 70
     1
102
RTVSPropertyOp37
 70
     1
102
RTVSPropertyOp38
 70
     1
102
RTVSPropertyOp39
 70
     1
102
RTVSPropertyOp40
 70
     1
102
RTVSPropertyOp41
 70
     1
102
RTVSPropertyOp42
 70
     1
102
RTVSPropertyOp43
 70
     1
102
RTVSPropertyOp44
 70
     1
102
RTVSPropertyOp45
 70
     1
102
RTVSPropertyOp46
 70
     1
102
RTVSPropertyOp47
 70
     1
102
RTVSPropertyOp48
 70
     1
102
RTVSPropertyOp49
 70
     1
102
RTVSPropertyOp50
 70
     1
102
RTVSPropertyOp51
 70
     0
102
RTVSPropertyOp52
 70
     0
102
RTVSPropertyOp53
 70
     1
102
RTVSPropertyOp54
 70
     1
102
RTVSPropertyOp55
 70
     1
102
RTVSPropertyOp56
 70
     1
102
RTVSPropertyOp57
 70
     1
102
RTVSPropertyOp58
 70
     1
102
RTVSPropertyOp59
 70
     1
102
RTVSPropertyOp60
 70
     1
102
RTVSPropertyOp61
 70
     1
102
RTVSPropertyOp62
 70
     1
  0
XRECORD
  5
45A
102
{ACAD_REACTORS
330
459
102
}
330
459
100
AcDbXrecord
280
     1
102
RTVSPost2010Prop28
280
     0
102
RTVSPost2010PropOp28
 70
     1
102
RTVSPost2010Prop29
280
     1
102
RTVSPost2010PropOp29
 70
     1
102
RTVSPost2010Prop30
280
     1
102
RTVSPost2010PropOp30
 70
     1
102
RTVSPost2010Prop31
280
     0
102
RTVSPost2010PropOp31
 70
     1
102
RTVSPost2010Prop32
280
     0
102
RTVSPost2010PropOp32
 70
     1
102
RTVSPost2010Prop33
280
     0
102
RTVSPost2010PropOp33
 70
     1
102
RTVSPost2010Prop34
280
     0
102
RTVSPost2010PropOp34
 70
     1
102
RTVSPost2010Prop35
280
     0
102
RTVSPost2010PropOp35
 70
     1
102
RTVSPost2010Prop36
280
     0
102
RTVSPost2010PropOp36
 70
     1
102
RTVSPost2010Prop37
 90
       50
102
RTVSPost2010PropOp37
 70
     1
102
RTVSPost2010Prop38
140
0.0
102
RTVSPost2010PropOp38
 70
     1
102
RTVSPost2010Prop39
140
1.0
102
RTVSPost2010PropOp39
 70
     1
102
RTVSPost2010Prop40
 90
        0
102
RTVSPost2010PropOp40
 70
     1
102
RTVSPost2010Prop41ColorIndex
 90
       18
102
RTVSPost2010Prop41ColorRGB
 90
        0
102
RTVSPost2010PropOp41
 70
     1
102
RTVSPost2010Prop42
 90
       50
102
RTVSPost2010PropOp42
 70
     1
102
RTVSPost2010Prop43
 90
        3
102
RTVSPost2010PropOp43
 70
     1
102
RTVSPost2010Prop44ColorIndex
 90
        5
102
RTVSPost2010Prop44ColorRGB
 90
      255
102
RTVSPost2010PropOp44
 70
     1
102
RTVSPost2010Prop45
280
     0
102
RTVSPost2010PropOp45
 70
     1
102
RTVSPost2010Prop46
 90
       50
102
RTVSPost2010PropOp46
 70
     1
102
RTVSPost2010Prop47
 90
       50
102
RTVSPost2010PropOp47
 70
     1
102
RTVSPost2010Prop48
 90
       50
102
RTVSPost2010PropOp48
 70
     1
102
RTVSPost2010Prop49
280
     0
102
RTVSPost2010PropOp49
 70
     1
102
RTVSPost2010Prop50
 90
       50
102
RTVSPost2010PropOp50
 70
     1
102
RTVSPost2010Prop51ColorIndex
 90
      256
102
RTVSPost2010Prop51ColorRGB
 90
-16777216
102
RTVSPost2010PropOp51
 70
     0
102
RTVSPost2010Prop52
140
1.0
102
RTVSPost2010PropOp52
 70
     0
102
RTVSPost2010Prop53
 90
        2
102
RTVSPost2010PropOp53
 70
     1
102
RTVSPost2010Prop54
  1
strokes_ogs.tif
102
RTVSPost2010PropOp54
 70
     1
102
RTVSPost2010Prop55
280
     0
102
RTVSPost2010PropOp55
 70
     1
102
RTVSPost2010Prop56
140
1.0
102
RTVSPost2010PropOp56
 70
     1
102
RTVSPost2010Prop57
140
1.0
102
RTVSPost2010PropOp57
 70
     1
102
RTVSPropertyOp0
 70
     1
102
RTVSPropertyOp1
 70
     1
102
RTVSPropertyOp2
 70
     1
102
RTVSPropertyOp3
 70
     1
102
RTVSPropertyOp4
 70
     1
102
RTVSPropertyOp5
 70
     1
102
RTVSPropertyOp6
 70
     1
102
RTVSPropertyOp7
 70
     1
102
RTVSPropertyOp8
 70
     1
102
RTVSPropertyOp9
 70
     1
102
RTVSPropertyOp10
 70
     1
102
RTVSPropertyOp11
 70
     1
102
RTVSPropertyOp12
 70
     1
102
RTVSPropertyOp13
 70
     1
102
RTVSPropertyOp14
 70
     1
102
RTVSPropertyOp15
 70
     1
102
RTVSPropertyOp16
 70
     1
102
RTVSPropertyOp17
 70
     1
102
RTVSPropertyOp18
 70
     1
102
RTVSPropertyOp19
 70
     1
102
RTVSPropertyOp20
 70
     1
102
RTVSPropertyOp21
 70
     1
102
RTVSPropertyOp22
 70
     1
102
RTVSPropertyOp23
 70
     1
102
RTVSPropertyOp24
 70
     1
102
RTVSPropertyOp25
 70
     1
102
RTVSPropertyOp26
 70
     1
102
RTVSPropertyOp27
 70
     1
102
RTVSPropertyOp28
 70
     1
102
RTVSPropertyOp29
 70
     1
102
RTVSPropertyOp30
 70
     1
102
RTVSPropertyOp31
 70
     1
102
RTVSPropertyOp32
 70
     1
102
RTVSPropertyOp33
 70
     1
102
RTVSPropertyOp34
 70
     1
102
RTVSPropertyOp35
 70
     1
102
RTVSPropertyOp36
 70
     1
102
RTVSPropertyOp37
 70
     1
102
RTVSPropertyOp38
 70
     1
102
RTVSPropertyOp39
 70
     1
102
RTVSPropertyOp40
 70
     1
102
RTVSPropertyOp41
 70
     1
102
RTVSPropertyOp42
 70
     1
102
RTVSPropertyOp43
 70
     1
102
RTVSPropertyOp44
 70
     1
102
RTVSPropertyOp45
 70
     1
102
RTVSPropertyOp46
 70
     1
102
RTVSPropertyOp47
 70
     1
102
RTVSPropertyOp48
 70
     1
102
RTVSPropertyOp49
 70
     1
102
RTVSPropertyOp50
 70
     1
102
RTVSPropertyOp51
 70
     0
102
RTVSPropertyOp52
 70
     0
102
RTVSPropertyOp53
 70
     1
102
RTVSPropertyOp54
 70
     1
102
RTVSPropertyOp55
 70
     1
102
RTVSPropertyOp56
 70
     1
102
RTVSPropertyOp57
 70
     1
102
RTVSPropertyOp58
 70
     1
102
RTVSPropertyOp59
 70
     1
102
RTVSPropertyOp60
 70
     1
102
RTVSPropertyOp61
 70
     1
102
RTVSPropertyOp62
 70
     1
  0
XRECORD
  5
45C
102
{ACAD_REACTORS
330
45B
102
}
330
45B
100
AcDbXrecord
280
     1
102
RTVSPost2010Prop28
280
     0
102
RTVSPost2010PropOp28
 70
     1
102
RTVSPost2010Prop29
280
     1
102
RTVSPost2010PropOp29
 70
     1
102
RTVSPost2010Prop30
280
     1
102
RTVSPost2010PropOp30
 70
     1
102
RTVSPost2010Prop31
280
     0
102
RTVSPost2010PropOp31
 70
     1
102
RTVSPost2010Prop32
280
     0
102
RTVSPost2010PropOp32
 70
     1
102
RTVSPost2010Prop33
280
     0
102
RTVSPost2010PropOp33
 70
     1
102
RTVSPost2010Prop34
280
     0
102
RTVSPost2010PropOp34
 70
     1
102
RTVSPost2010Prop35
280
     0
102
RTVSPost2010PropOp35
 70
     1
102
RTVSPost2010Prop36
280
     0
102
RTVSPost2010PropOp36
 70
     1
102
RTVSPost2010Prop37
 90
       50
102
RTVSPost2010PropOp37
 70
     1
102
RTVSPost2010Prop38
140
0.0
102
RTVSPost2010PropOp38
 70
     1
102
RTVSPost2010Prop39
140
1.0
102
RTVSPost2010PropOp39
 70
     1
102
RTVSPost2010Prop40
 90
        0
102
RTVSPost2010PropOp40
 70
     1
102
RTVSPost2010Prop41ColorIndex
 90
       18
102
RTVSPost2010Prop41ColorRGB
 90
        0
102
RTVSPost2010PropOp41
 70
     1
102
RTVSPost2010Prop42
 90
       50
102
RTVSPost2010PropOp42
 70
     1
102
RTVSPost2010Prop43
 90
        3
102
RTVSPost2010PropOp43
 70
     1
102
RTVSPost2010Prop44ColorIndex
 90
        5
102
RTVSPost2010Prop44ColorRGB
 90
      255
102
RTVSPost2010PropOp44
 70
     1
102
RTVSPost2010Prop45
280
     0
102
RTVSPost2010PropOp45
 70
     1
102
RTVSPost2010Prop46
 90
       50
102
RTVSPost2010PropOp46
 70
     1
102
RTVSPost2010Prop47
 90
       50
102
RTVSPost2010PropOp47
 70
     1
102
RTVSPost2010Prop48
 90
       50
102
RTVSPost2010PropOp48
 70
     1
102
RTVSPost2010Prop49
280
     0
102
RTVSPost2010PropOp49
 70
     1
102
RTVSPost2010Prop50
 90
       50
102
RTVSPost2010PropOp50
 70
     1
102
RTVSPost2010Prop51ColorIndex
 90
      256
102
RTVSPost2010Prop51ColorRGB
 90
-16777216
102
RTVSPost2010PropOp51
 70
     0
102
RTVSPost2010Prop52
140
1.0
102
RTVSPost2010PropOp52
 70
     0
102
RTVSPost2010Prop53
 90
        2
102
RTVSPost2010PropOp53
 70
     1
102
RTVSPost2010Prop54
  1
strokes_ogs.tif
102
RTVSPost2010PropOp54
 70
     1
102
RTVSPost2010Prop55
280
     0
102
RTVSPost2010PropOp55
 70
     1
102
RTVSPost2010Prop56
140
1.0
102
RTVSPost2010PropOp56
 70
     1
102
RTVSPost2010Prop57
140
1.0
102
RTVSPost2010PropOp57
 70
     1
102
RTVSPropertyOp0
 70
     1
102
RTVSPropertyOp1
 70
     1
102
RTVSPropertyOp2
 70
     1
102
RTVSPropertyOp3
 70
     1
102
RTVSPropertyOp4
 70
     1
102
RTVSPropertyOp5
 70
     1
102
RTVSPropertyOp6
 70
     1
102
RTVSPropertyOp7
 70
     1
102
RTVSPropertyOp8
 70
     1
102
RTVSPropertyOp9
 70
     1
102
RTVSPropertyOp10
 70
     1
102
RTVSPropertyOp11
 70
     1
102
RTVSPropertyOp12
 70
     1
102
RTVSPropertyOp13
 70
     1
102
RTVSPropertyOp14
 70
     1
102
RTVSPropertyOp15
 70
     1
102
RTVSPropertyOp16
 70
     1
102
RTVSPropertyOp17
 70
     1
102
RTVSPropertyOp18
 70
     1
102
RTVSPropertyOp19
 70
     1
102
RTVSPropertyOp20
 70
     1
102
RTVSPropertyOp21
 70
     1
102
RTVSPropertyOp22
 70
     1
102
RTVSPropertyOp23
 70
     1
102
RTVSPropertyOp24
 70
     1
102
RTVSPropertyOp25
 70
     1
102
RTVSPropertyOp26
 70
     1
102
RTVSPropertyOp27
 70
     1
102
RTVSPropertyOp28
 70
     1
102
RTVSPropertyOp29
 70
     1
102
RTVSPropertyOp30
 70
     1
102
RTVSPropertyOp31
 70
     1
102
RTVSPropertyOp32
 70
     1
102
RTVSPropertyOp33
 70
     1
102
RTVSPropertyOp34
 70
     1
102
RTVSPropertyOp35
 70
     1
102
RTVSPropertyOp36
 70
     1
102
RTVSPropertyOp37
 70
     1
102
RTVSPropertyOp38
 70
     1
102
RTVSPropertyOp39
 70
     1
102
RTVSPropertyOp40
 70
     1
102
RTVSPropertyOp41
 70
     1
102
RTVSPropertyOp42
 70
     1
102
RTVSPropertyOp43
 70
     1
102
RTVSPropertyOp44
 70
     1
102
RTVSPropertyOp45
 70
     1
102
RTVSPropertyOp46
 70
     1
102
RTVSPropertyOp47
 70
     1
102
RTVSPropertyOp48
 70
     1
102
RTVSPropertyOp49
 70
     1
102
RTVSPropertyOp50
 70
     1
102
RTVSPropertyOp51
 70
     0
102
RTVSPropertyOp52
 70
     0
102
RTVSPropertyOp53
 70
     1
102
RTVSPropertyOp54
 70
     1
102
RTVSPropertyOp55
 70
     1
102
RTVSPropertyOp56
 70
     1
102
RTVSPropertyOp57
 70
     1
102
RTVSPropertyOp58
 70
     1
102
RTVSPropertyOp59
 70
     1
102
RTVSPropertyOp60
 70
     1
102
RTVSPropertyOp61
 70
     1
102
RTVSPropertyOp62
 70
     1
  0
XRECORD
  5
45E
102
{ACAD_REACTORS
330
45D
102
}
330
45D
100
AcDbXrecord
280
     1
102
RTVSPost2010Prop28
280
     0
102
RTVSPost2010PropOp28
 70
     1
102
RTVSPost2010Prop29
280
     1
102
RTVSPost2010PropOp29
 70
     1
102
RTVSPost2010Prop30
280
     1
102
RTVSPost2010PropOp30
 70
     1
102
RTVSPost2010Prop31
280
     0
102
RTVSPost2010PropOp31
 70
     1
102
RTVSPost2010Prop32
280
     0
102
RTVSPost2010PropOp32
 70
     1
102
RTVSPost2010Prop33
280
     0
102
RTVSPost2010PropOp33
 70
     1
102
RTVSPost2010Prop34
280
     0
102
RTVSPost2010PropOp34
 70
     1
102
RTVSPost2010Prop35
280
     0
102
RTVSPost2010PropOp35
 70
     1
102
RTVSPost2010Prop36
280
     0
102
RTVSPost2010PropOp36
 70
     1
102
RTVSPost2010Prop37
 90
       50
102
RTVSPost2010PropOp37
 70
     1
102
RTVSPost2010Prop38
140
0.0
102
RTVSPost2010PropOp38
 70
     1
102
RTVSPost2010Prop39
140
1.0
102
RTVSPost2010PropOp39
 70
     1
102
RTVSPost2010Prop40
 90
        0
102
RTVSPost2010PropOp40
 70
     1
102
RTVSPost2010Prop41ColorIndex
 90
       18
102
RTVSPost2010Prop41ColorRGB
 90
        0
102
RTVSPost2010PropOp41
 70
     1
102
RTVSPost2010Prop42
 90
       50
102
RTVSPost2010PropOp42
 70
     1
102
RTVSPost2010Prop43
 90
        3
102
RTVSPost2010PropOp43
 70
     1
102
RTVSPost2010Prop44ColorIndex
 90
        5
102
RTVSPost2010Prop44ColorRGB
 90
      255
102
RTVSPost2010PropOp44
 70
     1
102
RTVSPost2010Prop45
280
     0
102
RTVSPost2010PropOp45
 70
     1
102
RTVSPost2010Prop46
 90
       50
102
RTVSPost2010PropOp46
 70
     1
102
RTVSPost2010Prop47
 90
       50
102
RTVSPost2010PropOp47
 70
     1
102
RTVSPost2010Prop48
 90
       50
102
RTVSPost2010PropOp48
 70
     1
102
RTVSPost2010Prop49
280
     0
102
RTVSPost2010PropOp49
 70
     1
102
RTVSPost2010Prop50
 90
       50
102
RTVSPost2010PropOp50
 70
     1
102
RTVSPost2010Prop51ColorIndex
 90
      256
102
RTVSPost2010Prop51ColorRGB
 90
-16777216
102
RTVSPost2010PropOp51
 70
     0
102
RTVSPost2010Prop52
140
1.0
102
RTVSPost2010PropOp52
 70
     0
102
RTVSPost2010Prop53
 90
        2
102
RTVSPost2010PropOp53
 70
     1
102
RTVSPost2010Prop54
  1
strokes_ogs.tif
102
RTVSPost2010PropOp54
 70
     1
102
RTVSPost2010Prop55
280
     0
102
RTVSPost2010PropOp55
 70
     1
102
RTVSPost2010Prop56
140
1.0
102
RTVSPost2010PropOp56
 70
     1
102
RTVSPost2010Prop57
140
1.0
102
RTVSPost2010PropOp57
 70
     1
102
RTVSPropertyOp0
 70
     1
102
RTVSPropertyOp1
 70
     1
102
RTVSPropertyOp2
 70
     1
102
RTVSPropertyOp3
 70
     1
102
RTVSPropertyOp4
 70
     1
102
RTVSPropertyOp5
 70
     1
102
RTVSPropertyOp6
 70
     1
102
RTVSPropertyOp7
 70
     1
102
RTVSPropertyOp8
 70
     1
102
RTVSPropertyOp9
 70
     1
102
RTVSPropertyOp10
 70
     1
102
RTVSPropertyOp11
 70
     1
102
RTVSPropertyOp12
 70
     1
102
RTVSPropertyOp13
 70
     1
102
RTVSPropertyOp14
 70
     1
102
RTVSPropertyOp15
 70
     1
102
RTVSPropertyOp16
 70
     1
102
RTVSPropertyOp17
 70
     1
102
RTVSPropertyOp18
 70
     1
102
RTVSPropertyOp19
 70
     1
102
RTVSPropertyOp20
 70
     1
102
RTVSPropertyOp21
 70
     1
102
RTVSPropertyOp22
 70
     1
102
RTVSPropertyOp23
 70
     1
102
RTVSPropertyOp24
 70
     1
102
RTVSPropertyOp25
 70
     1
102
RTVSPropertyOp26
 70
     1
102
RTVSPropertyOp27
 70
     1
102
RTVSPropertyOp28
 70
     1
102
RTVSPropertyOp29
 70
     1
102
RTVSPropertyOp30
 70
     1
102
RTVSPropertyOp31
 70
     1
102
RTVSPropertyOp32
 70
     1
102
RTVSPropertyOp33
 70
     1
102
RTVSPropertyOp34
 70
     1
102
RTVSPropertyOp35
 70
     1
102
RTVSPropertyOp36
 70
     1
102
RTVSPropertyOp37
 70
     1
102
RTVSPropertyOp38
 70
     1
102
RTVSPropertyOp39
 70
     1
102
RTVSPropertyOp40
 70
     1
102
RTVSPropertyOp41
 70
     1
102
RTVSPropertyOp42
 70
     1
102
RTVSPropertyOp43
 70
     1
102
RTVSPropertyOp44
 70
     1
102
RTVSPropertyOp45
 70
     1
102
RTVSPropertyOp46
 70
     1
102
RTVSPropertyOp47
 70
     1
102
RTVSPropertyOp48
 70
     1
102
RTVSPropertyOp49
 70
     1
102
RTVSPropertyOp50
 70
     1
102
RTVSPropertyOp51
 70
     0
102
RTVSPropertyOp52
 70
     0
102
RTVSPropertyOp53
 70
     1
102
RTVSPropertyOp54
 70
     1
102
RTVSPropertyOp55
 70
     1
102
RTVSPropertyOp56
 70
     1
102
RTVSPropertyOp57
 70
     1
102
RTVSPropertyOp58
 70
     1
102
RTVSPropertyOp59
 70
     1
102
RTVSPropertyOp60
 70
     1
102
RTVSPropertyOp61
 70
     1
102
RTVSPropertyOp62
 70
     1
  0
XRECORD
  5
466
102
{ACAD_REACTORS
330
465
102
}
330
465
100
AcDbXrecord
280
     1
102
RTVSPost2010Prop28
280
     0
102
RTVSPost2010PropOp28
 70
     1
102
RTVSPost2010Prop29
280
     1
102
RTVSPost2010PropOp29
 70
     1
102
RTVSPost2010Prop30
280
     1
102
RTVSPost2010PropOp30
 70
     1
102
RTVSPost2010Prop31
280
     0
102
RTVSPost2010PropOp31
 70
     1
102
RTVSPost2010Prop32
280
     0
102
RTVSPost2010PropOp32
 70
     1
102
RTVSPost2010Prop33
280
     0
102
RTVSPost2010PropOp33
 70
     1
102
RTVSPost2010Prop34
280
     0
102
RTVSPost2010PropOp34
 70
     1
102
RTVSPost2010Prop35
280
     0
102
RTVSPost2010PropOp35
 70
     1
102
RTVSPost2010Prop36
280
     0
102
RTVSPost2010PropOp36
 70
     1
102
RTVSPost2010Prop37
 90
       50
102
RTVSPost2010PropOp37
 70
     1
102
RTVSPost2010Prop38
140
0.0
102
RTVSPost2010PropOp38
 70
     1
102
RTVSPost2010Prop39
140
1.0
102
RTVSPost2010PropOp39
 70
     1
102
RTVSPost2010Prop40
 90
        0
102
RTVSPost2010PropOp40
 70
     1
102
RTVSPost2010Prop41ColorIndex
 90
       18
102
RTVSPost2010Prop41ColorRGB
 90
        0
102
RTVSPost2010PropOp41
 70
     1
102
RTVSPost2010Prop42
 90
       50
102
RTVSPost2010PropOp42
 70
     1
102
RTVSPost2010Prop43
 90
        3
102
RTVSPost2010PropOp43
 70
     1
102
RTVSPost2010Prop44ColorIndex
 90
        5
102
RTVSPost2010Prop44ColorRGB
 90
      255
102
RTVSPost2010PropOp44
 70
     1
102
RTVSPost2010Prop45
280
     0
102
RTVSPost2010PropOp45
 70
     1
102
RTVSPost2010Prop46
 90
       50
102
RTVSPost2010PropOp46
 70
     1
102
RTVSPost2010Prop47
 90
       50
102
RTVSPost2010PropOp47
 70
     1
102
RTVSPost2010Prop48
 90
       50
102
RTVSPost2010PropOp48
 70
     1
102
RTVSPost2010Prop49
280
     0
102
RTVSPost2010PropOp49
 70
     1
102
RTVSPost2010Prop50
 90
       50
102
RTVSPost2010PropOp50
 70
     1
102
RTVSPost2010Prop51ColorIndex
 90
      256
102
RTVSPost2010Prop51ColorRGB
 90
-16777216
102
RTVSPost2010PropOp51
 70
     0
102
RTVSPost2010Prop52
140
1.0
102
RTVSPost2010PropOp52
 70
     0
102
RTVSPost2010Prop53
 90
        2
102
RTVSPost2010PropOp53
 70
     1
102
RTVSPost2010Prop54
  1
strokes_ogs.tif
102
RTVSPost2010PropOp54
 70
     1
102
RTVSPost2010Prop55
280
     0
102
RTVSPost2010PropOp55
 70
     1
102
RTVSPost2010Prop56
140
1.0
102
RTVSPost2010PropOp56
 70
     1
102
RTVSPost2010Prop57
140
1.0
102
RTVSPost2010PropOp57
 70
     1
102
RTVSPropertyOp0
 70
     1
102
RTVSPropertyOp1
 70
     1
102
RTVSPropertyOp2
 70
     1
102
RTVSPropertyOp3
 70
     1
102
RTVSPropertyOp4
 70
     1
102
RTVSPropertyOp5
 70
     1
102
RTVSPropertyOp6
 70
     1
102
RTVSPropertyOp7
 70
     1
102
RTVSPropertyOp8
 70
     1
102
RTVSPropertyOp9
 70
     1
102
RTVSPropertyOp10
 70
     1
102
RTVSPropertyOp11
 70
     1
102
RTVSPropertyOp12
 70
     1
102
RTVSPropertyOp13
 70
     1
102
RTVSPropertyOp14
 70
     1
102
RTVSPropertyOp15
 70
     1
102
RTVSPropertyOp16
 70
     1
102
RTVSPropertyOp17
 70
     1
102
RTVSPropertyOp18
 70
     1
102
RTVSPropertyOp19
 70
     1
102
RTVSPropertyOp20
 70
     1
102
RTVSPropertyOp21
 70
     1
102
RTVSPropertyOp22
 70
     1
102
RTVSPropertyOp23
 70
     1
102
RTVSPropertyOp24
 70
     1
102
RTVSPropertyOp25
 70
     1
102
RTVSPropertyOp26
 70
     1
102
RTVSPropertyOp27
 70
     1
102
RTVSPropertyOp28
 70
     1
102
RTVSPropertyOp29
 70
     1
102
RTVSPropertyOp30
 70
     1
102
RTVSPropertyOp31
 70
     1
102
RTVSPropertyOp32
 70
     1
102
RTVSPropertyOp33
 70
     1
102
RTVSPropertyOp34
 70
     1
102
RTVSPropertyOp35
 70
     1
102
RTVSPropertyOp36
 70
     1
102
RTVSPropertyOp37
 70
     1
102
RTVSPropertyOp38
 70
     1
102
RTVSPropertyOp39
 70
     1
102
RTVSPropertyOp40
 70
     1
102
RTVSPropertyOp41
 70
     1
102
RTVSPropertyOp42
 70
     1
102
RTVSPropertyOp43
 70
     1
102
RTVSPropertyOp44
 70
     1
102
RTVSPropertyOp45
 70
     1
102
RTVSPropertyOp46
 70
     1
102
RTVSPropertyOp47
 70
     1
102
RTVSPropertyOp48
 70
     1
102
RTVSPropertyOp49
 70
     1
102
RTVSPropertyOp50
 70
     1
102
RTVSPropertyOp51
 70
     0
102
RTVSPropertyOp52
 70
     0
102
RTVSPropertyOp53
 70
     1
102
RTVSPropertyOp54
 70
     1
102
RTVSPropertyOp55
 70
     1
102
RTVSPropertyOp56
 70
     1
102
RTVSPropertyOp57
 70
     1
102
RTVSPropertyOp58
 70
     1
102
RTVSPropertyOp59
 70
     1
102
RTVSPropertyOp60
 70
     1
102
RTVSPropertyOp61
 70
     1
102
RTVSPropertyOp62
 70
     1
  0
XRECORD
  5
482
102
{ACAD_REACTORS
330
481
102
}
330
481
100
AcDbXrecord
280
     1
102
RTVSPost2010Prop28
280
     0
102
RTVSPost2010PropOp28
 70
     1
102
RTVSPost2010Prop29
280
     1
102
RTVSPost2010PropOp29
 70
     1
102
RTVSPost2010Prop30
280
     1
102
RTVSPost2010PropOp30
 70
     1
102
RTVSPost2010Prop31
280
     0
102
RTVSPost2010PropOp31
 70
     1
102
RTVSPost2010Prop32
280
     0
102
RTVSPost2010PropOp32
 70
     1
102
RTVSPost2010Prop33
280
     0
102
RTVSPost2010PropOp33
 70
     1
102
RTVSPost2010Prop34
280
     0
102
RTVSPost2010PropOp34
 70
     1
102
RTVSPost2010Prop35
280
     0
102
RTVSPost2010PropOp35
 70
     1
102
RTVSPost2010Prop36
280
     0
102
RTVSPost2010PropOp36
 70
     1
102
RTVSPost2010Prop37
 90
       50
102
RTVSPost2010PropOp37
 70
     0
102
RTVSPost2010Prop38
140
0.0
102
RTVSPost2010PropOp38
 70
     0
102
RTVSPost2010Prop39
140
1.0
102
RTVSPost2010PropOp39
 70
     0
102
RTVSPost2010Prop40
 90
        0
102
RTVSPost2010PropOp40
 70
     0
102
RTVSPost2010Prop41ColorIndex
 90
       18
102
RTVSPost2010Prop41ColorRGB
 90
        0
102
RTVSPost2010PropOp41
 70
     0
102
RTVSPost2010Prop42
 90
       50
102
RTVSPost2010PropOp42
 70
     0
102
RTVSPost2010Prop43
 90
        3
102
RTVSPost2010PropOp43
 70
     0
102
RTVSPost2010Prop44ColorIndex
 90
        5
102
RTVSPost2010Prop44ColorRGB
 90
      255
102
RTVSPost2010PropOp44
 70
     0
102
RTVSPost2010Prop45
280
     0
102
RTVSPost2010PropOp45
 70
     1
102
RTVSPost2010Prop46
 90
       50
102
RTVSPost2010PropOp46
 70
     0
102
RTVSPost2010Prop47
 90
       50
102
RTVSPost2010PropOp47
 70
     0
102
RTVSPost2010Prop48
 90
       50
102
RTVSPost2010PropOp48
 70
     0
102
RTVSPost2010Prop49
280
     0
102
RTVSPost2010PropOp49
 70
     1
102
RTVSPost2010Prop50
 90
       50
102
RTVSPost2010PropOp50
 70
     0
102
RTVSPost2010Prop51ColorIndex
 90
      256
102
RTVSPost2010Prop51ColorRGB
 90
-16777216
102
RTVSPost2010PropOp51
 70
     0
102
RTVSPost2010Prop52
140
1.0
102
RTVSPost2010PropOp52
 70
     0
102
RTVSPost2010Prop53
 90
        2
102
RTVSPost2010PropOp53
 70
     0
102
RTVSPost2010Prop54
  1
strokes_ogs.tif
102
RTVSPost2010PropOp54
 70
     0
102
RTVSPost2010Prop55
280
     0
102
RTVSPost2010PropOp55
 70
     1
102
RTVSPost2010Prop56
140
1.0
102
RTVSPost2010PropOp56
 70
     0
102
RTVSPost2010Prop57
140
1.0
102
RTVSPost2010PropOp57
 70
     0
102
RTVSPropertyOp0
 70
     0
102
RTVSPropertyOp1
 70
     0
102
RTVSPropertyOp2
 70
     0
102
RTVSPropertyOp3
 70
     0
102
RTVSPropertyOp4
 70
     0
102
RTVSPropertyOp5
 70
     0
102
RTVSPropertyOp6
 70
     0
102
RTVSPropertyOp7
 70
     0
102
RTVSPropertyOp8
 70
     0
102
RTVSPropertyOp9
 70
     0
102
RTVSPropertyOp10
 70
     0
102
RTVSPropertyOp11
 70
     0
102
RTVSPropertyOp12
 70
     0
102
RTVSPropertyOp13
 70
     0
102
RTVSPropertyOp14
 70
     2
102
RTVSPropertyOp15
 70
     0
102
RTVSPropertyOp16
 70
     0
102
RTVSPropertyOp17
 70
     0
102
RTVSPropertyOp18
 70
     0
102
RTVSPropertyOp19
 70
     0
102
RTVSPropertyOp20
 70
     0
102
RTVSPropertyOp21
 70
     0
102
RTVSPropertyOp22
 70
     0
102
RTVSPropertyOp23
 70
     0
102
RTVSPropertyOp24
 70
     0
102
RTVSPropertyOp25
 70
     0
102
RTVSPropertyOp26
 70
     0
102
RTVSPropertyOp27
 70
     0
102
RTVSPropertyOp28
 70
     1
102
RTVSPropertyOp29
 70
     1
102
RTVSPropertyOp30
 70
     1
102
RTVSPropertyOp31
 70
     1
102
RTVSPropertyOp32
 70
     1
102
RTVSPropertyOp33
 70
     1
102
RTVSPropertyOp34
 70
     1
102
RTVSPropertyOp35
 70
     1
102
RTVSPropertyOp36
 70
     1
102
RTVSPropertyOp37
 70
     0
102
RTVSPropertyOp38
 70
     0
102
RTVSPropertyOp39
 70
     0
102
RTVSPropertyOp40
 70
     0
102
RTVSPropertyOp41
 70
     0
102
RTVSPropertyOp42
 70
     0
102
RTVSPropertyOp43
 70
     0
102
RTVSPropertyOp44
 70
     0
102
RTVSPropertyOp45
 70
     1
102
RTVSPropertyOp46
 70
     0
102
RTVSPropertyOp47
 70
     0
102
RTVSPropertyOp48
 70
     0
102
RTVSPropertyOp49
 70
     1
102
RTVSPropertyOp50
 70
     0
102
RTVSPropertyOp51
 70
     0
102
RTVSPropertyOp52
 70
     0
102
RTVSPropertyOp53
 70
     0
102
RTVSPropertyOp54
 70
     0
102
RTVSPropertyOp55
 70
     1
102
RTVSPropertyOp56
 70
     0
102
RTVSPropertyOp57
 70
     0
102
RTVSPropertyOp58
 70
     0
102
RTVSPropertyOp59
 70
     0
102
RTVSPropertyOp60
 70
     0
102
RTVSPropertyOp61
 70
     0
102
RTVSPropertyOp62
 70
     0
  0
XRECORD
  5
472
102
{ACAD_REACTORS
330
471
102
}
330
471
100
AcDbXrecord
280
     1
102
RTVSPost2010Prop28
280
     0
102
RTVSPost2010PropOp28
 70
     1
102
RTVSPost2010Prop29
280
     1
102
RTVSPost2010PropOp29
 70
     1
102
RTVSPost2010Prop30
280
     1
102
RTVSPost2010PropOp30
 70
     1
102
RTVSPost2010Prop31
280
     0
102
RTVSPost2010PropOp31
 70
     1
102
RTVSPost2010Prop32
280
     0
102
RTVSPost2010PropOp32
 70
     1
102
RTVSPost2010Prop33
280
     0
102
RTVSPost2010PropOp33
 70
     1
102
RTVSPost2010Prop34
280
     0
102
RTVSPost2010PropOp34
 70
     1
102
RTVSPost2010Prop35
280
     0
102
RTVSPost2010PropOp35
 70
     1
102
RTVSPost2010Prop36
280
     0
102
RTVSPost2010PropOp36
 70
     1
102
RTVSPost2010Prop37
 90
       50
102
RTVSPost2010PropOp37
 70
     1
102
RTVSPost2010Prop38
140
0.0
102
RTVSPost2010PropOp38
 70
     1
102
RTVSPost2010Prop39
140
1.0
102
RTVSPost2010PropOp39
 70
     1
102
RTVSPost2010Prop40
 90
        0
102
RTVSPost2010PropOp40
 70
     1
102
RTVSPost2010Prop41ColorIndex
 90
       18
102
RTVSPost2010Prop41ColorRGB
 90
        0
102
RTVSPost2010PropOp41
 70
     1
102
RTVSPost2010Prop42
 90
       50
102
RTVSPost2010PropOp42
 70
     1
102
RTVSPost2010Prop43
 90
        3
102
RTVSPost2010PropOp43
 70
     1
102
RTVSPost2010Prop44ColorIndex
 90
        5
102
RTVSPost2010Prop44ColorRGB
 90
      255
102
RTVSPost2010PropOp44
 70
     1
102
RTVSPost2010Prop45
280
     0
102
RTVSPost2010PropOp45
 70
     1
102
RTVSPost2010Prop46
 90
       50
102
RTVSPost2010PropOp46
 70
     1
102
RTVSPost2010Prop47
 90
       50
102
RTVSPost2010PropOp47
 70
     1
102
RTVSPost2010Prop48
 90
       50
102
RTVSPost2010PropOp48
 70
     1
102
RTVSPost2010Prop49
280
     0
102
RTVSPost2010PropOp49
 70
     1
102
RTVSPost2010Prop50
 90
       50
102
RTVSPost2010PropOp50
 70
     1
102
RTVSPost2010Prop51ColorIndex
 90
      256
102
RTVSPost2010Prop51ColorRGB
 90
-16777216
102
RTVSPost2010PropOp51
 70
     0
102
RTVSPost2010Prop52
140
1.0
102
RTVSPost2010PropOp52
 70
     0
102
RTVSPost2010Prop53
 90
        2
102
RTVSPost2010PropOp53
 70
     1
102
RTVSPost2010Prop54
  1
strokes_ogs.tif
102
RTVSPost2010PropOp54
 70
     1
102
RTVSPost2010Prop55
280
     0
102
RTVSPost2010PropOp55
 70
     1
102
RTVSPost2010Prop56
140
1.0
102
RTVSPost2010PropOp56
 70
     1
102
RTVSPost2010Prop57
140
1.0
102
RTVSPost2010PropOp57
 70
     1
102
RTVSPropertyOp0
 70
     1
102
RTVSPropertyOp1
 70
     1
102
RTVSPropertyOp2
 70
     1
102
RTVSPropertyOp3
 70
     1
102
RTVSPropertyOp4
 70
     1
102
RTVSPropertyOp5
 70
     1
102
RTVSPropertyOp6
 70
     1
102
RTVSPropertyOp7
 70
     1
102
RTVSPropertyOp8
 70
     1
102
RTVSPropertyOp9
 70
     1
102
RTVSPropertyOp10
 70
     1
102
RTVSPropertyOp11
 70
     1
102
RTVSPropertyOp12
 70
     1
102
RTVSPropertyOp13
 70
     1
102
RTVSPropertyOp14
 70
     1
102
RTVSPropertyOp15
 70
     1
102
RTVSPropertyOp16
 70
     1
102
RTVSPropertyOp17
 70
     1
102
RTVSPropertyOp18
 70
     1
102
RTVSPropertyOp19
 70
     1
102
RTVSPropertyOp20
 70
     1
102
RTVSPropertyOp21
 70
     1
102
RTVSPropertyOp22
 70
     1
102
RTVSPropertyOp23
 70
     1
102
RTVSPropertyOp24
 70
     1
102
RTVSPropertyOp25
 70
     1
102
RTVSPropertyOp26
 70
     1
102
RTVSPropertyOp27
 70
     1
102
RTVSPropertyOp28
 70
     1
102
RTVSPropertyOp29
 70
     1
102
RTVSPropertyOp30
 70
     1
102
RTVSPropertyOp31
 70
     1
102
RTVSPropertyOp32
 70
     1
102
RTVSPropertyOp33
 70
     1
102
RTVSPropertyOp34
 70
     1
102
RTVSPropertyOp35
 70
     1
102
RTVSPropertyOp36
 70
     1
102
RTVSPropertyOp37
 70
     1
102
RTVSPropertyOp38
 70
     1
102
RTVSPropertyOp39
 70
     1
102
RTVSPropertyOp40
 70
     1
102
RTVSPropertyOp41
 70
     1
102
RTVSPropertyOp42
 70
     1
102
RTVSPropertyOp43
 70
     1
102
RTVSPropertyOp44
 70
     1
102
RTVSPropertyOp45
 70
     1
102
RTVSPropertyOp46
 70
     1
102
RTVSPropertyOp47
 70
     1
102
RTVSPropertyOp48
 70
     1
102
RTVSPropertyOp49
 70
     1
102
RTVSPropertyOp50
 70
     1
102
RTVSPropertyOp51
 70
     0
102
RTVSPropertyOp52
 70
     0
102
RTVSPropertyOp53
 70
     1
102
RTVSPropertyOp54
 70
     1
102
RTVSPropertyOp55
 70
     1
102
RTVSPropertyOp56
 70
     1
102
RTVSPropertyOp57
 70
     1
102
RTVSPropertyOp58
 70
     1
102
RTVSPropertyOp59
 70
     1
102
RTVSPropertyOp60
 70
     1
102
RTVSPropertyOp61
 70
     1
102
RTVSPropertyOp62
 70
     1
  0
XRECORD
  5
484
102
{ACAD_REACTORS
330
483
102
}
330
483
100
AcDbXrecord
280
     1
102
RTVSPost2010Prop28
280
     0
102
RTVSPost2010PropOp28
 70
     1
102
RTVSPost2010Prop29
280
     1
102
RTVSPost2010PropOp29
 70
     1
102
RTVSPost2010Prop30
280
     1
102
RTVSPost2010PropOp30
 70
     1
102
RTVSPost2010Prop31
280
     0
102
RTVSPost2010PropOp31
 70
     1
102
RTVSPost2010Prop32
280
     0
102
RTVSPost2010PropOp32
 70
     1
102
RTVSPost2010Prop33
280
     0
102
RTVSPost2010PropOp33
 70
     1
102
RTVSPost2010Prop34
280
     0
102
RTVSPost2010PropOp34
 70
     1
102
RTVSPost2010Prop35
280
     0
102
RTVSPost2010PropOp35
 70
     1
102
RTVSPost2010Prop36
280
     0
102
RTVSPost2010PropOp36
 70
     1
102
RTVSPost2010Prop37
 90
       50
102
RTVSPost2010PropOp37
 70
     0
102
RTVSPost2010Prop38
140
0.0
102
RTVSPost2010PropOp38
 70
     0
102
RTVSPost2010Prop39
140
1.0
102
RTVSPost2010PropOp39
 70
     0
102
RTVSPost2010Prop40
 90
        0
102
RTVSPost2010PropOp40
 70
     0
102
RTVSPost2010Prop41ColorIndex
 90
       18
102
RTVSPost2010Prop41ColorRGB
 90
        0
102
RTVSPost2010PropOp41
 70
     0
102
RTVSPost2010Prop42
 90
       50
102
RTVSPost2010PropOp42
 70
     0
102
RTVSPost2010Prop43
 90
        3
102
RTVSPost2010PropOp43
 70
     0
102
RTVSPost2010Prop44ColorIndex
 90
        5
102
RTVSPost2010Prop44ColorRGB
 90
      255
102
RTVSPost2010PropOp44
 70
     0
102
RTVSPost2010Prop45
280
     0
102
RTVSPost2010PropOp45
 70
     1
102
RTVSPost2010Prop46
 90
       50
102
RTVSPost2010PropOp46
 70
     0
102
RTVSPost2010Prop47
 90
       50
102
RTVSPost2010PropOp47
 70
     0
102
RTVSPost2010Prop48
 90
       50
102
RTVSPost2010PropOp48
 70
     0
102
RTVSPost2010Prop49
280
     0
102
RTVSPost2010PropOp49
 70
     1
102
RTVSPost2010Prop50
 90
       50
102
RTVSPost2010PropOp50
 70
     0
102
RTVSPost2010Prop51ColorIndex
 90
      256
102
RTVSPost2010Prop51ColorRGB
 90
-16777216
102
RTVSPost2010PropOp51
 70
     0
102
RTVSPost2010Prop52
140
1.0
102
RTVSPost2010PropOp52
 70
     0
102
RTVSPost2010Prop53
 90
        2
102
RTVSPost2010PropOp53
 70
     0
102
RTVSPost2010Prop54
  1
strokes_ogs.tif
102
RTVSPost2010PropOp54
 70
     0
102
RTVSPost2010Prop55
280
     0
102
RTVSPost2010PropOp55
 70
     1
102
RTVSPost2010Prop56
140
1.0
102
RTVSPost2010PropOp56
 70
     0
102
RTVSPost2010Prop57
140
1.0
102
RTVSPost2010PropOp57
 70
     0
102
RTVSPropertyOp0
 70
     0
102
RTVSPropertyOp1
 70
     0
102
RTVSPropertyOp2
 70
     0
102
RTVSPropertyOp3
 70
     0
102
RTVSPropertyOp4
 70
     0
102
RTVSPropertyOp5
 70
     0
102
RTVSPropertyOp6
 70
     0
102
RTVSPropertyOp7
 70
     0
102
RTVSPropertyOp8
 70
     0
102
RTVSPropertyOp9
 70
     0
102
RTVSPropertyOp10
 70
     0
102
RTVSPropertyOp11
 70
     0
102
RTVSPropertyOp12
 70
     0
102
RTVSPropertyOp13
 70
     0
102
RTVSPropertyOp14
 70
     2
102
RTVSPropertyOp15
 70
     0
102
RTVSPropertyOp16
 70
     0
102
RTVSPropertyOp17
 70
     0
102
RTVSPropertyOp18
 70
     0
102
RTVSPropertyOp19
 70
     0
102
RTVSPropertyOp20
 70
     0
102
RTVSPropertyOp21
 70
     0
102
RTVSPropertyOp22
 70
     0
102
RTVSPropertyOp23
 70
     0
102
RTVSPropertyOp24
 70
     0
102
RTVSPropertyOp25
 70
     0
102
RTVSPropertyOp26
 70
     0
102
RTVSPropertyOp27
 70
     0
102
RTVSPropertyOp28
 70
     1
102
RTVSPropertyOp29
 70
     1
102
RTVSPropertyOp30
 70
     1
102
RTVSPropertyOp31
 70
     1
102
RTVSPropertyOp32
 70
     1
102
RTVSPropertyOp33
 70
     1
102
RTVSPropertyOp34
 70
     1
102
RTVSPropertyOp35
 70
     1
102
RTVSPropertyOp36
 70
     1
102
RTVSPropertyOp37
 70
     0
102
RTVSPropertyOp38
 70
     0
102
RTVSPropertyOp39
 70
     0
102
RTVSPropertyOp40
 70
     0
102
RTVSPropertyOp41
 70
     0
102
RTVSPropertyOp42
 70
     0
102
RTVSPropertyOp43
 70
     0
102
RTVSPropertyOp44
 70
     0
102
RTVSPropertyOp45
 70
     1
102
RTVSPropertyOp46
 70
     0
102
RTVSPropertyOp47
 70
     0
102
RTVSPropertyOp48
 70
     0
102
RTVSPropertyOp49
 70
     1
102
RTVSPropertyOp50
 70
     0
102
RTVSPropertyOp51
 70
     0
102
RTVSPropertyOp52
 70
     0
102
RTVSPropertyOp53
 70
     0
102
RTVSPropertyOp54
 70
     0
102
RTVSPropertyOp55
 70
     1
102
RTVSPropertyOp56
 70
     0
102
RTVSPropertyOp57
 70
     0
102
RTVSPropertyOp58
 70
     0
102
RTVSPropertyOp59
 70
     0
102
RTVSPropertyOp60
 70
     0
102
RTVSPropertyOp61
 70
     0
102
RTVSPropertyOp62
 70
     0
  0
XRECORD
  5
46A
102
{ACAD_REACTORS
330
469
102
}
330
469
100
AcDbXrecord
280
     1
102
RTVSPost2010Prop28
280
     0
102
RTVSPost2010PropOp28
 70
     1
102
RTVSPost2010Prop29
280
     1
102
RTVSPost2010PropOp29
 70
     1
102
RTVSPost2010Prop30
280
     1
102
RTVSPost2010PropOp30
 70
     1
102
RTVSPost2010Prop31
280
     0
102
RTVSPost2010PropOp31
 70
     1
102
RTVSPost2010Prop32
280
     0
102
RTVSPost2010PropOp32
 70
     1
102
RTVSPost2010Prop33
280
     0
102
RTVSPost2010PropOp33
 70
     1
102
RTVSPost2010Prop34
280
     0
102
RTVSPost2010PropOp34
 70
     1
102
RTVSPost2010Prop35
280
     0
102
RTVSPost2010PropOp35
 70
     1
102
RTVSPost2010Prop36
280
     0
102
RTVSPost2010PropOp36
 70
     1
102
RTVSPost2010Prop37
 90
       50
102
RTVSPost2010PropOp37
 70
     1
102
RTVSPost2010Prop38
140
0.0
102
RTVSPost2010PropOp38
 70
     1
102
RTVSPost2010Prop39
140
1.0
102
RTVSPost2010PropOp39
 70
     1
102
RTVSPost2010Prop40
 90
        0
102
RTVSPost2010PropOp40
 70
     1
102
RTVSPost2010Prop41ColorIndex
 90
       18
102
RTVSPost2010Prop41ColorRGB
 90
        0
102
RTVSPost2010PropOp41
 70
     1
102
RTVSPost2010Prop42
 90
       50
102
RTVSPost2010PropOp42
 70
     1
102
RTVSPost2010Prop43
 90
        3
102
RTVSPost2010PropOp43
 70
     1
102
RTVSPost2010Prop44ColorIndex
 90
        5
102
RTVSPost2010Prop44ColorRGB
 90
      255
102
RTVSPost2010PropOp44
 70
     1
102
RTVSPost2010Prop45
280
     0
102
RTVSPost2010PropOp45
 70
     1
102
RTVSPost2010Prop46
 90
       50
102
RTVSPost2010PropOp46
 70
     1
102
RTVSPost2010Prop47
 90
       50
102
RTVSPost2010PropOp47
 70
     1
102
RTVSPost2010Prop48
 90
       50
102
RTVSPost2010PropOp48
 70
     1
102
RTVSPost2010Prop49
280
     0
102
RTVSPost2010PropOp49
 70
     1
102
RTVSPost2010Prop50
 90
       50
102
RTVSPost2010PropOp50
 70
     1
102
RTVSPost2010Prop51ColorIndex
 90
      256
102
RTVSPost2010Prop51ColorRGB
 90
-16777216
102
RTVSPost2010PropOp51
 70
     0
102
RTVSPost2010Prop52
140
1.0
102
RTVSPost2010PropOp52
 70
     0
102
RTVSPost2010Prop53
 90
        2
102
RTVSPost2010PropOp53
 70
     1
102
RTVSPost2010Prop54
  1
strokes_ogs.tif
102
RTVSPost2010PropOp54
 70
     1
102
RTVSPost2010Prop55
280
     0
102
RTVSPost2010PropOp55
 70
     1
102
RTVSPost2010Prop56
140
1.0
102
RTVSPost2010PropOp56
 70
     1
102
RTVSPost2010Prop57
140
1.0
102
RTVSPost2010PropOp57
 70
     1
102
RTVSPropertyOp0
 70
     1
102
RTVSPropertyOp1
 70
     1
102
RTVSPropertyOp2
 70
     1
102
RTVSPropertyOp3
 70
     1
102
RTVSPropertyOp4
 70
     1
102
RTVSPropertyOp5
 70
     1
102
RTVSPropertyOp6
 70
     1
102
RTVSPropertyOp7
 70
     1
102
RTVSPropertyOp8
 70
     1
102
RTVSPropertyOp9
 70
     1
102
RTVSPropertyOp10
 70
     1
102
RTVSPropertyOp11
 70
     1
102
RTVSPropertyOp12
 70
     1
102
RTVSPropertyOp13
 70
     1
102
RTVSPropertyOp14
 70
     1
102
RTVSPropertyOp15
 70
     1
102
RTVSPropertyOp16
 70
     1
102
RTVSPropertyOp17
 70
     1
102
RTVSPropertyOp18
 70
     1
102
RTVSPropertyOp19
 70
     1
102
RTVSPropertyOp20
 70
     1
102
RTVSPropertyOp21
 70
     1
102
RTVSPropertyOp22
 70
     1
102
RTVSPropertyOp23
 70
     1
102
RTVSPropertyOp24
 70
     1
102
RTVSPropertyOp25
 70
     1
102
RTVSPropertyOp26
 70
     1
102
RTVSPropertyOp27
 70
     1
102
RTVSPropertyOp28
 70
     1
102
RTVSPropertyOp29
 70
     1
102
RTVSPropertyOp30
 70
     1
102
RTVSPropertyOp31
 70
     1
102
RTVSPropertyOp32
 70
     1
102
RTVSPropertyOp33
 70
     1
102
RTVSPropertyOp34
 70
     1
102
RTVSPropertyOp35
 70
     1
102
RTVSPropertyOp36
 70
     1
102
RTVSPropertyOp37
 70
     1
102
RTVSPropertyOp38
 70
     1
102
RTVSPropertyOp39
 70
     1
102
RTVSPropertyOp40
 70
     1
102
RTVSPropertyOp41
 70
     1
102
RTVSPropertyOp42
 70
     1
102
RTVSPropertyOp43
 70
     1
102
RTVSPropertyOp44
 70
     1
102
RTVSPropertyOp45
 70
     1
102
RTVSPropertyOp46
 70
     1
102
RTVSPropertyOp47
 70
     1
102
RTVSPropertyOp48
 70
     1
102
RTVSPropertyOp49
 70
     1
102
RTVSPropertyOp50
 70
     1
102
RTVSPropertyOp51
 70
     0
102
RTVSPropertyOp52
 70
     0
102
RTVSPropertyOp53
 70
     1
102
RTVSPropertyOp54
 70
     1
102
RTVSPropertyOp55
 70
     1
102
RTVSPropertyOp56
 70
     1
102
RTVSPropertyOp57
 70
     1
102
RTVSPropertyOp58
 70
     1
102
RTVSPropertyOp59
 70
     1
102
RTVSPropertyOp60
 70
     1
102
RTVSPropertyOp61
 70
     1
102
RTVSPropertyOp62
 70
     1
  0
XRECORD
  5
480
102
{ACAD_REACTORS
330
47F
102
}
330
47F
100
AcDbXrecord
280
     1
102
RTVSPost2010Prop28
280
     0
102
RTVSPost2010PropOp28
 70
     1
102
RTVSPost2010Prop29
280
     1
102
RTVSPost2010PropOp29
 70
     1
102
RTVSPost2010Prop30
280
     1
102
RTVSPost2010PropOp30
 70
     1
102
RTVSPost2010Prop31
280
     0
102
RTVSPost2010PropOp31
 70
     1
102
RTVSPost2010Prop32
280
     0
102
RTVSPost2010PropOp32
 70
     1
102
RTVSPost2010Prop33
280
     0
102
RTVSPost2010PropOp33
 70
     1
102
RTVSPost2010Prop34
280
     0
102
RTVSPost2010PropOp34
 70
     1
102
RTVSPost2010Prop35
280
     0
102
RTVSPost2010PropOp35
 70
     1
102
RTVSPost2010Prop36
280
     0
102
RTVSPost2010PropOp36
 70
     1
102
RTVSPost2010Prop37
 90
       50
102
RTVSPost2010PropOp37
 70
     1
102
RTVSPost2010Prop38
140
0.0
102
RTVSPost2010PropOp38
 70
     1
102
RTVSPost2010Prop39
140
1.0
102
RTVSPost2010PropOp39
 70
     1
102
RTVSPost2010Prop40
 90
        0
102
RTVSPost2010PropOp40
 70
     1
102
RTVSPost2010Prop41ColorIndex
 90
       18
102
RTVSPost2010Prop41ColorRGB
 90
        0
102
RTVSPost2010PropOp41
 70
     1
102
RTVSPost2010Prop42
 90
       50
102
RTVSPost2010PropOp42
 70
     1
102
RTVSPost2010Prop43
 90
        3
102
RTVSPost2010PropOp43
 70
     1
102
RTVSPost2010Prop44ColorIndex
 90
        5
102
RTVSPost2010Prop44ColorRGB
 90
      255
102
RTVSPost2010PropOp44
 70
     1
102
RTVSPost2010Prop45
280
     0
102
RTVSPost2010PropOp45
 70
     1
102
RTVSPost2010Prop46
 90
       50
102
RTVSPost2010PropOp46
 70
     1
102
RTVSPost2010Prop47
 90
       50
102
RTVSPost2010PropOp47
 70
     1
102
RTVSPost2010Prop48
 90
       50
102
RTVSPost2010PropOp48
 70
     1
102
RTVSPost2010Prop49
280
     0
102
RTVSPost2010PropOp49
 70
     1
102
RTVSPost2010Prop50
 90
       50
102
RTVSPost2010PropOp50
 70
     1
102
RTVSPost2010Prop51ColorIndex
 90
      256
102
RTVSPost2010Prop51ColorRGB
 90
-16777216
102
RTVSPost2010PropOp51
 70
     0
102
RTVSPost2010Prop52
140
1.0
102
RTVSPost2010PropOp52
 70
     0
102
RTVSPost2010Prop53
 90
        2
102
RTVSPost2010PropOp53
 70
     1
102
RTVSPost2010Prop54
  1
strokes_ogs.tif
102
RTVSPost2010PropOp54
 70
     1
102
RTVSPost2010Prop55
280
     0
102
RTVSPost2010PropOp55
 70
     1
102
RTVSPost2010Prop56
140
1.0
102
RTVSPost2010PropOp56
 70
     1
102
RTVSPost2010Prop57
140
1.0
102
RTVSPost2010PropOp57
 70
     1
102
RTVSPropertyOp0
 70
     1
102
RTVSPropertyOp1
 70
     1
102
RTVSPropertyOp2
 70
     1
102
RTVSPropertyOp3
 70
     1
102
RTVSPropertyOp4
 70
     1
102
RTVSPropertyOp5
 70
     1
102
RTVSPropertyOp6
 70
     1
102
RTVSPropertyOp7
 70
     1
102
RTVSPropertyOp8
 70
     1
102
RTVSPropertyOp9
 70
     1
102
RTVSPropertyOp10
 70
     1
102
RTVSPropertyOp11
 70
     1
102
RTVSPropertyOp12
 70
     1
102
RTVSPropertyOp13
 70
     1
102
RTVSPropertyOp14
 70
     1
102
RTVSPropertyOp15
 70
     1
102
RTVSPropertyOp16
 70
     1
102
RTVSPropertyOp17
 70
     1
102
RTVSPropertyOp18
 70
     1
102
RTVSPropertyOp19
 70
     1
102
RTVSPropertyOp20
 70
     1
102
RTVSPropertyOp21
 70
     1
102
RTVSPropertyOp22
 70
     1
102
RTVSPropertyOp23
 70
     1
102
RTVSPropertyOp24
 70
     1
102
RTVSPropertyOp25
 70
     1
102
RTVSPropertyOp26
 70
     1
102
RTVSPropertyOp27
 70
     1
102
RTVSPropertyOp28
 70
     1
102
RTVSPropertyOp29
 70
     1
102
RTVSPropertyOp30
 70
     1
102
RTVSPropertyOp31
 70
     1
102
RTVSPropertyOp32
 70
     1
102
RTVSPropertyOp33
 70
     1
102
RTVSPropertyOp34
 70
     1
102
RTVSPropertyOp35
 70
     1
102
RTVSPropertyOp36
 70
     1
102
RTVSPropertyOp37
 70
     1
102
RTVSPropertyOp38
 70
     1
102
RTVSPropertyOp39
 70
     1
102
RTVSPropertyOp40
 70
     1
102
RTVSPropertyOp41
 70
     1
102
RTVSPropertyOp42
 70
     1
102
RTVSPropertyOp43
 70
     1
102
RTVSPropertyOp44
 70
     1
102
RTVSPropertyOp45
 70
     1
102
RTVSPropertyOp46
 70
     1
102
RTVSPropertyOp47
 70
     1
102
RTVSPropertyOp48
 70
     1
102
RTVSPropertyOp49
 70
     1
102
RTVSPropertyOp50
 70
     1
102
RTVSPropertyOp51
 70
     0
102
RTVSPropertyOp52
 70
     0
102
RTVSPropertyOp53
 70
     1
102
RTVSPropertyOp54
 70
     1
102
RTVSPropertyOp55
 70
     1
102
RTVSPropertyOp56
 70
     1
102
RTVSPropertyOp57
 70
     1
102
RTVSPropertyOp58
 70
     1
102
RTVSPropertyOp59
 70
     1
102
RTVSPropertyOp60
 70
     1
102
RTVSPropertyOp61
 70
     1
102
RTVSPropertyOp62
 70
     1
  0
XRECORD
  5
47E
102
{ACAD_REACTORS
330
47D
102
}
330
47D
100
AcDbXrecord
280
     1
102
RTVSPost2010Prop28
280
     0
102
RTVSPost2010PropOp28
 70
     1
102
RTVSPost2010Prop29
280
     1
102
RTVSPost2010PropOp29
 70
     1
102
RTVSPost2010Prop30
280
     1
102
RTVSPost2010PropOp30
 70
     1
102
RTVSPost2010Prop31
280
     0
102
RTVSPost2010PropOp31
 70
     1
102
RTVSPost2010Prop32
280
     0
102
RTVSPost2010PropOp32
 70
     1
102
RTVSPost2010Prop33
280
     0
102
RTVSPost2010PropOp33
 70
     1
102
RTVSPost2010Prop34
280
     0
102
RTVSPost2010PropOp34
 70
     1
102
RTVSPost2010Prop35
280
     0
102
RTVSPost2010PropOp35
 70
     1
102
RTVSPost2010Prop36
280
     0
102
RTVSPost2010PropOp36
 70
     1
102
RTVSPost2010Prop37
 90
       50
102
RTVSPost2010PropOp37
 70
     1
102
RTVSPost2010Prop38
140
0.0
102
RTVSPost2010PropOp38
 70
     1
102
RTVSPost2010Prop39
140
1.0
102
RTVSPost2010PropOp39
 70
     1
102
RTVSPost2010Prop40
 90
        0
102
RTVSPost2010PropOp40
 70
     1
102
RTVSPost2010Prop41ColorIndex
 90
       18
102
RTVSPost2010Prop41ColorRGB
 90
        0
102
RTVSPost2010PropOp41
 70
     1
102
RTVSPost2010Prop42
 90
       50
102
RTVSPost2010PropOp42
 70
     1
102
RTVSPost2010Prop43
 90
        3
102
RTVSPost2010PropOp43
 70
     1
102
RTVSPost2010Prop44ColorIndex
 90
        5
102
RTVSPost2010Prop44ColorRGB
 90
      255
102
RTVSPost2010PropOp44
 70
     1
102
RTVSPost2010Prop45
280
     0
102
RTVSPost2010PropOp45
 70
     1
102
RTVSPost2010Prop46
 90
       50
102
RTVSPost2010PropOp46
 70
     1
102
RTVSPost2010Prop47
 90
       50
102
RTVSPost2010PropOp47
 70
     1
102
RTVSPost2010Prop48
 90
       50
102
RTVSPost2010PropOp48
 70
     1
102
RTVSPost2010Prop49
280
     0
102
RTVSPost2010PropOp49
 70
     1
102
RTVSPost2010Prop50
 90
       50
102
RTVSPost2010PropOp50
 70
     1
102
RTVSPost2010Prop51ColorIndex
 90
      256
102
RTVSPost2010Prop51ColorRGB
 90
-16777216
102
RTVSPost2010PropOp51
 70
     0
102
RTVSPost2010Prop52
140
1.0
102
RTVSPost2010PropOp52
 70
     0
102
RTVSPost2010Prop53
 90
        2
102
RTVSPost2010PropOp53
 70
     1
102
RTVSPost2010Prop54
  1
strokes_ogs.tif
102
RTVSPost2010PropOp54
 70
     1
102
RTVSPost2010Prop55
280
     0
102
RTVSPost2010PropOp55
 70
     1
102
RTVSPost2010Prop56
140
1.0
102
RTVSPost2010PropOp56
 70
     1
102
RTVSPost2010Prop57
140
1.0
102
RTVSPost2010PropOp57
 70
     1
102
RTVSPropertyOp0
 70
     1
102
RTVSPropertyOp1
 70
     1
102
RTVSPropertyOp2
 70
     1
102
RTVSPropertyOp3
 70
     1
102
RTVSPropertyOp4
 70
     1
102
RTVSPropertyOp5
 70
     1
102
RTVSPropertyOp6
 70
     1
102
RTVSPropertyOp7
 70
     1
102
RTVSPropertyOp8
 70
     1
102
RTVSPropertyOp9
 70
     1
102
RTVSPropertyOp10
 70
     1
102
RTVSPropertyOp11
 70
     1
102
RTVSPropertyOp12
 70
     1
102
RTVSPropertyOp13
 70
     1
102
RTVSPropertyOp14
 70
     1
102
RTVSPropertyOp15
 70
     1
102
RTVSPropertyOp16
 70
     1
102
RTVSPropertyOp17
 70
     1
102
RTVSPropertyOp18
 70
     1
102
RTVSPropertyOp19
 70
     1
102
RTVSPropertyOp20
 70
     1
102
RTVSPropertyOp21
 70
     1
102
RTVSPropertyOp22
 70
     1
102
RTVSPropertyOp23
 70
     1
102
RTVSPropertyOp24
 70
     1
102
RTVSPropertyOp25
 70
     1
102
RTVSPropertyOp26
 70
     1
102
RTVSPropertyOp27
 70
     1
102
RTVSPropertyOp28
 70
     1
102
RTVSPropertyOp29
 70
     1
102
RTVSPropertyOp30
 70
     1
102
RTVSPropertyOp31
 70
     1
102
RTVSPropertyOp32
 70
     1
102
RTVSPropertyOp33
 70
     1
102
RTVSPropertyOp34
 70
     1
102
RTVSPropertyOp35
 70
     1
102
RTVSPropertyOp36
 70
     1
102
RTVSPropertyOp37
 70
     1
102
RTVSPropertyOp38
 70
     1
102
RTVSPropertyOp39
 70
     1
102
RTVSPropertyOp40
 70
     1
102
RTVSPropertyOp41
 70
     1
102
RTVSPropertyOp42
 70
     1
102
RTVSPropertyOp43
 70
     1
102
RTVSPropertyOp44
 70
     1
102
RTVSPropertyOp45
 70
     1
102
RTVSPropertyOp46
 70
     1
102
RTVSPropertyOp47
 70
     1
102
RTVSPropertyOp48
 70
     1
102
RTVSPropertyOp49
 70
     1
102
RTVSPropertyOp50
 70
     1
102
RTVSPropertyOp51
 70
     0
102
RTVSPropertyOp52
 70
     0
102
RTVSPropertyOp53
 70
     1
102
RTVSPropertyOp54
 70
     1
102
RTVSPropertyOp55
 70
     1
102
RTVSPropertyOp56
 70
     1
102
RTVSPropertyOp57
 70
     1
102
RTVSPropertyOp58
 70
     1
102
RTVSPropertyOp59
 70
     1
102
RTVSPropertyOp60
 70
     1
102
RTVSPropertyOp61
 70
     1
102
RTVSPropertyOp62
 70
     1
  0
XRECORD
  5
478
102
{ACAD_REACTORS
330
477
102
}
330
477
100
AcDbXrecord
280
     1
102
RTVSPost2010Prop28
280
     0
102
RTVSPost2010PropOp28
 70
     1
102
RTVSPost2010Prop29
280
     1
102
RTVSPost2010PropOp29
 70
     1
102
RTVSPost2010Prop30
280
     1
102
RTVSPost2010PropOp30
 70
     1
102
RTVSPost2010Prop31
280
     0
102
RTVSPost2010PropOp31
 70
     1
102
RTVSPost2010Prop32
280
     0
102
RTVSPost2010PropOp32
 70
     1
102
RTVSPost2010Prop33
280
     0
102
RTVSPost2010PropOp33
 70
     1
102
RTVSPost2010Prop34
280
     0
102
RTVSPost2010PropOp34
 70
     1
102
RTVSPost2010Prop35
280
     0
102
RTVSPost2010PropOp35
 70
     1
102
RTVSPost2010Prop36
280
     0
102
RTVSPost2010PropOp36
 70
     1
102
RTVSPost2010Prop37
 90
       50
102
RTVSPost2010PropOp37
 70
     1
102
RTVSPost2010Prop38
140
0.0
102
RTVSPost2010PropOp38
 70
     1
102
RTVSPost2010Prop39
140
1.0
102
RTVSPost2010PropOp39
 70
     1
102
RTVSPost2010Prop40
 90
        0
102
RTVSPost2010PropOp40
 70
     1
102
RTVSPost2010Prop41ColorIndex
 90
       18
102
RTVSPost2010Prop41ColorRGB
 90
        0
102
RTVSPost2010PropOp41
 70
     1
102
RTVSPost2010Prop42
 90
       50
102
RTVSPost2010PropOp42
 70
     1
102
RTVSPost2010Prop43
 90
        3
102
RTVSPost2010PropOp43
 70
     1
102
RTVSPost2010Prop44ColorIndex
 90
        5
102
RTVSPost2010Prop44ColorRGB
 90
      255
102
RTVSPost2010PropOp44
 70
     1
102
RTVSPost2010Prop45
280
     0
102
RTVSPost2010PropOp45
 70
     1
102
RTVSPost2010Prop46
 90
       50
102
RTVSPost2010PropOp46
 70
     1
102
RTVSPost2010Prop47
 90
       50
102
RTVSPost2010PropOp47
 70
     1
102
RTVSPost2010Prop48
 90
       50
102
RTVSPost2010PropOp48
 70
     1
102
RTVSPost2010Prop49
280
     0
102
RTVSPost2010PropOp49
 70
     1
102
RTVSPost2010Prop50
 90
       50
102
RTVSPost2010PropOp50
 70
     1
102
RTVSPost2010Prop51ColorIndex
 90
      256
102
RTVSPost2010Prop51ColorRGB
 90
-16777216
102
RTVSPost2010PropOp51
 70
     0
102
RTVSPost2010Prop52
140
1.0
102
RTVSPost2010PropOp52
 70
     0
102
RTVSPost2010Prop53
 90
        2
102
RTVSPost2010PropOp53
 70
     1
102
RTVSPost2010Prop54
  1
strokes_ogs.tif
102
RTVSPost2010PropOp54
 70
     1
102
RTVSPost2010Prop55
280
     0
102
RTVSPost2010PropOp55
 70
     1
102
RTVSPost2010Prop56
140
1.0
102
RTVSPost2010PropOp56
 70
     1
102
RTVSPost2010Prop57
140
1.0
102
RTVSPost2010PropOp57
 70
     1
102
RTVSPropertyOp0
 70
     1
102
RTVSPropertyOp1
 70
     1
102
RTVSPropertyOp2
 70
     1
102
RTVSPropertyOp3
 70
     1
102
RTVSPropertyOp4
 70
     1
102
RTVSPropertyOp5
 70
     1
102
RTVSPropertyOp6
 70
     1
102
RTVSPropertyOp7
 70
     1
102
RTVSPropertyOp8
 70
     1
102
RTVSPropertyOp9
 70
     1
102
RTVSPropertyOp10
 70
     1
102
RTVSPropertyOp11
 70
     1
102
RTVSPropertyOp12
 70
     1
102
RTVSPropertyOp13
 70
     1
102
RTVSPropertyOp14
 70
     1
102
RTVSPropertyOp15
 70
     1
102
RTVSPropertyOp16
 70
     1
102
RTVSPropertyOp17
 70
     1
102
RTVSPropertyOp18
 70
     1
102
RTVSPropertyOp19
 70
     1
102
RTVSPropertyOp20
 70
     1
102
RTVSPropertyOp21
 70
     1
102
RTVSPropertyOp22
 70
     1
102
RTVSPropertyOp23
 70
     1
102
RTVSPropertyOp24
 70
     1
102
RTVSPropertyOp25
 70
     1
102
RTVSPropertyOp26
 70
     1
102
RTVSPropertyOp27
 70
     1
102
RTVSPropertyOp28
 70
     1
102
RTVSPropertyOp29
 70
     1
102
RTVSPropertyOp30
 70
     1
102
RTVSPropertyOp31
 70
     1
102
RTVSPropertyOp32
 70
     1
102
RTVSPropertyOp33
 70
     1
102
RTVSPropertyOp34
 70
     1
102
RTVSPropertyOp35
 70
     1
102
RTVSPropertyOp36
 70
     1
102
RTVSPropertyOp37
 70
     1
102
RTVSPropertyOp38
 70
     1
102
RTVSPropertyOp39
 70
     1
102
RTVSPropertyOp40
 70
     1
102
RTVSPropertyOp41
 70
     1
102
RTVSPropertyOp42
 70
     1
102
RTVSPropertyOp43
 70
     1
102
RTVSPropertyOp44
 70
     1
102
RTVSPropertyOp45
 70
     1
102
RTVSPropertyOp46
 70
     1
102
RTVSPropertyOp47
 70
     1
102
RTVSPropertyOp48
 70
     1
102
RTVSPropertyOp49
 70
     1
102
RTVSPropertyOp50
 70
     1
102
RTVSPropertyOp51
 70
     0
102
RTVSPropertyOp52
 70
     0
102
RTVSPropertyOp53
 70
     1
102
RTVSPropertyOp54
 70
     1
102
RTVSPropertyOp55
 70
     1
102
RTVSPropertyOp56
 70
     1
102
RTVSPropertyOp57
 70
     1
102
RTVSPropertyOp58
 70
     1
102
RTVSPropertyOp59
 70
     1
102
RTVSPropertyOp60
 70
     1
102
RTVSPropertyOp61
 70
     1
102
RTVSPropertyOp62
 70
     1
  0
XRECORD
  5
47A
102
{ACAD_REACTORS
330
479
102
}
330
479
100
AcDbXrecord
280
     1
102
RTVSPost2010Prop28
280
     0
102
RTVSPost2010PropOp28
 70
     1
102
RTVSPost2010Prop29
280
     1
102
RTVSPost2010PropOp29
 70
     1
102
RTVSPost2010Prop30
280
     1
102
RTVSPost2010PropOp30
 70
     1
102
RTVSPost2010Prop31
280
     0
102
RTVSPost2010PropOp31
 70
     1
102
RTVSPost2010Prop32
280
     0
102
RTVSPost2010PropOp32
 70
     1
102
RTVSPost2010Prop33
280
     0
102
RTVSPost2010PropOp33
 70
     1
102
RTVSPost2010Prop34
280
     0
102
RTVSPost2010PropOp34
 70
     1
102
RTVSPost2010Prop35
280
     0
102
RTVSPost2010PropOp35
 70
     1
102
RTVSPost2010Prop36
280
     0
102
RTVSPost2010PropOp36
 70
     1
102
RTVSPost2010Prop37
 90
       50
102
RTVSPost2010PropOp37
 70
     1
102
RTVSPost2010Prop38
140
0.0
102
RTVSPost2010PropOp38
 70
     1
102
RTVSPost2010Prop39
140
1.0
102
RTVSPost2010PropOp39
 70
     1
102
RTVSPost2010Prop40
 90
        0
102
RTVSPost2010PropOp40
 70
     1
102
RTVSPost2010Prop41ColorIndex
 90
       18
102
RTVSPost2010Prop41ColorRGB
 90
        0
102
RTVSPost2010PropOp41
 70
     1
102
RTVSPost2010Prop42
 90
       50
102
RTVSPost2010PropOp42
 70
     1
102
RTVSPost2010Prop43
 90
        3
102
RTVSPost2010PropOp43
 70
     1
102
RTVSPost2010Prop44ColorIndex
 90
        5
102
RTVSPost2010Prop44ColorRGB
 90
      255
102
RTVSPost2010PropOp44
 70
     1
102
RTVSPost2010Prop45
280
     0
102
RTVSPost2010PropOp45
 70
     1
102
RTVSPost2010Prop46
 90
       50
102
RTVSPost2010PropOp46
 70
     1
102
RTVSPost2010Prop47
 90
       50
102
RTVSPost2010PropOp47
 70
     1
102
RTVSPost2010Prop48
 90
       50
102
RTVSPost2010PropOp48
 70
     1
102
RTVSPost2010Prop49
280
     0
102
RTVSPost2010PropOp49
 70
     1
102
RTVSPost2010Prop50
 90
       50
102
RTVSPost2010PropOp50
 70
     1
102
RTVSPost2010Prop51ColorIndex
 90
      256
102
RTVSPost2010Prop51ColorRGB
 90
-16777216
102
RTVSPost2010PropOp51
 70
     0
102
RTVSPost2010Prop52
140
1.0
102
RTVSPost2010PropOp52
 70
     0
102
RTVSPost2010Prop53
 90
        2
102
RTVSPost2010PropOp53
 70
     1
102
RTVSPost2010Prop54
  1
strokes_ogs.tif
102
RTVSPost2010PropOp54
 70
     1
102
RTVSPost2010Prop55
280
     0
102
RTVSPost2010PropOp55
 70
     1
102
RTVSPost2010Prop56
140
1.0
102
RTVSPost2010PropOp56
 70
     1
102
RTVSPost2010Prop57
140
1.0
102
RTVSPost2010PropOp57
 70
     1
102
RTVSPropertyOp0
 70
     1
102
RTVSPropertyOp1
 70
     1
102
RTVSPropertyOp2
 70
     1
102
RTVSPropertyOp3
 70
     1
102
RTVSPropertyOp4
 70
     1
102
RTVSPropertyOp5
 70
     1
102
RTVSPropertyOp6
 70
     1
102
RTVSPropertyOp7
 70
     1
102
RTVSPropertyOp8
 70
     1
102
RTVSPropertyOp9
 70
     1
102
RTVSPropertyOp10
 70
     1
102
RTVSPropertyOp11
 70
     1
102
RTVSPropertyOp12
 70
     1
102
RTVSPropertyOp13
 70
     1
102
RTVSPropertyOp14
 70
     1
102
RTVSPropertyOp15
 70
     1
102
RTVSPropertyOp16
 70
     1
102
RTVSPropertyOp17
 70
     1
102
RTVSPropertyOp18
 70
     1
102
RTVSPropertyOp19
 70
     1
102
RTVSPropertyOp20
 70
     1
102
RTVSPropertyOp21
 70
     1
102
RTVSPropertyOp22
 70
     1
102
RTVSPropertyOp23
 70
     1
102
RTVSPropertyOp24
 70
     1
102
RTVSPropertyOp25
 70
     1
102
RTVSPropertyOp26
 70
     1
102
RTVSPropertyOp27
 70
     1
102
RTVSPropertyOp28
 70
     1
102
RTVSPropertyOp29
 70
     1
102
RTVSPropertyOp30
 70
     1
102
RTVSPropertyOp31
 70
     1
102
RTVSPropertyOp32
 70
     1
102
RTVSPropertyOp33
 70
     1
102
RTVSPropertyOp34
 70
     1
102
RTVSPropertyOp35
 70
     1
102
RTVSPropertyOp36
 70
     1
102
RTVSPropertyOp37
 70
     1
102
RTVSPropertyOp38
 70
     1
102
RTVSPropertyOp39
 70
     1
102
RTVSPropertyOp40
 70
     1
102
RTVSPropertyOp41
 70
     1
102
RTVSPropertyOp42
 70
     1
102
RTVSPropertyOp43
 70
     1
102
RTVSPropertyOp44
 70
     1
102
RTVSPropertyOp45
 70
     1
102
RTVSPropertyOp46
 70
     1
102
RTVSPropertyOp47
 70
     1
102
RTVSPropertyOp48
 70
     1
102
RTVSPropertyOp49
 70
     1
102
RTVSPropertyOp50
 70
     1
102
RTVSPropertyOp51
 70
     0
102
RTVSPropertyOp52
 70
     0
102
RTVSPropertyOp53
 70
     1
102
RTVSPropertyOp54
 70
     1
102
RTVSPropertyOp55
 70
     1
102
RTVSPropertyOp56
 70
     1
102
RTVSPropertyOp57
 70
     1
102
RTVSPropertyOp58
 70
     1
102
RTVSPropertyOp59
 70
     1
102
RTVSPropertyOp60
 70
     1
102
RTVSPropertyOp61
 70
     1
102
RTVSPropertyOp62
 70
     1
  0
XRECORD
  5
470
102
{ACAD_REACTORS
330
46F
102
}
330
46F
100
AcDbXrecord
280
     1
102
RTVSPost2010Prop28
280
     0
102
RTVSPost2010PropOp28
 70
     1
102
RTVSPost2010Prop29
280
     1
102
RTVSPost2010PropOp29
 70
     1
102
RTVSPost2010Prop30
280
     1
102
RTVSPost2010PropOp30
 70
     1
102
RTVSPost2010Prop31
280
     0
102
RTVSPost2010PropOp31
 70
     1
102
RTVSPost2010Prop32
280
     0
102
RTVSPost2010PropOp32
 70
     1
102
RTVSPost2010Prop33
280
     0
102
RTVSPost2010PropOp33
 70
     1
102
RTVSPost2010Prop34
280
     0
102
RTVSPost2010PropOp34
 70
     1
102
RTVSPost2010Prop35
280
     0
102
RTVSPost2010PropOp35
 70
     1
102
RTVSPost2010Prop36
280
     0
102
RTVSPost2010PropOp36
 70
     1
102
RTVSPost2010Prop37
 90
       50
102
RTVSPost2010PropOp37
 70
     1
102
RTVSPost2010Prop38
140
0.0
102
RTVSPost2010PropOp38
 70
     1
102
RTVSPost2010Prop39
140
1.0
102
RTVSPost2010PropOp39
 70
     1
102
RTVSPost2010Prop40
 90
        0
102
RTVSPost2010PropOp40
 70
     1
102
RTVSPost2010Prop41ColorIndex
 90
       18
102
RTVSPost2010Prop41ColorRGB
 90
        0
102
RTVSPost2010PropOp41
 70
     1
102
RTVSPost2010Prop42
 90
       50
102
RTVSPost2010PropOp42
 70
     1
102
RTVSPost2010Prop43
 90
        3
102
RTVSPost2010PropOp43
 70
     1
102
RTVSPost2010Prop44ColorIndex
 90
        5
102
RTVSPost2010Prop44ColorRGB
 90
      255
102
RTVSPost2010PropOp44
 70
     1
102
RTVSPost2010Prop45
280
     0
102
RTVSPost2010PropOp45
 70
     1
102
RTVSPost2010Prop46
 90
       50
102
RTVSPost2010PropOp46
 70
     1
102
RTVSPost2010Prop47
 90
       50
102
RTVSPost2010PropOp47
 70
     1
102
RTVSPost2010Prop48
 90
       50
102
RTVSPost2010PropOp48
 70
     1
102
RTVSPost2010Prop49
280
     0
102
RTVSPost2010PropOp49
 70
     1
102
RTVSPost2010Prop50
 90
       50
102
RTVSPost2010PropOp50
 70
     1
102
RTVSPost2010Prop51ColorIndex
 90
      256
102
RTVSPost2010Prop51ColorRGB
 90
-16777216
102
RTVSPost2010PropOp51
 70
     0
102
RTVSPost2010Prop52
140
1.0
102
RTVSPost2010PropOp52
 70
     0
102
RTVSPost2010Prop53
 90
        2
102
RTVSPost2010PropOp53
 70
     1
102
RTVSPost2010Prop54
  1
strokes_ogs.tif
102
RTVSPost2010PropOp54
 70
     1
102
RTVSPost2010Prop55
280
     0
102
RTVSPost2010PropOp55
 70
     1
102
RTVSPost2010Prop56
140
1.0
102
RTVSPost2010PropOp56
 70
     1
102
RTVSPost2010Prop57
140
1.0
102
RTVSPost2010PropOp57
 70
     1
102
RTVSPropertyOp0
 70
     1
102
RTVSPropertyOp1
 70
     1
102
RTVSPropertyOp2
 70
     1
102
RTVSPropertyOp3
 70
     1
102
RTVSPropertyOp4
 70
     1
102
RTVSPropertyOp5
 70
     1
102
RTVSPropertyOp6
 70
     1
102
RTVSPropertyOp7
 70
     1
102
RTVSPropertyOp8
 70
     1
102
RTVSPropertyOp9
 70
     1
102
RTVSPropertyOp10
 70
     1
102
RTVSPropertyOp11
 70
     1
102
RTVSPropertyOp12
 70
     1
102
RTVSPropertyOp13
 70
     1
102
RTVSPropertyOp14
 70
     1
102
RTVSPropertyOp15
 70
     1
102
RTVSPropertyOp16
 70
     1
102
RTVSPropertyOp17
 70
     1
102
RTVSPropertyOp18
 70
     1
102
RTVSPropertyOp19
 70
     1
102
RTVSPropertyOp20
 70
     1
102
RTVSPropertyOp21
 70
     1
102
RTVSPropertyOp22
 70
     1
102
RTVSPropertyOp23
 70
     1
102
RTVSPropertyOp24
 70
     1
102
RTVSPropertyOp25
 70
     1
102
RTVSPropertyOp26
 70
     1
102
RTVSPropertyOp27
 70
     1
102
RTVSPropertyOp28
 70
     1
102
RTVSPropertyOp29
 70
     1
102
RTVSPropertyOp30
 70
     1
102
RTVSPropertyOp31
 70
     1
102
RTVSPropertyOp32
 70
     1
102
RTVSPropertyOp33
 70
     1
102
RTVSPropertyOp34
 70
     1
102
RTVSPropertyOp35
 70
     1
102
RTVSPropertyOp36
 70
     1
102
RTVSPropertyOp37
 70
     1
102
RTVSPropertyOp38
 70
     1
102
RTVSPropertyOp39
 70
     1
102
RTVSPropertyOp40
 70
     1
102
RTVSPropertyOp41
 70
     1
102
RTVSPropertyOp42
 70
     1
102
RTVSPropertyOp43
 70
     1
102
RTVSPropertyOp44
 70
     1
102
RTVSPropertyOp45
 70
     1
102
RTVSPropertyOp46
 70
     1
102
RTVSPropertyOp47
 70
     1
102
RTVSPropertyOp48
 70
     1
102
RTVSPropertyOp49
 70
     1
102
RTVSPropertyOp50
 70
     1
102
RTVSPropertyOp51
 70
     0
102
RTVSPropertyOp52
 70
     0
102
RTVSPropertyOp53
 70
     1
102
RTVSPropertyOp54
 70
     1
102
RTVSPropertyOp55
 70
     1
102
RTVSPropertyOp56
 70
     1
102
RTVSPropertyOp57
 70
     1
102
RTVSPropertyOp58
 70
     1
102
RTVSPropertyOp59
 70
     1
102
RTVSPropertyOp60
 70
     1
102
RTVSPropertyOp61
 70
     1
102
RTVSPropertyOp62
 70
     1
  0
XRECORD
  5
464
102
{ACAD_REACTORS
330
463
102
}
330
463
100
AcDbXrecord
280
     1
102
RTVSPost2010Prop28
280
     0
102
RTVSPost2010PropOp28
 70
     1
102
RTVSPost2010Prop29
280
     1
102
RTVSPost2010PropOp29
 70
     1
102
RTVSPost2010Prop30
280
     1
102
RTVSPost2010PropOp30
 70
     1
102
RTVSPost2010Prop31
280
     0
102
RTVSPost2010PropOp31
 70
     1
102
RTVSPost2010Prop32
280
     0
102
RTVSPost2010PropOp32
 70
     1
102
RTVSPost2010Prop33
280
     0
102
RTVSPost2010PropOp33
 70
     1
102
RTVSPost2010Prop34
280
     0
102
RTVSPost2010PropOp34
 70
     1
102
RTVSPost2010Prop35
280
     0
102
RTVSPost2010PropOp35
 70
     1
102
RTVSPost2010Prop36
280
     0
102
RTVSPost2010PropOp36
 70
     1
102
RTVSPost2010Prop37
 90
       50
102
RTVSPost2010PropOp37
 70
     1
102
RTVSPost2010Prop38
140
0.0
102
RTVSPost2010PropOp38
 70
     1
102
RTVSPost2010Prop39
140
1.0
102
RTVSPost2010PropOp39
 70
     1
102
RTVSPost2010Prop40
 90
        0
102
RTVSPost2010PropOp40
 70
     1
102
RTVSPost2010Prop41ColorIndex
 90
       18
102
RTVSPost2010Prop41ColorRGB
 90
        0
102
RTVSPost2010PropOp41
 70
     1
102
RTVSPost2010Prop42
 90
       50
102
RTVSPost2010PropOp42
 70
     1
102
RTVSPost2010Prop43
 90
        3
102
RTVSPost2010PropOp43
 70
     1
102
RTVSPost2010Prop44ColorIndex
 90
        5
102
RTVSPost2010Prop44ColorRGB
 90
      255
102
RTVSPost2010PropOp44
 70
     1
102
RTVSPost2010Prop45
280
     0
102
RTVSPost2010PropOp45
 70
     1
102
RTVSPost2010Prop46
 90
       50
102
RTVSPost2010PropOp46
 70
     1
102
RTVSPost2010Prop47
 90
       50
102
RTVSPost2010PropOp47
 70
     1
102
RTVSPost2010Prop48
 90
       50
102
RTVSPost2010PropOp48
 70
     1
102
RTVSPost2010Prop49
280
     0
102
RTVSPost2010PropOp49
 70
     1
102
RTVSPost2010Prop50
 90
       50
102
RTVSPost2010PropOp50
 70
     1
102
RTVSPost2010Prop51ColorIndex
 90
      256
102
RTVSPost2010Prop51ColorRGB
 90
-16777216
102
RTVSPost2010PropOp51
 70
     0
102
RTVSPost2010Prop52
140
1.0
102
RTVSPost2010PropOp52
 70
     0
102
RTVSPost2010Prop53
 90
        2
102
RTVSPost2010PropOp53
 70
     1
102
RTVSPost2010Prop54
  1
strokes_ogs.tif
102
RTVSPost2010PropOp54
 70
     1
102
RTVSPost2010Prop55
280
     0
102
RTVSPost2010PropOp55
 70
     1
102
RTVSPost2010Prop56
140
1.0
102
RTVSPost2010PropOp56
 70
     1
102
RTVSPost2010Prop57
140
1.0
102
RTVSPost2010PropOp57
 70
     1
102
RTVSPropertyOp0
 70
     1
102
RTVSPropertyOp1
 70
     1
102
RTVSPropertyOp2
 70
     1
102
RTVSPropertyOp3
 70
     1
102
RTVSPropertyOp4
 70
     1
102
RTVSPropertyOp5
 70
     1
102
RTVSPropertyOp6
 70
     1
102
RTVSPropertyOp7
 70
     1
102
RTVSPropertyOp8
 70
     1
102
RTVSPropertyOp9
 70
     1
102
RTVSPropertyOp10
 70
     1
102
RTVSPropertyOp11
 70
     1
102
RTVSPropertyOp12
 70
     1
102
RTVSPropertyOp13
 70
     1
102
RTVSPropertyOp14
 70
     1
102
RTVSPropertyOp15
 70
     1
102
RTVSPropertyOp16
 70
     1
102
RTVSPropertyOp17
 70
     1
102
RTVSPropertyOp18
 70
     1
102
RTVSPropertyOp19
 70
     1
102
RTVSPropertyOp20
 70
     1
102
RTVSPropertyOp21
 70
     1
102
RTVSPropertyOp22
 70
     1
102
RTVSPropertyOp23
 70
     1
102
RTVSPropertyOp24
 70
     1
102
RTVSPropertyOp25
 70
     1
102
RTVSPropertyOp26
 70
     1
102
RTVSPropertyOp27
 70
     1
102
RTVSPropertyOp28
 70
     1
102
RTVSPropertyOp29
 70
     1
102
RTVSPropertyOp30
 70
     1
102
RTVSPropertyOp31
 70
     1
102
RTVSPropertyOp32
 70
     1
102
RTVSPropertyOp33
 70
     1
102
RTVSPropertyOp34
 70
     1
102
RTVSPropertyOp35
 70
     1
102
RTVSPropertyOp36
 70
     1
102
RTVSPropertyOp37
 70
     1
102
RTVSPropertyOp38
 70
     1
102
RTVSPropertyOp39
 70
     1
102
RTVSPropertyOp40
 70
     1
102
RTVSPropertyOp41
 70
     1
102
RTVSPropertyOp42
 70
     1
102
RTVSPropertyOp43
 70
     1
102
RTVSPropertyOp44
 70
     1
102
RTVSPropertyOp45
 70
     1
102
RTVSPropertyOp46
 70
     1
102
RTVSPropertyOp47
 70
     1
102
RTVSPropertyOp48
 70
     1
102
RTVSPropertyOp49
 70
     1
102
RTVSPropertyOp50
 70
     1
102
RTVSPropertyOp51
 70
     0
102
RTVSPropertyOp52
 70
     0
102
RTVSPropertyOp53
 70
     1
102
RTVSPropertyOp54
 70
     1
102
RTVSPropertyOp55
 70
     1
102
RTVSPropertyOp56
 70
     1
102
RTVSPropertyOp57
 70
     1
102
RTVSPropertyOp58
 70
     1
102
RTVSPropertyOp59
 70
     1
102
RTVSPropertyOp60
 70
     1
102
RTVSPropertyOp61
 70
     1
102
RTVSPropertyOp62
 70
     1
  0
XRECORD
  5
47C
102
{ACAD_REACTORS
330
47B
102
}
330
47B
100
AcDbXrecord
280
     1
102
RTVSPost2010Prop28
280
     0
102
RTVSPost2010PropOp28
 70
     1
102
RTVSPost2010Prop29
280
     1
102
RTVSPost2010PropOp29
 70
     1
102
RTVSPost2010Prop30
280
     1
102
RTVSPost2010PropOp30
 70
     1
102
RTVSPost2010Prop31
280
     0
102
RTVSPost2010PropOp31
 70
     1
102
RTVSPost2010Prop32
280
     0
102
RTVSPost2010PropOp32
 70
     1
102
RTVSPost2010Prop33
280
     0
102
RTVSPost2010PropOp33
 70
     1
102
RTVSPost2010Prop34
280
     0
102
RTVSPost2010PropOp34
 70
     1
102
RTVSPost2010Prop35
280
     0
102
RTVSPost2010PropOp35
 70
     1
102
RTVSPost2010Prop36
280
     0
102
RTVSPost2010PropOp36
 70
     1
102
RTVSPost2010Prop37
 90
       50
102
RTVSPost2010PropOp37
 70
     1
102
RTVSPost2010Prop38
140
0.0
102
RTVSPost2010PropOp38
 70
     1
102
RTVSPost2010Prop39
140
1.0
102
RTVSPost2010PropOp39
 70
     1
102
RTVSPost2010Prop40
 90
        0
102
RTVSPost2010PropOp40
 70
     1
102
RTVSPost2010Prop41ColorIndex
 90
       18
102
RTVSPost2010Prop41ColorRGB
 90
        0
102
RTVSPost2010PropOp41
 70
     1
102
RTVSPost2010Prop42
 90
       50
102
RTVSPost2010PropOp42
 70
     1
102
RTVSPost2010Prop43
 90
        3
102
RTVSPost2010PropOp43
 70
     1
102
RTVSPost2010Prop44ColorIndex
 90
        5
102
RTVSPost2010Prop44ColorRGB
 90
      255
102
RTVSPost2010PropOp44
 70
     1
102
RTVSPost2010Prop45
280
     0
102
RTVSPost2010PropOp45
 70
     1
102
RTVSPost2010Prop46
 90
       50
102
RTVSPost2010PropOp46
 70
     1
102
RTVSPost2010Prop47
 90
       50
102
RTVSPost2010PropOp47
 70
     1
102
RTVSPost2010Prop48
 90
       50
102
RTVSPost2010PropOp48
 70
     1
102
RTVSPost2010Prop49
280
     0
102
RTVSPost2010PropOp49
 70
     1
102
RTVSPost2010Prop50
 90
       50
102
RTVSPost2010PropOp50
 70
     1
102
RTVSPost2010Prop51ColorIndex
 90
      256
102
RTVSPost2010Prop51ColorRGB
 90
-16777216
102
RTVSPost2010PropOp51
 70
     0
102
RTVSPost2010Prop52
140
1.0
102
RTVSPost2010PropOp52
 70
     0
102
RTVSPost2010Prop53
 90
        2
102
RTVSPost2010PropOp53
 70
     1
102
RTVSPost2010Prop54
  1
strokes_ogs.tif
102
RTVSPost2010PropOp54
 70
     1
102
RTVSPost2010Prop55
280
     0
102
RTVSPost2010PropOp55
 70
     1
102
RTVSPost2010Prop56
140
1.0
102
RTVSPost2010PropOp56
 70
     1
102
RTVSPost2010Prop57
140
1.0
102
RTVSPost2010PropOp57
 70
     1
102
RTVSPropertyOp0
 70
     1
102
RTVSPropertyOp1
 70
     1
102
RTVSPropertyOp2
 70
     1
102
RTVSPropertyOp3
 70
     1
102
RTVSPropertyOp4
 70
     1
102
RTVSPropertyOp5
 70
     1
102
RTVSPropertyOp6
 70
     1
102
RTVSPropertyOp7
 70
     1
102
RTVSPropertyOp8
 70
     1
102
RTVSPropertyOp9
 70
     1
102
RTVSPropertyOp10
 70
     1
102
RTVSPropertyOp11
 70
     1
102
RTVSPropertyOp12
 70
     1
102
RTVSPropertyOp13
 70
     1
102
RTVSPropertyOp14
 70
     1
102
RTVSPropertyOp15
 70
     1
102
RTVSPropertyOp16
 70
     1
102
RTVSPropertyOp17
 70
     1
102
RTVSPropertyOp18
 70
     1
102
RTVSPropertyOp19
 70
     1
102
RTVSPropertyOp20
 70
     1
102
RTVSPropertyOp21
 70
     1
102
RTVSPropertyOp22
 70
     1
102
RTVSPropertyOp23
 70
     1
102
RTVSPropertyOp24
 70
     1
102
RTVSPropertyOp25
 70
     1
102
RTVSPropertyOp26
 70
     1
102
RTVSPropertyOp27
 70
     1
102
RTVSPropertyOp28
 70
     1
102
RTVSPropertyOp29
 70
     1
102
RTVSPropertyOp30
 70
     1
102
RTVSPropertyOp31
 70
     1
102
RTVSPropertyOp32
 70
     1
102
RTVSPropertyOp33
 70
     1
102
RTVSPropertyOp34
 70
     1
102
RTVSPropertyOp35
 70
     1
102
RTVSPropertyOp36
 70
     1
102
RTVSPropertyOp37
 70
     1
102
RTVSPropertyOp38
 70
     1
102
RTVSPropertyOp39
 70
     1
102
RTVSPropertyOp40
 70
     1
102
RTVSPropertyOp41
 70
     1
102
RTVSPropertyOp42
 70
     1
102
RTVSPropertyOp43
 70
     1
102
RTVSPropertyOp44
 70
     1
102
RTVSPropertyOp45
 70
     1
102
RTVSPropertyOp46
 70
     1
102
RTVSPropertyOp47
 70
     1
102
RTVSPropertyOp48
 70
     1
102
RTVSPropertyOp49
 70
     1
102
RTVSPropertyOp50
 70
     1
102
RTVSPropertyOp51
 70
     0
102
RTVSPropertyOp52
 70
     0
102
RTVSPropertyOp53
 70
     1
102
RTVSPropertyOp54
 70
     1
102
RTVSPropertyOp55
 70
     1
102
RTVSPropertyOp56
 70
     1
102
RTVSPropertyOp57
 70
     1
102
RTVSPropertyOp58
 70
     1
102
RTVSPropertyOp59
 70
     1
102
RTVSPropertyOp60
 70
     1
102
RTVSPropertyOp61
 70
     1
102
RTVSPropertyOp62
 70
     1
  0
ENDSEC
  0
EOF
