  0
SECTION
  2
HEADER
  9
$ACADVER
  1
AC1015
  9
$ACADMAINTVER
 70
    20
  9
$DWGCODEPAGE
  3
ANSI_932
  9
$INSBASE
 10
0.0
 20
0.0
 30
0.0
  9
$EXTMIN
 10
10.0
 20
9.999999999999998
 30
0.0
  9
$EXTMAX
 10
1021.6
 20
434.7999999999998
 30
0.0
  9
$LIMMIN
 10
0.0
 20
0.0
  9
$LIMMAX
 10
1069.2
 20
737.1
  9
$ORTHOMODE
 70
     1
  9
$REGENMODE
 70
     1
  9
$FILLMODE
 70
     1
  9
$QTEXTMODE
 70
     0
  9
$MIRRTEXT
 70
     1
  9
$LTSCALE
 40
20.0
  9
$ATTMODE
 70
     1
  9
$TEXTSIZE
 40
5.0
  9
$TRACEWID
 40
1.0
  9
$TEXTSTYLE
  7
STANDARD
  9
$CLAYER
  8
0
  9
$CELTYPE
  6
BYLAYER
  9
$CECOLOR
 62
   256
  9
$CELTSCALE
 40
1.0
  9
$DISPSILH
 70
     0
  9
$DIMSCALE
 40
1.0
  9
$DIMASZ
 40
3.0
  9
$DIMEXO
 40
1.0
  9
$DIMDLI
 40
10.0
  9
$DIMRND
 40
0.0
  9
$DIMDLE
 40
0.0
  9
$DIMEXE
 40
1.0
  9
$DIMTP
 40
0.0
  9
$DIMTM
 40
0.0
  9
$DIMTXT
 40
2.5
  9
$DIMCEN
 40
0.0
  9
$DIMTSZ
 40
0.0
  9
$DIMTOL
 70
     0
  9
$DIMLIM
 70
     0
  9
$DIMTIH
 70
     0
  9
$DIMTOH
 70
     0
  9
$DIMSE1
 70
     0
  9
$DIMSE2
 70
     0
  9
$DIMTAD
 70
     3
  9
$DIMZIN
 70
     8
  9
$DIMBLK
  1

  9
$DIMASO
 70
     1
  9
$DIMSHO
 70
     1
  9
$DIMPOST
  1

  9
$DIMAPOST
  1

  9
$DIMALT
 70
     0
  9
$DIMALTD
 70
     2
  9
$DIMALTF
 40
25.4
  9
$DIMLFAC
 40
1.0
  9
$DIMTOFL
 70
     1
  9
$DIMTVP
 40
0.0
  9
$DIMTIX
 70
     0
  9
$DIMSOXD
 70
     0
  9
$DIMSAH
 70
     1
  9
$DIMBLK1
  1

  9
$DIMBLK2
  1

  9
$DIMSTYLE
  2
STANDARD
  9
$DIMCLRD
 70
     0
  9
$DIMCLRE
 70
     0
  9
$DIMCLRT
 70
     0
  9
$DIMTFAC
 40
1.0
  9
$DIMGAP
 40
1.0
  9
$DIMJUST
 70
     0
  9
$DIMSD1
 70
     0
  9
$DIMSD2
 70
     0
  9
$DIMTOLJ
 70
     1
  9
$DIMTZIN
 70
     0
  9
$DIMALTZ
 70
     0
  9
$DIMALTTZ
 70
     0
  9
$DIMUPT
 70
     0
  9
$DIMDEC
 70
     4
  9
$DIMTDEC
 70
     4
  9
$DIMALTU
 70
     2
  9
$DIMALTTD
 70
     2
  9
$DIMTXSTY
  7
STANDARD
  9
$DIMAUNIT
 70
     0
  9
$DIMADEC
 70
     0
  9
$DIMALTRND
 40
0.0
  9
$DIMAZIN
 70
     0
  9
$DIMDSEP
 70
    46
  9
$DIMATFIT
 70
     3
  9
$DIMFRAC
 70
     0
  9
$DIMLDRBLK
  1

  9
$DIMLUNIT
 70
     2
  9
$DIMLWD
 70
    -2
  9
$DIMLWE
 70
    -2
  9
$DIMTMOVE
 70
     0
  9
$LUNITS
 70
     2
  9
$LUPREC
 70
     4
  9
$SKETCHINC
 40
1.0
  9
$FILLETRAD
 40
0.0
  9
$AUNITS
 70
     0
  9
$AUPREC
 70
     2
  9
$MENU
  1
.
  9
$ELEVATION
 40
0.0
  9
$PELEVATION
 40
0.0
  9
$THICKNESS
 40
0.0
  9
$LIMCHECK
 70
     0
  9
$CHAMFERA
 40
10.0
  9
$CHAMFERB
 40
10.0
  9
$CHAMFERC
 40
0.0
  9
$CHAMFERD
 40
0.0
  9
$SKPOLY
 70
     0
  9
$TDCREATE
 40
2451301.789203125
  9
$TDUCREATE
 40
2451301.414203125
  9
$TDUPDATE
 40
2457192.659592315
  9
$TDUUPDATE
 40
2457192.284592315
  9
$TDINDWG
 40
0.0000143519
  9
$TDUSRTIMER
 40
0.0000140394
  9
$USRTIMER
 70
     1
  9
$ANGBASE
 50
0.0
  9
$ANGDIR
 70
     0
  9
$PDMODE
 70
     0
  9
$PDSIZE
 40
0.0
  9
$PLINEWID
 40
0.0
  9
$SPLFRAME
 70
     0
  9
$SPLINETYPE
 70
     6
  9
$SPLINESEGS
 70
     8
  9
$HANDSEED
  5
11D5D
  9
$SURFTAB1
 70
     6
  9
$SURFTAB2
 70
     6
  9
$SURFTYPE
 70
     6
  9
$SURFU
 70
     6
  9
$SURFV
 70
     6
  9
$UCSBASE
  2

  9
$UCSNAME
  2

  9
$UCSORG
 10
0.0
 20
0.0
 30
0.0
  9
$UCSXDIR
 10
1.0
 20
0.0
 30
0.0
  9
$UCSYDIR
 10
0.0
 20
1.0
 30
0.0
  9
$UCSORTHOREF
  2

  9
$UCSORTHOVIEW
 70
     0
  9
$UCSORGTOP
 10
0.0
 20
0.0
 30
0.0
  9
$UCSORGBOTTOM
 10
0.0
 20
0.0
 30
0.0
  9
$UCSORGLEFT
 10
0.0
 20
0.0
 30
0.0
  9
$UCSORGRIGHT
 10
0.0
 20
0.0
 30
0.0
  9
$UCSORGFRONT
 10
0.0
 20
0.0
 30
0.0
  9
$UCSORGBACK
 10
0.0
 20
0.0
 30
0.0
  9
$PUCSBASE
  2

  9
$PUCSNAME
  2

  9
$PUCSORG
 10
0.0
 20
0.0
 30
0.0
  9
$PUCSXDIR
 10
1.0
 20
0.0
 30
0.0
  9
$PUCSYDIR
 10
0.0
 20
1.0
 30
0.0
  9
$PUCSORTHOREF
  2

  9
$PUCSORTHOVIEW
 70
     0
  9
$PUCSORGTOP
 10
0.0
 20
0.0
 30
0.0
  9
$PUCSORGBOTTOM
 10
0.0
 20
0.0
 30
0.0
  9
$PUCSORGLEFT
 10
0.0
 20
0.0
 30
0.0
  9
$PUCSORGRIGHT
 10
0.0
 20
0.0
 30
0.0
  9
$PUCSORGFRONT
 10
0.0
 20
0.0
 30
0.0
  9
$PUCSORGBACK
 10
0.0
 20
0.0
 30
0.0
  9
$USERI1
 70
     0
  9
$USERI2
 70
     0
  9
$USERI3
 70
     0
  9
$USERI4
 70
     0
  9
$USERI5
 70
     0
  9
$USERR1
 40
0.0
  9
$USERR2
 40
0.0
  9
$USERR3
 40
0.0
  9
$USERR4
 40
0.0
  9
$USERR5
 40
0.0
  9
$WORLDVIEW
 70
     1
  9
$SHADEDGE
 70
     3
  9
$SHADEDIF
 70
    70
  9
$TILEMODE
 70
     1
  9
$MAXACTVP
 70
    16
  9
$PINSBASE
 10
0.0
 20
0.0
 30
0.0
  9
$PLIMCHECK
 70
     0
  9
$PEXTMIN
 10
1.000000000000000E+20
 20
1.000000000000000E+20
 30
1.000000000000000E+20
  9
$PEXTMAX
 10
-1.000000000000000E+20
 20
-1.000000000000000E+20
 30
-1.000000000000000E+20
  9
$PLIMMIN
 10
0.0
 20
0.0
  9
$PLIMMAX
 10
420.0
 20
297.0
  9
$UNITMODE
 70
     0
  9
$VISRETAIN
 70
     0
  9
$PLINEGEN
 70
     0
  9
$PSLTSCALE
 70
     0
  9
$TREEDEPTH
 70
  3020
  9
$CMLSTYLE
  2
STANDARD
  9
$CMLJUST
 70
     0
  9
$CMLSCALE
 40
1.0
  9
$PROXYGRAPHICS
 70
     1
  9
$MEASUREMENT
 70
     0
  9
$CELWEIGHT
370
    -1
  9
$ENDCAPS
280
     0
  9
$JOINSTYLE
280
     0
  9
$LWDISPLAY
290
     0
  9
$INSUNITS
 70
     0
  9
$HYPERLINKBASE
  1

  9
$STYLESHEET
  1

  9
$XEDIT
290
     1
  9
$CEPSNTYPE
380
     0
  9
$PSTYLEMODE
290
     1
  9
$FINGERPRINTGUID
  2
{B95A69F4-BB8D-4C69-8A38-01E75CF39644}
  9
$VERSIONGUID
  2
{E5A317B8-800C-4109-825B-C0D74C903F0B}
  9
$EXTNAMES
290
     1
  9
$PSVPSCALE
 40
0.0
  9
$OLESTARTUP
290
     0
  0
ENDSEC
  0
SECTION
  2
CLASSES
  0
CLASS
  1
ACDBDICTIONARYWDFLT
  2
AcDbDictionaryWithDefault
  3
ObjectDBX Classes
 90
        0
280
     0
281
     0
  0
CLASS
  1
ACDBPLACEHOLDER
  2
AcDbPlaceHolder
  3
ObjectDBX Classes
 90
        0
280
     0
281
     0
  0
CLASS
  1
LAYOUT
  2
AcDbLayout
  3
ObjectDBX Classes
 90
        0
280
     0
281
     0
  0
CLASS
  1
DICTIONARYVAR
  2
AcDbDictionaryVar
  3
ObjectDBX Classes
 90
        0
280
     0
281
     0
  0
CLASS
  1
MATERIAL
  2
AcDbMaterial
  3
ObjectDBX Classes
 90
     1153
280
     0
281
     0
  0
CLASS
  1
VISUALSTYLE
  2
AcDbVisualStyle
  3
ObjectDBX Classes
 90
     4095
280
     0
281
     0
  0
CLASS
  1
TABLESTYLE
  2
AcDbTableStyle
  3
ObjectDBX Classes
 90
     4095
280
     0
281
     0
  0
CLASS
  1
SCALE
  2
AcDbScale
  3
ObjectDBX Classes
 90
     1153
280
     0
281
     0
  0
CLASS
  1
MLEADERSTYLE
  2
AcDbMLeaderStyle
  3
ACDB_MLEADERSTYLE_CLASS
 90
     4095
280
     0
281
     0
  0
CLASS
  1
ACDBSECTIONVIEWSTYLE
  2
AcDbSectionViewStyle
  3
ObjectDBX Classes
 90
     1025
280
     0
281
     0
  0
CLASS
  1
ACDBDETAILVIEWSTYLE
  2
AcDbDetailViewStyle
  3
ObjectDBX Classes
 90
     1025
280
     0
281
     0
  0
CLASS
  1
CELLSTYLEMAP
  2
AcDbCellStyleMap
  3
ObjectDBX Classes
 90
     1152
280
     0
281
     0
  0
ENDSEC
  0
SECTION
  2
TABLES
  0
TABLE
  2
VPORT
  5
11800
330
0
100
AcDbSymbolTable
 70
     1
  0
VPORT
  5
11CA6
330
11800
100
AcDbSymbolTableRecord
100
AcDbViewportTableRecord
  2
*ACTIVE
 70
     0
 10
0.0
 20
0.0
 11
1.0
 21
1.0
 12
689.9947913882649
 22
222.4200615131179
 13
0.0
 23
0.0
 14
10.0
 24
10.0
 15
10.0
 25
10.0
 16
0.0
 26
0.0
 36
1.0
 17
0.0
 27
0.0
 37
0.0
 40
581.565760179131
 41
1.899603698811096
 42
50.0
 43
0.0
 44
0.0
 50
0.0
 51
0.0
 71
     0
 72
   100
 73
     1
 74
     0
 75
     0
 76
     0
 77
     0
 78
     0
281
     0
 65
     1
110
0.0
120
0.0
130
0.0
111
1.0
121
0.0
131
0.0
112
0.0
122
1.0
132
0.0
 79
     0
146
0.0
1001
ACAD_NAV_VCDISPLAY
1070
     3
  0
ENDTAB
  0
TABLE
  2
LTYPE
  5
117FD
330
0
100
AcDbSymbolTable
 70
     4
  0
LTYPE
  5
1180B
330
117FD
100
AcDbSymbolTableRecord
100
AcDbLinetypeTableRecord
  2
BYBLOCK
 70
     0
  3

 72
    65
 73
     0
 40
0.0
  0
LTYPE
  5
1180C
330
117FD
100
AcDbSymbolTableRecord
100
AcDbLinetypeTableRecord
  2
BYLAYER
 70
     0
  3

 72
    65
 73
     0
 40
0.0
  0
LTYPE
  5
1180D
330
117FD
100
AcDbSymbolTableRecord
100
AcDbLinetypeTableRecord
  2
CONTINUOUS
 70
     0
  3
Solid line
 72
    65
 73
     0
 40
0.0
  0
LTYPE
  5
1181B
330
117FD
100
AcDbSymbolTableRecord
100
AcDbLinetypeTableRecord
  2
DASHED
 70
     0
  3
__ __ __ __ __ __ __ __ __ __ __ __ __ __ __ __
 72
    65
 73
     2
 40
0.75
 49
0.5
 74
     0
 49
-0.25
 74
     0
  0
LTYPE
  5
1181C
330
117FD
100
AcDbSymbolTableRecord
100
AcDbLinetypeTableRecord
  2
CENTER
 70
     0
  3
____ _ ____ _ ____ _ ____ _ ____ _ ____ _ ____ 
 72
    65
 73
     4
 40
2.0
 49
1.25
 74
     0
 49
-0.25
 74
     0
 49
0.25
 74
     0
 49
-0.25
 74
     0
  0
LTYPE
  5
1181D
330
117FD
100
AcDbSymbolTableRecord
100
AcDbLinetypeTableRecord
  2
PHANTOM
 70
     0
  3
______  __  __  ______  __  __  ______  __  __ 
 72
    65
 73
     6
 40
2.5
 49
1.25
 74
     0
 49
-0.25
 74
     0
 49
0.25
 74
     0
 49
-0.25
 74
     0
 49
0.25
 74
     0
 49
-0.25
 74
     0
  0
ENDTAB
  0
TABLE
  2
LAYER
  5
117FA
330
0
100
AcDbSymbolTable
 70
     8
  0
LAYER
  5
11808
102
{ACAD_XDICTIONARY
360
11D01
102
}
330
117FA
100
AcDbSymbolTableRecord
100
AcDbLayerTableRecord
  2
0
 70
     0
 62
     7
  6
CONTINUOUS
370
    -3
390
11CAF
  0
LAYER
  5
1181E
102
{ACAD_XDICTIONARY
360
11D03
102
}
330
117FA
100
AcDbSymbolTableRecord
100
AcDbLayerTableRecord
  2
4
 70
     0
 62
     1
  6
CENTER
370
    -3
390
11CAF
  0
LAYER
  5
1181F
102
{ACAD_XDICTIONARY
360
11D05
102
}
330
117FA
100
AcDbSymbolTableRecord
100
AcDbLayerTableRecord
  2
5
 70
     0
 62
     6
  6
PHANTOM
370
    -3
390
11CAF
  0
LAYER
  5
11820
102
{ACAD_XDICTIONARY
360
11D07
102
}
330
117FA
100
AcDbSymbolTableRecord
100
AcDbLayerTableRecord
  2
1
 70
     0
 62
     7
  6
CONTINUOUS
370
    -3
390
11CAF
  0
LAYER
  5
11821
102
{ACAD_XDICTIONARY
360
11D09
102
}
330
117FA
100
AcDbSymbolTableRecord
100
AcDbLayerTableRecord
  2
2
 70
     0
 62
     4
  6
CONTINUOUS
370
    -3
390
11CAF
  0
LAYER
  5
11822
102
{ACAD_XDICTIONARY
360
11D0B
102
}
330
117FA
100
AcDbSymbolTableRecord
100
AcDbLayerTableRecord
  2
3
 70
     0
 62
     2
  6
DASHED
370
    -3
390
11CAF
  0
LAYER
  5
11823
102
{ACAD_XDICTIONARY
360
11D0D
102
}
330
117FA
100
AcDbSymbolTableRecord
100
AcDbLayerTableRecord
  2
6
 70
     0
 62
     5
  6
CONTINUOUS
370
    -3
390
11CAF
  0
LAYER
  5
11824
102
{ACAD_XDICTIONARY
360
11D0F
102
}
330
117FA
100
AcDbSymbolTableRecord
100
AcDbLayerTableRecord
  2
7
 70
     0
 62
     3
  6
CONTINUOUS
370
    -3
390
11CAF
  0
ENDTAB
  0
TABLE
  2
STYLE
  5
117FB
330
0
100
AcDbSymbolTable
 70
     1
  0
STYLE
  5
11809
330
117FB
100
AcDbSymbolTableRecord
100
AcDbTextStyleTableRecord
  2
STANDARD
 70
     0
 40
0.0
 41
1.0
 50
0.0
 71
     0
 42
5.0
  3
txt
  4

  0
ENDTAB
  0
TABLE
  2
VIEW
  5
117FE
330
0
100
AcDbSymbolTable
 70
     0
  0
ENDTAB
  0
TABLE
  2
UCS
  5
117FF
330
0
100
AcDbSymbolTable
 70
     0
  0
ENDTAB
  0
TABLE
  2
APPID
  5
11801
330
0
100
AcDbSymbolTable
 70
     3
  0
APPID
  5
1180A
330
11801
100
AcDbSymbolTableRecord
100
AcDbRegAppTableRecord
  2
ACAD
 70
     0
  0
APPID
  5
11D1B
330
11801
100
AcDbSymbolTableRecord
100
AcDbRegAppTableRecord
  2
ACAD_NAV_VCDISPLAY
 70
     0
  0
APPID
  5
11D54
330
11801
100
AcDbSymbolTableRecord
100
AcDbRegAppTableRecord
  2
ACAD_MLEADERVER
 70
     0
  0
ENDTAB
  0
TABLE
  2
DIMSTYLE
  5
11802
330
0
100
AcDbSymbolTable
 70
     1
100
AcDbDimStyleTable
 71
     0
  0
DIMSTYLE
105
11826
330
11802
100
AcDbSymbolTableRecord
100
AcDbDimStyleTableRecord
  2
STANDARD
 70
     0
 41
3.0
 42
1.0
 43
10.0
 44
1.0
 73
     0
 74
     0
 77
     3
 78
     8
140
2.5
141
0.0
147
1.0
172
     1
173
     1
284
     8
285
     8
286
     8
340
11809
  0
ENDTAB
  0
TABLE
  2
BLOCK_RECORD
  5
117F9
330
0
100
AcDbSymbolTable
 70
     0
  0
BLOCK_RECORD
  5
11816
102
{ACAD_XDICTIONARY
360
11CA9
102
}
330
117F9
100
AcDbSymbolTableRecord
100
AcDbBlockTableRecord
  2
*MODEL_SPACE
340
11CFD
  0
BLOCK_RECORD
  5
11812
102
{ACAD_XDICTIONARY
360
11CA7
102
}
330
117F9
100
AcDbSymbolTableRecord
100
AcDbBlockTableRecord
  2
*PAPER_SPACE
340
11CFE
  0
ENDTAB
  0
ENDSEC
  0
SECTION
  2
BLOCKS
  0
BLOCK
  5
11817
330
11816
100
AcDbEntity
  8
0
100
AcDbBlockBegin
  2
*MODEL_SPACE
 70
     0
 10
0.0
 20
0.0
 30
0.0
  3
*MODEL_SPACE
  1

  0
ENDBLK
  5
11818
330
11816
100
AcDbEntity
  8
0
100
AcDbBlockEnd
  0
BLOCK
  5
11813
330
11812
100
AcDbEntity
 67
     1
  8
0
100
AcDbBlockBegin
  2
*PAPER_SPACE
 70
     0
 10
0.0
 20
0.0
 30
0.0
  3
*PAPER_SPACE
  1

  0
ENDBLK
  5
11814
330
11812
100
AcDbEntity
 67
     1
  8
0
100
AcDbBlockEnd
  0
ENDSEC
  0
SECTION
  2
ENTITIES
  0
TEXT
  5
1182E
330
11816
100
AcDbEntity
  8
7
  6
Continuous
100
AcDbText
 10
10.0
 20
18.0
 30
0.0
 40
3.0
  1
TYPE No.TM-168-16
100
AcDbText
  0
TEXT
  5
1182F
330
11816
100
AcDbEntity
  8
7
  6
Continuous
100
AcDbText
 10
10.0
 20
26.0
 30
0.0
 40
3.0
  1
CODE No.5853
100
AcDbText
  0
TEXT
  5
11830
330
11816
100
AcDbEntity
  8
1
  6
Continuous
100
AcDbText
 10
10.0
 20
10.0
 30
0.0
 40
1.399999999999999
  1
LAYER
100
AcDbText
  0
TEXT
  5
11831
330
11816
100
AcDbEntity
  8
1
  6
Continuous
100
AcDbText
 10
17.97951099999998
 20
10.04873699999998
 30
0.0
 40
1.399999999999999
  1
1
100
AcDbText
  0
TEXT
  5
11832
330
11816
100
AcDbEntity
  8
7
  6
Continuous
100
AcDbText
 10
29.97951099999999
 20
10.04873699999998
 30
0.0
 40
1.399999999999999
  1
7
100
AcDbText
  0
TEXT
  5
11833
330
11816
100
AcDbEntity
  8
4
  6
CENTER
100
AcDbText
 10
23.97951099999999
 20
10.04873699999998
 30
0.0
 40
1.399999999999999
  1
4
100
AcDbText
  0
TEXT
  5
11834
330
11816
100
AcDbEntity
  8
3
  6
DASHED
100
AcDbText
 10
21.979511
 20
10.04873699999998
 30
0.0
 40
1.399999999999999
  1
3
100
AcDbText
  0
TEXT
  5
11835
330
11816
100
AcDbEntity
  8
2
  6
Continuous
100
AcDbText
 10
19.97951099999999
 20
10.04873699999998
 30
0.0
 40
1.399999999999999
  1
2
100
AcDbText
  0
TEXT
  5
11836
330
11816
100
AcDbEntity
  8
6
  6
Continuous
100
AcDbText
 10
27.979511
 20
10.04873699999998
 30
0.0
 40
1.399999999999999
  1
6
100
AcDbText
  0
TEXT
  5
11837
330
11816
100
AcDbEntity
  8
5
  6
PHANTOM
100
AcDbText
 10
25.97951099999999
 20
10.04873699999998
 30
0.0
 40
1.399999999999999
  1
5
100
AcDbText
  0
LINE
  5
11838
330
11816
100
AcDbEntity
  8
4
  6
CENTER
100
AcDbLine
 10
97.3
 20
172.75
 30
0.0
 11
941.9
 21
172.75
 31
0.0
  0
LINE
  5
11839
330
11816
100
AcDbEntity
  8
1
  6
Continuous
100
AcDbLine
 10
937.1
 20
155.0999999999999
 30
0.0
 11
937.1
 21
156.602131
 31
0.0
  0
LINE
  5
1183A
330
11816
100
AcDbEntity
  8
1
  6
Continuous
100
AcDbLine
 10
337.1
 20
190.4
 30
0.0
 11
937.1
 21
190.4
 31
0.0
  0
LINE
  5
1183B
330
11816
100
AcDbEntity
  8
1
  6
Continuous
100
AcDbLine
 10
337.1
 20
155.0999999999999
 30
0.0
 11
937.1
 21
155.0999999999999
 31
0.0
  0
LINE
  5
1183C
330
11816
100
AcDbEntity
  8
1
  6
Continuous
100
AcDbLine
 10
919.35
 20
173.15
 30
0.0
 11
919.35
 21
172.35
 31
0.0
  0
LINE
  5
1183D
330
11816
100
AcDbEntity
  8
1
  6
Continuous
100
AcDbLine
 10
923.85
 20
173.15
 30
0.0
 11
923.85
 21
172.35
 31
0.0
  0
LINE
  5
1183E
330
11816
100
AcDbEntity
  8
4
  6
CENTER
100
AcDbLine
 10
921.6000000000001
 20
178.0
 30
0.0
 11
921.6000000000001
 21
167.5
 31
0.0
  0
ARC
  5
1183F
330
11816
100
AcDbEntity
  8
1
  6
Continuous
100
AcDbCircle
 10
921.6000000000001
 20
172.35
 30
0.0
 40
2.25
100
AcDbArc
 50
180.0
 51
0.0
  0
ARC
  5
11840
330
11816
100
AcDbEntity
  8
1
  6
Continuous
100
AcDbCircle
 10
921.6000000000001
 20
173.15
 30
0.0
 40
2.25
100
AcDbArc
 50
0.0
 51
180.0
  0
LINE
  5
11841
330
11816
100
AcDbEntity
  8
1
  6
Continuous
100
AcDbLine
 10
906.6499999999999
 20
173.15
 30
0.0
 11
906.6499999999999
 21
172.35
 31
0.0
  0
LINE
  5
11842
330
11816
100
AcDbEntity
  8
1
  6
Continuous
100
AcDbLine
 10
911.1499999999999
 20
173.15
 30
0.0
 11
911.1499999999999
 21
172.35
 31
0.0
  0
LINE
  5
11843
330
11816
100
AcDbEntity
  8
4
  6
CENTER
100
AcDbLine
 10
908.9
 20
178.0
 30
0.0
 11
908.9
 21
167.5
 31
0.0
  0
ARC
  5
11844
330
11816
100
AcDbEntity
  8
1
  6
Continuous
100
AcDbCircle
 10
908.9
 20
172.35
 30
0.0
 40
2.25
100
AcDbArc
 50
180.0
 51
0.0
  0
ARC
  5
11845
330
11816
100
AcDbEntity
  8
1
  6
Continuous
100
AcDbCircle
 10
908.9
 20
173.15
 30
0.0
 40
2.25
100
AcDbArc
 50
0.0
 51
180.0
  0
LINE
  5
11846
330
11816
100
AcDbEntity
  8
4
  6
CENTER
100
AcDbLine
 10
658.1
 20
178.0
 30
0.0
 11
658.1
 21
167.5
 31
0.0
  0
LINE
  5
11847
330
11816
100
AcDbEntity
  8
4
  6
CENTER
100
AcDbLine
 10
572.4
 20
178.0
 30
0.0
 11
572.4
 21
167.5
 31
0.0
  0
LINE
  5
11848
330
11816
100
AcDbEntity
  8
4
  6
CENTER
100
AcDbLine
 10
559.7
 20
178.0
 30
0.0
 11
559.7
 21
167.5
 31
0.0
  0
LINE
  5
11849
330
11816
100
AcDbEntity
  8
4
  6
CENTER
100
AcDbLine
 10
547.0
 20
178.0
 30
0.0
 11
547.0
 21
167.5
 31
0.0
  0
LINE
  5
1184A
330
11816
100
AcDbEntity
  8
1
  6
Continuous
100
AcDbLine
 10
25.0
 20
160.171084
 30
0.0
 11
25.0
 21
185.3289159999999
 31
0.0
  0
LINE
  5
1184B
330
11816
100
AcDbEntity
  8
1
  6
Continuous
100
AcDbLine
 10
26.6
 20
160.171084
 30
0.0
 11
26.6
 21
165.25
 31
0.0
  0
LINE
  5
1184C
330
11816
100
AcDbEntity
  8
1
  6
Continuous
100
AcDbLine
 10
102.0999999999998
 20
185.0
 30
0.0
 11
505.1
 21
185.0
 31
0.0
  0
LINE
  5
1184D
330
11816
100
AcDbEntity
  8
1
  6
Continuous
100
AcDbLine
 10
102.0999999999998
 20
160.4999999999998
 30
0.0
 11
505.1
 21
160.4999999999998
 31
0.0
  0
LINE
  5
1184E
330
11816
100
AcDbEntity
  8
4
  6
CENTER
100
AcDbLine
 10
20.0
 20
172.75
 30
0.0
 11
49.1
 21
172.75
 31
0.0
  0
ARC
  5
1184F
330
11816
100
AcDbEntity
  8
1
  6
Continuous
100
AcDbCircle
 10
30.0
 20
186.4187499999999
 30
0.0
 40
2.38125
100
AcDbArc
 50
204.844815
 51
343.87833
  0
ARC
  5
11850
330
11816
100
AcDbEntity
  8
1
  6
Continuous
100
AcDbCircle
 10
30.0
 20
186.4187499999999
 30
0.0
 40
3.98125
100
AcDbArc
 50
21.665296
 51
142.987809
  0
LINE
  5
11851
330
11816
100
AcDbEntity
  8
1
  6
Continuous
100
AcDbLine
 10
33.7
 20
187.8885629999999
 30
0.0
 11
32.21302999999998
 21
187.297869
 31
0.0
  0
LINE
  5
11852
330
11816
100
AcDbEntity
  8
1
  6
Continuous
100
AcDbLine
 10
25.644776
 20
187.255268
 30
0.0
 11
26.82094199999999
 21
188.815403
 31
0.0
  0
LINE
  5
11853
330
11816
100
AcDbEntity
  8
1
  6
Continuous
100
AcDbLine
 10
26.922388
 20
186.292092
 30
0.0
 11
28.098554
 21
187.8522269999999
 31
0.0
  0
ARC
  5
11854
330
11816
100
AcDbEntity
  8
1
  6
Continuous
100
AcDbCircle
 10
28.2
 20
185.3289159999999
 30
0.0
 40
1.6
100
AcDbArc
 50
142.987809
 51
180.0
  0
ARC
  5
11855
330
11816
100
AcDbEntity
  8
1
  6
Continuous
100
AcDbCircle
 10
28.2
 20
185.3289159999999
 30
0.0
 40
3.2
100
AcDbArc
 50
142.987809
 51
180.0
  0
ARC
  5
11856
330
11816
100
AcDbEntity
  8
1
  6
Continuous
100
AcDbCircle
 10
30.0
 20
186.4187499999999
 30
0.0
 40
3.581249999999998
100
AcDbArc
 50
236.0503449999999
 51
309.5506789999999
  0
LINE
  5
11857
330
11816
100
AcDbEntity
  8
1
  6
Continuous
100
AcDbLine
 10
34.5
 20
162.3229389999998
 30
0.0
 11
34.5
 21
183.177061
 31
0.0
  0
LINE
  5
11858
330
11816
100
AcDbEntity
  8
1
  6
Continuous
100
AcDbLine
 10
33.3
 20
162.3229389999998
 30
0.0
 11
33.3
 21
183.177061
 31
0.0
  0
ARC
  5
11859
330
11816
100
AcDbEntity
  8
1
  6
Continuous
100
AcDbCircle
 10
32.677061
 20
183.177061
 30
0.0
 40
1.822938999999999
100
AcDbArc
 50
0.0
 51
129.550679
  0
ARC
  5
1185A
330
11816
100
AcDbEntity
  8
1
  6
Continuous
100
AcDbCircle
 10
32.677061
 20
183.177061
 30
0.0
 40
0.6229390000000003
100
AcDbArc
 50
0.0
 51
129.550679
  0
LINE
  5
1185B
330
11816
100
AcDbEntity
  8
1
  6
Continuous
100
AcDbLine
 10
28.0
 20
183.448001
 30
0.0
 11
28.67015699999999
 21
184.443435
 31
0.0
  0
ARC
  5
1185C
330
11816
100
AcDbEntity
  8
1
  6
Continuous
100
AcDbCircle
 10
28.2
 20
160.171084
 30
0.0
 40
3.2
100
AcDbArc
 50
180.0
 51
217.012191
  0
ARC
  5
1185D
330
11816
100
AcDbEntity
  8
1
  6
Continuous
100
AcDbCircle
 10
28.2
 20
160.171084
 30
0.0
 40
1.6
100
AcDbArc
 50
180.0
 51
217.012191
  0
ARC
  5
1185E
330
11816
100
AcDbEntity
  8
1
  6
Continuous
100
AcDbCircle
 10
30.0
 20
159.08125
 30
0.0
 40
3.581249999999998
100
AcDbArc
 50
50.449321
 51
123.949655
  0
LINE
  5
1185F
330
11816
100
AcDbEntity
  8
1
  6
Continuous
100
AcDbLine
 10
28.0
 20
162.051999
 30
0.0
 11
28.67015699999999
 21
161.0565649999998
 31
0.0
  0
ARC
  5
11860
330
11816
100
AcDbEntity
  8
1
  6
Continuous
100
AcDbCircle
 10
32.677061
 20
162.3229389999998
 30
0.0
 40
0.6229390000000003
100
AcDbArc
 50
230.4493209999999
 51
0.0
  0
ARC
  5
11861
330
11816
100
AcDbEntity
  8
1
  6
Continuous
100
AcDbCircle
 10
32.677061
 20
162.3229389999998
 30
0.0
 40
1.822938999999999
100
AcDbArc
 50
230.4493209999999
 51
0.0
  0
ARC
  5
11862
330
11816
100
AcDbEntity
  8
1
  6
Continuous
100
AcDbCircle
 10
30.0
 20
159.08125
 30
0.0
 40
3.98125
100
AcDbArc
 50
217.012191
 51
338.3347039999998
  0
LINE
  5
11863
330
11816
100
AcDbEntity
  8
1
  6
Continuous
100
AcDbLine
 10
25.644776
 20
158.2447319999999
 30
0.0
 11
26.82094199999999
 21
156.6845969999999
 31
0.0
  0
LINE
  5
11864
330
11816
100
AcDbEntity
  8
1
  6
Continuous
100
AcDbLine
 10
26.922388
 20
159.2079079999998
 30
0.0
 11
28.098554
 21
157.647773
 31
0.0
  0
LINE
  5
11865
330
11816
100
AcDbEntity
  8
1
  6
Continuous
100
AcDbLine
 10
33.7
 20
157.611437
 30
0.0
 11
32.21302999999998
 21
158.202131
 31
0.0
  0
LINE
  5
11866
330
11816
100
AcDbEntity
  8
1
  6
Continuous
100
AcDbLine
 10
27.1
 20
180.25
 30
0.0
 11
27.1
 21
185.398548
 31
0.0
  0
LINE
  5
11867
330
11816
100
AcDbEntity
  8
1
  6
Continuous
100
AcDbLine
 10
27.6
 20
180.25
 30
0.0
 11
27.6
 21
185.4
 31
0.0
  0
LINE
  5
11868
330
11816
100
AcDbEntity
  8
1
  6
Continuous
100
AcDbLine
 10
30.1
 20
167.5
 30
0.0
 11
30.1
 21
178.0
 31
0.0
  0
ARC
  5
11869
330
11816
100
AcDbEntity
  8
1
  6
Continuous
100
AcDbCircle
 10
29.6
 20
178.0
 30
0.0
 40
0.5
100
AcDbArc
 50
0.0
 51
36.869898
  0
LINE
  5
1186A
330
11816
100
AcDbEntity
  8
1
  6
Continuous
100
AcDbLine
 10
33.5
 20
185.85
 30
0.0
 11
33.5
 21
186.3499999999999
 31
0.0
  0
LINE
  5
1186B
330
11816
100
AcDbEntity
  8
1
  6
Continuous
100
AcDbLine
 10
33.5
 20
185.85
 30
0.0
 11
27.6
 21
185.4
 31
0.0
  0
ARC
  5
1186C
330
11816
100
AcDbEntity
  8
1
  6
Continuous
100
AcDbCircle
 10
30.0
 20
186.4187499999999
 30
0.0
 40
2.38125
100
AcDbArc
 50
356.280872
 51
192.4422739999998
  0
LINE
  5
1186D
330
11816
100
AcDbEntity
  8
1
  6
Continuous
100
AcDbLine
 10
33.5
 20
159.6499999999998
 30
0.0
 11
27.6
 21
160.0999999999999
 31
0.0
  0
ARC
  5
1186E
330
11816
100
AcDbEntity
  8
1
  6
Continuous
100
AcDbCircle
 10
30.0
 20
159.08125
 30
0.0
 40
2.38125
100
AcDbArc
 50
167.557726
 51
3.719127999999999
  0
ARC
  5
1186F
330
11816
100
AcDbEntity
  8
1
  6
Continuous
100
AcDbCircle
 10
30.0
 20
159.08125
 30
0.0
 40
2.38125
100
AcDbArc
 50
16.12167
 51
155.1551849999999
  0
LINE
  5
11870
330
11816
100
AcDbEntity
  8
1
  6
Continuous
100
AcDbLine
 10
27.6
 20
165.25
 30
0.0
 11
27.6
 21
160.0999999999999
 31
0.0
  0
ARC
  5
11871
330
11816
100
AcDbEntity
  8
1
  6
Continuous
100
AcDbCircle
 10
29.6
 20
167.5
 30
0.0
 40
0.5
100
AcDbArc
 50
323.130102
 51
0.0
  0
LINE
  5
11872
330
11816
100
AcDbEntity
  8
1
  6
Continuous
100
AcDbLine
 10
25.0
 20
180.25
 30
0.0
 11
30.0
 21
180.25
 31
0.0
  0
LINE
  5
11873
330
11816
100
AcDbEntity
  8
1
  6
Continuous
100
AcDbLine
 10
25.0
 20
165.25
 30
0.0
 11
30.0
 21
165.25
 31
0.0
  0
LINE
  5
11874
330
11816
100
AcDbEntity
  8
1
  6
Continuous
100
AcDbLine
 10
30.0
 20
165.25
 30
0.0
 11
30.0
 21
180.25
 31
0.0
  0
LINE
  5
11875
330
11816
100
AcDbEntity
  8
1
  6
Continuous
100
AcDbLine
 10
26.6
 20
180.25
 30
0.0
 11
26.6
 21
185.3289159999999
 31
0.0
  0
LINE
  5
11876
330
11816
100
AcDbEntity
  8
1
  6
Continuous
100
AcDbLine
 10
338.7
 20
187.8885629999999
 30
0.0
 11
741.5
 21
187.8885629999999
 31
0.0
  0
LINE
  5
11877
330
11816
100
AcDbEntity
  8
1
  6
Continuous
100
AcDbLine
 10
338.7
 20
187.297869
 30
0.0
 11
741.5
 21
187.297869
 31
0.0
  0
LINE
  5
11878
330
11816
100
AcDbEntity
  8
1
  6
Continuous
100
AcDbLine
 10
935.5
 20
184.25
 30
0.0
 11
937.1
 21
184.25
 31
0.0
  0
LINE
  5
11879
330
11816
100
AcDbEntity
  8
1
  6
Continuous
100
AcDbLine
 10
935.5
 20
161.25
 30
0.0
 11
937.1
 21
161.25
 31
0.0
  0
LINE
  5
1187A
330
11816
100
AcDbEntity
  8
1
  6
Continuous
100
AcDbLine
 10
935.5
 20
161.25
 30
0.0
 11
935.5
 21
184.25
 31
0.0
  0
ARC
  5
1187B
330
11816
100
AcDbEntity
  8
1
  6
Continuous
100
AcDbCircle
 10
935.5
 20
189.488563
 30
0.0
 40
1.6
100
AcDbArc
 50
270.0
 51
0.0
  0
ARC
  5
1187C
330
11816
100
AcDbEntity
  8
1
  6
Continuous
100
AcDbCircle
 10
935.5
 20
188.8978689999999
 30
0.0
 40
1.6
100
AcDbArc
 50
270.0
 51
0.0
  0
ARC
  5
1187D
330
11816
100
AcDbEntity
  8
1
  6
Continuous
100
AcDbCircle
 10
935.5
 20
156.602131
 30
0.0
 40
1.6
100
AcDbArc
 50
0.0
 51
90.0
  0
ARC
  5
1187E
330
11816
100
AcDbEntity
  8
1
  6
Continuous
100
AcDbCircle
 10
935.5
 20
156.0114369999998
 30
0.0
 40
1.6
100
AcDbArc
 50
0.0
 51
90.0
  0
LINE
  5
1187F
330
11816
100
AcDbEntity
  8
1
  6
Continuous
100
AcDbLine
 10
338.7
 20
158.202131
 30
0.0
 11
741.5
 21
158.202131
 31
0.0
  0
LINE
  5
11880
330
11816
100
AcDbEntity
  8
1
  6
Continuous
100
AcDbLine
 10
338.7
 20
157.611437
 30
0.0
 11
741.5
 21
157.611437
 31
0.0
  0
LINE
  5
11881
330
11816
100
AcDbEntity
  8
1
  6
Continuous
100
AcDbLine
 10
362.1
 20
185.85
 30
0.0
 11
372.6
 21
185.85
 31
0.0
  0
ARC
  5
11882
330
11816
100
AcDbEntity
  8
1
  6
Continuous
100
AcDbCircle
 10
367.35
 20
186.4187499999999
 30
0.0
 40
2.38125
100
AcDbArc
 50
158.3347039999999
 51
181.6544389999999
  0
ARC
  5
11883
330
11816
100
AcDbEntity
  8
1
  6
Continuous
100
AcDbCircle
 10
367.35
 20
186.4187499999999
 30
0.0
 40
2.38125
100
AcDbArc
 50
193.81839
 51
216.5697209999999
  0
LINE
  5
11884
330
11816
100
AcDbEntity
  8
1
  6
Continuous
100
AcDbLine
 10
362.1
 20
186.3499999999999
 30
0.0
 11
362.1
 21
185.85
 31
0.0
  0
ARC
  5
11885
330
11816
100
AcDbEntity
  8
1
  6
Continuous
100
AcDbCircle
 10
367.35
 20
186.4187499999999
 30
0.0
 40
2.38125
100
AcDbArc
 50
323.430279
 51
346.18161
  0
ARC
  5
11886
330
11816
100
AcDbEntity
  8
1
  6
Continuous
100
AcDbCircle
 10
367.35
 20
186.4187499999999
 30
0.0
 40
2.38125
100
AcDbArc
 50
358.3455609999999
 51
21.665296
  0
LINE
  5
11887
330
11816
100
AcDbEntity
  8
1
  6
Continuous
100
AcDbLine
 10
372.6
 20
186.3499999999999
 30
0.0
 11
372.6
 21
185.85
 31
0.0
  0
LINE
  5
11888
330
11816
100
AcDbEntity
  8
3
  6
DASHED
100
AcDbLine
 10
533.6
 20
180.25
 30
0.0
 11
531.0999999999998
 21
180.25
 31
0.0
  0
LINE
  5
11889
330
11816
100
AcDbEntity
  8
3
  6
DASHED
100
AcDbLine
 10
533.6
 20
165.25
 30
0.0
 11
533.6
 21
180.25
 31
0.0
  0
LINE
  5
1188A
330
11816
100
AcDbEntity
  8
3
  6
DASHED
100
AcDbLine
 10
533.6
 20
165.25
 30
0.0
 11
531.0999999999998
 21
165.25
 31
0.0
  0
LINE
  5
1188B
330
11816
100
AcDbEntity
  8
3
  6
DASHED
100
AcDbLine
 10
531.0999999999998
 20
180.25
 30
0.0
 11
531.0999999999998
 21
190.4
 31
0.0
  0
LINE
  5
1188C
330
11816
100
AcDbEntity
  8
1
  6
Continuous
100
AcDbLine
 10
33.5
 20
186.3499999999999
 30
0.0
 11
27.561975
 21
185.8971
 31
0.0
  0
ARC
  5
1188D
330
11816
100
AcDbEntity
  8
1
  6
Continuous
100
AcDbCircle
 10
27.6
 20
185.398548
 30
0.0
 40
0.5
100
AcDbArc
 50
94.36157300000001
 51
180.0
  0
LINE
  5
1188E
330
11816
100
AcDbEntity
  8
1
  6
Continuous
100
AcDbLine
 10
33.5
 20
159.6499999999998
 30
0.0
 11
33.5
 21
159.15
 31
0.0
  0
LINE
  5
1188F
330
11816
100
AcDbEntity
  8
1
  6
Continuous
100
AcDbLine
 10
33.5
 20
159.15
 30
0.0
 11
27.561975
 21
159.6029
 31
0.0
  0
ARC
  5
11890
330
11816
100
AcDbEntity
  8
1
  6
Continuous
100
AcDbCircle
 10
27.6
 20
160.1014519999999
 30
0.0
 40
0.5
100
AcDbArc
 50
180.0
 51
265.6384269999999
  0
LINE
  5
11891
330
11816
100
AcDbEntity
  8
1
  6
Continuous
100
AcDbLine
 10
27.1
 20
165.25
 30
0.0
 11
27.1
 21
160.1014519999999
 31
0.0
  0
LINE
  5
11892
330
11816
100
AcDbEntity
  8
1
  6
Continuous
100
AcDbLine
 10
362.1
 20
186.3499999999999
 30
0.0
 11
372.6
 21
186.3499999999999
 31
0.0
  0
ARC
  5
11893
330
11816
100
AcDbEntity
  8
1
  6
Continuous
100
AcDbCircle
 10
935.5
 20
185.057229
 30
0.0
 40
0.8072289999999997
100
AcDbArc
 50
141.1871849999998
 51
270.0
  0
LINE
  5
11894
330
11816
100
AcDbEntity
  8
1
  6
Continuous
100
AcDbLine
 10
934.8710089999999
 20
185.563183
 30
0.0
 11
936.7467160000003
 21
187.8950239999998
 31
0.0
  0
LINE
  5
11895
330
11816
100
AcDbEntity
  8
1
  6
Continuous
100
AcDbLine
 10
937.1
 20
188.8978689999999
 30
0.0
 11
937.1
 21
190.4
 31
0.0
  0
LINE
  5
11896
330
11816
100
AcDbEntity
  8
1
  6
Continuous
100
AcDbLine
 10
934.8710089999999
 20
159.9368169999999
 30
0.0
 11
936.7467160000003
 21
157.604976
 31
0.0
  0
ARC
  5
11897
330
11816
100
AcDbEntity
  8
1
  6
Continuous
100
AcDbCircle
 10
935.5
 20
160.4427709999999
 30
0.0
 40
0.8072289999999997
100
AcDbArc
 50
90.0
 51
218.812815
  0
LINE
  5
11898
330
11816
100
AcDbEntity
  8
1
  6
Continuous
100
AcDbLine
 10
937.1
 20
161.25
 30
0.0
 11
937.1
 21
184.25
 31
0.0
  0
LINE
  5
11899
330
11816
100
AcDbEntity
  8
1
  6
Continuous
100
AcDbLine
 10
1016.6
 20
160.171084
 30
0.0
 11
1016.6
 21
185.3289159999999
 31
0.0
  0
ARC
  5
1189A
330
11816
100
AcDbEntity
  8
1
  6
Continuous
100
AcDbCircle
 10
1009.6
 20
182.75
 30
0.0
 40
1.5
100
AcDbArc
 50
90.0
 51
180.0
  0
ARC
  5
1189B
330
11816
100
AcDbEntity
  8
1
  6
Continuous
100
AcDbCircle
 10
1008.922939
 20
183.177061
 30
0.0
 40
1.822938999999999
100
AcDbArc
 50
50.449321
 51
180.0
  0
ARC
  5
1189C
330
11816
100
AcDbEntity
  8
1
  6
Continuous
100
AcDbCircle
 10
1008.922939
 20
162.3229389999998
 30
0.0
 40
1.822938999999999
100
AcDbArc
 50
180.0
 51
309.5506789999999
  0
LINE
  5
1189D
330
11816
100
AcDbEntity
  8
4
  6
CENTER
100
AcDbLine
 10
992.5
 20
172.75
 30
0.0
 11
1021.6
 21
172.75
 31
0.0
  0
LINE
  5
1189E
330
11816
100
AcDbEntity
  8
1
  6
Continuous
100
AcDbLine
 10
1007.1
 20
162.3229389999998
 30
0.0
 11
1007.1
 21
183.177061
 31
0.0
  0
ARC
  5
1189F
330
11816
100
AcDbEntity
  8
1
  6
Continuous
100
AcDbCircle
 10
1013.4
 20
160.171084
 30
0.0
 40
1.6
100
AcDbArc
 50
322.9878089999999
 51
0.0
  0
ARC
  5
118A0
330
11816
100
AcDbEntity
  8
1
  6
Continuous
100
AcDbCircle
 10
1013.4
 20
160.171084
 30
0.0
 40
3.2
100
AcDbArc
 50
322.9878089999999
 51
0.0
  0
LINE
  5
118A1
330
11816
100
AcDbEntity
  8
1
  6
Continuous
100
AcDbLine
 10
1008.1
 20
159.6499999999998
 30
0.0
 11
1008.1
 21
159.15
 31
0.0
  0
ARC
  5
118A2
330
11816
100
AcDbEntity
  8
1
  6
Continuous
100
AcDbCircle
 10
1011.6
 20
159.08125
 30
0.0
 40
2.38125
100
AcDbArc
 50
176.2808719999999
 51
12.44227399999999
  0
LINE
  5
118A3
330
11816
100
AcDbEntity
  8
1
  6
Continuous
100
AcDbLine
 10
1008.1
 20
159.15
 30
0.0
 11
1014.038025
 21
159.6029
 31
0.0
  0
LINE
  5
118A4
330
11816
100
AcDbEntity
  8
1
  6
Continuous
100
AcDbLine
 10
1015.955224
 20
158.2447319999999
 30
0.0
 11
1014.779058
 21
156.6845969999999
 31
0.0
  0
LINE
  5
118A5
330
11816
100
AcDbEntity
  8
1
  6
Continuous
100
AcDbLine
 10
1007.9
 20
157.611437
 30
0.0
 11
1009.386969999998
 21
158.202131
 31
0.0
  0
ARC
  5
118A6
330
11816
100
AcDbEntity
  8
1
  6
Continuous
100
AcDbCircle
 10
1011.6
 20
159.08125
 30
0.0
 40
3.98125
100
AcDbArc
 50
201.6652959999999
 51
322.9878089999999
  0
LINE
  5
118A7
330
11816
100
AcDbEntity
  8
1
  6
Continuous
100
AcDbLine
 10
1014.677612
 20
159.2079079999998
 30
0.0
 11
1013.501446
 21
157.647773
 31
0.0
  0
LINE
  5
118A8
330
11816
100
AcDbEntity
  8
1
  6
Continuous
100
AcDbLine
 10
1008.1
 20
162.7499999999998
 30
0.0
 11
1008.1
 21
182.75
 31
0.0
  0
LINE
  5
118A9
330
11816
100
AcDbEntity
  8
1
  6
Continuous
100
AcDbLine
 10
1014.499999999999
 20
161.25
 30
0.0
 11
1014.499999999999
 21
160.1014519999999
 31
0.0
  0
LINE
  5
118AA
330
11816
100
AcDbEntity
  8
1
  6
Continuous
100
AcDbLine
 10
1015.0
 20
160.171084
 30
0.0
 11
1015.0
 21
161.25
 31
0.0
  0
LINE
  5
118AB
330
11816
100
AcDbEntity
  8
1
  6
Continuous
100
AcDbLine
 10
1014.0
 20
161.25
 30
0.0
 11
1014.0
 21
160.0999999999999
 31
0.0
  0
ARC
  5
118AC
330
11816
100
AcDbEntity
  8
1
  6
Continuous
100
AcDbCircle
 10
1014.0
 20
160.1014519999999
 30
0.0
 40
0.5
100
AcDbArc
 50
274.361573
 51
0.0
  0
LINE
  5
118AD
330
11816
100
AcDbEntity
  8
1
  6
Continuous
100
AcDbLine
 10
1013.060069
 20
161.25
 30
0.0
 11
1012.929842999999
 21
161.0565649999998
 31
0.0
  0
ARC
  5
118AE
330
11816
100
AcDbEntity
  8
1
  6
Continuous
100
AcDbCircle
 10
1011.6
 20
159.08125
 30
0.0
 40
2.38125
100
AcDbArc
 50
114.3892499999999
 51
163.87833
  0
ARC
  5
118AF
330
11816
100
AcDbEntity
  8
1
  6
Continuous
100
AcDbCircle
 10
1011.6
 20
159.08125
 30
0.0
 40
2.38125
100
AcDbArc
 50
24.844815
 51
65.61074999999999
  0
LINE
  5
118B0
330
11816
100
AcDbEntity
  8
1
  6
Continuous
100
AcDbLine
 10
1008.1
 20
159.6499999999998
 30
0.0
 11
1014.0
 21
160.0999999999999
 31
0.0
  0
LINE
  5
118B1
330
11816
100
AcDbEntity
  8
1
  6
Continuous
100
AcDbLine
 10
1009.6
 20
161.25
 30
0.0
 11
1016.6
 21
161.25
 31
0.0
  0
ARC
  5
118B2
330
11816
100
AcDbEntity
  8
1
  6
Continuous
100
AcDbCircle
 10
1009.6
 20
162.7499999999998
 30
0.0
 40
1.5
100
AcDbArc
 50
180.0
 51
270.0
  0
LINE
  5
118B3
330
11816
100
AcDbEntity
  8
1
  6
Continuous
100
AcDbLine
 10
1015.955224
 20
187.255268
 30
0.0
 11
1014.779058
 21
188.815403
 31
0.0
  0
LINE
  5
118B4
330
11816
100
AcDbEntity
  8
1
  6
Continuous
100
AcDbLine
 10
1008.1
 20
185.85
 30
0.0
 11
1008.1
 21
186.3499999999999
 31
0.0
  0
LINE
  5
118B5
330
11816
100
AcDbEntity
  8
1
  6
Continuous
100
AcDbLine
 10
1007.9
 20
187.8885629999999
 30
0.0
 11
1009.386969999998
 21
187.297869
 31
0.0
  0
LINE
  5
118B6
330
11816
100
AcDbEntity
  8
1
  6
Continuous
100
AcDbLine
 10
1008.1
 20
186.3499999999999
 30
0.0
 11
1014.038025
 21
185.8971
 31
0.0
  0
LINE
  5
118B7
330
11816
100
AcDbEntity
  8
1
  6
Continuous
100
AcDbLine
 10
1014.677612
 20
186.292092
 30
0.0
 11
1013.501446
 21
187.8522269999999
 31
0.0
  0
ARC
  5
118B8
330
11816
100
AcDbEntity
  8
1
  6
Continuous
100
AcDbCircle
 10
1011.6
 20
186.4187499999999
 30
0.0
 40
3.98125
100
AcDbArc
 50
37.01219099999998
 51
158.3347039999999
  0
LINE
  5
118B9
330
11816
100
AcDbEntity
  8
1
  6
Continuous
100
AcDbLine
 10
1014.499999999999
 20
184.25
 30
0.0
 11
1014.499999999999
 21
185.398548
 31
0.0
  0
LINE
  5
118BA
330
11816
100
AcDbEntity
  8
1
  6
Continuous
100
AcDbLine
 10
1015.0
 20
184.25
 30
0.0
 11
1015.0
 21
185.3289159999999
 31
0.0
  0
LINE
  5
118BB
330
11816
100
AcDbEntity
  8
1
  6
Continuous
100
AcDbLine
 10
1014.0
 20
184.25
 30
0.0
 11
1014.0
 21
185.4
 31
0.0
  0
LINE
  5
118BC
330
11816
100
AcDbEntity
  8
1
  6
Continuous
100
AcDbLine
 10
1013.060069
 20
184.25
 30
0.0
 11
1012.929842999999
 21
184.443435
 31
0.0
  0
LINE
  5
118BD
330
11816
100
AcDbEntity
  8
1
  6
Continuous
100
AcDbLine
 10
1009.6
 20
184.25
 30
0.0
 11
1016.6
 21
184.25
 31
0.0
  0
ARC
  5
118BE
330
11816
100
AcDbEntity
  8
1
  6
Continuous
100
AcDbCircle
 10
1014.0
 20
185.398548
 30
0.0
 40
0.5
100
AcDbArc
 50
0.0
 51
85.63842699999998
  0
ARC
  5
118BF
330
11816
100
AcDbEntity
  8
1
  6
Continuous
100
AcDbCircle
 10
1013.4
 20
185.3289159999999
 30
0.0
 40
1.6
100
AcDbArc
 50
0.0
 51
37.01219099999998
  0
ARC
  5
118C0
330
11816
100
AcDbEntity
  8
1
  6
Continuous
100
AcDbCircle
 10
1013.4
 20
185.3289159999999
 30
0.0
 40
3.2
100
AcDbArc
 50
0.0
 51
37.01219099999998
  0
ARC
  5
118C1
330
11816
100
AcDbEntity
  8
1
  6
Continuous
100
AcDbCircle
 10
1011.6
 20
186.4187499999999
 30
0.0
 40
2.38125
100
AcDbArc
 50
294.38925
 51
335.155185
  0
ARC
  5
118C2
330
11816
100
AcDbEntity
  8
1
  6
Continuous
100
AcDbCircle
 10
1011.6
 20
186.4187499999999
 30
0.0
 40
2.38125
100
AcDbArc
 50
196.12167
 51
245.6107499999998
  0
ARC
  5
118C3
330
11816
100
AcDbEntity
  8
1
  6
Continuous
100
AcDbCircle
 10
1011.6
 20
186.4187499999999
 30
0.0
 40
2.38125
100
AcDbArc
 50
347.557726
 51
183.719128
  0
LINE
  5
118C4
330
11816
100
AcDbEntity
  8
1
  6
Continuous
100
AcDbLine
 10
1008.1
 20
185.85
 30
0.0
 11
1014.0
 21
185.4
 31
0.0
  0
LINE
  5
118C5
330
11816
100
AcDbEntity
  8
1
  6
Continuous
100
AcDbLine
 10
37.20000000000001
 20
178.5
 30
0.0
 11
37.20000000000001
 21
185.4
 31
0.0
  0
LINE
  5
118C6
330
11816
100
AcDbEntity
  8
1
  6
Continuous
100
AcDbLine
 10
36.7
 20
178.5
 30
0.0
 11
36.7
 21
185.398548
 31
0.0
  0
LINE
  5
118C7
330
11816
100
AcDbEntity
  8
1
  6
Continuous
100
AcDbLine
 10
37.6
 20
183.448001
 30
0.0
 11
38.270157
 21
184.443435
 31
0.0
  0
ARC
  5
118C8
330
11816
100
AcDbEntity
  8
1
  6
Continuous
100
AcDbCircle
 10
42.27706099999998
 20
183.177061
 30
0.0
 40
0.6229390000000003
100
AcDbArc
 50
0.0
 51
129.550679
  0
ARC
  5
118C9
330
11816
100
AcDbEntity
  8
1
  6
Continuous
100
AcDbCircle
 10
42.27706099999998
 20
183.177061
 30
0.0
 40
1.822938999999999
100
AcDbArc
 50
0.0
 51
129.550679
  0
ARC
  5
118CA
330
11816
100
AcDbEntity
  8
1
  6
Continuous
100
AcDbCircle
 10
39.6
 20
186.4187499999999
 30
0.0
 40
3.581249999999998
100
AcDbArc
 50
236.0503449999999
 51
309.5506789999999
  0
LINE
  5
118CB
330
11816
100
AcDbEntity
  8
1
  6
Continuous
100
AcDbLine
 10
34.6
 20
160.171084
 30
0.0
 11
34.6
 21
185.3289159999999
 31
0.0
  0
LINE
  5
118CC
330
11816
100
AcDbEntity
  8
1
  6
Continuous
100
AcDbLine
 10
43.1
 20
159.15
 30
0.0
 11
37.16197499999999
 21
159.6029
 31
0.0
  0
LINE
  5
118CD
330
11816
100
AcDbEntity
  8
1
  6
Continuous
100
AcDbLine
 10
43.1
 20
159.6499999999998
 30
0.0
 11
43.1
 21
159.15
 31
0.0
  0
ARC
  5
118CE
330
11816
100
AcDbEntity
  8
1
  6
Continuous
100
AcDbCircle
 10
39.6
 20
159.08125
 30
0.0
 40
2.38125
100
AcDbArc
 50
167.557726
 51
3.719127999999999
  0
ARC
  5
118CF
330
11816
100
AcDbEntity
  8
1
  6
Continuous
100
AcDbCircle
 10
37.79999999999999
 20
160.171084
 30
0.0
 40
1.6
100
AcDbArc
 50
180.0
 51
217.012191
  0
ARC
  5
118D0
330
11816
100
AcDbEntity
  8
1
  6
Continuous
100
AcDbCircle
 10
37.79999999999999
 20
160.171084
 30
0.0
 40
3.2
100
AcDbArc
 50
180.0
 51
217.012191
  0
LINE
  5
118D1
330
11816
100
AcDbEntity
  8
1
  6
Continuous
100
AcDbLine
 10
43.3
 20
157.611437
 30
0.0
 11
41.81302999999997
 21
158.202131
 31
0.0
  0
LINE
  5
118D2
330
11816
100
AcDbEntity
  8
1
  6
Continuous
100
AcDbLine
 10
36.522388
 20
159.2079079999998
 30
0.0
 11
37.698554
 21
157.647773
 31
0.0
  0
LINE
  5
118D3
330
11816
100
AcDbEntity
  8
1
  6
Continuous
100
AcDbLine
 10
35.244776
 20
158.2447319999999
 30
0.0
 11
36.42094199999998
 21
156.6845969999999
 31
0.0
  0
ARC
  5
118D4
330
11816
100
AcDbEntity
  8
1
  6
Continuous
100
AcDbCircle
 10
39.6
 20
159.08125
 30
0.0
 40
3.98125
100
AcDbArc
 50
217.012191
 51
338.3347039999998
  0
LINE
  5
118D5
330
11816
100
AcDbEntity
  8
1
  6
Continuous
100
AcDbLine
 10
36.7
 20
167.0
 30
0.0
 11
36.7
 21
160.1014519999999
 31
0.0
  0
ARC
  5
118D6
330
11816
100
AcDbEntity
  8
1
  6
Continuous
100
AcDbCircle
 10
37.20000000000001
 20
160.1014519999999
 30
0.0
 40
0.5
100
AcDbArc
 50
180.0
 51
265.6384269999999
  0
LINE
  5
118D7
330
11816
100
AcDbEntity
  8
1
  6
Continuous
100
AcDbLine
 10
37.20000000000001
 20
167.0
 30
0.0
 11
37.20000000000001
 21
160.0999999999999
 31
0.0
  0
ARC
  5
118D8
330
11816
100
AcDbEntity
  8
1
  6
Continuous
100
AcDbCircle
 10
39.6
 20
159.08125
 30
0.0
 40
2.38125
100
AcDbArc
 50
16.12167
 51
155.1551849999999
  0
LINE
  5
118D9
330
11816
100
AcDbEntity
  8
1
  6
Continuous
100
AcDbLine
 10
43.1
 20
159.6499999999998
 30
0.0
 11
37.20000000000001
 21
160.0999999999999
 31
0.0
  0
ARC
  5
118DA
330
11816
100
AcDbEntity
  8
1
  6
Continuous
100
AcDbCircle
 10
39.2
 20
178.0
 30
0.0
 40
0.5
100
AcDbArc
 50
0.0
 51
90.0
  0
LINE
  5
118DB
330
11816
100
AcDbEntity
  8
1
  6
Continuous
100
AcDbLine
 10
39.7
 20
165.0
 30
0.0
 11
39.7
 21
180.4999999999998
 31
0.0
  0
ARC
  5
118DC
330
11816
100
AcDbEntity
  8
1
  6
Continuous
100
AcDbCircle
 10
42.27706099999998
 20
162.3229389999998
 30
0.0
 40
1.822938999999999
100
AcDbArc
 50
230.4493209999999
 51
0.0
  0
ARC
  5
118DD
330
11816
100
AcDbEntity
  8
1
  6
Continuous
100
AcDbCircle
 10
42.27706099999998
 20
162.3229389999998
 30
0.0
 40
0.6229390000000003
100
AcDbArc
 50
230.4493209999999
 51
0.0
  0
LINE
  5
118DE
330
11816
100
AcDbEntity
  8
1
  6
Continuous
100
AcDbLine
 10
37.6
 20
162.051999
 30
0.0
 11
38.270157
 21
161.0565649999998
 31
0.0
  0
ARC
  5
118DF
330
11816
100
AcDbEntity
  8
1
  6
Continuous
100
AcDbCircle
 10
39.6
 20
159.08125
 30
0.0
 40
3.581249999999998
100
AcDbArc
 50
50.449321
 51
123.949655
  0
LINE
  5
118E0
330
11816
100
AcDbEntity
  8
1
  6
Continuous
100
AcDbLine
 10
42.9
 20
162.3229389999998
 30
0.0
 11
42.9
 21
183.177061
 31
0.0
  0
LINE
  5
118E1
330
11816
100
AcDbEntity
  8
1
  6
Continuous
100
AcDbLine
 10
44.1
 20
162.3229389999998
 30
0.0
 11
44.1
 21
183.177061
 31
0.0
  0
LINE
  5
118E2
330
11816
100
AcDbEntity
  8
1
  6
Continuous
100
AcDbLine
 10
36.2
 20
160.171084
 30
0.0
 11
36.2
 21
185.3289159999999
 31
0.0
  0
ARC
  5
118E3
330
11816
100
AcDbEntity
  8
1
  6
Continuous
100
AcDbCircle
 10
37.20000000000001
 20
185.398548
 30
0.0
 40
0.5
100
AcDbArc
 50
94.36157300000001
 51
180.0
  0
LINE
  5
118E4
330
11816
100
AcDbEntity
  8
1
  6
Continuous
100
AcDbLine
 10
43.1
 20
186.3499999999999
 30
0.0
 11
37.16197499999999
 21
185.8971
 31
0.0
  0
ARC
  5
118E5
330
11816
100
AcDbEntity
  8
1
  6
Continuous
100
AcDbCircle
 10
39.6
 20
186.4187499999999
 30
0.0
 40
2.38125
100
AcDbArc
 50
356.280872
 51
192.4422739999998
  0
LINE
  5
118E6
330
11816
100
AcDbEntity
  8
1
  6
Continuous
100
AcDbLine
 10
43.1
 20
185.85
 30
0.0
 11
37.20000000000001
 21
185.4
 31
0.0
  0
LINE
  5
118E7
330
11816
100
AcDbEntity
  8
1
  6
Continuous
100
AcDbLine
 10
43.1
 20
185.85
 30
0.0
 11
43.1
 21
186.3499999999999
 31
0.0
  0
ARC
  5
118E8
330
11816
100
AcDbEntity
  8
1
  6
Continuous
100
AcDbCircle
 10
37.79999999999999
 20
185.3289159999999
 30
0.0
 40
3.2
100
AcDbArc
 50
142.987809
 51
180.0
  0
ARC
  5
118E9
330
11816
100
AcDbEntity
  8
1
  6
Continuous
100
AcDbCircle
 10
37.79999999999999
 20
185.3289159999999
 30
0.0
 40
1.6
100
AcDbArc
 50
142.987809
 51
180.0
  0
LINE
  5
118EA
330
11816
100
AcDbEntity
  8
1
  6
Continuous
100
AcDbLine
 10
36.522388
 20
186.292092
 30
0.0
 11
37.698554
 21
187.8522269999999
 31
0.0
  0
LINE
  5
118EB
330
11816
100
AcDbEntity
  8
1
  6
Continuous
100
AcDbLine
 10
35.244776
 20
187.255268
 30
0.0
 11
36.42094199999998
 21
188.815403
 31
0.0
  0
LINE
  5
118EC
330
11816
100
AcDbEntity
  8
1
  6
Continuous
100
AcDbLine
 10
43.3
 20
187.8885629999999
 30
0.0
 11
41.81302999999997
 21
187.297869
 31
0.0
  0
ARC
  5
118ED
330
11816
100
AcDbEntity
  8
1
  6
Continuous
100
AcDbCircle
 10
39.6
 20
186.4187499999999
 30
0.0
 40
3.98125
100
AcDbArc
 50
21.665296
 51
142.987809
  0
ARC
  5
118EE
330
11816
100
AcDbEntity
  8
1
  6
Continuous
100
AcDbCircle
 10
39.6
 20
186.4187499999999
 30
0.0
 40
2.38125
100
AcDbArc
 50
204.844815
 51
343.87833
  0
LINE
  5
118EF
330
11816
100
AcDbEntity
  8
1
  6
Continuous
100
AcDbLine
 10
36.2
 20
175.65
 30
0.0
 11
38.7
 21
175.65
 31
0.0
  0
LINE
  5
118F0
330
11816
100
AcDbEntity
  8
1
  6
Continuous
100
AcDbLine
 10
36.2
 20
169.8499999999999
 30
0.0
 11
38.7
 21
169.8499999999999
 31
0.0
  0
LINE
  5
118F1
330
11816
100
AcDbEntity
  8
1
  6
Continuous
100
AcDbLine
 10
38.7
 20
169.8499999999999
 30
0.0
 11
38.7
 21
175.65
 31
0.0
  0
LINE
  5
118F2
330
11816
100
AcDbEntity
  8
1
  6
Continuous
100
AcDbLine
 10
37.20000000000001
 20
178.5
 30
0.0
 11
39.2
 21
178.5
 31
0.0
  0
LINE
  5
118F3
330
11816
100
AcDbEntity
  8
1
  6
Continuous
100
AcDbLine
 10
39.2
 20
167.5
 30
0.0
 11
39.2
 21
178.0
 31
0.0
  0
LINE
  5
118F4
330
11816
100
AcDbEntity
  8
1
  6
Continuous
100
AcDbLine
 10
37.20000000000001
 20
178.0
 30
0.0
 11
39.2
 21
178.0
 31
0.0
  0
ARC
  5
118F5
330
11816
100
AcDbEntity
  8
1
  6
Continuous
100
AcDbCircle
 10
37.20000000000001
 20
178.5
 30
0.0
 40
0.5
100
AcDbArc
 50
180.0
 51
270.0
  0
ARC
  5
118F6
330
11816
100
AcDbEntity
  8
1
  6
Continuous
100
AcDbCircle
 10
37.20000000000001
 20
167.0
 30
0.0
 40
0.5
100
AcDbArc
 50
90.0
 51
180.0
  0
LINE
  5
118F7
330
11816
100
AcDbEntity
  8
1
  6
Continuous
100
AcDbLine
 10
37.20000000000001
 20
167.5
 30
0.0
 11
39.2
 21
167.5
 31
0.0
  0
LINE
  5
118F8
330
11816
100
AcDbEntity
  8
1
  6
Continuous
100
AcDbLine
 10
37.20000000000001
 20
167.0
 30
0.0
 11
39.2
 21
167.0
 31
0.0
  0
ARC
  5
118F9
330
11816
100
AcDbEntity
  8
1
  6
Continuous
100
AcDbCircle
 10
39.2
 20
167.5
 30
0.0
 40
0.5
100
AcDbArc
 50
270.0
 51
0.0
  0
LINE
  5
118FA
330
11816
100
AcDbEntity
  8
1
  6
Continuous
100
AcDbLine
 10
39.7
 20
180.4999999999998
 30
0.0
 11
42.9
 21
180.4999999999998
 31
0.0
  0
LINE
  5
118FB
330
11816
100
AcDbEntity
  8
1
  6
Continuous
100
AcDbLine
 10
39.7
 20
165.0
 30
0.0
 11
42.9
 21
165.0
 31
0.0
  0
LINE
  5
118FC
330
11816
100
AcDbEntity
  8
1
  6
Continuous
100
AcDbLine
 10
1000.0
 20
184.25
 30
0.0
 11
1007.0
 21
184.25
 31
0.0
  0
LINE
  5
118FD
330
11816
100
AcDbEntity
  8
1
  6
Continuous
100
AcDbLine
 10
1006.355223999998
 20
187.255268
 30
0.0
 11
1005.179058
 21
188.815403
 31
0.0
  0
LINE
  5
118FE
330
11816
100
AcDbEntity
  8
1
  6
Continuous
100
AcDbLine
 10
1000.0
 20
161.25
 30
0.0
 11
1007.0
 21
161.25
 31
0.0
  0
LINE
  5
118FF
330
11816
100
AcDbEntity
  8
1
  6
Continuous
100
AcDbLine
 10
1006.355223999998
 20
158.2447319999999
 30
0.0
 11
1005.179058
 21
156.6845969999999
 31
0.0
  0
ARC
  5
11900
330
11816
100
AcDbEntity
  8
1
  6
Continuous
100
AcDbCircle
 10
999.3229389999999
 20
183.177061
 30
0.0
 40
1.822938999999999
100
AcDbArc
 50
50.449321
 51
180.0
  0
ARC
  5
11901
330
11816
100
AcDbEntity
  8
1
  6
Continuous
100
AcDbCircle
 10
1000.0
 20
182.75
 30
0.0
 40
1.5
100
AcDbArc
 50
90.0
 51
180.0
  0
LINE
  5
11902
330
11816
100
AcDbEntity
  8
1
  6
Continuous
100
AcDbLine
 10
998.4999999999999
 20
159.15
 30
0.0
 11
1004.438025
 21
159.6029
 31
0.0
  0
ARC
  5
11903
330
11816
100
AcDbEntity
  8
1
  6
Continuous
100
AcDbCircle
 10
1002.0
 20
159.08125
 30
0.0
 40
2.38125
100
AcDbArc
 50
176.2808719999999
 51
12.44227399999999
  0
LINE
  5
11904
330
11816
100
AcDbEntity
  8
1
  6
Continuous
100
AcDbLine
 10
998.4999999999999
 20
159.6499999999998
 30
0.0
 11
998.4999999999999
 21
159.15
 31
0.0
  0
ARC
  5
11905
330
11816
100
AcDbEntity
  8
1
  6
Continuous
100
AcDbCircle
 10
1003.8
 20
160.171084
 30
0.0
 40
1.6
100
AcDbArc
 50
322.9878089999999
 51
0.0
  0
LINE
  5
11906
330
11816
100
AcDbEntity
  8
1
  6
Continuous
100
AcDbLine
 10
1005.077612
 20
159.2079079999998
 30
0.0
 11
1003.901446
 21
157.647773
 31
0.0
  0
ARC
  5
11907
330
11816
100
AcDbEntity
  8
1
  6
Continuous
100
AcDbCircle
 10
1002.0
 20
159.08125
 30
0.0
 40
3.98125
100
AcDbArc
 50
201.6652959999999
 51
322.9878089999999
  0
LINE
  5
11908
330
11816
100
AcDbEntity
  8
1
  6
Continuous
100
AcDbLine
 10
998.3
 20
157.611437
 30
0.0
 11
999.7869699999997
 21
158.202131
 31
0.0
  0
ARC
  5
11909
330
11816
100
AcDbEntity
  8
1
  6
Continuous
100
AcDbCircle
 10
1000.0
 20
162.7499999999998
 30
0.0
 40
1.5
100
AcDbArc
 50
180.0
 51
270.0
  0
LINE
  5
1190A
330
11816
100
AcDbEntity
  8
1
  6
Continuous
100
AcDbLine
 10
998.4999999999999
 20
159.6499999999998
 30
0.0
 11
1004.4
 21
160.0999999999999
 31
0.0
  0
ARC
  5
1190B
330
11816
100
AcDbEntity
  8
1
  6
Continuous
100
AcDbCircle
 10
1002.0
 20
159.08125
 30
0.0
 40
2.38125
100
AcDbArc
 50
24.844815
 51
65.61074999999999
  0
ARC
  5
1190C
330
11816
100
AcDbEntity
  8
1
  6
Continuous
100
AcDbCircle
 10
1002.0
 20
159.08125
 30
0.0
 40
2.38125
100
AcDbArc
 50
114.3892499999999
 51
163.87833
  0
LINE
  5
1190D
330
11816
100
AcDbEntity
  8
1
  6
Continuous
100
AcDbLine
 10
1003.460068999998
 20
161.25
 30
0.0
 11
1003.329843
 21
161.0565649999998
 31
0.0
  0
ARC
  5
1190E
330
11816
100
AcDbEntity
  8
1
  6
Continuous
100
AcDbCircle
 10
1004.4
 20
160.1014519999999
 30
0.0
 40
0.5
100
AcDbArc
 50
274.361573
 51
0.0
  0
LINE
  5
1190F
330
11816
100
AcDbEntity
  8
1
  6
Continuous
100
AcDbLine
 10
1004.4
 20
161.25
 30
0.0
 11
1004.4
 21
160.0999999999999
 31
0.0
  0
LINE
  5
11910
330
11816
100
AcDbEntity
  8
1
  6
Continuous
100
AcDbLine
 10
1005.4
 20
160.171084
 30
0.0
 11
1005.4
 21
161.25
 31
0.0
  0
LINE
  5
11911
330
11816
100
AcDbEntity
  8
1
  6
Continuous
100
AcDbLine
 10
1004.899999999999
 20
161.25
 30
0.0
 11
1004.899999999999
 21
160.1014519999999
 31
0.0
  0
LINE
  5
11912
330
11816
100
AcDbEntity
  8
1
  6
Continuous
100
AcDbLine
 10
998.4999999999999
 20
162.7499999999998
 30
0.0
 11
998.4999999999999
 21
182.75
 31
0.0
  0
LINE
  5
11913
330
11816
100
AcDbEntity
  8
1
  6
Continuous
100
AcDbLine
 10
997.4999999999999
 20
162.3229389999998
 30
0.0
 11
997.4999999999999
 21
183.177061
 31
0.0
  0
ARC
  5
11914
330
11816
100
AcDbEntity
  8
1
  6
Continuous
100
AcDbCircle
 10
999.3229389999999
 20
162.3229389999998
 30
0.0
 40
1.822938999999999
100
AcDbArc
 50
180.0
 51
309.5506789999999
  0
LINE
  5
11915
330
11816
100
AcDbEntity
  8
1
  6
Continuous
100
AcDbLine
 10
998.4999999999999
 20
185.85
 30
0.0
 11
1004.4
 21
185.4
 31
0.0
  0
ARC
  5
11916
330
11816
100
AcDbEntity
  8
1
  6
Continuous
100
AcDbCircle
 10
1002.0
 20
186.4187499999999
 30
0.0
 40
2.38125
100
AcDbArc
 50
347.557726
 51
183.719128
  0
ARC
  5
11917
330
11816
100
AcDbEntity
  8
1
  6
Continuous
100
AcDbCircle
 10
1002.0
 20
186.4187499999999
 30
0.0
 40
2.38125
100
AcDbArc
 50
196.12167
 51
245.6107499999998
  0
ARC
  5
11918
330
11816
100
AcDbEntity
  8
1
  6
Continuous
100
AcDbCircle
 10
1002.0
 20
186.4187499999999
 30
0.0
 40
2.38125
100
AcDbArc
 50
294.38925
 51
335.155185
  0
ARC
  5
11919
330
11816
100
AcDbEntity
  8
1
  6
Continuous
100
AcDbCircle
 10
1003.8
 20
185.3289159999999
 30
0.0
 40
1.6
100
AcDbArc
 50
0.0
 51
37.01219099999998
  0
ARC
  5
1191A
330
11816
100
AcDbEntity
  8
1
  6
Continuous
100
AcDbCircle
 10
1004.4
 20
185.398548
 30
0.0
 40
0.5
100
AcDbArc
 50
0.0
 51
85.63842699999998
  0
LINE
  5
1191B
330
11816
100
AcDbEntity
  8
1
  6
Continuous
100
AcDbLine
 10
1003.460068999998
 20
184.25
 30
0.0
 11
1003.329843
 21
184.443435
 31
0.0
  0
LINE
  5
1191C
330
11816
100
AcDbEntity
  8
1
  6
Continuous
100
AcDbLine
 10
1004.4
 20
184.25
 30
0.0
 11
1004.4
 21
185.4
 31
0.0
  0
LINE
  5
1191D
330
11816
100
AcDbEntity
  8
1
  6
Continuous
100
AcDbLine
 10
1005.4
 20
184.25
 30
0.0
 11
1005.4
 21
185.3289159999999
 31
0.0
  0
LINE
  5
1191E
330
11816
100
AcDbEntity
  8
1
  6
Continuous
100
AcDbLine
 10
1004.899999999999
 20
184.25
 30
0.0
 11
1004.899999999999
 21
185.398548
 31
0.0
  0
ARC
  5
1191F
330
11816
100
AcDbEntity
  8
1
  6
Continuous
100
AcDbCircle
 10
1002.0
 20
186.4187499999999
 30
0.0
 40
3.98125
100
AcDbArc
 50
37.01219099999998
 51
158.3347039999999
  0
LINE
  5
11920
330
11816
100
AcDbEntity
  8
1
  6
Continuous
100
AcDbLine
 10
1005.077612
 20
186.292092
 30
0.0
 11
1003.901446
 21
187.8522269999999
 31
0.0
  0
LINE
  5
11921
330
11816
100
AcDbEntity
  8
1
  6
Continuous
100
AcDbLine
 10
998.4999999999999
 20
186.3499999999999
 30
0.0
 11
1004.438025
 21
185.8971
 31
0.0
  0
LINE
  5
11922
330
11816
100
AcDbEntity
  8
1
  6
Continuous
100
AcDbLine
 10
998.3
 20
187.8885629999999
 30
0.0
 11
999.7869699999997
 21
187.297869
 31
0.0
  0
LINE
  5
11923
330
11816
100
AcDbEntity
  8
1
  6
Continuous
100
AcDbLine
 10
998.4999999999999
 20
185.85
 30
0.0
 11
998.4999999999999
 21
186.3499999999999
 31
0.0
  0
LINE
  5
11924
330
11816
100
AcDbEntity
  8
1
  6
Continuous
100
AcDbLine
 10
1007.0
 20
160.171084
 30
0.0
 11
1007.0
 21
185.3289159999999
 31
0.0
  0
ARC
  5
11925
330
11816
100
AcDbEntity
  8
1
  6
Continuous
100
AcDbCircle
 10
1003.8
 20
160.171084
 30
0.0
 40
3.2
100
AcDbArc
 50
322.9878089999999
 51
0.0
  0
ARC
  5
11926
330
11816
100
AcDbEntity
  8
1
  6
Continuous
100
AcDbCircle
 10
1003.8
 20
185.3289159999999
 30
0.0
 40
3.2
100
AcDbArc
 50
0.0
 51
37.01219099999998
  0
LINE
  5
11927
330
11816
100
AcDbEntity
  8
1
  6
Continuous
100
AcDbLine
 10
501.7999999999998
 20
185.85
 30
0.0
 11
512.2999999999998
 21
185.85
 31
0.0
  0
LINE
  5
11928
330
11816
100
AcDbEntity
  8
1
  6
Continuous
100
AcDbLine
 10
501.7999999999998
 20
186.3499999999999
 30
0.0
 11
512.2999999999998
 21
186.3499999999999
 31
0.0
  0
ARC
  5
11929
330
11816
100
AcDbEntity
  8
1
  6
Continuous
100
AcDbCircle
 10
507.05
 20
186.4187499999999
 30
0.0
 40
2.38125
100
AcDbArc
 50
158.3347039999999
 51
181.6544389999999
  0
ARC
  5
1192A
330
11816
100
AcDbEntity
  8
1
  6
Continuous
100
AcDbCircle
 10
507.05
 20
186.4187499999999
 30
0.0
 40
2.38125
100
AcDbArc
 50
193.81839
 51
346.18161
  0
ARC
  5
1192B
330
11816
100
AcDbEntity
  8
1
  6
Continuous
100
AcDbCircle
 10
507.05
 20
186.4187499999999
 30
0.0
 40
2.38125
100
AcDbArc
 50
358.3455609999999
 51
21.665296
  0
LINE
  5
1192C
330
11816
100
AcDbEntity
  8
1
  6
Continuous
100
AcDbLine
 10
501.7999999999998
 20
186.3499999999999
 30
0.0
 11
501.7999999999998
 21
185.85
 31
0.0
  0
LINE
  5
1192D
330
11816
100
AcDbEntity
  8
1
  6
Continuous
100
AcDbLine
 10
512.2999999999998
 20
186.3499999999999
 30
0.0
 11
512.2999999999998
 21
185.85
 31
0.0
  0
LINE
  5
1192E
330
11816
100
AcDbEntity
  8
1
  6
Continuous
100
AcDbLine
 10
527.2
 20
186.3499999999999
 30
0.0
 11
537.7
 21
186.3499999999999
 31
0.0
  0
LINE
  5
1192F
330
11816
100
AcDbEntity
  8
1
  6
Continuous
100
AcDbLine
 10
527.2
 20
185.85
 30
0.0
 11
537.7
 21
185.85
 31
0.0
  0
LINE
  5
11930
330
11816
100
AcDbEntity
  8
1
  6
Continuous
100
AcDbLine
 10
527.2
 20
186.3499999999999
 30
0.0
 11
527.2
 21
185.85
 31
0.0
  0
LINE
  5
11931
330
11816
100
AcDbEntity
  8
1
  6
Continuous
100
AcDbLine
 10
525.0
 20
186.3499999999999
 30
0.0
 11
525.0
 21
185.85
 31
0.0
  0
ARC
  5
11932
330
11816
100
AcDbEntity
  8
1
  6
Continuous
100
AcDbCircle
 10
519.7499999999998
 20
186.4187499999999
 30
0.0
 40
2.38125
100
AcDbArc
 50
193.81839
 51
346.18161
  0
ARC
  5
11933
330
11816
100
AcDbEntity
  8
1
  6
Continuous
100
AcDbCircle
 10
519.7499999999998
 20
186.4187499999999
 30
0.0
 40
2.38125
100
AcDbArc
 50
358.3455609999999
 51
21.665296
  0
ARC
  5
11934
330
11816
100
AcDbEntity
  8
1
  6
Continuous
100
AcDbCircle
 10
519.7499999999998
 20
186.4187499999999
 30
0.0
 40
2.38125
100
AcDbArc
 50
158.3347039999999
 51
181.6544389999999
  0
LINE
  5
11935
330
11816
100
AcDbEntity
  8
1
  6
Continuous
100
AcDbLine
 10
514.5
 20
186.3499999999999
 30
0.0
 11
514.5
 21
185.85
 31
0.0
  0
LINE
  5
11936
330
11816
100
AcDbEntity
  8
1
  6
Continuous
100
AcDbLine
 10
514.5
 20
185.85
 30
0.0
 11
525.0
 21
185.85
 31
0.0
  0
LINE
  5
11937
330
11816
100
AcDbEntity
  8
1
  6
Continuous
100
AcDbLine
 10
514.5
 20
186.3499999999999
 30
0.0
 11
525.0
 21
186.3499999999999
 31
0.0
  0
LINE
  5
11938
330
11816
100
AcDbEntity
  8
1
  6
Continuous
100
AcDbLine
 10
537.7
 20
186.3499999999999
 30
0.0
 11
537.7
 21
185.85
 31
0.0
  0
ARC
  5
11939
330
11816
100
AcDbEntity
  8
1
  6
Continuous
100
AcDbCircle
 10
532.45
 20
186.4187499999999
 30
0.0
 40
2.38125
100
AcDbArc
 50
358.3455609999999
 51
21.665296
  0
ARC
  5
1193A
330
11816
100
AcDbEntity
  8
1
  6
Continuous
100
AcDbCircle
 10
532.45
 20
186.4187499999999
 30
0.0
 40
2.38125
100
AcDbArc
 50
193.81839
 51
346.18161
  0
ARC
  5
1193B
330
11816
100
AcDbEntity
  8
1
  6
Continuous
100
AcDbCircle
 10
532.45
 20
186.4187499999999
 30
0.0
 40
2.38125
100
AcDbArc
 50
158.3347039999999
 51
181.6544389999999
  0
LINE
  5
1193C
330
11816
100
AcDbEntity
  8
1
  6
Continuous
100
AcDbLine
 10
539.9
 20
186.3499999999999
 30
0.0
 11
550.3999999999998
 21
186.3499999999999
 31
0.0
  0
LINE
  5
1193D
330
11816
100
AcDbEntity
  8
1
  6
Continuous
100
AcDbLine
 10
539.9
 20
185.85
 30
0.0
 11
550.3999999999998
 21
185.85
 31
0.0
  0
LINE
  5
1193E
330
11816
100
AcDbEntity
  8
1
  6
Continuous
100
AcDbLine
 10
539.9
 20
186.3499999999999
 30
0.0
 11
539.9
 21
185.85
 31
0.0
  0
ARC
  5
1193F
330
11816
100
AcDbEntity
  8
1
  6
Continuous
100
AcDbCircle
 10
545.15
 20
186.4187499999999
 30
0.0
 40
2.38125
100
AcDbArc
 50
158.3347039999999
 51
181.6544389999999
  0
ARC
  5
11940
330
11816
100
AcDbEntity
  8
1
  6
Continuous
100
AcDbCircle
 10
545.15
 20
186.4187499999999
 30
0.0
 40
2.38125
100
AcDbArc
 50
358.3455609999999
 51
21.665296
  0
ARC
  5
11941
330
11816
100
AcDbEntity
  8
1
  6
Continuous
100
AcDbCircle
 10
545.15
 20
186.4187499999999
 30
0.0
 40
2.38125
100
AcDbArc
 50
193.81839
 51
346.18161
  0
LINE
  5
11942
330
11816
100
AcDbEntity
  8
1
  6
Continuous
100
AcDbLine
 10
550.3999999999998
 20
186.3499999999999
 30
0.0
 11
550.3999999999998
 21
185.85
 31
0.0
  0
ARC
  5
11943
330
11816
100
AcDbEntity
  8
1
  6
Continuous
100
AcDbCircle
 10
807.0499999999999
 20
186.4187499999999
 30
0.0
 40
2.38125
100
AcDbArc
 50
193.81839
 51
346.18161
  0
ARC
  5
11944
330
11816
100
AcDbEntity
  8
1
  6
Continuous
100
AcDbCircle
 10
807.0499999999999
 20
186.4187499999999
 30
0.0
 40
2.38125
100
AcDbArc
 50
358.3455609999999
 51
21.665296
  0
LINE
  5
11945
330
11816
100
AcDbEntity
  8
1
  6
Continuous
100
AcDbLine
 10
812.2999999999999
 20
186.3499999999999
 30
0.0
 11
812.2999999999999
 21
185.85
 31
0.0
  0
ARC
  5
11946
330
11816
100
AcDbEntity
  8
1
  6
Continuous
100
AcDbCircle
 10
807.0499999999999
 20
186.4187499999999
 30
0.0
 40
2.38125
100
AcDbArc
 50
158.3347039999999
 51
181.6544389999999
  0
LINE
  5
11947
330
11816
100
AcDbEntity
  8
1
  6
Continuous
100
AcDbLine
 10
801.7999999999997
 20
186.3499999999999
 30
0.0
 11
801.7999999999997
 21
185.85
 31
0.0
  0
LINE
  5
11948
330
11816
100
AcDbEntity
  8
1
  6
Continuous
100
AcDbLine
 10
801.7999999999997
 20
185.85
 30
0.0
 11
812.2999999999999
 21
185.85
 31
0.0
  0
LINE
  5
11949
330
11816
100
AcDbEntity
  8
1
  6
Continuous
100
AcDbLine
 10
801.7999999999997
 20
186.3499999999999
 30
0.0
 11
812.2999999999999
 21
186.3499999999999
 31
0.0
  0
LINE
  5
1194A
330
11816
100
AcDbEntity
  8
1
  6
Continuous
100
AcDbLine
 10
827.2
 20
186.3499999999999
 30
0.0
 11
837.7
 21
186.3499999999999
 31
0.0
  0
LINE
  5
1194B
330
11816
100
AcDbEntity
  8
1
  6
Continuous
100
AcDbLine
 10
827.2
 20
185.85
 30
0.0
 11
837.7
 21
185.85
 31
0.0
  0
ARC
  5
1194C
330
11816
100
AcDbEntity
  8
1
  6
Continuous
100
AcDbCircle
 10
819.7499999999999
 20
186.4187499999999
 30
0.0
 40
2.38125
100
AcDbArc
 50
193.81839
 51
346.18161
  0
ARC
  5
1194D
330
11816
100
AcDbEntity
  8
1
  6
Continuous
100
AcDbCircle
 10
819.7499999999999
 20
186.4187499999999
 30
0.0
 40
2.38125
100
AcDbArc
 50
358.3455609999999
 51
21.665296
  0
LINE
  5
1194E
330
11816
100
AcDbEntity
  8
1
  6
Continuous
100
AcDbLine
 10
825.0
 20
186.3499999999999
 30
0.0
 11
825.0
 21
185.85
 31
0.0
  0
ARC
  5
1194F
330
11816
100
AcDbEntity
  8
1
  6
Continuous
100
AcDbCircle
 10
819.7499999999999
 20
186.4187499999999
 30
0.0
 40
2.38125
100
AcDbArc
 50
158.3347039999999
 51
181.6544389999999
  0
LINE
  5
11950
330
11816
100
AcDbEntity
  8
1
  6
Continuous
100
AcDbLine
 10
814.4999999999999
 20
186.3499999999999
 30
0.0
 11
814.4999999999999
 21
185.85
 31
0.0
  0
LINE
  5
11951
330
11816
100
AcDbEntity
  8
1
  6
Continuous
100
AcDbLine
 10
814.4999999999999
 20
185.85
 30
0.0
 11
825.0
 21
185.85
 31
0.0
  0
LINE
  5
11952
330
11816
100
AcDbEntity
  8
1
  6
Continuous
100
AcDbLine
 10
814.4999999999999
 20
186.3499999999999
 30
0.0
 11
825.0
 21
186.3499999999999
 31
0.0
  0
LINE
  5
11953
330
11816
100
AcDbEntity
  8
1
  6
Continuous
100
AcDbLine
 10
827.2
 20
186.3499999999999
 30
0.0
 11
827.2
 21
185.85
 31
0.0
  0
ARC
  5
11954
330
11816
100
AcDbEntity
  8
1
  6
Continuous
100
AcDbCircle
 10
832.45
 20
186.4187499999999
 30
0.0
 40
2.38125
100
AcDbArc
 50
158.3347039999999
 51
181.6544389999999
  0
LINE
  5
11955
330
11816
100
AcDbEntity
  8
1
  6
Continuous
100
AcDbLine
 10
837.7
 20
186.3499999999999
 30
0.0
 11
837.7
 21
185.85
 31
0.0
  0
ARC
  5
11956
330
11816
100
AcDbEntity
  8
1
  6
Continuous
100
AcDbCircle
 10
832.45
 20
186.4187499999999
 30
0.0
 40
2.38125
100
AcDbArc
 50
358.3455609999999
 51
21.665296
  0
ARC
  5
11957
330
11816
100
AcDbEntity
  8
1
  6
Continuous
100
AcDbCircle
 10
832.45
 20
186.4187499999999
 30
0.0
 40
2.38125
100
AcDbArc
 50
193.81839
 51
346.18161
  0
LINE
  5
11958
330
11816
100
AcDbEntity
  8
1
  6
Continuous
100
AcDbLine
 10
362.1
 20
159.15
 30
0.0
 11
372.6
 21
159.15
 31
0.0
  0
LINE
  5
11959
330
11816
100
AcDbEntity
  8
1
  6
Continuous
100
AcDbLine
 10
362.1
 20
159.6499999999998
 30
0.0
 11
372.6
 21
159.6499999999998
 31
0.0
  0
ARC
  5
1195A
330
11816
100
AcDbEntity
  8
1
  6
Continuous
100
AcDbCircle
 10
367.35
 20
159.08125
 30
0.0
 40
2.38125
100
AcDbArc
 50
338.3347039999998
 51
1.654438999999999
  0
ARC
  5
1195B
330
11816
100
AcDbEntity
  8
1
  6
Continuous
100
AcDbCircle
 10
367.35
 20
159.08125
 30
0.0
 40
2.38125
100
AcDbArc
 50
13.81839
 51
36.569721
  0
LINE
  5
1195C
330
11816
100
AcDbEntity
  8
1
  6
Continuous
100
AcDbLine
 10
362.1
 20
159.15
 30
0.0
 11
362.1
 21
159.6499999999998
 31
0.0
  0
ARC
  5
1195D
330
11816
100
AcDbEntity
  8
1
  6
Continuous
100
AcDbCircle
 10
367.35
 20
159.08125
 30
0.0
 40
2.38125
100
AcDbArc
 50
143.430279
 51
166.18161
  0
ARC
  5
1195E
330
11816
100
AcDbEntity
  8
1
  6
Continuous
100
AcDbCircle
 10
367.35
 20
159.08125
 30
0.0
 40
2.38125
100
AcDbArc
 50
178.345561
 51
201.6652959999999
  0
LINE
  5
1195F
330
11816
100
AcDbEntity
  8
1
  6
Continuous
100
AcDbLine
 10
372.6
 20
159.15
 30
0.0
 11
372.6
 21
159.6499999999998
 31
0.0
  0
LINE
  5
11960
330
11816
100
AcDbEntity
  8
1
  6
Continuous
100
AcDbLine
 10
501.7999999999998
 20
159.15
 30
0.0
 11
512.2999999999998
 21
159.15
 31
0.0
  0
LINE
  5
11961
330
11816
100
AcDbEntity
  8
1
  6
Continuous
100
AcDbLine
 10
501.7999999999998
 20
159.6499999999998
 30
0.0
 11
512.2999999999998
 21
159.6499999999998
 31
0.0
  0
LINE
  5
11962
330
11816
100
AcDbEntity
  8
1
  6
Continuous
100
AcDbLine
 10
501.7999999999998
 20
159.15
 30
0.0
 11
501.7999999999998
 21
159.6499999999998
 31
0.0
  0
LINE
  5
11963
330
11816
100
AcDbEntity
  8
1
  6
Continuous
100
AcDbLine
 10
514.5
 20
159.15
 30
0.0
 11
525.0
 21
159.15
 31
0.0
  0
LINE
  5
11964
330
11816
100
AcDbEntity
  8
1
  6
Continuous
100
AcDbLine
 10
514.5
 20
159.6499999999998
 30
0.0
 11
525.0
 21
159.6499999999998
 31
0.0
  0
LINE
  5
11965
330
11816
100
AcDbEntity
  8
1
  6
Continuous
100
AcDbLine
 10
514.5
 20
159.15
 30
0.0
 11
514.5
 21
159.6499999999998
 31
0.0
  0
ARC
  5
11966
330
11816
100
AcDbEntity
  8
1
  6
Continuous
100
AcDbCircle
 10
519.7499999999998
 20
159.08125
 30
0.0
 40
2.38125
100
AcDbArc
 50
178.345561
 51
201.6652959999999
  0
LINE
  5
11967
330
11816
100
AcDbEntity
  8
1
  6
Continuous
100
AcDbLine
 10
512.2999999999998
 20
159.15
 30
0.0
 11
512.2999999999998
 21
159.6499999999998
 31
0.0
  0
ARC
  5
11968
330
11816
100
AcDbEntity
  8
1
  6
Continuous
100
AcDbCircle
 10
507.05
 20
159.08125
 30
0.0
 40
2.38125
100
AcDbArc
 50
338.3347039999998
 51
1.654438999999999
  0
ARC
  5
11969
330
11816
100
AcDbEntity
  8
1
  6
Continuous
100
AcDbCircle
 10
507.05
 20
159.08125
 30
0.0
 40
2.38125
100
AcDbArc
 50
178.345561
 51
201.6652959999999
  0
ARC
  5
1196A
330
11816
100
AcDbEntity
  8
1
  6
Continuous
100
AcDbCircle
 10
532.45
 20
159.08125
 30
0.0
 40
2.38125
100
AcDbArc
 50
178.345561
 51
201.6652959999999
  0
ARC
  5
1196B
330
11816
100
AcDbEntity
  8
1
  6
Continuous
100
AcDbCircle
 10
532.45
 20
159.08125
 30
0.0
 40
2.38125
100
AcDbArc
 50
338.3347039999998
 51
1.654438999999999
  0
LINE
  5
1196C
330
11816
100
AcDbEntity
  8
1
  6
Continuous
100
AcDbLine
 10
537.7
 20
159.15
 30
0.0
 11
537.7
 21
159.6499999999998
 31
0.0
  0
ARC
  5
1196D
330
11816
100
AcDbEntity
  8
1
  6
Continuous
100
AcDbCircle
 10
519.7499999999998
 20
159.08125
 30
0.0
 40
2.38125
100
AcDbArc
 50
338.3347039999998
 51
1.654438999999999
  0
LINE
  5
1196E
330
11816
100
AcDbEntity
  8
1
  6
Continuous
100
AcDbLine
 10
525.0
 20
159.15
 30
0.0
 11
525.0
 21
159.6499999999998
 31
0.0
  0
LINE
  5
1196F
330
11816
100
AcDbEntity
  8
1
  6
Continuous
100
AcDbLine
 10
527.2
 20
159.15
 30
0.0
 11
527.2
 21
159.6499999999998
 31
0.0
  0
LINE
  5
11970
330
11816
100
AcDbEntity
  8
1
  6
Continuous
100
AcDbLine
 10
527.2
 20
159.6499999999998
 30
0.0
 11
537.7
 21
159.6499999999998
 31
0.0
  0
LINE
  5
11971
330
11816
100
AcDbEntity
  8
1
  6
Continuous
100
AcDbLine
 10
527.2
 20
159.15
 30
0.0
 11
537.7
 21
159.15
 31
0.0
  0
LINE
  5
11972
330
11816
100
AcDbEntity
  8
1
  6
Continuous
100
AcDbLine
 10
801.7999999999997
 20
159.15
 30
0.0
 11
812.2999999999999
 21
159.15
 31
0.0
  0
LINE
  5
11973
330
11816
100
AcDbEntity
  8
1
  6
Continuous
100
AcDbLine
 10
801.7999999999997
 20
159.6499999999998
 30
0.0
 11
812.2999999999999
 21
159.6499999999998
 31
0.0
  0
LINE
  5
11974
330
11816
100
AcDbEntity
  8
1
  6
Continuous
100
AcDbLine
 10
550.3999999999998
 20
159.15
 30
0.0
 11
550.3999999999998
 21
159.6499999999998
 31
0.0
  0
ARC
  5
11975
330
11816
100
AcDbEntity
  8
1
  6
Continuous
100
AcDbCircle
 10
545.15
 20
159.08125
 30
0.0
 40
2.38125
100
AcDbArc
 50
338.3347039999998
 51
1.654438999999999
  0
ARC
  5
11976
330
11816
100
AcDbEntity
  8
1
  6
Continuous
100
AcDbCircle
 10
545.15
 20
159.08125
 30
0.0
 40
2.38125
100
AcDbArc
 50
178.345561
 51
201.6652959999999
  0
LINE
  5
11977
330
11816
100
AcDbEntity
  8
1
  6
Continuous
100
AcDbLine
 10
539.9
 20
159.15
 30
0.0
 11
539.9
 21
159.6499999999998
 31
0.0
  0
LINE
  5
11978
330
11816
100
AcDbEntity
  8
1
  6
Continuous
100
AcDbLine
 10
539.9
 20
159.6499999999998
 30
0.0
 11
550.3999999999998
 21
159.6499999999998
 31
0.0
  0
LINE
  5
11979
330
11816
100
AcDbEntity
  8
1
  6
Continuous
100
AcDbLine
 10
539.9
 20
159.15
 30
0.0
 11
550.3999999999998
 21
159.15
 31
0.0
  0
LINE
  5
1197A
330
11816
100
AcDbEntity
  8
1
  6
Continuous
100
AcDbLine
 10
801.7999999999997
 20
159.15
 30
0.0
 11
801.7999999999997
 21
159.6499999999998
 31
0.0
  0
ARC
  5
1197B
330
11816
100
AcDbEntity
  8
1
  6
Continuous
100
AcDbCircle
 10
807.0499999999999
 20
159.08125
 30
0.0
 40
2.38125
100
AcDbArc
 50
178.345561
 51
201.6652959999999
  0
LINE
  5
1197C
330
11816
100
AcDbEntity
  8
1
  6
Continuous
100
AcDbLine
 10
827.2
 20
159.6499999999998
 30
0.0
 11
837.7
 21
159.6499999999998
 31
0.0
  0
LINE
  5
1197D
330
11816
100
AcDbEntity
  8
1
  6
Continuous
100
AcDbLine
 10
827.2
 20
159.15
 30
0.0
 11
837.7
 21
159.15
 31
0.0
  0
LINE
  5
1197E
330
11816
100
AcDbEntity
  8
1
  6
Continuous
100
AcDbLine
 10
814.4999999999999
 20
159.15
 30
0.0
 11
825.0
 21
159.15
 31
0.0
  0
LINE
  5
1197F
330
11816
100
AcDbEntity
  8
1
  6
Continuous
100
AcDbLine
 10
814.4999999999999
 20
159.6499999999998
 30
0.0
 11
825.0
 21
159.6499999999998
 31
0.0
  0
LINE
  5
11980
330
11816
100
AcDbEntity
  8
1
  6
Continuous
100
AcDbLine
 10
814.4999999999999
 20
159.15
 30
0.0
 11
814.4999999999999
 21
159.6499999999998
 31
0.0
  0
ARC
  5
11981
330
11816
100
AcDbEntity
  8
1
  6
Continuous
100
AcDbCircle
 10
819.7499999999999
 20
159.08125
 30
0.0
 40
2.38125
100
AcDbArc
 50
178.345561
 51
201.6652959999999
  0
ARC
  5
11982
330
11816
100
AcDbEntity
  8
1
  6
Continuous
100
AcDbCircle
 10
819.7499999999999
 20
159.08125
 30
0.0
 40
2.38125
100
AcDbArc
 50
338.3347039999998
 51
1.654438999999999
  0
ARC
  5
11983
330
11816
100
AcDbEntity
  8
1
  6
Continuous
100
AcDbCircle
 10
819.7499999999999
 20
159.08125
 30
0.0
 40
2.38125
100
AcDbArc
 50
13.81839
 51
166.18161
  0
LINE
  5
11984
330
11816
100
AcDbEntity
  8
1
  6
Continuous
100
AcDbLine
 10
812.2999999999999
 20
159.15
 30
0.0
 11
812.2999999999999
 21
159.6499999999998
 31
0.0
  0
ARC
  5
11985
330
11816
100
AcDbEntity
  8
1
  6
Continuous
100
AcDbCircle
 10
807.0499999999999
 20
159.08125
 30
0.0
 40
2.38125
100
AcDbArc
 50
338.3347039999998
 51
1.654438999999999
  0
ARC
  5
11986
330
11816
100
AcDbEntity
  8
1
  6
Continuous
100
AcDbCircle
 10
807.0499999999999
 20
159.08125
 30
0.0
 40
2.38125
100
AcDbArc
 50
13.81839
 51
166.18161
  0
LINE
  5
11987
330
11816
100
AcDbEntity
  8
1
  6
Continuous
100
AcDbLine
 10
827.2
 20
159.15
 30
0.0
 11
827.2
 21
159.6499999999998
 31
0.0
  0
LINE
  5
11988
330
11816
100
AcDbEntity
  8
1
  6
Continuous
100
AcDbLine
 10
825.0
 20
159.15
 30
0.0
 11
825.0
 21
159.6499999999998
 31
0.0
  0
ARC
  5
11989
330
11816
100
AcDbEntity
  8
1
  6
Continuous
100
AcDbCircle
 10
832.45
 20
159.08125
 30
0.0
 40
2.38125
100
AcDbArc
 50
13.81839
 51
166.18161
  0
ARC
  5
1198A
330
11816
100
AcDbEntity
  8
1
  6
Continuous
100
AcDbCircle
 10
832.45
 20
159.08125
 30
0.0
 40
2.38125
100
AcDbArc
 50
338.3347039999998
 51
1.654438999999999
  0
LINE
  5
1198B
330
11816
100
AcDbEntity
  8
1
  6
Continuous
100
AcDbLine
 10
837.7
 20
159.15
 30
0.0
 11
837.7
 21
159.6499999999998
 31
0.0
  0
ARC
  5
1198C
330
11816
100
AcDbEntity
  8
1
  6
Continuous
100
AcDbCircle
 10
832.45
 20
159.08125
 30
0.0
 40
2.38125
100
AcDbArc
 50
178.345561
 51
201.6652959999999
  0
LINE
  5
1198D
330
11816
100
AcDbEntity
  8
1
  6
Continuous
100
AcDbLine
 10
835.4499999999998
 20
185.85
 30
0.0
 11
835.4499999999998
 21
159.6499999999998
 31
0.0
  0
LINE
  5
1198E
330
11816
100
AcDbEntity
  8
1
  6
Continuous
100
AcDbLine
 10
743.1
 20
178.5
 30
0.0
 11
835.4499999999998
 21
178.5
 31
0.0
  0
LINE
  5
1198F
330
11816
100
AcDbEntity
  8
1
  6
Continuous
100
AcDbLine
 10
743.1
 20
167.0
 30
0.0
 11
835.4499999999998
 21
167.0
 31
0.0
  0
LINE
  5
11990
330
11816
100
AcDbEntity
  8
1
  6
Continuous
100
AcDbLine
 10
822.75
 20
182.2499999999998
 30
0.0
 11
829.4500000000001
 21
182.2499999999998
 31
0.0
  0
LINE
  5
11991
330
11816
100
AcDbEntity
  8
1
  6
Continuous
100
AcDbLine
 10
829.4500000000001
 20
185.85
 30
0.0
 11
829.4500000000001
 21
182.2499999999998
 31
0.0
  0
LINE
  5
11992
330
11816
100
AcDbEntity
  8
1
  6
Continuous
100
AcDbLine
 10
829.4500000000001
 20
159.6499999999998
 30
0.0
 11
829.4500000000001
 21
163.25
 31
0.0
  0
LINE
  5
11993
330
11816
100
AcDbEntity
  8
1
  6
Continuous
100
AcDbLine
 10
822.75
 20
163.25
 30
0.0
 11
829.4500000000001
 21
163.25
 31
0.0
  0
LINE
  5
11994
330
11816
100
AcDbEntity
  8
1
  6
Continuous
100
AcDbLine
 10
822.75
 20
185.85
 30
0.0
 11
822.75
 21
182.2499999999998
 31
0.0
  0
LINE
  5
11995
330
11816
100
AcDbEntity
  8
1
  6
Continuous
100
AcDbLine
 10
822.75
 20
159.6499999999998
 30
0.0
 11
822.75
 21
163.25
 31
0.0
  0
LINE
  5
11996
330
11816
100
AcDbEntity
  8
1
  6
Continuous
100
AcDbLine
 10
816.75
 20
185.85
 30
0.0
 11
816.75
 21
182.2499999999998
 31
0.0
  0
LINE
  5
11997
330
11816
100
AcDbEntity
  8
1
  6
Continuous
100
AcDbLine
 10
810.0499999999996
 20
185.85
 30
0.0
 11
810.0499999999996
 21
182.2499999999998
 31
0.0
  0
LINE
  5
11998
330
11816
100
AcDbEntity
  8
1
  6
Continuous
100
AcDbLine
 10
810.0499999999996
 20
182.2499999999998
 30
0.0
 11
816.75
 21
182.2499999999998
 31
0.0
  0
LINE
  5
11999
330
11816
100
AcDbEntity
  8
1
  6
Continuous
100
AcDbLine
 10
810.0499999999996
 20
163.25
 30
0.0
 11
816.75
 21
163.25
 31
0.0
  0
LINE
  5
1199A
330
11816
100
AcDbEntity
  8
1
  6
Continuous
100
AcDbLine
 10
810.0499999999996
 20
159.6499999999998
 30
0.0
 11
810.0499999999996
 21
163.25
 31
0.0
  0
LINE
  5
1199B
330
11816
100
AcDbEntity
  8
1
  6
Continuous
100
AcDbLine
 10
816.75
 20
159.6499999999998
 30
0.0
 11
816.75
 21
163.25
 31
0.0
  0
LINE
  5
1199C
330
11816
100
AcDbEntity
  8
1
  6
Continuous
100
AcDbLine
 10
804.0499999999997
 20
185.85
 30
0.0
 11
804.0499999999997
 21
182.2499999999998
 31
0.0
  0
LINE
  5
1199D
330
11816
100
AcDbEntity
  8
1
  6
Continuous
100
AcDbLine
 10
804.0499999999997
 20
159.6499999999998
 30
0.0
 11
804.0499999999997
 21
163.25
 31
0.0
  0
LINE
  5
1199E
330
11816
100
AcDbEntity
  8
1
  6
Continuous
100
AcDbLine
 10
743.1
 20
161.25
 30
0.0
 11
743.1
 21
184.25
 31
0.0
  0
LINE
  5
1199F
330
11816
100
AcDbEntity
  8
1
  6
Continuous
100
AcDbLine
 10
741.5
 20
161.25
 30
0.0
 11
741.5
 21
184.25
 31
0.0
  0
LINE
  5
119A0
330
11816
100
AcDbEntity
  8
1
  6
Continuous
100
AcDbLine
 10
740.8710089999997
 20
159.9368169999999
 30
0.0
 11
742.7467159999999
 21
157.604976
 31
0.0
  0
ARC
  5
119A1
330
11816
100
AcDbEntity
  8
1
  6
Continuous
100
AcDbCircle
 10
741.5
 20
156.0114369999998
 30
0.0
 40
1.6
100
AcDbArc
 50
0.0
 51
90.0
  0
ARC
  5
119A2
330
11816
100
AcDbEntity
  8
1
  6
Continuous
100
AcDbCircle
 10
741.5
 20
156.602131
 30
0.0
 40
1.6
100
AcDbArc
 50
0.0
 51
90.0
  0
LINE
  5
119A3
330
11816
100
AcDbEntity
  8
1
  6
Continuous
100
AcDbLine
 10
743.1
 20
155.0999999999999
 30
0.0
 11
743.1
 21
156.602131
 31
0.0
  0
ARC
  5
119A4
330
11816
100
AcDbEntity
  8
1
  6
Continuous
100
AcDbCircle
 10
741.5
 20
160.4427709999999
 30
0.0
 40
0.8072289999999997
100
AcDbArc
 50
90.0
 51
218.812815
  0
LINE
  5
119A5
330
11816
100
AcDbEntity
  8
1
  6
Continuous
100
AcDbLine
 10
741.5
 20
161.25
 30
0.0
 11
743.1
 21
161.25
 31
0.0
  0
LINE
  5
119A6
330
11816
100
AcDbEntity
  8
1
  6
Continuous
100
AcDbLine
 10
743.1
 20
188.8978689999999
 30
0.0
 11
743.1
 21
190.4
 31
0.0
  0
LINE
  5
119A7
330
11816
100
AcDbEntity
  8
1
  6
Continuous
100
AcDbLine
 10
740.8710089999997
 20
185.563183
 30
0.0
 11
742.7467159999999
 21
187.8950239999998
 31
0.0
  0
ARC
  5
119A8
330
11816
100
AcDbEntity
  8
1
  6
Continuous
100
AcDbCircle
 10
741.5
 20
185.057229
 30
0.0
 40
0.8072289999999997
100
AcDbArc
 50
141.1871849999998
 51
270.0
  0
ARC
  5
119A9
330
11816
100
AcDbEntity
  8
1
  6
Continuous
100
AcDbCircle
 10
741.5
 20
188.8978689999999
 30
0.0
 40
1.6
100
AcDbArc
 50
270.0
 51
0.0
  0
ARC
  5
119AA
330
11816
100
AcDbEntity
  8
1
  6
Continuous
100
AcDbCircle
 10
741.5
 20
189.488563
 30
0.0
 40
1.6
100
AcDbArc
 50
270.0
 51
0.0
  0
LINE
  5
119AB
330
11816
100
AcDbEntity
  8
1
  6
Continuous
100
AcDbLine
 10
741.5
 20
184.25
 30
0.0
 11
743.1
 21
184.25
 31
0.0
  0
LINE
  5
119AC
330
11816
100
AcDbEntity
  8
1
  6
Continuous
100
AcDbLine
 10
742.741492
 20
187.8885629999999
 30
0.0
 11
935.5
 21
187.8885629999999
 31
0.0
  0
LINE
  5
119AD
330
11816
100
AcDbEntity
  8
1
  6
Continuous
100
AcDbLine
 10
742.2663719999997
 20
187.297869
 30
0.0
 11
935.5
 21
187.297869
 31
0.0
  0
LINE
  5
119AE
330
11816
100
AcDbEntity
  8
1
  6
Continuous
100
AcDbLine
 10
742.741492
 20
157.611437
 30
0.0
 11
935.5
 21
157.611437
 31
0.0
  0
LINE
  5
119AF
330
11816
100
AcDbEntity
  8
1
  6
Continuous
100
AcDbLine
 10
742.2663719999997
 20
158.202131
 30
0.0
 11
935.5
 21
158.202131
 31
0.0
  0
LINE
  5
119B0
330
11816
100
AcDbEntity
  8
1
  6
Continuous
100
AcDbLine
 10
102.0999999999998
 20
160.4999999999998
 30
0.0
 11
102.0999999999998
 21
185.0
 31
0.0
  0
LINE
  5
119B1
330
11816
100
AcDbEntity
  8
1
  6
Continuous
100
AcDbLine
 10
505.1
 20
167.25
 30
0.0
 11
505.1
 21
178.2499999999998
 31
0.0
  0
LINE
  5
119B2
330
11816
100
AcDbEntity
  8
3
  6
DASHED
100
AcDbLine
 10
337.1
 20
160.4999999999998
 30
0.0
 11
337.1
 21
185.0
 31
0.0
  0
LINE
  5
119B3
330
11816
100
AcDbEntity
  8
1
  6
Continuous
100
AcDbLine
 10
337.1
 20
155.0999999999999
 30
0.0
 11
337.1
 21
160.4999999999998
 31
0.0
  0
ARC
  5
119B4
330
11816
100
AcDbEntity
  8
1
  6
Continuous
100
AcDbCircle
 10
338.7
 20
156.0114369999998
 30
0.0
 40
1.6
100
AcDbArc
 50
90.0
 51
180.0
  0
ARC
  5
119B5
330
11816
100
AcDbEntity
  8
1
  6
Continuous
100
AcDbCircle
 10
338.7
 20
156.602131
 30
0.0
 40
1.6
100
AcDbArc
 50
90.0
 51
180.0
  0
ARC
  5
119B6
330
11816
100
AcDbEntity
  8
1
  6
Continuous
100
AcDbCircle
 10
338.7
 20
188.8978689999999
 30
0.0
 40
1.6
100
AcDbArc
 50
180.0
 51
270.0
  0
ARC
  5
119B7
330
11816
100
AcDbEntity
  8
1
  6
Continuous
100
AcDbCircle
 10
338.7
 20
189.488563
 30
0.0
 40
1.6
100
AcDbArc
 50
180.0
 51
270.0
  0
LINE
  5
119B8
330
11816
100
AcDbEntity
  8
1
  6
Continuous
100
AcDbLine
 10
337.1
 20
185.0
 30
0.0
 11
337.1
 21
190.4
 31
0.0
  0
LINE
  5
119B9
330
11816
100
AcDbEntity
  8
3
  6
DASHED
100
AcDbLine
 10
531.0999999999998
 20
165.25
 30
0.0
 11
531.0999999999998
 21
155.0999999999999
 31
0.0
  0
ARC
  5
119BA
330
11816
100
AcDbEntity
  8
1
  6
Continuous
100
AcDbCircle
 10
118.0
 20
173.15
 30
0.0
 40
2.25
100
AcDbArc
 50
0.0
 51
180.0
  0
ARC
  5
119BB
330
11816
100
AcDbEntity
  8
1
  6
Continuous
100
AcDbCircle
 10
118.0
 20
172.35
 30
0.0
 40
2.25
100
AcDbArc
 50
180.0
 51
0.0
  0
LINE
  5
119BC
330
11816
100
AcDbEntity
  8
1
  6
Continuous
100
AcDbLine
 10
120.25
 20
172.35
 30
0.0
 11
120.25
 21
173.15
 31
0.0
  0
LINE
  5
119BD
330
11816
100
AcDbEntity
  8
4
  6
CENTER
100
AcDbLine
 10
118.0
 20
167.5
 30
0.0
 11
118.0
 21
178.0
 31
0.0
  0
LINE
  5
119BE
330
11816
100
AcDbEntity
  8
1
  6
Continuous
100
AcDbLine
 10
115.7499999999999
 20
172.35
 30
0.0
 11
115.7499999999999
 21
173.15
 31
0.0
  0
LINE
  5
119BF
330
11816
100
AcDbEntity
  8
1
  6
Continuous
100
AcDbLine
 10
128.4499999999999
 20
172.35
 30
0.0
 11
128.4499999999999
 21
173.15
 31
0.0
  0
LINE
  5
119C0
330
11816
100
AcDbEntity
  8
4
  6
CENTER
100
AcDbLine
 10
130.6999999999999
 20
167.5
 30
0.0
 11
130.6999999999999
 21
178.0
 31
0.0
  0
LINE
  5
119C1
330
11816
100
AcDbEntity
  8
1
  6
Continuous
100
AcDbLine
 10
132.9499999999999
 20
172.35
 30
0.0
 11
132.9499999999999
 21
173.15
 31
0.0
  0
ARC
  5
119C2
330
11816
100
AcDbEntity
  8
1
  6
Continuous
100
AcDbCircle
 10
130.6999999999999
 20
172.35
 30
0.0
 40
2.25
100
AcDbArc
 50
180.0
 51
0.0
  0
ARC
  5
119C3
330
11816
100
AcDbEntity
  8
1
  6
Continuous
100
AcDbCircle
 10
130.6999999999999
 20
173.15
 30
0.0
 40
2.25
100
AcDbArc
 50
0.0
 51
180.0
  0
LINE
  5
119C4
330
11816
100
AcDbEntity
  8
1
  6
Continuous
100
AcDbLine
 10
241.4
 20
175.0
 30
0.0
 11
242.2
 21
175.0
 31
0.0
  0
LINE
  5
119C5
330
11816
100
AcDbEntity
  8
4
  6
CENTER
100
AcDbLine
 10
241.8
 20
167.5
 30
0.0
 11
241.8
 21
178.0
 31
0.0
  0
LINE
  5
119C6
330
11816
100
AcDbEntity
  8
1
  6
Continuous
100
AcDbLine
 10
241.4
 20
170.5
 30
0.0
 11
242.2
 21
170.5
 31
0.0
  0
ARC
  5
119C7
330
11816
100
AcDbEntity
  8
1
  6
Continuous
100
AcDbCircle
 10
241.4
 20
172.75
 30
0.0
 40
2.25
100
AcDbArc
 50
90.0
 51
270.0
  0
ARC
  5
119C8
330
11816
100
AcDbEntity
  8
1
  6
Continuous
100
AcDbCircle
 10
242.2
 20
172.75
 30
0.0
 40
2.25
100
AcDbArc
 50
270.0
 51
90.0
  0
LINE
  5
119C9
330
11816
100
AcDbEntity
  8
1
  6
Continuous
100
AcDbLine
 10
477.6499999999998
 20
172.35
 30
0.0
 11
477.6499999999998
 21
173.15
 31
0.0
  0
LINE
  5
119CA
330
11816
100
AcDbEntity
  8
4
  6
CENTER
100
AcDbLine
 10
479.8999999999998
 20
167.5
 30
0.0
 11
479.8999999999998
 21
178.0
 31
0.0
  0
LINE
  5
119CB
330
11816
100
AcDbEntity
  8
1
  6
Continuous
100
AcDbLine
 10
482.1499999999998
 20
172.35
 30
0.0
 11
482.1499999999998
 21
173.15
 31
0.0
  0
ARC
  5
119CC
330
11816
100
AcDbEntity
  8
1
  6
Continuous
100
AcDbCircle
 10
479.8999999999998
 20
172.35
 30
0.0
 40
2.25
100
AcDbArc
 50
180.0
 51
0.0
  0
ARC
  5
119CD
330
11816
100
AcDbEntity
  8
1
  6
Continuous
100
AcDbCircle
 10
479.8999999999998
 20
173.15
 30
0.0
 40
2.25
100
AcDbArc
 50
0.0
 51
180.0
  0
LINE
  5
119CE
330
11816
100
AcDbEntity
  8
1
  6
Continuous
100
AcDbLine
 10
490.35
 20
172.35
 30
0.0
 11
490.35
 21
173.15
 31
0.0
  0
LINE
  5
119CF
330
11816
100
AcDbEntity
  8
4
  6
CENTER
100
AcDbLine
 10
492.6
 20
167.5
 30
0.0
 11
492.6
 21
178.0
 31
0.0
  0
LINE
  5
119D0
330
11816
100
AcDbEntity
  8
1
  6
Continuous
100
AcDbLine
 10
494.85
 20
172.35
 30
0.0
 11
494.85
 21
173.15
 31
0.0
  0
ARC
  5
119D1
330
11816
100
AcDbEntity
  8
1
  6
Continuous
100
AcDbCircle
 10
492.6
 20
172.35
 30
0.0
 40
2.25
100
AcDbArc
 50
180.0
 51
0.0
  0
ARC
  5
119D2
330
11816
100
AcDbEntity
  8
1
  6
Continuous
100
AcDbCircle
 10
492.6
 20
173.15
 30
0.0
 40
2.25
100
AcDbArc
 50
0.0
 51
180.0
  0
LINE
  5
119D3
330
11816
100
AcDbEntity
  8
1
  6
Continuous
100
AcDbLine
 10
348.6
 20
186.3499999999999
 30
0.0
 11
356.1
 21
186.3499999999999
 31
0.0
  0
LINE
  5
119D4
330
11816
100
AcDbEntity
  8
1
  6
Continuous
100
AcDbLine
 10
348.6
 20
185.85
 30
0.0
 11
356.1
 21
185.85
 31
0.0
  0
ARC
  5
119D5
330
11816
100
AcDbEntity
  8
1
  6
Continuous
100
AcDbCircle
 10
352.35
 20
186.4187499999999
 30
0.0
 40
2.38125
100
AcDbArc
 50
358.3455609999999
 51
21.665296
  0
ARC
  5
119D6
330
11816
100
AcDbEntity
  8
1
  6
Continuous
100
AcDbCircle
 10
352.35
 20
186.4187499999999
 30
0.0
 40
2.38125
100
AcDbArc
 50
323.430279
 51
346.18161
  0
LINE
  5
119D7
330
11816
100
AcDbEntity
  8
1
  6
Continuous
100
AcDbLine
 10
348.6
 20
186.3499999999999
 30
0.0
 11
348.6
 21
185.0
 31
0.0
  0
ARC
  5
119D8
330
11816
100
AcDbEntity
  8
1
  6
Continuous
100
AcDbCircle
 10
352.35
 20
186.4187499999999
 30
0.0
 40
2.38125
100
AcDbArc
 50
193.81839
 51
216.5697209999999
  0
ARC
  5
119D9
330
11816
100
AcDbEntity
  8
1
  6
Continuous
100
AcDbCircle
 10
352.35
 20
186.4187499999999
 30
0.0
 40
2.38125
100
AcDbArc
 50
158.3347039999999
 51
181.6544389999999
  0
LINE
  5
119DA
330
11816
100
AcDbEntity
  8
1
  6
Continuous
100
AcDbLine
 10
356.1
 20
186.3499999999999
 30
0.0
 11
356.1
 21
185.0
 31
0.0
  0
ARC
  5
119DB
330
11816
100
AcDbEntity
  8
1
  6
Continuous
100
AcDbCircle
 10
352.35
 20
159.08125
 30
0.0
 40
2.38125
100
AcDbArc
 50
13.81839
 51
36.569721
  0
ARC
  5
119DC
330
11816
100
AcDbEntity
  8
1
  6
Continuous
100
AcDbCircle
 10
352.35
 20
159.08125
 30
0.0
 40
2.38125
100
AcDbArc
 50
338.3347039999998
 51
1.654438999999999
  0
ARC
  5
119DD
330
11816
100
AcDbEntity
  8
1
  6
Continuous
100
AcDbCircle
 10
352.35
 20
159.08125
 30
0.0
 40
2.38125
100
AcDbArc
 50
178.345561
 51
201.6652959999999
  0
ARC
  5
119DE
330
11816
100
AcDbEntity
  8
1
  6
Continuous
100
AcDbCircle
 10
352.35
 20
159.08125
 30
0.0
 40
2.38125
100
AcDbArc
 50
143.430279
 51
166.18161
  0
LINE
  5
119DF
330
11816
100
AcDbEntity
  8
1
  6
Continuous
100
AcDbLine
 10
348.6
 20
159.15
 30
0.0
 11
356.1
 21
159.15
 31
0.0
  0
LINE
  5
119E0
330
11816
100
AcDbEntity
  8
1
  6
Continuous
100
AcDbLine
 10
348.6
 20
159.6499999999998
 30
0.0
 11
356.1
 21
159.6499999999998
 31
0.0
  0
LINE
  5
119E1
330
11816
100
AcDbEntity
  8
1
  6
Continuous
100
AcDbLine
 10
356.1
 20
159.15
 30
0.0
 11
356.1
 21
160.4999999999998
 31
0.0
  0
LINE
  5
119E2
330
11816
100
AcDbEntity
  8
1
  6
Continuous
100
AcDbLine
 10
348.6
 20
159.15
 30
0.0
 11
348.6
 21
160.4999999999998
 31
0.0
  0
LINE
  5
119E3
330
11816
100
AcDbEntity
  8
1
  6
Continuous
100
AcDbLine
 10
552.6
 20
185.85
 30
0.0
 11
563.1
 21
185.85
 31
0.0
  0
LINE
  5
119E4
330
11816
100
AcDbEntity
  8
1
  6
Continuous
100
AcDbLine
 10
552.6
 20
186.3499999999999
 30
0.0
 11
563.1
 21
186.3499999999999
 31
0.0
  0
LINE
  5
119E5
330
11816
100
AcDbEntity
  8
1
  6
Continuous
100
AcDbLine
 10
552.6
 20
186.3499999999999
 30
0.0
 11
552.6
 21
185.85
 31
0.0
  0
LINE
  5
119E6
330
11816
100
AcDbEntity
  8
1
  6
Continuous
100
AcDbLine
 10
563.1
 20
186.3499999999999
 30
0.0
 11
563.1
 21
185.85
 31
0.0
  0
ARC
  5
119E7
330
11816
100
AcDbEntity
  8
1
  6
Continuous
100
AcDbCircle
 10
557.85
 20
186.4187499999999
 30
0.0
 40
2.38125
100
AcDbArc
 50
193.81839
 51
346.18161
  0
ARC
  5
119E8
330
11816
100
AcDbEntity
  8
1
  6
Continuous
100
AcDbCircle
 10
557.85
 20
186.4187499999999
 30
0.0
 40
2.38125
100
AcDbArc
 50
358.3455609999999
 51
21.665296
  0
ARC
  5
119E9
330
11816
100
AcDbEntity
  8
1
  6
Continuous
100
AcDbCircle
 10
557.85
 20
186.4187499999999
 30
0.0
 40
2.38125
100
AcDbArc
 50
158.3347039999999
 51
181.6544389999999
  0
LINE
  5
119EA
330
11816
100
AcDbEntity
  8
1
  6
Continuous
100
AcDbLine
 10
552.6
 20
159.6499999999998
 30
0.0
 11
563.1
 21
159.6499999999998
 31
0.0
  0
LINE
  5
119EB
330
11816
100
AcDbEntity
  8
1
  6
Continuous
100
AcDbLine
 10
552.6
 20
159.15
 30
0.0
 11
563.1
 21
159.15
 31
0.0
  0
LINE
  5
119EC
330
11816
100
AcDbEntity
  8
1
  6
Continuous
100
AcDbLine
 10
552.6
 20
159.15
 30
0.0
 11
552.6
 21
159.6499999999998
 31
0.0
  0
LINE
  5
119ED
330
11816
100
AcDbEntity
  8
1
  6
Continuous
100
AcDbLine
 10
563.1
 20
159.15
 30
0.0
 11
563.1
 21
159.6499999999998
 31
0.0
  0
ARC
  5
119EE
330
11816
100
AcDbEntity
  8
1
  6
Continuous
100
AcDbCircle
 10
557.85
 20
159.08125
 30
0.0
 40
2.38125
100
AcDbArc
 50
338.3347039999998
 51
1.654438999999999
  0
ARC
  5
119EF
330
11816
100
AcDbEntity
  8
1
  6
Continuous
100
AcDbCircle
 10
557.85
 20
159.08125
 30
0.0
 40
2.38125
100
AcDbArc
 50
178.345561
 51
201.6652959999999
  0
LINE
  5
119F0
330
11816
100
AcDbEntity
  8
1
  6
Continuous
100
AcDbLine
 10
573.55
 20
185.85
 30
0.0
 11
573.55
 21
159.6499999999998
 31
0.0
  0
LINE
  5
119F1
330
11816
100
AcDbEntity
  8
1
  6
Continuous
100
AcDbLine
 10
548.1499999999998
 20
185.85
 30
0.0
 11
548.1499999999998
 21
182.2499999999998
 31
0.0
  0
LINE
  5
119F2
330
11816
100
AcDbEntity
  8
1
  6
Continuous
100
AcDbLine
 10
554.85
 20
185.85
 30
0.0
 11
554.85
 21
182.2499999999998
 31
0.0
  0
LINE
  5
119F3
330
11816
100
AcDbEntity
  8
1
  6
Continuous
100
AcDbLine
 10
505.07902
 20
178.5
 30
0.0
 11
573.55
 21
178.5
 31
0.0
  0
LINE
  5
119F4
330
11816
100
AcDbEntity
  8
1
  6
Continuous
100
AcDbLine
 10
548.1499999999998
 20
182.2499999999998
 30
0.0
 11
554.85
 21
182.2499999999998
 31
0.0
  0
LINE
  5
119F5
330
11816
100
AcDbEntity
  8
1
  6
Continuous
100
AcDbLine
 10
505.07902
 20
167.0
 30
0.0
 11
573.55
 21
167.0
 31
0.0
  0
LINE
  5
119F6
330
11816
100
AcDbEntity
  8
1
  6
Continuous
100
AcDbLine
 10
548.1499999999998
 20
163.25
 30
0.0
 11
554.85
 21
163.25
 31
0.0
  0
LINE
  5
119F7
330
11816
100
AcDbEntity
  8
1
  6
Continuous
100
AcDbLine
 10
554.85
 20
159.6499999999998
 30
0.0
 11
554.85
 21
163.25
 31
0.0
  0
LINE
  5
119F8
330
11816
100
AcDbEntity
  8
1
  6
Continuous
100
AcDbLine
 10
548.1499999999998
 20
159.6499999999998
 30
0.0
 11
548.1499999999998
 21
163.25
 31
0.0
  0
ARC
  5
119F9
330
11816
100
AcDbEntity
  8
1
  6
Continuous
100
AcDbCircle
 10
557.85
 20
159.08125
 30
0.0
 40
2.38125
100
AcDbArc
 50
13.81839
 51
166.18161
  0
ARC
  5
119FA
330
11816
100
AcDbEntity
  8
1
  6
Continuous
100
AcDbCircle
 10
545.15
 20
159.08125
 30
0.0
 40
2.38125
100
AcDbArc
 50
13.81839
 51
166.18161
  0
ARC
  5
119FB
330
11816
100
AcDbEntity
  8
1
  6
Continuous
100
AcDbCircle
 10
532.45
 20
159.08125
 30
0.0
 40
2.38125
100
AcDbArc
 50
13.81839
 51
166.18161
  0
ARC
  5
119FC
330
11816
100
AcDbEntity
  8
1
  6
Continuous
100
AcDbCircle
 10
519.7499999999998
 20
159.08125
 30
0.0
 40
2.38125
100
AcDbArc
 50
13.81839
 51
166.18161
  0
ARC
  5
119FD
330
11816
100
AcDbEntity
  8
1
  6
Continuous
100
AcDbCircle
 10
507.05
 20
159.08125
 30
0.0
 40
2.38125
100
AcDbArc
 50
13.81839
 51
166.18161
  0
CIRCLE
  5
119FE
330
11816
100
AcDbEntity
  8
1
  6
Continuous
100
AcDbCircle
 10
538.7999999999998
 20
172.75
 30
0.0
 40
2.0
  0
CIRCLE
  5
119FF
330
11816
100
AcDbEntity
  8
1
  6
Continuous
100
AcDbCircle
 10
526.1
 20
172.75
 30
0.0
 40
2.0
  0
CIRCLE
  5
11A00
330
11816
100
AcDbEntity
  8
1
  6
Continuous
100
AcDbCircle
 10
551.4999999999998
 20
172.75
 30
0.0
 40
2.0
  0
LINE
  5
11A01
330
11816
100
AcDbEntity
  8
1
  6
Continuous
100
AcDbLine
 10
542.1499999999999
 20
185.85
 30
0.0
 11
542.1499999999999
 21
182.2499999999998
 31
0.0
  0
LINE
  5
11A02
330
11816
100
AcDbEntity
  8
1
  6
Continuous
100
AcDbLine
 10
535.45
 20
185.85
 30
0.0
 11
535.45
 21
182.2499999999998
 31
0.0
  0
LINE
  5
11A03
330
11816
100
AcDbEntity
  8
1
  6
Continuous
100
AcDbLine
 10
535.45
 20
182.2499999999998
 30
0.0
 11
542.1499999999999
 21
182.2499999999998
 31
0.0
  0
LINE
  5
11A04
330
11816
100
AcDbEntity
  8
1
  6
Continuous
100
AcDbLine
 10
535.45
 20
159.6499999999998
 30
0.0
 11
535.45
 21
163.25
 31
0.0
  0
LINE
  5
11A05
330
11816
100
AcDbEntity
  8
1
  6
Continuous
100
AcDbLine
 10
542.1499999999999
 20
159.6499999999998
 30
0.0
 11
542.1499999999999
 21
163.25
 31
0.0
  0
LINE
  5
11A06
330
11816
100
AcDbEntity
  8
1
  6
Continuous
100
AcDbLine
 10
535.45
 20
163.25
 30
0.0
 11
542.1499999999999
 21
163.25
 31
0.0
  0
LINE
  5
11A07
330
11816
100
AcDbEntity
  8
1
  6
Continuous
100
AcDbLine
 10
522.75
 20
163.25
 30
0.0
 11
529.45
 21
163.25
 31
0.0
  0
LINE
  5
11A08
330
11816
100
AcDbEntity
  8
1
  6
Continuous
100
AcDbLine
 10
529.6499999999999
 20
159.6499999999998
 30
0.0
 11
529.6499999999999
 21
163.25
 31
0.0
  0
LINE
  5
11A09
330
11816
100
AcDbEntity
  8
1
  6
Continuous
100
AcDbLine
 10
522.95
 20
159.6499999999998
 30
0.0
 11
522.95
 21
163.25
 31
0.0
  0
LINE
  5
11A0A
330
11816
100
AcDbEntity
  8
1
  6
Continuous
100
AcDbLine
 10
522.75
 20
185.85
 30
0.0
 11
522.75
 21
182.2499999999998
 31
0.0
  0
LINE
  5
11A0B
330
11816
100
AcDbEntity
  8
1
  6
Continuous
100
AcDbLine
 10
529.45
 20
185.85
 30
0.0
 11
529.45
 21
182.2499999999998
 31
0.0
  0
LINE
  5
11A0C
330
11816
100
AcDbEntity
  8
1
  6
Continuous
100
AcDbLine
 10
522.75
 20
182.2499999999998
 30
0.0
 11
529.45
 21
182.2499999999998
 31
0.0
  0
LINE
  5
11A0D
330
11816
100
AcDbEntity
  8
1
  6
Continuous
100
AcDbLine
 10
516.75
 20
185.85
 30
0.0
 11
516.75
 21
182.2499999999998
 31
0.0
  0
LINE
  5
11A0E
330
11816
100
AcDbEntity
  8
1
  6
Continuous
100
AcDbLine
 10
510.05
 20
185.85
 30
0.0
 11
510.05
 21
182.2499999999998
 31
0.0
  0
LINE
  5
11A0F
330
11816
100
AcDbEntity
  8
1
  6
Continuous
100
AcDbLine
 10
510.05
 20
182.2499999999998
 30
0.0
 11
516.75
 21
182.2499999999998
 31
0.0
  0
LINE
  5
11A10
330
11816
100
AcDbEntity
  8
1
  6
Continuous
100
AcDbLine
 10
510.05
 20
163.25
 30
0.0
 11
516.75
 21
163.25
 31
0.0
  0
LINE
  5
11A11
330
11816
100
AcDbEntity
  8
1
  6
Continuous
100
AcDbLine
 10
510.05
 20
159.6499999999998
 30
0.0
 11
510.05
 21
163.25
 31
0.0
  0
LINE
  5
11A12
330
11816
100
AcDbEntity
  8
1
  6
Continuous
100
AcDbLine
 10
516.75
 20
159.6499999999998
 30
0.0
 11
516.75
 21
163.25
 31
0.0
  0
LINE
  5
11A13
330
11816
100
AcDbEntity
  8
1
  6
Continuous
100
AcDbLine
 10
504.05
 20
185.85
 30
0.0
 11
504.05
 21
185.0
 31
0.0
  0
LINE
  5
11A14
330
11816
100
AcDbEntity
  8
1
  6
Continuous
100
AcDbLine
 10
370.35
 20
185.85
 30
0.0
 11
370.35
 21
185.0
 31
0.0
  0
LINE
  5
11A15
330
11816
100
AcDbEntity
  8
1
  6
Continuous
100
AcDbLine
 10
364.35
 20
185.85
 30
0.0
 11
364.35
 21
185.0
 31
0.0
  0
LINE
  5
11A16
330
11816
100
AcDbEntity
  8
1
  6
Continuous
100
AcDbLine
 10
370.35
 20
159.6499999999998
 30
0.0
 11
370.35
 21
160.4999999999998
 31
0.0
  0
LINE
  5
11A17
330
11816
100
AcDbEntity
  8
1
  6
Continuous
100
AcDbLine
 10
364.35
 20
159.6499999999998
 30
0.0
 11
364.35
 21
160.4999999999998
 31
0.0
  0
LINE
  5
11A18
330
11816
100
AcDbEntity
  8
1
  6
Continuous
100
AcDbLine
 10
311.6
 20
169.0
 30
0.0
 11
311.6
 21
176.5
 31
0.0
  0
ARC
  5
11A19
330
11816
100
AcDbEntity
  8
1
  6
Continuous
100
AcDbCircle
 10
314.1
 20
169.0
 30
0.0
 40
2.5
100
AcDbArc
 50
180.0
 51
0.0
  0
ARC
  5
11A1A
330
11816
100
AcDbEntity
  8
1
  6
Continuous
100
AcDbCircle
 10
314.1
 20
176.5
 30
0.0
 40
2.5
100
AcDbArc
 50
0.0
 51
180.0
  0
LINE
  5
11A1B
330
11816
100
AcDbEntity
  8
1
  6
Continuous
100
AcDbLine
 10
316.6
 20
169.0
 30
0.0
 11
316.6
 21
176.5
 31
0.0
  0
LINE
  5
11A1C
330
11816
100
AcDbEntity
  8
1
  6
Continuous
100
AcDbLine
 10
573.55
 20
176.75
 30
0.0
 11
583.5499999999998
 21
176.75
 31
0.0
  0
LINE
  5
11A1D
330
11816
100
AcDbEntity
  8
1
  6
Continuous
100
AcDbLine
 10
573.55
 20
168.75
 30
0.0
 11
583.5499999999998
 21
168.75
 31
0.0
  0
LINE
  5
11A1E
330
11816
100
AcDbEntity
  8
1
  6
Continuous
100
AcDbLine
 10
573.55
 20
174.75
 30
0.0
 11
583.5499999999998
 21
174.75
 31
0.0
  0
LINE
  5
11A1F
330
11816
100
AcDbEntity
  8
1
  6
Continuous
100
AcDbLine
 10
573.55
 20
170.75
 30
0.0
 11
583.5499999999998
 21
170.75
 31
0.0
  0
LINE
  5
11A20
330
11816
100
AcDbEntity
  8
1
  6
Continuous
100
AcDbLine
 10
583.5499999999998
 20
176.75
 30
0.0
 11
583.5499999999998
 21
174.9499999999999
 31
0.0
  0
LINE
  5
11A21
330
11816
100
AcDbEntity
  8
1
  6
Continuous
100
AcDbLine
 10
581.0499999999998
 20
174.9499999999999
 30
0.0
 11
581.0499999999998
 21
174.75
 31
0.0
  0
LINE
  5
11A22
330
11816
100
AcDbEntity
  8
1
  6
Continuous
100
AcDbLine
 10
581.0499999999998
 20
174.9499999999999
 30
0.0
 11
583.5499999999998
 21
174.9499999999999
 31
0.0
  0
LINE
  5
11A23
330
11816
100
AcDbEntity
  8
1
  6
Continuous
100
AcDbLine
 10
581.0499999999998
 20
170.55
 30
0.0
 11
583.5499999999998
 21
170.55
 31
0.0
  0
LINE
  5
11A24
330
11816
100
AcDbEntity
  8
1
  6
Continuous
100
AcDbLine
 10
581.0499999999998
 20
170.75
 30
0.0
 11
581.0499999999998
 21
170.55
 31
0.0
  0
LINE
  5
11A25
330
11816
100
AcDbEntity
  8
1
  6
Continuous
100
AcDbLine
 10
583.5499999999998
 20
170.55
 30
0.0
 11
583.5499999999998
 21
168.75
 31
0.0
  0
LINE
  5
11A26
330
11816
100
AcDbEntity
  8
1
  6
Continuous
100
AcDbLine
 10
583.5499999999998
 20
174.75
 30
0.0
 11
583.5499999999998
 21
170.75
 31
0.0
  0
LINE
  5
11A27
330
11816
100
AcDbEntity
  8
4
  6
CENTER
100
AcDbLine
 10
716.6
 20
163.75
 30
0.0
 11
716.6
 21
181.75
 31
0.0
  0
CIRCLE
  5
11A28
330
11816
100
AcDbEntity
  8
1
  6
Continuous
100
AcDbCircle
 10
716.6
 20
172.75
 30
0.0
 40
6.0
  0
LINE
  5
11A29
330
11816
100
AcDbEntity
  8
1
  6
Continuous
100
AcDbLine
 10
705.3646240000001
 20
179.095575
 30
0.0
 11
716.799924
 21
180.3137309999999
 31
0.0
  0
LINE
  5
11A2A
330
11816
100
AcDbEntity
  8
1
  6
Continuous
100
AcDbLine
 10
713.3639910000002
 20
165.365676
 30
0.0
 11
718.3358599999997
 21
165.8953089999999
 31
0.0
  0
LINE
  5
11A2B
330
11816
100
AcDbEntity
  8
1
  6
Continuous
100
AcDbLine
 10
704.3991919999997
 20
169.277458
 30
0.0
 11
703.587729
 21
176.894974
 31
0.0
  0
LINE
  5
11A2C
330
11816
100
AcDbEntity
  8
1
  6
Continuous
100
AcDbLine
 10
739.344157
 20
171.65304
 30
0.0
 11
738.2743889999996
 21
181.6953649999999
 31
0.0
  0
LINE
  5
11A2D
330
11816
100
AcDbEntity
  8
1
  6
Continuous
100
AcDbLine
 10
735.0813279999997
 20
169.187623
 30
0.0
 11
737.567262
 21
169.4524389999999
 31
0.0
  0
LINE
  5
11A2E
330
11816
100
AcDbEntity
  8
1
  6
Continuous
100
AcDbLine
 10
705.8266210000001
 20
167.5696969999999
 30
0.0
 11
713.3639910000002
 21
165.365676
 31
0.0
  0
ARC
  5
11A2F
330
11816
100
AcDbEntity
  8
1
  6
Continuous
100
AcDbCircle
 10
706.3879400000002
 20
169.489312
 30
0.0
 40
2.0
100
AcDbArc
 50
186.080556
 51
253.700421
  0
LINE
  5
11A30
330
11816
100
AcDbEntity
  8
1
  6
Continuous
100
AcDbLine
 10
738.1
 20
164.1
 30
0.0
 11
738.1
 21
169.5849589999999
 31
0.0
  0
LINE
  5
11A31
330
11816
100
AcDbEntity
  8
1
  6
Continuous
100
AcDbLine
 10
723.1
 20
164.1
 30
0.0
 11
723.1
 21
167.459404
 31
0.0
  0
LINE
  5
11A32
330
11816
100
AcDbEntity
  8
1
  6
Continuous
100
AcDbLine
 10
724.1
 20
163.1
 30
0.0
 11
737.1
 21
163.1
 31
0.0
  0
ARC
  5
11A33
330
11816
100
AcDbEntity
  8
1
  6
Continuous
100
AcDbCircle
 10
737.1
 20
164.1
 30
0.0
 40
1.0
100
AcDbArc
 50
270.0
 51
0.0
  0
ARC
  5
11A34
330
11816
100
AcDbEntity
  8
1
  6
Continuous
100
AcDbCircle
 10
724.1
 20
164.1
 30
0.0
 40
1.0
100
AcDbArc
 50
180.0
 51
270.0
  0
LINE
  5
11A35
330
11816
100
AcDbEntity
  8
1
  6
Continuous
100
AcDbLine
 10
725.1375879999997
 20
168.1283559999999
 30
0.0
 11
718.3358599999997
 21
165.8953089999999
 31
0.0
  0
LINE
  5
11A36
330
11816
100
AcDbEntity
  8
1
  6
Continuous
100
AcDbLine
 10
725.1375879999997
 20
168.1283559999999
 30
0.0
 11
725.5612949999997
 21
164.1508609999999
 31
0.0
  0
LINE
  5
11A37
330
11816
100
AcDbEntity
  8
1
  6
Continuous
100
AcDbLine
 10
735.0813279999997
 20
169.187623
 30
0.0
 11
735.505034
 21
165.2101269999998
 31
0.0
  0
ARC
  5
11A38
330
11816
100
AcDbEntity
  8
1
  6
Continuous
100
AcDbCircle
 10
737.3554089999997
 20
171.441187
 30
0.0
 40
2.0
100
AcDbArc
 50
276.080556
 51
6.080555999999999
  0
LINE
  5
11A39
330
11816
100
AcDbEntity
  8
1
  6
Continuous
100
AcDbLine
 10
716.799924
 20
180.3137309999999
 30
0.0
 11
721.0951999999998
 21
177.754316
 31
0.0
  0
LINE
  5
11A3A
330
11816
100
AcDbEntity
  8
1
  6
Continuous
100
AcDbLine
 10
721.0951999999998
 20
177.754316
 30
0.0
 11
724.0783219999997
 21
178.072096
 31
0.0
  0
LINE
  5
11A3B
330
11816
100
AcDbEntity
  8
1
  6
Continuous
100
AcDbLine
 10
723.8808259999997
 20
179.926062
 30
0.0
 11
724.0783219999997
 21
178.072096
 31
0.0
  0
LINE
  5
11A3C
330
11816
100
AcDbEntity
  8
1
  6
Continuous
100
AcDbLine
 10
725.5612949999997
 20
164.1508609999999
 30
0.0
 11
735.505034
 21
165.2101269999998
 31
0.0
  0
LINE
  5
11A3D
330
11816
100
AcDbEntity
  8
1
  6
Continuous
100
AcDbLine
 10
733.7360589999997
 20
181.8161719999999
 30
0.0
 11
724.0783219999997
 21
178.072096
 31
0.0
  0
ARC
  5
11A3E
330
11816
100
AcDbEntity
  8
1
  6
Continuous
100
AcDbCircle
 10
705.5764769999998
 20
177.106827
 30
0.0
 40
2.0
100
AcDbArc
 50
96.080556
 51
186.080556
  0
LINE
  5
11A3F
330
11816
100
AcDbEntity
  8
1
  6
Continuous
100
AcDbLine
 10
733.7360589999997
 20
181.8161719999999
 30
0.0
 11
738.496744
 21
179.608032
 31
0.0
  0
ARC
  5
11A40
330
11816
100
AcDbEntity
  8
1
  6
Continuous
100
AcDbCircle
 10
733.7360589999997
 20
181.8161719999999
 30
0.0
 40
1.8
100
AcDbArc
 50
65.1168
 51
111.190132
  0
LINE
  5
11A41
330
11816
100
AcDbEntity
  8
1
  6
Continuous
100
AcDbLine
 10
733.0854239999998
 20
183.4944669999999
 30
0.0
 11
723.8808259999997
 21
179.926062
 31
0.0
  0
LINE
  5
11A42
330
11816
100
AcDbEntity
  8
1
  6
Continuous
100
AcDbLine
 10
734.4934449999998
 20
183.4490729999999
 30
0.0
 11
738.2743889999996
 21
181.6953649999999
 31
0.0
  0
LINE
  5
11A43
330
11816
100
AcDbEntity
  8
1
  6
Continuous
100
AcDbLine
 10
314.1
 20
176.547908
 30
0.0
 11
314.1
 21
168.9520919999999
 31
0.0
  0
LINE
  5
11A44
330
11816
100
AcDbEntity
  8
1
  6
Continuous
100
AcDbLine
 10
314.760356
 20
177.4884619999999
 30
0.0
 11
316.1162469999999
 21
177.9780889999999
 31
0.0
  0
ARC
  5
11A45
330
11816
100
AcDbEntity
  8
1
  6
Continuous
100
AcDbCircle
 10
315.1
 20
176.547908
 30
0.0
 40
1.0
100
AcDbArc
 50
109.855214
 51
180.0
  0
ARC
  5
11A46
330
11816
100
AcDbEntity
  8
1
  6
Continuous
100
AcDbCircle
 10
315.1
 20
168.9520919999999
 30
0.0
 40
1.0
100
AcDbArc
 50
180.0
 51
250.144786
  0
LINE
  5
11A47
330
11816
100
AcDbEntity
  8
1
  6
Continuous
100
AcDbLine
 10
314.760356
 20
168.011538
 30
0.0
 11
316.1162469999999
 21
167.521911
 31
0.0
  0
LINE
  5
11A48
330
11816
100
AcDbEntity
  8
1
  6
Continuous
100
AcDbLine
 10
337.1
 20
399.5
 30
0.0
 11
937.1
 21
399.5
 31
0.0
  0
LINE
  5
11A49
330
11816
100
AcDbEntity
  8
1
  6
Continuous
100
AcDbLine
 10
337.1
 20
434.7999999999998
 30
0.0
 11
937.1
 21
434.7999999999998
 31
0.0
  0
LINE
  5
11A4A
330
11816
100
AcDbEntity
  8
4
  6
CENTER
100
AcDbLine
 10
97.5
 20
417.1499999999999
 30
0.0
 11
942.1000000000001
 21
417.1499999999999
 31
0.0
  0
LINE
  5
11A4B
330
11816
100
AcDbEntity
  8
1
  6
Continuous
100
AcDbLine
 10
102.0999999999998
 20
404.8999999999998
 30
0.0
 11
337.1
 21
404.8999999999998
 31
0.0
  0
LINE
  5
11A4C
330
11816
100
AcDbEntity
  8
1
  6
Continuous
100
AcDbLine
 10
102.0999999999998
 20
429.3999999999998
 30
0.0
 11
337.1
 21
429.3999999999998
 31
0.0
  0
LINE
  5
11A4D
330
11816
100
AcDbEntity
  8
1
  6
Continuous
100
AcDbLine
 10
102.0999999999998
 20
404.8999999999998
 30
0.0
 11
102.0999999999998
 21
429.3999999999998
 31
0.0
  0
LINE
  5
11A4E
330
11816
100
AcDbEntity
  8
1
  6
Continuous
100
AcDbLine
 10
115.7499999999999
 20
416.75
 30
0.0
 11
115.7499999999999
 21
417.55
 31
0.0
  0
LINE
  5
11A4F
330
11816
100
AcDbEntity
  8
4
  6
CENTER
100
AcDbLine
 10
118.0
 20
411.8999999999998
 30
0.0
 11
118.0
 21
422.4
 31
0.0
  0
LINE
  5
11A50
330
11816
100
AcDbEntity
  8
1
  6
Continuous
100
AcDbLine
 10
120.25
 20
416.75
 30
0.0
 11
120.25
 21
417.55
 31
0.0
  0
ARC
  5
11A51
330
11816
100
AcDbEntity
  8
1
  6
Continuous
100
AcDbCircle
 10
118.0
 20
416.75
 30
0.0
 40
2.25
100
AcDbArc
 50
180.0
 51
0.0
  0
ARC
  5
11A52
330
11816
100
AcDbEntity
  8
1
  6
Continuous
100
AcDbCircle
 10
118.0
 20
417.55
 30
0.0
 40
2.25
100
AcDbArc
 50
0.0
 51
180.0
  0
ARC
  5
11A53
330
11816
100
AcDbEntity
  8
1
  6
Continuous
100
AcDbCircle
 10
130.6999999999999
 20
417.55
 30
0.0
 40
2.25
100
AcDbArc
 50
0.0
 51
180.0
  0
ARC
  5
11A54
330
11816
100
AcDbEntity
  8
1
  6
Continuous
100
AcDbCircle
 10
130.6999999999999
 20
416.75
 30
0.0
 40
2.25
100
AcDbArc
 50
180.0
 51
0.0
  0
LINE
  5
11A55
330
11816
100
AcDbEntity
  8
1
  6
Continuous
100
AcDbLine
 10
132.9499999999999
 20
416.75
 30
0.0
 11
132.9499999999999
 21
417.55
 31
0.0
  0
LINE
  5
11A56
330
11816
100
AcDbEntity
  8
4
  6
CENTER
100
AcDbLine
 10
130.6999999999999
 20
411.8999999999998
 30
0.0
 11
130.6999999999999
 21
422.4
 31
0.0
  0
LINE
  5
11A57
330
11816
100
AcDbEntity
  8
1
  6
Continuous
100
AcDbLine
 10
128.4499999999999
 20
416.75
 30
0.0
 11
128.4499999999999
 21
417.55
 31
0.0
  0
ARC
  5
11A58
330
11816
100
AcDbEntity
  8
1
  6
Continuous
100
AcDbCircle
 10
242.2
 20
417.1499999999999
 30
0.0
 40
2.25
100
AcDbArc
 50
270.0
 51
90.0
  0
ARC
  5
11A59
330
11816
100
AcDbEntity
  8
1
  6
Continuous
100
AcDbCircle
 10
241.4
 20
417.1499999999999
 30
0.0
 40
2.25
100
AcDbArc
 50
90.0
 51
270.0
  0
LINE
  5
11A5A
330
11816
100
AcDbEntity
  8
1
  6
Continuous
100
AcDbLine
 10
241.4
 20
414.9
 30
0.0
 11
242.2
 21
414.9
 31
0.0
  0
LINE
  5
11A5B
330
11816
100
AcDbEntity
  8
4
  6
CENTER
100
AcDbLine
 10
241.8
 20
411.8999999999998
 30
0.0
 11
241.8
 21
422.4
 31
0.0
  0
LINE
  5
11A5C
330
11816
100
AcDbEntity
  8
1
  6
Continuous
100
AcDbLine
 10
241.4
 20
419.3999999999999
 30
0.0
 11
242.2
 21
419.3999999999999
 31
0.0
  0
LINE
  5
11A5D
330
11816
100
AcDbEntity
  8
1
  6
Continuous
100
AcDbLine
 10
531.0999999999998
 20
424.65
 30
0.0
 11
531.0999999999998
 21
434.7999999999998
 31
0.0
  0
LINE
  5
11A5E
330
11816
100
AcDbEntity
  8
1
  6
Continuous
100
AcDbLine
 10
337.1
 20
399.5
 30
0.0
 11
337.1
 21
434.7999999999998
 31
0.0
  0
LINE
  5
11A5F
330
11816
100
AcDbEntity
  8
1
  6
Continuous
100
AcDbLine
 10
314.760356
 20
412.411538
 30
0.0
 11
323.1
 21
409.3999999999998
 31
0.0
  0
LINE
  5
11A60
330
11816
100
AcDbEntity
  8
1
  6
Continuous
100
AcDbLine
 10
314.760356
 20
421.8884619999998
 30
0.0
 11
323.1
 21
424.8999999999998
 31
0.0
  0
LINE
  5
11A61
330
11816
100
AcDbEntity
  8
1
  6
Continuous
100
AcDbLine
 10
314.1
 20
420.9479079999998
 30
0.0
 11
314.1
 21
413.3520919999998
 31
0.0
  0
ARC
  5
11A62
330
11816
100
AcDbEntity
  8
1
  6
Continuous
100
AcDbCircle
 10
315.1
 20
413.3520919999998
 30
0.0
 40
1.0
100
AcDbArc
 50
180.0
 51
250.144786
  0
ARC
  5
11A63
330
11816
100
AcDbEntity
  8
1
  6
Continuous
100
AcDbCircle
 10
315.1
 20
420.9479079999998
 30
0.0
 40
1.0
100
AcDbArc
 50
109.855214
 51
180.0
  0
ARC
  5
11A64
330
11816
100
AcDbEntity
  8
1
  6
Continuous
100
AcDbCircle
 10
314.1
 20
420.8999999999998
 30
0.0
 40
2.5
100
AcDbArc
 50
36.244746
 51
180.0
  0
ARC
  5
11A65
330
11816
100
AcDbEntity
  8
1
  6
Continuous
100
AcDbCircle
 10
314.1
 20
413.3999999999998
 30
0.0
 40
2.5
100
AcDbArc
 50
180.0
 51
323.7552539999999
  0
LINE
  5
11A66
330
11816
100
AcDbEntity
  8
1
  6
Continuous
100
AcDbLine
 10
311.6
 20
413.3999999999998
 30
0.0
 11
311.6
 21
420.8999999999998
 31
0.0
  0
ARC
  5
11A67
330
11816
100
AcDbEntity
  8
1
  6
Continuous
100
AcDbCircle
 10
559.7
 20
417.55
 30
0.0
 40
2.25
100
AcDbArc
 50
0.0
 51
180.0
  0
ARC
  5
11A68
330
11816
100
AcDbEntity
  8
1
  6
Continuous
100
AcDbCircle
 10
559.7
 20
416.75
 30
0.0
 40
2.25
100
AcDbArc
 50
180.0
 51
0.0
  0
LINE
  5
11A69
330
11816
100
AcDbEntity
  8
1
  6
Continuous
100
AcDbLine
 10
561.95
 20
416.75
 30
0.0
 11
561.95
 21
417.55
 31
0.0
  0
LINE
  5
11A6A
330
11816
100
AcDbEntity
  8
4
  6
CENTER
100
AcDbLine
 10
479.8999999999998
 20
411.8999999999998
 30
0.0
 11
479.8999999999998
 21
422.4
 31
0.0
  0
LINE
  5
11A6B
330
11816
100
AcDbEntity
  8
1
  6
Continuous
100
AcDbLine
 10
557.45
 20
416.75
 30
0.0
 11
557.45
 21
417.55
 31
0.0
  0
ARC
  5
11A6C
330
11816
100
AcDbEntity
  8
1
  6
Continuous
100
AcDbCircle
 10
547.0
 20
417.55
 30
0.0
 40
2.25
100
AcDbArc
 50
0.0
 51
180.0
  0
ARC
  5
11A6D
330
11816
100
AcDbEntity
  8
1
  6
Continuous
100
AcDbCircle
 10
547.0
 20
416.75
 30
0.0
 40
2.25
100
AcDbArc
 50
180.0
 51
0.0
  0
LINE
  5
11A6E
330
11816
100
AcDbEntity
  8
1
  6
Continuous
100
AcDbLine
 10
549.2499999999998
 20
416.75
 30
0.0
 11
549.2499999999998
 21
417.55
 31
0.0
  0
LINE
  5
11A6F
330
11816
100
AcDbEntity
  8
4
  6
CENTER
100
AcDbLine
 10
492.6
 20
411.8999999999998
 30
0.0
 11
492.6
 21
422.4
 31
0.0
  0
LINE
  5
11A70
330
11816
100
AcDbEntity
  8
1
  6
Continuous
100
AcDbLine
 10
544.7499999999998
 20
416.75
 30
0.0
 11
544.7499999999998
 21
417.55
 31
0.0
  0
LINE
  5
11A71
330
11816
100
AcDbEntity
  8
1
  6
Continuous
100
AcDbLine
 10
531.0999999999998
 20
409.6499999999998
 30
0.0
 11
531.0999999999998
 21
399.5
 31
0.0
  0
LINE
  5
11A72
330
11816
100
AcDbEntity
  8
1
  6
Continuous
100
AcDbLine
 10
533.6
 20
409.6499999999998
 30
0.0
 11
531.0999999999998
 21
409.6499999999998
 31
0.0
  0
LINE
  5
11A73
330
11816
100
AcDbEntity
  8
1
  6
Continuous
100
AcDbLine
 10
533.6
 20
409.6499999999998
 30
0.0
 11
533.6
 21
424.65
 31
0.0
  0
LINE
  5
11A74
330
11816
100
AcDbEntity
  8
1
  6
Continuous
100
AcDbLine
 10
533.6
 20
424.65
 30
0.0
 11
531.0999999999998
 21
424.65
 31
0.0
  0
LINE
  5
11A75
330
11816
100
AcDbEntity
  8
4
  6
CENTER
100
AcDbLine
 10
547.0
 20
422.4
 30
0.0
 11
547.0
 21
411.8999999999998
 31
0.0
  0
LINE
  5
11A76
330
11816
100
AcDbEntity
  8
4
  6
CENTER
100
AcDbLine
 10
559.7
 20
422.4
 30
0.0
 11
559.7
 21
411.8999999999998
 31
0.0
  0
LINE
  5
11A77
330
11816
100
AcDbEntity
  8
4
  6
CENTER
100
AcDbLine
 10
572.4
 20
422.4
 30
0.0
 11
572.4
 21
411.8999999999998
 31
0.0
  0
LINE
  5
11A78
330
11816
100
AcDbEntity
  8
3
  6
DASHED
100
AcDbLine
 10
743.1
 20
405.6499999999998
 30
0.0
 11
743.1
 21
428.65
 31
0.0
  0
LINE
  5
11A79
330
11816
100
AcDbEntity
  8
1
  6
Continuous
100
AcDbLine
 10
937.1
 20
405.6499999999998
 30
0.0
 11
937.1
 21
428.65
 31
0.0
  0
LINE
  5
11A7A
330
11816
100
AcDbEntity
  8
4
  6
CENTER
100
AcDbLine
 10
658.1
 20
422.4
 30
0.0
 11
658.1
 21
411.8999999999998
 31
0.0
  0
LINE
  5
11A7B
330
11816
100
AcDbEntity
  8
4
  6
CENTER
100
AcDbLine
 10
716.6
 20
408.15
 30
0.0
 11
716.6
 21
426.1499999999998
 31
0.0
  0
LINE
  5
11A7C
330
11816
100
AcDbEntity
  8
3
  6
DASHED
100
AcDbLine
 10
740.8710089999997
 20
404.3368169999998
 30
0.0
 11
742.7467159999999
 21
402.004976
 31
0.0
  0
LINE
  5
11A7D
330
11816
100
AcDbEntity
  8
3
  6
DASHED
100
AcDbLine
 10
743.1
 20
399.5
 30
0.0
 11
743.1
 21
401.0021309999998
 31
0.0
  0
ARC
  5
11A7E
330
11816
100
AcDbEntity
  8
3
  6
DASHED
100
AcDbCircle
 10
741.5
 20
401.0021309999998
 30
0.0
 40
1.6
100
AcDbArc
 50
0.0
 51
38.812815
  0
LINE
  5
11A7F
330
11816
100
AcDbEntity
  8
3
  6
DASHED
100
AcDbLine
 10
741.5
 20
405.6499999999998
 30
0.0
 11
743.1
 21
405.6499999999998
 31
0.0
  0
ARC
  5
11A80
330
11816
100
AcDbEntity
  8
3
  6
DASHED
100
AcDbCircle
 10
741.5
 20
404.8427709999998
 30
0.0
 40
0.8072289999999997
100
AcDbArc
 50
90.0
 51
218.812815
  0
ARC
  5
11A81
330
11816
100
AcDbEntity
  8
1
  6
Continuous
100
AcDbCircle
 10
908.9
 20
417.55
 30
0.0
 40
2.25
100
AcDbArc
 50
0.0
 51
180.0
  0
ARC
  5
11A82
330
11816
100
AcDbEntity
  8
1
  6
Continuous
100
AcDbCircle
 10
908.9
 20
416.75
 30
0.0
 40
2.25
100
AcDbArc
 50
180.0
 51
0.0
  0
LINE
  5
11A83
330
11816
100
AcDbEntity
  8
1
  6
Continuous
100
AcDbLine
 10
906.6499999999999
 20
417.55
 30
0.0
 11
906.6499999999999
 21
416.75
 31
0.0
  0
LINE
  5
11A84
330
11816
100
AcDbEntity
  8
4
  6
CENTER
100
AcDbLine
 10
908.9
 20
422.4
 30
0.0
 11
908.9
 21
411.8999999999998
 31
0.0
  0
LINE
  5
11A85
330
11816
100
AcDbEntity
  8
1
  6
Continuous
100
AcDbLine
 10
911.1499999999999
 20
417.55
 30
0.0
 11
911.1499999999999
 21
416.75
 31
0.0
  0
ARC
  5
11A86
330
11816
100
AcDbEntity
  8
1
  6
Continuous
100
AcDbCircle
 10
921.6000000000001
 20
417.55
 30
0.0
 40
2.25
100
AcDbArc
 50
0.0
 51
180.0
  0
ARC
  5
11A87
330
11816
100
AcDbEntity
  8
1
  6
Continuous
100
AcDbCircle
 10
921.6000000000001
 20
416.75
 30
0.0
 40
2.25
100
AcDbArc
 50
180.0
 51
0.0
  0
LINE
  5
11A88
330
11816
100
AcDbEntity
  8
4
  6
CENTER
100
AcDbLine
 10
921.6000000000001
 20
422.4
 30
0.0
 11
921.6000000000001
 21
411.8999999999998
 31
0.0
  0
LINE
  5
11A89
330
11816
100
AcDbEntity
  8
1
  6
Continuous
100
AcDbLine
 10
923.85
 20
417.55
 30
0.0
 11
923.85
 21
416.75
 31
0.0
  0
LINE
  5
11A8A
330
11816
100
AcDbEntity
  8
1
  6
Continuous
100
AcDbLine
 10
919.35
 20
417.55
 30
0.0
 11
919.35
 21
416.75
 31
0.0
  0
LINE
  5
11A8B
330
11816
100
AcDbEntity
  8
1
  6
Continuous
100
AcDbLine
 10
934.8710089999999
 20
404.3368169999998
 30
0.0
 11
936.7467160000003
 21
402.004976
 31
0.0
  0
ARC
  5
11A8C
330
11816
100
AcDbEntity
  8
1
  6
Continuous
100
AcDbCircle
 10
935.5
 20
401.0021309999998
 30
0.0
 40
1.6
100
AcDbArc
 50
0.0
 51
38.812815
  0
LINE
  5
11A8D
330
11816
100
AcDbEntity
  8
1
  6
Continuous
100
AcDbLine
 10
937.1
 20
399.5
 30
0.0
 11
937.1
 21
401.0021309999998
 31
0.0
  0
ARC
  5
11A8E
330
11816
100
AcDbEntity
  8
1
  6
Continuous
100
AcDbCircle
 10
935.5
 20
404.8427709999998
 30
0.0
 40
0.8072289999999997
100
AcDbArc
 50
90.0
 51
218.812815
  0
LINE
  5
11A8F
330
11816
100
AcDbEntity
  8
1
  6
Continuous
100
AcDbLine
 10
935.5
 20
405.6499999999998
 30
0.0
 11
937.1
 21
405.6499999999998
 31
0.0
  0
LINE
  5
11A90
330
11816
100
AcDbEntity
  8
3
  6
DASHED
100
AcDbLine
 10
741.5
 20
428.65
 30
0.0
 11
743.1
 21
428.65
 31
0.0
  0
ARC
  5
11A91
330
11816
100
AcDbEntity
  8
3
  6
DASHED
100
AcDbCircle
 10
741.5
 20
433.297869
 30
0.0
 40
1.6
100
AcDbArc
 50
321.187185
 51
0.0
  0
ARC
  5
11A92
330
11816
100
AcDbEntity
  8
3
  6
DASHED
100
AcDbCircle
 10
741.5
 20
429.4572289999998
 30
0.0
 40
0.8072289999999997
100
AcDbArc
 50
141.1871849999998
 51
270.0
  0
LINE
  5
11A93
330
11816
100
AcDbEntity
  8
3
  6
DASHED
100
AcDbLine
 10
740.8710089999997
 20
429.963183
 30
0.0
 11
742.7467159999999
 21
432.2950239999998
 31
0.0
  0
LINE
  5
11A94
330
11816
100
AcDbEntity
  8
3
  6
DASHED
100
AcDbLine
 10
743.1
 20
433.297869
 30
0.0
 11
743.1
 21
434.7999999999998
 31
0.0
  0
LINE
  5
11A95
330
11816
100
AcDbEntity
  8
1
  6
Continuous
100
AcDbLine
 10
937.1
 20
433.297869
 30
0.0
 11
937.1
 21
434.7999999999998
 31
0.0
  0
LINE
  5
11A96
330
11816
100
AcDbEntity
  8
1
  6
Continuous
100
AcDbLine
 10
934.8710089999999
 20
429.963183
 30
0.0
 11
936.7467160000003
 21
432.2950239999998
 31
0.0
  0
ARC
  5
11A97
330
11816
100
AcDbEntity
  8
1
  6
Continuous
100
AcDbCircle
 10
935.5
 20
429.4572289999998
 30
0.0
 40
0.8072289999999997
100
AcDbArc
 50
141.1871849999998
 51
270.0
  0
ARC
  5
11A98
330
11816
100
AcDbEntity
  8
1
  6
Continuous
100
AcDbCircle
 10
935.5
 20
433.297869
 30
0.0
 40
1.6
100
AcDbArc
 50
321.187185
 51
0.0
  0
LINE
  5
11A99
330
11816
100
AcDbEntity
  8
1
  6
Continuous
100
AcDbLine
 10
935.5
 20
428.65
 30
0.0
 11
937.1
 21
428.65
 31
0.0
  0
LINE
  5
11A9A
330
11816
100
AcDbEntity
  8
3
  6
DASHED
100
AcDbLine
 10
337.1
 20
429.3999999999998
 30
0.0
 11
505.1
 21
429.3999999999998
 31
0.0
  0
LINE
  5
11A9B
330
11816
100
AcDbEntity
  8
3
  6
DASHED
100
AcDbLine
 10
337.1
 20
404.8999999999998
 30
0.0
 11
505.1
 21
404.8999999999998
 31
0.0
  0
ARC
  5
11A9C
330
11816
100
AcDbEntity
  8
1
  6
Continuous
100
AcDbCircle
 10
572.7999999999998
 20
417.1499999999999
 30
0.0
 40
2.25
100
AcDbArc
 50
270.0
 51
90.0
  0
ARC
  5
11A9D
330
11816
100
AcDbEntity
  8
1
  6
Continuous
100
AcDbCircle
 10
572.0
 20
417.1499999999999
 30
0.0
 40
2.25
100
AcDbArc
 50
90.0
 51
270.0
  0
LINE
  5
11A9E
330
11816
100
AcDbEntity
  8
1
  6
Continuous
100
AcDbLine
 10
572.7999999999998
 20
414.9
 30
0.0
 11
572.0
 21
414.9
 31
0.0
  0
LINE
  5
11A9F
330
11816
100
AcDbEntity
  8
1
  6
Continuous
100
AcDbLine
 10
572.7999999999998
 20
419.3999999999999
 30
0.0
 11
572.0
 21
419.3999999999999
 31
0.0
  0
LINE
  5
11AA0
330
11816
100
AcDbEntity
  8
1
  6
Continuous
100
AcDbLine
 10
658.4999999999999
 20
419.3999999999999
 30
0.0
 11
657.7000000000001
 21
419.3999999999999
 31
0.0
  0
LINE
  5
11AA1
330
11816
100
AcDbEntity
  8
1
  6
Continuous
100
AcDbLine
 10
658.4999999999999
 20
414.9
 30
0.0
 11
657.7000000000001
 21
414.9
 31
0.0
  0
ARC
  5
11AA2
330
11816
100
AcDbEntity
  8
1
  6
Continuous
100
AcDbCircle
 10
657.7000000000001
 20
417.1499999999999
 30
0.0
 40
2.25
100
AcDbArc
 50
90.0
 51
270.0
  0
ARC
  5
11AA3
330
11816
100
AcDbEntity
  8
1
  6
Continuous
100
AcDbCircle
 10
658.4999999999999
 20
417.1499999999999
 30
0.0
 40
2.25
100
AcDbArc
 50
270.0
 51
90.0
  0
LINE
  5
11AA4
330
11816
100
AcDbEntity
  8
1
  6
Continuous
100
AcDbLine
 10
323.1
 20
424.8999999999998
 30
0.0
 11
337.1
 21
424.8999999999998
 31
0.0
  0
LINE
  5
11AA5
330
11816
100
AcDbEntity
  8
1
  6
Continuous
100
AcDbLine
 10
323.1
 20
409.3999999999998
 30
0.0
 11
337.1
 21
409.3999999999998
 31
0.0
  0
LINE
  5
11AA6
330
11816
100
AcDbEntity
  8
1
  6
Continuous
100
AcDbLine
 10
318.1
 20
421.947908
 30
0.0
 11
318.1
 21
412.3520919999998
 31
0.0
  0
LINE
  5
11AA7
330
11816
100
AcDbEntity
  8
1
  6
Continuous
100
AcDbLine
 10
333.1
 20
413.1499999999999
 30
0.0
 11
333.1
 21
421.15
 31
0.0
  0
LINE
  5
11AA8
330
11816
100
AcDbEntity
  8
1
  6
Continuous
100
AcDbLine
 10
327.1
 20
421.15
 30
0.0
 11
337.1
 21
421.15
 31
0.0
  0
LINE
  5
11AA9
330
11816
100
AcDbEntity
  8
1
  6
Continuous
100
AcDbLine
 10
327.1
 20
413.1499999999999
 30
0.0
 11
337.1
 21
413.1499999999999
 31
0.0
  0
LINE
  5
11AAA
330
11816
100
AcDbEntity
  8
1
  6
Continuous
100
AcDbLine
 10
102.0999999999998
 20
427.2375
 30
0.0
 11
337.1
 21
427.2375
 31
0.0
  0
LINE
  5
11AAB
330
11816
100
AcDbEntity
  8
1
  6
Continuous
100
AcDbLine
 10
102.0999999999998
 20
407.0624999999997
 30
0.0
 11
337.1
 21
407.0624999999997
 31
0.0
  0
LINE
  5
11AAC
330
11816
100
AcDbEntity
  8
3
  6
DASHED
100
AcDbLine
 10
337.1
 20
427.2375
 30
0.0
 11
505.1
 21
427.2375
 31
0.0
  0
LINE
  5
11AAD
330
11816
100
AcDbEntity
  8
3
  6
DASHED
100
AcDbLine
 10
337.1
 20
407.0624999999997
 30
0.0
 11
505.1
 21
407.0624999999997
 31
0.0
  0
LINE
  5
11AAE
330
11816
100
AcDbEntity
  8
1
  6
Continuous
100
AcDbLine
 10
532.1
 20
409.6499999999998
 30
0.0
 11
532.1
 21
424.65
 31
0.0
  0
CIRCLE
  5
11AAF
330
11816
100
AcDbEntity
  8
1
  6
Continuous
100
AcDbCircle
 10
464.1
 20
417.1499999999999
 30
0.0
 40
6.25
  0
LINE
  5
11AB0
330
11816
100
AcDbEntity
  8
4
  6
CENTER
100
AcDbLine
 10
464.1
 20
427.187536
 30
0.0
 11
464.1
 21
407.7685309999997
 31
0.0
  0
LINE
  5
11AB1
330
11816
100
AcDbEntity
  8
4
  6
CENTER
100
AcDbLine
 10
551.4999999999998
 20
177.75
 30
0.0
 11
551.4999999999998
 21
167.75
 31
0.0
  0
LINE
  5
11AB2
330
11816
100
AcDbEntity
  8
4
  6
CENTER
100
AcDbLine
 10
538.7999999999998
 20
177.75
 30
0.0
 11
538.7999999999998
 21
167.75
 31
0.0
  0
LINE
  5
11AB3
330
11816
100
AcDbEntity
  8
4
  6
CENTER
100
AcDbLine
 10
526.1
 20
177.75
 30
0.0
 11
526.1
 21
167.75
 31
0.0
  0
LINE
  5
11AB4
330
11816
100
AcDbEntity
  8
1
  6
Continuous
100
AcDbLine
 10
499.8499999999999
 20
179.75
 30
0.0
 11
503.6
 21
179.75
 31
0.0
  0
LINE
  5
11AB5
330
11816
100
AcDbEntity
  8
1
  6
Continuous
100
AcDbLine
 10
499.8499999999999
 20
181.25
 30
0.0
 11
502.0999999999999
 21
181.25
 31
0.0
  0
LINE
  5
11AB6
330
11816
100
AcDbEntity
  8
1
  6
Continuous
100
AcDbLine
 10
505.1
 20
182.8375
 30
0.0
 11
505.1
 21
185.0
 31
0.0
  0
ARC
  5
11AB7
330
11816
100
AcDbEntity
  8
1
  6
Continuous
100
AcDbCircle
 10
503.6
 20
178.2499999999998
 30
0.0
 40
1.5
100
AcDbArc
 50
0.0
 51
90.0
  0
ARC
  5
11AB8
330
11816
100
AcDbEntity
  8
1
  6
Continuous
100
AcDbCircle
 10
499.8499999999999
 20
180.4999999999998
 30
0.0
 40
0.75
100
AcDbArc
 50
90.0
 51
270.0
  0
LINE
  5
11AB9
330
11816
100
AcDbEntity
  8
1
  6
Continuous
100
AcDbLine
 10
503.1
 20
182.2499999999998
 30
0.0
 11
503.1
 21
185.0
 31
0.0
  0
LINE
  5
11ABA
330
11816
100
AcDbEntity
  8
1
  6
Continuous
100
AcDbLine
 10
503.1
 20
163.25
 30
0.0
 11
503.1
 21
160.4999999999998
 31
0.0
  0
LINE
  5
11ABB
330
11816
100
AcDbEntity
  8
1
  6
Continuous
100
AcDbLine
 10
499.8499999999999
 20
164.25
 30
0.0
 11
502.0999999999999
 21
164.25
 31
0.0
  0
ARC
  5
11ABC
330
11816
100
AcDbEntity
  8
1
  6
Continuous
100
AcDbCircle
 10
499.8499999999999
 20
165.0
 30
0.0
 40
0.75
100
AcDbArc
 50
90.0
 51
270.0
  0
LINE
  5
11ABD
330
11816
100
AcDbEntity
  8
1
  6
Continuous
100
AcDbLine
 10
499.8499999999999
 20
165.7499999999998
 30
0.0
 11
503.6
 21
165.7499999999998
 31
0.0
  0
ARC
  5
11ABE
330
11816
100
AcDbEntity
  8
1
  6
Continuous
100
AcDbCircle
 10
503.6
 20
167.25
 30
0.0
 40
1.5
100
AcDbArc
 50
270.0
 51
0.0
  0
LINE
  5
11ABF
330
11816
100
AcDbEntity
  8
1
  6
Continuous
100
AcDbLine
 10
505.1
 20
162.6624999999999
 30
0.0
 11
505.1
 21
160.4999999999998
 31
0.0
  0
ARC
  5
11AC0
330
11816
100
AcDbEntity
  8
1
  6
Continuous
100
AcDbCircle
 10
502.0999999999999
 20
182.2499999999998
 30
0.0
 40
1.0
100
AcDbArc
 50
270.0
 51
0.0
  0
ARC
  5
11AC1
330
11816
100
AcDbEntity
  8
1
  6
Continuous
100
AcDbCircle
 10
502.0999999999999
 20
163.25
 30
0.0
 40
1.0
100
AcDbArc
 50
0.0
 51
90.0
  0
LINE
  5
11AC2
330
11816
100
AcDbEntity
  8
3
  6
DASHED
100
AcDbLine
 10
505.1
 20
427.2375
 30
0.0
 11
505.1
 21
429.3999999999998
 31
0.0
  0
LINE
  5
11AC3
330
11816
100
AcDbEntity
  8
3
  6
DASHED
100
AcDbLine
 10
503.1
 20
426.6499999999998
 30
0.0
 11
503.1
 21
427.2375
 31
0.0
  0
ARC
  5
11AC4
330
11816
100
AcDbEntity
  8
3
  6
DASHED
100
AcDbCircle
 10
502.0999999999999
 20
426.6499999999998
 30
0.0
 40
1.0
100
AcDbArc
 50
270.0
 51
0.0
  0
LINE
  5
11AC5
330
11816
100
AcDbEntity
  8
3
  6
DASHED
100
AcDbLine
 10
499.8499999999999
 20
425.6499999999999
 30
0.0
 11
502.0999999999999
 21
425.6499999999999
 31
0.0
  0
ARC
  5
11AC6
330
11816
100
AcDbEntity
  8
3
  6
DASHED
100
AcDbCircle
 10
499.8499999999999
 20
424.8999999999998
 30
0.0
 40
0.75
100
AcDbArc
 50
90.0
 51
270.0
  0
LINE
  5
11AC7
330
11816
100
AcDbEntity
  8
3
  6
DASHED
100
AcDbLine
 10
499.8499999999999
 20
424.15
 30
0.0
 11
503.6
 21
424.15
 31
0.0
  0
ARC
  5
11AC8
330
11816
100
AcDbEntity
  8
3
  6
DASHED
100
AcDbCircle
 10
503.6
 20
422.6499999999998
 30
0.0
 40
1.5
100
AcDbArc
 50
0.0
 51
90.0
  0
LINE
  5
11AC9
330
11816
100
AcDbEntity
  8
3
  6
DASHED
100
AcDbLine
 10
505.1
 20
411.65
 30
0.0
 11
505.1
 21
422.6499999999998
 31
0.0
  0
ARC
  5
11ACA
330
11816
100
AcDbEntity
  8
3
  6
DASHED
100
AcDbCircle
 10
503.6
 20
411.65
 30
0.0
 40
1.5
100
AcDbArc
 50
270.0
 51
0.0
  0
LINE
  5
11ACB
330
11816
100
AcDbEntity
  8
3
  6
DASHED
100
AcDbLine
 10
499.8499999999999
 20
410.1499999999998
 30
0.0
 11
503.6
 21
410.1499999999998
 31
0.0
  0
LINE
  5
11ACC
330
11816
100
AcDbEntity
  8
3
  6
DASHED
100
AcDbLine
 10
499.8499999999999
 20
408.65
 30
0.0
 11
502.0999999999999
 21
408.65
 31
0.0
  0
ARC
  5
11ACD
330
11816
100
AcDbEntity
  8
3
  6
DASHED
100
AcDbCircle
 10
499.8499999999999
 20
409.3999999999998
 30
0.0
 40
0.75
100
AcDbArc
 50
90.0
 51
270.0
  0
ARC
  5
11ACE
330
11816
100
AcDbEntity
  8
3
  6
DASHED
100
AcDbCircle
 10
502.0999999999999
 20
407.65
 30
0.0
 40
1.0
100
AcDbArc
 50
0.0
 51
90.0
  0
LINE
  5
11ACF
330
11816
100
AcDbEntity
  8
3
  6
DASHED
100
AcDbLine
 10
503.1
 20
407.65
 30
0.0
 11
503.1
 21
407.0624999999997
 31
0.0
  0
LINE
  5
11AD0
330
11816
100
AcDbEntity
  8
3
  6
DASHED
100
AcDbLine
 10
505.1
 20
407.0624999999997
 30
0.0
 11
505.1
 21
404.8999999999998
 31
0.0
  0
LINE
  5
11AD1
330
11816
100
AcDbEntity
  8
1
  6
Continuous
100
AcDbLine
 10
503.1
 20
182.8375
 30
0.0
 11
505.1
 21
182.8375
 31
0.0
  0
LINE
  5
11AD2
330
11816
100
AcDbEntity
  8
1
  6
Continuous
100
AcDbLine
 10
503.1
 20
162.6624999999999
 30
0.0
 11
505.1
 21
162.6624999999999
 31
0.0
  0
ARC
  5
11AD3
330
11816
100
AcDbEntity
  8
1
  6
Continuous
100
AcDbCircle
 10
794.35
 20
159.08125
 30
0.0
 40
2.38125
100
AcDbArc
 50
13.81839
 51
166.18161
  0
LINE
  5
11AD4
330
11816
100
AcDbEntity
  8
1
  6
Continuous
100
AcDbLine
 10
789.1
 20
159.6499999999998
 30
0.0
 11
799.6
 21
159.6499999999998
 31
0.0
  0
LINE
  5
11AD5
330
11816
100
AcDbEntity
  8
1
  6
Continuous
100
AcDbLine
 10
789.1
 20
159.15
 30
0.0
 11
799.6
 21
159.15
 31
0.0
  0
ARC
  5
11AD6
330
11816
100
AcDbEntity
  8
1
  6
Continuous
100
AcDbCircle
 10
794.35
 20
159.08125
 30
0.0
 40
2.38125
100
AcDbArc
 50
178.345561
 51
201.6652959999999
  0
LINE
  5
11AD7
330
11816
100
AcDbEntity
  8
1
  6
Continuous
100
AcDbLine
 10
791.3499999999997
 20
159.6499999999998
 30
0.0
 11
791.3499999999997
 21
163.25
 31
0.0
  0
LINE
  5
11AD8
330
11816
100
AcDbEntity
  8
1
  6
Continuous
100
AcDbLine
 10
789.1
 20
159.15
 30
0.0
 11
789.1
 21
159.6499999999998
 31
0.0
  0
ARC
  5
11AD9
330
11816
100
AcDbEntity
  8
1
  6
Continuous
100
AcDbCircle
 10
794.35
 20
159.08125
 30
0.0
 40
2.38125
100
AcDbArc
 50
338.3347039999998
 51
1.654438999999999
  0
LINE
  5
11ADA
330
11816
100
AcDbEntity
  8
1
  6
Continuous
100
AcDbLine
 10
799.6
 20
159.15
 30
0.0
 11
799.6
 21
159.6499999999998
 31
0.0
  0
ARC
  5
11ADB
330
11816
100
AcDbEntity
  8
1
  6
Continuous
100
AcDbCircle
 10
794.35
 20
186.4187499999999
 30
0.0
 40
2.38125
100
AcDbArc
 50
193.81839
 51
346.18161
  0
LINE
  5
11ADC
330
11816
100
AcDbEntity
  8
1
  6
Continuous
100
AcDbLine
 10
789.1
 20
186.3499999999999
 30
0.0
 11
799.6
 21
186.3499999999999
 31
0.0
  0
LINE
  5
11ADD
330
11816
100
AcDbEntity
  8
1
  6
Continuous
100
AcDbLine
 10
789.1
 20
185.85
 30
0.0
 11
799.6
 21
185.85
 31
0.0
  0
ARC
  5
11ADE
330
11816
100
AcDbEntity
  8
1
  6
Continuous
100
AcDbCircle
 10
794.35
 20
186.4187499999999
 30
0.0
 40
2.38125
100
AcDbArc
 50
158.3347039999999
 51
181.6544389999999
  0
LINE
  5
11ADF
330
11816
100
AcDbEntity
  8
1
  6
Continuous
100
AcDbLine
 10
791.3499999999997
 20
185.85
 30
0.0
 11
791.3499999999997
 21
182.2499999999998
 31
0.0
  0
LINE
  5
11AE0
330
11816
100
AcDbEntity
  8
1
  6
Continuous
100
AcDbLine
 10
789.1
 20
186.3499999999999
 30
0.0
 11
789.1
 21
185.85
 31
0.0
  0
LINE
  5
11AE1
330
11816
100
AcDbEntity
  8
1
  6
Continuous
100
AcDbLine
 10
799.6
 20
186.3499999999999
 30
0.0
 11
799.6
 21
185.85
 31
0.0
  0
ARC
  5
11AE2
330
11816
100
AcDbEntity
  8
1
  6
Continuous
100
AcDbCircle
 10
794.35
 20
186.4187499999999
 30
0.0
 40
2.38125
100
AcDbArc
 50
358.3455609999999
 51
21.665296
  0
LINE
  5
11AE3
330
11816
100
AcDbEntity
  8
1
  6
Continuous
100
AcDbLine
 10
797.35
 20
182.2499999999998
 30
0.0
 11
804.0499999999997
 21
182.2499999999998
 31
0.0
  0
LINE
  5
11AE4
330
11816
100
AcDbEntity
  8
1
  6
Continuous
100
AcDbLine
 10
797.35
 20
185.85
 30
0.0
 11
797.35
 21
182.2499999999998
 31
0.0
  0
LINE
  5
11AE5
330
11816
100
AcDbEntity
  8
1
  6
Continuous
100
AcDbLine
 10
797.35
 20
163.25
 30
0.0
 11
804.0499999999997
 21
163.25
 31
0.0
  0
LINE
  5
11AE6
330
11816
100
AcDbEntity
  8
1
  6
Continuous
100
AcDbLine
 10
797.35
 20
159.6499999999998
 30
0.0
 11
797.35
 21
163.25
 31
0.0
  0
ARC
  5
11AE7
330
11816
100
AcDbEntity
  8
1
  6
Continuous
100
AcDbCircle
 10
380.0499999999999
 20
186.4187499999999
 30
0.0
 40
2.38125
100
AcDbArc
 50
158.3347039999999
 51
181.6544389999999
  0
ARC
  5
11AE8
330
11816
100
AcDbEntity
  8
1
  6
Continuous
100
AcDbCircle
 10
380.0499999999999
 20
186.4187499999999
 30
0.0
 40
2.38125
100
AcDbArc
 50
193.81839
 51
216.5697209999999
  0
ARC
  5
11AE9
330
11816
100
AcDbEntity
  8
1
  6
Continuous
100
AcDbCircle
 10
380.0499999999999
 20
186.4187499999999
 30
0.0
 40
2.38125
100
AcDbArc
 50
323.430279
 51
346.18161
  0
ARC
  5
11AEA
330
11816
100
AcDbEntity
  8
1
  6
Continuous
100
AcDbCircle
 10
380.0499999999999
 20
186.4187499999999
 30
0.0
 40
2.38125
100
AcDbArc
 50
358.3455609999999
 51
21.665296
  0
LINE
  5
11AEB
330
11816
100
AcDbEntity
  8
1
  6
Continuous
100
AcDbLine
 10
385.3
 20
186.3499999999999
 30
0.0
 11
385.3
 21
185.85
 31
0.0
  0
LINE
  5
11AEC
330
11816
100
AcDbEntity
  8
1
  6
Continuous
100
AcDbLine
 10
383.05
 20
185.85
 30
0.0
 11
383.05
 21
185.0
 31
0.0
  0
LINE
  5
11AED
330
11816
100
AcDbEntity
  8
1
  6
Continuous
100
AcDbLine
 10
377.05
 20
185.85
 30
0.0
 11
377.05
 21
185.0
 31
0.0
  0
LINE
  5
11AEE
330
11816
100
AcDbEntity
  8
1
  6
Continuous
100
AcDbLine
 10
374.8
 20
186.3499999999999
 30
0.0
 11
374.8
 21
185.85
 31
0.0
  0
LINE
  5
11AEF
330
11816
100
AcDbEntity
  8
1
  6
Continuous
100
AcDbLine
 10
374.8
 20
185.85
 30
0.0
 11
385.3
 21
185.85
 31
0.0
  0
LINE
  5
11AF0
330
11816
100
AcDbEntity
  8
1
  6
Continuous
100
AcDbLine
 10
374.8
 20
186.3499999999999
 30
0.0
 11
385.3
 21
186.3499999999999
 31
0.0
  0
ARC
  5
11AF1
330
11816
100
AcDbEntity
  8
1
  6
Continuous
100
AcDbCircle
 10
380.0499999999999
 20
159.08125
 30
0.0
 40
2.38125
100
AcDbArc
 50
338.3347039999998
 51
1.654438999999999
  0
ARC
  5
11AF2
330
11816
100
AcDbEntity
  8
1
  6
Continuous
100
AcDbCircle
 10
380.0499999999999
 20
159.08125
 30
0.0
 40
2.38125
100
AcDbArc
 50
13.81839
 51
36.569721
  0
ARC
  5
11AF3
330
11816
100
AcDbEntity
  8
1
  6
Continuous
100
AcDbCircle
 10
380.0499999999999
 20
159.08125
 30
0.0
 40
2.38125
100
AcDbArc
 50
143.430279
 51
166.18161
  0
ARC
  5
11AF4
330
11816
100
AcDbEntity
  8
1
  6
Continuous
100
AcDbCircle
 10
380.0499999999999
 20
159.08125
 30
0.0
 40
2.38125
100
AcDbArc
 50
178.345561
 51
201.6652959999999
  0
LINE
  5
11AF5
330
11816
100
AcDbEntity
  8
1
  6
Continuous
100
AcDbLine
 10
385.3
 20
159.15
 30
0.0
 11
385.3
 21
159.6499999999998
 31
0.0
  0
LINE
  5
11AF6
330
11816
100
AcDbEntity
  8
1
  6
Continuous
100
AcDbLine
 10
383.05
 20
159.6499999999998
 30
0.0
 11
383.05
 21
160.4999999999998
 31
0.0
  0
LINE
  5
11AF7
330
11816
100
AcDbEntity
  8
1
  6
Continuous
100
AcDbLine
 10
377.05
 20
159.6499999999998
 30
0.0
 11
377.05
 21
160.4999999999998
 31
0.0
  0
LINE
  5
11AF8
330
11816
100
AcDbEntity
  8
1
  6
Continuous
100
AcDbLine
 10
374.8
 20
159.15
 30
0.0
 11
374.8
 21
159.6499999999998
 31
0.0
  0
LINE
  5
11AF9
330
11816
100
AcDbEntity
  8
1
  6
Continuous
100
AcDbLine
 10
374.8
 20
159.15
 30
0.0
 11
385.3
 21
159.15
 31
0.0
  0
LINE
  5
11AFA
330
11816
100
AcDbEntity
  8
1
  6
Continuous
100
AcDbLine
 10
374.8
 20
159.6499999999998
 30
0.0
 11
385.3
 21
159.6499999999998
 31
0.0
  0
ARC
  5
11AFB
330
11816
100
AcDbEntity
  8
1
  6
Continuous
100
AcDbCircle
 10
430.85
 20
186.4187499999999
 30
0.0
 40
2.38125
100
AcDbArc
 50
158.3347039999999
 51
181.6544389999999
  0
ARC
  5
11AFC
330
11816
100
AcDbEntity
  8
1
  6
Continuous
100
AcDbCircle
 10
430.85
 20
186.4187499999999
 30
0.0
 40
2.38125
100
AcDbArc
 50
193.81839
 51
216.5697209999999
  0
ARC
  5
11AFD
330
11816
100
AcDbEntity
  8
1
  6
Continuous
100
AcDbCircle
 10
430.85
 20
186.4187499999999
 30
0.0
 40
2.38125
100
AcDbArc
 50
323.430279
 51
346.18161
  0
ARC
  5
11AFE
330
11816
100
AcDbEntity
  8
1
  6
Continuous
100
AcDbCircle
 10
430.85
 20
186.4187499999999
 30
0.0
 40
2.38125
100
AcDbArc
 50
358.3455609999999
 51
21.665296
  0
LINE
  5
11AFF
330
11816
100
AcDbEntity
  8
1
  6
Continuous
100
AcDbLine
 10
436.1
 20
186.3499999999999
 30
0.0
 11
436.1
 21
185.85
 31
0.0
  0
LINE
  5
11B00
330
11816
100
AcDbEntity
  8
1
  6
Continuous
100
AcDbLine
 10
433.85
 20
185.85
 30
0.0
 11
433.85
 21
185.0
 31
0.0
  0
LINE
  5
11B01
330
11816
100
AcDbEntity
  8
1
  6
Continuous
100
AcDbLine
 10
427.85
 20
185.85
 30
0.0
 11
427.85
 21
185.0
 31
0.0
  0
LINE
  5
11B02
330
11816
100
AcDbEntity
  8
1
  6
Continuous
100
AcDbLine
 10
425.6
 20
186.3499999999999
 30
0.0
 11
425.6
 21
185.85
 31
0.0
  0
LINE
  5
11B03
330
11816
100
AcDbEntity
  8
1
  6
Continuous
100
AcDbLine
 10
425.6
 20
185.85
 30
0.0
 11
436.1
 21
185.85
 31
0.0
  0
LINE
  5
11B04
330
11816
100
AcDbEntity
  8
1
  6
Continuous
100
AcDbLine
 10
425.6
 20
186.3499999999999
 30
0.0
 11
436.1
 21
186.3499999999999
 31
0.0
  0
LINE
  5
11B05
330
11816
100
AcDbEntity
  8
1
  6
Continuous
100
AcDbLine
 10
438.3
 20
186.3499999999999
 30
0.0
 11
448.8
 21
186.3499999999999
 31
0.0
  0
LINE
  5
11B06
330
11816
100
AcDbEntity
  8
1
  6
Continuous
100
AcDbLine
 10
438.3
 20
185.85
 30
0.0
 11
448.8
 21
185.85
 31
0.0
  0
LINE
  5
11B07
330
11816
100
AcDbEntity
  8
1
  6
Continuous
100
AcDbLine
 10
438.3
 20
186.3499999999999
 30
0.0
 11
438.3
 21
185.85
 31
0.0
  0
LINE
  5
11B08
330
11816
100
AcDbEntity
  8
1
  6
Continuous
100
AcDbLine
 10
440.5499999999998
 20
185.85
 30
0.0
 11
440.5499999999998
 21
185.0
 31
0.0
  0
LINE
  5
11B09
330
11816
100
AcDbEntity
  8
1
  6
Continuous
100
AcDbLine
 10
446.55
 20
185.85
 30
0.0
 11
446.55
 21
185.0
 31
0.0
  0
LINE
  5
11B0A
330
11816
100
AcDbEntity
  8
1
  6
Continuous
100
AcDbLine
 10
448.8
 20
186.3499999999999
 30
0.0
 11
448.8
 21
185.85
 31
0.0
  0
ARC
  5
11B0B
330
11816
100
AcDbEntity
  8
1
  6
Continuous
100
AcDbCircle
 10
443.55
 20
186.4187499999999
 30
0.0
 40
2.38125
100
AcDbArc
 50
358.3455609999999
 51
21.665296
  0
ARC
  5
11B0C
330
11816
100
AcDbEntity
  8
1
  6
Continuous
100
AcDbCircle
 10
443.55
 20
186.4187499999999
 30
0.0
 40
2.38125
100
AcDbArc
 50
323.430279
 51
346.18161
  0
ARC
  5
11B0D
330
11816
100
AcDbEntity
  8
1
  6
Continuous
100
AcDbCircle
 10
443.55
 20
186.4187499999999
 30
0.0
 40
2.38125
100
AcDbArc
 50
193.81839
 51
216.5697209999999
  0
ARC
  5
11B0E
330
11816
100
AcDbEntity
  8
1
  6
Continuous
100
AcDbCircle
 10
443.55
 20
186.4187499999999
 30
0.0
 40
2.38125
100
AcDbArc
 50
158.3347039999999
 51
181.6544389999999
  0
ARC
  5
11B0F
330
11816
100
AcDbEntity
  8
1
  6
Continuous
100
AcDbCircle
 10
430.85
 20
159.08125
 30
0.0
 40
2.38125
100
AcDbArc
 50
338.3347039999998
 51
1.654438999999999
  0
ARC
  5
11B10
330
11816
100
AcDbEntity
  8
1
  6
Continuous
100
AcDbCircle
 10
430.85
 20
159.08125
 30
0.0
 40
2.38125
100
AcDbArc
 50
13.81839
 51
36.569721
  0
ARC
  5
11B11
330
11816
100
AcDbEntity
  8
1
  6
Continuous
100
AcDbCircle
 10
430.85
 20
159.08125
 30
0.0
 40
2.38125
100
AcDbArc
 50
143.430279
 51
166.18161
  0
ARC
  5
11B12
330
11816
100
AcDbEntity
  8
1
  6
Continuous
100
AcDbCircle
 10
430.85
 20
159.08125
 30
0.0
 40
2.38125
100
AcDbArc
 50
178.345561
 51
201.6652959999999
  0
LINE
  5
11B13
330
11816
100
AcDbEntity
  8
1
  6
Continuous
100
AcDbLine
 10
436.1
 20
159.15
 30
0.0
 11
436.1
 21
159.6499999999998
 31
0.0
  0
LINE
  5
11B14
330
11816
100
AcDbEntity
  8
1
  6
Continuous
100
AcDbLine
 10
433.85
 20
159.6499999999998
 30
0.0
 11
433.85
 21
160.4999999999998
 31
0.0
  0
LINE
  5
11B15
330
11816
100
AcDbEntity
  8
1
  6
Continuous
100
AcDbLine
 10
427.85
 20
159.6499999999998
 30
0.0
 11
427.85
 21
160.4999999999998
 31
0.0
  0
LINE
  5
11B16
330
11816
100
AcDbEntity
  8
1
  6
Continuous
100
AcDbLine
 10
425.6
 20
159.15
 30
0.0
 11
425.6
 21
159.6499999999998
 31
0.0
  0
LINE
  5
11B17
330
11816
100
AcDbEntity
  8
1
  6
Continuous
100
AcDbLine
 10
425.6
 20
159.15
 30
0.0
 11
436.1
 21
159.15
 31
0.0
  0
LINE
  5
11B18
330
11816
100
AcDbEntity
  8
1
  6
Continuous
100
AcDbLine
 10
425.6
 20
159.6499999999998
 30
0.0
 11
436.1
 21
159.6499999999998
 31
0.0
  0
LINE
  5
11B19
330
11816
100
AcDbEntity
  8
1
  6
Continuous
100
AcDbLine
 10
438.3
 20
159.6499999999998
 30
0.0
 11
448.8
 21
159.6499999999998
 31
0.0
  0
LINE
  5
11B1A
330
11816
100
AcDbEntity
  8
1
  6
Continuous
100
AcDbLine
 10
438.3
 20
159.15
 30
0.0
 11
448.8
 21
159.15
 31
0.0
  0
LINE
  5
11B1B
330
11816
100
AcDbEntity
  8
1
  6
Continuous
100
AcDbLine
 10
438.3
 20
159.15
 30
0.0
 11
438.3
 21
159.6499999999998
 31
0.0
  0
LINE
  5
11B1C
330
11816
100
AcDbEntity
  8
1
  6
Continuous
100
AcDbLine
 10
440.5499999999998
 20
159.6499999999998
 30
0.0
 11
440.5499999999998
 21
160.4999999999998
 31
0.0
  0
LINE
  5
11B1D
330
11816
100
AcDbEntity
  8
1
  6
Continuous
100
AcDbLine
 10
446.55
 20
159.6499999999998
 30
0.0
 11
446.55
 21
160.4999999999998
 31
0.0
  0
LINE
  5
11B1E
330
11816
100
AcDbEntity
  8
1
  6
Continuous
100
AcDbLine
 10
448.8
 20
159.15
 30
0.0
 11
448.8
 21
159.6499999999998
 31
0.0
  0
ARC
  5
11B1F
330
11816
100
AcDbEntity
  8
1
  6
Continuous
100
AcDbCircle
 10
443.55
 20
159.08125
 30
0.0
 40
2.38125
100
AcDbArc
 50
178.345561
 51
201.6652959999999
  0
ARC
  5
11B20
330
11816
100
AcDbEntity
  8
1
  6
Continuous
100
AcDbCircle
 10
443.55
 20
159.08125
 30
0.0
 40
2.38125
100
AcDbArc
 50
143.430279
 51
166.18161
  0
ARC
  5
11B21
330
11816
100
AcDbEntity
  8
1
  6
Continuous
100
AcDbCircle
 10
443.55
 20
159.08125
 30
0.0
 40
2.38125
100
AcDbArc
 50
13.81839
 51
36.569721
  0
ARC
  5
11B22
330
11816
100
AcDbEntity
  8
1
  6
Continuous
100
AcDbCircle
 10
443.55
 20
159.08125
 30
0.0
 40
2.38125
100
AcDbArc
 50
338.3347039999998
 51
1.654438999999999
  0
LINE
  5
11B23
330
11816
100
AcDbEntity
  8
1
  6
Continuous
100
AcDbLine
 10
451.0
 20
186.3499999999999
 30
0.0
 11
461.5
 21
186.3499999999999
 31
0.0
  0
LINE
  5
11B24
330
11816
100
AcDbEntity
  8
1
  6
Continuous
100
AcDbLine
 10
451.0
 20
185.85
 30
0.0
 11
461.5
 21
185.85
 31
0.0
  0
LINE
  5
11B25
330
11816
100
AcDbEntity
  8
1
  6
Continuous
100
AcDbLine
 10
451.0
 20
186.3499999999999
 30
0.0
 11
451.0
 21
185.85
 31
0.0
  0
LINE
  5
11B26
330
11816
100
AcDbEntity
  8
1
  6
Continuous
100
AcDbLine
 10
453.2499999999997
 20
185.85
 30
0.0
 11
453.2499999999997
 21
185.0
 31
0.0
  0
ARC
  5
11B27
330
11816
100
AcDbEntity
  8
1
  6
Continuous
100
AcDbCircle
 10
456.25
 20
186.4187499999999
 30
0.0
 40
2.38125
100
AcDbArc
 50
193.81839
 51
216.5697209999999
  0
ARC
  5
11B28
330
11816
100
AcDbEntity
  8
1
  6
Continuous
100
AcDbCircle
 10
456.25
 20
186.4187499999999
 30
0.0
 40
2.38125
100
AcDbArc
 50
158.3347039999999
 51
181.6544389999999
  0
LINE
  5
11B29
330
11816
100
AcDbEntity
  8
1
  6
Continuous
100
AcDbLine
 10
463.6999999999998
 20
185.85
 30
0.0
 11
474.1999999999999
 21
185.85
 31
0.0
  0
LINE
  5
11B2A
330
11816
100
AcDbEntity
  8
1
  6
Continuous
100
AcDbLine
 10
463.6999999999998
 20
186.3499999999999
 30
0.0
 11
474.1999999999999
 21
186.3499999999999
 31
0.0
  0
ARC
  5
11B2B
330
11816
100
AcDbEntity
  8
1
  6
Continuous
100
AcDbCircle
 10
468.9499999999998
 20
186.4187499999999
 30
0.0
 40
2.38125
100
AcDbArc
 50
158.3347039999999
 51
181.6544389999999
  0
ARC
  5
11B2C
330
11816
100
AcDbEntity
  8
1
  6
Continuous
100
AcDbCircle
 10
468.9499999999998
 20
186.4187499999999
 30
0.0
 40
2.38125
100
AcDbArc
 50
193.81839
 51
216.5697209999999
  0
ARC
  5
11B2D
330
11816
100
AcDbEntity
  8
1
  6
Continuous
100
AcDbCircle
 10
468.9499999999998
 20
186.4187499999999
 30
0.0
 40
2.38125
100
AcDbArc
 50
323.430279
 51
346.18161
  0
ARC
  5
11B2E
330
11816
100
AcDbEntity
  8
1
  6
Continuous
100
AcDbCircle
 10
468.9499999999998
 20
186.4187499999999
 30
0.0
 40
2.38125
100
AcDbArc
 50
358.3455609999999
 51
21.665296
  0
LINE
  5
11B2F
330
11816
100
AcDbEntity
  8
1
  6
Continuous
100
AcDbLine
 10
471.95
 20
185.85
 30
0.0
 11
471.95
 21
185.0
 31
0.0
  0
LINE
  5
11B30
330
11816
100
AcDbEntity
  8
1
  6
Continuous
100
AcDbLine
 10
465.95
 20
185.85
 30
0.0
 11
465.95
 21
185.0
 31
0.0
  0
LINE
  5
11B31
330
11816
100
AcDbEntity
  8
1
  6
Continuous
100
AcDbLine
 10
463.6999999999998
 20
186.3499999999999
 30
0.0
 11
463.6999999999998
 21
185.85
 31
0.0
  0
LINE
  5
11B32
330
11816
100
AcDbEntity
  8
1
  6
Continuous
100
AcDbLine
 10
459.25
 20
185.85
 30
0.0
 11
459.25
 21
185.0
 31
0.0
  0
LINE
  5
11B33
330
11816
100
AcDbEntity
  8
1
  6
Continuous
100
AcDbLine
 10
461.5
 20
186.3499999999999
 30
0.0
 11
461.5
 21
185.85
 31
0.0
  0
ARC
  5
11B34
330
11816
100
AcDbEntity
  8
1
  6
Continuous
100
AcDbCircle
 10
456.25
 20
186.4187499999999
 30
0.0
 40
2.38125
100
AcDbArc
 50
358.3455609999999
 51
21.665296
  0
ARC
  5
11B35
330
11816
100
AcDbEntity
  8
1
  6
Continuous
100
AcDbCircle
 10
456.25
 20
186.4187499999999
 30
0.0
 40
2.38125
100
AcDbArc
 50
323.430279
 51
346.18161
  0
LINE
  5
11B36
330
11816
100
AcDbEntity
  8
1
  6
Continuous
100
AcDbLine
 10
474.1999999999999
 20
186.3499999999999
 30
0.0
 11
474.1999999999999
 21
185.85
 31
0.0
  0
LINE
  5
11B37
330
11816
100
AcDbEntity
  8
1
  6
Continuous
100
AcDbLine
 10
451.0
 20
159.6499999999998
 30
0.0
 11
461.5
 21
159.6499999999998
 31
0.0
  0
LINE
  5
11B38
330
11816
100
AcDbEntity
  8
1
  6
Continuous
100
AcDbLine
 10
451.0
 20
159.15
 30
0.0
 11
461.5
 21
159.15
 31
0.0
  0
LINE
  5
11B39
330
11816
100
AcDbEntity
  8
1
  6
Continuous
100
AcDbLine
 10
451.0
 20
159.15
 30
0.0
 11
451.0
 21
159.6499999999998
 31
0.0
  0
LINE
  5
11B3A
330
11816
100
AcDbEntity
  8
1
  6
Continuous
100
AcDbLine
 10
453.2499999999997
 20
159.6499999999998
 30
0.0
 11
453.2499999999997
 21
160.4999999999998
 31
0.0
  0
ARC
  5
11B3B
330
11816
100
AcDbEntity
  8
1
  6
Continuous
100
AcDbCircle
 10
456.25
 20
159.08125
 30
0.0
 40
2.38125
100
AcDbArc
 50
178.345561
 51
201.6652959999999
  0
ARC
  5
11B3C
330
11816
100
AcDbEntity
  8
1
  6
Continuous
100
AcDbCircle
 10
456.25
 20
159.08125
 30
0.0
 40
2.38125
100
AcDbArc
 50
143.430279
 51
166.18161
  0
LINE
  5
11B3D
330
11816
100
AcDbEntity
  8
1
  6
Continuous
100
AcDbLine
 10
463.6999999999998
 20
159.15
 30
0.0
 11
474.1999999999999
 21
159.15
 31
0.0
  0
LINE
  5
11B3E
330
11816
100
AcDbEntity
  8
1
  6
Continuous
100
AcDbLine
 10
463.6999999999998
 20
159.6499999999998
 30
0.0
 11
474.1999999999999
 21
159.6499999999998
 31
0.0
  0
ARC
  5
11B3F
330
11816
100
AcDbEntity
  8
1
  6
Continuous
100
AcDbCircle
 10
468.9499999999998
 20
159.08125
 30
0.0
 40
2.38125
100
AcDbArc
 50
338.3347039999998
 51
1.654438999999999
  0
ARC
  5
11B40
330
11816
100
AcDbEntity
  8
1
  6
Continuous
100
AcDbCircle
 10
468.9499999999998
 20
159.08125
 30
0.0
 40
2.38125
100
AcDbArc
 50
13.81839
 51
36.569721
  0
ARC
  5
11B41
330
11816
100
AcDbEntity
  8
1
  6
Continuous
100
AcDbCircle
 10
468.9499999999998
 20
159.08125
 30
0.0
 40
2.38125
100
AcDbArc
 50
143.430279
 51
166.18161
  0
ARC
  5
11B42
330
11816
100
AcDbEntity
  8
1
  6
Continuous
100
AcDbCircle
 10
468.9499999999998
 20
159.08125
 30
0.0
 40
2.38125
100
AcDbArc
 50
178.345561
 51
201.6652959999999
  0
LINE
  5
11B43
330
11816
100
AcDbEntity
  8
1
  6
Continuous
100
AcDbLine
 10
471.95
 20
159.6499999999998
 30
0.0
 11
471.95
 21
160.4999999999998
 31
0.0
  0
LINE
  5
11B44
330
11816
100
AcDbEntity
  8
1
  6
Continuous
100
AcDbLine
 10
465.95
 20
159.6499999999998
 30
0.0
 11
465.95
 21
160.4999999999998
 31
0.0
  0
LINE
  5
11B45
330
11816
100
AcDbEntity
  8
1
  6
Continuous
100
AcDbLine
 10
463.6999999999998
 20
159.15
 30
0.0
 11
463.6999999999998
 21
159.6499999999998
 31
0.0
  0
LINE
  5
11B46
330
11816
100
AcDbEntity
  8
1
  6
Continuous
100
AcDbLine
 10
459.25
 20
159.6499999999998
 30
0.0
 11
459.25
 21
160.4999999999998
 31
0.0
  0
LINE
  5
11B47
330
11816
100
AcDbEntity
  8
1
  6
Continuous
100
AcDbLine
 10
461.5
 20
159.15
 30
0.0
 11
461.5
 21
159.6499999999998
 31
0.0
  0
ARC
  5
11B48
330
11816
100
AcDbEntity
  8
1
  6
Continuous
100
AcDbCircle
 10
456.25
 20
159.08125
 30
0.0
 40
2.38125
100
AcDbArc
 50
13.81839
 51
36.569721
  0
ARC
  5
11B49
330
11816
100
AcDbEntity
  8
1
  6
Continuous
100
AcDbCircle
 10
456.25
 20
159.08125
 30
0.0
 40
2.38125
100
AcDbArc
 50
338.3347039999998
 51
1.654438999999999
  0
LINE
  5
11B4A
330
11816
100
AcDbEntity
  8
1
  6
Continuous
100
AcDbLine
 10
474.1999999999999
 20
159.15
 30
0.0
 11
474.1999999999999
 21
159.6499999999998
 31
0.0
  0
LINE
  5
11B4B
330
11816
100
AcDbEntity
  8
1
  6
Continuous
100
AcDbLine
 10
489.1
 20
186.3499999999999
 30
0.0
 11
499.6
 21
186.3499999999999
 31
0.0
  0
LINE
  5
11B4C
330
11816
100
AcDbEntity
  8
1
  6
Continuous
100
AcDbLine
 10
489.1
 20
185.85
 30
0.0
 11
499.6
 21
185.85
 31
0.0
  0
ARC
  5
11B4D
330
11816
100
AcDbEntity
  8
1
  6
Continuous
100
AcDbCircle
 10
481.6499999999998
 20
186.4187499999999
 30
0.0
 40
2.38125
100
AcDbArc
 50
323.430279
 51
346.18161
  0
ARC
  5
11B4E
330
11816
100
AcDbEntity
  8
1
  6
Continuous
100
AcDbCircle
 10
481.6499999999998
 20
186.4187499999999
 30
0.0
 40
2.38125
100
AcDbArc
 50
358.3455609999999
 51
21.665296
  0
LINE
  5
11B4F
330
11816
100
AcDbEntity
  8
1
  6
Continuous
100
AcDbLine
 10
486.8999999999998
 20
186.3499999999999
 30
0.0
 11
486.8999999999998
 21
185.85
 31
0.0
  0
LINE
  5
11B50
330
11816
100
AcDbEntity
  8
1
  6
Continuous
100
AcDbLine
 10
484.6499999999998
 20
185.85
 30
0.0
 11
484.6499999999998
 21
185.0
 31
0.0
  0
LINE
  5
11B51
330
11816
100
AcDbEntity
  8
1
  6
Continuous
100
AcDbLine
 10
489.1
 20
186.3499999999999
 30
0.0
 11
489.1
 21
185.85
 31
0.0
  0
ARC
  5
11B52
330
11816
100
AcDbEntity
  8
1
  6
Continuous
100
AcDbCircle
 10
481.6499999999998
 20
186.4187499999999
 30
0.0
 40
2.38125
100
AcDbArc
 50
158.3347039999999
 51
181.6544389999999
  0
ARC
  5
11B53
330
11816
100
AcDbEntity
  8
1
  6
Continuous
100
AcDbCircle
 10
481.6499999999998
 20
186.4187499999999
 30
0.0
 40
2.38125
100
AcDbArc
 50
193.81839
 51
216.5697209999999
  0
LINE
  5
11B54
330
11816
100
AcDbEntity
  8
1
  6
Continuous
100
AcDbLine
 10
478.65
 20
185.85
 30
0.0
 11
478.65
 21
185.0
 31
0.0
  0
LINE
  5
11B55
330
11816
100
AcDbEntity
  8
1
  6
Continuous
100
AcDbLine
 10
476.4
 20
186.3499999999999
 30
0.0
 11
476.4
 21
185.85
 31
0.0
  0
LINE
  5
11B56
330
11816
100
AcDbEntity
  8
1
  6
Continuous
100
AcDbLine
 10
476.4
 20
185.85
 30
0.0
 11
486.8999999999998
 21
185.85
 31
0.0
  0
LINE
  5
11B57
330
11816
100
AcDbEntity
  8
1
  6
Continuous
100
AcDbLine
 10
476.4
 20
186.3499999999999
 30
0.0
 11
486.8999999999998
 21
186.3499999999999
 31
0.0
  0
LINE
  5
11B58
330
11816
100
AcDbEntity
  8
1
  6
Continuous
100
AcDbLine
 10
499.6
 20
186.3499999999999
 30
0.0
 11
499.6
 21
185.85
 31
0.0
  0
LINE
  5
11B59
330
11816
100
AcDbEntity
  8
1
  6
Continuous
100
AcDbLine
 10
491.3499999999998
 20
185.85
 30
0.0
 11
491.3499999999998
 21
185.0
 31
0.0
  0
LINE
  5
11B5A
330
11816
100
AcDbEntity
  8
1
  6
Continuous
100
AcDbLine
 10
497.35
 20
185.85
 30
0.0
 11
497.35
 21
185.0
 31
0.0
  0
ARC
  5
11B5B
330
11816
100
AcDbEntity
  8
1
  6
Continuous
100
AcDbCircle
 10
494.35
 20
186.4187499999999
 30
0.0
 40
2.38125
100
AcDbArc
 50
358.3455609999999
 51
21.665296
  0
ARC
  5
11B5C
330
11816
100
AcDbEntity
  8
1
  6
Continuous
100
AcDbCircle
 10
494.35
 20
186.4187499999999
 30
0.0
 40
2.38125
100
AcDbArc
 50
323.430279
 51
346.18161
  0
ARC
  5
11B5D
330
11816
100
AcDbEntity
  8
1
  6
Continuous
100
AcDbCircle
 10
494.35
 20
186.4187499999999
 30
0.0
 40
2.38125
100
AcDbArc
 50
193.81839
 51
216.5697209999999
  0
ARC
  5
11B5E
330
11816
100
AcDbEntity
  8
1
  6
Continuous
100
AcDbCircle
 10
494.35
 20
186.4187499999999
 30
0.0
 40
2.38125
100
AcDbArc
 50
158.3347039999999
 51
181.6544389999999
  0
LINE
  5
11B5F
330
11816
100
AcDbEntity
  8
1
  6
Continuous
100
AcDbLine
 10
489.1
 20
159.6499999999998
 30
0.0
 11
499.6
 21
159.6499999999998
 31
0.0
  0
LINE
  5
11B60
330
11816
100
AcDbEntity
  8
1
  6
Continuous
100
AcDbLine
 10
489.1
 20
159.15
 30
0.0
 11
499.6
 21
159.15
 31
0.0
  0
ARC
  5
11B61
330
11816
100
AcDbEntity
  8
1
  6
Continuous
100
AcDbCircle
 10
481.6499999999998
 20
159.08125
 30
0.0
 40
2.38125
100
AcDbArc
 50
338.3347039999998
 51
1.654438999999999
  0
ARC
  5
11B62
330
11816
100
AcDbEntity
  8
1
  6
Continuous
100
AcDbCircle
 10
481.6499999999998
 20
159.08125
 30
0.0
 40
2.38125
100
AcDbArc
 50
13.81839
 51
36.569721
  0
LINE
  5
11B63
330
11816
100
AcDbEntity
  8
1
  6
Continuous
100
AcDbLine
 10
486.8999999999998
 20
159.15
 30
0.0
 11
486.8999999999998
 21
159.6499999999998
 31
0.0
  0
LINE
  5
11B64
330
11816
100
AcDbEntity
  8
1
  6
Continuous
100
AcDbLine
 10
484.6499999999998
 20
159.6499999999998
 30
0.0
 11
484.6499999999998
 21
160.4999999999998
 31
0.0
  0
LINE
  5
11B65
330
11816
100
AcDbEntity
  8
1
  6
Continuous
100
AcDbLine
 10
489.1
 20
159.15
 30
0.0
 11
489.1
 21
159.6499999999998
 31
0.0
  0
ARC
  5
11B66
330
11816
100
AcDbEntity
  8
1
  6
Continuous
100
AcDbCircle
 10
481.6499999999998
 20
159.08125
 30
0.0
 40
2.38125
100
AcDbArc
 50
143.430279
 51
166.18161
  0
ARC
  5
11B67
330
11816
100
AcDbEntity
  8
1
  6
Continuous
100
AcDbCircle
 10
481.6499999999998
 20
159.08125
 30
0.0
 40
2.38125
100
AcDbArc
 50
178.345561
 51
201.6652959999999
  0
LINE
  5
11B68
330
11816
100
AcDbEntity
  8
1
  6
Continuous
100
AcDbLine
 10
478.65
 20
159.6499999999998
 30
0.0
 11
478.65
 21
160.4999999999998
 31
0.0
  0
LINE
  5
11B69
330
11816
100
AcDbEntity
  8
1
  6
Continuous
100
AcDbLine
 10
476.4
 20
159.15
 30
0.0
 11
476.4
 21
159.6499999999998
 31
0.0
  0
LINE
  5
11B6A
330
11816
100
AcDbEntity
  8
1
  6
Continuous
100
AcDbLine
 10
476.4
 20
159.15
 30
0.0
 11
486.8999999999998
 21
159.15
 31
0.0
  0
LINE
  5
11B6B
330
11816
100
AcDbEntity
  8
1
  6
Continuous
100
AcDbLine
 10
476.4
 20
159.6499999999998
 30
0.0
 11
486.8999999999998
 21
159.6499999999998
 31
0.0
  0
LINE
  5
11B6C
330
11816
100
AcDbEntity
  8
1
  6
Continuous
100
AcDbLine
 10
499.6
 20
159.15
 30
0.0
 11
499.6
 21
159.6499999999998
 31
0.0
  0
LINE
  5
11B6D
330
11816
100
AcDbEntity
  8
1
  6
Continuous
100
AcDbLine
 10
491.3499999999998
 20
159.6499999999998
 30
0.0
 11
491.3499999999998
 21
160.4999999999998
 31
0.0
  0
LINE
  5
11B6E
330
11816
100
AcDbEntity
  8
1
  6
Continuous
100
AcDbLine
 10
497.35
 20
159.6499999999998
 30
0.0
 11
497.35
 21
160.4999999999998
 31
0.0
  0
ARC
  5
11B6F
330
11816
100
AcDbEntity
  8
1
  6
Continuous
100
AcDbCircle
 10
494.35
 20
159.08125
 30
0.0
 40
2.38125
100
AcDbArc
 50
178.345561
 51
201.6652959999999
  0
ARC
  5
11B70
330
11816
100
AcDbEntity
  8
1
  6
Continuous
100
AcDbCircle
 10
494.35
 20
159.08125
 30
0.0
 40
2.38125
100
AcDbArc
 50
143.430279
 51
166.18161
  0
ARC
  5
11B71
330
11816
100
AcDbEntity
  8
1
  6
Continuous
100
AcDbCircle
 10
494.35
 20
159.08125
 30
0.0
 40
2.38125
100
AcDbArc
 50
13.81839
 51
36.569721
  0
ARC
  5
11B72
330
11816
100
AcDbEntity
  8
1
  6
Continuous
100
AcDbCircle
 10
494.35
 20
159.08125
 30
0.0
 40
2.38125
100
AcDbArc
 50
338.3347039999998
 51
1.654438999999999
  0
LINE
  5
11B73
330
11816
100
AcDbEntity
  8
4
  6
CENTER
100
AcDbLine
 10
513.3999999999998
 20
177.75
 30
0.0
 11
513.3999999999998
 21
167.75
 31
0.0
  0
CIRCLE
  5
11B74
330
11816
100
AcDbEntity
  8
1
  6
Continuous
100
AcDbCircle
 10
513.3999999999998
 20
172.75
 30
0.0
 40
2.0
  0
LINE
  5
11B75
330
11816
100
AcDbEntity
  8
1
  6
Continuous
100
AcDbLine
 10
565.2999999999998
 20
185.85
 30
0.0
 11
575.8
 21
185.85
 31
0.0
  0
LINE
  5
11B76
330
11816
100
AcDbEntity
  8
1
  6
Continuous
100
AcDbLine
 10
565.2999999999998
 20
186.3499999999999
 30
0.0
 11
575.8
 21
186.3499999999999
 31
0.0
  0
LINE
  5
11B77
330
11816
100
AcDbEntity
  8
1
  6
Continuous
100
AcDbLine
 10
565.2999999999998
 20
186.3499999999999
 30
0.0
 11
565.2999999999998
 21
185.85
 31
0.0
  0
LINE
  5
11B78
330
11816
100
AcDbEntity
  8
1
  6
Continuous
100
AcDbLine
 10
576.0
 20
186.3499999999999
 30
0.0
 11
576.0
 21
185.85
 31
0.0
  0
ARC
  5
11B79
330
11816
100
AcDbEntity
  8
1
  6
Continuous
100
AcDbCircle
 10
570.5499999999998
 20
186.4187499999999
 30
0.0
 40
2.38125
100
AcDbArc
 50
193.81839
 51
346.18161
  0
ARC
  5
11B7A
330
11816
100
AcDbEntity
  8
1
  6
Continuous
100
AcDbCircle
 10
570.5499999999998
 20
186.4187499999999
 30
0.0
 40
2.38125
100
AcDbArc
 50
358.3455609999999
 51
21.665296
  0
ARC
  5
11B7B
330
11816
100
AcDbEntity
  8
1
  6
Continuous
100
AcDbCircle
 10
570.5499999999998
 20
186.4187499999999
 30
0.0
 40
2.38125
100
AcDbArc
 50
158.3347039999999
 51
181.6544389999999
  0
LINE
  5
11B7C
330
11816
100
AcDbEntity
  8
1
  6
Continuous
100
AcDbLine
 10
567.5499999999998
 20
185.85
 30
0.0
 11
567.5499999999998
 21
182.2499999999998
 31
0.0
  0
LINE
  5
11B7D
330
11816
100
AcDbEntity
  8
1
  6
Continuous
100
AcDbLine
 10
560.85
 20
182.2499999999998
 30
0.0
 11
567.5499999999998
 21
182.2499999999998
 31
0.0
  0
LINE
  5
11B7E
330
11816
100
AcDbEntity
  8
1
  6
Continuous
100
AcDbLine
 10
560.85
 20
185.85
 30
0.0
 11
560.85
 21
182.2499999999998
 31
0.0
  0
LINE
  5
11B7F
330
11816
100
AcDbEntity
  8
1
  6
Continuous
100
AcDbLine
 10
560.85
 20
163.25
 30
0.0
 11
567.5499999999998
 21
163.25
 31
0.0
  0
LINE
  5
11B80
330
11816
100
AcDbEntity
  8
1
  6
Continuous
100
AcDbLine
 10
567.5499999999998
 20
159.6499999999998
 30
0.0
 11
567.5499999999998
 21
163.25
 31
0.0
  0
LINE
  5
11B81
330
11816
100
AcDbEntity
  8
1
  6
Continuous
100
AcDbLine
 10
560.85
 20
159.6499999999998
 30
0.0
 11
560.85
 21
163.25
 31
0.0
  0
LINE
  5
11B82
330
11816
100
AcDbEntity
  8
1
  6
Continuous
100
AcDbLine
 10
565.2999999999998
 20
159.6499999999998
 30
0.0
 11
575.8
 21
159.6499999999998
 31
0.0
  0
LINE
  5
11B83
330
11816
100
AcDbEntity
  8
1
  6
Continuous
100
AcDbLine
 10
565.2999999999998
 20
159.15
 30
0.0
 11
575.8
 21
159.15
 31
0.0
  0
LINE
  5
11B84
330
11816
100
AcDbEntity
  8
1
  6
Continuous
100
AcDbLine
 10
565.2999999999998
 20
159.15
 30
0.0
 11
565.2999999999998
 21
159.6499999999998
 31
0.0
  0
LINE
  5
11B85
330
11816
100
AcDbEntity
  8
1
  6
Continuous
100
AcDbLine
 10
575.8
 20
159.15
 30
0.0
 11
575.8
 21
159.6499999999998
 31
0.0
  0
ARC
  5
11B86
330
11816
100
AcDbEntity
  8
1
  6
Continuous
100
AcDbCircle
 10
570.5499999999998
 20
159.08125
 30
0.0
 40
2.38125
100
AcDbArc
 50
338.3347039999998
 51
1.654438999999999
  0
ARC
  5
11B87
330
11816
100
AcDbEntity
  8
1
  6
Continuous
100
AcDbCircle
 10
570.5499999999998
 20
159.08125
 30
0.0
 40
2.38125
100
AcDbArc
 50
178.345561
 51
201.6652959999999
  0
ARC
  5
11B88
330
11816
100
AcDbEntity
  8
1
  6
Continuous
100
AcDbCircle
 10
570.5499999999998
 20
159.08125
 30
0.0
 40
2.38125
100
AcDbArc
 50
13.81839
 51
166.18161
  0
LINE
  5
11B89
330
11816
100
AcDbEntity
  8
4
  6
CENTER
100
AcDbLine
 10
564.2000000000003
 20
177.75
 30
0.0
 11
564.2000000000003
 21
167.75
 31
0.0
  0
CIRCLE
  5
11B8A
330
11816
100
AcDbEntity
  8
1
  6
Continuous
100
AcDbCircle
 10
564.2000000000003
 20
172.75
 30
0.0
 40
2.0
  0
LINE
  5
11B8B
330
11816
100
AcDbEntity
  8
1
  6
Continuous
100
AcDbLine
 10
337.1
 20
294.8999999999998
 30
0.0
 11
743.1
 21
294.8999999999998
 31
0.0
  0
LINE
  5
11B8C
330
11816
100
AcDbEntity
  8
1
  6
Continuous
100
AcDbLine
 10
337.1
 20
286.2
 30
0.0
 11
743.1
 21
286.2
 31
0.0
  0
LINE
  5
11B8D
330
11816
100
AcDbEntity
  8
1
  6
Continuous
100
AcDbLine
 10
532.1
 20
295.0
 30
0.0
 11
741.5
 21
295.0
 31
0.0
  0
LINE
  5
11B8E
330
11816
100
AcDbEntity
  8
3
  6
DASHED
100
AcDbLine
 10
532.1
 20
301.5
 30
0.0
 11
741.5
 21
301.5
 31
0.0
  0
LINE
  5
11B8F
330
11816
100
AcDbEntity
  8
1
  6
Continuous
100
AcDbLine
 10
531.0999999999998
 20
304.4999999999999
 30
0.0
 11
937.1
 21
304.4999999999999
 31
0.0
  0
LINE
  5
11B90
330
11816
100
AcDbEntity
  8
1
  6
Continuous
100
AcDbLine
 10
531.0999999999998
 20
295.8
 30
0.0
 11
937.1
 21
295.8
 31
0.0
  0
LINE
  5
11B91
330
11816
100
AcDbEntity
  8
1
  6
Continuous
100
AcDbLine
 10
102.0999999999998
 20
291.9
 30
0.0
 11
337.1
 21
291.9
 31
0.0
  0
LINE
  5
11B92
330
11816
100
AcDbEntity
  8
1
  6
Continuous
100
AcDbLine
 10
318.1
 20
295.3999999999999
 30
0.0
 11
337.1
 21
293.3
 31
0.0
  0
LINE
  5
11B93
330
11816
100
AcDbEntity
  8
1
  6
Continuous
100
AcDbLine
 10
318.288337
 20
294.574312
 30
0.0
 11
337.1
 21
292.4951279999999
 31
0.0
  0
LINE
  5
11B94
330
11816
100
AcDbEntity
  8
1
  6
Continuous
100
AcDbLine
 10
102.0999999999998
 20
285.3999999999999
 30
0.0
 11
505.1
 21
285.3999999999999
 31
0.0
  0
LINE
  5
11B95
330
11816
100
AcDbEntity
  8
1
  6
Continuous
100
AcDbLine
 10
102.0999999999998
 20
291.9
 30
0.0
 11
102.0999999999998
 21
285.3999999999999
 31
0.0
  0
LINE
  5
11B96
330
11816
100
AcDbEntity
  8
4
  6
CENTER
100
AcDbLine
 10
118.0
 20
279.274712
 30
0.0
 11
118.0
 21
289.774712
 31
0.0
  0
LINE
  5
11B97
330
11816
100
AcDbEntity
  8
4
  6
CENTER
100
AcDbLine
 10
130.6999999999999
 20
279.274712
 30
0.0
 11
130.6999999999999
 21
289.774712
 31
0.0
  0
LINE
  5
11B98
330
11816
100
AcDbEntity
  8
4
  6
CENTER
100
AcDbLine
 10
241.8
 20
279.274712
 30
0.0
 11
241.8
 21
289.774712
 31
0.0
  0
LINE
  5
11B99
330
11816
100
AcDbEntity
  8
1
  6
Continuous
100
AcDbLine
 10
314.1
 20
292.8999999999998
 30
0.0
 11
318.1
 21
295.3999999999999
 31
0.0
  0
LINE
  5
11B9A
330
11816
100
AcDbEntity
  8
1
  6
Continuous
100
AcDbLine
 10
314.523999
 20
292.2216009999999
 30
0.0
 11
318.288337
 21
294.574312
 31
0.0
  0
LINE
  5
11B9B
330
11816
100
AcDbEntity
  8
1
  6
Continuous
100
AcDbLine
 10
314.1
 20
292.8999999999998
 30
0.0
 11
314.523999
 21
292.2216009999999
 31
0.0
  0
LINE
  5
11B9C
330
11816
100
AcDbEntity
  8
3
  6
DASHED
100
AcDbLine
 10
337.1
 20
291.9
 30
0.0
 11
505.1
 21
291.9
 31
0.0
  0
LINE
  5
11B9D
330
11816
100
AcDbEntity
  8
1
  6
Continuous
100
AcDbLine
 10
337.1
 20
294.8999999999998
 30
0.0
 11
337.1
 21
286.2
 31
0.0
  0
LINE
  5
11B9E
330
11816
100
AcDbEntity
  8
4
  6
CENTER
100
AcDbLine
 10
479.8999999999998
 20
279.274712
 30
0.0
 11
479.8999999999998
 21
289.774712
 31
0.0
  0
LINE
  5
11B9F
330
11816
100
AcDbEntity
  8
4
  6
CENTER
100
AcDbLine
 10
492.6
 20
279.274712
 30
0.0
 11
492.6
 21
289.774712
 31
0.0
  0
LINE
  5
11BA0
330
11816
100
AcDbEntity
  8
1
  6
Continuous
100
AcDbLine
 10
531.0999999999998
 20
295.8
 30
0.0
 11
531.0999999999998
 21
304.4999999999999
 31
0.0
  0
LINE
  5
11BA1
330
11816
100
AcDbEntity
  8
3
  6
DASHED
100
AcDbLine
 10
532.1
 20
295.8
 30
0.0
 11
532.1
 21
301.5
 31
0.0
  0
LINE
  5
11BA2
330
11816
100
AcDbEntity
  8
4
  6
CENTER
100
AcDbLine
 10
547.0
 20
308.995589
 30
0.0
 11
547.0
 21
298.495589
 31
0.0
  0
LINE
  5
11BA3
330
11816
100
AcDbEntity
  8
4
  6
CENTER
100
AcDbLine
 10
572.4
 20
308.995589
 30
0.0
 11
572.4
 21
298.495589
 31
0.0
  0
LINE
  5
11BA4
330
11816
100
AcDbEntity
  8
4
  6
CENTER
100
AcDbLine
 10
559.7
 20
308.995589
 30
0.0
 11
559.7
 21
298.495589
 31
0.0
  0
LINE
  5
11BA5
330
11816
100
AcDbEntity
  8
1
  6
Continuous
100
AcDbLine
 10
505.1
 20
285.3999999999999
 30
0.0
 11
505.1
 21
286.2
 31
0.0
  0
LINE
  5
11BA6
330
11816
100
AcDbEntity
  8
3
  6
DASHED
100
AcDbLine
 10
505.1
 20
286.2
 30
0.0
 11
505.1
 21
291.9
 31
0.0
  0
LINE
  5
11BA7
330
11816
100
AcDbEntity
  8
1
  6
Continuous
100
AcDbLine
 10
532.1
 20
295.0
 30
0.0
 11
532.1
 21
295.8
 31
0.0
  0
LINE
  5
11BA8
330
11816
100
AcDbEntity
  8
4
  6
CENTER
100
AcDbLine
 10
716.6
 20
288.9125609999999
 30
0.0
 11
716.6
 21
300.449154
 31
0.0
  0
LINE
  5
11BA9
330
11816
100
AcDbEntity
  8
4
  6
CENTER
100
AcDbLine
 10
658.1
 20
308.995589
 30
0.0
 11
658.1
 21
298.495589
 31
0.0
  0
LINE
  5
11BAA
330
11816
100
AcDbEntity
  8
3
  6
DASHED
100
AcDbLine
 10
741.5
 20
301.5
 30
0.0
 11
741.5
 21
295.8
 31
0.0
  0
LINE
  5
11BAB
330
11816
100
AcDbEntity
  8
1
  6
Continuous
100
AcDbLine
 10
741.5
 20
295.0
 30
0.0
 11
741.5
 21
295.8
 31
0.0
  0
LINE
  5
11BAC
330
11816
100
AcDbEntity
  8
1
  6
Continuous
100
AcDbLine
 10
743.1
 20
294.8999999999998
 30
0.0
 11
743.1
 21
286.2
 31
0.0
  0
LINE
  5
11BAD
330
11816
100
AcDbEntity
  8
4
  6
CENTER
100
AcDbLine
 10
908.9
 20
308.995589
 30
0.0
 11
908.9
 21
298.495589
 31
0.0
  0
LINE
  5
11BAE
330
11816
100
AcDbEntity
  8
1
  6
Continuous
100
AcDbLine
 10
937.1
 20
295.8
 30
0.0
 11
937.1
 21
304.4999999999999
 31
0.0
  0
LINE
  5
11BAF
330
11816
100
AcDbEntity
  8
4
  6
CENTER
100
AcDbLine
 10
921.6000000000001
 20
308.995589
 30
0.0
 11
921.6000000000001
 21
298.495589
 31
0.0
  0
LINE
  5
11BB0
330
11816
100
AcDbEntity
  8
4
  6
CENTER
100
AcDbLine
 10
467.1999999999998
 20
411.8999999999998
 30
0.0
 11
467.1999999999998
 21
422.4
 31
0.0
  0
LINE
  5
11BB1
330
11816
100
AcDbEntity
  8
4
  6
CENTER
100
AcDbLine
 10
467.1999999999998
 20
279.274712
 30
0.0
 11
467.1999999999998
 21
289.774712
 31
0.0
  0
ARC
  5
11BB2
330
11816
100
AcDbEntity
  8
1
  6
Continuous
100
AcDbCircle
 10
467.6
 20
172.75
 30
0.0
 40
2.25
100
AcDbArc
 50
270.0
 51
90.0
  0
ARC
  5
11BB3
330
11816
100
AcDbEntity
  8
1
  6
Continuous
100
AcDbCircle
 10
466.8
 20
172.75
 30
0.0
 40
2.25
100
AcDbArc
 50
90.0
 51
270.0
  0
LINE
  5
11BB4
330
11816
100
AcDbEntity
  8
1
  6
Continuous
100
AcDbLine
 10
466.8
 20
170.5
 30
0.0
 11
467.6
 21
170.5
 31
0.0
  0
LINE
  5
11BB5
330
11816
100
AcDbEntity
  8
4
  6
CENTER
100
AcDbLine
 10
467.1999999999998
 20
167.5
 30
0.0
 11
467.1999999999998
 21
178.0
 31
0.0
  0
LINE
  5
11BB6
330
11816
100
AcDbEntity
  8
1
  6
Continuous
100
AcDbLine
 10
466.8
 20
175.0
 30
0.0
 11
467.6
 21
175.0
 31
0.0
  0
ARC
  5
11BB7
330
11816
100
AcDbEntity
  8
1
  6
Continuous
100
AcDbCircle
 10
781.6499999999997
 20
159.08125
 30
0.0
 40
2.38125
100
AcDbArc
 50
338.3347039999998
 51
1.654438999999999
  0
ARC
  5
11BB8
330
11816
100
AcDbEntity
  8
1
  6
Continuous
100
AcDbCircle
 10
781.6499999999997
 20
159.08125
 30
0.0
 40
2.38125
100
AcDbArc
 50
178.345561
 51
201.6652959999999
  0
ARC
  5
11BB9
330
11816
100
AcDbEntity
  8
1
  6
Continuous
100
AcDbCircle
 10
756.25
 20
159.08125
 30
0.0
 40
2.38125
100
AcDbArc
 50
178.345561
 51
201.6652959999999
  0
ARC
  5
11BBA
330
11816
100
AcDbEntity
  8
1
  6
Continuous
100
AcDbCircle
 10
768.95
 20
159.08125
 30
0.0
 40
2.38125
100
AcDbArc
 50
178.345561
 51
201.6652959999999
  0
ARC
  5
11BBB
330
11816
100
AcDbEntity
  8
1
  6
Continuous
100
AcDbCircle
 10
768.95
 20
159.08125
 30
0.0
 40
2.38125
100
AcDbArc
 50
338.3347039999998
 51
1.654438999999999
  0
ARC
  5
11BBC
330
11816
100
AcDbEntity
  8
1
  6
Continuous
100
AcDbCircle
 10
756.25
 20
159.08125
 30
0.0
 40
2.38125
100
AcDbArc
 50
338.3347039999998
 51
1.654438999999999
  0
ARC
  5
11BBD
330
11816
100
AcDbEntity
  8
1
  6
Continuous
100
AcDbCircle
 10
743.5499999999997
 20
159.08125
 30
0.0
 40
2.38125
100
AcDbArc
 50
338.3347039999998
 51
1.654438999999999
  0
LINE
  5
11BBE
330
11816
100
AcDbEntity
  8
1
  6
Continuous
100
AcDbLine
 10
763.7
 20
185.85
 30
0.0
 11
774.2
 21
185.85
 31
0.0
  0
LINE
  5
11BBF
330
11816
100
AcDbEntity
  8
1
  6
Continuous
100
AcDbLine
 10
763.7
 20
186.3499999999999
 30
0.0
 11
774.2
 21
186.3499999999999
 31
0.0
  0
LINE
  5
11BC0
330
11816
100
AcDbEntity
  8
1
  6
Continuous
100
AcDbLine
 10
763.7
 20
159.15
 30
0.0
 11
774.2
 21
159.15
 31
0.0
  0
LINE
  5
11BC1
330
11816
100
AcDbEntity
  8
1
  6
Continuous
100
AcDbLine
 10
763.7
 20
159.6499999999998
 30
0.0
 11
774.2
 21
159.6499999999998
 31
0.0
  0
ARC
  5
11BC2
330
11816
100
AcDbEntity
  8
1
  6
Continuous
100
AcDbCircle
 10
756.25
 20
186.4187499999999
 30
0.0
 40
2.38125
100
AcDbArc
 50
193.81839
 51
346.18161
  0
LINE
  5
11BC3
330
11816
100
AcDbEntity
  8
1
  6
Continuous
100
AcDbLine
 10
765.95
 20
185.85
 30
0.0
 11
765.95
 21
182.2499999999998
 31
0.0
  0
LINE
  5
11BC4
330
11816
100
AcDbEntity
  8
1
  6
Continuous
100
AcDbLine
 10
759.25
 20
185.85
 30
0.0
 11
759.25
 21
182.2499999999998
 31
0.0
  0
LINE
  5
11BC5
330
11816
100
AcDbEntity
  8
1
  6
Continuous
100
AcDbLine
 10
753.2499999999998
 20
185.85
 30
0.0
 11
753.2499999999998
 21
182.2499999999998
 31
0.0
  0
ARC
  5
11BC6
330
11816
100
AcDbEntity
  8
1
  6
Continuous
100
AcDbCircle
 10
743.5499999999997
 20
186.4187499999999
 30
0.0
 40
2.38125
100
AcDbArc
 50
193.81839
 51
245.6107499999998
  0
LINE
  5
11BC7
330
11816
100
AcDbEntity
  8
1
  6
Continuous
100
AcDbLine
 10
746.5499999999997
 20
185.85
 30
0.0
 11
746.5499999999997
 21
182.2499999999998
 31
0.0
  0
LINE
  5
11BC8
330
11816
100
AcDbEntity
  8
1
  6
Continuous
100
AcDbLine
 10
741.1017219999998
 20
159.6499999999998
 30
0.0
 11
748.7999999999997
 21
159.6499999999998
 31
0.0
  0
LINE
  5
11BC9
330
11816
100
AcDbEntity
  8
1
  6
Continuous
100
AcDbLine
 10
741.503916
 20
159.15
 30
0.0
 11
748.7999999999997
 21
159.15
 31
0.0
  0
ARC
  5
11BCA
330
11816
100
AcDbEntity
  8
1
  6
Continuous
100
AcDbCircle
 10
743.5499999999997
 20
159.08125
 30
0.0
 40
2.38125
100
AcDbArc
 50
13.81839
 51
100.8930529999999
  0
LINE
  5
11BCB
330
11816
100
AcDbEntity
  8
1
  6
Continuous
100
AcDbLine
 10
763.7
 20
159.15
 30
0.0
 11
763.7
 21
159.6499999999998
 31
0.0
  0
LINE
  5
11BCC
330
11816
100
AcDbEntity
  8
1
  6
Continuous
100
AcDbLine
 10
761.5
 20
159.15
 30
0.0
 11
761.5
 21
159.6499999999998
 31
0.0
  0
LINE
  5
11BCD
330
11816
100
AcDbEntity
  8
1
  6
Continuous
100
AcDbLine
 10
759.25
 20
182.2499999999998
 30
0.0
 11
765.95
 21
182.2499999999998
 31
0.0
  0
LINE
  5
11BCE
330
11816
100
AcDbEntity
  8
1
  6
Continuous
100
AcDbLine
 10
759.25
 20
163.25
 30
0.0
 11
765.95
 21
163.25
 31
0.0
  0
LINE
  5
11BCF
330
11816
100
AcDbEntity
  8
1
  6
Continuous
100
AcDbLine
 10
759.25
 20
159.6499999999998
 30
0.0
 11
759.25
 21
163.25
 31
0.0
  0
LINE
  5
11BD0
330
11816
100
AcDbEntity
  8
1
  6
Continuous
100
AcDbLine
 10
765.95
 20
159.6499999999998
 30
0.0
 11
765.95
 21
163.25
 31
0.0
  0
CIRCLE
  5
11BD1
330
11816
100
AcDbEntity
  8
1
  6
Continuous
100
AcDbCircle
 10
762.6
 20
172.75
 30
0.0
 40
2.0
  0
LINE
  5
11BD2
330
11816
100
AcDbEntity
  8
4
  6
CENTER
100
AcDbLine
 10
762.6
 20
177.75
 30
0.0
 11
762.6
 21
167.75
 31
0.0
  0
LINE
  5
11BD3
330
11816
100
AcDbEntity
  8
1
  6
Continuous
100
AcDbLine
 10
751.0
 20
159.15
 30
0.0
 11
751.0
 21
159.6499999999998
 31
0.0
  0
LINE
  5
11BD4
330
11816
100
AcDbEntity
  8
1
  6
Continuous
100
AcDbLine
 10
753.2499999999998
 20
159.6499999999998
 30
0.0
 11
753.2499999999998
 21
163.25
 31
0.0
  0
LINE
  5
11BD5
330
11816
100
AcDbEntity
  8
1
  6
Continuous
100
AcDbLine
 10
748.7999999999997
 20
159.15
 30
0.0
 11
748.7999999999997
 21
159.6499999999998
 31
0.0
  0
LINE
  5
11BD6
330
11816
100
AcDbEntity
  8
1
  6
Continuous
100
AcDbLine
 10
746.5499999999997
 20
182.2499999999998
 30
0.0
 11
753.2499999999998
 21
182.2499999999998
 31
0.0
  0
LINE
  5
11BD7
330
11816
100
AcDbEntity
  8
1
  6
Continuous
100
AcDbLine
 10
746.5499999999997
 20
163.25
 30
0.0
 11
753.2499999999998
 21
163.25
 31
0.0
  0
LINE
  5
11BD8
330
11816
100
AcDbEntity
  8
1
  6
Continuous
100
AcDbLine
 10
746.5499999999997
 20
159.6499999999998
 30
0.0
 11
746.5499999999997
 21
163.25
 31
0.0
  0
LINE
  5
11BD9
330
11816
100
AcDbEntity
  8
4
  6
CENTER
100
AcDbLine
 10
749.8999999999997
 20
177.75
 30
0.0
 11
749.8999999999997
 21
167.75
 31
0.0
  0
CIRCLE
  5
11BDA
330
11816
100
AcDbEntity
  8
1
  6
Continuous
100
AcDbCircle
 10
749.8999999999997
 20
172.75
 30
0.0
 40
2.0
  0
LINE
  5
11BDB
330
11816
100
AcDbEntity
  8
1
  6
Continuous
100
AcDbLine
 10
751.0
 20
159.15
 30
0.0
 11
761.5
 21
159.15
 31
0.0
  0
LINE
  5
11BDC
330
11816
100
AcDbEntity
  8
1
  6
Continuous
100
AcDbLine
 10
751.0
 20
159.6499999999998
 30
0.0
 11
761.5
 21
159.6499999999998
 31
0.0
  0
ARC
  5
11BDD
330
11816
100
AcDbEntity
  8
1
  6
Continuous
100
AcDbCircle
 10
756.25
 20
159.08125
 30
0.0
 40
2.38125
100
AcDbArc
 50
13.81839
 51
166.18161
  0
LINE
  5
11BDE
330
11816
100
AcDbEntity
  8
1
  6
Continuous
100
AcDbLine
 10
741.503916
 20
186.3499999999999
 30
0.0
 11
748.7999999999997
 21
186.3499999999999
 31
0.0
  0
LINE
  5
11BDF
330
11816
100
AcDbEntity
  8
1
  6
Continuous
100
AcDbLine
 10
741.1017219999998
 20
185.85
 30
0.0
 11
748.7999999999997
 21
185.85
 31
0.0
  0
ARC
  5
11BE0
330
11816
100
AcDbEntity
  8
1
  6
Continuous
100
AcDbCircle
 10
743.5499999999997
 20
186.4187499999999
 30
0.0
 40
2.38125
100
AcDbArc
 50
358.3455609999999
 51
21.665296
  0
ARC
  5
11BE1
330
11816
100
AcDbEntity
  8
1
  6
Continuous
100
AcDbCircle
 10
756.25
 20
186.4187499999999
 30
0.0
 40
2.38125
100
AcDbArc
 50
358.3455609999999
 51
21.665296
  0
LINE
  5
11BE2
330
11816
100
AcDbEntity
  8
1
  6
Continuous
100
AcDbLine
 10
761.5
 20
186.3499999999999
 30
0.0
 11
761.5
 21
185.85
 31
0.0
  0
LINE
  5
11BE3
330
11816
100
AcDbEntity
  8
1
  6
Continuous
100
AcDbLine
 10
763.7
 20
186.3499999999999
 30
0.0
 11
763.7
 21
185.85
 31
0.0
  0
ARC
  5
11BE4
330
11816
100
AcDbEntity
  8
1
  6
Continuous
100
AcDbCircle
 10
756.25
 20
186.4187499999999
 30
0.0
 40
2.38125
100
AcDbArc
 50
158.3347039999999
 51
181.6544389999999
  0
LINE
  5
11BE5
330
11816
100
AcDbEntity
  8
1
  6
Continuous
100
AcDbLine
 10
751.0
 20
186.3499999999999
 30
0.0
 11
751.0
 21
185.85
 31
0.0
  0
LINE
  5
11BE6
330
11816
100
AcDbEntity
  8
1
  6
Continuous
100
AcDbLine
 10
748.7999999999997
 20
186.3499999999999
 30
0.0
 11
748.7999999999997
 21
185.85
 31
0.0
  0
LINE
  5
11BE7
330
11816
100
AcDbEntity
  8
1
  6
Continuous
100
AcDbLine
 10
751.0
 20
185.85
 30
0.0
 11
761.5
 21
185.85
 31
0.0
  0
LINE
  5
11BE8
330
11816
100
AcDbEntity
  8
1
  6
Continuous
100
AcDbLine
 10
751.0
 20
186.3499999999999
 30
0.0
 11
761.5
 21
186.3499999999999
 31
0.0
  0
ARC
  5
11BE9
330
11816
100
AcDbEntity
  8
1
  6
Continuous
100
AcDbCircle
 10
781.6499999999997
 20
186.4187499999999
 30
0.0
 40
2.38125
100
AcDbArc
 50
193.81839
 51
346.18161
  0
LINE
  5
11BEA
330
11816
100
AcDbEntity
  8
1
  6
Continuous
100
AcDbLine
 10
778.65
 20
185.85
 30
0.0
 11
778.65
 21
182.2499999999998
 31
0.0
  0
ARC
  5
11BEB
330
11816
100
AcDbEntity
  8
1
  6
Continuous
100
AcDbCircle
 10
768.95
 20
186.4187499999999
 30
0.0
 40
2.38125
100
AcDbArc
 50
193.81839
 51
346.18161
  0
LINE
  5
11BEC
330
11816
100
AcDbEntity
  8
1
  6
Continuous
100
AcDbLine
 10
771.95
 20
185.85
 30
0.0
 11
771.95
 21
182.2499999999998
 31
0.0
  0
LINE
  5
11BED
330
11816
100
AcDbEntity
  8
1
  6
Continuous
100
AcDbLine
 10
776.4
 20
159.6499999999998
 30
0.0
 11
786.8999999999997
 21
159.6499999999998
 31
0.0
  0
LINE
  5
11BEE
330
11816
100
AcDbEntity
  8
1
  6
Continuous
100
AcDbLine
 10
776.4
 20
159.15
 30
0.0
 11
786.8999999999997
 21
159.15
 31
0.0
  0
ARC
  5
11BEF
330
11816
100
AcDbEntity
  8
1
  6
Continuous
100
AcDbCircle
 10
781.6499999999997
 20
159.08125
 30
0.0
 40
2.38125
100
AcDbArc
 50
13.81839
 51
166.18161
  0
LINE
  5
11BF0
330
11816
100
AcDbEntity
  8
1
  6
Continuous
100
AcDbLine
 10
778.65
 20
159.6499999999998
 30
0.0
 11
778.65
 21
163.25
 31
0.0
  0
ARC
  5
11BF1
330
11816
100
AcDbEntity
  8
1
  6
Continuous
100
AcDbCircle
 10
768.95
 20
159.08125
 30
0.0
 40
2.38125
100
AcDbArc
 50
13.81839
 51
166.18161
  0
LINE
  5
11BF2
330
11816
100
AcDbEntity
  8
1
  6
Continuous
100
AcDbLine
 10
776.4
 20
159.15
 30
0.0
 11
776.4
 21
159.6499999999998
 31
0.0
  0
LINE
  5
11BF3
330
11816
100
AcDbEntity
  8
1
  6
Continuous
100
AcDbLine
 10
774.2
 20
159.15
 30
0.0
 11
774.2
 21
159.6499999999998
 31
0.0
  0
LINE
  5
11BF4
330
11816
100
AcDbEntity
  8
1
  6
Continuous
100
AcDbLine
 10
771.95
 20
159.6499999999998
 30
0.0
 11
771.95
 21
163.25
 31
0.0
  0
CIRCLE
  5
11BF5
330
11816
100
AcDbEntity
  8
1
  6
Continuous
100
AcDbCircle
 10
775.2999999999997
 20
172.75
 30
0.0
 40
2.0
  0
LINE
  5
11BF6
330
11816
100
AcDbEntity
  8
4
  6
CENTER
100
AcDbLine
 10
775.2999999999997
 20
177.75
 30
0.0
 11
775.2999999999997
 21
167.75
 31
0.0
  0
LINE
  5
11BF7
330
11816
100
AcDbEntity
  8
1
  6
Continuous
100
AcDbLine
 10
771.95
 20
182.2499999999998
 30
0.0
 11
778.65
 21
182.2499999999998
 31
0.0
  0
LINE
  5
11BF8
330
11816
100
AcDbEntity
  8
1
  6
Continuous
100
AcDbLine
 10
771.95
 20
163.25
 30
0.0
 11
778.65
 21
163.25
 31
0.0
  0
LINE
  5
11BF9
330
11816
100
AcDbEntity
  8
1
  6
Continuous
100
AcDbLine
 10
786.8999999999997
 20
159.15
 30
0.0
 11
786.8999999999997
 21
159.6499999999998
 31
0.0
  0
LINE
  5
11BFA
330
11816
100
AcDbEntity
  8
1
  6
Continuous
100
AcDbLine
 10
776.4
 20
186.3499999999999
 30
0.0
 11
786.8999999999997
 21
186.3499999999999
 31
0.0
  0
LINE
  5
11BFB
330
11816
100
AcDbEntity
  8
1
  6
Continuous
100
AcDbLine
 10
776.4
 20
185.85
 30
0.0
 11
786.8999999999997
 21
185.85
 31
0.0
  0
ARC
  5
11BFC
330
11816
100
AcDbEntity
  8
1
  6
Continuous
100
AcDbCircle
 10
781.6499999999997
 20
186.4187499999999
 30
0.0
 40
2.38125
100
AcDbArc
 50
158.3347039999999
 51
181.6544389999999
  0
ARC
  5
11BFD
330
11816
100
AcDbEntity
  8
1
  6
Continuous
100
AcDbCircle
 10
781.6499999999997
 20
186.4187499999999
 30
0.0
 40
2.38125
100
AcDbArc
 50
358.3455609999999
 51
21.665296
  0
ARC
  5
11BFE
330
11816
100
AcDbEntity
  8
1
  6
Continuous
100
AcDbCircle
 10
768.95
 20
186.4187499999999
 30
0.0
 40
2.38125
100
AcDbArc
 50
358.3455609999999
 51
21.665296
  0
LINE
  5
11BFF
330
11816
100
AcDbEntity
  8
1
  6
Continuous
100
AcDbLine
 10
774.2
 20
186.3499999999999
 30
0.0
 11
774.2
 21
185.85
 31
0.0
  0
ARC
  5
11C00
330
11816
100
AcDbEntity
  8
1
  6
Continuous
100
AcDbCircle
 10
768.95
 20
186.4187499999999
 30
0.0
 40
2.38125
100
AcDbArc
 50
158.3347039999999
 51
181.6544389999999
  0
LINE
  5
11C01
330
11816
100
AcDbEntity
  8
1
  6
Continuous
100
AcDbLine
 10
776.4
 20
186.3499999999999
 30
0.0
 11
776.4
 21
185.85
 31
0.0
  0
LINE
  5
11C02
330
11816
100
AcDbEntity
  8
1
  6
Continuous
100
AcDbLine
 10
786.8999999999997
 20
186.3499999999999
 30
0.0
 11
786.8999999999997
 21
185.85
 31
0.0
  0
LINE
  5
11C03
330
11816
100
AcDbEntity
  8
1
  6
Continuous
100
AcDbLine
 10
784.6499999999998
 20
185.85
 30
0.0
 11
784.6499999999998
 21
182.2499999999998
 31
0.0
  0
LINE
  5
11C04
330
11816
100
AcDbEntity
  8
1
  6
Continuous
100
AcDbLine
 10
784.6499999999998
 20
182.2499999999998
 30
0.0
 11
791.3499999999997
 21
182.2499999999998
 31
0.0
  0
LINE
  5
11C05
330
11816
100
AcDbEntity
  8
1
  6
Continuous
100
AcDbLine
 10
784.6499999999998
 20
159.6499999999998
 30
0.0
 11
784.6499999999998
 21
163.25
 31
0.0
  0
LINE
  5
11C06
330
11816
100
AcDbEntity
  8
1
  6
Continuous
100
AcDbLine
 10
784.6499999999998
 20
163.25
 30
0.0
 11
791.3499999999997
 21
163.25
 31
0.0
  0
ARC
  5
11C07
330
11816
100
AcDbEntity
  8
1
  6
Continuous
100
AcDbCircle
 10
743.5499999999997
 20
186.4187499999999
 30
0.0
 40
2.38125
100
AcDbArc
 50
259.1069469999999
 51
346.18161
  0
ARC
  5
11C08
330
11816
100
AcDbEntity
  8
1
  6
Continuous
100
AcDbCircle
 10
743.5499999999997
 20
159.08125
 30
0.0
 40
2.38125
100
AcDbArc
 50
114.3892499999999
 51
166.18161
  0
LINE
  5
11C09
330
11816
100
AcDbEntity
  8
1
  6
Continuous
100
AcDbLine
 10
400.1999999999998
 20
185.85
 30
0.0
 11
410.7
 21
185.85
 31
0.0
  0
LINE
  5
11C0A
330
11816
100
AcDbEntity
  8
1
  6
Continuous
100
AcDbLine
 10
400.1999999999998
 20
186.3499999999999
 30
0.0
 11
410.7
 21
186.3499999999999
 31
0.0
  0
LINE
  5
11C0B
330
11816
100
AcDbEntity
  8
1
  6
Continuous
100
AcDbLine
 10
387.5
 20
185.85
 30
0.0
 11
398.0
 21
185.85
 31
0.0
  0
LINE
  5
11C0C
330
11816
100
AcDbEntity
  8
1
  6
Continuous
100
AcDbLine
 10
387.5
 20
186.3499999999999
 30
0.0
 11
398.0
 21
186.3499999999999
 31
0.0
  0
LINE
  5
11C0D
330
11816
100
AcDbEntity
  8
1
  6
Continuous
100
AcDbLine
 10
387.5
 20
186.3499999999999
 30
0.0
 11
387.5
 21
185.85
 31
0.0
  0
LINE
  5
11C0E
330
11816
100
AcDbEntity
  8
1
  6
Continuous
100
AcDbLine
 10
389.7499999999998
 20
185.85
 30
0.0
 11
389.7499999999998
 21
185.0
 31
0.0
  0
ARC
  5
11C0F
330
11816
100
AcDbEntity
  8
1
  6
Continuous
100
AcDbCircle
 10
392.75
 20
186.4187499999999
 30
0.0
 40
2.38125
100
AcDbArc
 50
323.430279
 51
346.18161
  0
ARC
  5
11C10
330
11816
100
AcDbEntity
  8
1
  6
Continuous
100
AcDbCircle
 10
392.75
 20
186.4187499999999
 30
0.0
 40
2.38125
100
AcDbArc
 50
358.3455609999999
 51
21.665296
  0
LINE
  5
11C11
330
11816
100
AcDbEntity
  8
1
  6
Continuous
100
AcDbLine
 10
398.0
 20
186.3499999999999
 30
0.0
 11
398.0
 21
185.85
 31
0.0
  0
LINE
  5
11C12
330
11816
100
AcDbEntity
  8
1
  6
Continuous
100
AcDbLine
 10
395.7499999999998
 20
185.85
 30
0.0
 11
395.7499999999998
 21
185.0
 31
0.0
  0
ARC
  5
11C13
330
11816
100
AcDbEntity
  8
1
  6
Continuous
100
AcDbCircle
 10
405.4499999999999
 20
186.4187499999999
 30
0.0
 40
2.38125
100
AcDbArc
 50
158.3347039999999
 51
181.6544389999999
  0
ARC
  5
11C14
330
11816
100
AcDbEntity
  8
1
  6
Continuous
100
AcDbCircle
 10
405.4499999999999
 20
186.4187499999999
 30
0.0
 40
2.38125
100
AcDbArc
 50
193.81839
 51
216.5697209999999
  0
ARC
  5
11C15
330
11816
100
AcDbEntity
  8
1
  6
Continuous
100
AcDbCircle
 10
405.4499999999999
 20
186.4187499999999
 30
0.0
 40
2.38125
100
AcDbArc
 50
323.430279
 51
346.18161
  0
ARC
  5
11C16
330
11816
100
AcDbEntity
  8
1
  6
Continuous
100
AcDbCircle
 10
405.4499999999999
 20
186.4187499999999
 30
0.0
 40
2.38125
100
AcDbArc
 50
358.3455609999999
 51
21.665296
  0
LINE
  5
11C17
330
11816
100
AcDbEntity
  8
1
  6
Continuous
100
AcDbLine
 10
408.45
 20
185.85
 30
0.0
 11
408.45
 21
185.0
 31
0.0
  0
LINE
  5
11C18
330
11816
100
AcDbEntity
  8
1
  6
Continuous
100
AcDbLine
 10
402.4499999999998
 20
185.85
 30
0.0
 11
402.4499999999998
 21
185.0
 31
0.0
  0
LINE
  5
11C19
330
11816
100
AcDbEntity
  8
1
  6
Continuous
100
AcDbLine
 10
400.1999999999998
 20
186.3499999999999
 30
0.0
 11
400.1999999999998
 21
185.85
 31
0.0
  0
ARC
  5
11C1A
330
11816
100
AcDbEntity
  8
1
  6
Continuous
100
AcDbCircle
 10
392.75
 20
186.4187499999999
 30
0.0
 40
2.38125
100
AcDbArc
 50
158.3347039999999
 51
181.6544389999999
  0
ARC
  5
11C1B
330
11816
100
AcDbEntity
  8
1
  6
Continuous
100
AcDbCircle
 10
392.75
 20
186.4187499999999
 30
0.0
 40
2.38125
100
AcDbArc
 50
193.81839
 51
216.5697209999999
  0
LINE
  5
11C1C
330
11816
100
AcDbEntity
  8
1
  6
Continuous
100
AcDbLine
 10
410.7
 20
186.3499999999999
 30
0.0
 11
410.7
 21
185.85
 31
0.0
  0
ARC
  5
11C1D
330
11816
100
AcDbEntity
  8
1
  6
Continuous
100
AcDbCircle
 10
392.75
 20
159.08125
 30
0.0
 40
2.38125
100
AcDbArc
 50
338.3347039999998
 51
1.654438999999999
  0
ARC
  5
11C1E
330
11816
100
AcDbEntity
  8
1
  6
Continuous
100
AcDbCircle
 10
392.75
 20
159.08125
 30
0.0
 40
2.38125
100
AcDbArc
 50
178.345561
 51
201.6652959999999
  0
ARC
  5
11C1F
330
11816
100
AcDbEntity
  8
1
  6
Continuous
100
AcDbCircle
 10
405.4499999999999
 20
159.08125
 30
0.0
 40
2.38125
100
AcDbArc
 50
338.3347039999998
 51
1.654438999999999
  0
ARC
  5
11C20
330
11816
100
AcDbEntity
  8
1
  6
Continuous
100
AcDbCircle
 10
405.4499999999999
 20
159.08125
 30
0.0
 40
2.38125
100
AcDbArc
 50
178.345561
 51
201.6652959999999
  0
LINE
  5
11C21
330
11816
100
AcDbEntity
  8
1
  6
Continuous
100
AcDbLine
 10
400.1999999999998
 20
159.15
 30
0.0
 11
410.7
 21
159.15
 31
0.0
  0
LINE
  5
11C22
330
11816
100
AcDbEntity
  8
1
  6
Continuous
100
AcDbLine
 10
400.1999999999998
 20
159.6499999999998
 30
0.0
 11
410.7
 21
159.6499999999998
 31
0.0
  0
LINE
  5
11C23
330
11816
100
AcDbEntity
  8
1
  6
Continuous
100
AcDbLine
 10
387.5
 20
159.15
 30
0.0
 11
398.0
 21
159.15
 31
0.0
  0
LINE
  5
11C24
330
11816
100
AcDbEntity
  8
1
  6
Continuous
100
AcDbLine
 10
387.5
 20
159.6499999999998
 30
0.0
 11
398.0
 21
159.6499999999998
 31
0.0
  0
LINE
  5
11C25
330
11816
100
AcDbEntity
  8
1
  6
Continuous
100
AcDbLine
 10
387.5
 20
159.15
 30
0.0
 11
387.5
 21
159.6499999999998
 31
0.0
  0
LINE
  5
11C26
330
11816
100
AcDbEntity
  8
1
  6
Continuous
100
AcDbLine
 10
389.7499999999998
 20
159.6499999999998
 30
0.0
 11
389.7499999999998
 21
160.4999999999998
 31
0.0
  0
ARC
  5
11C27
330
11816
100
AcDbEntity
  8
1
  6
Continuous
100
AcDbCircle
 10
392.75
 20
159.08125
 30
0.0
 40
2.38125
100
AcDbArc
 50
13.81839
 51
36.569721
  0
LINE
  5
11C28
330
11816
100
AcDbEntity
  8
1
  6
Continuous
100
AcDbLine
 10
398.0
 20
159.15
 30
0.0
 11
398.0
 21
159.6499999999998
 31
0.0
  0
LINE
  5
11C29
330
11816
100
AcDbEntity
  8
1
  6
Continuous
100
AcDbLine
 10
395.7499999999998
 20
159.6499999999998
 30
0.0
 11
395.7499999999998
 21
160.4999999999998
 31
0.0
  0
ARC
  5
11C2A
330
11816
100
AcDbEntity
  8
1
  6
Continuous
100
AcDbCircle
 10
405.4499999999999
 20
159.08125
 30
0.0
 40
2.38125
100
AcDbArc
 50
13.81839
 51
36.569721
  0
ARC
  5
11C2B
330
11816
100
AcDbEntity
  8
1
  6
Continuous
100
AcDbCircle
 10
405.4499999999999
 20
159.08125
 30
0.0
 40
2.38125
100
AcDbArc
 50
143.430279
 51
166.18161
  0
LINE
  5
11C2C
330
11816
100
AcDbEntity
  8
1
  6
Continuous
100
AcDbLine
 10
408.45
 20
159.6499999999998
 30
0.0
 11
408.45
 21
160.4999999999998
 31
0.0
  0
LINE
  5
11C2D
330
11816
100
AcDbEntity
  8
1
  6
Continuous
100
AcDbLine
 10
402.4499999999998
 20
159.6499999999998
 30
0.0
 11
402.4499999999998
 21
160.4999999999998
 31
0.0
  0
LINE
  5
11C2E
330
11816
100
AcDbEntity
  8
1
  6
Continuous
100
AcDbLine
 10
400.1999999999998
 20
159.15
 30
0.0
 11
400.1999999999998
 21
159.6499999999998
 31
0.0
  0
ARC
  5
11C2F
330
11816
100
AcDbEntity
  8
1
  6
Continuous
100
AcDbCircle
 10
392.75
 20
159.08125
 30
0.0
 40
2.38125
100
AcDbArc
 50
143.430279
 51
166.18161
  0
LINE
  5
11C30
330
11816
100
AcDbEntity
  8
1
  6
Continuous
100
AcDbLine
 10
410.7
 20
159.15
 30
0.0
 11
410.7
 21
159.6499999999998
 31
0.0
  0
LINE
  5
11C31
330
11816
100
AcDbEntity
  8
1
  6
Continuous
100
AcDbLine
 10
412.8999999999998
 20
186.3499999999999
 30
0.0
 11
423.3999999999999
 21
186.3499999999999
 31
0.0
  0
LINE
  5
11C32
330
11816
100
AcDbEntity
  8
1
  6
Continuous
100
AcDbLine
 10
412.8999999999998
 20
185.85
 30
0.0
 11
423.3999999999999
 21
185.85
 31
0.0
  0
LINE
  5
11C33
330
11816
100
AcDbEntity
  8
1
  6
Continuous
100
AcDbLine
 10
412.8999999999998
 20
186.3499999999999
 30
0.0
 11
412.8999999999998
 21
185.85
 31
0.0
  0
LINE
  5
11C34
330
11816
100
AcDbEntity
  8
1
  6
Continuous
100
AcDbLine
 10
415.1499999999998
 20
185.85
 30
0.0
 11
415.1499999999998
 21
185.0
 31
0.0
  0
ARC
  5
11C35
330
11816
100
AcDbEntity
  8
1
  6
Continuous
100
AcDbCircle
 10
418.1499999999998
 20
186.4187499999999
 30
0.0
 40
2.38125
100
AcDbArc
 50
193.81839
 51
216.5697209999999
  0
ARC
  5
11C36
330
11816
100
AcDbEntity
  8
1
  6
Continuous
100
AcDbCircle
 10
418.1499999999998
 20
186.4187499999999
 30
0.0
 40
2.38125
100
AcDbArc
 50
158.3347039999999
 51
181.6544389999999
  0
LINE
  5
11C37
330
11816
100
AcDbEntity
  8
1
  6
Continuous
100
AcDbLine
 10
423.3999999999999
 20
186.3499999999999
 30
0.0
 11
423.3999999999999
 21
185.85
 31
0.0
  0
LINE
  5
11C38
330
11816
100
AcDbEntity
  8
1
  6
Continuous
100
AcDbLine
 10
421.15
 20
185.85
 30
0.0
 11
421.15
 21
185.0
 31
0.0
  0
ARC
  5
11C39
330
11816
100
AcDbEntity
  8
1
  6
Continuous
100
AcDbCircle
 10
418.1499999999998
 20
186.4187499999999
 30
0.0
 40
2.38125
100
AcDbArc
 50
358.3455609999999
 51
21.665296
  0
ARC
  5
11C3A
330
11816
100
AcDbEntity
  8
1
  6
Continuous
100
AcDbCircle
 10
418.1499999999998
 20
186.4187499999999
 30
0.0
 40
2.38125
100
AcDbArc
 50
323.430279
 51
346.18161
  0
ARC
  5
11C3B
330
11816
100
AcDbEntity
  8
1
  6
Continuous
100
AcDbCircle
 10
418.1499999999998
 20
159.08125
 30
0.0
 40
2.38125
100
AcDbArc
 50
178.345561
 51
201.6652959999999
  0
ARC
  5
11C3C
330
11816
100
AcDbEntity
  8
1
  6
Continuous
100
AcDbCircle
 10
418.1499999999998
 20
159.08125
 30
0.0
 40
2.38125
100
AcDbArc
 50
338.3347039999998
 51
1.654438999999999
  0
LINE
  5
11C3D
330
11816
100
AcDbEntity
  8
1
  6
Continuous
100
AcDbLine
 10
412.8999999999998
 20
159.6499999999998
 30
0.0
 11
423.3999999999999
 21
159.6499999999998
 31
0.0
  0
LINE
  5
11C3E
330
11816
100
AcDbEntity
  8
1
  6
Continuous
100
AcDbLine
 10
412.8999999999998
 20
159.15
 30
0.0
 11
423.3999999999999
 21
159.15
 31
0.0
  0
LINE
  5
11C3F
330
11816
100
AcDbEntity
  8
1
  6
Continuous
100
AcDbLine
 10
412.8999999999998
 20
159.15
 30
0.0
 11
412.8999999999998
 21
159.6499999999998
 31
0.0
  0
LINE
  5
11C40
330
11816
100
AcDbEntity
  8
1
  6
Continuous
100
AcDbLine
 10
415.1499999999998
 20
159.6499999999998
 30
0.0
 11
415.1499999999998
 21
160.4999999999998
 31
0.0
  0
ARC
  5
11C41
330
11816
100
AcDbEntity
  8
1
  6
Continuous
100
AcDbCircle
 10
418.1499999999998
 20
159.08125
 30
0.0
 40
2.38125
100
AcDbArc
 50
143.430279
 51
166.18161
  0
LINE
  5
11C42
330
11816
100
AcDbEntity
  8
1
  6
Continuous
100
AcDbLine
 10
423.3999999999999
 20
159.15
 30
0.0
 11
423.3999999999999
 21
159.6499999999998
 31
0.0
  0
LINE
  5
11C43
330
11816
100
AcDbEntity
  8
1
  6
Continuous
100
AcDbLine
 10
421.15
 20
159.6499999999998
 30
0.0
 11
421.15
 21
160.4999999999998
 31
0.0
  0
ARC
  5
11C44
330
11816
100
AcDbEntity
  8
1
  6
Continuous
100
AcDbCircle
 10
418.1499999999998
 20
159.08125
 30
0.0
 40
2.38125
100
AcDbArc
 50
13.81839
 51
36.569721
  0
LINE
  5
11C45
330
11816
100
AcDbEntity
  8
1
  6
Continuous
100
AcDbLine
 10
798.2
 20
414.9
 30
0.0
 11
797.4
 21
414.9
 31
0.0
  0
LINE
  5
11C46
330
11816
100
AcDbEntity
  8
4
  6
CENTER
100
AcDbLine
 10
797.7999999999997
 20
422.4
 30
0.0
 11
797.7999999999997
 21
411.8999999999998
 31
0.0
  0
LINE
  5
11C47
330
11816
100
AcDbEntity
  8
1
  6
Continuous
100
AcDbLine
 10
798.2
 20
419.3999999999999
 30
0.0
 11
797.4
 21
419.3999999999999
 31
0.0
  0
ARC
  5
11C48
330
11816
100
AcDbEntity
  8
1
  6
Continuous
100
AcDbCircle
 10
797.4
 20
417.1499999999999
 30
0.0
 40
2.25
100
AcDbArc
 50
90.0
 51
270.0
  0
ARC
  5
11C49
330
11816
100
AcDbEntity
  8
1
  6
Continuous
100
AcDbCircle
 10
798.2
 20
417.1499999999999
 30
0.0
 40
2.25
100
AcDbArc
 50
270.0
 51
90.0
  0
LINE
  5
11C4A
330
11816
100
AcDbEntity
  8
4
  6
CENTER
100
AcDbLine
 10
797.7999999999997
 20
308.995589
 30
0.0
 11
797.7999999999997
 21
298.495589
 31
0.0
  0
ARC
  5
11C4B
330
11816
100
AcDbEntity
  8
1
  6
Continuous
100
AcDbCircle
 10
798.2
 20
172.75
 30
0.0
 40
2.25
100
AcDbArc
 50
270.0
 51
90.0
  0
ARC
  5
11C4C
330
11816
100
AcDbEntity
  8
1
  6
Continuous
100
AcDbCircle
 10
797.4
 20
172.75
 30
0.0
 40
2.25
100
AcDbArc
 50
90.0
 51
270.0
  0
LINE
  5
11C4D
330
11816
100
AcDbEntity
  8
4
  6
CENTER
100
AcDbLine
 10
797.7999999999997
 20
178.0
 30
0.0
 11
797.7999999999997
 21
167.5
 31
0.0
  0
LINE
  5
11C4E
330
11816
100
AcDbEntity
  8
1
  6
Continuous
100
AcDbLine
 10
798.2
 20
170.5
 30
0.0
 11
797.4
 21
170.5
 31
0.0
  0
LINE
  5
11C4F
330
11816
100
AcDbEntity
  8
1
  6
Continuous
100
AcDbLine
 10
798.2
 20
175.0
 30
0.0
 11
797.4
 21
175.0
 31
0.0
  0
LINE
  5
11C50
330
11816
100
AcDbEntity
  8
1
  6
Continuous
100
AcDbLine
 10
337.1
 20
59.29999999999999
 30
0.0
 11
743.1
 21
59.29999999999999
 31
0.0
  0
LINE
  5
11C51
330
11816
100
AcDbEntity
  8
1
  6
Continuous
100
AcDbLine
 10
337.1
 20
50.6
 30
0.0
 11
743.1
 21
50.6
 31
0.0
  0
LINE
  5
11C52
330
11816
100
AcDbEntity
  8
1
  6
Continuous
100
AcDbLine
 10
531.0999999999998
 20
49.7
 30
0.0
 11
937.1
 21
49.7
 31
0.0
  0
LINE
  5
11C53
330
11816
100
AcDbEntity
  8
1
  6
Continuous
100
AcDbLine
 10
531.0999999999998
 20
41.0
 30
0.0
 11
937.1
 21
41.0
 31
0.0
  0
LINE
  5
11C54
330
11816
100
AcDbEntity
  8
3
  6
DASHED
100
AcDbLine
 10
532.1
 20
44.0
 30
0.0
 11
741.5
 21
44.0
 31
0.0
  0
LINE
  5
11C55
330
11816
100
AcDbEntity
  8
1
  6
Continuous
100
AcDbLine
 10
532.1
 20
50.5
 30
0.0
 11
741.5
 21
50.5
 31
0.0
  0
LINE
  5
11C56
330
11816
100
AcDbEntity
  8
3
  6
DASHED
100
AcDbLine
 10
337.1
 20
53.6
 30
0.0
 11
505.1
 21
53.6
 31
0.0
  0
LINE
  5
11C57
330
11816
100
AcDbEntity
  8
1
  6
Continuous
100
AcDbLine
 10
102.0999999999998
 20
60.1
 30
0.0
 11
505.1
 21
60.1
 31
0.0
  0
LINE
  5
11C58
330
11816
100
AcDbEntity
  8
1
  6
Continuous
100
AcDbLine
 10
102.0999999999998
 20
53.6
 30
0.0
 11
337.1
 21
53.6
 31
0.0
  0
LINE
  5
11C59
330
11816
100
AcDbEntity
  8
1
  6
Continuous
100
AcDbLine
 10
102.0999999999998
 20
53.6
 30
0.0
 11
102.0999999999998
 21
60.1
 31
0.0
  0
LINE
  5
11C5A
330
11816
100
AcDbEntity
  8
4
  6
CENTER
100
AcDbLine
 10
118.0
 20
66.22528800000001
 30
0.0
 11
118.0
 21
55.725288
 31
0.0
  0
LINE
  5
11C5B
330
11816
100
AcDbEntity
  8
4
  6
CENTER
100
AcDbLine
 10
130.6999999999999
 20
66.22528800000001
 30
0.0
 11
130.6999999999999
 21
55.725288
 31
0.0
  0
LINE
  5
11C5C
330
11816
100
AcDbEntity
  8
4
  6
CENTER
100
AcDbLine
 10
241.8
 20
66.22528800000001
 30
0.0
 11
241.8
 21
55.725288
 31
0.0
  0
LINE
  5
11C5D
330
11816
100
AcDbEntity
  8
1
  6
Continuous
100
AcDbLine
 10
337.1
 20
50.6
 30
0.0
 11
337.1
 21
59.29999999999999
 31
0.0
  0
LINE
  5
11C5E
330
11816
100
AcDbEntity
  8
1
  6
Continuous
100
AcDbLine
 10
318.1
 20
50.1
 30
0.0
 11
337.1
 21
52.2
 31
0.0
  0
LINE
  5
11C5F
330
11816
100
AcDbEntity
  8
1
  6
Continuous
100
AcDbLine
 10
318.288337
 20
50.925688
 30
0.0
 11
337.1
 21
53.004872
 31
0.0
  0
LINE
  5
11C60
330
11816
100
AcDbEntity
  8
1
  6
Continuous
100
AcDbLine
 10
314.1
 20
52.6
 30
0.0
 11
318.1
 21
50.1
 31
0.0
  0
LINE
  5
11C61
330
11816
100
AcDbEntity
  8
1
  6
Continuous
100
AcDbLine
 10
314.523999
 20
53.278399
 30
0.0
 11
318.288337
 21
50.925688
 31
0.0
  0
LINE
  5
11C62
330
11816
100
AcDbEntity
  8
1
  6
Continuous
100
AcDbLine
 10
314.1
 20
52.6
 30
0.0
 11
314.523999
 21
53.278399
 31
0.0
  0
LINE
  5
11C63
330
11816
100
AcDbEntity
  8
4
  6
CENTER
100
AcDbLine
 10
467.1999999999998
 20
66.22528800000001
 30
0.0
 11
467.1999999999998
 21
55.725288
 31
0.0
  0
LINE
  5
11C64
330
11816
100
AcDbEntity
  8
4
  6
CENTER
100
AcDbLine
 10
479.8999999999998
 20
66.22528800000001
 30
0.0
 11
479.8999999999998
 21
55.725288
 31
0.0
  0
LINE
  5
11C65
330
11816
100
AcDbEntity
  8
4
  6
CENTER
100
AcDbLine
 10
492.6
 20
66.22528800000001
 30
0.0
 11
492.6
 21
55.725288
 31
0.0
  0
LINE
  5
11C66
330
11816
100
AcDbEntity
  8
3
  6
DASHED
100
AcDbLine
 10
505.1
 20
59.29999999999999
 30
0.0
 11
505.1
 21
53.6
 31
0.0
  0
LINE
  5
11C67
330
11816
100
AcDbEntity
  8
1
  6
Continuous
100
AcDbLine
 10
505.1
 20
60.1
 30
0.0
 11
505.1
 21
59.29999999999999
 31
0.0
  0
LINE
  5
11C68
330
11816
100
AcDbEntity
  8
1
  6
Continuous
100
AcDbLine
 10
532.1
 20
50.5
 30
0.0
 11
532.1
 21
49.7
 31
0.0
  0
LINE
  5
11C69
330
11816
100
AcDbEntity
  8
3
  6
DASHED
100
AcDbLine
 10
532.1
 20
49.7
 30
0.0
 11
532.1
 21
44.0
 31
0.0
  0
LINE
  5
11C6A
330
11816
100
AcDbEntity
  8
1
  6
Continuous
100
AcDbLine
 10
531.0999999999998
 20
49.7
 30
0.0
 11
531.0999999999998
 21
41.0
 31
0.0
  0
LINE
  5
11C6B
330
11816
100
AcDbEntity
  8
4
  6
CENTER
100
AcDbLine
 10
559.7
 20
36.504411
 30
0.0
 11
559.7
 21
47.00441099999999
 31
0.0
  0
LINE
  5
11C6C
330
11816
100
AcDbEntity
  8
4
  6
CENTER
100
AcDbLine
 10
547.0
 20
36.504411
 30
0.0
 11
547.0
 21
47.00441099999999
 31
0.0
  0
LINE
  5
11C6D
330
11816
100
AcDbEntity
  8
4
  6
CENTER
100
AcDbLine
 10
572.4
 20
36.504411
 30
0.0
 11
572.4
 21
47.00441099999999
 31
0.0
  0
LINE
  5
11C6E
330
11816
100
AcDbEntity
  8
4
  6
CENTER
100
AcDbLine
 10
658.1
 20
36.504411
 30
0.0
 11
658.1
 21
47.00441099999999
 31
0.0
  0
LINE
  5
11C6F
330
11816
100
AcDbEntity
  8
4
  6
CENTER
100
AcDbLine
 10
716.6
 20
56.58743900000001
 30
0.0
 11
716.6
 21
45.05084599999999
 31
0.0
  0
LINE
  5
11C70
330
11816
100
AcDbEntity
  8
1
  6
Continuous
100
AcDbLine
 10
743.1
 20
50.6
 30
0.0
 11
743.1
 21
59.29999999999999
 31
0.0
  0
LINE
  5
11C71
330
11816
100
AcDbEntity
  8
1
  6
Continuous
100
AcDbLine
 10
741.5
 20
50.5
 30
0.0
 11
741.5
 21
49.7
 31
0.0
  0
LINE
  5
11C72
330
11816
100
AcDbEntity
  8
3
  6
DASHED
100
AcDbLine
 10
741.5
 20
44.0
 30
0.0
 11
741.5
 21
49.7
 31
0.0
  0
LINE
  5
11C73
330
11816
100
AcDbEntity
  8
4
  6
CENTER
100
AcDbLine
 10
797.7999999999997
 20
36.504411
 30
0.0
 11
797.7999999999997
 21
47.00441099999999
 31
0.0
  0
LINE
  5
11C74
330
11816
100
AcDbEntity
  8
4
  6
CENTER
100
AcDbLine
 10
908.9
 20
36.504411
 30
0.0
 11
908.9
 21
47.00441099999999
 31
0.0
  0
LINE
  5
11C75
330
11816
100
AcDbEntity
  8
4
  6
CENTER
100
AcDbLine
 10
921.6000000000001
 20
36.504411
 30
0.0
 11
921.6000000000001
 21
47.00441099999999
 31
0.0
  0
LINE
  5
11C76
330
11816
100
AcDbEntity
  8
1
  6
Continuous
100
AcDbLine
 10
937.1
 20
49.7
 30
0.0
 11
937.1
 21
41.0
 31
0.0
  0
LINE
  5
11C77
330
11816
100
AcDbEntity
  8
5
  6
PHANTOM
100
AcDbLine
 10
531.0999999999998
 20
160.4999999999998
 30
0.0
 11
934.1000000000001
 21
160.4999999999998
 31
0.0
  0
LINE
  5
11C78
330
11816
100
AcDbEntity
  8
5
  6
PHANTOM
100
AcDbLine
 10
531.0999999999998
 20
185.0
 30
0.0
 11
934.1000000000001
 21
185.0
 31
0.0
  0
LINE
  5
11C79
330
11816
100
AcDbEntity
  8
5
  6
PHANTOM
100
AcDbLine
 10
531.0999999999998
 20
165.25
 30
0.0
 11
531.0999999999998
 21
180.25
 31
0.0
  0
ARC
  5
11C7A
330
11816
100
AcDbEntity
  8
5
  6
PHANTOM
100
AcDbCircle
 10
559.7
 20
173.15
 30
0.0
 40
2.25
100
AcDbArc
 50
0.0
 51
180.0
  0
ARC
  5
11C7B
330
11816
100
AcDbEntity
  8
5
  6
PHANTOM
100
AcDbCircle
 10
559.7
 20
172.35
 30
0.0
 40
2.25
100
AcDbArc
 50
180.0
 51
0.0
  0
LINE
  5
11C7C
330
11816
100
AcDbEntity
  8
5
  6
PHANTOM
100
AcDbLine
 10
557.45
 20
172.35
 30
0.0
 11
557.45
 21
173.15
 31
0.0
  0
LINE
  5
11C7D
330
11816
100
AcDbEntity
  8
5
  6
PHANTOM
100
AcDbLine
 10
544.7499999999998
 20
172.35
 30
0.0
 11
544.7499999999998
 21
173.15
 31
0.0
  0
LINE
  5
11C7E
330
11816
100
AcDbEntity
  8
5
  6
PHANTOM
100
AcDbLine
 10
549.2499999999998
 20
172.35
 30
0.0
 11
549.2499999999998
 21
173.15
 31
0.0
  0
ARC
  5
11C7F
330
11816
100
AcDbEntity
  8
5
  6
PHANTOM
100
AcDbCircle
 10
547.0
 20
172.35
 30
0.0
 40
2.25
100
AcDbArc
 50
180.0
 51
0.0
  0
ARC
  5
11C80
330
11816
100
AcDbEntity
  8
5
  6
PHANTOM
100
AcDbCircle
 10
547.0
 20
173.15
 30
0.0
 40
2.25
100
AcDbArc
 50
0.0
 51
180.0
  0
LINE
  5
11C81
330
11816
100
AcDbEntity
  8
5
  6
PHANTOM
100
AcDbLine
 10
561.95
 20
172.35
 30
0.0
 11
561.95
 21
173.15
 31
0.0
  0
ARC
  5
11C82
330
11816
100
AcDbEntity
  8
5
  6
PHANTOM
100
AcDbCircle
 10
671.2000000000001
 20
172.75
 30
0.0
 40
2.25
100
AcDbArc
 50
270.0
 51
90.0
  0
ARC
  5
11C83
330
11816
100
AcDbEntity
  8
5
  6
PHANTOM
100
AcDbCircle
 10
670.3999999999997
 20
172.75
 30
0.0
 40
2.25
100
AcDbArc
 50
90.0
 51
270.0
  0
LINE
  5
11C84
330
11816
100
AcDbEntity
  8
5
  6
PHANTOM
100
AcDbLine
 10
670.3999999999997
 20
170.5
 30
0.0
 11
671.2000000000001
 21
170.5
 31
0.0
  0
LINE
  5
11C85
330
11816
100
AcDbEntity
  8
4
  6
CENTER
100
AcDbLine
 10
670.7999999999998
 20
167.5
 30
0.0
 11
670.7999999999998
 21
178.0
 31
0.0
  0
LINE
  5
11C86
330
11816
100
AcDbEntity
  8
5
  6
PHANTOM
100
AcDbLine
 10
670.3999999999997
 20
175.0
 30
0.0
 11
671.2000000000001
 21
175.0
 31
0.0
  0
ARC
  5
11C87
330
11816
100
AcDbEntity
  8
5
  6
PHANTOM
100
AcDbCircle
 10
743.1
 20
176.5
 30
0.0
 40
2.5
100
AcDbArc
 50
0.0
 51
180.0
  0
LINE
  5
11C88
330
11816
100
AcDbEntity
  8
5
  6
PHANTOM
100
AcDbLine
 10
745.6
 20
169.0
 30
0.0
 11
745.6
 21
176.5
 31
0.0
  0
ARC
  5
11C89
330
11816
100
AcDbEntity
  8
5
  6
PHANTOM
100
AcDbCircle
 10
743.1
 20
169.0
 30
0.0
 40
2.5
100
AcDbArc
 50
180.0
 51
0.0
  0
LINE
  5
11C8A
330
11816
100
AcDbEntity
  8
5
  6
PHANTOM
100
AcDbLine
 10
740.6
 20
169.0
 30
0.0
 11
740.6
 21
176.5
 31
0.0
  0
LINE
  5
11C8B
330
11816
100
AcDbEntity
  8
5
  6
PHANTOM
100
AcDbLine
 10
934.1000000000001
 20
167.25
 30
0.0
 11
934.1000000000001
 21
178.2499999999998
 31
0.0
  0
LINE
  5
11C8C
330
11816
100
AcDbEntity
  8
5
  6
PHANTOM
100
AcDbLine
 10
895.7999999999996
 20
175.0
 30
0.0
 11
896.6000000000001
 21
175.0
 31
0.0
  0
LINE
  5
11C8D
330
11816
100
AcDbEntity
  8
4
  6
CENTER
100
AcDbLine
 10
896.2000000000001
 20
167.5
 30
0.0
 11
896.2000000000001
 21
178.0
 31
0.0
  0
LINE
  5
11C8E
330
11816
100
AcDbEntity
  8
5
  6
PHANTOM
100
AcDbLine
 10
895.7999999999996
 20
170.5
 30
0.0
 11
896.6000000000001
 21
170.5
 31
0.0
  0
ARC
  5
11C8F
330
11816
100
AcDbEntity
  8
5
  6
PHANTOM
100
AcDbCircle
 10
895.7999999999996
 20
172.75
 30
0.0
 40
2.25
100
AcDbArc
 50
90.0
 51
270.0
  0
ARC
  5
11C90
330
11816
100
AcDbEntity
  8
5
  6
PHANTOM
100
AcDbCircle
 10
896.6000000000001
 20
172.75
 30
0.0
 40
2.25
100
AcDbArc
 50
270.0
 51
90.0
  0
LINE
  5
11C91
330
11816
100
AcDbEntity
  8
5
  6
PHANTOM
100
AcDbLine
 10
932.0999999999999
 20
162.6624999999999
 30
0.0
 11
934.1000000000001
 21
162.6624999999999
 31
0.0
  0
ARC
  5
11C92
330
11816
100
AcDbEntity
  8
5
  6
PHANTOM
100
AcDbCircle
 10
931.0999999999999
 20
163.25
 30
0.0
 40
1.0
100
AcDbArc
 50
0.0
 51
90.0
  0
LINE
  5
11C93
330
11816
100
AcDbEntity
  8
5
  6
PHANTOM
100
AcDbLine
 10
934.1000000000001
 20
162.6624999999999
 30
0.0
 11
934.1000000000001
 21
160.4999999999998
 31
0.0
  0
ARC
  5
11C94
330
11816
100
AcDbEntity
  8
5
  6
PHANTOM
100
AcDbCircle
 10
932.6
 20
167.25
 30
0.0
 40
1.5
100
AcDbArc
 50
270.0
 51
0.0
  0
LINE
  5
11C95
330
11816
100
AcDbEntity
  8
5
  6
PHANTOM
100
AcDbLine
 10
928.85
 20
165.7499999999998
 30
0.0
 11
932.6
 21
165.7499999999998
 31
0.0
  0
ARC
  5
11C96
330
11816
100
AcDbEntity
  8
5
  6
PHANTOM
100
AcDbCircle
 10
928.85
 20
165.0
 30
0.0
 40
0.75
100
AcDbArc
 50
90.0
 51
270.0
  0
LINE
  5
11C97
330
11816
100
AcDbEntity
  8
5
  6
PHANTOM
100
AcDbLine
 10
928.85
 20
164.25
 30
0.0
 11
931.0999999999999
 21
164.25
 31
0.0
  0
LINE
  5
11C98
330
11816
100
AcDbEntity
  8
5
  6
PHANTOM
100
AcDbLine
 10
932.0999999999999
 20
163.25
 30
0.0
 11
932.0999999999999
 21
160.4999999999998
 31
0.0
  0
LINE
  5
11C99
330
11816
100
AcDbEntity
  8
5
  6
PHANTOM
100
AcDbLine
 10
932.0999999999999
 20
182.8375
 30
0.0
 11
934.1000000000001
 21
182.8375
 31
0.0
  0
ARC
  5
11C9A
330
11816
100
AcDbEntity
  8
5
  6
PHANTOM
100
AcDbCircle
 10
931.0999999999999
 20
182.2499999999998
 30
0.0
 40
1.0
100
AcDbArc
 50
270.0
 51
0.0
  0
LINE
  5
11C9B
330
11816
100
AcDbEntity
  8
5
  6
PHANTOM
100
AcDbLine
 10
932.0999999999999
 20
182.2499999999998
 30
0.0
 11
932.0999999999999
 21
185.0
 31
0.0
  0
ARC
  5
11C9C
330
11816
100
AcDbEntity
  8
5
  6
PHANTOM
100
AcDbCircle
 10
928.85
 20
180.4999999999998
 30
0.0
 40
0.75
100
AcDbArc
 50
90.0
 51
270.0
  0
ARC
  5
11C9D
330
11816
100
AcDbEntity
  8
5
  6
PHANTOM
100
AcDbCircle
 10
932.6
 20
178.2499999999998
 30
0.0
 40
1.5
100
AcDbArc
 50
0.0
 51
90.0
  0
LINE
  5
11C9E
330
11816
100
AcDbEntity
  8
5
  6
PHANTOM
100
AcDbLine
 10
934.1000000000001
 20
182.8375
 30
0.0
 11
934.1000000000001
 21
185.0
 31
0.0
  0
LINE
  5
11C9F
330
11816
100
AcDbEntity
  8
5
  6
PHANTOM
100
AcDbLine
 10
928.85
 20
181.25
 30
0.0
 11
931.0999999999999
 21
181.25
 31
0.0
  0
LINE
  5
11CA0
330
11816
100
AcDbEntity
  8
5
  6
PHANTOM
100
AcDbLine
 10
928.85
 20
179.75
 30
0.0
 11
932.6
 21
179.75
 31
0.0
  0
ENDSEC
  0
SECTION
  2
OBJECTS
  0
DICTIONARY
  5
11804
330
0
100
AcDbDictionary
281
     1
  3
ACAD_CIP_PREVIOUS_PRODUCT_INFO
350
11D00
  3
ACAD_COLOR
350
11CE2
  3
ACAD_DETAILVIEWSTYLE
350
11CFB
  3
ACAD_GROUP
350
11805
  3
ACAD_LAYOUT
350
11811
  3
ACAD_MATERIAL
350
11CB0
  3
ACAD_MLEADERSTYLE
350
11CF7
  3
ACAD_MLINESTYLE
350
1180E
  3
ACAD_PLOTSETTINGS
350
11810
  3
ACAD_PLOTSTYLENAME
350
11CAE
  3
ACAD_SCALELIST
350
11CE5
  3
ACAD_SECTIONVIEWSTYLE
350
11CF9
  3
ACAD_TABLESTYLE
350
11CE3
  3
ACAD_VISUALSTYLE
350
11CC9
  3
ACDB_RECOMPOSE_DATA
350
11D1E
  3
AcDbVariableDictionary
350
11D11
  3
DWGPROPS
350
11D1F
  0
DICTIONARY
  5
11D01
330
11808
100
AcDbDictionary
280
     1
281
     1
  3
ADSK_XREC_LAYER_RECONCILED
360
11D02
  0
DICTIONARY
  5
11D03
330
1181E
100
AcDbDictionary
280
     1
281
     1
  3
ADSK_XREC_LAYER_RECONCILED
360
11D04
  0
DICTIONARY
  5
11D05
330
1181F
100
AcDbDictionary
280
     1
281
     1
  3
ADSK_XREC_LAYER_RECONCILED
360
11D06
  0
DICTIONARY
  5
11D07
330
11820
100
AcDbDictionary
280
     1
281
     1
  3
ADSK_XREC_LAYER_RECONCILED
360
11D08
  0
DICTIONARY
  5
11D09
330
11821
100
AcDbDictionary
280
     1
281
     1
  3
ADSK_XREC_LAYER_RECONCILED
360
11D0A
  0
DICTIONARY
  5
11D0B
330
11822
100
AcDbDictionary
280
     1
281
     1
  3
ADSK_XREC_LAYER_RECONCILED
360
11D0C
  0
DICTIONARY
  5
11D0D
330
11823
100
AcDbDictionary
280
     1
281
     1
  3
ADSK_XREC_LAYER_RECONCILED
360
11D0E
  0
DICTIONARY
  5
11D0F
330
11824
100
AcDbDictionary
280
     1
281
     1
  3
ADSK_XREC_LAYER_RECONCILED
360
11D10
  0
DICTIONARY
  5
11CA9
330
11816
100
AcDbDictionary
281
     1
  3
ACAD_LAYOUTSELFREF
350
11CAA
  0
DICTIONARY
  5
11CA7
330
11812
100
AcDbDictionary
281
     1
  3
ACAD_LAYOUTSELFREF
350
11CA8
  0
XRECORD
  5
11D00
102
{ACAD_REACTORS
330
11804
102
}
330
11804
100
AcDbXrecord
280
     1
300
ACDLT
300
2014
300
ACDLT_F_S
  0
DICTIONARY
  5
11CE2
102
{ACAD_REACTORS
330
11804
102
}
330
11804
100
AcDbDictionary
281
     1
  0
DICTIONARY
  5
11CFB
102
{ACAD_REACTORS
330
11804
102
}
330
11804
100
AcDbDictionary
281
     1
  3
Imperial24
350
11CFC
  0
DICTIONARY
  5
11805
102
{ACAD_REACTORS
330
11804
102
}
330
11804
100
AcDbDictionary
281
     1
  0
DICTIONARY
  5
11811
102
{ACAD_REACTORS
330
11804
102
}
330
11804
100
AcDbDictionary
281
     1
  3
Model
350
11CFD
  3
レイアウト1
350
11CFE
  0
DICTIONARY
  5
11CB0
102
{ACAD_REACTORS
330
11804
102
}
330
11804
100
AcDbDictionary
281
     1
  3
ByBlock
350
11CB9
  3
ByLayer
350
11CB1
  3
Global
350
11CC1
  0
DICTIONARY
  5
11CF7
102
{ACAD_REACTORS
330
11804
102
}
330
11804
100
AcDbDictionary
281
     1
  3
Standard
350
11CF8
  0
DICTIONARY
  5
1180E
102
{ACAD_REACTORS
330
11804
102
}
330
11804
100
AcDbDictionary
281
     1
  3
STANDARD
350
1180F
  0
DICTIONARY
  5
11810
102
{ACAD_REACTORS
330
11804
102
}
330
11804
100
AcDbDictionary
281
     1
  0
ACDBDICTIONARYWDFLT
  5
11CAE
102
{ACAD_REACTORS
330
11804
102
}
330
11804
100
AcDbDictionary
281
     1
  3
Normal
350
11CAF
100
AcDbDictionaryWithDefault
340
11CAF
  0
DICTIONARY
  5
11CE5
102
{ACAD_REACTORS
330
11804
102
}
330
11804
100
AcDbDictionary
281
     1
  3
A0
350
11CE6
  3
A1
350
11CE7
  3
A2
350
11CE8
  3
A3
350
11CE9
  3
A4
350
11CEA
  3
A5
350
11CEB
  3
A6
350
11CEC
  3
A7
350
11CED
  3
A8
350
11CEE
  3
A9
350
11CEF
  3
B0
350
11CF0
  3
B1
350
11CF1
  3
B2
350
11CF2
  3
B3
350
11CF3
  3
B4
350
11CF4
  3
B5
350
11CF5
  3
B6
350
11CF6
  0
DICTIONARY
  5
11CF9
102
{ACAD_REACTORS
330
11804
102
}
330
11804
100
AcDbDictionary
281
     1
  3
Imperial24
350
11CFA
  0
DICTIONARY
  5
11CE3
102
{ACAD_REACTORS
330
11804
102
}
330
11804
100
AcDbDictionary
281
     1
  3
Standard
350
11CE4
  0
DICTIONARY
  5
11CC9
102
{ACAD_REACTORS
330
11804
102
}
330
11804
100
AcDbDictionary
281
     1
  3
2dWireframe
350
11CCF
  3
Basic
350
11CCE
  3
Brighten
350
11CD5
  3
ColorChange
350
11CD9
  3
Conceptual
350
11CD2
  3
Dim
350
11CD4
  3
EdgeColorOff
350
11CE1
  3
Facepattern
350
11CD8
  3
Flat
350
11CCA
  3
FlatWithEdges
350
11CCB
  3
Gouraud
350
11CCC
  3
GouraudWithEdges
350
11CCD
  3
Hidden
350
11CD1
  3
JitterOff
350
11CDF
  3
Linepattern
350
11CD7
  3
OverhangOff
350
11CE0
  3
Realistic
350
11CD3
  3
Shaded
350
11CDE
  3
Shaded with edges
350
11CDD
  3
Shades of Gray
350
11CDA
  3
Sketchy
350
11CDB
  3
Thicken
350
11CD6
  3
Wireframe
350
11CD0
  3
X-Ray
350
11CDC
  0
XRECORD
  5
11D1E
102
{ACAD_REACTORS
330
11804
102
}
330
11804
100
AcDbXrecord
280
     1
 90
        1
330
11CE4
  0
DICTIONARY
  5
11D11
102
{ACAD_REACTORS
330
11804
102
}
330
11804
100
AcDbDictionary
281
     1
  3
CANNOSCALE
350
11D16
  3
CMLEADERSTYLE
350
11D13
  3
CTABLESTYLE
350
11D12
  3
CVIEWDETAILSTYLE
350
11D14
  3
CVIEWSECTIONSTYLE
350
11D15
  3
DIMASSOC
350
11D19
  3
INDEXCTL
350
11D18
  3
SORTENTS
350
11D17
  3
XCLIPFRAME
350
11D1A
  0
XRECORD
  5
11D1F
102
{ACAD_REACTORS
330
11804
102
}
330
11804
100
AcDbXrecord
280
     1
  1
DWGPROPS COOKIE
  2

  3

  4

  6

  7

  8
Yoshitsune
  9

300
=
301
=
302
=
303
=
304
=
305
=
306
=
307
=
308
=
309
=
 40
0.0000136342592593
 41
2451301.789203125
 42
2457192.659592315
  1

 90
        0
  0
XRECORD
  5
11D02
102
{ACAD_REACTORS
330
11D01
102
}
330
11D01
100
AcDbXrecord
280
     1
290
     1
  0
XRECORD
  5
11D04
102
{ACAD_REACTORS
330
11D03
102
}
330
11D03
100
AcDbXrecord
280
     1
290
     1
  0
XRECORD
  5
11D06
102
{ACAD_REACTORS
330
11D05
102
}
330
11D05
100
AcDbXrecord
280
     1
290
     1
  0
XRECORD
  5
11D08
102
{ACAD_REACTORS
330
11D07
102
}
330
11D07
100
AcDbXrecord
280
     1
290
     1
  0
XRECORD
  5
11D0A
102
{ACAD_REACTORS
330
11D09
102
}
330
11D09
100
AcDbXrecord
280
     1
290
     1
  0
XRECORD
  5
11D0C
102
{ACAD_REACTORS
330
11D0B
102
}
330
11D0B
100
AcDbXrecord
280
     1
290
     1
  0
XRECORD
  5
11D0E
102
{ACAD_REACTORS
330
11D0D
102
}
330
11D0D
100
AcDbXrecord
280
     1
290
     1
  0
XRECORD
  5
11D10
102
{ACAD_REACTORS
330
11D0F
102
}
330
11D0F
100
AcDbXrecord
280
     1
290
     1
  0
XRECORD
  5
11CAA
102
{ACAD_REACTORS
330
11CA9
102
}
330
11CA9
100
AcDbXrecord
280
     1
340
11816
  0
XRECORD
  5
11CA8
102
{ACAD_REACTORS
330
11CA7
102
}
330
11CA7
100
AcDbXrecord
280
     1
340
11812
  0
ACDBDETAILVIEWSTYLE
  5
11CFC
102
{ACAD_XDICTIONARY
360
11D57
102
}
102
{ACAD_REACTORS
330
11CFB
102
}
330
11CFB
100
AcDbModelDocViewStyle
 70
     0
  3
Imperial24
290
     0
100
AcDbDetailViewStyle
 70
     0
 71
     0
 90
        3
 71
     1
340
11809
 40
0.24
340
0
 40
0.24
300

 40
0.36
280
     3
 71
     2
340
1180D
 90
       25
 71
     3
340
11809
 40
0.24
 90
        1
 40
0.75
 90
        1
300
%<\AcVar ViewType \f "%tc1">% %<\AcVar ViewDetailId>%\PSCALE %<\AcVar ViewScale \f "%sn">%
 71
     4
340
1180D
 90
       25
340
1180D
 90
       25
280
     0
  0
LAYOUT
  5
11CFD
102
{ACAD_XDICTIONARY
360
11D59
102
}
102
{ACAD_REACTORS
330
11811
102
}
330
11811
100
AcDbPlotSettings
  1

  2
Canon LBP9100C
  4

  6

 40
0.0
 41
0.0
 42
0.0
 43
0.0
 44
0.0
 45
0.0
 46
0.0
 47
0.0
 48
0.0
 49
0.0
140
0.0
141
0.0
142
1.0
143
1.0
 70
  1712
 72
     0
 73
     0
 74
     0
  7

 75
     0
147
1.0
148
0.0
149
0.0
100
AcDbLayout
  1
Model
 70
     1
 71
     0
 10
0.0
 20
0.0
 11
12.0
 21
9.0
 12
0.0
 22
0.0
 32
0.0
 14
0.0
 24
0.0
 34
0.0
 15
0.0
 25
0.0
 35
0.0
146
0.0
 13
0.0
 23
0.0
 33
0.0
 16
1.0
 26
0.0
 36
0.0
 17
0.0
 27
1.0
 37
0.0
 76
     0
330
11816
331
11CA6
  0
LAYOUT
  5
11CFE
102
{ACAD_XDICTIONARY
360
11D5B
102
}
102
{ACAD_REACTORS
330
11811
102
}
330
11811
100
AcDbPlotSettings
  1

  2
Canon LBP9100C
  4

  6

 40
0.0
 41
0.0
 42
0.0
 43
0.0
 44
0.0
 45
0.0
 46
0.0
 47
0.0
 48
0.0
 49
0.0
140
0.0
141
0.0
142
1.0
143
1.0
 70
   688
 72
     0
 73
     0
 74
     5
  7

 75
    16
147
1.0
148
0.0
149
0.0
100
AcDbLayout
  1
レイアウト1
 70
     0
 71
     1
 10
0.0
 20
0.0
 11
420.0
 21
297.0
 12
0.0
 22
0.0
 32
0.0
 14
1.000000000000000E+20
 24
1.000000000000000E+20
 34
1.000000000000000E+20
 15
-1.000000000000000E+20
 25
-1.000000000000000E+20
 35
-1.000000000000000E+20
146
0.0
 13
0.0
 23
0.0
 33
0.0
 16
1.0
 26
0.0
 36
0.0
 17
0.0
 27
1.0
 37
0.0
 76
     0
330
11812
  0
MATERIAL
  5
11CB9
102
{ACAD_XDICTIONARY
360
11CBA
102
}
102
{ACAD_REACTORS
330
11CB0
102
}
330
11CB0
100
AcDbMaterial
  1
ByBlock
 72
     0
 43
0.0208333333333333
 43
0.0
 43
0.0
 43
0.0
 43
0.0
 43
0.0208333333333333
 43
0.0
 43
0.0
 43
0.0
 43
0.0
 43
1.0
 43
0.0
 43
0.0
 43
0.0
 43
0.0
 43
1.0
 77
     0
 47
0.0208333333333333
 47
0.0
 47
0.0
 47
0.0
 47
0.0
 47
0.0208333333333333
 47
0.0
 47
0.0
 47
0.0
 47
0.0
 47
1.0
 47
0.0
 47
0.0
 47
0.0
 47
0.0
 47
1.0
171
     0
 49
0.0208333333333333
 49
0.0
 49
0.0
 49
0.0
 49
0.0
 49
0.0208333333333333
 49
0.0
 49
0.0
 49
0.0
 49
0.0
 49
1.0
 49
0.0
 49
0.0
 49
0.0
 49
0.0
 49
1.0
175
     0
142
0.0208333333333333
142
0.0
142
0.0
142
0.0
142
0.0
142
0.0208333333333333
142
0.0
142
0.0
142
0.0
142
0.0
142
1.0
142
0.0
142
0.0
142
0.0
142
0.0
142
1.0
179
     0
144
0.0208333333333333
144
0.0
144
0.0
144
0.0
144
0.0
144
0.0208333333333333
144
0.0
144
0.0
144
0.0
144
0.0
144
1.0
144
0.0
144
0.0
144
0.0
144
0.0
144
1.0
147
0.0208333333333333
147
0.0
147
0.0
147
0.0
147
0.0
147
0.0208333333333333
147
0.0
147
0.0
147
0.0
147
0.0
147
1.0
147
0.0
147
0.0
147
0.0
147
0.0
147
1.0
  0
MATERIAL
  5
11CB1
102
{ACAD_XDICTIONARY
360
11CB2
102
}
102
{ACAD_REACTORS
330
11CB0
102
}
330
11CB0
100
AcDbMaterial
  1
ByLayer
 72
     0
 43
0.0208333333333333
 43
0.0
 43
0.0
 43
0.0
 43
0.0
 43
0.0208333333333333
 43
0.0
 43
0.0
 43
0.0
 43
0.0
 43
1.0
 43
0.0
 43
0.0
 43
0.0
 43
0.0
 43
1.0
 77
     0
 47
0.0208333333333333
 47
0.0
 47
0.0
 47
0.0
 47
0.0
 47
0.0208333333333333
 47
0.0
 47
0.0
 47
0.0
 47
0.0
 47
1.0
 47
0.0
 47
0.0
 47
0.0
 47
0.0
 47
1.0
171
     0
 49
0.0208333333333333
 49
0.0
 49
0.0
 49
0.0
 49
0.0
 49
0.0208333333333333
 49
0.0
 49
0.0
 49
0.0
 49
0.0
 49
1.0
 49
0.0
 49
0.0
 49
0.0
 49
0.0
 49
1.0
175
     0
142
0.0208333333333333
142
0.0
142
0.0
142
0.0
142
0.0
142
0.0208333333333333
142
0.0
142
0.0
142
0.0
142
0.0
142
1.0
142
0.0
142
0.0
142
0.0
142
0.0
142
1.0
179
     0
144
0.0208333333333333
144
0.0
144
0.0
144
0.0
144
0.0
144
0.0208333333333333
144
0.0
144
0.0
144
0.0
144
0.0
144
1.0
144
0.0
144
0.0
144
0.0
144
0.0
144
1.0
147
0.0208333333333333
147
0.0
147
0.0
147
0.0
147
0.0
147
0.0208333333333333
147
0.0
147
0.0
147
0.0
147
0.0
147
1.0
147
0.0
147
0.0
147
0.0
147
0.0
147
1.0
  0
MATERIAL
  5
11CC1
102
{ACAD_XDICTIONARY
360
11CC2
102
}
102
{ACAD_REACTORS
330
11CB0
102
}
330
11CB0
100
AcDbMaterial
  1
Global
 72
     0
 43
0.0208333333333333
 43
0.0
 43
0.0
 43
0.0
 43
0.0
 43
0.0208333333333333
 43
0.0
 43
0.0
 43
0.0
 43
0.0
 43
1.0
 43
0.0
 43
0.0
 43
0.0
 43
0.0
 43
1.0
 77
     0
 47
0.0208333333333333
 47
0.0
 47
0.0
 47
0.0
 47
0.0
 47
0.0208333333333333
 47
0.0
 47
0.0
 47
0.0
 47
0.0
 47
1.0
 47
0.0
 47
0.0
 47
0.0
 47
0.0
 47
1.0
171
     0
 49
0.0208333333333333
 49
0.0
 49
0.0
 49
0.0
 49
0.0
 49
0.0208333333333333
 49
0.0
 49
0.0
 49
0.0
 49
0.0
 49
1.0
 49
0.0
 49
0.0
 49
0.0
 49
0.0
 49
1.0
175
     0
142
0.0208333333333333
142
0.0
142
0.0
142
0.0
142
0.0
142
0.0208333333333333
142
0.0
142
0.0
142
0.0
142
0.0
142
1.0
142
0.0
142
0.0
142
0.0
142
0.0
142
1.0
179
     0
144
0.0208333333333333
144
0.0
144
0.0
144
0.0
144
0.0
144
0.0208333333333333
144
0.0
144
0.0
144
0.0
144
0.0
144
1.0
144
0.0
144
0.0
144
0.0
144
0.0
144
1.0
147
0.0208333333333333
147
0.0
147
0.0
147
0.0
147
0.0
147
0.0208333333333333
147
0.0
147
0.0
147
0.0
147
0.0
147
1.0
147
0.0
147
0.0
147
0.0
147
0.0
147
1.0
  0
MLEADERSTYLE
  5
11CF8
102
{ACAD_REACTORS
330
11CF7
102
}
330
11CF7
100
AcDbMLeaderStyle
170
     2
171
     1
172
     0
 90
        2
 40
0.0
 41
0.0
173
     1
 91
-1056964608
340
1180B
 92
       -2
290
     1
 42
0.09
291
     1
 43
0.36
  3
Standard
 44
0.18
300

342
11809
174
     1
178
     6
175
     1
176
     0
 93
-1056964608
 45
0.18
292
     0
297
     0
 46
0.18
 94
-1056964608
 47
1.0
 49
1.0
140
1.0
293
     1
141
0.0
294
     1
177
     0
142
1.0
295
     0
296
     0
143
0.125
1001
ACAD_MLEADERVER
1070
     2
  0
MLINESTYLE
  5
1180F
102
{ACAD_REACTORS
330
1180E
102
}
330
1180E
100
AcDbMlineStyle
  2
STANDARD
 70
     0
  3

 62
   256
 51
90.0
 52
90.0
 71
     2
 49
0.5
 62
   256
  6
BYLAYER
 49
-0.5
 62
   256
  6
BYLAYER
  0
ACDBPLACEHOLDER
  5
11CAF
102
{ACAD_REACTORS
330
11CAE
102
}
330
11CAE
  0
SCALE
  5
11CE6
102
{ACAD_REACTORS
330
11CE5
102
}
330
11CE5
100
AcDbScale
 70
     0
300
1:1
140
1.0
141
1.0
290
     1
  0
SCALE
  5
11CE7
102
{ACAD_REACTORS
330
11CE5
102
}
330
11CE5
100
AcDbScale
 70
     0
300
1/128" = 1'-0"
140
0.0078125
141
12.0
290
     0
  0
SCALE
  5
11CE8
102
{ACAD_REACTORS
330
11CE5
102
}
330
11CE5
100
AcDbScale
 70
     0
300
1/64" = 1'-0"
140
0.015625
141
12.0
290
     0
  0
SCALE
  5
11CE9
102
{ACAD_REACTORS
330
11CE5
102
}
330
11CE5
100
AcDbScale
 70
     0
300
1/32" = 1'-0"
140
0.03125
141
12.0
290
     0
  0
SCALE
  5
11CEA
102
{ACAD_REACTORS
330
11CE5
102
}
330
11CE5
100
AcDbScale
 70
     0
300
1/16" = 1'-0"
140
0.0625
141
12.0
290
     0
  0
SCALE
  5
11CEB
102
{ACAD_REACTORS
330
11CE5
102
}
330
11CE5
100
AcDbScale
 70
     0
300
3/32" = 1'-0"
140
0.09375
141
12.0
290
     0
  0
SCALE
  5
11CEC
102
{ACAD_REACTORS
330
11CE5
102
}
330
11CE5
100
AcDbScale
 70
     0
300
1/8" = 1'-0"
140
0.125
141
12.0
290
     0
  0
SCALE
  5
11CED
102
{ACAD_REACTORS
330
11CE5
102
}
330
11CE5
100
AcDbScale
 70
     0
300
3/16" = 1'-0"
140
0.1875
141
12.0
290
     0
  0
SCALE
  5
11CEE
102
{ACAD_REACTORS
330
11CE5
102
}
330
11CE5
100
AcDbScale
 70
     0
300
1/4" = 1'-0"
140
0.25
141
12.0
290
     0
  0
SCALE
  5
11CEF
102
{ACAD_REACTORS
330
11CE5
102
}
330
11CE5
100
AcDbScale
 70
     0
300
3/8" = 1'-0"
140
0.375
141
12.0
290
     0
  0
SCALE
  5
11CF0
102
{ACAD_REACTORS
330
11CE5
102
}
330
11CE5
100
AcDbScale
 70
     0
300
1/2" = 1'-0"
140
0.5
141
12.0
290
     0
  0
SCALE
  5
11CF1
102
{ACAD_REACTORS
330
11CE5
102
}
330
11CE5
100
AcDbScale
 70
     0
300
3/4" = 1'-0"
140
0.75
141
12.0
290
     0
  0
SCALE
  5
11CF2
102
{ACAD_REACTORS
330
11CE5
102
}
330
11CE5
100
AcDbScale
 70
     0
300
1" = 1'-0"
140
1.0
141
12.0
290
     0
  0
SCALE
  5
11CF3
102
{ACAD_REACTORS
330
11CE5
102
}
330
11CE5
100
AcDbScale
 70
     0
300
1-1/2" = 1'-0"
140
1.5
141
12.0
290
     0
  0
SCALE
  5
11CF4
102
{ACAD_REACTORS
330
11CE5
102
}
330
11CE5
100
AcDbScale
 70
     0
300
3" = 1'-0"
140
3.0
141
12.0
290
     0
  0
SCALE
  5
11CF5
102
{ACAD_REACTORS
330
11CE5
102
}
330
11CE5
100
AcDbScale
 70
     0
300
6" = 1'-0"
140
6.0
141
12.0
290
     0
  0
SCALE
  5
11CF6
102
{ACAD_REACTORS
330
11CE5
102
}
330
11CE5
100
AcDbScale
 70
     0
300
1'-0" = 1'-0"
140
12.0
141
12.0
290
     0
  0
ACDBSECTIONVIEWSTYLE
  5
11CFA
102
{ACAD_XDICTIONARY
360
11D55
102
}
102
{ACAD_REACTORS
330
11CF9
102
}
330
11CF9
100
AcDbModelDocViewStyle
 70
     0
  3
Imperial24
290
     0
100
AcDbSectionViewStyle
 70
     0
 71
     0
 90
       78
 71
     1
340
11809
 40
0.24
340
0
340
0
 40
0.24
300
I, O, Q, S, X, Z
 40
0.48
 90
        3
 40
0.18
 90
        1
 71
     2
340
1180D
 90
       25
340
1180D
 90
       50
 40
0.24
 40
0.0
 40
0.24
 71
     3
340
11809
 40
0.24
 90
        1
 40
0.75
 90
        1
300
%<\AcVar ViewType \f "%tc1">% %<\AcVar ViewSectionStartId>%-%<\AcVar ViewSectionEndId>%\PSCALE %<\AcVar ViewScale \f "%sn">%
 71
     4
300
ANSI31
 40
1.0
 90
        0
290
     0
290
     0
 90
        6
 40
0.0
 40
1.570796326794896
 40
0.2617993877991494
 40
1.308996938995747
 40
-0.2617993877991494
 40
1.832595714594046
  0
TABLESTYLE
  5
11CE4
102
{ACAD_XDICTIONARY
360
11D1C
102
}
102
{ACAD_REACTORS
330
11CE3
102
}
330
11CE3
100
AcDbTableStyle
  3
Standard
 70
     0
 71
     0
 40
0.06
 41
0.06
280
     0
281
     0
  7
STANDARD
140
0.18
170
     2
 62
     0
 63
     7
283
     0
274
    -2
284
     1
 64
     0
275
    -2
285
     1
 65
     0
276
    -2
286
     1
 66
     0
277
    -2
287
     1
 67
     0
278
    -2
288
     1
 68
     0
279
    -2
289
     1
 69
     0
  7
STANDARD
140
0.25
170
     5
 62
     0
 63
     7
283
     0
274
    -2
284
     1
 64
     0
275
    -2
285
     1
 65
     0
276
    -2
286
     1
 66
     0
277
    -2
287
     1
 67
     0
278
    -2
288
     1
 68
     0
279
    -2
289
     1
 69
     0
  7
STANDARD
140
0.18
170
     5
 62
     0
 63
     7
283
     0
274
    -2
284
     1
 64
     0
275
    -2
285
     1
 65
     0
276
    -2
286
     1
 66
     0
277
    -2
287
     1
 67
     0
278
    -2
288
     1
 68
     0
279
    -2
289
     1
 69
     0
  0
VISUALSTYLE
  5
11CCF
102
{ACAD_XDICTIONARY
360
11D2D
102
}
102
{ACAD_REACTORS
330
11CC9
102
}
330
11CC9
100
AcDbVisualStyle
  2
2dWireframe
 70
     4
 71
     0
 72
     2
 73
     0
 90
        0
 40
-0.6
 41
-30.0
 62
     5
 63
     7
 74
     1
 91
        4
 64
     7
 65
   257
 75
     1
175
     1
 42
1.0
 92
        0
 66
   257
 43
1.0
 76
     1
 77
     6
 78
     2
 67
     7
 79
     5
170
     0
171
     0
290
     0
174
     0
 93
        1
 44
0.0
173
     0
291
     0
 45
0.0
1001
ACAD
1000
AcDbSavedByObjectVersion
1070
     0
  0
VISUALSTYLE
  5
11CCE
102
{ACAD_XDICTIONARY
360
11D2B
102
}
102
{ACAD_REACTORS
330
11CC9
102
}
330
11CC9
100
AcDbVisualStyle
  2
Basic
 70
     7
 71
     1
 72
     0
 73
     1
 90
        0
 40
-0.6
 41
-30.0
 62
     5
 63
     7
 74
     0
 91
        4
 64
     7
 65
   257
 75
     1
175
     1
 42
1.0
 92
        8
 66
     7
 43
1.0
 76
     1
 77
     6
 78
     2
 67
     7
 79
     5
170
     0
171
     0
290
     0
174
     0
 93
        1
 44
0.0
173
     0
291
     1
 45
0.0
1001
ACAD
1000
AcDbSavedByObjectVersion
1070
     0
  0
VISUALSTYLE
  5
11CD5
102
{ACAD_XDICTIONARY
360
11D39
102
}
102
{ACAD_REACTORS
330
11CC9
102
}
330
11CC9
100
AcDbVisualStyle
  2
Brighten
 70
    12
 71
     2
 72
     2
 73
     0
 90
        0
 40
-0.6
 41
-30.0
 62
     5
 63
     7
 74
     1
 91
        4
 64
     7
 65
   257
 75
     1
175
     1
 42
1.0
 92
        8
 66
     7
 43
1.0
 76
     1
 77
     6
 78
     2
 67
     7
 79
     5
170
     0
171
     0
290
     0
174
     0
 93
        1
 44
50.0
173
     0
291
     1
 45
0.0
1001
ACAD
1000
AcDbSavedByObjectVersion
1070
     0
  0
VISUALSTYLE
  5
11CD9
102
{ACAD_XDICTIONARY
360
11D41
102
}
102
{ACAD_REACTORS
330
11CC9
102
}
330
11CC9
100
AcDbVisualStyle
  2
ColorChange
 70
    16
 71
     2
 72
     2
 73
     3
 90
        0
 40
-0.6
 41
-30.0
 62
     5
 63
     8
 74
     1
 91
        4
 64
     7
 65
   257
 75
     1
175
     1
 42
1.0
 92
        8
 66
     8
 43
1.0
 76
     1
 77
     6
 78
     2
 67
     7
 79
     5
170
     0
171
     0
290
     0
174
     0
 93
        1
 44
0.0
173
     0
291
     1
 45
0.0
1001
ACAD
1000
AcDbSavedByObjectVersion
1070
     0
  0
VISUALSTYLE
  5
11CD2
102
{ACAD_XDICTIONARY
360
11D33
102
}
102
{ACAD_REACTORS
330
11CC9
102
}
330
11CC9
100
AcDbVisualStyle
  2
Conceptual
 70
     9
 71
     3
 72
     2
 73
     0
 90
        0
 40
-0.6
 41
-30.0
 62
     5
 63
     7
 74
     2
 91
        2
 64
     7
 65
   257
 75
     1
175
     1
 42
179.0
 92
        8
 66
     7
 43
1.0
 76
     1
 77
     6
 78
     2
 67
     7
 79
     3
170
     0
171
     0
290
     0
174
     0
 93
        1
 44
0.0
173
     0
291
     0
 45
0.0
1001
ACAD
1000
AcDbSavedByObjectVersion
1070
     0
  0
VISUALSTYLE
  5
11CD4
102
{ACAD_XDICTIONARY
360
11D37
102
}
102
{ACAD_REACTORS
330
11CC9
102
}
330
11CC9
100
AcDbVisualStyle
  2
Dim
 70
    11
 71
     2
 72
     2
 73
     0
 90
        0
 40
-0.6
 41
-30.0
 62
     5
 63
     7
 74
     1
 91
        4
 64
     7
 65
   257
 75
     1
175
     1
 42
1.0
 92
        8
 66
     7
 43
1.0
 76
     1
 77
     6
 78
     2
 67
     7
 79
     5
170
     0
171
     0
290
     0
174
     0
 93
        1
 44
-50.0
173
     0
291
     1
 45
0.0
1001
ACAD
1000
AcDbSavedByObjectVersion
1070
     0
  0
VISUALSTYLE
  5
11CE1
102
{ACAD_XDICTIONARY
360
11D51
102
}
102
{ACAD_REACTORS
330
11CC9
102
}
330
11CC9
100
AcDbVisualStyle
  2
EdgeColorOff
 70
    22
 71
     2
 72
     2
 73
     0
 90
        0
 40
-0.6
 41
-30.0
 62
     5
 63
     7
 74
     1
 91
        4
 64
     7
 65
   257
 75
     1
175
     1
 42
1.0
 92
        8
 66
     7
 43
1.0
 76
     1
 77
     6
 78
     2
 67
     7
 79
     5
170
     0
171
     0
290
     0
174
     0
 93
        1
 44
0.0
173
     0
291
     1
 45
0.0
1001
ACAD
1000
AcDbSavedByObjectVersion
1070
     0
  0
VISUALSTYLE
  5
11CD8
102
{ACAD_XDICTIONARY
360
11D3F
102
}
102
{ACAD_REACTORS
330
11CC9
102
}
330
11CC9
100
AcDbVisualStyle
  2
Facepattern
 70
    15
 71
     2
 72
     2
 73
     0
 90
        0
 40
-0.6
 41
-30.0
 62
     5
 63
     7
 74
     1
 91
        4
 64
     7
 65
   257
 75
     1
175
     1
 42
1.0
 92
        8
 66
     7
 43
1.0
 76
     1
 77
     6
 78
     2
 67
     7
 79
     5
170
     0
171
     0
290
     0
174
     0
 93
        1
 44
0.0
173
     0
291
     1
 45
0.0
1001
ACAD
1000
AcDbSavedByObjectVersion
1070
     0
  0
VISUALSTYLE
  5
11CCA
102
{ACAD_XDICTIONARY
360
11D23
102
}
102
{ACAD_REACTORS
330
11CC9
102
}
330
11CC9
100
AcDbVisualStyle
  2
Flat
 70
     0
 71
     2
 72
     1
 73
     1
 90
        2
 40
-0.6
 41
30.0
 62
     5
 63
     7
 74
     0
 91
        0
 64
     7
 65
   257
 75
     1
175
     1
 42
1.0
 92
        8
 66
     7
 43
1.0
 76
     1
 77
     6
 78
     2
 67
     7
 79
     5
170
     0
171
     0
290
     0
174
     0
 93
       13
 44
0.0
173
     0
291
     1
 45
0.0
1001
ACAD
1000
AcDbSavedByObjectVersion
1070
     0
  0
VISUALSTYLE
  5
11CCB
102
{ACAD_XDICTIONARY
360
11D25
102
}
102
{ACAD_REACTORS
330
11CC9
102
}
330
11CC9
100
AcDbVisualStyle
  2
FlatWithEdges
 70
     1
 71
     2
 72
     1
 73
     1
 90
        2
 40
-0.6
 41
30.0
 62
     5
 63
     7
 74
     1
 91
        0
 64
     7
 65
   257
 75
     1
175
     1
 42
1.0
 92
        0
 66
   257
 43
1.0
 76
     1
 77
     6
 78
     2
 67
     7
 79
     5
170
     0
171
     0
290
     0
174
     0
 93
       13
 44
0.0
173
     0
291
     1
 45
0.0
1001
ACAD
1000
AcDbSavedByObjectVersion
1070
     0
  0
VISUALSTYLE
  5
11CCC
102
{ACAD_XDICTIONARY
360
11D27
102
}
102
{ACAD_REACTORS
330
11CC9
102
}
330
11CC9
100
AcDbVisualStyle
  2
Gouraud
 70
     2
 71
     2
 72
     2
 73
     1
 90
        2
 40
-0.6
 41
30.0
 62
     5
 63
     7
 74
     0
 91
        0
 64
     7
 65
   257
 75
     1
175
     1
 42
1.0
 92
        0
 66
     7
 43
1.0
 76
     1
 77
     6
 78
     2
 67
     7
 79
     5
170
     0
171
     0
290
     0
174
     0
 93
       13
 44
0.0
173
     0
291
     1
 45
0.0
1001
ACAD
1000
AcDbSavedByObjectVersion
1070
     0
  0
VISUALSTYLE
  5
11CCD
102
{ACAD_XDICTIONARY
360
11D29
102
}
102
{ACAD_REACTORS
330
11CC9
102
}
330
11CC9
100
AcDbVisualStyle
  2
GouraudWithEdges
 70
     3
 71
     2
 72
     2
 73
     1
 90
        2
 40
-0.6
 41
30.0
 62
     5
 63
     7
 74
     1
 91
        0
 64
     7
 65
   257
 75
     1
175
     1
 42
1.0
 92
        0
 66
   257
 43
1.0
 76
     1
 77
     6
 78
     2
 67
     7
 79
     5
170
     0
171
     0
290
     0
174
     0
 93
       13
 44
0.0
173
     0
291
     1
 45
0.0
1001
ACAD
1000
AcDbSavedByObjectVersion
1070
     0
  0
VISUALSTYLE
  5
11CD1
102
{ACAD_XDICTIONARY
360
11D31
102
}
102
{ACAD_REACTORS
330
11CC9
102
}
330
11CC9
100
AcDbVisualStyle
  2
Hidden
 70
     6
 71
     1
 72
     2
 73
     2
 90
        0
 40
-0.6
 41
-30.0
 62
     5
 63
     7
 74
     2
 91
        2
 64
     7
 65
   257
 75
     2
175
     1
 42
40.0
 92
        0
 66
   257
 43
1.0
 76
     1
 77
     6
 78
     2
 67
     7
 79
     3
170
     0
171
     0
290
     0
174
     0
 93
        1
 44
0.0
173
     0
291
     0
 45
0.0
1001
ACAD
1000
AcDbSavedByObjectVersion
1070
     0
  0
VISUALSTYLE
  5
11CDF
102
{ACAD_XDICTIONARY
360
11D4D
102
}
102
{ACAD_REACTORS
330
11CC9
102
}
330
11CC9
100
AcDbVisualStyle
  2
JitterOff
 70
    20
 71
     2
 72
     2
 73
     0
 90
        0
 40
-0.6
 41
-30.0
 62
     5
 63
     7
 74
     1
 91
        4
 64
     7
 65
   257
 75
     1
175
     1
 42
1.0
 92
       10
 66
     7
 43
1.0
 76
     1
 77
     6
 78
     2
 67
     7
 79
     5
170
     0
171
     0
290
     0
174
     0
 93
        1
 44
0.0
173
     0
291
     1
 45
0.0
1001
ACAD
1000
AcDbSavedByObjectVersion
1070
     0
  0
VISUALSTYLE
  5
11CD7
102
{ACAD_XDICTIONARY
360
11D3D
102
}
102
{ACAD_REACTORS
330
11CC9
102
}
330
11CC9
100
AcDbVisualStyle
  2
Linepattern
 70
    14
 71
     2
 72
     2
 73
     0
 90
        0
 40
-0.6
 41
-30.0
 62
     5
 63
     7
 74
     1
 91
        4
 64
     7
 65
   257
 75
     7
175
     7
 42
1.0
 92
        8
 66
     7
 43
1.0
 76
     1
 77
     6
 78
     2
 67
     7
 79
     5
170
     0
171
     0
290
     0
174
     0
 93
        1
 44
0.0
173
     0
291
     1
 45
0.0
1001
ACAD
1000
AcDbSavedByObjectVersion
1070
     0
  0
VISUALSTYLE
  5
11CE0
102
{ACAD_XDICTIONARY
360
11D4F
102
}
102
{ACAD_REACTORS
330
11CC9
102
}
330
11CC9
100
AcDbVisualStyle
  2
OverhangOff
 70
    21
 71
     2
 72
     2
 73
     0
 90
        0
 40
-0.6
 41
-30.0
 62
     5
 63
     7
 74
     1
 91
        4
 64
     7
 65
   257
 75
     1
175
     1
 42
1.0
 92
        9
 66
     7
 43
1.0
 76
     1
 77
     6
 78
     2
 67
     7
 79
     5
170
     0
171
     0
290
     0
174
     0
 93
        1
 44
0.0
173
     0
291
     1
 45
0.0
1001
ACAD
1000
AcDbSavedByObjectVersion
1070
     0
  0
VISUALSTYLE
  5
11CD3
102
{ACAD_XDICTIONARY
360
11D35
102
}
102
{ACAD_REACTORS
330
11CC9
102
}
330
11CC9
100
AcDbVisualStyle
  2
Realistic
 70
     8
 71
     2
 72
     3
 73
     0
 90
        2
 40
-0.6
 41
30.0
 62
     5
 63
     7
 74
     0
 91
        0
 64
     7
 65
   257
 75
     1
175
     1
 42
1.0
 92
        8
 66
   257
 43
1.0
 76
     1
 77
     6
 78
     2
 67
     7
 79
     3
170
     0
171
     0
290
     0
174
     0
 93
       13
 44
0.0
173
     0
291
     0
 45
0.0
1001
ACAD
1000
AcDbSavedByObjectVersion
1070
     0
  0
VISUALSTYLE
  5
11CDE
102
{ACAD_XDICTIONARY
360
11D4B
102
}
102
{ACAD_REACTORS
330
11CC9
102
}
330
11CC9
100
AcDbVisualStyle
  2
Shaded
 70
    27
 71
     2
 72
     2
 73
     1
 90
        2
 40
-0.6
 41
30.0
 62
     5
 63
     7
 74
     0
 91
        4
 64
     7
 65
   257
 75
     1
175
     1
 42
1.0
 92
        8
 66
   257
 43
1.0
 76
     1
 77
     6
 78
     2
 67
     8
 79
     3
170
     0
171
     0
290
     0
174
     0
 93
        5
 44
0.0
173
     0
291
     0
 45
0.0
1001
ACAD
1000
AcDbSavedByObjectVersion
1070
     0
  0
VISUALSTYLE
  5
11CDD
102
{ACAD_XDICTIONARY
360
11D49
102
}
102
{ACAD_REACTORS
330
11CC9
102
}
330
11CC9
100
AcDbVisualStyle
  2
Shaded with edges
 70
    26
 71
     2
 72
     2
 73
     1
 90
        2
 40
-0.6
 41
30.0
 62
     5
 63
     7
 74
     1
 91
       10
 64
     7
 65
   257
 75
     2
175
     1
 42
1.0
 92
        8
 66
   257
 43
1.0
 76
     1
 77
     6
 78
     2
 67
     7
 79
     3
170
     0
171
     0
290
     0
174
     0
 93
        5
 44
0.0
173
     0
291
     0
 45
0.0
1001
ACAD
1000
AcDbSavedByObjectVersion
1070
     0
  0
VISUALSTYLE
  5
11CDA
102
{ACAD_XDICTIONARY
360
11D43
102
}
102
{ACAD_REACTORS
330
11CC9
102
}
330
11CC9
100
AcDbVisualStyle
  2
Shades of Gray
 70
    23
 71
     2
 72
     2
 73
     3
 90
        0
 40
-0.6
 41
-30.0
 62
     5
 63
     7
 74
     2
 91
        2
 64
     7
 65
     7
 75
     1
175
     1
 42
40.0
 92
        8
 66
     7
 43
1.0
 76
     1
 77
     6
 78
     2
 67
     7
 79
     3
170
     0
171
     0
290
     0
174
     0
 93
        1
 44
0.0
173
     0
291
     0
 45
0.0
1001
ACAD
1000
AcDbSavedByObjectVersion
1070
     0
  0
VISUALSTYLE
  5
11CDB
102
{ACAD_XDICTIONARY
360
11D45
102
}
102
{ACAD_REACTORS
330
11CC9
102
}
330
11CC9
100
AcDbVisualStyle
  2
Sketchy
 70
    24
 71
     1
 72
     2
 73
     2
 90
        0
 40
-0.6
 41
-30.0
 62
     5
 63
     7
 74
     2
 91
        2
 64
     7
 65
     7
 75
     1
175
     1
 42
40.0
 92
       11
 66
     7
 43
1.0
 76
     1
 77
     6
 78
     2
 67
     7
 79
     6
170
     0
171
     0
290
     0
174
     0
 93
        1
 44
0.0
173
     0
291
     0
 45
0.0
1001
ACAD
1000
AcDbSavedByObjectVersion
1070
     0
  0
VISUALSTYLE
  5
11CD6
102
{ACAD_XDICTIONARY
360
11D3B
102
}
102
{ACAD_REACTORS
330
11CC9
102
}
330
11CC9
100
AcDbVisualStyle
  2
Thicken
 70
    13
 71
     2
 72
     2
 73
     0
 90
        0
 40
-0.6
 41
-30.0
 62
     5
 63
     7
 74
     1
 91
        4
 64
     7
 65
   257
 75
     1
175
     1
 42
1.0
 92
       12
 66
     7
 43
1.0
 76
     1
 77
     6
 78
     2
 67
     7
 79
     5
170
     0
171
     0
290
     0
174
     0
 93
        1
 44
0.0
173
     0
291
     1
 45
0.0
1001
ACAD
1000
AcDbSavedByObjectVersion
1070
     0
  0
VISUALSTYLE
  5
11CD0
102
{ACAD_XDICTIONARY
360
11D2F
102
}
102
{ACAD_REACTORS
330
11CC9
102
}
330
11CC9
100
AcDbVisualStyle
  2
Wireframe
 70
     5
 71
     0
 72
     2
 73
     0
 90
        0
 40
-0.6
 41
-30.0
 62
     5
 63
     7
 74
     1
 91
        4
 64
     7
 65
   257
 75
     1
175
     1
 42
1.0
 92
        0
 66
   257
 43
1.0
 76
     1
 77
     6
 78
     2
 67
     7
 79
     3
170
     0
171
     0
290
     0
174
     0
 93
        1
 44
0.0
173
     0
291
     0
 45
0.0
1001
ACAD
1000
AcDbSavedByObjectVersion
1070
     0
  0
VISUALSTYLE
  5
11CDC
102
{ACAD_XDICTIONARY
360
11D47
102
}
102
{ACAD_REACTORS
330
11CC9
102
}
330
11CC9
100
AcDbVisualStyle
  2
X-Ray
 70
    25
 71
     2
 72
     2
 73
     1
 90
        1
 40
0.5
 41
-30.0
 62
     5
 63
     7
 74
     1
 91
        0
 64
     7
 65
   257
 75
     1
175
     1
 42
1.0
 92
        8
 66
     7
 43
1.0
 76
     1
 77
     6
 78
     2
 67
     7
 79
     3
170
     0
171
     0
290
     0
174
     0
 93
       13
 44
0.0
173
     0
291
     0
 45
0.0
1001
ACAD
1000
AcDbSavedByObjectVersion
1070
     0
  0
DICTIONARYVAR
  5
11D16
102
{ACAD_REACTORS
330
11D11
102
}
330
11D11
100
DictionaryVariables
280
     0
  1
1:1
  0
DICTIONARYVAR
  5
11D13
102
{ACAD_REACTORS
330
11D11
102
}
330
11D11
100
DictionaryVariables
280
     0
  1
STANDARD
  0
DICTIONARYVAR
  5
11D12
102
{ACAD_REACTORS
330
11D11
102
}
330
11D11
100
DictionaryVariables
280
     0
  1
STANDARD
  0
DICTIONARYVAR
  5
11D14
102
{ACAD_REACTORS
330
11D11
102
}
330
11D11
100
DictionaryVariables
280
     0
  1
Imperial24
  0
DICTIONARYVAR
  5
11D15
102
{ACAD_REACTORS
330
11D11
102
}
330
11D11
100
DictionaryVariables
280
     0
  1
Imperial24
  0
DICTIONARYVAR
  5
11D19
102
{ACAD_REACTORS
330
11D11
102
}
330
11D11
100
DictionaryVariables
280
     0
  1
1
  0
DICTIONARYVAR
  5
11D18
102
{ACAD_REACTORS
330
11D11
102
}
330
11D11
100
DictionaryVariables
280
     0
  1
0
  0
DICTIONARYVAR
  5
11D17
102
{ACAD_REACTORS
330
11D11
102
}
330
11D11
100
DictionaryVariables
280
     0
  1
127
  0
DICTIONARYVAR
  5
11D1A
102
{ACAD_REACTORS
330
11D11
102
}
330
11D11
100
DictionaryVariables
280
     0
  1
2
  0
DICTIONARY
  5
11D57
330
11CFC
100
AcDbDictionary
280
     1
281
     1
  3
ACAD_XREC_ROUNDTRIP
360
11D58
  0
DICTIONARY
  5
11D59
330
11CFD
100
AcDbDictionary
280
     1
281
     1
  3
ACAD_XREC_ROUNDTRIP
360
11D5A
  0
DICTIONARY
  5
11D5B
330
11CFE
100
AcDbDictionary
280
     1
281
     1
  3
ACAD_XREC_ROUNDTRIP
360
11D5C
  0
DICTIONARY
  5
11CBA
330
11CB9
100
AcDbDictionary
280
     1
281
     1
  3
ACAD_XREC_ROUNDTRIP
360
11D21
  3
BUMPTILE
360
11CBC
  3
DIFFUSETILE
360
11CBB
  3
OPACITYTILE
360
11CBF
  3
REFLECTIONTILE
360
11CBE
  3
REFRACTIONTILE
360
11CC0
  3
SPECULARTILE
360
11CBD
  0
DICTIONARY
  5
11CB2
330
11CB1
100
AcDbDictionary
280
     1
281
     1
  3
ACAD_XREC_ROUNDTRIP
360
11D20
  3
BUMPTILE
360
11CB4
  3
DIFFUSETILE
360
11CB3
  3
OPACITYTILE
360
11CB7
  3
REFLECTIONTILE
360
11CB6
  3
REFRACTIONTILE
360
11CB8
  3
SPECULARTILE
360
11CB5
  0
DICTIONARY
  5
11CC2
330
11CC1
100
AcDbDictionary
280
     1
281
     1
  3
ACAD_XREC_ROUNDTRIP
360
11D22
  3
BUMPTILE
360
11CC4
  3
DIFFUSETILE
360
11CC3
  3
OPACITYTILE
360
11CC7
  3
REFLECTIONTILE
360
11CC6
  3
REFRACTIONTILE
360
11CC8
  3
SPECULARTILE
360
11CC5
  0
DICTIONARY
  5
11D55
330
11CFA
100
AcDbDictionary
280
     1
281
     1
  3
ACAD_XREC_ROUNDTRIP
360
11D56
  0
DICTIONARY
  5
11D1C
330
11CE4
100
AcDbDictionary
280
     1
281
     1
  3
ACAD_ROUNDTRIP_2008_TABLESTYLE_CELLSTYLEMAP
360
11D1D
  3
ACAD_XREC_ROUNDTRIP
360
11D53
  0
DICTIONARY
  5
11D2D
330
11CCF
100
AcDbDictionary
280
     1
281
     1
  3
ACAD_XREC_ROUNDTRIP
360
11D2E
  0
DICTIONARY
  5
11D2B
330
11CCE
100
AcDbDictionary
280
     1
281
     1
  3
ACAD_XREC_ROUNDTRIP
360
11D2C
  0
DICTIONARY
  5
11D39
330
11CD5
100
AcDbDictionary
280
     1
281
     1
  3
ACAD_XREC_ROUNDTRIP
360
11D3A
  0
DICTIONARY
  5
11D41
330
11CD9
100
AcDbDictionary
280
     1
281
     1
  3
ACAD_XREC_ROUNDTRIP
360
11D42
  0
DICTIONARY
  5
11D33
330
11CD2
100
AcDbDictionary
280
     1
281
     1
  3
ACAD_XREC_ROUNDTRIP
360
11D34
  0
DICTIONARY
  5
11D37
330
11CD4
100
AcDbDictionary
280
     1
281
     1
  3
ACAD_XREC_ROUNDTRIP
360
11D38
  0
DICTIONARY
  5
11D51
330
11CE1
100
AcDbDictionary
280
     1
281
     1
  3
ACAD_XREC_ROUNDTRIP
360
11D52
  0
DICTIONARY
  5
11D3F
330
11CD8
100
AcDbDictionary
280
     1
281
     1
  3
ACAD_XREC_ROUNDTRIP
360
11D40
  0
DICTIONARY
  5
11D23
330
11CCA
100
AcDbDictionary
280
     1
281
     1
  3
ACAD_XREC_ROUNDTRIP
360
11D24
  0
DICTIONARY
  5
11D25
330
11CCB
100
AcDbDictionary
280
     1
281
     1
  3
ACAD_XREC_ROUNDTRIP
360
11D26
  0
DICTIONARY
  5
11D27
330
11CCC
100
AcDbDictionary
280
     1
281
     1
  3
ACAD_XREC_ROUNDTRIP
360
11D28
  0
DICTIONARY
  5
11D29
330
11CCD
100
AcDbDictionary
280
     1
281
     1
  3
ACAD_XREC_ROUNDTRIP
360
11D2A
  0
DICTIONARY
  5
11D31
330
11CD1
100
AcDbDictionary
280
     1
281
     1
  3
ACAD_XREC_ROUNDTRIP
360
11D32
  0
DICTIONARY
  5
11D4D
330
11CDF
100
AcDbDictionary
280
     1
281
     1
  3
ACAD_XREC_ROUNDTRIP
360
11D4E
  0
DICTIONARY
  5
11D3D
330
11CD7
100
AcDbDictionary
280
     1
281
     1
  3
ACAD_XREC_ROUNDTRIP
360
11D3E
  0
DICTIONARY
  5
11D4F
330
11CE0
100
AcDbDictionary
280
     1
281
     1
  3
ACAD_XREC_ROUNDTRIP
360
11D50
  0
DICTIONARY
  5
11D35
330
11CD3
100
AcDbDictionary
280
     1
281
     1
  3
ACAD_XREC_ROUNDTRIP
360
11D36
  0
DICTIONARY
  5
11D4B
330
11CDE
100
AcDbDictionary
280
     1
281
     1
  3
ACAD_XREC_ROUNDTRIP
360
11D4C
  0
DICTIONARY
  5
11D49
330
11CDD
100
AcDbDictionary
280
     1
281
     1
  3
ACAD_XREC_ROUNDTRIP
360
11D4A
  0
DICTIONARY
  5
11D43
330
11CDA
100
AcDbDictionary
280
     1
281
     1
  3
ACAD_XREC_ROUNDTRIP
360
11D44
  0
DICTIONARY
  5
11D45
330
11CDB
100
AcDbDictionary
280
     1
281
     1
  3
ACAD_XREC_ROUNDTRIP
360
11D46
  0
DICTIONARY
  5
11D3B
330
11CD6
100
AcDbDictionary
280
     1
281
     1
  3
ACAD_XREC_ROUNDTRIP
360
11D3C
  0
DICTIONARY
  5
11D2F
330
11CD0
100
AcDbDictionary
280
     1
281
     1
  3
ACAD_XREC_ROUNDTRIP
360
11D30
  0
DICTIONARY
  5
11D47
330
11CDC
100
AcDbDictionary
280
     1
281
     1
  3
ACAD_XREC_ROUNDTRIP
360
11D48
  0
XRECORD
  5
11D58
102
{ACAD_REACTORS
330
11D57
102
}
330
11D57
100
AcDbXrecord
280
     1
102
DISPLAYNAME
  1
Imperial24
102
FLAGS
 90
        0
  0
XRECORD
  5
11D5A
102
{ACAD_REACTORS
330
11D59
102
}
330
11D59
100
AcDbXrecord
280
     1
102
SHADEPLOT
 70
     0
102
SHADEPLOTRESLEVEL
 70
     2
102
SHADEPLOTCUSTOMDPI
 70
   300
  0
XRECORD
  5
11D5C
102
{ACAD_REACTORS
330
11D5B
102
}
330
11D5B
100
AcDbXrecord
280
     1
102
SHADEPLOT
 70
     0
102
SHADEPLOTRESLEVEL
 70
     2
102
SHADEPLOTCUSTOMDPI
 70
   300
  0
XRECORD
  5
11D21
102
{ACAD_REACTORS
330
11CBA
102
}
330
11CBA
100
AcDbXrecord
280
     1
102
MATERIAL
148
0.0
149
0.0
149
0.0
 93
        0
 94
      127
282
     0
 72
     0
 77
     0
171
     0
175
     0
179
     0
273
     0
  0
XRECORD
  5
11CBC
102
{ACAD_REACTORS
330
11CBA
102
}
330
11CBA
100
AcDbXrecord
280
     1
270
     1
271
     1
  0
XRECORD
  5
11CBB
102
{ACAD_REACTORS
330
11CBA
102
}
330
11CBA
100
AcDbXrecord
280
     1
270
     1
271
     1
  0
XRECORD
  5
11CBF
102
{ACAD_REACTORS
330
11CBA
102
}
330
11CBA
100
AcDbXrecord
280
     1
270
     1
271
     1
  0
XRECORD
  5
11CBE
102
{ACAD_REACTORS
330
11CBA
102
}
330
11CBA
100
AcDbXrecord
280
     1
270
     1
271
     1
  0
XRECORD
  5
11CC0
102
{ACAD_REACTORS
330
11CBA
102
}
330
11CBA
100
AcDbXrecord
280
     1
270
     1
271
     1
  0
XRECORD
  5
11CBD
102
{ACAD_REACTORS
330
11CBA
102
}
330
11CBA
100
AcDbXrecord
280
     1
270
     1
271
     1
  0
XRECORD
  5
11D20
102
{ACAD_REACTORS
330
11CB2
102
}
330
11CB2
100
AcDbXrecord
280
     1
102
MATERIAL
148
0.0
149
0.0
149
0.0
 93
        0
 94
      127
282
     0
 72
     0
 77
     0
171
     0
175
     0
179
     0
273
     0
  0
XRECORD
  5
11CB4
102
{ACAD_REACTORS
330
11CB2
102
}
330
11CB2
100
AcDbXrecord
280
     1
270
     1
271
     1
  0
XRECORD
  5
11CB3
102
{ACAD_REACTORS
330
11CB2
102
}
330
11CB2
100
AcDbXrecord
280
     1
270
     1
271
     1
  0
XRECORD
  5
11CB7
102
{ACAD_REACTORS
330
11CB2
102
}
330
11CB2
100
AcDbXrecord
280
     1
270
     1
271
     1
  0
XRECORD
  5
11CB6
102
{ACAD_REACTORS
330
11CB2
102
}
330
11CB2
100
AcDbXrecord
280
     1
270
     1
271
     1
  0
XRECORD
  5
11CB8
102
{ACAD_REACTORS
330
11CB2
102
}
330
11CB2
100
AcDbXrecord
280
     1
270
     1
271
     1
  0
XRECORD
  5
11CB5
102
{ACAD_REACTORS
330
11CB2
102
}
330
11CB2
100
AcDbXrecord
280
     1
270
     1
271
     1
  0
XRECORD
  5
11D22
102
{ACAD_REACTORS
330
11CC2
102
}
330
11CC2
100
AcDbXrecord
280
     1
102
MATERIAL
148
0.0
149
0.0
149
0.0
 93
        0
 94
      127
282
     0
 72
     0
 77
     0
171
     0
175
     0
179
     0
273
     0
  0
XRECORD
  5
11CC4
102
{ACAD_REACTORS
330
11CC2
102
}
330
11CC2
100
AcDbXrecord
280
     1
270
     1
271
     1
  0
XRECORD
  5
11CC3
102
{ACAD_REACTORS
330
11CC2
102
}
330
11CC2
100
AcDbXrecord
280
     1
270
     1
271
     1
  0
XRECORD
  5
11CC7
102
{ACAD_REACTORS
330
11CC2
102
}
330
11CC2
100
AcDbXrecord
280
     1
270
     1
271
     1
  0
XRECORD
  5
11CC6
102
{ACAD_REACTORS
330
11CC2
102
}
330
11CC2
100
AcDbXrecord
280
     1
270
     1
271
     1
  0
XRECORD
  5
11CC8
102
{ACAD_REACTORS
330
11CC2
102
}
330
11CC2
100
AcDbXrecord
280
     1
270
     1
271
     1
  0
XRECORD
  5
11CC5
102
{ACAD_REACTORS
330
11CC2
102
}
330
11CC2
100
AcDbXrecord
280
     1
270
     1
271
     1
  0
XRECORD
  5
11D56
102
{ACAD_REACTORS
330
11D55
102
}
330
11D55
100
AcDbXrecord
280
     1
102
DISPLAYNAME
  1
Imperial24
102
FLAGS
 90
        0
  0
CELLSTYLEMAP
  5
11D1D
102
{ACAD_REACTORS
330
11D1C
102
}
330
11D1C
100
AcDbCellStyleMap
 90
        3
300
CELLSTYLE
  1
TABLEFORMAT_BEGIN
 90
        5
170
     1
 91
        0
 92
    32768
 62
   257
 93
        1
300
CONTENTFORMAT
  1
CONTENTFORMAT_BEGIN
 90
        0
 91
        0
 92
      512
 93
        0
300

 40
0.0
140
1.0
 94
        5
 62
     0
340
11809
144
0.25
309
CONTENTFORMAT_END
171
     0
 94
        0
309
TABLEFORMAT_END
  1
CELLSTYLE_BEGIN
 90
        1
 91
        1
300
_TITLE
309
CELLSTYLE_END
300
CELLSTYLE
  1
TABLEFORMAT_BEGIN
 90
        5
170
     1
 91
        0
 92
        0
 62
   257
 93
        1
300
CONTENTFORMAT
  1
CONTENTFORMAT_BEGIN
 90
        0
 91
        0
 92
      512
 93
        0
300

 40
0.0
140
1.0
 94
        5
 62
     0
340
11809
144
0.18
309
CONTENTFORMAT_END
171
     0
 94
        0
309
TABLEFORMAT_END
  1
CELLSTYLE_BEGIN
 90
        2
 91
        1
300
_HEADER
309
CELLSTYLE_END
300
CELLSTYLE
  1
TABLEFORMAT_BEGIN
 90
        5
170
     1
 91
        0
 92
        0
 62
   257
 93
        1
300
CONTENTFORMAT
  1
CONTENTFORMAT_BEGIN
 90
        0
 91
        0
 92
      512
 93
        0
300

 40
0.0
140
1.0
 94
        2
 62
     0
340
11809
144
0.18
309
CONTENTFORMAT_END
171
     0
 94
        0
309
TABLEFORMAT_END
  1
CELLSTYLE_BEGIN
 90
        3
 91
        2
300
_DATA
309
CELLSTYLE_END
  0
XRECORD
  5
11D53
102
{ACAD_REACTORS
330
11D1C
102
}
330
11D1C
100
AcDbXrecord
280
     1
102
ACAD_ROUNDTRIP_PRE2007_TABLESTYLE
 90
      512
 91
        0
  1

 92
      512
 93
        0
  2

 94
      512
 95
        0
  3

  0
XRECORD
  5
11D2E
102
{ACAD_REACTORS
330
11D2D
102
}
330
11D2D
100
AcDbXrecord
280
     1
102
RTVSPost2010Prop28
280
     1
102
RTVSPost2010PropOp28
 70
     1
102
RTVSPost2010Prop29
280
     1
102
RTVSPost2010PropOp29
 70
     1
102
RTVSPost2010Prop30
280
     0
102
RTVSPost2010PropOp30
 70
     1
102
RTVSPost2010Prop31
280
     0
102
RTVSPost2010PropOp31
 70
     1
102
RTVSPost2010Prop32
280
     0
102
RTVSPost2010PropOp32
 70
     1
102
RTVSPost2010Prop33
280
     0
102
RTVSPost2010PropOp33
 70
     1
102
RTVSPost2010Prop34
280
     0
102
RTVSPost2010PropOp34
 70
     1
102
RTVSPost2010Prop35
280
     0
102
RTVSPost2010PropOp35
 70
     1
102
RTVSPost2010Prop36
280
     0
102
RTVSPost2010PropOp36
 70
     1
102
RTVSPost2010Prop37
 90
       50
102
RTVSPost2010PropOp37
 70
     1
102
RTVSPost2010Prop38
140
0.0
102
RTVSPost2010PropOp38
 70
     1
102
RTVSPost2010Prop39
140
1.0
102
RTVSPost2010PropOp39
 70
     1
102
RTVSPost2010Prop40
 90
        0
102
RTVSPost2010PropOp40
 70
     1
102
RTVSPost2010Prop41ColorIndex
 90
       18
102
RTVSPost2010Prop41ColorRGB
 90
        0
102
RTVSPost2010PropOp41
 70
     1
102
RTVSPost2010Prop42
 90
       50
102
RTVSPost2010PropOp42
 70
     1
102
RTVSPost2010Prop43
 90
        3
102
RTVSPost2010PropOp43
 70
     1
102
RTVSPost2010Prop44ColorIndex
 90
        5
102
RTVSPost2010Prop44ColorRGB
 90
      255
102
RTVSPost2010PropOp44
 70
     1
102
RTVSPost2010Prop45
280
     0
102
RTVSPost2010PropOp45
 70
     1
102
RTVSPost2010Prop46
 90
       50
102
RTVSPost2010PropOp46
 70
     1
102
RTVSPost2010Prop47
 90
       50
102
RTVSPost2010PropOp47
 70
     1
102
RTVSPost2010Prop48
 90
       50
102
RTVSPost2010PropOp48
 70
     1
102
RTVSPost2010Prop49
280
     0
102
RTVSPost2010PropOp49
 70
     1
102
RTVSPost2010Prop50
 90
       50
102
RTVSPost2010PropOp50
 70
     1
102
RTVSPost2010Prop51ColorIndex
 90
      256
102
RTVSPost2010Prop51ColorRGB
 90
-16777216
102
RTVSPost2010PropOp51
 70
     0
102
RTVSPost2010Prop52
140
1.0
102
RTVSPost2010PropOp52
 70
     0
102
RTVSPost2010Prop53
 90
        2
102
RTVSPost2010PropOp53
 70
     1
102
RTVSPost2010Prop54
  1
strokes_ogs.tif
102
RTVSPost2010PropOp54
 70
     1
102
RTVSPost2010Prop55
280
     0
102
RTVSPost2010PropOp55
 70
     1
102
RTVSPost2010Prop56
140
1.0
102
RTVSPost2010PropOp56
 70
     1
102
RTVSPost2010Prop57
140
1.0
102
RTVSPost2010PropOp57
 70
     1
102
RTVSPropertyOp0
 70
     1
102
RTVSPropertyOp1
 70
     1
102
RTVSPropertyOp2
 70
     1
102
RTVSPropertyOp3
 70
     1
102
RTVSPropertyOp4
 70
     1
102
RTVSPropertyOp5
 70
     1
102
RTVSPropertyOp6
 70
     1
102
RTVSPropertyOp7
 70
     1
102
RTVSPropertyOp8
 70
     1
102
RTVSPropertyOp9
 70
     1
102
RTVSPropertyOp10
 70
     1
102
RTVSPropertyOp11
 70
     1
102
RTVSPropertyOp12
 70
     1
102
RTVSPropertyOp13
 70
     1
102
RTVSPropertyOp14
 70
     1
102
RTVSPropertyOp15
 70
     1
102
RTVSPropertyOp16
 70
     1
102
RTVSPropertyOp17
 70
     1
102
RTVSPropertyOp18
 70
     1
102
RTVSPropertyOp19
 70
     1
102
RTVSPropertyOp20
 70
     1
102
RTVSPropertyOp21
 70
     1
102
RTVSPropertyOp22
 70
     1
102
RTVSPropertyOp23
 70
     1
102
RTVSPropertyOp24
 70
     1
102
RTVSPropertyOp25
 70
     1
102
RTVSPropertyOp26
 70
     1
102
RTVSPropertyOp27
 70
     1
102
RTVSPropertyOp28
 70
     1
102
RTVSPropertyOp29
 70
     1
102
RTVSPropertyOp30
 70
     1
102
RTVSPropertyOp31
 70
     1
102
RTVSPropertyOp32
 70
     1
102
RTVSPropertyOp33
 70
     1
102
RTVSPropertyOp34
 70
     1
102
RTVSPropertyOp35
 70
     1
102
RTVSPropertyOp36
 70
     1
102
RTVSPropertyOp37
 70
     1
102
RTVSPropertyOp38
 70
     1
102
RTVSPropertyOp39
 70
     1
102
RTVSPropertyOp40
 70
     1
102
RTVSPropertyOp41
 70
     1
102
RTVSPropertyOp42
 70
     1
102
RTVSPropertyOp43
 70
     1
102
RTVSPropertyOp44
 70
     1
102
RTVSPropertyOp45
 70
     1
102
RTVSPropertyOp46
 70
     1
102
RTVSPropertyOp47
 70
     1
102
RTVSPropertyOp48
 70
     1
102
RTVSPropertyOp49
 70
     1
102
RTVSPropertyOp50
 70
     1
102
RTVSPropertyOp51
 70
     0
102
RTVSPropertyOp52
 70
     0
102
RTVSPropertyOp53
 70
     1
102
RTVSPropertyOp54
 70
     1
102
RTVSPropertyOp55
 70
     1
102
RTVSPropertyOp56
 70
     1
102
RTVSPropertyOp57
 70
     1
102
RTVSPropertyOp58
 70
     1
102
RTVSPropertyOp59
 70
     1
102
RTVSPropertyOp60
 70
     1
102
RTVSPropertyOp61
 70
     1
102
RTVSPropertyOp62
 70
     1
  0
XRECORD
  5
11D2C
102
{ACAD_REACTORS
330
11D2B
102
}
330
11D2B
100
AcDbXrecord
280
     1
102
RTVSPost2010Prop28
280
     0
102
RTVSPost2010PropOp28
 70
     1
102
RTVSPost2010Prop29
280
     1
102
RTVSPost2010PropOp29
 70
     1
102
RTVSPost2010Prop30
280
     1
102
RTVSPost2010PropOp30
 70
     1
102
RTVSPost2010Prop31
280
     0
102
RTVSPost2010PropOp31
 70
     1
102
RTVSPost2010Prop32
280
     0
102
RTVSPost2010PropOp32
 70
     1
102
RTVSPost2010Prop33
280
     0
102
RTVSPost2010PropOp33
 70
     1
102
RTVSPost2010Prop34
280
     0
102
RTVSPost2010PropOp34
 70
     1
102
RTVSPost2010Prop35
280
     0
102
RTVSPost2010PropOp35
 70
     1
102
RTVSPost2010Prop36
280
     0
102
RTVSPost2010PropOp36
 70
     1
102
RTVSPost2010Prop37
 90
       50
102
RTVSPost2010PropOp37
 70
     1
102
RTVSPost2010Prop38
140
0.0
102
RTVSPost2010PropOp38
 70
     1
102
RTVSPost2010Prop39
140
1.0
102
RTVSPost2010PropOp39
 70
     1
102
RTVSPost2010Prop40
 90
        0
102
RTVSPost2010PropOp40
 70
     1
102
RTVSPost2010Prop41ColorIndex
 90
       18
102
RTVSPost2010Prop41ColorRGB
 90
        0
102
RTVSPost2010PropOp41
 70
     1
102
RTVSPost2010Prop42
 90
       50
102
RTVSPost2010PropOp42
 70
     1
102
RTVSPost2010Prop43
 90
        3
102
RTVSPost2010PropOp43
 70
     1
102
RTVSPost2010Prop44ColorIndex
 90
        5
102
RTVSPost2010Prop44ColorRGB
 90
      255
102
RTVSPost2010PropOp44
 70
     1
102
RTVSPost2010Prop45
280
     0
102
RTVSPost2010PropOp45
 70
     1
102
RTVSPost2010Prop46
 90
       50
102
RTVSPost2010PropOp46
 70
     1
102
RTVSPost2010Prop47
 90
       50
102
RTVSPost2010PropOp47
 70
     1
102
RTVSPost2010Prop48
 90
       50
102
RTVSPost2010PropOp48
 70
     1
102
RTVSPost2010Prop49
280
     0
102
RTVSPost2010PropOp49
 70
     1
102
RTVSPost2010Prop50
 90
       50
102
RTVSPost2010PropOp50
 70
     1
102
RTVSPost2010Prop51ColorIndex
 90
      256
102
RTVSPost2010Prop51ColorRGB
 90
-16777216
102
RTVSPost2010PropOp51
 70
     0
102
RTVSPost2010Prop52
140
1.0
102
RTVSPost2010PropOp52
 70
     0
102
RTVSPost2010Prop53
 90
        2
102
RTVSPost2010PropOp53
 70
     1
102
RTVSPost2010Prop54
  1
strokes_ogs.tif
102
RTVSPost2010PropOp54
 70
     1
102
RTVSPost2010Prop55
280
     0
102
RTVSPost2010PropOp55
 70
     1
102
RTVSPost2010Prop56
140
1.0
102
RTVSPost2010PropOp56
 70
     1
102
RTVSPost2010Prop57
140
1.0
102
RTVSPost2010PropOp57
 70
     1
102
RTVSPropertyOp0
 70
     1
102
RTVSPropertyOp1
 70
     1
102
RTVSPropertyOp2
 70
     1
102
RTVSPropertyOp3
 70
     1
102
RTVSPropertyOp4
 70
     1
102
RTVSPropertyOp5
 70
     1
102
RTVSPropertyOp6
 70
     1
102
RTVSPropertyOp7
 70
     1
102
RTVSPropertyOp8
 70
     1
102
RTVSPropertyOp9
 70
     1
102
RTVSPropertyOp10
 70
     1
102
RTVSPropertyOp11
 70
     1
102
RTVSPropertyOp12
 70
     1
102
RTVSPropertyOp13
 70
     1
102
RTVSPropertyOp14
 70
     1
102
RTVSPropertyOp15
 70
     1
102
RTVSPropertyOp16
 70
     1
102
RTVSPropertyOp17
 70
     1
102
RTVSPropertyOp18
 70
     1
102
RTVSPropertyOp19
 70
     1
102
RTVSPropertyOp20
 70
     1
102
RTVSPropertyOp21
 70
     1
102
RTVSPropertyOp22
 70
     1
102
RTVSPropertyOp23
 70
     1
102
RTVSPropertyOp24
 70
     1
102
RTVSPropertyOp25
 70
     1
102
RTVSPropertyOp26
 70
     1
102
RTVSPropertyOp27
 70
     1
102
RTVSPropertyOp28
 70
     1
102
RTVSPropertyOp29
 70
     1
102
RTVSPropertyOp30
 70
     1
102
RTVSPropertyOp31
 70
     1
102
RTVSPropertyOp32
 70
     1
102
RTVSPropertyOp33
 70
     1
102
RTVSPropertyOp34
 70
     1
102
RTVSPropertyOp35
 70
     1
102
RTVSPropertyOp36
 70
     1
102
RTVSPropertyOp37
 70
     1
102
RTVSPropertyOp38
 70
     1
102
RTVSPropertyOp39
 70
     1
102
RTVSPropertyOp40
 70
     1
102
RTVSPropertyOp41
 70
     1
102
RTVSPropertyOp42
 70
     1
102
RTVSPropertyOp43
 70
     1
102
RTVSPropertyOp44
 70
     1
102
RTVSPropertyOp45
 70
     1
102
RTVSPropertyOp46
 70
     1
102
RTVSPropertyOp47
 70
     1
102
RTVSPropertyOp48
 70
     1
102
RTVSPropertyOp49
 70
     1
102
RTVSPropertyOp50
 70
     1
102
RTVSPropertyOp51
 70
     0
102
RTVSPropertyOp52
 70
     0
102
RTVSPropertyOp53
 70
     1
102
RTVSPropertyOp54
 70
     1
102
RTVSPropertyOp55
 70
     1
102
RTVSPropertyOp56
 70
     1
102
RTVSPropertyOp57
 70
     1
102
RTVSPropertyOp58
 70
     1
102
RTVSPropertyOp59
 70
     1
102
RTVSPropertyOp60
 70
     1
102
RTVSPropertyOp61
 70
     1
102
RTVSPropertyOp62
 70
     1
  0
XRECORD
  5
11D3A
102
{ACAD_REACTORS
330
11D39
102
}
330
11D39
100
AcDbXrecord
280
     1
102
RTVSPost2010Prop28
280
     0
102
RTVSPost2010PropOp28
 70
     1
102
RTVSPost2010Prop29
280
     1
102
RTVSPost2010PropOp29
 70
     1
102
RTVSPost2010Prop30
280
     1
102
RTVSPost2010PropOp30
 70
     1
102
RTVSPost2010Prop31
280
     0
102
RTVSPost2010PropOp31
 70
     1
102
RTVSPost2010Prop32
280
     0
102
RTVSPost2010PropOp32
 70
     1
102
RTVSPost2010Prop33
280
     0
102
RTVSPost2010PropOp33
 70
     1
102
RTVSPost2010Prop34
280
     0
102
RTVSPost2010PropOp34
 70
     1
102
RTVSPost2010Prop35
280
     0
102
RTVSPost2010PropOp35
 70
     1
102
RTVSPost2010Prop36
280
     0
102
RTVSPost2010PropOp36
 70
     1
102
RTVSPost2010Prop37
 90
       50
102
RTVSPost2010PropOp37
 70
     1
102
RTVSPost2010Prop38
140
0.0
102
RTVSPost2010PropOp38
 70
     1
102
RTVSPost2010Prop39
140
1.0
102
RTVSPost2010PropOp39
 70
     1
102
RTVSPost2010Prop40
 90
        0
102
RTVSPost2010PropOp40
 70
     1
102
RTVSPost2010Prop41ColorIndex
 90
       18
102
RTVSPost2010Prop41ColorRGB
 90
        0
102
RTVSPost2010PropOp41
 70
     1
102
RTVSPost2010Prop42
 90
       50
102
RTVSPost2010PropOp42
 70
     1
102
RTVSPost2010Prop43
 90
        3
102
RTVSPost2010PropOp43
 70
     1
102
RTVSPost2010Prop44ColorIndex
 90
        5
102
RTVSPost2010Prop44ColorRGB
 90
      255
102
RTVSPost2010PropOp44
 70
     1
102
RTVSPost2010Prop45
280
     0
102
RTVSPost2010PropOp45
 70
     1
102
RTVSPost2010Prop46
 90
       50
102
RTVSPost2010PropOp46
 70
     1
102
RTVSPost2010Prop47
 90
       50
102
RTVSPost2010PropOp47
 70
     1
102
RTVSPost2010Prop48
 90
       50
102
RTVSPost2010PropOp48
 70
     1
102
RTVSPost2010Prop49
280
     0
102
RTVSPost2010PropOp49
 70
     1
102
RTVSPost2010Prop50
 90
       50
102
RTVSPost2010PropOp50
 70
     1
102
RTVSPost2010Prop51ColorIndex
 90
      256
102
RTVSPost2010Prop51ColorRGB
 90
-16777216
102
RTVSPost2010PropOp51
 70
     0
102
RTVSPost2010Prop52
140
1.0
102
RTVSPost2010PropOp52
 70
     0
102
RTVSPost2010Prop53
 90
        2
102
RTVSPost2010PropOp53
 70
     1
102
RTVSPost2010Prop54
  1
strokes_ogs.tif
102
RTVSPost2010PropOp54
 70
     1
102
RTVSPost2010Prop55
280
     0
102
RTVSPost2010PropOp55
 70
     1
102
RTVSPost2010Prop56
140
1.0
102
RTVSPost2010PropOp56
 70
     1
102
RTVSPost2010Prop57
140
1.0
102
RTVSPost2010PropOp57
 70
     1
102
RTVSPropertyOp0
 70
     1
102
RTVSPropertyOp1
 70
     1
102
RTVSPropertyOp2
 70
     1
102
RTVSPropertyOp3
 70
     1
102
RTVSPropertyOp4
 70
     1
102
RTVSPropertyOp5
 70
     1
102
RTVSPropertyOp6
 70
     1
102
RTVSPropertyOp7
 70
     1
102
RTVSPropertyOp8
 70
     1
102
RTVSPropertyOp9
 70
     1
102
RTVSPropertyOp10
 70
     1
102
RTVSPropertyOp11
 70
     1
102
RTVSPropertyOp12
 70
     1
102
RTVSPropertyOp13
 70
     1
102
RTVSPropertyOp14
 70
     1
102
RTVSPropertyOp15
 70
     1
102
RTVSPropertyOp16
 70
     1
102
RTVSPropertyOp17
 70
     1
102
RTVSPropertyOp18
 70
     1
102
RTVSPropertyOp19
 70
     1
102
RTVSPropertyOp20
 70
     1
102
RTVSPropertyOp21
 70
     1
102
RTVSPropertyOp22
 70
     1
102
RTVSPropertyOp23
 70
     1
102
RTVSPropertyOp24
 70
     1
102
RTVSPropertyOp25
 70
     1
102
RTVSPropertyOp26
 70
     1
102
RTVSPropertyOp27
 70
     1
102
RTVSPropertyOp28
 70
     1
102
RTVSPropertyOp29
 70
     1
102
RTVSPropertyOp30
 70
     1
102
RTVSPropertyOp31
 70
     1
102
RTVSPropertyOp32
 70
     1
102
RTVSPropertyOp33
 70
     1
102
RTVSPropertyOp34
 70
     1
102
RTVSPropertyOp35
 70
     1
102
RTVSPropertyOp36
 70
     1
102
RTVSPropertyOp37
 70
     1
102
RTVSPropertyOp38
 70
     1
102
RTVSPropertyOp39
 70
     1
102
RTVSPropertyOp40
 70
     1
102
RTVSPropertyOp41
 70
     1
102
RTVSPropertyOp42
 70
     1
102
RTVSPropertyOp43
 70
     1
102
RTVSPropertyOp44
 70
     1
102
RTVSPropertyOp45
 70
     1
102
RTVSPropertyOp46
 70
     1
102
RTVSPropertyOp47
 70
     1
102
RTVSPropertyOp48
 70
     1
102
RTVSPropertyOp49
 70
     1
102
RTVSPropertyOp50
 70
     1
102
RTVSPropertyOp51
 70
     0
102
RTVSPropertyOp52
 70
     0
102
RTVSPropertyOp53
 70
     1
102
RTVSPropertyOp54
 70
     1
102
RTVSPropertyOp55
 70
     1
102
RTVSPropertyOp56
 70
     1
102
RTVSPropertyOp57
 70
     1
102
RTVSPropertyOp58
 70
     1
102
RTVSPropertyOp59
 70
     1
102
RTVSPropertyOp60
 70
     1
102
RTVSPropertyOp61
 70
     1
102
RTVSPropertyOp62
 70
     1
  0
XRECORD
  5
11D42
102
{ACAD_REACTORS
330
11D41
102
}
330
11D41
100
AcDbXrecord
280
     1
102
RTVSPost2010Prop28
280
     0
102
RTVSPost2010PropOp28
 70
     1
102
RTVSPost2010Prop29
280
     1
102
RTVSPost2010PropOp29
 70
     1
102
RTVSPost2010Prop30
280
     1
102
RTVSPost2010PropOp30
 70
     1
102
RTVSPost2010Prop31
280
     0
102
RTVSPost2010PropOp31
 70
     1
102
RTVSPost2010Prop32
280
     0
102
RTVSPost2010PropOp32
 70
     1
102
RTVSPost2010Prop33
280
     0
102
RTVSPost2010PropOp33
 70
     1
102
RTVSPost2010Prop34
280
     0
102
RTVSPost2010PropOp34
 70
     1
102
RTVSPost2010Prop35
280
     0
102
RTVSPost2010PropOp35
 70
     1
102
RTVSPost2010Prop36
280
     0
102
RTVSPost2010PropOp36
 70
     1
102
RTVSPost2010Prop37
 90
       50
102
RTVSPost2010PropOp37
 70
     1
102
RTVSPost2010Prop38
140
0.0
102
RTVSPost2010PropOp38
 70
     1
102
RTVSPost2010Prop39
140
1.0
102
RTVSPost2010PropOp39
 70
     1
102
RTVSPost2010Prop40
 90
        0
102
RTVSPost2010PropOp40
 70
     1
102
RTVSPost2010Prop41ColorIndex
 90
       18
102
RTVSPost2010Prop41ColorRGB
 90
        0
102
RTVSPost2010PropOp41
 70
     1
102
RTVSPost2010Prop42
 90
       50
102
RTVSPost2010PropOp42
 70
     1
102
RTVSPost2010Prop43
 90
        3
102
RTVSPost2010PropOp43
 70
     1
102
RTVSPost2010Prop44ColorIndex
 90
        5
102
RTVSPost2010Prop44ColorRGB
 90
      255
102
RTVSPost2010PropOp44
 70
     1
102
RTVSPost2010Prop45
280
     0
102
RTVSPost2010PropOp45
 70
     1
102
RTVSPost2010Prop46
 90
       50
102
RTVSPost2010PropOp46
 70
     1
102
RTVSPost2010Prop47
 90
       50
102
RTVSPost2010PropOp47
 70
     1
102
RTVSPost2010Prop48
 90
       50
102
RTVSPost2010PropOp48
 70
     1
102
RTVSPost2010Prop49
280
     0
102
RTVSPost2010PropOp49
 70
     1
102
RTVSPost2010Prop50
 90
       50
102
RTVSPost2010PropOp50
 70
     1
102
RTVSPost2010Prop51ColorIndex
 90
      256
102
RTVSPost2010Prop51ColorRGB
 90
-16777216
102
RTVSPost2010PropOp51
 70
     0
102
RTVSPost2010Prop52
140
1.0
102
RTVSPost2010PropOp52
 70
     0
102
RTVSPost2010Prop53
 90
        2
102
RTVSPost2010PropOp53
 70
     1
102
RTVSPost2010Prop54
  1
strokes_ogs.tif
102
RTVSPost2010PropOp54
 70
     1
102
RTVSPost2010Prop55
280
     0
102
RTVSPost2010PropOp55
 70
     1
102
RTVSPost2010Prop56
140
1.0
102
RTVSPost2010PropOp56
 70
     1
102
RTVSPost2010Prop57
140
1.0
102
RTVSPost2010PropOp57
 70
     1
102
RTVSPropertyOp0
 70
     1
102
RTVSPropertyOp1
 70
     1
102
RTVSPropertyOp2
 70
     1
102
RTVSPropertyOp3
 70
     1
102
RTVSPropertyOp4
 70
     1
102
RTVSPropertyOp5
 70
     1
102
RTVSPropertyOp6
 70
     1
102
RTVSPropertyOp7
 70
     1
102
RTVSPropertyOp8
 70
     1
102
RTVSPropertyOp9
 70
     1
102
RTVSPropertyOp10
 70
     1
102
RTVSPropertyOp11
 70
     1
102
RTVSPropertyOp12
 70
     1
102
RTVSPropertyOp13
 70
     1
102
RTVSPropertyOp14
 70
     1
102
RTVSPropertyOp15
 70
     1
102
RTVSPropertyOp16
 70
     1
102
RTVSPropertyOp17
 70
     1
102
RTVSPropertyOp18
 70
     1
102
RTVSPropertyOp19
 70
     1
102
RTVSPropertyOp20
 70
     1
102
RTVSPropertyOp21
 70
     1
102
RTVSPropertyOp22
 70
     1
102
RTVSPropertyOp23
 70
     1
102
RTVSPropertyOp24
 70
     1
102
RTVSPropertyOp25
 70
     1
102
RTVSPropertyOp26
 70
     1
102
RTVSPropertyOp27
 70
     1
102
RTVSPropertyOp28
 70
     1
102
RTVSPropertyOp29
 70
     1
102
RTVSPropertyOp30
 70
     1
102
RTVSPropertyOp31
 70
     1
102
RTVSPropertyOp32
 70
     1
102
RTVSPropertyOp33
 70
     1
102
RTVSPropertyOp34
 70
     1
102
RTVSPropertyOp35
 70
     1
102
RTVSPropertyOp36
 70
     1
102
RTVSPropertyOp37
 70
     1
102
RTVSPropertyOp38
 70
     1
102
RTVSPropertyOp39
 70
     1
102
RTVSPropertyOp40
 70
     1
102
RTVSPropertyOp41
 70
     1
102
RTVSPropertyOp42
 70
     1
102
RTVSPropertyOp43
 70
     1
102
RTVSPropertyOp44
 70
     1
102
RTVSPropertyOp45
 70
     1
102
RTVSPropertyOp46
 70
     1
102
RTVSPropertyOp47
 70
     1
102
RTVSPropertyOp48
 70
     1
102
RTVSPropertyOp49
 70
     1
102
RTVSPropertyOp50
 70
     1
102
RTVSPropertyOp51
 70
     0
102
RTVSPropertyOp52
 70
     0
102
RTVSPropertyOp53
 70
     1
102
RTVSPropertyOp54
 70
     1
102
RTVSPropertyOp55
 70
     1
102
RTVSPropertyOp56
 70
     1
102
RTVSPropertyOp57
 70
     1
102
RTVSPropertyOp58
 70
     1
102
RTVSPropertyOp59
 70
     1
102
RTVSPropertyOp60
 70
     1
102
RTVSPropertyOp61
 70
     1
102
RTVSPropertyOp62
 70
     1
  0
XRECORD
  5
11D34
102
{ACAD_REACTORS
330
11D33
102
}
330
11D33
100
AcDbXrecord
280
     1
102
RTVSPost2010Prop28
280
     0
102
RTVSPost2010PropOp28
 70
     1
102
RTVSPost2010Prop29
280
     1
102
RTVSPost2010PropOp29
 70
     1
102
RTVSPost2010Prop30
280
     1
102
RTVSPost2010PropOp30
 70
     1
102
RTVSPost2010Prop31
280
     0
102
RTVSPost2010PropOp31
 70
     1
102
RTVSPost2010Prop32
280
     0
102
RTVSPost2010PropOp32
 70
     1
102
RTVSPost2010Prop33
280
     0
102
RTVSPost2010PropOp33
 70
     1
102
RTVSPost2010Prop34
280
     0
102
RTVSPost2010PropOp34
 70
     1
102
RTVSPost2010Prop35
280
     0
102
RTVSPost2010PropOp35
 70
     1
102
RTVSPost2010Prop36
280
     0
102
RTVSPost2010PropOp36
 70
     1
102
RTVSPost2010Prop37
 90
       50
102
RTVSPost2010PropOp37
 70
     1
102
RTVSPost2010Prop38
140
0.0
102
RTVSPost2010PropOp38
 70
     1
102
RTVSPost2010Prop39
140
1.0
102
RTVSPost2010PropOp39
 70
     1
102
RTVSPost2010Prop40
 90
        0
102
RTVSPost2010PropOp40
 70
     1
102
RTVSPost2010Prop41ColorIndex
 90
       18
102
RTVSPost2010Prop41ColorRGB
 90
        0
102
RTVSPost2010PropOp41
 70
     1
102
RTVSPost2010Prop42
 90
       50
102
RTVSPost2010PropOp42
 70
     1
102
RTVSPost2010Prop43
 90
        3
102
RTVSPost2010PropOp43
 70
     1
102
RTVSPost2010Prop44ColorIndex
 90
        5
102
RTVSPost2010Prop44ColorRGB
 90
      255
102
RTVSPost2010PropOp44
 70
     1
102
RTVSPost2010Prop45
280
     0
102
RTVSPost2010PropOp45
 70
     1
102
RTVSPost2010Prop46
 90
       50
102
RTVSPost2010PropOp46
 70
     1
102
RTVSPost2010Prop47
 90
       50
102
RTVSPost2010PropOp47
 70
     1
102
RTVSPost2010Prop48
 90
       50
102
RTVSPost2010PropOp48
 70
     1
102
RTVSPost2010Prop49
280
     0
102
RTVSPost2010PropOp49
 70
     1
102
RTVSPost2010Prop50
 90
       50
102
RTVSPost2010PropOp50
 70
     1
102
RTVSPost2010Prop51ColorIndex
 90
      256
102
RTVSPost2010Prop51ColorRGB
 90
-16777216
102
RTVSPost2010PropOp51
 70
     0
102
RTVSPost2010Prop52
140
1.0
102
RTVSPost2010PropOp52
 70
     0
102
RTVSPost2010Prop53
 90
        2
102
RTVSPost2010PropOp53
 70
     1
102
RTVSPost2010Prop54
  1
strokes_ogs.tif
102
RTVSPost2010PropOp54
 70
     1
102
RTVSPost2010Prop55
280
     0
102
RTVSPost2010PropOp55
 70
     1
102
RTVSPost2010Prop56
140
1.0
102
RTVSPost2010PropOp56
 70
     1
102
RTVSPost2010Prop57
140
1.0
102
RTVSPost2010PropOp57
 70
     1
102
RTVSPropertyOp0
 70
     1
102
RTVSPropertyOp1
 70
     1
102
RTVSPropertyOp2
 70
     1
102
RTVSPropertyOp3
 70
     1
102
RTVSPropertyOp4
 70
     1
102
RTVSPropertyOp5
 70
     1
102
RTVSPropertyOp6
 70
     1
102
RTVSPropertyOp7
 70
     1
102
RTVSPropertyOp8
 70
     1
102
RTVSPropertyOp9
 70
     1
102
RTVSPropertyOp10
 70
     1
102
RTVSPropertyOp11
 70
     1
102
RTVSPropertyOp12
 70
     1
102
RTVSPropertyOp13
 70
     1
102
RTVSPropertyOp14
 70
     1
102
RTVSPropertyOp15
 70
     1
102
RTVSPropertyOp16
 70
     1
102
RTVSPropertyOp17
 70
     1
102
RTVSPropertyOp18
 70
     1
102
RTVSPropertyOp19
 70
     1
102
RTVSPropertyOp20
 70
     1
102
RTVSPropertyOp21
 70
     1
102
RTVSPropertyOp22
 70
     1
102
RTVSPropertyOp23
 70
     1
102
RTVSPropertyOp24
 70
     1
102
RTVSPropertyOp25
 70
     1
102
RTVSPropertyOp26
 70
     1
102
RTVSPropertyOp27
 70
     1
102
RTVSPropertyOp28
 70
     1
102
RTVSPropertyOp29
 70
     1
102
RTVSPropertyOp30
 70
     1
102
RTVSPropertyOp31
 70
     1
102
RTVSPropertyOp32
 70
     1
102
RTVSPropertyOp33
 70
     1
102
RTVSPropertyOp34
 70
     1
102
RTVSPropertyOp35
 70
     1
102
RTVSPropertyOp36
 70
     1
102
RTVSPropertyOp37
 70
     1
102
RTVSPropertyOp38
 70
     1
102
RTVSPropertyOp39
 70
     1
102
RTVSPropertyOp40
 70
     1
102
RTVSPropertyOp41
 70
     1
102
RTVSPropertyOp42
 70
     1
102
RTVSPropertyOp43
 70
     1
102
RTVSPropertyOp44
 70
     1
102
RTVSPropertyOp45
 70
     1
102
RTVSPropertyOp46
 70
     1
102
RTVSPropertyOp47
 70
     1
102
RTVSPropertyOp48
 70
     1
102
RTVSPropertyOp49
 70
     1
102
RTVSPropertyOp50
 70
     1
102
RTVSPropertyOp51
 70
     0
102
RTVSPropertyOp52
 70
     0
102
RTVSPropertyOp53
 70
     1
102
RTVSPropertyOp54
 70
     1
102
RTVSPropertyOp55
 70
     1
102
RTVSPropertyOp56
 70
     1
102
RTVSPropertyOp57
 70
     1
102
RTVSPropertyOp58
 70
     1
102
RTVSPropertyOp59
 70
     1
102
RTVSPropertyOp60
 70
     1
102
RTVSPropertyOp61
 70
     1
102
RTVSPropertyOp62
 70
     1
  0
XRECORD
  5
11D38
102
{ACAD_REACTORS
330
11D37
102
}
330
11D37
100
AcDbXrecord
280
     1
102
RTVSPost2010Prop28
280
     0
102
RTVSPost2010PropOp28
 70
     1
102
RTVSPost2010Prop29
280
     1
102
RTVSPost2010PropOp29
 70
     1
102
RTVSPost2010Prop30
280
     1
102
RTVSPost2010PropOp30
 70
     1
102
RTVSPost2010Prop31
280
     0
102
RTVSPost2010PropOp31
 70
     1
102
RTVSPost2010Prop32
280
     0
102
RTVSPost2010PropOp32
 70
     1
102
RTVSPost2010Prop33
280
     0
102
RTVSPost2010PropOp33
 70
     1
102
RTVSPost2010Prop34
280
     0
102
RTVSPost2010PropOp34
 70
     1
102
RTVSPost2010Prop35
280
     0
102
RTVSPost2010PropOp35
 70
     1
102
RTVSPost2010Prop36
280
     0
102
RTVSPost2010PropOp36
 70
     1
102
RTVSPost2010Prop37
 90
       50
102
RTVSPost2010PropOp37
 70
     1
102
RTVSPost2010Prop38
140
0.0
102
RTVSPost2010PropOp38
 70
     1
102
RTVSPost2010Prop39
140
1.0
102
RTVSPost2010PropOp39
 70
     1
102
RTVSPost2010Prop40
 90
        0
102
RTVSPost2010PropOp40
 70
     1
102
RTVSPost2010Prop41ColorIndex
 90
       18
102
RTVSPost2010Prop41ColorRGB
 90
        0
102
RTVSPost2010PropOp41
 70
     1
102
RTVSPost2010Prop42
 90
       50
102
RTVSPost2010PropOp42
 70
     1
102
RTVSPost2010Prop43
 90
        3
102
RTVSPost2010PropOp43
 70
     1
102
RTVSPost2010Prop44ColorIndex
 90
        5
102
RTVSPost2010Prop44ColorRGB
 90
      255
102
RTVSPost2010PropOp44
 70
     1
102
RTVSPost2010Prop45
280
     0
102
RTVSPost2010PropOp45
 70
     1
102
RTVSPost2010Prop46
 90
       50
102
RTVSPost2010PropOp46
 70
     1
102
RTVSPost2010Prop47
 90
       50
102
RTVSPost2010PropOp47
 70
     1
102
RTVSPost2010Prop48
 90
       50
102
RTVSPost2010PropOp48
 70
     1
102
RTVSPost2010Prop49
280
     0
102
RTVSPost2010PropOp49
 70
     1
102
RTVSPost2010Prop50
 90
       50
102
RTVSPost2010PropOp50
 70
     1
102
RTVSPost2010Prop51ColorIndex
 90
      256
102
RTVSPost2010Prop51ColorRGB
 90
-16777216
102
RTVSPost2010PropOp51
 70
     0
102
RTVSPost2010Prop52
140
1.0
102
RTVSPost2010PropOp52
 70
     0
102
RTVSPost2010Prop53
 90
        2
102
RTVSPost2010PropOp53
 70
     1
102
RTVSPost2010Prop54
  1
strokes_ogs.tif
102
RTVSPost2010PropOp54
 70
     1
102
RTVSPost2010Prop55
280
     0
102
RTVSPost2010PropOp55
 70
     1
102
RTVSPost2010Prop56
140
1.0
102
RTVSPost2010PropOp56
 70
     1
102
RTVSPost2010Prop57
140
1.0
102
RTVSPost2010PropOp57
 70
     1
102
RTVSPropertyOp0
 70
     1
102
RTVSPropertyOp1
 70
     1
102
RTVSPropertyOp2
 70
     1
102
RTVSPropertyOp3
 70
     1
102
RTVSPropertyOp4
 70
     1
102
RTVSPropertyOp5
 70
     1
102
RTVSPropertyOp6
 70
     1
102
RTVSPropertyOp7
 70
     1
102
RTVSPropertyOp8
 70
     1
102
RTVSPropertyOp9
 70
     1
102
RTVSPropertyOp10
 70
     1
102
RTVSPropertyOp11
 70
     1
102
RTVSPropertyOp12
 70
     1
102
RTVSPropertyOp13
 70
     1
102
RTVSPropertyOp14
 70
     1
102
RTVSPropertyOp15
 70
     1
102
RTVSPropertyOp16
 70
     1
102
RTVSPropertyOp17
 70
     1
102
RTVSPropertyOp18
 70
     1
102
RTVSPropertyOp19
 70
     1
102
RTVSPropertyOp20
 70
     1
102
RTVSPropertyOp21
 70
     1
102
RTVSPropertyOp22
 70
     1
102
RTVSPropertyOp23
 70
     1
102
RTVSPropertyOp24
 70
     1
102
RTVSPropertyOp25
 70
     1
102
RTVSPropertyOp26
 70
     1
102
RTVSPropertyOp27
 70
     1
102
RTVSPropertyOp28
 70
     1
102
RTVSPropertyOp29
 70
     1
102
RTVSPropertyOp30
 70
     1
102
RTVSPropertyOp31
 70
     1
102
RTVSPropertyOp32
 70
     1
102
RTVSPropertyOp33
 70
     1
102
RTVSPropertyOp34
 70
     1
102
RTVSPropertyOp35
 70
     1
102
RTVSPropertyOp36
 70
     1
102
RTVSPropertyOp37
 70
     1
102
RTVSPropertyOp38
 70
     1
102
RTVSPropertyOp39
 70
     1
102
RTVSPropertyOp40
 70
     1
102
RTVSPropertyOp41
 70
     1
102
RTVSPropertyOp42
 70
     1
102
RTVSPropertyOp43
 70
     1
102
RTVSPropertyOp44
 70
     1
102
RTVSPropertyOp45
 70
     1
102
RTVSPropertyOp46
 70
     1
102
RTVSPropertyOp47
 70
     1
102
RTVSPropertyOp48
 70
     1
102
RTVSPropertyOp49
 70
     1
102
RTVSPropertyOp50
 70
     1
102
RTVSPropertyOp51
 70
     0
102
RTVSPropertyOp52
 70
     0
102
RTVSPropertyOp53
 70
     1
102
RTVSPropertyOp54
 70
     1
102
RTVSPropertyOp55
 70
     1
102
RTVSPropertyOp56
 70
     1
102
RTVSPropertyOp57
 70
     1
102
RTVSPropertyOp58
 70
     1
102
RTVSPropertyOp59
 70
     1
102
RTVSPropertyOp60
 70
     1
102
RTVSPropertyOp61
 70
     1
102
RTVSPropertyOp62
 70
     1
  0
XRECORD
  5
11D52
102
{ACAD_REACTORS
330
11D51
102
}
330
11D51
100
AcDbXrecord
280
     1
102
RTVSPost2010Prop28
280
     0
102
RTVSPost2010PropOp28
 70
     1
102
RTVSPost2010Prop29
280
     1
102
RTVSPost2010PropOp29
 70
     1
102
RTVSPost2010Prop30
280
     1
102
RTVSPost2010PropOp30
 70
     1
102
RTVSPost2010Prop31
280
     0
102
RTVSPost2010PropOp31
 70
     1
102
RTVSPost2010Prop32
280
     0
102
RTVSPost2010PropOp32
 70
     1
102
RTVSPost2010Prop33
280
     0
102
RTVSPost2010PropOp33
 70
     1
102
RTVSPost2010Prop34
280
     0
102
RTVSPost2010PropOp34
 70
     1
102
RTVSPost2010Prop35
280
     0
102
RTVSPost2010PropOp35
 70
     1
102
RTVSPost2010Prop36
280
     0
102
RTVSPost2010PropOp36
 70
     1
102
RTVSPost2010Prop37
 90
       50
102
RTVSPost2010PropOp37
 70
     0
102
RTVSPost2010Prop38
140
0.0
102
RTVSPost2010PropOp38
 70
     0
102
RTVSPost2010Prop39
140
1.0
102
RTVSPost2010PropOp39
 70
     0
102
RTVSPost2010Prop40
 90
        0
102
RTVSPost2010PropOp40
 70
     0
102
RTVSPost2010Prop41ColorIndex
 90
       18
102
RTVSPost2010Prop41ColorRGB
 90
        0
102
RTVSPost2010PropOp41
 70
     0
102
RTVSPost2010Prop42
 90
       50
102
RTVSPost2010PropOp42
 70
     0
102
RTVSPost2010Prop43
 90
        3
102
RTVSPost2010PropOp43
 70
     0
102
RTVSPost2010Prop44ColorIndex
 90
        5
102
RTVSPost2010Prop44ColorRGB
 90
      255
102
RTVSPost2010PropOp44
 70
     0
102
RTVSPost2010Prop45
280
     0
102
RTVSPost2010PropOp45
 70
     1
102
RTVSPost2010Prop46
 90
       50
102
RTVSPost2010PropOp46
 70
     0
102
RTVSPost2010Prop47
 90
       50
102
RTVSPost2010PropOp47
 70
     0
102
RTVSPost2010Prop48
 90
       50
102
RTVSPost2010PropOp48
 70
     0
102
RTVSPost2010Prop49
280
     0
102
RTVSPost2010PropOp49
 70
     1
102
RTVSPost2010Prop50
 90
       50
102
RTVSPost2010PropOp50
 70
     0
102
RTVSPost2010Prop51ColorIndex
 90
      256
102
RTVSPost2010Prop51ColorRGB
 90
-16777216
102
RTVSPost2010PropOp51
 70
     0
102
RTVSPost2010Prop52
140
1.0
102
RTVSPost2010PropOp52
 70
     0
102
RTVSPost2010Prop53
 90
        2
102
RTVSPost2010PropOp53
 70
     0
102
RTVSPost2010Prop54
  1
strokes_ogs.tif
102
RTVSPost2010PropOp54
 70
     0
102
RTVSPost2010Prop55
280
     0
102
RTVSPost2010PropOp55
 70
     1
102
RTVSPost2010Prop56
140
1.0
102
RTVSPost2010PropOp56
 70
     0
102
RTVSPost2010Prop57
140
1.0
102
RTVSPost2010PropOp57
 70
     0
102
RTVSPropertyOp0
 70
     0
102
RTVSPropertyOp1
 70
     0
102
RTVSPropertyOp2
 70
     0
102
RTVSPropertyOp3
 70
     0
102
RTVSPropertyOp4
 70
     0
102
RTVSPropertyOp5
 70
     0
102
RTVSPropertyOp6
 70
     0
102
RTVSPropertyOp7
 70
     0
102
RTVSPropertyOp8
 70
     0
102
RTVSPropertyOp9
 70
     0
102
RTVSPropertyOp10
 70
     0
102
RTVSPropertyOp11
 70
     0
102
RTVSPropertyOp12
 70
     0
102
RTVSPropertyOp13
 70
     0
102
RTVSPropertyOp14
 70
     2
102
RTVSPropertyOp15
 70
     0
102
RTVSPropertyOp16
 70
     0
102
RTVSPropertyOp17
 70
     0
102
RTVSPropertyOp18
 70
     0
102
RTVSPropertyOp19
 70
     0
102
RTVSPropertyOp20
 70
     0
102
RTVSPropertyOp21
 70
     0
102
RTVSPropertyOp22
 70
     0
102
RTVSPropertyOp23
 70
     0
102
RTVSPropertyOp24
 70
     0
102
RTVSPropertyOp25
 70
     0
102
RTVSPropertyOp26
 70
     0
102
RTVSPropertyOp27
 70
     0
102
RTVSPropertyOp28
 70
     1
102
RTVSPropertyOp29
 70
     1
102
RTVSPropertyOp30
 70
     1
102
RTVSPropertyOp31
 70
     1
102
RTVSPropertyOp32
 70
     1
102
RTVSPropertyOp33
 70
     1
102
RTVSPropertyOp34
 70
     1
102
RTVSPropertyOp35
 70
     1
102
RTVSPropertyOp36
 70
     1
102
RTVSPropertyOp37
 70
     0
102
RTVSPropertyOp38
 70
     0
102
RTVSPropertyOp39
 70
     0
102
RTVSPropertyOp40
 70
     0
102
RTVSPropertyOp41
 70
     0
102
RTVSPropertyOp42
 70
     0
102
RTVSPropertyOp43
 70
     0
102
RTVSPropertyOp44
 70
     0
102
RTVSPropertyOp45
 70
     1
102
RTVSPropertyOp46
 70
     0
102
RTVSPropertyOp47
 70
     0
102
RTVSPropertyOp48
 70
     0
102
RTVSPropertyOp49
 70
     1
102
RTVSPropertyOp50
 70
     0
102
RTVSPropertyOp51
 70
     0
102
RTVSPropertyOp52
 70
     0
102
RTVSPropertyOp53
 70
     0
102
RTVSPropertyOp54
 70
     0
102
RTVSPropertyOp55
 70
     1
102
RTVSPropertyOp56
 70
     0
102
RTVSPropertyOp57
 70
     0
102
RTVSPropertyOp58
 70
     0
102
RTVSPropertyOp59
 70
     0
102
RTVSPropertyOp60
 70
     0
102
RTVSPropertyOp61
 70
     0
102
RTVSPropertyOp62
 70
     0
  0
XRECORD
  5
11D40
102
{ACAD_REACTORS
330
11D3F
102
}
330
11D3F
100
AcDbXrecord
280
     1
102
RTVSPost2010Prop28
280
     0
102
RTVSPost2010PropOp28
 70
     1
102
RTVSPost2010Prop29
280
     1
102
RTVSPost2010PropOp29
 70
     1
102
RTVSPost2010Prop30
280
     1
102
RTVSPost2010PropOp30
 70
     1
102
RTVSPost2010Prop31
280
     0
102
RTVSPost2010PropOp31
 70
     1
102
RTVSPost2010Prop32
280
     0
102
RTVSPost2010PropOp32
 70
     1
102
RTVSPost2010Prop33
280
     0
102
RTVSPost2010PropOp33
 70
     1
102
RTVSPost2010Prop34
280
     0
102
RTVSPost2010PropOp34
 70
     1
102
RTVSPost2010Prop35
280
     0
102
RTVSPost2010PropOp35
 70
     1
102
RTVSPost2010Prop36
280
     0
102
RTVSPost2010PropOp36
 70
     1
102
RTVSPost2010Prop37
 90
       50
102
RTVSPost2010PropOp37
 70
     1
102
RTVSPost2010Prop38
140
0.0
102
RTVSPost2010PropOp38
 70
     1
102
RTVSPost2010Prop39
140
1.0
102
RTVSPost2010PropOp39
 70
     1
102
RTVSPost2010Prop40
 90
        0
102
RTVSPost2010PropOp40
 70
     1
102
RTVSPost2010Prop41ColorIndex
 90
       18
102
RTVSPost2010Prop41ColorRGB
 90
        0
102
RTVSPost2010PropOp41
 70
     1
102
RTVSPost2010Prop42
 90
       50
102
RTVSPost2010PropOp42
 70
     1
102
RTVSPost2010Prop43
 90
        3
102
RTVSPost2010PropOp43
 70
     1
102
RTVSPost2010Prop44ColorIndex
 90
        5
102
RTVSPost2010Prop44ColorRGB
 90
      255
102
RTVSPost2010PropOp44
 70
     1
102
RTVSPost2010Prop45
280
     0
102
RTVSPost2010PropOp45
 70
     1
102
RTVSPost2010Prop46
 90
       50
102
RTVSPost2010PropOp46
 70
     1
102
RTVSPost2010Prop47
 90
       50
102
RTVSPost2010PropOp47
 70
     1
102
RTVSPost2010Prop48
 90
       50
102
RTVSPost2010PropOp48
 70
     1
102
RTVSPost2010Prop49
280
     0
102
RTVSPost2010PropOp49
 70
     1
102
RTVSPost2010Prop50
 90
       50
102
RTVSPost2010PropOp50
 70
     1
102
RTVSPost2010Prop51ColorIndex
 90
      256
102
RTVSPost2010Prop51ColorRGB
 90
-16777216
102
RTVSPost2010PropOp51
 70
     0
102
RTVSPost2010Prop52
140
1.0
102
RTVSPost2010PropOp52
 70
     0
102
RTVSPost2010Prop53
 90
        2
102
RTVSPost2010PropOp53
 70
     1
102
RTVSPost2010Prop54
  1
strokes_ogs.tif
102
RTVSPost2010PropOp54
 70
     1
102
RTVSPost2010Prop55
280
     0
102
RTVSPost2010PropOp55
 70
     1
102
RTVSPost2010Prop56
140
1.0
102
RTVSPost2010PropOp56
 70
     1
102
RTVSPost2010Prop57
140
1.0
102
RTVSPost2010PropOp57
 70
     1
102
RTVSPropertyOp0
 70
     1
102
RTVSPropertyOp1
 70
     1
102
RTVSPropertyOp2
 70
     1
102
RTVSPropertyOp3
 70
     1
102
RTVSPropertyOp4
 70
     1
102
RTVSPropertyOp5
 70
     1
102
RTVSPropertyOp6
 70
     1
102
RTVSPropertyOp7
 70
     1
102
RTVSPropertyOp8
 70
     1
102
RTVSPropertyOp9
 70
     1
102
RTVSPropertyOp10
 70
     1
102
RTVSPropertyOp11
 70
     1
102
RTVSPropertyOp12
 70
     1
102
RTVSPropertyOp13
 70
     1
102
RTVSPropertyOp14
 70
     1
102
RTVSPropertyOp15
 70
     1
102
RTVSPropertyOp16
 70
     1
102
RTVSPropertyOp17
 70
     1
102
RTVSPropertyOp18
 70
     1
102
RTVSPropertyOp19
 70
     1
102
RTVSPropertyOp20
 70
     1
102
RTVSPropertyOp21
 70
     1
102
RTVSPropertyOp22
 70
     1
102
RTVSPropertyOp23
 70
     1
102
RTVSPropertyOp24
 70
     1
102
RTVSPropertyOp25
 70
     1
102
RTVSPropertyOp26
 70
     1
102
RTVSPropertyOp27
 70
     1
102
RTVSPropertyOp28
 70
     1
102
RTVSPropertyOp29
 70
     1
102
RTVSPropertyOp30
 70
     1
102
RTVSPropertyOp31
 70
     1
102
RTVSPropertyOp32
 70
     1
102
RTVSPropertyOp33
 70
     1
102
RTVSPropertyOp34
 70
     1
102
RTVSPropertyOp35
 70
     1
102
RTVSPropertyOp36
 70
     1
102
RTVSPropertyOp37
 70
     1
102
RTVSPropertyOp38
 70
     1
102
RTVSPropertyOp39
 70
     1
102
RTVSPropertyOp40
 70
     1
102
RTVSPropertyOp41
 70
     1
102
RTVSPropertyOp42
 70
     1
102
RTVSPropertyOp43
 70
     1
102
RTVSPropertyOp44
 70
     1
102
RTVSPropertyOp45
 70
     1
102
RTVSPropertyOp46
 70
     1
102
RTVSPropertyOp47
 70
     1
102
RTVSPropertyOp48
 70
     1
102
RTVSPropertyOp49
 70
     1
102
RTVSPropertyOp50
 70
     1
102
RTVSPropertyOp51
 70
     0
102
RTVSPropertyOp52
 70
     0
102
RTVSPropertyOp53
 70
     1
102
RTVSPropertyOp54
 70
     1
102
RTVSPropertyOp55
 70
     1
102
RTVSPropertyOp56
 70
     1
102
RTVSPropertyOp57
 70
     1
102
RTVSPropertyOp58
 70
     1
102
RTVSPropertyOp59
 70
     1
102
RTVSPropertyOp60
 70
     1
102
RTVSPropertyOp61
 70
     1
102
RTVSPropertyOp62
 70
     1
  0
XRECORD
  5
11D24
102
{ACAD_REACTORS
330
11D23
102
}
330
11D23
100
AcDbXrecord
280
     1
102
RTVSPost2010Prop28
280
     0
102
RTVSPost2010PropOp28
 70
     1
102
RTVSPost2010Prop29
280
     1
102
RTVSPost2010PropOp29
 70
     1
102
RTVSPost2010Prop30
280
     1
102
RTVSPost2010PropOp30
 70
     1
102
RTVSPost2010Prop31
280
     0
102
RTVSPost2010PropOp31
 70
     1
102
RTVSPost2010Prop32
280
     0
102
RTVSPost2010PropOp32
 70
     1
102
RTVSPost2010Prop33
280
     0
102
RTVSPost2010PropOp33
 70
     1
102
RTVSPost2010Prop34
280
     0
102
RTVSPost2010PropOp34
 70
     1
102
RTVSPost2010Prop35
280
     0
102
RTVSPost2010PropOp35
 70
     1
102
RTVSPost2010Prop36
280
     0
102
RTVSPost2010PropOp36
 70
     1
102
RTVSPost2010Prop37
 90
       50
102
RTVSPost2010PropOp37
 70
     1
102
RTVSPost2010Prop38
140
0.0
102
RTVSPost2010PropOp38
 70
     1
102
RTVSPost2010Prop39
140
1.0
102
RTVSPost2010PropOp39
 70
     1
102
RTVSPost2010Prop40
 90
        0
102
RTVSPost2010PropOp40
 70
     1
102
RTVSPost2010Prop41ColorIndex
 90
       18
102
RTVSPost2010Prop41ColorRGB
 90
        0
102
RTVSPost2010PropOp41
 70
     1
102
RTVSPost2010Prop42
 90
       50
102
RTVSPost2010PropOp42
 70
     1
102
RTVSPost2010Prop43
 90
        3
102
RTVSPost2010PropOp43
 70
     1
102
RTVSPost2010Prop44ColorIndex
 90
        5
102
RTVSPost2010Prop44ColorRGB
 90
      255
102
RTVSPost2010PropOp44
 70
     1
102
RTVSPost2010Prop45
280
     0
102
RTVSPost2010PropOp45
 70
     1
102
RTVSPost2010Prop46
 90
       50
102
RTVSPost2010PropOp46
 70
     1
102
RTVSPost2010Prop47
 90
       50
102
RTVSPost2010PropOp47
 70
     1
102
RTVSPost2010Prop48
 90
       50
102
RTVSPost2010PropOp48
 70
     1
102
RTVSPost2010Prop49
280
     0
102
RTVSPost2010PropOp49
 70
     1
102
RTVSPost2010Prop50
 90
       50
102
RTVSPost2010PropOp50
 70
     1
102
RTVSPost2010Prop51ColorIndex
 90
      256
102
RTVSPost2010Prop51ColorRGB
 90
-16777216
102
RTVSPost2010PropOp51
 70
     0
102
RTVSPost2010Prop52
140
1.0
102
RTVSPost2010PropOp52
 70
     0
102
RTVSPost2010Prop53
 90
        2
102
RTVSPost2010PropOp53
 70
     1
102
RTVSPost2010Prop54
  1
strokes_ogs.tif
102
RTVSPost2010PropOp54
 70
     1
102
RTVSPost2010Prop55
280
     0
102
RTVSPost2010PropOp55
 70
     1
102
RTVSPost2010Prop56
140
1.0
102
RTVSPost2010PropOp56
 70
     1
102
RTVSPost2010Prop57
140
1.0
102
RTVSPost2010PropOp57
 70
     1
102
RTVSPropertyOp0
 70
     1
102
RTVSPropertyOp1
 70
     1
102
RTVSPropertyOp2
 70
     1
102
RTVSPropertyOp3
 70
     1
102
RTVSPropertyOp4
 70
     1
102
RTVSPropertyOp5
 70
     1
102
RTVSPropertyOp6
 70
     1
102
RTVSPropertyOp7
 70
     1
102
RTVSPropertyOp8
 70
     1
102
RTVSPropertyOp9
 70
     1
102
RTVSPropertyOp10
 70
     1
102
RTVSPropertyOp11
 70
     1
102
RTVSPropertyOp12
 70
     1
102
RTVSPropertyOp13
 70
     1
102
RTVSPropertyOp14
 70
     1
102
RTVSPropertyOp15
 70
     1
102
RTVSPropertyOp16
 70
     1
102
RTVSPropertyOp17
 70
     1
102
RTVSPropertyOp18
 70
     1
102
RTVSPropertyOp19
 70
     1
102
RTVSPropertyOp20
 70
     1
102
RTVSPropertyOp21
 70
     1
102
RTVSPropertyOp22
 70
     1
102
RTVSPropertyOp23
 70
     1
102
RTVSPropertyOp24
 70
     1
102
RTVSPropertyOp25
 70
     1
102
RTVSPropertyOp26
 70
     1
102
RTVSPropertyOp27
 70
     1
102
RTVSPropertyOp28
 70
     1
102
RTVSPropertyOp29
 70
     1
102
RTVSPropertyOp30
 70
     1
102
RTVSPropertyOp31
 70
     1
102
RTVSPropertyOp32
 70
     1
102
RTVSPropertyOp33
 70
     1
102
RTVSPropertyOp34
 70
     1
102
RTVSPropertyOp35
 70
     1
102
RTVSPropertyOp36
 70
     1
102
RTVSPropertyOp37
 70
     1
102
RTVSPropertyOp38
 70
     1
102
RTVSPropertyOp39
 70
     1
102
RTVSPropertyOp40
 70
     1
102
RTVSPropertyOp41
 70
     1
102
RTVSPropertyOp42
 70
     1
102
RTVSPropertyOp43
 70
     1
102
RTVSPropertyOp44
 70
     1
102
RTVSPropertyOp45
 70
     1
102
RTVSPropertyOp46
 70
     1
102
RTVSPropertyOp47
 70
     1
102
RTVSPropertyOp48
 70
     1
102
RTVSPropertyOp49
 70
     1
102
RTVSPropertyOp50
 70
     1
102
RTVSPropertyOp51
 70
     0
102
RTVSPropertyOp52
 70
     0
102
RTVSPropertyOp53
 70
     1
102
RTVSPropertyOp54
 70
     1
102
RTVSPropertyOp55
 70
     1
102
RTVSPropertyOp56
 70
     1
102
RTVSPropertyOp57
 70
     1
102
RTVSPropertyOp58
 70
     1
102
RTVSPropertyOp59
 70
     1
102
RTVSPropertyOp60
 70
     1
102
RTVSPropertyOp61
 70
     1
102
RTVSPropertyOp62
 70
     1
  0
XRECORD
  5
11D26
102
{ACAD_REACTORS
330
11D25
102
}
330
11D25
100
AcDbXrecord
280
     1
102
RTVSPost2010Prop28
280
     0
102
RTVSPost2010PropOp28
 70
     1
102
RTVSPost2010Prop29
280
     1
102
RTVSPost2010PropOp29
 70
     1
102
RTVSPost2010Prop30
280
     1
102
RTVSPost2010PropOp30
 70
     1
102
RTVSPost2010Prop31
280
     0
102
RTVSPost2010PropOp31
 70
     1
102
RTVSPost2010Prop32
280
     0
102
RTVSPost2010PropOp32
 70
     1
102
RTVSPost2010Prop33
280
     0
102
RTVSPost2010PropOp33
 70
     1
102
RTVSPost2010Prop34
280
     0
102
RTVSPost2010PropOp34
 70
     1
102
RTVSPost2010Prop35
280
     0
102
RTVSPost2010PropOp35
 70
     1
102
RTVSPost2010Prop36
280
     0
102
RTVSPost2010PropOp36
 70
     1
102
RTVSPost2010Prop37
 90
       50
102
RTVSPost2010PropOp37
 70
     1
102
RTVSPost2010Prop38
140
0.0
102
RTVSPost2010PropOp38
 70
     1
102
RTVSPost2010Prop39
140
1.0
102
RTVSPost2010PropOp39
 70
     1
102
RTVSPost2010Prop40
 90
        0
102
RTVSPost2010PropOp40
 70
     1
102
RTVSPost2010Prop41ColorIndex
 90
       18
102
RTVSPost2010Prop41ColorRGB
 90
        0
102
RTVSPost2010PropOp41
 70
     1
102
RTVSPost2010Prop42
 90
       50
102
RTVSPost2010PropOp42
 70
     1
102
RTVSPost2010Prop43
 90
        3
102
RTVSPost2010PropOp43
 70
     1
102
RTVSPost2010Prop44ColorIndex
 90
        5
102
RTVSPost2010Prop44ColorRGB
 90
      255
102
RTVSPost2010PropOp44
 70
     1
102
RTVSPost2010Prop45
280
     0
102
RTVSPost2010PropOp45
 70
     1
102
RTVSPost2010Prop46
 90
       50
102
RTVSPost2010PropOp46
 70
     1
102
RTVSPost2010Prop47
 90
       50
102
RTVSPost2010PropOp47
 70
     1
102
RTVSPost2010Prop48
 90
       50
102
RTVSPost2010PropOp48
 70
     1
102
RTVSPost2010Prop49
280
     0
102
RTVSPost2010PropOp49
 70
     1
102
RTVSPost2010Prop50
 90
       50
102
RTVSPost2010PropOp50
 70
     1
102
RTVSPost2010Prop51ColorIndex
 90
      256
102
RTVSPost2010Prop51ColorRGB
 90
-16777216
102
RTVSPost2010PropOp51
 70
     0
102
RTVSPost2010Prop52
140
1.0
102
RTVSPost2010PropOp52
 70
     0
102
RTVSPost2010Prop53
 90
        2
102
RTVSPost2010PropOp53
 70
     1
102
RTVSPost2010Prop54
  1
strokes_ogs.tif
102
RTVSPost2010PropOp54
 70
     1
102
RTVSPost2010Prop55
280
     0
102
RTVSPost2010PropOp55
 70
     1
102
RTVSPost2010Prop56
140
1.0
102
RTVSPost2010PropOp56
 70
     1
102
RTVSPost2010Prop57
140
1.0
102
RTVSPost2010PropOp57
 70
     1
102
RTVSPropertyOp0
 70
     1
102
RTVSPropertyOp1
 70
     1
102
RTVSPropertyOp2
 70
     1
102
RTVSPropertyOp3
 70
     1
102
RTVSPropertyOp4
 70
     1
102
RTVSPropertyOp5
 70
     1
102
RTVSPropertyOp6
 70
     1
102
RTVSPropertyOp7
 70
     1
102
RTVSPropertyOp8
 70
     1
102
RTVSPropertyOp9
 70
     1
102
RTVSPropertyOp10
 70
     1
102
RTVSPropertyOp11
 70
     1
102
RTVSPropertyOp12
 70
     1
102
RTVSPropertyOp13
 70
     1
102
RTVSPropertyOp14
 70
     1
102
RTVSPropertyOp15
 70
     1
102
RTVSPropertyOp16
 70
     1
102
RTVSPropertyOp17
 70
     1
102
RTVSPropertyOp18
 70
     1
102
RTVSPropertyOp19
 70
     1
102
RTVSPropertyOp20
 70
     1
102
RTVSPropertyOp21
 70
     1
102
RTVSPropertyOp22
 70
     1
102
RTVSPropertyOp23
 70
     1
102
RTVSPropertyOp24
 70
     1
102
RTVSPropertyOp25
 70
     1
102
RTVSPropertyOp26
 70
     1
102
RTVSPropertyOp27
 70
     1
102
RTVSPropertyOp28
 70
     1
102
RTVSPropertyOp29
 70
     1
102
RTVSPropertyOp30
 70
     1
102
RTVSPropertyOp31
 70
     1
102
RTVSPropertyOp32
 70
     1
102
RTVSPropertyOp33
 70
     1
102
RTVSPropertyOp34
 70
     1
102
RTVSPropertyOp35
 70
     1
102
RTVSPropertyOp36
 70
     1
102
RTVSPropertyOp37
 70
     1
102
RTVSPropertyOp38
 70
     1
102
RTVSPropertyOp39
 70
     1
102
RTVSPropertyOp40
 70
     1
102
RTVSPropertyOp41
 70
     1
102
RTVSPropertyOp42
 70
     1
102
RTVSPropertyOp43
 70
     1
102
RTVSPropertyOp44
 70
     1
102
RTVSPropertyOp45
 70
     1
102
RTVSPropertyOp46
 70
     1
102
RTVSPropertyOp47
 70
     1
102
RTVSPropertyOp48
 70
     1
102
RTVSPropertyOp49
 70
     1
102
RTVSPropertyOp50
 70
     1
102
RTVSPropertyOp51
 70
     0
102
RTVSPropertyOp52
 70
     0
102
RTVSPropertyOp53
 70
     1
102
RTVSPropertyOp54
 70
     1
102
RTVSPropertyOp55
 70
     1
102
RTVSPropertyOp56
 70
     1
102
RTVSPropertyOp57
 70
     1
102
RTVSPropertyOp58
 70
     1
102
RTVSPropertyOp59
 70
     1
102
RTVSPropertyOp60
 70
     1
102
RTVSPropertyOp61
 70
     1
102
RTVSPropertyOp62
 70
     1
  0
XRECORD
  5
11D28
102
{ACAD_REACTORS
330
11D27
102
}
330
11D27
100
AcDbXrecord
280
     1
102
RTVSPost2010Prop28
280
     0
102
RTVSPost2010PropOp28
 70
     1
102
RTVSPost2010Prop29
280
     1
102
RTVSPost2010PropOp29
 70
     1
102
RTVSPost2010Prop30
280
     1
102
RTVSPost2010PropOp30
 70
     1
102
RTVSPost2010Prop31
280
     0
102
RTVSPost2010PropOp31
 70
     1
102
RTVSPost2010Prop32
280
     0
102
RTVSPost2010PropOp32
 70
     1
102
RTVSPost2010Prop33
280
     0
102
RTVSPost2010PropOp33
 70
     1
102
RTVSPost2010Prop34
280
     0
102
RTVSPost2010PropOp34
 70
     1
102
RTVSPost2010Prop35
280
     0
102
RTVSPost2010PropOp35
 70
     1
102
RTVSPost2010Prop36
280
     0
102
RTVSPost2010PropOp36
 70
     1
102
RTVSPost2010Prop37
 90
       50
102
RTVSPost2010PropOp37
 70
     1
102
RTVSPost2010Prop38
140
0.0
102
RTVSPost2010PropOp38
 70
     1
102
RTVSPost2010Prop39
140
1.0
102
RTVSPost2010PropOp39
 70
     1
102
RTVSPost2010Prop40
 90
        0
102
RTVSPost2010PropOp40
 70
     1
102
RTVSPost2010Prop41ColorIndex
 90
       18
102
RTVSPost2010Prop41ColorRGB
 90
        0
102
RTVSPost2010PropOp41
 70
     1
102
RTVSPost2010Prop42
 90
       50
102
RTVSPost2010PropOp42
 70
     1
102
RTVSPost2010Prop43
 90
        3
102
RTVSPost2010PropOp43
 70
     1
102
RTVSPost2010Prop44ColorIndex
 90
        5
102
RTVSPost2010Prop44ColorRGB
 90
      255
102
RTVSPost2010PropOp44
 70
     1
102
RTVSPost2010Prop45
280
     0
102
RTVSPost2010PropOp45
 70
     1
102
RTVSPost2010Prop46
 90
       50
102
RTVSPost2010PropOp46
 70
     1
102
RTVSPost2010Prop47
 90
       50
102
RTVSPost2010PropOp47
 70
     1
102
RTVSPost2010Prop48
 90
       50
102
RTVSPost2010PropOp48
 70
     1
102
RTVSPost2010Prop49
280
     0
102
RTVSPost2010PropOp49
 70
     1
102
RTVSPost2010Prop50
 90
       50
102
RTVSPost2010PropOp50
 70
     1
102
RTVSPost2010Prop51ColorIndex
 90
      256
102
RTVSPost2010Prop51ColorRGB
 90
-16777216
102
RTVSPost2010PropOp51
 70
     0
102
RTVSPost2010Prop52
140
1.0
102
RTVSPost2010PropOp52
 70
     0
102
RTVSPost2010Prop53
 90
        2
102
RTVSPost2010PropOp53
 70
     1
102
RTVSPost2010Prop54
  1
strokes_ogs.tif
102
RTVSPost2010PropOp54
 70
     1
102
RTVSPost2010Prop55
280
     0
102
RTVSPost2010PropOp55
 70
     1
102
RTVSPost2010Prop56
140
1.0
102
RTVSPost2010PropOp56
 70
     1
102
RTVSPost2010Prop57
140
1.0
102
RTVSPost2010PropOp57
 70
     1
102
RTVSPropertyOp0
 70
     1
102
RTVSPropertyOp1
 70
     1
102
RTVSPropertyOp2
 70
     1
102
RTVSPropertyOp3
 70
     1
102
RTVSPropertyOp4
 70
     1
102
RTVSPropertyOp5
 70
     1
102
RTVSPropertyOp6
 70
     1
102
RTVSPropertyOp7
 70
     1
102
RTVSPropertyOp8
 70
     1
102
RTVSPropertyOp9
 70
     1
102
RTVSPropertyOp10
 70
     1
102
RTVSPropertyOp11
 70
     1
102
RTVSPropertyOp12
 70
     1
102
RTVSPropertyOp13
 70
     1
102
RTVSPropertyOp14
 70
     1
102
RTVSPropertyOp15
 70
     1
102
RTVSPropertyOp16
 70
     1
102
RTVSPropertyOp17
 70
     1
102
RTVSPropertyOp18
 70
     1
102
RTVSPropertyOp19
 70
     1
102
RTVSPropertyOp20
 70
     1
102
RTVSPropertyOp21
 70
     1
102
RTVSPropertyOp22
 70
     1
102
RTVSPropertyOp23
 70
     1
102
RTVSPropertyOp24
 70
     1
102
RTVSPropertyOp25
 70
     1
102
RTVSPropertyOp26
 70
     1
102
RTVSPropertyOp27
 70
     1
102
RTVSPropertyOp28
 70
     1
102
RTVSPropertyOp29
 70
     1
102
RTVSPropertyOp30
 70
     1
102
RTVSPropertyOp31
 70
     1
102
RTVSPropertyOp32
 70
     1
102
RTVSPropertyOp33
 70
     1
102
RTVSPropertyOp34
 70
     1
102
RTVSPropertyOp35
 70
     1
102
RTVSPropertyOp36
 70
     1
102
RTVSPropertyOp37
 70
     1
102
RTVSPropertyOp38
 70
     1
102
RTVSPropertyOp39
 70
     1
102
RTVSPropertyOp40
 70
     1
102
RTVSPropertyOp41
 70
     1
102
RTVSPropertyOp42
 70
     1
102
RTVSPropertyOp43
 70
     1
102
RTVSPropertyOp44
 70
     1
102
RTVSPropertyOp45
 70
     1
102
RTVSPropertyOp46
 70
     1
102
RTVSPropertyOp47
 70
     1
102
RTVSPropertyOp48
 70
     1
102
RTVSPropertyOp49
 70
     1
102
RTVSPropertyOp50
 70
     1
102
RTVSPropertyOp51
 70
     0
102
RTVSPropertyOp52
 70
     0
102
RTVSPropertyOp53
 70
     1
102
RTVSPropertyOp54
 70
     1
102
RTVSPropertyOp55
 70
     1
102
RTVSPropertyOp56
 70
     1
102
RTVSPropertyOp57
 70
     1
102
RTVSPropertyOp58
 70
     1
102
RTVSPropertyOp59
 70
     1
102
RTVSPropertyOp60
 70
     1
102
RTVSPropertyOp61
 70
     1
102
RTVSPropertyOp62
 70
     1
  0
XRECORD
  5
11D2A
102
{ACAD_REACTORS
330
11D29
102
}
330
11D29
100
AcDbXrecord
280
     1
102
RTVSPost2010Prop28
280
     0
102
RTVSPost2010PropOp28
 70
     1
102
RTVSPost2010Prop29
280
     1
102
RTVSPost2010PropOp29
 70
     1
102
RTVSPost2010Prop30
280
     1
102
RTVSPost2010PropOp30
 70
     1
102
RTVSPost2010Prop31
280
     0
102
RTVSPost2010PropOp31
 70
     1
102
RTVSPost2010Prop32
280
     0
102
RTVSPost2010PropOp32
 70
     1
102
RTVSPost2010Prop33
280
     0
102
RTVSPost2010PropOp33
 70
     1
102
RTVSPost2010Prop34
280
     0
102
RTVSPost2010PropOp34
 70
     1
102
RTVSPost2010Prop35
280
     0
102
RTVSPost2010PropOp35
 70
     1
102
RTVSPost2010Prop36
280
     0
102
RTVSPost2010PropOp36
 70
     1
102
RTVSPost2010Prop37
 90
       50
102
RTVSPost2010PropOp37
 70
     1
102
RTVSPost2010Prop38
140
0.0
102
RTVSPost2010PropOp38
 70
     1
102
RTVSPost2010Prop39
140
1.0
102
RTVSPost2010PropOp39
 70
     1
102
RTVSPost2010Prop40
 90
        0
102
RTVSPost2010PropOp40
 70
     1
102
RTVSPost2010Prop41ColorIndex
 90
       18
102
RTVSPost2010Prop41ColorRGB
 90
        0
102
RTVSPost2010PropOp41
 70
     1
102
RTVSPost2010Prop42
 90
       50
102
RTVSPost2010PropOp42
 70
     1
102
RTVSPost2010Prop43
 90
        3
102
RTVSPost2010PropOp43
 70
     1
102
RTVSPost2010Prop44ColorIndex
 90
        5
102
RTVSPost2010Prop44ColorRGB
 90
      255
102
RTVSPost2010PropOp44
 70
     1
102
RTVSPost2010Prop45
280
     0
102
RTVSPost2010PropOp45
 70
     1
102
RTVSPost2010Prop46
 90
       50
102
RTVSPost2010PropOp46
 70
     1
102
RTVSPost2010Prop47
 90
       50
102
RTVSPost2010PropOp47
 70
     1
102
RTVSPost2010Prop48
 90
       50
102
RTVSPost2010PropOp48
 70
     1
102
RTVSPost2010Prop49
280
     0
102
RTVSPost2010PropOp49
 70
     1
102
RTVSPost2010Prop50
 90
       50
102
RTVSPost2010PropOp50
 70
     1
102
RTVSPost2010Prop51ColorIndex
 90
      256
102
RTVSPost2010Prop51ColorRGB
 90
-16777216
102
RTVSPost2010PropOp51
 70
     0
102
RTVSPost2010Prop52
140
1.0
102
RTVSPost2010PropOp52
 70
     0
102
RTVSPost2010Prop53
 90
        2
102
RTVSPost2010PropOp53
 70
     1
102
RTVSPost2010Prop54
  1
strokes_ogs.tif
102
RTVSPost2010PropOp54
 70
     1
102
RTVSPost2010Prop55
280
     0
102
RTVSPost2010PropOp55
 70
     1
102
RTVSPost2010Prop56
140
1.0
102
RTVSPost2010PropOp56
 70
     1
102
RTVSPost2010Prop57
140
1.0
102
RTVSPost2010PropOp57
 70
     1
102
RTVSPropertyOp0
 70
     1
102
RTVSPropertyOp1
 70
     1
102
RTVSPropertyOp2
 70
     1
102
RTVSPropertyOp3
 70
     1
102
RTVSPropertyOp4
 70
     1
102
RTVSPropertyOp5
 70
     1
102
RTVSPropertyOp6
 70
     1
102
RTVSPropertyOp7
 70
     1
102
RTVSPropertyOp8
 70
     1
102
RTVSPropertyOp9
 70
     1
102
RTVSPropertyOp10
 70
     1
102
RTVSPropertyOp11
 70
     1
102
RTVSPropertyOp12
 70
     1
102
RTVSPropertyOp13
 70
     1
102
RTVSPropertyOp14
 70
     1
102
RTVSPropertyOp15
 70
     1
102
RTVSPropertyOp16
 70
     1
102
RTVSPropertyOp17
 70
     1
102
RTVSPropertyOp18
 70
     1
102
RTVSPropertyOp19
 70
     1
102
RTVSPropertyOp20
 70
     1
102
RTVSPropertyOp21
 70
     1
102
RTVSPropertyOp22
 70
     1
102
RTVSPropertyOp23
 70
     1
102
RTVSPropertyOp24
 70
     1
102
RTVSPropertyOp25
 70
     1
102
RTVSPropertyOp26
 70
     1
102
RTVSPropertyOp27
 70
     1
102
RTVSPropertyOp28
 70
     1
102
RTVSPropertyOp29
 70
     1
102
RTVSPropertyOp30
 70
     1
102
RTVSPropertyOp31
 70
     1
102
RTVSPropertyOp32
 70
     1
102
RTVSPropertyOp33
 70
     1
102
RTVSPropertyOp34
 70
     1
102
RTVSPropertyOp35
 70
     1
102
RTVSPropertyOp36
 70
     1
102
RTVSPropertyOp37
 70
     1
102
RTVSPropertyOp38
 70
     1
102
RTVSPropertyOp39
 70
     1
102
RTVSPropertyOp40
 70
     1
102
RTVSPropertyOp41
 70
     1
102
RTVSPropertyOp42
 70
     1
102
RTVSPropertyOp43
 70
     1
102
RTVSPropertyOp44
 70
     1
102
RTVSPropertyOp45
 70
     1
102
RTVSPropertyOp46
 70
     1
102
RTVSPropertyOp47
 70
     1
102
RTVSPropertyOp48
 70
     1
102
RTVSPropertyOp49
 70
     1
102
RTVSPropertyOp50
 70
     1
102
RTVSPropertyOp51
 70
     0
102
RTVSPropertyOp52
 70
     0
102
RTVSPropertyOp53
 70
     1
102
RTVSPropertyOp54
 70
     1
102
RTVSPropertyOp55
 70
     1
102
RTVSPropertyOp56
 70
     1
102
RTVSPropertyOp57
 70
     1
102
RTVSPropertyOp58
 70
     1
102
RTVSPropertyOp59
 70
     1
102
RTVSPropertyOp60
 70
     1
102
RTVSPropertyOp61
 70
     1
102
RTVSPropertyOp62
 70
     1
  0
XRECORD
  5
11D32
102
{ACAD_REACTORS
330
11D31
102
}
330
11D31
100
AcDbXrecord
280
     1
102
RTVSPost2010Prop28
280
     0
102
RTVSPost2010PropOp28
 70
     1
102
RTVSPost2010Prop29
280
     1
102
RTVSPost2010PropOp29
 70
     1
102
RTVSPost2010Prop30
280
     1
102
RTVSPost2010PropOp30
 70
     1
102
RTVSPost2010Prop31
280
     0
102
RTVSPost2010PropOp31
 70
     1
102
RTVSPost2010Prop32
280
     0
102
RTVSPost2010PropOp32
 70
     1
102
RTVSPost2010Prop33
280
     0
102
RTVSPost2010PropOp33
 70
     1
102
RTVSPost2010Prop34
280
     0
102
RTVSPost2010PropOp34
 70
     1
102
RTVSPost2010Prop35
280
     0
102
RTVSPost2010PropOp35
 70
     1
102
RTVSPost2010Prop36
280
     0
102
RTVSPost2010PropOp36
 70
     1
102
RTVSPost2010Prop37
 90
       50
102
RTVSPost2010PropOp37
 70
     1
102
RTVSPost2010Prop38
140
0.0
102
RTVSPost2010PropOp38
 70
     1
102
RTVSPost2010Prop39
140
1.0
102
RTVSPost2010PropOp39
 70
     1
102
RTVSPost2010Prop40
 90
        0
102
RTVSPost2010PropOp40
 70
     1
102
RTVSPost2010Prop41ColorIndex
 90
       18
102
RTVSPost2010Prop41ColorRGB
 90
        0
102
RTVSPost2010PropOp41
 70
     1
102
RTVSPost2010Prop42
 90
       50
102
RTVSPost2010PropOp42
 70
     1
102
RTVSPost2010Prop43
 90
        3
102
RTVSPost2010PropOp43
 70
     1
102
RTVSPost2010Prop44ColorIndex
 90
        5
102
RTVSPost2010Prop44ColorRGB
 90
      255
102
RTVSPost2010PropOp44
 70
     1
102
RTVSPost2010Prop45
280
     0
102
RTVSPost2010PropOp45
 70
     1
102
RTVSPost2010Prop46
 90
       50
102
RTVSPost2010PropOp46
 70
     1
102
RTVSPost2010Prop47
 90
       50
102
RTVSPost2010PropOp47
 70
     1
102
RTVSPost2010Prop48
 90
       50
102
RTVSPost2010PropOp48
 70
     1
102
RTVSPost2010Prop49
280
     0
102
RTVSPost2010PropOp49
 70
     1
102
RTVSPost2010Prop50
 90
       50
102
RTVSPost2010PropOp50
 70
     1
102
RTVSPost2010Prop51ColorIndex
 90
      256
102
RTVSPost2010Prop51ColorRGB
 90
-16777216
102
RTVSPost2010PropOp51
 70
     0
102
RTVSPost2010Prop52
140
1.0
102
RTVSPost2010PropOp52
 70
     0
102
RTVSPost2010Prop53
 90
        2
102
RTVSPost2010PropOp53
 70
     1
102
RTVSPost2010Prop54
  1
strokes_ogs.tif
102
RTVSPost2010PropOp54
 70
     1
102
RTVSPost2010Prop55
280
     0
102
RTVSPost2010PropOp55
 70
     1
102
RTVSPost2010Prop56
140
1.0
102
RTVSPost2010PropOp56
 70
     1
102
RTVSPost2010Prop57
140
1.0
102
RTVSPost2010PropOp57
 70
     1
102
RTVSPropertyOp0
 70
     1
102
RTVSPropertyOp1
 70
     1
102
RTVSPropertyOp2
 70
     1
102
RTVSPropertyOp3
 70
     1
102
RTVSPropertyOp4
 70
     1
102
RTVSPropertyOp5
 70
     1
102
RTVSPropertyOp6
 70
     1
102
RTVSPropertyOp7
 70
     1
102
RTVSPropertyOp8
 70
     1
102
RTVSPropertyOp9
 70
     1
102
RTVSPropertyOp10
 70
     1
102
RTVSPropertyOp11
 70
     1
102
RTVSPropertyOp12
 70
     1
102
RTVSPropertyOp13
 70
     1
102
RTVSPropertyOp14
 70
     1
102
RTVSPropertyOp15
 70
     1
102
RTVSPropertyOp16
 70
     1
102
RTVSPropertyOp17
 70
     1
102
RTVSPropertyOp18
 70
     1
102
RTVSPropertyOp19
 70
     1
102
RTVSPropertyOp20
 70
     1
102
RTVSPropertyOp21
 70
     1
102
RTVSPropertyOp22
 70
     1
102
RTVSPropertyOp23
 70
     1
102
RTVSPropertyOp24
 70
     1
102
RTVSPropertyOp25
 70
     1
102
RTVSPropertyOp26
 70
     1
102
RTVSPropertyOp27
 70
     1
102
RTVSPropertyOp28
 70
     1
102
RTVSPropertyOp29
 70
     1
102
RTVSPropertyOp30
 70
     1
102
RTVSPropertyOp31
 70
     1
102
RTVSPropertyOp32
 70
     1
102
RTVSPropertyOp33
 70
     1
102
RTVSPropertyOp34
 70
     1
102
RTVSPropertyOp35
 70
     1
102
RTVSPropertyOp36
 70
     1
102
RTVSPropertyOp37
 70
     1
102
RTVSPropertyOp38
 70
     1
102
RTVSPropertyOp39
 70
     1
102
RTVSPropertyOp40
 70
     1
102
RTVSPropertyOp41
 70
     1
102
RTVSPropertyOp42
 70
     1
102
RTVSPropertyOp43
 70
     1
102
RTVSPropertyOp44
 70
     1
102
RTVSPropertyOp45
 70
     1
102
RTVSPropertyOp46
 70
     1
102
RTVSPropertyOp47
 70
     1
102
RTVSPropertyOp48
 70
     1
102
RTVSPropertyOp49
 70
     1
102
RTVSPropertyOp50
 70
     1
102
RTVSPropertyOp51
 70
     0
102
RTVSPropertyOp52
 70
     0
102
RTVSPropertyOp53
 70
     1
102
RTVSPropertyOp54
 70
     1
102
RTVSPropertyOp55
 70
     1
102
RTVSPropertyOp56
 70
     1
102
RTVSPropertyOp57
 70
     1
102
RTVSPropertyOp58
 70
     1
102
RTVSPropertyOp59
 70
     1
102
RTVSPropertyOp60
 70
     1
102
RTVSPropertyOp61
 70
     1
102
RTVSPropertyOp62
 70
     1
  0
XRECORD
  5
11D4E
102
{ACAD_REACTORS
330
11D4D
102
}
330
11D4D
100
AcDbXrecord
280
     1
102
RTVSPost2010Prop28
280
     0
102
RTVSPost2010PropOp28
 70
     1
102
RTVSPost2010Prop29
280
     1
102
RTVSPost2010PropOp29
 70
     1
102
RTVSPost2010Prop30
280
     1
102
RTVSPost2010PropOp30
 70
     1
102
RTVSPost2010Prop31
280
     0
102
RTVSPost2010PropOp31
 70
     1
102
RTVSPost2010Prop32
280
     0
102
RTVSPost2010PropOp32
 70
     1
102
RTVSPost2010Prop33
280
     0
102
RTVSPost2010PropOp33
 70
     1
102
RTVSPost2010Prop34
280
     0
102
RTVSPost2010PropOp34
 70
     1
102
RTVSPost2010Prop35
280
     0
102
RTVSPost2010PropOp35
 70
     1
102
RTVSPost2010Prop36
280
     0
102
RTVSPost2010PropOp36
 70
     1
102
RTVSPost2010Prop37
 90
       50
102
RTVSPost2010PropOp37
 70
     0
102
RTVSPost2010Prop38
140
0.0
102
RTVSPost2010PropOp38
 70
     0
102
RTVSPost2010Prop39
140
1.0
102
RTVSPost2010PropOp39
 70
     0
102
RTVSPost2010Prop40
 90
        0
102
RTVSPost2010PropOp40
 70
     0
102
RTVSPost2010Prop41ColorIndex
 90
       18
102
RTVSPost2010Prop41ColorRGB
 90
        0
102
RTVSPost2010PropOp41
 70
     0
102
RTVSPost2010Prop42
 90
       50
102
RTVSPost2010PropOp42
 70
     0
102
RTVSPost2010Prop43
 90
        3
102
RTVSPost2010PropOp43
 70
     0
102
RTVSPost2010Prop44ColorIndex
 90
        5
102
RTVSPost2010Prop44ColorRGB
 90
      255
102
RTVSPost2010PropOp44
 70
     0
102
RTVSPost2010Prop45
280
     0
102
RTVSPost2010PropOp45
 70
     1
102
RTVSPost2010Prop46
 90
       50
102
RTVSPost2010PropOp46
 70
     0
102
RTVSPost2010Prop47
 90
       50
102
RTVSPost2010PropOp47
 70
     0
102
RTVSPost2010Prop48
 90
       50
102
RTVSPost2010PropOp48
 70
     0
102
RTVSPost2010Prop49
280
     0
102
RTVSPost2010PropOp49
 70
     1
102
RTVSPost2010Prop50
 90
       50
102
RTVSPost2010PropOp50
 70
     0
102
RTVSPost2010Prop51ColorIndex
 90
      256
102
RTVSPost2010Prop51ColorRGB
 90
-16777216
102
RTVSPost2010PropOp51
 70
     0
102
RTVSPost2010Prop52
140
1.0
102
RTVSPost2010PropOp52
 70
     0
102
RTVSPost2010Prop53
 90
        2
102
RTVSPost2010PropOp53
 70
     0
102
RTVSPost2010Prop54
  1
strokes_ogs.tif
102
RTVSPost2010PropOp54
 70
     0
102
RTVSPost2010Prop55
280
     0
102
RTVSPost2010PropOp55
 70
     1
102
RTVSPost2010Prop56
140
1.0
102
RTVSPost2010PropOp56
 70
     0
102
RTVSPost2010Prop57
140
1.0
102
RTVSPost2010PropOp57
 70
     0
102
RTVSPropertyOp0
 70
     0
102
RTVSPropertyOp1
 70
     0
102
RTVSPropertyOp2
 70
     0
102
RTVSPropertyOp3
 70
     0
102
RTVSPropertyOp4
 70
     0
102
RTVSPropertyOp5
 70
     0
102
RTVSPropertyOp6
 70
     0
102
RTVSPropertyOp7
 70
     0
102
RTVSPropertyOp8
 70
     0
102
RTVSPropertyOp9
 70
     0
102
RTVSPropertyOp10
 70
     0
102
RTVSPropertyOp11
 70
     0
102
RTVSPropertyOp12
 70
     0
102
RTVSPropertyOp13
 70
     0
102
RTVSPropertyOp14
 70
     2
102
RTVSPropertyOp15
 70
     0
102
RTVSPropertyOp16
 70
     0
102
RTVSPropertyOp17
 70
     0
102
RTVSPropertyOp18
 70
     0
102
RTVSPropertyOp19
 70
     0
102
RTVSPropertyOp20
 70
     0
102
RTVSPropertyOp21
 70
     0
102
RTVSPropertyOp22
 70
     0
102
RTVSPropertyOp23
 70
     0
102
RTVSPropertyOp24
 70
     0
102
RTVSPropertyOp25
 70
     0
102
RTVSPropertyOp26
 70
     0
102
RTVSPropertyOp27
 70
     0
102
RTVSPropertyOp28
 70
     1
102
RTVSPropertyOp29
 70
     1
102
RTVSPropertyOp30
 70
     1
102
RTVSPropertyOp31
 70
     1
102
RTVSPropertyOp32
 70
     1
102
RTVSPropertyOp33
 70
     1
102
RTVSPropertyOp34
 70
     1
102
RTVSPropertyOp35
 70
     1
102
RTVSPropertyOp36
 70
     1
102
RTVSPropertyOp37
 70
     0
102
RTVSPropertyOp38
 70
     0
102
RTVSPropertyOp39
 70
     0
102
RTVSPropertyOp40
 70
     0
102
RTVSPropertyOp41
 70
     0
102
RTVSPropertyOp42
 70
     0
102
RTVSPropertyOp43
 70
     0
102
RTVSPropertyOp44
 70
     0
102
RTVSPropertyOp45
 70
     1
102
RTVSPropertyOp46
 70
     0
102
RTVSPropertyOp47
 70
     0
102
RTVSPropertyOp48
 70
     0
102
RTVSPropertyOp49
 70
     1
102
RTVSPropertyOp50
 70
     0
102
RTVSPropertyOp51
 70
     0
102
RTVSPropertyOp52
 70
     0
102
RTVSPropertyOp53
 70
     0
102
RTVSPropertyOp54
 70
     0
102
RTVSPropertyOp55
 70
     1
102
RTVSPropertyOp56
 70
     0
102
RTVSPropertyOp57
 70
     0
102
RTVSPropertyOp58
 70
     0
102
RTVSPropertyOp59
 70
     0
102
RTVSPropertyOp60
 70
     0
102
RTVSPropertyOp61
 70
     0
102
RTVSPropertyOp62
 70
     0
  0
XRECORD
  5
11D3E
102
{ACAD_REACTORS
330
11D3D
102
}
330
11D3D
100
AcDbXrecord
280
     1
102
RTVSPost2010Prop28
280
     0
102
RTVSPost2010PropOp28
 70
     1
102
RTVSPost2010Prop29
280
     1
102
RTVSPost2010PropOp29
 70
     1
102
RTVSPost2010Prop30
280
     1
102
RTVSPost2010PropOp30
 70
     1
102
RTVSPost2010Prop31
280
     0
102
RTVSPost2010PropOp31
 70
     1
102
RTVSPost2010Prop32
280
     0
102
RTVSPost2010PropOp32
 70
     1
102
RTVSPost2010Prop33
280
     0
102
RTVSPost2010PropOp33
 70
     1
102
RTVSPost2010Prop34
280
     0
102
RTVSPost2010PropOp34
 70
     1
102
RTVSPost2010Prop35
280
     0
102
RTVSPost2010PropOp35
 70
     1
102
RTVSPost2010Prop36
280
     0
102
RTVSPost2010PropOp36
 70
     1
102
RTVSPost2010Prop37
 90
       50
102
RTVSPost2010PropOp37
 70
     1
102
RTVSPost2010Prop38
140
0.0
102
RTVSPost2010PropOp38
 70
     1
102
RTVSPost2010Prop39
140
1.0
102
RTVSPost2010PropOp39
 70
     1
102
RTVSPost2010Prop40
 90
        0
102
RTVSPost2010PropOp40
 70
     1
102
RTVSPost2010Prop41ColorIndex
 90
       18
102
RTVSPost2010Prop41ColorRGB
 90
        0
102
RTVSPost2010PropOp41
 70
     1
102
RTVSPost2010Prop42
 90
       50
102
RTVSPost2010PropOp42
 70
     1
102
RTVSPost2010Prop43
 90
        3
102
RTVSPost2010PropOp43
 70
     1
102
RTVSPost2010Prop44ColorIndex
 90
        5
102
RTVSPost2010Prop44ColorRGB
 90
      255
102
RTVSPost2010PropOp44
 70
     1
102
RTVSPost2010Prop45
280
     0
102
RTVSPost2010PropOp45
 70
     1
102
RTVSPost2010Prop46
 90
       50
102
RTVSPost2010PropOp46
 70
     1
102
RTVSPost2010Prop47
 90
       50
102
RTVSPost2010PropOp47
 70
     1
102
RTVSPost2010Prop48
 90
       50
102
RTVSPost2010PropOp48
 70
     1
102
RTVSPost2010Prop49
280
     0
102
RTVSPost2010PropOp49
 70
     1
102
RTVSPost2010Prop50
 90
       50
102
RTVSPost2010PropOp50
 70
     1
102
RTVSPost2010Prop51ColorIndex
 90
      256
102
RTVSPost2010Prop51ColorRGB
 90
-16777216
102
RTVSPost2010PropOp51
 70
     0
102
RTVSPost2010Prop52
140
1.0
102
RTVSPost2010PropOp52
 70
     0
102
RTVSPost2010Prop53
 90
        2
102
RTVSPost2010PropOp53
 70
     1
102
RTVSPost2010Prop54
  1
strokes_ogs.tif
102
RTVSPost2010PropOp54
 70
     1
102
RTVSPost2010Prop55
280
     0
102
RTVSPost2010PropOp55
 70
     1
102
RTVSPost2010Prop56
140
1.0
102
RTVSPost2010PropOp56
 70
     1
102
RTVSPost2010Prop57
140
1.0
102
RTVSPost2010PropOp57
 70
     1
102
RTVSPropertyOp0
 70
     1
102
RTVSPropertyOp1
 70
     1
102
RTVSPropertyOp2
 70
     1
102
RTVSPropertyOp3
 70
     1
102
RTVSPropertyOp4
 70
     1
102
RTVSPropertyOp5
 70
     1
102
RTVSPropertyOp6
 70
     1
102
RTVSPropertyOp7
 70
     1
102
RTVSPropertyOp8
 70
     1
102
RTVSPropertyOp9
 70
     1
102
RTVSPropertyOp10
 70
     1
102
RTVSPropertyOp11
 70
     1
102
RTVSPropertyOp12
 70
     1
102
RTVSPropertyOp13
 70
     1
102
RTVSPropertyOp14
 70
     1
102
RTVSPropertyOp15
 70
     1
102
RTVSPropertyOp16
 70
     1
102
RTVSPropertyOp17
 70
     1
102
RTVSPropertyOp18
 70
     1
102
RTVSPropertyOp19
 70
     1
102
RTVSPropertyOp20
 70
     1
102
RTVSPropertyOp21
 70
     1
102
RTVSPropertyOp22
 70
     1
102
RTVSPropertyOp23
 70
     1
102
RTVSPropertyOp24
 70
     1
102
RTVSPropertyOp25
 70
     1
102
RTVSPropertyOp26
 70
     1
102
RTVSPropertyOp27
 70
     1
102
RTVSPropertyOp28
 70
     1
102
RTVSPropertyOp29
 70
     1
102
RTVSPropertyOp30
 70
     1
102
RTVSPropertyOp31
 70
     1
102
RTVSPropertyOp32
 70
     1
102
RTVSPropertyOp33
 70
     1
102
RTVSPropertyOp34
 70
     1
102
RTVSPropertyOp35
 70
     1
102
RTVSPropertyOp36
 70
     1
102
RTVSPropertyOp37
 70
     1
102
RTVSPropertyOp38
 70
     1
102
RTVSPropertyOp39
 70
     1
102
RTVSPropertyOp40
 70
     1
102
RTVSPropertyOp41
 70
     1
102
RTVSPropertyOp42
 70
     1
102
RTVSPropertyOp43
 70
     1
102
RTVSPropertyOp44
 70
     1
102
RTVSPropertyOp45
 70
     1
102
RTVSPropertyOp46
 70
     1
102
RTVSPropertyOp47
 70
     1
102
RTVSPropertyOp48
 70
     1
102
RTVSPropertyOp49
 70
     1
102
RTVSPropertyOp50
 70
     1
102
RTVSPropertyOp51
 70
     0
102
RTVSPropertyOp52
 70
     0
102
RTVSPropertyOp53
 70
     1
102
RTVSPropertyOp54
 70
     1
102
RTVSPropertyOp55
 70
     1
102
RTVSPropertyOp56
 70
     1
102
RTVSPropertyOp57
 70
     1
102
RTVSPropertyOp58
 70
     1
102
RTVSPropertyOp59
 70
     1
102
RTVSPropertyOp60
 70
     1
102
RTVSPropertyOp61
 70
     1
102
RTVSPropertyOp62
 70
     1
  0
XRECORD
  5
11D50
102
{ACAD_REACTORS
330
11D4F
102
}
330
11D4F
100
AcDbXrecord
280
     1
102
RTVSPost2010Prop28
280
     0
102
RTVSPost2010PropOp28
 70
     1
102
RTVSPost2010Prop29
280
     1
102
RTVSPost2010PropOp29
 70
     1
102
RTVSPost2010Prop30
280
     1
102
RTVSPost2010PropOp30
 70
     1
102
RTVSPost2010Prop31
280
     0
102
RTVSPost2010PropOp31
 70
     1
102
RTVSPost2010Prop32
280
     0
102
RTVSPost2010PropOp32
 70
     1
102
RTVSPost2010Prop33
280
     0
102
RTVSPost2010PropOp33
 70
     1
102
RTVSPost2010Prop34
280
     0
102
RTVSPost2010PropOp34
 70
     1
102
RTVSPost2010Prop35
280
     0
102
RTVSPost2010PropOp35
 70
     1
102
RTVSPost2010Prop36
280
     0
102
RTVSPost2010PropOp36
 70
     1
102
RTVSPost2010Prop37
 90
       50
102
RTVSPost2010PropOp37
 70
     0
102
RTVSPost2010Prop38
140
0.0
102
RTVSPost2010PropOp38
 70
     0
102
RTVSPost2010Prop39
140
1.0
102
RTVSPost2010PropOp39
 70
     0
102
RTVSPost2010Prop40
 90
        0
102
RTVSPost2010PropOp40
 70
     0
102
RTVSPost2010Prop41ColorIndex
 90
       18
102
RTVSPost2010Prop41ColorRGB
 90
        0
102
RTVSPost2010PropOp41
 70
     0
102
RTVSPost2010Prop42
 90
       50
102
RTVSPost2010PropOp42
 70
     0
102
RTVSPost2010Prop43
 90
        3
102
RTVSPost2010PropOp43
 70
     0
102
RTVSPost2010Prop44ColorIndex
 90
        5
102
RTVSPost2010Prop44ColorRGB
 90
      255
102
RTVSPost2010PropOp44
 70
     0
102
RTVSPost2010Prop45
280
     0
102
RTVSPost2010PropOp45
 70
     1
102
RTVSPost2010Prop46
 90
       50
102
RTVSPost2010PropOp46
 70
     0
102
RTVSPost2010Prop47
 90
       50
102
RTVSPost2010PropOp47
 70
     0
102
RTVSPost2010Prop48
 90
       50
102
RTVSPost2010PropOp48
 70
     0
102
RTVSPost2010Prop49
280
     0
102
RTVSPost2010PropOp49
 70
     1
102
RTVSPost2010Prop50
 90
       50
102
RTVSPost2010PropOp50
 70
     0
102
RTVSPost2010Prop51ColorIndex
 90
      256
102
RTVSPost2010Prop51ColorRGB
 90
-16777216
102
RTVSPost2010PropOp51
 70
     0
102
RTVSPost2010Prop52
140
1.0
102
RTVSPost2010PropOp52
 70
     0
102
RTVSPost2010Prop53
 90
        2
102
RTVSPost2010PropOp53
 70
     0
102
RTVSPost2010Prop54
  1
strokes_ogs.tif
102
RTVSPost2010PropOp54
 70
     0
102
RTVSPost2010Prop55
280
     0
102
RTVSPost2010PropOp55
 70
     1
102
RTVSPost2010Prop56
140
1.0
102
RTVSPost2010PropOp56
 70
     0
102
RTVSPost2010Prop57
140
1.0
102
RTVSPost2010PropOp57
 70
     0
102
RTVSPropertyOp0
 70
     0
102
RTVSPropertyOp1
 70
     0
102
RTVSPropertyOp2
 70
     0
102
RTVSPropertyOp3
 70
     0
102
RTVSPropertyOp4
 70
     0
102
RTVSPropertyOp5
 70
     0
102
RTVSPropertyOp6
 70
     0
102
RTVSPropertyOp7
 70
     0
102
RTVSPropertyOp8
 70
     0
102
RTVSPropertyOp9
 70
     0
102
RTVSPropertyOp10
 70
     0
102
RTVSPropertyOp11
 70
     0
102
RTVSPropertyOp12
 70
     0
102
RTVSPropertyOp13
 70
     0
102
RTVSPropertyOp14
 70
     2
102
RTVSPropertyOp15
 70
     0
102
RTVSPropertyOp16
 70
     0
102
RTVSPropertyOp17
 70
     0
102
RTVSPropertyOp18
 70
     0
102
RTVSPropertyOp19
 70
     0
102
RTVSPropertyOp20
 70
     0
102
RTVSPropertyOp21
 70
     0
102
RTVSPropertyOp22
 70
     0
102
RTVSPropertyOp23
 70
     0
102
RTVSPropertyOp24
 70
     0
102
RTVSPropertyOp25
 70
     0
102
RTVSPropertyOp26
 70
     0
102
RTVSPropertyOp27
 70
     0
102
RTVSPropertyOp28
 70
     1
102
RTVSPropertyOp29
 70
     1
102
RTVSPropertyOp30
 70
     1
102
RTVSPropertyOp31
 70
     1
102
RTVSPropertyOp32
 70
     1
102
RTVSPropertyOp33
 70
     1
102
RTVSPropertyOp34
 70
     1
102
RTVSPropertyOp35
 70
     1
102
RTVSPropertyOp36
 70
     1
102
RTVSPropertyOp37
 70
     0
102
RTVSPropertyOp38
 70
     0
102
RTVSPropertyOp39
 70
     0
102
RTVSPropertyOp40
 70
     0
102
RTVSPropertyOp41
 70
     0
102
RTVSPropertyOp42
 70
     0
102
RTVSPropertyOp43
 70
     0
102
RTVSPropertyOp44
 70
     0
102
RTVSPropertyOp45
 70
     1
102
RTVSPropertyOp46
 70
     0
102
RTVSPropertyOp47
 70
     0
102
RTVSPropertyOp48
 70
     0
102
RTVSPropertyOp49
 70
     1
102
RTVSPropertyOp50
 70
     0
102
RTVSPropertyOp51
 70
     0
102
RTVSPropertyOp52
 70
     0
102
RTVSPropertyOp53
 70
     0
102
RTVSPropertyOp54
 70
     0
102
RTVSPropertyOp55
 70
     1
102
RTVSPropertyOp56
 70
     0
102
RTVSPropertyOp57
 70
     0
102
RTVSPropertyOp58
 70
     0
102
RTVSPropertyOp59
 70
     0
102
RTVSPropertyOp60
 70
     0
102
RTVSPropertyOp61
 70
     0
102
RTVSPropertyOp62
 70
     0
  0
XRECORD
  5
11D36
102
{ACAD_REACTORS
330
11D35
102
}
330
11D35
100
AcDbXrecord
280
     1
102
RTVSPost2010Prop28
280
     0
102
RTVSPost2010PropOp28
 70
     1
102
RTVSPost2010Prop29
280
     1
102
RTVSPost2010PropOp29
 70
     1
102
RTVSPost2010Prop30
280
     1
102
RTVSPost2010PropOp30
 70
     1
102
RTVSPost2010Prop31
280
     0
102
RTVSPost2010PropOp31
 70
     1
102
RTVSPost2010Prop32
280
     0
102
RTVSPost2010PropOp32
 70
     1
102
RTVSPost2010Prop33
280
     0
102
RTVSPost2010PropOp33
 70
     1
102
RTVSPost2010Prop34
280
     0
102
RTVSPost2010PropOp34
 70
     1
102
RTVSPost2010Prop35
280
     0
102
RTVSPost2010PropOp35
 70
     1
102
RTVSPost2010Prop36
280
     0
102
RTVSPost2010PropOp36
 70
     1
102
RTVSPost2010Prop37
 90
       50
102
RTVSPost2010PropOp37
 70
     1
102
RTVSPost2010Prop38
140
0.0
102
RTVSPost2010PropOp38
 70
     1
102
RTVSPost2010Prop39
140
1.0
102
RTVSPost2010PropOp39
 70
     1
102
RTVSPost2010Prop40
 90
        0
102
RTVSPost2010PropOp40
 70
     1
102
RTVSPost2010Prop41ColorIndex
 90
       18
102
RTVSPost2010Prop41ColorRGB
 90
        0
102
RTVSPost2010PropOp41
 70
     1
102
RTVSPost2010Prop42
 90
       50
102
RTVSPost2010PropOp42
 70
     1
102
RTVSPost2010Prop43
 90
        3
102
RTVSPost2010PropOp43
 70
     1
102
RTVSPost2010Prop44ColorIndex
 90
        5
102
RTVSPost2010Prop44ColorRGB
 90
      255
102
RTVSPost2010PropOp44
 70
     1
102
RTVSPost2010Prop45
280
     0
102
RTVSPost2010PropOp45
 70
     1
102
RTVSPost2010Prop46
 90
       50
102
RTVSPost2010PropOp46
 70
     1
102
RTVSPost2010Prop47
 90
       50
102
RTVSPost2010PropOp47
 70
     1
102
RTVSPost2010Prop48
 90
       50
102
RTVSPost2010PropOp48
 70
     1
102
RTVSPost2010Prop49
280
     0
102
RTVSPost2010PropOp49
 70
     1
102
RTVSPost2010Prop50
 90
       50
102
RTVSPost2010PropOp50
 70
     1
102
RTVSPost2010Prop51ColorIndex
 90
      256
102
RTVSPost2010Prop51ColorRGB
 90
-16777216
102
RTVSPost2010PropOp51
 70
     0
102
RTVSPost2010Prop52
140
1.0
102
RTVSPost2010PropOp52
 70
     0
102
RTVSPost2010Prop53
 90
        2
102
RTVSPost2010PropOp53
 70
     1
102
RTVSPost2010Prop54
  1
strokes_ogs.tif
102
RTVSPost2010PropOp54
 70
     1
102
RTVSPost2010Prop55
280
     0
102
RTVSPost2010PropOp55
 70
     1
102
RTVSPost2010Prop56
140
1.0
102
RTVSPost2010PropOp56
 70
     1
102
RTVSPost2010Prop57
140
1.0
102
RTVSPost2010PropOp57
 70
     1
102
RTVSPropertyOp0
 70
     1
102
RTVSPropertyOp1
 70
     1
102
RTVSPropertyOp2
 70
     1
102
RTVSPropertyOp3
 70
     1
102
RTVSPropertyOp4
 70
     1
102
RTVSPropertyOp5
 70
     1
102
RTVSPropertyOp6
 70
     1
102
RTVSPropertyOp7
 70
     1
102
RTVSPropertyOp8
 70
     1
102
RTVSPropertyOp9
 70
     1
102
RTVSPropertyOp10
 70
     1
102
RTVSPropertyOp11
 70
     1
102
RTVSPropertyOp12
 70
     1
102
RTVSPropertyOp13
 70
     1
102
RTVSPropertyOp14
 70
     1
102
RTVSPropertyOp15
 70
     1
102
RTVSPropertyOp16
 70
     1
102
RTVSPropertyOp17
 70
     1
102
RTVSPropertyOp18
 70
     1
102
RTVSPropertyOp19
 70
     1
102
RTVSPropertyOp20
 70
     1
102
RTVSPropertyOp21
 70
     1
102
RTVSPropertyOp22
 70
     1
102
RTVSPropertyOp23
 70
     1
102
RTVSPropertyOp24
 70
     1
102
RTVSPropertyOp25
 70
     1
102
RTVSPropertyOp26
 70
     1
102
RTVSPropertyOp27
 70
     1
102
RTVSPropertyOp28
 70
     1
102
RTVSPropertyOp29
 70
     1
102
RTVSPropertyOp30
 70
     1
102
RTVSPropertyOp31
 70
     1
102
RTVSPropertyOp32
 70
     1
102
RTVSPropertyOp33
 70
     1
102
RTVSPropertyOp34
 70
     1
102
RTVSPropertyOp35
 70
     1
102
RTVSPropertyOp36
 70
     1
102
RTVSPropertyOp37
 70
     1
102
RTVSPropertyOp38
 70
     1
102
RTVSPropertyOp39
 70
     1
102
RTVSPropertyOp40
 70
     1
102
RTVSPropertyOp41
 70
     1
102
RTVSPropertyOp42
 70
     1
102
RTVSPropertyOp43
 70
     1
102
RTVSPropertyOp44
 70
     1
102
RTVSPropertyOp45
 70
     1
102
RTVSPropertyOp46
 70
     1
102
RTVSPropertyOp47
 70
     1
102
RTVSPropertyOp48
 70
     1
102
RTVSPropertyOp49
 70
     1
102
RTVSPropertyOp50
 70
     1
102
RTVSPropertyOp51
 70
     0
102
RTVSPropertyOp52
 70
     0
102
RTVSPropertyOp53
 70
     1
102
RTVSPropertyOp54
 70
     1
102
RTVSPropertyOp55
 70
     1
102
RTVSPropertyOp56
 70
     1
102
RTVSPropertyOp57
 70
     1
102
RTVSPropertyOp58
 70
     1
102
RTVSPropertyOp59
 70
     1
102
RTVSPropertyOp60
 70
     1
102
RTVSPropertyOp61
 70
     1
102
RTVSPropertyOp62
 70
     1
  0
XRECORD
  5
11D4C
102
{ACAD_REACTORS
330
11D4B
102
}
330
11D4B
100
AcDbXrecord
280
     1
102
RTVSPost2010Prop28
280
     0
102
RTVSPost2010PropOp28
 70
     1
102
RTVSPost2010Prop29
280
     1
102
RTVSPost2010PropOp29
 70
     1
102
RTVSPost2010Prop30
280
     1
102
RTVSPost2010PropOp30
 70
     1
102
RTVSPost2010Prop31
280
     0
102
RTVSPost2010PropOp31
 70
     1
102
RTVSPost2010Prop32
280
     0
102
RTVSPost2010PropOp32
 70
     1
102
RTVSPost2010Prop33
280
     0
102
RTVSPost2010PropOp33
 70
     1
102
RTVSPost2010Prop34
280
     0
102
RTVSPost2010PropOp34
 70
     1
102
RTVSPost2010Prop35
280
     0
102
RTVSPost2010PropOp35
 70
     1
102
RTVSPost2010Prop36
280
     0
102
RTVSPost2010PropOp36
 70
     1
102
RTVSPost2010Prop37
 90
       50
102
RTVSPost2010PropOp37
 70
     1
102
RTVSPost2010Prop38
140
0.0
102
RTVSPost2010PropOp38
 70
     1
102
RTVSPost2010Prop39
140
1.0
102
RTVSPost2010PropOp39
 70
     1
102
RTVSPost2010Prop40
 90
        0
102
RTVSPost2010PropOp40
 70
     1
102
RTVSPost2010Prop41ColorIndex
 90
       18
102
RTVSPost2010Prop41ColorRGB
 90
        0
102
RTVSPost2010PropOp41
 70
     1
102
RTVSPost2010Prop42
 90
       50
102
RTVSPost2010PropOp42
 70
     1
102
RTVSPost2010Prop43
 90
        3
102
RTVSPost2010PropOp43
 70
     1
102
RTVSPost2010Prop44ColorIndex
 90
        5
102
RTVSPost2010Prop44ColorRGB
 90
      255
102
RTVSPost2010PropOp44
 70
     1
102
RTVSPost2010Prop45
280
     0
102
RTVSPost2010PropOp45
 70
     1
102
RTVSPost2010Prop46
 90
       50
102
RTVSPost2010PropOp46
 70
     1
102
RTVSPost2010Prop47
 90
       50
102
RTVSPost2010PropOp47
 70
     1
102
RTVSPost2010Prop48
 90
       50
102
RTVSPost2010PropOp48
 70
     1
102
RTVSPost2010Prop49
280
     0
102
RTVSPost2010PropOp49
 70
     1
102
RTVSPost2010Prop50
 90
       50
102
RTVSPost2010PropOp50
 70
     1
102
RTVSPost2010Prop51ColorIndex
 90
      256
102
RTVSPost2010Prop51ColorRGB
 90
-16777216
102
RTVSPost2010PropOp51
 70
     0
102
RTVSPost2010Prop52
140
1.0
102
RTVSPost2010PropOp52
 70
     0
102
RTVSPost2010Prop53
 90
        2
102
RTVSPost2010PropOp53
 70
     1
102
RTVSPost2010Prop54
  1
strokes_ogs.tif
102
RTVSPost2010PropOp54
 70
     1
102
RTVSPost2010Prop55
280
     0
102
RTVSPost2010PropOp55
 70
     1
102
RTVSPost2010Prop56
140
1.0
102
RTVSPost2010PropOp56
 70
     1
102
RTVSPost2010Prop57
140
1.0
102
RTVSPost2010PropOp57
 70
     1
102
RTVSPropertyOp0
 70
     1
102
RTVSPropertyOp1
 70
     1
102
RTVSPropertyOp2
 70
     1
102
RTVSPropertyOp3
 70
     1
102
RTVSPropertyOp4
 70
     1
102
RTVSPropertyOp5
 70
     1
102
RTVSPropertyOp6
 70
     1
102
RTVSPropertyOp7
 70
     1
102
RTVSPropertyOp8
 70
     1
102
RTVSPropertyOp9
 70
     1
102
RTVSPropertyOp10
 70
     1
102
RTVSPropertyOp11
 70
     1
102
RTVSPropertyOp12
 70
     1
102
RTVSPropertyOp13
 70
     1
102
RTVSPropertyOp14
 70
     1
102
RTVSPropertyOp15
 70
     1
102
RTVSPropertyOp16
 70
     1
102
RTVSPropertyOp17
 70
     1
102
RTVSPropertyOp18
 70
     1
102
RTVSPropertyOp19
 70
     1
102
RTVSPropertyOp20
 70
     1
102
RTVSPropertyOp21
 70
     1
102
RTVSPropertyOp22
 70
     1
102
RTVSPropertyOp23
 70
     1
102
RTVSPropertyOp24
 70
     1
102
RTVSPropertyOp25
 70
     1
102
RTVSPropertyOp26
 70
     1
102
RTVSPropertyOp27
 70
     1
102
RTVSPropertyOp28
 70
     1
102
RTVSPropertyOp29
 70
     1
102
RTVSPropertyOp30
 70
     1
102
RTVSPropertyOp31
 70
     1
102
RTVSPropertyOp32
 70
     1
102
RTVSPropertyOp33
 70
     1
102
RTVSPropertyOp34
 70
     1
102
RTVSPropertyOp35
 70
     1
102
RTVSPropertyOp36
 70
     1
102
RTVSPropertyOp37
 70
     1
102
RTVSPropertyOp38
 70
     1
102
RTVSPropertyOp39
 70
     1
102
RTVSPropertyOp40
 70
     1
102
RTVSPropertyOp41
 70
     1
102
RTVSPropertyOp42
 70
     1
102
RTVSPropertyOp43
 70
     1
102
RTVSPropertyOp44
 70
     1
102
RTVSPropertyOp45
 70
     1
102
RTVSPropertyOp46
 70
     1
102
RTVSPropertyOp47
 70
     1
102
RTVSPropertyOp48
 70
     1
102
RTVSPropertyOp49
 70
     1
102
RTVSPropertyOp50
 70
     1
102
RTVSPropertyOp51
 70
     0
102
RTVSPropertyOp52
 70
     0
102
RTVSPropertyOp53
 70
     1
102
RTVSPropertyOp54
 70
     1
102
RTVSPropertyOp55
 70
     1
102
RTVSPropertyOp56
 70
     1
102
RTVSPropertyOp57
 70
     1
102
RTVSPropertyOp58
 70
     1
102
RTVSPropertyOp59
 70
     1
102
RTVSPropertyOp60
 70
     1
102
RTVSPropertyOp61
 70
     1
102
RTVSPropertyOp62
 70
     1
  0
XRECORD
  5
11D4A
102
{ACAD_REACTORS
330
11D49
102
}
330
11D49
100
AcDbXrecord
280
     1
102
RTVSPost2010Prop28
280
     0
102
RTVSPost2010PropOp28
 70
     1
102
RTVSPost2010Prop29
280
     1
102
RTVSPost2010PropOp29
 70
     1
102
RTVSPost2010Prop30
280
     1
102
RTVSPost2010PropOp30
 70
     1
102
RTVSPost2010Prop31
280
     0
102
RTVSPost2010PropOp31
 70
     1
102
RTVSPost2010Prop32
280
     0
102
RTVSPost2010PropOp32
 70
     1
102
RTVSPost2010Prop33
280
     0
102
RTVSPost2010PropOp33
 70
     1
102
RTVSPost2010Prop34
280
     0
102
RTVSPost2010PropOp34
 70
     1
102
RTVSPost2010Prop35
280
     0
102
RTVSPost2010PropOp35
 70
     1
102
RTVSPost2010Prop36
280
     0
102
RTVSPost2010PropOp36
 70
     1
102
RTVSPost2010Prop37
 90
       50
102
RTVSPost2010PropOp37
 70
     1
102
RTVSPost2010Prop38
140
0.0
102
RTVSPost2010PropOp38
 70
     1
102
RTVSPost2010Prop39
140
1.0
102
RTVSPost2010PropOp39
 70
     1
102
RTVSPost2010Prop40
 90
        0
102
RTVSPost2010PropOp40
 70
     1
102
RTVSPost2010Prop41ColorIndex
 90
       18
102
RTVSPost2010Prop41ColorRGB
 90
        0
102
RTVSPost2010PropOp41
 70
     1
102
RTVSPost2010Prop42
 90
       50
102
RTVSPost2010PropOp42
 70
     1
102
RTVSPost2010Prop43
 90
        3
102
RTVSPost2010PropOp43
 70
     1
102
RTVSPost2010Prop44ColorIndex
 90
        5
102
RTVSPost2010Prop44ColorRGB
 90
      255
102
RTVSPost2010PropOp44
 70
     1
102
RTVSPost2010Prop45
280
     0
102
RTVSPost2010PropOp45
 70
     1
102
RTVSPost2010Prop46
 90
       50
102
RTVSPost2010PropOp46
 70
     1
102
RTVSPost2010Prop47
 90
       50
102
RTVSPost2010PropOp47
 70
     1
102
RTVSPost2010Prop48
 90
       50
102
RTVSPost2010PropOp48
 70
     1
102
RTVSPost2010Prop49
280
     0
102
RTVSPost2010PropOp49
 70
     1
102
RTVSPost2010Prop50
 90
       50
102
RTVSPost2010PropOp50
 70
     1
102
RTVSPost2010Prop51ColorIndex
 90
      256
102
RTVSPost2010Prop51ColorRGB
 90
-16777216
102
RTVSPost2010PropOp51
 70
     0
102
RTVSPost2010Prop52
140
1.0
102
RTVSPost2010PropOp52
 70
     0
102
RTVSPost2010Prop53
 90
        2
102
RTVSPost2010PropOp53
 70
     1
102
RTVSPost2010Prop54
  1
strokes_ogs.tif
102
RTVSPost2010PropOp54
 70
     1
102
RTVSPost2010Prop55
280
     0
102
RTVSPost2010PropOp55
 70
     1
102
RTVSPost2010Prop56
140
1.0
102
RTVSPost2010PropOp56
 70
     1
102
RTVSPost2010Prop57
140
1.0
102
RTVSPost2010PropOp57
 70
     1
102
RTVSPropertyOp0
 70
     1
102
RTVSPropertyOp1
 70
     1
102
RTVSPropertyOp2
 70
     1
102
RTVSPropertyOp3
 70
     1
102
RTVSPropertyOp4
 70
     1
102
RTVSPropertyOp5
 70
     1
102
RTVSPropertyOp6
 70
     1
102
RTVSPropertyOp7
 70
     1
102
RTVSPropertyOp8
 70
     1
102
RTVSPropertyOp9
 70
     1
102
RTVSPropertyOp10
 70
     1
102
RTVSPropertyOp11
 70
     1
102
RTVSPropertyOp12
 70
     1
102
RTVSPropertyOp13
 70
     1
102
RTVSPropertyOp14
 70
     1
102
RTVSPropertyOp15
 70
     1
102
RTVSPropertyOp16
 70
     1
102
RTVSPropertyOp17
 70
     1
102
RTVSPropertyOp18
 70
     1
102
RTVSPropertyOp19
 70
     1
102
RTVSPropertyOp20
 70
     1
102
RTVSPropertyOp21
 70
     1
102
RTVSPropertyOp22
 70
     1
102
RTVSPropertyOp23
 70
     1
102
RTVSPropertyOp24
 70
     1
102
RTVSPropertyOp25
 70
     1
102
RTVSPropertyOp26
 70
     1
102
RTVSPropertyOp27
 70
     1
102
RTVSPropertyOp28
 70
     1
102
RTVSPropertyOp29
 70
     1
102
RTVSPropertyOp30
 70
     1
102
RTVSPropertyOp31
 70
     1
102
RTVSPropertyOp32
 70
     1
102
RTVSPropertyOp33
 70
     1
102
RTVSPropertyOp34
 70
     1
102
RTVSPropertyOp35
 70
     1
102
RTVSPropertyOp36
 70
     1
102
RTVSPropertyOp37
 70
     1
102
RTVSPropertyOp38
 70
     1
102
RTVSPropertyOp39
 70
     1
102
RTVSPropertyOp40
 70
     1
102
RTVSPropertyOp41
 70
     1
102
RTVSPropertyOp42
 70
     1
102
RTVSPropertyOp43
 70
     1
102
RTVSPropertyOp44
 70
     1
102
RTVSPropertyOp45
 70
     1
102
RTVSPropertyOp46
 70
     1
102
RTVSPropertyOp47
 70
     1
102
RTVSPropertyOp48
 70
     1
102
RTVSPropertyOp49
 70
     1
102
RTVSPropertyOp50
 70
     1
102
RTVSPropertyOp51
 70
     0
102
RTVSPropertyOp52
 70
     0
102
RTVSPropertyOp53
 70
     1
102
RTVSPropertyOp54
 70
     1
102
RTVSPropertyOp55
 70
     1
102
RTVSPropertyOp56
 70
     1
102
RTVSPropertyOp57
 70
     1
102
RTVSPropertyOp58
 70
     1
102
RTVSPropertyOp59
 70
     1
102
RTVSPropertyOp60
 70
     1
102
RTVSPropertyOp61
 70
     1
102
RTVSPropertyOp62
 70
     1
  0
XRECORD
  5
11D44
102
{ACAD_REACTORS
330
11D43
102
}
330
11D43
100
AcDbXrecord
280
     1
102
RTVSPost2010Prop28
280
     0
102
RTVSPost2010PropOp28
 70
     1
102
RTVSPost2010Prop29
280
     1
102
RTVSPost2010PropOp29
 70
     1
102
RTVSPost2010Prop30
280
     1
102
RTVSPost2010PropOp30
 70
     1
102
RTVSPost2010Prop31
280
     0
102
RTVSPost2010PropOp31
 70
     1
102
RTVSPost2010Prop32
280
     0
102
RTVSPost2010PropOp32
 70
     1
102
RTVSPost2010Prop33
280
     0
102
RTVSPost2010PropOp33
 70
     1
102
RTVSPost2010Prop34
280
     0
102
RTVSPost2010PropOp34
 70
     1
102
RTVSPost2010Prop35
280
     0
102
RTVSPost2010PropOp35
 70
     1
102
RTVSPost2010Prop36
280
     0
102
RTVSPost2010PropOp36
 70
     1
102
RTVSPost2010Prop37
 90
       50
102
RTVSPost2010PropOp37
 70
     1
102
RTVSPost2010Prop38
140
0.0
102
RTVSPost2010PropOp38
 70
     1
102
RTVSPost2010Prop39
140
1.0
102
RTVSPost2010PropOp39
 70
     1
102
RTVSPost2010Prop40
 90
        0
102
RTVSPost2010PropOp40
 70
     1
102
RTVSPost2010Prop41ColorIndex
 90
       18
102
RTVSPost2010Prop41ColorRGB
 90
        0
102
RTVSPost2010PropOp41
 70
     1
102
RTVSPost2010Prop42
 90
       50
102
RTVSPost2010PropOp42
 70
     1
102
RTVSPost2010Prop43
 90
        3
102
RTVSPost2010PropOp43
 70
     1
102
RTVSPost2010Prop44ColorIndex
 90
        5
102
RTVSPost2010Prop44ColorRGB
 90
      255
102
RTVSPost2010PropOp44
 70
     1
102
RTVSPost2010Prop45
280
     0
102
RTVSPost2010PropOp45
 70
     1
102
RTVSPost2010Prop46
 90
       50
102
RTVSPost2010PropOp46
 70
     1
102
RTVSPost2010Prop47
 90
       50
102
RTVSPost2010PropOp47
 70
     1
102
RTVSPost2010Prop48
 90
       50
102
RTVSPost2010PropOp48
 70
     1
102
RTVSPost2010Prop49
280
     0
102
RTVSPost2010PropOp49
 70
     1
102
RTVSPost2010Prop50
 90
       50
102
RTVSPost2010PropOp50
 70
     1
102
RTVSPost2010Prop51ColorIndex
 90
      256
102
RTVSPost2010Prop51ColorRGB
 90
-16777216
102
RTVSPost2010PropOp51
 70
     0
102
RTVSPost2010Prop52
140
1.0
102
RTVSPost2010PropOp52
 70
     0
102
RTVSPost2010Prop53
 90
        2
102
RTVSPost2010PropOp53
 70
     1
102
RTVSPost2010Prop54
  1
strokes_ogs.tif
102
RTVSPost2010PropOp54
 70
     1
102
RTVSPost2010Prop55
280
     0
102
RTVSPost2010PropOp55
 70
     1
102
RTVSPost2010Prop56
140
1.0
102
RTVSPost2010PropOp56
 70
     1
102
RTVSPost2010Prop57
140
1.0
102
RTVSPost2010PropOp57
 70
     1
102
RTVSPropertyOp0
 70
     1
102
RTVSPropertyOp1
 70
     1
102
RTVSPropertyOp2
 70
     1
102
RTVSPropertyOp3
 70
     1
102
RTVSPropertyOp4
 70
     1
102
RTVSPropertyOp5
 70
     1
102
RTVSPropertyOp6
 70
     1
102
RTVSPropertyOp7
 70
     1
102
RTVSPropertyOp8
 70
     1
102
RTVSPropertyOp9
 70
     1
102
RTVSPropertyOp10
 70
     1
102
RTVSPropertyOp11
 70
     1
102
RTVSPropertyOp12
 70
     1
102
RTVSPropertyOp13
 70
     1
102
RTVSPropertyOp14
 70
     1
102
RTVSPropertyOp15
 70
     1
102
RTVSPropertyOp16
 70
     1
102
RTVSPropertyOp17
 70
     1
102
RTVSPropertyOp18
 70
     1
102
RTVSPropertyOp19
 70
     1
102
RTVSPropertyOp20
 70
     1
102
RTVSPropertyOp21
 70
     1
102
RTVSPropertyOp22
 70
     1
102
RTVSPropertyOp23
 70
     1
102
RTVSPropertyOp24
 70
     1
102
RTVSPropertyOp25
 70
     1
102
RTVSPropertyOp26
 70
     1
102
RTVSPropertyOp27
 70
     1
102
RTVSPropertyOp28
 70
     1
102
RTVSPropertyOp29
 70
     1
102
RTVSPropertyOp30
 70
     1
102
RTVSPropertyOp31
 70
     1
102
RTVSPropertyOp32
 70
     1
102
RTVSPropertyOp33
 70
     1
102
RTVSPropertyOp34
 70
     1
102
RTVSPropertyOp35
 70
     1
102
RTVSPropertyOp36
 70
     1
102
RTVSPropertyOp37
 70
     1
102
RTVSPropertyOp38
 70
     1
102
RTVSPropertyOp39
 70
     1
102
RTVSPropertyOp40
 70
     1
102
RTVSPropertyOp41
 70
     1
102
RTVSPropertyOp42
 70
     1
102
RTVSPropertyOp43
 70
     1
102
RTVSPropertyOp44
 70
     1
102
RTVSPropertyOp45
 70
     1
102
RTVSPropertyOp46
 70
     1
102
RTVSPropertyOp47
 70
     1
102
RTVSPropertyOp48
 70
     1
102
RTVSPropertyOp49
 70
     1
102
RTVSPropertyOp50
 70
     1
102
RTVSPropertyOp51
 70
     0
102
RTVSPropertyOp52
 70
     0
102
RTVSPropertyOp53
 70
     1
102
RTVSPropertyOp54
 70
     1
102
RTVSPropertyOp55
 70
     1
102
RTVSPropertyOp56
 70
     1
102
RTVSPropertyOp57
 70
     1
102
RTVSPropertyOp58
 70
     1
102
RTVSPropertyOp59
 70
     1
102
RTVSPropertyOp60
 70
     1
102
RTVSPropertyOp61
 70
     1
102
RTVSPropertyOp62
 70
     1
  0
XRECORD
  5
11D46
102
{ACAD_REACTORS
330
11D45
102
}
330
11D45
100
AcDbXrecord
280
     1
102
RTVSPost2010Prop28
280
     0
102
RTVSPost2010PropOp28
 70
     1
102
RTVSPost2010Prop29
280
     1
102
RTVSPost2010PropOp29
 70
     1
102
RTVSPost2010Prop30
280
     1
102
RTVSPost2010PropOp30
 70
     1
102
RTVSPost2010Prop31
280
     0
102
RTVSPost2010PropOp31
 70
     1
102
RTVSPost2010Prop32
280
     0
102
RTVSPost2010PropOp32
 70
     1
102
RTVSPost2010Prop33
280
     0
102
RTVSPost2010PropOp33
 70
     1
102
RTVSPost2010Prop34
280
     0
102
RTVSPost2010PropOp34
 70
     1
102
RTVSPost2010Prop35
280
     0
102
RTVSPost2010PropOp35
 70
     1
102
RTVSPost2010Prop36
280
     0
102
RTVSPost2010PropOp36
 70
     1
102
RTVSPost2010Prop37
 90
       50
102
RTVSPost2010PropOp37
 70
     1
102
RTVSPost2010Prop38
140
0.0
102
RTVSPost2010PropOp38
 70
     1
102
RTVSPost2010Prop39
140
1.0
102
RTVSPost2010PropOp39
 70
     1
102
RTVSPost2010Prop40
 90
        0
102
RTVSPost2010PropOp40
 70
     1
102
RTVSPost2010Prop41ColorIndex
 90
       18
102
RTVSPost2010Prop41ColorRGB
 90
        0
102
RTVSPost2010PropOp41
 70
     1
102
RTVSPost2010Prop42
 90
       50
102
RTVSPost2010PropOp42
 70
     1
102
RTVSPost2010Prop43
 90
        3
102
RTVSPost2010PropOp43
 70
     1
102
RTVSPost2010Prop44ColorIndex
 90
        5
102
RTVSPost2010Prop44ColorRGB
 90
      255
102
RTVSPost2010PropOp44
 70
     1
102
RTVSPost2010Prop45
280
     0
102
RTVSPost2010PropOp45
 70
     1
102
RTVSPost2010Prop46
 90
       50
102
RTVSPost2010PropOp46
 70
     1
102
RTVSPost2010Prop47
 90
       50
102
RTVSPost2010PropOp47
 70
     1
102
RTVSPost2010Prop48
 90
       50
102
RTVSPost2010PropOp48
 70
     1
102
RTVSPost2010Prop49
280
     0
102
RTVSPost2010PropOp49
 70
     1
102
RTVSPost2010Prop50
 90
       50
102
RTVSPost2010PropOp50
 70
     1
102
RTVSPost2010Prop51ColorIndex
 90
      256
102
RTVSPost2010Prop51ColorRGB
 90
-16777216
102
RTVSPost2010PropOp51
 70
     0
102
RTVSPost2010Prop52
140
1.0
102
RTVSPost2010PropOp52
 70
     0
102
RTVSPost2010Prop53
 90
        2
102
RTVSPost2010PropOp53
 70
     1
102
RTVSPost2010Prop54
  1
strokes_ogs.tif
102
RTVSPost2010PropOp54
 70
     1
102
RTVSPost2010Prop55
280
     0
102
RTVSPost2010PropOp55
 70
     1
102
RTVSPost2010Prop56
140
1.0
102
RTVSPost2010PropOp56
 70
     1
102
RTVSPost2010Prop57
140
1.0
102
RTVSPost2010PropOp57
 70
     1
102
RTVSPropertyOp0
 70
     1
102
RTVSPropertyOp1
 70
     1
102
RTVSPropertyOp2
 70
     1
102
RTVSPropertyOp3
 70
     1
102
RTVSPropertyOp4
 70
     1
102
RTVSPropertyOp5
 70
     1
102
RTVSPropertyOp6
 70
     1
102
RTVSPropertyOp7
 70
     1
102
RTVSPropertyOp8
 70
     1
102
RTVSPropertyOp9
 70
     1
102
RTVSPropertyOp10
 70
     1
102
RTVSPropertyOp11
 70
     1
102
RTVSPropertyOp12
 70
     1
102
RTVSPropertyOp13
 70
     1
102
RTVSPropertyOp14
 70
     1
102
RTVSPropertyOp15
 70
     1
102
RTVSPropertyOp16
 70
     1
102
RTVSPropertyOp17
 70
     1
102
RTVSPropertyOp18
 70
     1
102
RTVSPropertyOp19
 70
     1
102
RTVSPropertyOp20
 70
     1
102
RTVSPropertyOp21
 70
     1
102
RTVSPropertyOp22
 70
     1
102
RTVSPropertyOp23
 70
     1
102
RTVSPropertyOp24
 70
     1
102
RTVSPropertyOp25
 70
     1
102
RTVSPropertyOp26
 70
     1
102
RTVSPropertyOp27
 70
     1
102
RTVSPropertyOp28
 70
     1
102
RTVSPropertyOp29
 70
     1
102
RTVSPropertyOp30
 70
     1
102
RTVSPropertyOp31
 70
     1
102
RTVSPropertyOp32
 70
     1
102
RTVSPropertyOp33
 70
     1
102
RTVSPropertyOp34
 70
     1
102
RTVSPropertyOp35
 70
     1
102
RTVSPropertyOp36
 70
     1
102
RTVSPropertyOp37
 70
     1
102
RTVSPropertyOp38
 70
     1
102
RTVSPropertyOp39
 70
     1
102
RTVSPropertyOp40
 70
     1
102
RTVSPropertyOp41
 70
     1
102
RTVSPropertyOp42
 70
     1
102
RTVSPropertyOp43
 70
     1
102
RTVSPropertyOp44
 70
     1
102
RTVSPropertyOp45
 70
     1
102
RTVSPropertyOp46
 70
     1
102
RTVSPropertyOp47
 70
     1
102
RTVSPropertyOp48
 70
     1
102
RTVSPropertyOp49
 70
     1
102
RTVSPropertyOp50
 70
     1
102
RTVSPropertyOp51
 70
     0
102
RTVSPropertyOp52
 70
     0
102
RTVSPropertyOp53
 70
     1
102
RTVSPropertyOp54
 70
     1
102
RTVSPropertyOp55
 70
     1
102
RTVSPropertyOp56
 70
     1
102
RTVSPropertyOp57
 70
     1
102
RTVSPropertyOp58
 70
     1
102
RTVSPropertyOp59
 70
     1
102
RTVSPropertyOp60
 70
     1
102
RTVSPropertyOp61
 70
     1
102
RTVSPropertyOp62
 70
     1
  0
XRECORD
  5
11D3C
102
{ACAD_REACTORS
330
11D3B
102
}
330
11D3B
100
AcDbXrecord
280
     1
102
RTVSPost2010Prop28
280
     0
102
RTVSPost2010PropOp28
 70
     1
102
RTVSPost2010Prop29
280
     1
102
RTVSPost2010PropOp29
 70
     1
102
RTVSPost2010Prop30
280
     1
102
RTVSPost2010PropOp30
 70
     1
102
RTVSPost2010Prop31
280
     0
102
RTVSPost2010PropOp31
 70
     1
102
RTVSPost2010Prop32
280
     0
102
RTVSPost2010PropOp32
 70
     1
102
RTVSPost2010Prop33
280
     0
102
RTVSPost2010PropOp33
 70
     1
102
RTVSPost2010Prop34
280
     0
102
RTVSPost2010PropOp34
 70
     1
102
RTVSPost2010Prop35
280
     0
102
RTVSPost2010PropOp35
 70
     1
102
RTVSPost2010Prop36
280
     0
102
RTVSPost2010PropOp36
 70
     1
102
RTVSPost2010Prop37
 90
       50
102
RTVSPost2010PropOp37
 70
     1
102
RTVSPost2010Prop38
140
0.0
102
RTVSPost2010PropOp38
 70
     1
102
RTVSPost2010Prop39
140
1.0
102
RTVSPost2010PropOp39
 70
     1
102
RTVSPost2010Prop40
 90
        0
102
RTVSPost2010PropOp40
 70
     1
102
RTVSPost2010Prop41ColorIndex
 90
       18
102
RTVSPost2010Prop41ColorRGB
 90
        0
102
RTVSPost2010PropOp41
 70
     1
102
RTVSPost2010Prop42
 90
       50
102
RTVSPost2010PropOp42
 70
     1
102
RTVSPost2010Prop43
 90
        3
102
RTVSPost2010PropOp43
 70
     1
102
RTVSPost2010Prop44ColorIndex
 90
        5
102
RTVSPost2010Prop44ColorRGB
 90
      255
102
RTVSPost2010PropOp44
 70
     1
102
RTVSPost2010Prop45
280
     0
102
RTVSPost2010PropOp45
 70
     1
102
RTVSPost2010Prop46
 90
       50
102
RTVSPost2010PropOp46
 70
     1
102
RTVSPost2010Prop47
 90
       50
102
RTVSPost2010PropOp47
 70
     1
102
RTVSPost2010Prop48
 90
       50
102
RTVSPost2010PropOp48
 70
     1
102
RTVSPost2010Prop49
280
     0
102
RTVSPost2010PropOp49
 70
     1
102
RTVSPost2010Prop50
 90
       50
102
RTVSPost2010PropOp50
 70
     1
102
RTVSPost2010Prop51ColorIndex
 90
      256
102
RTVSPost2010Prop51ColorRGB
 90
-16777216
102
RTVSPost2010PropOp51
 70
     0
102
RTVSPost2010Prop52
140
1.0
102
RTVSPost2010PropOp52
 70
     0
102
RTVSPost2010Prop53
 90
        2
102
RTVSPost2010PropOp53
 70
     1
102
RTVSPost2010Prop54
  1
strokes_ogs.tif
102
RTVSPost2010PropOp54
 70
     1
102
RTVSPost2010Prop55
280
     0
102
RTVSPost2010PropOp55
 70
     1
102
RTVSPost2010Prop56
140
1.0
102
RTVSPost2010PropOp56
 70
     1
102
RTVSPost2010Prop57
140
1.0
102
RTVSPost2010PropOp57
 70
     1
102
RTVSPropertyOp0
 70
     1
102
RTVSPropertyOp1
 70
     1
102
RTVSPropertyOp2
 70
     1
102
RTVSPropertyOp3
 70
     1
102
RTVSPropertyOp4
 70
     1
102
RTVSPropertyOp5
 70
     1
102
RTVSPropertyOp6
 70
     1
102
RTVSPropertyOp7
 70
     1
102
RTVSPropertyOp8
 70
     1
102
RTVSPropertyOp9
 70
     1
102
RTVSPropertyOp10
 70
     1
102
RTVSPropertyOp11
 70
     1
102
RTVSPropertyOp12
 70
     1
102
RTVSPropertyOp13
 70
     1
102
RTVSPropertyOp14
 70
     1
102
RTVSPropertyOp15
 70
     1
102
RTVSPropertyOp16
 70
     1
102
RTVSPropertyOp17
 70
     1
102
RTVSPropertyOp18
 70
     1
102
RTVSPropertyOp19
 70
     1
102
RTVSPropertyOp20
 70
     1
102
RTVSPropertyOp21
 70
     1
102
RTVSPropertyOp22
 70
     1
102
RTVSPropertyOp23
 70
     1
102
RTVSPropertyOp24
 70
     1
102
RTVSPropertyOp25
 70
     1
102
RTVSPropertyOp26
 70
     1
102
RTVSPropertyOp27
 70
     1
102
RTVSPropertyOp28
 70
     1
102
RTVSPropertyOp29
 70
     1
102
RTVSPropertyOp30
 70
     1
102
RTVSPropertyOp31
 70
     1
102
RTVSPropertyOp32
 70
     1
102
RTVSPropertyOp33
 70
     1
102
RTVSPropertyOp34
 70
     1
102
RTVSPropertyOp35
 70
     1
102
RTVSPropertyOp36
 70
     1
102
RTVSPropertyOp37
 70
     1
102
RTVSPropertyOp38
 70
     1
102
RTVSPropertyOp39
 70
     1
102
RTVSPropertyOp40
 70
     1
102
RTVSPropertyOp41
 70
     1
102
RTVSPropertyOp42
 70
     1
102
RTVSPropertyOp43
 70
     1
102
RTVSPropertyOp44
 70
     1
102
RTVSPropertyOp45
 70
     1
102
RTVSPropertyOp46
 70
     1
102
RTVSPropertyOp47
 70
     1
102
RTVSPropertyOp48
 70
     1
102
RTVSPropertyOp49
 70
     1
102
RTVSPropertyOp50
 70
     1
102
RTVSPropertyOp51
 70
     0
102
RTVSPropertyOp52
 70
     0
102
RTVSPropertyOp53
 70
     1
102
RTVSPropertyOp54
 70
     1
102
RTVSPropertyOp55
 70
     1
102
RTVSPropertyOp56
 70
     1
102
RTVSPropertyOp57
 70
     1
102
RTVSPropertyOp58
 70
     1
102
RTVSPropertyOp59
 70
     1
102
RTVSPropertyOp60
 70
     1
102
RTVSPropertyOp61
 70
     1
102
RTVSPropertyOp62
 70
     1
  0
XRECORD
  5
11D30
102
{ACAD_REACTORS
330
11D2F
102
}
330
11D2F
100
AcDbXrecord
280
     1
102
RTVSPost2010Prop28
280
     0
102
RTVSPost2010PropOp28
 70
     1
102
RTVSPost2010Prop29
280
     1
102
RTVSPost2010PropOp29
 70
     1
102
RTVSPost2010Prop30
280
     1
102
RTVSPost2010PropOp30
 70
     1
102
RTVSPost2010Prop31
280
     0
102
RTVSPost2010PropOp31
 70
     1
102
RTVSPost2010Prop32
280
     0
102
RTVSPost2010PropOp32
 70
     1
102
RTVSPost2010Prop33
280
     0
102
RTVSPost2010PropOp33
 70
     1
102
RTVSPost2010Prop34
280
     0
102
RTVSPost2010PropOp34
 70
     1
102
RTVSPost2010Prop35
280
     0
102
RTVSPost2010PropOp35
 70
     1
102
RTVSPost2010Prop36
280
     0
102
RTVSPost2010PropOp36
 70
     1
102
RTVSPost2010Prop37
 90
       50
102
RTVSPost2010PropOp37
 70
     1
102
RTVSPost2010Prop38
140
0.0
102
RTVSPost2010PropOp38
 70
     1
102
RTVSPost2010Prop39
140
1.0
102
RTVSPost2010PropOp39
 70
     1
102
RTVSPost2010Prop40
 90
        0
102
RTVSPost2010PropOp40
 70
     1
102
RTVSPost2010Prop41ColorIndex
 90
       18
102
RTVSPost2010Prop41ColorRGB
 90
        0
102
RTVSPost2010PropOp41
 70
     1
102
RTVSPost2010Prop42
 90
       50
102
RTVSPost2010PropOp42
 70
     1
102
RTVSPost2010Prop43
 90
        3
102
RTVSPost2010PropOp43
 70
     1
102
RTVSPost2010Prop44ColorIndex
 90
        5
102
RTVSPost2010Prop44ColorRGB
 90
      255
102
RTVSPost2010PropOp44
 70
     1
102
RTVSPost2010Prop45
280
     0
102
RTVSPost2010PropOp45
 70
     1
102
RTVSPost2010Prop46
 90
       50
102
RTVSPost2010PropOp46
 70
     1
102
RTVSPost2010Prop47
 90
       50
102
RTVSPost2010PropOp47
 70
     1
102
RTVSPost2010Prop48
 90
       50
102
RTVSPost2010PropOp48
 70
     1
102
RTVSPost2010Prop49
280
     0
102
RTVSPost2010PropOp49
 70
     1
102
RTVSPost2010Prop50
 90
       50
102
RTVSPost2010PropOp50
 70
     1
102
RTVSPost2010Prop51ColorIndex
 90
      256
102
RTVSPost2010Prop51ColorRGB
 90
-16777216
102
RTVSPost2010PropOp51
 70
     0
102
RTVSPost2010Prop52
140
1.0
102
RTVSPost2010PropOp52
 70
     0
102
RTVSPost2010Prop53
 90
        2
102
RTVSPost2010PropOp53
 70
     1
102
RTVSPost2010Prop54
  1
strokes_ogs.tif
102
RTVSPost2010PropOp54
 70
     1
102
RTVSPost2010Prop55
280
     0
102
RTVSPost2010PropOp55
 70
     1
102
RTVSPost2010Prop56
140
1.0
102
RTVSPost2010PropOp56
 70
     1
102
RTVSPost2010Prop57
140
1.0
102
RTVSPost2010PropOp57
 70
     1
102
RTVSPropertyOp0
 70
     1
102
RTVSPropertyOp1
 70
     1
102
RTVSPropertyOp2
 70
     1
102
RTVSPropertyOp3
 70
     1
102
RTVSPropertyOp4
 70
     1
102
RTVSPropertyOp5
 70
     1
102
RTVSPropertyOp6
 70
     1
102
RTVSPropertyOp7
 70
     1
102
RTVSPropertyOp8
 70
     1
102
RTVSPropertyOp9
 70
     1
102
RTVSPropertyOp10
 70
     1
102
RTVSPropertyOp11
 70
     1
102
RTVSPropertyOp12
 70
     1
102
RTVSPropertyOp13
 70
     1
102
RTVSPropertyOp14
 70
     1
102
RTVSPropertyOp15
 70
     1
102
RTVSPropertyOp16
 70
     1
102
RTVSPropertyOp17
 70
     1
102
RTVSPropertyOp18
 70
     1
102
RTVSPropertyOp19
 70
     1
102
RTVSPropertyOp20
 70
     1
102
RTVSPropertyOp21
 70
     1
102
RTVSPropertyOp22
 70
     1
102
RTVSPropertyOp23
 70
     1
102
RTVSPropertyOp24
 70
     1
102
RTVSPropertyOp25
 70
     1
102
RTVSPropertyOp26
 70
     1
102
RTVSPropertyOp27
 70
     1
102
RTVSPropertyOp28
 70
     1
102
RTVSPropertyOp29
 70
     1
102
RTVSPropertyOp30
 70
     1
102
RTVSPropertyOp31
 70
     1
102
RTVSPropertyOp32
 70
     1
102
RTVSPropertyOp33
 70
     1
102
RTVSPropertyOp34
 70
     1
102
RTVSPropertyOp35
 70
     1
102
RTVSPropertyOp36
 70
     1
102
RTVSPropertyOp37
 70
     1
102
RTVSPropertyOp38
 70
     1
102
RTVSPropertyOp39
 70
     1
102
RTVSPropertyOp40
 70
     1
102
RTVSPropertyOp41
 70
     1
102
RTVSPropertyOp42
 70
     1
102
RTVSPropertyOp43
 70
     1
102
RTVSPropertyOp44
 70
     1
102
RTVSPropertyOp45
 70
     1
102
RTVSPropertyOp46
 70
     1
102
RTVSPropertyOp47
 70
     1
102
RTVSPropertyOp48
 70
     1
102
RTVSPropertyOp49
 70
     1
102
RTVSPropertyOp50
 70
     1
102
RTVSPropertyOp51
 70
     0
102
RTVSPropertyOp52
 70
     0
102
RTVSPropertyOp53
 70
     1
102
RTVSPropertyOp54
 70
     1
102
RTVSPropertyOp55
 70
     1
102
RTVSPropertyOp56
 70
     1
102
RTVSPropertyOp57
 70
     1
102
RTVSPropertyOp58
 70
     1
102
RTVSPropertyOp59
 70
     1
102
RTVSPropertyOp60
 70
     1
102
RTVSPropertyOp61
 70
     1
102
RTVSPropertyOp62
 70
     1
  0
XRECORD
  5
11D48
102
{ACAD_REACTORS
330
11D47
102
}
330
11D47
100
AcDbXrecord
280
     1
102
RTVSPost2010Prop28
280
     0
102
RTVSPost2010PropOp28
 70
     1
102
RTVSPost2010Prop29
280
     1
102
RTVSPost2010PropOp29
 70
     1
102
RTVSPost2010Prop30
280
     1
102
RTVSPost2010PropOp30
 70
     1
102
RTVSPost2010Prop31
280
     0
102
RTVSPost2010PropOp31
 70
     1
102
RTVSPost2010Prop32
280
     0
102
RTVSPost2010PropOp32
 70
     1
102
RTVSPost2010Prop33
280
     0
102
RTVSPost2010PropOp33
 70
     1
102
RTVSPost2010Prop34
280
     0
102
RTVSPost2010PropOp34
 70
     1
102
RTVSPost2010Prop35
280
     0
102
RTVSPost2010PropOp35
 70
     1
102
RTVSPost2010Prop36
280
     0
102
RTVSPost2010PropOp36
 70
     1
102
RTVSPost2010Prop37
 90
       50
102
RTVSPost2010PropOp37
 70
     1
102
RTVSPost2010Prop38
140
0.0
102
RTVSPost2010PropOp38
 70
     1
102
RTVSPost2010Prop39
140
1.0
102
RTVSPost2010PropOp39
 70
     1
102
RTVSPost2010Prop40
 90
        0
102
RTVSPost2010PropOp40
 70
     1
102
RTVSPost2010Prop41ColorIndex
 90
       18
102
RTVSPost2010Prop41ColorRGB
 90
        0
102
RTVSPost2010PropOp41
 70
     1
102
RTVSPost2010Prop42
 90
       50
102
RTVSPost2010PropOp42
 70
     1
102
RTVSPost2010Prop43
 90
        3
102
RTVSPost2010PropOp43
 70
     1
102
RTVSPost2010Prop44ColorIndex
 90
        5
102
RTVSPost2010Prop44ColorRGB
 90
      255
102
RTVSPost2010PropOp44
 70
     1
102
RTVSPost2010Prop45
280
     0
102
RTVSPost2010PropOp45
 70
     1
102
RTVSPost2010Prop46
 90
       50
102
RTVSPost2010PropOp46
 70
     1
102
RTVSPost2010Prop47
 90
       50
102
RTVSPost2010PropOp47
 70
     1
102
RTVSPost2010Prop48
 90
       50
102
RTVSPost2010PropOp48
 70
     1
102
RTVSPost2010Prop49
280
     0
102
RTVSPost2010PropOp49
 70
     1
102
RTVSPost2010Prop50
 90
       50
102
RTVSPost2010PropOp50
 70
     1
102
RTVSPost2010Prop51ColorIndex
 90
      256
102
RTVSPost2010Prop51ColorRGB
 90
-16777216
102
RTVSPost2010PropOp51
 70
     0
102
RTVSPost2010Prop52
140
1.0
102
RTVSPost2010PropOp52
 70
     0
102
RTVSPost2010Prop53
 90
        2
102
RTVSPost2010PropOp53
 70
     1
102
RTVSPost2010Prop54
  1
strokes_ogs.tif
102
RTVSPost2010PropOp54
 70
     1
102
RTVSPost2010Prop55
280
     0
102
RTVSPost2010PropOp55
 70
     1
102
RTVSPost2010Prop56
140
1.0
102
RTVSPost2010PropOp56
 70
     1
102
RTVSPost2010Prop57
140
1.0
102
RTVSPost2010PropOp57
 70
     1
102
RTVSPropertyOp0
 70
     1
102
RTVSPropertyOp1
 70
     1
102
RTVSPropertyOp2
 70
     1
102
RTVSPropertyOp3
 70
     1
102
RTVSPropertyOp4
 70
     1
102
RTVSPropertyOp5
 70
     1
102
RTVSPropertyOp6
 70
     1
102
RTVSPropertyOp7
 70
     1
102
RTVSPropertyOp8
 70
     1
102
RTVSPropertyOp9
 70
     1
102
RTVSPropertyOp10
 70
     1
102
RTVSPropertyOp11
 70
     1
102
RTVSPropertyOp12
 70
     1
102
RTVSPropertyOp13
 70
     1
102
RTVSPropertyOp14
 70
     1
102
RTVSPropertyOp15
 70
     1
102
RTVSPropertyOp16
 70
     1
102
RTVSPropertyOp17
 70
     1
102
RTVSPropertyOp18
 70
     1
102
RTVSPropertyOp19
 70
     1
102
RTVSPropertyOp20
 70
     1
102
RTVSPropertyOp21
 70
     1
102
RTVSPropertyOp22
 70
     1
102
RTVSPropertyOp23
 70
     1
102
RTVSPropertyOp24
 70
     1
102
RTVSPropertyOp25
 70
     1
102
RTVSPropertyOp26
 70
     1
102
RTVSPropertyOp27
 70
     1
102
RTVSPropertyOp28
 70
     1
102
RTVSPropertyOp29
 70
     1
102
RTVSPropertyOp30
 70
     1
102
RTVSPropertyOp31
 70
     1
102
RTVSPropertyOp32
 70
     1
102
RTVSPropertyOp33
 70
     1
102
RTVSPropertyOp34
 70
     1
102
RTVSPropertyOp35
 70
     1
102
RTVSPropertyOp36
 70
     1
102
RTVSPropertyOp37
 70
     1
102
RTVSPropertyOp38
 70
     1
102
RTVSPropertyOp39
 70
     1
102
RTVSPropertyOp40
 70
     1
102
RTVSPropertyOp41
 70
     1
102
RTVSPropertyOp42
 70
     1
102
RTVSPropertyOp43
 70
     1
102
RTVSPropertyOp44
 70
     1
102
RTVSPropertyOp45
 70
     1
102
RTVSPropertyOp46
 70
     1
102
RTVSPropertyOp47
 70
     1
102
RTVSPropertyOp48
 70
     1
102
RTVSPropertyOp49
 70
     1
102
RTVSPropertyOp50
 70
     1
102
RTVSPropertyOp51
 70
     0
102
RTVSPropertyOp52
 70
     0
102
RTVSPropertyOp53
 70
     1
102
RTVSPropertyOp54
 70
     1
102
RTVSPropertyOp55
 70
     1
102
RTVSPropertyOp56
 70
     1
102
RTVSPropertyOp57
 70
     1
102
RTVSPropertyOp58
 70
     1
102
RTVSPropertyOp59
 70
     1
102
RTVSPropertyOp60
 70
     1
102
RTVSPropertyOp61
 70
     1
102
RTVSPropertyOp62
 70
     1
  0
ENDSEC
  0
EOF
