  0
SECTION
  2
HEADER
  9
$ACADVER
  1
AC1015
  9
$ACADMAINTVER
 70
    20
  9
$DWGCODEPAGE
  3
ANSI_932
  9
$INSBASE
 10
0.0
 20
0.0
 30
0.0
  9
$EXTMIN
 10
9.99995
 20
9.999999999999998
 30
0.0
  9
$EXTMAX
 10
261.85
 20
138.9499999999999
 30
0.0
  9
$LIMMIN
 10
0.0
 20
0.0
  9
$LIMMAX
 10
396.0
 20
273.0
  9
$ORTHOMODE
 70
     1
  9
$REGENMODE
 70
     1
  9
$FILLMODE
 70
     1
  9
$QTEXTMODE
 70
     0
  9
$MIRRTEXT
 70
     1
  9
$LTSCALE
 40
20.0
  9
$ATTMODE
 70
     1
  9
$TEXTSIZE
 40
5.0
  9
$TRACEWID
 40
1.0
  9
$TEXTSTYLE
  7
STANDARD
  9
$CLAYER
  8
0
  9
$CELTYPE
  6
BYLAYER
  9
$CECOLOR
 62
   256
  9
$CELTSCALE
 40
1.0
  9
$DISPSILH
 70
     0
  9
$DIMSCALE
 40
1.0
  9
$DIMASZ
 40
3.0
  9
$DIMEXO
 40
1.0
  9
$DIMDLI
 40
10.0
  9
$DIMRND
 40
0.0
  9
$DIMDLE
 40
0.0
  9
$DIMEXE
 40
1.0
  9
$DIMTP
 40
0.0
  9
$DIMTM
 40
0.0
  9
$DIMTXT
 40
3.2
  9
$DIMCEN
 40
0.0
  9
$DIMTSZ
 40
0.0
  9
$DIMTOL
 70
     0
  9
$DIMLIM
 70
     0
  9
$DIMTIH
 70
     0
  9
$DIMTOH
 70
     0
  9
$DIMSE1
 70
     0
  9
$DIMSE2
 70
     0
  9
$DIMTAD
 70
     3
  9
$DIMZIN
 70
     8
  9
$DIMBLK
  1

  9
$DIMASO
 70
     1
  9
$DIMSHO
 70
     1
  9
$DIMPOST
  1

  9
$DIMAPOST
  1

  9
$DIMALT
 70
     0
  9
$DIMALTD
 70
     2
  9
$DIMALTF
 40
25.4
  9
$DIMLFAC
 40
1.0
  9
$DIMTOFL
 70
     1
  9
$DIMTVP
 40
0.0
  9
$DIMTIX
 70
     0
  9
$DIMSOXD
 70
     0
  9
$DIMSAH
 70
     1
  9
$DIMBLK1
  1

  9
$DIMBLK2
  1

  9
$DIMSTYLE
  2
STANDARD
  9
$DIMCLRD
 70
     0
  9
$DIMCLRE
 70
     0
  9
$DIMCLRT
 70
     0
  9
$DIMTFAC
 40
1.0
  9
$DIMGAP
 40
1.0
  9
$DIMJUST
 70
     0
  9
$DIMSD1
 70
     0
  9
$DIMSD2
 70
     0
  9
$DIMTOLJ
 70
     1
  9
$DIMTZIN
 70
     0
  9
$DIMALTZ
 70
     0
  9
$DIMALTTZ
 70
     0
  9
$DIMUPT
 70
     0
  9
$DIMDEC
 70
     4
  9
$DIMTDEC
 70
     4
  9
$DIMALTU
 70
     2
  9
$DIMALTTD
 70
     2
  9
$DIMTXSTY
  7
STANDARD
  9
$DIMAUNIT
 70
     0
  9
$DIMADEC
 70
     0
  9
$DIMALTRND
 40
0.0
  9
$DIMAZIN
 70
     0
  9
$DIMDSEP
 70
    46
  9
$DIMATFIT
 70
     3
  9
$DIMFRAC
 70
     0
  9
$DIMLDRBLK
  1

  9
$DIMLUNIT
 70
     2
  9
$DIMLWD
 70
    -2
  9
$DIMLWE
 70
    -2
  9
$DIMTMOVE
 70
     0
  9
$LUNITS
 70
     2
  9
$LUPREC
 70
     4
  9
$SKETCHINC
 40
1.0
  9
$FILLETRAD
 40
0.5
  9
$AUNITS
 70
     0
  9
$AUPREC
 70
     2
  9
$MENU
  1
.
  9
$ELEVATION
 40
0.0
  9
$PELEVATION
 40
0.0
  9
$THICKNESS
 40
0.0
  9
$LIMCHECK
 70
     0
  9
$CHAMFERA
 40
10.0
  9
$CHAMFERB
 40
10.0
  9
$CHAMFERC
 40
0.0
  9
$CHAMFERD
 40
0.0
  9
$SKPOLY
 70
     0
  9
$TDCREATE
 40
2451285.449582292
  9
$TDUCREATE
 40
2451285.074582292
  9
$TDUPDATE
 40
2457192.660102824
  9
$TDUUPDATE
 40
2457192.285102824
  9
$TDINDWG
 40
0.0000112731
  9
$TDUSRTIMER
 40
0.0000107755
  9
$USRTIMER
 70
     1
  9
$ANGBASE
 50
0.0
  9
$ANGDIR
 70
     0
  9
$PDMODE
 70
    34
  9
$PDSIZE
 40
0.0
  9
$PLINEWID
 40
0.0
  9
$SPLFRAME
 70
     0
  9
$SPLINETYPE
 70
     6
  9
$SPLINESEGS
 70
     8
  9
$HANDSEED
  5
ECB0
  9
$SURFTAB1
 70
     6
  9
$SURFTAB2
 70
     6
  9
$SURFTYPE
 70
     6
  9
$SURFU
 70
     6
  9
$SURFV
 70
     6
  9
$UCSBASE
  2

  9
$UCSNAME
  2

  9
$UCSORG
 10
0.0
 20
0.0
 30
0.0
  9
$UCSXDIR
 10
1.0
 20
0.0
 30
0.0
  9
$UCSYDIR
 10
0.0
 20
1.0
 30
0.0
  9
$UCSORTHOREF
  2

  9
$UCSORTHOVIEW
 70
     0
  9
$UCSORGTOP
 10
0.0
 20
0.0
 30
0.0
  9
$UCSORGBOTTOM
 10
0.0
 20
0.0
 30
0.0
  9
$UCSORGLEFT
 10
0.0
 20
0.0
 30
0.0
  9
$UCSORGRIGHT
 10
0.0
 20
0.0
 30
0.0
  9
$UCSORGFRONT
 10
0.0
 20
0.0
 30
0.0
  9
$UCSORGBACK
 10
0.0
 20
0.0
 30
0.0
  9
$PUCSBASE
  2

  9
$PUCSNAME
  2

  9
$PUCSORG
 10
0.0
 20
0.0
 30
0.0
  9
$PUCSXDIR
 10
1.0
 20
0.0
 30
0.0
  9
$PUCSYDIR
 10
0.0
 20
1.0
 30
0.0
  9
$PUCSORTHOREF
  2

  9
$PUCSORTHOVIEW
 70
     0
  9
$PUCSORGTOP
 10
0.0
 20
0.0
 30
0.0
  9
$PUCSORGBOTTOM
 10
0.0
 20
0.0
 30
0.0
  9
$PUCSORGLEFT
 10
0.0
 20
0.0
 30
0.0
  9
$PUCSORGRIGHT
 10
0.0
 20
0.0
 30
0.0
  9
$PUCSORGFRONT
 10
0.0
 20
0.0
 30
0.0
  9
$PUCSORGBACK
 10
0.0
 20
0.0
 30
0.0
  9
$USERI1
 70
     0
  9
$USERI2
 70
     0
  9
$USERI3
 70
     0
  9
$USERI4
 70
     0
  9
$USERI5
 70
     0
  9
$USERR1
 40
0.0
  9
$USERR2
 40
0.0
  9
$USERR3
 40
0.0
  9
$USERR4
 40
0.0
  9
$USERR5
 40
0.0
  9
$WORLDVIEW
 70
     1
  9
$SHADEDGE
 70
     3
  9
$SHADEDIF
 70
    70
  9
$TILEMODE
 70
     1
  9
$MAXACTVP
 70
    16
  9
$PINSBASE
 10
0.0
 20
0.0
 30
0.0
  9
$PLIMCHECK
 70
     0
  9
$PEXTMIN
 10
1.000000000000000E+20
 20
1.000000000000000E+20
 30
1.000000000000000E+20
  9
$PEXTMAX
 10
-1.000000000000000E+20
 20
-1.000000000000000E+20
 30
-1.000000000000000E+20
  9
$PLIMMIN
 10
0.0
 20
0.0
  9
$PLIMMAX
 10
420.0
 20
297.0
  9
$UNITMODE
 70
     0
  9
$VISRETAIN
 70
     0
  9
$PLINEGEN
 70
     0
  9
$PSLTSCALE
 70
     0
  9
$TREEDEPTH
 70
  3020
  9
$CMLSTYLE
  2
STANDARD
  9
$CMLJUST
 70
     0
  9
$CMLSCALE
 40
1.0
  9
$PROXYGRAPHICS
 70
     1
  9
$MEASUREMENT
 70
     0
  9
$CELWEIGHT
370
    -1
  9
$ENDCAPS
280
     0
  9
$JOINSTYLE
280
     0
  9
$LWDISPLAY
290
     0
  9
$INSUNITS
 70
     0
  9
$HYPERLINKBASE
  1

  9
$STYLESHEET
  1

  9
$XEDIT
290
     1
  9
$CEPSNTYPE
380
     0
  9
$PSTYLEMODE
290
     1
  9
$FINGERPRINTGUID
  2
{0E28D5D2-13C0-47DC-B61B-002E8525D2CF}
  9
$VERSIONGUID
  2
{7C9B0A2B-D637-4B0E-9E8F-593F91A5C45A}
  9
$EXTNAMES
290
     1
  9
$PSVPSCALE
 40
0.0
  9
$OLESTARTUP
290
     0
  0
ENDSEC
  0
SECTION
  2
CLASSES
  0
CLASS
  1
ACDBDICTIONARYWDFLT
  2
AcDbDictionaryWithDefault
  3
ObjectDBX Classes
 90
        0
280
     0
281
     0
  0
CLASS
  1
ACDBPLACEHOLDER
  2
AcDbPlaceHolder
  3
ObjectDBX Classes
 90
        0
280
     0
281
     0
  0
CLASS
  1
LAYOUT
  2
AcDbLayout
  3
ObjectDBX Classes
 90
        0
280
     0
281
     0
  0
CLASS
  1
DICTIONARYVAR
  2
AcDbDictionaryVar
  3
ObjectDBX Classes
 90
        0
280
     0
281
     0
  0
CLASS
  1
MATERIAL
  2
AcDbMaterial
  3
ObjectDBX Classes
 90
     1153
280
     0
281
     0
  0
CLASS
  1
VISUALSTYLE
  2
AcDbVisualStyle
  3
ObjectDBX Classes
 90
     4095
280
     0
281
     0
  0
CLASS
  1
TABLESTYLE
  2
AcDbTableStyle
  3
ObjectDBX Classes
 90
     4095
280
     0
281
     0
  0
CLASS
  1
SCALE
  2
AcDbScale
  3
ObjectDBX Classes
 90
     1153
280
     0
281
     0
  0
CLASS
  1
MLEADERSTYLE
  2
AcDbMLeaderStyle
  3
ACDB_MLEADERSTYLE_CLASS
 90
     4095
280
     0
281
     0
  0
CLASS
  1
ACDBSECTIONVIEWSTYLE
  2
AcDbSectionViewStyle
  3
ObjectDBX Classes
 90
     1025
280
     0
281
     0
  0
CLASS
  1
ACDBDETAILVIEWSTYLE
  2
AcDbDetailViewStyle
  3
ObjectDBX Classes
 90
     1025
280
     0
281
     0
  0
CLASS
  1
CELLSTYLEMAP
  2
AcDbCellStyleMap
  3
ObjectDBX Classes
 90
     1152
280
     0
281
     0
  0
ENDSEC
  0
SECTION
  2
TABLES
  0
TABLE
  2
VPORT
  5
E9D8
330
0
100
AcDbSymbolTable
 70
     1
  0
VPORT
  5
EBF9
330
E9D8
100
AcDbSymbolTableRecord
100
AcDbViewportTableRecord
  2
*ACTIVE
 70
     0
 10
0.0
 20
0.0
 11
1.0
 21
1.0
 12
179.2957975066663
 22
74.4734807880286
 13
0.0
 23
0.0
 14
10.0
 24
10.0
 15
10.0
 25
10.0
 16
0.0
 26
0.0
 36
1.0
 17
0.0
 27
0.0
 37
0.0
 40
144.7831838684282
 41
1.899603698811096
 42
50.0
 43
0.0
 44
0.0
 50
0.0
 51
0.0
 71
     0
 72
   100
 73
     1
 74
     0
 75
     0
 76
     0
 77
     0
 78
     0
281
     0
 65
     1
110
0.0
120
0.0
130
0.0
111
1.0
121
0.0
131
0.0
112
0.0
122
1.0
132
0.0
 79
     0
146
0.0
1001
ACAD_NAV_VCDISPLAY
1070
     3
  0
ENDTAB
  0
TABLE
  2
LTYPE
  5
E9D5
330
0
100
AcDbSymbolTable
 70
     4
  0
LTYPE
  5
E9E3
330
E9D5
100
AcDbSymbolTableRecord
100
AcDbLinetypeTableRecord
  2
BYBLOCK
 70
     0
  3

 72
    65
 73
     0
 40
0.0
  0
LTYPE
  5
E9E4
330
E9D5
100
AcDbSymbolTableRecord
100
AcDbLinetypeTableRecord
  2
BYLAYER
 70
     0
  3

 72
    65
 73
     0
 40
0.0
  0
LTYPE
  5
E9E5
330
E9D5
100
AcDbSymbolTableRecord
100
AcDbLinetypeTableRecord
  2
CONTINUOUS
 70
     0
  3
Solid line
 72
    65
 73
     0
 40
0.0
  0
LTYPE
  5
E9F3
330
E9D5
100
AcDbSymbolTableRecord
100
AcDbLinetypeTableRecord
  2
DASHED
 70
     0
  3
__ __ __ __ __ __ __ __ __ __ __ __ __ __ __ __
 72
    65
 73
     2
 40
0.75
 49
0.5
 74
     0
 49
-0.25
 74
     0
  0
LTYPE
  5
E9F4
330
E9D5
100
AcDbSymbolTableRecord
100
AcDbLinetypeTableRecord
  2
CENTER
 70
     0
  3
____ _ ____ _ ____ _ ____ _ ____ _ ____ _ ____ 
 72
    65
 73
     4
 40
2.0
 49
1.25
 74
     0
 49
-0.25
 74
     0
 49
0.25
 74
     0
 49
-0.25
 74
     0
  0
LTYPE
  5
E9F5
330
E9D5
100
AcDbSymbolTableRecord
100
AcDbLinetypeTableRecord
  2
PHANTOM
 70
     0
  3
______  __  __  ______  __  __  ______  __  __ 
 72
    65
 73
     6
 40
2.5
 49
1.25
 74
     0
 49
-0.25
 74
     0
 49
0.25
 74
     0
 49
-0.25
 74
     0
 49
0.25
 74
     0
 49
-0.25
 74
     0
  0
ENDTAB
  0
TABLE
  2
LAYER
  5
E9D2
330
0
100
AcDbSymbolTable
 70
     8
  0
LAYER
  5
E9E0
102
{ACAD_XDICTIONARY
360
EC54
102
}
330
E9D2
100
AcDbSymbolTableRecord
100
AcDbLayerTableRecord
  2
0
 70
     0
 62
     7
  6
CONTINUOUS
370
    -3
390
EC02
  0
LAYER
  5
E9F6
102
{ACAD_XDICTIONARY
360
EC56
102
}
330
E9D2
100
AcDbSymbolTableRecord
100
AcDbLayerTableRecord
  2
4
 70
     0
 62
     1
  6
CENTER
370
    -3
390
EC02
  0
LAYER
  5
E9F7
102
{ACAD_XDICTIONARY
360
EC58
102
}
330
E9D2
100
AcDbSymbolTableRecord
100
AcDbLayerTableRecord
  2
5
 70
     0
 62
     6
  6
PHANTOM
370
    -3
390
EC02
  0
LAYER
  5
E9F8
102
{ACAD_XDICTIONARY
360
EC5A
102
}
330
E9D2
100
AcDbSymbolTableRecord
100
AcDbLayerTableRecord
  2
1
 70
     0
 62
     7
  6
CONTINUOUS
370
    -3
390
EC02
  0
LAYER
  5
E9F9
102
{ACAD_XDICTIONARY
360
EC5C
102
}
330
E9D2
100
AcDbSymbolTableRecord
100
AcDbLayerTableRecord
  2
2
 70
     0
 62
     4
  6
CONTINUOUS
370
    -3
390
EC02
  0
LAYER
  5
E9FA
102
{ACAD_XDICTIONARY
360
EC5E
102
}
330
E9D2
100
AcDbSymbolTableRecord
100
AcDbLayerTableRecord
  2
3
 70
     0
 62
     2
  6
DASHED
370
    -3
390
EC02
  0
LAYER
  5
E9FB
102
{ACAD_XDICTIONARY
360
EC60
102
}
330
E9D2
100
AcDbSymbolTableRecord
100
AcDbLayerTableRecord
  2
6
 70
     0
 62
     5
  6
CONTINUOUS
370
    -3
390
EC02
  0
LAYER
  5
E9FC
102
{ACAD_XDICTIONARY
360
EC62
102
}
330
E9D2
100
AcDbSymbolTableRecord
100
AcDbLayerTableRecord
  2
7
 70
     0
 62
     3
  6
CONTINUOUS
370
    -3
390
EC02
  0
ENDTAB
  0
TABLE
  2
STYLE
  5
E9D3
330
0
100
AcDbSymbolTable
 70
     1
  0
STYLE
  5
E9E1
330
E9D3
100
AcDbSymbolTableRecord
100
AcDbTextStyleTableRecord
  2
STANDARD
 70
     0
 40
0.0
 41
1.0
 50
0.0
 71
     0
 42
5.0
  3
txt
  4

  0
ENDTAB
  0
TABLE
  2
VIEW
  5
E9D6
330
0
100
AcDbSymbolTable
 70
     2
  0
VIEW
  5
E9FD
330
E9D6
100
AcDbSymbolTableRecord
100
AcDbViewTableRecord
  2
7
 70
     0
 40
113.5991649999999
 10
207.7781589999999
 20
100.5444229999999
 41
223.824098
 11
0.0
 21
0.0
 31
1.0
 12
0.0
 22
0.0
 32
0.0
 42
50.0
 43
0.0
 44
0.0
 50
0.0
 71
     0
281
     0
 72
     0
  0
VIEW
  5
E9FE
330
E9D6
100
AcDbSymbolTableRecord
100
AcDbViewTableRecord
  2
6
 70
     0
 40
267.146964
 10
253.9720659999999
 20
125.781695
 41
526.35887
 11
0.0
 21
0.0
 31
1.0
 12
0.0
 22
0.0
 32
0.0
 42
50.0
 43
0.0
 44
0.0
 50
0.0
 71
     0
281
     0
 72
     0
  0
ENDTAB
  0
TABLE
  2
UCS
  5
E9D7
330
0
100
AcDbSymbolTable
 70
     0
  0
ENDTAB
  0
TABLE
  2
APPID
  5
E9D9
330
0
100
AcDbSymbolTable
 70
     3
  0
APPID
  5
E9E2
330
E9D9
100
AcDbSymbolTableRecord
100
AcDbRegAppTableRecord
  2
ACAD
 70
     0
  0
APPID
  5
EC6E
330
E9D9
100
AcDbSymbolTableRecord
100
AcDbRegAppTableRecord
  2
ACAD_NAV_VCDISPLAY
 70
     0
  0
APPID
  5
ECA7
330
E9D9
100
AcDbSymbolTableRecord
100
AcDbRegAppTableRecord
  2
ACAD_MLEADERVER
 70
     0
  0
ENDTAB
  0
TABLE
  2
DIMSTYLE
  5
E9DA
330
0
100
AcDbSymbolTable
 70
     1
100
AcDbDimStyleTable
 71
     0
  0
DIMSTYLE
105
EA00
330
E9DA
100
AcDbSymbolTableRecord
100
AcDbDimStyleTableRecord
  2
STANDARD
 70
     0
 41
3.0
 42
1.0
 43
10.0
 44
1.0
 73
     0
 74
     0
 77
     3
 78
     8
140
3.2
141
0.0
147
1.0
172
     1
173
     1
284
     8
285
     8
286
     8
340
E9E1
  0
ENDTAB
  0
TABLE
  2
BLOCK_RECORD
  5
E9D1
330
0
100
AcDbSymbolTable
 70
     0
  0
BLOCK_RECORD
  5
E9EE
102
{ACAD_XDICTIONARY
360
EBFC
102
}
330
E9D1
100
AcDbSymbolTableRecord
100
AcDbBlockTableRecord
  2
*MODEL_SPACE
340
EC50
  0
BLOCK_RECORD
  5
E9EA
102
{ACAD_XDICTIONARY
360
EBFA
102
}
330
E9D1
100
AcDbSymbolTableRecord
100
AcDbBlockTableRecord
  2
*PAPER_SPACE
340
EC51
  0
ENDTAB
  0
ENDSEC
  0
SECTION
  2
BLOCKS
  0
BLOCK
  5
E9EF
330
E9EE
100
AcDbEntity
  8
0
100
AcDbBlockBegin
  2
*MODEL_SPACE
 70
     0
 10
0.0
 20
0.0
 30
0.0
  3
*MODEL_SPACE
  1

  0
ENDBLK
  5
E9F0
330
E9EE
100
AcDbEntity
  8
0
100
AcDbBlockEnd
  0
BLOCK
  5
E9EB
330
E9EA
100
AcDbEntity
 67
     1
  8
0
100
AcDbBlockBegin
  2
*PAPER_SPACE
 70
     0
 10
0.0
 20
0.0
 30
0.0
  3
*PAPER_SPACE
  1

  0
ENDBLK
  5
E9EC
330
E9EA
100
AcDbEntity
 67
     1
  8
0
100
AcDbBlockEnd
  0
ENDSEC
  0
SECTION
  2
ENTITIES
  0
TEXT
  5
EA08
330
E9EE
100
AcDbEntity
  8
6
  6
Continuous
100
AcDbText
 10
27.97945
 20
10.0487
 30
0.0
 40
1.399999999999999
  1
6
 41
1.069393
100
AcDbText
  0
TEXT
  5
EA09
330
E9EE
100
AcDbEntity
  8
1
  6
Continuous
100
AcDbText
 10
17.97945
 20
10.0487
 30
0.0
 40
1.399999999999999
  1
1
 41
1.069393
100
AcDbText
  0
TEXT
  5
EA0A
330
E9EE
100
AcDbEntity
  8
1
  6
Continuous
100
AcDbText
 10
9.99995
 20
10.0
 30
0.0
 40
1.399999999999999
  1
LAYER
 41
1.009912999999997
100
AcDbText
  0
TEXT
  5
EA0B
330
E9EE
100
AcDbEntity
  8
2
  6
Continuous
100
AcDbText
 10
19.97944999999998
 20
10.0487
 30
0.0
 40
1.399999999999999
  1
2
 41
1.069393
100
AcDbText
  0
TEXT
  5
EA0C
330
E9EE
100
AcDbEntity
  8
3
  6
DASHED
100
AcDbText
 10
21.97945
 20
10.0487
 30
0.0
 40
1.399999999999999
  1
3
 41
1.069393
100
AcDbText
  0
TEXT
  5
EA0D
330
E9EE
100
AcDbEntity
  8
4
  6
CENTER
100
AcDbText
 10
23.97944999999999
 20
10.0487
 30
0.0
 40
1.399999999999999
  1
4
 41
1.069393
100
AcDbText
  0
TEXT
  5
EA0E
330
E9EE
100
AcDbEntity
  8
5
  6
PHANTOM
100
AcDbText
 10
25.97945
 20
10.0487
 30
0.0
 40
1.399999999999999
  1
5
 41
1.069393
100
AcDbText
  0
TEXT
  5
EA0F
330
E9EE
100
AcDbEntity
  8
7
  6
Continuous
100
AcDbText
 10
10.00005
 20
26.0
 30
0.0
 40
3.0
  1
CODE No.5945
 41
1.003962999999999
100
AcDbText
  0
TEXT
  5
EA10
330
E9EE
100
AcDbEntity
  8
7
  6
Continuous
100
AcDbText
 10
10.00005
 20
18.0
 30
0.0
 40
3.0
  1
TYPE No.TM-177
 41
1.002350999999998
100
AcDbText
  0
TEXT
  5
EA11
330
E9EE
100
AcDbEntity
  8
7
  6
Continuous
100
AcDbText
 10
29.97944999999999
 20
10.0487
 30
0.0
 40
1.399999999999999
  1
7
 41
1.069393
100
AcDbText
  0
LINE
  5
EA12
330
E9EE
100
AcDbEntity
  8
4
  6
CENTER
100
AcDbLine
 10
34.75
 20
93.34999999999999
 30
0.0
 11
34.75
 21
84.34999999999998
 31
0.0
  0
LINE
  5
EA13
330
E9EE
100
AcDbEntity
  8
4
  6
CENTER
100
AcDbLine
 10
27.8
 20
87.65
 30
0.0
 11
27.8
 21
90.04999999999999
 31
0.0
  0
ARC
  5
EA14
330
E9EE
100
AcDbEntity
  8
1
  6
Continuous
100
AcDbCircle
 10
32.151443
 20
87.94999999999998
 30
0.0
 40
0.9
100
AcDbArc
 50
19.103324
 51
90.0
  0
ARC
  5
EA15
330
E9EE
100
AcDbEntity
  8
1
  6
Continuous
100
AcDbCircle
 10
32.151443
 20
89.74999999999999
 30
0.0
 40
0.9
100
AcDbArc
 50
270.0
 51
340.8966759999998
  0
ARC
  5
EA16
330
E9EE
100
AcDbEntity
  8
1
  6
Continuous
100
AcDbCircle
 10
32.151443
 20
87.94999999999998
 30
0.0
 40
0.5
100
AcDbArc
 50
19.103324
 51
90.0
  0
ARC
  5
EA17
330
E9EE
100
AcDbEntity
  8
1
  6
Continuous
100
AcDbCircle
 10
32.151443
 20
89.74999999999999
 30
0.0
 40
0.5
100
AcDbArc
 50
270.0
 51
340.8966759999998
  0
ARC
  5
EA18
330
E9EE
100
AcDbEntity
  8
1
  6
Continuous
100
AcDbCircle
 10
34.75
 20
88.84999999999998
 30
0.0
 40
1.85
100
AcDbArc
 50
199.1033239999999
 51
160.896676
  0
LINE
  5
EA19
330
E9EE
100
AcDbEntity
  8
1
  6
Continuous
100
AcDbLine
 10
25.0
 20
88.45
 30
0.0
 11
32.151443
 21
88.45
 31
0.0
  0
LINE
  5
EA1A
330
E9EE
100
AcDbEntity
  8
1
  6
Continuous
100
AcDbLine
 10
25.0
 20
89.25
 30
0.0
 11
32.151443
 21
89.25
 31
0.0
  0
LINE
  5
EA1B
330
E9EE
100
AcDbEntity
  8
1
  6
Continuous
100
AcDbLine
 10
25.0
 20
88.45
 30
0.0
 11
25.0
 21
89.25
 31
0.0
  0
ARC
  5
EA1C
330
E9EE
100
AcDbEntity
  8
1
  6
Continuous
100
AcDbCircle
 10
34.75
 20
88.84999999999998
 30
0.0
 40
2.25
100
AcDbArc
 50
199.1033239999999
 51
160.896676
  0
LINE
  5
EA1D
330
E9EE
100
AcDbEntity
  8
1
  6
Continuous
100
AcDbLine
 10
32.151443
 20
88.84999999999998
 30
0.0
 11
25.0
 21
88.84999999999998
 31
0.0
  0
LINE
  5
EA1E
330
E9EE
100
AcDbEntity
  8
1
  6
Continuous
100
AcDbLine
 10
136.9387509999999
 20
88.49999999999999
 30
0.0
 11
135.561249
 21
88.49999999999999
 31
0.0
  0
LINE
  5
EA1F
330
E9EE
100
AcDbEntity
  8
1
  6
Continuous
100
AcDbLine
 10
136.9387509999999
 20
89.19999999999998
 30
0.0
 11
135.561249
 21
89.19999999999998
 31
0.0
  0
LINE
  5
EA20
330
E9EE
100
AcDbEntity
  8
4
  6
CENTER
100
AcDbLine
 10
236.5
 20
88.84999999999998
 30
0.0
 11
22.74999999999999
 21
88.84999999999998
 31
0.0
  0
CIRCLE
  5
EA21
330
E9EE
100
AcDbEntity
  8
1
  6
Continuous
100
AcDbCircle
 10
71.0
 20
88.84999999999998
 30
0.0
 40
1.6
  0
LINE
  5
EA22
330
E9EE
100
AcDbEntity
  8
4
  6
CENTER
100
AcDbLine
 10
35.0
 20
85.65000000000003
 30
0.0
 11
35.0
 21
92.05
 31
0.0
  0
CIRCLE
  5
EA23
330
E9EE
100
AcDbEntity
  8
1
  6
Continuous
100
AcDbCircle
 10
62.0
 20
88.84999999999998
 30
0.0
 40
1.6
  0
CIRCLE
  5
EA24
330
E9EE
100
AcDbEntity
  8
1
  6
Continuous
100
AcDbCircle
 10
66.5
 20
88.84999999999998
 30
0.0
 40
1.6
  0
CIRCLE
  5
EA25
330
E9EE
100
AcDbEntity
  8
1
  6
Continuous
100
AcDbCircle
 10
57.5
 20
88.84999999999998
 30
0.0
 40
1.6
  0
CIRCLE
  5
EA26
330
E9EE
100
AcDbEntity
  8
1
  6
Continuous
100
AcDbCircle
 10
53.0
 20
88.84999999999998
 30
0.0
 40
1.6
  0
CIRCLE
  5
EA27
330
E9EE
100
AcDbEntity
  8
1
  6
Continuous
100
AcDbCircle
 10
48.5
 20
88.84999999999998
 30
0.0
 40
1.6
  0
CIRCLE
  5
EA28
330
E9EE
100
AcDbEntity
  8
1
  6
Continuous
100
AcDbCircle
 10
44.0
 20
88.84999999999998
 30
0.0
 40
1.6
  0
CIRCLE
  5
EA29
330
E9EE
100
AcDbEntity
  8
1
  6
Continuous
100
AcDbCircle
 10
39.5
 20
88.84999999999998
 30
0.0
 40
1.6
  0
CIRCLE
  5
EA2A
330
E9EE
100
AcDbEntity
  8
1
  6
Continuous
100
AcDbCircle
 10
35.0
 20
88.84999999999998
 30
0.0
 40
1.6
  0
LINE
  5
EA2B
330
E9EE
100
AcDbEntity
  8
1
  6
Continuous
100
AcDbLine
 10
37.93875100000001
 20
88.49999999999999
 30
0.0
 11
36.972611
 21
88.49999999999999
 31
0.0
  0
LINE
  5
EA2C
330
E9EE
100
AcDbEntity
  8
1
  6
Continuous
100
AcDbLine
 10
55.938751
 20
88.49999999999999
 30
0.0
 11
54.56124899999998
 21
88.49999999999999
 31
0.0
  0
LINE
  5
EA2D
330
E9EE
100
AcDbEntity
  8
1
  6
Continuous
100
AcDbLine
 10
51.438751
 20
88.49999999999999
 30
0.0
 11
50.06124899999999
 21
88.49999999999999
 31
0.0
  0
LINE
  5
EA2E
330
E9EE
100
AcDbEntity
  8
1
  6
Continuous
100
AcDbLine
 10
46.938751
 20
88.49999999999999
 30
0.0
 11
45.56124899999999
 21
88.49999999999999
 31
0.0
  0
LINE
  5
EA2F
330
E9EE
100
AcDbEntity
  8
1
  6
Continuous
100
AcDbLine
 10
42.438751
 20
88.49999999999999
 30
0.0
 11
41.061249
 21
88.49999999999999
 31
0.0
  0
LINE
  5
EA30
330
E9EE
100
AcDbEntity
  8
1
  6
Continuous
100
AcDbLine
 10
69.43875099999999
 20
88.49999999999999
 30
0.0
 11
68.061249
 21
88.49999999999999
 31
0.0
  0
LINE
  5
EA31
330
E9EE
100
AcDbEntity
  8
1
  6
Continuous
100
AcDbLine
 10
64.938751
 20
88.49999999999999
 30
0.0
 11
63.561249
 21
88.49999999999999
 31
0.0
  0
LINE
  5
EA32
330
E9EE
100
AcDbEntity
  8
1
  6
Continuous
100
AcDbLine
 10
60.43875100000001
 20
88.49999999999999
 30
0.0
 11
59.061249
 21
88.49999999999999
 31
0.0
  0
LINE
  5
EA33
330
E9EE
100
AcDbEntity
  8
1
  6
Continuous
100
AcDbLine
 10
37.93875100000001
 20
89.19999999999998
 30
0.0
 11
36.972611
 21
89.19999999999998
 31
0.0
  0
LINE
  5
EA34
330
E9EE
100
AcDbEntity
  8
1
  6
Continuous
100
AcDbLine
 10
55.938751
 20
89.19999999999998
 30
0.0
 11
54.56124899999998
 21
89.19999999999998
 31
0.0
  0
LINE
  5
EA35
330
E9EE
100
AcDbEntity
  8
1
  6
Continuous
100
AcDbLine
 10
51.438751
 20
89.19999999999998
 30
0.0
 11
50.06124899999999
 21
89.19999999999998
 31
0.0
  0
LINE
  5
EA36
330
E9EE
100
AcDbEntity
  8
1
  6
Continuous
100
AcDbLine
 10
46.938751
 20
89.19999999999998
 30
0.0
 11
45.56124899999999
 21
89.19999999999998
 31
0.0
  0
LINE
  5
EA37
330
E9EE
100
AcDbEntity
  8
1
  6
Continuous
100
AcDbLine
 10
42.438751
 20
89.19999999999998
 30
0.0
 11
41.061249
 21
89.19999999999998
 31
0.0
  0
LINE
  5
EA38
330
E9EE
100
AcDbEntity
  8
1
  6
Continuous
100
AcDbLine
 10
69.43875099999999
 20
89.19999999999998
 30
0.0
 11
68.061249
 21
89.19999999999998
 31
0.0
  0
LINE
  5
EA39
330
E9EE
100
AcDbEntity
  8
1
  6
Continuous
100
AcDbLine
 10
64.938751
 20
89.19999999999998
 30
0.0
 11
63.561249
 21
89.19999999999998
 31
0.0
  0
LINE
  5
EA3A
330
E9EE
100
AcDbEntity
  8
1
  6
Continuous
100
AcDbLine
 10
60.43875100000001
 20
89.19999999999998
 30
0.0
 11
59.061249
 21
89.19999999999998
 31
0.0
  0
CIRCLE
  5
EA3B
330
E9EE
100
AcDbEntity
  8
1
  6
Continuous
100
AcDbCircle
 10
134.0
 20
88.84999999999998
 30
0.0
 40
1.6
  0
CIRCLE
  5
EA3C
330
E9EE
100
AcDbEntity
  8
1
  6
Continuous
100
AcDbCircle
 10
129.4999999999998
 20
88.84999999999998
 30
0.0
 40
1.6
  0
CIRCLE
  5
EA3D
330
E9EE
100
AcDbEntity
  8
1
  6
Continuous
100
AcDbCircle
 10
111.4999999999999
 20
88.84999999999998
 30
0.0
 40
1.6
  0
CIRCLE
  5
EA3E
330
E9EE
100
AcDbEntity
  8
1
  6
Continuous
100
AcDbCircle
 10
120.5
 20
88.84999999999998
 30
0.0
 40
1.6
  0
CIRCLE
  5
EA3F
330
E9EE
100
AcDbEntity
  8
1
  6
Continuous
100
AcDbCircle
 10
116.0
 20
88.84999999999998
 30
0.0
 40
1.6
  0
CIRCLE
  5
EA40
330
E9EE
100
AcDbEntity
  8
1
  6
Continuous
100
AcDbCircle
 10
98.0
 20
88.84999999999998
 30
0.0
 40
1.6
  0
CIRCLE
  5
EA41
330
E9EE
100
AcDbEntity
  8
1
  6
Continuous
100
AcDbCircle
 10
102.4999999999999
 20
88.84999999999998
 30
0.0
 40
1.6
  0
CIRCLE
  5
EA42
330
E9EE
100
AcDbEntity
  8
1
  6
Continuous
100
AcDbCircle
 10
107.0
 20
88.84999999999998
 30
0.0
 40
1.6
  0
CIRCLE
  5
EA43
330
E9EE
100
AcDbEntity
  8
1
  6
Continuous
100
AcDbCircle
 10
89.0
 20
88.84999999999998
 30
0.0
 40
1.6
  0
CIRCLE
  5
EA44
330
E9EE
100
AcDbEntity
  8
1
  6
Continuous
100
AcDbCircle
 10
93.49999999999999
 20
88.84999999999998
 30
0.0
 40
1.6
  0
CIRCLE
  5
EA45
330
E9EE
100
AcDbEntity
  8
1
  6
Continuous
100
AcDbCircle
 10
125.0
 20
88.84999999999998
 30
0.0
 40
1.6
  0
CIRCLE
  5
EA46
330
E9EE
100
AcDbEntity
  8
1
  6
Continuous
100
AcDbCircle
 10
84.50000000000001
 20
88.84999999999998
 30
0.0
 40
1.6
  0
CIRCLE
  5
EA47
330
E9EE
100
AcDbEntity
  8
1
  6
Continuous
100
AcDbCircle
 10
75.5
 20
88.84999999999998
 30
0.0
 40
1.6
  0
CIRCLE
  5
EA48
330
E9EE
100
AcDbEntity
  8
1
  6
Continuous
100
AcDbCircle
 10
80.0
 20
88.84999999999998
 30
0.0
 40
1.6
  0
LINE
  5
EA49
330
E9EE
100
AcDbEntity
  8
1
  6
Continuous
100
AcDbLine
 10
105.4387509999999
 20
88.49999999999999
 30
0.0
 11
104.061249
 21
88.49999999999999
 31
0.0
  0
LINE
  5
EA4A
330
E9EE
100
AcDbEntity
  8
1
  6
Continuous
100
AcDbLine
 10
87.43875099999998
 20
88.49999999999999
 30
0.0
 11
86.06124900000002
 21
88.49999999999999
 31
0.0
  0
LINE
  5
EA4B
330
E9EE
100
AcDbEntity
  8
1
  6
Continuous
100
AcDbLine
 10
82.93875099999999
 20
88.49999999999999
 30
0.0
 11
81.561249
 21
88.49999999999999
 31
0.0
  0
LINE
  5
EA4C
330
E9EE
100
AcDbEntity
  8
1
  6
Continuous
100
AcDbLine
 10
78.43875099999998
 20
88.49999999999999
 30
0.0
 11
77.061249
 21
88.49999999999999
 31
0.0
  0
LINE
  5
EA4D
330
E9EE
100
AcDbEntity
  8
1
  6
Continuous
100
AcDbLine
 10
73.93875099999998
 20
88.49999999999999
 30
0.0
 11
72.561249
 21
88.49999999999999
 31
0.0
  0
LINE
  5
EA4E
330
E9EE
100
AcDbEntity
  8
1
  6
Continuous
100
AcDbLine
 10
100.938751
 20
88.49999999999999
 30
0.0
 11
99.561249
 21
88.49999999999999
 31
0.0
  0
LINE
  5
EA4F
330
E9EE
100
AcDbEntity
  8
1
  6
Continuous
100
AcDbLine
 10
96.438751
 20
88.49999999999999
 30
0.0
 11
95.06124900000001
 21
88.49999999999999
 31
0.0
  0
LINE
  5
EA50
330
E9EE
100
AcDbEntity
  8
1
  6
Continuous
100
AcDbLine
 10
91.93875099999999
 20
88.49999999999999
 30
0.0
 11
90.561249
 21
88.49999999999999
 31
0.0
  0
LINE
  5
EA51
330
E9EE
100
AcDbEntity
  8
1
  6
Continuous
100
AcDbLine
 10
118.9387509999999
 20
88.49999999999999
 30
0.0
 11
117.561249
 21
88.49999999999999
 31
0.0
  0
LINE
  5
EA52
330
E9EE
100
AcDbEntity
  8
1
  6
Continuous
100
AcDbLine
 10
114.438751
 20
88.49999999999999
 30
0.0
 11
113.061249
 21
88.49999999999999
 31
0.0
  0
LINE
  5
EA53
330
E9EE
100
AcDbEntity
  8
1
  6
Continuous
100
AcDbLine
 10
109.9387509999999
 20
88.49999999999999
 30
0.0
 11
108.561249
 21
88.49999999999999
 31
0.0
  0
LINE
  5
EA54
330
E9EE
100
AcDbEntity
  8
1
  6
Continuous
100
AcDbLine
 10
132.4387509999999
 20
88.49999999999999
 30
0.0
 11
131.061249
 21
88.49999999999999
 31
0.0
  0
LINE
  5
EA55
330
E9EE
100
AcDbEntity
  8
1
  6
Continuous
100
AcDbLine
 10
127.938751
 20
88.49999999999999
 30
0.0
 11
126.561249
 21
88.49999999999999
 31
0.0
  0
LINE
  5
EA56
330
E9EE
100
AcDbEntity
  8
1
  6
Continuous
100
AcDbLine
 10
123.4387509999999
 20
88.49999999999999
 30
0.0
 11
122.061249
 21
88.49999999999999
 31
0.0
  0
LINE
  5
EA57
330
E9EE
100
AcDbEntity
  8
1
  6
Continuous
100
AcDbLine
 10
105.4387509999999
 20
89.19999999999998
 30
0.0
 11
104.061249
 21
89.19999999999998
 31
0.0
  0
LINE
  5
EA58
330
E9EE
100
AcDbEntity
  8
1
  6
Continuous
100
AcDbLine
 10
87.43875099999998
 20
89.19999999999998
 30
0.0
 11
86.06124900000002
 21
89.19999999999998
 31
0.0
  0
LINE
  5
EA59
330
E9EE
100
AcDbEntity
  8
1
  6
Continuous
100
AcDbLine
 10
82.93875099999999
 20
89.19999999999998
 30
0.0
 11
81.561249
 21
89.19999999999998
 31
0.0
  0
LINE
  5
EA5A
330
E9EE
100
AcDbEntity
  8
1
  6
Continuous
100
AcDbLine
 10
78.43875099999998
 20
89.19999999999998
 30
0.0
 11
77.061249
 21
89.19999999999998
 31
0.0
  0
LINE
  5
EA5B
330
E9EE
100
AcDbEntity
  8
1
  6
Continuous
100
AcDbLine
 10
73.93875099999998
 20
89.19999999999998
 30
0.0
 11
72.561249
 21
89.19999999999998
 31
0.0
  0
LINE
  5
EA5C
330
E9EE
100
AcDbEntity
  8
1
  6
Continuous
100
AcDbLine
 10
100.938751
 20
89.19999999999998
 30
0.0
 11
99.561249
 21
89.19999999999998
 31
0.0
  0
LINE
  5
EA5D
330
E9EE
100
AcDbEntity
  8
1
  6
Continuous
100
AcDbLine
 10
96.438751
 20
89.19999999999998
 30
0.0
 11
95.06124900000001
 21
89.19999999999998
 31
0.0
  0
LINE
  5
EA5E
330
E9EE
100
AcDbEntity
  8
1
  6
Continuous
100
AcDbLine
 10
91.93875099999999
 20
89.19999999999998
 30
0.0
 11
90.561249
 21
89.19999999999998
 31
0.0
  0
LINE
  5
EA5F
330
E9EE
100
AcDbEntity
  8
1
  6
Continuous
100
AcDbLine
 10
118.9387509999999
 20
89.19999999999998
 30
0.0
 11
117.561249
 21
89.19999999999998
 31
0.0
  0
LINE
  5
EA60
330
E9EE
100
AcDbEntity
  8
1
  6
Continuous
100
AcDbLine
 10
114.438751
 20
89.19999999999998
 30
0.0
 11
113.061249
 21
89.19999999999998
 31
0.0
  0
LINE
  5
EA61
330
E9EE
100
AcDbEntity
  8
1
  6
Continuous
100
AcDbLine
 10
109.9387509999999
 20
89.19999999999998
 30
0.0
 11
108.561249
 21
89.19999999999998
 31
0.0
  0
LINE
  5
EA62
330
E9EE
100
AcDbEntity
  8
1
  6
Continuous
100
AcDbLine
 10
132.4387509999999
 20
89.19999999999998
 30
0.0
 11
131.061249
 21
89.19999999999998
 31
0.0
  0
LINE
  5
EA63
330
E9EE
100
AcDbEntity
  8
1
  6
Continuous
100
AcDbLine
 10
127.938751
 20
89.19999999999998
 30
0.0
 11
126.561249
 21
89.19999999999998
 31
0.0
  0
LINE
  5
EA64
330
E9EE
100
AcDbEntity
  8
1
  6
Continuous
100
AcDbLine
 10
123.4387509999999
 20
89.19999999999998
 30
0.0
 11
122.061249
 21
89.19999999999998
 31
0.0
  0
LINE
  5
EA65
330
E9EE
100
AcDbEntity
  8
1
  6
Continuous
100
AcDbLine
 10
199.938751
 20
88.49999999999999
 30
0.0
 11
198.561249
 21
88.49999999999999
 31
0.0
  0
LINE
  5
EA66
330
E9EE
100
AcDbEntity
  8
1
  6
Continuous
100
AcDbLine
 10
199.938751
 20
89.19999999999998
 30
0.0
 11
198.561249
 21
89.19999999999998
 31
0.0
  0
CIRCLE
  5
EA67
330
E9EE
100
AcDbEntity
  8
1
  6
Continuous
100
AcDbCircle
 10
197.0
 20
88.84999999999998
 30
0.0
 40
1.6
  0
CIRCLE
  5
EA68
330
E9EE
100
AcDbEntity
  8
1
  6
Continuous
100
AcDbCircle
 10
188.0
 20
88.84999999999998
 30
0.0
 40
1.6
  0
CIRCLE
  5
EA69
330
E9EE
100
AcDbEntity
  8
1
  6
Continuous
100
AcDbCircle
 10
183.4999999999998
 20
88.84999999999998
 30
0.0
 40
1.6
  0
CIRCLE
  5
EA6A
330
E9EE
100
AcDbEntity
  8
1
  6
Continuous
100
AcDbCircle
 10
192.5
 20
88.84999999999998
 30
0.0
 40
1.6
  0
CIRCLE
  5
EA6B
330
E9EE
100
AcDbEntity
  8
1
  6
Continuous
100
AcDbCircle
 10
165.5
 20
88.84999999999998
 30
0.0
 40
1.6
  0
CIRCLE
  5
EA6C
330
E9EE
100
AcDbEntity
  8
1
  6
Continuous
100
AcDbCircle
 10
174.5
 20
88.84999999999998
 30
0.0
 40
1.6
  0
CIRCLE
  5
EA6D
330
E9EE
100
AcDbEntity
  8
1
  6
Continuous
100
AcDbCircle
 10
170.0
 20
88.84999999999998
 30
0.0
 40
1.6
  0
CIRCLE
  5
EA6E
330
E9EE
100
AcDbEntity
  8
1
  6
Continuous
100
AcDbCircle
 10
152.0
 20
88.84999999999998
 30
0.0
 40
1.6
  0
CIRCLE
  5
EA6F
330
E9EE
100
AcDbEntity
  8
1
  6
Continuous
100
AcDbCircle
 10
156.4999999999998
 20
88.84999999999998
 30
0.0
 40
1.6
  0
CIRCLE
  5
EA70
330
E9EE
100
AcDbEntity
  8
1
  6
Continuous
100
AcDbCircle
 10
161.0
 20
88.84999999999998
 30
0.0
 40
1.6
  0
CIRCLE
  5
EA71
330
E9EE
100
AcDbEntity
  8
1
  6
Continuous
100
AcDbCircle
 10
143.0
 20
88.84999999999998
 30
0.0
 40
1.6
  0
CIRCLE
  5
EA72
330
E9EE
100
AcDbEntity
  8
1
  6
Continuous
100
AcDbCircle
 10
147.5
 20
88.84999999999998
 30
0.0
 40
1.6
  0
CIRCLE
  5
EA73
330
E9EE
100
AcDbEntity
  8
1
  6
Continuous
100
AcDbCircle
 10
179.0
 20
88.84999999999998
 30
0.0
 40
1.6
  0
CIRCLE
  5
EA74
330
E9EE
100
AcDbEntity
  8
1
  6
Continuous
100
AcDbCircle
 10
138.5
 20
88.84999999999998
 30
0.0
 40
1.6
  0
LINE
  5
EA75
330
E9EE
100
AcDbEntity
  8
1
  6
Continuous
100
AcDbLine
 10
168.438751
 20
88.49999999999999
 30
0.0
 11
167.061249
 21
88.49999999999999
 31
0.0
  0
LINE
  5
EA76
330
E9EE
100
AcDbEntity
  8
1
  6
Continuous
100
AcDbLine
 10
150.4387509999999
 20
88.49999999999999
 30
0.0
 11
149.061249
 21
88.49999999999999
 31
0.0
  0
LINE
  5
EA77
330
E9EE
100
AcDbEntity
  8
1
  6
Continuous
100
AcDbLine
 10
145.9387509999999
 20
88.49999999999999
 30
0.0
 11
144.561249
 21
88.49999999999999
 31
0.0
  0
LINE
  5
EA78
330
E9EE
100
AcDbEntity
  8
1
  6
Continuous
100
AcDbLine
 10
141.438751
 20
88.49999999999999
 30
0.0
 11
140.061249
 21
88.49999999999999
 31
0.0
  0
LINE
  5
EA79
330
E9EE
100
AcDbEntity
  8
1
  6
Continuous
100
AcDbLine
 10
163.9387509999999
 20
88.49999999999999
 30
0.0
 11
162.5612489999998
 21
88.49999999999999
 31
0.0
  0
LINE
  5
EA7A
330
E9EE
100
AcDbEntity
  8
1
  6
Continuous
100
AcDbLine
 10
159.4387509999999
 20
88.49999999999999
 30
0.0
 11
158.061249
 21
88.49999999999999
 31
0.0
  0
LINE
  5
EA7B
330
E9EE
100
AcDbEntity
  8
1
  6
Continuous
100
AcDbLine
 10
154.938751
 20
88.49999999999999
 30
0.0
 11
153.561249
 21
88.49999999999999
 31
0.0
  0
LINE
  5
EA7C
330
E9EE
100
AcDbEntity
  8
1
  6
Continuous
100
AcDbLine
 10
181.938751
 20
88.49999999999999
 30
0.0
 11
180.561249
 21
88.49999999999999
 31
0.0
  0
LINE
  5
EA7D
330
E9EE
100
AcDbEntity
  8
1
  6
Continuous
100
AcDbLine
 10
177.4387509999999
 20
88.49999999999999
 30
0.0
 11
176.0612489999998
 21
88.49999999999999
 31
0.0
  0
LINE
  5
EA7E
330
E9EE
100
AcDbEntity
  8
1
  6
Continuous
100
AcDbLine
 10
172.938751
 20
88.49999999999999
 30
0.0
 11
171.561249
 21
88.49999999999999
 31
0.0
  0
LINE
  5
EA7F
330
E9EE
100
AcDbEntity
  8
1
  6
Continuous
100
AcDbLine
 10
195.438751
 20
88.49999999999999
 30
0.0
 11
194.061249
 21
88.49999999999999
 31
0.0
  0
LINE
  5
EA80
330
E9EE
100
AcDbEntity
  8
1
  6
Continuous
100
AcDbLine
 10
190.9387509999999
 20
88.49999999999999
 30
0.0
 11
189.5612489999998
 21
88.49999999999999
 31
0.0
  0
LINE
  5
EA81
330
E9EE
100
AcDbEntity
  8
1
  6
Continuous
100
AcDbLine
 10
186.438751
 20
88.49999999999999
 30
0.0
 11
185.0612489999998
 21
88.49999999999999
 31
0.0
  0
LINE
  5
EA82
330
E9EE
100
AcDbEntity
  8
1
  6
Continuous
100
AcDbLine
 10
168.438751
 20
89.19999999999998
 30
0.0
 11
167.061249
 21
89.19999999999998
 31
0.0
  0
LINE
  5
EA83
330
E9EE
100
AcDbEntity
  8
1
  6
Continuous
100
AcDbLine
 10
150.4387509999999
 20
89.19999999999998
 30
0.0
 11
149.061249
 21
89.19999999999998
 31
0.0
  0
LINE
  5
EA84
330
E9EE
100
AcDbEntity
  8
1
  6
Continuous
100
AcDbLine
 10
145.9387509999999
 20
89.19999999999998
 30
0.0
 11
144.561249
 21
89.19999999999998
 31
0.0
  0
LINE
  5
EA85
330
E9EE
100
AcDbEntity
  8
1
  6
Continuous
100
AcDbLine
 10
141.438751
 20
89.19999999999998
 30
0.0
 11
140.061249
 21
89.19999999999998
 31
0.0
  0
LINE
  5
EA86
330
E9EE
100
AcDbEntity
  8
1
  6
Continuous
100
AcDbLine
 10
163.9387509999999
 20
89.19999999999998
 30
0.0
 11
162.5612489999998
 21
89.19999999999998
 31
0.0
  0
LINE
  5
EA87
330
E9EE
100
AcDbEntity
  8
1
  6
Continuous
100
AcDbLine
 10
159.4387509999999
 20
89.19999999999998
 30
0.0
 11
158.061249
 21
89.19999999999998
 31
0.0
  0
LINE
  5
EA88
330
E9EE
100
AcDbEntity
  8
1
  6
Continuous
100
AcDbLine
 10
154.938751
 20
89.19999999999998
 30
0.0
 11
153.561249
 21
89.19999999999998
 31
0.0
  0
LINE
  5
EA89
330
E9EE
100
AcDbEntity
  8
1
  6
Continuous
100
AcDbLine
 10
181.938751
 20
89.19999999999998
 30
0.0
 11
180.561249
 21
89.19999999999998
 31
0.0
  0
LINE
  5
EA8A
330
E9EE
100
AcDbEntity
  8
1
  6
Continuous
100
AcDbLine
 10
177.4387509999999
 20
89.19999999999998
 30
0.0
 11
176.0612489999998
 21
89.19999999999998
 31
0.0
  0
LINE
  5
EA8B
330
E9EE
100
AcDbEntity
  8
1
  6
Continuous
100
AcDbLine
 10
172.938751
 20
89.19999999999998
 30
0.0
 11
171.561249
 21
89.19999999999998
 31
0.0
  0
LINE
  5
EA8C
330
E9EE
100
AcDbEntity
  8
1
  6
Continuous
100
AcDbLine
 10
195.438751
 20
89.19999999999998
 30
0.0
 11
194.061249
 21
89.19999999999998
 31
0.0
  0
LINE
  5
EA8D
330
E9EE
100
AcDbEntity
  8
1
  6
Continuous
100
AcDbLine
 10
190.9387509999999
 20
89.19999999999998
 30
0.0
 11
189.5612489999998
 21
89.19999999999998
 31
0.0
  0
LINE
  5
EA8E
330
E9EE
100
AcDbEntity
  8
1
  6
Continuous
100
AcDbLine
 10
186.438751
 20
89.19999999999998
 30
0.0
 11
185.0612489999998
 21
89.19999999999998
 31
0.0
  0
CIRCLE
  5
EA8F
330
E9EE
100
AcDbEntity
  8
1
  6
Continuous
100
AcDbCircle
 10
215.0
 20
88.84999999999998
 30
0.0
 40
1.6
  0
CIRCLE
  5
EA90
330
E9EE
100
AcDbEntity
  8
1
  6
Continuous
100
AcDbCircle
 10
201.5
 20
88.84999999999998
 30
0.0
 40
1.6
  0
CIRCLE
  5
EA91
330
E9EE
100
AcDbEntity
  8
1
  6
Continuous
100
AcDbCircle
 10
206.0
 20
88.84999999999998
 30
0.0
 40
1.6
  0
CIRCLE
  5
EA92
330
E9EE
100
AcDbEntity
  8
1
  6
Continuous
100
AcDbCircle
 10
210.4999999999999
 20
88.84999999999998
 30
0.0
 40
1.6
  0
LINE
  5
EA93
330
E9EE
100
AcDbEntity
  8
1
  6
Continuous
100
AcDbLine
 10
213.4387509999999
 20
88.49999999999999
 30
0.0
 11
212.061249
 21
88.49999999999999
 31
0.0
  0
LINE
  5
EA94
330
E9EE
100
AcDbEntity
  8
1
  6
Continuous
100
AcDbLine
 10
208.9387509999999
 20
88.49999999999999
 30
0.0
 11
207.561249
 21
88.49999999999999
 31
0.0
  0
LINE
  5
EA95
330
E9EE
100
AcDbEntity
  8
1
  6
Continuous
100
AcDbLine
 10
204.4387509999999
 20
88.49999999999999
 30
0.0
 11
203.061249
 21
88.49999999999999
 31
0.0
  0
LINE
  5
EA96
330
E9EE
100
AcDbEntity
  8
1
  6
Continuous
100
AcDbLine
 10
222.027389
 20
88.49999999999999
 30
0.0
 11
221.061249
 21
88.49999999999999
 31
0.0
  0
LINE
  5
EA97
330
E9EE
100
AcDbEntity
  8
1
  6
Continuous
100
AcDbLine
 10
213.4387509999999
 20
89.19999999999998
 30
0.0
 11
212.061249
 21
89.19999999999998
 31
0.0
  0
LINE
  5
EA98
330
E9EE
100
AcDbEntity
  8
1
  6
Continuous
100
AcDbLine
 10
208.9387509999999
 20
89.19999999999998
 30
0.0
 11
207.561249
 21
89.19999999999998
 31
0.0
  0
LINE
  5
EA99
330
E9EE
100
AcDbEntity
  8
1
  6
Continuous
100
AcDbLine
 10
204.4387509999999
 20
89.19999999999998
 30
0.0
 11
203.061249
 21
89.19999999999998
 31
0.0
  0
LINE
  5
EA9A
330
E9EE
100
AcDbEntity
  8
1
  6
Continuous
100
AcDbLine
 10
222.027389
 20
89.19999999999998
 30
0.0
 11
221.061249
 21
89.19999999999998
 31
0.0
  0
CIRCLE
  5
EA9B
330
E9EE
100
AcDbEntity
  8
1
  6
Continuous
100
AcDbCircle
 10
219.4999999999998
 20
88.84999999999998
 30
0.0
 40
1.6
  0
LINE
  5
EA9C
330
E9EE
100
AcDbEntity
  8
1
  6
Continuous
100
AcDbLine
 10
217.9387509999999
 20
89.19999999999998
 30
0.0
 11
216.561249
 21
89.19999999999998
 31
0.0
  0
LINE
  5
EA9D
330
E9EE
100
AcDbEntity
  8
1
  6
Continuous
100
AcDbLine
 10
217.9387509999999
 20
88.49999999999999
 30
0.0
 11
216.561249
 21
88.49999999999999
 31
0.0
  0
LINE
  5
EA9E
330
E9EE
100
AcDbEntity
  8
4
  6
CENTER
100
AcDbLine
 10
236.25
 20
133.9
 30
0.0
 11
22.74999999999999
 21
133.9
 31
0.0
  0
CIRCLE
  5
EA9F
330
E9EE
100
AcDbEntity
  8
1
  6
Continuous
100
AcDbCircle
 10
147.5
 20
133.9
 30
0.0
 40
1.6
  0
CIRCLE
  5
EAA0
330
E9EE
100
AcDbEntity
  8
1
  6
Continuous
100
AcDbCircle
 10
84.50000000000001
 20
133.9
 30
0.0
 40
1.6
  0
CIRCLE
  5
EAA1
330
E9EE
100
AcDbEntity
  8
1
  6
Continuous
100
AcDbCircle
 10
53.0
 20
133.9
 30
0.0
 40
1.6
  0
LINE
  5
EAA2
330
E9EE
100
AcDbEntity
  8
1
  6
Continuous
100
AcDbLine
 10
37.0
 20
134.3
 30
0.0
 11
29.400781
 21
134.3
 31
0.0
  0
LINE
  5
EAA3
330
E9EE
100
AcDbEntity
  8
1
  6
Continuous
100
AcDbLine
 10
37.0
 20
133.4999999999998
 30
0.0
 11
29.400781
 21
133.4999999999998
 31
0.0
  0
LINE
  5
EAA4
330
E9EE
100
AcDbEntity
  8
1
  6
Continuous
100
AcDbLine
 10
37.0
 20
135.8999999999997
 30
0.0
 11
29.759592
 21
135.8999999999997
 31
0.0
  0
LINE
  5
EAA5
330
E9EE
100
AcDbEntity
  8
1
  6
Continuous
100
AcDbLine
 10
37.0
 20
131.9
 30
0.0
 11
29.759592
 21
131.9
 31
0.0
  0
LINE
  5
EAA6
330
E9EE
100
AcDbEntity
  8
4
  6
CENTER
100
AcDbLine
 10
27.8
 20
138.9499999999999
 30
0.0
 11
27.8
 21
128.8499999999999
 31
0.0
  0
LINE
  5
EAA7
330
E9EE
100
AcDbEntity
  8
4
  6
CENTER
100
AcDbLine
 10
34.75
 20
137.9
 30
0.0
 11
34.75
 21
129.9
 31
0.0
  0
LINE
  5
EAA8
330
E9EE
100
AcDbEntity
  8
1
  6
Continuous
100
AcDbLine
 10
32.5
 20
133.0999999999999
 30
0.0
 11
32.5
 21
132.3
 31
0.0
  0
LINE
  5
EAA9
330
E9EE
100
AcDbEntity
  8
1
  6
Continuous
100
AcDbLine
 10
32.5
 20
135.4999999999998
 30
0.0
 11
32.5
 21
134.6999999999999
 31
0.0
  0
CIRCLE
  5
EAAA
330
E9EE
100
AcDbEntity
  8
1
  6
Continuous
100
AcDbCircle
 10
27.8
 20
133.9
 30
0.0
 40
1.649999999999999
  0
ARC
  5
EAAB
330
E9EE
100
AcDbEntity
  8
1
  6
Continuous
100
AcDbCircle
 10
27.8
 20
133.9
 30
0.0
 40
2.799999999999998
100
AcDbArc
 50
45.58469099999999
 51
314.4153089999999
  0
LINE
  5
EAAC
330
E9EE
100
AcDbEntity
  8
4
  6
CENTER
100
AcDbLine
 10
35.0
 20
137.0999999999999
 30
0.0
 11
35.0
 21
130.6999999999999
 31
0.0
  0
LINE
  5
EAAD
330
E9EE
100
AcDbEntity
  8
1
  6
Continuous
100
AcDbLine
 10
37.93875100000001
 20
134.25
 30
0.0
 11
36.561249
 21
134.25
 31
0.0
  0
LINE
  5
EAAE
330
E9EE
100
AcDbEntity
  8
1
  6
Continuous
100
AcDbLine
 10
37.93875100000001
 20
133.55
 30
0.0
 11
36.561249
 21
133.55
 31
0.0
  0
LINE
  5
EAAF
330
E9EE
100
AcDbEntity
  8
1
  6
Continuous
100
AcDbLine
 10
37.0
 20
133.4999999999998
 30
0.0
 11
37.0
 21
131.9
 31
0.0
  0
LINE
  5
EAB0
330
E9EE
100
AcDbEntity
  8
1
  6
Continuous
100
AcDbLine
 10
37.0
 20
135.8999999999997
 30
0.0
 11
37.0
 21
134.3
 31
0.0
  0
LINE
  5
EAB1
330
E9EE
100
AcDbEntity
  8
1
  6
Continuous
100
AcDbLine
 10
42.438751
 20
133.55
 30
0.0
 11
41.061249
 21
133.55
 31
0.0
  0
LINE
  5
EAB2
330
E9EE
100
AcDbEntity
  8
1
  6
Continuous
100
AcDbLine
 10
46.938751
 20
133.55
 30
0.0
 11
45.56124899999999
 21
133.55
 31
0.0
  0
LINE
  5
EAB3
330
E9EE
100
AcDbEntity
  8
1
  6
Continuous
100
AcDbLine
 10
51.438751
 20
133.55
 30
0.0
 11
50.06124899999999
 21
133.55
 31
0.0
  0
LINE
  5
EAB4
330
E9EE
100
AcDbEntity
  8
1
  6
Continuous
100
AcDbLine
 10
42.438751
 20
134.25
 30
0.0
 11
41.061249
 21
134.25
 31
0.0
  0
LINE
  5
EAB5
330
E9EE
100
AcDbEntity
  8
1
  6
Continuous
100
AcDbLine
 10
46.938751
 20
134.25
 30
0.0
 11
45.56124899999999
 21
134.25
 31
0.0
  0
LINE
  5
EAB6
330
E9EE
100
AcDbEntity
  8
1
  6
Continuous
100
AcDbLine
 10
51.438751
 20
134.25
 30
0.0
 11
50.06124899999999
 21
134.25
 31
0.0
  0
CIRCLE
  5
EAB7
330
E9EE
100
AcDbEntity
  8
1
  6
Continuous
100
AcDbCircle
 10
39.5
 20
133.9
 30
0.0
 40
1.6
  0
CIRCLE
  5
EAB8
330
E9EE
100
AcDbEntity
  8
1
  6
Continuous
100
AcDbCircle
 10
44.0
 20
133.9
 30
0.0
 40
1.6
  0
CIRCLE
  5
EAB9
330
E9EE
100
AcDbEntity
  8
1
  6
Continuous
100
AcDbCircle
 10
48.5
 20
133.9
 30
0.0
 40
1.6
  0
CIRCLE
  5
EABA
330
E9EE
100
AcDbEntity
  8
1
  6
Continuous
100
AcDbCircle
 10
66.5
 20
133.9
 30
0.0
 40
1.6
  0
LINE
  5
EABB
330
E9EE
100
AcDbEntity
  8
1
  6
Continuous
100
AcDbLine
 10
60.43875100000001
 20
133.55
 30
0.0
 11
59.061249
 21
133.55
 31
0.0
  0
LINE
  5
EABC
330
E9EE
100
AcDbEntity
  8
1
  6
Continuous
100
AcDbLine
 10
64.938751
 20
133.55
 30
0.0
 11
63.561249
 21
133.55
 31
0.0
  0
LINE
  5
EABD
330
E9EE
100
AcDbEntity
  8
1
  6
Continuous
100
AcDbLine
 10
55.938751
 20
133.55
 30
0.0
 11
54.56124899999998
 21
133.55
 31
0.0
  0
LINE
  5
EABE
330
E9EE
100
AcDbEntity
  8
1
  6
Continuous
100
AcDbLine
 10
60.43875100000001
 20
134.25
 30
0.0
 11
59.061249
 21
134.25
 31
0.0
  0
LINE
  5
EABF
330
E9EE
100
AcDbEntity
  8
1
  6
Continuous
100
AcDbLine
 10
64.938751
 20
134.25
 30
0.0
 11
63.561249
 21
134.25
 31
0.0
  0
LINE
  5
EAC0
330
E9EE
100
AcDbEntity
  8
1
  6
Continuous
100
AcDbLine
 10
55.938751
 20
134.25
 30
0.0
 11
54.56124899999998
 21
134.25
 31
0.0
  0
CIRCLE
  5
EAC1
330
E9EE
100
AcDbEntity
  8
1
  6
Continuous
100
AcDbCircle
 10
57.5
 20
133.9
 30
0.0
 40
1.6
  0
CIRCLE
  5
EAC2
330
E9EE
100
AcDbEntity
  8
1
  6
Continuous
100
AcDbCircle
 10
62.0
 20
133.9
 30
0.0
 40
1.6
  0
LINE
  5
EAC3
330
E9EE
100
AcDbEntity
  8
1
  6
Continuous
100
AcDbLine
 10
73.93875099999998
 20
133.55
 30
0.0
 11
72.561249
 21
133.55
 31
0.0
  0
LINE
  5
EAC4
330
E9EE
100
AcDbEntity
  8
1
  6
Continuous
100
AcDbLine
 10
78.43875099999998
 20
133.55
 30
0.0
 11
77.061249
 21
133.55
 31
0.0
  0
LINE
  5
EAC5
330
E9EE
100
AcDbEntity
  8
1
  6
Continuous
100
AcDbLine
 10
82.93875099999999
 20
133.55
 30
0.0
 11
81.561249
 21
133.55
 31
0.0
  0
LINE
  5
EAC6
330
E9EE
100
AcDbEntity
  8
1
  6
Continuous
100
AcDbLine
 10
73.93875099999998
 20
134.25
 30
0.0
 11
72.561249
 21
134.25
 31
0.0
  0
LINE
  5
EAC7
330
E9EE
100
AcDbEntity
  8
1
  6
Continuous
100
AcDbLine
 10
78.43875099999998
 20
134.25
 30
0.0
 11
77.061249
 21
134.25
 31
0.0
  0
LINE
  5
EAC8
330
E9EE
100
AcDbEntity
  8
1
  6
Continuous
100
AcDbLine
 10
82.93875099999999
 20
134.25
 30
0.0
 11
81.561249
 21
134.25
 31
0.0
  0
CIRCLE
  5
EAC9
330
E9EE
100
AcDbEntity
  8
1
  6
Continuous
100
AcDbCircle
 10
80.0
 20
133.9
 30
0.0
 40
1.6
  0
CIRCLE
  5
EACA
330
E9EE
100
AcDbEntity
  8
1
  6
Continuous
100
AcDbCircle
 10
75.5
 20
133.9
 30
0.0
 40
1.6
  0
LINE
  5
EACB
330
E9EE
100
AcDbEntity
  8
1
  6
Continuous
100
AcDbLine
 10
69.43875099999999
 20
133.55
 30
0.0
 11
68.061249
 21
133.55
 31
0.0
  0
LINE
  5
EACC
330
E9EE
100
AcDbEntity
  8
1
  6
Continuous
100
AcDbLine
 10
69.43875099999999
 20
134.25
 30
0.0
 11
68.061249
 21
134.25
 31
0.0
  0
CIRCLE
  5
EACD
330
E9EE
100
AcDbEntity
  8
1
  6
Continuous
100
AcDbCircle
 10
71.0
 20
133.9
 30
0.0
 40
1.6
  0
CIRCLE
  5
EACE
330
E9EE
100
AcDbEntity
  8
1
  6
Continuous
100
AcDbCircle
 10
116.0
 20
133.9
 30
0.0
 40
1.6
  0
CIRCLE
  5
EACF
330
E9EE
100
AcDbEntity
  8
1
  6
Continuous
100
AcDbCircle
 10
98.0
 20
133.9
 30
0.0
 40
1.6
  0
LINE
  5
EAD0
330
E9EE
100
AcDbEntity
  8
1
  6
Continuous
100
AcDbLine
 10
91.93875099999999
 20
133.55
 30
0.0
 11
90.561249
 21
133.55
 31
0.0
  0
LINE
  5
EAD1
330
E9EE
100
AcDbEntity
  8
1
  6
Continuous
100
AcDbLine
 10
96.438751
 20
133.55
 30
0.0
 11
95.06124900000001
 21
133.55
 31
0.0
  0
LINE
  5
EAD2
330
E9EE
100
AcDbEntity
  8
1
  6
Continuous
100
AcDbLine
 10
87.43875099999998
 20
133.55
 30
0.0
 11
86.06124900000002
 21
133.55
 31
0.0
  0
LINE
  5
EAD3
330
E9EE
100
AcDbEntity
  8
1
  6
Continuous
100
AcDbLine
 10
91.93875099999999
 20
134.25
 30
0.0
 11
90.561249
 21
134.25
 31
0.0
  0
LINE
  5
EAD4
330
E9EE
100
AcDbEntity
  8
1
  6
Continuous
100
AcDbLine
 10
96.438751
 20
134.25
 30
0.0
 11
95.06124900000001
 21
134.25
 31
0.0
  0
LINE
  5
EAD5
330
E9EE
100
AcDbEntity
  8
1
  6
Continuous
100
AcDbLine
 10
87.43875099999998
 20
134.25
 30
0.0
 11
86.06124900000002
 21
134.25
 31
0.0
  0
CIRCLE
  5
EAD6
330
E9EE
100
AcDbEntity
  8
1
  6
Continuous
100
AcDbCircle
 10
93.49999999999999
 20
133.9
 30
0.0
 40
1.6
  0
CIRCLE
  5
EAD7
330
E9EE
100
AcDbEntity
  8
1
  6
Continuous
100
AcDbCircle
 10
89.0
 20
133.9
 30
0.0
 40
1.6
  0
LINE
  5
EAD8
330
E9EE
100
AcDbEntity
  8
1
  6
Continuous
100
AcDbLine
 10
109.9387509999999
 20
133.55
 30
0.0
 11
108.561249
 21
133.55
 31
0.0
  0
LINE
  5
EAD9
330
E9EE
100
AcDbEntity
  8
1
  6
Continuous
100
AcDbLine
 10
114.438751
 20
133.55
 30
0.0
 11
113.061249
 21
133.55
 31
0.0
  0
LINE
  5
EADA
330
E9EE
100
AcDbEntity
  8
1
  6
Continuous
100
AcDbLine
 10
100.938751
 20
133.55
 30
0.0
 11
99.561249
 21
133.55
 31
0.0
  0
LINE
  5
EADB
330
E9EE
100
AcDbEntity
  8
1
  6
Continuous
100
AcDbLine
 10
105.4387509999999
 20
133.55
 30
0.0
 11
104.061249
 21
133.55
 31
0.0
  0
LINE
  5
EADC
330
E9EE
100
AcDbEntity
  8
1
  6
Continuous
100
AcDbLine
 10
109.9387509999999
 20
134.25
 30
0.0
 11
108.561249
 21
134.25
 31
0.0
  0
LINE
  5
EADD
330
E9EE
100
AcDbEntity
  8
1
  6
Continuous
100
AcDbLine
 10
114.438751
 20
134.25
 30
0.0
 11
113.061249
 21
134.25
 31
0.0
  0
LINE
  5
EADE
330
E9EE
100
AcDbEntity
  8
1
  6
Continuous
100
AcDbLine
 10
100.938751
 20
134.25
 30
0.0
 11
99.561249
 21
134.25
 31
0.0
  0
LINE
  5
EADF
330
E9EE
100
AcDbEntity
  8
1
  6
Continuous
100
AcDbLine
 10
105.4387509999999
 20
134.25
 30
0.0
 11
104.061249
 21
134.25
 31
0.0
  0
CIRCLE
  5
EAE0
330
E9EE
100
AcDbEntity
  8
1
  6
Continuous
100
AcDbCircle
 10
107.0
 20
133.9
 30
0.0
 40
1.6
  0
CIRCLE
  5
EAE1
330
E9EE
100
AcDbEntity
  8
1
  6
Continuous
100
AcDbCircle
 10
102.4999999999999
 20
133.9
 30
0.0
 40
1.6
  0
CIRCLE
  5
EAE2
330
E9EE
100
AcDbEntity
  8
1
  6
Continuous
100
AcDbCircle
 10
111.4999999999999
 20
133.9
 30
0.0
 40
1.6
  0
LINE
  5
EAE3
330
E9EE
100
AcDbEntity
  8
1
  6
Continuous
100
AcDbLine
 10
132.4387509999999
 20
133.55
 30
0.0
 11
131.061249
 21
133.55
 31
0.0
  0
LINE
  5
EAE4
330
E9EE
100
AcDbEntity
  8
1
  6
Continuous
100
AcDbLine
 10
132.4387509999999
 20
134.25
 30
0.0
 11
131.061249
 21
134.25
 31
0.0
  0
LINE
  5
EAE5
330
E9EE
100
AcDbEntity
  8
1
  6
Continuous
100
AcDbLine
 10
123.4387509999999
 20
133.55
 30
0.0
 11
122.061249
 21
133.55
 31
0.0
  0
LINE
  5
EAE6
330
E9EE
100
AcDbEntity
  8
1
  6
Continuous
100
AcDbLine
 10
127.938751
 20
133.55
 30
0.0
 11
126.561249
 21
133.55
 31
0.0
  0
LINE
  5
EAE7
330
E9EE
100
AcDbEntity
  8
1
  6
Continuous
100
AcDbLine
 10
118.9387509999999
 20
133.55
 30
0.0
 11
117.561249
 21
133.55
 31
0.0
  0
LINE
  5
EAE8
330
E9EE
100
AcDbEntity
  8
1
  6
Continuous
100
AcDbLine
 10
123.4387509999999
 20
134.25
 30
0.0
 11
122.061249
 21
134.25
 31
0.0
  0
LINE
  5
EAE9
330
E9EE
100
AcDbEntity
  8
1
  6
Continuous
100
AcDbLine
 10
127.938751
 20
134.25
 30
0.0
 11
126.561249
 21
134.25
 31
0.0
  0
LINE
  5
EAEA
330
E9EE
100
AcDbEntity
  8
1
  6
Continuous
100
AcDbLine
 10
118.9387509999999
 20
134.25
 30
0.0
 11
117.561249
 21
134.25
 31
0.0
  0
CIRCLE
  5
EAEB
330
E9EE
100
AcDbEntity
  8
1
  6
Continuous
100
AcDbCircle
 10
125.0
 20
133.9
 30
0.0
 40
1.6
  0
CIRCLE
  5
EAEC
330
E9EE
100
AcDbEntity
  8
1
  6
Continuous
100
AcDbCircle
 10
120.5
 20
133.9
 30
0.0
 40
1.6
  0
CIRCLE
  5
EAED
330
E9EE
100
AcDbEntity
  8
1
  6
Continuous
100
AcDbCircle
 10
129.4999999999998
 20
133.9
 30
0.0
 40
1.6
  0
LINE
  5
EAEE
330
E9EE
100
AcDbEntity
  8
1
  6
Continuous
100
AcDbLine
 10
141.438751
 20
133.55
 30
0.0
 11
140.061249
 21
133.55
 31
0.0
  0
LINE
  5
EAEF
330
E9EE
100
AcDbEntity
  8
1
  6
Continuous
100
AcDbLine
 10
145.9387509999999
 20
133.55
 30
0.0
 11
144.561249
 21
133.55
 31
0.0
  0
LINE
  5
EAF0
330
E9EE
100
AcDbEntity
  8
1
  6
Continuous
100
AcDbLine
 10
141.438751
 20
134.25
 30
0.0
 11
140.061249
 21
134.25
 31
0.0
  0
LINE
  5
EAF1
330
E9EE
100
AcDbEntity
  8
1
  6
Continuous
100
AcDbLine
 10
145.9387509999999
 20
134.25
 30
0.0
 11
144.561249
 21
134.25
 31
0.0
  0
CIRCLE
  5
EAF2
330
E9EE
100
AcDbEntity
  8
1
  6
Continuous
100
AcDbCircle
 10
138.5
 20
133.9
 30
0.0
 40
1.6
  0
CIRCLE
  5
EAF3
330
E9EE
100
AcDbEntity
  8
1
  6
Continuous
100
AcDbCircle
 10
143.0
 20
133.9
 30
0.0
 40
1.6
  0
CIRCLE
  5
EAF4
330
E9EE
100
AcDbEntity
  8
1
  6
Continuous
100
AcDbCircle
 10
134.0
 20
133.9
 30
0.0
 40
1.6
  0
LINE
  5
EAF5
330
E9EE
100
AcDbEntity
  8
1
  6
Continuous
100
AcDbLine
 10
136.9387509999999
 20
133.55
 30
0.0
 11
135.561249
 21
133.55
 31
0.0
  0
LINE
  5
EAF6
330
E9EE
100
AcDbEntity
  8
1
  6
Continuous
100
AcDbLine
 10
136.9387509999999
 20
134.25
 30
0.0
 11
135.561249
 21
134.25
 31
0.0
  0
CIRCLE
  5
EAF7
330
E9EE
100
AcDbEntity
  8
1
  6
Continuous
100
AcDbCircle
 10
210.4999999999999
 20
133.9
 30
0.0
 40
1.6
  0
CIRCLE
  5
EAF8
330
E9EE
100
AcDbEntity
  8
1
  6
Continuous
100
AcDbCircle
 10
179.0
 20
133.9
 30
0.0
 40
1.6
  0
LINE
  5
EAF9
330
E9EE
100
AcDbEntity
  8
1
  6
Continuous
100
AcDbLine
 10
163.9387509999999
 20
133.55
 30
0.0
 11
162.5612489999998
 21
133.55
 31
0.0
  0
LINE
  5
EAFA
330
E9EE
100
AcDbEntity
  8
1
  6
Continuous
100
AcDbLine
 10
163.9387509999999
 20
134.25
 30
0.0
 11
162.5612489999998
 21
134.25
 31
0.0
  0
LINE
  5
EAFB
330
E9EE
100
AcDbEntity
  8
1
  6
Continuous
100
AcDbLine
 10
154.938751
 20
133.55
 30
0.0
 11
153.561249
 21
133.55
 31
0.0
  0
LINE
  5
EAFC
330
E9EE
100
AcDbEntity
  8
1
  6
Continuous
100
AcDbLine
 10
159.4387509999999
 20
133.55
 30
0.0
 11
158.061249
 21
133.55
 31
0.0
  0
LINE
  5
EAFD
330
E9EE
100
AcDbEntity
  8
1
  6
Continuous
100
AcDbLine
 10
150.4387509999999
 20
133.55
 30
0.0
 11
149.061249
 21
133.55
 31
0.0
  0
LINE
  5
EAFE
330
E9EE
100
AcDbEntity
  8
1
  6
Continuous
100
AcDbLine
 10
154.938751
 20
134.25
 30
0.0
 11
153.561249
 21
134.25
 31
0.0
  0
LINE
  5
EAFF
330
E9EE
100
AcDbEntity
  8
1
  6
Continuous
100
AcDbLine
 10
159.4387509999999
 20
134.25
 30
0.0
 11
158.061249
 21
134.25
 31
0.0
  0
LINE
  5
EB00
330
E9EE
100
AcDbEntity
  8
1
  6
Continuous
100
AcDbLine
 10
150.4387509999999
 20
134.25
 30
0.0
 11
149.061249
 21
134.25
 31
0.0
  0
CIRCLE
  5
EB01
330
E9EE
100
AcDbEntity
  8
1
  6
Continuous
100
AcDbCircle
 10
161.0
 20
133.9
 30
0.0
 40
1.6
  0
CIRCLE
  5
EB02
330
E9EE
100
AcDbEntity
  8
1
  6
Continuous
100
AcDbCircle
 10
156.4999999999998
 20
133.9
 30
0.0
 40
1.6
  0
CIRCLE
  5
EB03
330
E9EE
100
AcDbEntity
  8
1
  6
Continuous
100
AcDbCircle
 10
152.0
 20
133.9
 30
0.0
 40
1.6
  0
LINE
  5
EB04
330
E9EE
100
AcDbEntity
  8
1
  6
Continuous
100
AcDbLine
 10
172.938751
 20
133.55
 30
0.0
 11
171.561249
 21
133.55
 31
0.0
  0
LINE
  5
EB05
330
E9EE
100
AcDbEntity
  8
1
  6
Continuous
100
AcDbLine
 10
177.4387509999999
 20
133.55
 30
0.0
 11
176.0612489999998
 21
133.55
 31
0.0
  0
LINE
  5
EB06
330
E9EE
100
AcDbEntity
  8
1
  6
Continuous
100
AcDbLine
 10
168.438751
 20
133.55
 30
0.0
 11
167.061249
 21
133.55
 31
0.0
  0
LINE
  5
EB07
330
E9EE
100
AcDbEntity
  8
1
  6
Continuous
100
AcDbLine
 10
172.938751
 20
134.25
 30
0.0
 11
171.561249
 21
134.25
 31
0.0
  0
LINE
  5
EB08
330
E9EE
100
AcDbEntity
  8
1
  6
Continuous
100
AcDbLine
 10
177.4387509999999
 20
134.25
 30
0.0
 11
176.0612489999998
 21
134.25
 31
0.0
  0
LINE
  5
EB09
330
E9EE
100
AcDbEntity
  8
1
  6
Continuous
100
AcDbLine
 10
168.438751
 20
134.25
 30
0.0
 11
167.061249
 21
134.25
 31
0.0
  0
CIRCLE
  5
EB0A
330
E9EE
100
AcDbEntity
  8
1
  6
Continuous
100
AcDbCircle
 10
170.0
 20
133.9
 30
0.0
 40
1.6
  0
CIRCLE
  5
EB0B
330
E9EE
100
AcDbEntity
  8
1
  6
Continuous
100
AcDbCircle
 10
174.5
 20
133.9
 30
0.0
 40
1.6
  0
CIRCLE
  5
EB0C
330
E9EE
100
AcDbEntity
  8
1
  6
Continuous
100
AcDbCircle
 10
165.5
 20
133.9
 30
0.0
 40
1.6
  0
LINE
  5
EB0D
330
E9EE
100
AcDbEntity
  8
1
  6
Continuous
100
AcDbLine
 10
195.438751
 20
133.55
 30
0.0
 11
194.061249
 21
133.55
 31
0.0
  0
LINE
  5
EB0E
330
E9EE
100
AcDbEntity
  8
1
  6
Continuous
100
AcDbLine
 10
195.438751
 20
134.25
 30
0.0
 11
194.061249
 21
134.25
 31
0.0
  0
LINE
  5
EB0F
330
E9EE
100
AcDbEntity
  8
1
  6
Continuous
100
AcDbLine
 10
186.438751
 20
133.55
 30
0.0
 11
185.0612489999998
 21
133.55
 31
0.0
  0
LINE
  5
EB10
330
E9EE
100
AcDbEntity
  8
1
  6
Continuous
100
AcDbLine
 10
190.9387509999999
 20
133.55
 30
0.0
 11
189.5612489999998
 21
133.55
 31
0.0
  0
LINE
  5
EB11
330
E9EE
100
AcDbEntity
  8
1
  6
Continuous
100
AcDbLine
 10
181.938751
 20
133.55
 30
0.0
 11
180.561249
 21
133.55
 31
0.0
  0
LINE
  5
EB12
330
E9EE
100
AcDbEntity
  8
1
  6
Continuous
100
AcDbLine
 10
186.438751
 20
134.25
 30
0.0
 11
185.0612489999998
 21
134.25
 31
0.0
  0
LINE
  5
EB13
330
E9EE
100
AcDbEntity
  8
1
  6
Continuous
100
AcDbLine
 10
190.9387509999999
 20
134.25
 30
0.0
 11
189.5612489999998
 21
134.25
 31
0.0
  0
LINE
  5
EB14
330
E9EE
100
AcDbEntity
  8
1
  6
Continuous
100
AcDbLine
 10
181.938751
 20
134.25
 30
0.0
 11
180.561249
 21
134.25
 31
0.0
  0
CIRCLE
  5
EB15
330
E9EE
100
AcDbEntity
  8
1
  6
Continuous
100
AcDbCircle
 10
192.5
 20
133.9
 30
0.0
 40
1.6
  0
CIRCLE
  5
EB16
330
E9EE
100
AcDbEntity
  8
1
  6
Continuous
100
AcDbCircle
 10
183.4999999999998
 20
133.9
 30
0.0
 40
1.6
  0
CIRCLE
  5
EB17
330
E9EE
100
AcDbEntity
  8
1
  6
Continuous
100
AcDbCircle
 10
188.0
 20
133.9
 30
0.0
 40
1.6
  0
LINE
  5
EB18
330
E9EE
100
AcDbEntity
  8
1
  6
Continuous
100
AcDbLine
 10
204.4387509999999
 20
133.55
 30
0.0
 11
203.061249
 21
133.55
 31
0.0
  0
LINE
  5
EB19
330
E9EE
100
AcDbEntity
  8
1
  6
Continuous
100
AcDbLine
 10
208.9387509999999
 20
133.55
 30
0.0
 11
207.561249
 21
133.55
 31
0.0
  0
LINE
  5
EB1A
330
E9EE
100
AcDbEntity
  8
1
  6
Continuous
100
AcDbLine
 10
204.4387509999999
 20
134.25
 30
0.0
 11
203.061249
 21
134.25
 31
0.0
  0
LINE
  5
EB1B
330
E9EE
100
AcDbEntity
  8
1
  6
Continuous
100
AcDbLine
 10
208.9387509999999
 20
134.25
 30
0.0
 11
207.561249
 21
134.25
 31
0.0
  0
CIRCLE
  5
EB1C
330
E9EE
100
AcDbEntity
  8
1
  6
Continuous
100
AcDbCircle
 10
206.0
 20
133.9
 30
0.0
 40
1.6
  0
CIRCLE
  5
EB1D
330
E9EE
100
AcDbEntity
  8
1
  6
Continuous
100
AcDbCircle
 10
201.5
 20
133.9
 30
0.0
 40
1.6
  0
CIRCLE
  5
EB1E
330
E9EE
100
AcDbEntity
  8
1
  6
Continuous
100
AcDbCircle
 10
197.0
 20
133.9
 30
0.0
 40
1.6
  0
LINE
  5
EB1F
330
E9EE
100
AcDbEntity
  8
1
  6
Continuous
100
AcDbLine
 10
199.938751
 20
133.55
 30
0.0
 11
198.561249
 21
133.55
 31
0.0
  0
LINE
  5
EB20
330
E9EE
100
AcDbEntity
  8
1
  6
Continuous
100
AcDbLine
 10
199.938751
 20
134.25
 30
0.0
 11
198.561249
 21
134.25
 31
0.0
  0
LINE
  5
EB21
330
E9EE
100
AcDbEntity
  8
1
  6
Continuous
100
AcDbLine
 10
222.4387509999999
 20
134.25
 30
0.0
 11
221.061249
 21
134.25
 31
0.0
  0
LINE
  5
EB22
330
E9EE
100
AcDbEntity
  8
1
  6
Continuous
100
AcDbLine
 10
222.4387509999999
 20
133.55
 30
0.0
 11
221.061249
 21
133.55
 31
0.0
  0
LINE
  5
EB23
330
E9EE
100
AcDbEntity
  8
1
  6
Continuous
100
AcDbLine
 10
217.9387509999999
 20
134.25
 30
0.0
 11
216.561249
 21
134.25
 31
0.0
  0
LINE
  5
EB24
330
E9EE
100
AcDbEntity
  8
1
  6
Continuous
100
AcDbLine
 10
217.9387509999999
 20
133.55
 30
0.0
 11
216.561249
 21
133.55
 31
0.0
  0
CIRCLE
  5
EB25
330
E9EE
100
AcDbEntity
  8
1
  6
Continuous
100
AcDbCircle
 10
219.4999999999998
 20
133.9
 30
0.0
 40
1.6
  0
LINE
  5
EB26
330
E9EE
100
AcDbEntity
  8
1
  6
Continuous
100
AcDbLine
 10
213.4387509999999
 20
133.55
 30
0.0
 11
212.061249
 21
133.55
 31
0.0
  0
LINE
  5
EB27
330
E9EE
100
AcDbEntity
  8
1
  6
Continuous
100
AcDbLine
 10
213.4387509999999
 20
134.25
 30
0.0
 11
212.061249
 21
134.25
 31
0.0
  0
CIRCLE
  5
EB28
330
E9EE
100
AcDbEntity
  8
1
  6
Continuous
100
AcDbCircle
 10
215.0
 20
133.9
 30
0.0
 40
1.6
  0
ARC
  5
EB29
330
E9EE
100
AcDbEntity
  8
1
  6
Continuous
100
AcDbCircle
 10
35.0
 20
133.9
 30
0.0
 40
1.6
100
AcDbArc
 50
345.522488
 51
14.47751199999999
  0
ARC
  5
EB2A
330
E9EE
100
AcDbEntity
  8
1
  6
Continuous
100
AcDbCircle
 10
35.0
 20
133.9
 30
0.0
 40
1.6
100
AcDbArc
 50
165.5224879999998
 51
194.4775119999999
  0
LINE
  5
EB2B
330
E9EE
100
AcDbEntity
  8
1
  6
Continuous
100
AcDbLine
 10
234.0
 20
89.25
 30
0.0
 11
226.8485569999998
 21
89.25
 31
0.0
  0
LINE
  5
EB2C
330
E9EE
100
AcDbEntity
  8
1
  6
Continuous
100
AcDbLine
 10
234.0
 20
88.45
 30
0.0
 11
226.8485569999998
 21
88.45
 31
0.0
  0
LINE
  5
EB2D
330
E9EE
100
AcDbEntity
  8
1
  6
Continuous
100
AcDbLine
 10
226.8485569999998
 20
88.84999999999998
 30
0.0
 11
234.0
 21
88.84999999999998
 31
0.0
  0
LINE
  5
EB2E
330
E9EE
100
AcDbEntity
  8
4
  6
CENTER
100
AcDbLine
 10
224.0
 20
92.05
 30
0.0
 11
224.0
 21
85.65000000000003
 31
0.0
  0
ARC
  5
EB2F
330
E9EE
100
AcDbEntity
  8
1
  6
Continuous
100
AcDbCircle
 10
224.25
 20
88.84999999999998
 30
0.0
 40
1.85
100
AcDbArc
 50
19.103324
 51
340.8966759999998
  0
ARC
  5
EB30
330
E9EE
100
AcDbEntity
  8
1
  6
Continuous
100
AcDbCircle
 10
224.25
 20
88.84999999999998
 30
0.0
 40
2.25
100
AcDbArc
 50
19.103324
 51
340.8966759999998
  0
CIRCLE
  5
EB31
330
E9EE
100
AcDbEntity
  8
1
  6
Continuous
100
AcDbCircle
 10
224.0
 20
88.84999999999998
 30
0.0
 40
1.6
  0
ARC
  5
EB32
330
E9EE
100
AcDbEntity
  8
1
  6
Continuous
100
AcDbCircle
 10
226.8485569999998
 20
89.74999999999999
 30
0.0
 40
0.9
100
AcDbArc
 50
199.1033239999999
 51
270.0
  0
ARC
  5
EB33
330
E9EE
100
AcDbEntity
  8
1
  6
Continuous
100
AcDbCircle
 10
226.8485569999998
 20
87.94999999999998
 30
0.0
 40
0.9
100
AcDbArc
 50
90.0
 51
160.896676
  0
ARC
  5
EB34
330
E9EE
100
AcDbEntity
  8
1
  6
Continuous
100
AcDbCircle
 10
226.8485569999998
 20
89.74999999999999
 30
0.0
 40
0.5
100
AcDbArc
 50
199.1033239999999
 51
270.0
  0
ARC
  5
EB35
330
E9EE
100
AcDbEntity
  8
1
  6
Continuous
100
AcDbCircle
 10
226.8485569999998
 20
87.94999999999998
 30
0.0
 40
0.5
100
AcDbArc
 50
90.0
 51
160.896676
  0
LINE
  5
EB36
330
E9EE
100
AcDbEntity
  8
1
  6
Continuous
100
AcDbLine
 10
234.0
 20
89.25
 30
0.0
 11
234.0
 21
88.45
 31
0.0
  0
LINE
  5
EB37
330
E9EE
100
AcDbEntity
  8
4
  6
CENTER
100
AcDbLine
 10
231.1999999999999
 20
90.04999999999999
 30
0.0
 11
231.1999999999999
 21
87.65
 31
0.0
  0
LINE
  5
EB38
330
E9EE
100
AcDbEntity
  8
4
  6
CENTER
100
AcDbLine
 10
224.25
 20
84.34999999999998
 30
0.0
 11
224.25
 21
93.34999999999999
 31
0.0
  0
LINE
  5
EB39
330
E9EE
100
AcDbEntity
  8
4
  6
CENTER
100
AcDbLine
 10
224.0
 20
137.0999999999999
 30
0.0
 11
224.0
 21
130.6999999999999
 31
0.0
  0
LINE
  5
EB3A
330
E9EE
100
AcDbEntity
  8
4
  6
CENTER
100
AcDbLine
 10
224.25
 20
137.9
 30
0.0
 11
224.25
 21
129.9
 31
0.0
  0
LINE
  5
EB3B
330
E9EE
100
AcDbEntity
  8
4
  6
CENTER
100
AcDbLine
 10
231.1999999999999
 20
138.9499999999999
 30
0.0
 11
231.1999999999999
 21
128.8499999999999
 31
0.0
  0
ARC
  5
EB3C
330
E9EE
100
AcDbEntity
  8
1
  6
Continuous
100
AcDbCircle
 10
224.0
 20
133.9
 30
0.0
 40
1.6
100
AcDbArc
 50
345.522488
 51
14.47751199999999
  0
ARC
  5
EB3D
330
E9EE
100
AcDbEntity
  8
1
  6
Continuous
100
AcDbCircle
 10
224.0
 20
133.9
 30
0.0
 40
1.6
100
AcDbArc
 50
165.5224879999998
 51
194.4775119999999
  0
LINE
  5
EB3E
330
E9EE
100
AcDbEntity
  8
1
  6
Continuous
100
AcDbLine
 10
222.0
 20
135.8999999999997
 30
0.0
 11
222.0
 21
134.3
 31
0.0
  0
LINE
  5
EB3F
330
E9EE
100
AcDbEntity
  8
1
  6
Continuous
100
AcDbLine
 10
222.0
 20
133.4999999999998
 30
0.0
 11
222.0
 21
131.9
 31
0.0
  0
ARC
  5
EB40
330
E9EE
100
AcDbEntity
  8
1
  6
Continuous
100
AcDbCircle
 10
231.1999999999999
 20
133.9
 30
0.0
 40
2.799999999999998
100
AcDbArc
 50
225.584691
 51
134.415309
  0
CIRCLE
  5
EB41
330
E9EE
100
AcDbEntity
  8
1
  6
Continuous
100
AcDbCircle
 10
231.1999999999999
 20
133.9
 30
0.0
 40
1.649999999999999
  0
LINE
  5
EB42
330
E9EE
100
AcDbEntity
  8
1
  6
Continuous
100
AcDbLine
 10
226.5
 20
135.4999999999998
 30
0.0
 11
226.5
 21
134.6999999999999
 31
0.0
  0
LINE
  5
EB43
330
E9EE
100
AcDbEntity
  8
1
  6
Continuous
100
AcDbLine
 10
226.5
 20
133.0999999999999
 30
0.0
 11
226.5
 21
132.3
 31
0.0
  0
LINE
  5
EB44
330
E9EE
100
AcDbEntity
  8
1
  6
Continuous
100
AcDbLine
 10
222.0
 20
131.9
 30
0.0
 11
229.240408
 21
131.9
 31
0.0
  0
LINE
  5
EB45
330
E9EE
100
AcDbEntity
  8
1
  6
Continuous
100
AcDbLine
 10
222.0
 20
135.8999999999997
 30
0.0
 11
229.240408
 21
135.8999999999997
 31
0.0
  0
LINE
  5
EB46
330
E9EE
100
AcDbEntity
  8
1
  6
Continuous
100
AcDbLine
 10
222.0
 20
133.4999999999998
 30
0.0
 11
229.599219
 21
133.4999999999998
 31
0.0
  0
LINE
  5
EB47
330
E9EE
100
AcDbEntity
  8
1
  6
Continuous
100
AcDbLine
 10
222.0
 20
134.3
 30
0.0
 11
229.599219
 21
134.3
 31
0.0
  0
CIRCLE
  5
EB48
330
E9EE
100
AcDbEntity
  8
1
  6
Continuous
100
AcDbCircle
 10
231.1999999999999
 20
43.79999999999999
 30
0.0
 40
1.649999999999999
  0
ARC
  5
EB49
330
E9EE
100
AcDbEntity
  8
1
  6
Continuous
100
AcDbCircle
 10
231.1999999999999
 20
43.79999999999999
 30
0.0
 40
2.799999999999998
100
AcDbArc
 50
225.584691
 51
134.415309
  0
LINE
  5
EB4A
330
E9EE
100
AcDbEntity
  8
4
  6
CENTER
100
AcDbLine
 10
236.25
 20
43.79999999999999
 30
0.0
 11
22.74999999999999
 21
43.79999999999999
 31
0.0
  0
CIRCLE
  5
EB4B
330
E9EE
100
AcDbEntity
  8
1
  6
Continuous
100
AcDbCircle
 10
102.4999999999999
 20
43.79999999999999
 30
0.0
 40
1.6
  0
CIRCLE
  5
EB4C
330
E9EE
100
AcDbEntity
  8
1
  6
Continuous
100
AcDbCircle
 10
39.5
 20
43.79999999999999
 30
0.0
 40
1.6
  0
LINE
  5
EB4D
330
E9EE
100
AcDbEntity
  8
4
  6
CENTER
100
AcDbLine
 10
35.0
 20
40.6
 30
0.0
 11
35.0
 21
47.0
 31
0.0
  0
LINE
  5
EB4E
330
E9EE
100
AcDbEntity
  8
4
  6
CENTER
100
AcDbLine
 10
34.75
 20
39.8
 30
0.0
 11
34.75
 21
47.8
 31
0.0
  0
LINE
  5
EB4F
330
E9EE
100
AcDbEntity
  8
4
  6
CENTER
100
AcDbLine
 10
27.8
 20
38.75
 30
0.0
 11
27.8
 21
48.85
 31
0.0
  0
LINE
  5
EB50
330
E9EE
100
AcDbEntity
  8
1
  6
Continuous
100
AcDbLine
 10
37.0
 20
41.79999999999997
 30
0.0
 11
37.0
 21
43.39999999999998
 31
0.0
  0
LINE
  5
EB51
330
E9EE
100
AcDbEntity
  8
1
  6
Continuous
100
AcDbLine
 10
37.0
 20
44.2
 30
0.0
 11
37.0
 21
45.8
 31
0.0
  0
LINE
  5
EB52
330
E9EE
100
AcDbEntity
  8
1
  6
Continuous
100
AcDbLine
 10
37.93875100000001
 20
44.15
 30
0.0
 11
36.561249
 21
44.15
 31
0.0
  0
LINE
  5
EB53
330
E9EE
100
AcDbEntity
  8
1
  6
Continuous
100
AcDbLine
 10
37.93875100000001
 20
43.45
 30
0.0
 11
36.561249
 21
43.45
 31
0.0
  0
ARC
  5
EB54
330
E9EE
100
AcDbEntity
  8
1
  6
Continuous
100
AcDbCircle
 10
27.8
 20
43.79999999999999
 30
0.0
 40
2.799999999999998
100
AcDbArc
 50
45.58469099999999
 51
314.4153089999999
  0
CIRCLE
  5
EB55
330
E9EE
100
AcDbEntity
  8
1
  6
Continuous
100
AcDbCircle
 10
27.8
 20
43.79999999999999
 30
0.0
 40
1.649999999999999
  0
LINE
  5
EB56
330
E9EE
100
AcDbEntity
  8
1
  6
Continuous
100
AcDbLine
 10
32.5
 20
42.2
 30
0.0
 11
32.5
 21
45.4
 31
0.0
  0
LINE
  5
EB57
330
E9EE
100
AcDbEntity
  8
1
  6
Continuous
100
AcDbLine
 10
37.0
 20
45.8
 30
0.0
 11
29.759592
 21
45.8
 31
0.0
  0
LINE
  5
EB58
330
E9EE
100
AcDbEntity
  8
1
  6
Continuous
100
AcDbLine
 10
37.0
 20
41.79999999999997
 30
0.0
 11
29.759592
 21
41.79999999999997
 31
0.0
  0
LINE
  5
EB59
330
E9EE
100
AcDbEntity
  8
1
  6
Continuous
100
AcDbLine
 10
37.0
 20
44.2
 30
0.0
 11
35.5
 21
44.2
 31
0.0
  0
LINE
  5
EB5A
330
E9EE
100
AcDbEntity
  8
1
  6
Continuous
100
AcDbLine
 10
37.0
 20
43.39999999999998
 30
0.0
 11
35.5
 21
43.39999999999998
 31
0.0
  0
CIRCLE
  5
EB5B
330
E9EE
100
AcDbEntity
  8
1
  6
Continuous
100
AcDbCircle
 10
71.0
 20
43.79999999999999
 30
0.0
 40
1.6
  0
CIRCLE
  5
EB5C
330
E9EE
100
AcDbEntity
  8
1
  6
Continuous
100
AcDbCircle
 10
53.0
 20
43.79999999999999
 30
0.0
 40
1.6
  0
CIRCLE
  5
EB5D
330
E9EE
100
AcDbEntity
  8
1
  6
Continuous
100
AcDbCircle
 10
48.5
 20
43.79999999999999
 30
0.0
 40
1.6
  0
CIRCLE
  5
EB5E
330
E9EE
100
AcDbEntity
  8
1
  6
Continuous
100
AcDbCircle
 10
44.0
 20
43.79999999999999
 30
0.0
 40
1.6
  0
LINE
  5
EB5F
330
E9EE
100
AcDbEntity
  8
1
  6
Continuous
100
AcDbLine
 10
51.438751
 20
43.45
 30
0.0
 11
50.06124899999999
 21
43.45
 31
0.0
  0
LINE
  5
EB60
330
E9EE
100
AcDbEntity
  8
1
  6
Continuous
100
AcDbLine
 10
46.938751
 20
43.45
 30
0.0
 11
45.56124899999999
 21
43.45
 31
0.0
  0
LINE
  5
EB61
330
E9EE
100
AcDbEntity
  8
1
  6
Continuous
100
AcDbLine
 10
42.438751
 20
43.45
 30
0.0
 11
41.061249
 21
43.45
 31
0.0
  0
LINE
  5
EB62
330
E9EE
100
AcDbEntity
  8
1
  6
Continuous
100
AcDbLine
 10
51.438751
 20
44.15
 30
0.0
 11
50.06124899999999
 21
44.15
 31
0.0
  0
LINE
  5
EB63
330
E9EE
100
AcDbEntity
  8
1
  6
Continuous
100
AcDbLine
 10
46.938751
 20
44.15
 30
0.0
 11
45.56124899999999
 21
44.15
 31
0.0
  0
LINE
  5
EB64
330
E9EE
100
AcDbEntity
  8
1
  6
Continuous
100
AcDbLine
 10
42.438751
 20
44.15
 30
0.0
 11
41.061249
 21
44.15
 31
0.0
  0
LINE
  5
EB65
330
E9EE
100
AcDbEntity
  8
1
  6
Continuous
100
AcDbLine
 10
69.43875099999999
 20
43.45
 30
0.0
 11
68.061249
 21
43.45
 31
0.0
  0
LINE
  5
EB66
330
E9EE
100
AcDbEntity
  8
1
  6
Continuous
100
AcDbLine
 10
69.43875099999999
 20
44.15
 30
0.0
 11
68.061249
 21
44.15
 31
0.0
  0
CIRCLE
  5
EB67
330
E9EE
100
AcDbEntity
  8
1
  6
Continuous
100
AcDbCircle
 10
62.0
 20
43.79999999999999
 30
0.0
 40
1.6
  0
CIRCLE
  5
EB68
330
E9EE
100
AcDbEntity
  8
1
  6
Continuous
100
AcDbCircle
 10
57.5
 20
43.79999999999999
 30
0.0
 40
1.6
  0
LINE
  5
EB69
330
E9EE
100
AcDbEntity
  8
1
  6
Continuous
100
AcDbLine
 10
55.938751
 20
43.45
 30
0.0
 11
54.56124899999998
 21
43.45
 31
0.0
  0
LINE
  5
EB6A
330
E9EE
100
AcDbEntity
  8
1
  6
Continuous
100
AcDbLine
 10
64.938751
 20
43.45
 30
0.0
 11
63.561249
 21
43.45
 31
0.0
  0
LINE
  5
EB6B
330
E9EE
100
AcDbEntity
  8
1
  6
Continuous
100
AcDbLine
 10
60.43875100000001
 20
43.45
 30
0.0
 11
59.061249
 21
43.45
 31
0.0
  0
LINE
  5
EB6C
330
E9EE
100
AcDbEntity
  8
1
  6
Continuous
100
AcDbLine
 10
55.938751
 20
44.15
 30
0.0
 11
54.56124899999998
 21
44.15
 31
0.0
  0
LINE
  5
EB6D
330
E9EE
100
AcDbEntity
  8
1
  6
Continuous
100
AcDbLine
 10
64.938751
 20
44.15
 30
0.0
 11
63.561249
 21
44.15
 31
0.0
  0
LINE
  5
EB6E
330
E9EE
100
AcDbEntity
  8
1
  6
Continuous
100
AcDbLine
 10
60.43875100000001
 20
44.15
 30
0.0
 11
59.061249
 21
44.15
 31
0.0
  0
CIRCLE
  5
EB6F
330
E9EE
100
AcDbEntity
  8
1
  6
Continuous
100
AcDbCircle
 10
66.5
 20
43.79999999999999
 30
0.0
 40
1.6
  0
LINE
  5
EB70
330
E9EE
100
AcDbEntity
  8
1
  6
Continuous
100
AcDbLine
 10
87.43875099999998
 20
43.45
 30
0.0
 11
86.06124900000002
 21
43.45
 31
0.0
  0
LINE
  5
EB71
330
E9EE
100
AcDbEntity
  8
1
  6
Continuous
100
AcDbLine
 10
87.43875099999998
 20
44.15
 30
0.0
 11
86.06124900000002
 21
44.15
 31
0.0
  0
CIRCLE
  5
EB72
330
E9EE
100
AcDbEntity
  8
1
  6
Continuous
100
AcDbCircle
 10
84.50000000000001
 20
43.79999999999999
 30
0.0
 40
1.6
  0
CIRCLE
  5
EB73
330
E9EE
100
AcDbEntity
  8
1
  6
Continuous
100
AcDbCircle
 10
75.5
 20
43.79999999999999
 30
0.0
 40
1.6
  0
CIRCLE
  5
EB74
330
E9EE
100
AcDbEntity
  8
1
  6
Continuous
100
AcDbCircle
 10
80.0
 20
43.79999999999999
 30
0.0
 40
1.6
  0
LINE
  5
EB75
330
E9EE
100
AcDbEntity
  8
1
  6
Continuous
100
AcDbLine
 10
82.93875099999999
 20
43.45
 30
0.0
 11
81.561249
 21
43.45
 31
0.0
  0
LINE
  5
EB76
330
E9EE
100
AcDbEntity
  8
1
  6
Continuous
100
AcDbLine
 10
78.43875099999998
 20
43.45
 30
0.0
 11
77.061249
 21
43.45
 31
0.0
  0
LINE
  5
EB77
330
E9EE
100
AcDbEntity
  8
1
  6
Continuous
100
AcDbLine
 10
73.93875099999998
 20
43.45
 30
0.0
 11
72.561249
 21
43.45
 31
0.0
  0
LINE
  5
EB78
330
E9EE
100
AcDbEntity
  8
1
  6
Continuous
100
AcDbLine
 10
82.93875099999999
 20
44.15
 30
0.0
 11
81.561249
 21
44.15
 31
0.0
  0
LINE
  5
EB79
330
E9EE
100
AcDbEntity
  8
1
  6
Continuous
100
AcDbLine
 10
78.43875099999998
 20
44.15
 30
0.0
 11
77.061249
 21
44.15
 31
0.0
  0
LINE
  5
EB7A
330
E9EE
100
AcDbEntity
  8
1
  6
Continuous
100
AcDbLine
 10
73.93875099999998
 20
44.15
 30
0.0
 11
72.561249
 21
44.15
 31
0.0
  0
LINE
  5
EB7B
330
E9EE
100
AcDbEntity
  8
1
  6
Continuous
100
AcDbLine
 10
100.938751
 20
43.45
 30
0.0
 11
99.561249
 21
43.45
 31
0.0
  0
LINE
  5
EB7C
330
E9EE
100
AcDbEntity
  8
1
  6
Continuous
100
AcDbLine
 10
100.938751
 20
44.15
 30
0.0
 11
99.561249
 21
44.15
 31
0.0
  0
CIRCLE
  5
EB7D
330
E9EE
100
AcDbEntity
  8
1
  6
Continuous
100
AcDbCircle
 10
89.0
 20
43.79999999999999
 30
0.0
 40
1.6
  0
CIRCLE
  5
EB7E
330
E9EE
100
AcDbEntity
  8
1
  6
Continuous
100
AcDbCircle
 10
93.49999999999999
 20
43.79999999999999
 30
0.0
 40
1.6
  0
LINE
  5
EB7F
330
E9EE
100
AcDbEntity
  8
1
  6
Continuous
100
AcDbLine
 10
96.438751
 20
43.45
 30
0.0
 11
95.06124900000001
 21
43.45
 31
0.0
  0
LINE
  5
EB80
330
E9EE
100
AcDbEntity
  8
1
  6
Continuous
100
AcDbLine
 10
91.93875099999999
 20
43.45
 30
0.0
 11
90.561249
 21
43.45
 31
0.0
  0
LINE
  5
EB81
330
E9EE
100
AcDbEntity
  8
1
  6
Continuous
100
AcDbLine
 10
96.438751
 20
44.15
 30
0.0
 11
95.06124900000001
 21
44.15
 31
0.0
  0
LINE
  5
EB82
330
E9EE
100
AcDbEntity
  8
1
  6
Continuous
100
AcDbLine
 10
91.93875099999999
 20
44.15
 30
0.0
 11
90.561249
 21
44.15
 31
0.0
  0
CIRCLE
  5
EB83
330
E9EE
100
AcDbEntity
  8
1
  6
Continuous
100
AcDbCircle
 10
98.0
 20
43.79999999999999
 30
0.0
 40
1.6
  0
CIRCLE
  5
EB84
330
E9EE
100
AcDbEntity
  8
1
  6
Continuous
100
AcDbCircle
 10
165.5
 20
43.79999999999999
 30
0.0
 40
1.6
  0
CIRCLE
  5
EB85
330
E9EE
100
AcDbEntity
  8
1
  6
Continuous
100
AcDbCircle
 10
134.0
 20
43.79999999999999
 30
0.0
 40
1.6
  0
LINE
  5
EB86
330
E9EE
100
AcDbEntity
  8
1
  6
Continuous
100
AcDbLine
 10
118.9387509999999
 20
43.45
 30
0.0
 11
117.561249
 21
43.45
 31
0.0
  0
LINE
  5
EB87
330
E9EE
100
AcDbEntity
  8
1
  6
Continuous
100
AcDbLine
 10
118.9387509999999
 20
44.15
 30
0.0
 11
117.561249
 21
44.15
 31
0.0
  0
CIRCLE
  5
EB88
330
E9EE
100
AcDbEntity
  8
1
  6
Continuous
100
AcDbCircle
 10
111.4999999999999
 20
43.79999999999999
 30
0.0
 40
1.6
  0
CIRCLE
  5
EB89
330
E9EE
100
AcDbEntity
  8
1
  6
Continuous
100
AcDbCircle
 10
107.0
 20
43.79999999999999
 30
0.0
 40
1.6
  0
LINE
  5
EB8A
330
E9EE
100
AcDbEntity
  8
1
  6
Continuous
100
AcDbLine
 10
105.4387509999999
 20
43.45
 30
0.0
 11
104.061249
 21
43.45
 31
0.0
  0
LINE
  5
EB8B
330
E9EE
100
AcDbEntity
  8
1
  6
Continuous
100
AcDbLine
 10
114.438751
 20
43.45
 30
0.0
 11
113.061249
 21
43.45
 31
0.0
  0
LINE
  5
EB8C
330
E9EE
100
AcDbEntity
  8
1
  6
Continuous
100
AcDbLine
 10
109.9387509999999
 20
43.45
 30
0.0
 11
108.561249
 21
43.45
 31
0.0
  0
LINE
  5
EB8D
330
E9EE
100
AcDbEntity
  8
1
  6
Continuous
100
AcDbLine
 10
105.4387509999999
 20
44.15
 30
0.0
 11
104.061249
 21
44.15
 31
0.0
  0
LINE
  5
EB8E
330
E9EE
100
AcDbEntity
  8
1
  6
Continuous
100
AcDbLine
 10
114.438751
 20
44.15
 30
0.0
 11
113.061249
 21
44.15
 31
0.0
  0
LINE
  5
EB8F
330
E9EE
100
AcDbEntity
  8
1
  6
Continuous
100
AcDbLine
 10
109.9387509999999
 20
44.15
 30
0.0
 11
108.561249
 21
44.15
 31
0.0
  0
CIRCLE
  5
EB90
330
E9EE
100
AcDbEntity
  8
1
  6
Continuous
100
AcDbCircle
 10
116.0
 20
43.79999999999999
 30
0.0
 40
1.6
  0
CIRCLE
  5
EB91
330
E9EE
100
AcDbEntity
  8
1
  6
Continuous
100
AcDbCircle
 10
129.4999999999998
 20
43.79999999999999
 30
0.0
 40
1.6
  0
CIRCLE
  5
EB92
330
E9EE
100
AcDbEntity
  8
1
  6
Continuous
100
AcDbCircle
 10
120.5
 20
43.79999999999999
 30
0.0
 40
1.6
  0
CIRCLE
  5
EB93
330
E9EE
100
AcDbEntity
  8
1
  6
Continuous
100
AcDbCircle
 10
125.0
 20
43.79999999999999
 30
0.0
 40
1.6
  0
LINE
  5
EB94
330
E9EE
100
AcDbEntity
  8
1
  6
Continuous
100
AcDbLine
 10
127.938751
 20
43.45
 30
0.0
 11
126.561249
 21
43.45
 31
0.0
  0
LINE
  5
EB95
330
E9EE
100
AcDbEntity
  8
1
  6
Continuous
100
AcDbLine
 10
123.4387509999999
 20
43.45
 30
0.0
 11
122.061249
 21
43.45
 31
0.0
  0
LINE
  5
EB96
330
E9EE
100
AcDbEntity
  8
1
  6
Continuous
100
AcDbLine
 10
127.938751
 20
44.15
 30
0.0
 11
126.561249
 21
44.15
 31
0.0
  0
LINE
  5
EB97
330
E9EE
100
AcDbEntity
  8
1
  6
Continuous
100
AcDbLine
 10
123.4387509999999
 20
44.15
 30
0.0
 11
122.061249
 21
44.15
 31
0.0
  0
LINE
  5
EB98
330
E9EE
100
AcDbEntity
  8
1
  6
Continuous
100
AcDbLine
 10
132.4387509999999
 20
43.45
 30
0.0
 11
131.061249
 21
43.45
 31
0.0
  0
LINE
  5
EB99
330
E9EE
100
AcDbEntity
  8
1
  6
Continuous
100
AcDbLine
 10
132.4387509999999
 20
44.15
 30
0.0
 11
131.061249
 21
44.15
 31
0.0
  0
LINE
  5
EB9A
330
E9EE
100
AcDbEntity
  8
1
  6
Continuous
100
AcDbLine
 10
150.4387509999999
 20
43.45
 30
0.0
 11
149.061249
 21
43.45
 31
0.0
  0
LINE
  5
EB9B
330
E9EE
100
AcDbEntity
  8
1
  6
Continuous
100
AcDbLine
 10
150.4387509999999
 20
44.15
 30
0.0
 11
149.061249
 21
44.15
 31
0.0
  0
LINE
  5
EB9C
330
E9EE
100
AcDbEntity
  8
1
  6
Continuous
100
AcDbLine
 10
136.9387509999999
 20
43.45
 30
0.0
 11
135.561249
 21
43.45
 31
0.0
  0
LINE
  5
EB9D
330
E9EE
100
AcDbEntity
  8
1
  6
Continuous
100
AcDbLine
 10
136.9387509999999
 20
44.15
 30
0.0
 11
135.561249
 21
44.15
 31
0.0
  0
CIRCLE
  5
EB9E
330
E9EE
100
AcDbEntity
  8
1
  6
Continuous
100
AcDbCircle
 10
143.0
 20
43.79999999999999
 30
0.0
 40
1.6
  0
CIRCLE
  5
EB9F
330
E9EE
100
AcDbEntity
  8
1
  6
Continuous
100
AcDbCircle
 10
138.5
 20
43.79999999999999
 30
0.0
 40
1.6
  0
LINE
  5
EBA0
330
E9EE
100
AcDbEntity
  8
1
  6
Continuous
100
AcDbLine
 10
145.9387509999999
 20
43.45
 30
0.0
 11
144.561249
 21
43.45
 31
0.0
  0
LINE
  5
EBA1
330
E9EE
100
AcDbEntity
  8
1
  6
Continuous
100
AcDbLine
 10
141.438751
 20
43.45
 30
0.0
 11
140.061249
 21
43.45
 31
0.0
  0
LINE
  5
EBA2
330
E9EE
100
AcDbEntity
  8
1
  6
Continuous
100
AcDbLine
 10
145.9387509999999
 20
44.15
 30
0.0
 11
144.561249
 21
44.15
 31
0.0
  0
LINE
  5
EBA3
330
E9EE
100
AcDbEntity
  8
1
  6
Continuous
100
AcDbLine
 10
141.438751
 20
44.15
 30
0.0
 11
140.061249
 21
44.15
 31
0.0
  0
CIRCLE
  5
EBA4
330
E9EE
100
AcDbEntity
  8
1
  6
Continuous
100
AcDbCircle
 10
147.5
 20
43.79999999999999
 30
0.0
 40
1.6
  0
CIRCLE
  5
EBA5
330
E9EE
100
AcDbEntity
  8
1
  6
Continuous
100
AcDbCircle
 10
152.0
 20
43.79999999999999
 30
0.0
 40
1.6
  0
CIRCLE
  5
EBA6
330
E9EE
100
AcDbEntity
  8
1
  6
Continuous
100
AcDbCircle
 10
156.4999999999998
 20
43.79999999999999
 30
0.0
 40
1.6
  0
CIRCLE
  5
EBA7
330
E9EE
100
AcDbEntity
  8
1
  6
Continuous
100
AcDbCircle
 10
161.0
 20
43.79999999999999
 30
0.0
 40
1.6
  0
LINE
  5
EBA8
330
E9EE
100
AcDbEntity
  8
1
  6
Continuous
100
AcDbLine
 10
159.4387509999999
 20
43.45
 30
0.0
 11
158.061249
 21
43.45
 31
0.0
  0
LINE
  5
EBA9
330
E9EE
100
AcDbEntity
  8
1
  6
Continuous
100
AcDbLine
 10
154.938751
 20
43.45
 30
0.0
 11
153.561249
 21
43.45
 31
0.0
  0
LINE
  5
EBAA
330
E9EE
100
AcDbEntity
  8
1
  6
Continuous
100
AcDbLine
 10
159.4387509999999
 20
44.15
 30
0.0
 11
158.061249
 21
44.15
 31
0.0
  0
LINE
  5
EBAB
330
E9EE
100
AcDbEntity
  8
1
  6
Continuous
100
AcDbLine
 10
154.938751
 20
44.15
 30
0.0
 11
153.561249
 21
44.15
 31
0.0
  0
LINE
  5
EBAC
330
E9EE
100
AcDbEntity
  8
1
  6
Continuous
100
AcDbLine
 10
163.9387509999999
 20
43.45
 30
0.0
 11
162.5612489999998
 21
43.45
 31
0.0
  0
LINE
  5
EBAD
330
E9EE
100
AcDbEntity
  8
1
  6
Continuous
100
AcDbLine
 10
163.9387509999999
 20
44.15
 30
0.0
 11
162.5612489999998
 21
44.15
 31
0.0
  0
LINE
  5
EBAE
330
E9EE
100
AcDbEntity
  8
4
  6
CENTER
100
AcDbLine
 10
224.25
 20
39.8
 30
0.0
 11
224.25
 21
47.8
 31
0.0
  0
LINE
  5
EBAF
330
E9EE
100
AcDbEntity
  8
4
  6
CENTER
100
AcDbLine
 10
224.0
 20
40.6
 30
0.0
 11
224.0
 21
47.0
 31
0.0
  0
CIRCLE
  5
EBB0
330
E9EE
100
AcDbEntity
  8
1
  6
Continuous
100
AcDbCircle
 10
197.0
 20
43.79999999999999
 30
0.0
 40
1.6
  0
LINE
  5
EBB1
330
E9EE
100
AcDbEntity
  8
1
  6
Continuous
100
AcDbLine
 10
181.938751
 20
43.45
 30
0.0
 11
180.561249
 21
43.45
 31
0.0
  0
LINE
  5
EBB2
330
E9EE
100
AcDbEntity
  8
1
  6
Continuous
100
AcDbLine
 10
181.938751
 20
44.15
 30
0.0
 11
180.561249
 21
44.15
 31
0.0
  0
CIRCLE
  5
EBB3
330
E9EE
100
AcDbEntity
  8
1
  6
Continuous
100
AcDbCircle
 10
174.5
 20
43.79999999999999
 30
0.0
 40
1.6
  0
CIRCLE
  5
EBB4
330
E9EE
100
AcDbEntity
  8
1
  6
Continuous
100
AcDbCircle
 10
170.0
 20
43.79999999999999
 30
0.0
 40
1.6
  0
LINE
  5
EBB5
330
E9EE
100
AcDbEntity
  8
1
  6
Continuous
100
AcDbLine
 10
168.438751
 20
43.45
 30
0.0
 11
167.061249
 21
43.45
 31
0.0
  0
LINE
  5
EBB6
330
E9EE
100
AcDbEntity
  8
1
  6
Continuous
100
AcDbLine
 10
177.4387509999999
 20
43.45
 30
0.0
 11
176.0612489999998
 21
43.45
 31
0.0
  0
LINE
  5
EBB7
330
E9EE
100
AcDbEntity
  8
1
  6
Continuous
100
AcDbLine
 10
172.938751
 20
43.45
 30
0.0
 11
171.561249
 21
43.45
 31
0.0
  0
LINE
  5
EBB8
330
E9EE
100
AcDbEntity
  8
1
  6
Continuous
100
AcDbLine
 10
168.438751
 20
44.15
 30
0.0
 11
167.061249
 21
44.15
 31
0.0
  0
LINE
  5
EBB9
330
E9EE
100
AcDbEntity
  8
1
  6
Continuous
100
AcDbLine
 10
177.4387509999999
 20
44.15
 30
0.0
 11
176.0612489999998
 21
44.15
 31
0.0
  0
LINE
  5
EBBA
330
E9EE
100
AcDbEntity
  8
1
  6
Continuous
100
AcDbLine
 10
172.938751
 20
44.15
 30
0.0
 11
171.561249
 21
44.15
 31
0.0
  0
CIRCLE
  5
EBBB
330
E9EE
100
AcDbEntity
  8
1
  6
Continuous
100
AcDbCircle
 10
179.0
 20
43.79999999999999
 30
0.0
 40
1.6
  0
CIRCLE
  5
EBBC
330
E9EE
100
AcDbEntity
  8
1
  6
Continuous
100
AcDbCircle
 10
188.0
 20
43.79999999999999
 30
0.0
 40
1.6
  0
CIRCLE
  5
EBBD
330
E9EE
100
AcDbEntity
  8
1
  6
Continuous
100
AcDbCircle
 10
183.4999999999998
 20
43.79999999999999
 30
0.0
 40
1.6
  0
CIRCLE
  5
EBBE
330
E9EE
100
AcDbEntity
  8
1
  6
Continuous
100
AcDbCircle
 10
192.5
 20
43.79999999999999
 30
0.0
 40
1.6
  0
LINE
  5
EBBF
330
E9EE
100
AcDbEntity
  8
1
  6
Continuous
100
AcDbLine
 10
190.9387509999999
 20
43.45
 30
0.0
 11
189.5612489999998
 21
43.45
 31
0.0
  0
LINE
  5
EBC0
330
E9EE
100
AcDbEntity
  8
1
  6
Continuous
100
AcDbLine
 10
186.438751
 20
43.45
 30
0.0
 11
185.0612489999998
 21
43.45
 31
0.0
  0
LINE
  5
EBC1
330
E9EE
100
AcDbEntity
  8
1
  6
Continuous
100
AcDbLine
 10
190.9387509999999
 20
44.15
 30
0.0
 11
189.5612489999998
 21
44.15
 31
0.0
  0
LINE
  5
EBC2
330
E9EE
100
AcDbEntity
  8
1
  6
Continuous
100
AcDbLine
 10
186.438751
 20
44.15
 30
0.0
 11
185.0612489999998
 21
44.15
 31
0.0
  0
LINE
  5
EBC3
330
E9EE
100
AcDbEntity
  8
1
  6
Continuous
100
AcDbLine
 10
195.438751
 20
43.45
 30
0.0
 11
194.061249
 21
43.45
 31
0.0
  0
LINE
  5
EBC4
330
E9EE
100
AcDbEntity
  8
1
  6
Continuous
100
AcDbLine
 10
195.438751
 20
44.15
 30
0.0
 11
194.061249
 21
44.15
 31
0.0
  0
CIRCLE
  5
EBC5
330
E9EE
100
AcDbEntity
  8
1
  6
Continuous
100
AcDbCircle
 10
215.0
 20
43.79999999999999
 30
0.0
 40
1.6
  0
LINE
  5
EBC6
330
E9EE
100
AcDbEntity
  8
1
  6
Continuous
100
AcDbLine
 10
213.4387509999999
 20
43.45
 30
0.0
 11
212.061249
 21
43.45
 31
0.0
  0
LINE
  5
EBC7
330
E9EE
100
AcDbEntity
  8
1
  6
Continuous
100
AcDbLine
 10
213.4387509999999
 20
44.15
 30
0.0
 11
212.061249
 21
44.15
 31
0.0
  0
LINE
  5
EBC8
330
E9EE
100
AcDbEntity
  8
1
  6
Continuous
100
AcDbLine
 10
199.938751
 20
43.45
 30
0.0
 11
198.561249
 21
43.45
 31
0.0
  0
LINE
  5
EBC9
330
E9EE
100
AcDbEntity
  8
1
  6
Continuous
100
AcDbLine
 10
199.938751
 20
44.15
 30
0.0
 11
198.561249
 21
44.15
 31
0.0
  0
CIRCLE
  5
EBCA
330
E9EE
100
AcDbEntity
  8
1
  6
Continuous
100
AcDbCircle
 10
201.5
 20
43.79999999999999
 30
0.0
 40
1.6
  0
CIRCLE
  5
EBCB
330
E9EE
100
AcDbEntity
  8
1
  6
Continuous
100
AcDbCircle
 10
206.0
 20
43.79999999999999
 30
0.0
 40
1.6
  0
LINE
  5
EBCC
330
E9EE
100
AcDbEntity
  8
1
  6
Continuous
100
AcDbLine
 10
208.9387509999999
 20
43.45
 30
0.0
 11
207.561249
 21
43.45
 31
0.0
  0
LINE
  5
EBCD
330
E9EE
100
AcDbEntity
  8
1
  6
Continuous
100
AcDbLine
 10
204.4387509999999
 20
43.45
 30
0.0
 11
203.061249
 21
43.45
 31
0.0
  0
LINE
  5
EBCE
330
E9EE
100
AcDbEntity
  8
1
  6
Continuous
100
AcDbLine
 10
208.9387509999999
 20
44.15
 30
0.0
 11
207.561249
 21
44.15
 31
0.0
  0
LINE
  5
EBCF
330
E9EE
100
AcDbEntity
  8
1
  6
Continuous
100
AcDbLine
 10
204.4387509999999
 20
44.15
 30
0.0
 11
203.061249
 21
44.15
 31
0.0
  0
CIRCLE
  5
EBD0
330
E9EE
100
AcDbEntity
  8
1
  6
Continuous
100
AcDbCircle
 10
210.4999999999999
 20
43.79999999999999
 30
0.0
 40
1.6
  0
LINE
  5
EBD1
330
E9EE
100
AcDbEntity
  8
1
  6
Continuous
100
AcDbLine
 10
222.4387509999999
 20
44.15
 30
0.0
 11
221.061249
 21
44.15
 31
0.0
  0
LINE
  5
EBD2
330
E9EE
100
AcDbEntity
  8
1
  6
Continuous
100
AcDbLine
 10
222.4387509999999
 20
43.45
 30
0.0
 11
221.061249
 21
43.45
 31
0.0
  0
LINE
  5
EBD3
330
E9EE
100
AcDbEntity
  8
1
  6
Continuous
100
AcDbLine
 10
222.0
 20
43.39999999999998
 30
0.0
 11
223.4999999999998
 21
43.39999999999998
 31
0.0
  0
LINE
  5
EBD4
330
E9EE
100
AcDbEntity
  8
1
  6
Continuous
100
AcDbLine
 10
222.0
 20
44.2
 30
0.0
 11
223.4999999999998
 21
44.2
 31
0.0
  0
LINE
  5
EBD5
330
E9EE
100
AcDbEntity
  8
1
  6
Continuous
100
AcDbLine
 10
222.0
 20
41.79999999999997
 30
0.0
 11
229.240408
 21
41.79999999999997
 31
0.0
  0
LINE
  5
EBD6
330
E9EE
100
AcDbEntity
  8
1
  6
Continuous
100
AcDbLine
 10
222.0
 20
45.8
 30
0.0
 11
229.240408
 21
45.8
 31
0.0
  0
LINE
  5
EBD7
330
E9EE
100
AcDbEntity
  8
1
  6
Continuous
100
AcDbLine
 10
226.5
 20
42.2
 30
0.0
 11
226.5
 21
45.4
 31
0.0
  0
LINE
  5
EBD8
330
E9EE
100
AcDbEntity
  8
1
  6
Continuous
100
AcDbLine
 10
222.0
 20
44.2
 30
0.0
 11
222.0
 21
45.8
 31
0.0
  0
LINE
  5
EBD9
330
E9EE
100
AcDbEntity
  8
1
  6
Continuous
100
AcDbLine
 10
222.0
 20
41.79999999999997
 30
0.0
 11
222.0
 21
43.39999999999998
 31
0.0
  0
ARC
  5
EBDA
330
E9EE
100
AcDbEntity
  8
1
  6
Continuous
100
AcDbCircle
 10
224.0
 20
43.79999999999999
 30
0.0
 40
1.6
100
AcDbArc
 50
165.5224879999998
 51
194.4775119999999
  0
CIRCLE
  5
EBDB
330
E9EE
100
AcDbEntity
  8
1
  6
Continuous
100
AcDbCircle
 10
219.4999999999998
 20
43.79999999999999
 30
0.0
 40
1.6
  0
LINE
  5
EBDC
330
E9EE
100
AcDbEntity
  8
1
  6
Continuous
100
AcDbLine
 10
217.9387509999999
 20
44.15
 30
0.0
 11
216.561249
 21
44.15
 31
0.0
  0
LINE
  5
EBDD
330
E9EE
100
AcDbEntity
  8
1
  6
Continuous
100
AcDbLine
 10
217.9387509999999
 20
43.45
 30
0.0
 11
216.561249
 21
43.45
 31
0.0
  0
LINE
  5
EBDE
330
E9EE
100
AcDbEntity
  8
4
  6
CENTER
100
AcDbLine
 10
231.1999999999999
 20
38.75
 30
0.0
 11
231.1999999999999
 21
48.85
 31
0.0
  0
LINE
  5
EBDF
330
E9EE
100
AcDbEntity
  8
1
  6
Continuous
100
AcDbLine
 10
223.4999999999998
 20
43.39999999999998
 30
0.0
 11
223.4999999999998
 21
44.2
 31
0.0
  0
LINE
  5
EBE0
330
E9EE
100
AcDbEntity
  8
1
  6
Continuous
100
AcDbLine
 10
35.5
 20
43.39999999999998
 30
0.0
 11
35.5
 21
44.2
 31
0.0
  0
ARC
  5
EBE1
330
E9EE
100
AcDbEntity
  8
1
  6
Continuous
100
AcDbCircle
 10
35.0
 20
43.79999999999999
 30
0.0
 40
1.6
100
AcDbArc
 50
345.522488
 51
14.47751199999999
  0
LINE
  5
EBE2
330
E9EE
100
AcDbEntity
  8
4
  6
CENTER
100
AcDbLine
 10
256.8
 20
84.34999999999998
 30
0.0
 11
256.8
 21
93.34999999999999
 31
0.0
  0
LINE
  5
EBE3
330
E9EE
100
AcDbEntity
  8
1
  6
Continuous
100
AcDbLine
 10
258.8
 20
86.59999999999998
 30
0.0
 11
258.8
 21
88.45
 31
0.0
  0
LINE
  5
EBE4
330
E9EE
100
AcDbEntity
  8
1
  6
Continuous
100
AcDbLine
 10
254.8
 20
86.59999999999998
 30
0.0
 11
254.8
 21
88.45
 31
0.0
  0
LINE
  5
EBE5
330
E9EE
100
AcDbEntity
  8
1
  6
Continuous
100
AcDbLine
 10
258.8
 20
86.59999999999998
 30
0.0
 11
254.8
 21
86.59999999999998
 31
0.0
  0
LINE
  5
EBE6
330
E9EE
100
AcDbEntity
  8
4
  6
CENTER
100
AcDbLine
 10
261.85
 20
88.84999999999998
 30
0.0
 11
251.75
 21
88.84999999999998
 31
0.0
  0
ARC
  5
EBE7
330
E9EE
100
AcDbEntity
  8
1
  6
Continuous
100
AcDbCircle
 10
256.8
 20
88.84999999999998
 30
0.0
 40
1.6
100
AcDbArc
 50
75.52248799999998
 51
104.477512
  0
LINE
  5
EBE8
330
E9EE
100
AcDbEntity
  8
1
  6
Continuous
100
AcDbLine
 10
257.2
 20
91.09999999999999
 30
0.0
 11
257.2
 21
89.25
 31
0.0
  0
LINE
  5
EBE9
330
E9EE
100
AcDbEntity
  8
1
  6
Continuous
100
AcDbLine
 10
256.3999999999999
 20
91.09999999999999
 30
0.0
 11
256.3999999999999
 21
89.25
 31
0.0
  0
LINE
  5
EBEA
330
E9EE
100
AcDbEntity
  8
1
  6
Continuous
100
AcDbLine
 10
257.2
 20
91.09999999999999
 30
0.0
 11
258.8
 21
91.09999999999999
 31
0.0
  0
LINE
  5
EBEB
330
E9EE
100
AcDbEntity
  8
1
  6
Continuous
100
AcDbLine
 10
254.0
 20
88.45
 30
0.0
 11
259.6
 21
88.45
 31
0.0
  0
LINE
  5
EBEC
330
E9EE
100
AcDbEntity
  8
1
  6
Continuous
100
AcDbLine
 10
259.6
 20
88.84999999999998
 30
0.0
 11
254.0
 21
88.84999999999998
 31
0.0
  0
LINE
  5
EBED
330
E9EE
100
AcDbEntity
  8
1
  6
Continuous
100
AcDbLine
 10
259.6
 20
88.45
 30
0.0
 11
259.6
 21
88.45
 31
0.0
  0
LINE
  5
EBEE
330
E9EE
100
AcDbEntity
  8
1
  6
Continuous
100
AcDbLine
 10
259.6
 20
89.25
 30
0.0
 11
254.0
 21
89.25
 31
0.0
  0
LINE
  5
EBEF
330
E9EE
100
AcDbEntity
  8
1
  6
Continuous
100
AcDbLine
 10
258.8
 20
89.25
 30
0.0
 11
258.8
 21
91.09999999999999
 31
0.0
  0
LINE
  5
EBF0
330
E9EE
100
AcDbEntity
  8
1
  6
Continuous
100
AcDbLine
 10
254.8
 20
89.25
 30
0.0
 11
254.8
 21
91.09999999999999
 31
0.0
  0
LINE
  5
EBF1
330
E9EE
100
AcDbEntity
  8
1
  6
Continuous
100
AcDbLine
 10
254.8
 20
91.09999999999999
 30
0.0
 11
256.3999999999999
 21
91.09999999999999
 31
0.0
  0
LINE
  5
EBF2
330
E9EE
100
AcDbEntity
  8
1
  6
Continuous
100
AcDbLine
 10
259.6
 20
88.45
 30
0.0
 11
259.6
 21
89.25
 31
0.0
  0
LINE
  5
EBF3
330
E9EE
100
AcDbEntity
  8
1
  6
Continuous
100
AcDbLine
 10
254.0
 20
88.45
 30
0.0
 11
254.0
 21
89.25
 31
0.0
  0
ENDSEC
  0
SECTION
  2
OBJECTS
  0
DICTIONARY
  5
E9DC
330
0
100
AcDbDictionary
281
     1
  3
ACAD_CIP_PREVIOUS_PRODUCT_INFO
350
EC53
  3
ACAD_COLOR
350
EC35
  3
ACAD_DETAILVIEWSTYLE
350
EC4E
  3
ACAD_GROUP
350
E9DD
  3
ACAD_LAYOUT
350
E9E9
  3
ACAD_MATERIAL
350
EC03
  3
ACAD_MLEADERSTYLE
350
EC4A
  3
ACAD_MLINESTYLE
350
E9E6
  3
ACAD_PLOTSETTINGS
350
E9E8
  3
ACAD_PLOTSTYLENAME
350
EC01
  3
ACAD_SCALELIST
350
EC38
  3
ACAD_SECTIONVIEWSTYLE
350
EC4C
  3
ACAD_TABLESTYLE
350
EC36
  3
ACAD_VISUALSTYLE
350
EC1C
  3
ACDB_RECOMPOSE_DATA
350
EC71
  3
AcDbVariableDictionary
350
EC64
  3
DWGPROPS
350
EC72
  0
DICTIONARY
  5
EC54
330
E9E0
100
AcDbDictionary
280
     1
281
     1
  3
ADSK_XREC_LAYER_RECONCILED
360
EC55
  0
DICTIONARY
  5
EC56
330
E9F6
100
AcDbDictionary
280
     1
281
     1
  3
ADSK_XREC_LAYER_RECONCILED
360
EC57
  0
DICTIONARY
  5
EC58
330
E9F7
100
AcDbDictionary
280
     1
281
     1
  3
ADSK_XREC_LAYER_RECONCILED
360
EC59
  0
DICTIONARY
  5
EC5A
330
E9F8
100
AcDbDictionary
280
     1
281
     1
  3
ADSK_XREC_LAYER_RECONCILED
360
EC5B
  0
DICTIONARY
  5
EC5C
330
E9F9
100
AcDbDictionary
280
     1
281
     1
  3
ADSK_XREC_LAYER_RECONCILED
360
EC5D
  0
DICTIONARY
  5
EC5E
330
E9FA
100
AcDbDictionary
280
     1
281
     1
  3
ADSK_XREC_LAYER_RECONCILED
360
EC5F
  0
DICTIONARY
  5
EC60
330
E9FB
100
AcDbDictionary
280
     1
281
     1
  3
ADSK_XREC_LAYER_RECONCILED
360
EC61
  0
DICTIONARY
  5
EC62
330
E9FC
100
AcDbDictionary
280
     1
281
     1
  3
ADSK_XREC_LAYER_RECONCILED
360
EC63
  0
DICTIONARY
  5
EBFC
330
E9EE
100
AcDbDictionary
281
     1
  3
ACAD_LAYOUTSELFREF
350
EBFD
  0
DICTIONARY
  5
EBFA
330
E9EA
100
AcDbDictionary
281
     1
  3
ACAD_LAYOUTSELFREF
350
EBFB
  0
XRECORD
  5
EC53
102
{ACAD_REACTORS
330
E9DC
102
}
330
E9DC
100
AcDbXrecord
280
     1
300
ACDLT
300
2014
300
ACDLT_F_S
  0
DICTIONARY
  5
EC35
102
{ACAD_REACTORS
330
E9DC
102
}
330
E9DC
100
AcDbDictionary
281
     1
  0
DICTIONARY
  5
EC4E
102
{ACAD_REACTORS
330
E9DC
102
}
330
E9DC
100
AcDbDictionary
281
     1
  3
Imperial24
350
EC4F
  0
DICTIONARY
  5
E9DD
102
{ACAD_REACTORS
330
E9DC
102
}
330
E9DC
100
AcDbDictionary
281
     1
  0
DICTIONARY
  5
E9E9
102
{ACAD_REACTORS
330
E9DC
102
}
330
E9DC
100
AcDbDictionary
281
     1
  3
Model
350
EC50
  3
レイアウト1
350
EC51
  0
DICTIONARY
  5
EC03
102
{ACAD_REACTORS
330
E9DC
102
}
330
E9DC
100
AcDbDictionary
281
     1
  3
ByBlock
350
EC0C
  3
ByLayer
350
EC04
  3
Global
350
EC14
  0
DICTIONARY
  5
EC4A
102
{ACAD_REACTORS
330
E9DC
102
}
330
E9DC
100
AcDbDictionary
281
     1
  3
Standard
350
EC4B
  0
DICTIONARY
  5
E9E6
102
{ACAD_REACTORS
330
E9DC
102
}
330
E9DC
100
AcDbDictionary
281
     1
  3
STANDARD
350
E9E7
  0
DICTIONARY
  5
E9E8
102
{ACAD_REACTORS
330
E9DC
102
}
330
E9DC
100
AcDbDictionary
281
     1
  0
ACDBDICTIONARYWDFLT
  5
EC01
102
{ACAD_REACTORS
330
E9DC
102
}
330
E9DC
100
AcDbDictionary
281
     1
  3
Normal
350
EC02
100
AcDbDictionaryWithDefault
340
EC02
  0
DICTIONARY
  5
EC38
102
{ACAD_REACTORS
330
E9DC
102
}
330
E9DC
100
AcDbDictionary
281
     1
  3
A0
350
EC39
  3
A1
350
EC3A
  3
A2
350
EC3B
  3
A3
350
EC3C
  3
A4
350
EC3D
  3
A5
350
EC3E
  3
A6
350
EC3F
  3
A7
350
EC40
  3
A8
350
EC41
  3
A9
350
EC42
  3
B0
350
EC43
  3
B1
350
EC44
  3
B2
350
EC45
  3
B3
350
EC46
  3
B4
350
EC47
  3
B5
350
EC48
  3
B6
350
EC49
  0
DICTIONARY
  5
EC4C
102
{ACAD_REACTORS
330
E9DC
102
}
330
E9DC
100
AcDbDictionary
281
     1
  3
Imperial24
350
EC4D
  0
DICTIONARY
  5
EC36
102
{ACAD_REACTORS
330
E9DC
102
}
330
E9DC
100
AcDbDictionary
281
     1
  3
Standard
350
EC37
  0
DICTIONARY
  5
EC1C
102
{ACAD_REACTORS
330
E9DC
102
}
330
E9DC
100
AcDbDictionary
281
     1
  3
2dWireframe
350
EC22
  3
Basic
350
EC21
  3
Brighten
350
EC28
  3
ColorChange
350
EC2C
  3
Conceptual
350
EC25
  3
Dim
350
EC27
  3
EdgeColorOff
350
EC34
  3
Facepattern
350
EC2B
  3
Flat
350
EC1D
  3
FlatWithEdges
350
EC1E
  3
Gouraud
350
EC1F
  3
GouraudWithEdges
350
EC20
  3
Hidden
350
EC24
  3
JitterOff
350
EC32
  3
Linepattern
350
EC2A
  3
OverhangOff
350
EC33
  3
Realistic
350
EC26
  3
Shaded
350
EC31
  3
Shaded with edges
350
EC30
  3
Shades of Gray
350
EC2D
  3
Sketchy
350
EC2E
  3
Thicken
350
EC29
  3
Wireframe
350
EC23
  3
X-Ray
350
EC2F
  0
XRECORD
  5
EC71
102
{ACAD_REACTORS
330
E9DC
102
}
330
E9DC
100
AcDbXrecord
280
     1
 90
        1
330
EC37
  0
DICTIONARY
  5
EC64
102
{ACAD_REACTORS
330
E9DC
102
}
330
E9DC
100
AcDbDictionary
281
     1
  3
CANNOSCALE
350
EC69
  3
CMLEADERSTYLE
350
EC66
  3
CTABLESTYLE
350
EC65
  3
CVIEWDETAILSTYLE
350
EC67
  3
CVIEWSECTIONSTYLE
350
EC68
  3
DIMASSOC
350
EC6C
  3
INDEXCTL
350
EC6B
  3
SORTENTS
350
EC6A
  3
XCLIPFRAME
350
EC6D
  0
XRECORD
  5
EC72
102
{ACAD_REACTORS
330
E9DC
102
}
330
E9DC
100
AcDbXrecord
280
     1
  1
DWGPROPS COOKIE
  2

  3

  4

  6

  7

  8
Yoshitsune
  9

300
=
301
=
302
=
303
=
304
=
305
=
306
=
307
=
308
=
309
=
 40
0.0000106134259259
 41
2451285.449582292
 42
2457192.660102824
  1

 90
        0
  0
XRECORD
  5
EC55
102
{ACAD_REACTORS
330
EC54
102
}
330
EC54
100
AcDbXrecord
280
     1
290
     1
  0
XRECORD
  5
EC57
102
{ACAD_REACTORS
330
EC56
102
}
330
EC56
100
AcDbXrecord
280
     1
290
     1
  0
XRECORD
  5
EC59
102
{ACAD_REACTORS
330
EC58
102
}
330
EC58
100
AcDbXrecord
280
     1
290
     1
  0
XRECORD
  5
EC5B
102
{ACAD_REACTORS
330
EC5A
102
}
330
EC5A
100
AcDbXrecord
280
     1
290
     1
  0
XRECORD
  5
EC5D
102
{ACAD_REACTORS
330
EC5C
102
}
330
EC5C
100
AcDbXrecord
280
     1
290
     1
  0
XRECORD
  5
EC5F
102
{ACAD_REACTORS
330
EC5E
102
}
330
EC5E
100
AcDbXrecord
280
     1
290
     1
  0
XRECORD
  5
EC61
102
{ACAD_REACTORS
330
EC60
102
}
330
EC60
100
AcDbXrecord
280
     1
290
     1
  0
XRECORD
  5
EC63
102
{ACAD_REACTORS
330
EC62
102
}
330
EC62
100
AcDbXrecord
280
     1
290
     1
  0
XRECORD
  5
EBFD
102
{ACAD_REACTORS
330
EBFC
102
}
330
EBFC
100
AcDbXrecord
280
     1
340
E9EE
  0
XRECORD
  5
EBFB
102
{ACAD_REACTORS
330
EBFA
102
}
330
EBFA
100
AcDbXrecord
280
     1
340
E9EA
  0
ACDBDETAILVIEWSTYLE
  5
EC4F
102
{ACAD_XDICTIONARY
360
ECAA
102
}
102
{ACAD_REACTORS
330
EC4E
102
}
330
EC4E
100
AcDbModelDocViewStyle
 70
     0
  3
Imperial24
290
     0
100
AcDbDetailViewStyle
 70
     0
 71
     0
 90
        3
 71
     1
340
E9E1
 40
0.24
340
0
 40
0.24
300

 40
0.36
280
     3
 71
     2
340
E9E5
 90
       25
 71
     3
340
E9E1
 40
0.24
 90
        1
 40
0.75
 90
        1
300
%<\AcVar ViewType \f "%tc1">% %<\AcVar ViewDetailId>%\PSCALE %<\AcVar ViewScale \f "%sn">%
 71
     4
340
E9E5
 90
       25
340
E9E5
 90
       25
280
     0
  0
LAYOUT
  5
EC50
102
{ACAD_XDICTIONARY
360
ECAC
102
}
102
{ACAD_REACTORS
330
E9E9
102
}
330
E9E9
100
AcDbPlotSettings
  1

  2
Canon LBP9100C
  4

  6

 40
0.0
 41
0.0
 42
0.0
 43
0.0
 44
0.0
 45
0.0
 46
0.0
 47
0.0
 48
0.0
 49
0.0
140
0.0
141
0.0
142
1.0
143
1.0
 70
  1712
 72
     0
 73
     0
 74
     0
  7

 75
     0
147
1.0
148
0.0
149
0.0
100
AcDbLayout
  1
Model
 70
     1
 71
     0
 10
0.0
 20
0.0
 11
12.0
 21
9.0
 12
0.0
 22
0.0
 32
0.0
 14
0.0
 24
0.0
 34
0.0
 15
0.0
 25
0.0
 35
0.0
146
0.0
 13
0.0
 23
0.0
 33
0.0
 16
1.0
 26
0.0
 36
0.0
 17
0.0
 27
1.0
 37
0.0
 76
     0
330
E9EE
331
EBF9
  0
LAYOUT
  5
EC51
102
{ACAD_XDICTIONARY
360
ECAE
102
}
102
{ACAD_REACTORS
330
E9E9
102
}
330
E9E9
100
AcDbPlotSettings
  1

  2
Canon LBP9100C
  4

  6

 40
0.0
 41
0.0
 42
0.0
 43
0.0
 44
0.0
 45
0.0
 46
0.0
 47
0.0
 48
0.0
 49
0.0
140
0.0
141
0.0
142
1.0
143
1.0
 70
   688
 72
     0
 73
     0
 74
     5
  7

 75
    16
147
1.0
148
0.0
149
0.0
100
AcDbLayout
  1
レイアウト1
 70
     0
 71
     1
 10
0.0
 20
0.0
 11
420.0
 21
297.0
 12
0.0
 22
0.0
 32
0.0
 14
1.000000000000000E+20
 24
1.000000000000000E+20
 34
1.000000000000000E+20
 15
-1.000000000000000E+20
 25
-1.000000000000000E+20
 35
-1.000000000000000E+20
146
0.0
 13
0.0
 23
0.0
 33
0.0
 16
1.0
 26
0.0
 36
0.0
 17
0.0
 27
1.0
 37
0.0
 76
     0
330
E9EA
  0
MATERIAL
  5
EC0C
102
{ACAD_XDICTIONARY
360
EC0D
102
}
102
{ACAD_REACTORS
330
EC03
102
}
330
EC03
100
AcDbMaterial
  1
ByBlock
 72
     0
 43
0.0208333333333333
 43
0.0
 43
0.0
 43
0.0
 43
0.0
 43
0.0208333333333333
 43
0.0
 43
0.0
 43
0.0
 43
0.0
 43
1.0
 43
0.0
 43
0.0
 43
0.0
 43
0.0
 43
1.0
 77
     0
 47
0.0208333333333333
 47
0.0
 47
0.0
 47
0.0
 47
0.0
 47
0.0208333333333333
 47
0.0
 47
0.0
 47
0.0
 47
0.0
 47
1.0
 47
0.0
 47
0.0
 47
0.0
 47
0.0
 47
1.0
171
     0
 49
0.0208333333333333
 49
0.0
 49
0.0
 49
0.0
 49
0.0
 49
0.0208333333333333
 49
0.0
 49
0.0
 49
0.0
 49
0.0
 49
1.0
 49
0.0
 49
0.0
 49
0.0
 49
0.0
 49
1.0
175
     0
142
0.0208333333333333
142
0.0
142
0.0
142
0.0
142
0.0
142
0.0208333333333333
142
0.0
142
0.0
142
0.0
142
0.0
142
1.0
142
0.0
142
0.0
142
0.0
142
0.0
142
1.0
179
     0
144
0.0208333333333333
144
0.0
144
0.0
144
0.0
144
0.0
144
0.0208333333333333
144
0.0
144
0.0
144
0.0
144
0.0
144
1.0
144
0.0
144
0.0
144
0.0
144
0.0
144
1.0
147
0.0208333333333333
147
0.0
147
0.0
147
0.0
147
0.0
147
0.0208333333333333
147
0.0
147
0.0
147
0.0
147
0.0
147
1.0
147
0.0
147
0.0
147
0.0
147
0.0
147
1.0
  0
MATERIAL
  5
EC04
102
{ACAD_XDICTIONARY
360
EC05
102
}
102
{ACAD_REACTORS
330
EC03
102
}
330
EC03
100
AcDbMaterial
  1
ByLayer
 72
     0
 43
0.0208333333333333
 43
0.0
 43
0.0
 43
0.0
 43
0.0
 43
0.0208333333333333
 43
0.0
 43
0.0
 43
0.0
 43
0.0
 43
1.0
 43
0.0
 43
0.0
 43
0.0
 43
0.0
 43
1.0
 77
     0
 47
0.0208333333333333
 47
0.0
 47
0.0
 47
0.0
 47
0.0
 47
0.0208333333333333
 47
0.0
 47
0.0
 47
0.0
 47
0.0
 47
1.0
 47
0.0
 47
0.0
 47
0.0
 47
0.0
 47
1.0
171
     0
 49
0.0208333333333333
 49
0.0
 49
0.0
 49
0.0
 49
0.0
 49
0.0208333333333333
 49
0.0
 49
0.0
 49
0.0
 49
0.0
 49
1.0
 49
0.0
 49
0.0
 49
0.0
 49
0.0
 49
1.0
175
     0
142
0.0208333333333333
142
0.0
142
0.0
142
0.0
142
0.0
142
0.0208333333333333
142
0.0
142
0.0
142
0.0
142
0.0
142
1.0
142
0.0
142
0.0
142
0.0
142
0.0
142
1.0
179
     0
144
0.0208333333333333
144
0.0
144
0.0
144
0.0
144
0.0
144
0.0208333333333333
144
0.0
144
0.0
144
0.0
144
0.0
144
1.0
144
0.0
144
0.0
144
0.0
144
0.0
144
1.0
147
0.0208333333333333
147
0.0
147
0.0
147
0.0
147
0.0
147
0.0208333333333333
147
0.0
147
0.0
147
0.0
147
0.0
147
1.0
147
0.0
147
0.0
147
0.0
147
0.0
147
1.0
  0
MATERIAL
  5
EC14
102
{ACAD_XDICTIONARY
360
EC15
102
}
102
{ACAD_REACTORS
330
EC03
102
}
330
EC03
100
AcDbMaterial
  1
Global
 72
     0
 43
0.0208333333333333
 43
0.0
 43
0.0
 43
0.0
 43
0.0
 43
0.0208333333333333
 43
0.0
 43
0.0
 43
0.0
 43
0.0
 43
1.0
 43
0.0
 43
0.0
 43
0.0
 43
0.0
 43
1.0
 77
     0
 47
0.0208333333333333
 47
0.0
 47
0.0
 47
0.0
 47
0.0
 47
0.0208333333333333
 47
0.0
 47
0.0
 47
0.0
 47
0.0
 47
1.0
 47
0.0
 47
0.0
 47
0.0
 47
0.0
 47
1.0
171
     0
 49
0.0208333333333333
 49
0.0
 49
0.0
 49
0.0
 49
0.0
 49
0.0208333333333333
 49
0.0
 49
0.0
 49
0.0
 49
0.0
 49
1.0
 49
0.0
 49
0.0
 49
0.0
 49
0.0
 49
1.0
175
     0
142
0.0208333333333333
142
0.0
142
0.0
142
0.0
142
0.0
142
0.0208333333333333
142
0.0
142
0.0
142
0.0
142
0.0
142
1.0
142
0.0
142
0.0
142
0.0
142
0.0
142
1.0
179
     0
144
0.0208333333333333
144
0.0
144
0.0
144
0.0
144
0.0
144
0.0208333333333333
144
0.0
144
0.0
144
0.0
144
0.0
144
1.0
144
0.0
144
0.0
144
0.0
144
0.0
144
1.0
147
0.0208333333333333
147
0.0
147
0.0
147
0.0
147
0.0
147
0.0208333333333333
147
0.0
147
0.0
147
0.0
147
0.0
147
1.0
147
0.0
147
0.0
147
0.0
147
0.0
147
1.0
  0
MLEADERSTYLE
  5
EC4B
102
{ACAD_REACTORS
330
EC4A
102
}
330
EC4A
100
AcDbMLeaderStyle
170
     2
171
     1
172
     0
 90
        2
 40
0.0
 41
0.0
173
     1
 91
-1056964608
340
E9E3
 92
       -2
290
     1
 42
0.09
291
     1
 43
0.36
  3
Standard
 44
0.18
300

342
E9E1
174
     1
178
     6
175
     1
176
     0
 93
-1056964608
 45
0.18
292
     0
297
     0
 46
0.18
 94
-1056964608
 47
1.0
 49
1.0
140
1.0
293
     1
141
0.0
294
     1
177
     0
142
1.0
295
     0
296
     0
143
0.125
1001
ACAD_MLEADERVER
1070
     2
  0
MLINESTYLE
  5
E9E7
102
{ACAD_REACTORS
330
E9E6
102
}
330
E9E6
100
AcDbMlineStyle
  2
STANDARD
 70
     0
  3

 62
   256
 51
90.0
 52
90.0
 71
     2
 49
0.5
 62
   256
  6
BYLAYER
 49
-0.5
 62
   256
  6
BYLAYER
  0
ACDBPLACEHOLDER
  5
EC02
102
{ACAD_REACTORS
330
EC01
102
}
330
EC01
  0
SCALE
  5
EC39
102
{ACAD_REACTORS
330
EC38
102
}
330
EC38
100
AcDbScale
 70
     0
300
1:1
140
1.0
141
1.0
290
     1
  0
SCALE
  5
EC3A
102
{ACAD_REACTORS
330
EC38
102
}
330
EC38
100
AcDbScale
 70
     0
300
1/128" = 1'-0"
140
0.0078125
141
12.0
290
     0
  0
SCALE
  5
EC3B
102
{ACAD_REACTORS
330
EC38
102
}
330
EC38
100
AcDbScale
 70
     0
300
1/64" = 1'-0"
140
0.015625
141
12.0
290
     0
  0
SCALE
  5
EC3C
102
{ACAD_REACTORS
330
EC38
102
}
330
EC38
100
AcDbScale
 70
     0
300
1/32" = 1'-0"
140
0.03125
141
12.0
290
     0
  0
SCALE
  5
EC3D
102
{ACAD_REACTORS
330
EC38
102
}
330
EC38
100
AcDbScale
 70
     0
300
1/16" = 1'-0"
140
0.0625
141
12.0
290
     0
  0
SCALE
  5
EC3E
102
{ACAD_REACTORS
330
EC38
102
}
330
EC38
100
AcDbScale
 70
     0
300
3/32" = 1'-0"
140
0.09375
141
12.0
290
     0
  0
SCALE
  5
EC3F
102
{ACAD_REACTORS
330
EC38
102
}
330
EC38
100
AcDbScale
 70
     0
300
1/8" = 1'-0"
140
0.125
141
12.0
290
     0
  0
SCALE
  5
EC40
102
{ACAD_REACTORS
330
EC38
102
}
330
EC38
100
AcDbScale
 70
     0
300
3/16" = 1'-0"
140
0.1875
141
12.0
290
     0
  0
SCALE
  5
EC41
102
{ACAD_REACTORS
330
EC38
102
}
330
EC38
100
AcDbScale
 70
     0
300
1/4" = 1'-0"
140
0.25
141
12.0
290
     0
  0
SCALE
  5
EC42
102
{ACAD_REACTORS
330
EC38
102
}
330
EC38
100
AcDbScale
 70
     0
300
3/8" = 1'-0"
140
0.375
141
12.0
290
     0
  0
SCALE
  5
EC43
102
{ACAD_REACTORS
330
EC38
102
}
330
EC38
100
AcDbScale
 70
     0
300
1/2" = 1'-0"
140
0.5
141
12.0
290
     0
  0
SCALE
  5
EC44
102
{ACAD_REACTORS
330
EC38
102
}
330
EC38
100
AcDbScale
 70
     0
300
3/4" = 1'-0"
140
0.75
141
12.0
290
     0
  0
SCALE
  5
EC45
102
{ACAD_REACTORS
330
EC38
102
}
330
EC38
100
AcDbScale
 70
     0
300
1" = 1'-0"
140
1.0
141
12.0
290
     0
  0
SCALE
  5
EC46
102
{ACAD_REACTORS
330
EC38
102
}
330
EC38
100
AcDbScale
 70
     0
300
1-1/2" = 1'-0"
140
1.5
141
12.0
290
     0
  0
SCALE
  5
EC47
102
{ACAD_REACTORS
330
EC38
102
}
330
EC38
100
AcDbScale
 70
     0
300
3" = 1'-0"
140
3.0
141
12.0
290
     0
  0
SCALE
  5
EC48
102
{ACAD_REACTORS
330
EC38
102
}
330
EC38
100
AcDbScale
 70
     0
300
6" = 1'-0"
140
6.0
141
12.0
290
     0
  0
SCALE
  5
EC49
102
{ACAD_REACTORS
330
EC38
102
}
330
EC38
100
AcDbScale
 70
     0
300
1'-0" = 1'-0"
140
12.0
141
12.0
290
     0
  0
ACDBSECTIONVIEWSTYLE
  5
EC4D
102
{ACAD_XDICTIONARY
360
ECA8
102
}
102
{ACAD_REACTORS
330
EC4C
102
}
330
EC4C
100
AcDbModelDocViewStyle
 70
     0
  3
Imperial24
290
     0
100
AcDbSectionViewStyle
 70
     0
 71
     0
 90
       78
 71
     1
340
E9E1
 40
0.24
340
0
340
0
 40
0.24
300
I, O, Q, S, X, Z
 40
0.48
 90
        3
 40
0.18
 90
        1
 71
     2
340
E9E5
 90
       25
340
E9E5
 90
       50
 40
0.24
 40
0.0
 40
0.24
 71
     3
340
E9E1
 40
0.24
 90
        1
 40
0.75
 90
        1
300
%<\AcVar ViewType \f "%tc1">% %<\AcVar ViewSectionStartId>%-%<\AcVar ViewSectionEndId>%\PSCALE %<\AcVar ViewScale \f "%sn">%
 71
     4
300
ANSI31
 40
1.0
 90
        0
290
     0
290
     0
 90
        6
 40
0.0
 40
1.570796326794896
 40
0.2617993877991494
 40
1.308996938995747
 40
-0.2617993877991494
 40
1.832595714594046
  0
TABLESTYLE
  5
EC37
102
{ACAD_XDICTIONARY
360
EC6F
102
}
102
{ACAD_REACTORS
330
EC36
102
}
330
EC36
100
AcDbTableStyle
  3
Standard
 70
     0
 71
     0
 40
0.06
 41
0.06
280
     0
281
     0
  7
STANDARD
140
0.18
170
     2
 62
     0
 63
     7
283
     0
274
    -2
284
     1
 64
     0
275
    -2
285
     1
 65
     0
276
    -2
286
     1
 66
     0
277
    -2
287
     1
 67
     0
278
    -2
288
     1
 68
     0
279
    -2
289
     1
 69
     0
  7
STANDARD
140
0.25
170
     5
 62
     0
 63
     7
283
     0
274
    -2
284
     1
 64
     0
275
    -2
285
     1
 65
     0
276
    -2
286
     1
 66
     0
277
    -2
287
     1
 67
     0
278
    -2
288
     1
 68
     0
279
    -2
289
     1
 69
     0
  7
STANDARD
140
0.18
170
     5
 62
     0
 63
     7
283
     0
274
    -2
284
     1
 64
     0
275
    -2
285
     1
 65
     0
276
    -2
286
     1
 66
     0
277
    -2
287
     1
 67
     0
278
    -2
288
     1
 68
     0
279
    -2
289
     1
 69
     0
  0
VISUALSTYLE
  5
EC22
102
{ACAD_XDICTIONARY
360
EC80
102
}
102
{ACAD_REACTORS
330
EC1C
102
}
330
EC1C
100
AcDbVisualStyle
  2
2dWireframe
 70
     4
 71
     0
 72
     2
 73
     0
 90
        0
 40
-0.6
 41
-30.0
 62
     5
 63
     7
 74
     1
 91
        4
 64
     7
 65
   257
 75
     1
175
     1
 42
1.0
 92
        0
 66
   257
 43
1.0
 76
     1
 77
     6
 78
     2
 67
     7
 79
     5
170
     0
171
     0
290
     0
174
     0
 93
        1
 44
0.0
173
     0
291
     0
 45
0.0
1001
ACAD
1000
AcDbSavedByObjectVersion
1070
     0
  0
VISUALSTYLE
  5
EC21
102
{ACAD_XDICTIONARY
360
EC7E
102
}
102
{ACAD_REACTORS
330
EC1C
102
}
330
EC1C
100
AcDbVisualStyle
  2
Basic
 70
     7
 71
     1
 72
     0
 73
     1
 90
        0
 40
-0.6
 41
-30.0
 62
     5
 63
     7
 74
     0
 91
        4
 64
     7
 65
   257
 75
     1
175
     1
 42
1.0
 92
        8
 66
     7
 43
1.0
 76
     1
 77
     6
 78
     2
 67
     7
 79
     5
170
     0
171
     0
290
     0
174
     0
 93
        1
 44
0.0
173
     0
291
     1
 45
0.0
1001
ACAD
1000
AcDbSavedByObjectVersion
1070
     0
  0
VISUALSTYLE
  5
EC28
102
{ACAD_XDICTIONARY
360
EC8C
102
}
102
{ACAD_REACTORS
330
EC1C
102
}
330
EC1C
100
AcDbVisualStyle
  2
Brighten
 70
    12
 71
     2
 72
     2
 73
     0
 90
        0
 40
-0.6
 41
-30.0
 62
     5
 63
     7
 74
     1
 91
        4
 64
     7
 65
   257
 75
     1
175
     1
 42
1.0
 92
        8
 66
     7
 43
1.0
 76
     1
 77
     6
 78
     2
 67
     7
 79
     5
170
     0
171
     0
290
     0
174
     0
 93
        1
 44
50.0
173
     0
291
     1
 45
0.0
1001
ACAD
1000
AcDbSavedByObjectVersion
1070
     0
  0
VISUALSTYLE
  5
EC2C
102
{ACAD_XDICTIONARY
360
EC94
102
}
102
{ACAD_REACTORS
330
EC1C
102
}
330
EC1C
100
AcDbVisualStyle
  2
ColorChange
 70
    16
 71
     2
 72
     2
 73
     3
 90
        0
 40
-0.6
 41
-30.0
 62
     5
 63
     8
 74
     1
 91
        4
 64
     7
 65
   257
 75
     1
175
     1
 42
1.0
 92
        8
 66
     8
 43
1.0
 76
     1
 77
     6
 78
     2
 67
     7
 79
     5
170
     0
171
     0
290
     0
174
     0
 93
        1
 44
0.0
173
     0
291
     1
 45
0.0
1001
ACAD
1000
AcDbSavedByObjectVersion
1070
     0
  0
VISUALSTYLE
  5
EC25
102
{ACAD_XDICTIONARY
360
EC86
102
}
102
{ACAD_REACTORS
330
EC1C
102
}
330
EC1C
100
AcDbVisualStyle
  2
Conceptual
 70
     9
 71
     3
 72
     2
 73
     0
 90
        0
 40
-0.6
 41
-30.0
 62
     5
 63
     7
 74
     2
 91
        2
 64
     7
 65
   257
 75
     1
175
     1
 42
179.0
 92
        8
 66
     7
 43
1.0
 76
     1
 77
     6
 78
     2
 67
     7
 79
     3
170
     0
171
     0
290
     0
174
     0
 93
        1
 44
0.0
173
     0
291
     0
 45
0.0
1001
ACAD
1000
AcDbSavedByObjectVersion
1070
     0
  0
VISUALSTYLE
  5
EC27
102
{ACAD_XDICTIONARY
360
EC8A
102
}
102
{ACAD_REACTORS
330
EC1C
102
}
330
EC1C
100
AcDbVisualStyle
  2
Dim
 70
    11
 71
     2
 72
     2
 73
     0
 90
        0
 40
-0.6
 41
-30.0
 62
     5
 63
     7
 74
     1
 91
        4
 64
     7
 65
   257
 75
     1
175
     1
 42
1.0
 92
        8
 66
     7
 43
1.0
 76
     1
 77
     6
 78
     2
 67
     7
 79
     5
170
     0
171
     0
290
     0
174
     0
 93
        1
 44
-50.0
173
     0
291
     1
 45
0.0
1001
ACAD
1000
AcDbSavedByObjectVersion
1070
     0
  0
VISUALSTYLE
  5
EC34
102
{ACAD_XDICTIONARY
360
ECA4
102
}
102
{ACAD_REACTORS
330
EC1C
102
}
330
EC1C
100
AcDbVisualStyle
  2
EdgeColorOff
 70
    22
 71
     2
 72
     2
 73
     0
 90
        0
 40
-0.6
 41
-30.0
 62
     5
 63
     7
 74
     1
 91
        4
 64
     7
 65
   257
 75
     1
175
     1
 42
1.0
 92
        8
 66
     7
 43
1.0
 76
     1
 77
     6
 78
     2
 67
     7
 79
     5
170
     0
171
     0
290
     0
174
     0
 93
        1
 44
0.0
173
     0
291
     1
 45
0.0
1001
ACAD
1000
AcDbSavedByObjectVersion
1070
     0
  0
VISUALSTYLE
  5
EC2B
102
{ACAD_XDICTIONARY
360
EC92
102
}
102
{ACAD_REACTORS
330
EC1C
102
}
330
EC1C
100
AcDbVisualStyle
  2
Facepattern
 70
    15
 71
     2
 72
     2
 73
     0
 90
        0
 40
-0.6
 41
-30.0
 62
     5
 63
     7
 74
     1
 91
        4
 64
     7
 65
   257
 75
     1
175
     1
 42
1.0
 92
        8
 66
     7
 43
1.0
 76
     1
 77
     6
 78
     2
 67
     7
 79
     5
170
     0
171
     0
290
     0
174
     0
 93
        1
 44
0.0
173
     0
291
     1
 45
0.0
1001
ACAD
1000
AcDbSavedByObjectVersion
1070
     0
  0
VISUALSTYLE
  5
EC1D
102
{ACAD_XDICTIONARY
360
EC76
102
}
102
{ACAD_REACTORS
330
EC1C
102
}
330
EC1C
100
AcDbVisualStyle
  2
Flat
 70
     0
 71
     2
 72
     1
 73
     1
 90
        2
 40
-0.6
 41
30.0
 62
     5
 63
     7
 74
     0
 91
        0
 64
     7
 65
   257
 75
     1
175
     1
 42
1.0
 92
        8
 66
     7
 43
1.0
 76
     1
 77
     6
 78
     2
 67
     7
 79
     5
170
     0
171
     0
290
     0
174
     0
 93
       13
 44
0.0
173
     0
291
     1
 45
0.0
1001
ACAD
1000
AcDbSavedByObjectVersion
1070
     0
  0
VISUALSTYLE
  5
EC1E
102
{ACAD_XDICTIONARY
360
EC78
102
}
102
{ACAD_REACTORS
330
EC1C
102
}
330
EC1C
100
AcDbVisualStyle
  2
FlatWithEdges
 70
     1
 71
     2
 72
     1
 73
     1
 90
        2
 40
-0.6
 41
30.0
 62
     5
 63
     7
 74
     1
 91
        0
 64
     7
 65
   257
 75
     1
175
     1
 42
1.0
 92
        0
 66
   257
 43
1.0
 76
     1
 77
     6
 78
     2
 67
     7
 79
     5
170
     0
171
     0
290
     0
174
     0
 93
       13
 44
0.0
173
     0
291
     1
 45
0.0
1001
ACAD
1000
AcDbSavedByObjectVersion
1070
     0
  0
VISUALSTYLE
  5
EC1F
102
{ACAD_XDICTIONARY
360
EC7A
102
}
102
{ACAD_REACTORS
330
EC1C
102
}
330
EC1C
100
AcDbVisualStyle
  2
Gouraud
 70
     2
 71
     2
 72
     2
 73
     1
 90
        2
 40
-0.6
 41
30.0
 62
     5
 63
     7
 74
     0
 91
        0
 64
     7
 65
   257
 75
     1
175
     1
 42
1.0
 92
        0
 66
     7
 43
1.0
 76
     1
 77
     6
 78
     2
 67
     7
 79
     5
170
     0
171
     0
290
     0
174
     0
 93
       13
 44
0.0
173
     0
291
     1
 45
0.0
1001
ACAD
1000
AcDbSavedByObjectVersion
1070
     0
  0
VISUALSTYLE
  5
EC20
102
{ACAD_XDICTIONARY
360
EC7C
102
}
102
{ACAD_REACTORS
330
EC1C
102
}
330
EC1C
100
AcDbVisualStyle
  2
GouraudWithEdges
 70
     3
 71
     2
 72
     2
 73
     1
 90
        2
 40
-0.6
 41
30.0
 62
     5
 63
     7
 74
     1
 91
        0
 64
     7
 65
   257
 75
     1
175
     1
 42
1.0
 92
        0
 66
   257
 43
1.0
 76
     1
 77
     6
 78
     2
 67
     7
 79
     5
170
     0
171
     0
290
     0
174
     0
 93
       13
 44
0.0
173
     0
291
     1
 45
0.0
1001
ACAD
1000
AcDbSavedByObjectVersion
1070
     0
  0
VISUALSTYLE
  5
EC24
102
{ACAD_XDICTIONARY
360
EC84
102
}
102
{ACAD_REACTORS
330
EC1C
102
}
330
EC1C
100
AcDbVisualStyle
  2
Hidden
 70
     6
 71
     1
 72
     2
 73
     2
 90
        0
 40
-0.6
 41
-30.0
 62
     5
 63
     7
 74
     2
 91
        2
 64
     7
 65
   257
 75
     2
175
     1
 42
40.0
 92
        0
 66
   257
 43
1.0
 76
     1
 77
     6
 78
     2
 67
     7
 79
     3
170
     0
171
     0
290
     0
174
     0
 93
        1
 44
0.0
173
     0
291
     0
 45
0.0
1001
ACAD
1000
AcDbSavedByObjectVersion
1070
     0
  0
VISUALSTYLE
  5
EC32
102
{ACAD_XDICTIONARY
360
ECA0
102
}
102
{ACAD_REACTORS
330
EC1C
102
}
330
EC1C
100
AcDbVisualStyle
  2
JitterOff
 70
    20
 71
     2
 72
     2
 73
     0
 90
        0
 40
-0.6
 41
-30.0
 62
     5
 63
     7
 74
     1
 91
        4
 64
     7
 65
   257
 75
     1
175
     1
 42
1.0
 92
       10
 66
     7
 43
1.0
 76
     1
 77
     6
 78
     2
 67
     7
 79
     5
170
     0
171
     0
290
     0
174
     0
 93
        1
 44
0.0
173
     0
291
     1
 45
0.0
1001
ACAD
1000
AcDbSavedByObjectVersion
1070
     0
  0
VISUALSTYLE
  5
EC2A
102
{ACAD_XDICTIONARY
360
EC90
102
}
102
{ACAD_REACTORS
330
EC1C
102
}
330
EC1C
100
AcDbVisualStyle
  2
Linepattern
 70
    14
 71
     2
 72
     2
 73
     0
 90
        0
 40
-0.6
 41
-30.0
 62
     5
 63
     7
 74
     1
 91
        4
 64
     7
 65
   257
 75
     7
175
     7
 42
1.0
 92
        8
 66
     7
 43
1.0
 76
     1
 77
     6
 78
     2
 67
     7
 79
     5
170
     0
171
     0
290
     0
174
     0
 93
        1
 44
0.0
173
     0
291
     1
 45
0.0
1001
ACAD
1000
AcDbSavedByObjectVersion
1070
     0
  0
VISUALSTYLE
  5
EC33
102
{ACAD_XDICTIONARY
360
ECA2
102
}
102
{ACAD_REACTORS
330
EC1C
102
}
330
EC1C
100
AcDbVisualStyle
  2
OverhangOff
 70
    21
 71
     2
 72
     2
 73
     0
 90
        0
 40
-0.6
 41
-30.0
 62
     5
 63
     7
 74
     1
 91
        4
 64
     7
 65
   257
 75
     1
175
     1
 42
1.0
 92
        9
 66
     7
 43
1.0
 76
     1
 77
     6
 78
     2
 67
     7
 79
     5
170
     0
171
     0
290
     0
174
     0
 93
        1
 44
0.0
173
     0
291
     1
 45
0.0
1001
ACAD
1000
AcDbSavedByObjectVersion
1070
     0
  0
VISUALSTYLE
  5
EC26
102
{ACAD_XDICTIONARY
360
EC88
102
}
102
{ACAD_REACTORS
330
EC1C
102
}
330
EC1C
100
AcDbVisualStyle
  2
Realistic
 70
     8
 71
     2
 72
     3
 73
     0
 90
        2
 40
-0.6
 41
30.0
 62
     5
 63
     7
 74
     0
 91
        0
 64
     7
 65
   257
 75
     1
175
     1
 42
1.0
 92
        8
 66
   257
 43
1.0
 76
     1
 77
     6
 78
     2
 67
     7
 79
     3
170
     0
171
     0
290
     0
174
     0
 93
       13
 44
0.0
173
     0
291
     0
 45
0.0
1001
ACAD
1000
AcDbSavedByObjectVersion
1070
     0
  0
VISUALSTYLE
  5
EC31
102
{ACAD_XDICTIONARY
360
EC9E
102
}
102
{ACAD_REACTORS
330
EC1C
102
}
330
EC1C
100
AcDbVisualStyle
  2
Shaded
 70
    27
 71
     2
 72
     2
 73
     1
 90
        2
 40
-0.6
 41
30.0
 62
     5
 63
     7
 74
     0
 91
        4
 64
     7
 65
   257
 75
     1
175
     1
 42
1.0
 92
        8
 66
   257
 43
1.0
 76
     1
 77
     6
 78
     2
 67
     8
 79
     3
170
     0
171
     0
290
     0
174
     0
 93
        5
 44
0.0
173
     0
291
     0
 45
0.0
1001
ACAD
1000
AcDbSavedByObjectVersion
1070
     0
  0
VISUALSTYLE
  5
EC30
102
{ACAD_XDICTIONARY
360
EC9C
102
}
102
{ACAD_REACTORS
330
EC1C
102
}
330
EC1C
100
AcDbVisualStyle
  2
Shaded with edges
 70
    26
 71
     2
 72
     2
 73
     1
 90
        2
 40
-0.6
 41
30.0
 62
     5
 63
     7
 74
     1
 91
       10
 64
     7
 65
   257
 75
     2
175
     1
 42
1.0
 92
        8
 66
   257
 43
1.0
 76
     1
 77
     6
 78
     2
 67
     7
 79
     3
170
     0
171
     0
290
     0
174
     0
 93
        5
 44
0.0
173
     0
291
     0
 45
0.0
1001
ACAD
1000
AcDbSavedByObjectVersion
1070
     0
  0
VISUALSTYLE
  5
EC2D
102
{ACAD_XDICTIONARY
360
EC96
102
}
102
{ACAD_REACTORS
330
EC1C
102
}
330
EC1C
100
AcDbVisualStyle
  2
Shades of Gray
 70
    23
 71
     2
 72
     2
 73
     3
 90
        0
 40
-0.6
 41
-30.0
 62
     5
 63
     7
 74
     2
 91
        2
 64
     7
 65
     7
 75
     1
175
     1
 42
40.0
 92
        8
 66
     7
 43
1.0
 76
     1
 77
     6
 78
     2
 67
     7
 79
     3
170
     0
171
     0
290
     0
174
     0
 93
        1
 44
0.0
173
     0
291
     0
 45
0.0
1001
ACAD
1000
AcDbSavedByObjectVersion
1070
     0
  0
VISUALSTYLE
  5
EC2E
102
{ACAD_XDICTIONARY
360
EC98
102
}
102
{ACAD_REACTORS
330
EC1C
102
}
330
EC1C
100
AcDbVisualStyle
  2
Sketchy
 70
    24
 71
     1
 72
     2
 73
     2
 90
        0
 40
-0.6
 41
-30.0
 62
     5
 63
     7
 74
     2
 91
        2
 64
     7
 65
     7
 75
     1
175
     1
 42
40.0
 92
       11
 66
     7
 43
1.0
 76
     1
 77
     6
 78
     2
 67
     7
 79
     6
170
     0
171
     0
290
     0
174
     0
 93
        1
 44
0.0
173
     0
291
     0
 45
0.0
1001
ACAD
1000
AcDbSavedByObjectVersion
1070
     0
  0
VISUALSTYLE
  5
EC29
102
{ACAD_XDICTIONARY
360
EC8E
102
}
102
{ACAD_REACTORS
330
EC1C
102
}
330
EC1C
100
AcDbVisualStyle
  2
Thicken
 70
    13
 71
     2
 72
     2
 73
     0
 90
        0
 40
-0.6
 41
-30.0
 62
     5
 63
     7
 74
     1
 91
        4
 64
     7
 65
   257
 75
     1
175
     1
 42
1.0
 92
       12
 66
     7
 43
1.0
 76
     1
 77
     6
 78
     2
 67
     7
 79
     5
170
     0
171
     0
290
     0
174
     0
 93
        1
 44
0.0
173
     0
291
     1
 45
0.0
1001
ACAD
1000
AcDbSavedByObjectVersion
1070
     0
  0
VISUALSTYLE
  5
EC23
102
{ACAD_XDICTIONARY
360
EC82
102
}
102
{ACAD_REACTORS
330
EC1C
102
}
330
EC1C
100
AcDbVisualStyle
  2
Wireframe
 70
     5
 71
     0
 72
     2
 73
     0
 90
        0
 40
-0.6
 41
-30.0
 62
     5
 63
     7
 74
     1
 91
        4
 64
     7
 65
   257
 75
     1
175
     1
 42
1.0
 92
        0
 66
   257
 43
1.0
 76
     1
 77
     6
 78
     2
 67
     7
 79
     3
170
     0
171
     0
290
     0
174
     0
 93
        1
 44
0.0
173
     0
291
     0
 45
0.0
1001
ACAD
1000
AcDbSavedByObjectVersion
1070
     0
  0
VISUALSTYLE
  5
EC2F
102
{ACAD_XDICTIONARY
360
EC9A
102
}
102
{ACAD_REACTORS
330
EC1C
102
}
330
EC1C
100
AcDbVisualStyle
  2
X-Ray
 70
    25
 71
     2
 72
     2
 73
     1
 90
        1
 40
0.5
 41
-30.0
 62
     5
 63
     7
 74
     1
 91
        0
 64
     7
 65
   257
 75
     1
175
     1
 42
1.0
 92
        8
 66
     7
 43
1.0
 76
     1
 77
     6
 78
     2
 67
     7
 79
     3
170
     0
171
     0
290
     0
174
     0
 93
       13
 44
0.0
173
     0
291
     0
 45
0.0
1001
ACAD
1000
AcDbSavedByObjectVersion
1070
     0
  0
DICTIONARYVAR
  5
EC69
102
{ACAD_REACTORS
330
EC64
102
}
330
EC64
100
DictionaryVariables
280
     0
  1
1:1
  0
DICTIONARYVAR
  5
EC66
102
{ACAD_REACTORS
330
EC64
102
}
330
EC64
100
DictionaryVariables
280
     0
  1
STANDARD
  0
DICTIONARYVAR
  5
EC65
102
{ACAD_REACTORS
330
EC64
102
}
330
EC64
100
DictionaryVariables
280
     0
  1
STANDARD
  0
DICTIONARYVAR
  5
EC67
102
{ACAD_REACTORS
330
EC64
102
}
330
EC64
100
DictionaryVariables
280
     0
  1
Imperial24
  0
DICTIONARYVAR
  5
EC68
102
{ACAD_REACTORS
330
EC64
102
}
330
EC64
100
DictionaryVariables
280
     0
  1
Imperial24
  0
DICTIONARYVAR
  5
EC6C
102
{ACAD_REACTORS
330
EC64
102
}
330
EC64
100
DictionaryVariables
280
     0
  1
1
  0
DICTIONARYVAR
  5
EC6B
102
{ACAD_REACTORS
330
EC64
102
}
330
EC64
100
DictionaryVariables
280
     0
  1
0
  0
DICTIONARYVAR
  5
EC6A
102
{ACAD_REACTORS
330
EC64
102
}
330
EC64
100
DictionaryVariables
280
     0
  1
127
  0
DICTIONARYVAR
  5
EC6D
102
{ACAD_REACTORS
330
EC64
102
}
330
EC64
100
DictionaryVariables
280
     0
  1
2
  0
DICTIONARY
  5
ECAA
330
EC4F
100
AcDbDictionary
280
     1
281
     1
  3
ACAD_XREC_ROUNDTRIP
360
ECAB
  0
DICTIONARY
  5
ECAC
330
EC50
100
AcDbDictionary
280
     1
281
     1
  3
ACAD_XREC_ROUNDTRIP
360
ECAD
  0
DICTIONARY
  5
ECAE
330
EC51
100
AcDbDictionary
280
     1
281
     1
  3
ACAD_XREC_ROUNDTRIP
360
ECAF
  0
DICTIONARY
  5
EC0D
330
EC0C
100
AcDbDictionary
280
     1
281
     1
  3
ACAD_XREC_ROUNDTRIP
360
EC74
  3
BUMPTILE
360
EC0F
  3
DIFFUSETILE
360
EC0E
  3
OPACITYTILE
360
EC12
  3
REFLECTIONTILE
360
EC11
  3
REFRACTIONTILE
360
EC13
  3
SPECULARTILE
360
EC10
  0
DICTIONARY
  5
EC05
330
EC04
100
AcDbDictionary
280
     1
281
     1
  3
ACAD_XREC_ROUNDTRIP
360
EC73
  3
BUMPTILE
360
EC07
  3
DIFFUSETILE
360
EC06
  3
OPACITYTILE
360
EC0A
  3
REFLECTIONTILE
360
EC09
  3
REFRACTIONTILE
360
EC0B
  3
SPECULARTILE
360
EC08
  0
DICTIONARY
  5
EC15
330
EC14
100
AcDbDictionary
280
     1
281
     1
  3
ACAD_XREC_ROUNDTRIP
360
EC75
  3
BUMPTILE
360
EC17
  3
DIFFUSETILE
360
EC16
  3
OPACITYTILE
360
EC1A
  3
REFLECTIONTILE
360
EC19
  3
REFRACTIONTILE
360
EC1B
  3
SPECULARTILE
360
EC18
  0
DICTIONARY
  5
ECA8
330
EC4D
100
AcDbDictionary
280
     1
281
     1
  3
ACAD_XREC_ROUNDTRIP
360
ECA9
  0
DICTIONARY
  5
EC6F
330
EC37
100
AcDbDictionary
280
     1
281
     1
  3
ACAD_ROUNDTRIP_2008_TABLESTYLE_CELLSTYLEMAP
360
EC70
  3
ACAD_XREC_ROUNDTRIP
360
ECA6
  0
DICTIONARY
  5
EC80
330
EC22
100
AcDbDictionary
280
     1
281
     1
  3
ACAD_XREC_ROUNDTRIP
360
EC81
  0
DICTIONARY
  5
EC7E
330
EC21
100
AcDbDictionary
280
     1
281
     1
  3
ACAD_XREC_ROUNDTRIP
360
EC7F
  0
DICTIONARY
  5
EC8C
330
EC28
100
AcDbDictionary
280
     1
281
     1
  3
ACAD_XREC_ROUNDTRIP
360
EC8D
  0
DICTIONARY
  5
EC94
330
EC2C
100
AcDbDictionary
280
     1
281
     1
  3
ACAD_XREC_ROUNDTRIP
360
EC95
  0
DICTIONARY
  5
EC86
330
EC25
100
AcDbDictionary
280
     1
281
     1
  3
ACAD_XREC_ROUNDTRIP
360
EC87
  0
DICTIONARY
  5
EC8A
330
EC27
100
AcDbDictionary
280
     1
281
     1
  3
ACAD_XREC_ROUNDTRIP
360
EC8B
  0
DICTIONARY
  5
ECA4
330
EC34
100
AcDbDictionary
280
     1
281
     1
  3
ACAD_XREC_ROUNDTRIP
360
ECA5
  0
DICTIONARY
  5
EC92
330
EC2B
100
AcDbDictionary
280
     1
281
     1
  3
ACAD_XREC_ROUNDTRIP
360
EC93
  0
DICTIONARY
  5
EC76
330
EC1D
100
AcDbDictionary
280
     1
281
     1
  3
ACAD_XREC_ROUNDTRIP
360
EC77
  0
DICTIONARY
  5
EC78
330
EC1E
100
AcDbDictionary
280
     1
281
     1
  3
ACAD_XREC_ROUNDTRIP
360
EC79
  0
DICTIONARY
  5
EC7A
330
EC1F
100
AcDbDictionary
280
     1
281
     1
  3
ACAD_XREC_ROUNDTRIP
360
EC7B
  0
DICTIONARY
  5
EC7C
330
EC20
100
AcDbDictionary
280
     1
281
     1
  3
ACAD_XREC_ROUNDTRIP
360
EC7D
  0
DICTIONARY
  5
EC84
330
EC24
100
AcDbDictionary
280
     1
281
     1
  3
ACAD_XREC_ROUNDTRIP
360
EC85
  0
DICTIONARY
  5
ECA0
330
EC32
100
AcDbDictionary
280
     1
281
     1
  3
ACAD_XREC_ROUNDTRIP
360
ECA1
  0
DICTIONARY
  5
EC90
330
EC2A
100
AcDbDictionary
280
     1
281
     1
  3
ACAD_XREC_ROUNDTRIP
360
EC91
  0
DICTIONARY
  5
ECA2
330
EC33
100
AcDbDictionary
280
     1
281
     1
  3
ACAD_XREC_ROUNDTRIP
360
ECA3
  0
DICTIONARY
  5
EC88
330
EC26
100
AcDbDictionary
280
     1
281
     1
  3
ACAD_XREC_ROUNDTRIP
360
EC89
  0
DICTIONARY
  5
EC9E
330
EC31
100
AcDbDictionary
280
     1
281
     1
  3
ACAD_XREC_ROUNDTRIP
360
EC9F
  0
DICTIONARY
  5
EC9C
330
EC30
100
AcDbDictionary
280
     1
281
     1
  3
ACAD_XREC_ROUNDTRIP
360
EC9D
  0
DICTIONARY
  5
EC96
330
EC2D
100
AcDbDictionary
280
     1
281
     1
  3
ACAD_XREC_ROUNDTRIP
360
EC97
  0
DICTIONARY
  5
EC98
330
EC2E
100
AcDbDictionary
280
     1
281
     1
  3
ACAD_XREC_ROUNDTRIP
360
EC99
  0
DICTIONARY
  5
EC8E
330
EC29
100
AcDbDictionary
280
     1
281
     1
  3
ACAD_XREC_ROUNDTRIP
360
EC8F
  0
DICTIONARY
  5
EC82
330
EC23
100
AcDbDictionary
280
     1
281
     1
  3
ACAD_XREC_ROUNDTRIP
360
EC83
  0
DICTIONARY
  5
EC9A
330
EC2F
100
AcDbDictionary
280
     1
281
     1
  3
ACAD_XREC_ROUNDTRIP
360
EC9B
  0
XRECORD
  5
ECAB
102
{ACAD_REACTORS
330
ECAA
102
}
330
ECAA
100
AcDbXrecord
280
     1
102
DISPLAYNAME
  1
Imperial24
102
FLAGS
 90
        0
  0
XRECORD
  5
ECAD
102
{ACAD_REACTORS
330
ECAC
102
}
330
ECAC
100
AcDbXrecord
280
     1
102
SHADEPLOT
 70
     0
102
SHADEPLOTRESLEVEL
 70
     2
102
SHADEPLOTCUSTOMDPI
 70
   300
  0
XRECORD
  5
ECAF
102
{ACAD_REACTORS
330
ECAE
102
}
330
ECAE
100
AcDbXrecord
280
     1
102
SHADEPLOT
 70
     0
102
SHADEPLOTRESLEVEL
 70
     2
102
SHADEPLOTCUSTOMDPI
 70
   300
  0
XRECORD
  5
EC74
102
{ACAD_REACTORS
330
EC0D
102
}
330
EC0D
100
AcDbXrecord
280
     1
102
MATERIAL
148
0.0
149
0.0
149
0.0
 93
        0
 94
      127
282
     0
 72
     0
 77
     0
171
     0
175
     0
179
     0
273
     0
  0
XRECORD
  5
EC0F
102
{ACAD_REACTORS
330
EC0D
102
}
330
EC0D
100
AcDbXrecord
280
     1
270
     1
271
     1
  0
XRECORD
  5
EC0E
102
{ACAD_REACTORS
330
EC0D
102
}
330
EC0D
100
AcDbXrecord
280
     1
270
     1
271
     1
  0
XRECORD
  5
EC12
102
{ACAD_REACTORS
330
EC0D
102
}
330
EC0D
100
AcDbXrecord
280
     1
270
     1
271
     1
  0
XRECORD
  5
EC11
102
{ACAD_REACTORS
330
EC0D
102
}
330
EC0D
100
AcDbXrecord
280
     1
270
     1
271
     1
  0
XRECORD
  5
EC13
102
{ACAD_REACTORS
330
EC0D
102
}
330
EC0D
100
AcDbXrecord
280
     1
270
     1
271
     1
  0
XRECORD
  5
EC10
102
{ACAD_REACTORS
330
EC0D
102
}
330
EC0D
100
AcDbXrecord
280
     1
270
     1
271
     1
  0
XRECORD
  5
EC73
102
{ACAD_REACTORS
330
EC05
102
}
330
EC05
100
AcDbXrecord
280
     1
102
MATERIAL
148
0.0
149
0.0
149
0.0
 93
        0
 94
      127
282
     0
 72
     0
 77
     0
171
     0
175
     0
179
     0
273
     0
  0
XRECORD
  5
EC07
102
{ACAD_REACTORS
330
EC05
102
}
330
EC05
100
AcDbXrecord
280
     1
270
     1
271
     1
  0
XRECORD
  5
EC06
102
{ACAD_REACTORS
330
EC05
102
}
330
EC05
100
AcDbXrecord
280
     1
270
     1
271
     1
  0
XRECORD
  5
EC0A
102
{ACAD_REACTORS
330
EC05
102
}
330
EC05
100
AcDbXrecord
280
     1
270
     1
271
     1
  0
XRECORD
  5
EC09
102
{ACAD_REACTORS
330
EC05
102
}
330
EC05
100
AcDbXrecord
280
     1
270
     1
271
     1
  0
XRECORD
  5
EC0B
102
{ACAD_REACTORS
330
EC05
102
}
330
EC05
100
AcDbXrecord
280
     1
270
     1
271
     1
  0
XRECORD
  5
EC08
102
{ACAD_REACTORS
330
EC05
102
}
330
EC05
100
AcDbXrecord
280
     1
270
     1
271
     1
  0
XRECORD
  5
EC75
102
{ACAD_REACTORS
330
EC15
102
}
330
EC15
100
AcDbXrecord
280
     1
102
MATERIAL
148
0.0
149
0.0
149
0.0
 93
        0
 94
      127
282
     0
 72
     0
 77
     0
171
     0
175
     0
179
     0
273
     0
  0
XRECORD
  5
EC17
102
{ACAD_REACTORS
330
EC15
102
}
330
EC15
100
AcDbXrecord
280
     1
270
     1
271
     1
  0
XRECORD
  5
EC16
102
{ACAD_REACTORS
330
EC15
102
}
330
EC15
100
AcDbXrecord
280
     1
270
     1
271
     1
  0
XRECORD
  5
EC1A
102
{ACAD_REACTORS
330
EC15
102
}
330
EC15
100
AcDbXrecord
280
     1
270
     1
271
     1
  0
XRECORD
  5
EC19
102
{ACAD_REACTORS
330
EC15
102
}
330
EC15
100
AcDbXrecord
280
     1
270
     1
271
     1
  0
XRECORD
  5
EC1B
102
{ACAD_REACTORS
330
EC15
102
}
330
EC15
100
AcDbXrecord
280
     1
270
     1
271
     1
  0
XRECORD
  5
EC18
102
{ACAD_REACTORS
330
EC15
102
}
330
EC15
100
AcDbXrecord
280
     1
270
     1
271
     1
  0
XRECORD
  5
ECA9
102
{ACAD_REACTORS
330
ECA8
102
}
330
ECA8
100
AcDbXrecord
280
     1
102
DISPLAYNAME
  1
Imperial24
102
FLAGS
 90
        0
  0
CELLSTYLEMAP
  5
EC70
102
{ACAD_REACTORS
330
EC6F
102
}
330
EC6F
100
AcDbCellStyleMap
 90
        3
300
CELLSTYLE
  1
TABLEFORMAT_BEGIN
 90
        5
170
     1
 91
        0
 92
    32768
 62
   257
 93
        1
300
CONTENTFORMAT
  1
CONTENTFORMAT_BEGIN
 90
        0
 91
        0
 92
      512
 93
        0
300

 40
0.0
140
1.0
 94
        5
 62
     0
340
E9E1
144
0.25
309
CONTENTFORMAT_END
171
     0
 94
        0
309
TABLEFORMAT_END
  1
CELLSTYLE_BEGIN
 90
        1
 91
        1
300
_TITLE
309
CELLSTYLE_END
300
CELLSTYLE
  1
TABLEFORMAT_BEGIN
 90
        5
170
     1
 91
        0
 92
        0
 62
   257
 93
        1
300
CONTENTFORMAT
  1
CONTENTFORMAT_BEGIN
 90
        0
 91
        0
 92
      512
 93
        0
300

 40
0.0
140
1.0
 94
        5
 62
     0
340
E9E1
144
0.18
309
CONTENTFORMAT_END
171
     0
 94
        0
309
TABLEFORMAT_END
  1
CELLSTYLE_BEGIN
 90
        2
 91
        1
300
_HEADER
309
CELLSTYLE_END
300
CELLSTYLE
  1
TABLEFORMAT_BEGIN
 90
        5
170
     1
 91
        0
 92
        0
 62
   257
 93
        1
300
CONTENTFORMAT
  1
CONTENTFORMAT_BEGIN
 90
        0
 91
        0
 92
      512
 93
        0
300

 40
0.0
140
1.0
 94
        2
 62
     0
340
E9E1
144
0.18
309
CONTENTFORMAT_END
171
     0
 94
        0
309
TABLEFORMAT_END
  1
CELLSTYLE_BEGIN
 90
        3
 91
        2
300
_DATA
309
CELLSTYLE_END
  0
XRECORD
  5
ECA6
102
{ACAD_REACTORS
330
EC6F
102
}
330
EC6F
100
AcDbXrecord
280
     1
102
ACAD_ROUNDTRIP_PRE2007_TABLESTYLE
 90
      512
 91
        0
  1

 92
      512
 93
        0
  2

 94
      512
 95
        0
  3

  0
XRECORD
  5
EC81
102
{ACAD_REACTORS
330
EC80
102
}
330
EC80
100
AcDbXrecord
280
     1
102
RTVSPost2010Prop28
280
     1
102
RTVSPost2010PropOp28
 70
     1
102
RTVSPost2010Prop29
280
     1
102
RTVSPost2010PropOp29
 70
     1
102
RTVSPost2010Prop30
280
     0
102
RTVSPost2010PropOp30
 70
     1
102
RTVSPost2010Prop31
280
     0
102
RTVSPost2010PropOp31
 70
     1
102
RTVSPost2010Prop32
280
     0
102
RTVSPost2010PropOp32
 70
     1
102
RTVSPost2010Prop33
280
     0
102
RTVSPost2010PropOp33
 70
     1
102
RTVSPost2010Prop34
280
     0
102
RTVSPost2010PropOp34
 70
     1
102
RTVSPost2010Prop35
280
     0
102
RTVSPost2010PropOp35
 70
     1
102
RTVSPost2010Prop36
280
     0
102
RTVSPost2010PropOp36
 70
     1
102
RTVSPost2010Prop37
 90
       50
102
RTVSPost2010PropOp37
 70
     1
102
RTVSPost2010Prop38
140
0.0
102
RTVSPost2010PropOp38
 70
     1
102
RTVSPost2010Prop39
140
1.0
102
RTVSPost2010PropOp39
 70
     1
102
RTVSPost2010Prop40
 90
        0
102
RTVSPost2010PropOp40
 70
     1
102
RTVSPost2010Prop41ColorIndex
 90
       18
102
RTVSPost2010Prop41ColorRGB
 90
        0
102
RTVSPost2010PropOp41
 70
     1
102
RTVSPost2010Prop42
 90
       50
102
RTVSPost2010PropOp42
 70
     1
102
RTVSPost2010Prop43
 90
        3
102
RTVSPost2010PropOp43
 70
     1
102
RTVSPost2010Prop44ColorIndex
 90
        5
102
RTVSPost2010Prop44ColorRGB
 90
      255
102
RTVSPost2010PropOp44
 70
     1
102
RTVSPost2010Prop45
280
     0
102
RTVSPost2010PropOp45
 70
     1
102
RTVSPost2010Prop46
 90
       50
102
RTVSPost2010PropOp46
 70
     1
102
RTVSPost2010Prop47
 90
       50
102
RTVSPost2010PropOp47
 70
     1
102
RTVSPost2010Prop48
 90
       50
102
RTVSPost2010PropOp48
 70
     1
102
RTVSPost2010Prop49
280
     0
102
RTVSPost2010PropOp49
 70
     1
102
RTVSPost2010Prop50
 90
       50
102
RTVSPost2010PropOp50
 70
     1
102
RTVSPost2010Prop51ColorIndex
 90
      256
102
RTVSPost2010Prop51ColorRGB
 90
-16777216
102
RTVSPost2010PropOp51
 70
     0
102
RTVSPost2010Prop52
140
1.0
102
RTVSPost2010PropOp52
 70
     0
102
RTVSPost2010Prop53
 90
        2
102
RTVSPost2010PropOp53
 70
     1
102
RTVSPost2010Prop54
  1
strokes_ogs.tif
102
RTVSPost2010PropOp54
 70
     1
102
RTVSPost2010Prop55
280
     0
102
RTVSPost2010PropOp55
 70
     1
102
RTVSPost2010Prop56
140
1.0
102
RTVSPost2010PropOp56
 70
     1
102
RTVSPost2010Prop57
140
1.0
102
RTVSPost2010PropOp57
 70
     1
102
RTVSPropertyOp0
 70
     1
102
RTVSPropertyOp1
 70
     1
102
RTVSPropertyOp2
 70
     1
102
RTVSPropertyOp3
 70
     1
102
RTVSPropertyOp4
 70
     1
102
RTVSPropertyOp5
 70
     1
102
RTVSPropertyOp6
 70
     1
102
RTVSPropertyOp7
 70
     1
102
RTVSPropertyOp8
 70
     1
102
RTVSPropertyOp9
 70
     1
102
RTVSPropertyOp10
 70
     1
102
RTVSPropertyOp11
 70
     1
102
RTVSPropertyOp12
 70
     1
102
RTVSPropertyOp13
 70
     1
102
RTVSPropertyOp14
 70
     1
102
RTVSPropertyOp15
 70
     1
102
RTVSPropertyOp16
 70
     1
102
RTVSPropertyOp17
 70
     1
102
RTVSPropertyOp18
 70
     1
102
RTVSPropertyOp19
 70
     1
102
RTVSPropertyOp20
 70
     1
102
RTVSPropertyOp21
 70
     1
102
RTVSPropertyOp22
 70
     1
102
RTVSPropertyOp23
 70
     1
102
RTVSPropertyOp24
 70
     1
102
RTVSPropertyOp25
 70
     1
102
RTVSPropertyOp26
 70
     1
102
RTVSPropertyOp27
 70
     1
102
RTVSPropertyOp28
 70
     1
102
RTVSPropertyOp29
 70
     1
102
RTVSPropertyOp30
 70
     1
102
RTVSPropertyOp31
 70
     1
102
RTVSPropertyOp32
 70
     1
102
RTVSPropertyOp33
 70
     1
102
RTVSPropertyOp34
 70
     1
102
RTVSPropertyOp35
 70
     1
102
RTVSPropertyOp36
 70
     1
102
RTVSPropertyOp37
 70
     1
102
RTVSPropertyOp38
 70
     1
102
RTVSPropertyOp39
 70
     1
102
RTVSPropertyOp40
 70
     1
102
RTVSPropertyOp41
 70
     1
102
RTVSPropertyOp42
 70
     1
102
RTVSPropertyOp43
 70
     1
102
RTVSPropertyOp44
 70
     1
102
RTVSPropertyOp45
 70
     1
102
RTVSPropertyOp46
 70
     1
102
RTVSPropertyOp47
 70
     1
102
RTVSPropertyOp48
 70
     1
102
RTVSPropertyOp49
 70
     1
102
RTVSPropertyOp50
 70
     1
102
RTVSPropertyOp51
 70
     0
102
RTVSPropertyOp52
 70
     0
102
RTVSPropertyOp53
 70
     1
102
RTVSPropertyOp54
 70
     1
102
RTVSPropertyOp55
 70
     1
102
RTVSPropertyOp56
 70
     1
102
RTVSPropertyOp57
 70
     1
102
RTVSPropertyOp58
 70
     1
102
RTVSPropertyOp59
 70
     1
102
RTVSPropertyOp60
 70
     1
102
RTVSPropertyOp61
 70
     1
102
RTVSPropertyOp62
 70
     1
  0
XRECORD
  5
EC7F
102
{ACAD_REACTORS
330
EC7E
102
}
330
EC7E
100
AcDbXrecord
280
     1
102
RTVSPost2010Prop28
280
     0
102
RTVSPost2010PropOp28
 70
     1
102
RTVSPost2010Prop29
280
     1
102
RTVSPost2010PropOp29
 70
     1
102
RTVSPost2010Prop30
280
     1
102
RTVSPost2010PropOp30
 70
     1
102
RTVSPost2010Prop31
280
     0
102
RTVSPost2010PropOp31
 70
     1
102
RTVSPost2010Prop32
280
     0
102
RTVSPost2010PropOp32
 70
     1
102
RTVSPost2010Prop33
280
     0
102
RTVSPost2010PropOp33
 70
     1
102
RTVSPost2010Prop34
280
     0
102
RTVSPost2010PropOp34
 70
     1
102
RTVSPost2010Prop35
280
     0
102
RTVSPost2010PropOp35
 70
     1
102
RTVSPost2010Prop36
280
     0
102
RTVSPost2010PropOp36
 70
     1
102
RTVSPost2010Prop37
 90
       50
102
RTVSPost2010PropOp37
 70
     1
102
RTVSPost2010Prop38
140
0.0
102
RTVSPost2010PropOp38
 70
     1
102
RTVSPost2010Prop39
140
1.0
102
RTVSPost2010PropOp39
 70
     1
102
RTVSPost2010Prop40
 90
        0
102
RTVSPost2010PropOp40
 70
     1
102
RTVSPost2010Prop41ColorIndex
 90
       18
102
RTVSPost2010Prop41ColorRGB
 90
        0
102
RTVSPost2010PropOp41
 70
     1
102
RTVSPost2010Prop42
 90
       50
102
RTVSPost2010PropOp42
 70
     1
102
RTVSPost2010Prop43
 90
        3
102
RTVSPost2010PropOp43
 70
     1
102
RTVSPost2010Prop44ColorIndex
 90
        5
102
RTVSPost2010Prop44ColorRGB
 90
      255
102
RTVSPost2010PropOp44
 70
     1
102
RTVSPost2010Prop45
280
     0
102
RTVSPost2010PropOp45
 70
     1
102
RTVSPost2010Prop46
 90
       50
102
RTVSPost2010PropOp46
 70
     1
102
RTVSPost2010Prop47
 90
       50
102
RTVSPost2010PropOp47
 70
     1
102
RTVSPost2010Prop48
 90
       50
102
RTVSPost2010PropOp48
 70
     1
102
RTVSPost2010Prop49
280
     0
102
RTVSPost2010PropOp49
 70
     1
102
RTVSPost2010Prop50
 90
       50
102
RTVSPost2010PropOp50
 70
     1
102
RTVSPost2010Prop51ColorIndex
 90
      256
102
RTVSPost2010Prop51ColorRGB
 90
-16777216
102
RTVSPost2010PropOp51
 70
     0
102
RTVSPost2010Prop52
140
1.0
102
RTVSPost2010PropOp52
 70
     0
102
RTVSPost2010Prop53
 90
        2
102
RTVSPost2010PropOp53
 70
     1
102
RTVSPost2010Prop54
  1
strokes_ogs.tif
102
RTVSPost2010PropOp54
 70
     1
102
RTVSPost2010Prop55
280
     0
102
RTVSPost2010PropOp55
 70
     1
102
RTVSPost2010Prop56
140
1.0
102
RTVSPost2010PropOp56
 70
     1
102
RTVSPost2010Prop57
140
1.0
102
RTVSPost2010PropOp57
 70
     1
102
RTVSPropertyOp0
 70
     1
102
RTVSPropertyOp1
 70
     1
102
RTVSPropertyOp2
 70
     1
102
RTVSPropertyOp3
 70
     1
102
RTVSPropertyOp4
 70
     1
102
RTVSPropertyOp5
 70
     1
102
RTVSPropertyOp6
 70
     1
102
RTVSPropertyOp7
 70
     1
102
RTVSPropertyOp8
 70
     1
102
RTVSPropertyOp9
 70
     1
102
RTVSPropertyOp10
 70
     1
102
RTVSPropertyOp11
 70
     1
102
RTVSPropertyOp12
 70
     1
102
RTVSPropertyOp13
 70
     1
102
RTVSPropertyOp14
 70
     1
102
RTVSPropertyOp15
 70
     1
102
RTVSPropertyOp16
 70
     1
102
RTVSPropertyOp17
 70
     1
102
RTVSPropertyOp18
 70
     1
102
RTVSPropertyOp19
 70
     1
102
RTVSPropertyOp20
 70
     1
102
RTVSPropertyOp21
 70
     1
102
RTVSPropertyOp22
 70
     1
102
RTVSPropertyOp23
 70
     1
102
RTVSPropertyOp24
 70
     1
102
RTVSPropertyOp25
 70
     1
102
RTVSPropertyOp26
 70
     1
102
RTVSPropertyOp27
 70
     1
102
RTVSPropertyOp28
 70
     1
102
RTVSPropertyOp29
 70
     1
102
RTVSPropertyOp30
 70
     1
102
RTVSPropertyOp31
 70
     1
102
RTVSPropertyOp32
 70
     1
102
RTVSPropertyOp33
 70
     1
102
RTVSPropertyOp34
 70
     1
102
RTVSPropertyOp35
 70
     1
102
RTVSPropertyOp36
 70
     1
102
RTVSPropertyOp37
 70
     1
102
RTVSPropertyOp38
 70
     1
102
RTVSPropertyOp39
 70
     1
102
RTVSPropertyOp40
 70
     1
102
RTVSPropertyOp41
 70
     1
102
RTVSPropertyOp42
 70
     1
102
RTVSPropertyOp43
 70
     1
102
RTVSPropertyOp44
 70
     1
102
RTVSPropertyOp45
 70
     1
102
RTVSPropertyOp46
 70
     1
102
RTVSPropertyOp47
 70
     1
102
RTVSPropertyOp48
 70
     1
102
RTVSPropertyOp49
 70
     1
102
RTVSPropertyOp50
 70
     1
102
RTVSPropertyOp51
 70
     0
102
RTVSPropertyOp52
 70
     0
102
RTVSPropertyOp53
 70
     1
102
RTVSPropertyOp54
 70
     1
102
RTVSPropertyOp55
 70
     1
102
RTVSPropertyOp56
 70
     1
102
RTVSPropertyOp57
 70
     1
102
RTVSPropertyOp58
 70
     1
102
RTVSPropertyOp59
 70
     1
102
RTVSPropertyOp60
 70
     1
102
RTVSPropertyOp61
 70
     1
102
RTVSPropertyOp62
 70
     1
  0
XRECORD
  5
EC8D
102
{ACAD_REACTORS
330
EC8C
102
}
330
EC8C
100
AcDbXrecord
280
     1
102
RTVSPost2010Prop28
280
     0
102
RTVSPost2010PropOp28
 70
     1
102
RTVSPost2010Prop29
280
     1
102
RTVSPost2010PropOp29
 70
     1
102
RTVSPost2010Prop30
280
     1
102
RTVSPost2010PropOp30
 70
     1
102
RTVSPost2010Prop31
280
     0
102
RTVSPost2010PropOp31
 70
     1
102
RTVSPost2010Prop32
280
     0
102
RTVSPost2010PropOp32
 70
     1
102
RTVSPost2010Prop33
280
     0
102
RTVSPost2010PropOp33
 70
     1
102
RTVSPost2010Prop34
280
     0
102
RTVSPost2010PropOp34
 70
     1
102
RTVSPost2010Prop35
280
     0
102
RTVSPost2010PropOp35
 70
     1
102
RTVSPost2010Prop36
280
     0
102
RTVSPost2010PropOp36
 70
     1
102
RTVSPost2010Prop37
 90
       50
102
RTVSPost2010PropOp37
 70
     1
102
RTVSPost2010Prop38
140
0.0
102
RTVSPost2010PropOp38
 70
     1
102
RTVSPost2010Prop39
140
1.0
102
RTVSPost2010PropOp39
 70
     1
102
RTVSPost2010Prop40
 90
        0
102
RTVSPost2010PropOp40
 70
     1
102
RTVSPost2010Prop41ColorIndex
 90
       18
102
RTVSPost2010Prop41ColorRGB
 90
        0
102
RTVSPost2010PropOp41
 70
     1
102
RTVSPost2010Prop42
 90
       50
102
RTVSPost2010PropOp42
 70
     1
102
RTVSPost2010Prop43
 90
        3
102
RTVSPost2010PropOp43
 70
     1
102
RTVSPost2010Prop44ColorIndex
 90
        5
102
RTVSPost2010Prop44ColorRGB
 90
      255
102
RTVSPost2010PropOp44
 70
     1
102
RTVSPost2010Prop45
280
     0
102
RTVSPost2010PropOp45
 70
     1
102
RTVSPost2010Prop46
 90
       50
102
RTVSPost2010PropOp46
 70
     1
102
RTVSPost2010Prop47
 90
       50
102
RTVSPost2010PropOp47
 70
     1
102
RTVSPost2010Prop48
 90
       50
102
RTVSPost2010PropOp48
 70
     1
102
RTVSPost2010Prop49
280
     0
102
RTVSPost2010PropOp49
 70
     1
102
RTVSPost2010Prop50
 90
       50
102
RTVSPost2010PropOp50
 70
     1
102
RTVSPost2010Prop51ColorIndex
 90
      256
102
RTVSPost2010Prop51ColorRGB
 90
-16777216
102
RTVSPost2010PropOp51
 70
     0
102
RTVSPost2010Prop52
140
1.0
102
RTVSPost2010PropOp52
 70
     0
102
RTVSPost2010Prop53
 90
        2
102
RTVSPost2010PropOp53
 70
     1
102
RTVSPost2010Prop54
  1
strokes_ogs.tif
102
RTVSPost2010PropOp54
 70
     1
102
RTVSPost2010Prop55
280
     0
102
RTVSPost2010PropOp55
 70
     1
102
RTVSPost2010Prop56
140
1.0
102
RTVSPost2010PropOp56
 70
     1
102
RTVSPost2010Prop57
140
1.0
102
RTVSPost2010PropOp57
 70
     1
102
RTVSPropertyOp0
 70
     1
102
RTVSPropertyOp1
 70
     1
102
RTVSPropertyOp2
 70
     1
102
RTVSPropertyOp3
 70
     1
102
RTVSPropertyOp4
 70
     1
102
RTVSPropertyOp5
 70
     1
102
RTVSPropertyOp6
 70
     1
102
RTVSPropertyOp7
 70
     1
102
RTVSPropertyOp8
 70
     1
102
RTVSPropertyOp9
 70
     1
102
RTVSPropertyOp10
 70
     1
102
RTVSPropertyOp11
 70
     1
102
RTVSPropertyOp12
 70
     1
102
RTVSPropertyOp13
 70
     1
102
RTVSPropertyOp14
 70
     1
102
RTVSPropertyOp15
 70
     1
102
RTVSPropertyOp16
 70
     1
102
RTVSPropertyOp17
 70
     1
102
RTVSPropertyOp18
 70
     1
102
RTVSPropertyOp19
 70
     1
102
RTVSPropertyOp20
 70
     1
102
RTVSPropertyOp21
 70
     1
102
RTVSPropertyOp22
 70
     1
102
RTVSPropertyOp23
 70
     1
102
RTVSPropertyOp24
 70
     1
102
RTVSPropertyOp25
 70
     1
102
RTVSPropertyOp26
 70
     1
102
RTVSPropertyOp27
 70
     1
102
RTVSPropertyOp28
 70
     1
102
RTVSPropertyOp29
 70
     1
102
RTVSPropertyOp30
 70
     1
102
RTVSPropertyOp31
 70
     1
102
RTVSPropertyOp32
 70
     1
102
RTVSPropertyOp33
 70
     1
102
RTVSPropertyOp34
 70
     1
102
RTVSPropertyOp35
 70
     1
102
RTVSPropertyOp36
 70
     1
102
RTVSPropertyOp37
 70
     1
102
RTVSPropertyOp38
 70
     1
102
RTVSPropertyOp39
 70
     1
102
RTVSPropertyOp40
 70
     1
102
RTVSPropertyOp41
 70
     1
102
RTVSPropertyOp42
 70
     1
102
RTVSPropertyOp43
 70
     1
102
RTVSPropertyOp44
 70
     1
102
RTVSPropertyOp45
 70
     1
102
RTVSPropertyOp46
 70
     1
102
RTVSPropertyOp47
 70
     1
102
RTVSPropertyOp48
 70
     1
102
RTVSPropertyOp49
 70
     1
102
RTVSPropertyOp50
 70
     1
102
RTVSPropertyOp51
 70
     0
102
RTVSPropertyOp52
 70
     0
102
RTVSPropertyOp53
 70
     1
102
RTVSPropertyOp54
 70
     1
102
RTVSPropertyOp55
 70
     1
102
RTVSPropertyOp56
 70
     1
102
RTVSPropertyOp57
 70
     1
102
RTVSPropertyOp58
 70
     1
102
RTVSPropertyOp59
 70
     1
102
RTVSPropertyOp60
 70
     1
102
RTVSPropertyOp61
 70
     1
102
RTVSPropertyOp62
 70
     1
  0
XRECORD
  5
EC95
102
{ACAD_REACTORS
330
EC94
102
}
330
EC94
100
AcDbXrecord
280
     1
102
RTVSPost2010Prop28
280
     0
102
RTVSPost2010PropOp28
 70
     1
102
RTVSPost2010Prop29
280
     1
102
RTVSPost2010PropOp29
 70
     1
102
RTVSPost2010Prop30
280
     1
102
RTVSPost2010PropOp30
 70
     1
102
RTVSPost2010Prop31
280
     0
102
RTVSPost2010PropOp31
 70
     1
102
RTVSPost2010Prop32
280
     0
102
RTVSPost2010PropOp32
 70
     1
102
RTVSPost2010Prop33
280
     0
102
RTVSPost2010PropOp33
 70
     1
102
RTVSPost2010Prop34
280
     0
102
RTVSPost2010PropOp34
 70
     1
102
RTVSPost2010Prop35
280
     0
102
RTVSPost2010PropOp35
 70
     1
102
RTVSPost2010Prop36
280
     0
102
RTVSPost2010PropOp36
 70
     1
102
RTVSPost2010Prop37
 90
       50
102
RTVSPost2010PropOp37
 70
     1
102
RTVSPost2010Prop38
140
0.0
102
RTVSPost2010PropOp38
 70
     1
102
RTVSPost2010Prop39
140
1.0
102
RTVSPost2010PropOp39
 70
     1
102
RTVSPost2010Prop40
 90
        0
102
RTVSPost2010PropOp40
 70
     1
102
RTVSPost2010Prop41ColorIndex
 90
       18
102
RTVSPost2010Prop41ColorRGB
 90
        0
102
RTVSPost2010PropOp41
 70
     1
102
RTVSPost2010Prop42
 90
       50
102
RTVSPost2010PropOp42
 70
     1
102
RTVSPost2010Prop43
 90
        3
102
RTVSPost2010PropOp43
 70
     1
102
RTVSPost2010Prop44ColorIndex
 90
        5
102
RTVSPost2010Prop44ColorRGB
 90
      255
102
RTVSPost2010PropOp44
 70
     1
102
RTVSPost2010Prop45
280
     0
102
RTVSPost2010PropOp45
 70
     1
102
RTVSPost2010Prop46
 90
       50
102
RTVSPost2010PropOp46
 70
     1
102
RTVSPost2010Prop47
 90
       50
102
RTVSPost2010PropOp47
 70
     1
102
RTVSPost2010Prop48
 90
       50
102
RTVSPost2010PropOp48
 70
     1
102
RTVSPost2010Prop49
280
     0
102
RTVSPost2010PropOp49
 70
     1
102
RTVSPost2010Prop50
 90
       50
102
RTVSPost2010PropOp50
 70
     1
102
RTVSPost2010Prop51ColorIndex
 90
      256
102
RTVSPost2010Prop51ColorRGB
 90
-16777216
102
RTVSPost2010PropOp51
 70
     0
102
RTVSPost2010Prop52
140
1.0
102
RTVSPost2010PropOp52
 70
     0
102
RTVSPost2010Prop53
 90
        2
102
RTVSPost2010PropOp53
 70
     1
102
RTVSPost2010Prop54
  1
strokes_ogs.tif
102
RTVSPost2010PropOp54
 70
     1
102
RTVSPost2010Prop55
280
     0
102
RTVSPost2010PropOp55
 70
     1
102
RTVSPost2010Prop56
140
1.0
102
RTVSPost2010PropOp56
 70
     1
102
RTVSPost2010Prop57
140
1.0
102
RTVSPost2010PropOp57
 70
     1
102
RTVSPropertyOp0
 70
     1
102
RTVSPropertyOp1
 70
     1
102
RTVSPropertyOp2
 70
     1
102
RTVSPropertyOp3
 70
     1
102
RTVSPropertyOp4
 70
     1
102
RTVSPropertyOp5
 70
     1
102
RTVSPropertyOp6
 70
     1
102
RTVSPropertyOp7
 70
     1
102
RTVSPropertyOp8
 70
     1
102
RTVSPropertyOp9
 70
     1
102
RTVSPropertyOp10
 70
     1
102
RTVSPropertyOp11
 70
     1
102
RTVSPropertyOp12
 70
     1
102
RTVSPropertyOp13
 70
     1
102
RTVSPropertyOp14
 70
     1
102
RTVSPropertyOp15
 70
     1
102
RTVSPropertyOp16
 70
     1
102
RTVSPropertyOp17
 70
     1
102
RTVSPropertyOp18
 70
     1
102
RTVSPropertyOp19
 70
     1
102
RTVSPropertyOp20
 70
     1
102
RTVSPropertyOp21
 70
     1
102
RTVSPropertyOp22
 70
     1
102
RTVSPropertyOp23
 70
     1
102
RTVSPropertyOp24
 70
     1
102
RTVSPropertyOp25
 70
     1
102
RTVSPropertyOp26
 70
     1
102
RTVSPropertyOp27
 70
     1
102
RTVSPropertyOp28
 70
     1
102
RTVSPropertyOp29
 70
     1
102
RTVSPropertyOp30
 70
     1
102
RTVSPropertyOp31
 70
     1
102
RTVSPropertyOp32
 70
     1
102
RTVSPropertyOp33
 70
     1
102
RTVSPropertyOp34
 70
     1
102
RTVSPropertyOp35
 70
     1
102
RTVSPropertyOp36
 70
     1
102
RTVSPropertyOp37
 70
     1
102
RTVSPropertyOp38
 70
     1
102
RTVSPropertyOp39
 70
     1
102
RTVSPropertyOp40
 70
     1
102
RTVSPropertyOp41
 70
     1
102
RTVSPropertyOp42
 70
     1
102
RTVSPropertyOp43
 70
     1
102
RTVSPropertyOp44
 70
     1
102
RTVSPropertyOp45
 70
     1
102
RTVSPropertyOp46
 70
     1
102
RTVSPropertyOp47
 70
     1
102
RTVSPropertyOp48
 70
     1
102
RTVSPropertyOp49
 70
     1
102
RTVSPropertyOp50
 70
     1
102
RTVSPropertyOp51
 70
     0
102
RTVSPropertyOp52
 70
     0
102
RTVSPropertyOp53
 70
     1
102
RTVSPropertyOp54
 70
     1
102
RTVSPropertyOp55
 70
     1
102
RTVSPropertyOp56
 70
     1
102
RTVSPropertyOp57
 70
     1
102
RTVSPropertyOp58
 70
     1
102
RTVSPropertyOp59
 70
     1
102
RTVSPropertyOp60
 70
     1
102
RTVSPropertyOp61
 70
     1
102
RTVSPropertyOp62
 70
     1
  0
XRECORD
  5
EC87
102
{ACAD_REACTORS
330
EC86
102
}
330
EC86
100
AcDbXrecord
280
     1
102
RTVSPost2010Prop28
280
     0
102
RTVSPost2010PropOp28
 70
     1
102
RTVSPost2010Prop29
280
     1
102
RTVSPost2010PropOp29
 70
     1
102
RTVSPost2010Prop30
280
     1
102
RTVSPost2010PropOp30
 70
     1
102
RTVSPost2010Prop31
280
     0
102
RTVSPost2010PropOp31
 70
     1
102
RTVSPost2010Prop32
280
     0
102
RTVSPost2010PropOp32
 70
     1
102
RTVSPost2010Prop33
280
     0
102
RTVSPost2010PropOp33
 70
     1
102
RTVSPost2010Prop34
280
     0
102
RTVSPost2010PropOp34
 70
     1
102
RTVSPost2010Prop35
280
     0
102
RTVSPost2010PropOp35
 70
     1
102
RTVSPost2010Prop36
280
     0
102
RTVSPost2010PropOp36
 70
     1
102
RTVSPost2010Prop37
 90
       50
102
RTVSPost2010PropOp37
 70
     1
102
RTVSPost2010Prop38
140
0.0
102
RTVSPost2010PropOp38
 70
     1
102
RTVSPost2010Prop39
140
1.0
102
RTVSPost2010PropOp39
 70
     1
102
RTVSPost2010Prop40
 90
        0
102
RTVSPost2010PropOp40
 70
     1
102
RTVSPost2010Prop41ColorIndex
 90
       18
102
RTVSPost2010Prop41ColorRGB
 90
        0
102
RTVSPost2010PropOp41
 70
     1
102
RTVSPost2010Prop42
 90
       50
102
RTVSPost2010PropOp42
 70
     1
102
RTVSPost2010Prop43
 90
        3
102
RTVSPost2010PropOp43
 70
     1
102
RTVSPost2010Prop44ColorIndex
 90
        5
102
RTVSPost2010Prop44ColorRGB
 90
      255
102
RTVSPost2010PropOp44
 70
     1
102
RTVSPost2010Prop45
280
     0
102
RTVSPost2010PropOp45
 70
     1
102
RTVSPost2010Prop46
 90
       50
102
RTVSPost2010PropOp46
 70
     1
102
RTVSPost2010Prop47
 90
       50
102
RTVSPost2010PropOp47
 70
     1
102
RTVSPost2010Prop48
 90
       50
102
RTVSPost2010PropOp48
 70
     1
102
RTVSPost2010Prop49
280
     0
102
RTVSPost2010PropOp49
 70
     1
102
RTVSPost2010Prop50
 90
       50
102
RTVSPost2010PropOp50
 70
     1
102
RTVSPost2010Prop51ColorIndex
 90
      256
102
RTVSPost2010Prop51ColorRGB
 90
-16777216
102
RTVSPost2010PropOp51
 70
     0
102
RTVSPost2010Prop52
140
1.0
102
RTVSPost2010PropOp52
 70
     0
102
RTVSPost2010Prop53
 90
        2
102
RTVSPost2010PropOp53
 70
     1
102
RTVSPost2010Prop54
  1
strokes_ogs.tif
102
RTVSPost2010PropOp54
 70
     1
102
RTVSPost2010Prop55
280
     0
102
RTVSPost2010PropOp55
 70
     1
102
RTVSPost2010Prop56
140
1.0
102
RTVSPost2010PropOp56
 70
     1
102
RTVSPost2010Prop57
140
1.0
102
RTVSPost2010PropOp57
 70
     1
102
RTVSPropertyOp0
 70
     1
102
RTVSPropertyOp1
 70
     1
102
RTVSPropertyOp2
 70
     1
102
RTVSPropertyOp3
 70
     1
102
RTVSPropertyOp4
 70
     1
102
RTVSPropertyOp5
 70
     1
102
RTVSPropertyOp6
 70
     1
102
RTVSPropertyOp7
 70
     1
102
RTVSPropertyOp8
 70
     1
102
RTVSPropertyOp9
 70
     1
102
RTVSPropertyOp10
 70
     1
102
RTVSPropertyOp11
 70
     1
102
RTVSPropertyOp12
 70
     1
102
RTVSPropertyOp13
 70
     1
102
RTVSPropertyOp14
 70
     1
102
RTVSPropertyOp15
 70
     1
102
RTVSPropertyOp16
 70
     1
102
RTVSPropertyOp17
 70
     1
102
RTVSPropertyOp18
 70
     1
102
RTVSPropertyOp19
 70
     1
102
RTVSPropertyOp20
 70
     1
102
RTVSPropertyOp21
 70
     1
102
RTVSPropertyOp22
 70
     1
102
RTVSPropertyOp23
 70
     1
102
RTVSPropertyOp24
 70
     1
102
RTVSPropertyOp25
 70
     1
102
RTVSPropertyOp26
 70
     1
102
RTVSPropertyOp27
 70
     1
102
RTVSPropertyOp28
 70
     1
102
RTVSPropertyOp29
 70
     1
102
RTVSPropertyOp30
 70
     1
102
RTVSPropertyOp31
 70
     1
102
RTVSPropertyOp32
 70
     1
102
RTVSPropertyOp33
 70
     1
102
RTVSPropertyOp34
 70
     1
102
RTVSPropertyOp35
 70
     1
102
RTVSPropertyOp36
 70
     1
102
RTVSPropertyOp37
 70
     1
102
RTVSPropertyOp38
 70
     1
102
RTVSPropertyOp39
 70
     1
102
RTVSPropertyOp40
 70
     1
102
RTVSPropertyOp41
 70
     1
102
RTVSPropertyOp42
 70
     1
102
RTVSPropertyOp43
 70
     1
102
RTVSPropertyOp44
 70
     1
102
RTVSPropertyOp45
 70
     1
102
RTVSPropertyOp46
 70
     1
102
RTVSPropertyOp47
 70
     1
102
RTVSPropertyOp48
 70
     1
102
RTVSPropertyOp49
 70
     1
102
RTVSPropertyOp50
 70
     1
102
RTVSPropertyOp51
 70
     0
102
RTVSPropertyOp52
 70
     0
102
RTVSPropertyOp53
 70
     1
102
RTVSPropertyOp54
 70
     1
102
RTVSPropertyOp55
 70
     1
102
RTVSPropertyOp56
 70
     1
102
RTVSPropertyOp57
 70
     1
102
RTVSPropertyOp58
 70
     1
102
RTVSPropertyOp59
 70
     1
102
RTVSPropertyOp60
 70
     1
102
RTVSPropertyOp61
 70
     1
102
RTVSPropertyOp62
 70
     1
  0
XRECORD
  5
EC8B
102
{ACAD_REACTORS
330
EC8A
102
}
330
EC8A
100
AcDbXrecord
280
     1
102
RTVSPost2010Prop28
280
     0
102
RTVSPost2010PropOp28
 70
     1
102
RTVSPost2010Prop29
280
     1
102
RTVSPost2010PropOp29
 70
     1
102
RTVSPost2010Prop30
280
     1
102
RTVSPost2010PropOp30
 70
     1
102
RTVSPost2010Prop31
280
     0
102
RTVSPost2010PropOp31
 70
     1
102
RTVSPost2010Prop32
280
     0
102
RTVSPost2010PropOp32
 70
     1
102
RTVSPost2010Prop33
280
     0
102
RTVSPost2010PropOp33
 70
     1
102
RTVSPost2010Prop34
280
     0
102
RTVSPost2010PropOp34
 70
     1
102
RTVSPost2010Prop35
280
     0
102
RTVSPost2010PropOp35
 70
     1
102
RTVSPost2010Prop36
280
     0
102
RTVSPost2010PropOp36
 70
     1
102
RTVSPost2010Prop37
 90
       50
102
RTVSPost2010PropOp37
 70
     1
102
RTVSPost2010Prop38
140
0.0
102
RTVSPost2010PropOp38
 70
     1
102
RTVSPost2010Prop39
140
1.0
102
RTVSPost2010PropOp39
 70
     1
102
RTVSPost2010Prop40
 90
        0
102
RTVSPost2010PropOp40
 70
     1
102
RTVSPost2010Prop41ColorIndex
 90
       18
102
RTVSPost2010Prop41ColorRGB
 90
        0
102
RTVSPost2010PropOp41
 70
     1
102
RTVSPost2010Prop42
 90
       50
102
RTVSPost2010PropOp42
 70
     1
102
RTVSPost2010Prop43
 90
        3
102
RTVSPost2010PropOp43
 70
     1
102
RTVSPost2010Prop44ColorIndex
 90
        5
102
RTVSPost2010Prop44ColorRGB
 90
      255
102
RTVSPost2010PropOp44
 70
     1
102
RTVSPost2010Prop45
280
     0
102
RTVSPost2010PropOp45
 70
     1
102
RTVSPost2010Prop46
 90
       50
102
RTVSPost2010PropOp46
 70
     1
102
RTVSPost2010Prop47
 90
       50
102
RTVSPost2010PropOp47
 70
     1
102
RTVSPost2010Prop48
 90
       50
102
RTVSPost2010PropOp48
 70
     1
102
RTVSPost2010Prop49
280
     0
102
RTVSPost2010PropOp49
 70
     1
102
RTVSPost2010Prop50
 90
       50
102
RTVSPost2010PropOp50
 70
     1
102
RTVSPost2010Prop51ColorIndex
 90
      256
102
RTVSPost2010Prop51ColorRGB
 90
-16777216
102
RTVSPost2010PropOp51
 70
     0
102
RTVSPost2010Prop52
140
1.0
102
RTVSPost2010PropOp52
 70
     0
102
RTVSPost2010Prop53
 90
        2
102
RTVSPost2010PropOp53
 70
     1
102
RTVSPost2010Prop54
  1
strokes_ogs.tif
102
RTVSPost2010PropOp54
 70
     1
102
RTVSPost2010Prop55
280
     0
102
RTVSPost2010PropOp55
 70
     1
102
RTVSPost2010Prop56
140
1.0
102
RTVSPost2010PropOp56
 70
     1
102
RTVSPost2010Prop57
140
1.0
102
RTVSPost2010PropOp57
 70
     1
102
RTVSPropertyOp0
 70
     1
102
RTVSPropertyOp1
 70
     1
102
RTVSPropertyOp2
 70
     1
102
RTVSPropertyOp3
 70
     1
102
RTVSPropertyOp4
 70
     1
102
RTVSPropertyOp5
 70
     1
102
RTVSPropertyOp6
 70
     1
102
RTVSPropertyOp7
 70
     1
102
RTVSPropertyOp8
 70
     1
102
RTVSPropertyOp9
 70
     1
102
RTVSPropertyOp10
 70
     1
102
RTVSPropertyOp11
 70
     1
102
RTVSPropertyOp12
 70
     1
102
RTVSPropertyOp13
 70
     1
102
RTVSPropertyOp14
 70
     1
102
RTVSPropertyOp15
 70
     1
102
RTVSPropertyOp16
 70
     1
102
RTVSPropertyOp17
 70
     1
102
RTVSPropertyOp18
 70
     1
102
RTVSPropertyOp19
 70
     1
102
RTVSPropertyOp20
 70
     1
102
RTVSPropertyOp21
 70
     1
102
RTVSPropertyOp22
 70
     1
102
RTVSPropertyOp23
 70
     1
102
RTVSPropertyOp24
 70
     1
102
RTVSPropertyOp25
 70
     1
102
RTVSPropertyOp26
 70
     1
102
RTVSPropertyOp27
 70
     1
102
RTVSPropertyOp28
 70
     1
102
RTVSPropertyOp29
 70
     1
102
RTVSPropertyOp30
 70
     1
102
RTVSPropertyOp31
 70
     1
102
RTVSPropertyOp32
 70
     1
102
RTVSPropertyOp33
 70
     1
102
RTVSPropertyOp34
 70
     1
102
RTVSPropertyOp35
 70
     1
102
RTVSPropertyOp36
 70
     1
102
RTVSPropertyOp37
 70
     1
102
RTVSPropertyOp38
 70
     1
102
RTVSPropertyOp39
 70
     1
102
RTVSPropertyOp40
 70
     1
102
RTVSPropertyOp41
 70
     1
102
RTVSPropertyOp42
 70
     1
102
RTVSPropertyOp43
 70
     1
102
RTVSPropertyOp44
 70
     1
102
RTVSPropertyOp45
 70
     1
102
RTVSPropertyOp46
 70
     1
102
RTVSPropertyOp47
 70
     1
102
RTVSPropertyOp48
 70
     1
102
RTVSPropertyOp49
 70
     1
102
RTVSPropertyOp50
 70
     1
102
RTVSPropertyOp51
 70
     0
102
RTVSPropertyOp52
 70
     0
102
RTVSPropertyOp53
 70
     1
102
RTVSPropertyOp54
 70
     1
102
RTVSPropertyOp55
 70
     1
102
RTVSPropertyOp56
 70
     1
102
RTVSPropertyOp57
 70
     1
102
RTVSPropertyOp58
 70
     1
102
RTVSPropertyOp59
 70
     1
102
RTVSPropertyOp60
 70
     1
102
RTVSPropertyOp61
 70
     1
102
RTVSPropertyOp62
 70
     1
  0
XRECORD
  5
ECA5
102
{ACAD_REACTORS
330
ECA4
102
}
330
ECA4
100
AcDbXrecord
280
     1
102
RTVSPost2010Prop28
280
     0
102
RTVSPost2010PropOp28
 70
     1
102
RTVSPost2010Prop29
280
     1
102
RTVSPost2010PropOp29
 70
     1
102
RTVSPost2010Prop30
280
     1
102
RTVSPost2010PropOp30
 70
     1
102
RTVSPost2010Prop31
280
     0
102
RTVSPost2010PropOp31
 70
     1
102
RTVSPost2010Prop32
280
     0
102
RTVSPost2010PropOp32
 70
     1
102
RTVSPost2010Prop33
280
     0
102
RTVSPost2010PropOp33
 70
     1
102
RTVSPost2010Prop34
280
     0
102
RTVSPost2010PropOp34
 70
     1
102
RTVSPost2010Prop35
280
     0
102
RTVSPost2010PropOp35
 70
     1
102
RTVSPost2010Prop36
280
     0
102
RTVSPost2010PropOp36
 70
     1
102
RTVSPost2010Prop37
 90
       50
102
RTVSPost2010PropOp37
 70
     0
102
RTVSPost2010Prop38
140
0.0
102
RTVSPost2010PropOp38
 70
     0
102
RTVSPost2010Prop39
140
1.0
102
RTVSPost2010PropOp39
 70
     0
102
RTVSPost2010Prop40
 90
        0
102
RTVSPost2010PropOp40
 70
     0
102
RTVSPost2010Prop41ColorIndex
 90
       18
102
RTVSPost2010Prop41ColorRGB
 90
        0
102
RTVSPost2010PropOp41
 70
     0
102
RTVSPost2010Prop42
 90
       50
102
RTVSPost2010PropOp42
 70
     0
102
RTVSPost2010Prop43
 90
        3
102
RTVSPost2010PropOp43
 70
     0
102
RTVSPost2010Prop44ColorIndex
 90
        5
102
RTVSPost2010Prop44ColorRGB
 90
      255
102
RTVSPost2010PropOp44
 70
     0
102
RTVSPost2010Prop45
280
     0
102
RTVSPost2010PropOp45
 70
     1
102
RTVSPost2010Prop46
 90
       50
102
RTVSPost2010PropOp46
 70
     0
102
RTVSPost2010Prop47
 90
       50
102
RTVSPost2010PropOp47
 70
     0
102
RTVSPost2010Prop48
 90
       50
102
RTVSPost2010PropOp48
 70
     0
102
RTVSPost2010Prop49
280
     0
102
RTVSPost2010PropOp49
 70
     1
102
RTVSPost2010Prop50
 90
       50
102
RTVSPost2010PropOp50
 70
     0
102
RTVSPost2010Prop51ColorIndex
 90
      256
102
RTVSPost2010Prop51ColorRGB
 90
-16777216
102
RTVSPost2010PropOp51
 70
     0
102
RTVSPost2010Prop52
140
1.0
102
RTVSPost2010PropOp52
 70
     0
102
RTVSPost2010Prop53
 90
        2
102
RTVSPost2010PropOp53
 70
     0
102
RTVSPost2010Prop54
  1
strokes_ogs.tif
102
RTVSPost2010PropOp54
 70
     0
102
RTVSPost2010Prop55
280
     0
102
RTVSPost2010PropOp55
 70
     1
102
RTVSPost2010Prop56
140
1.0
102
RTVSPost2010PropOp56
 70
     0
102
RTVSPost2010Prop57
140
1.0
102
RTVSPost2010PropOp57
 70
     0
102
RTVSPropertyOp0
 70
     0
102
RTVSPropertyOp1
 70
     0
102
RTVSPropertyOp2
 70
     0
102
RTVSPropertyOp3
 70
     0
102
RTVSPropertyOp4
 70
     0
102
RTVSPropertyOp5
 70
     0
102
RTVSPropertyOp6
 70
     0
102
RTVSPropertyOp7
 70
     0
102
RTVSPropertyOp8
 70
     0
102
RTVSPropertyOp9
 70
     0
102
RTVSPropertyOp10
 70
     0
102
RTVSPropertyOp11
 70
     0
102
RTVSPropertyOp12
 70
     0
102
RTVSPropertyOp13
 70
     0
102
RTVSPropertyOp14
 70
     2
102
RTVSPropertyOp15
 70
     0
102
RTVSPropertyOp16
 70
     0
102
RTVSPropertyOp17
 70
     0
102
RTVSPropertyOp18
 70
     0
102
RTVSPropertyOp19
 70
     0
102
RTVSPropertyOp20
 70
     0
102
RTVSPropertyOp21
 70
     0
102
RTVSPropertyOp22
 70
     0
102
RTVSPropertyOp23
 70
     0
102
RTVSPropertyOp24
 70
     0
102
RTVSPropertyOp25
 70
     0
102
RTVSPropertyOp26
 70
     0
102
RTVSPropertyOp27
 70
     0
102
RTVSPropertyOp28
 70
     1
102
RTVSPropertyOp29
 70
     1
102
RTVSPropertyOp30
 70
     1
102
RTVSPropertyOp31
 70
     1
102
RTVSPropertyOp32
 70
     1
102
RTVSPropertyOp33
 70
     1
102
RTVSPropertyOp34
 70
     1
102
RTVSPropertyOp35
 70
     1
102
RTVSPropertyOp36
 70
     1
102
RTVSPropertyOp37
 70
     0
102
RTVSPropertyOp38
 70
     0
102
RTVSPropertyOp39
 70
     0
102
RTVSPropertyOp40
 70
     0
102
RTVSPropertyOp41
 70
     0
102
RTVSPropertyOp42
 70
     0
102
RTVSPropertyOp43
 70
     0
102
RTVSPropertyOp44
 70
     0
102
RTVSPropertyOp45
 70
     1
102
RTVSPropertyOp46
 70
     0
102
RTVSPropertyOp47
 70
     0
102
RTVSPropertyOp48
 70
     0
102
RTVSPropertyOp49
 70
     1
102
RTVSPropertyOp50
 70
     0
102
RTVSPropertyOp51
 70
     0
102
RTVSPropertyOp52
 70
     0
102
RTVSPropertyOp53
 70
     0
102
RTVSPropertyOp54
 70
     0
102
RTVSPropertyOp55
 70
     1
102
RTVSPropertyOp56
 70
     0
102
RTVSPropertyOp57
 70
     0
102
RTVSPropertyOp58
 70
     0
102
RTVSPropertyOp59
 70
     0
102
RTVSPropertyOp60
 70
     0
102
RTVSPropertyOp61
 70
     0
102
RTVSPropertyOp62
 70
     0
  0
XRECORD
  5
EC93
102
{ACAD_REACTORS
330
EC92
102
}
330
EC92
100
AcDbXrecord
280
     1
102
RTVSPost2010Prop28
280
     0
102
RTVSPost2010PropOp28
 70
     1
102
RTVSPost2010Prop29
280
     1
102
RTVSPost2010PropOp29
 70
     1
102
RTVSPost2010Prop30
280
     1
102
RTVSPost2010PropOp30
 70
     1
102
RTVSPost2010Prop31
280
     0
102
RTVSPost2010PropOp31
 70
     1
102
RTVSPost2010Prop32
280
     0
102
RTVSPost2010PropOp32
 70
     1
102
RTVSPost2010Prop33
280
     0
102
RTVSPost2010PropOp33
 70
     1
102
RTVSPost2010Prop34
280
     0
102
RTVSPost2010PropOp34
 70
     1
102
RTVSPost2010Prop35
280
     0
102
RTVSPost2010PropOp35
 70
     1
102
RTVSPost2010Prop36
280
     0
102
RTVSPost2010PropOp36
 70
     1
102
RTVSPost2010Prop37
 90
       50
102
RTVSPost2010PropOp37
 70
     1
102
RTVSPost2010Prop38
140
0.0
102
RTVSPost2010PropOp38
 70
     1
102
RTVSPost2010Prop39
140
1.0
102
RTVSPost2010PropOp39
 70
     1
102
RTVSPost2010Prop40
 90
        0
102
RTVSPost2010PropOp40
 70
     1
102
RTVSPost2010Prop41ColorIndex
 90
       18
102
RTVSPost2010Prop41ColorRGB
 90
        0
102
RTVSPost2010PropOp41
 70
     1
102
RTVSPost2010Prop42
 90
       50
102
RTVSPost2010PropOp42
 70
     1
102
RTVSPost2010Prop43
 90
        3
102
RTVSPost2010PropOp43
 70
     1
102
RTVSPost2010Prop44ColorIndex
 90
        5
102
RTVSPost2010Prop44ColorRGB
 90
      255
102
RTVSPost2010PropOp44
 70
     1
102
RTVSPost2010Prop45
280
     0
102
RTVSPost2010PropOp45
 70
     1
102
RTVSPost2010Prop46
 90
       50
102
RTVSPost2010PropOp46
 70
     1
102
RTVSPost2010Prop47
 90
       50
102
RTVSPost2010PropOp47
 70
     1
102
RTVSPost2010Prop48
 90
       50
102
RTVSPost2010PropOp48
 70
     1
102
RTVSPost2010Prop49
280
     0
102
RTVSPost2010PropOp49
 70
     1
102
RTVSPost2010Prop50
 90
       50
102
RTVSPost2010PropOp50
 70
     1
102
RTVSPost2010Prop51ColorIndex
 90
      256
102
RTVSPost2010Prop51ColorRGB
 90
-16777216
102
RTVSPost2010PropOp51
 70
     0
102
RTVSPost2010Prop52
140
1.0
102
RTVSPost2010PropOp52
 70
     0
102
RTVSPost2010Prop53
 90
        2
102
RTVSPost2010PropOp53
 70
     1
102
RTVSPost2010Prop54
  1
strokes_ogs.tif
102
RTVSPost2010PropOp54
 70
     1
102
RTVSPost2010Prop55
280
     0
102
RTVSPost2010PropOp55
 70
     1
102
RTVSPost2010Prop56
140
1.0
102
RTVSPost2010PropOp56
 70
     1
102
RTVSPost2010Prop57
140
1.0
102
RTVSPost2010PropOp57
 70
     1
102
RTVSPropertyOp0
 70
     1
102
RTVSPropertyOp1
 70
     1
102
RTVSPropertyOp2
 70
     1
102
RTVSPropertyOp3
 70
     1
102
RTVSPropertyOp4
 70
     1
102
RTVSPropertyOp5
 70
     1
102
RTVSPropertyOp6
 70
     1
102
RTVSPropertyOp7
 70
     1
102
RTVSPropertyOp8
 70
     1
102
RTVSPropertyOp9
 70
     1
102
RTVSPropertyOp10
 70
     1
102
RTVSPropertyOp11
 70
     1
102
RTVSPropertyOp12
 70
     1
102
RTVSPropertyOp13
 70
     1
102
RTVSPropertyOp14
 70
     1
102
RTVSPropertyOp15
 70
     1
102
RTVSPropertyOp16
 70
     1
102
RTVSPropertyOp17
 70
     1
102
RTVSPropertyOp18
 70
     1
102
RTVSPropertyOp19
 70
     1
102
RTVSPropertyOp20
 70
     1
102
RTVSPropertyOp21
 70
     1
102
RTVSPropertyOp22
 70
     1
102
RTVSPropertyOp23
 70
     1
102
RTVSPropertyOp24
 70
     1
102
RTVSPropertyOp25
 70
     1
102
RTVSPropertyOp26
 70
     1
102
RTVSPropertyOp27
 70
     1
102
RTVSPropertyOp28
 70
     1
102
RTVSPropertyOp29
 70
     1
102
RTVSPropertyOp30
 70
     1
102
RTVSPropertyOp31
 70
     1
102
RTVSPropertyOp32
 70
     1
102
RTVSPropertyOp33
 70
     1
102
RTVSPropertyOp34
 70
     1
102
RTVSPropertyOp35
 70
     1
102
RTVSPropertyOp36
 70
     1
102
RTVSPropertyOp37
 70
     1
102
RTVSPropertyOp38
 70
     1
102
RTVSPropertyOp39
 70
     1
102
RTVSPropertyOp40
 70
     1
102
RTVSPropertyOp41
 70
     1
102
RTVSPropertyOp42
 70
     1
102
RTVSPropertyOp43
 70
     1
102
RTVSPropertyOp44
 70
     1
102
RTVSPropertyOp45
 70
     1
102
RTVSPropertyOp46
 70
     1
102
RTVSPropertyOp47
 70
     1
102
RTVSPropertyOp48
 70
     1
102
RTVSPropertyOp49
 70
     1
102
RTVSPropertyOp50
 70
     1
102
RTVSPropertyOp51
 70
     0
102
RTVSPropertyOp52
 70
     0
102
RTVSPropertyOp53
 70
     1
102
RTVSPropertyOp54
 70
     1
102
RTVSPropertyOp55
 70
     1
102
RTVSPropertyOp56
 70
     1
102
RTVSPropertyOp57
 70
     1
102
RTVSPropertyOp58
 70
     1
102
RTVSPropertyOp59
 70
     1
102
RTVSPropertyOp60
 70
     1
102
RTVSPropertyOp61
 70
     1
102
RTVSPropertyOp62
 70
     1
  0
XRECORD
  5
EC77
102
{ACAD_REACTORS
330
EC76
102
}
330
EC76
100
AcDbXrecord
280
     1
102
RTVSPost2010Prop28
280
     0
102
RTVSPost2010PropOp28
 70
     1
102
RTVSPost2010Prop29
280
     1
102
RTVSPost2010PropOp29
 70
     1
102
RTVSPost2010Prop30
280
     1
102
RTVSPost2010PropOp30
 70
     1
102
RTVSPost2010Prop31
280
     0
102
RTVSPost2010PropOp31
 70
     1
102
RTVSPost2010Prop32
280
     0
102
RTVSPost2010PropOp32
 70
     1
102
RTVSPost2010Prop33
280
     0
102
RTVSPost2010PropOp33
 70
     1
102
RTVSPost2010Prop34
280
     0
102
RTVSPost2010PropOp34
 70
     1
102
RTVSPost2010Prop35
280
     0
102
RTVSPost2010PropOp35
 70
     1
102
RTVSPost2010Prop36
280
     0
102
RTVSPost2010PropOp36
 70
     1
102
RTVSPost2010Prop37
 90
       50
102
RTVSPost2010PropOp37
 70
     1
102
RTVSPost2010Prop38
140
0.0
102
RTVSPost2010PropOp38
 70
     1
102
RTVSPost2010Prop39
140
1.0
102
RTVSPost2010PropOp39
 70
     1
102
RTVSPost2010Prop40
 90
        0
102
RTVSPost2010PropOp40
 70
     1
102
RTVSPost2010Prop41ColorIndex
 90
       18
102
RTVSPost2010Prop41ColorRGB
 90
        0
102
RTVSPost2010PropOp41
 70
     1
102
RTVSPost2010Prop42
 90
       50
102
RTVSPost2010PropOp42
 70
     1
102
RTVSPost2010Prop43
 90
        3
102
RTVSPost2010PropOp43
 70
     1
102
RTVSPost2010Prop44ColorIndex
 90
        5
102
RTVSPost2010Prop44ColorRGB
 90
      255
102
RTVSPost2010PropOp44
 70
     1
102
RTVSPost2010Prop45
280
     0
102
RTVSPost2010PropOp45
 70
     1
102
RTVSPost2010Prop46
 90
       50
102
RTVSPost2010PropOp46
 70
     1
102
RTVSPost2010Prop47
 90
       50
102
RTVSPost2010PropOp47
 70
     1
102
RTVSPost2010Prop48
 90
       50
102
RTVSPost2010PropOp48
 70
     1
102
RTVSPost2010Prop49
280
     0
102
RTVSPost2010PropOp49
 70
     1
102
RTVSPost2010Prop50
 90
       50
102
RTVSPost2010PropOp50
 70
     1
102
RTVSPost2010Prop51ColorIndex
 90
      256
102
RTVSPost2010Prop51ColorRGB
 90
-16777216
102
RTVSPost2010PropOp51
 70
     0
102
RTVSPost2010Prop52
140
1.0
102
RTVSPost2010PropOp52
 70
     0
102
RTVSPost2010Prop53
 90
        2
102
RTVSPost2010PropOp53
 70
     1
102
RTVSPost2010Prop54
  1
strokes_ogs.tif
102
RTVSPost2010PropOp54
 70
     1
102
RTVSPost2010Prop55
280
     0
102
RTVSPost2010PropOp55
 70
     1
102
RTVSPost2010Prop56
140
1.0
102
RTVSPost2010PropOp56
 70
     1
102
RTVSPost2010Prop57
140
1.0
102
RTVSPost2010PropOp57
 70
     1
102
RTVSPropertyOp0
 70
     1
102
RTVSPropertyOp1
 70
     1
102
RTVSPropertyOp2
 70
     1
102
RTVSPropertyOp3
 70
     1
102
RTVSPropertyOp4
 70
     1
102
RTVSPropertyOp5
 70
     1
102
RTVSPropertyOp6
 70
     1
102
RTVSPropertyOp7
 70
     1
102
RTVSPropertyOp8
 70
     1
102
RTVSPropertyOp9
 70
     1
102
RTVSPropertyOp10
 70
     1
102
RTVSPropertyOp11
 70
     1
102
RTVSPropertyOp12
 70
     1
102
RTVSPropertyOp13
 70
     1
102
RTVSPropertyOp14
 70
     1
102
RTVSPropertyOp15
 70
     1
102
RTVSPropertyOp16
 70
     1
102
RTVSPropertyOp17
 70
     1
102
RTVSPropertyOp18
 70
     1
102
RTVSPropertyOp19
 70
     1
102
RTVSPropertyOp20
 70
     1
102
RTVSPropertyOp21
 70
     1
102
RTVSPropertyOp22
 70
     1
102
RTVSPropertyOp23
 70
     1
102
RTVSPropertyOp24
 70
     1
102
RTVSPropertyOp25
 70
     1
102
RTVSPropertyOp26
 70
     1
102
RTVSPropertyOp27
 70
     1
102
RTVSPropertyOp28
 70
     1
102
RTVSPropertyOp29
 70
     1
102
RTVSPropertyOp30
 70
     1
102
RTVSPropertyOp31
 70
     1
102
RTVSPropertyOp32
 70
     1
102
RTVSPropertyOp33
 70
     1
102
RTVSPropertyOp34
 70
     1
102
RTVSPropertyOp35
 70
     1
102
RTVSPropertyOp36
 70
     1
102
RTVSPropertyOp37
 70
     1
102
RTVSPropertyOp38
 70
     1
102
RTVSPropertyOp39
 70
     1
102
RTVSPropertyOp40
 70
     1
102
RTVSPropertyOp41
 70
     1
102
RTVSPropertyOp42
 70
     1
102
RTVSPropertyOp43
 70
     1
102
RTVSPropertyOp44
 70
     1
102
RTVSPropertyOp45
 70
     1
102
RTVSPropertyOp46
 70
     1
102
RTVSPropertyOp47
 70
     1
102
RTVSPropertyOp48
 70
     1
102
RTVSPropertyOp49
 70
     1
102
RTVSPropertyOp50
 70
     1
102
RTVSPropertyOp51
 70
     0
102
RTVSPropertyOp52
 70
     0
102
RTVSPropertyOp53
 70
     1
102
RTVSPropertyOp54
 70
     1
102
RTVSPropertyOp55
 70
     1
102
RTVSPropertyOp56
 70
     1
102
RTVSPropertyOp57
 70
     1
102
RTVSPropertyOp58
 70
     1
102
RTVSPropertyOp59
 70
     1
102
RTVSPropertyOp60
 70
     1
102
RTVSPropertyOp61
 70
     1
102
RTVSPropertyOp62
 70
     1
  0
XRECORD
  5
EC79
102
{ACAD_REACTORS
330
EC78
102
}
330
EC78
100
AcDbXrecord
280
     1
102
RTVSPost2010Prop28
280
     0
102
RTVSPost2010PropOp28
 70
     1
102
RTVSPost2010Prop29
280
     1
102
RTVSPost2010PropOp29
 70
     1
102
RTVSPost2010Prop30
280
     1
102
RTVSPost2010PropOp30
 70
     1
102
RTVSPost2010Prop31
280
     0
102
RTVSPost2010PropOp31
 70
     1
102
RTVSPost2010Prop32
280
     0
102
RTVSPost2010PropOp32
 70
     1
102
RTVSPost2010Prop33
280
     0
102
RTVSPost2010PropOp33
 70
     1
102
RTVSPost2010Prop34
280
     0
102
RTVSPost2010PropOp34
 70
     1
102
RTVSPost2010Prop35
280
     0
102
RTVSPost2010PropOp35
 70
     1
102
RTVSPost2010Prop36
280
     0
102
RTVSPost2010PropOp36
 70
     1
102
RTVSPost2010Prop37
 90
       50
102
RTVSPost2010PropOp37
 70
     1
102
RTVSPost2010Prop38
140
0.0
102
RTVSPost2010PropOp38
 70
     1
102
RTVSPost2010Prop39
140
1.0
102
RTVSPost2010PropOp39
 70
     1
102
RTVSPost2010Prop40
 90
        0
102
RTVSPost2010PropOp40
 70
     1
102
RTVSPost2010Prop41ColorIndex
 90
       18
102
RTVSPost2010Prop41ColorRGB
 90
        0
102
RTVSPost2010PropOp41
 70
     1
102
RTVSPost2010Prop42
 90
       50
102
RTVSPost2010PropOp42
 70
     1
102
RTVSPost2010Prop43
 90
        3
102
RTVSPost2010PropOp43
 70
     1
102
RTVSPost2010Prop44ColorIndex
 90
        5
102
RTVSPost2010Prop44ColorRGB
 90
      255
102
RTVSPost2010PropOp44
 70
     1
102
RTVSPost2010Prop45
280
     0
102
RTVSPost2010PropOp45
 70
     1
102
RTVSPost2010Prop46
 90
       50
102
RTVSPost2010PropOp46
 70
     1
102
RTVSPost2010Prop47
 90
       50
102
RTVSPost2010PropOp47
 70
     1
102
RTVSPost2010Prop48
 90
       50
102
RTVSPost2010PropOp48
 70
     1
102
RTVSPost2010Prop49
280
     0
102
RTVSPost2010PropOp49
 70
     1
102
RTVSPost2010Prop50
 90
       50
102
RTVSPost2010PropOp50
 70
     1
102
RTVSPost2010Prop51ColorIndex
 90
      256
102
RTVSPost2010Prop51ColorRGB
 90
-16777216
102
RTVSPost2010PropOp51
 70
     0
102
RTVSPost2010Prop52
140
1.0
102
RTVSPost2010PropOp52
 70
     0
102
RTVSPost2010Prop53
 90
        2
102
RTVSPost2010PropOp53
 70
     1
102
RTVSPost2010Prop54
  1
strokes_ogs.tif
102
RTVSPost2010PropOp54
 70
     1
102
RTVSPost2010Prop55
280
     0
102
RTVSPost2010PropOp55
 70
     1
102
RTVSPost2010Prop56
140
1.0
102
RTVSPost2010PropOp56
 70
     1
102
RTVSPost2010Prop57
140
1.0
102
RTVSPost2010PropOp57
 70
     1
102
RTVSPropertyOp0
 70
     1
102
RTVSPropertyOp1
 70
     1
102
RTVSPropertyOp2
 70
     1
102
RTVSPropertyOp3
 70
     1
102
RTVSPropertyOp4
 70
     1
102
RTVSPropertyOp5
 70
     1
102
RTVSPropertyOp6
 70
     1
102
RTVSPropertyOp7
 70
     1
102
RTVSPropertyOp8
 70
     1
102
RTVSPropertyOp9
 70
     1
102
RTVSPropertyOp10
 70
     1
102
RTVSPropertyOp11
 70
     1
102
RTVSPropertyOp12
 70
     1
102
RTVSPropertyOp13
 70
     1
102
RTVSPropertyOp14
 70
     1
102
RTVSPropertyOp15
 70
     1
102
RTVSPropertyOp16
 70
     1
102
RTVSPropertyOp17
 70
     1
102
RTVSPropertyOp18
 70
     1
102
RTVSPropertyOp19
 70
     1
102
RTVSPropertyOp20
 70
     1
102
RTVSPropertyOp21
 70
     1
102
RTVSPropertyOp22
 70
     1
102
RTVSPropertyOp23
 70
     1
102
RTVSPropertyOp24
 70
     1
102
RTVSPropertyOp25
 70
     1
102
RTVSPropertyOp26
 70
     1
102
RTVSPropertyOp27
 70
     1
102
RTVSPropertyOp28
 70
     1
102
RTVSPropertyOp29
 70
     1
102
RTVSPropertyOp30
 70
     1
102
RTVSPropertyOp31
 70
     1
102
RTVSPropertyOp32
 70
     1
102
RTVSPropertyOp33
 70
     1
102
RTVSPropertyOp34
 70
     1
102
RTVSPropertyOp35
 70
     1
102
RTVSPropertyOp36
 70
     1
102
RTVSPropertyOp37
 70
     1
102
RTVSPropertyOp38
 70
     1
102
RTVSPropertyOp39
 70
     1
102
RTVSPropertyOp40
 70
     1
102
RTVSPropertyOp41
 70
     1
102
RTVSPropertyOp42
 70
     1
102
RTVSPropertyOp43
 70
     1
102
RTVSPropertyOp44
 70
     1
102
RTVSPropertyOp45
 70
     1
102
RTVSPropertyOp46
 70
     1
102
RTVSPropertyOp47
 70
     1
102
RTVSPropertyOp48
 70
     1
102
RTVSPropertyOp49
 70
     1
102
RTVSPropertyOp50
 70
     1
102
RTVSPropertyOp51
 70
     0
102
RTVSPropertyOp52
 70
     0
102
RTVSPropertyOp53
 70
     1
102
RTVSPropertyOp54
 70
     1
102
RTVSPropertyOp55
 70
     1
102
RTVSPropertyOp56
 70
     1
102
RTVSPropertyOp57
 70
     1
102
RTVSPropertyOp58
 70
     1
102
RTVSPropertyOp59
 70
     1
102
RTVSPropertyOp60
 70
     1
102
RTVSPropertyOp61
 70
     1
102
RTVSPropertyOp62
 70
     1
  0
XRECORD
  5
EC7B
102
{ACAD_REACTORS
330
EC7A
102
}
330
EC7A
100
AcDbXrecord
280
     1
102
RTVSPost2010Prop28
280
     0
102
RTVSPost2010PropOp28
 70
     1
102
RTVSPost2010Prop29
280
     1
102
RTVSPost2010PropOp29
 70
     1
102
RTVSPost2010Prop30
280
     1
102
RTVSPost2010PropOp30
 70
     1
102
RTVSPost2010Prop31
280
     0
102
RTVSPost2010PropOp31
 70
     1
102
RTVSPost2010Prop32
280
     0
102
RTVSPost2010PropOp32
 70
     1
102
RTVSPost2010Prop33
280
     0
102
RTVSPost2010PropOp33
 70
     1
102
RTVSPost2010Prop34
280
     0
102
RTVSPost2010PropOp34
 70
     1
102
RTVSPost2010Prop35
280
     0
102
RTVSPost2010PropOp35
 70
     1
102
RTVSPost2010Prop36
280
     0
102
RTVSPost2010PropOp36
 70
     1
102
RTVSPost2010Prop37
 90
       50
102
RTVSPost2010PropOp37
 70
     1
102
RTVSPost2010Prop38
140
0.0
102
RTVSPost2010PropOp38
 70
     1
102
RTVSPost2010Prop39
140
1.0
102
RTVSPost2010PropOp39
 70
     1
102
RTVSPost2010Prop40
 90
        0
102
RTVSPost2010PropOp40
 70
     1
102
RTVSPost2010Prop41ColorIndex
 90
       18
102
RTVSPost2010Prop41ColorRGB
 90
        0
102
RTVSPost2010PropOp41
 70
     1
102
RTVSPost2010Prop42
 90
       50
102
RTVSPost2010PropOp42
 70
     1
102
RTVSPost2010Prop43
 90
        3
102
RTVSPost2010PropOp43
 70
     1
102
RTVSPost2010Prop44ColorIndex
 90
        5
102
RTVSPost2010Prop44ColorRGB
 90
      255
102
RTVSPost2010PropOp44
 70
     1
102
RTVSPost2010Prop45
280
     0
102
RTVSPost2010PropOp45
 70
     1
102
RTVSPost2010Prop46
 90
       50
102
RTVSPost2010PropOp46
 70
     1
102
RTVSPost2010Prop47
 90
       50
102
RTVSPost2010PropOp47
 70
     1
102
RTVSPost2010Prop48
 90
       50
102
RTVSPost2010PropOp48
 70
     1
102
RTVSPost2010Prop49
280
     0
102
RTVSPost2010PropOp49
 70
     1
102
RTVSPost2010Prop50
 90
       50
102
RTVSPost2010PropOp50
 70
     1
102
RTVSPost2010Prop51ColorIndex
 90
      256
102
RTVSPost2010Prop51ColorRGB
 90
-16777216
102
RTVSPost2010PropOp51
 70
     0
102
RTVSPost2010Prop52
140
1.0
102
RTVSPost2010PropOp52
 70
     0
102
RTVSPost2010Prop53
 90
        2
102
RTVSPost2010PropOp53
 70
     1
102
RTVSPost2010Prop54
  1
strokes_ogs.tif
102
RTVSPost2010PropOp54
 70
     1
102
RTVSPost2010Prop55
280
     0
102
RTVSPost2010PropOp55
 70
     1
102
RTVSPost2010Prop56
140
1.0
102
RTVSPost2010PropOp56
 70
     1
102
RTVSPost2010Prop57
140
1.0
102
RTVSPost2010PropOp57
 70
     1
102
RTVSPropertyOp0
 70
     1
102
RTVSPropertyOp1
 70
     1
102
RTVSPropertyOp2
 70
     1
102
RTVSPropertyOp3
 70
     1
102
RTVSPropertyOp4
 70
     1
102
RTVSPropertyOp5
 70
     1
102
RTVSPropertyOp6
 70
     1
102
RTVSPropertyOp7
 70
     1
102
RTVSPropertyOp8
 70
     1
102
RTVSPropertyOp9
 70
     1
102
RTVSPropertyOp10
 70
     1
102
RTVSPropertyOp11
 70
     1
102
RTVSPropertyOp12
 70
     1
102
RTVSPropertyOp13
 70
     1
102
RTVSPropertyOp14
 70
     1
102
RTVSPropertyOp15
 70
     1
102
RTVSPropertyOp16
 70
     1
102
RTVSPropertyOp17
 70
     1
102
RTVSPropertyOp18
 70
     1
102
RTVSPropertyOp19
 70
     1
102
RTVSPropertyOp20
 70
     1
102
RTVSPropertyOp21
 70
     1
102
RTVSPropertyOp22
 70
     1
102
RTVSPropertyOp23
 70
     1
102
RTVSPropertyOp24
 70
     1
102
RTVSPropertyOp25
 70
     1
102
RTVSPropertyOp26
 70
     1
102
RTVSPropertyOp27
 70
     1
102
RTVSPropertyOp28
 70
     1
102
RTVSPropertyOp29
 70
     1
102
RTVSPropertyOp30
 70
     1
102
RTVSPropertyOp31
 70
     1
102
RTVSPropertyOp32
 70
     1
102
RTVSPropertyOp33
 70
     1
102
RTVSPropertyOp34
 70
     1
102
RTVSPropertyOp35
 70
     1
102
RTVSPropertyOp36
 70
     1
102
RTVSPropertyOp37
 70
     1
102
RTVSPropertyOp38
 70
     1
102
RTVSPropertyOp39
 70
     1
102
RTVSPropertyOp40
 70
     1
102
RTVSPropertyOp41
 70
     1
102
RTVSPropertyOp42
 70
     1
102
RTVSPropertyOp43
 70
     1
102
RTVSPropertyOp44
 70
     1
102
RTVSPropertyOp45
 70
     1
102
RTVSPropertyOp46
 70
     1
102
RTVSPropertyOp47
 70
     1
102
RTVSPropertyOp48
 70
     1
102
RTVSPropertyOp49
 70
     1
102
RTVSPropertyOp50
 70
     1
102
RTVSPropertyOp51
 70
     0
102
RTVSPropertyOp52
 70
     0
102
RTVSPropertyOp53
 70
     1
102
RTVSPropertyOp54
 70
     1
102
RTVSPropertyOp55
 70
     1
102
RTVSPropertyOp56
 70
     1
102
RTVSPropertyOp57
 70
     1
102
RTVSPropertyOp58
 70
     1
102
RTVSPropertyOp59
 70
     1
102
RTVSPropertyOp60
 70
     1
102
RTVSPropertyOp61
 70
     1
102
RTVSPropertyOp62
 70
     1
  0
XRECORD
  5
EC7D
102
{ACAD_REACTORS
330
EC7C
102
}
330
EC7C
100
AcDbXrecord
280
     1
102
RTVSPost2010Prop28
280
     0
102
RTVSPost2010PropOp28
 70
     1
102
RTVSPost2010Prop29
280
     1
102
RTVSPost2010PropOp29
 70
     1
102
RTVSPost2010Prop30
280
     1
102
RTVSPost2010PropOp30
 70
     1
102
RTVSPost2010Prop31
280
     0
102
RTVSPost2010PropOp31
 70
     1
102
RTVSPost2010Prop32
280
     0
102
RTVSPost2010PropOp32
 70
     1
102
RTVSPost2010Prop33
280
     0
102
RTVSPost2010PropOp33
 70
     1
102
RTVSPost2010Prop34
280
     0
102
RTVSPost2010PropOp34
 70
     1
102
RTVSPost2010Prop35
280
     0
102
RTVSPost2010PropOp35
 70
     1
102
RTVSPost2010Prop36
280
     0
102
RTVSPost2010PropOp36
 70
     1
102
RTVSPost2010Prop37
 90
       50
102
RTVSPost2010PropOp37
 70
     1
102
RTVSPost2010Prop38
140
0.0
102
RTVSPost2010PropOp38
 70
     1
102
RTVSPost2010Prop39
140
1.0
102
RTVSPost2010PropOp39
 70
     1
102
RTVSPost2010Prop40
 90
        0
102
RTVSPost2010PropOp40
 70
     1
102
RTVSPost2010Prop41ColorIndex
 90
       18
102
RTVSPost2010Prop41ColorRGB
 90
        0
102
RTVSPost2010PropOp41
 70
     1
102
RTVSPost2010Prop42
 90
       50
102
RTVSPost2010PropOp42
 70
     1
102
RTVSPost2010Prop43
 90
        3
102
RTVSPost2010PropOp43
 70
     1
102
RTVSPost2010Prop44ColorIndex
 90
        5
102
RTVSPost2010Prop44ColorRGB
 90
      255
102
RTVSPost2010PropOp44
 70
     1
102
RTVSPost2010Prop45
280
     0
102
RTVSPost2010PropOp45
 70
     1
102
RTVSPost2010Prop46
 90
       50
102
RTVSPost2010PropOp46
 70
     1
102
RTVSPost2010Prop47
 90
       50
102
RTVSPost2010PropOp47
 70
     1
102
RTVSPost2010Prop48
 90
       50
102
RTVSPost2010PropOp48
 70
     1
102
RTVSPost2010Prop49
280
     0
102
RTVSPost2010PropOp49
 70
     1
102
RTVSPost2010Prop50
 90
       50
102
RTVSPost2010PropOp50
 70
     1
102
RTVSPost2010Prop51ColorIndex
 90
      256
102
RTVSPost2010Prop51ColorRGB
 90
-16777216
102
RTVSPost2010PropOp51
 70
     0
102
RTVSPost2010Prop52
140
1.0
102
RTVSPost2010PropOp52
 70
     0
102
RTVSPost2010Prop53
 90
        2
102
RTVSPost2010PropOp53
 70
     1
102
RTVSPost2010Prop54
  1
strokes_ogs.tif
102
RTVSPost2010PropOp54
 70
     1
102
RTVSPost2010Prop55
280
     0
102
RTVSPost2010PropOp55
 70
     1
102
RTVSPost2010Prop56
140
1.0
102
RTVSPost2010PropOp56
 70
     1
102
RTVSPost2010Prop57
140
1.0
102
RTVSPost2010PropOp57
 70
     1
102
RTVSPropertyOp0
 70
     1
102
RTVSPropertyOp1
 70
     1
102
RTVSPropertyOp2
 70
     1
102
RTVSPropertyOp3
 70
     1
102
RTVSPropertyOp4
 70
     1
102
RTVSPropertyOp5
 70
     1
102
RTVSPropertyOp6
 70
     1
102
RTVSPropertyOp7
 70
     1
102
RTVSPropertyOp8
 70
     1
102
RTVSPropertyOp9
 70
     1
102
RTVSPropertyOp10
 70
     1
102
RTVSPropertyOp11
 70
     1
102
RTVSPropertyOp12
 70
     1
102
RTVSPropertyOp13
 70
     1
102
RTVSPropertyOp14
 70
     1
102
RTVSPropertyOp15
 70
     1
102
RTVSPropertyOp16
 70
     1
102
RTVSPropertyOp17
 70
     1
102
RTVSPropertyOp18
 70
     1
102
RTVSPropertyOp19
 70
     1
102
RTVSPropertyOp20
 70
     1
102
RTVSPropertyOp21
 70
     1
102
RTVSPropertyOp22
 70
     1
102
RTVSPropertyOp23
 70
     1
102
RTVSPropertyOp24
 70
     1
102
RTVSPropertyOp25
 70
     1
102
RTVSPropertyOp26
 70
     1
102
RTVSPropertyOp27
 70
     1
102
RTVSPropertyOp28
 70
     1
102
RTVSPropertyOp29
 70
     1
102
RTVSPropertyOp30
 70
     1
102
RTVSPropertyOp31
 70
     1
102
RTVSPropertyOp32
 70
     1
102
RTVSPropertyOp33
 70
     1
102
RTVSPropertyOp34
 70
     1
102
RTVSPropertyOp35
 70
     1
102
RTVSPropertyOp36
 70
     1
102
RTVSPropertyOp37
 70
     1
102
RTVSPropertyOp38
 70
     1
102
RTVSPropertyOp39
 70
     1
102
RTVSPropertyOp40
 70
     1
102
RTVSPropertyOp41
 70
     1
102
RTVSPropertyOp42
 70
     1
102
RTVSPropertyOp43
 70
     1
102
RTVSPropertyOp44
 70
     1
102
RTVSPropertyOp45
 70
     1
102
RTVSPropertyOp46
 70
     1
102
RTVSPropertyOp47
 70
     1
102
RTVSPropertyOp48
 70
     1
102
RTVSPropertyOp49
 70
     1
102
RTVSPropertyOp50
 70
     1
102
RTVSPropertyOp51
 70
     0
102
RTVSPropertyOp52
 70
     0
102
RTVSPropertyOp53
 70
     1
102
RTVSPropertyOp54
 70
     1
102
RTVSPropertyOp55
 70
     1
102
RTVSPropertyOp56
 70
     1
102
RTVSPropertyOp57
 70
     1
102
RTVSPropertyOp58
 70
     1
102
RTVSPropertyOp59
 70
     1
102
RTVSPropertyOp60
 70
     1
102
RTVSPropertyOp61
 70
     1
102
RTVSPropertyOp62
 70
     1
  0
XRECORD
  5
EC85
102
{ACAD_REACTORS
330
EC84
102
}
330
EC84
100
AcDbXrecord
280
     1
102
RTVSPost2010Prop28
280
     0
102
RTVSPost2010PropOp28
 70
     1
102
RTVSPost2010Prop29
280
     1
102
RTVSPost2010PropOp29
 70
     1
102
RTVSPost2010Prop30
280
     1
102
RTVSPost2010PropOp30
 70
     1
102
RTVSPost2010Prop31
280
     0
102
RTVSPost2010PropOp31
 70
     1
102
RTVSPost2010Prop32
280
     0
102
RTVSPost2010PropOp32
 70
     1
102
RTVSPost2010Prop33
280
     0
102
RTVSPost2010PropOp33
 70
     1
102
RTVSPost2010Prop34
280
     0
102
RTVSPost2010PropOp34
 70
     1
102
RTVSPost2010Prop35
280
     0
102
RTVSPost2010PropOp35
 70
     1
102
RTVSPost2010Prop36
280
     0
102
RTVSPost2010PropOp36
 70
     1
102
RTVSPost2010Prop37
 90
       50
102
RTVSPost2010PropOp37
 70
     1
102
RTVSPost2010Prop38
140
0.0
102
RTVSPost2010PropOp38
 70
     1
102
RTVSPost2010Prop39
140
1.0
102
RTVSPost2010PropOp39
 70
     1
102
RTVSPost2010Prop40
 90
        0
102
RTVSPost2010PropOp40
 70
     1
102
RTVSPost2010Prop41ColorIndex
 90
       18
102
RTVSPost2010Prop41ColorRGB
 90
        0
102
RTVSPost2010PropOp41
 70
     1
102
RTVSPost2010Prop42
 90
       50
102
RTVSPost2010PropOp42
 70
     1
102
RTVSPost2010Prop43
 90
        3
102
RTVSPost2010PropOp43
 70
     1
102
RTVSPost2010Prop44ColorIndex
 90
        5
102
RTVSPost2010Prop44ColorRGB
 90
      255
102
RTVSPost2010PropOp44
 70
     1
102
RTVSPost2010Prop45
280
     0
102
RTVSPost2010PropOp45
 70
     1
102
RTVSPost2010Prop46
 90
       50
102
RTVSPost2010PropOp46
 70
     1
102
RTVSPost2010Prop47
 90
       50
102
RTVSPost2010PropOp47
 70
     1
102
RTVSPost2010Prop48
 90
       50
102
RTVSPost2010PropOp48
 70
     1
102
RTVSPost2010Prop49
280
     0
102
RTVSPost2010PropOp49
 70
     1
102
RTVSPost2010Prop50
 90
       50
102
RTVSPost2010PropOp50
 70
     1
102
RTVSPost2010Prop51ColorIndex
 90
      256
102
RTVSPost2010Prop51ColorRGB
 90
-16777216
102
RTVSPost2010PropOp51
 70
     0
102
RTVSPost2010Prop52
140
1.0
102
RTVSPost2010PropOp52
 70
     0
102
RTVSPost2010Prop53
 90
        2
102
RTVSPost2010PropOp53
 70
     1
102
RTVSPost2010Prop54
  1
strokes_ogs.tif
102
RTVSPost2010PropOp54
 70
     1
102
RTVSPost2010Prop55
280
     0
102
RTVSPost2010PropOp55
 70
     1
102
RTVSPost2010Prop56
140
1.0
102
RTVSPost2010PropOp56
 70
     1
102
RTVSPost2010Prop57
140
1.0
102
RTVSPost2010PropOp57
 70
     1
102
RTVSPropertyOp0
 70
     1
102
RTVSPropertyOp1
 70
     1
102
RTVSPropertyOp2
 70
     1
102
RTVSPropertyOp3
 70
     1
102
RTVSPropertyOp4
 70
     1
102
RTVSPropertyOp5
 70
     1
102
RTVSPropertyOp6
 70
     1
102
RTVSPropertyOp7
 70
     1
102
RTVSPropertyOp8
 70
     1
102
RTVSPropertyOp9
 70
     1
102
RTVSPropertyOp10
 70
     1
102
RTVSPropertyOp11
 70
     1
102
RTVSPropertyOp12
 70
     1
102
RTVSPropertyOp13
 70
     1
102
RTVSPropertyOp14
 70
     1
102
RTVSPropertyOp15
 70
     1
102
RTVSPropertyOp16
 70
     1
102
RTVSPropertyOp17
 70
     1
102
RTVSPropertyOp18
 70
     1
102
RTVSPropertyOp19
 70
     1
102
RTVSPropertyOp20
 70
     1
102
RTVSPropertyOp21
 70
     1
102
RTVSPropertyOp22
 70
     1
102
RTVSPropertyOp23
 70
     1
102
RTVSPropertyOp24
 70
     1
102
RTVSPropertyOp25
 70
     1
102
RTVSPropertyOp26
 70
     1
102
RTVSPropertyOp27
 70
     1
102
RTVSPropertyOp28
 70
     1
102
RTVSPropertyOp29
 70
     1
102
RTVSPropertyOp30
 70
     1
102
RTVSPropertyOp31
 70
     1
102
RTVSPropertyOp32
 70
     1
102
RTVSPropertyOp33
 70
     1
102
RTVSPropertyOp34
 70
     1
102
RTVSPropertyOp35
 70
     1
102
RTVSPropertyOp36
 70
     1
102
RTVSPropertyOp37
 70
     1
102
RTVSPropertyOp38
 70
     1
102
RTVSPropertyOp39
 70
     1
102
RTVSPropertyOp40
 70
     1
102
RTVSPropertyOp41
 70
     1
102
RTVSPropertyOp42
 70
     1
102
RTVSPropertyOp43
 70
     1
102
RTVSPropertyOp44
 70
     1
102
RTVSPropertyOp45
 70
     1
102
RTVSPropertyOp46
 70
     1
102
RTVSPropertyOp47
 70
     1
102
RTVSPropertyOp48
 70
     1
102
RTVSPropertyOp49
 70
     1
102
RTVSPropertyOp50
 70
     1
102
RTVSPropertyOp51
 70
     0
102
RTVSPropertyOp52
 70
     0
102
RTVSPropertyOp53
 70
     1
102
RTVSPropertyOp54
 70
     1
102
RTVSPropertyOp55
 70
     1
102
RTVSPropertyOp56
 70
     1
102
RTVSPropertyOp57
 70
     1
102
RTVSPropertyOp58
 70
     1
102
RTVSPropertyOp59
 70
     1
102
RTVSPropertyOp60
 70
     1
102
RTVSPropertyOp61
 70
     1
102
RTVSPropertyOp62
 70
     1
  0
XRECORD
  5
ECA1
102
{ACAD_REACTORS
330
ECA0
102
}
330
ECA0
100
AcDbXrecord
280
     1
102
RTVSPost2010Prop28
280
     0
102
RTVSPost2010PropOp28
 70
     1
102
RTVSPost2010Prop29
280
     1
102
RTVSPost2010PropOp29
 70
     1
102
RTVSPost2010Prop30
280
     1
102
RTVSPost2010PropOp30
 70
     1
102
RTVSPost2010Prop31
280
     0
102
RTVSPost2010PropOp31
 70
     1
102
RTVSPost2010Prop32
280
     0
102
RTVSPost2010PropOp32
 70
     1
102
RTVSPost2010Prop33
280
     0
102
RTVSPost2010PropOp33
 70
     1
102
RTVSPost2010Prop34
280
     0
102
RTVSPost2010PropOp34
 70
     1
102
RTVSPost2010Prop35
280
     0
102
RTVSPost2010PropOp35
 70
     1
102
RTVSPost2010Prop36
280
     0
102
RTVSPost2010PropOp36
 70
     1
102
RTVSPost2010Prop37
 90
       50
102
RTVSPost2010PropOp37
 70
     0
102
RTVSPost2010Prop38
140
0.0
102
RTVSPost2010PropOp38
 70
     0
102
RTVSPost2010Prop39
140
1.0
102
RTVSPost2010PropOp39
 70
     0
102
RTVSPost2010Prop40
 90
        0
102
RTVSPost2010PropOp40
 70
     0
102
RTVSPost2010Prop41ColorIndex
 90
       18
102
RTVSPost2010Prop41ColorRGB
 90
        0
102
RTVSPost2010PropOp41
 70
     0
102
RTVSPost2010Prop42
 90
       50
102
RTVSPost2010PropOp42
 70
     0
102
RTVSPost2010Prop43
 90
        3
102
RTVSPost2010PropOp43
 70
     0
102
RTVSPost2010Prop44ColorIndex
 90
        5
102
RTVSPost2010Prop44ColorRGB
 90
      255
102
RTVSPost2010PropOp44
 70
     0
102
RTVSPost2010Prop45
280
     0
102
RTVSPost2010PropOp45
 70
     1
102
RTVSPost2010Prop46
 90
       50
102
RTVSPost2010PropOp46
 70
     0
102
RTVSPost2010Prop47
 90
       50
102
RTVSPost2010PropOp47
 70
     0
102
RTVSPost2010Prop48
 90
       50
102
RTVSPost2010PropOp48
 70
     0
102
RTVSPost2010Prop49
280
     0
102
RTVSPost2010PropOp49
 70
     1
102
RTVSPost2010Prop50
 90
       50
102
RTVSPost2010PropOp50
 70
     0
102
RTVSPost2010Prop51ColorIndex
 90
      256
102
RTVSPost2010Prop51ColorRGB
 90
-16777216
102
RTVSPost2010PropOp51
 70
     0
102
RTVSPost2010Prop52
140
1.0
102
RTVSPost2010PropOp52
 70
     0
102
RTVSPost2010Prop53
 90
        2
102
RTVSPost2010PropOp53
 70
     0
102
RTVSPost2010Prop54
  1
strokes_ogs.tif
102
RTVSPost2010PropOp54
 70
     0
102
RTVSPost2010Prop55
280
     0
102
RTVSPost2010PropOp55
 70
     1
102
RTVSPost2010Prop56
140
1.0
102
RTVSPost2010PropOp56
 70
     0
102
RTVSPost2010Prop57
140
1.0
102
RTVSPost2010PropOp57
 70
     0
102
RTVSPropertyOp0
 70
     0
102
RTVSPropertyOp1
 70
     0
102
RTVSPropertyOp2
 70
     0
102
RTVSPropertyOp3
 70
     0
102
RTVSPropertyOp4
 70
     0
102
RTVSPropertyOp5
 70
     0
102
RTVSPropertyOp6
 70
     0
102
RTVSPropertyOp7
 70
     0
102
RTVSPropertyOp8
 70
     0
102
RTVSPropertyOp9
 70
     0
102
RTVSPropertyOp10
 70
     0
102
RTVSPropertyOp11
 70
     0
102
RTVSPropertyOp12
 70
     0
102
RTVSPropertyOp13
 70
     0
102
RTVSPropertyOp14
 70
     2
102
RTVSPropertyOp15
 70
     0
102
RTVSPropertyOp16
 70
     0
102
RTVSPropertyOp17
 70
     0
102
RTVSPropertyOp18
 70
     0
102
RTVSPropertyOp19
 70
     0
102
RTVSPropertyOp20
 70
     0
102
RTVSPropertyOp21
 70
     0
102
RTVSPropertyOp22
 70
     0
102
RTVSPropertyOp23
 70
     0
102
RTVSPropertyOp24
 70
     0
102
RTVSPropertyOp25
 70
     0
102
RTVSPropertyOp26
 70
     0
102
RTVSPropertyOp27
 70
     0
102
RTVSPropertyOp28
 70
     1
102
RTVSPropertyOp29
 70
     1
102
RTVSPropertyOp30
 70
     1
102
RTVSPropertyOp31
 70
     1
102
RTVSPropertyOp32
 70
     1
102
RTVSPropertyOp33
 70
     1
102
RTVSPropertyOp34
 70
     1
102
RTVSPropertyOp35
 70
     1
102
RTVSPropertyOp36
 70
     1
102
RTVSPropertyOp37
 70
     0
102
RTVSPropertyOp38
 70
     0
102
RTVSPropertyOp39
 70
     0
102
RTVSPropertyOp40
 70
     0
102
RTVSPropertyOp41
 70
     0
102
RTVSPropertyOp42
 70
     0
102
RTVSPropertyOp43
 70
     0
102
RTVSPropertyOp44
 70
     0
102
RTVSPropertyOp45
 70
     1
102
RTVSPropertyOp46
 70
     0
102
RTVSPropertyOp47
 70
     0
102
RTVSPropertyOp48
 70
     0
102
RTVSPropertyOp49
 70
     1
102
RTVSPropertyOp50
 70
     0
102
RTVSPropertyOp51
 70
     0
102
RTVSPropertyOp52
 70
     0
102
RTVSPropertyOp53
 70
     0
102
RTVSPropertyOp54
 70
     0
102
RTVSPropertyOp55
 70
     1
102
RTVSPropertyOp56
 70
     0
102
RTVSPropertyOp57
 70
     0
102
RTVSPropertyOp58
 70
     0
102
RTVSPropertyOp59
 70
     0
102
RTVSPropertyOp60
 70
     0
102
RTVSPropertyOp61
 70
     0
102
RTVSPropertyOp62
 70
     0
  0
XRECORD
  5
EC91
102
{ACAD_REACTORS
330
EC90
102
}
330
EC90
100
AcDbXrecord
280
     1
102
RTVSPost2010Prop28
280
     0
102
RTVSPost2010PropOp28
 70
     1
102
RTVSPost2010Prop29
280
     1
102
RTVSPost2010PropOp29
 70
     1
102
RTVSPost2010Prop30
280
     1
102
RTVSPost2010PropOp30
 70
     1
102
RTVSPost2010Prop31
280
     0
102
RTVSPost2010PropOp31
 70
     1
102
RTVSPost2010Prop32
280
     0
102
RTVSPost2010PropOp32
 70
     1
102
RTVSPost2010Prop33
280
     0
102
RTVSPost2010PropOp33
 70
     1
102
RTVSPost2010Prop34
280
     0
102
RTVSPost2010PropOp34
 70
     1
102
RTVSPost2010Prop35
280
     0
102
RTVSPost2010PropOp35
 70
     1
102
RTVSPost2010Prop36
280
     0
102
RTVSPost2010PropOp36
 70
     1
102
RTVSPost2010Prop37
 90
       50
102
RTVSPost2010PropOp37
 70
     1
102
RTVSPost2010Prop38
140
0.0
102
RTVSPost2010PropOp38
 70
     1
102
RTVSPost2010Prop39
140
1.0
102
RTVSPost2010PropOp39
 70
     1
102
RTVSPost2010Prop40
 90
        0
102
RTVSPost2010PropOp40
 70
     1
102
RTVSPost2010Prop41ColorIndex
 90
       18
102
RTVSPost2010Prop41ColorRGB
 90
        0
102
RTVSPost2010PropOp41
 70
     1
102
RTVSPost2010Prop42
 90
       50
102
RTVSPost2010PropOp42
 70
     1
102
RTVSPost2010Prop43
 90
        3
102
RTVSPost2010PropOp43
 70
     1
102
RTVSPost2010Prop44ColorIndex
 90
        5
102
RTVSPost2010Prop44ColorRGB
 90
      255
102
RTVSPost2010PropOp44
 70
     1
102
RTVSPost2010Prop45
280
     0
102
RTVSPost2010PropOp45
 70
     1
102
RTVSPost2010Prop46
 90
       50
102
RTVSPost2010PropOp46
 70
     1
102
RTVSPost2010Prop47
 90
       50
102
RTVSPost2010PropOp47
 70
     1
102
RTVSPost2010Prop48
 90
       50
102
RTVSPost2010PropOp48
 70
     1
102
RTVSPost2010Prop49
280
     0
102
RTVSPost2010PropOp49
 70
     1
102
RTVSPost2010Prop50
 90
       50
102
RTVSPost2010PropOp50
 70
     1
102
RTVSPost2010Prop51ColorIndex
 90
      256
102
RTVSPost2010Prop51ColorRGB
 90
-16777216
102
RTVSPost2010PropOp51
 70
     0
102
RTVSPost2010Prop52
140
1.0
102
RTVSPost2010PropOp52
 70
     0
102
RTVSPost2010Prop53
 90
        2
102
RTVSPost2010PropOp53
 70
     1
102
RTVSPost2010Prop54
  1
strokes_ogs.tif
102
RTVSPost2010PropOp54
 70
     1
102
RTVSPost2010Prop55
280
     0
102
RTVSPost2010PropOp55
 70
     1
102
RTVSPost2010Prop56
140
1.0
102
RTVSPost2010PropOp56
 70
     1
102
RTVSPost2010Prop57
140
1.0
102
RTVSPost2010PropOp57
 70
     1
102
RTVSPropertyOp0
 70
     1
102
RTVSPropertyOp1
 70
     1
102
RTVSPropertyOp2
 70
     1
102
RTVSPropertyOp3
 70
     1
102
RTVSPropertyOp4
 70
     1
102
RTVSPropertyOp5
 70
     1
102
RTVSPropertyOp6
 70
     1
102
RTVSPropertyOp7
 70
     1
102
RTVSPropertyOp8
 70
     1
102
RTVSPropertyOp9
 70
     1
102
RTVSPropertyOp10
 70
     1
102
RTVSPropertyOp11
 70
     1
102
RTVSPropertyOp12
 70
     1
102
RTVSPropertyOp13
 70
     1
102
RTVSPropertyOp14
 70
     1
102
RTVSPropertyOp15
 70
     1
102
RTVSPropertyOp16
 70
     1
102
RTVSPropertyOp17
 70
     1
102
RTVSPropertyOp18
 70
     1
102
RTVSPropertyOp19
 70
     1
102
RTVSPropertyOp20
 70
     1
102
RTVSPropertyOp21
 70
     1
102
RTVSPropertyOp22
 70
     1
102
RTVSPropertyOp23
 70
     1
102
RTVSPropertyOp24
 70
     1
102
RTVSPropertyOp25
 70
     1
102
RTVSPropertyOp26
 70
     1
102
RTVSPropertyOp27
 70
     1
102
RTVSPropertyOp28
 70
     1
102
RTVSPropertyOp29
 70
     1
102
RTVSPropertyOp30
 70
     1
102
RTVSPropertyOp31
 70
     1
102
RTVSPropertyOp32
 70
     1
102
RTVSPropertyOp33
 70
     1
102
RTVSPropertyOp34
 70
     1
102
RTVSPropertyOp35
 70
     1
102
RTVSPropertyOp36
 70
     1
102
RTVSPropertyOp37
 70
     1
102
RTVSPropertyOp38
 70
     1
102
RTVSPropertyOp39
 70
     1
102
RTVSPropertyOp40
 70
     1
102
RTVSPropertyOp41
 70
     1
102
RTVSPropertyOp42
 70
     1
102
RTVSPropertyOp43
 70
     1
102
RTVSPropertyOp44
 70
     1
102
RTVSPropertyOp45
 70
     1
102
RTVSPropertyOp46
 70
     1
102
RTVSPropertyOp47
 70
     1
102
RTVSPropertyOp48
 70
     1
102
RTVSPropertyOp49
 70
     1
102
RTVSPropertyOp50
 70
     1
102
RTVSPropertyOp51
 70
     0
102
RTVSPropertyOp52
 70
     0
102
RTVSPropertyOp53
 70
     1
102
RTVSPropertyOp54
 70
     1
102
RTVSPropertyOp55
 70
     1
102
RTVSPropertyOp56
 70
     1
102
RTVSPropertyOp57
 70
     1
102
RTVSPropertyOp58
 70
     1
102
RTVSPropertyOp59
 70
     1
102
RTVSPropertyOp60
 70
     1
102
RTVSPropertyOp61
 70
     1
102
RTVSPropertyOp62
 70
     1
  0
XRECORD
  5
ECA3
102
{ACAD_REACTORS
330
ECA2
102
}
330
ECA2
100
AcDbXrecord
280
     1
102
RTVSPost2010Prop28
280
     0
102
RTVSPost2010PropOp28
 70
     1
102
RTVSPost2010Prop29
280
     1
102
RTVSPost2010PropOp29
 70
     1
102
RTVSPost2010Prop30
280
     1
102
RTVSPost2010PropOp30
 70
     1
102
RTVSPost2010Prop31
280
     0
102
RTVSPost2010PropOp31
 70
     1
102
RTVSPost2010Prop32
280
     0
102
RTVSPost2010PropOp32
 70
     1
102
RTVSPost2010Prop33
280
     0
102
RTVSPost2010PropOp33
 70
     1
102
RTVSPost2010Prop34
280
     0
102
RTVSPost2010PropOp34
 70
     1
102
RTVSPost2010Prop35
280
     0
102
RTVSPost2010PropOp35
 70
     1
102
RTVSPost2010Prop36
280
     0
102
RTVSPost2010PropOp36
 70
     1
102
RTVSPost2010Prop37
 90
       50
102
RTVSPost2010PropOp37
 70
     0
102
RTVSPost2010Prop38
140
0.0
102
RTVSPost2010PropOp38
 70
     0
102
RTVSPost2010Prop39
140
1.0
102
RTVSPost2010PropOp39
 70
     0
102
RTVSPost2010Prop40
 90
        0
102
RTVSPost2010PropOp40
 70
     0
102
RTVSPost2010Prop41ColorIndex
 90
       18
102
RTVSPost2010Prop41ColorRGB
 90
        0
102
RTVSPost2010PropOp41
 70
     0
102
RTVSPost2010Prop42
 90
       50
102
RTVSPost2010PropOp42
 70
     0
102
RTVSPost2010Prop43
 90
        3
102
RTVSPost2010PropOp43
 70
     0
102
RTVSPost2010Prop44ColorIndex
 90
        5
102
RTVSPost2010Prop44ColorRGB
 90
      255
102
RTVSPost2010PropOp44
 70
     0
102
RTVSPost2010Prop45
280
     0
102
RTVSPost2010PropOp45
 70
     1
102
RTVSPost2010Prop46
 90
       50
102
RTVSPost2010PropOp46
 70
     0
102
RTVSPost2010Prop47
 90
       50
102
RTVSPost2010PropOp47
 70
     0
102
RTVSPost2010Prop48
 90
       50
102
RTVSPost2010PropOp48
 70
     0
102
RTVSPost2010Prop49
280
     0
102
RTVSPost2010PropOp49
 70
     1
102
RTVSPost2010Prop50
 90
       50
102
RTVSPost2010PropOp50
 70
     0
102
RTVSPost2010Prop51ColorIndex
 90
      256
102
RTVSPost2010Prop51ColorRGB
 90
-16777216
102
RTVSPost2010PropOp51
 70
     0
102
RTVSPost2010Prop52
140
1.0
102
RTVSPost2010PropOp52
 70
     0
102
RTVSPost2010Prop53
 90
        2
102
RTVSPost2010PropOp53
 70
     0
102
RTVSPost2010Prop54
  1
strokes_ogs.tif
102
RTVSPost2010PropOp54
 70
     0
102
RTVSPost2010Prop55
280
     0
102
RTVSPost2010PropOp55
 70
     1
102
RTVSPost2010Prop56
140
1.0
102
RTVSPost2010PropOp56
 70
     0
102
RTVSPost2010Prop57
140
1.0
102
RTVSPost2010PropOp57
 70
     0
102
RTVSPropertyOp0
 70
     0
102
RTVSPropertyOp1
 70
     0
102
RTVSPropertyOp2
 70
     0
102
RTVSPropertyOp3
 70
     0
102
RTVSPropertyOp4
 70
     0
102
RTVSPropertyOp5
 70
     0
102
RTVSPropertyOp6
 70
     0
102
RTVSPropertyOp7
 70
     0
102
RTVSPropertyOp8
 70
     0
102
RTVSPropertyOp9
 70
     0
102
RTVSPropertyOp10
 70
     0
102
RTVSPropertyOp11
 70
     0
102
RTVSPropertyOp12
 70
     0
102
RTVSPropertyOp13
 70
     0
102
RTVSPropertyOp14
 70
     2
102
RTVSPropertyOp15
 70
     0
102
RTVSPropertyOp16
 70
     0
102
RTVSPropertyOp17
 70
     0
102
RTVSPropertyOp18
 70
     0
102
RTVSPropertyOp19
 70
     0
102
RTVSPropertyOp20
 70
     0
102
RTVSPropertyOp21
 70
     0
102
RTVSPropertyOp22
 70
     0
102
RTVSPropertyOp23
 70
     0
102
RTVSPropertyOp24
 70
     0
102
RTVSPropertyOp25
 70
     0
102
RTVSPropertyOp26
 70
     0
102
RTVSPropertyOp27
 70
     0
102
RTVSPropertyOp28
 70
     1
102
RTVSPropertyOp29
 70
     1
102
RTVSPropertyOp30
 70
     1
102
RTVSPropertyOp31
 70
     1
102
RTVSPropertyOp32
 70
     1
102
RTVSPropertyOp33
 70
     1
102
RTVSPropertyOp34
 70
     1
102
RTVSPropertyOp35
 70
     1
102
RTVSPropertyOp36
 70
     1
102
RTVSPropertyOp37
 70
     0
102
RTVSPropertyOp38
 70
     0
102
RTVSPropertyOp39
 70
     0
102
RTVSPropertyOp40
 70
     0
102
RTVSPropertyOp41
 70
     0
102
RTVSPropertyOp42
 70
     0
102
RTVSPropertyOp43
 70
     0
102
RTVSPropertyOp44
 70
     0
102
RTVSPropertyOp45
 70
     1
102
RTVSPropertyOp46
 70
     0
102
RTVSPropertyOp47
 70
     0
102
RTVSPropertyOp48
 70
     0
102
RTVSPropertyOp49
 70
     1
102
RTVSPropertyOp50
 70
     0
102
RTVSPropertyOp51
 70
     0
102
RTVSPropertyOp52
 70
     0
102
RTVSPropertyOp53
 70
     0
102
RTVSPropertyOp54
 70
     0
102
RTVSPropertyOp55
 70
     1
102
RTVSPropertyOp56
 70
     0
102
RTVSPropertyOp57
 70
     0
102
RTVSPropertyOp58
 70
     0
102
RTVSPropertyOp59
 70
     0
102
RTVSPropertyOp60
 70
     0
102
RTVSPropertyOp61
 70
     0
102
RTVSPropertyOp62
 70
     0
  0
XRECORD
  5
EC89
102
{ACAD_REACTORS
330
EC88
102
}
330
EC88
100
AcDbXrecord
280
     1
102
RTVSPost2010Prop28
280
     0
102
RTVSPost2010PropOp28
 70
     1
102
RTVSPost2010Prop29
280
     1
102
RTVSPost2010PropOp29
 70
     1
102
RTVSPost2010Prop30
280
     1
102
RTVSPost2010PropOp30
 70
     1
102
RTVSPost2010Prop31
280
     0
102
RTVSPost2010PropOp31
 70
     1
102
RTVSPost2010Prop32
280
     0
102
RTVSPost2010PropOp32
 70
     1
102
RTVSPost2010Prop33
280
     0
102
RTVSPost2010PropOp33
 70
     1
102
RTVSPost2010Prop34
280
     0
102
RTVSPost2010PropOp34
 70
     1
102
RTVSPost2010Prop35
280
     0
102
RTVSPost2010PropOp35
 70
     1
102
RTVSPost2010Prop36
280
     0
102
RTVSPost2010PropOp36
 70
     1
102
RTVSPost2010Prop37
 90
       50
102
RTVSPost2010PropOp37
 70
     1
102
RTVSPost2010Prop38
140
0.0
102
RTVSPost2010PropOp38
 70
     1
102
RTVSPost2010Prop39
140
1.0
102
RTVSPost2010PropOp39
 70
     1
102
RTVSPost2010Prop40
 90
        0
102
RTVSPost2010PropOp40
 70
     1
102
RTVSPost2010Prop41ColorIndex
 90
       18
102
RTVSPost2010Prop41ColorRGB
 90
        0
102
RTVSPost2010PropOp41
 70
     1
102
RTVSPost2010Prop42
 90
       50
102
RTVSPost2010PropOp42
 70
     1
102
RTVSPost2010Prop43
 90
        3
102
RTVSPost2010PropOp43
 70
     1
102
RTVSPost2010Prop44ColorIndex
 90
        5
102
RTVSPost2010Prop44ColorRGB
 90
      255
102
RTVSPost2010PropOp44
 70
     1
102
RTVSPost2010Prop45
280
     0
102
RTVSPost2010PropOp45
 70
     1
102
RTVSPost2010Prop46
 90
       50
102
RTVSPost2010PropOp46
 70
     1
102
RTVSPost2010Prop47
 90
       50
102
RTVSPost2010PropOp47
 70
     1
102
RTVSPost2010Prop48
 90
       50
102
RTVSPost2010PropOp48
 70
     1
102
RTVSPost2010Prop49
280
     0
102
RTVSPost2010PropOp49
 70
     1
102
RTVSPost2010Prop50
 90
       50
102
RTVSPost2010PropOp50
 70
     1
102
RTVSPost2010Prop51ColorIndex
 90
      256
102
RTVSPost2010Prop51ColorRGB
 90
-16777216
102
RTVSPost2010PropOp51
 70
     0
102
RTVSPost2010Prop52
140
1.0
102
RTVSPost2010PropOp52
 70
     0
102
RTVSPost2010Prop53
 90
        2
102
RTVSPost2010PropOp53
 70
     1
102
RTVSPost2010Prop54
  1
strokes_ogs.tif
102
RTVSPost2010PropOp54
 70
     1
102
RTVSPost2010Prop55
280
     0
102
RTVSPost2010PropOp55
 70
     1
102
RTVSPost2010Prop56
140
1.0
102
RTVSPost2010PropOp56
 70
     1
102
RTVSPost2010Prop57
140
1.0
102
RTVSPost2010PropOp57
 70
     1
102
RTVSPropertyOp0
 70
     1
102
RTVSPropertyOp1
 70
     1
102
RTVSPropertyOp2
 70
     1
102
RTVSPropertyOp3
 70
     1
102
RTVSPropertyOp4
 70
     1
102
RTVSPropertyOp5
 70
     1
102
RTVSPropertyOp6
 70
     1
102
RTVSPropertyOp7
 70
     1
102
RTVSPropertyOp8
 70
     1
102
RTVSPropertyOp9
 70
     1
102
RTVSPropertyOp10
 70
     1
102
RTVSPropertyOp11
 70
     1
102
RTVSPropertyOp12
 70
     1
102
RTVSPropertyOp13
 70
     1
102
RTVSPropertyOp14
 70
     1
102
RTVSPropertyOp15
 70
     1
102
RTVSPropertyOp16
 70
     1
102
RTVSPropertyOp17
 70
     1
102
RTVSPropertyOp18
 70
     1
102
RTVSPropertyOp19
 70
     1
102
RTVSPropertyOp20
 70
     1
102
RTVSPropertyOp21
 70
     1
102
RTVSPropertyOp22
 70
     1
102
RTVSPropertyOp23
 70
     1
102
RTVSPropertyOp24
 70
     1
102
RTVSPropertyOp25
 70
     1
102
RTVSPropertyOp26
 70
     1
102
RTVSPropertyOp27
 70
     1
102
RTVSPropertyOp28
 70
     1
102
RTVSPropertyOp29
 70
     1
102
RTVSPropertyOp30
 70
     1
102
RTVSPropertyOp31
 70
     1
102
RTVSPropertyOp32
 70
     1
102
RTVSPropertyOp33
 70
     1
102
RTVSPropertyOp34
 70
     1
102
RTVSPropertyOp35
 70
     1
102
RTVSPropertyOp36
 70
     1
102
RTVSPropertyOp37
 70
     1
102
RTVSPropertyOp38
 70
     1
102
RTVSPropertyOp39
 70
     1
102
RTVSPropertyOp40
 70
     1
102
RTVSPropertyOp41
 70
     1
102
RTVSPropertyOp42
 70
     1
102
RTVSPropertyOp43
 70
     1
102
RTVSPropertyOp44
 70
     1
102
RTVSPropertyOp45
 70
     1
102
RTVSPropertyOp46
 70
     1
102
RTVSPropertyOp47
 70
     1
102
RTVSPropertyOp48
 70
     1
102
RTVSPropertyOp49
 70
     1
102
RTVSPropertyOp50
 70
     1
102
RTVSPropertyOp51
 70
     0
102
RTVSPropertyOp52
 70
     0
102
RTVSPropertyOp53
 70
     1
102
RTVSPropertyOp54
 70
     1
102
RTVSPropertyOp55
 70
     1
102
RTVSPropertyOp56
 70
     1
102
RTVSPropertyOp57
 70
     1
102
RTVSPropertyOp58
 70
     1
102
RTVSPropertyOp59
 70
     1
102
RTVSPropertyOp60
 70
     1
102
RTVSPropertyOp61
 70
     1
102
RTVSPropertyOp62
 70
     1
  0
XRECORD
  5
EC9F
102
{ACAD_REACTORS
330
EC9E
102
}
330
EC9E
100
AcDbXrecord
280
     1
102
RTVSPost2010Prop28
280
     0
102
RTVSPost2010PropOp28
 70
     1
102
RTVSPost2010Prop29
280
     1
102
RTVSPost2010PropOp29
 70
     1
102
RTVSPost2010Prop30
280
     1
102
RTVSPost2010PropOp30
 70
     1
102
RTVSPost2010Prop31
280
     0
102
RTVSPost2010PropOp31
 70
     1
102
RTVSPost2010Prop32
280
     0
102
RTVSPost2010PropOp32
 70
     1
102
RTVSPost2010Prop33
280
     0
102
RTVSPost2010PropOp33
 70
     1
102
RTVSPost2010Prop34
280
     0
102
RTVSPost2010PropOp34
 70
     1
102
RTVSPost2010Prop35
280
     0
102
RTVSPost2010PropOp35
 70
     1
102
RTVSPost2010Prop36
280
     0
102
RTVSPost2010PropOp36
 70
     1
102
RTVSPost2010Prop37
 90
       50
102
RTVSPost2010PropOp37
 70
     1
102
RTVSPost2010Prop38
140
0.0
102
RTVSPost2010PropOp38
 70
     1
102
RTVSPost2010Prop39
140
1.0
102
RTVSPost2010PropOp39
 70
     1
102
RTVSPost2010Prop40
 90
        0
102
RTVSPost2010PropOp40
 70
     1
102
RTVSPost2010Prop41ColorIndex
 90
       18
102
RTVSPost2010Prop41ColorRGB
 90
        0
102
RTVSPost2010PropOp41
 70
     1
102
RTVSPost2010Prop42
 90
       50
102
RTVSPost2010PropOp42
 70
     1
102
RTVSPost2010Prop43
 90
        3
102
RTVSPost2010PropOp43
 70
     1
102
RTVSPost2010Prop44ColorIndex
 90
        5
102
RTVSPost2010Prop44ColorRGB
 90
      255
102
RTVSPost2010PropOp44
 70
     1
102
RTVSPost2010Prop45
280
     0
102
RTVSPost2010PropOp45
 70
     1
102
RTVSPost2010Prop46
 90
       50
102
RTVSPost2010PropOp46
 70
     1
102
RTVSPost2010Prop47
 90
       50
102
RTVSPost2010PropOp47
 70
     1
102
RTVSPost2010Prop48
 90
       50
102
RTVSPost2010PropOp48
 70
     1
102
RTVSPost2010Prop49
280
     0
102
RTVSPost2010PropOp49
 70
     1
102
RTVSPost2010Prop50
 90
       50
102
RTVSPost2010PropOp50
 70
     1
102
RTVSPost2010Prop51ColorIndex
 90
      256
102
RTVSPost2010Prop51ColorRGB
 90
-16777216
102
RTVSPost2010PropOp51
 70
     0
102
RTVSPost2010Prop52
140
1.0
102
RTVSPost2010PropOp52
 70
     0
102
RTVSPost2010Prop53
 90
        2
102
RTVSPost2010PropOp53
 70
     1
102
RTVSPost2010Prop54
  1
strokes_ogs.tif
102
RTVSPost2010PropOp54
 70
     1
102
RTVSPost2010Prop55
280
     0
102
RTVSPost2010PropOp55
 70
     1
102
RTVSPost2010Prop56
140
1.0
102
RTVSPost2010PropOp56
 70
     1
102
RTVSPost2010Prop57
140
1.0
102
RTVSPost2010PropOp57
 70
     1
102
RTVSPropertyOp0
 70
     1
102
RTVSPropertyOp1
 70
     1
102
RTVSPropertyOp2
 70
     1
102
RTVSPropertyOp3
 70
     1
102
RTVSPropertyOp4
 70
     1
102
RTVSPropertyOp5
 70
     1
102
RTVSPropertyOp6
 70
     1
102
RTVSPropertyOp7
 70
     1
102
RTVSPropertyOp8
 70
     1
102
RTVSPropertyOp9
 70
     1
102
RTVSPropertyOp10
 70
     1
102
RTVSPropertyOp11
 70
     1
102
RTVSPropertyOp12
 70
     1
102
RTVSPropertyOp13
 70
     1
102
RTVSPropertyOp14
 70
     1
102
RTVSPropertyOp15
 70
     1
102
RTVSPropertyOp16
 70
     1
102
RTVSPropertyOp17
 70
     1
102
RTVSPropertyOp18
 70
     1
102
RTVSPropertyOp19
 70
     1
102
RTVSPropertyOp20
 70
     1
102
RTVSPropertyOp21
 70
     1
102
RTVSPropertyOp22
 70
     1
102
RTVSPropertyOp23
 70
     1
102
RTVSPropertyOp24
 70
     1
102
RTVSPropertyOp25
 70
     1
102
RTVSPropertyOp26
 70
     1
102
RTVSPropertyOp27
 70
     1
102
RTVSPropertyOp28
 70
     1
102
RTVSPropertyOp29
 70
     1
102
RTVSPropertyOp30
 70
     1
102
RTVSPropertyOp31
 70
     1
102
RTVSPropertyOp32
 70
     1
102
RTVSPropertyOp33
 70
     1
102
RTVSPropertyOp34
 70
     1
102
RTVSPropertyOp35
 70
     1
102
RTVSPropertyOp36
 70
     1
102
RTVSPropertyOp37
 70
     1
102
RTVSPropertyOp38
 70
     1
102
RTVSPropertyOp39
 70
     1
102
RTVSPropertyOp40
 70
     1
102
RTVSPropertyOp41
 70
     1
102
RTVSPropertyOp42
 70
     1
102
RTVSPropertyOp43
 70
     1
102
RTVSPropertyOp44
 70
     1
102
RTVSPropertyOp45
 70
     1
102
RTVSPropertyOp46
 70
     1
102
RTVSPropertyOp47
 70
     1
102
RTVSPropertyOp48
 70
     1
102
RTVSPropertyOp49
 70
     1
102
RTVSPropertyOp50
 70
     1
102
RTVSPropertyOp51
 70
     0
102
RTVSPropertyOp52
 70
     0
102
RTVSPropertyOp53
 70
     1
102
RTVSPropertyOp54
 70
     1
102
RTVSPropertyOp55
 70
     1
102
RTVSPropertyOp56
 70
     1
102
RTVSPropertyOp57
 70
     1
102
RTVSPropertyOp58
 70
     1
102
RTVSPropertyOp59
 70
     1
102
RTVSPropertyOp60
 70
     1
102
RTVSPropertyOp61
 70
     1
102
RTVSPropertyOp62
 70
     1
  0
XRECORD
  5
EC9D
102
{ACAD_REACTORS
330
EC9C
102
}
330
EC9C
100
AcDbXrecord
280
     1
102
RTVSPost2010Prop28
280
     0
102
RTVSPost2010PropOp28
 70
     1
102
RTVSPost2010Prop29
280
     1
102
RTVSPost2010PropOp29
 70
     1
102
RTVSPost2010Prop30
280
     1
102
RTVSPost2010PropOp30
 70
     1
102
RTVSPost2010Prop31
280
     0
102
RTVSPost2010PropOp31
 70
     1
102
RTVSPost2010Prop32
280
     0
102
RTVSPost2010PropOp32
 70
     1
102
RTVSPost2010Prop33
280
     0
102
RTVSPost2010PropOp33
 70
     1
102
RTVSPost2010Prop34
280
     0
102
RTVSPost2010PropOp34
 70
     1
102
RTVSPost2010Prop35
280
     0
102
RTVSPost2010PropOp35
 70
     1
102
RTVSPost2010Prop36
280
     0
102
RTVSPost2010PropOp36
 70
     1
102
RTVSPost2010Prop37
 90
       50
102
RTVSPost2010PropOp37
 70
     1
102
RTVSPost2010Prop38
140
0.0
102
RTVSPost2010PropOp38
 70
     1
102
RTVSPost2010Prop39
140
1.0
102
RTVSPost2010PropOp39
 70
     1
102
RTVSPost2010Prop40
 90
        0
102
RTVSPost2010PropOp40
 70
     1
102
RTVSPost2010Prop41ColorIndex
 90
       18
102
RTVSPost2010Prop41ColorRGB
 90
        0
102
RTVSPost2010PropOp41
 70
     1
102
RTVSPost2010Prop42
 90
       50
102
RTVSPost2010PropOp42
 70
     1
102
RTVSPost2010Prop43
 90
        3
102
RTVSPost2010PropOp43
 70
     1
102
RTVSPost2010Prop44ColorIndex
 90
        5
102
RTVSPost2010Prop44ColorRGB
 90
      255
102
RTVSPost2010PropOp44
 70
     1
102
RTVSPost2010Prop45
280
     0
102
RTVSPost2010PropOp45
 70
     1
102
RTVSPost2010Prop46
 90
       50
102
RTVSPost2010PropOp46
 70
     1
102
RTVSPost2010Prop47
 90
       50
102
RTVSPost2010PropOp47
 70
     1
102
RTVSPost2010Prop48
 90
       50
102
RTVSPost2010PropOp48
 70
     1
102
RTVSPost2010Prop49
280
     0
102
RTVSPost2010PropOp49
 70
     1
102
RTVSPost2010Prop50
 90
       50
102
RTVSPost2010PropOp50
 70
     1
102
RTVSPost2010Prop51ColorIndex
 90
      256
102
RTVSPost2010Prop51ColorRGB
 90
-16777216
102
RTVSPost2010PropOp51
 70
     0
102
RTVSPost2010Prop52
140
1.0
102
RTVSPost2010PropOp52
 70
     0
102
RTVSPost2010Prop53
 90
        2
102
RTVSPost2010PropOp53
 70
     1
102
RTVSPost2010Prop54
  1
strokes_ogs.tif
102
RTVSPost2010PropOp54
 70
     1
102
RTVSPost2010Prop55
280
     0
102
RTVSPost2010PropOp55
 70
     1
102
RTVSPost2010Prop56
140
1.0
102
RTVSPost2010PropOp56
 70
     1
102
RTVSPost2010Prop57
140
1.0
102
RTVSPost2010PropOp57
 70
     1
102
RTVSPropertyOp0
 70
     1
102
RTVSPropertyOp1
 70
     1
102
RTVSPropertyOp2
 70
     1
102
RTVSPropertyOp3
 70
     1
102
RTVSPropertyOp4
 70
     1
102
RTVSPropertyOp5
 70
     1
102
RTVSPropertyOp6
 70
     1
102
RTVSPropertyOp7
 70
     1
102
RTVSPropertyOp8
 70
     1
102
RTVSPropertyOp9
 70
     1
102
RTVSPropertyOp10
 70
     1
102
RTVSPropertyOp11
 70
     1
102
RTVSPropertyOp12
 70
     1
102
RTVSPropertyOp13
 70
     1
102
RTVSPropertyOp14
 70
     1
102
RTVSPropertyOp15
 70
     1
102
RTVSPropertyOp16
 70
     1
102
RTVSPropertyOp17
 70
     1
102
RTVSPropertyOp18
 70
     1
102
RTVSPropertyOp19
 70
     1
102
RTVSPropertyOp20
 70
     1
102
RTVSPropertyOp21
 70
     1
102
RTVSPropertyOp22
 70
     1
102
RTVSPropertyOp23
 70
     1
102
RTVSPropertyOp24
 70
     1
102
RTVSPropertyOp25
 70
     1
102
RTVSPropertyOp26
 70
     1
102
RTVSPropertyOp27
 70
     1
102
RTVSPropertyOp28
 70
     1
102
RTVSPropertyOp29
 70
     1
102
RTVSPropertyOp30
 70
     1
102
RTVSPropertyOp31
 70
     1
102
RTVSPropertyOp32
 70
     1
102
RTVSPropertyOp33
 70
     1
102
RTVSPropertyOp34
 70
     1
102
RTVSPropertyOp35
 70
     1
102
RTVSPropertyOp36
 70
     1
102
RTVSPropertyOp37
 70
     1
102
RTVSPropertyOp38
 70
     1
102
RTVSPropertyOp39
 70
     1
102
RTVSPropertyOp40
 70
     1
102
RTVSPropertyOp41
 70
     1
102
RTVSPropertyOp42
 70
     1
102
RTVSPropertyOp43
 70
     1
102
RTVSPropertyOp44
 70
     1
102
RTVSPropertyOp45
 70
     1
102
RTVSPropertyOp46
 70
     1
102
RTVSPropertyOp47
 70
     1
102
RTVSPropertyOp48
 70
     1
102
RTVSPropertyOp49
 70
     1
102
RTVSPropertyOp50
 70
     1
102
RTVSPropertyOp51
 70
     0
102
RTVSPropertyOp52
 70
     0
102
RTVSPropertyOp53
 70
     1
102
RTVSPropertyOp54
 70
     1
102
RTVSPropertyOp55
 70
     1
102
RTVSPropertyOp56
 70
     1
102
RTVSPropertyOp57
 70
     1
102
RTVSPropertyOp58
 70
     1
102
RTVSPropertyOp59
 70
     1
102
RTVSPropertyOp60
 70
     1
102
RTVSPropertyOp61
 70
     1
102
RTVSPropertyOp62
 70
     1
  0
XRECORD
  5
EC97
102
{ACAD_REACTORS
330
EC96
102
}
330
EC96
100
AcDbXrecord
280
     1
102
RTVSPost2010Prop28
280
     0
102
RTVSPost2010PropOp28
 70
     1
102
RTVSPost2010Prop29
280
     1
102
RTVSPost2010PropOp29
 70
     1
102
RTVSPost2010Prop30
280
     1
102
RTVSPost2010PropOp30
 70
     1
102
RTVSPost2010Prop31
280
     0
102
RTVSPost2010PropOp31
 70
     1
102
RTVSPost2010Prop32
280
     0
102
RTVSPost2010PropOp32
 70
     1
102
RTVSPost2010Prop33
280
     0
102
RTVSPost2010PropOp33
 70
     1
102
RTVSPost2010Prop34
280
     0
102
RTVSPost2010PropOp34
 70
     1
102
RTVSPost2010Prop35
280
     0
102
RTVSPost2010PropOp35
 70
     1
102
RTVSPost2010Prop36
280
     0
102
RTVSPost2010PropOp36
 70
     1
102
RTVSPost2010Prop37
 90
       50
102
RTVSPost2010PropOp37
 70
     1
102
RTVSPost2010Prop38
140
0.0
102
RTVSPost2010PropOp38
 70
     1
102
RTVSPost2010Prop39
140
1.0
102
RTVSPost2010PropOp39
 70
     1
102
RTVSPost2010Prop40
 90
        0
102
RTVSPost2010PropOp40
 70
     1
102
RTVSPost2010Prop41ColorIndex
 90
       18
102
RTVSPost2010Prop41ColorRGB
 90
        0
102
RTVSPost2010PropOp41
 70
     1
102
RTVSPost2010Prop42
 90
       50
102
RTVSPost2010PropOp42
 70
     1
102
RTVSPost2010Prop43
 90
        3
102
RTVSPost2010PropOp43
 70
     1
102
RTVSPost2010Prop44ColorIndex
 90
        5
102
RTVSPost2010Prop44ColorRGB
 90
      255
102
RTVSPost2010PropOp44
 70
     1
102
RTVSPost2010Prop45
280
     0
102
RTVSPost2010PropOp45
 70
     1
102
RTVSPost2010Prop46
 90
       50
102
RTVSPost2010PropOp46
 70
     1
102
RTVSPost2010Prop47
 90
       50
102
RTVSPost2010PropOp47
 70
     1
102
RTVSPost2010Prop48
 90
       50
102
RTVSPost2010PropOp48
 70
     1
102
RTVSPost2010Prop49
280
     0
102
RTVSPost2010PropOp49
 70
     1
102
RTVSPost2010Prop50
 90
       50
102
RTVSPost2010PropOp50
 70
     1
102
RTVSPost2010Prop51ColorIndex
 90
      256
102
RTVSPost2010Prop51ColorRGB
 90
-16777216
102
RTVSPost2010PropOp51
 70
     0
102
RTVSPost2010Prop52
140
1.0
102
RTVSPost2010PropOp52
 70
     0
102
RTVSPost2010Prop53
 90
        2
102
RTVSPost2010PropOp53
 70
     1
102
RTVSPost2010Prop54
  1
strokes_ogs.tif
102
RTVSPost2010PropOp54
 70
     1
102
RTVSPost2010Prop55
280
     0
102
RTVSPost2010PropOp55
 70
     1
102
RTVSPost2010Prop56
140
1.0
102
RTVSPost2010PropOp56
 70
     1
102
RTVSPost2010Prop57
140
1.0
102
RTVSPost2010PropOp57
 70
     1
102
RTVSPropertyOp0
 70
     1
102
RTVSPropertyOp1
 70
     1
102
RTVSPropertyOp2
 70
     1
102
RTVSPropertyOp3
 70
     1
102
RTVSPropertyOp4
 70
     1
102
RTVSPropertyOp5
 70
     1
102
RTVSPropertyOp6
 70
     1
102
RTVSPropertyOp7
 70
     1
102
RTVSPropertyOp8
 70
     1
102
RTVSPropertyOp9
 70
     1
102
RTVSPropertyOp10
 70
     1
102
RTVSPropertyOp11
 70
     1
102
RTVSPropertyOp12
 70
     1
102
RTVSPropertyOp13
 70
     1
102
RTVSPropertyOp14
 70
     1
102
RTVSPropertyOp15
 70
     1
102
RTVSPropertyOp16
 70
     1
102
RTVSPropertyOp17
 70
     1
102
RTVSPropertyOp18
 70
     1
102
RTVSPropertyOp19
 70
     1
102
RTVSPropertyOp20
 70
     1
102
RTVSPropertyOp21
 70
     1
102
RTVSPropertyOp22
 70
     1
102
RTVSPropertyOp23
 70
     1
102
RTVSPropertyOp24
 70
     1
102
RTVSPropertyOp25
 70
     1
102
RTVSPropertyOp26
 70
     1
102
RTVSPropertyOp27
 70
     1
102
RTVSPropertyOp28
 70
     1
102
RTVSPropertyOp29
 70
     1
102
RTVSPropertyOp30
 70
     1
102
RTVSPropertyOp31
 70
     1
102
RTVSPropertyOp32
 70
     1
102
RTVSPropertyOp33
 70
     1
102
RTVSPropertyOp34
 70
     1
102
RTVSPropertyOp35
 70
     1
102
RTVSPropertyOp36
 70
     1
102
RTVSPropertyOp37
 70
     1
102
RTVSPropertyOp38
 70
     1
102
RTVSPropertyOp39
 70
     1
102
RTVSPropertyOp40
 70
     1
102
RTVSPropertyOp41
 70
     1
102
RTVSPropertyOp42
 70
     1
102
RTVSPropertyOp43
 70
     1
102
RTVSPropertyOp44
 70
     1
102
RTVSPropertyOp45
 70
     1
102
RTVSPropertyOp46
 70
     1
102
RTVSPropertyOp47
 70
     1
102
RTVSPropertyOp48
 70
     1
102
RTVSPropertyOp49
 70
     1
102
RTVSPropertyOp50
 70
     1
102
RTVSPropertyOp51
 70
     0
102
RTVSPropertyOp52
 70
     0
102
RTVSPropertyOp53
 70
     1
102
RTVSPropertyOp54
 70
     1
102
RTVSPropertyOp55
 70
     1
102
RTVSPropertyOp56
 70
     1
102
RTVSPropertyOp57
 70
     1
102
RTVSPropertyOp58
 70
     1
102
RTVSPropertyOp59
 70
     1
102
RTVSPropertyOp60
 70
     1
102
RTVSPropertyOp61
 70
     1
102
RTVSPropertyOp62
 70
     1
  0
XRECORD
  5
EC99
102
{ACAD_REACTORS
330
EC98
102
}
330
EC98
100
AcDbXrecord
280
     1
102
RTVSPost2010Prop28
280
     0
102
RTVSPost2010PropOp28
 70
     1
102
RTVSPost2010Prop29
280
     1
102
RTVSPost2010PropOp29
 70
     1
102
RTVSPost2010Prop30
280
     1
102
RTVSPost2010PropOp30
 70
     1
102
RTVSPost2010Prop31
280
     0
102
RTVSPost2010PropOp31
 70
     1
102
RTVSPost2010Prop32
280
     0
102
RTVSPost2010PropOp32
 70
     1
102
RTVSPost2010Prop33
280
     0
102
RTVSPost2010PropOp33
 70
     1
102
RTVSPost2010Prop34
280
     0
102
RTVSPost2010PropOp34
 70
     1
102
RTVSPost2010Prop35
280
     0
102
RTVSPost2010PropOp35
 70
     1
102
RTVSPost2010Prop36
280
     0
102
RTVSPost2010PropOp36
 70
     1
102
RTVSPost2010Prop37
 90
       50
102
RTVSPost2010PropOp37
 70
     1
102
RTVSPost2010Prop38
140
0.0
102
RTVSPost2010PropOp38
 70
     1
102
RTVSPost2010Prop39
140
1.0
102
RTVSPost2010PropOp39
 70
     1
102
RTVSPost2010Prop40
 90
        0
102
RTVSPost2010PropOp40
 70
     1
102
RTVSPost2010Prop41ColorIndex
 90
       18
102
RTVSPost2010Prop41ColorRGB
 90
        0
102
RTVSPost2010PropOp41
 70
     1
102
RTVSPost2010Prop42
 90
       50
102
RTVSPost2010PropOp42
 70
     1
102
RTVSPost2010Prop43
 90
        3
102
RTVSPost2010PropOp43
 70
     1
102
RTVSPost2010Prop44ColorIndex
 90
        5
102
RTVSPost2010Prop44ColorRGB
 90
      255
102
RTVSPost2010PropOp44
 70
     1
102
RTVSPost2010Prop45
280
     0
102
RTVSPost2010PropOp45
 70
     1
102
RTVSPost2010Prop46
 90
       50
102
RTVSPost2010PropOp46
 70
     1
102
RTVSPost2010Prop47
 90
       50
102
RTVSPost2010PropOp47
 70
     1
102
RTVSPost2010Prop48
 90
       50
102
RTVSPost2010PropOp48
 70
     1
102
RTVSPost2010Prop49
280
     0
102
RTVSPost2010PropOp49
 70
     1
102
RTVSPost2010Prop50
 90
       50
102
RTVSPost2010PropOp50
 70
     1
102
RTVSPost2010Prop51ColorIndex
 90
      256
102
RTVSPost2010Prop51ColorRGB
 90
-16777216
102
RTVSPost2010PropOp51
 70
     0
102
RTVSPost2010Prop52
140
1.0
102
RTVSPost2010PropOp52
 70
     0
102
RTVSPost2010Prop53
 90
        2
102
RTVSPost2010PropOp53
 70
     1
102
RTVSPost2010Prop54
  1
strokes_ogs.tif
102
RTVSPost2010PropOp54
 70
     1
102
RTVSPost2010Prop55
280
     0
102
RTVSPost2010PropOp55
 70
     1
102
RTVSPost2010Prop56
140
1.0
102
RTVSPost2010PropOp56
 70
     1
102
RTVSPost2010Prop57
140
1.0
102
RTVSPost2010PropOp57
 70
     1
102
RTVSPropertyOp0
 70
     1
102
RTVSPropertyOp1
 70
     1
102
RTVSPropertyOp2
 70
     1
102
RTVSPropertyOp3
 70
     1
102
RTVSPropertyOp4
 70
     1
102
RTVSPropertyOp5
 70
     1
102
RTVSPropertyOp6
 70
     1
102
RTVSPropertyOp7
 70
     1
102
RTVSPropertyOp8
 70
     1
102
RTVSPropertyOp9
 70
     1
102
RTVSPropertyOp10
 70
     1
102
RTVSPropertyOp11
 70
     1
102
RTVSPropertyOp12
 70
     1
102
RTVSPropertyOp13
 70
     1
102
RTVSPropertyOp14
 70
     1
102
RTVSPropertyOp15
 70
     1
102
RTVSPropertyOp16
 70
     1
102
RTVSPropertyOp17
 70
     1
102
RTVSPropertyOp18
 70
     1
102
RTVSPropertyOp19
 70
     1
102
RTVSPropertyOp20
 70
     1
102
RTVSPropertyOp21
 70
     1
102
RTVSPropertyOp22
 70
     1
102
RTVSPropertyOp23
 70
     1
102
RTVSPropertyOp24
 70
     1
102
RTVSPropertyOp25
 70
     1
102
RTVSPropertyOp26
 70
     1
102
RTVSPropertyOp27
 70
     1
102
RTVSPropertyOp28
 70
     1
102
RTVSPropertyOp29
 70
     1
102
RTVSPropertyOp30
 70
     1
102
RTVSPropertyOp31
 70
     1
102
RTVSPropertyOp32
 70
     1
102
RTVSPropertyOp33
 70
     1
102
RTVSPropertyOp34
 70
     1
102
RTVSPropertyOp35
 70
     1
102
RTVSPropertyOp36
 70
     1
102
RTVSPropertyOp37
 70
     1
102
RTVSPropertyOp38
 70
     1
102
RTVSPropertyOp39
 70
     1
102
RTVSPropertyOp40
 70
     1
102
RTVSPropertyOp41
 70
     1
102
RTVSPropertyOp42
 70
     1
102
RTVSPropertyOp43
 70
     1
102
RTVSPropertyOp44
 70
     1
102
RTVSPropertyOp45
 70
     1
102
RTVSPropertyOp46
 70
     1
102
RTVSPropertyOp47
 70
     1
102
RTVSPropertyOp48
 70
     1
102
RTVSPropertyOp49
 70
     1
102
RTVSPropertyOp50
 70
     1
102
RTVSPropertyOp51
 70
     0
102
RTVSPropertyOp52
 70
     0
102
RTVSPropertyOp53
 70
     1
102
RTVSPropertyOp54
 70
     1
102
RTVSPropertyOp55
 70
     1
102
RTVSPropertyOp56
 70
     1
102
RTVSPropertyOp57
 70
     1
102
RTVSPropertyOp58
 70
     1
102
RTVSPropertyOp59
 70
     1
102
RTVSPropertyOp60
 70
     1
102
RTVSPropertyOp61
 70
     1
102
RTVSPropertyOp62
 70
     1
  0
XRECORD
  5
EC8F
102
{ACAD_REACTORS
330
EC8E
102
}
330
EC8E
100
AcDbXrecord
280
     1
102
RTVSPost2010Prop28
280
     0
102
RTVSPost2010PropOp28
 70
     1
102
RTVSPost2010Prop29
280
     1
102
RTVSPost2010PropOp29
 70
     1
102
RTVSPost2010Prop30
280
     1
102
RTVSPost2010PropOp30
 70
     1
102
RTVSPost2010Prop31
280
     0
102
RTVSPost2010PropOp31
 70
     1
102
RTVSPost2010Prop32
280
     0
102
RTVSPost2010PropOp32
 70
     1
102
RTVSPost2010Prop33
280
     0
102
RTVSPost2010PropOp33
 70
     1
102
RTVSPost2010Prop34
280
     0
102
RTVSPost2010PropOp34
 70
     1
102
RTVSPost2010Prop35
280
     0
102
RTVSPost2010PropOp35
 70
     1
102
RTVSPost2010Prop36
280
     0
102
RTVSPost2010PropOp36
 70
     1
102
RTVSPost2010Prop37
 90
       50
102
RTVSPost2010PropOp37
 70
     1
102
RTVSPost2010Prop38
140
0.0
102
RTVSPost2010PropOp38
 70
     1
102
RTVSPost2010Prop39
140
1.0
102
RTVSPost2010PropOp39
 70
     1
102
RTVSPost2010Prop40
 90
        0
102
RTVSPost2010PropOp40
 70
     1
102
RTVSPost2010Prop41ColorIndex
 90
       18
102
RTVSPost2010Prop41ColorRGB
 90
        0
102
RTVSPost2010PropOp41
 70
     1
102
RTVSPost2010Prop42
 90
       50
102
RTVSPost2010PropOp42
 70
     1
102
RTVSPost2010Prop43
 90
        3
102
RTVSPost2010PropOp43
 70
     1
102
RTVSPost2010Prop44ColorIndex
 90
        5
102
RTVSPost2010Prop44ColorRGB
 90
      255
102
RTVSPost2010PropOp44
 70
     1
102
RTVSPost2010Prop45
280
     0
102
RTVSPost2010PropOp45
 70
     1
102
RTVSPost2010Prop46
 90
       50
102
RTVSPost2010PropOp46
 70
     1
102
RTVSPost2010Prop47
 90
       50
102
RTVSPost2010PropOp47
 70
     1
102
RTVSPost2010Prop48
 90
       50
102
RTVSPost2010PropOp48
 70
     1
102
RTVSPost2010Prop49
280
     0
102
RTVSPost2010PropOp49
 70
     1
102
RTVSPost2010Prop50
 90
       50
102
RTVSPost2010PropOp50
 70
     1
102
RTVSPost2010Prop51ColorIndex
 90
      256
102
RTVSPost2010Prop51ColorRGB
 90
-16777216
102
RTVSPost2010PropOp51
 70
     0
102
RTVSPost2010Prop52
140
1.0
102
RTVSPost2010PropOp52
 70
     0
102
RTVSPost2010Prop53
 90
        2
102
RTVSPost2010PropOp53
 70
     1
102
RTVSPost2010Prop54
  1
strokes_ogs.tif
102
RTVSPost2010PropOp54
 70
     1
102
RTVSPost2010Prop55
280
     0
102
RTVSPost2010PropOp55
 70
     1
102
RTVSPost2010Prop56
140
1.0
102
RTVSPost2010PropOp56
 70
     1
102
RTVSPost2010Prop57
140
1.0
102
RTVSPost2010PropOp57
 70
     1
102
RTVSPropertyOp0
 70
     1
102
RTVSPropertyOp1
 70
     1
102
RTVSPropertyOp2
 70
     1
102
RTVSPropertyOp3
 70
     1
102
RTVSPropertyOp4
 70
     1
102
RTVSPropertyOp5
 70
     1
102
RTVSPropertyOp6
 70
     1
102
RTVSPropertyOp7
 70
     1
102
RTVSPropertyOp8
 70
     1
102
RTVSPropertyOp9
 70
     1
102
RTVSPropertyOp10
 70
     1
102
RTVSPropertyOp11
 70
     1
102
RTVSPropertyOp12
 70
     1
102
RTVSPropertyOp13
 70
     1
102
RTVSPropertyOp14
 70
     1
102
RTVSPropertyOp15
 70
     1
102
RTVSPropertyOp16
 70
     1
102
RTVSPropertyOp17
 70
     1
102
RTVSPropertyOp18
 70
     1
102
RTVSPropertyOp19
 70
     1
102
RTVSPropertyOp20
 70
     1
102
RTVSPropertyOp21
 70
     1
102
RTVSPropertyOp22
 70
     1
102
RTVSPropertyOp23
 70
     1
102
RTVSPropertyOp24
 70
     1
102
RTVSPropertyOp25
 70
     1
102
RTVSPropertyOp26
 70
     1
102
RTVSPropertyOp27
 70
     1
102
RTVSPropertyOp28
 70
     1
102
RTVSPropertyOp29
 70
     1
102
RTVSPropertyOp30
 70
     1
102
RTVSPropertyOp31
 70
     1
102
RTVSPropertyOp32
 70
     1
102
RTVSPropertyOp33
 70
     1
102
RTVSPropertyOp34
 70
     1
102
RTVSPropertyOp35
 70
     1
102
RTVSPropertyOp36
 70
     1
102
RTVSPropertyOp37
 70
     1
102
RTVSPropertyOp38
 70
     1
102
RTVSPropertyOp39
 70
     1
102
RTVSPropertyOp40
 70
     1
102
RTVSPropertyOp41
 70
     1
102
RTVSPropertyOp42
 70
     1
102
RTVSPropertyOp43
 70
     1
102
RTVSPropertyOp44
 70
     1
102
RTVSPropertyOp45
 70
     1
102
RTVSPropertyOp46
 70
     1
102
RTVSPropertyOp47
 70
     1
102
RTVSPropertyOp48
 70
     1
102
RTVSPropertyOp49
 70
     1
102
RTVSPropertyOp50
 70
     1
102
RTVSPropertyOp51
 70
     0
102
RTVSPropertyOp52
 70
     0
102
RTVSPropertyOp53
 70
     1
102
RTVSPropertyOp54
 70
     1
102
RTVSPropertyOp55
 70
     1
102
RTVSPropertyOp56
 70
     1
102
RTVSPropertyOp57
 70
     1
102
RTVSPropertyOp58
 70
     1
102
RTVSPropertyOp59
 70
     1
102
RTVSPropertyOp60
 70
     1
102
RTVSPropertyOp61
 70
     1
102
RTVSPropertyOp62
 70
     1
  0
XRECORD
  5
EC83
102
{ACAD_REACTORS
330
EC82
102
}
330
EC82
100
AcDbXrecord
280
     1
102
RTVSPost2010Prop28
280
     0
102
RTVSPost2010PropOp28
 70
     1
102
RTVSPost2010Prop29
280
     1
102
RTVSPost2010PropOp29
 70
     1
102
RTVSPost2010Prop30
280
     1
102
RTVSPost2010PropOp30
 70
     1
102
RTVSPost2010Prop31
280
     0
102
RTVSPost2010PropOp31
 70
     1
102
RTVSPost2010Prop32
280
     0
102
RTVSPost2010PropOp32
 70
     1
102
RTVSPost2010Prop33
280
     0
102
RTVSPost2010PropOp33
 70
     1
102
RTVSPost2010Prop34
280
     0
102
RTVSPost2010PropOp34
 70
     1
102
RTVSPost2010Prop35
280
     0
102
RTVSPost2010PropOp35
 70
     1
102
RTVSPost2010Prop36
280
     0
102
RTVSPost2010PropOp36
 70
     1
102
RTVSPost2010Prop37
 90
       50
102
RTVSPost2010PropOp37
 70
     1
102
RTVSPost2010Prop38
140
0.0
102
RTVSPost2010PropOp38
 70
     1
102
RTVSPost2010Prop39
140
1.0
102
RTVSPost2010PropOp39
 70
     1
102
RTVSPost2010Prop40
 90
        0
102
RTVSPost2010PropOp40
 70
     1
102
RTVSPost2010Prop41ColorIndex
 90
       18
102
RTVSPost2010Prop41ColorRGB
 90
        0
102
RTVSPost2010PropOp41
 70
     1
102
RTVSPost2010Prop42
 90
       50
102
RTVSPost2010PropOp42
 70
     1
102
RTVSPost2010Prop43
 90
        3
102
RTVSPost2010PropOp43
 70
     1
102
RTVSPost2010Prop44ColorIndex
 90
        5
102
RTVSPost2010Prop44ColorRGB
 90
      255
102
RTVSPost2010PropOp44
 70
     1
102
RTVSPost2010Prop45
280
     0
102
RTVSPost2010PropOp45
 70
     1
102
RTVSPost2010Prop46
 90
       50
102
RTVSPost2010PropOp46
 70
     1
102
RTVSPost2010Prop47
 90
       50
102
RTVSPost2010PropOp47
 70
     1
102
RTVSPost2010Prop48
 90
       50
102
RTVSPost2010PropOp48
 70
     1
102
RTVSPost2010Prop49
280
     0
102
RTVSPost2010PropOp49
 70
     1
102
RTVSPost2010Prop50
 90
       50
102
RTVSPost2010PropOp50
 70
     1
102
RTVSPost2010Prop51ColorIndex
 90
      256
102
RTVSPost2010Prop51ColorRGB
 90
-16777216
102
RTVSPost2010PropOp51
 70
     0
102
RTVSPost2010Prop52
140
1.0
102
RTVSPost2010PropOp52
 70
     0
102
RTVSPost2010Prop53
 90
        2
102
RTVSPost2010PropOp53
 70
     1
102
RTVSPost2010Prop54
  1
strokes_ogs.tif
102
RTVSPost2010PropOp54
 70
     1
102
RTVSPost2010Prop55
280
     0
102
RTVSPost2010PropOp55
 70
     1
102
RTVSPost2010Prop56
140
1.0
102
RTVSPost2010PropOp56
 70
     1
102
RTVSPost2010Prop57
140
1.0
102
RTVSPost2010PropOp57
 70
     1
102
RTVSPropertyOp0
 70
     1
102
RTVSPropertyOp1
 70
     1
102
RTVSPropertyOp2
 70
     1
102
RTVSPropertyOp3
 70
     1
102
RTVSPropertyOp4
 70
     1
102
RTVSPropertyOp5
 70
     1
102
RTVSPropertyOp6
 70
     1
102
RTVSPropertyOp7
 70
     1
102
RTVSPropertyOp8
 70
     1
102
RTVSPropertyOp9
 70
     1
102
RTVSPropertyOp10
 70
     1
102
RTVSPropertyOp11
 70
     1
102
RTVSPropertyOp12
 70
     1
102
RTVSPropertyOp13
 70
     1
102
RTVSPropertyOp14
 70
     1
102
RTVSPropertyOp15
 70
     1
102
RTVSPropertyOp16
 70
     1
102
RTVSPropertyOp17
 70
     1
102
RTVSPropertyOp18
 70
     1
102
RTVSPropertyOp19
 70
     1
102
RTVSPropertyOp20
 70
     1
102
RTVSPropertyOp21
 70
     1
102
RTVSPropertyOp22
 70
     1
102
RTVSPropertyOp23
 70
     1
102
RTVSPropertyOp24
 70
     1
102
RTVSPropertyOp25
 70
     1
102
RTVSPropertyOp26
 70
     1
102
RTVSPropertyOp27
 70
     1
102
RTVSPropertyOp28
 70
     1
102
RTVSPropertyOp29
 70
     1
102
RTVSPropertyOp30
 70
     1
102
RTVSPropertyOp31
 70
     1
102
RTVSPropertyOp32
 70
     1
102
RTVSPropertyOp33
 70
     1
102
RTVSPropertyOp34
 70
     1
102
RTVSPropertyOp35
 70
     1
102
RTVSPropertyOp36
 70
     1
102
RTVSPropertyOp37
 70
     1
102
RTVSPropertyOp38
 70
     1
102
RTVSPropertyOp39
 70
     1
102
RTVSPropertyOp40
 70
     1
102
RTVSPropertyOp41
 70
     1
102
RTVSPropertyOp42
 70
     1
102
RTVSPropertyOp43
 70
     1
102
RTVSPropertyOp44
 70
     1
102
RTVSPropertyOp45
 70
     1
102
RTVSPropertyOp46
 70
     1
102
RTVSPropertyOp47
 70
     1
102
RTVSPropertyOp48
 70
     1
102
RTVSPropertyOp49
 70
     1
102
RTVSPropertyOp50
 70
     1
102
RTVSPropertyOp51
 70
     0
102
RTVSPropertyOp52
 70
     0
102
RTVSPropertyOp53
 70
     1
102
RTVSPropertyOp54
 70
     1
102
RTVSPropertyOp55
 70
     1
102
RTVSPropertyOp56
 70
     1
102
RTVSPropertyOp57
 70
     1
102
RTVSPropertyOp58
 70
     1
102
RTVSPropertyOp59
 70
     1
102
RTVSPropertyOp60
 70
     1
102
RTVSPropertyOp61
 70
     1
102
RTVSPropertyOp62
 70
     1
  0
XRECORD
  5
EC9B
102
{ACAD_REACTORS
330
EC9A
102
}
330
EC9A
100
AcDbXrecord
280
     1
102
RTVSPost2010Prop28
280
     0
102
RTVSPost2010PropOp28
 70
     1
102
RTVSPost2010Prop29
280
     1
102
RTVSPost2010PropOp29
 70
     1
102
RTVSPost2010Prop30
280
     1
102
RTVSPost2010PropOp30
 70
     1
102
RTVSPost2010Prop31
280
     0
102
RTVSPost2010PropOp31
 70
     1
102
RTVSPost2010Prop32
280
     0
102
RTVSPost2010PropOp32
 70
     1
102
RTVSPost2010Prop33
280
     0
102
RTVSPost2010PropOp33
 70
     1
102
RTVSPost2010Prop34
280
     0
102
RTVSPost2010PropOp34
 70
     1
102
RTVSPost2010Prop35
280
     0
102
RTVSPost2010PropOp35
 70
     1
102
RTVSPost2010Prop36
280
     0
102
RTVSPost2010PropOp36
 70
     1
102
RTVSPost2010Prop37
 90
       50
102
RTVSPost2010PropOp37
 70
     1
102
RTVSPost2010Prop38
140
0.0
102
RTVSPost2010PropOp38
 70
     1
102
RTVSPost2010Prop39
140
1.0
102
RTVSPost2010PropOp39
 70
     1
102
RTVSPost2010Prop40
 90
        0
102
RTVSPost2010PropOp40
 70
     1
102
RTVSPost2010Prop41ColorIndex
 90
       18
102
RTVSPost2010Prop41ColorRGB
 90
        0
102
RTVSPost2010PropOp41
 70
     1
102
RTVSPost2010Prop42
 90
       50
102
RTVSPost2010PropOp42
 70
     1
102
RTVSPost2010Prop43
 90
        3
102
RTVSPost2010PropOp43
 70
     1
102
RTVSPost2010Prop44ColorIndex
 90
        5
102
RTVSPost2010Prop44ColorRGB
 90
      255
102
RTVSPost2010PropOp44
 70
     1
102
RTVSPost2010Prop45
280
     0
102
RTVSPost2010PropOp45
 70
     1
102
RTVSPost2010Prop46
 90
       50
102
RTVSPost2010PropOp46
 70
     1
102
RTVSPost2010Prop47
 90
       50
102
RTVSPost2010PropOp47
 70
     1
102
RTVSPost2010Prop48
 90
       50
102
RTVSPost2010PropOp48
 70
     1
102
RTVSPost2010Prop49
280
     0
102
RTVSPost2010PropOp49
 70
     1
102
RTVSPost2010Prop50
 90
       50
102
RTVSPost2010PropOp50
 70
     1
102
RTVSPost2010Prop51ColorIndex
 90
      256
102
RTVSPost2010Prop51ColorRGB
 90
-16777216
102
RTVSPost2010PropOp51
 70
     0
102
RTVSPost2010Prop52
140
1.0
102
RTVSPost2010PropOp52
 70
     0
102
RTVSPost2010Prop53
 90
        2
102
RTVSPost2010PropOp53
 70
     1
102
RTVSPost2010Prop54
  1
strokes_ogs.tif
102
RTVSPost2010PropOp54
 70
     1
102
RTVSPost2010Prop55
280
     0
102
RTVSPost2010PropOp55
 70
     1
102
RTVSPost2010Prop56
140
1.0
102
RTVSPost2010PropOp56
 70
     1
102
RTVSPost2010Prop57
140
1.0
102
RTVSPost2010PropOp57
 70
     1
102
RTVSPropertyOp0
 70
     1
102
RTVSPropertyOp1
 70
     1
102
RTVSPropertyOp2
 70
     1
102
RTVSPropertyOp3
 70
     1
102
RTVSPropertyOp4
 70
     1
102
RTVSPropertyOp5
 70
     1
102
RTVSPropertyOp6
 70
     1
102
RTVSPropertyOp7
 70
     1
102
RTVSPropertyOp8
 70
     1
102
RTVSPropertyOp9
 70
     1
102
RTVSPropertyOp10
 70
     1
102
RTVSPropertyOp11
 70
     1
102
RTVSPropertyOp12
 70
     1
102
RTVSPropertyOp13
 70
     1
102
RTVSPropertyOp14
 70
     1
102
RTVSPropertyOp15
 70
     1
102
RTVSPropertyOp16
 70
     1
102
RTVSPropertyOp17
 70
     1
102
RTVSPropertyOp18
 70
     1
102
RTVSPropertyOp19
 70
     1
102
RTVSPropertyOp20
 70
     1
102
RTVSPropertyOp21
 70
     1
102
RTVSPropertyOp22
 70
     1
102
RTVSPropertyOp23
 70
     1
102
RTVSPropertyOp24
 70
     1
102
RTVSPropertyOp25
 70
     1
102
RTVSPropertyOp26
 70
     1
102
RTVSPropertyOp27
 70
     1
102
RTVSPropertyOp28
 70
     1
102
RTVSPropertyOp29
 70
     1
102
RTVSPropertyOp30
 70
     1
102
RTVSPropertyOp31
 70
     1
102
RTVSPropertyOp32
 70
     1
102
RTVSPropertyOp33
 70
     1
102
RTVSPropertyOp34
 70
     1
102
RTVSPropertyOp35
 70
     1
102
RTVSPropertyOp36
 70
     1
102
RTVSPropertyOp37
 70
     1
102
RTVSPropertyOp38
 70
     1
102
RTVSPropertyOp39
 70
     1
102
RTVSPropertyOp40
 70
     1
102
RTVSPropertyOp41
 70
     1
102
RTVSPropertyOp42
 70
     1
102
RTVSPropertyOp43
 70
     1
102
RTVSPropertyOp44
 70
     1
102
RTVSPropertyOp45
 70
     1
102
RTVSPropertyOp46
 70
     1
102
RTVSPropertyOp47
 70
     1
102
RTVSPropertyOp48
 70
     1
102
RTVSPropertyOp49
 70
     1
102
RTVSPropertyOp50
 70
     1
102
RTVSPropertyOp51
 70
     0
102
RTVSPropertyOp52
 70
     0
102
RTVSPropertyOp53
 70
     1
102
RTVSPropertyOp54
 70
     1
102
RTVSPropertyOp55
 70
     1
102
RTVSPropertyOp56
 70
     1
102
RTVSPropertyOp57
 70
     1
102
RTVSPropertyOp58
 70
     1
102
RTVSPropertyOp59
 70
     1
102
RTVSPropertyOp60
 70
     1
102
RTVSPropertyOp61
 70
     1
102
RTVSPropertyOp62
 70
     1
  0
ENDSEC
  0
EOF
