ISO-10303-21;
HEADER;
/****************************************************************
 * Generated by software with PDE/Lib inside                    *
 * PDElib Version 4.4.1-0003, patched  Thursday August 19 11:58 *
 * International Technegroup Inc. (www.iti-oh.com)              *
 ****************************************************************/
FILE_DESCRIPTION((''),'2;1');
FILE_NAME('','2005-12-14T16:07:33',(''),(''),'','CADfix','');
FILE_SCHEMA(('AUTOMOTIVE_DESIGN'));
ENDSEC;
DATA;
#5=APPLICATION_CONTEXT('automotive design');
#6=APPLICATION_PROTOCOL_DEFINITION('Draft International Standard','automotive_design',1998,#5);
#7=PRODUCT_CONTEXT('None',#5,'mechanical');
#8=PRODUCT('rubber foot','','None',(#7));
#9=PRODUCT_RELATED_PRODUCT_CATEGORY('part','description',(#8));
#10=PRODUCT_DEFINITION_FORMATION('None','None',#8);
#11=PRODUCT_DEFINITION_CONTEXT('part definition',#5,'design');
#12=PRODUCT_DEFINITION('None','None',#10,#11);
#18=(NAMED_UNIT(*)PLANE_ANGLE_UNIT()SI_UNIT($,.RADIAN.));
#19=DIMENSIONAL_EXPONENTS(0.0,0.0,0.0,0.0,0.0,0.0,0.0);
#20=PLANE_ANGLE_MEASURE_WITH_UNIT(PLANE_ANGLE_MEASURE(0.017453292500000),#18);
#24=(CONVERSION_BASED_UNIT('DEGREE',#20)NAMED_UNIT(#19)PLANE_ANGLE_UNIT());
#28=(NAMED_UNIT(*)SI_UNIT($,.STERADIAN.)SOLID_ANGLE_UNIT());
#32=(LENGTH_UNIT()NAMED_UNIT(*)SI_UNIT(.MILLI.,.METRE.));
#34=UNCERTAINTY_MEASURE_WITH_UNIT(LENGTH_MEASURE(0.001000000000000),#32,'DISTANCE_ACCURACY_VALUE','');
#36=(GEOMETRIC_REPRESENTATION_CONTEXT(3)GLOBAL_UNCERTAINTY_ASSIGNED_CONTEXT((#34))GLOBAL_UNIT_ASSIGNED_CONTEXT((#24,#28,#32))REPRESENTATION_CONTEXT('None','None'));
#37=AXIS2_PLACEMENT_3D('',#38,#39,#40);
#38=CARTESIAN_POINT('',(0.0,0.0,0.0));
#39=DIRECTION('',(0.0,0.0,1.0));
#40=DIRECTION('',(1.0,0.0,0.0));
#41=ADVANCED_BREP_SHAPE_REPRESENTATION('',(#37,#455),#36);
#42=PRODUCT_DEFINITION_SHAPE('','',#12);
#43=SHAPE_DEFINITION_REPRESENTATION(#42,#41);
#44=CARTESIAN_POINT('',(-0.749517390070416,6.305610492409281,3.617500000000001));
#45=CARTESIAN_POINT('',(-0.569053526851158,6.327061358098645,3.617500000000001));
#46=CARTESIAN_POINT('',(-0.387658226046342,6.338155969978853,3.617500000000001));
#47=CARTESIAN_POINT('',(5.950497743932512,6.725814196025195,3.617500000000000));
#48=CARTESIAN_POINT('',(6.338155969978853,0.387658226046342,3.617500000000001));
#49=CARTESIAN_POINT('',(6.725814196025195,-5.950497743932512,3.617500000000000));
#50=CARTESIAN_POINT('',(0.387658226046342,-6.338155969978853,3.617500000000001));
#51=CARTESIAN_POINT('',(-0.749517390070416,6.305610492409281,2.882062500000000));
#52=CARTESIAN_POINT('',(-0.569053526851158,6.327061358098645,2.882062500000000));
#53=CARTESIAN_POINT('',(-0.387658226046342,6.338155969978853,2.882062500000000));
#54=CARTESIAN_POINT('',(5.950497743932512,6.725814196025195,2.882062500000000));
#55=CARTESIAN_POINT('',(6.338155969978853,0.387658226046342,2.882062500000000));
#56=CARTESIAN_POINT('',(6.725814196025195,-5.950497743932512,2.882062500000000));
#57=CARTESIAN_POINT('',(0.387658226046342,-6.338155969978853,2.882062500000000));
#65=(BOUNDED_SURFACE()B_SPLINE_SURFACE(2,1,((#44,#51),(#45,#52),(#46,#53),(#47,#54),(#48,#55),(#49,#56),(#50,#57)),.UNSPECIFIED.,.F.,.F.,.U.)B_SPLINE_SURFACE_WITH_KNOTS((3,2,2,3),(2,2),(0.0,0.420840979371065,10.941865463647680,21.462889947924289),(0.0,1.0),.UNSPECIFIED.)GEOMETRIC_REPRESENTATION_ITEM()RATIONAL_B_SPLINE_SURFACE(((0.977505800795127,0.977505800795127),(0.988284271247462,0.988284271247462),(1.0,1.0),(0.707106781186548,0.707106781186548),(1.0,1.0),(0.707106781186548,0.707106781186548),(1.0,1.0)))REPRESENTATION_ITEM('')SURFACE());
#66=CARTESIAN_POINT('',(-0.749513375861459,6.305610969556273,3.599999999999944));
#67=VERTEX_POINT('',#66);
#68=CARTESIAN_POINT('',(6.350000000000000,0.0,3.600000000000000));
#69=VERTEX_POINT('',#68);
#70=CARTESIAN_POINT('',(-0.749513375861459,6.305610969556273,3.599999999999944));
#71=CARTESIAN_POINT('',(-0.376071131466490,6.350000000000000,3.600000000000001));
#72=CARTESIAN_POINT('',(0.0,6.350000000000000,3.600000000000000));
#73=CARTESIAN_POINT('',(6.350000000000000,6.350000000000000,3.600000000000000));
#74=CARTESIAN_POINT('',(6.350000000000000,0.0,3.600000000000000));
#82=(BOUNDED_CURVE()B_SPLINE_CURVE(2,(#70,#71,#72,#73,#74),.UNSPECIFIED.,.F.,.U.)B_SPLINE_CURVE_WITH_KNOTS((3,2,3),(0.229562581104653,0.250000000000000,0.500000000000000),.UNSPECIFIED.)CURVE()GEOMETRIC_REPRESENTATION_ITEM()RATIONAL_B_SPLINE_CURVE((0.956026965066855,0.976056074382012,1.0,0.707106781186547,1.0))REPRESENTATION_ITEM(''));
#83=EDGE_CURVE('',#67,#69,#82,.T.);
#84=ORIENTED_EDGE('',*,*,#83,.T.);
#85=CARTESIAN_POINT('',(0.387655958614094,-6.338156108660137,3.599999999999963));
#86=VERTEX_POINT('',#85);
#87=CARTESIAN_POINT('',(6.350000000000000,0.0,3.600000000000000));
#88=CARTESIAN_POINT('',(6.349999999999999,-5.973485665817968,3.600000000000000));
#89=CARTESIAN_POINT('',(0.387655958614094,-6.338156108660137,3.599999999999962));
#97=(BOUNDED_CURVE()B_SPLINE_CURVE(2,(#87,#88,#89),.UNSPECIFIED.,.F.,.U.)B_SPLINE_CURVE_WITH_KNOTS((3,3),(0.500000000000000,0.739333023969413),.UNSPECIFIED.)CURVE()GEOMETRIC_REPRESENTATION_ITEM()RATIONAL_B_SPLINE_CURVE((1.0,0.719603920964966,0.976072173966902))REPRESENTATION_ITEM(''));
#98=EDGE_CURVE('',#69,#86,#97,.T.);
#99=ORIENTED_EDGE('',*,*,#98,.T.);
#100=CARTESIAN_POINT('',(0.387655985912206,-6.338156106990533,2.900000000000000));
#101=VERTEX_POINT('',#100);
#102=CARTESIAN_POINT('',(0.387655958614094,-6.338156108660137,3.599999999999963));
#103=CARTESIAN_POINT('',(0.387655985912206,-6.338156106990533,2.900000000000000));
#104=QUASI_UNIFORM_CURVE('',1,(#102,#103),.UNSPECIFIED.,.F.,.U.);
#105=EDGE_CURVE('',#86,#101,#104,.T.);
#106=ORIENTED_EDGE('',*,*,#105,.T.);
#107=CARTESIAN_POINT('',(6.350000000000000,0.0,2.900000000000000));
#108=VERTEX_POINT('',#107);
#109=CARTESIAN_POINT('',(6.350000000000000,0.0,2.900000000000000));
#110=CARTESIAN_POINT('',(6.349999999999999,-5.973485640042394,2.900000000000001));
#111=CARTESIAN_POINT('',(0.387655985912206,-6.338156106990533,2.900000000000000));
#119=(BOUNDED_CURVE()B_SPLINE_CURVE(2,(#109,#110,#111),.UNSPECIFIED.,.F.,.U.)B_SPLINE_CURVE_WITH_KNOTS((3,3),(0.500000000000000,0.739333023226263),.UNSPECIFIED.)CURVE()GEOMETRIC_REPRESENTATION_ITEM()RATIONAL_B_SPLINE_CURVE((1.0,0.719603921835620,0.976072172374189))REPRESENTATION_ITEM(''));
#120=EDGE_CURVE('',#108,#101,#119,.T.);
#121=ORIENTED_EDGE('',*,*,#120,.F.);
#122=CARTESIAN_POINT('',(-0.749513424211019,6.305610963809257,2.900000000000000));
#123=VERTEX_POINT('',#122);
#124=CARTESIAN_POINT('',(-0.749513424211019,6.305610963809257,2.900000000000000));
#125=CARTESIAN_POINT('',(-0.376071155896838,6.350000000000000,2.900000000000000));
#126=CARTESIAN_POINT('',(0.0,6.350000000000000,2.900000000000000));
#127=CARTESIAN_POINT('',(6.350000000000000,6.350000000000000,2.900000000000001));
#128=CARTESIAN_POINT('',(6.350000000000000,0.0,2.900000000000000));
#136=(BOUNDED_CURVE()B_SPLINE_CURVE(2,(#124,#125,#126,#127,#128),.UNSPECIFIED.,.F.,.U.)B_SPLINE_CURVE_WITH_KNOTS((3,2,3),(0.229562579808786,0.250000000000000,0.500000000000000),.UNSPECIFIED.)CURVE()GEOMETRIC_REPRESENTATION_ITEM()RATIONAL_B_SPLINE_CURVE((0.956026962526900,0.976056072863809,1.0,0.707106781186547,1.0))REPRESENTATION_ITEM(''));
#137=EDGE_CURVE('',#123,#108,#136,.T.);
#138=ORIENTED_EDGE('',*,*,#137,.F.);
#139=CARTESIAN_POINT('',(-0.749513375861459,6.305610969556273,3.599999999999944));
#140=CARTESIAN_POINT('',(-0.749513424211019,6.305610963809257,2.900000000000000));
#141=QUASI_UNIFORM_CURVE('',1,(#139,#140),.UNSPECIFIED.,.F.,.U.);
#142=EDGE_CURVE('',#67,#123,#141,.T.);
#143=ORIENTED_EDGE('',*,*,#142,.F.);
#144=EDGE_LOOP('',(#84,#99,#106,#121,#138,#143));
#145=FACE_OUTER_BOUND('',#144,.T.);
#146=ADVANCED_FACE('',(#145),#65,.T.);
#147=CARTESIAN_POINT('',(0.387658226046342,-6.338155969978853,3.617500000000001));
#148=CARTESIAN_POINT('',(-5.950497743932512,-6.725814196025195,3.617500000000000));
#149=CARTESIAN_POINT('',(-6.338155969978853,-0.387658226046342,3.617500000000001));
#150=CARTESIAN_POINT('',(-6.704242349251549,5.597801166830830,3.617500000000001));
#151=CARTESIAN_POINT('',(-0.749517390070416,6.305610492409281,3.617500000000001));
#152=CARTESIAN_POINT('',(0.387658226046342,-6.338155969978853,2.882062500000000));
#153=CARTESIAN_POINT('',(-5.950497743932512,-6.725814196025195,2.882062500000000));
#154=CARTESIAN_POINT('',(-6.338155969978853,-0.387658226046342,2.882062500000000));
#155=CARTESIAN_POINT('',(-6.704242349251549,5.597801166830830,2.882062500000000));
#156=CARTESIAN_POINT('',(-0.749517390070416,6.305610492409281,2.882062500000000));
#164=(BOUNDED_SURFACE()B_SPLINE_SURFACE(2,1,((#147,#152),(#148,#153),(#149,#154),(#150,#155),(#151,#156)),.UNSPECIFIED.,.F.,.F.,.U.)B_SPLINE_SURFACE_WITH_KNOTS((3,2,3),(2,2),(0.0,10.521024484276611,20.621207989182160),(0.0,1.0),.UNSPECIFIED.)GEOMETRIC_REPRESENTATION_ITEM()RATIONAL_B_SPLINE_SURFACE(((1.0,1.0),(0.707106781186548,0.707106781186548),(1.0,1.0),(0.718822509939086,0.718822509939086),(0.977505800795127,0.977505800795127)))REPRESENTATION_ITEM('')SURFACE());
#165=CARTESIAN_POINT('',(-6.350000000000000,0.0,3.600000000000000));
#166=VERTEX_POINT('',#165);
#167=CARTESIAN_POINT('',(-6.350000000000000,0.0,3.600000000000000));
#168=CARTESIAN_POINT('',(-6.350000000000001,5.639911855484185,3.599999999999999));
#169=CARTESIAN_POINT('',(-0.749513375861459,6.305610969556273,3.599999999999944));
#177=(BOUNDED_CURVE()B_SPLINE_CURVE(2,(#167,#168,#169),.UNSPECIFIED.,.F.,.U.)B_SPLINE_CURVE_WITH_KNOTS((3,3),(0.0,0.229562581104653),.UNSPECIFIED.)CURVE()GEOMETRIC_REPRESENTATION_ITEM()RATIONAL_B_SPLINE_CURVE((1.0,0.731050706804535,0.956026965066855))REPRESENTATION_ITEM(''));
#178=EDGE_CURVE('',#166,#67,#177,.T.);
#179=ORIENTED_EDGE('',*,*,#178,.T.);
#180=ORIENTED_EDGE('',*,*,#142,.T.);
#181=CARTESIAN_POINT('',(-6.350000000000000,0.0,2.900000000000000));
#182=VERTEX_POINT('',#181);
#183=CARTESIAN_POINT('',(-6.350000000000000,0.0,2.900000000000000));
#184=CARTESIAN_POINT('',(-6.350000000000001,5.639911811934584,2.900000000000001));
#185=CARTESIAN_POINT('',(-0.749513424211019,6.305610963809257,2.900000000000000));
#193=(BOUNDED_CURVE()B_SPLINE_CURVE(2,(#183,#184,#185),.UNSPECIFIED.,.F.,.U.)B_SPLINE_CURVE_WITH_KNOTS((3,3),(0.0,0.229562579808786),.UNSPECIFIED.)CURVE()GEOMETRIC_REPRESENTATION_ITEM()RATIONAL_B_SPLINE_CURVE((1.0,0.731050708322738,0.956026962526900))REPRESENTATION_ITEM(''));
#194=EDGE_CURVE('',#182,#123,#193,.T.);
#195=ORIENTED_EDGE('',*,*,#194,.F.);
#196=CARTESIAN_POINT('',(0.387655985912206,-6.338156106990533,2.900000000000000));
#197=CARTESIAN_POINT('',(0.194008923738444,-6.350000000000000,2.900000000000000));
#198=CARTESIAN_POINT('',(0.0,-6.350000000000000,2.900000000000000));
#199=CARTESIAN_POINT('',(-6.350000000000000,-6.350000000000000,2.900000000000001));
#200=CARTESIAN_POINT('',(-6.350000000000000,0.0,2.900000000000000));
#208=(BOUNDED_CURVE()B_SPLINE_CURVE(2,(#196,#197,#198,#199,#200),.UNSPECIFIED.,.F.,.U.)B_SPLINE_CURVE_WITH_KNOTS((3,2,3),(0.739333023226263,0.750000000000000,1.0),.UNSPECIFIED.)CURVE()GEOMETRIC_REPRESENTATION_ITEM()RATIONAL_B_SPLINE_CURVE((0.976072172374189,0.987502859350927,1.0,0.707106781186547,1.0))REPRESENTATION_ITEM(''));
#209=EDGE_CURVE('',#101,#182,#208,.T.);
#210=ORIENTED_EDGE('',*,*,#209,.F.);
#211=ORIENTED_EDGE('',*,*,#105,.F.);
#212=CARTESIAN_POINT('',(0.387655958614094,-6.338156108660137,3.599999999999962));
#213=CARTESIAN_POINT('',(0.194008910051117,-6.350000000000001,3.600000000000000));
#214=CARTESIAN_POINT('',(0.0,-6.350000000000000,3.600000000000000));
#215=CARTESIAN_POINT('',(-6.350000000000000,-6.350000000000000,3.600000000000000));
#216=CARTESIAN_POINT('',(-6.350000000000000,0.0,3.600000000000000));
#224=(BOUNDED_CURVE()B_SPLINE_CURVE(2,(#212,#213,#214,#215,#216),.UNSPECIFIED.,.F.,.U.)B_SPLINE_CURVE_WITH_KNOTS((3,2,3),(0.739333023969413,0.750000000000000,1.0),.UNSPECIFIED.)CURVE()GEOMETRIC_REPRESENTATION_ITEM()RATIONAL_B_SPLINE_CURVE((0.976072173966902,0.987502860221582,1.0,0.707106781186547,1.0))REPRESENTATION_ITEM(''));
#225=EDGE_CURVE('',#86,#166,#224,.T.);
#226=ORIENTED_EDGE('',*,*,#225,.T.);
#227=EDGE_LOOP('',(#179,#180,#195,#210,#211,#226));
#228=FACE_OUTER_BOUND('',#227,.T.);
#229=ADVANCED_FACE('',(#228),#164,.T.);
#230=CARTESIAN_POINT('',(-0.390447243220372,4.961102611033012,-0.072500000000000));
#231=CARTESIAN_POINT('',(-5.351549854253385,4.570655367812639,-0.072500000000000));
#232=CARTESIAN_POINT('',(-4.961102611033012,-0.390447243220372,-0.072500000000000));
#233=CARTESIAN_POINT('',(-4.570655367812639,-5.351549854253385,-0.072500000000000));
#234=CARTESIAN_POINT('',(0.390447243220372,-4.961102611033012,-0.072500000000000));
#235=CARTESIAN_POINT('',(-0.468119336697744,5.948020133043785,2.974312500000000));
#236=CARTESIAN_POINT('',(-6.416139469741530,5.479900796346041,2.974312500000001));
#237=CARTESIAN_POINT('',(-5.948020133043785,-0.468119336697744,2.974312500000000));
#238=CARTESIAN_POINT('',(-5.479900796346041,-6.416139469741530,2.974312500000001));
#239=CARTESIAN_POINT('',(0.468119336697744,-5.948020133043785,2.974312500000000));
#247=(BOUNDED_SURFACE()B_SPLINE_SURFACE(2,1,((#230,#235),(#231,#236),(#232,#237),(#233,#238),(#234,#239)),.UNSPECIFIED.,.F.,.F.,.U.)B_SPLINE_SURFACE_WITH_KNOTS((3,2,3),(2,2),(0.0,9.885476057072939,19.770952114145881),(0.0,3.203608209427816),.UNSPECIFIED.)GEOMETRIC_REPRESENTATION_ITEM()RATIONAL_B_SPLINE_SURFACE(((1.0,1.0),(0.707106781186548,0.707106781186548),(1.0,1.0),(0.707106781186548,0.707106781186548),(1.0,1.0)))REPRESENTATION_ITEM('')SURFACE());
#248=CARTESIAN_POINT('',(-5.0,0.0,0.0));
#249=VERTEX_POINT('',#248);
#250=CARTESIAN_POINT('',(-0.392291232958798,4.984585919746570,-0.000003323034304));
#251=VERTEX_POINT('',#250);
#252=CARTESIAN_POINT('',(-5.0,0.0,0.0));
#253=CARTESIAN_POINT('',(-4.999999957643486,4.621955790279010,-0.000001661517152));
#254=CARTESIAN_POINT('',(-0.392291232958798,4.984585919746570,-0.000003323034304));
#262=(BOUNDED_CURVE()B_SPLINE_CURVE(2,(#252,#253,#254),.UNSPECIFIED.,.F.,.U.)B_SPLINE_CURVE_WITH_KNOTS((3,3),(0.0,0.236331443732255),.UNSPECIFIED.)CURVE()GEOMETRIC_REPRESENTATION_ITEM()RATIONAL_B_SPLINE_CURVE((1.0,0.723120490953718,0.969723654809723))REPRESENTATION_ITEM(''));
#263=EDGE_CURVE('',#249,#251,#262,.T.);
#264=ORIENTED_EDGE('',*,*,#263,.F.);
#265=CARTESIAN_POINT('',(0.392291232958797,-4.984585919746570,-0.000003323034304));
#266=VERTEX_POINT('',#265);
#267=CARTESIAN_POINT('',(0.392291232958797,-4.984585919746570,-0.000003323034304));
#268=CARTESIAN_POINT('',(0.196448361725203,-4.999998943154216,-0.000003262689587));
#269=CARTESIAN_POINT('',(-0.000000081510505,-4.999998964299780,-0.000003197409095));
#270=CARTESIAN_POINT('',(-5.000000039153990,-4.999999502496060,-0.000001535891943));
#271=CARTESIAN_POINT('',(-5.0,0.0,0.0));
#279=(BOUNDED_CURVE()B_SPLINE_CURVE(2,(#267,#268,#269,#270,#271),.UNSPECIFIED.,.F.,.U.)B_SPLINE_CURVE_WITH_KNOTS((3,2,3),(0.736331443732255,0.750000000000000,1.0),.UNSPECIFIED.)CURVE()GEOMETRIC_REPRESENTATION_ITEM()RATIONAL_B_SPLINE_CURVE((0.969723654809723,0.983986290232830,1.0,0.707106781186548,1.0))REPRESENTATION_ITEM(''));
#280=EDGE_CURVE('',#266,#249,#279,.T.);
#281=ORIENTED_EDGE('',*,*,#280,.F.);
#282=CARTESIAN_POINT('',(0.466224895394972,-5.923948973970322,2.900000000000281));
#283=VERTEX_POINT('',#282);
#284=CARTESIAN_POINT('',(0.392291232958797,-4.984585919746570,-0.000003323034304));
#285=CARTESIAN_POINT('',(0.466224895394972,-5.923948973970322,2.900000000000281));
#286=QUASI_UNIFORM_CURVE('',1,(#284,#285),.UNSPECIFIED.,.F.,.U.);
#287=EDGE_CURVE('',#266,#283,#286,.T.);
#288=ORIENTED_EDGE('',*,*,#287,.T.);
#289=CARTESIAN_POINT('',(-5.942267000000000,0.0,2.900000000000000));
#290=VERTEX_POINT('',#289);
#291=CARTESIAN_POINT('',(0.466224895394972,-5.923948973970322,2.900000000000281));
#292=CARTESIAN_POINT('',(0.233472306299700,-5.942267000000001,2.900000000000000));
#293=CARTESIAN_POINT('',(0.0,-5.942267000000000,2.900000000000000));
#294=CARTESIAN_POINT('',(-5.942267000000001,-5.942267000000001,2.900000000000000));
#295=CARTESIAN_POINT('',(-5.942267000000000,0.0,2.900000000000000));
#303=(BOUNDED_CURVE()B_SPLINE_CURVE(2,(#291,#292,#293,#294,#295),.UNSPECIFIED.,.F.,.U.)B_SPLINE_CURVE_WITH_KNOTS((3,2,3),(0.736331300632677,0.750000000000000,1.0),.UNSPECIFIED.)CURVE()GEOMETRIC_REPRESENTATION_ITEM()RATIONAL_B_SPLINE_CURVE((0.969723356171628,0.983986122581246,1.0,0.707106781186548,1.0))REPRESENTATION_ITEM(''));
#304=EDGE_CURVE('',#283,#290,#303,.T.);
#305=ORIENTED_EDGE('',*,*,#304,.T.);
#306=CARTESIAN_POINT('',(-0.466224895394973,5.923948973970322,2.900000000000281));
#307=VERTEX_POINT('',#306);
#308=CARTESIAN_POINT('',(-5.942267000000000,0.0,2.900000000000000));
#309=CARTESIAN_POINT('',(-5.942267000000001,5.492975113691457,2.900000000000001));
#310=CARTESIAN_POINT('',(-0.466224895394973,5.923948973970322,2.900000000000282));
#318=(BOUNDED_CURVE()B_SPLINE_CURVE(2,(#308,#309,#310),.UNSPECIFIED.,.F.,.U.)B_SPLINE_CURVE_WITH_KNOTS((3,3),(0.0,0.236331300632677),.UNSPECIFIED.)CURVE()GEOMETRIC_REPRESENTATION_ITEM()RATIONAL_B_SPLINE_CURVE((1.0,0.723120658605302,0.969723356171628))REPRESENTATION_ITEM(''));
#319=EDGE_CURVE('',#290,#307,#318,.T.);
#320=ORIENTED_EDGE('',*,*,#319,.T.);
#321=CARTESIAN_POINT('',(-0.392291232958798,4.984585919746570,-0.000003323034304));
#322=CARTESIAN_POINT('',(-0.466224895394973,5.923948973970322,2.900000000000281));
#323=QUASI_UNIFORM_CURVE('',1,(#321,#322),.UNSPECIFIED.,.F.,.U.);
#324=EDGE_CURVE('',#251,#307,#323,.T.);
#325=ORIENTED_EDGE('',*,*,#324,.F.);
#326=EDGE_LOOP('',(#264,#281,#288,#305,#320,#325));
#327=FACE_OUTER_BOUND('',#326,.T.);
#328=ADVANCED_FACE('',(#327),#247,.T.);
#329=CARTESIAN_POINT('',(0.390447243220372,-4.961102611033012,-0.072500000000000));
#330=CARTESIAN_POINT('',(5.351549854253385,-4.570655367812639,-0.072500000000000));
#331=CARTESIAN_POINT('',(4.961102611033012,0.390447243220372,-0.072500000000000));
#332=CARTESIAN_POINT('',(4.570655367812639,5.351549854253385,-0.072500000000000));
#333=CARTESIAN_POINT('',(-0.390447243220372,4.961102611033012,-0.072500000000000));
#334=CARTESIAN_POINT('',(0.468119336697744,-5.948020133043785,2.974312500000000));
#335=CARTESIAN_POINT('',(6.416139469741530,-5.479900796346041,2.974312500000001));
#336=CARTESIAN_POINT('',(5.948020133043785,0.468119336697744,2.974312500000000));
#337=CARTESIAN_POINT('',(5.479900796346041,6.416139469741530,2.974312500000001));
#338=CARTESIAN_POINT('',(-0.468119336697744,5.948020133043785,2.974312500000000));
#346=(BOUNDED_SURFACE()B_SPLINE_SURFACE(2,1,((#329,#334),(#330,#335),(#331,#336),(#332,#337),(#333,#338)),.UNSPECIFIED.,.F.,.F.,.U.)B_SPLINE_SURFACE_WITH_KNOTS((3,2,3),(2,2),(0.0,9.885476057072939,19.770952114145881),(0.0,3.203608209427816),.UNSPECIFIED.)GEOMETRIC_REPRESENTATION_ITEM()RATIONAL_B_SPLINE_SURFACE(((1.0,1.0),(0.707106781186548,0.707106781186548),(1.0,1.0),(0.707106781186548,0.707106781186548),(1.0,1.0)))REPRESENTATION_ITEM('')SURFACE());
#347=CARTESIAN_POINT('',(5.0,0.0,0.0));
#348=VERTEX_POINT('',#347);
#349=CARTESIAN_POINT('',(-0.392291232958798,4.984585919746570,-0.000003323034304));
#350=CARTESIAN_POINT('',(-0.196448361725204,4.999998943154216,-0.000003262689587));
#351=CARTESIAN_POINT('',(0.000000081510505,4.999998964299780,-0.000003197409095));
#352=CARTESIAN_POINT('',(5.000000039153990,4.999999502496060,-0.000001535891943));
#353=CARTESIAN_POINT('',(5.0,0.0,0.0));
#361=(BOUNDED_CURVE()B_SPLINE_CURVE(2,(#349,#350,#351,#352,#353),.UNSPECIFIED.,.F.,.U.)B_SPLINE_CURVE_WITH_KNOTS((3,2,3),(0.236331443732255,0.250000000000000,0.500000000000000),.UNSPECIFIED.)CURVE()GEOMETRIC_REPRESENTATION_ITEM()RATIONAL_B_SPLINE_CURVE((0.969723654809723,0.983986290232830,1.0,0.707106781186548,1.0))REPRESENTATION_ITEM(''));
#362=EDGE_CURVE('',#251,#348,#361,.T.);
#363=ORIENTED_EDGE('',*,*,#362,.F.);
#364=ORIENTED_EDGE('',*,*,#324,.T.);
#365=CARTESIAN_POINT('',(5.942267000000000,0.0,2.900000000000000));
#366=VERTEX_POINT('',#365);
#367=CARTESIAN_POINT('',(-0.466224895394973,5.923948973970322,2.900000000000281));
#368=CARTESIAN_POINT('',(-0.233472306299701,5.942267000000000,2.900000000000001));
#369=CARTESIAN_POINT('',(0.0,5.942267000000000,2.900000000000000));
#370=CARTESIAN_POINT('',(5.942267000000001,5.942267000000001,2.900000000000000));
#371=CARTESIAN_POINT('',(5.942267000000000,0.0,2.900000000000000));
#379=(BOUNDED_CURVE()B_SPLINE_CURVE(2,(#367,#368,#369,#370,#371),.UNSPECIFIED.,.F.,.U.)B_SPLINE_CURVE_WITH_KNOTS((3,2,3),(0.236331300632677,0.250000000000000,0.500000000000000),.UNSPECIFIED.)CURVE()GEOMETRIC_REPRESENTATION_ITEM()RATIONAL_B_SPLINE_CURVE((0.969723356171628,0.983986122581246,1.0,0.707106781186548,1.0))REPRESENTATION_ITEM(''));
#380=EDGE_CURVE('',#307,#366,#379,.T.);
#381=ORIENTED_EDGE('',*,*,#380,.T.);
#382=CARTESIAN_POINT('',(5.942267000000000,0.0,2.900000000000000));
#383=CARTESIAN_POINT('',(5.942267000000001,-5.492975113691458,2.900000000000001));
#384=CARTESIAN_POINT('',(0.466224895394972,-5.923948973970322,2.900000000000281));
#392=(BOUNDED_CURVE()B_SPLINE_CURVE(2,(#382,#383,#384),.UNSPECIFIED.,.F.,.U.)B_SPLINE_CURVE_WITH_KNOTS((3,3),(0.500000000000000,0.736331300632677),.UNSPECIFIED.)CURVE()GEOMETRIC_REPRESENTATION_ITEM()RATIONAL_B_SPLINE_CURVE((1.0,0.723120658605302,0.969723356171628))REPRESENTATION_ITEM(''));
#393=EDGE_CURVE('',#366,#283,#392,.T.);
#394=ORIENTED_EDGE('',*,*,#393,.T.);
#395=ORIENTED_EDGE('',*,*,#287,.F.);
#396=CARTESIAN_POINT('',(5.0,0.0,0.0));
#397=CARTESIAN_POINT('',(4.999999957643486,-4.621955790279010,-0.000001661517152));
#398=CARTESIAN_POINT('',(0.392291232958797,-4.984585919746570,-0.000003323034304));
#406=(BOUNDED_CURVE()B_SPLINE_CURVE(2,(#396,#397,#398),.UNSPECIFIED.,.F.,.U.)B_SPLINE_CURVE_WITH_KNOTS((3,3),(0.500000000000000,0.736331443732255),.UNSPECIFIED.)CURVE()GEOMETRIC_REPRESENTATION_ITEM()RATIONAL_B_SPLINE_CURVE((1.0,0.723120490953718,0.969723654809723))REPRESENTATION_ITEM(''));
#407=EDGE_CURVE('',#348,#266,#406,.T.);
#408=ORIENTED_EDGE('',*,*,#407,.F.);
#409=EDGE_LOOP('',(#363,#364,#381,#394,#395,#408));
#410=FACE_OUTER_BOUND('',#409,.T.);
#411=ADVANCED_FACE('',(#410),#346,.T.);
#412=CARTESIAN_POINT('',(6.984364856166421,-6.984210541247647,3.600000000000000));
#413=CARTESIAN_POINT('',(-6.984365310353813,-6.984210541247647,3.600000000000000));
#414=CARTESIAN_POINT('',(6.984364856166421,6.984249487816612,3.600000000000000));
#415=CARTESIAN_POINT('',(-6.984365310353813,6.984249487816613,3.600000000000000));
#416=B_SPLINE_SURFACE_WITH_KNOTS('',1,1,((#412,#414),(#413,#415)),.UNSPECIFIED.,.F.,.F.,.U.,(2,2),(2,2),(0.0,13.968730166520240),(0.0,13.968460029064261),.UNSPECIFIED.);
#417=ORIENTED_EDGE('',*,*,#225,.F.);
#418=ORIENTED_EDGE('',*,*,#98,.F.);
#419=ORIENTED_EDGE('',*,*,#83,.F.);
#420=ORIENTED_EDGE('',*,*,#178,.F.);
#421=EDGE_LOOP('',(#417,#418,#419,#420));
#422=FACE_OUTER_BOUND('',#421,.T.);
#423=ADVANCED_FACE('',(#422),#416,.F.);
#424=CARTESIAN_POINT('',(-5.499499980618060,-5.497972753451760,0.0));
#425=CARTESIAN_POINT('',(5.499500248838961,-5.497972753451760,0.0));
#426=CARTESIAN_POINT('',(-5.499499980618060,5.497972485230859,0.0));
#427=CARTESIAN_POINT('',(5.499500248838961,5.497972485230859,0.0));
#428=B_SPLINE_SURFACE_WITH_KNOTS('',1,1,((#424,#426),(#425,#427)),.UNSPECIFIED.,.F.,.F.,.U.,(2,2),(2,2),(0.0,10.999000229457019),(0.0,10.995945238682619),.UNSPECIFIED.);
#429=ORIENTED_EDGE('',*,*,#263,.T.);
#430=ORIENTED_EDGE('',*,*,#362,.T.);
#431=ORIENTED_EDGE('',*,*,#407,.T.);
#432=ORIENTED_EDGE('',*,*,#280,.T.);
#433=EDGE_LOOP('',(#429,#430,#431,#432));
#434=FACE_OUTER_BOUND('',#433,.T.);
#435=ADVANCED_FACE('',(#434),#428,.F.);
#436=CARTESIAN_POINT('',(-6.984364856166421,-6.984210541247651,2.900000000000000));
#437=CARTESIAN_POINT('',(6.984365310353813,-6.984210541247651,2.900000000000000));
#438=CARTESIAN_POINT('',(-6.984364856166421,6.984249487816618,2.900000000000000));
#439=CARTESIAN_POINT('',(6.984365310353813,6.984249487816618,2.900000000000000));
#440=B_SPLINE_SURFACE_WITH_KNOTS('',1,1,((#436,#438),(#437,#439)),.UNSPECIFIED.,.F.,.F.,.U.,(2,2),(2,2),(0.0,13.968730166520240),(0.0,13.968460029064270),.UNSPECIFIED.);
#441=ORIENTED_EDGE('',*,*,#194,.T.);
#442=ORIENTED_EDGE('',*,*,#137,.T.);
#443=ORIENTED_EDGE('',*,*,#120,.T.);
#444=ORIENTED_EDGE('',*,*,#209,.T.);
#445=EDGE_LOOP('',(#441,#442,#443,#444));
#446=FACE_OUTER_BOUND('',#445,.T.);
#447=ORIENTED_EDGE('',*,*,#393,.F.);
#448=ORIENTED_EDGE('',*,*,#380,.F.);
#449=ORIENTED_EDGE('',*,*,#319,.F.);
#450=ORIENTED_EDGE('',*,*,#304,.F.);
#451=EDGE_LOOP('',(#447,#448,#449,#450));
#452=FACE_BOUND('',#451,.T.);
#453=ADVANCED_FACE('',(#446,#452),#440,.F.);
#454=CLOSED_SHELL('',(#146,#229,#328,#411,#423,#435,#453));
#455=MANIFOLD_SOLID_BREP('rubber foot',#454);
#461=(NAMED_UNIT(*)PLANE_ANGLE_UNIT()SI_UNIT($,.RADIAN.));
#462=DIMENSIONAL_EXPONENTS(0.0,0.0,0.0,0.0,0.0,0.0,0.0);
#463=PLANE_ANGLE_MEASURE_WITH_UNIT(PLANE_ANGLE_MEASURE(0.017453292500000),#461);
#467=(CONVERSION_BASED_UNIT('DEGREE',#463)NAMED_UNIT(#462)PLANE_ANGLE_UNIT());
#471=(NAMED_UNIT(*)SI_UNIT($,.STERADIAN.)SOLID_ANGLE_UNIT());
#475=(LENGTH_UNIT()NAMED_UNIT(*)SI_UNIT(.MILLI.,.METRE.));
#477=UNCERTAINTY_MEASURE_WITH_UNIT(LENGTH_MEASURE(0.001000000000000),#475,'DISTANCE_ACCURACY_VALUE','');
#479=(GEOMETRIC_REPRESENTATION_CONTEXT(3)GLOBAL_UNCERTAINTY_ASSIGNED_CONTEXT((#477))GLOBAL_UNIT_ASSIGNED_CONTEXT((#467,#471,#475))REPRESENTATION_CONTEXT('','3D'));
ENDSEC;
END-ISO-10303-21;
