  0
SECTION
  2
HEADER
  9
$ACADVER
  1
AC1015
  9
$ACADMAINTVER
 70
    20
  9
$DWGCODEPAGE
  3
ANSI_932
  9
$INSBASE
 10
0.0
 20
0.0
 30
0.0
  9
$EXTMIN
 10
10.0
 20
9.999999999999998
 30
0.0
  9
$EXTMAX
 10
530.090735
 20
250.2852809999999
 30
0.0
  9
$LIMMIN
 10
0.0
 20
0.0
  9
$LIMMAX
 10
792.0
 20
546.0
  9
$ORTHOMODE
 70
     1
  9
$REGENMODE
 70
     1
  9
$FILLMODE
 70
     1
  9
$QTEXTMODE
 70
     0
  9
$MIRRTEXT
 70
     1
  9
$LTSCALE
 40
20.0
  9
$ATTMODE
 70
     1
  9
$TEXTSIZE
 40
5.0
  9
$TRACEWID
 40
1.0
  9
$TEXTSTYLE
  7
STANDARD
  9
$CLAYER
  8
0
  9
$CELTYPE
  6
BYLAYER
  9
$CECOLOR
 62
   256
  9
$CELTSCALE
 40
1.0
  9
$DISPSILH
 70
     0
  9
$DIMSCALE
 40
1.0
  9
$DIMASZ
 40
2.5
  9
$DIMEXO
 40
1.0
  9
$DIMDLI
 40
10.0
  9
$DIMRND
 40
0.0
  9
$DIMDLE
 40
0.0
  9
$DIMEXE
 40
1.0
  9
$DIMTP
 40
0.0
  9
$DIMTM
 40
0.0
  9
$DIMTXT
 40
3.2
  9
$DIMCEN
 40
0.0
  9
$DIMTSZ
 40
0.0
  9
$DIMTOL
 70
     0
  9
$DIMLIM
 70
     0
  9
$DIMTIH
 70
     0
  9
$DIMTOH
 70
     0
  9
$DIMSE1
 70
     0
  9
$DIMSE2
 70
     0
  9
$DIMTAD
 70
     3
  9
$DIMZIN
 70
     8
  9
$DIMBLK
  1

  9
$DIMASO
 70
     1
  9
$DIMSHO
 70
     1
  9
$DIMPOST
  1

  9
$DIMAPOST
  1

  9
$DIMALT
 70
     0
  9
$DIMALTD
 70
     2
  9
$DIMALTF
 40
25.4
  9
$DIMLFAC
 40
1.0
  9
$DIMTOFL
 70
     1
  9
$DIMTVP
 40
0.0
  9
$DIMTIX
 70
     0
  9
$DIMSOXD
 70
     0
  9
$DIMSAH
 70
     1
  9
$DIMBLK1
  1

  9
$DIMBLK2
  1

  9
$DIMSTYLE
  2
STANDARD
  9
$DIMCLRD
 70
     0
  9
$DIMCLRE
 70
     0
  9
$DIMCLRT
 70
     0
  9
$DIMTFAC
 40
1.0
  9
$DIMGAP
 40
1.0
  9
$DIMJUST
 70
     0
  9
$DIMSD1
 70
     0
  9
$DIMSD2
 70
     0
  9
$DIMTOLJ
 70
     1
  9
$DIMTZIN
 70
     0
  9
$DIMALTZ
 70
     0
  9
$DIMALTTZ
 70
     0
  9
$DIMUPT
 70
     0
  9
$DIMDEC
 70
     4
  9
$DIMTDEC
 70
     4
  9
$DIMALTU
 70
     2
  9
$DIMALTTD
 70
     2
  9
$DIMTXSTY
  7
STANDARD
  9
$DIMAUNIT
 70
     0
  9
$DIMADEC
 70
     0
  9
$DIMALTRND
 40
0.0
  9
$DIMAZIN
 70
     0
  9
$DIMDSEP
 70
    46
  9
$DIMATFIT
 70
     3
  9
$DIMFRAC
 70
     0
  9
$DIMLDRBLK
  1

  9
$DIMLUNIT
 70
     2
  9
$DIMLWD
 70
    -2
  9
$DIMLWE
 70
    -2
  9
$DIMTMOVE
 70
     0
  9
$LUNITS
 70
     2
  9
$LUPREC
 70
     4
  9
$SKETCHINC
 40
1.0
  9
$FILLETRAD
 40
0.5
  9
$AUNITS
 70
     0
  9
$AUPREC
 70
     2
  9
$MENU
  1
.
  9
$ELEVATION
 40
0.0
  9
$PELEVATION
 40
0.0
  9
$THICKNESS
 40
0.0
  9
$LIMCHECK
 70
     0
  9
$CHAMFERA
 40
10.0
  9
$CHAMFERB
 40
10.0
  9
$CHAMFERC
 40
0.0
  9
$CHAMFERD
 40
0.0
  9
$SKPOLY
 70
     0
  9
$TDCREATE
 40
2451301.774342709
  9
$TDUCREATE
 40
2451301.399342708
  9
$TDUPDATE
 40
2457192.660794560
  9
$TDUUPDATE
 40
2457192.285794560
  9
$TDINDWG
 40
0.0000136343
  9
$TDUSRTIMER
 40
0.0000133102
  9
$USRTIMER
 70
     1
  9
$ANGBASE
 50
0.0
  9
$ANGDIR
 70
     0
  9
$PDMODE
 70
     0
  9
$PDSIZE
 40
0.0
  9
$PLINEWID
 40
0.0
  9
$SPLFRAME
 70
     0
  9
$SPLINETYPE
 70
     6
  9
$SPLINESEGS
 70
     8
  9
$HANDSEED
  5
A83F
  9
$SURFTAB1
 70
     6
  9
$SURFTAB2
 70
     6
  9
$SURFTYPE
 70
     6
  9
$SURFU
 70
     6
  9
$SURFV
 70
     6
  9
$UCSBASE
  2

  9
$UCSNAME
  2

  9
$UCSORG
 10
0.0
 20
0.0
 30
0.0
  9
$UCSXDIR
 10
1.0
 20
0.0
 30
0.0
  9
$UCSYDIR
 10
0.0
 20
1.0
 30
0.0
  9
$UCSORTHOREF
  2

  9
$UCSORTHOVIEW
 70
     0
  9
$UCSORGTOP
 10
0.0
 20
0.0
 30
0.0
  9
$UCSORGBOTTOM
 10
0.0
 20
0.0
 30
0.0
  9
$UCSORGLEFT
 10
0.0
 20
0.0
 30
0.0
  9
$UCSORGRIGHT
 10
0.0
 20
0.0
 30
0.0
  9
$UCSORGFRONT
 10
0.0
 20
0.0
 30
0.0
  9
$UCSORGBACK
 10
0.0
 20
0.0
 30
0.0
  9
$PUCSBASE
  2

  9
$PUCSNAME
  2

  9
$PUCSORG
 10
0.0
 20
0.0
 30
0.0
  9
$PUCSXDIR
 10
1.0
 20
0.0
 30
0.0
  9
$PUCSYDIR
 10
0.0
 20
1.0
 30
0.0
  9
$PUCSORTHOREF
  2

  9
$PUCSORTHOVIEW
 70
     0
  9
$PUCSORGTOP
 10
0.0
 20
0.0
 30
0.0
  9
$PUCSORGBOTTOM
 10
0.0
 20
0.0
 30
0.0
  9
$PUCSORGLEFT
 10
0.0
 20
0.0
 30
0.0
  9
$PUCSORGRIGHT
 10
0.0
 20
0.0
 30
0.0
  9
$PUCSORGFRONT
 10
0.0
 20
0.0
 30
0.0
  9
$PUCSORGBACK
 10
0.0
 20
0.0
 30
0.0
  9
$USERI1
 70
     0
  9
$USERI2
 70
     0
  9
$USERI3
 70
     0
  9
$USERI4
 70
     0
  9
$USERI5
 70
     0
  9
$USERR1
 40
0.0
  9
$USERR2
 40
0.0
  9
$USERR3
 40
0.0
  9
$USERR4
 40
0.0
  9
$USERR5
 40
0.0
  9
$WORLDVIEW
 70
     1
  9
$SHADEDGE
 70
     3
  9
$SHADEDIF
 70
    70
  9
$TILEMODE
 70
     1
  9
$MAXACTVP
 70
    16
  9
$PINSBASE
 10
0.0
 20
0.0
 30
0.0
  9
$PLIMCHECK
 70
     0
  9
$PEXTMIN
 10
1.000000000000000E+20
 20
1.000000000000000E+20
 30
1.000000000000000E+20
  9
$PEXTMAX
 10
-1.000000000000000E+20
 20
-1.000000000000000E+20
 30
-1.000000000000000E+20
  9
$PLIMMIN
 10
0.0
 20
0.0
  9
$PLIMMAX
 10
420.0
 20
297.0
  9
$UNITMODE
 70
     0
  9
$VISRETAIN
 70
     0
  9
$PLINEGEN
 70
     0
  9
$PSLTSCALE
 70
     0
  9
$TREEDEPTH
 70
  3020
  9
$CMLSTYLE
  2
STANDARD
  9
$CMLJUST
 70
     0
  9
$CMLSCALE
 40
1.0
  9
$PROXYGRAPHICS
 70
     1
  9
$MEASUREMENT
 70
     0
  9
$CELWEIGHT
370
    -1
  9
$ENDCAPS
280
     0
  9
$JOINSTYLE
280
     0
  9
$LWDISPLAY
290
     0
  9
$INSUNITS
 70
     0
  9
$HYPERLINKBASE
  1

  9
$STYLESHEET
  1

  9
$XEDIT
290
     1
  9
$CEPSNTYPE
380
     0
  9
$PSTYLEMODE
290
     1
  9
$FINGERPRINTGUID
  2
{67494B6E-836C-44CC-A55B-C14CFB0AF416}
  9
$VERSIONGUID
  2
{A11FFF40-A650-47B7-A2B7-DD51AC3C03D5}
  9
$EXTNAMES
290
     1
  9
$PSVPSCALE
 40
0.0
  9
$OLESTARTUP
290
     0
  0
ENDSEC
  0
SECTION
  2
CLASSES
  0
CLASS
  1
ACDBDICTIONARYWDFLT
  2
AcDbDictionaryWithDefault
  3
ObjectDBX Classes
 90
        0
280
     0
281
     0
  0
CLASS
  1
ACDBPLACEHOLDER
  2
AcDbPlaceHolder
  3
ObjectDBX Classes
 90
        0
280
     0
281
     0
  0
CLASS
  1
LAYOUT
  2
AcDbLayout
  3
ObjectDBX Classes
 90
        0
280
     0
281
     0
  0
CLASS
  1
DICTIONARYVAR
  2
AcDbDictionaryVar
  3
ObjectDBX Classes
 90
        0
280
     0
281
     0
  0
CLASS
  1
MATERIAL
  2
AcDbMaterial
  3
ObjectDBX Classes
 90
     1153
280
     0
281
     0
  0
CLASS
  1
VISUALSTYLE
  2
AcDbVisualStyle
  3
ObjectDBX Classes
 90
     4095
280
     0
281
     0
  0
CLASS
  1
TABLESTYLE
  2
AcDbTableStyle
  3
ObjectDBX Classes
 90
     4095
280
     0
281
     0
  0
CLASS
  1
SCALE
  2
AcDbScale
  3
ObjectDBX Classes
 90
     1153
280
     0
281
     0
  0
CLASS
  1
MLEADERSTYLE
  2
AcDbMLeaderStyle
  3
ACDB_MLEADERSTYLE_CLASS
 90
     4095
280
     0
281
     0
  0
CLASS
  1
ACDBSECTIONVIEWSTYLE
  2
AcDbSectionViewStyle
  3
ObjectDBX Classes
 90
     1025
280
     0
281
     0
  0
CLASS
  1
ACDBDETAILVIEWSTYLE
  2
AcDbDetailViewStyle
  3
ObjectDBX Classes
 90
     1025
280
     0
281
     0
  0
CLASS
  1
CELLSTYLEMAP
  2
AcDbCellStyleMap
  3
ObjectDBX Classes
 90
     1152
280
     0
281
     0
  0
ENDSEC
  0
SECTION
  2
TABLES
  0
TABLE
  2
VPORT
  5
A4C0
330
0
100
AcDbSymbolTable
 70
     1
  0
VPORT
  5
A788
330
A4C0
100
AcDbSymbolTableRecord
100
AcDbViewportTableRecord
  2
*ACTIVE
 70
     0
 10
0.0
 20
0.0
 11
1.0
 21
1.0
 12
359.6086151118389
 22
130.1390544496697
 13
0.0
 23
0.0
 14
10.0
 24
10.0
 15
10.0
 25
10.0
 16
0.0
 26
0.0
 36
1.0
 17
0.0
 27
0.0
 37
0.0
 40
299.0136571897267
 41
1.899603698811096
 42
50.0
 43
0.0
 44
0.0
 50
0.0
 51
0.0
 71
     0
 72
   100
 73
     1
 74
     0
 75
     0
 76
     0
 77
     0
 78
     0
281
     0
 65
     1
110
0.0
120
0.0
130
0.0
111
1.0
121
0.0
131
0.0
112
0.0
122
1.0
132
0.0
 79
     0
146
0.0
1001
ACAD_NAV_VCDISPLAY
1070
     3
  0
ENDTAB
  0
TABLE
  2
LTYPE
  5
A4BD
330
0
100
AcDbSymbolTable
 70
     4
  0
LTYPE
  5
A4CB
330
A4BD
100
AcDbSymbolTableRecord
100
AcDbLinetypeTableRecord
  2
BYBLOCK
 70
     0
  3

 72
    65
 73
     0
 40
0.0
  0
LTYPE
  5
A4CC
330
A4BD
100
AcDbSymbolTableRecord
100
AcDbLinetypeTableRecord
  2
BYLAYER
 70
     0
  3

 72
    65
 73
     0
 40
0.0
  0
LTYPE
  5
A4CD
330
A4BD
100
AcDbSymbolTableRecord
100
AcDbLinetypeTableRecord
  2
CONTINUOUS
 70
     0
  3
Solid line
 72
    65
 73
     0
 40
0.0
  0
LTYPE
  5
A4DB
330
A4BD
100
AcDbSymbolTableRecord
100
AcDbLinetypeTableRecord
  2
DASHED
 70
     0
  3
__ __ __ __ __ __ __ __ __ __ __ __ __ __ __ __
 72
    65
 73
     2
 40
0.75
 49
0.5
 74
     0
 49
-0.25
 74
     0
  0
LTYPE
  5
A4DC
330
A4BD
100
AcDbSymbolTableRecord
100
AcDbLinetypeTableRecord
  2
CENTER
 70
     0
  3
____ _ ____ _ ____ _ ____ _ ____ _ ____ _ ____ 
 72
    65
 73
     4
 40
2.0
 49
1.25
 74
     0
 49
-0.25
 74
     0
 49
0.25
 74
     0
 49
-0.25
 74
     0
  0
LTYPE
  5
A4DD
330
A4BD
100
AcDbSymbolTableRecord
100
AcDbLinetypeTableRecord
  2
PHANTOM
 70
     0
  3
______  __  __  ______  __  __  ______  __  __ 
 72
    65
 73
     6
 40
2.5
 49
1.25
 74
     0
 49
-0.25
 74
     0
 49
0.25
 74
     0
 49
-0.25
 74
     0
 49
0.25
 74
     0
 49
-0.25
 74
     0
  0
ENDTAB
  0
TABLE
  2
LAYER
  5
A4BA
330
0
100
AcDbSymbolTable
 70
     8
  0
LAYER
  5
A4C8
102
{ACAD_XDICTIONARY
360
A7E3
102
}
330
A4BA
100
AcDbSymbolTableRecord
100
AcDbLayerTableRecord
  2
0
 70
     0
 62
     7
  6
CONTINUOUS
370
    -3
390
A791
  0
LAYER
  5
A4DE
102
{ACAD_XDICTIONARY
360
A7E5
102
}
330
A4BA
100
AcDbSymbolTableRecord
100
AcDbLayerTableRecord
  2
4
 70
     0
 62
     1
  6
CENTER
370
    -3
390
A791
  0
LAYER
  5
A4DF
102
{ACAD_XDICTIONARY
360
A7E7
102
}
330
A4BA
100
AcDbSymbolTableRecord
100
AcDbLayerTableRecord
  2
5
 70
     0
 62
     6
  6
PHANTOM
370
    -3
390
A791
  0
LAYER
  5
A4E0
102
{ACAD_XDICTIONARY
360
A7E9
102
}
330
A4BA
100
AcDbSymbolTableRecord
100
AcDbLayerTableRecord
  2
1
 70
     0
 62
     7
  6
CONTINUOUS
370
    -3
390
A791
  0
LAYER
  5
A4E1
102
{ACAD_XDICTIONARY
360
A7EB
102
}
330
A4BA
100
AcDbSymbolTableRecord
100
AcDbLayerTableRecord
  2
2
 70
     0
 62
     4
  6
CONTINUOUS
370
    -3
390
A791
  0
LAYER
  5
A4E2
102
{ACAD_XDICTIONARY
360
A7ED
102
}
330
A4BA
100
AcDbSymbolTableRecord
100
AcDbLayerTableRecord
  2
3
 70
     0
 62
     2
  6
DASHED
370
    -3
390
A791
  0
LAYER
  5
A4E3
102
{ACAD_XDICTIONARY
360
A7EF
102
}
330
A4BA
100
AcDbSymbolTableRecord
100
AcDbLayerTableRecord
  2
6
 70
     0
 62
     5
  6
CONTINUOUS
370
    -3
390
A791
  0
LAYER
  5
A4E4
102
{ACAD_XDICTIONARY
360
A7F1
102
}
330
A4BA
100
AcDbSymbolTableRecord
100
AcDbLayerTableRecord
  2
7
 70
     0
 62
     3
  6
CONTINUOUS
370
    -3
390
A791
  0
ENDTAB
  0
TABLE
  2
STYLE
  5
A4BB
330
0
100
AcDbSymbolTable
 70
     1
  0
STYLE
  5
A4C9
330
A4BB
100
AcDbSymbolTableRecord
100
AcDbTextStyleTableRecord
  2
STANDARD
 70
     0
 40
0.0
 41
1.0
 50
0.0
 71
     0
 42
5.0
  3
txt
  4

  0
ENDTAB
  0
TABLE
  2
VIEW
  5
A4BE
330
0
100
AcDbSymbolTable
 70
     0
  0
ENDTAB
  0
TABLE
  2
UCS
  5
A4BF
330
0
100
AcDbSymbolTable
 70
     0
  0
ENDTAB
  0
TABLE
  2
APPID
  5
A4C1
330
0
100
AcDbSymbolTable
 70
     3
  0
APPID
  5
A4CA
330
A4C1
100
AcDbSymbolTableRecord
100
AcDbRegAppTableRecord
  2
ACAD
 70
     0
  0
APPID
  5
A7FD
330
A4C1
100
AcDbSymbolTableRecord
100
AcDbRegAppTableRecord
  2
ACAD_NAV_VCDISPLAY
 70
     0
  0
APPID
  5
A836
330
A4C1
100
AcDbSymbolTableRecord
100
AcDbRegAppTableRecord
  2
ACAD_MLEADERVER
 70
     0
  0
ENDTAB
  0
TABLE
  2
DIMSTYLE
  5
A4C2
330
0
100
AcDbSymbolTable
 70
     1
100
AcDbDimStyleTable
 71
     0
  0
DIMSTYLE
105
A4E6
330
A4C2
100
AcDbSymbolTableRecord
100
AcDbDimStyleTableRecord
  2
STANDARD
 70
     0
 41
2.5
 42
1.0
 43
10.0
 44
1.0
 73
     0
 74
     0
 77
     3
 78
     8
140
3.2
141
0.0
147
1.0
172
     1
173
     1
284
     8
285
     8
286
     8
340
A4C9
  0
ENDTAB
  0
TABLE
  2
BLOCK_RECORD
  5
A4B9
330
0
100
AcDbSymbolTable
 70
     0
  0
BLOCK_RECORD
  5
A4D6
102
{ACAD_XDICTIONARY
360
A78B
102
}
330
A4B9
100
AcDbSymbolTableRecord
100
AcDbBlockTableRecord
  2
*MODEL_SPACE
340
A7DF
  0
BLOCK_RECORD
  5
A4D2
102
{ACAD_XDICTIONARY
360
A789
102
}
330
A4B9
100
AcDbSymbolTableRecord
100
AcDbBlockTableRecord
  2
*PAPER_SPACE
340
A7E0
  0
ENDTAB
  0
ENDSEC
  0
SECTION
  2
BLOCKS
  0
BLOCK
  5
A4D7
330
A4D6
100
AcDbEntity
  8
0
100
AcDbBlockBegin
  2
*MODEL_SPACE
 70
     0
 10
0.0
 20
0.0
 30
0.0
  3
*MODEL_SPACE
  1

  0
ENDBLK
  5
A4D8
330
A4D6
100
AcDbEntity
  8
0
100
AcDbBlockEnd
  0
BLOCK
  5
A4D3
330
A4D2
100
AcDbEntity
 67
     1
  8
0
100
AcDbBlockBegin
  2
*PAPER_SPACE
 70
     0
 10
0.0
 20
0.0
 30
0.0
  3
*PAPER_SPACE
  1

  0
ENDBLK
  5
A4D4
330
A4D2
100
AcDbEntity
 67
     1
  8
0
100
AcDbBlockEnd
  0
ENDSEC
  0
SECTION
  2
ENTITIES
  0
TEXT
  5
A4EE
330
A4D6
100
AcDbEntity
  8
7
  6
Continuous
100
AcDbText
 10
10.0
 20
18.0
 30
0.0
 40
3.0
  1
TYPE No.TM-193-3
100
AcDbText
  0
TEXT
  5
A4EF
330
A4D6
100
AcDbEntity
  8
7
  6
Continuous
100
AcDbText
 10
10.0
 20
26.0
 30
0.0
 40
3.0
  1
CODE No.5783
100
AcDbText
  0
TEXT
  5
A4F0
330
A4D6
100
AcDbEntity
  8
1
  6
Continuous
100
AcDbText
 10
10.0
 20
10.0
 30
0.0
 40
1.399999999999999
  1
LAYER
100
AcDbText
  0
TEXT
  5
A4F1
330
A4D6
100
AcDbEntity
  8
1
  6
Continuous
100
AcDbText
 10
17.97951099999998
 20
10.04873699999998
 30
0.0
 40
1.399999999999999
  1
1
100
AcDbText
  0
TEXT
  5
A4F2
330
A4D6
100
AcDbEntity
  8
7
  6
Continuous
100
AcDbText
 10
29.97951099999999
 20
10.04873699999998
 30
0.0
 40
1.399999999999999
  1
7
100
AcDbText
  0
TEXT
  5
A4F3
330
A4D6
100
AcDbEntity
  8
4
  6
CENTER
100
AcDbText
 10
23.97951099999999
 20
10.04873699999998
 30
0.0
 40
1.399999999999999
  1
4
100
AcDbText
  0
TEXT
  5
A4F4
330
A4D6
100
AcDbEntity
  8
3
  6
DASHED
100
AcDbText
 10
21.979511
 20
10.04873699999998
 30
0.0
 40
1.399999999999999
  1
3
100
AcDbText
  0
TEXT
  5
A4F5
330
A4D6
100
AcDbEntity
  8
2
  6
Continuous
100
AcDbText
 10
19.97951099999999
 20
10.04873699999998
 30
0.0
 40
1.399999999999999
  1
2
100
AcDbText
  0
TEXT
  5
A4F6
330
A4D6
100
AcDbEntity
  8
6
  6
Continuous
100
AcDbText
 10
27.979511
 20
10.04873699999998
 30
0.0
 40
1.399999999999999
  1
6
100
AcDbText
  0
TEXT
  5
A4F7
330
A4D6
100
AcDbEntity
  8
5
  6
PHANTOM
100
AcDbText
 10
25.97951099999999
 20
10.04873699999998
 30
0.0
 40
1.399999999999999
  1
5
100
AcDbText
  0
LINE
  5
A4F8
330
A4D6
100
AcDbEntity
  8
1
  6
Continuous
100
AcDbLine
 10
138.201656
 20
123.495343
 30
0.0
 11
138.201656
 21
121.648301
 31
0.0
  0
LINE
  5
A4F9
330
A4D6
100
AcDbEntity
  8
1
  6
Continuous
100
AcDbLine
 10
134.201656
 20
123.495343
 30
0.0
 11
134.201656
 21
121.648301
 31
0.0
  0
LINE
  5
A4FA
330
A4D6
100
AcDbEntity
  8
1
  6
Continuous
100
AcDbLine
 10
134.701656
 20
131.9482889999999
 30
0.0
 11
134.701656
 21
122.148301
 31
0.0
  0
LINE
  5
A4FB
330
A4D6
100
AcDbEntity
  8
1
  6
Continuous
100
AcDbLine
 10
137.701656
 20
131.9482889999999
 30
0.0
 11
137.701656
 21
122.148301
 31
0.0
  0
LINE
  5
A4FC
330
A4D6
100
AcDbEntity
  8
1
  6
Continuous
100
AcDbLine
 10
142.201656
 20
135.848301
 30
0.0
 11
132.201656
 21
135.848301
 31
0.0
  0
LINE
  5
A4FD
330
A4D6
100
AcDbEntity
  8
1
  6
Continuous
100
AcDbLine
 10
142.201656
 20
137.8483009999999
 30
0.0
 11
132.201656
 21
137.8483009999999
 31
0.0
  0
LINE
  5
A4FE
330
A4D6
100
AcDbEntity
  8
1
  6
Continuous
100
AcDbLine
 10
142.201656
 20
142.8483009999998
 30
0.0
 11
132.201656
 21
142.8483009999998
 31
0.0
  0
LINE
  5
A4FF
330
A4D6
100
AcDbEntity
  8
1
  6
Continuous
100
AcDbLine
 10
132.201656
 20
142.8483009999998
 30
0.0
 11
132.201656
 21
132.4482889999998
 31
0.0
  0
ARC
  5
A500
330
A4D6
100
AcDbEntity
  8
1
  6
Continuous
100
AcDbCircle
 10
133.701656
 20
123.495343
 30
0.0
 40
0.5
100
AcDbArc
 50
0.0
 51
34.01935
  0
LINE
  5
A501
330
A4D6
100
AcDbEntity
  8
1
  6
Continuous
100
AcDbLine
 10
134.11608
 20
123.7750789999999
 30
0.0
 11
132.937232
 21
125.5215219999999
 31
0.0
  0
ARC
  5
A502
330
A4D6
100
AcDbEntity
  8
1
  6
Continuous
100
AcDbCircle
 10
133.3516559999999
 20
125.801258
 30
0.0
 40
0.5
100
AcDbArc
 50
180.0
 51
214.01935
  0
LINE
  5
A503
330
A4D6
100
AcDbEntity
  8
1
  6
Continuous
100
AcDbLine
 10
132.8516559999999
 20
132.4482889999998
 30
0.0
 11
132.8516559999999
 21
125.801258
 31
0.0
  0
LINE
  5
A504
330
A4D6
100
AcDbEntity
  8
1
  6
Continuous
100
AcDbLine
 10
142.201656
 20
144.348301
 30
0.0
 11
142.201656
 21
132.4482889999998
 31
0.0
  0
LINE
  5
A505
330
A4D6
100
AcDbEntity
  8
1
  6
Continuous
100
AcDbLine
 10
146.201656
 20
139.8483009999999
 30
0.0
 11
146.201656
 21
138.8483009999999
 31
0.0
  0
LINE
  5
A506
330
A4D6
100
AcDbEntity
  8
1
  6
Continuous
100
AcDbLine
 10
146.201656
 20
139.8483009999999
 30
0.0
 11
142.201656
 21
139.8483009999999
 31
0.0
  0
LINE
  5
A507
330
A4D6
100
AcDbEntity
  8
1
  6
Continuous
100
AcDbLine
 10
136.201656
 20
146.048301
 30
0.0
 11
137.9016559999998
 21
144.348301
 31
0.0
  0
LINE
  5
A508
330
A4D6
100
AcDbEntity
  8
1
  6
Continuous
100
AcDbLine
 10
142.201656
 20
144.348301
 30
0.0
 11
137.9016559999998
 21
144.348301
 31
0.0
  0
ARC
  5
A509
330
A4D6
100
AcDbEntity
  8
1
  6
Continuous
100
AcDbCircle
 10
138.701656
 20
123.495343
 30
0.0
 40
0.5
100
AcDbArc
 50
145.98065
 51
180.0
  0
LINE
  5
A50A
330
A4D6
100
AcDbEntity
  8
1
  6
Continuous
100
AcDbLine
 10
138.2872319999999
 20
123.7750789999999
 30
0.0
 11
139.46608
 21
125.5215219999999
 31
0.0
  0
ARC
  5
A50B
330
A4D6
100
AcDbEntity
  8
1
  6
Continuous
100
AcDbCircle
 10
138.701656
 20
123.495343
 30
0.0
 40
0.5
100
AcDbArc
 50
145.98065
 51
180.0
  0
ARC
  5
A50C
330
A4D6
100
AcDbEntity
  8
1
  6
Continuous
100
AcDbCircle
 10
139.051656
 20
125.801258
 30
0.0
 40
0.5
100
AcDbArc
 50
325.98065
 51
0.0
  0
LINE
  5
A50D
330
A4D6
100
AcDbEntity
  8
1
  6
Continuous
100
AcDbLine
 10
139.551656
 20
132.4482889999998
 30
0.0
 11
139.551656
 21
125.801258
 31
0.0
  0
LINE
  5
A50E
330
A4D6
100
AcDbEntity
  8
1
  6
Continuous
100
AcDbLine
 10
137.701656
 20
129.8483009999999
 30
0.0
 11
134.701656
 21
129.8483009999999
 31
0.0
  0
LINE
  5
A50F
330
A4D6
100
AcDbEntity
  8
1
  6
Continuous
100
AcDbLine
 10
146.201656
 20
138.8483009999999
 30
0.0
 11
142.201656
 21
138.8483009999999
 31
0.0
  0
LINE
  5
A510
330
A4D6
100
AcDbEntity
  8
1
  6
Continuous
100
AcDbLine
 10
137.201656
 20
120.648301
 30
0.0
 11
135.201656
 21
120.648301
 31
0.0
  0
ARC
  5
A511
330
A4D6
100
AcDbEntity
  8
1
  6
Continuous
100
AcDbCircle
 10
136.201656
 20
122.148301
 30
0.0
 40
1.5
100
AcDbArc
 50
180.0
 51
0.0
  0
LINE
  5
A512
330
A4D6
100
AcDbEntity
  8
1
  6
Continuous
100
AcDbLine
 10
136.201656
 20
162.048301
 30
0.0
 11
136.201656
 21
142.8483009999998
 31
0.0
  0
LINE
  5
A513
330
A4D6
100
AcDbEntity
  8
1
  6
Continuous
100
AcDbLine
 10
156.201656
 20
141.348301
 30
0.0
 11
156.201656
 21
140.648301
 31
0.0
  0
LINE
  5
A514
330
A4D6
100
AcDbEntity
  8
1
  6
Continuous
100
AcDbLine
 10
156.201656
 20
140.648301
 30
0.0
 11
142.201656
 21
140.648301
 31
0.0
  0
LINE
  5
A515
330
A4D6
100
AcDbEntity
  8
1
  6
Continuous
100
AcDbLine
 10
155.701656
 20
141.8483009999999
 30
0.0
 11
142.201656
 21
141.8483009999999
 31
0.0
  0
ARC
  5
A516
330
A4D6
100
AcDbEntity
  8
1
  6
Continuous
100
AcDbCircle
 10
155.701656
 20
141.348301
 30
0.0
 40
0.5
100
AcDbArc
 50
0.0
 51
90.0
  0
LINE
  5
A517
330
A4D6
100
AcDbEntity
  8
1
  6
Continuous
100
AcDbLine
 10
132.201656
 20
140.648301
 30
0.0
 11
114.801656
 21
140.648301
 31
0.0
  0
LINE
  5
A518
330
A4D6
100
AcDbEntity
  8
1
  6
Continuous
100
AcDbLine
 10
135.001656
 20
162.048301
 30
0.0
 11
135.001656
 21
142.8483009999998
 31
0.0
  0
LINE
  5
A519
330
A4D6
100
AcDbEntity
  8
1
  6
Continuous
100
AcDbLine
 10
132.201656
 20
141.8483009999999
 30
0.0
 11
114.801656
 21
141.8483009999999
 31
0.0
  0
LINE
  5
A51A
330
A4D6
100
AcDbEntity
  8
1
  6
Continuous
100
AcDbLine
 10
303.946196
 20
142.348289
 30
0.0
 11
303.946196
 21
137.8482889999999
 31
0.0
  0
LINE
  5
A51B
330
A4D6
100
AcDbEntity
  8
1
  6
Continuous
100
AcDbLine
 10
314.946196
 20
142.348289
 30
0.0
 11
314.946196
 21
137.8482889999999
 31
0.0
  0
LINE
  5
A51C
330
A4D6
100
AcDbEntity
  8
1
  6
Continuous
100
AcDbLine
 10
306.846196
 20
140.348289
 30
0.0
 11
306.846196
 21
136.8482889999999
 31
0.0
  0
LINE
  5
A51D
330
A4D6
100
AcDbEntity
  8
1
  6
Continuous
100
AcDbLine
 10
312.046196
 20
140.348289
 30
0.0
 11
312.046196
 21
136.8482889999999
 31
0.0
  0
LINE
  5
A51E
330
A4D6
100
AcDbEntity
  8
1
  6
Continuous
100
AcDbLine
 10
307.6961959999998
 20
140.6482889999997
 30
0.0
 11
307.6961959999998
 21
136.8482889999999
 31
0.0
  0
LINE
  5
A51F
330
A4D6
100
AcDbEntity
  8
1
  6
Continuous
100
AcDbLine
 10
311.1961959999998
 20
140.6482889999997
 30
0.0
 11
311.1961959999998
 21
136.8482889999999
 31
0.0
  0
LINE
  5
A520
330
A4D6
100
AcDbEntity
  8
1
  6
Continuous
100
AcDbLine
 10
311.1961959999998
 20
139.8482889999999
 30
0.0
 11
307.6961959999998
 21
139.8482889999999
 31
0.0
  0
ARC
  5
A521
330
A4D6
100
AcDbEntity
  8
1
  6
Continuous
100
AcDbCircle
 10
304.446196
 20
142.348289
 30
0.0
 40
0.5
100
AcDbArc
 50
90.0
 51
180.0
  0
LINE
  5
A522
330
A4D6
100
AcDbEntity
  8
1
  6
Continuous
100
AcDbLine
 10
314.446196
 20
142.8482889999999
 30
0.0
 11
310.696196
 21
142.8482889999999
 31
0.0
  0
ARC
  5
A523
330
A4D6
100
AcDbEntity
  8
1
  6
Continuous
100
AcDbCircle
 10
314.446196
 20
142.348289
 30
0.0
 40
0.5
100
AcDbArc
 50
0.0
 51
90.0
  0
ARC
  5
A524
330
A4D6
100
AcDbEntity
  8
1
  6
Continuous
100
AcDbCircle
 10
305.6961959999998
 20
141.348289
 30
0.0
 40
0.5
100
AcDbArc
 50
90.0
 51
180.0
  0
LINE
  5
A525
330
A4D6
100
AcDbEntity
  8
1
  6
Continuous
100
AcDbLine
 10
313.1961959999998
 20
141.8482889999999
 30
0.0
 11
305.6961959999998
 21
141.8482889999999
 31
0.0
  0
LINE
  5
A526
330
A4D6
100
AcDbEntity
  8
1
  6
Continuous
100
AcDbLine
 10
305.1961959999998
 20
141.348289
 30
0.0
 11
305.1961959999998
 21
140.348289
 31
0.0
  0
ARC
  5
A527
330
A4D6
100
AcDbEntity
  8
1
  6
Continuous
100
AcDbCircle
 10
313.1961959999998
 20
141.348289
 30
0.0
 40
0.5
100
AcDbArc
 50
0.0
 51
90.0
  0
LINE
  5
A528
330
A4D6
100
AcDbEntity
  8
1
  6
Continuous
100
AcDbLine
 10
313.6961959999998
 20
141.348289
 30
0.0
 11
313.6961959999998
 21
140.348289
 31
0.0
  0
LINE
  5
A529
330
A4D6
100
AcDbEntity
  8
1
  6
Continuous
100
AcDbLine
 10
306.846196
 20
140.348289
 30
0.0
 11
305.1961959999998
 21
140.348289
 31
0.0
  0
LINE
  5
A52A
330
A4D6
100
AcDbEntity
  8
1
  6
Continuous
100
AcDbLine
 10
313.6961959999998
 20
140.348289
 30
0.0
 11
312.046196
 21
140.348289
 31
0.0
  0
ARC
  5
A52B
330
A4D6
100
AcDbEntity
  8
1
  6
Continuous
100
AcDbCircle
 10
310.8961959999998
 20
135.3482889999999
 30
0.0
 40
0.5
100
AcDbArc
 50
90.0
 51
180.0
  0
LINE
  5
A52C
330
A4D6
100
AcDbEntity
  8
1
  6
Continuous
100
AcDbLine
 10
310.3961959999999
 20
135.3482889999999
 30
0.0
 11
310.3961959999999
 21
135.248289
 31
0.0
  0
LINE
  5
A52D
330
A4D6
100
AcDbEntity
  8
1
  6
Continuous
100
AcDbLine
 10
312.046196
 20
135.8482889999999
 30
0.0
 11
310.8961959999998
 21
135.8482889999999
 31
0.0
  0
ARC
  5
A52E
330
A4D6
100
AcDbEntity
  8
1
  6
Continuous
100
AcDbCircle
 10
307.9961959999998
 20
135.3482889999999
 30
0.0
 40
0.5
100
AcDbArc
 50
0.0
 51
90.0
  0
LINE
  5
A52F
330
A4D6
100
AcDbEntity
  8
1
  6
Continuous
100
AcDbLine
 10
308.496196
 20
135.3482889999999
 30
0.0
 11
308.496196
 21
135.248289
 31
0.0
  0
LINE
  5
A530
330
A4D6
100
AcDbEntity
  8
1
  6
Continuous
100
AcDbLine
 10
307.9961959999998
 20
135.8482889999999
 30
0.0
 11
306.846196
 21
135.8482889999999
 31
0.0
  0
LINE
  5
A531
330
A4D6
100
AcDbEntity
  8
1
  6
Continuous
100
AcDbLine
 10
306.846196
 20
135.8482889999999
 30
0.0
 11
303.946196
 21
137.8482889999999
 31
0.0
  0
LINE
  5
A532
330
A4D6
100
AcDbEntity
  8
1
  6
Continuous
100
AcDbLine
 10
314.946196
 20
137.8482889999999
 30
0.0
 11
312.046196
 21
135.8482889999999
 31
0.0
  0
LINE
  5
A533
330
A4D6
100
AcDbEntity
  8
1
  6
Continuous
100
AcDbLine
 10
311.1961959999998
 20
138.8482889999999
 30
0.0
 11
307.6961959999998
 21
138.8482889999999
 31
0.0
  0
LINE
  5
A534
330
A4D6
100
AcDbEntity
  8
1
  6
Continuous
100
AcDbLine
 10
312.046196
 20
136.8482889999999
 30
0.0
 11
306.846196
 21
136.8482889999999
 31
0.0
  0
LINE
  5
A535
330
A4D6
100
AcDbEntity
  8
4
  6
CENTER
100
AcDbLine
 10
309.4461959999998
 20
188.048301
 30
0.0
 11
309.4461959999998
 21
115.6482889999999
 31
0.0
  0
LINE
  5
A536
330
A4D6
100
AcDbEntity
  8
1
  6
Continuous
100
AcDbLine
 10
142.2376269999998
 20
231.2852809999998
 30
0.0
 11
142.2376269999998
 21
250.2852809999999
 31
0.0
  0
LINE
  5
A537
330
A4D6
100
AcDbEntity
  8
1
  6
Continuous
100
AcDbLine
 10
142.2376269999998
 20
231.2852809999998
 30
0.0
 11
132.237627
 21
231.2852809999998
 31
0.0
  0
LINE
  5
A538
330
A4D6
100
AcDbEntity
  8
1
  6
Continuous
100
AcDbLine
 10
132.237627
 20
231.2852809999998
 30
0.0
 11
132.237627
 21
236.785281
 31
0.0
  0
LINE
  5
A539
330
A4D6
100
AcDbEntity
  8
1
  6
Continuous
100
AcDbLine
 10
142.2376269999998
 20
250.2852809999999
 30
0.0
 11
132.237627
 21
250.2852809999999
 31
0.0
  0
LINE
  5
A53A
330
A4D6
100
AcDbEntity
  8
4
  6
CENTER
100
AcDbLine
 10
254.787656
 20
240.785281
 30
0.0
 11
88.80165599999997
 21
240.785281
 31
0.0
  0
LINE
  5
A53B
330
A4D6
100
AcDbEntity
  8
1
  6
Continuous
100
AcDbLine
 10
142.2376269999998
 20
245.5352809999999
 30
0.0
 11
132.237627
 21
245.5352809999999
 31
0.0
  0
LINE
  5
A53C
330
A4D6
100
AcDbEntity
  8
1
  6
Continuous
100
AcDbLine
 10
142.2376269999998
 20
236.035281
 30
0.0
 11
132.237627
 21
236.035281
 31
0.0
  0
LINE
  5
A53D
330
A4D6
100
AcDbEntity
  8
1
  6
Continuous
100
AcDbLine
 10
142.2376269999998
 20
248.285281
 30
0.0
 11
132.237627
 21
248.285281
 31
0.0
  0
LINE
  5
A53E
330
A4D6
100
AcDbEntity
  8
1
  6
Continuous
100
AcDbLine
 10
142.2376269999998
 20
233.2852809999998
 30
0.0
 11
132.237627
 21
233.2852809999998
 31
0.0
  0
LINE
  5
A53F
330
A4D6
100
AcDbEntity
  8
1
  6
Continuous
100
AcDbLine
 10
136.201656
 20
236.785281
 30
0.0
 11
136.201656
 21
244.785281
 31
0.0
  0
LINE
  5
A540
330
A4D6
100
AcDbEntity
  8
1
  6
Continuous
100
AcDbLine
 10
137.9016559999998
 20
239.5352809999998
 30
0.0
 11
137.9016559999998
 21
242.035281
 31
0.0
  0
LINE
  5
A541
330
A4D6
100
AcDbEntity
  8
1
  6
Continuous
100
AcDbLine
 10
142.2376269999998
 20
239.5352809999998
 30
0.0
 11
136.201656
 21
239.5352809999998
 31
0.0
  0
LINE
  5
A542
330
A4D6
100
AcDbEntity
  8
1
  6
Continuous
100
AcDbLine
 10
142.2376269999998
 20
242.035281
 30
0.0
 11
136.201656
 21
242.035281
 31
0.0
  0
LINE
  5
A543
330
A4D6
100
AcDbEntity
  8
1
  6
Continuous
100
AcDbLine
 10
93.80165599999999
 20
236.785281
 30
0.0
 11
93.80165599999999
 21
244.785281
 31
0.0
  0
LINE
  5
A544
330
A4D6
100
AcDbEntity
  8
1
  6
Continuous
100
AcDbLine
 10
146.901656
 20
244.785281
 30
0.0
 11
142.2376269999998
 21
244.785281
 31
0.0
  0
LINE
  5
A545
330
A4D6
100
AcDbEntity
  8
1
  6
Continuous
100
AcDbLine
 10
146.901656
 20
236.785281
 30
0.0
 11
142.2376269999998
 21
236.785281
 31
0.0
  0
LINE
  5
A546
330
A4D6
100
AcDbEntity
  8
1
  6
Continuous
100
AcDbLine
 10
132.237627
 20
244.785281
 30
0.0
 11
132.237627
 21
250.2852809999999
 31
0.0
  0
LINE
  5
A547
330
A4D6
100
AcDbEntity
  8
1
  6
Continuous
100
AcDbLine
 10
146.901656
 20
236.785281
 30
0.0
 11
154.4876559999999
 21
238.59154
 31
0.0
  0
LINE
  5
A548
330
A4D6
100
AcDbEntity
  8
1
  6
Continuous
100
AcDbLine
 10
146.901656
 20
244.785281
 30
0.0
 11
154.4876559999999
 21
242.979022
 31
0.0
  0
ARC
  5
A549
330
A4D6
100
AcDbEntity
  8
1
  6
Continuous
100
AcDbCircle
 10
153.9876559999999
 20
240.785281
 30
0.0
 40
2.25
100
AcDbArc
 50
282.839588
 51
77.16041199999998
  0
CIRCLE
  5
A54A
330
A4D6
100
AcDbEntity
  8
1
  6
Continuous
100
AcDbCircle
 10
148.401656
 20
240.785281
 30
0.0
 40
1.6
  0
LINE
  5
A54B
330
A4D6
100
AcDbEntity
  8
4
  6
CENTER
100
AcDbLine
 10
148.401656
 20
237.1989279999999
 30
0.0
 11
148.401656
 21
244.3716339999999
 31
0.0
  0
LINE
  5
A54C
330
A4D6
100
AcDbEntity
  8
1
  6
Continuous
100
AcDbLine
 10
136.201656
 20
244.785281
 30
0.0
 11
93.80165599999999
 21
244.785281
 31
0.0
  0
LINE
  5
A54D
330
A4D6
100
AcDbEntity
  8
1
  6
Continuous
100
AcDbLine
 10
136.201656
 20
236.785281
 30
0.0
 11
93.80165599999999
 21
236.785281
 31
0.0
  0
LINE
  5
A54E
330
A4D6
100
AcDbEntity
  8
4
  6
CENTER
100
AcDbLine
 10
148.401656
 20
146.8483009999999
 30
0.0
 11
148.401656
 21
135.648301
 31
0.0
  0
LINE
  5
A54F
330
A4D6
100
AcDbEntity
  8
1
  6
Continuous
100
AcDbLine
 10
125.151656
 20
238.785281
 30
0.0
 11
125.151656
 21
242.785281
 31
0.0
  0
LINE
  5
A550
330
A4D6
100
AcDbEntity
  8
1
  6
Continuous
100
AcDbLine
 10
123.651656
 20
238.785281
 30
0.0
 11
123.651656
 21
242.785281
 31
0.0
  0
LINE
  5
A551
330
A4D6
100
AcDbEntity
  8
1
  6
Continuous
100
AcDbLine
 10
123.651656
 20
242.785281
 30
0.0
 11
125.151656
 21
242.785281
 31
0.0
  0
LINE
  5
A552
330
A4D6
100
AcDbEntity
  8
1
  6
Continuous
100
AcDbLine
 10
123.651656
 20
238.785281
 30
0.0
 11
125.151656
 21
238.785281
 31
0.0
  0
LINE
  5
A553
330
A4D6
100
AcDbEntity
  8
1
  6
Continuous
100
AcDbLine
 10
128.051656
 20
238.785281
 30
0.0
 11
128.051656
 21
242.785281
 31
0.0
  0
LINE
  5
A554
330
A4D6
100
AcDbEntity
  8
1
  6
Continuous
100
AcDbLine
 10
126.551656
 20
242.785281
 30
0.0
 11
128.051656
 21
242.785281
 31
0.0
  0
LINE
  5
A555
330
A4D6
100
AcDbEntity
  8
1
  6
Continuous
100
AcDbLine
 10
126.551656
 20
238.785281
 30
0.0
 11
126.551656
 21
242.785281
 31
0.0
  0
LINE
  5
A556
330
A4D6
100
AcDbEntity
  8
1
  6
Continuous
100
AcDbLine
 10
126.551656
 20
238.785281
 30
0.0
 11
128.051656
 21
238.785281
 31
0.0
  0
LINE
  5
A557
330
A4D6
100
AcDbEntity
  8
1
  6
Continuous
100
AcDbLine
 10
129.051656
 20
238.785281
 30
0.0
 11
129.051656
 21
242.785281
 31
0.0
  0
LINE
  5
A558
330
A4D6
100
AcDbEntity
  8
1
  6
Continuous
100
AcDbLine
 10
130.551656
 20
238.785281
 30
0.0
 11
130.551656
 21
242.785281
 31
0.0
  0
LINE
  5
A559
330
A4D6
100
AcDbEntity
  8
1
  6
Continuous
100
AcDbLine
 10
129.051656
 20
238.785281
 30
0.0
 11
130.551656
 21
238.785281
 31
0.0
  0
LINE
  5
A55A
330
A4D6
100
AcDbEntity
  8
1
  6
Continuous
100
AcDbLine
 10
129.051656
 20
242.785281
 30
0.0
 11
130.551656
 21
242.785281
 31
0.0
  0
LINE
  5
A55B
330
A4D6
100
AcDbEntity
  8
1
  6
Continuous
100
AcDbLine
 10
133.151656
 20
238.785281
 30
0.0
 11
133.151656
 21
242.785281
 31
0.0
  0
LINE
  5
A55C
330
A4D6
100
AcDbEntity
  8
1
  6
Continuous
100
AcDbLine
 10
131.6516559999998
 20
238.785281
 30
0.0
 11
131.6516559999998
 21
242.785281
 31
0.0
  0
LINE
  5
A55D
330
A4D6
100
AcDbEntity
  8
1
  6
Continuous
100
AcDbLine
 10
131.6516559999998
 20
242.785281
 30
0.0
 11
133.151656
 21
242.785281
 31
0.0
  0
LINE
  5
A55E
330
A4D6
100
AcDbEntity
  8
1
  6
Continuous
100
AcDbLine
 10
131.6516559999998
 20
238.785281
 30
0.0
 11
133.151656
 21
238.785281
 31
0.0
  0
LINE
  5
A55F
330
A4D6
100
AcDbEntity
  8
1
  6
Continuous
100
AcDbLine
 10
134.2516559999999
 20
238.785281
 30
0.0
 11
134.2516559999999
 21
242.785281
 31
0.0
  0
LINE
  5
A560
330
A4D6
100
AcDbEntity
  8
1
  6
Continuous
100
AcDbLine
 10
135.751656
 20
238.785281
 30
0.0
 11
135.751656
 21
242.785281
 31
0.0
  0
LINE
  5
A561
330
A4D6
100
AcDbEntity
  8
1
  6
Continuous
100
AcDbLine
 10
134.2516559999999
 20
242.785281
 30
0.0
 11
135.751656
 21
242.785281
 31
0.0
  0
LINE
  5
A562
330
A4D6
100
AcDbEntity
  8
1
  6
Continuous
100
AcDbLine
 10
134.2516559999999
 20
238.785281
 30
0.0
 11
135.751656
 21
238.785281
 31
0.0
  0
LINE
  5
A563
330
A4D6
100
AcDbEntity
  8
1
  6
Continuous
100
AcDbLine
 10
136.151656
 20
238.785281
 30
0.0
 11
136.151656
 21
242.785281
 31
0.0
  0
LINE
  5
A564
330
A4D6
100
AcDbEntity
  8
1
  6
Continuous
100
AcDbLine
 10
136.151656
 20
238.785281
 30
0.0
 11
136.201656
 21
238.785281
 31
0.0
  0
LINE
  5
A565
330
A4D6
100
AcDbEntity
  8
1
  6
Continuous
100
AcDbLine
 10
136.151656
 20
242.785281
 30
0.0
 11
136.201656
 21
242.785281
 31
0.0
  0
LINE
  5
A566
330
A4D6
100
AcDbEntity
  8
1
  6
Continuous
100
AcDbLine
 10
93.851656
 20
238.785281
 30
0.0
 11
93.851656
 21
242.785281
 31
0.0
  0
LINE
  5
A567
330
A4D6
100
AcDbEntity
  8
1
  6
Continuous
100
AcDbLine
 10
93.851656
 20
242.785281
 30
0.0
 11
93.80165599999999
 21
242.785281
 31
0.0
  0
LINE
  5
A568
330
A4D6
100
AcDbEntity
  8
1
  6
Continuous
100
AcDbLine
 10
93.851656
 20
238.785281
 30
0.0
 11
93.80165599999999
 21
238.785281
 31
0.0
  0
LINE
  5
A569
330
A4D6
100
AcDbEntity
  8
1
  6
Continuous
100
AcDbLine
 10
122.251656
 20
238.785281
 30
0.0
 11
122.251656
 21
242.785281
 31
0.0
  0
LINE
  5
A56A
330
A4D6
100
AcDbEntity
  8
1
  6
Continuous
100
AcDbLine
 10
120.751656
 20
238.785281
 30
0.0
 11
120.751656
 21
242.785281
 31
0.0
  0
LINE
  5
A56B
330
A4D6
100
AcDbEntity
  8
1
  6
Continuous
100
AcDbLine
 10
122.251656
 20
238.785281
 30
0.0
 11
120.751656
 21
238.785281
 31
0.0
  0
LINE
  5
A56C
330
A4D6
100
AcDbEntity
  8
1
  6
Continuous
100
AcDbLine
 10
122.251656
 20
242.785281
 30
0.0
 11
120.751656
 21
242.785281
 31
0.0
  0
LINE
  5
A56D
330
A4D6
100
AcDbEntity
  8
5
  6
PHANTOM
100
AcDbLine
 10
249.2516559999998
 20
141.8483009999999
 30
0.0
 11
142.201656
 21
141.8483009999999
 31
0.0
  0
LINE
  5
A56E
330
A4D6
100
AcDbEntity
  8
5
  6
PHANTOM
100
AcDbLine
 10
249.751656
 20
140.648301
 30
0.0
 11
142.201656
 21
140.648301
 31
0.0
  0
LINE
  5
A56F
330
A4D6
100
AcDbEntity
  8
4
  6
CENTER
100
AcDbLine
 10
136.201656
 20
130.848301
 30
0.0
 11
136.201656
 21
115.6482889999999
 31
0.0
  0
ARC
  5
A570
330
A4D6
100
AcDbEntity
  8
1
  6
Continuous
100
AcDbCircle
 10
153.9876559999999
 20
61.305916
 30
0.0
 40
2.25
100
AcDbArc
 50
282.839588
 51
77.16041199999998
  0
LINE
  5
A571
330
A4D6
100
AcDbEntity
  8
4
  6
CENTER
100
AcDbLine
 10
148.401656
 20
57.719563
 30
0.0
 11
148.401656
 21
64.892269
 31
0.0
  0
LINE
  5
A572
330
A4D6
100
AcDbEntity
  8
1
  6
Continuous
100
AcDbLine
 10
142.2376269999998
 20
51.80591599999999
 30
0.0
 11
142.2376269999998
 21
70.80591599999998
 31
0.0
  0
LINE
  5
A573
330
A4D6
100
AcDbEntity
  8
1
  6
Continuous
100
AcDbLine
 10
142.2376269999998
 20
51.80591599999999
 30
0.0
 11
132.237627
 21
51.80591599999999
 31
0.0
  0
LINE
  5
A574
330
A4D6
100
AcDbEntity
  8
1
  6
Continuous
100
AcDbLine
 10
146.901656
 20
57.305916
 30
0.0
 11
142.2376269999998
 21
57.305916
 31
0.0
  0
LINE
  5
A575
330
A4D6
100
AcDbEntity
  8
1
  6
Continuous
100
AcDbLine
 10
146.901656
 20
57.305916
 30
0.0
 11
154.4876559999999
 21
59.112175
 31
0.0
  0
CIRCLE
  5
A576
330
A4D6
100
AcDbEntity
  8
1
  6
Continuous
100
AcDbCircle
 10
148.401656
 20
61.305916
 30
0.0
 40
1.6
  0
LINE
  5
A577
330
A4D6
100
AcDbEntity
  8
1
  6
Continuous
100
AcDbLine
 10
142.2376269999998
 20
70.80591599999998
 30
0.0
 11
132.237627
 21
70.80591599999998
 31
0.0
  0
LINE
  5
A578
330
A4D6
100
AcDbEntity
  8
1
  6
Continuous
100
AcDbLine
 10
132.237627
 20
51.80591599999999
 30
0.0
 11
132.237627
 21
70.80591599999998
 31
0.0
  0
LINE
  5
A579
330
A4D6
100
AcDbEntity
  8
1
  6
Continuous
100
AcDbLine
 10
146.901656
 20
65.305916
 30
0.0
 11
142.2376269999998
 21
65.305916
 31
0.0
  0
LINE
  5
A57A
330
A4D6
100
AcDbEntity
  8
1
  6
Continuous
100
AcDbLine
 10
146.901656
 20
65.305916
 30
0.0
 11
154.4876559999999
 21
63.49965699999999
 31
0.0
  0
LINE
  5
A57B
330
A4D6
100
AcDbEntity
  8
4
  6
CENTER
100
AcDbLine
 10
36.35711699999998
 20
188.048301
 30
0.0
 11
36.35711699999998
 21
115.6482889999999
 31
0.0
  0
ARC
  5
A57C
330
A4D6
100
AcDbEntity
  8
1
  6
Continuous
100
AcDbCircle
 10
41.35711699999997
 20
142.348289
 30
0.0
 40
0.5
100
AcDbArc
 50
0.0
 51
90.0
  0
LINE
  5
A57D
330
A4D6
100
AcDbEntity
  8
1
  6
Continuous
100
AcDbLine
 10
34.60711699999999
 20
140.6482889999997
 30
0.0
 11
34.60711699999999
 21
136.8482889999999
 31
0.0
  0
LINE
  5
A57E
330
A4D6
100
AcDbEntity
  8
1
  6
Continuous
100
AcDbLine
 10
38.10711699999997
 20
140.6482889999997
 30
0.0
 11
38.10711699999997
 21
136.8482889999999
 31
0.0
  0
LINE
  5
A57F
330
A4D6
100
AcDbEntity
  8
1
  6
Continuous
100
AcDbLine
 10
33.757117
 20
140.348289
 30
0.0
 11
33.757117
 21
136.8482889999999
 31
0.0
  0
LINE
  5
A580
330
A4D6
100
AcDbEntity
  8
1
  6
Continuous
100
AcDbLine
 10
38.95711699999999
 20
140.348289
 30
0.0
 11
38.95711699999999
 21
136.8482889999999
 31
0.0
  0
LINE
  5
A581
330
A4D6
100
AcDbEntity
  8
1
  6
Continuous
100
AcDbLine
 10
30.857117
 20
142.348289
 30
0.0
 11
30.857117
 21
137.8482889999999
 31
0.0
  0
LINE
  5
A582
330
A4D6
100
AcDbEntity
  8
1
  6
Continuous
100
AcDbLine
 10
32.407117
 20
138.5226889999999
 30
0.0
 11
33.757117
 21
138.5226889999999
 31
0.0
  0
LINE
  5
A583
330
A4D6
100
AcDbEntity
  8
1
  6
Continuous
100
AcDbLine
 10
32.10711699999999
 20
141.348289
 30
0.0
 11
32.10711699999999
 21
138.822689
 31
0.0
  0
ARC
  5
A584
330
A4D6
100
AcDbEntity
  8
1
  6
Continuous
100
AcDbCircle
 10
32.60711699999998
 20
141.348289
 30
0.0
 40
0.5
100
AcDbArc
 50
119.9999999999999
 51
180.0
  0
ARC
  5
A585
330
A4D6
100
AcDbEntity
  8
1
  6
Continuous
100
AcDbCircle
 10
31.35711699999999
 20
142.348289
 30
0.0
 40
0.5
100
AcDbArc
 50
90.0
 51
180.0
  0
LINE
  5
A586
330
A4D6
100
AcDbEntity
  8
1
  6
Continuous
100
AcDbLine
 10
33.757117
 20
136.8482889999999
 30
0.0
 11
34.60711699999999
 21
136.8482889999999
 31
0.0
  0
LINE
  5
A587
330
A4D6
100
AcDbEntity
  8
1
  6
Continuous
100
AcDbLine
 10
30.857117
 20
137.8482889999999
 30
0.0
 11
33.757117
 21
135.8482889999999
 31
0.0
  0
LINE
  5
A588
330
A4D6
100
AcDbEntity
  8
1
  6
Continuous
100
AcDbLine
 10
37.80711699999999
 20
135.8482889999999
 30
0.0
 11
38.95711699999999
 21
135.8482889999999
 31
0.0
  0
LINE
  5
A589
330
A4D6
100
AcDbEntity
  8
1
  6
Continuous
100
AcDbLine
 10
37.307117
 20
135.3482889999999
 30
0.0
 11
37.307117
 21
135.248289
 31
0.0
  0
ARC
  5
A58A
330
A4D6
100
AcDbEntity
  8
1
  6
Continuous
100
AcDbCircle
 10
37.80711699999999
 20
135.3482889999999
 30
0.0
 40
0.5
100
AcDbArc
 50
90.0
 51
180.0
  0
LINE
  5
A58B
330
A4D6
100
AcDbEntity
  8
1
  6
Continuous
100
AcDbLine
 10
33.757117
 20
135.8482889999999
 30
0.0
 11
34.907117
 21
135.8482889999999
 31
0.0
  0
LINE
  5
A58C
330
A4D6
100
AcDbEntity
  8
1
  6
Continuous
100
AcDbLine
 10
35.407117
 20
135.3482889999999
 30
0.0
 11
35.407117
 21
135.248289
 31
0.0
  0
ARC
  5
A58D
330
A4D6
100
AcDbEntity
  8
1
  6
Continuous
100
AcDbCircle
 10
34.907117
 20
135.3482889999999
 30
0.0
 40
0.5
100
AcDbArc
 50
0.0
 51
90.0
  0
LINE
  5
A58E
330
A4D6
100
AcDbEntity
  8
1
  6
Continuous
100
AcDbLine
 10
41.85711699999997
 20
142.348289
 30
0.0
 11
41.85711699999997
 21
137.8482889999999
 31
0.0
  0
LINE
  5
A58F
330
A4D6
100
AcDbEntity
  8
1
  6
Continuous
100
AcDbLine
 10
40.60711699999997
 20
141.348289
 30
0.0
 11
40.60711699999997
 21
138.822689
 31
0.0
  0
ARC
  5
A590
330
A4D6
100
AcDbEntity
  8
1
  6
Continuous
100
AcDbCircle
 10
40.10711699999997
 20
141.348289
 30
0.0
 40
0.5
100
AcDbArc
 50
0.0
 51
60.0
  0
LINE
  5
A591
330
A4D6
100
AcDbEntity
  8
1
  6
Continuous
100
AcDbLine
 10
31.35711699999999
 20
142.8482889999999
 30
0.0
 11
32.35711699999999
 21
142.8482889999999
 31
0.0
  0
LINE
  5
A592
330
A4D6
100
AcDbEntity
  8
1
  6
Continuous
100
AcDbLine
 10
38.95711699999999
 20
135.8482889999999
 30
0.0
 11
41.85711699999997
 21
137.8482889999999
 31
0.0
  0
LINE
  5
A593
330
A4D6
100
AcDbEntity
  8
1
  6
Continuous
100
AcDbLine
 10
313.4461959999998
 20
140.6482889999997
 30
0.0
 11
305.4461959999998
 21
140.6482889999997
 31
0.0
  0
LINE
  5
A594
330
A4D6
100
AcDbEntity
  8
1
  6
Continuous
100
AcDbLine
 10
313.4461959999998
 20
141.781302
 30
0.0
 11
313.4461959999998
 21
140.6482889999997
 31
0.0
  0
LINE
  5
A595
330
A4D6
100
AcDbEntity
  8
1
  6
Continuous
100
AcDbLine
 10
305.4461959999998
 20
141.781302
 30
0.0
 11
305.4461959999998
 21
140.6482889999997
 31
0.0
  0
LINE
  5
A596
330
A4D6
100
AcDbEntity
  8
1
  6
Continuous
100
AcDbLine
 10
32.35711699999999
 20
140.6482889999997
 30
0.0
 11
40.35711699999999
 21
140.6482889999997
 31
0.0
  0
LINE
  5
A597
330
A4D6
100
AcDbEntity
  8
1
  6
Continuous
100
AcDbLine
 10
146.237627
 20
63.305916
 30
0.0
 11
142.2376269999998
 21
63.305916
 31
0.0
  0
LINE
  5
A598
330
A4D6
100
AcDbEntity
  8
1
  6
Continuous
100
AcDbLine
 10
146.237627
 20
59.305916
 30
0.0
 11
142.2376269999998
 21
59.305916
 31
0.0
  0
LINE
  5
A599
330
A4D6
100
AcDbEntity
  8
1
  6
Continuous
100
AcDbLine
 10
142.2376269999998
 20
66.80591599999999
 30
0.0
 11
132.237627
 21
66.80591599999999
 31
0.0
  0
LINE
  5
A59A
330
A4D6
100
AcDbEntity
  8
1
  6
Continuous
100
AcDbLine
 10
142.2376269999998
 20
55.805916
 30
0.0
 11
132.237627
 21
55.805916
 31
0.0
  0
LINE
  5
A59B
330
A4D6
100
AcDbEntity
  8
4
  6
CENTER
100
AcDbLine
 10
136.237627
 20
51.80591599999999
 30
0.0
 11
136.237627
 21
70.80591599999998
 31
0.0
  0
LINE
  5
A59C
330
A4D6
100
AcDbEntity
  8
1
  6
Continuous
100
AcDbLine
 10
132.887627
 20
60.355916
 30
0.0
 11
132.887627
 21
62.25591600000001
 31
0.0
  0
LINE
  5
A59D
330
A4D6
100
AcDbEntity
  8
1
  6
Continuous
100
AcDbLine
 10
139.587627
 20
60.355916
 30
0.0
 11
139.587627
 21
62.25591600000001
 31
0.0
  0
LINE
  5
A59E
330
A4D6
100
AcDbEntity
  8
1
  6
Continuous
100
AcDbLine
 10
137.737627
 20
66.30591599999999
 30
0.0
 11
134.737627
 21
66.30591599999999
 31
0.0
  0
LINE
  5
A59F
330
A4D6
100
AcDbEntity
  8
1
  6
Continuous
100
AcDbLine
 10
137.737627
 20
56.305916
 30
0.0
 11
134.737627
 21
56.305916
 31
0.0
  0
LINE
  5
A5A0
330
A4D6
100
AcDbEntity
  8
1
  6
Continuous
100
AcDbLine
 10
134.737627
 20
56.305916
 30
0.0
 11
134.737627
 21
60.355916
 31
0.0
  0
LINE
  5
A5A1
330
A4D6
100
AcDbEntity
  8
1
  6
Continuous
100
AcDbLine
 10
137.737627
 20
56.305916
 30
0.0
 11
137.737627
 21
60.355916
 31
0.0
  0
LINE
  5
A5A2
330
A4D6
100
AcDbEntity
  8
1
  6
Continuous
100
AcDbLine
 10
134.237627
 20
60.355916
 30
0.0
 11
134.237627
 21
62.25591600000001
 31
0.0
  0
LINE
  5
A5A3
330
A4D6
100
AcDbEntity
  8
1
  6
Continuous
100
AcDbLine
 10
138.2376269999997
 20
60.355916
 30
0.0
 11
138.2376269999997
 21
62.25591600000001
 31
0.0
  0
LINE
  5
A5A4
330
A4D6
100
AcDbEntity
  8
1
  6
Continuous
100
AcDbLine
 10
137.737627
 20
62.25591600000001
 30
0.0
 11
137.737627
 21
66.30591599999999
 31
0.0
  0
LINE
  5
A5A5
330
A4D6
100
AcDbEntity
  8
1
  6
Continuous
100
AcDbLine
 10
134.737627
 20
62.25591600000001
 30
0.0
 11
134.737627
 21
66.30591599999999
 31
0.0
  0
LINE
  5
A5A6
330
A4D6
100
AcDbEntity
  8
1
  6
Continuous
100
AcDbLine
 10
146.237627
 20
59.305916
 30
0.0
 11
146.237627
 21
63.305916
 31
0.0
  0
LINE
  5
A5A7
330
A4D6
100
AcDbEntity
  8
1
  6
Continuous
100
AcDbLine
 10
139.587627
 20
62.25591600000001
 30
0.0
 11
137.737627
 21
62.25591600000001
 31
0.0
  0
LINE
  5
A5A8
330
A4D6
100
AcDbEntity
  8
1
  6
Continuous
100
AcDbLine
 10
139.587627
 20
60.355916
 30
0.0
 11
137.737627
 21
60.355916
 31
0.0
  0
LINE
  5
A5A9
330
A4D6
100
AcDbEntity
  8
1
  6
Continuous
100
AcDbLine
 10
134.737627
 20
62.25591600000001
 30
0.0
 11
132.887627
 21
62.25591600000001
 31
0.0
  0
LINE
  5
A5AA
330
A4D6
100
AcDbEntity
  8
1
  6
Continuous
100
AcDbLine
 10
134.737627
 20
60.355916
 30
0.0
 11
132.887627
 21
60.355916
 31
0.0
  0
ARC
  5
A5AB
330
A4D6
100
AcDbEntity
  8
5
  6
PHANTOM
100
AcDbCircle
 10
130.0016559999999
 20
146.8483009999999
 30
0.0
 40
5.0
100
AcDbArc
 50
0.0
 51
270.0
  0
LINE
  5
A5AC
330
A4D6
100
AcDbEntity
  8
5
  6
PHANTOM
100
AcDbLine
 10
135.001656
 20
146.8483009999999
 30
0.0
 11
135.001656
 21
142.8483009999998
 31
0.0
  0
LINE
  5
A5AD
330
A4D6
100
AcDbEntity
  8
5
  6
PHANTOM
100
AcDbLine
 10
130.0016559999999
 20
141.8483009999999
 30
0.0
 11
132.201656
 21
141.8483009999999
 31
0.0
  0
ARC
  5
A5AE
330
A4D6
100
AcDbEntity
  8
5
  6
PHANTOM
100
AcDbCircle
 10
130.0016559999999
 20
146.8483009999999
 30
0.0
 40
6.2
100
AcDbArc
 50
0.0
 51
270.0
  0
LINE
  5
A5AF
330
A4D6
100
AcDbEntity
  8
5
  6
PHANTOM
100
AcDbLine
 10
136.201656
 20
146.8483009999999
 30
0.0
 11
136.201656
 21
142.8483009999998
 31
0.0
  0
LINE
  5
A5B0
330
A4D6
100
AcDbEntity
  8
5
  6
PHANTOM
100
AcDbLine
 10
130.0016559999999
 20
140.648301
 30
0.0
 11
132.201656
 21
140.648301
 31
0.0
  0
LINE
  5
A5B1
330
A4D6
100
AcDbEntity
  8
1
  6
Continuous
100
AcDbLine
 10
38.95711699999999
 20
138.5226889999999
 30
0.0
 11
40.307117
 21
138.5226889999999
 31
0.0
  0
LINE
  5
A5B2
330
A4D6
100
AcDbEntity
  8
1
  6
Continuous
100
AcDbLine
 10
34.60711699999999
 20
138.1482889999998
 30
0.0
 11
38.10711699999997
 21
138.1482889999998
 31
0.0
  0
LINE
  5
A5B3
330
A4D6
100
AcDbEntity
  8
1
  6
Continuous
100
AcDbLine
 10
33.757117
 20
140.348289
 30
0.0
 11
32.10711699999999
 21
140.348289
 31
0.0
  0
LINE
  5
A5B4
330
A4D6
100
AcDbEntity
  8
1
  6
Continuous
100
AcDbLine
 10
40.60711699999997
 20
140.348289
 30
0.0
 11
38.95711699999999
 21
140.348289
 31
0.0
  0
ARC
  5
A5B5
330
A4D6
100
AcDbEntity
  8
1
  6
Continuous
100
AcDbCircle
 10
40.307117
 20
138.822689
 30
0.0
 40
0.3
100
AcDbArc
 50
270.0
 51
0.0
  0
ARC
  5
A5B6
330
A4D6
100
AcDbEntity
  8
1
  6
Continuous
100
AcDbCircle
 10
32.407117
 20
138.822689
 30
0.0
 40
0.3
100
AcDbArc
 50
180.0
 51
270.0
  0
LINE
  5
A5B7
330
A4D6
100
AcDbEntity
  8
1
  6
Continuous
100
AcDbLine
 10
40.35711699999999
 20
142.8482889999999
 30
0.0
 11
41.35711699999997
 21
142.8482889999999
 31
0.0
  0
LINE
  5
A5B8
330
A4D6
100
AcDbEntity
  8
5
  6
PHANTOM
100
AcDbLine
 10
313.44621
 20
153.04826
 30
0.0
 11
305.44621
 21
153.04826
 31
0.0
  0
LINE
  5
A5B9
330
A4D6
100
AcDbEntity
  8
5
  6
PHANTOM
100
AcDbLine
 10
311.44621
 20
152.9982599999999
 30
0.0
 11
307.44621
 21
152.9982599999999
 31
0.0
  0
LINE
  5
A5BA
330
A4D6
100
AcDbEntity
  8
5
  6
PHANTOM
100
AcDbLine
 10
313.44621
 20
153.04826
 30
0.0
 11
313.44621
 21
142.8482889999999
 31
0.0
  0
LINE
  5
A5BB
330
A4D6
100
AcDbEntity
  8
5
  6
PHANTOM
100
AcDbLine
 10
305.44621
 20
153.04826
 30
0.0
 11
305.44621
 21
142.8482889999999
 31
0.0
  0
LINE
  5
A5BC
330
A4D6
100
AcDbEntity
  8
5
  6
PHANTOM
100
AcDbLine
 10
307.44621
 20
152.9982599999999
 30
0.0
 11
307.44621
 21
153.04826
 31
0.0
  0
LINE
  5
A5BD
330
A4D6
100
AcDbEntity
  8
5
  6
PHANTOM
100
AcDbLine
 10
136.201656
 20
244.785281
 30
0.0
 11
123.8016559999999
 21
244.785281
 31
0.0
  0
LINE
  5
A5BE
330
A4D6
100
AcDbEntity
  8
5
  6
PHANTOM
100
AcDbLine
 10
136.201656
 20
236.785281
 30
0.0
 11
123.8016559999999
 21
236.785281
 31
0.0
  0
LINE
  5
A5BF
330
A4D6
100
AcDbEntity
  8
5
  6
PHANTOM
100
AcDbLine
 10
123.8016559999999
 20
236.785281
 30
0.0
 11
123.8016559999999
 21
244.785281
 31
0.0
  0
LINE
  5
A5C0
330
A4D6
100
AcDbEntity
  8
5
  6
PHANTOM
100
AcDbLine
 10
123.851656
 20
238.785281
 30
0.0
 11
123.851656
 21
242.785281
 31
0.0
  0
LINE
  5
A5C1
330
A4D6
100
AcDbEntity
  8
5
  6
PHANTOM
100
AcDbLine
 10
123.851656
 20
242.785281
 30
0.0
 11
123.8016559999999
 21
242.785281
 31
0.0
  0
LINE
  5
A5C2
330
A4D6
100
AcDbEntity
  8
5
  6
PHANTOM
100
AcDbLine
 10
136.201656
 20
236.785281
 30
0.0
 11
136.201656
 21
244.785281
 31
0.0
  0
LINE
  5
A5C3
330
A4D6
100
AcDbEntity
  8
5
  6
PHANTOM
100
AcDbLine
 10
136.151656
 20
238.785281
 30
0.0
 11
136.151656
 21
242.785281
 31
0.0
  0
LINE
  5
A5C4
330
A4D6
100
AcDbEntity
  8
5
  6
PHANTOM
100
AcDbLine
 10
136.151656
 20
242.785281
 30
0.0
 11
136.201656
 21
242.785281
 31
0.0
  0
LINE
  5
A5C5
330
A4D6
100
AcDbEntity
  8
5
  6
PHANTOM
100
AcDbLine
 10
132.237627
 20
57.305916
 30
0.0
 11
123.837627
 21
57.305916
 31
0.0
  0
LINE
  5
A5C6
330
A4D6
100
AcDbEntity
  8
5
  6
PHANTOM
100
AcDbLine
 10
132.237627
 20
65.305916
 30
0.0
 11
123.837627
 21
65.305916
 31
0.0
  0
LINE
  5
A5C7
330
A4D6
100
AcDbEntity
  8
5
  6
PHANTOM
100
AcDbLine
 10
123.887627
 20
63.305916
 30
0.0
 11
123.837627
 21
63.305916
 31
0.0
  0
LINE
  5
A5C8
330
A4D6
100
AcDbEntity
  8
5
  6
PHANTOM
100
AcDbLine
 10
123.887627
 20
59.305916
 30
0.0
 11
123.887627
 21
63.305916
 31
0.0
  0
LINE
  5
A5C9
330
A4D6
100
AcDbEntity
  8
5
  6
PHANTOM
100
AcDbLine
 10
123.837627
 20
57.305916
 30
0.0
 11
123.837627
 21
65.305916
 31
0.0
  0
LINE
  5
A5CA
330
A4D6
100
AcDbEntity
  8
5
  6
PHANTOM
100
AcDbLine
 10
136.151656
 20
238.785281
 30
0.0
 11
136.201656
 21
238.785281
 31
0.0
  0
LINE
  5
A5CB
330
A4D6
100
AcDbEntity
  8
5
  6
PHANTOM
100
AcDbLine
 10
40.35711699999999
 20
153.0482889999998
 30
0.0
 11
40.35711699999999
 21
140.6482889999997
 31
0.0
  0
LINE
  5
A5CC
330
A4D6
100
AcDbEntity
  8
5
  6
PHANTOM
100
AcDbLine
 10
32.35711699999999
 20
153.0482889999998
 30
0.0
 11
32.35711699999999
 21
140.6482889999997
 31
0.0
  0
LINE
  5
A5CD
330
A4D6
100
AcDbEntity
  8
5
  6
PHANTOM
100
AcDbLine
 10
34.35711699999998
 20
140.6982889999999
 30
0.0
 11
34.35711699999998
 21
140.6482889999997
 31
0.0
  0
LINE
  5
A5CE
330
A4D6
100
AcDbEntity
  8
5
  6
PHANTOM
100
AcDbLine
 10
40.35711699999999
 20
140.6482889999997
 30
0.0
 11
32.35711699999999
 21
140.6482889999997
 31
0.0
  0
LINE
  5
A5CF
330
A4D6
100
AcDbEntity
  8
5
  6
PHANTOM
100
AcDbLine
 10
38.35711699999999
 20
140.6982889999999
 30
0.0
 11
34.35711699999998
 21
140.6982889999999
 31
0.0
  0
LINE
  5
A5D0
330
A4D6
100
AcDbEntity
  8
5
  6
PHANTOM
100
AcDbLine
 10
34.35711699999998
 20
152.998289
 30
0.0
 11
34.35711699999998
 21
153.0482889999998
 31
0.0
  0
LINE
  5
A5D1
330
A4D6
100
AcDbEntity
  8
5
  6
PHANTOM
100
AcDbLine
 10
40.35711699999999
 20
153.0482889999998
 30
0.0
 11
32.35711699999999
 21
153.0482889999998
 31
0.0
  0
LINE
  5
A5D2
330
A4D6
100
AcDbEntity
  8
5
  6
PHANTOM
100
AcDbLine
 10
38.35711699999999
 20
152.998289
 30
0.0
 11
34.35711699999998
 21
152.998289
 31
0.0
  0
LINE
  5
A5D3
330
A4D6
100
AcDbEntity
  8
5
  6
PHANTOM
100
AcDbLine
 10
38.35711699999999
 20
140.6982889999999
 30
0.0
 11
38.35711699999999
 21
140.6482889999997
 31
0.0
  0
LINE
  5
A5D4
330
A4D6
100
AcDbEntity
  8
5
  6
PHANTOM
100
AcDbLine
 10
123.851656
 20
238.785281
 30
0.0
 11
123.8016559999999
 21
238.785281
 31
0.0
  0
LINE
  5
A5D5
330
A4D6
100
AcDbEntity
  8
5
  6
PHANTOM
100
AcDbLine
 10
38.35711699999999
 20
152.998289
 30
0.0
 11
38.35711699999999
 21
153.0482889999998
 31
0.0
  0
LINE
  5
A5D6
330
A4D6
100
AcDbEntity
  8
5
  6
PHANTOM
100
AcDbLine
 10
311.44621
 20
152.9982599999999
 30
0.0
 11
311.44621
 21
153.04826
 31
0.0
  0
LINE
  5
A5D7
330
A4D6
100
AcDbEntity
  8
5
  6
PHANTOM
100
AcDbLine
 10
123.887627
 20
59.305916
 30
0.0
 11
123.837627
 21
59.305916
 31
0.0
  0
LINE
  5
A5D8
330
A4D6
100
AcDbEntity
  8
1
  6
Continuous
100
AcDbLine
 10
119.751656
 20
242.785281
 30
0.0
 11
118.251656
 21
242.785281
 31
0.0
  0
LINE
  5
A5D9
330
A4D6
100
AcDbEntity
  8
1
  6
Continuous
100
AcDbLine
 10
119.751656
 20
238.785281
 30
0.0
 11
118.251656
 21
238.785281
 31
0.0
  0
LINE
  5
A5DA
330
A4D6
100
AcDbEntity
  8
1
  6
Continuous
100
AcDbLine
 10
119.751656
 20
238.785281
 30
0.0
 11
119.751656
 21
242.785281
 31
0.0
  0
LINE
  5
A5DB
330
A4D6
100
AcDbEntity
  8
1
  6
Continuous
100
AcDbLine
 10
118.251656
 20
238.785281
 30
0.0
 11
118.251656
 21
242.785281
 31
0.0
  0
LINE
  5
A5DC
330
A4D6
100
AcDbEntity
  8
1
  6
Continuous
100
AcDbLine
 10
115.751656
 20
238.785281
 30
0.0
 11
115.751656
 21
242.785281
 31
0.0
  0
LINE
  5
A5DD
330
A4D6
100
AcDbEntity
  8
1
  6
Continuous
100
AcDbLine
 10
117.251656
 20
238.785281
 30
0.0
 11
117.251656
 21
242.785281
 31
0.0
  0
LINE
  5
A5DE
330
A4D6
100
AcDbEntity
  8
1
  6
Continuous
100
AcDbLine
 10
117.251656
 20
238.785281
 30
0.0
 11
115.751656
 21
238.785281
 31
0.0
  0
LINE
  5
A5DF
330
A4D6
100
AcDbEntity
  8
1
  6
Continuous
100
AcDbLine
 10
117.251656
 20
242.785281
 30
0.0
 11
115.751656
 21
242.785281
 31
0.0
  0
LINE
  5
A5E0
330
A4D6
100
AcDbEntity
  8
1
  6
Continuous
100
AcDbLine
 10
112.751656
 20
242.785281
 30
0.0
 11
114.251656
 21
242.785281
 31
0.0
  0
LINE
  5
A5E1
330
A4D6
100
AcDbEntity
  8
1
  6
Continuous
100
AcDbLine
 10
112.751656
 20
238.785281
 30
0.0
 11
114.251656
 21
238.785281
 31
0.0
  0
LINE
  5
A5E2
330
A4D6
100
AcDbEntity
  8
1
  6
Continuous
100
AcDbLine
 10
112.751656
 20
238.785281
 30
0.0
 11
112.751656
 21
242.785281
 31
0.0
  0
LINE
  5
A5E3
330
A4D6
100
AcDbEntity
  8
1
  6
Continuous
100
AcDbLine
 10
114.251656
 20
238.785281
 30
0.0
 11
114.251656
 21
242.785281
 31
0.0
  0
LINE
  5
A5E4
330
A4D6
100
AcDbEntity
  8
1
  6
Continuous
100
AcDbLine
 10
111.751656
 20
238.785281
 30
0.0
 11
111.751656
 21
242.785281
 31
0.0
  0
LINE
  5
A5E5
330
A4D6
100
AcDbEntity
  8
1
  6
Continuous
100
AcDbLine
 10
110.251656
 20
238.785281
 30
0.0
 11
110.251656
 21
242.785281
 31
0.0
  0
LINE
  5
A5E6
330
A4D6
100
AcDbEntity
  8
1
  6
Continuous
100
AcDbLine
 10
110.251656
 20
238.785281
 30
0.0
 11
111.751656
 21
238.785281
 31
0.0
  0
LINE
  5
A5E7
330
A4D6
100
AcDbEntity
  8
1
  6
Continuous
100
AcDbLine
 10
110.251656
 20
242.785281
 30
0.0
 11
111.751656
 21
242.785281
 31
0.0
  0
LINE
  5
A5E8
330
A4D6
100
AcDbEntity
  8
1
  6
Continuous
100
AcDbLine
 10
106.351656
 20
242.785281
 30
0.0
 11
104.851656
 21
242.785281
 31
0.0
  0
LINE
  5
A5E9
330
A4D6
100
AcDbEntity
  8
1
  6
Continuous
100
AcDbLine
 10
103.4516559999999
 20
242.785281
 30
0.0
 11
101.951656
 21
242.785281
 31
0.0
  0
LINE
  5
A5EA
330
A4D6
100
AcDbEntity
  8
1
  6
Continuous
100
AcDbLine
 10
100.951656
 20
242.785281
 30
0.0
 11
99.45165600000001
 21
242.785281
 31
0.0
  0
LINE
  5
A5EB
330
A4D6
100
AcDbEntity
  8
1
  6
Continuous
100
AcDbLine
 10
107.751656
 20
242.785281
 30
0.0
 11
109.251656
 21
242.785281
 31
0.0
  0
LINE
  5
A5EC
330
A4D6
100
AcDbEntity
  8
1
  6
Continuous
100
AcDbLine
 10
106.351656
 20
238.785281
 30
0.0
 11
104.851656
 21
238.785281
 31
0.0
  0
LINE
  5
A5ED
330
A4D6
100
AcDbEntity
  8
1
  6
Continuous
100
AcDbLine
 10
103.4516559999999
 20
238.785281
 30
0.0
 11
101.951656
 21
238.785281
 31
0.0
  0
LINE
  5
A5EE
330
A4D6
100
AcDbEntity
  8
1
  6
Continuous
100
AcDbLine
 10
100.951656
 20
238.785281
 30
0.0
 11
99.45165600000001
 21
238.785281
 31
0.0
  0
LINE
  5
A5EF
330
A4D6
100
AcDbEntity
  8
1
  6
Continuous
100
AcDbLine
 10
107.751656
 20
238.785281
 30
0.0
 11
109.251656
 21
238.785281
 31
0.0
  0
LINE
  5
A5F0
330
A4D6
100
AcDbEntity
  8
1
  6
Continuous
100
AcDbLine
 10
104.851656
 20
238.785281
 30
0.0
 11
104.851656
 21
242.785281
 31
0.0
  0
LINE
  5
A5F1
330
A4D6
100
AcDbEntity
  8
1
  6
Continuous
100
AcDbLine
 10
106.351656
 20
238.785281
 30
0.0
 11
106.351656
 21
242.785281
 31
0.0
  0
LINE
  5
A5F2
330
A4D6
100
AcDbEntity
  8
1
  6
Continuous
100
AcDbLine
 10
101.951656
 20
238.785281
 30
0.0
 11
101.951656
 21
242.785281
 31
0.0
  0
LINE
  5
A5F3
330
A4D6
100
AcDbEntity
  8
1
  6
Continuous
100
AcDbLine
 10
103.4516559999999
 20
238.785281
 30
0.0
 11
103.4516559999999
 21
242.785281
 31
0.0
  0
LINE
  5
A5F4
330
A4D6
100
AcDbEntity
  8
1
  6
Continuous
100
AcDbLine
 10
100.951656
 20
238.785281
 30
0.0
 11
100.951656
 21
242.785281
 31
0.0
  0
LINE
  5
A5F5
330
A4D6
100
AcDbEntity
  8
1
  6
Continuous
100
AcDbLine
 10
99.45165600000001
 20
238.785281
 30
0.0
 11
99.45165600000001
 21
242.785281
 31
0.0
  0
LINE
  5
A5F6
330
A4D6
100
AcDbEntity
  8
1
  6
Continuous
100
AcDbLine
 10
107.751656
 20
238.785281
 30
0.0
 11
107.751656
 21
242.785281
 31
0.0
  0
LINE
  5
A5F7
330
A4D6
100
AcDbEntity
  8
1
  6
Continuous
100
AcDbLine
 10
109.251656
 20
238.785281
 30
0.0
 11
109.251656
 21
242.785281
 31
0.0
  0
LINE
  5
A5F8
330
A4D6
100
AcDbEntity
  8
1
  6
Continuous
100
AcDbLine
 10
98.35165600000001
 20
242.785281
 30
0.0
 11
96.85165600000001
 21
242.785281
 31
0.0
  0
LINE
  5
A5F9
330
A4D6
100
AcDbEntity
  8
1
  6
Continuous
100
AcDbLine
 10
95.75165600000001
 20
242.785281
 30
0.0
 11
94.25165599999999
 21
242.785281
 31
0.0
  0
LINE
  5
A5FA
330
A4D6
100
AcDbEntity
  8
1
  6
Continuous
100
AcDbLine
 10
98.35165600000001
 20
238.785281
 30
0.0
 11
96.85165600000001
 21
238.785281
 31
0.0
  0
LINE
  5
A5FB
330
A4D6
100
AcDbEntity
  8
1
  6
Continuous
100
AcDbLine
 10
95.75165600000001
 20
238.785281
 30
0.0
 11
94.25165599999999
 21
238.785281
 31
0.0
  0
LINE
  5
A5FC
330
A4D6
100
AcDbEntity
  8
1
  6
Continuous
100
AcDbLine
 10
96.85165600000001
 20
238.785281
 30
0.0
 11
96.85165600000001
 21
242.785281
 31
0.0
  0
LINE
  5
A5FD
330
A4D6
100
AcDbEntity
  8
1
  6
Continuous
100
AcDbLine
 10
98.35165600000001
 20
238.785281
 30
0.0
 11
98.35165600000001
 21
242.785281
 31
0.0
  0
LINE
  5
A5FE
330
A4D6
100
AcDbEntity
  8
1
  6
Continuous
100
AcDbLine
 10
95.75165600000001
 20
238.785281
 30
0.0
 11
95.75165600000001
 21
242.785281
 31
0.0
  0
LINE
  5
A5FF
330
A4D6
100
AcDbEntity
  8
1
  6
Continuous
100
AcDbLine
 10
94.25165599999999
 20
238.785281
 30
0.0
 11
94.25165599999999
 21
242.785281
 31
0.0
  0
LINE
  5
A600
330
A4D6
100
AcDbEntity
  8
1
  6
Continuous
100
AcDbLine
 10
313.4461959999998
 20
183.048301
 30
0.0
 11
313.4461959999998
 21
142.8483009999998
 31
0.0
  0
LINE
  5
A601
330
A4D6
100
AcDbEntity
  8
1
  6
Continuous
100
AcDbLine
 10
305.4461959999998
 20
183.048301
 30
0.0
 11
305.4461959999998
 21
142.8483009999998
 31
0.0
  0
LINE
  5
A602
330
A4D6
100
AcDbEntity
  8
1
  6
Continuous
100
AcDbLine
 10
313.4461959999998
 20
142.8483009999998
 30
0.0
 11
310.696196
 21
142.8483009999998
 31
0.0
  0
LINE
  5
A603
330
A4D6
100
AcDbEntity
  8
1
  6
Continuous
100
AcDbLine
 10
311.4461959999998
 20
156.0983009999999
 30
0.0
 11
307.4461959999998
 21
156.0983009999999
 31
0.0
  0
LINE
  5
A604
330
A4D6
100
AcDbEntity
  8
1
  6
Continuous
100
AcDbLine
 10
311.4461959999998
 20
154.598301
 30
0.0
 11
307.4461959999998
 21
154.598301
 31
0.0
  0
LINE
  5
A605
330
A4D6
100
AcDbEntity
  8
1
  6
Continuous
100
AcDbLine
 10
311.4461959999998
 20
148.798301
 30
0.0
 11
307.4461959999998
 21
148.798301
 31
0.0
  0
LINE
  5
A606
330
A4D6
100
AcDbEntity
  8
1
  6
Continuous
100
AcDbLine
 10
311.4461959999998
 20
153.1983009999999
 30
0.0
 11
307.4461959999998
 21
153.1983009999999
 31
0.0
  0
LINE
  5
A607
330
A4D6
100
AcDbEntity
  8
1
  6
Continuous
100
AcDbLine
 10
311.4461959999998
 20
151.6983009999999
 30
0.0
 11
307.4461959999998
 21
151.6983009999999
 31
0.0
  0
LINE
  5
A608
330
A4D6
100
AcDbEntity
  8
1
  6
Continuous
100
AcDbLine
 10
311.4461959999998
 20
154.598301
 30
0.0
 11
311.4461959999998
 21
156.0983009999999
 31
0.0
  0
LINE
  5
A609
330
A4D6
100
AcDbEntity
  8
1
  6
Continuous
100
AcDbLine
 10
311.4461959999998
 20
153.1983009999999
 30
0.0
 11
311.4461959999998
 21
148.798301
 31
0.0
  0
LINE
  5
A60A
330
A4D6
100
AcDbEntity
  8
1
  6
Continuous
100
AcDbLine
 10
307.4461959999998
 20
154.598301
 30
0.0
 11
307.4461959999998
 21
156.0983009999999
 31
0.0
  0
LINE
  5
A60B
330
A4D6
100
AcDbEntity
  8
1
  6
Continuous
100
AcDbLine
 10
307.4461959999998
 20
153.1983009999999
 30
0.0
 11
307.4461959999998
 21
148.798301
 31
0.0
  0
LINE
  5
A60C
330
A4D6
100
AcDbEntity
  8
1
  6
Continuous
100
AcDbLine
 10
307.4461959999998
 20
157.0983009999999
 30
0.0
 11
307.4461959999998
 21
158.5983009999999
 31
0.0
  0
LINE
  5
A60D
330
A4D6
100
AcDbEntity
  8
1
  6
Continuous
100
AcDbLine
 10
311.4461959999998
 20
157.0983009999999
 30
0.0
 11
311.4461959999998
 21
158.5983009999999
 31
0.0
  0
LINE
  5
A60E
330
A4D6
100
AcDbEntity
  8
1
  6
Continuous
100
AcDbLine
 10
311.4461959999998
 20
157.0983009999999
 30
0.0
 11
307.4461959999998
 21
157.0983009999999
 31
0.0
  0
LINE
  5
A60F
330
A4D6
100
AcDbEntity
  8
1
  6
Continuous
100
AcDbLine
 10
311.4461959999998
 20
158.5983009999999
 30
0.0
 11
307.4461959999998
 21
158.5983009999999
 31
0.0
  0
LINE
  5
A610
330
A4D6
100
AcDbEntity
  8
1
  6
Continuous
100
AcDbLine
 10
311.4461959999998
 20
161.0983009999999
 30
0.0
 11
307.4461959999998
 21
161.0983009999999
 31
0.0
  0
LINE
  5
A611
330
A4D6
100
AcDbEntity
  8
1
  6
Continuous
100
AcDbLine
 10
311.4461959999998
 20
159.5983009999999
 30
0.0
 11
307.4461959999998
 21
159.5983009999999
 31
0.0
  0
LINE
  5
A612
330
A4D6
100
AcDbEntity
  8
1
  6
Continuous
100
AcDbLine
 10
311.4461959999998
 20
159.5983009999999
 30
0.0
 11
311.4461959999998
 21
161.0983009999999
 31
0.0
  0
LINE
  5
A613
330
A4D6
100
AcDbEntity
  8
1
  6
Continuous
100
AcDbLine
 10
307.4461959999998
 20
159.5983009999999
 30
0.0
 11
307.4461959999998
 21
161.0983009999999
 31
0.0
  0
LINE
  5
A614
330
A4D6
100
AcDbEntity
  8
1
  6
Continuous
100
AcDbLine
 10
313.4461959999998
 20
183.048301
 30
0.0
 11
305.4461959999998
 21
183.048301
 31
0.0
  0
LINE
  5
A615
330
A4D6
100
AcDbEntity
  8
1
  6
Continuous
100
AcDbLine
 10
307.4461959999998
 20
164.098301
 30
0.0
 11
307.4461959999998
 21
162.5983009999998
 31
0.0
  0
LINE
  5
A616
330
A4D6
100
AcDbEntity
  8
1
  6
Continuous
100
AcDbLine
 10
311.4461959999998
 20
164.098301
 30
0.0
 11
311.4461959999998
 21
162.5983009999998
 31
0.0
  0
LINE
  5
A617
330
A4D6
100
AcDbEntity
  8
1
  6
Continuous
100
AcDbLine
 10
311.4461959999998
 20
164.098301
 30
0.0
 11
307.4461959999998
 21
164.098301
 31
0.0
  0
LINE
  5
A618
330
A4D6
100
AcDbEntity
  8
1
  6
Continuous
100
AcDbLine
 10
311.4461959999998
 20
162.5983009999998
 30
0.0
 11
307.4461959999998
 21
162.5983009999998
 31
0.0
  0
LINE
  5
A619
330
A4D6
100
AcDbEntity
  8
1
  6
Continuous
100
AcDbLine
 10
311.4461959999998
 20
165.098301
 30
0.0
 11
307.4461959999998
 21
165.098301
 31
0.0
  0
LINE
  5
A61A
330
A4D6
100
AcDbEntity
  8
1
  6
Continuous
100
AcDbLine
 10
311.4461959999998
 20
166.5983009999998
 30
0.0
 11
307.4461959999998
 21
166.5983009999998
 31
0.0
  0
LINE
  5
A61B
330
A4D6
100
AcDbEntity
  8
1
  6
Continuous
100
AcDbLine
 10
311.4461959999998
 20
166.5983009999998
 30
0.0
 11
311.4461959999998
 21
165.098301
 31
0.0
  0
LINE
  5
A61C
330
A4D6
100
AcDbEntity
  8
1
  6
Continuous
100
AcDbLine
 10
307.4461959999998
 20
166.5983009999998
 30
0.0
 11
307.4461959999998
 21
165.098301
 31
0.0
  0
LINE
  5
A61D
330
A4D6
100
AcDbEntity
  8
1
  6
Continuous
100
AcDbLine
 10
307.4461959999998
 20
169.098301
 30
0.0
 11
307.4461959999998
 21
167.5983009999999
 31
0.0
  0
LINE
  5
A61E
330
A4D6
100
AcDbEntity
  8
1
  6
Continuous
100
AcDbLine
 10
311.4461959999998
 20
169.098301
 30
0.0
 11
311.4461959999998
 21
167.5983009999999
 31
0.0
  0
LINE
  5
A61F
330
A4D6
100
AcDbEntity
  8
1
  6
Continuous
100
AcDbLine
 10
311.4461959999998
 20
167.5983009999999
 30
0.0
 11
307.4461959999998
 21
167.5983009999999
 31
0.0
  0
LINE
  5
A620
330
A4D6
100
AcDbEntity
  8
1
  6
Continuous
100
AcDbLine
 10
311.4461959999998
 20
169.098301
 30
0.0
 11
307.4461959999998
 21
169.098301
 31
0.0
  0
LINE
  5
A621
330
A4D6
100
AcDbEntity
  8
1
  6
Continuous
100
AcDbLine
 10
307.4461959999998
 20
175.898301
 30
0.0
 11
307.4461959999998
 21
177.398301
 31
0.0
  0
LINE
  5
A622
330
A4D6
100
AcDbEntity
  8
1
  6
Continuous
100
AcDbLine
 10
311.4461959999998
 20
175.898301
 30
0.0
 11
311.4461959999998
 21
177.398301
 31
0.0
  0
LINE
  5
A623
330
A4D6
100
AcDbEntity
  8
1
  6
Continuous
100
AcDbLine
 10
311.4461959999998
 20
177.398301
 30
0.0
 11
307.4461959999998
 21
177.398301
 31
0.0
  0
LINE
  5
A624
330
A4D6
100
AcDbEntity
  8
1
  6
Continuous
100
AcDbLine
 10
311.4461959999998
 20
175.898301
 30
0.0
 11
307.4461959999998
 21
175.898301
 31
0.0
  0
LINE
  5
A625
330
A4D6
100
AcDbEntity
  8
1
  6
Continuous
100
AcDbLine
 10
311.4461959999998
 20
173.398301
 30
0.0
 11
311.4461959999998
 21
174.898301
 31
0.0
  0
LINE
  5
A626
330
A4D6
100
AcDbEntity
  8
1
  6
Continuous
100
AcDbLine
 10
311.4461959999998
 20
173.398301
 30
0.0
 11
307.4461959999998
 21
173.398301
 31
0.0
  0
LINE
  5
A627
330
A4D6
100
AcDbEntity
  8
1
  6
Continuous
100
AcDbLine
 10
307.4461959999998
 20
173.398301
 30
0.0
 11
307.4461959999998
 21
174.898301
 31
0.0
  0
LINE
  5
A628
330
A4D6
100
AcDbEntity
  8
1
  6
Continuous
100
AcDbLine
 10
311.4461959999998
 20
174.898301
 30
0.0
 11
307.4461959999998
 21
174.898301
 31
0.0
  0
LINE
  5
A629
330
A4D6
100
AcDbEntity
  8
1
  6
Continuous
100
AcDbLine
 10
311.4461959999998
 20
170.498301
 30
0.0
 11
311.4461959999998
 21
171.9983009999999
 31
0.0
  0
LINE
  5
A62A
330
A4D6
100
AcDbEntity
  8
1
  6
Continuous
100
AcDbLine
 10
307.4461959999998
 20
170.498301
 30
0.0
 11
307.4461959999998
 21
171.9983009999999
 31
0.0
  0
LINE
  5
A62B
330
A4D6
100
AcDbEntity
  8
1
  6
Continuous
100
AcDbLine
 10
311.4461959999998
 20
170.498301
 30
0.0
 11
307.4461959999998
 21
170.498301
 31
0.0
  0
LINE
  5
A62C
330
A4D6
100
AcDbEntity
  8
1
  6
Continuous
100
AcDbLine
 10
311.4461959999998
 20
171.9983009999999
 30
0.0
 11
307.4461959999998
 21
171.9983009999999
 31
0.0
  0
LINE
  5
A62D
330
A4D6
100
AcDbEntity
  8
1
  6
Continuous
100
AcDbLine
 10
307.4461959999998
 20
182.998301
 30
0.0
 11
307.4461959999998
 21
183.048301
 31
0.0
  0
LINE
  5
A62E
330
A4D6
100
AcDbEntity
  8
1
  6
Continuous
100
AcDbLine
 10
311.4461959999998
 20
182.998301
 30
0.0
 11
311.4461959999998
 21
183.048301
 31
0.0
  0
LINE
  5
A62F
330
A4D6
100
AcDbEntity
  8
1
  6
Continuous
100
AcDbLine
 10
311.4461959999998
 20
182.998301
 30
0.0
 11
307.4461959999998
 21
182.998301
 31
0.0
  0
LINE
  5
A630
330
A4D6
100
AcDbEntity
  8
1
  6
Continuous
100
AcDbLine
 10
311.4461959999998
 20
181.0983009999999
 30
0.0
 11
311.4461959999998
 21
182.5983009999999
 31
0.0
  0
LINE
  5
A631
330
A4D6
100
AcDbEntity
  8
1
  6
Continuous
100
AcDbLine
 10
307.4461959999998
 20
181.0983009999999
 30
0.0
 11
307.4461959999998
 21
182.5983009999999
 31
0.0
  0
LINE
  5
A632
330
A4D6
100
AcDbEntity
  8
1
  6
Continuous
100
AcDbLine
 10
311.4461959999998
 20
182.5983009999999
 30
0.0
 11
307.4461959999998
 21
182.5983009999999
 31
0.0
  0
LINE
  5
A633
330
A4D6
100
AcDbEntity
  8
1
  6
Continuous
100
AcDbLine
 10
311.4461959999998
 20
181.0983009999999
 30
0.0
 11
307.4461959999998
 21
181.0983009999999
 31
0.0
  0
LINE
  5
A634
330
A4D6
100
AcDbEntity
  8
1
  6
Continuous
100
AcDbLine
 10
311.4461959999998
 20
178.4983009999999
 30
0.0
 11
311.4461959999998
 21
179.998301
 31
0.0
  0
LINE
  5
A635
330
A4D6
100
AcDbEntity
  8
1
  6
Continuous
100
AcDbLine
 10
307.4461959999998
 20
178.4983009999999
 30
0.0
 11
307.4461959999998
 21
179.998301
 31
0.0
  0
LINE
  5
A636
330
A4D6
100
AcDbEntity
  8
1
  6
Continuous
100
AcDbLine
 10
311.4461959999998
 20
178.4983009999999
 30
0.0
 11
307.4461959999998
 21
178.4983009999999
 31
0.0
  0
LINE
  5
A637
330
A4D6
100
AcDbEntity
  8
1
  6
Continuous
100
AcDbLine
 10
311.4461959999998
 20
179.998301
 30
0.0
 11
307.4461959999998
 21
179.998301
 31
0.0
  0
LINE
  5
A638
330
A4D6
100
AcDbEntity
  8
1
  6
Continuous
100
AcDbLine
 10
110.287627
 20
63.305916
 30
0.0
 11
111.787627
 21
63.305916
 31
0.0
  0
LINE
  5
A639
330
A4D6
100
AcDbEntity
  8
1
  6
Continuous
100
AcDbLine
 10
110.287627
 20
59.305916
 30
0.0
 11
111.787627
 21
59.305916
 31
0.0
  0
LINE
  5
A63A
330
A4D6
100
AcDbEntity
  8
1
  6
Continuous
100
AcDbLine
 10
132.237627
 20
57.305916
 30
0.0
 11
93.837627
 21
57.305916
 31
0.0
  0
LINE
  5
A63B
330
A4D6
100
AcDbEntity
  8
1
  6
Continuous
100
AcDbLine
 10
132.237627
 20
65.305916
 30
0.0
 11
93.837627
 21
65.305916
 31
0.0
  0
LINE
  5
A63C
330
A4D6
100
AcDbEntity
  8
1
  6
Continuous
100
AcDbLine
 10
95.787627
 20
59.305916
 30
0.0
 11
94.287627
 21
59.305916
 31
0.0
  0
LINE
  5
A63D
330
A4D6
100
AcDbEntity
  8
1
  6
Continuous
100
AcDbLine
 10
95.787627
 20
63.305916
 30
0.0
 11
94.287627
 21
63.305916
 31
0.0
  0
LINE
  5
A63E
330
A4D6
100
AcDbEntity
  8
1
  6
Continuous
100
AcDbLine
 10
93.837627
 20
57.305916
 30
0.0
 11
93.837627
 21
65.305916
 31
0.0
  0
LINE
  5
A63F
330
A4D6
100
AcDbEntity
  8
1
  6
Continuous
100
AcDbLine
 10
94.287627
 20
59.305916
 30
0.0
 11
94.287627
 21
63.305916
 31
0.0
  0
LINE
  5
A640
330
A4D6
100
AcDbEntity
  8
1
  6
Continuous
100
AcDbLine
 10
93.88762699999999
 20
59.305916
 30
0.0
 11
93.837627
 21
59.305916
 31
0.0
  0
LINE
  5
A641
330
A4D6
100
AcDbEntity
  8
1
  6
Continuous
100
AcDbLine
 10
93.88762699999999
 20
63.305916
 30
0.0
 11
93.837627
 21
63.305916
 31
0.0
  0
LINE
  5
A642
330
A4D6
100
AcDbEntity
  8
1
  6
Continuous
100
AcDbLine
 10
93.88762699999999
 20
59.305916
 30
0.0
 11
93.88762699999999
 21
63.305916
 31
0.0
  0
LINE
  5
A643
330
A4D6
100
AcDbEntity
  8
1
  6
Continuous
100
AcDbLine
 10
109.287627
 20
59.305916
 30
0.0
 11
109.287627
 21
63.305916
 31
0.0
  0
LINE
  5
A644
330
A4D6
100
AcDbEntity
  8
1
  6
Continuous
100
AcDbLine
 10
107.7876269999999
 20
59.305916
 30
0.0
 11
107.7876269999999
 21
63.305916
 31
0.0
  0
LINE
  5
A645
330
A4D6
100
AcDbEntity
  8
1
  6
Continuous
100
AcDbLine
 10
106.3876269999999
 20
59.305916
 30
0.0
 11
106.3876269999999
 21
63.305916
 31
0.0
  0
LINE
  5
A646
330
A4D6
100
AcDbEntity
  8
1
  6
Continuous
100
AcDbLine
 10
107.7876269999999
 20
59.305916
 30
0.0
 11
109.287627
 21
59.305916
 31
0.0
  0
LINE
  5
A647
330
A4D6
100
AcDbEntity
  8
1
  6
Continuous
100
AcDbLine
 10
107.7876269999999
 20
63.305916
 30
0.0
 11
109.287627
 21
63.305916
 31
0.0
  0
LINE
  5
A648
330
A4D6
100
AcDbEntity
  8
1
  6
Continuous
100
AcDbLine
 10
110.287627
 20
59.305916
 30
0.0
 11
110.287627
 21
63.305916
 31
0.0
  0
LINE
  5
A649
330
A4D6
100
AcDbEntity
  8
1
  6
Continuous
100
AcDbLine
 10
95.787627
 20
59.305916
 30
0.0
 11
95.787627
 21
63.305916
 31
0.0
  0
LINE
  5
A64A
330
A4D6
100
AcDbEntity
  8
1
  6
Continuous
100
AcDbLine
 10
98.387627
 20
59.305916
 30
0.0
 11
98.387627
 21
63.305916
 31
0.0
  0
LINE
  5
A64B
330
A4D6
100
AcDbEntity
  8
1
  6
Continuous
100
AcDbLine
 10
96.88762699999999
 20
59.305916
 30
0.0
 11
96.88762699999999
 21
63.305916
 31
0.0
  0
LINE
  5
A64C
330
A4D6
100
AcDbEntity
  8
1
  6
Continuous
100
AcDbLine
 10
98.387627
 20
59.305916
 30
0.0
 11
96.88762699999999
 21
59.305916
 31
0.0
  0
LINE
  5
A64D
330
A4D6
100
AcDbEntity
  8
1
  6
Continuous
100
AcDbLine
 10
98.387627
 20
63.305916
 30
0.0
 11
96.88762699999999
 21
63.305916
 31
0.0
  0
LINE
  5
A64E
330
A4D6
100
AcDbEntity
  8
1
  6
Continuous
100
AcDbLine
 10
99.48762700000001
 20
59.305916
 30
0.0
 11
99.48762700000001
 21
63.305916
 31
0.0
  0
LINE
  5
A64F
330
A4D6
100
AcDbEntity
  8
1
  6
Continuous
100
AcDbLine
 10
100.987627
 20
59.305916
 30
0.0
 11
100.987627
 21
63.305916
 31
0.0
  0
LINE
  5
A650
330
A4D6
100
AcDbEntity
  8
1
  6
Continuous
100
AcDbLine
 10
103.487627
 20
59.305916
 30
0.0
 11
103.487627
 21
63.305916
 31
0.0
  0
LINE
  5
A651
330
A4D6
100
AcDbEntity
  8
1
  6
Continuous
100
AcDbLine
 10
101.987627
 20
59.305916
 30
0.0
 11
101.987627
 21
63.305916
 31
0.0
  0
LINE
  5
A652
330
A4D6
100
AcDbEntity
  8
1
  6
Continuous
100
AcDbLine
 10
104.887627
 20
59.305916
 30
0.0
 11
104.887627
 21
63.305916
 31
0.0
  0
LINE
  5
A653
330
A4D6
100
AcDbEntity
  8
1
  6
Continuous
100
AcDbLine
 10
100.987627
 20
59.305916
 30
0.0
 11
99.48762700000001
 21
59.305916
 31
0.0
  0
LINE
  5
A654
330
A4D6
100
AcDbEntity
  8
1
  6
Continuous
100
AcDbLine
 10
103.487627
 20
59.305916
 30
0.0
 11
101.987627
 21
59.305916
 31
0.0
  0
LINE
  5
A655
330
A4D6
100
AcDbEntity
  8
1
  6
Continuous
100
AcDbLine
 10
100.987627
 20
63.305916
 30
0.0
 11
99.48762700000001
 21
63.305916
 31
0.0
  0
LINE
  5
A656
330
A4D6
100
AcDbEntity
  8
1
  6
Continuous
100
AcDbLine
 10
103.487627
 20
63.305916
 30
0.0
 11
101.987627
 21
63.305916
 31
0.0
  0
LINE
  5
A657
330
A4D6
100
AcDbEntity
  8
1
  6
Continuous
100
AcDbLine
 10
106.3876269999999
 20
59.305916
 30
0.0
 11
104.887627
 21
59.305916
 31
0.0
  0
LINE
  5
A658
330
A4D6
100
AcDbEntity
  8
1
  6
Continuous
100
AcDbLine
 10
106.3876269999999
 20
63.305916
 30
0.0
 11
104.887627
 21
63.305916
 31
0.0
  0
LINE
  5
A659
330
A4D6
100
AcDbEntity
  8
1
  6
Continuous
100
AcDbLine
 10
122.2876269999999
 20
59.305916
 30
0.0
 11
122.2876269999999
 21
63.305916
 31
0.0
  0
LINE
  5
A65A
330
A4D6
100
AcDbEntity
  8
1
  6
Continuous
100
AcDbLine
 10
123.6876269999999
 20
59.305916
 30
0.0
 11
125.187627
 21
59.305916
 31
0.0
  0
LINE
  5
A65B
330
A4D6
100
AcDbEntity
  8
1
  6
Continuous
100
AcDbLine
 10
123.6876269999999
 20
63.305916
 30
0.0
 11
125.187627
 21
63.305916
 31
0.0
  0
LINE
  5
A65C
330
A4D6
100
AcDbEntity
  8
1
  6
Continuous
100
AcDbLine
 10
123.6876269999999
 20
59.305916
 30
0.0
 11
123.6876269999999
 21
63.305916
 31
0.0
  0
LINE
  5
A65D
330
A4D6
100
AcDbEntity
  8
1
  6
Continuous
100
AcDbLine
 10
125.187627
 20
59.305916
 30
0.0
 11
125.187627
 21
63.305916
 31
0.0
  0
LINE
  5
A65E
330
A4D6
100
AcDbEntity
  8
1
  6
Continuous
100
AcDbLine
 10
111.787627
 20
59.305916
 30
0.0
 11
111.787627
 21
63.305916
 31
0.0
  0
LINE
  5
A65F
330
A4D6
100
AcDbEntity
  8
1
  6
Continuous
100
AcDbLine
 10
114.287627
 20
59.305916
 30
0.0
 11
114.287627
 21
63.305916
 31
0.0
  0
LINE
  5
A660
330
A4D6
100
AcDbEntity
  8
1
  6
Continuous
100
AcDbLine
 10
112.787627
 20
59.305916
 30
0.0
 11
112.787627
 21
63.305916
 31
0.0
  0
LINE
  5
A661
330
A4D6
100
AcDbEntity
  8
1
  6
Continuous
100
AcDbLine
 10
112.787627
 20
59.305916
 30
0.0
 11
114.287627
 21
59.305916
 31
0.0
  0
LINE
  5
A662
330
A4D6
100
AcDbEntity
  8
1
  6
Continuous
100
AcDbLine
 10
112.787627
 20
63.305916
 30
0.0
 11
114.287627
 21
63.305916
 31
0.0
  0
LINE
  5
A663
330
A4D6
100
AcDbEntity
  8
1
  6
Continuous
100
AcDbLine
 10
117.2876269999999
 20
63.305916
 30
0.0
 11
115.787627
 21
63.305916
 31
0.0
  0
LINE
  5
A664
330
A4D6
100
AcDbEntity
  8
1
  6
Continuous
100
AcDbLine
 10
117.2876269999999
 20
59.305916
 30
0.0
 11
115.787627
 21
59.305916
 31
0.0
  0
LINE
  5
A665
330
A4D6
100
AcDbEntity
  8
1
  6
Continuous
100
AcDbLine
 10
117.2876269999999
 20
59.305916
 30
0.0
 11
117.2876269999999
 21
63.305916
 31
0.0
  0
LINE
  5
A666
330
A4D6
100
AcDbEntity
  8
1
  6
Continuous
100
AcDbLine
 10
115.787627
 20
59.305916
 30
0.0
 11
115.787627
 21
63.305916
 31
0.0
  0
LINE
  5
A667
330
A4D6
100
AcDbEntity
  8
1
  6
Continuous
100
AcDbLine
 10
118.2876269999999
 20
59.305916
 30
0.0
 11
118.2876269999999
 21
63.305916
 31
0.0
  0
LINE
  5
A668
330
A4D6
100
AcDbEntity
  8
1
  6
Continuous
100
AcDbLine
 10
119.787627
 20
59.305916
 30
0.0
 11
119.787627
 21
63.305916
 31
0.0
  0
LINE
  5
A669
330
A4D6
100
AcDbEntity
  8
1
  6
Continuous
100
AcDbLine
 10
119.787627
 20
59.305916
 30
0.0
 11
118.2876269999999
 21
59.305916
 31
0.0
  0
LINE
  5
A66A
330
A4D6
100
AcDbEntity
  8
1
  6
Continuous
100
AcDbLine
 10
119.787627
 20
63.305916
 30
0.0
 11
118.2876269999999
 21
63.305916
 31
0.0
  0
LINE
  5
A66B
330
A4D6
100
AcDbEntity
  8
1
  6
Continuous
100
AcDbLine
 10
120.787627
 20
59.305916
 30
0.0
 11
120.787627
 21
63.305916
 31
0.0
  0
LINE
  5
A66C
330
A4D6
100
AcDbEntity
  8
1
  6
Continuous
100
AcDbLine
 10
122.2876269999999
 20
63.305916
 30
0.0
 11
120.787627
 21
63.305916
 31
0.0
  0
LINE
  5
A66D
330
A4D6
100
AcDbEntity
  8
1
  6
Continuous
100
AcDbLine
 10
122.2876269999999
 20
59.305916
 30
0.0
 11
120.787627
 21
59.305916
 31
0.0
  0
LINE
  5
A66E
330
A4D6
100
AcDbEntity
  8
1
  6
Continuous
100
AcDbLine
 10
129.087627
 20
63.305916
 30
0.0
 11
130.5876269999999
 21
63.305916
 31
0.0
  0
LINE
  5
A66F
330
A4D6
100
AcDbEntity
  8
1
  6
Continuous
100
AcDbLine
 10
129.087627
 20
59.305916
 30
0.0
 11
130.5876269999999
 21
59.305916
 31
0.0
  0
LINE
  5
A670
330
A4D6
100
AcDbEntity
  8
1
  6
Continuous
100
AcDbLine
 10
130.5876269999999
 20
59.305916
 30
0.0
 11
130.5876269999999
 21
63.305916
 31
0.0
  0
LINE
  5
A671
330
A4D6
100
AcDbEntity
  8
1
  6
Continuous
100
AcDbLine
 10
129.087627
 20
59.305916
 30
0.0
 11
129.087627
 21
63.305916
 31
0.0
  0
LINE
  5
A672
330
A4D6
100
AcDbEntity
  8
1
  6
Continuous
100
AcDbLine
 10
126.5876269999999
 20
59.305916
 30
0.0
 11
128.087627
 21
59.305916
 31
0.0
  0
LINE
  5
A673
330
A4D6
100
AcDbEntity
  8
1
  6
Continuous
100
AcDbLine
 10
126.5876269999999
 20
59.305916
 30
0.0
 11
126.5876269999999
 21
63.305916
 31
0.0
  0
LINE
  5
A674
330
A4D6
100
AcDbEntity
  8
1
  6
Continuous
100
AcDbLine
 10
126.5876269999999
 20
63.305916
 30
0.0
 11
128.087627
 21
63.305916
 31
0.0
  0
LINE
  5
A675
330
A4D6
100
AcDbEntity
  8
1
  6
Continuous
100
AcDbLine
 10
128.087627
 20
59.305916
 30
0.0
 11
128.087627
 21
63.305916
 31
0.0
  0
LINE
  5
A676
330
A4D6
100
AcDbEntity
  8
1
  6
Continuous
100
AcDbLine
 10
131.6876269999999
 20
59.305916
 30
0.0
 11
132.237627
 21
59.305916
 31
0.0
  0
LINE
  5
A677
330
A4D6
100
AcDbEntity
  8
1
  6
Continuous
100
AcDbLine
 10
131.6876269999999
 20
63.305916
 30
0.0
 11
132.237627
 21
63.305916
 31
0.0
  0
LINE
  5
A678
330
A4D6
100
AcDbEntity
  8
1
  6
Continuous
100
AcDbLine
 10
131.6876269999999
 20
59.305916
 30
0.0
 11
131.6876269999999
 21
63.305916
 31
0.0
  0
LINE
  5
A679
330
A4D6
100
AcDbEntity
  8
4
  6
CENTER
100
AcDbLine
 10
254.787656
 20
61.305916
 30
0.0
 11
88.837627
 21
61.305916
 31
0.0
  0
LINE
  5
A67A
330
A4D6
100
AcDbEntity
  8
1
  6
Continuous
100
AcDbLine
 10
40.35711699999999
 20
183.048301
 30
0.0
 11
40.35711699999999
 21
140.648301
 31
0.0
  0
LINE
  5
A67B
330
A4D6
100
AcDbEntity
  8
1
  6
Continuous
100
AcDbLine
 10
32.35711699999999
 20
183.048301
 30
0.0
 11
32.35711699999999
 21
140.648301
 31
0.0
  0
LINE
  5
A67C
330
A4D6
100
AcDbEntity
  8
1
  6
Continuous
100
AcDbLine
 10
38.35711699999999
 20
142.5983009999999
 30
0.0
 11
38.35711699999999
 21
141.0983009999999
 31
0.0
  0
LINE
  5
A67D
330
A4D6
100
AcDbEntity
  8
1
  6
Continuous
100
AcDbLine
 10
34.35711699999998
 20
142.5983009999999
 30
0.0
 11
34.35711699999998
 21
141.0983009999999
 31
0.0
  0
LINE
  5
A67E
330
A4D6
100
AcDbEntity
  8
1
  6
Continuous
100
AcDbLine
 10
40.35711699999999
 20
140.648301
 30
0.0
 11
32.35711699999999
 21
140.648301
 31
0.0
  0
LINE
  5
A67F
330
A4D6
100
AcDbEntity
  8
1
  6
Continuous
100
AcDbLine
 10
38.35711699999999
 20
141.0983009999999
 30
0.0
 11
34.35711699999998
 21
141.0983009999999
 31
0.0
  0
LINE
  5
A680
330
A4D6
100
AcDbEntity
  8
1
  6
Continuous
100
AcDbLine
 10
38.35711699999999
 20
140.6983009999999
 30
0.0
 11
38.35711699999999
 21
140.648301
 31
0.0
  0
LINE
  5
A681
330
A4D6
100
AcDbEntity
  8
1
  6
Continuous
100
AcDbLine
 10
34.35711699999998
 20
140.6983009999999
 30
0.0
 11
34.35711699999998
 21
140.648301
 31
0.0
  0
LINE
  5
A682
330
A4D6
100
AcDbEntity
  8
1
  6
Continuous
100
AcDbLine
 10
38.35711699999999
 20
140.6983009999999
 30
0.0
 11
34.35711699999998
 21
140.6983009999999
 31
0.0
  0
LINE
  5
A683
330
A4D6
100
AcDbEntity
  8
1
  6
Continuous
100
AcDbLine
 10
38.35711699999999
 20
142.5983009999999
 30
0.0
 11
34.35711699999998
 21
142.5983009999999
 31
0.0
  0
LINE
  5
A684
330
A4D6
100
AcDbEntity
  8
1
  6
Continuous
100
AcDbLine
 10
34.35711699999998
 20
164.098301
 30
0.0
 11
34.35711699999998
 21
162.5983009999998
 31
0.0
  0
LINE
  5
A685
330
A4D6
100
AcDbEntity
  8
1
  6
Continuous
100
AcDbLine
 10
38.35711699999999
 20
164.098301
 30
0.0
 11
38.35711699999999
 21
162.5983009999998
 31
0.0
  0
LINE
  5
A686
330
A4D6
100
AcDbEntity
  8
1
  6
Continuous
100
AcDbLine
 10
38.35711699999999
 20
164.098301
 30
0.0
 11
34.35711699999998
 21
164.098301
 31
0.0
  0
LINE
  5
A687
330
A4D6
100
AcDbEntity
  8
1
  6
Continuous
100
AcDbLine
 10
38.35711699999999
 20
162.5983009999998
 30
0.0
 11
34.35711699999998
 21
162.5983009999998
 31
0.0
  0
LINE
  5
A688
330
A4D6
100
AcDbEntity
  8
1
  6
Continuous
100
AcDbLine
 10
34.35711699999998
 20
157.0983009999999
 30
0.0
 11
34.35711699999998
 21
158.5983009999999
 31
0.0
  0
LINE
  5
A689
330
A4D6
100
AcDbEntity
  8
1
  6
Continuous
100
AcDbLine
 10
38.35711699999999
 20
157.0983009999999
 30
0.0
 11
38.35711699999999
 21
158.5983009999999
 31
0.0
  0
LINE
  5
A68A
330
A4D6
100
AcDbEntity
  8
1
  6
Continuous
100
AcDbLine
 10
38.35711699999999
 20
156.0983009999999
 30
0.0
 11
34.35711699999998
 21
156.0983009999999
 31
0.0
  0
LINE
  5
A68B
330
A4D6
100
AcDbEntity
  8
1
  6
Continuous
100
AcDbLine
 10
38.35711699999999
 20
154.598301
 30
0.0
 11
34.35711699999998
 21
154.598301
 31
0.0
  0
LINE
  5
A68C
330
A4D6
100
AcDbEntity
  8
1
  6
Continuous
100
AcDbLine
 10
38.35711699999999
 20
153.1983009999999
 30
0.0
 11
34.35711699999998
 21
153.1983009999999
 31
0.0
  0
LINE
  5
A68D
330
A4D6
100
AcDbEntity
  8
1
  6
Continuous
100
AcDbLine
 10
38.35711699999999
 20
154.598301
 30
0.0
 11
38.35711699999999
 21
156.0983009999999
 31
0.0
  0
LINE
  5
A68E
330
A4D6
100
AcDbEntity
  8
1
  6
Continuous
100
AcDbLine
 10
34.35711699999998
 20
154.598301
 30
0.0
 11
34.35711699999998
 21
156.0983009999999
 31
0.0
  0
LINE
  5
A68F
330
A4D6
100
AcDbEntity
  8
1
  6
Continuous
100
AcDbLine
 10
38.35711699999999
 20
157.0983009999999
 30
0.0
 11
34.35711699999998
 21
157.0983009999999
 31
0.0
  0
LINE
  5
A690
330
A4D6
100
AcDbEntity
  8
1
  6
Continuous
100
AcDbLine
 10
38.35711699999999
 20
145.198301
 30
0.0
 11
34.35711699999998
 21
145.198301
 31
0.0
  0
LINE
  5
A691
330
A4D6
100
AcDbEntity
  8
1
  6
Continuous
100
AcDbLine
 10
38.35711699999999
 20
143.6983009999999
 30
0.0
 11
34.35711699999998
 21
143.6983009999999
 31
0.0
  0
LINE
  5
A692
330
A4D6
100
AcDbEntity
  8
1
  6
Continuous
100
AcDbLine
 10
38.35711699999999
 20
145.198301
 30
0.0
 11
38.35711699999999
 21
143.6983009999999
 31
0.0
  0
LINE
  5
A693
330
A4D6
100
AcDbEntity
  8
1
  6
Continuous
100
AcDbLine
 10
34.35711699999998
 20
145.198301
 30
0.0
 11
34.35711699999998
 21
143.6983009999999
 31
0.0
  0
LINE
  5
A694
330
A4D6
100
AcDbEntity
  8
1
  6
Continuous
100
AcDbLine
 10
38.35711699999999
 20
146.298301
 30
0.0
 11
34.35711699999998
 21
146.298301
 31
0.0
  0
LINE
  5
A695
330
A4D6
100
AcDbEntity
  8
1
  6
Continuous
100
AcDbLine
 10
38.35711699999999
 20
147.798301
 30
0.0
 11
34.35711699999998
 21
147.798301
 31
0.0
  0
LINE
  5
A696
330
A4D6
100
AcDbEntity
  8
1
  6
Continuous
100
AcDbLine
 10
38.35711699999999
 20
150.298301
 30
0.0
 11
34.35711699999998
 21
150.298301
 31
0.0
  0
LINE
  5
A697
330
A4D6
100
AcDbEntity
  8
1
  6
Continuous
100
AcDbLine
 10
38.35711699999999
 20
148.798301
 30
0.0
 11
34.35711699999998
 21
148.798301
 31
0.0
  0
LINE
  5
A698
330
A4D6
100
AcDbEntity
  8
1
  6
Continuous
100
AcDbLine
 10
38.35711699999999
 20
151.6983009999999
 30
0.0
 11
34.35711699999998
 21
151.6983009999999
 31
0.0
  0
LINE
  5
A699
330
A4D6
100
AcDbEntity
  8
1
  6
Continuous
100
AcDbLine
 10
38.35711699999999
 20
147.798301
 30
0.0
 11
38.35711699999999
 21
146.298301
 31
0.0
  0
LINE
  5
A69A
330
A4D6
100
AcDbEntity
  8
1
  6
Continuous
100
AcDbLine
 10
38.35711699999999
 20
150.298301
 30
0.0
 11
38.35711699999999
 21
148.798301
 31
0.0
  0
LINE
  5
A69B
330
A4D6
100
AcDbEntity
  8
1
  6
Continuous
100
AcDbLine
 10
34.35711699999998
 20
147.798301
 30
0.0
 11
34.35711699999998
 21
146.298301
 31
0.0
  0
LINE
  5
A69C
330
A4D6
100
AcDbEntity
  8
1
  6
Continuous
100
AcDbLine
 10
34.35711699999998
 20
150.298301
 30
0.0
 11
34.35711699999998
 21
148.798301
 31
0.0
  0
LINE
  5
A69D
330
A4D6
100
AcDbEntity
  8
1
  6
Continuous
100
AcDbLine
 10
38.35711699999999
 20
153.1983009999999
 30
0.0
 11
38.35711699999999
 21
151.6983009999999
 31
0.0
  0
LINE
  5
A69E
330
A4D6
100
AcDbEntity
  8
1
  6
Continuous
100
AcDbLine
 10
34.35711699999998
 20
153.1983009999999
 30
0.0
 11
34.35711699999998
 21
151.6983009999999
 31
0.0
  0
LINE
  5
A69F
330
A4D6
100
AcDbEntity
  8
1
  6
Continuous
100
AcDbLine
 10
38.35711699999999
 20
158.5983009999999
 30
0.0
 11
34.35711699999998
 21
158.5983009999999
 31
0.0
  0
LINE
  5
A6A0
330
A4D6
100
AcDbEntity
  8
1
  6
Continuous
100
AcDbLine
 10
38.35711699999999
 20
161.0983009999999
 30
0.0
 11
34.35711699999998
 21
161.0983009999999
 31
0.0
  0
LINE
  5
A6A1
330
A4D6
100
AcDbEntity
  8
1
  6
Continuous
100
AcDbLine
 10
38.35711699999999
 20
159.5983009999999
 30
0.0
 11
34.35711699999998
 21
159.5983009999999
 31
0.0
  0
LINE
  5
A6A2
330
A4D6
100
AcDbEntity
  8
1
  6
Continuous
100
AcDbLine
 10
38.35711699999999
 20
159.5983009999999
 30
0.0
 11
38.35711699999999
 21
161.0983009999999
 31
0.0
  0
LINE
  5
A6A3
330
A4D6
100
AcDbEntity
  8
1
  6
Continuous
100
AcDbLine
 10
34.35711699999998
 20
159.5983009999999
 30
0.0
 11
34.35711699999998
 21
161.0983009999999
 31
0.0
  0
LINE
  5
A6A4
330
A4D6
100
AcDbEntity
  8
1
  6
Continuous
100
AcDbLine
 10
38.35711699999999
 20
169.098301
 30
0.0
 11
34.35711699999998
 21
169.098301
 31
0.0
  0
LINE
  5
A6A5
330
A4D6
100
AcDbEntity
  8
1
  6
Continuous
100
AcDbLine
 10
38.35711699999999
 20
170.498301
 30
0.0
 11
38.35711699999999
 21
171.9983009999999
 31
0.0
  0
LINE
  5
A6A6
330
A4D6
100
AcDbEntity
  8
1
  6
Continuous
100
AcDbLine
 10
34.35711699999998
 20
170.498301
 30
0.0
 11
34.35711699999998
 21
171.9983009999999
 31
0.0
  0
LINE
  5
A6A7
330
A4D6
100
AcDbEntity
  8
1
  6
Continuous
100
AcDbLine
 10
38.35711699999999
 20
170.498301
 30
0.0
 11
34.35711699999998
 21
170.498301
 31
0.0
  0
LINE
  5
A6A8
330
A4D6
100
AcDbEntity
  8
1
  6
Continuous
100
AcDbLine
 10
38.35711699999999
 20
171.9983009999999
 30
0.0
 11
34.35711699999998
 21
171.9983009999999
 31
0.0
  0
LINE
  5
A6A9
330
A4D6
100
AcDbEntity
  8
1
  6
Continuous
100
AcDbLine
 10
38.35711699999999
 20
165.098301
 30
0.0
 11
34.35711699999998
 21
165.098301
 31
0.0
  0
LINE
  5
A6AA
330
A4D6
100
AcDbEntity
  8
1
  6
Continuous
100
AcDbLine
 10
38.35711699999999
 20
166.5983009999998
 30
0.0
 11
34.35711699999998
 21
166.5983009999998
 31
0.0
  0
LINE
  5
A6AB
330
A4D6
100
AcDbEntity
  8
1
  6
Continuous
100
AcDbLine
 10
38.35711699999999
 20
166.5983009999998
 30
0.0
 11
38.35711699999999
 21
165.098301
 31
0.0
  0
LINE
  5
A6AC
330
A4D6
100
AcDbEntity
  8
1
  6
Continuous
100
AcDbLine
 10
34.35711699999998
 20
166.5983009999998
 30
0.0
 11
34.35711699999998
 21
165.098301
 31
0.0
  0
LINE
  5
A6AD
330
A4D6
100
AcDbEntity
  8
1
  6
Continuous
100
AcDbLine
 10
38.35711699999999
 20
167.5983009999999
 30
0.0
 11
34.35711699999998
 21
167.5983009999999
 31
0.0
  0
LINE
  5
A6AE
330
A4D6
100
AcDbEntity
  8
1
  6
Continuous
100
AcDbLine
 10
34.35711699999998
 20
169.098301
 30
0.0
 11
34.35711699999998
 21
167.5983009999999
 31
0.0
  0
LINE
  5
A6AF
330
A4D6
100
AcDbEntity
  8
1
  6
Continuous
100
AcDbLine
 10
38.35711699999999
 20
169.098301
 30
0.0
 11
38.35711699999999
 21
167.5983009999999
 31
0.0
  0
LINE
  5
A6B0
330
A4D6
100
AcDbEntity
  8
1
  6
Continuous
100
AcDbLine
 10
40.35711699999999
 20
183.048301
 30
0.0
 11
32.35711699999999
 21
183.048301
 31
0.0
  0
LINE
  5
A6B1
330
A4D6
100
AcDbEntity
  8
1
  6
Continuous
100
AcDbLine
 10
34.35711699999998
 20
175.898301
 30
0.0
 11
34.35711699999998
 21
177.398301
 31
0.0
  0
LINE
  5
A6B2
330
A4D6
100
AcDbEntity
  8
1
  6
Continuous
100
AcDbLine
 10
38.35711699999999
 20
175.898301
 30
0.0
 11
38.35711699999999
 21
177.398301
 31
0.0
  0
LINE
  5
A6B3
330
A4D6
100
AcDbEntity
  8
1
  6
Continuous
100
AcDbLine
 10
38.35711699999999
 20
177.398301
 30
0.0
 11
34.35711699999998
 21
177.398301
 31
0.0
  0
LINE
  5
A6B4
330
A4D6
100
AcDbEntity
  8
1
  6
Continuous
100
AcDbLine
 10
38.35711699999999
 20
175.898301
 30
0.0
 11
34.35711699999998
 21
175.898301
 31
0.0
  0
LINE
  5
A6B5
330
A4D6
100
AcDbEntity
  8
1
  6
Continuous
100
AcDbLine
 10
38.35711699999999
 20
173.398301
 30
0.0
 11
38.35711699999999
 21
174.898301
 31
0.0
  0
LINE
  5
A6B6
330
A4D6
100
AcDbEntity
  8
1
  6
Continuous
100
AcDbLine
 10
38.35711699999999
 20
173.398301
 30
0.0
 11
34.35711699999998
 21
173.398301
 31
0.0
  0
LINE
  5
A6B7
330
A4D6
100
AcDbEntity
  8
1
  6
Continuous
100
AcDbLine
 10
34.35711699999998
 20
173.398301
 30
0.0
 11
34.35711699999998
 21
174.898301
 31
0.0
  0
LINE
  5
A6B8
330
A4D6
100
AcDbEntity
  8
1
  6
Continuous
100
AcDbLine
 10
38.35711699999999
 20
174.898301
 30
0.0
 11
34.35711699999998
 21
174.898301
 31
0.0
  0
LINE
  5
A6B9
330
A4D6
100
AcDbEntity
  8
1
  6
Continuous
100
AcDbLine
 10
34.35711699999998
 20
182.998301
 30
0.0
 11
34.35711699999998
 21
183.048301
 31
0.0
  0
LINE
  5
A6BA
330
A4D6
100
AcDbEntity
  8
1
  6
Continuous
100
AcDbLine
 10
38.35711699999999
 20
182.998301
 30
0.0
 11
38.35711699999999
 21
183.048301
 31
0.0
  0
LINE
  5
A6BB
330
A4D6
100
AcDbEntity
  8
1
  6
Continuous
100
AcDbLine
 10
38.35711699999999
 20
182.998301
 30
0.0
 11
34.35711699999998
 21
182.998301
 31
0.0
  0
LINE
  5
A6BC
330
A4D6
100
AcDbEntity
  8
1
  6
Continuous
100
AcDbLine
 10
38.35711699999999
 20
181.0983009999999
 30
0.0
 11
38.35711699999999
 21
182.5983009999999
 31
0.0
  0
LINE
  5
A6BD
330
A4D6
100
AcDbEntity
  8
1
  6
Continuous
100
AcDbLine
 10
34.35711699999998
 20
181.0983009999999
 30
0.0
 11
34.35711699999998
 21
182.5983009999999
 31
0.0
  0
LINE
  5
A6BE
330
A4D6
100
AcDbEntity
  8
1
  6
Continuous
100
AcDbLine
 10
38.35711699999999
 20
182.5983009999999
 30
0.0
 11
34.35711699999998
 21
182.5983009999999
 31
0.0
  0
LINE
  5
A6BF
330
A4D6
100
AcDbEntity
  8
1
  6
Continuous
100
AcDbLine
 10
38.35711699999999
 20
181.0983009999999
 30
0.0
 11
34.35711699999998
 21
181.0983009999999
 31
0.0
  0
LINE
  5
A6C0
330
A4D6
100
AcDbEntity
  8
1
  6
Continuous
100
AcDbLine
 10
38.35711699999999
 20
178.4983009999999
 30
0.0
 11
38.35711699999999
 21
179.998301
 31
0.0
  0
LINE
  5
A6C1
330
A4D6
100
AcDbEntity
  8
1
  6
Continuous
100
AcDbLine
 10
34.35711699999998
 20
178.4983009999999
 30
0.0
 11
34.35711699999998
 21
179.998301
 31
0.0
  0
LINE
  5
A6C2
330
A4D6
100
AcDbEntity
  8
1
  6
Continuous
100
AcDbLine
 10
38.35711699999999
 20
178.4983009999999
 30
0.0
 11
34.35711699999998
 21
178.4983009999999
 31
0.0
  0
LINE
  5
A6C3
330
A4D6
100
AcDbEntity
  8
1
  6
Continuous
100
AcDbLine
 10
38.35711699999999
 20
179.998301
 30
0.0
 11
34.35711699999998
 21
179.998301
 31
0.0
  0
LINE
  5
A6C4
330
A4D6
100
AcDbEntity
  8
1
  6
Continuous
100
AcDbLine
 10
310.696196
 20
146.0482889999999
 30
0.0
 11
308.196196
 21
146.0482889999999
 31
0.0
  0
LINE
  5
A6C5
330
A4D6
100
AcDbEntity
  8
1
  6
Continuous
100
AcDbLine
 10
310.696196
 20
144.348289
 30
0.0
 11
308.196196
 21
144.348289
 31
0.0
  0
LINE
  5
A6C6
330
A4D6
100
AcDbEntity
  8
1
  6
Continuous
100
AcDbLine
 10
308.196196
 20
146.0482889999999
 30
0.0
 11
308.196196
 21
142.8482889999999
 31
0.0
  0
LINE
  5
A6C7
330
A4D6
100
AcDbEntity
  8
1
  6
Continuous
100
AcDbLine
 10
310.696196
 20
146.0482889999999
 30
0.0
 11
310.696196
 21
142.8482889999999
 31
0.0
  0
LINE
  5
A6C8
330
A4D6
100
AcDbEntity
  8
4
  6
CENTER
100
AcDbLine
 10
141.201656
 20
146.8483009999999
 30
0.0
 11
118.8016559999999
 21
146.8483009999999
 31
0.0
  0
LINE
  5
A6C9
330
A4D6
100
AcDbEntity
  8
4
  6
CENTER
100
AcDbLine
 10
130.0016559999999
 20
158.048301
 30
0.0
 11
130.0016559999999
 21
135.648301
 31
0.0
  0
ARC
  5
A6CA
330
A4D6
100
AcDbEntity
  8
1
  6
Continuous
100
AcDbCircle
 10
306.446196
 20
131.4482889999998
 30
0.0
 40
0.5
100
AcDbArc
 50
90.0
 51
180.0
  0
LINE
  5
A6CB
330
A4D6
100
AcDbEntity
  8
1
  6
Continuous
100
AcDbLine
 10
304.7346569999999
 20
129.155981
 30
0.0
 11
307.830811
 21
121.725212
 31
0.0
  0
LINE
  5
A6CC
330
A4D6
100
AcDbEntity
  8
1
  6
Continuous
100
AcDbLine
 10
303.9462439999998
 20
134.7482889999998
 30
0.0
 11
307.9961959999998
 21
134.7482889999998
 31
0.0
  0
LINE
  5
A6CD
330
A4D6
100
AcDbEntity
  8
1
  6
Continuous
100
AcDbLine
 10
303.9462439999998
 20
133.7482889999998
 30
0.0
 11
314.9462439999999
 21
133.7482889999998
 31
0.0
  0
ARC
  5
A6CE
330
A4D6
100
AcDbEntity
  8
5
  6
PHANTOM
100
AcDbCircle
 10
309.4461959999998
 20
122.8351399999999
 30
0.0
 40
11.913149
100
AcDbArc
 50
63.307248
 51
116.692752
  0
ARC
  5
A6CF
330
A4D6
100
AcDbEntity
  8
5
  6
PHANTOM
100
AcDbCircle
 10
309.4461959999998
 20
122.321261
 30
0.0
 40
11.399271
100
AcDbArc
 50
63.307248
 51
116.692752
  0
LINE
  5
A6D0
330
A4D6
100
AcDbEntity
  8
1
  6
Continuous
100
AcDbLine
 10
305.1961959999998
 20
129.848289
 30
0.0
 11
305.946196
 21
129.848289
 31
0.0
  0
LINE
  5
A6D1
330
A4D6
100
AcDbEntity
  8
1
  6
Continuous
100
AcDbLine
 10
305.946196
 20
131.4482889999998
 30
0.0
 11
305.946196
 21
129.848289
 31
0.0
  0
ARC
  5
A6D2
330
A4D6
100
AcDbEntity
  8
1
  6
Continuous
100
AcDbCircle
 10
300.946244
 20
133.4482889999998
 30
0.0
 40
1.0
100
AcDbArc
 50
25.898322
 51
308.3739339999999
  0
LINE
  5
A6D3
330
A4D6
100
AcDbEntity
  8
1
  6
Continuous
100
AcDbLine
 10
303.9462439999998
 20
134.7482889999998
 30
0.0
 11
301.845815
 21
133.8850649999999
 31
0.0
  0
LINE
  5
A6D4
330
A4D6
100
AcDbEntity
  8
1
  6
Continuous
100
AcDbLine
 10
303.9462439999998
 20
133.7482889999998
 30
0.0
 11
301.5670349999999
 21
132.6643129999999
 31
0.0
  0
LINE
  5
A6D5
330
A4D6
100
AcDbEntity
  8
5
  6
PHANTOM
100
AcDbLine
 10
304.325575
 20
132.5056909999998
 30
0.0
 11
302.260845
 21
130.901781
 31
0.0
  0
LINE
  5
A6D6
330
A4D6
100
AcDbEntity
  8
5
  6
PHANTOM
100
AcDbLine
 10
304.0947379999999
 20
133.4786839999999
 30
0.0
 11
302.2502999999999
 21
132.1539149999999
 31
0.0
  0
ARC
  5
A6D7
330
A4D6
100
AcDbEntity
  8
5
  6
PHANTOM
100
AcDbCircle
 10
301.4758489999999
 20
131.521281
 30
0.0
 40
1.0
100
AcDbArc
 50
39.24469699999999
 51
321.7203099999999
  0
ARC
  5
A6D8
330
A4D6
100
AcDbEntity
  8
1
  6
Continuous
100
AcDbCircle
 10
305.1961959999998
 20
129.3482889999999
 30
0.0
 40
0.5
100
AcDbArc
 50
90.0
 51
202.6198649999999
  0
LINE
  5
A6D9
330
A4D6
100
AcDbEntity
  8
1
  6
Continuous
100
AcDbLine
 10
314.1577339999999
 20
129.155981
 30
0.0
 11
311.06158
 21
121.725212
 31
0.0
  0
LINE
  5
A6DA
330
A4D6
100
AcDbEntity
  8
1
  6
Continuous
100
AcDbLine
 10
308.496196
 20
133.248289
 30
0.0
 11
308.496196
 21
120.9285949999999
 31
0.0
  0
LINE
  5
A6DB
330
A4D6
100
AcDbEntity
  8
1
  6
Continuous
100
AcDbLine
 10
310.3961959999999
 20
133.248289
 30
0.0
 11
310.3961959999999
 21
120.9285949999999
 31
0.0
  0
ARC
  5
A6DC
330
A4D6
100
AcDbEntity
  8
1
  6
Continuous
100
AcDbCircle
 10
309.4461959999998
 20
122.398289
 30
0.0
 40
1.75
100
AcDbArc
 50
202.6198649999999
 51
337.3801349999999
  0
LINE
  5
A6DD
330
A4D6
100
AcDbEntity
  8
5
  6
PHANTOM
100
AcDbLine
 10
314.797654
 20
133.4786839999999
 30
0.0
 11
316.6420909999998
 21
132.1539149999999
 31
0.0
  0
LINE
  5
A6DE
330
A4D6
100
AcDbEntity
  8
5
  6
PHANTOM
100
AcDbLine
 10
314.566816
 20
132.5056909999998
 30
0.0
 11
316.631546
 21
130.901781
 31
0.0
  0
ARC
  5
A6DF
330
A4D6
100
AcDbEntity
  8
5
  6
PHANTOM
100
AcDbCircle
 10
317.416542
 20
131.521281
 30
0.0
 40
1.0
100
AcDbArc
 50
218.27969
 51
140.755303
  0
LINE
  5
A6E0
330
A4D6
100
AcDbEntity
  8
1
  6
Continuous
100
AcDbLine
 10
312.9461959999998
 20
129.848289
 30
0.0
 11
313.6961959999998
 21
129.848289
 31
0.0
  0
ARC
  5
A6E1
330
A4D6
100
AcDbEntity
  8
1
  6
Continuous
100
AcDbCircle
 10
307.9961959999998
 20
133.248289
 30
0.0
 40
0.5
100
AcDbArc
 50
0.0
 51
90.0
  0
ARC
  5
A6E2
330
A4D6
100
AcDbEntity
  8
1
  6
Continuous
100
AcDbCircle
 10
310.8961959999998
 20
133.248289
 30
0.0
 40
0.5
100
AcDbArc
 50
90.0
 51
180.0
  0
LINE
  5
A6E3
330
A4D6
100
AcDbEntity
  8
1
  6
Continuous
100
AcDbLine
 10
306.446196
 20
131.9482889999999
 30
0.0
 11
306.446196
 21
131.9482889999999
 31
0.0
  0
ARC
  5
A6E4
330
A4D6
100
AcDbEntity
  8
1
  6
Continuous
100
AcDbCircle
 10
306.446196
 20
131.4482889999998
 30
0.0
 40
0.5
100
AcDbArc
 50
0.0
 51
90.0
  0
ARC
  5
A6E5
330
A4D6
100
AcDbEntity
  8
1
  6
Continuous
100
AcDbCircle
 10
307.9961959999998
 20
125.7482889999999
 30
0.0
 40
0.5
100
AcDbArc
 50
202.6198649999999
 51
0.0
  0
ARC
  5
A6E6
330
A4D6
100
AcDbEntity
  8
1
  6
Continuous
100
AcDbCircle
 10
310.8961959999998
 20
125.7482889999999
 30
0.0
 40
0.5
100
AcDbArc
 50
180.0
 51
337.3801349999999
  0
LINE
  5
A6E7
330
A4D6
100
AcDbEntity
  8
1
  6
Continuous
100
AcDbLine
 10
306.9461959999998
 20
128.1682889999999
 30
0.0
 11
307.5346569999999
 21
125.555981
 31
0.0
  0
LINE
  5
A6E8
330
A4D6
100
AcDbEntity
  8
1
  6
Continuous
100
AcDbLine
 10
311.9461959999998
 20
128.1682889999999
 30
0.0
 11
311.3577339999999
 21
125.555981
 31
0.0
  0
LINE
  5
A6E9
330
A4D6
100
AcDbEntity
  8
1
  6
Continuous
100
AcDbLine
 10
306.9461959999998
 20
131.4482889999998
 30
0.0
 11
306.9461959999998
 21
128.1682889999999
 31
0.0
  0
LINE
  5
A6EA
330
A4D6
100
AcDbEntity
  8
1
  6
Continuous
100
AcDbLine
 10
311.9461959999998
 20
131.4482889999998
 30
0.0
 11
311.9461959999998
 21
128.1682889999999
 31
0.0
  0
LINE
  5
A6EB
330
A4D6
100
AcDbEntity
  8
1
  6
Continuous
100
AcDbLine
 10
312.446196
 20
131.9482889999999
 30
0.0
 11
312.446196
 21
131.9482889999999
 31
0.0
  0
ARC
  5
A6EC
330
A4D6
100
AcDbEntity
  8
1
  6
Continuous
100
AcDbCircle
 10
312.446196
 20
131.4482889999998
 30
0.0
 40
0.5
100
AcDbArc
 50
0.0
 51
90.0
  0
ARC
  5
A6ED
330
A4D6
100
AcDbEntity
  8
1
  6
Continuous
100
AcDbCircle
 10
313.6961959999998
 20
129.3482889999999
 30
0.0
 40
0.5
100
AcDbArc
 50
337.3801349999999
 51
90.0
  0
LINE
  5
A6EE
330
A4D6
100
AcDbEntity
  8
1
  6
Continuous
100
AcDbLine
 10
312.9461959999998
 20
131.4482889999998
 30
0.0
 11
312.9461959999998
 21
129.848289
 31
0.0
  0
ARC
  5
A6EF
330
A4D6
100
AcDbEntity
  8
1
  6
Continuous
100
AcDbCircle
 10
312.446196
 20
131.4482889999998
 30
0.0
 40
0.5
100
AcDbArc
 50
90.0
 51
180.0
  0
ARC
  5
A6F0
330
A4D6
100
AcDbEntity
  8
1
  6
Continuous
100
AcDbCircle
 10
317.946244
 20
133.4482889999998
 30
0.0
 40
1.0
100
AcDbArc
 50
231.626066
 51
154.1016779999999
  0
LINE
  5
A6F1
330
A4D6
100
AcDbEntity
  8
1
  6
Continuous
100
AcDbLine
 10
314.9462439999999
 20
133.7482889999998
 30
0.0
 11
317.3254529999999
 21
132.6643129999999
 31
0.0
  0
LINE
  5
A6F2
330
A4D6
100
AcDbEntity
  8
1
  6
Continuous
100
AcDbLine
 10
314.9462439999999
 20
134.7482889999998
 30
0.0
 11
317.046673
 21
133.8850649999999
 31
0.0
  0
LINE
  5
A6F3
330
A4D6
100
AcDbEntity
  8
1
  6
Continuous
100
AcDbLine
 10
310.8961959999998
 20
134.7482889999998
 30
0.0
 11
314.9462439999999
 21
134.7482889999998
 31
0.0
  0
LINE
  5
A6F4
330
A4D6
100
AcDbEntity
  8
1
  6
Continuous
100
AcDbLine
 10
38.85711699999998
 20
128.1682889999999
 30
0.0
 11
38.26865499999998
 21
125.555981
 31
0.0
  0
LINE
  5
A6F5
330
A4D6
100
AcDbEntity
  8
1
  6
Continuous
100
AcDbLine
 10
33.85711699999998
 20
128.1682889999999
 30
0.0
 11
34.44557800000001
 21
125.555981
 31
0.0
  0
LINE
  5
A6F6
330
A4D6
100
AcDbEntity
  8
1
  6
Continuous
100
AcDbLine
 10
37.307117
 20
133.248289
 30
0.0
 11
37.307117
 21
120.9285949999999
 31
0.0
  0
LINE
  5
A6F7
330
A4D6
100
AcDbEntity
  8
1
  6
Continuous
100
AcDbLine
 10
35.407117
 20
133.248289
 30
0.0
 11
35.407117
 21
120.9285949999999
 31
0.0
  0
LINE
  5
A6F8
330
A4D6
100
AcDbEntity
  8
1
  6
Continuous
100
AcDbLine
 10
41.068655
 20
129.155981
 30
0.0
 11
37.972501
 21
121.725212
 31
0.0
  0
LINE
  5
A6F9
330
A4D6
100
AcDbEntity
  8
1
  6
Continuous
100
AcDbLine
 10
31.64557800000001
 20
129.155981
 30
0.0
 11
34.741732
 21
121.725212
 31
0.0
  0
ARC
  5
A6FA
330
A4D6
100
AcDbEntity
  8
1
  6
Continuous
100
AcDbCircle
 10
36.35711699999998
 20
122.398289
 30
0.0
 40
1.75
100
AcDbArc
 50
202.6198649999999
 51
337.3801349999999
  0
ARC
  5
A6FB
330
A4D6
100
AcDbEntity
  8
1
  6
Continuous
100
AcDbCircle
 10
34.907117
 20
125.7482889999999
 30
0.0
 40
0.5
100
AcDbArc
 50
202.6198649999999
 51
0.0
  0
ARC
  5
A6FC
330
A4D6
100
AcDbEntity
  8
1
  6
Continuous
100
AcDbCircle
 10
37.80711699999999
 20
125.7482889999999
 30
0.0
 40
0.5
100
AcDbArc
 50
180.0
 51
337.3801349999999
  0
ARC
  5
A6FD
330
A4D6
100
AcDbEntity
  8
5
  6
PHANTOM
100
AcDbCircle
 10
36.35711699999998
 20
122.321261
 30
0.0
 40
11.399271
100
AcDbArc
 50
63.307248
 51
116.692752
  0
ARC
  5
A6FE
330
A4D6
100
AcDbEntity
  8
5
  6
PHANTOM
100
AcDbCircle
 10
36.35711699999998
 20
122.8351399999999
 30
0.0
 40
11.913149
100
AcDbArc
 50
63.307248
 51
116.692752
  0
LINE
  5
A6FF
330
A4D6
100
AcDbEntity
  8
1
  6
Continuous
100
AcDbLine
 10
30.857165
 20
133.7482889999998
 30
0.0
 11
41.857165
 21
133.7482889999998
 31
0.0
  0
LINE
  5
A700
330
A4D6
100
AcDbEntity
  8
1
  6
Continuous
100
AcDbLine
 10
33.85711699999998
 20
131.4482889999998
 30
0.0
 11
33.85711699999998
 21
128.1682889999999
 31
0.0
  0
ARC
  5
A701
330
A4D6
100
AcDbEntity
  8
1
  6
Continuous
100
AcDbCircle
 10
33.35711699999999
 20
131.4482889999998
 30
0.0
 40
0.5
100
AcDbArc
 50
0.0
 51
90.0
  0
LINE
  5
A702
330
A4D6
100
AcDbEntity
  8
1
  6
Continuous
100
AcDbLine
 10
33.35711699999999
 20
131.9482889999999
 30
0.0
 11
33.35711699999999
 21
131.9482889999999
 31
0.0
  0
ARC
  5
A703
330
A4D6
100
AcDbEntity
  8
1
  6
Continuous
100
AcDbCircle
 10
34.907117
 20
133.248289
 30
0.0
 40
0.5
100
AcDbArc
 50
0.0
 51
90.0
  0
ARC
  5
A704
330
A4D6
100
AcDbEntity
  8
1
  6
Continuous
100
AcDbCircle
 10
32.10711699999999
 20
129.3482889999999
 30
0.0
 40
0.5
100
AcDbArc
 50
90.0
 51
202.6198649999999
  0
ARC
  5
A705
330
A4D6
100
AcDbEntity
  8
5
  6
PHANTOM
100
AcDbCircle
 10
28.38677
 20
131.521281
 30
0.0
 40
1.0
100
AcDbArc
 50
39.24469699999999
 51
321.7203099999999
  0
LINE
  5
A706
330
A4D6
100
AcDbEntity
  8
5
  6
PHANTOM
100
AcDbLine
 10
31.005659
 20
133.4786839999999
 30
0.0
 11
29.161221
 21
132.1539149999999
 31
0.0
  0
LINE
  5
A707
330
A4D6
100
AcDbEntity
  8
5
  6
PHANTOM
100
AcDbLine
 10
31.236496
 20
132.5056909999998
 30
0.0
 11
29.17176599999999
 21
130.901781
 31
0.0
  0
LINE
  5
A708
330
A4D6
100
AcDbEntity
  8
1
  6
Continuous
100
AcDbLine
 10
30.857165
 20
133.7482889999998
 30
0.0
 11
28.47795599999999
 21
132.6643129999999
 31
0.0
  0
LINE
  5
A709
330
A4D6
100
AcDbEntity
  8
1
  6
Continuous
100
AcDbLine
 10
30.857165
 20
134.7482889999998
 30
0.0
 11
28.756736
 21
133.8850649999999
 31
0.0
  0
ARC
  5
A70A
330
A4D6
100
AcDbEntity
  8
1
  6
Continuous
100
AcDbCircle
 10
27.85716499999999
 20
133.4482889999998
 30
0.0
 40
1.0
100
AcDbArc
 50
25.898322
 51
308.3739339999999
  0
LINE
  5
A70B
330
A4D6
100
AcDbEntity
  8
1
  6
Continuous
100
AcDbLine
 10
32.85711699999998
 20
131.4482889999998
 30
0.0
 11
32.85711699999998
 21
129.848289
 31
0.0
  0
LINE
  5
A70C
330
A4D6
100
AcDbEntity
  8
1
  6
Continuous
100
AcDbLine
 10
32.10711699999999
 20
129.848289
 30
0.0
 11
32.85711699999998
 21
129.848289
 31
0.0
  0
LINE
  5
A70D
330
A4D6
100
AcDbEntity
  8
1
  6
Continuous
100
AcDbLine
 10
30.857165
 20
134.7482889999998
 30
0.0
 11
34.907117
 21
134.7482889999998
 31
0.0
  0
ARC
  5
A70E
330
A4D6
100
AcDbEntity
  8
1
  6
Continuous
100
AcDbCircle
 10
33.35711699999999
 20
131.4482889999998
 30
0.0
 40
0.5
100
AcDbArc
 50
90.0
 51
180.0
  0
LINE
  5
A70F
330
A4D6
100
AcDbEntity
  8
1
  6
Continuous
100
AcDbLine
 10
37.80711699999999
 20
134.7482889999998
 30
0.0
 11
41.857165
 21
134.7482889999998
 31
0.0
  0
LINE
  5
A710
330
A4D6
100
AcDbEntity
  8
1
  6
Continuous
100
AcDbLine
 10
41.857165
 20
134.7482889999998
 30
0.0
 11
43.957594
 21
133.8850649999999
 31
0.0
  0
LINE
  5
A711
330
A4D6
100
AcDbEntity
  8
1
  6
Continuous
100
AcDbLine
 10
41.857165
 20
133.7482889999998
 30
0.0
 11
44.23637399999999
 21
132.6643129999999
 31
0.0
  0
ARC
  5
A712
330
A4D6
100
AcDbEntity
  8
1
  6
Continuous
100
AcDbCircle
 10
44.857165
 20
133.4482889999998
 30
0.0
 40
1.0
100
AcDbArc
 50
231.626066
 51
154.1016779999999
  0
ARC
  5
A713
330
A4D6
100
AcDbEntity
  8
1
  6
Continuous
100
AcDbCircle
 10
39.35711699999997
 20
131.4482889999998
 30
0.0
 40
0.5
100
AcDbArc
 50
90.0
 51
180.0
  0
LINE
  5
A714
330
A4D6
100
AcDbEntity
  8
1
  6
Continuous
100
AcDbLine
 10
39.85711699999999
 20
131.4482889999998
 30
0.0
 11
39.85711699999999
 21
129.848289
 31
0.0
  0
ARC
  5
A715
330
A4D6
100
AcDbEntity
  8
1
  6
Continuous
100
AcDbCircle
 10
40.60711699999997
 20
129.3482889999999
 30
0.0
 40
0.5
100
AcDbArc
 50
337.3801349999999
 51
90.0
  0
ARC
  5
A716
330
A4D6
100
AcDbEntity
  8
1
  6
Continuous
100
AcDbCircle
 10
39.35711699999997
 20
131.4482889999998
 30
0.0
 40
0.5
100
AcDbArc
 50
0.0
 51
90.0
  0
LINE
  5
A717
330
A4D6
100
AcDbEntity
  8
1
  6
Continuous
100
AcDbLine
 10
39.35711699999997
 20
131.9482889999999
 30
0.0
 11
39.35711699999997
 21
131.9482889999999
 31
0.0
  0
LINE
  5
A718
330
A4D6
100
AcDbEntity
  8
1
  6
Continuous
100
AcDbLine
 10
38.85711699999998
 20
131.4482889999998
 30
0.0
 11
38.85711699999998
 21
128.1682889999999
 31
0.0
  0
ARC
  5
A719
330
A4D6
100
AcDbEntity
  8
1
  6
Continuous
100
AcDbCircle
 10
37.80711699999999
 20
133.248289
 30
0.0
 40
0.5
100
AcDbArc
 50
90.0
 51
180.0
  0
LINE
  5
A71A
330
A4D6
100
AcDbEntity
  8
1
  6
Continuous
100
AcDbLine
 10
39.85711699999999
 20
129.848289
 30
0.0
 11
40.60711699999997
 21
129.848289
 31
0.0
  0
ARC
  5
A71B
330
A4D6
100
AcDbEntity
  8
5
  6
PHANTOM
100
AcDbCircle
 10
44.327463
 20
131.521281
 30
0.0
 40
1.0
100
AcDbArc
 50
218.27969
 51
140.755303
  0
LINE
  5
A71C
330
A4D6
100
AcDbEntity
  8
5
  6
PHANTOM
100
AcDbLine
 10
41.477737
 20
132.5056909999998
 30
0.0
 11
43.542467
 21
130.901781
 31
0.0
  0
LINE
  5
A71D
330
A4D6
100
AcDbEntity
  8
5
  6
PHANTOM
100
AcDbLine
 10
41.708575
 20
133.4786839999999
 30
0.0
 11
43.553012
 21
132.1539149999999
 31
0.0
  0
ARC
  5
A71E
330
A4D6
100
AcDbEntity
  8
1
  6
Continuous
100
AcDbCircle
 10
37.80711699999999
 20
135.248289
 30
0.0
 40
0.5
100
AcDbArc
 50
180.0
 51
270.0
  0
ARC
  5
A71F
330
A4D6
100
AcDbEntity
  8
1
  6
Continuous
100
AcDbCircle
 10
34.907117
 20
135.248289
 30
0.0
 40
0.5
100
AcDbArc
 50
270.0
 51
0.0
  0
LINE
  5
A720
330
A4D6
100
AcDbEntity
  8
1
  6
Continuous
100
AcDbLine
 10
308.196196
 20
142.8482889999999
 30
0.0
 11
304.446196
 21
142.8482889999999
 31
0.0
  0
LINE
  5
A721
330
A4D6
100
AcDbEntity
  8
1
  6
Continuous
100
AcDbLine
 10
308.196196
 20
142.8483009999998
 30
0.0
 11
305.4461959999998
 21
142.8483009999998
 31
0.0
  0
LINE
  5
A722
330
A4D6
100
AcDbEntity
  8
1
  6
Continuous
100
AcDbLine
 10
38.10711699999997
 20
136.8482889999999
 30
0.0
 11
38.95711699999999
 21
136.8482889999999
 31
0.0
  0
LINE
  5
A723
330
A4D6
100
AcDbEntity
  8
4
  6
CENTER
100
AcDbLine
 10
45.35711699999999
 20
146.8483009999999
 30
0.0
 11
27.35711699999999
 21
146.8483009999999
 31
0.0
  0
LINE
  5
A724
330
A4D6
100
AcDbEntity
  8
4
  6
CENTER
100
AcDbLine
 10
318.446196
 20
162.048301
 30
0.0
 11
300.4461959999998
 21
162.048301
 31
0.0
  0
LINE
  5
A725
330
A4D6
100
AcDbEntity
  8
4
  6
CENTER
100
AcDbLine
 10
318.446196
 20
146.8483009999999
 30
0.0
 11
300.4461959999998
 21
146.8483009999999
 31
0.0
  0
LINE
  5
A726
330
A4D6
100
AcDbEntity
  8
1
  6
Continuous
100
AcDbLine
 10
134.701656
 20
131.9482889999999
 30
0.0
 11
137.701656
 21
131.9482889999999
 31
0.0
  0
LINE
  5
A727
330
A4D6
100
AcDbEntity
  8
1
  6
Continuous
100
AcDbLine
 10
132.201656
 20
132.4482889999998
 30
0.0
 11
142.201656
 21
132.4482889999998
 31
0.0
  0
LINE
  5
A728
330
A4D6
100
AcDbEntity
  8
1
  6
Continuous
100
AcDbLine
 10
132.201656
 20
134.4482889999998
 30
0.0
 11
142.201656
 21
134.4482889999998
 31
0.0
  0
LINE
  5
A729
330
A4D6
100
AcDbEntity
  8
1
  6
Continuous
100
AcDbLine
 10
132.201656
 20
134.7482889999998
 30
0.0
 11
142.201656
 21
134.7482889999998
 31
0.0
  0
ARC
  5
A72A
330
A4D6
100
AcDbEntity
  8
1
  6
Continuous
100
AcDbCircle
 10
137.201656
 20
121.648301
 30
0.0
 40
1.0
100
AcDbArc
 50
270.0
 51
0.0
  0
ARC
  5
A72B
330
A4D6
100
AcDbEntity
  8
1
  6
Continuous
100
AcDbCircle
 10
135.201656
 20
121.648301
 30
0.0
 40
1.0
100
AcDbArc
 50
180.0
 51
270.0
  0
LINE
  5
A72C
330
A4D6
100
AcDbEntity
  8
4
  6
CENTER
100
AcDbLine
 10
130.0016559999999
 20
70.305916
 30
0.0
 11
130.0016559999999
 21
52.305916
 31
0.0
  0
LINE
  5
A72D
330
A4D6
100
AcDbEntity
  8
4
  6
CENTER
100
AcDbLine
 10
130.0016559999999
 20
249.7852809999999
 30
0.0
 11
130.0016559999999
 21
231.785281
 31
0.0
  0
ARC
  5
A72E
330
A4D6
100
AcDbEntity
  8
1
  6
Continuous
100
AcDbCircle
 10
310.8961959999998
 20
135.248289
 30
0.0
 40
0.5
100
AcDbArc
 50
180.0
 51
270.0
  0
ARC
  5
A72F
330
A4D6
100
AcDbEntity
  8
1
  6
Continuous
100
AcDbCircle
 10
307.9961959999998
 20
135.248289
 30
0.0
 40
0.5
100
AcDbArc
 50
270.0
 51
0.0
  0
ARC
  5
A730
330
A4D6
100
AcDbEntity
  8
1
  6
Continuous
100
AcDbCircle
 10
115.001656
 20
161.848301
 30
0.0
 40
20.0
100
AcDbArc
 50
0.0
 51
270.2855339999999
  0
ARC
  5
A731
330
A4D6
100
AcDbEntity
  8
1
  6
Continuous
100
AcDbCircle
 10
115.001656
 20
161.848301
 30
0.0
 40
21.2
100
AcDbArc
 50
0.0
 51
270.0
  0
LINE
  5
A732
330
A4D6
100
AcDbEntity
  8
4
  6
CENTER
100
AcDbLine
 10
88.80165599999997
 20
161.848301
 30
0.0
 11
141.201656
 21
161.848301
 31
0.0
  0
LINE
  5
A733
330
A4D6
100
AcDbEntity
  8
4
  6
CENTER
100
AcDbLine
 10
115.001656
 20
135.648301
 30
0.0
 11
115.001656
 21
188.048301
 31
0.0
  0
LINE
  5
A734
330
A4D6
100
AcDbEntity
  8
4
  6
CENTER
100
AcDbLine
 10
115.001656
 20
249.7852809999999
 30
0.0
 11
115.001656
 21
231.785281
 31
0.0
  0
LINE
  5
A735
330
A4D6
100
AcDbEntity
  8
4
  6
CENTER
100
AcDbLine
 10
115.001656
 20
70.305916
 30
0.0
 11
115.001656
 21
52.305916
 31
0.0
  0
LINE
  5
A736
330
A4D6
100
AcDbEntity
  8
4
  6
CENTER
100
AcDbLine
 10
45.35711699999999
 20
161.848301
 30
0.0
 11
27.35711699999999
 21
161.848301
 31
0.0
  0
LINE
  5
A737
330
A4D6
100
AcDbEntity
  8
5
  6
PHANTOM
100
AcDbLine
 10
249.751656
 20
141.348301
 30
0.0
 11
249.751656
 21
140.648301
 31
0.0
  0
ARC
  5
A738
330
A4D6
100
AcDbEntity
  8
5
  6
PHANTOM
100
AcDbCircle
 10
249.2516559999998
 20
141.348301
 30
0.0
 40
0.5
100
AcDbArc
 50
0.0
 51
90.0
  0
ARC
  5
A739
330
A4D6
100
AcDbEntity
  8
5
  6
PHANTOM
100
AcDbCircle
 10
247.5376559999999
 20
240.785281
 30
0.0
 40
2.25
100
AcDbArc
 50
282.839588
 51
77.16041199999998
  0
LINE
  5
A73A
330
A4D6
100
AcDbEntity
  8
5
  6
PHANTOM
100
AcDbLine
 10
240.451656
 20
244.785281
 30
0.0
 11
248.0376559999999
 21
242.979022
 31
0.0
  0
LINE
  5
A73B
330
A4D6
100
AcDbEntity
  8
5
  6
PHANTOM
100
AcDbLine
 10
240.451656
 20
236.785281
 30
0.0
 11
248.0376559999999
 21
238.59154
 31
0.0
  0
LINE
  5
A73C
330
A4D6
100
AcDbEntity
  8
5
  6
PHANTOM
100
AcDbLine
 10
142.2376269999998
 20
244.785281
 30
0.0
 11
240.451656
 21
244.785281
 31
0.0
  0
LINE
  5
A73D
330
A4D6
100
AcDbEntity
  8
5
  6
PHANTOM
100
AcDbLine
 10
142.2376269999998
 20
236.785281
 30
0.0
 11
240.451656
 21
236.785281
 31
0.0
  0
LINE
  5
A73E
330
A4D6
100
AcDbEntity
  8
5
  6
PHANTOM
100
AcDbLine
 10
240.451656
 20
65.305916
 30
0.0
 11
248.0376559999999
 21
63.49965699999999
 31
0.0
  0
ARC
  5
A73F
330
A4D6
100
AcDbEntity
  8
5
  6
PHANTOM
100
AcDbCircle
 10
247.5376559999999
 20
61.305916
 30
0.0
 40
2.25
100
AcDbArc
 50
282.839588
 51
77.16041199999998
  0
LINE
  5
A740
330
A4D6
100
AcDbEntity
  8
5
  6
PHANTOM
100
AcDbLine
 10
240.451656
 20
57.305916
 30
0.0
 11
248.0376559999999
 21
59.112175
 31
0.0
  0
LINE
  5
A741
330
A4D6
100
AcDbEntity
  8
5
  6
PHANTOM
100
AcDbLine
 10
142.2376269999998
 20
65.305916
 30
0.0
 11
240.451656
 21
65.305916
 31
0.0
  0
LINE
  5
A742
330
A4D6
100
AcDbEntity
  8
5
  6
PHANTOM
100
AcDbLine
 10
142.2376269999998
 20
57.305916
 30
0.0
 11
240.451656
 21
57.305916
 31
0.0
  0
LINE
  5
A743
330
A4D6
100
AcDbEntity
  8
4
  6
CENTER
100
AcDbLine
 10
241.951656
 20
237.1989279999999
 30
0.0
 11
241.951656
 21
244.3716339999999
 31
0.0
  0
CIRCLE
  5
A744
330
A4D6
100
AcDbEntity
  8
5
  6
PHANTOM
100
AcDbCircle
 10
241.951656
 20
240.785281
 30
0.0
 40
1.6
  0
LINE
  5
A745
330
A4D6
100
AcDbEntity
  8
4
  6
CENTER
100
AcDbLine
 10
241.951656
 20
146.8483009999999
 30
0.0
 11
241.951656
 21
135.648301
 31
0.0
  0
CIRCLE
  5
A746
330
A4D6
100
AcDbEntity
  8
5
  6
PHANTOM
100
AcDbCircle
 10
241.951656
 20
61.305916
 30
0.0
 40
1.6
  0
LINE
  5
A747
330
A4D6
100
AcDbEntity
  8
4
  6
CENTER
100
AcDbLine
 10
241.951656
 20
57.719563
 30
0.0
 11
241.951656
 21
64.892269
 31
0.0
  0
LINE
  5
A748
330
A4D6
100
AcDbEntity
  8
4
  6
CENTER
100
AcDbLine
 10
503.8907349999998
 20
135.648301
 30
0.0
 11
503.8907349999998
 21
188.048301
 31
0.0
  0
ARC
  5
A749
330
A4D6
100
AcDbEntity
  8
1
  6
Continuous
100
AcDbCircle
 10
503.8907349999998
 20
161.848301
 30
0.0
 40
21.2
100
AcDbArc
 50
270.0
 51
180.0
  0
ARC
  5
A74A
330
A4D6
100
AcDbEntity
  8
1
  6
Continuous
100
AcDbCircle
 10
503.8907349999998
 20
161.848301
 30
0.0
 40
20.0
100
AcDbArc
 50
269.714466
 51
180.0
  0
LINE
  5
A74B
330
A4D6
100
AcDbEntity
  8
4
  6
CENTER
100
AcDbLine
 10
530.090735
 20
161.848301
 30
0.0
 11
477.690735
 21
161.848301
 31
0.0
  0
LINE
  5
A74C
330
A4D6
100
AcDbEntity
  8
4
  6
CENTER
100
AcDbLine
 10
477.690735
 20
146.8483009999999
 30
0.0
 11
500.0907349999998
 21
146.8483009999999
 31
0.0
  0
ARC
  5
A74D
330
A4D6
100
AcDbEntity
  8
5
  6
PHANTOM
100
AcDbCircle
 10
488.8907349999998
 20
146.8483009999999
 30
0.0
 40
6.2
100
AcDbArc
 50
270.0
 51
180.0
  0
ARC
  5
A74E
330
A4D6
100
AcDbEntity
  8
5
  6
PHANTOM
100
AcDbCircle
 10
488.8907349999998
 20
146.8483009999999
 30
0.0
 40
5.0
100
AcDbArc
 50
270.0
 51
180.0
  0
LINE
  5
A74F
330
A4D6
100
AcDbEntity
  8
1
  6
Continuous
100
AcDbLine
 10
486.6907349999998
 20
141.8483009999999
 30
0.0
 11
504.0907349999998
 21
141.8483009999999
 31
0.0
  0
LINE
  5
A750
330
A4D6
100
AcDbEntity
  8
1
  6
Continuous
100
AcDbLine
 10
486.6907349999998
 20
140.648301
 30
0.0
 11
504.0907349999998
 21
140.648301
 31
0.0
  0
LINE
  5
A751
330
A4D6
100
AcDbEntity
  8
5
  6
PHANTOM
100
AcDbLine
 10
369.1407349999999
 20
140.648301
 30
0.0
 11
476.6907349999998
 21
140.648301
 31
0.0
  0
LINE
  5
A752
330
A4D6
100
AcDbEntity
  8
5
  6
PHANTOM
100
AcDbLine
 10
369.640735
 20
141.8483009999999
 30
0.0
 11
476.6907349999998
 21
141.8483009999999
 31
0.0
  0
LINE
  5
A753
330
A4D6
100
AcDbEntity
  8
1
  6
Continuous
100
AcDbLine
 10
479.3407349999998
 20
132.4482889999998
 30
0.0
 11
479.3407349999998
 21
125.801258
 31
0.0
  0
LINE
  5
A754
330
A4D6
100
AcDbEntity
  8
1
  6
Continuous
100
AcDbLine
 10
486.040735
 20
132.4482889999998
 30
0.0
 11
486.040735
 21
125.801258
 31
0.0
  0
ARC
  5
A755
330
A4D6
100
AcDbEntity
  8
1
  6
Continuous
100
AcDbCircle
 10
483.6907349999998
 20
121.648301
 30
0.0
 40
1.0
100
AcDbArc
 50
270.0
 51
0.0
  0
ARC
  5
A756
330
A4D6
100
AcDbEntity
  8
1
  6
Continuous
100
AcDbCircle
 10
481.690735
 20
121.648301
 30
0.0
 40
1.0
100
AcDbArc
 50
180.0
 51
270.0
  0
LINE
  5
A757
330
A4D6
100
AcDbEntity
  8
1
  6
Continuous
100
AcDbLine
 10
484.1907349999998
 20
131.9482889999999
 30
0.0
 11
481.1907349999998
 21
131.9482889999999
 31
0.0
  0
LINE
  5
A758
330
A4D6
100
AcDbEntity
  8
4
  6
CENTER
100
AcDbLine
 10
482.6907349999998
 20
130.848301
 30
0.0
 11
482.6907349999998
 21
115.6482889999999
 31
0.0
  0
ARC
  5
A759
330
A4D6
100
AcDbEntity
  8
1
  6
Continuous
100
AcDbCircle
 10
482.6907349999998
 20
122.148301
 30
0.0
 40
1.5
100
AcDbArc
 50
180.0
 51
0.0
  0
LINE
  5
A75A
330
A4D6
100
AcDbEntity
  8
1
  6
Continuous
100
AcDbLine
 10
481.690735
 20
120.648301
 30
0.0
 11
483.6907349999998
 21
120.648301
 31
0.0
  0
LINE
  5
A75B
330
A4D6
100
AcDbEntity
  8
1
  6
Continuous
100
AcDbLine
 10
481.1907349999998
 20
129.8483009999999
 30
0.0
 11
484.1907349999998
 21
129.8483009999999
 31
0.0
  0
ARC
  5
A75C
330
A4D6
100
AcDbEntity
  8
1
  6
Continuous
100
AcDbCircle
 10
479.8407349999997
 20
125.801258
 30
0.0
 40
0.5
100
AcDbArc
 50
180.0
 51
214.01935
  0
ARC
  5
A75D
330
A4D6
100
AcDbEntity
  8
1
  6
Continuous
100
AcDbCircle
 10
480.1907349999998
 20
123.495343
 30
0.0
 40
0.5
100
AcDbArc
 50
0.0
 51
34.01935
  0
LINE
  5
A75E
330
A4D6
100
AcDbEntity
  8
1
  6
Continuous
100
AcDbLine
 10
480.605159
 20
123.7750789999999
 30
0.0
 11
479.4263110000001
 21
125.5215219999999
 31
0.0
  0
ARC
  5
A75F
330
A4D6
100
AcDbEntity
  8
1
  6
Continuous
100
AcDbCircle
 10
480.1907349999998
 20
123.495343
 30
0.0
 40
0.5
100
AcDbArc
 50
0.0
 51
34.01935
  0
ARC
  5
A760
330
A4D6
100
AcDbEntity
  8
1
  6
Continuous
100
AcDbCircle
 10
485.540735
 20
125.801258
 30
0.0
 40
0.5
100
AcDbArc
 50
325.98065
 51
0.0
  0
LINE
  5
A761
330
A4D6
100
AcDbEntity
  8
1
  6
Continuous
100
AcDbLine
 10
484.776311
 20
123.7750789999999
 30
0.0
 11
485.9551589999998
 21
125.5215219999999
 31
0.0
  0
ARC
  5
A762
330
A4D6
100
AcDbEntity
  8
1
  6
Continuous
100
AcDbCircle
 10
485.1907349999998
 20
123.495343
 30
0.0
 40
0.5
100
AcDbArc
 50
145.98065
 51
180.0
  0
LINE
  5
A763
330
A4D6
100
AcDbEntity
  8
1
  6
Continuous
100
AcDbLine
 10
481.1907349999998
 20
131.9482889999999
 30
0.0
 11
481.1907349999998
 21
122.148301
 31
0.0
  0
LINE
  5
A764
330
A4D6
100
AcDbEntity
  8
1
  6
Continuous
100
AcDbLine
 10
484.1907349999998
 20
131.9482889999999
 30
0.0
 11
484.1907349999998
 21
122.148301
 31
0.0
  0
LINE
  5
A765
330
A4D6
100
AcDbEntity
  8
1
  6
Continuous
100
AcDbLine
 10
484.6907349999998
 20
123.495343
 30
0.0
 11
484.6907349999998
 21
121.648301
 31
0.0
  0
LINE
  5
A766
330
A4D6
100
AcDbEntity
  8
1
  6
Continuous
100
AcDbLine
 10
480.6907349999998
 20
123.495343
 30
0.0
 11
480.6907349999998
 21
121.648301
 31
0.0
  0
LINE
  5
A767
330
A4D6
100
AcDbEntity
  8
4
  6
CENTER
100
AcDbLine
 10
488.8907349999998
 20
158.048301
 30
0.0
 11
488.8907349999998
 21
135.648301
 31
0.0
  0
LINE
  5
A768
330
A4D6
100
AcDbEntity
  8
1
  6
Continuous
100
AcDbLine
 10
483.8907349999998
 20
162.048301
 30
0.0
 11
483.8907349999998
 21
142.8483009999998
 31
0.0
  0
LINE
  5
A769
330
A4D6
100
AcDbEntity
  8
1
  6
Continuous
100
AcDbLine
 10
482.6907349999998
 20
162.048301
 30
0.0
 11
482.6907349999998
 21
142.8483009999998
 31
0.0
  0
LINE
  5
A76A
330
A4D6
100
AcDbEntity
  8
1
  6
Continuous
100
AcDbLine
 10
463.1907349999998
 20
141.8483009999999
 30
0.0
 11
476.6907349999998
 21
141.8483009999999
 31
0.0
  0
LINE
  5
A76B
330
A4D6
100
AcDbEntity
  8
1
  6
Continuous
100
AcDbLine
 10
462.6907349999998
 20
140.648301
 30
0.0
 11
476.6907349999998
 21
140.648301
 31
0.0
  0
LINE
  5
A76C
330
A4D6
100
AcDbEntity
  8
1
  6
Continuous
100
AcDbLine
 10
472.6907349999998
 20
138.8483009999999
 30
0.0
 11
476.6907349999998
 21
138.8483009999999
 31
0.0
  0
LINE
  5
A76D
330
A4D6
100
AcDbEntity
  8
1
  6
Continuous
100
AcDbLine
 10
472.6907349999998
 20
139.8483009999999
 30
0.0
 11
476.6907349999998
 21
139.8483009999999
 31
0.0
  0
LINE
  5
A76E
330
A4D6
100
AcDbEntity
  8
1
  6
Continuous
100
AcDbLine
 10
486.6907349999998
 20
134.7482889999998
 30
0.0
 11
476.6907349999998
 21
134.7482889999998
 31
0.0
  0
LINE
  5
A76F
330
A4D6
100
AcDbEntity
  8
1
  6
Continuous
100
AcDbLine
 10
486.6907349999998
 20
134.4482889999998
 30
0.0
 11
476.6907349999998
 21
134.4482889999998
 31
0.0
  0
LINE
  5
A770
330
A4D6
100
AcDbEntity
  8
1
  6
Continuous
100
AcDbLine
 10
486.6907349999998
 20
132.4482889999998
 30
0.0
 11
476.6907349999998
 21
132.4482889999998
 31
0.0
  0
LINE
  5
A771
330
A4D6
100
AcDbEntity
  8
5
  6
PHANTOM
100
AcDbLine
 10
488.8907349999998
 20
140.648301
 30
0.0
 11
486.6907349999998
 21
140.648301
 31
0.0
  0
LINE
  5
A772
330
A4D6
100
AcDbEntity
  8
5
  6
PHANTOM
100
AcDbLine
 10
482.6907349999998
 20
146.8483009999999
 30
0.0
 11
482.6907349999998
 21
142.8483009999998
 31
0.0
  0
LINE
  5
A773
330
A4D6
100
AcDbEntity
  8
5
  6
PHANTOM
100
AcDbLine
 10
488.8907349999998
 20
141.8483009999999
 30
0.0
 11
486.6907349999998
 21
141.8483009999999
 31
0.0
  0
LINE
  5
A774
330
A4D6
100
AcDbEntity
  8
5
  6
PHANTOM
100
AcDbLine
 10
483.8907349999998
 20
146.8483009999999
 30
0.0
 11
483.8907349999998
 21
142.8483009999998
 31
0.0
  0
LINE
  5
A775
330
A4D6
100
AcDbEntity
  8
1
  6
Continuous
100
AcDbLine
 10
476.6907349999998
 20
144.348301
 30
0.0
 11
480.9907349999998
 21
144.348301
 31
0.0
  0
LINE
  5
A776
330
A4D6
100
AcDbEntity
  8
1
  6
Continuous
100
AcDbLine
 10
482.6907349999998
 20
146.048301
 30
0.0
 11
480.9907349999998
 21
144.348301
 31
0.0
  0
LINE
  5
A777
330
A4D6
100
AcDbEntity
  8
1
  6
Continuous
100
AcDbLine
 10
476.6907349999998
 20
144.348301
 30
0.0
 11
476.6907349999998
 21
132.4482889999998
 31
0.0
  0
LINE
  5
A778
330
A4D6
100
AcDbEntity
  8
1
  6
Continuous
100
AcDbLine
 10
486.6907349999998
 20
142.8483009999998
 30
0.0
 11
486.6907349999998
 21
132.4482889999998
 31
0.0
  0
LINE
  5
A779
330
A4D6
100
AcDbEntity
  8
1
  6
Continuous
100
AcDbLine
 10
476.6907349999998
 20
142.8483009999998
 30
0.0
 11
486.6907349999998
 21
142.8483009999998
 31
0.0
  0
LINE
  5
A77A
330
A4D6
100
AcDbEntity
  8
1
  6
Continuous
100
AcDbLine
 10
476.6907349999998
 20
137.8483009999999
 30
0.0
 11
486.6907349999998
 21
137.8483009999999
 31
0.0
  0
LINE
  5
A77B
330
A4D6
100
AcDbEntity
  8
1
  6
Continuous
100
AcDbLine
 10
476.6907349999998
 20
135.848301
 30
0.0
 11
486.6907349999998
 21
135.848301
 31
0.0
  0
LINE
  5
A77C
330
A4D6
100
AcDbEntity
  8
4
  6
CENTER
100
AcDbLine
 10
470.490735
 20
146.8483009999999
 30
0.0
 11
470.490735
 21
135.648301
 31
0.0
  0
ARC
  5
A77D
330
A4D6
100
AcDbEntity
  8
1
  6
Continuous
100
AcDbCircle
 10
463.1907349999998
 20
141.348301
 30
0.0
 40
0.5
100
AcDbArc
 50
90.0
 51
180.0
  0
LINE
  5
A77E
330
A4D6
100
AcDbEntity
  8
1
  6
Continuous
100
AcDbLine
 10
462.6907349999998
 20
141.348301
 30
0.0
 11
462.6907349999998
 21
140.648301
 31
0.0
  0
LINE
  5
A77F
330
A4D6
100
AcDbEntity
  8
1
  6
Continuous
100
AcDbLine
 10
472.6907349999998
 20
139.8483009999999
 30
0.0
 11
472.6907349999998
 21
138.8483009999999
 31
0.0
  0
LINE
  5
A780
330
A4D6
100
AcDbEntity
  8
4
  6
CENTER
100
AcDbLine
 10
376.940735
 20
146.8483009999999
 30
0.0
 11
376.940735
 21
135.648301
 31
0.0
  0
ARC
  5
A781
330
A4D6
100
AcDbEntity
  8
5
  6
PHANTOM
100
AcDbCircle
 10
369.640735
 20
141.348301
 30
0.0
 40
0.5
100
AcDbArc
 50
90.0
 51
180.0
  0
LINE
  5
A782
330
A4D6
100
AcDbEntity
  8
5
  6
PHANTOM
100
AcDbLine
 10
369.1407349999999
 20
141.348301
 30
0.0
 11
369.1407349999999
 21
140.648301
 31
0.0
  0
ENDSEC
  0
SECTION
  2
OBJECTS
  0
DICTIONARY
  5
A4C4
330
0
100
AcDbDictionary
281
     1
  3
ACAD_CIP_PREVIOUS_PRODUCT_INFO
350
A7E2
  3
ACAD_COLOR
350
A7C4
  3
ACAD_DETAILVIEWSTYLE
350
A7DD
  3
ACAD_GROUP
350
A4C5
  3
ACAD_LAYOUT
350
A4D1
  3
ACAD_MATERIAL
350
A792
  3
ACAD_MLEADERSTYLE
350
A7D9
  3
ACAD_MLINESTYLE
350
A4CE
  3
ACAD_PLOTSETTINGS
350
A4D0
  3
ACAD_PLOTSTYLENAME
350
A790
  3
ACAD_SCALELIST
350
A7C7
  3
ACAD_SECTIONVIEWSTYLE
350
A7DB
  3
ACAD_TABLESTYLE
350
A7C5
  3
ACAD_VISUALSTYLE
350
A7AB
  3
ACDB_RECOMPOSE_DATA
350
A800
  3
AcDbVariableDictionary
350
A7F3
  3
DWGPROPS
350
A801
  0
DICTIONARY
  5
A7E3
330
A4C8
100
AcDbDictionary
280
     1
281
     1
  3
ADSK_XREC_LAYER_RECONCILED
360
A7E4
  0
DICTIONARY
  5
A7E5
330
A4DE
100
AcDbDictionary
280
     1
281
     1
  3
ADSK_XREC_LAYER_RECONCILED
360
A7E6
  0
DICTIONARY
  5
A7E7
330
A4DF
100
AcDbDictionary
280
     1
281
     1
  3
ADSK_XREC_LAYER_RECONCILED
360
A7E8
  0
DICTIONARY
  5
A7E9
330
A4E0
100
AcDbDictionary
280
     1
281
     1
  3
ADSK_XREC_LAYER_RECONCILED
360
A7EA
  0
DICTIONARY
  5
A7EB
330
A4E1
100
AcDbDictionary
280
     1
281
     1
  3
ADSK_XREC_LAYER_RECONCILED
360
A7EC
  0
DICTIONARY
  5
A7ED
330
A4E2
100
AcDbDictionary
280
     1
281
     1
  3
ADSK_XREC_LAYER_RECONCILED
360
A7EE
  0
DICTIONARY
  5
A7EF
330
A4E3
100
AcDbDictionary
280
     1
281
     1
  3
ADSK_XREC_LAYER_RECONCILED
360
A7F0
  0
DICTIONARY
  5
A7F1
330
A4E4
100
AcDbDictionary
280
     1
281
     1
  3
ADSK_XREC_LAYER_RECONCILED
360
A7F2
  0
DICTIONARY
  5
A78B
330
A4D6
100
AcDbDictionary
281
     1
  3
ACAD_LAYOUTSELFREF
350
A78C
  0
DICTIONARY
  5
A789
330
A4D2
100
AcDbDictionary
281
     1
  3
ACAD_LAYOUTSELFREF
350
A78A
  0
XRECORD
  5
A7E2
102
{ACAD_REACTORS
330
A4C4
102
}
330
A4C4
100
AcDbXrecord
280
     1
300
ACDLT
300
2014
300
ACDLT_F_S
  0
DICTIONARY
  5
A7C4
102
{ACAD_REACTORS
330
A4C4
102
}
330
A4C4
100
AcDbDictionary
281
     1
  0
DICTIONARY
  5
A7DD
102
{ACAD_REACTORS
330
A4C4
102
}
330
A4C4
100
AcDbDictionary
281
     1
  3
Imperial24
350
A7DE
  0
DICTIONARY
  5
A4C5
102
{ACAD_REACTORS
330
A4C4
102
}
330
A4C4
100
AcDbDictionary
281
     1
  0
DICTIONARY
  5
A4D1
102
{ACAD_REACTORS
330
A4C4
102
}
330
A4C4
100
AcDbDictionary
281
     1
  3
Model
350
A7DF
  3
レイアウト1
350
A7E0
  0
DICTIONARY
  5
A792
102
{ACAD_REACTORS
330
A4C4
102
}
330
A4C4
100
AcDbDictionary
281
     1
  3
ByBlock
350
A79B
  3
ByLayer
350
A793
  3
Global
350
A7A3
  0
DICTIONARY
  5
A7D9
102
{ACAD_REACTORS
330
A4C4
102
}
330
A4C4
100
AcDbDictionary
281
     1
  3
Standard
350
A7DA
  0
DICTIONARY
  5
A4CE
102
{ACAD_REACTORS
330
A4C4
102
}
330
A4C4
100
AcDbDictionary
281
     1
  3
STANDARD
350
A4CF
  0
DICTIONARY
  5
A4D0
102
{ACAD_REACTORS
330
A4C4
102
}
330
A4C4
100
AcDbDictionary
281
     1
  0
ACDBDICTIONARYWDFLT
  5
A790
102
{ACAD_REACTORS
330
A4C4
102
}
330
A4C4
100
AcDbDictionary
281
     1
  3
Normal
350
A791
100
AcDbDictionaryWithDefault
340
A791
  0
DICTIONARY
  5
A7C7
102
{ACAD_REACTORS
330
A4C4
102
}
330
A4C4
100
AcDbDictionary
281
     1
  3
A0
350
A7C8
  3
A1
350
A7C9
  3
A2
350
A7CA
  3
A3
350
A7CB
  3
A4
350
A7CC
  3
A5
350
A7CD
  3
A6
350
A7CE
  3
A7
350
A7CF
  3
A8
350
A7D0
  3
A9
350
A7D1
  3
B0
350
A7D2
  3
B1
350
A7D3
  3
B2
350
A7D4
  3
B3
350
A7D5
  3
B4
350
A7D6
  3
B5
350
A7D7
  3
B6
350
A7D8
  0
DICTIONARY
  5
A7DB
102
{ACAD_REACTORS
330
A4C4
102
}
330
A4C4
100
AcDbDictionary
281
     1
  3
Imperial24
350
A7DC
  0
DICTIONARY
  5
A7C5
102
{ACAD_REACTORS
330
A4C4
102
}
330
A4C4
100
AcDbDictionary
281
     1
  3
Standard
350
A7C6
  0
DICTIONARY
  5
A7AB
102
{ACAD_REACTORS
330
A4C4
102
}
330
A4C4
100
AcDbDictionary
281
     1
  3
2dWireframe
350
A7B1
  3
Basic
350
A7B0
  3
Brighten
350
A7B7
  3
ColorChange
350
A7BB
  3
Conceptual
350
A7B4
  3
Dim
350
A7B6
  3
EdgeColorOff
350
A7C3
  3
Facepattern
350
A7BA
  3
Flat
350
A7AC
  3
FlatWithEdges
350
A7AD
  3
Gouraud
350
A7AE
  3
GouraudWithEdges
350
A7AF
  3
Hidden
350
A7B3
  3
JitterOff
350
A7C1
  3
Linepattern
350
A7B9
  3
OverhangOff
350
A7C2
  3
Realistic
350
A7B5
  3
Shaded
350
A7C0
  3
Shaded with edges
350
A7BF
  3
Shades of Gray
350
A7BC
  3
Sketchy
350
A7BD
  3
Thicken
350
A7B8
  3
Wireframe
350
A7B2
  3
X-Ray
350
A7BE
  0
XRECORD
  5
A800
102
{ACAD_REACTORS
330
A4C4
102
}
330
A4C4
100
AcDbXrecord
280
     1
 90
        1
330
A7C6
  0
DICTIONARY
  5
A7F3
102
{ACAD_REACTORS
330
A4C4
102
}
330
A4C4
100
AcDbDictionary
281
     1
  3
CANNOSCALE
350
A7F8
  3
CMLEADERSTYLE
350
A7F5
  3
CTABLESTYLE
350
A7F4
  3
CVIEWDETAILSTYLE
350
A7F6
  3
CVIEWSECTIONSTYLE
350
A7F7
  3
DIMASSOC
350
A7FB
  3
INDEXCTL
350
A7FA
  3
SORTENTS
350
A7F9
  3
XCLIPFRAME
350
A7FC
  0
XRECORD
  5
A801
102
{ACAD_REACTORS
330
A4C4
102
}
330
A4C4
100
AcDbXrecord
280
     1
  1
DWGPROPS COOKIE
  2

  3

  4

  6

  7

  8
Yoshitsune
  9

300
=
301
=
302
=
303
=
304
=
305
=
306
=
307
=
308
=
309
=
 40
0.000012962962963
 41
2451301.774342709
 42
2457192.66079456
  1

 90
        0
  0
XRECORD
  5
A7E4
102
{ACAD_REACTORS
330
A7E3
102
}
330
A7E3
100
AcDbXrecord
280
     1
290
     1
  0
XRECORD
  5
A7E6
102
{ACAD_REACTORS
330
A7E5
102
}
330
A7E5
100
AcDbXrecord
280
     1
290
     1
  0
XRECORD
  5
A7E8
102
{ACAD_REACTORS
330
A7E7
102
}
330
A7E7
100
AcDbXrecord
280
     1
290
     1
  0
XRECORD
  5
A7EA
102
{ACAD_REACTORS
330
A7E9
102
}
330
A7E9
100
AcDbXrecord
280
     1
290
     1
  0
XRECORD
  5
A7EC
102
{ACAD_REACTORS
330
A7EB
102
}
330
A7EB
100
AcDbXrecord
280
     1
290
     1
  0
XRECORD
  5
A7EE
102
{ACAD_REACTORS
330
A7ED
102
}
330
A7ED
100
AcDbXrecord
280
     1
290
     1
  0
XRECORD
  5
A7F0
102
{ACAD_REACTORS
330
A7EF
102
}
330
A7EF
100
AcDbXrecord
280
     1
290
     1
  0
XRECORD
  5
A7F2
102
{ACAD_REACTORS
330
A7F1
102
}
330
A7F1
100
AcDbXrecord
280
     1
290
     1
  0
XRECORD
  5
A78C
102
{ACAD_REACTORS
330
A78B
102
}
330
A78B
100
AcDbXrecord
280
     1
340
A4D6
  0
XRECORD
  5
A78A
102
{ACAD_REACTORS
330
A789
102
}
330
A789
100
AcDbXrecord
280
     1
340
A4D2
  0
ACDBDETAILVIEWSTYLE
  5
A7DE
102
{ACAD_XDICTIONARY
360
A839
102
}
102
{ACAD_REACTORS
330
A7DD
102
}
330
A7DD
100
AcDbModelDocViewStyle
 70
     0
  3
Imperial24
290
     0
100
AcDbDetailViewStyle
 70
     0
 71
     0
 90
        3
 71
     1
340
A4C9
 40
0.24
340
0
 40
0.24
300

 40
0.36
280
     3
 71
     2
340
A4CD
 90
       25
 71
     3
340
A4C9
 40
0.24
 90
        1
 40
0.75
 90
        1
300
%<\AcVar ViewType \f "%tc1">% %<\AcVar ViewDetailId>%\PSCALE %<\AcVar ViewScale \f "%sn">%
 71
     4
340
A4CD
 90
       25
340
A4CD
 90
       25
280
     0
  0
LAYOUT
  5
A7DF
102
{ACAD_XDICTIONARY
360
A83B
102
}
102
{ACAD_REACTORS
330
A4D1
102
}
330
A4D1
100
AcDbPlotSettings
  1

  2
Canon LBP9100C
  4

  6

 40
0.0
 41
0.0
 42
0.0
 43
0.0
 44
0.0
 45
0.0
 46
0.0
 47
0.0
 48
0.0
 49
0.0
140
0.0
141
0.0
142
1.0
143
1.0
 70
  1712
 72
     0
 73
     0
 74
     0
  7

 75
     0
147
1.0
148
0.0
149
0.0
100
AcDbLayout
  1
Model
 70
     1
 71
     0
 10
0.0
 20
0.0
 11
12.0
 21
9.0
 12
0.0
 22
0.0
 32
0.0
 14
0.0
 24
0.0
 34
0.0
 15
0.0
 25
0.0
 35
0.0
146
0.0
 13
0.0
 23
0.0
 33
0.0
 16
1.0
 26
0.0
 36
0.0
 17
0.0
 27
1.0
 37
0.0
 76
     0
330
A4D6
331
A788
  0
LAYOUT
  5
A7E0
102
{ACAD_XDICTIONARY
360
A83D
102
}
102
{ACAD_REACTORS
330
A4D1
102
}
330
A4D1
100
AcDbPlotSettings
  1

  2
Canon LBP9100C
  4

  6

 40
0.0
 41
0.0
 42
0.0
 43
0.0
 44
0.0
 45
0.0
 46
0.0
 47
0.0
 48
0.0
 49
0.0
140
0.0
141
0.0
142
1.0
143
1.0
 70
   688
 72
     0
 73
     0
 74
     5
  7

 75
    16
147
1.0
148
0.0
149
0.0
100
AcDbLayout
  1
レイアウト1
 70
     0
 71
     1
 10
0.0
 20
0.0
 11
420.0
 21
297.0
 12
0.0
 22
0.0
 32
0.0
 14
1.000000000000000E+20
 24
1.000000000000000E+20
 34
1.000000000000000E+20
 15
-1.000000000000000E+20
 25
-1.000000000000000E+20
 35
-1.000000000000000E+20
146
0.0
 13
0.0
 23
0.0
 33
0.0
 16
1.0
 26
0.0
 36
0.0
 17
0.0
 27
1.0
 37
0.0
 76
     0
330
A4D2
  0
MATERIAL
  5
A79B
102
{ACAD_XDICTIONARY
360
A79C
102
}
102
{ACAD_REACTORS
330
A792
102
}
330
A792
100
AcDbMaterial
  1
ByBlock
 72
     0
 43
0.0208333333333333
 43
0.0
 43
0.0
 43
0.0
 43
0.0
 43
0.0208333333333333
 43
0.0
 43
0.0
 43
0.0
 43
0.0
 43
1.0
 43
0.0
 43
0.0
 43
0.0
 43
0.0
 43
1.0
 77
     0
 47
0.0208333333333333
 47
0.0
 47
0.0
 47
0.0
 47
0.0
 47
0.0208333333333333
 47
0.0
 47
0.0
 47
0.0
 47
0.0
 47
1.0
 47
0.0
 47
0.0
 47
0.0
 47
0.0
 47
1.0
171
     0
 49
0.0208333333333333
 49
0.0
 49
0.0
 49
0.0
 49
0.0
 49
0.0208333333333333
 49
0.0
 49
0.0
 49
0.0
 49
0.0
 49
1.0
 49
0.0
 49
0.0
 49
0.0
 49
0.0
 49
1.0
175
     0
142
0.0208333333333333
142
0.0
142
0.0
142
0.0
142
0.0
142
0.0208333333333333
142
0.0
142
0.0
142
0.0
142
0.0
142
1.0
142
0.0
142
0.0
142
0.0
142
0.0
142
1.0
179
     0
144
0.0208333333333333
144
0.0
144
0.0
144
0.0
144
0.0
144
0.0208333333333333
144
0.0
144
0.0
144
0.0
144
0.0
144
1.0
144
0.0
144
0.0
144
0.0
144
0.0
144
1.0
147
0.0208333333333333
147
0.0
147
0.0
147
0.0
147
0.0
147
0.0208333333333333
147
0.0
147
0.0
147
0.0
147
0.0
147
1.0
147
0.0
147
0.0
147
0.0
147
0.0
147
1.0
  0
MATERIAL
  5
A793
102
{ACAD_XDICTIONARY
360
A794
102
}
102
{ACAD_REACTORS
330
A792
102
}
330
A792
100
AcDbMaterial
  1
ByLayer
 72
     0
 43
0.0208333333333333
 43
0.0
 43
0.0
 43
0.0
 43
0.0
 43
0.0208333333333333
 43
0.0
 43
0.0
 43
0.0
 43
0.0
 43
1.0
 43
0.0
 43
0.0
 43
0.0
 43
0.0
 43
1.0
 77
     0
 47
0.0208333333333333
 47
0.0
 47
0.0
 47
0.0
 47
0.0
 47
0.0208333333333333
 47
0.0
 47
0.0
 47
0.0
 47
0.0
 47
1.0
 47
0.0
 47
0.0
 47
0.0
 47
0.0
 47
1.0
171
     0
 49
0.0208333333333333
 49
0.0
 49
0.0
 49
0.0
 49
0.0
 49
0.0208333333333333
 49
0.0
 49
0.0
 49
0.0
 49
0.0
 49
1.0
 49
0.0
 49
0.0
 49
0.0
 49
0.0
 49
1.0
175
     0
142
0.0208333333333333
142
0.0
142
0.0
142
0.0
142
0.0
142
0.0208333333333333
142
0.0
142
0.0
142
0.0
142
0.0
142
1.0
142
0.0
142
0.0
142
0.0
142
0.0
142
1.0
179
     0
144
0.0208333333333333
144
0.0
144
0.0
144
0.0
144
0.0
144
0.0208333333333333
144
0.0
144
0.0
144
0.0
144
0.0
144
1.0
144
0.0
144
0.0
144
0.0
144
0.0
144
1.0
147
0.0208333333333333
147
0.0
147
0.0
147
0.0
147
0.0
147
0.0208333333333333
147
0.0
147
0.0
147
0.0
147
0.0
147
1.0
147
0.0
147
0.0
147
0.0
147
0.0
147
1.0
  0
MATERIAL
  5
A7A3
102
{ACAD_XDICTIONARY
360
A7A4
102
}
102
{ACAD_REACTORS
330
A792
102
}
330
A792
100
AcDbMaterial
  1
Global
 72
     0
 43
0.0208333333333333
 43
0.0
 43
0.0
 43
0.0
 43
0.0
 43
0.0208333333333333
 43
0.0
 43
0.0
 43
0.0
 43
0.0
 43
1.0
 43
0.0
 43
0.0
 43
0.0
 43
0.0
 43
1.0
 77
     0
 47
0.0208333333333333
 47
0.0
 47
0.0
 47
0.0
 47
0.0
 47
0.0208333333333333
 47
0.0
 47
0.0
 47
0.0
 47
0.0
 47
1.0
 47
0.0
 47
0.0
 47
0.0
 47
0.0
 47
1.0
171
     0
 49
0.0208333333333333
 49
0.0
 49
0.0
 49
0.0
 49
0.0
 49
0.0208333333333333
 49
0.0
 49
0.0
 49
0.0
 49
0.0
 49
1.0
 49
0.0
 49
0.0
 49
0.0
 49
0.0
 49
1.0
175
     0
142
0.0208333333333333
142
0.0
142
0.0
142
0.0
142
0.0
142
0.0208333333333333
142
0.0
142
0.0
142
0.0
142
0.0
142
1.0
142
0.0
142
0.0
142
0.0
142
0.0
142
1.0
179
     0
144
0.0208333333333333
144
0.0
144
0.0
144
0.0
144
0.0
144
0.0208333333333333
144
0.0
144
0.0
144
0.0
144
0.0
144
1.0
144
0.0
144
0.0
144
0.0
144
0.0
144
1.0
147
0.0208333333333333
147
0.0
147
0.0
147
0.0
147
0.0
147
0.0208333333333333
147
0.0
147
0.0
147
0.0
147
0.0
147
1.0
147
0.0
147
0.0
147
0.0
147
0.0
147
1.0
  0
MLEADERSTYLE
  5
A7DA
102
{ACAD_REACTORS
330
A7D9
102
}
330
A7D9
100
AcDbMLeaderStyle
170
     2
171
     1
172
     0
 90
        2
 40
0.0
 41
0.0
173
     1
 91
-1056964608
340
A4CB
 92
       -2
290
     1
 42
0.09
291
     1
 43
0.36
  3
Standard
 44
0.18
300

342
A4C9
174
     1
178
     6
175
     1
176
     0
 93
-1056964608
 45
0.18
292
     0
297
     0
 46
0.18
 94
-1056964608
 47
1.0
 49
1.0
140
1.0
293
     1
141
0.0
294
     1
177
     0
142
1.0
295
     0
296
     0
143
0.125
1001
ACAD_MLEADERVER
1070
     2
  0
MLINESTYLE
  5
A4CF
102
{ACAD_REACTORS
330
A4CE
102
}
330
A4CE
100
AcDbMlineStyle
  2
STANDARD
 70
     0
  3

 62
   256
 51
90.0
 52
90.0
 71
     2
 49
0.5
 62
   256
  6
BYLAYER
 49
-0.5
 62
   256
  6
BYLAYER
  0
ACDBPLACEHOLDER
  5
A791
102
{ACAD_REACTORS
330
A790
102
}
330
A790
  0
SCALE
  5
A7C8
102
{ACAD_REACTORS
330
A7C7
102
}
330
A7C7
100
AcDbScale
 70
     0
300
1:1
140
1.0
141
1.0
290
     1
  0
SCALE
  5
A7C9
102
{ACAD_REACTORS
330
A7C7
102
}
330
A7C7
100
AcDbScale
 70
     0
300
1/128" = 1'-0"
140
0.0078125
141
12.0
290
     0
  0
SCALE
  5
A7CA
102
{ACAD_REACTORS
330
A7C7
102
}
330
A7C7
100
AcDbScale
 70
     0
300
1/64" = 1'-0"
140
0.015625
141
12.0
290
     0
  0
SCALE
  5
A7CB
102
{ACAD_REACTORS
330
A7C7
102
}
330
A7C7
100
AcDbScale
 70
     0
300
1/32" = 1'-0"
140
0.03125
141
12.0
290
     0
  0
SCALE
  5
A7CC
102
{ACAD_REACTORS
330
A7C7
102
}
330
A7C7
100
AcDbScale
 70
     0
300
1/16" = 1'-0"
140
0.0625
141
12.0
290
     0
  0
SCALE
  5
A7CD
102
{ACAD_REACTORS
330
A7C7
102
}
330
A7C7
100
AcDbScale
 70
     0
300
3/32" = 1'-0"
140
0.09375
141
12.0
290
     0
  0
SCALE
  5
A7CE
102
{ACAD_REACTORS
330
A7C7
102
}
330
A7C7
100
AcDbScale
 70
     0
300
1/8" = 1'-0"
140
0.125
141
12.0
290
     0
  0
SCALE
  5
A7CF
102
{ACAD_REACTORS
330
A7C7
102
}
330
A7C7
100
AcDbScale
 70
     0
300
3/16" = 1'-0"
140
0.1875
141
12.0
290
     0
  0
SCALE
  5
A7D0
102
{ACAD_REACTORS
330
A7C7
102
}
330
A7C7
100
AcDbScale
 70
     0
300
1/4" = 1'-0"
140
0.25
141
12.0
290
     0
  0
SCALE
  5
A7D1
102
{ACAD_REACTORS
330
A7C7
102
}
330
A7C7
100
AcDbScale
 70
     0
300
3/8" = 1'-0"
140
0.375
141
12.0
290
     0
  0
SCALE
  5
A7D2
102
{ACAD_REACTORS
330
A7C7
102
}
330
A7C7
100
AcDbScale
 70
     0
300
1/2" = 1'-0"
140
0.5
141
12.0
290
     0
  0
SCALE
  5
A7D3
102
{ACAD_REACTORS
330
A7C7
102
}
330
A7C7
100
AcDbScale
 70
     0
300
3/4" = 1'-0"
140
0.75
141
12.0
290
     0
  0
SCALE
  5
A7D4
102
{ACAD_REACTORS
330
A7C7
102
}
330
A7C7
100
AcDbScale
 70
     0
300
1" = 1'-0"
140
1.0
141
12.0
290
     0
  0
SCALE
  5
A7D5
102
{ACAD_REACTORS
330
A7C7
102
}
330
A7C7
100
AcDbScale
 70
     0
300
1-1/2" = 1'-0"
140
1.5
141
12.0
290
     0
  0
SCALE
  5
A7D6
102
{ACAD_REACTORS
330
A7C7
102
}
330
A7C7
100
AcDbScale
 70
     0
300
3" = 1'-0"
140
3.0
141
12.0
290
     0
  0
SCALE
  5
A7D7
102
{ACAD_REACTORS
330
A7C7
102
}
330
A7C7
100
AcDbScale
 70
     0
300
6" = 1'-0"
140
6.0
141
12.0
290
     0
  0
SCALE
  5
A7D8
102
{ACAD_REACTORS
330
A7C7
102
}
330
A7C7
100
AcDbScale
 70
     0
300
1'-0" = 1'-0"
140
12.0
141
12.0
290
     0
  0
ACDBSECTIONVIEWSTYLE
  5
A7DC
102
{ACAD_XDICTIONARY
360
A837
102
}
102
{ACAD_REACTORS
330
A7DB
102
}
330
A7DB
100
AcDbModelDocViewStyle
 70
     0
  3
Imperial24
290
     0
100
AcDbSectionViewStyle
 70
     0
 71
     0
 90
       78
 71
     1
340
A4C9
 40
0.24
340
0
340
0
 40
0.24
300
I, O, Q, S, X, Z
 40
0.48
 90
        3
 40
0.18
 90
        1
 71
     2
340
A4CD
 90
       25
340
A4CD
 90
       50
 40
0.24
 40
0.0
 40
0.24
 71
     3
340
A4C9
 40
0.24
 90
        1
 40
0.75
 90
        1
300
%<\AcVar ViewType \f "%tc1">% %<\AcVar ViewSectionStartId>%-%<\AcVar ViewSectionEndId>%\PSCALE %<\AcVar ViewScale \f "%sn">%
 71
     4
300
ANSI31
 40
1.0
 90
        0
290
     0
290
     0
 90
        6
 40
0.0
 40
1.570796326794896
 40
0.2617993877991494
 40
1.308996938995747
 40
-0.2617993877991494
 40
1.832595714594046
  0
TABLESTYLE
  5
A7C6
102
{ACAD_XDICTIONARY
360
A7FE
102
}
102
{ACAD_REACTORS
330
A7C5
102
}
330
A7C5
100
AcDbTableStyle
  3
Standard
 70
     0
 71
     0
 40
0.06
 41
0.06
280
     0
281
     0
  7
STANDARD
140
0.18
170
     2
 62
     0
 63
     7
283
     0
274
    -2
284
     1
 64
     0
275
    -2
285
     1
 65
     0
276
    -2
286
     1
 66
     0
277
    -2
287
     1
 67
     0
278
    -2
288
     1
 68
     0
279
    -2
289
     1
 69
     0
  7
STANDARD
140
0.25
170
     5
 62
     0
 63
     7
283
     0
274
    -2
284
     1
 64
     0
275
    -2
285
     1
 65
     0
276
    -2
286
     1
 66
     0
277
    -2
287
     1
 67
     0
278
    -2
288
     1
 68
     0
279
    -2
289
     1
 69
     0
  7
STANDARD
140
0.18
170
     5
 62
     0
 63
     7
283
     0
274
    -2
284
     1
 64
     0
275
    -2
285
     1
 65
     0
276
    -2
286
     1
 66
     0
277
    -2
287
     1
 67
     0
278
    -2
288
     1
 68
     0
279
    -2
289
     1
 69
     0
  0
VISUALSTYLE
  5
A7B1
102
{ACAD_XDICTIONARY
360
A80F
102
}
102
{ACAD_REACTORS
330
A7AB
102
}
330
A7AB
100
AcDbVisualStyle
  2
2dWireframe
 70
     4
 71
     0
 72
     2
 73
     0
 90
        0
 40
-0.6
 41
-30.0
 62
     5
 63
     7
 74
     1
 91
        4
 64
     7
 65
   257
 75
     1
175
     1
 42
1.0
 92
        0
 66
   257
 43
1.0
 76
     1
 77
     6
 78
     2
 67
     7
 79
     5
170
     0
171
     0
290
     0
174
     0
 93
        1
 44
0.0
173
     0
291
     0
 45
0.0
1001
ACAD
1000
AcDbSavedByObjectVersion
1070
     0
  0
VISUALSTYLE
  5
A7B0
102
{ACAD_XDICTIONARY
360
A80D
102
}
102
{ACAD_REACTORS
330
A7AB
102
}
330
A7AB
100
AcDbVisualStyle
  2
Basic
 70
     7
 71
     1
 72
     0
 73
     1
 90
        0
 40
-0.6
 41
-30.0
 62
     5
 63
     7
 74
     0
 91
        4
 64
     7
 65
   257
 75
     1
175
     1
 42
1.0
 92
        8
 66
     7
 43
1.0
 76
     1
 77
     6
 78
     2
 67
     7
 79
     5
170
     0
171
     0
290
     0
174
     0
 93
        1
 44
0.0
173
     0
291
     1
 45
0.0
1001
ACAD
1000
AcDbSavedByObjectVersion
1070
     0
  0
VISUALSTYLE
  5
A7B7
102
{ACAD_XDICTIONARY
360
A81B
102
}
102
{ACAD_REACTORS
330
A7AB
102
}
330
A7AB
100
AcDbVisualStyle
  2
Brighten
 70
    12
 71
     2
 72
     2
 73
     0
 90
        0
 40
-0.6
 41
-30.0
 62
     5
 63
     7
 74
     1
 91
        4
 64
     7
 65
   257
 75
     1
175
     1
 42
1.0
 92
        8
 66
     7
 43
1.0
 76
     1
 77
     6
 78
     2
 67
     7
 79
     5
170
     0
171
     0
290
     0
174
     0
 93
        1
 44
50.0
173
     0
291
     1
 45
0.0
1001
ACAD
1000
AcDbSavedByObjectVersion
1070
     0
  0
VISUALSTYLE
  5
A7BB
102
{ACAD_XDICTIONARY
360
A823
102
}
102
{ACAD_REACTORS
330
A7AB
102
}
330
A7AB
100
AcDbVisualStyle
  2
ColorChange
 70
    16
 71
     2
 72
     2
 73
     3
 90
        0
 40
-0.6
 41
-30.0
 62
     5
 63
     8
 74
     1
 91
        4
 64
     7
 65
   257
 75
     1
175
     1
 42
1.0
 92
        8
 66
     8
 43
1.0
 76
     1
 77
     6
 78
     2
 67
     7
 79
     5
170
     0
171
     0
290
     0
174
     0
 93
        1
 44
0.0
173
     0
291
     1
 45
0.0
1001
ACAD
1000
AcDbSavedByObjectVersion
1070
     0
  0
VISUALSTYLE
  5
A7B4
102
{ACAD_XDICTIONARY
360
A815
102
}
102
{ACAD_REACTORS
330
A7AB
102
}
330
A7AB
100
AcDbVisualStyle
  2
Conceptual
 70
     9
 71
     3
 72
     2
 73
     0
 90
        0
 40
-0.6
 41
-30.0
 62
     5
 63
     7
 74
     2
 91
        2
 64
     7
 65
   257
 75
     1
175
     1
 42
179.0
 92
        8
 66
     7
 43
1.0
 76
     1
 77
     6
 78
     2
 67
     7
 79
     3
170
     0
171
     0
290
     0
174
     0
 93
        1
 44
0.0
173
     0
291
     0
 45
0.0
1001
ACAD
1000
AcDbSavedByObjectVersion
1070
     0
  0
VISUALSTYLE
  5
A7B6
102
{ACAD_XDICTIONARY
360
A819
102
}
102
{ACAD_REACTORS
330
A7AB
102
}
330
A7AB
100
AcDbVisualStyle
  2
Dim
 70
    11
 71
     2
 72
     2
 73
     0
 90
        0
 40
-0.6
 41
-30.0
 62
     5
 63
     7
 74
     1
 91
        4
 64
     7
 65
   257
 75
     1
175
     1
 42
1.0
 92
        8
 66
     7
 43
1.0
 76
     1
 77
     6
 78
     2
 67
     7
 79
     5
170
     0
171
     0
290
     0
174
     0
 93
        1
 44
-50.0
173
     0
291
     1
 45
0.0
1001
ACAD
1000
AcDbSavedByObjectVersion
1070
     0
  0
VISUALSTYLE
  5
A7C3
102
{ACAD_XDICTIONARY
360
A833
102
}
102
{ACAD_REACTORS
330
A7AB
102
}
330
A7AB
100
AcDbVisualStyle
  2
EdgeColorOff
 70
    22
 71
     2
 72
     2
 73
     0
 90
        0
 40
-0.6
 41
-30.0
 62
     5
 63
     7
 74
     1
 91
        4
 64
     7
 65
   257
 75
     1
175
     1
 42
1.0
 92
        8
 66
     7
 43
1.0
 76
     1
 77
     6
 78
     2
 67
     7
 79
     5
170
     0
171
     0
290
     0
174
     0
 93
        1
 44
0.0
173
     0
291
     1
 45
0.0
1001
ACAD
1000
AcDbSavedByObjectVersion
1070
     0
  0
VISUALSTYLE
  5
A7BA
102
{ACAD_XDICTIONARY
360
A821
102
}
102
{ACAD_REACTORS
330
A7AB
102
}
330
A7AB
100
AcDbVisualStyle
  2
Facepattern
 70
    15
 71
     2
 72
     2
 73
     0
 90
        0
 40
-0.6
 41
-30.0
 62
     5
 63
     7
 74
     1
 91
        4
 64
     7
 65
   257
 75
     1
175
     1
 42
1.0
 92
        8
 66
     7
 43
1.0
 76
     1
 77
     6
 78
     2
 67
     7
 79
     5
170
     0
171
     0
290
     0
174
     0
 93
        1
 44
0.0
173
     0
291
     1
 45
0.0
1001
ACAD
1000
AcDbSavedByObjectVersion
1070
     0
  0
VISUALSTYLE
  5
A7AC
102
{ACAD_XDICTIONARY
360
A805
102
}
102
{ACAD_REACTORS
330
A7AB
102
}
330
A7AB
100
AcDbVisualStyle
  2
Flat
 70
     0
 71
     2
 72
     1
 73
     1
 90
        2
 40
-0.6
 41
30.0
 62
     5
 63
     7
 74
     0
 91
        0
 64
     7
 65
   257
 75
     1
175
     1
 42
1.0
 92
        8
 66
     7
 43
1.0
 76
     1
 77
     6
 78
     2
 67
     7
 79
     5
170
     0
171
     0
290
     0
174
     0
 93
       13
 44
0.0
173
     0
291
     1
 45
0.0
1001
ACAD
1000
AcDbSavedByObjectVersion
1070
     0
  0
VISUALSTYLE
  5
A7AD
102
{ACAD_XDICTIONARY
360
A807
102
}
102
{ACAD_REACTORS
330
A7AB
102
}
330
A7AB
100
AcDbVisualStyle
  2
FlatWithEdges
 70
     1
 71
     2
 72
     1
 73
     1
 90
        2
 40
-0.6
 41
30.0
 62
     5
 63
     7
 74
     1
 91
        0
 64
     7
 65
   257
 75
     1
175
     1
 42
1.0
 92
        0
 66
   257
 43
1.0
 76
     1
 77
     6
 78
     2
 67
     7
 79
     5
170
     0
171
     0
290
     0
174
     0
 93
       13
 44
0.0
173
     0
291
     1
 45
0.0
1001
ACAD
1000
AcDbSavedByObjectVersion
1070
     0
  0
VISUALSTYLE
  5
A7AE
102
{ACAD_XDICTIONARY
360
A809
102
}
102
{ACAD_REACTORS
330
A7AB
102
}
330
A7AB
100
AcDbVisualStyle
  2
Gouraud
 70
     2
 71
     2
 72
     2
 73
     1
 90
        2
 40
-0.6
 41
30.0
 62
     5
 63
     7
 74
     0
 91
        0
 64
     7
 65
   257
 75
     1
175
     1
 42
1.0
 92
        0
 66
     7
 43
1.0
 76
     1
 77
     6
 78
     2
 67
     7
 79
     5
170
     0
171
     0
290
     0
174
     0
 93
       13
 44
0.0
173
     0
291
     1
 45
0.0
1001
ACAD
1000
AcDbSavedByObjectVersion
1070
     0
  0
VISUALSTYLE
  5
A7AF
102
{ACAD_XDICTIONARY
360
A80B
102
}
102
{ACAD_REACTORS
330
A7AB
102
}
330
A7AB
100
AcDbVisualStyle
  2
GouraudWithEdges
 70
     3
 71
     2
 72
     2
 73
     1
 90
        2
 40
-0.6
 41
30.0
 62
     5
 63
     7
 74
     1
 91
        0
 64
     7
 65
   257
 75
     1
175
     1
 42
1.0
 92
        0
 66
   257
 43
1.0
 76
     1
 77
     6
 78
     2
 67
     7
 79
     5
170
     0
171
     0
290
     0
174
     0
 93
       13
 44
0.0
173
     0
291
     1
 45
0.0
1001
ACAD
1000
AcDbSavedByObjectVersion
1070
     0
  0
VISUALSTYLE
  5
A7B3
102
{ACAD_XDICTIONARY
360
A813
102
}
102
{ACAD_REACTORS
330
A7AB
102
}
330
A7AB
100
AcDbVisualStyle
  2
Hidden
 70
     6
 71
     1
 72
     2
 73
     2
 90
        0
 40
-0.6
 41
-30.0
 62
     5
 63
     7
 74
     2
 91
        2
 64
     7
 65
   257
 75
     2
175
     1
 42
40.0
 92
        0
 66
   257
 43
1.0
 76
     1
 77
     6
 78
     2
 67
     7
 79
     3
170
     0
171
     0
290
     0
174
     0
 93
        1
 44
0.0
173
     0
291
     0
 45
0.0
1001
ACAD
1000
AcDbSavedByObjectVersion
1070
     0
  0
VISUALSTYLE
  5
A7C1
102
{ACAD_XDICTIONARY
360
A82F
102
}
102
{ACAD_REACTORS
330
A7AB
102
}
330
A7AB
100
AcDbVisualStyle
  2
JitterOff
 70
    20
 71
     2
 72
     2
 73
     0
 90
        0
 40
-0.6
 41
-30.0
 62
     5
 63
     7
 74
     1
 91
        4
 64
     7
 65
   257
 75
     1
175
     1
 42
1.0
 92
       10
 66
     7
 43
1.0
 76
     1
 77
     6
 78
     2
 67
     7
 79
     5
170
     0
171
     0
290
     0
174
     0
 93
        1
 44
0.0
173
     0
291
     1
 45
0.0
1001
ACAD
1000
AcDbSavedByObjectVersion
1070
     0
  0
VISUALSTYLE
  5
A7B9
102
{ACAD_XDICTIONARY
360
A81F
102
}
102
{ACAD_REACTORS
330
A7AB
102
}
330
A7AB
100
AcDbVisualStyle
  2
Linepattern
 70
    14
 71
     2
 72
     2
 73
     0
 90
        0
 40
-0.6
 41
-30.0
 62
     5
 63
     7
 74
     1
 91
        4
 64
     7
 65
   257
 75
     7
175
     7
 42
1.0
 92
        8
 66
     7
 43
1.0
 76
     1
 77
     6
 78
     2
 67
     7
 79
     5
170
     0
171
     0
290
     0
174
     0
 93
        1
 44
0.0
173
     0
291
     1
 45
0.0
1001
ACAD
1000
AcDbSavedByObjectVersion
1070
     0
  0
VISUALSTYLE
  5
A7C2
102
{ACAD_XDICTIONARY
360
A831
102
}
102
{ACAD_REACTORS
330
A7AB
102
}
330
A7AB
100
AcDbVisualStyle
  2
OverhangOff
 70
    21
 71
     2
 72
     2
 73
     0
 90
        0
 40
-0.6
 41
-30.0
 62
     5
 63
     7
 74
     1
 91
        4
 64
     7
 65
   257
 75
     1
175
     1
 42
1.0
 92
        9
 66
     7
 43
1.0
 76
     1
 77
     6
 78
     2
 67
     7
 79
     5
170
     0
171
     0
290
     0
174
     0
 93
        1
 44
0.0
173
     0
291
     1
 45
0.0
1001
ACAD
1000
AcDbSavedByObjectVersion
1070
     0
  0
VISUALSTYLE
  5
A7B5
102
{ACAD_XDICTIONARY
360
A817
102
}
102
{ACAD_REACTORS
330
A7AB
102
}
330
A7AB
100
AcDbVisualStyle
  2
Realistic
 70
     8
 71
     2
 72
     3
 73
     0
 90
        2
 40
-0.6
 41
30.0
 62
     5
 63
     7
 74
     0
 91
        0
 64
     7
 65
   257
 75
     1
175
     1
 42
1.0
 92
        8
 66
   257
 43
1.0
 76
     1
 77
     6
 78
     2
 67
     7
 79
     3
170
     0
171
     0
290
     0
174
     0
 93
       13
 44
0.0
173
     0
291
     0
 45
0.0
1001
ACAD
1000
AcDbSavedByObjectVersion
1070
     0
  0
VISUALSTYLE
  5
A7C0
102
{ACAD_XDICTIONARY
360
A82D
102
}
102
{ACAD_REACTORS
330
A7AB
102
}
330
A7AB
100
AcDbVisualStyle
  2
Shaded
 70
    27
 71
     2
 72
     2
 73
     1
 90
        2
 40
-0.6
 41
30.0
 62
     5
 63
     7
 74
     0
 91
        4
 64
     7
 65
   257
 75
     1
175
     1
 42
1.0
 92
        8
 66
   257
 43
1.0
 76
     1
 77
     6
 78
     2
 67
     8
 79
     3
170
     0
171
     0
290
     0
174
     0
 93
        5
 44
0.0
173
     0
291
     0
 45
0.0
1001
ACAD
1000
AcDbSavedByObjectVersion
1070
     0
  0
VISUALSTYLE
  5
A7BF
102
{ACAD_XDICTIONARY
360
A82B
102
}
102
{ACAD_REACTORS
330
A7AB
102
}
330
A7AB
100
AcDbVisualStyle
  2
Shaded with edges
 70
    26
 71
     2
 72
     2
 73
     1
 90
        2
 40
-0.6
 41
30.0
 62
     5
 63
     7
 74
     1
 91
       10
 64
     7
 65
   257
 75
     2
175
     1
 42
1.0
 92
        8
 66
   257
 43
1.0
 76
     1
 77
     6
 78
     2
 67
     7
 79
     3
170
     0
171
     0
290
     0
174
     0
 93
        5
 44
0.0
173
     0
291
     0
 45
0.0
1001
ACAD
1000
AcDbSavedByObjectVersion
1070
     0
  0
VISUALSTYLE
  5
A7BC
102
{ACAD_XDICTIONARY
360
A825
102
}
102
{ACAD_REACTORS
330
A7AB
102
}
330
A7AB
100
AcDbVisualStyle
  2
Shades of Gray
 70
    23
 71
     2
 72
     2
 73
     3
 90
        0
 40
-0.6
 41
-30.0
 62
     5
 63
     7
 74
     2
 91
        2
 64
     7
 65
     7
 75
     1
175
     1
 42
40.0
 92
        8
 66
     7
 43
1.0
 76
     1
 77
     6
 78
     2
 67
     7
 79
     3
170
     0
171
     0
290
     0
174
     0
 93
        1
 44
0.0
173
     0
291
     0
 45
0.0
1001
ACAD
1000
AcDbSavedByObjectVersion
1070
     0
  0
VISUALSTYLE
  5
A7BD
102
{ACAD_XDICTIONARY
360
A827
102
}
102
{ACAD_REACTORS
330
A7AB
102
}
330
A7AB
100
AcDbVisualStyle
  2
Sketchy
 70
    24
 71
     1
 72
     2
 73
     2
 90
        0
 40
-0.6
 41
-30.0
 62
     5
 63
     7
 74
     2
 91
        2
 64
     7
 65
     7
 75
     1
175
     1
 42
40.0
 92
       11
 66
     7
 43
1.0
 76
     1
 77
     6
 78
     2
 67
     7
 79
     6
170
     0
171
     0
290
     0
174
     0
 93
        1
 44
0.0
173
     0
291
     0
 45
0.0
1001
ACAD
1000
AcDbSavedByObjectVersion
1070
     0
  0
VISUALSTYLE
  5
A7B8
102
{ACAD_XDICTIONARY
360
A81D
102
}
102
{ACAD_REACTORS
330
A7AB
102
}
330
A7AB
100
AcDbVisualStyle
  2
Thicken
 70
    13
 71
     2
 72
     2
 73
     0
 90
        0
 40
-0.6
 41
-30.0
 62
     5
 63
     7
 74
     1
 91
        4
 64
     7
 65
   257
 75
     1
175
     1
 42
1.0
 92
       12
 66
     7
 43
1.0
 76
     1
 77
     6
 78
     2
 67
     7
 79
     5
170
     0
171
     0
290
     0
174
     0
 93
        1
 44
0.0
173
     0
291
     1
 45
0.0
1001
ACAD
1000
AcDbSavedByObjectVersion
1070
     0
  0
VISUALSTYLE
  5
A7B2
102
{ACAD_XDICTIONARY
360
A811
102
}
102
{ACAD_REACTORS
330
A7AB
102
}
330
A7AB
100
AcDbVisualStyle
  2
Wireframe
 70
     5
 71
     0
 72
     2
 73
     0
 90
        0
 40
-0.6
 41
-30.0
 62
     5
 63
     7
 74
     1
 91
        4
 64
     7
 65
   257
 75
     1
175
     1
 42
1.0
 92
        0
 66
   257
 43
1.0
 76
     1
 77
     6
 78
     2
 67
     7
 79
     3
170
     0
171
     0
290
     0
174
     0
 93
        1
 44
0.0
173
     0
291
     0
 45
0.0
1001
ACAD
1000
AcDbSavedByObjectVersion
1070
     0
  0
VISUALSTYLE
  5
A7BE
102
{ACAD_XDICTIONARY
360
A829
102
}
102
{ACAD_REACTORS
330
A7AB
102
}
330
A7AB
100
AcDbVisualStyle
  2
X-Ray
 70
    25
 71
     2
 72
     2
 73
     1
 90
        1
 40
0.5
 41
-30.0
 62
     5
 63
     7
 74
     1
 91
        0
 64
     7
 65
   257
 75
     1
175
     1
 42
1.0
 92
        8
 66
     7
 43
1.0
 76
     1
 77
     6
 78
     2
 67
     7
 79
     3
170
     0
171
     0
290
     0
174
     0
 93
       13
 44
0.0
173
     0
291
     0
 45
0.0
1001
ACAD
1000
AcDbSavedByObjectVersion
1070
     0
  0
DICTIONARYVAR
  5
A7F8
102
{ACAD_REACTORS
330
A7F3
102
}
330
A7F3
100
DictionaryVariables
280
     0
  1
1:1
  0
DICTIONARYVAR
  5
A7F5
102
{ACAD_REACTORS
330
A7F3
102
}
330
A7F3
100
DictionaryVariables
280
     0
  1
STANDARD
  0
DICTIONARYVAR
  5
A7F4
102
{ACAD_REACTORS
330
A7F3
102
}
330
A7F3
100
DictionaryVariables
280
     0
  1
STANDARD
  0
DICTIONARYVAR
  5
A7F6
102
{ACAD_REACTORS
330
A7F3
102
}
330
A7F3
100
DictionaryVariables
280
     0
  1
Imperial24
  0
DICTIONARYVAR
  5
A7F7
102
{ACAD_REACTORS
330
A7F3
102
}
330
A7F3
100
DictionaryVariables
280
     0
  1
Imperial24
  0
DICTIONARYVAR
  5
A7FB
102
{ACAD_REACTORS
330
A7F3
102
}
330
A7F3
100
DictionaryVariables
280
     0
  1
1
  0
DICTIONARYVAR
  5
A7FA
102
{ACAD_REACTORS
330
A7F3
102
}
330
A7F3
100
DictionaryVariables
280
     0
  1
0
  0
DICTIONARYVAR
  5
A7F9
102
{ACAD_REACTORS
330
A7F3
102
}
330
A7F3
100
DictionaryVariables
280
     0
  1
127
  0
DICTIONARYVAR
  5
A7FC
102
{ACAD_REACTORS
330
A7F3
102
}
330
A7F3
100
DictionaryVariables
280
     0
  1
2
  0
DICTIONARY
  5
A839
330
A7DE
100
AcDbDictionary
280
     1
281
     1
  3
ACAD_XREC_ROUNDTRIP
360
A83A
  0
DICTIONARY
  5
A83B
330
A7DF
100
AcDbDictionary
280
     1
281
     1
  3
ACAD_XREC_ROUNDTRIP
360
A83C
  0
DICTIONARY
  5
A83D
330
A7E0
100
AcDbDictionary
280
     1
281
     1
  3
ACAD_XREC_ROUNDTRIP
360
A83E
  0
DICTIONARY
  5
A79C
330
A79B
100
AcDbDictionary
280
     1
281
     1
  3
ACAD_XREC_ROUNDTRIP
360
A803
  3
BUMPTILE
360
A79E
  3
DIFFUSETILE
360
A79D
  3
OPACITYTILE
360
A7A1
  3
REFLECTIONTILE
360
A7A0
  3
REFRACTIONTILE
360
A7A2
  3
SPECULARTILE
360
A79F
  0
DICTIONARY
  5
A794
330
A793
100
AcDbDictionary
280
     1
281
     1
  3
ACAD_XREC_ROUNDTRIP
360
A802
  3
BUMPTILE
360
A796
  3
DIFFUSETILE
360
A795
  3
OPACITYTILE
360
A799
  3
REFLECTIONTILE
360
A798
  3
REFRACTIONTILE
360
A79A
  3
SPECULARTILE
360
A797
  0
DICTIONARY
  5
A7A4
330
A7A3
100
AcDbDictionary
280
     1
281
     1
  3
ACAD_XREC_ROUNDTRIP
360
A804
  3
BUMPTILE
360
A7A6
  3
DIFFUSETILE
360
A7A5
  3
OPACITYTILE
360
A7A9
  3
REFLECTIONTILE
360
A7A8
  3
REFRACTIONTILE
360
A7AA
  3
SPECULARTILE
360
A7A7
  0
DICTIONARY
  5
A837
330
A7DC
100
AcDbDictionary
280
     1
281
     1
  3
ACAD_XREC_ROUNDTRIP
360
A838
  0
DICTIONARY
  5
A7FE
330
A7C6
100
AcDbDictionary
280
     1
281
     1
  3
ACAD_ROUNDTRIP_2008_TABLESTYLE_CELLSTYLEMAP
360
A7FF
  3
ACAD_XREC_ROUNDTRIP
360
A835
  0
DICTIONARY
  5
A80F
330
A7B1
100
AcDbDictionary
280
     1
281
     1
  3
ACAD_XREC_ROUNDTRIP
360
A810
  0
DICTIONARY
  5
A80D
330
A7B0
100
AcDbDictionary
280
     1
281
     1
  3
ACAD_XREC_ROUNDTRIP
360
A80E
  0
DICTIONARY
  5
A81B
330
A7B7
100
AcDbDictionary
280
     1
281
     1
  3
ACAD_XREC_ROUNDTRIP
360
A81C
  0
DICTIONARY
  5
A823
330
A7BB
100
AcDbDictionary
280
     1
281
     1
  3
ACAD_XREC_ROUNDTRIP
360
A824
  0
DICTIONARY
  5
A815
330
A7B4
100
AcDbDictionary
280
     1
281
     1
  3
ACAD_XREC_ROUNDTRIP
360
A816
  0
DICTIONARY
  5
A819
330
A7B6
100
AcDbDictionary
280
     1
281
     1
  3
ACAD_XREC_ROUNDTRIP
360
A81A
  0
DICTIONARY
  5
A833
330
A7C3
100
AcDbDictionary
280
     1
281
     1
  3
ACAD_XREC_ROUNDTRIP
360
A834
  0
DICTIONARY
  5
A821
330
A7BA
100
AcDbDictionary
280
     1
281
     1
  3
ACAD_XREC_ROUNDTRIP
360
A822
  0
DICTIONARY
  5
A805
330
A7AC
100
AcDbDictionary
280
     1
281
     1
  3
ACAD_XREC_ROUNDTRIP
360
A806
  0
DICTIONARY
  5
A807
330
A7AD
100
AcDbDictionary
280
     1
281
     1
  3
ACAD_XREC_ROUNDTRIP
360
A808
  0
DICTIONARY
  5
A809
330
A7AE
100
AcDbDictionary
280
     1
281
     1
  3
ACAD_XREC_ROUNDTRIP
360
A80A
  0
DICTIONARY
  5
A80B
330
A7AF
100
AcDbDictionary
280
     1
281
     1
  3
ACAD_XREC_ROUNDTRIP
360
A80C
  0
DICTIONARY
  5
A813
330
A7B3
100
AcDbDictionary
280
     1
281
     1
  3
ACAD_XREC_ROUNDTRIP
360
A814
  0
DICTIONARY
  5
A82F
330
A7C1
100
AcDbDictionary
280
     1
281
     1
  3
ACAD_XREC_ROUNDTRIP
360
A830
  0
DICTIONARY
  5
A81F
330
A7B9
100
AcDbDictionary
280
     1
281
     1
  3
ACAD_XREC_ROUNDTRIP
360
A820
  0
DICTIONARY
  5
A831
330
A7C2
100
AcDbDictionary
280
     1
281
     1
  3
ACAD_XREC_ROUNDTRIP
360
A832
  0
DICTIONARY
  5
A817
330
A7B5
100
AcDbDictionary
280
     1
281
     1
  3
ACAD_XREC_ROUNDTRIP
360
A818
  0
DICTIONARY
  5
A82D
330
A7C0
100
AcDbDictionary
280
     1
281
     1
  3
ACAD_XREC_ROUNDTRIP
360
A82E
  0
DICTIONARY
  5
A82B
330
A7BF
100
AcDbDictionary
280
     1
281
     1
  3
ACAD_XREC_ROUNDTRIP
360
A82C
  0
DICTIONARY
  5
A825
330
A7BC
100
AcDbDictionary
280
     1
281
     1
  3
ACAD_XREC_ROUNDTRIP
360
A826
  0
DICTIONARY
  5
A827
330
A7BD
100
AcDbDictionary
280
     1
281
     1
  3
ACAD_XREC_ROUNDTRIP
360
A828
  0
DICTIONARY
  5
A81D
330
A7B8
100
AcDbDictionary
280
     1
281
     1
  3
ACAD_XREC_ROUNDTRIP
360
A81E
  0
DICTIONARY
  5
A811
330
A7B2
100
AcDbDictionary
280
     1
281
     1
  3
ACAD_XREC_ROUNDTRIP
360
A812
  0
DICTIONARY
  5
A829
330
A7BE
100
AcDbDictionary
280
     1
281
     1
  3
ACAD_XREC_ROUNDTRIP
360
A82A
  0
XRECORD
  5
A83A
102
{ACAD_REACTORS
330
A839
102
}
330
A839
100
AcDbXrecord
280
     1
102
DISPLAYNAME
  1
Imperial24
102
FLAGS
 90
        0
  0
XRECORD
  5
A83C
102
{ACAD_REACTORS
330
A83B
102
}
330
A83B
100
AcDbXrecord
280
     1
102
SHADEPLOT
 70
     0
102
SHADEPLOTRESLEVEL
 70
     2
102
SHADEPLOTCUSTOMDPI
 70
   300
  0
XRECORD
  5
A83E
102
{ACAD_REACTORS
330
A83D
102
}
330
A83D
100
AcDbXrecord
280
     1
102
SHADEPLOT
 70
     0
102
SHADEPLOTRESLEVEL
 70
     2
102
SHADEPLOTCUSTOMDPI
 70
   300
  0
XRECORD
  5
A803
102
{ACAD_REACTORS
330
A79C
102
}
330
A79C
100
AcDbXrecord
280
     1
102
MATERIAL
148
0.0
149
0.0
149
0.0
 93
        0
 94
      127
282
     0
 72
     0
 77
     0
171
     0
175
     0
179
     0
273
     0
  0
XRECORD
  5
A79E
102
{ACAD_REACTORS
330
A79C
102
}
330
A79C
100
AcDbXrecord
280
     1
270
     1
271
     1
  0
XRECORD
  5
A79D
102
{ACAD_REACTORS
330
A79C
102
}
330
A79C
100
AcDbXrecord
280
     1
270
     1
271
     1
  0
XRECORD
  5
A7A1
102
{ACAD_REACTORS
330
A79C
102
}
330
A79C
100
AcDbXrecord
280
     1
270
     1
271
     1
  0
XRECORD
  5
A7A0
102
{ACAD_REACTORS
330
A79C
102
}
330
A79C
100
AcDbXrecord
280
     1
270
     1
271
     1
  0
XRECORD
  5
A7A2
102
{ACAD_REACTORS
330
A79C
102
}
330
A79C
100
AcDbXrecord
280
     1
270
     1
271
     1
  0
XRECORD
  5
A79F
102
{ACAD_REACTORS
330
A79C
102
}
330
A79C
100
AcDbXrecord
280
     1
270
     1
271
     1
  0
XRECORD
  5
A802
102
{ACAD_REACTORS
330
A794
102
}
330
A794
100
AcDbXrecord
280
     1
102
MATERIAL
148
0.0
149
0.0
149
0.0
 93
        0
 94
      127
282
     0
 72
     0
 77
     0
171
     0
175
     0
179
     0
273
     0
  0
XRECORD
  5
A796
102
{ACAD_REACTORS
330
A794
102
}
330
A794
100
AcDbXrecord
280
     1
270
     1
271
     1
  0
XRECORD
  5
A795
102
{ACAD_REACTORS
330
A794
102
}
330
A794
100
AcDbXrecord
280
     1
270
     1
271
     1
  0
XRECORD
  5
A799
102
{ACAD_REACTORS
330
A794
102
}
330
A794
100
AcDbXrecord
280
     1
270
     1
271
     1
  0
XRECORD
  5
A798
102
{ACAD_REACTORS
330
A794
102
}
330
A794
100
AcDbXrecord
280
     1
270
     1
271
     1
  0
XRECORD
  5
A79A
102
{ACAD_REACTORS
330
A794
102
}
330
A794
100
AcDbXrecord
280
     1
270
     1
271
     1
  0
XRECORD
  5
A797
102
{ACAD_REACTORS
330
A794
102
}
330
A794
100
AcDbXrecord
280
     1
270
     1
271
     1
  0
XRECORD
  5
A804
102
{ACAD_REACTORS
330
A7A4
102
}
330
A7A4
100
AcDbXrecord
280
     1
102
MATERIAL
148
0.0
149
0.0
149
0.0
 93
        0
 94
      127
282
     0
 72
     0
 77
     0
171
     0
175
     0
179
     0
273
     0
  0
XRECORD
  5
A7A6
102
{ACAD_REACTORS
330
A7A4
102
}
330
A7A4
100
AcDbXrecord
280
     1
270
     1
271
     1
  0
XRECORD
  5
A7A5
102
{ACAD_REACTORS
330
A7A4
102
}
330
A7A4
100
AcDbXrecord
280
     1
270
     1
271
     1
  0
XRECORD
  5
A7A9
102
{ACAD_REACTORS
330
A7A4
102
}
330
A7A4
100
AcDbXrecord
280
     1
270
     1
271
     1
  0
XRECORD
  5
A7A8
102
{ACAD_REACTORS
330
A7A4
102
}
330
A7A4
100
AcDbXrecord
280
     1
270
     1
271
     1
  0
XRECORD
  5
A7AA
102
{ACAD_REACTORS
330
A7A4
102
}
330
A7A4
100
AcDbXrecord
280
     1
270
     1
271
     1
  0
XRECORD
  5
A7A7
102
{ACAD_REACTORS
330
A7A4
102
}
330
A7A4
100
AcDbXrecord
280
     1
270
     1
271
     1
  0
XRECORD
  5
A838
102
{ACAD_REACTORS
330
A837
102
}
330
A837
100
AcDbXrecord
280
     1
102
DISPLAYNAME
  1
Imperial24
102
FLAGS
 90
        0
  0
CELLSTYLEMAP
  5
A7FF
102
{ACAD_REACTORS
330
A7FE
102
}
330
A7FE
100
AcDbCellStyleMap
 90
        3
300
CELLSTYLE
  1
TABLEFORMAT_BEGIN
 90
        5
170
     1
 91
        0
 92
    32768
 62
   257
 93
        1
300
CONTENTFORMAT
  1
CONTENTFORMAT_BEGIN
 90
        0
 91
        0
 92
      512
 93
        0
300

 40
0.0
140
1.0
 94
        5
 62
     0
340
A4C9
144
0.25
309
CONTENTFORMAT_END
171
     0
 94
        0
309
TABLEFORMAT_END
  1
CELLSTYLE_BEGIN
 90
        1
 91
        1
300
_TITLE
309
CELLSTYLE_END
300
CELLSTYLE
  1
TABLEFORMAT_BEGIN
 90
        5
170
     1
 91
        0
 92
        0
 62
   257
 93
        1
300
CONTENTFORMAT
  1
CONTENTFORMAT_BEGIN
 90
        0
 91
        0
 92
      512
 93
        0
300

 40
0.0
140
1.0
 94
        5
 62
     0
340
A4C9
144
0.18
309
CONTENTFORMAT_END
171
     0
 94
        0
309
TABLEFORMAT_END
  1
CELLSTYLE_BEGIN
 90
        2
 91
        1
300
_HEADER
309
CELLSTYLE_END
300
CELLSTYLE
  1
TABLEFORMAT_BEGIN
 90
        5
170
     1
 91
        0
 92
        0
 62
   257
 93
        1
300
CONTENTFORMAT
  1
CONTENTFORMAT_BEGIN
 90
        0
 91
        0
 92
      512
 93
        0
300

 40
0.0
140
1.0
 94
        2
 62
     0
340
A4C9
144
0.18
309
CONTENTFORMAT_END
171
     0
 94
        0
309
TABLEFORMAT_END
  1
CELLSTYLE_BEGIN
 90
        3
 91
        2
300
_DATA
309
CELLSTYLE_END
  0
XRECORD
  5
A835
102
{ACAD_REACTORS
330
A7FE
102
}
330
A7FE
100
AcDbXrecord
280
     1
102
ACAD_ROUNDTRIP_PRE2007_TABLESTYLE
 90
      512
 91
        0
  1

 92
      512
 93
        0
  2

 94
      512
 95
        0
  3

  0
XRECORD
  5
A810
102
{ACAD_REACTORS
330
A80F
102
}
330
A80F
100
AcDbXrecord
280
     1
102
RTVSPost2010Prop28
280
     1
102
RTVSPost2010PropOp28
 70
     1
102
RTVSPost2010Prop29
280
     1
102
RTVSPost2010PropOp29
 70
     1
102
RTVSPost2010Prop30
280
     0
102
RTVSPost2010PropOp30
 70
     1
102
RTVSPost2010Prop31
280
     0
102
RTVSPost2010PropOp31
 70
     1
102
RTVSPost2010Prop32
280
     0
102
RTVSPost2010PropOp32
 70
     1
102
RTVSPost2010Prop33
280
     0
102
RTVSPost2010PropOp33
 70
     1
102
RTVSPost2010Prop34
280
     0
102
RTVSPost2010PropOp34
 70
     1
102
RTVSPost2010Prop35
280
     0
102
RTVSPost2010PropOp35
 70
     1
102
RTVSPost2010Prop36
280
     0
102
RTVSPost2010PropOp36
 70
     1
102
RTVSPost2010Prop37
 90
       50
102
RTVSPost2010PropOp37
 70
     1
102
RTVSPost2010Prop38
140
0.0
102
RTVSPost2010PropOp38
 70
     1
102
RTVSPost2010Prop39
140
1.0
102
RTVSPost2010PropOp39
 70
     1
102
RTVSPost2010Prop40
 90
        0
102
RTVSPost2010PropOp40
 70
     1
102
RTVSPost2010Prop41ColorIndex
 90
       18
102
RTVSPost2010Prop41ColorRGB
 90
        0
102
RTVSPost2010PropOp41
 70
     1
102
RTVSPost2010Prop42
 90
       50
102
RTVSPost2010PropOp42
 70
     1
102
RTVSPost2010Prop43
 90
        3
102
RTVSPost2010PropOp43
 70
     1
102
RTVSPost2010Prop44ColorIndex
 90
        5
102
RTVSPost2010Prop44ColorRGB
 90
      255
102
RTVSPost2010PropOp44
 70
     1
102
RTVSPost2010Prop45
280
     0
102
RTVSPost2010PropOp45
 70
     1
102
RTVSPost2010Prop46
 90
       50
102
RTVSPost2010PropOp46
 70
     1
102
RTVSPost2010Prop47
 90
       50
102
RTVSPost2010PropOp47
 70
     1
102
RTVSPost2010Prop48
 90
       50
102
RTVSPost2010PropOp48
 70
     1
102
RTVSPost2010Prop49
280
     0
102
RTVSPost2010PropOp49
 70
     1
102
RTVSPost2010Prop50
 90
       50
102
RTVSPost2010PropOp50
 70
     1
102
RTVSPost2010Prop51ColorIndex
 90
      256
102
RTVSPost2010Prop51ColorRGB
 90
-16777216
102
RTVSPost2010PropOp51
 70
     0
102
RTVSPost2010Prop52
140
1.0
102
RTVSPost2010PropOp52
 70
     0
102
RTVSPost2010Prop53
 90
        2
102
RTVSPost2010PropOp53
 70
     1
102
RTVSPost2010Prop54
  1
strokes_ogs.tif
102
RTVSPost2010PropOp54
 70
     1
102
RTVSPost2010Prop55
280
     0
102
RTVSPost2010PropOp55
 70
     1
102
RTVSPost2010Prop56
140
1.0
102
RTVSPost2010PropOp56
 70
     1
102
RTVSPost2010Prop57
140
1.0
102
RTVSPost2010PropOp57
 70
     1
102
RTVSPropertyOp0
 70
     1
102
RTVSPropertyOp1
 70
     1
102
RTVSPropertyOp2
 70
     1
102
RTVSPropertyOp3
 70
     1
102
RTVSPropertyOp4
 70
     1
102
RTVSPropertyOp5
 70
     1
102
RTVSPropertyOp6
 70
     1
102
RTVSPropertyOp7
 70
     1
102
RTVSPropertyOp8
 70
     1
102
RTVSPropertyOp9
 70
     1
102
RTVSPropertyOp10
 70
     1
102
RTVSPropertyOp11
 70
     1
102
RTVSPropertyOp12
 70
     1
102
RTVSPropertyOp13
 70
     1
102
RTVSPropertyOp14
 70
     1
102
RTVSPropertyOp15
 70
     1
102
RTVSPropertyOp16
 70
     1
102
RTVSPropertyOp17
 70
     1
102
RTVSPropertyOp18
 70
     1
102
RTVSPropertyOp19
 70
     1
102
RTVSPropertyOp20
 70
     1
102
RTVSPropertyOp21
 70
     1
102
RTVSPropertyOp22
 70
     1
102
RTVSPropertyOp23
 70
     1
102
RTVSPropertyOp24
 70
     1
102
RTVSPropertyOp25
 70
     1
102
RTVSPropertyOp26
 70
     1
102
RTVSPropertyOp27
 70
     1
102
RTVSPropertyOp28
 70
     1
102
RTVSPropertyOp29
 70
     1
102
RTVSPropertyOp30
 70
     1
102
RTVSPropertyOp31
 70
     1
102
RTVSPropertyOp32
 70
     1
102
RTVSPropertyOp33
 70
     1
102
RTVSPropertyOp34
 70
     1
102
RTVSPropertyOp35
 70
     1
102
RTVSPropertyOp36
 70
     1
102
RTVSPropertyOp37
 70
     1
102
RTVSPropertyOp38
 70
     1
102
RTVSPropertyOp39
 70
     1
102
RTVSPropertyOp40
 70
     1
102
RTVSPropertyOp41
 70
     1
102
RTVSPropertyOp42
 70
     1
102
RTVSPropertyOp43
 70
     1
102
RTVSPropertyOp44
 70
     1
102
RTVSPropertyOp45
 70
     1
102
RTVSPropertyOp46
 70
     1
102
RTVSPropertyOp47
 70
     1
102
RTVSPropertyOp48
 70
     1
102
RTVSPropertyOp49
 70
     1
102
RTVSPropertyOp50
 70
     1
102
RTVSPropertyOp51
 70
     0
102
RTVSPropertyOp52
 70
     0
102
RTVSPropertyOp53
 70
     1
102
RTVSPropertyOp54
 70
     1
102
RTVSPropertyOp55
 70
     1
102
RTVSPropertyOp56
 70
     1
102
RTVSPropertyOp57
 70
     1
102
RTVSPropertyOp58
 70
     1
102
RTVSPropertyOp59
 70
     1
102
RTVSPropertyOp60
 70
     1
102
RTVSPropertyOp61
 70
     1
102
RTVSPropertyOp62
 70
     1
  0
XRECORD
  5
A80E
102
{ACAD_REACTORS
330
A80D
102
}
330
A80D
100
AcDbXrecord
280
     1
102
RTVSPost2010Prop28
280
     0
102
RTVSPost2010PropOp28
 70
     1
102
RTVSPost2010Prop29
280
     1
102
RTVSPost2010PropOp29
 70
     1
102
RTVSPost2010Prop30
280
     1
102
RTVSPost2010PropOp30
 70
     1
102
RTVSPost2010Prop31
280
     0
102
RTVSPost2010PropOp31
 70
     1
102
RTVSPost2010Prop32
280
     0
102
RTVSPost2010PropOp32
 70
     1
102
RTVSPost2010Prop33
280
     0
102
RTVSPost2010PropOp33
 70
     1
102
RTVSPost2010Prop34
280
     0
102
RTVSPost2010PropOp34
 70
     1
102
RTVSPost2010Prop35
280
     0
102
RTVSPost2010PropOp35
 70
     1
102
RTVSPost2010Prop36
280
     0
102
RTVSPost2010PropOp36
 70
     1
102
RTVSPost2010Prop37
 90
       50
102
RTVSPost2010PropOp37
 70
     1
102
RTVSPost2010Prop38
140
0.0
102
RTVSPost2010PropOp38
 70
     1
102
RTVSPost2010Prop39
140
1.0
102
RTVSPost2010PropOp39
 70
     1
102
RTVSPost2010Prop40
 90
        0
102
RTVSPost2010PropOp40
 70
     1
102
RTVSPost2010Prop41ColorIndex
 90
       18
102
RTVSPost2010Prop41ColorRGB
 90
        0
102
RTVSPost2010PropOp41
 70
     1
102
RTVSPost2010Prop42
 90
       50
102
RTVSPost2010PropOp42
 70
     1
102
RTVSPost2010Prop43
 90
        3
102
RTVSPost2010PropOp43
 70
     1
102
RTVSPost2010Prop44ColorIndex
 90
        5
102
RTVSPost2010Prop44ColorRGB
 90
      255
102
RTVSPost2010PropOp44
 70
     1
102
RTVSPost2010Prop45
280
     0
102
RTVSPost2010PropOp45
 70
     1
102
RTVSPost2010Prop46
 90
       50
102
RTVSPost2010PropOp46
 70
     1
102
RTVSPost2010Prop47
 90
       50
102
RTVSPost2010PropOp47
 70
     1
102
RTVSPost2010Prop48
 90
       50
102
RTVSPost2010PropOp48
 70
     1
102
RTVSPost2010Prop49
280
     0
102
RTVSPost2010PropOp49
 70
     1
102
RTVSPost2010Prop50
 90
       50
102
RTVSPost2010PropOp50
 70
     1
102
RTVSPost2010Prop51ColorIndex
 90
      256
102
RTVSPost2010Prop51ColorRGB
 90
-16777216
102
RTVSPost2010PropOp51
 70
     0
102
RTVSPost2010Prop52
140
1.0
102
RTVSPost2010PropOp52
 70
     0
102
RTVSPost2010Prop53
 90
        2
102
RTVSPost2010PropOp53
 70
     1
102
RTVSPost2010Prop54
  1
strokes_ogs.tif
102
RTVSPost2010PropOp54
 70
     1
102
RTVSPost2010Prop55
280
     0
102
RTVSPost2010PropOp55
 70
     1
102
RTVSPost2010Prop56
140
1.0
102
RTVSPost2010PropOp56
 70
     1
102
RTVSPost2010Prop57
140
1.0
102
RTVSPost2010PropOp57
 70
     1
102
RTVSPropertyOp0
 70
     1
102
RTVSPropertyOp1
 70
     1
102
RTVSPropertyOp2
 70
     1
102
RTVSPropertyOp3
 70
     1
102
RTVSPropertyOp4
 70
     1
102
RTVSPropertyOp5
 70
     1
102
RTVSPropertyOp6
 70
     1
102
RTVSPropertyOp7
 70
     1
102
RTVSPropertyOp8
 70
     1
102
RTVSPropertyOp9
 70
     1
102
RTVSPropertyOp10
 70
     1
102
RTVSPropertyOp11
 70
     1
102
RTVSPropertyOp12
 70
     1
102
RTVSPropertyOp13
 70
     1
102
RTVSPropertyOp14
 70
     1
102
RTVSPropertyOp15
 70
     1
102
RTVSPropertyOp16
 70
     1
102
RTVSPropertyOp17
 70
     1
102
RTVSPropertyOp18
 70
     1
102
RTVSPropertyOp19
 70
     1
102
RTVSPropertyOp20
 70
     1
102
RTVSPropertyOp21
 70
     1
102
RTVSPropertyOp22
 70
     1
102
RTVSPropertyOp23
 70
     1
102
RTVSPropertyOp24
 70
     1
102
RTVSPropertyOp25
 70
     1
102
RTVSPropertyOp26
 70
     1
102
RTVSPropertyOp27
 70
     1
102
RTVSPropertyOp28
 70
     1
102
RTVSPropertyOp29
 70
     1
102
RTVSPropertyOp30
 70
     1
102
RTVSPropertyOp31
 70
     1
102
RTVSPropertyOp32
 70
     1
102
RTVSPropertyOp33
 70
     1
102
RTVSPropertyOp34
 70
     1
102
RTVSPropertyOp35
 70
     1
102
RTVSPropertyOp36
 70
     1
102
RTVSPropertyOp37
 70
     1
102
RTVSPropertyOp38
 70
     1
102
RTVSPropertyOp39
 70
     1
102
RTVSPropertyOp40
 70
     1
102
RTVSPropertyOp41
 70
     1
102
RTVSPropertyOp42
 70
     1
102
RTVSPropertyOp43
 70
     1
102
RTVSPropertyOp44
 70
     1
102
RTVSPropertyOp45
 70
     1
102
RTVSPropertyOp46
 70
     1
102
RTVSPropertyOp47
 70
     1
102
RTVSPropertyOp48
 70
     1
102
RTVSPropertyOp49
 70
     1
102
RTVSPropertyOp50
 70
     1
102
RTVSPropertyOp51
 70
     0
102
RTVSPropertyOp52
 70
     0
102
RTVSPropertyOp53
 70
     1
102
RTVSPropertyOp54
 70
     1
102
RTVSPropertyOp55
 70
     1
102
RTVSPropertyOp56
 70
     1
102
RTVSPropertyOp57
 70
     1
102
RTVSPropertyOp58
 70
     1
102
RTVSPropertyOp59
 70
     1
102
RTVSPropertyOp60
 70
     1
102
RTVSPropertyOp61
 70
     1
102
RTVSPropertyOp62
 70
     1
  0
XRECORD
  5
A81C
102
{ACAD_REACTORS
330
A81B
102
}
330
A81B
100
AcDbXrecord
280
     1
102
RTVSPost2010Prop28
280
     0
102
RTVSPost2010PropOp28
 70
     1
102
RTVSPost2010Prop29
280
     1
102
RTVSPost2010PropOp29
 70
     1
102
RTVSPost2010Prop30
280
     1
102
RTVSPost2010PropOp30
 70
     1
102
RTVSPost2010Prop31
280
     0
102
RTVSPost2010PropOp31
 70
     1
102
RTVSPost2010Prop32
280
     0
102
RTVSPost2010PropOp32
 70
     1
102
RTVSPost2010Prop33
280
     0
102
RTVSPost2010PropOp33
 70
     1
102
RTVSPost2010Prop34
280
     0
102
RTVSPost2010PropOp34
 70
     1
102
RTVSPost2010Prop35
280
     0
102
RTVSPost2010PropOp35
 70
     1
102
RTVSPost2010Prop36
280
     0
102
RTVSPost2010PropOp36
 70
     1
102
RTVSPost2010Prop37
 90
       50
102
RTVSPost2010PropOp37
 70
     1
102
RTVSPost2010Prop38
140
0.0
102
RTVSPost2010PropOp38
 70
     1
102
RTVSPost2010Prop39
140
1.0
102
RTVSPost2010PropOp39
 70
     1
102
RTVSPost2010Prop40
 90
        0
102
RTVSPost2010PropOp40
 70
     1
102
RTVSPost2010Prop41ColorIndex
 90
       18
102
RTVSPost2010Prop41ColorRGB
 90
        0
102
RTVSPost2010PropOp41
 70
     1
102
RTVSPost2010Prop42
 90
       50
102
RTVSPost2010PropOp42
 70
     1
102
RTVSPost2010Prop43
 90
        3
102
RTVSPost2010PropOp43
 70
     1
102
RTVSPost2010Prop44ColorIndex
 90
        5
102
RTVSPost2010Prop44ColorRGB
 90
      255
102
RTVSPost2010PropOp44
 70
     1
102
RTVSPost2010Prop45
280
     0
102
RTVSPost2010PropOp45
 70
     1
102
RTVSPost2010Prop46
 90
       50
102
RTVSPost2010PropOp46
 70
     1
102
RTVSPost2010Prop47
 90
       50
102
RTVSPost2010PropOp47
 70
     1
102
RTVSPost2010Prop48
 90
       50
102
RTVSPost2010PropOp48
 70
     1
102
RTVSPost2010Prop49
280
     0
102
RTVSPost2010PropOp49
 70
     1
102
RTVSPost2010Prop50
 90
       50
102
RTVSPost2010PropOp50
 70
     1
102
RTVSPost2010Prop51ColorIndex
 90
      256
102
RTVSPost2010Prop51ColorRGB
 90
-16777216
102
RTVSPost2010PropOp51
 70
     0
102
RTVSPost2010Prop52
140
1.0
102
RTVSPost2010PropOp52
 70
     0
102
RTVSPost2010Prop53
 90
        2
102
RTVSPost2010PropOp53
 70
     1
102
RTVSPost2010Prop54
  1
strokes_ogs.tif
102
RTVSPost2010PropOp54
 70
     1
102
RTVSPost2010Prop55
280
     0
102
RTVSPost2010PropOp55
 70
     1
102
RTVSPost2010Prop56
140
1.0
102
RTVSPost2010PropOp56
 70
     1
102
RTVSPost2010Prop57
140
1.0
102
RTVSPost2010PropOp57
 70
     1
102
RTVSPropertyOp0
 70
     1
102
RTVSPropertyOp1
 70
     1
102
RTVSPropertyOp2
 70
     1
102
RTVSPropertyOp3
 70
     1
102
RTVSPropertyOp4
 70
     1
102
RTVSPropertyOp5
 70
     1
102
RTVSPropertyOp6
 70
     1
102
RTVSPropertyOp7
 70
     1
102
RTVSPropertyOp8
 70
     1
102
RTVSPropertyOp9
 70
     1
102
RTVSPropertyOp10
 70
     1
102
RTVSPropertyOp11
 70
     1
102
RTVSPropertyOp12
 70
     1
102
RTVSPropertyOp13
 70
     1
102
RTVSPropertyOp14
 70
     1
102
RTVSPropertyOp15
 70
     1
102
RTVSPropertyOp16
 70
     1
102
RTVSPropertyOp17
 70
     1
102
RTVSPropertyOp18
 70
     1
102
RTVSPropertyOp19
 70
     1
102
RTVSPropertyOp20
 70
     1
102
RTVSPropertyOp21
 70
     1
102
RTVSPropertyOp22
 70
     1
102
RTVSPropertyOp23
 70
     1
102
RTVSPropertyOp24
 70
     1
102
RTVSPropertyOp25
 70
     1
102
RTVSPropertyOp26
 70
     1
102
RTVSPropertyOp27
 70
     1
102
RTVSPropertyOp28
 70
     1
102
RTVSPropertyOp29
 70
     1
102
RTVSPropertyOp30
 70
     1
102
RTVSPropertyOp31
 70
     1
102
RTVSPropertyOp32
 70
     1
102
RTVSPropertyOp33
 70
     1
102
RTVSPropertyOp34
 70
     1
102
RTVSPropertyOp35
 70
     1
102
RTVSPropertyOp36
 70
     1
102
RTVSPropertyOp37
 70
     1
102
RTVSPropertyOp38
 70
     1
102
RTVSPropertyOp39
 70
     1
102
RTVSPropertyOp40
 70
     1
102
RTVSPropertyOp41
 70
     1
102
RTVSPropertyOp42
 70
     1
102
RTVSPropertyOp43
 70
     1
102
RTVSPropertyOp44
 70
     1
102
RTVSPropertyOp45
 70
     1
102
RTVSPropertyOp46
 70
     1
102
RTVSPropertyOp47
 70
     1
102
RTVSPropertyOp48
 70
     1
102
RTVSPropertyOp49
 70
     1
102
RTVSPropertyOp50
 70
     1
102
RTVSPropertyOp51
 70
     0
102
RTVSPropertyOp52
 70
     0
102
RTVSPropertyOp53
 70
     1
102
RTVSPropertyOp54
 70
     1
102
RTVSPropertyOp55
 70
     1
102
RTVSPropertyOp56
 70
     1
102
RTVSPropertyOp57
 70
     1
102
RTVSPropertyOp58
 70
     1
102
RTVSPropertyOp59
 70
     1
102
RTVSPropertyOp60
 70
     1
102
RTVSPropertyOp61
 70
     1
102
RTVSPropertyOp62
 70
     1
  0
XRECORD
  5
A824
102
{ACAD_REACTORS
330
A823
102
}
330
A823
100
AcDbXrecord
280
     1
102
RTVSPost2010Prop28
280
     0
102
RTVSPost2010PropOp28
 70
     1
102
RTVSPost2010Prop29
280
     1
102
RTVSPost2010PropOp29
 70
     1
102
RTVSPost2010Prop30
280
     1
102
RTVSPost2010PropOp30
 70
     1
102
RTVSPost2010Prop31
280
     0
102
RTVSPost2010PropOp31
 70
     1
102
RTVSPost2010Prop32
280
     0
102
RTVSPost2010PropOp32
 70
     1
102
RTVSPost2010Prop33
280
     0
102
RTVSPost2010PropOp33
 70
     1
102
RTVSPost2010Prop34
280
     0
102
RTVSPost2010PropOp34
 70
     1
102
RTVSPost2010Prop35
280
     0
102
RTVSPost2010PropOp35
 70
     1
102
RTVSPost2010Prop36
280
     0
102
RTVSPost2010PropOp36
 70
     1
102
RTVSPost2010Prop37
 90
       50
102
RTVSPost2010PropOp37
 70
     1
102
RTVSPost2010Prop38
140
0.0
102
RTVSPost2010PropOp38
 70
     1
102
RTVSPost2010Prop39
140
1.0
102
RTVSPost2010PropOp39
 70
     1
102
RTVSPost2010Prop40
 90
        0
102
RTVSPost2010PropOp40
 70
     1
102
RTVSPost2010Prop41ColorIndex
 90
       18
102
RTVSPost2010Prop41ColorRGB
 90
        0
102
RTVSPost2010PropOp41
 70
     1
102
RTVSPost2010Prop42
 90
       50
102
RTVSPost2010PropOp42
 70
     1
102
RTVSPost2010Prop43
 90
        3
102
RTVSPost2010PropOp43
 70
     1
102
RTVSPost2010Prop44ColorIndex
 90
        5
102
RTVSPost2010Prop44ColorRGB
 90
      255
102
RTVSPost2010PropOp44
 70
     1
102
RTVSPost2010Prop45
280
     0
102
RTVSPost2010PropOp45
 70
     1
102
RTVSPost2010Prop46
 90
       50
102
RTVSPost2010PropOp46
 70
     1
102
RTVSPost2010Prop47
 90
       50
102
RTVSPost2010PropOp47
 70
     1
102
RTVSPost2010Prop48
 90
       50
102
RTVSPost2010PropOp48
 70
     1
102
RTVSPost2010Prop49
280
     0
102
RTVSPost2010PropOp49
 70
     1
102
RTVSPost2010Prop50
 90
       50
102
RTVSPost2010PropOp50
 70
     1
102
RTVSPost2010Prop51ColorIndex
 90
      256
102
RTVSPost2010Prop51ColorRGB
 90
-16777216
102
RTVSPost2010PropOp51
 70
     0
102
RTVSPost2010Prop52
140
1.0
102
RTVSPost2010PropOp52
 70
     0
102
RTVSPost2010Prop53
 90
        2
102
RTVSPost2010PropOp53
 70
     1
102
RTVSPost2010Prop54
  1
strokes_ogs.tif
102
RTVSPost2010PropOp54
 70
     1
102
RTVSPost2010Prop55
280
     0
102
RTVSPost2010PropOp55
 70
     1
102
RTVSPost2010Prop56
140
1.0
102
RTVSPost2010PropOp56
 70
     1
102
RTVSPost2010Prop57
140
1.0
102
RTVSPost2010PropOp57
 70
     1
102
RTVSPropertyOp0
 70
     1
102
RTVSPropertyOp1
 70
     1
102
RTVSPropertyOp2
 70
     1
102
RTVSPropertyOp3
 70
     1
102
RTVSPropertyOp4
 70
     1
102
RTVSPropertyOp5
 70
     1
102
RTVSPropertyOp6
 70
     1
102
RTVSPropertyOp7
 70
     1
102
RTVSPropertyOp8
 70
     1
102
RTVSPropertyOp9
 70
     1
102
RTVSPropertyOp10
 70
     1
102
RTVSPropertyOp11
 70
     1
102
RTVSPropertyOp12
 70
     1
102
RTVSPropertyOp13
 70
     1
102
RTVSPropertyOp14
 70
     1
102
RTVSPropertyOp15
 70
     1
102
RTVSPropertyOp16
 70
     1
102
RTVSPropertyOp17
 70
     1
102
RTVSPropertyOp18
 70
     1
102
RTVSPropertyOp19
 70
     1
102
RTVSPropertyOp20
 70
     1
102
RTVSPropertyOp21
 70
     1
102
RTVSPropertyOp22
 70
     1
102
RTVSPropertyOp23
 70
     1
102
RTVSPropertyOp24
 70
     1
102
RTVSPropertyOp25
 70
     1
102
RTVSPropertyOp26
 70
     1
102
RTVSPropertyOp27
 70
     1
102
RTVSPropertyOp28
 70
     1
102
RTVSPropertyOp29
 70
     1
102
RTVSPropertyOp30
 70
     1
102
RTVSPropertyOp31
 70
     1
102
RTVSPropertyOp32
 70
     1
102
RTVSPropertyOp33
 70
     1
102
RTVSPropertyOp34
 70
     1
102
RTVSPropertyOp35
 70
     1
102
RTVSPropertyOp36
 70
     1
102
RTVSPropertyOp37
 70
     1
102
RTVSPropertyOp38
 70
     1
102
RTVSPropertyOp39
 70
     1
102
RTVSPropertyOp40
 70
     1
102
RTVSPropertyOp41
 70
     1
102
RTVSPropertyOp42
 70
     1
102
RTVSPropertyOp43
 70
     1
102
RTVSPropertyOp44
 70
     1
102
RTVSPropertyOp45
 70
     1
102
RTVSPropertyOp46
 70
     1
102
RTVSPropertyOp47
 70
     1
102
RTVSPropertyOp48
 70
     1
102
RTVSPropertyOp49
 70
     1
102
RTVSPropertyOp50
 70
     1
102
RTVSPropertyOp51
 70
     0
102
RTVSPropertyOp52
 70
     0
102
RTVSPropertyOp53
 70
     1
102
RTVSPropertyOp54
 70
     1
102
RTVSPropertyOp55
 70
     1
102
RTVSPropertyOp56
 70
     1
102
RTVSPropertyOp57
 70
     1
102
RTVSPropertyOp58
 70
     1
102
RTVSPropertyOp59
 70
     1
102
RTVSPropertyOp60
 70
     1
102
RTVSPropertyOp61
 70
     1
102
RTVSPropertyOp62
 70
     1
  0
XRECORD
  5
A816
102
{ACAD_REACTORS
330
A815
102
}
330
A815
100
AcDbXrecord
280
     1
102
RTVSPost2010Prop28
280
     0
102
RTVSPost2010PropOp28
 70
     1
102
RTVSPost2010Prop29
280
     1
102
RTVSPost2010PropOp29
 70
     1
102
RTVSPost2010Prop30
280
     1
102
RTVSPost2010PropOp30
 70
     1
102
RTVSPost2010Prop31
280
     0
102
RTVSPost2010PropOp31
 70
     1
102
RTVSPost2010Prop32
280
     0
102
RTVSPost2010PropOp32
 70
     1
102
RTVSPost2010Prop33
280
     0
102
RTVSPost2010PropOp33
 70
     1
102
RTVSPost2010Prop34
280
     0
102
RTVSPost2010PropOp34
 70
     1
102
RTVSPost2010Prop35
280
     0
102
RTVSPost2010PropOp35
 70
     1
102
RTVSPost2010Prop36
280
     0
102
RTVSPost2010PropOp36
 70
     1
102
RTVSPost2010Prop37
 90
       50
102
RTVSPost2010PropOp37
 70
     1
102
RTVSPost2010Prop38
140
0.0
102
RTVSPost2010PropOp38
 70
     1
102
RTVSPost2010Prop39
140
1.0
102
RTVSPost2010PropOp39
 70
     1
102
RTVSPost2010Prop40
 90
        0
102
RTVSPost2010PropOp40
 70
     1
102
RTVSPost2010Prop41ColorIndex
 90
       18
102
RTVSPost2010Prop41ColorRGB
 90
        0
102
RTVSPost2010PropOp41
 70
     1
102
RTVSPost2010Prop42
 90
       50
102
RTVSPost2010PropOp42
 70
     1
102
RTVSPost2010Prop43
 90
        3
102
RTVSPost2010PropOp43
 70
     1
102
RTVSPost2010Prop44ColorIndex
 90
        5
102
RTVSPost2010Prop44ColorRGB
 90
      255
102
RTVSPost2010PropOp44
 70
     1
102
RTVSPost2010Prop45
280
     0
102
RTVSPost2010PropOp45
 70
     1
102
RTVSPost2010Prop46
 90
       50
102
RTVSPost2010PropOp46
 70
     1
102
RTVSPost2010Prop47
 90
       50
102
RTVSPost2010PropOp47
 70
     1
102
RTVSPost2010Prop48
 90
       50
102
RTVSPost2010PropOp48
 70
     1
102
RTVSPost2010Prop49
280
     0
102
RTVSPost2010PropOp49
 70
     1
102
RTVSPost2010Prop50
 90
       50
102
RTVSPost2010PropOp50
 70
     1
102
RTVSPost2010Prop51ColorIndex
 90
      256
102
RTVSPost2010Prop51ColorRGB
 90
-16777216
102
RTVSPost2010PropOp51
 70
     0
102
RTVSPost2010Prop52
140
1.0
102
RTVSPost2010PropOp52
 70
     0
102
RTVSPost2010Prop53
 90
        2
102
RTVSPost2010PropOp53
 70
     1
102
RTVSPost2010Prop54
  1
strokes_ogs.tif
102
RTVSPost2010PropOp54
 70
     1
102
RTVSPost2010Prop55
280
     0
102
RTVSPost2010PropOp55
 70
     1
102
RTVSPost2010Prop56
140
1.0
102
RTVSPost2010PropOp56
 70
     1
102
RTVSPost2010Prop57
140
1.0
102
RTVSPost2010PropOp57
 70
     1
102
RTVSPropertyOp0
 70
     1
102
RTVSPropertyOp1
 70
     1
102
RTVSPropertyOp2
 70
     1
102
RTVSPropertyOp3
 70
     1
102
RTVSPropertyOp4
 70
     1
102
RTVSPropertyOp5
 70
     1
102
RTVSPropertyOp6
 70
     1
102
RTVSPropertyOp7
 70
     1
102
RTVSPropertyOp8
 70
     1
102
RTVSPropertyOp9
 70
     1
102
RTVSPropertyOp10
 70
     1
102
RTVSPropertyOp11
 70
     1
102
RTVSPropertyOp12
 70
     1
102
RTVSPropertyOp13
 70
     1
102
RTVSPropertyOp14
 70
     1
102
RTVSPropertyOp15
 70
     1
102
RTVSPropertyOp16
 70
     1
102
RTVSPropertyOp17
 70
     1
102
RTVSPropertyOp18
 70
     1
102
RTVSPropertyOp19
 70
     1
102
RTVSPropertyOp20
 70
     1
102
RTVSPropertyOp21
 70
     1
102
RTVSPropertyOp22
 70
     1
102
RTVSPropertyOp23
 70
     1
102
RTVSPropertyOp24
 70
     1
102
RTVSPropertyOp25
 70
     1
102
RTVSPropertyOp26
 70
     1
102
RTVSPropertyOp27
 70
     1
102
RTVSPropertyOp28
 70
     1
102
RTVSPropertyOp29
 70
     1
102
RTVSPropertyOp30
 70
     1
102
RTVSPropertyOp31
 70
     1
102
RTVSPropertyOp32
 70
     1
102
RTVSPropertyOp33
 70
     1
102
RTVSPropertyOp34
 70
     1
102
RTVSPropertyOp35
 70
     1
102
RTVSPropertyOp36
 70
     1
102
RTVSPropertyOp37
 70
     1
102
RTVSPropertyOp38
 70
     1
102
RTVSPropertyOp39
 70
     1
102
RTVSPropertyOp40
 70
     1
102
RTVSPropertyOp41
 70
     1
102
RTVSPropertyOp42
 70
     1
102
RTVSPropertyOp43
 70
     1
102
RTVSPropertyOp44
 70
     1
102
RTVSPropertyOp45
 70
     1
102
RTVSPropertyOp46
 70
     1
102
RTVSPropertyOp47
 70
     1
102
RTVSPropertyOp48
 70
     1
102
RTVSPropertyOp49
 70
     1
102
RTVSPropertyOp50
 70
     1
102
RTVSPropertyOp51
 70
     0
102
RTVSPropertyOp52
 70
     0
102
RTVSPropertyOp53
 70
     1
102
RTVSPropertyOp54
 70
     1
102
RTVSPropertyOp55
 70
     1
102
RTVSPropertyOp56
 70
     1
102
RTVSPropertyOp57
 70
     1
102
RTVSPropertyOp58
 70
     1
102
RTVSPropertyOp59
 70
     1
102
RTVSPropertyOp60
 70
     1
102
RTVSPropertyOp61
 70
     1
102
RTVSPropertyOp62
 70
     1
  0
XRECORD
  5
A81A
102
{ACAD_REACTORS
330
A819
102
}
330
A819
100
AcDbXrecord
280
     1
102
RTVSPost2010Prop28
280
     0
102
RTVSPost2010PropOp28
 70
     1
102
RTVSPost2010Prop29
280
     1
102
RTVSPost2010PropOp29
 70
     1
102
RTVSPost2010Prop30
280
     1
102
RTVSPost2010PropOp30
 70
     1
102
RTVSPost2010Prop31
280
     0
102
RTVSPost2010PropOp31
 70
     1
102
RTVSPost2010Prop32
280
     0
102
RTVSPost2010PropOp32
 70
     1
102
RTVSPost2010Prop33
280
     0
102
RTVSPost2010PropOp33
 70
     1
102
RTVSPost2010Prop34
280
     0
102
RTVSPost2010PropOp34
 70
     1
102
RTVSPost2010Prop35
280
     0
102
RTVSPost2010PropOp35
 70
     1
102
RTVSPost2010Prop36
280
     0
102
RTVSPost2010PropOp36
 70
     1
102
RTVSPost2010Prop37
 90
       50
102
RTVSPost2010PropOp37
 70
     1
102
RTVSPost2010Prop38
140
0.0
102
RTVSPost2010PropOp38
 70
     1
102
RTVSPost2010Prop39
140
1.0
102
RTVSPost2010PropOp39
 70
     1
102
RTVSPost2010Prop40
 90
        0
102
RTVSPost2010PropOp40
 70
     1
102
RTVSPost2010Prop41ColorIndex
 90
       18
102
RTVSPost2010Prop41ColorRGB
 90
        0
102
RTVSPost2010PropOp41
 70
     1
102
RTVSPost2010Prop42
 90
       50
102
RTVSPost2010PropOp42
 70
     1
102
RTVSPost2010Prop43
 90
        3
102
RTVSPost2010PropOp43
 70
     1
102
RTVSPost2010Prop44ColorIndex
 90
        5
102
RTVSPost2010Prop44ColorRGB
 90
      255
102
RTVSPost2010PropOp44
 70
     1
102
RTVSPost2010Prop45
280
     0
102
RTVSPost2010PropOp45
 70
     1
102
RTVSPost2010Prop46
 90
       50
102
RTVSPost2010PropOp46
 70
     1
102
RTVSPost2010Prop47
 90
       50
102
RTVSPost2010PropOp47
 70
     1
102
RTVSPost2010Prop48
 90
       50
102
RTVSPost2010PropOp48
 70
     1
102
RTVSPost2010Prop49
280
     0
102
RTVSPost2010PropOp49
 70
     1
102
RTVSPost2010Prop50
 90
       50
102
RTVSPost2010PropOp50
 70
     1
102
RTVSPost2010Prop51ColorIndex
 90
      256
102
RTVSPost2010Prop51ColorRGB
 90
-16777216
102
RTVSPost2010PropOp51
 70
     0
102
RTVSPost2010Prop52
140
1.0
102
RTVSPost2010PropOp52
 70
     0
102
RTVSPost2010Prop53
 90
        2
102
RTVSPost2010PropOp53
 70
     1
102
RTVSPost2010Prop54
  1
strokes_ogs.tif
102
RTVSPost2010PropOp54
 70
     1
102
RTVSPost2010Prop55
280
     0
102
RTVSPost2010PropOp55
 70
     1
102
RTVSPost2010Prop56
140
1.0
102
RTVSPost2010PropOp56
 70
     1
102
RTVSPost2010Prop57
140
1.0
102
RTVSPost2010PropOp57
 70
     1
102
RTVSPropertyOp0
 70
     1
102
RTVSPropertyOp1
 70
     1
102
RTVSPropertyOp2
 70
     1
102
RTVSPropertyOp3
 70
     1
102
RTVSPropertyOp4
 70
     1
102
RTVSPropertyOp5
 70
     1
102
RTVSPropertyOp6
 70
     1
102
RTVSPropertyOp7
 70
     1
102
RTVSPropertyOp8
 70
     1
102
RTVSPropertyOp9
 70
     1
102
RTVSPropertyOp10
 70
     1
102
RTVSPropertyOp11
 70
     1
102
RTVSPropertyOp12
 70
     1
102
RTVSPropertyOp13
 70
     1
102
RTVSPropertyOp14
 70
     1
102
RTVSPropertyOp15
 70
     1
102
RTVSPropertyOp16
 70
     1
102
RTVSPropertyOp17
 70
     1
102
RTVSPropertyOp18
 70
     1
102
RTVSPropertyOp19
 70
     1
102
RTVSPropertyOp20
 70
     1
102
RTVSPropertyOp21
 70
     1
102
RTVSPropertyOp22
 70
     1
102
RTVSPropertyOp23
 70
     1
102
RTVSPropertyOp24
 70
     1
102
RTVSPropertyOp25
 70
     1
102
RTVSPropertyOp26
 70
     1
102
RTVSPropertyOp27
 70
     1
102
RTVSPropertyOp28
 70
     1
102
RTVSPropertyOp29
 70
     1
102
RTVSPropertyOp30
 70
     1
102
RTVSPropertyOp31
 70
     1
102
RTVSPropertyOp32
 70
     1
102
RTVSPropertyOp33
 70
     1
102
RTVSPropertyOp34
 70
     1
102
RTVSPropertyOp35
 70
     1
102
RTVSPropertyOp36
 70
     1
102
RTVSPropertyOp37
 70
     1
102
RTVSPropertyOp38
 70
     1
102
RTVSPropertyOp39
 70
     1
102
RTVSPropertyOp40
 70
     1
102
RTVSPropertyOp41
 70
     1
102
RTVSPropertyOp42
 70
     1
102
RTVSPropertyOp43
 70
     1
102
RTVSPropertyOp44
 70
     1
102
RTVSPropertyOp45
 70
     1
102
RTVSPropertyOp46
 70
     1
102
RTVSPropertyOp47
 70
     1
102
RTVSPropertyOp48
 70
     1
102
RTVSPropertyOp49
 70
     1
102
RTVSPropertyOp50
 70
     1
102
RTVSPropertyOp51
 70
     0
102
RTVSPropertyOp52
 70
     0
102
RTVSPropertyOp53
 70
     1
102
RTVSPropertyOp54
 70
     1
102
RTVSPropertyOp55
 70
     1
102
RTVSPropertyOp56
 70
     1
102
RTVSPropertyOp57
 70
     1
102
RTVSPropertyOp58
 70
     1
102
RTVSPropertyOp59
 70
     1
102
RTVSPropertyOp60
 70
     1
102
RTVSPropertyOp61
 70
     1
102
RTVSPropertyOp62
 70
     1
  0
XRECORD
  5
A834
102
{ACAD_REACTORS
330
A833
102
}
330
A833
100
AcDbXrecord
280
     1
102
RTVSPost2010Prop28
280
     0
102
RTVSPost2010PropOp28
 70
     1
102
RTVSPost2010Prop29
280
     1
102
RTVSPost2010PropOp29
 70
     1
102
RTVSPost2010Prop30
280
     1
102
RTVSPost2010PropOp30
 70
     1
102
RTVSPost2010Prop31
280
     0
102
RTVSPost2010PropOp31
 70
     1
102
RTVSPost2010Prop32
280
     0
102
RTVSPost2010PropOp32
 70
     1
102
RTVSPost2010Prop33
280
     0
102
RTVSPost2010PropOp33
 70
     1
102
RTVSPost2010Prop34
280
     0
102
RTVSPost2010PropOp34
 70
     1
102
RTVSPost2010Prop35
280
     0
102
RTVSPost2010PropOp35
 70
     1
102
RTVSPost2010Prop36
280
     0
102
RTVSPost2010PropOp36
 70
     1
102
RTVSPost2010Prop37
 90
       50
102
RTVSPost2010PropOp37
 70
     0
102
RTVSPost2010Prop38
140
0.0
102
RTVSPost2010PropOp38
 70
     0
102
RTVSPost2010Prop39
140
1.0
102
RTVSPost2010PropOp39
 70
     0
102
RTVSPost2010Prop40
 90
        0
102
RTVSPost2010PropOp40
 70
     0
102
RTVSPost2010Prop41ColorIndex
 90
       18
102
RTVSPost2010Prop41ColorRGB
 90
        0
102
RTVSPost2010PropOp41
 70
     0
102
RTVSPost2010Prop42
 90
       50
102
RTVSPost2010PropOp42
 70
     0
102
RTVSPost2010Prop43
 90
        3
102
RTVSPost2010PropOp43
 70
     0
102
RTVSPost2010Prop44ColorIndex
 90
        5
102
RTVSPost2010Prop44ColorRGB
 90
      255
102
RTVSPost2010PropOp44
 70
     0
102
RTVSPost2010Prop45
280
     0
102
RTVSPost2010PropOp45
 70
     1
102
RTVSPost2010Prop46
 90
       50
102
RTVSPost2010PropOp46
 70
     0
102
RTVSPost2010Prop47
 90
       50
102
RTVSPost2010PropOp47
 70
     0
102
RTVSPost2010Prop48
 90
       50
102
RTVSPost2010PropOp48
 70
     0
102
RTVSPost2010Prop49
280
     0
102
RTVSPost2010PropOp49
 70
     1
102
RTVSPost2010Prop50
 90
       50
102
RTVSPost2010PropOp50
 70
     0
102
RTVSPost2010Prop51ColorIndex
 90
      256
102
RTVSPost2010Prop51ColorRGB
 90
-16777216
102
RTVSPost2010PropOp51
 70
     0
102
RTVSPost2010Prop52
140
1.0
102
RTVSPost2010PropOp52
 70
     0
102
RTVSPost2010Prop53
 90
        2
102
RTVSPost2010PropOp53
 70
     0
102
RTVSPost2010Prop54
  1
strokes_ogs.tif
102
RTVSPost2010PropOp54
 70
     0
102
RTVSPost2010Prop55
280
     0
102
RTVSPost2010PropOp55
 70
     1
102
RTVSPost2010Prop56
140
1.0
102
RTVSPost2010PropOp56
 70
     0
102
RTVSPost2010Prop57
140
1.0
102
RTVSPost2010PropOp57
 70
     0
102
RTVSPropertyOp0
 70
     0
102
RTVSPropertyOp1
 70
     0
102
RTVSPropertyOp2
 70
     0
102
RTVSPropertyOp3
 70
     0
102
RTVSPropertyOp4
 70
     0
102
RTVSPropertyOp5
 70
     0
102
RTVSPropertyOp6
 70
     0
102
RTVSPropertyOp7
 70
     0
102
RTVSPropertyOp8
 70
     0
102
RTVSPropertyOp9
 70
     0
102
RTVSPropertyOp10
 70
     0
102
RTVSPropertyOp11
 70
     0
102
RTVSPropertyOp12
 70
     0
102
RTVSPropertyOp13
 70
     0
102
RTVSPropertyOp14
 70
     2
102
RTVSPropertyOp15
 70
     0
102
RTVSPropertyOp16
 70
     0
102
RTVSPropertyOp17
 70
     0
102
RTVSPropertyOp18
 70
     0
102
RTVSPropertyOp19
 70
     0
102
RTVSPropertyOp20
 70
     0
102
RTVSPropertyOp21
 70
     0
102
RTVSPropertyOp22
 70
     0
102
RTVSPropertyOp23
 70
     0
102
RTVSPropertyOp24
 70
     0
102
RTVSPropertyOp25
 70
     0
102
RTVSPropertyOp26
 70
     0
102
RTVSPropertyOp27
 70
     0
102
RTVSPropertyOp28
 70
     1
102
RTVSPropertyOp29
 70
     1
102
RTVSPropertyOp30
 70
     1
102
RTVSPropertyOp31
 70
     1
102
RTVSPropertyOp32
 70
     1
102
RTVSPropertyOp33
 70
     1
102
RTVSPropertyOp34
 70
     1
102
RTVSPropertyOp35
 70
     1
102
RTVSPropertyOp36
 70
     1
102
RTVSPropertyOp37
 70
     0
102
RTVSPropertyOp38
 70
     0
102
RTVSPropertyOp39
 70
     0
102
RTVSPropertyOp40
 70
     0
102
RTVSPropertyOp41
 70
     0
102
RTVSPropertyOp42
 70
     0
102
RTVSPropertyOp43
 70
     0
102
RTVSPropertyOp44
 70
     0
102
RTVSPropertyOp45
 70
     1
102
RTVSPropertyOp46
 70
     0
102
RTVSPropertyOp47
 70
     0
102
RTVSPropertyOp48
 70
     0
102
RTVSPropertyOp49
 70
     1
102
RTVSPropertyOp50
 70
     0
102
RTVSPropertyOp51
 70
     0
102
RTVSPropertyOp52
 70
     0
102
RTVSPropertyOp53
 70
     0
102
RTVSPropertyOp54
 70
     0
102
RTVSPropertyOp55
 70
     1
102
RTVSPropertyOp56
 70
     0
102
RTVSPropertyOp57
 70
     0
102
RTVSPropertyOp58
 70
     0
102
RTVSPropertyOp59
 70
     0
102
RTVSPropertyOp60
 70
     0
102
RTVSPropertyOp61
 70
     0
102
RTVSPropertyOp62
 70
     0
  0
XRECORD
  5
A822
102
{ACAD_REACTORS
330
A821
102
}
330
A821
100
AcDbXrecord
280
     1
102
RTVSPost2010Prop28
280
     0
102
RTVSPost2010PropOp28
 70
     1
102
RTVSPost2010Prop29
280
     1
102
RTVSPost2010PropOp29
 70
     1
102
RTVSPost2010Prop30
280
     1
102
RTVSPost2010PropOp30
 70
     1
102
RTVSPost2010Prop31
280
     0
102
RTVSPost2010PropOp31
 70
     1
102
RTVSPost2010Prop32
280
     0
102
RTVSPost2010PropOp32
 70
     1
102
RTVSPost2010Prop33
280
     0
102
RTVSPost2010PropOp33
 70
     1
102
RTVSPost2010Prop34
280
     0
102
RTVSPost2010PropOp34
 70
     1
102
RTVSPost2010Prop35
280
     0
102
RTVSPost2010PropOp35
 70
     1
102
RTVSPost2010Prop36
280
     0
102
RTVSPost2010PropOp36
 70
     1
102
RTVSPost2010Prop37
 90
       50
102
RTVSPost2010PropOp37
 70
     1
102
RTVSPost2010Prop38
140
0.0
102
RTVSPost2010PropOp38
 70
     1
102
RTVSPost2010Prop39
140
1.0
102
RTVSPost2010PropOp39
 70
     1
102
RTVSPost2010Prop40
 90
        0
102
RTVSPost2010PropOp40
 70
     1
102
RTVSPost2010Prop41ColorIndex
 90
       18
102
RTVSPost2010Prop41ColorRGB
 90
        0
102
RTVSPost2010PropOp41
 70
     1
102
RTVSPost2010Prop42
 90
       50
102
RTVSPost2010PropOp42
 70
     1
102
RTVSPost2010Prop43
 90
        3
102
RTVSPost2010PropOp43
 70
     1
102
RTVSPost2010Prop44ColorIndex
 90
        5
102
RTVSPost2010Prop44ColorRGB
 90
      255
102
RTVSPost2010PropOp44
 70
     1
102
RTVSPost2010Prop45
280
     0
102
RTVSPost2010PropOp45
 70
     1
102
RTVSPost2010Prop46
 90
       50
102
RTVSPost2010PropOp46
 70
     1
102
RTVSPost2010Prop47
 90
       50
102
RTVSPost2010PropOp47
 70
     1
102
RTVSPost2010Prop48
 90
       50
102
RTVSPost2010PropOp48
 70
     1
102
RTVSPost2010Prop49
280
     0
102
RTVSPost2010PropOp49
 70
     1
102
RTVSPost2010Prop50
 90
       50
102
RTVSPost2010PropOp50
 70
     1
102
RTVSPost2010Prop51ColorIndex
 90
      256
102
RTVSPost2010Prop51ColorRGB
 90
-16777216
102
RTVSPost2010PropOp51
 70
     0
102
RTVSPost2010Prop52
140
1.0
102
RTVSPost2010PropOp52
 70
     0
102
RTVSPost2010Prop53
 90
        2
102
RTVSPost2010PropOp53
 70
     1
102
RTVSPost2010Prop54
  1
strokes_ogs.tif
102
RTVSPost2010PropOp54
 70
     1
102
RTVSPost2010Prop55
280
     0
102
RTVSPost2010PropOp55
 70
     1
102
RTVSPost2010Prop56
140
1.0
102
RTVSPost2010PropOp56
 70
     1
102
RTVSPost2010Prop57
140
1.0
102
RTVSPost2010PropOp57
 70
     1
102
RTVSPropertyOp0
 70
     1
102
RTVSPropertyOp1
 70
     1
102
RTVSPropertyOp2
 70
     1
102
RTVSPropertyOp3
 70
     1
102
RTVSPropertyOp4
 70
     1
102
RTVSPropertyOp5
 70
     1
102
RTVSPropertyOp6
 70
     1
102
RTVSPropertyOp7
 70
     1
102
RTVSPropertyOp8
 70
     1
102
RTVSPropertyOp9
 70
     1
102
RTVSPropertyOp10
 70
     1
102
RTVSPropertyOp11
 70
     1
102
RTVSPropertyOp12
 70
     1
102
RTVSPropertyOp13
 70
     1
102
RTVSPropertyOp14
 70
     1
102
RTVSPropertyOp15
 70
     1
102
RTVSPropertyOp16
 70
     1
102
RTVSPropertyOp17
 70
     1
102
RTVSPropertyOp18
 70
     1
102
RTVSPropertyOp19
 70
     1
102
RTVSPropertyOp20
 70
     1
102
RTVSPropertyOp21
 70
     1
102
RTVSPropertyOp22
 70
     1
102
RTVSPropertyOp23
 70
     1
102
RTVSPropertyOp24
 70
     1
102
RTVSPropertyOp25
 70
     1
102
RTVSPropertyOp26
 70
     1
102
RTVSPropertyOp27
 70
     1
102
RTVSPropertyOp28
 70
     1
102
RTVSPropertyOp29
 70
     1
102
RTVSPropertyOp30
 70
     1
102
RTVSPropertyOp31
 70
     1
102
RTVSPropertyOp32
 70
     1
102
RTVSPropertyOp33
 70
     1
102
RTVSPropertyOp34
 70
     1
102
RTVSPropertyOp35
 70
     1
102
RTVSPropertyOp36
 70
     1
102
RTVSPropertyOp37
 70
     1
102
RTVSPropertyOp38
 70
     1
102
RTVSPropertyOp39
 70
     1
102
RTVSPropertyOp40
 70
     1
102
RTVSPropertyOp41
 70
     1
102
RTVSPropertyOp42
 70
     1
102
RTVSPropertyOp43
 70
     1
102
RTVSPropertyOp44
 70
     1
102
RTVSPropertyOp45
 70
     1
102
RTVSPropertyOp46
 70
     1
102
RTVSPropertyOp47
 70
     1
102
RTVSPropertyOp48
 70
     1
102
RTVSPropertyOp49
 70
     1
102
RTVSPropertyOp50
 70
     1
102
RTVSPropertyOp51
 70
     0
102
RTVSPropertyOp52
 70
     0
102
RTVSPropertyOp53
 70
     1
102
RTVSPropertyOp54
 70
     1
102
RTVSPropertyOp55
 70
     1
102
RTVSPropertyOp56
 70
     1
102
RTVSPropertyOp57
 70
     1
102
RTVSPropertyOp58
 70
     1
102
RTVSPropertyOp59
 70
     1
102
RTVSPropertyOp60
 70
     1
102
RTVSPropertyOp61
 70
     1
102
RTVSPropertyOp62
 70
     1
  0
XRECORD
  5
A806
102
{ACAD_REACTORS
330
A805
102
}
330
A805
100
AcDbXrecord
280
     1
102
RTVSPost2010Prop28
280
     0
102
RTVSPost2010PropOp28
 70
     1
102
RTVSPost2010Prop29
280
     1
102
RTVSPost2010PropOp29
 70
     1
102
RTVSPost2010Prop30
280
     1
102
RTVSPost2010PropOp30
 70
     1
102
RTVSPost2010Prop31
280
     0
102
RTVSPost2010PropOp31
 70
     1
102
RTVSPost2010Prop32
280
     0
102
RTVSPost2010PropOp32
 70
     1
102
RTVSPost2010Prop33
280
     0
102
RTVSPost2010PropOp33
 70
     1
102
RTVSPost2010Prop34
280
     0
102
RTVSPost2010PropOp34
 70
     1
102
RTVSPost2010Prop35
280
     0
102
RTVSPost2010PropOp35
 70
     1
102
RTVSPost2010Prop36
280
     0
102
RTVSPost2010PropOp36
 70
     1
102
RTVSPost2010Prop37
 90
       50
102
RTVSPost2010PropOp37
 70
     1
102
RTVSPost2010Prop38
140
0.0
102
RTVSPost2010PropOp38
 70
     1
102
RTVSPost2010Prop39
140
1.0
102
RTVSPost2010PropOp39
 70
     1
102
RTVSPost2010Prop40
 90
        0
102
RTVSPost2010PropOp40
 70
     1
102
RTVSPost2010Prop41ColorIndex
 90
       18
102
RTVSPost2010Prop41ColorRGB
 90
        0
102
RTVSPost2010PropOp41
 70
     1
102
RTVSPost2010Prop42
 90
       50
102
RTVSPost2010PropOp42
 70
     1
102
RTVSPost2010Prop43
 90
        3
102
RTVSPost2010PropOp43
 70
     1
102
RTVSPost2010Prop44ColorIndex
 90
        5
102
RTVSPost2010Prop44ColorRGB
 90
      255
102
RTVSPost2010PropOp44
 70
     1
102
RTVSPost2010Prop45
280
     0
102
RTVSPost2010PropOp45
 70
     1
102
RTVSPost2010Prop46
 90
       50
102
RTVSPost2010PropOp46
 70
     1
102
RTVSPost2010Prop47
 90
       50
102
RTVSPost2010PropOp47
 70
     1
102
RTVSPost2010Prop48
 90
       50
102
RTVSPost2010PropOp48
 70
     1
102
RTVSPost2010Prop49
280
     0
102
RTVSPost2010PropOp49
 70
     1
102
RTVSPost2010Prop50
 90
       50
102
RTVSPost2010PropOp50
 70
     1
102
RTVSPost2010Prop51ColorIndex
 90
      256
102
RTVSPost2010Prop51ColorRGB
 90
-16777216
102
RTVSPost2010PropOp51
 70
     0
102
RTVSPost2010Prop52
140
1.0
102
RTVSPost2010PropOp52
 70
     0
102
RTVSPost2010Prop53
 90
        2
102
RTVSPost2010PropOp53
 70
     1
102
RTVSPost2010Prop54
  1
strokes_ogs.tif
102
RTVSPost2010PropOp54
 70
     1
102
RTVSPost2010Prop55
280
     0
102
RTVSPost2010PropOp55
 70
     1
102
RTVSPost2010Prop56
140
1.0
102
RTVSPost2010PropOp56
 70
     1
102
RTVSPost2010Prop57
140
1.0
102
RTVSPost2010PropOp57
 70
     1
102
RTVSPropertyOp0
 70
     1
102
RTVSPropertyOp1
 70
     1
102
RTVSPropertyOp2
 70
     1
102
RTVSPropertyOp3
 70
     1
102
RTVSPropertyOp4
 70
     1
102
RTVSPropertyOp5
 70
     1
102
RTVSPropertyOp6
 70
     1
102
RTVSPropertyOp7
 70
     1
102
RTVSPropertyOp8
 70
     1
102
RTVSPropertyOp9
 70
     1
102
RTVSPropertyOp10
 70
     1
102
RTVSPropertyOp11
 70
     1
102
RTVSPropertyOp12
 70
     1
102
RTVSPropertyOp13
 70
     1
102
RTVSPropertyOp14
 70
     1
102
RTVSPropertyOp15
 70
     1
102
RTVSPropertyOp16
 70
     1
102
RTVSPropertyOp17
 70
     1
102
RTVSPropertyOp18
 70
     1
102
RTVSPropertyOp19
 70
     1
102
RTVSPropertyOp20
 70
     1
102
RTVSPropertyOp21
 70
     1
102
RTVSPropertyOp22
 70
     1
102
RTVSPropertyOp23
 70
     1
102
RTVSPropertyOp24
 70
     1
102
RTVSPropertyOp25
 70
     1
102
RTVSPropertyOp26
 70
     1
102
RTVSPropertyOp27
 70
     1
102
RTVSPropertyOp28
 70
     1
102
RTVSPropertyOp29
 70
     1
102
RTVSPropertyOp30
 70
     1
102
RTVSPropertyOp31
 70
     1
102
RTVSPropertyOp32
 70
     1
102
RTVSPropertyOp33
 70
     1
102
RTVSPropertyOp34
 70
     1
102
RTVSPropertyOp35
 70
     1
102
RTVSPropertyOp36
 70
     1
102
RTVSPropertyOp37
 70
     1
102
RTVSPropertyOp38
 70
     1
102
RTVSPropertyOp39
 70
     1
102
RTVSPropertyOp40
 70
     1
102
RTVSPropertyOp41
 70
     1
102
RTVSPropertyOp42
 70
     1
102
RTVSPropertyOp43
 70
     1
102
RTVSPropertyOp44
 70
     1
102
RTVSPropertyOp45
 70
     1
102
RTVSPropertyOp46
 70
     1
102
RTVSPropertyOp47
 70
     1
102
RTVSPropertyOp48
 70
     1
102
RTVSPropertyOp49
 70
     1
102
RTVSPropertyOp50
 70
     1
102
RTVSPropertyOp51
 70
     0
102
RTVSPropertyOp52
 70
     0
102
RTVSPropertyOp53
 70
     1
102
RTVSPropertyOp54
 70
     1
102
RTVSPropertyOp55
 70
     1
102
RTVSPropertyOp56
 70
     1
102
RTVSPropertyOp57
 70
     1
102
RTVSPropertyOp58
 70
     1
102
RTVSPropertyOp59
 70
     1
102
RTVSPropertyOp60
 70
     1
102
RTVSPropertyOp61
 70
     1
102
RTVSPropertyOp62
 70
     1
  0
XRECORD
  5
A808
102
{ACAD_REACTORS
330
A807
102
}
330
A807
100
AcDbXrecord
280
     1
102
RTVSPost2010Prop28
280
     0
102
RTVSPost2010PropOp28
 70
     1
102
RTVSPost2010Prop29
280
     1
102
RTVSPost2010PropOp29
 70
     1
102
RTVSPost2010Prop30
280
     1
102
RTVSPost2010PropOp30
 70
     1
102
RTVSPost2010Prop31
280
     0
102
RTVSPost2010PropOp31
 70
     1
102
RTVSPost2010Prop32
280
     0
102
RTVSPost2010PropOp32
 70
     1
102
RTVSPost2010Prop33
280
     0
102
RTVSPost2010PropOp33
 70
     1
102
RTVSPost2010Prop34
280
     0
102
RTVSPost2010PropOp34
 70
     1
102
RTVSPost2010Prop35
280
     0
102
RTVSPost2010PropOp35
 70
     1
102
RTVSPost2010Prop36
280
     0
102
RTVSPost2010PropOp36
 70
     1
102
RTVSPost2010Prop37
 90
       50
102
RTVSPost2010PropOp37
 70
     1
102
RTVSPost2010Prop38
140
0.0
102
RTVSPost2010PropOp38
 70
     1
102
RTVSPost2010Prop39
140
1.0
102
RTVSPost2010PropOp39
 70
     1
102
RTVSPost2010Prop40
 90
        0
102
RTVSPost2010PropOp40
 70
     1
102
RTVSPost2010Prop41ColorIndex
 90
       18
102
RTVSPost2010Prop41ColorRGB
 90
        0
102
RTVSPost2010PropOp41
 70
     1
102
RTVSPost2010Prop42
 90
       50
102
RTVSPost2010PropOp42
 70
     1
102
RTVSPost2010Prop43
 90
        3
102
RTVSPost2010PropOp43
 70
     1
102
RTVSPost2010Prop44ColorIndex
 90
        5
102
RTVSPost2010Prop44ColorRGB
 90
      255
102
RTVSPost2010PropOp44
 70
     1
102
RTVSPost2010Prop45
280
     0
102
RTVSPost2010PropOp45
 70
     1
102
RTVSPost2010Prop46
 90
       50
102
RTVSPost2010PropOp46
 70
     1
102
RTVSPost2010Prop47
 90
       50
102
RTVSPost2010PropOp47
 70
     1
102
RTVSPost2010Prop48
 90
       50
102
RTVSPost2010PropOp48
 70
     1
102
RTVSPost2010Prop49
280
     0
102
RTVSPost2010PropOp49
 70
     1
102
RTVSPost2010Prop50
 90
       50
102
RTVSPost2010PropOp50
 70
     1
102
RTVSPost2010Prop51ColorIndex
 90
      256
102
RTVSPost2010Prop51ColorRGB
 90
-16777216
102
RTVSPost2010PropOp51
 70
     0
102
RTVSPost2010Prop52
140
1.0
102
RTVSPost2010PropOp52
 70
     0
102
RTVSPost2010Prop53
 90
        2
102
RTVSPost2010PropOp53
 70
     1
102
RTVSPost2010Prop54
  1
strokes_ogs.tif
102
RTVSPost2010PropOp54
 70
     1
102
RTVSPost2010Prop55
280
     0
102
RTVSPost2010PropOp55
 70
     1
102
RTVSPost2010Prop56
140
1.0
102
RTVSPost2010PropOp56
 70
     1
102
RTVSPost2010Prop57
140
1.0
102
RTVSPost2010PropOp57
 70
     1
102
RTVSPropertyOp0
 70
     1
102
RTVSPropertyOp1
 70
     1
102
RTVSPropertyOp2
 70
     1
102
RTVSPropertyOp3
 70
     1
102
RTVSPropertyOp4
 70
     1
102
RTVSPropertyOp5
 70
     1
102
RTVSPropertyOp6
 70
     1
102
RTVSPropertyOp7
 70
     1
102
RTVSPropertyOp8
 70
     1
102
RTVSPropertyOp9
 70
     1
102
RTVSPropertyOp10
 70
     1
102
RTVSPropertyOp11
 70
     1
102
RTVSPropertyOp12
 70
     1
102
RTVSPropertyOp13
 70
     1
102
RTVSPropertyOp14
 70
     1
102
RTVSPropertyOp15
 70
     1
102
RTVSPropertyOp16
 70
     1
102
RTVSPropertyOp17
 70
     1
102
RTVSPropertyOp18
 70
     1
102
RTVSPropertyOp19
 70
     1
102
RTVSPropertyOp20
 70
     1
102
RTVSPropertyOp21
 70
     1
102
RTVSPropertyOp22
 70
     1
102
RTVSPropertyOp23
 70
     1
102
RTVSPropertyOp24
 70
     1
102
RTVSPropertyOp25
 70
     1
102
RTVSPropertyOp26
 70
     1
102
RTVSPropertyOp27
 70
     1
102
RTVSPropertyOp28
 70
     1
102
RTVSPropertyOp29
 70
     1
102
RTVSPropertyOp30
 70
     1
102
RTVSPropertyOp31
 70
     1
102
RTVSPropertyOp32
 70
     1
102
RTVSPropertyOp33
 70
     1
102
RTVSPropertyOp34
 70
     1
102
RTVSPropertyOp35
 70
     1
102
RTVSPropertyOp36
 70
     1
102
RTVSPropertyOp37
 70
     1
102
RTVSPropertyOp38
 70
     1
102
RTVSPropertyOp39
 70
     1
102
RTVSPropertyOp40
 70
     1
102
RTVSPropertyOp41
 70
     1
102
RTVSPropertyOp42
 70
     1
102
RTVSPropertyOp43
 70
     1
102
RTVSPropertyOp44
 70
     1
102
RTVSPropertyOp45
 70
     1
102
RTVSPropertyOp46
 70
     1
102
RTVSPropertyOp47
 70
     1
102
RTVSPropertyOp48
 70
     1
102
RTVSPropertyOp49
 70
     1
102
RTVSPropertyOp50
 70
     1
102
RTVSPropertyOp51
 70
     0
102
RTVSPropertyOp52
 70
     0
102
RTVSPropertyOp53
 70
     1
102
RTVSPropertyOp54
 70
     1
102
RTVSPropertyOp55
 70
     1
102
RTVSPropertyOp56
 70
     1
102
RTVSPropertyOp57
 70
     1
102
RTVSPropertyOp58
 70
     1
102
RTVSPropertyOp59
 70
     1
102
RTVSPropertyOp60
 70
     1
102
RTVSPropertyOp61
 70
     1
102
RTVSPropertyOp62
 70
     1
  0
XRECORD
  5
A80A
102
{ACAD_REACTORS
330
A809
102
}
330
A809
100
AcDbXrecord
280
     1
102
RTVSPost2010Prop28
280
     0
102
RTVSPost2010PropOp28
 70
     1
102
RTVSPost2010Prop29
280
     1
102
RTVSPost2010PropOp29
 70
     1
102
RTVSPost2010Prop30
280
     1
102
RTVSPost2010PropOp30
 70
     1
102
RTVSPost2010Prop31
280
     0
102
RTVSPost2010PropOp31
 70
     1
102
RTVSPost2010Prop32
280
     0
102
RTVSPost2010PropOp32
 70
     1
102
RTVSPost2010Prop33
280
     0
102
RTVSPost2010PropOp33
 70
     1
102
RTVSPost2010Prop34
280
     0
102
RTVSPost2010PropOp34
 70
     1
102
RTVSPost2010Prop35
280
     0
102
RTVSPost2010PropOp35
 70
     1
102
RTVSPost2010Prop36
280
     0
102
RTVSPost2010PropOp36
 70
     1
102
RTVSPost2010Prop37
 90
       50
102
RTVSPost2010PropOp37
 70
     1
102
RTVSPost2010Prop38
140
0.0
102
RTVSPost2010PropOp38
 70
     1
102
RTVSPost2010Prop39
140
1.0
102
RTVSPost2010PropOp39
 70
     1
102
RTVSPost2010Prop40
 90
        0
102
RTVSPost2010PropOp40
 70
     1
102
RTVSPost2010Prop41ColorIndex
 90
       18
102
RTVSPost2010Prop41ColorRGB
 90
        0
102
RTVSPost2010PropOp41
 70
     1
102
RTVSPost2010Prop42
 90
       50
102
RTVSPost2010PropOp42
 70
     1
102
RTVSPost2010Prop43
 90
        3
102
RTVSPost2010PropOp43
 70
     1
102
RTVSPost2010Prop44ColorIndex
 90
        5
102
RTVSPost2010Prop44ColorRGB
 90
      255
102
RTVSPost2010PropOp44
 70
     1
102
RTVSPost2010Prop45
280
     0
102
RTVSPost2010PropOp45
 70
     1
102
RTVSPost2010Prop46
 90
       50
102
RTVSPost2010PropOp46
 70
     1
102
RTVSPost2010Prop47
 90
       50
102
RTVSPost2010PropOp47
 70
     1
102
RTVSPost2010Prop48
 90
       50
102
RTVSPost2010PropOp48
 70
     1
102
RTVSPost2010Prop49
280
     0
102
RTVSPost2010PropOp49
 70
     1
102
RTVSPost2010Prop50
 90
       50
102
RTVSPost2010PropOp50
 70
     1
102
RTVSPost2010Prop51ColorIndex
 90
      256
102
RTVSPost2010Prop51ColorRGB
 90
-16777216
102
RTVSPost2010PropOp51
 70
     0
102
RTVSPost2010Prop52
140
1.0
102
RTVSPost2010PropOp52
 70
     0
102
RTVSPost2010Prop53
 90
        2
102
RTVSPost2010PropOp53
 70
     1
102
RTVSPost2010Prop54
  1
strokes_ogs.tif
102
RTVSPost2010PropOp54
 70
     1
102
RTVSPost2010Prop55
280
     0
102
RTVSPost2010PropOp55
 70
     1
102
RTVSPost2010Prop56
140
1.0
102
RTVSPost2010PropOp56
 70
     1
102
RTVSPost2010Prop57
140
1.0
102
RTVSPost2010PropOp57
 70
     1
102
RTVSPropertyOp0
 70
     1
102
RTVSPropertyOp1
 70
     1
102
RTVSPropertyOp2
 70
     1
102
RTVSPropertyOp3
 70
     1
102
RTVSPropertyOp4
 70
     1
102
RTVSPropertyOp5
 70
     1
102
RTVSPropertyOp6
 70
     1
102
RTVSPropertyOp7
 70
     1
102
RTVSPropertyOp8
 70
     1
102
RTVSPropertyOp9
 70
     1
102
RTVSPropertyOp10
 70
     1
102
RTVSPropertyOp11
 70
     1
102
RTVSPropertyOp12
 70
     1
102
RTVSPropertyOp13
 70
     1
102
RTVSPropertyOp14
 70
     1
102
RTVSPropertyOp15
 70
     1
102
RTVSPropertyOp16
 70
     1
102
RTVSPropertyOp17
 70
     1
102
RTVSPropertyOp18
 70
     1
102
RTVSPropertyOp19
 70
     1
102
RTVSPropertyOp20
 70
     1
102
RTVSPropertyOp21
 70
     1
102
RTVSPropertyOp22
 70
     1
102
RTVSPropertyOp23
 70
     1
102
RTVSPropertyOp24
 70
     1
102
RTVSPropertyOp25
 70
     1
102
RTVSPropertyOp26
 70
     1
102
RTVSPropertyOp27
 70
     1
102
RTVSPropertyOp28
 70
     1
102
RTVSPropertyOp29
 70
     1
102
RTVSPropertyOp30
 70
     1
102
RTVSPropertyOp31
 70
     1
102
RTVSPropertyOp32
 70
     1
102
RTVSPropertyOp33
 70
     1
102
RTVSPropertyOp34
 70
     1
102
RTVSPropertyOp35
 70
     1
102
RTVSPropertyOp36
 70
     1
102
RTVSPropertyOp37
 70
     1
102
RTVSPropertyOp38
 70
     1
102
RTVSPropertyOp39
 70
     1
102
RTVSPropertyOp40
 70
     1
102
RTVSPropertyOp41
 70
     1
102
RTVSPropertyOp42
 70
     1
102
RTVSPropertyOp43
 70
     1
102
RTVSPropertyOp44
 70
     1
102
RTVSPropertyOp45
 70
     1
102
RTVSPropertyOp46
 70
     1
102
RTVSPropertyOp47
 70
     1
102
RTVSPropertyOp48
 70
     1
102
RTVSPropertyOp49
 70
     1
102
RTVSPropertyOp50
 70
     1
102
RTVSPropertyOp51
 70
     0
102
RTVSPropertyOp52
 70
     0
102
RTVSPropertyOp53
 70
     1
102
RTVSPropertyOp54
 70
     1
102
RTVSPropertyOp55
 70
     1
102
RTVSPropertyOp56
 70
     1
102
RTVSPropertyOp57
 70
     1
102
RTVSPropertyOp58
 70
     1
102
RTVSPropertyOp59
 70
     1
102
RTVSPropertyOp60
 70
     1
102
RTVSPropertyOp61
 70
     1
102
RTVSPropertyOp62
 70
     1
  0
XRECORD
  5
A80C
102
{ACAD_REACTORS
330
A80B
102
}
330
A80B
100
AcDbXrecord
280
     1
102
RTVSPost2010Prop28
280
     0
102
RTVSPost2010PropOp28
 70
     1
102
RTVSPost2010Prop29
280
     1
102
RTVSPost2010PropOp29
 70
     1
102
RTVSPost2010Prop30
280
     1
102
RTVSPost2010PropOp30
 70
     1
102
RTVSPost2010Prop31
280
     0
102
RTVSPost2010PropOp31
 70
     1
102
RTVSPost2010Prop32
280
     0
102
RTVSPost2010PropOp32
 70
     1
102
RTVSPost2010Prop33
280
     0
102
RTVSPost2010PropOp33
 70
     1
102
RTVSPost2010Prop34
280
     0
102
RTVSPost2010PropOp34
 70
     1
102
RTVSPost2010Prop35
280
     0
102
RTVSPost2010PropOp35
 70
     1
102
RTVSPost2010Prop36
280
     0
102
RTVSPost2010PropOp36
 70
     1
102
RTVSPost2010Prop37
 90
       50
102
RTVSPost2010PropOp37
 70
     1
102
RTVSPost2010Prop38
140
0.0
102
RTVSPost2010PropOp38
 70
     1
102
RTVSPost2010Prop39
140
1.0
102
RTVSPost2010PropOp39
 70
     1
102
RTVSPost2010Prop40
 90
        0
102
RTVSPost2010PropOp40
 70
     1
102
RTVSPost2010Prop41ColorIndex
 90
       18
102
RTVSPost2010Prop41ColorRGB
 90
        0
102
RTVSPost2010PropOp41
 70
     1
102
RTVSPost2010Prop42
 90
       50
102
RTVSPost2010PropOp42
 70
     1
102
RTVSPost2010Prop43
 90
        3
102
RTVSPost2010PropOp43
 70
     1
102
RTVSPost2010Prop44ColorIndex
 90
        5
102
RTVSPost2010Prop44ColorRGB
 90
      255
102
RTVSPost2010PropOp44
 70
     1
102
RTVSPost2010Prop45
280
     0
102
RTVSPost2010PropOp45
 70
     1
102
RTVSPost2010Prop46
 90
       50
102
RTVSPost2010PropOp46
 70
     1
102
RTVSPost2010Prop47
 90
       50
102
RTVSPost2010PropOp47
 70
     1
102
RTVSPost2010Prop48
 90
       50
102
RTVSPost2010PropOp48
 70
     1
102
RTVSPost2010Prop49
280
     0
102
RTVSPost2010PropOp49
 70
     1
102
RTVSPost2010Prop50
 90
       50
102
RTVSPost2010PropOp50
 70
     1
102
RTVSPost2010Prop51ColorIndex
 90
      256
102
RTVSPost2010Prop51ColorRGB
 90
-16777216
102
RTVSPost2010PropOp51
 70
     0
102
RTVSPost2010Prop52
140
1.0
102
RTVSPost2010PropOp52
 70
     0
102
RTVSPost2010Prop53
 90
        2
102
RTVSPost2010PropOp53
 70
     1
102
RTVSPost2010Prop54
  1
strokes_ogs.tif
102
RTVSPost2010PropOp54
 70
     1
102
RTVSPost2010Prop55
280
     0
102
RTVSPost2010PropOp55
 70
     1
102
RTVSPost2010Prop56
140
1.0
102
RTVSPost2010PropOp56
 70
     1
102
RTVSPost2010Prop57
140
1.0
102
RTVSPost2010PropOp57
 70
     1
102
RTVSPropertyOp0
 70
     1
102
RTVSPropertyOp1
 70
     1
102
RTVSPropertyOp2
 70
     1
102
RTVSPropertyOp3
 70
     1
102
RTVSPropertyOp4
 70
     1
102
RTVSPropertyOp5
 70
     1
102
RTVSPropertyOp6
 70
     1
102
RTVSPropertyOp7
 70
     1
102
RTVSPropertyOp8
 70
     1
102
RTVSPropertyOp9
 70
     1
102
RTVSPropertyOp10
 70
     1
102
RTVSPropertyOp11
 70
     1
102
RTVSPropertyOp12
 70
     1
102
RTVSPropertyOp13
 70
     1
102
RTVSPropertyOp14
 70
     1
102
RTVSPropertyOp15
 70
     1
102
RTVSPropertyOp16
 70
     1
102
RTVSPropertyOp17
 70
     1
102
RTVSPropertyOp18
 70
     1
102
RTVSPropertyOp19
 70
     1
102
RTVSPropertyOp20
 70
     1
102
RTVSPropertyOp21
 70
     1
102
RTVSPropertyOp22
 70
     1
102
RTVSPropertyOp23
 70
     1
102
RTVSPropertyOp24
 70
     1
102
RTVSPropertyOp25
 70
     1
102
RTVSPropertyOp26
 70
     1
102
RTVSPropertyOp27
 70
     1
102
RTVSPropertyOp28
 70
     1
102
RTVSPropertyOp29
 70
     1
102
RTVSPropertyOp30
 70
     1
102
RTVSPropertyOp31
 70
     1
102
RTVSPropertyOp32
 70
     1
102
RTVSPropertyOp33
 70
     1
102
RTVSPropertyOp34
 70
     1
102
RTVSPropertyOp35
 70
     1
102
RTVSPropertyOp36
 70
     1
102
RTVSPropertyOp37
 70
     1
102
RTVSPropertyOp38
 70
     1
102
RTVSPropertyOp39
 70
     1
102
RTVSPropertyOp40
 70
     1
102
RTVSPropertyOp41
 70
     1
102
RTVSPropertyOp42
 70
     1
102
RTVSPropertyOp43
 70
     1
102
RTVSPropertyOp44
 70
     1
102
RTVSPropertyOp45
 70
     1
102
RTVSPropertyOp46
 70
     1
102
RTVSPropertyOp47
 70
     1
102
RTVSPropertyOp48
 70
     1
102
RTVSPropertyOp49
 70
     1
102
RTVSPropertyOp50
 70
     1
102
RTVSPropertyOp51
 70
     0
102
RTVSPropertyOp52
 70
     0
102
RTVSPropertyOp53
 70
     1
102
RTVSPropertyOp54
 70
     1
102
RTVSPropertyOp55
 70
     1
102
RTVSPropertyOp56
 70
     1
102
RTVSPropertyOp57
 70
     1
102
RTVSPropertyOp58
 70
     1
102
RTVSPropertyOp59
 70
     1
102
RTVSPropertyOp60
 70
     1
102
RTVSPropertyOp61
 70
     1
102
RTVSPropertyOp62
 70
     1
  0
XRECORD
  5
A814
102
{ACAD_REACTORS
330
A813
102
}
330
A813
100
AcDbXrecord
280
     1
102
RTVSPost2010Prop28
280
     0
102
RTVSPost2010PropOp28
 70
     1
102
RTVSPost2010Prop29
280
     1
102
RTVSPost2010PropOp29
 70
     1
102
RTVSPost2010Prop30
280
     1
102
RTVSPost2010PropOp30
 70
     1
102
RTVSPost2010Prop31
280
     0
102
RTVSPost2010PropOp31
 70
     1
102
RTVSPost2010Prop32
280
     0
102
RTVSPost2010PropOp32
 70
     1
102
RTVSPost2010Prop33
280
     0
102
RTVSPost2010PropOp33
 70
     1
102
RTVSPost2010Prop34
280
     0
102
RTVSPost2010PropOp34
 70
     1
102
RTVSPost2010Prop35
280
     0
102
RTVSPost2010PropOp35
 70
     1
102
RTVSPost2010Prop36
280
     0
102
RTVSPost2010PropOp36
 70
     1
102
RTVSPost2010Prop37
 90
       50
102
RTVSPost2010PropOp37
 70
     1
102
RTVSPost2010Prop38
140
0.0
102
RTVSPost2010PropOp38
 70
     1
102
RTVSPost2010Prop39
140
1.0
102
RTVSPost2010PropOp39
 70
     1
102
RTVSPost2010Prop40
 90
        0
102
RTVSPost2010PropOp40
 70
     1
102
RTVSPost2010Prop41ColorIndex
 90
       18
102
RTVSPost2010Prop41ColorRGB
 90
        0
102
RTVSPost2010PropOp41
 70
     1
102
RTVSPost2010Prop42
 90
       50
102
RTVSPost2010PropOp42
 70
     1
102
RTVSPost2010Prop43
 90
        3
102
RTVSPost2010PropOp43
 70
     1
102
RTVSPost2010Prop44ColorIndex
 90
        5
102
RTVSPost2010Prop44ColorRGB
 90
      255
102
RTVSPost2010PropOp44
 70
     1
102
RTVSPost2010Prop45
280
     0
102
RTVSPost2010PropOp45
 70
     1
102
RTVSPost2010Prop46
 90
       50
102
RTVSPost2010PropOp46
 70
     1
102
RTVSPost2010Prop47
 90
       50
102
RTVSPost2010PropOp47
 70
     1
102
RTVSPost2010Prop48
 90
       50
102
RTVSPost2010PropOp48
 70
     1
102
RTVSPost2010Prop49
280
     0
102
RTVSPost2010PropOp49
 70
     1
102
RTVSPost2010Prop50
 90
       50
102
RTVSPost2010PropOp50
 70
     1
102
RTVSPost2010Prop51ColorIndex
 90
      256
102
RTVSPost2010Prop51ColorRGB
 90
-16777216
102
RTVSPost2010PropOp51
 70
     0
102
RTVSPost2010Prop52
140
1.0
102
RTVSPost2010PropOp52
 70
     0
102
RTVSPost2010Prop53
 90
        2
102
RTVSPost2010PropOp53
 70
     1
102
RTVSPost2010Prop54
  1
strokes_ogs.tif
102
RTVSPost2010PropOp54
 70
     1
102
RTVSPost2010Prop55
280
     0
102
RTVSPost2010PropOp55
 70
     1
102
RTVSPost2010Prop56
140
1.0
102
RTVSPost2010PropOp56
 70
     1
102
RTVSPost2010Prop57
140
1.0
102
RTVSPost2010PropOp57
 70
     1
102
RTVSPropertyOp0
 70
     1
102
RTVSPropertyOp1
 70
     1
102
RTVSPropertyOp2
 70
     1
102
RTVSPropertyOp3
 70
     1
102
RTVSPropertyOp4
 70
     1
102
RTVSPropertyOp5
 70
     1
102
RTVSPropertyOp6
 70
     1
102
RTVSPropertyOp7
 70
     1
102
RTVSPropertyOp8
 70
     1
102
RTVSPropertyOp9
 70
     1
102
RTVSPropertyOp10
 70
     1
102
RTVSPropertyOp11
 70
     1
102
RTVSPropertyOp12
 70
     1
102
RTVSPropertyOp13
 70
     1
102
RTVSPropertyOp14
 70
     1
102
RTVSPropertyOp15
 70
     1
102
RTVSPropertyOp16
 70
     1
102
RTVSPropertyOp17
 70
     1
102
RTVSPropertyOp18
 70
     1
102
RTVSPropertyOp19
 70
     1
102
RTVSPropertyOp20
 70
     1
102
RTVSPropertyOp21
 70
     1
102
RTVSPropertyOp22
 70
     1
102
RTVSPropertyOp23
 70
     1
102
RTVSPropertyOp24
 70
     1
102
RTVSPropertyOp25
 70
     1
102
RTVSPropertyOp26
 70
     1
102
RTVSPropertyOp27
 70
     1
102
RTVSPropertyOp28
 70
     1
102
RTVSPropertyOp29
 70
     1
102
RTVSPropertyOp30
 70
     1
102
RTVSPropertyOp31
 70
     1
102
RTVSPropertyOp32
 70
     1
102
RTVSPropertyOp33
 70
     1
102
RTVSPropertyOp34
 70
     1
102
RTVSPropertyOp35
 70
     1
102
RTVSPropertyOp36
 70
     1
102
RTVSPropertyOp37
 70
     1
102
RTVSPropertyOp38
 70
     1
102
RTVSPropertyOp39
 70
     1
102
RTVSPropertyOp40
 70
     1
102
RTVSPropertyOp41
 70
     1
102
RTVSPropertyOp42
 70
     1
102
RTVSPropertyOp43
 70
     1
102
RTVSPropertyOp44
 70
     1
102
RTVSPropertyOp45
 70
     1
102
RTVSPropertyOp46
 70
     1
102
RTVSPropertyOp47
 70
     1
102
RTVSPropertyOp48
 70
     1
102
RTVSPropertyOp49
 70
     1
102
RTVSPropertyOp50
 70
     1
102
RTVSPropertyOp51
 70
     0
102
RTVSPropertyOp52
 70
     0
102
RTVSPropertyOp53
 70
     1
102
RTVSPropertyOp54
 70
     1
102
RTVSPropertyOp55
 70
     1
102
RTVSPropertyOp56
 70
     1
102
RTVSPropertyOp57
 70
     1
102
RTVSPropertyOp58
 70
     1
102
RTVSPropertyOp59
 70
     1
102
RTVSPropertyOp60
 70
     1
102
RTVSPropertyOp61
 70
     1
102
RTVSPropertyOp62
 70
     1
  0
XRECORD
  5
A830
102
{ACAD_REACTORS
330
A82F
102
}
330
A82F
100
AcDbXrecord
280
     1
102
RTVSPost2010Prop28
280
     0
102
RTVSPost2010PropOp28
 70
     1
102
RTVSPost2010Prop29
280
     1
102
RTVSPost2010PropOp29
 70
     1
102
RTVSPost2010Prop30
280
     1
102
RTVSPost2010PropOp30
 70
     1
102
RTVSPost2010Prop31
280
     0
102
RTVSPost2010PropOp31
 70
     1
102
RTVSPost2010Prop32
280
     0
102
RTVSPost2010PropOp32
 70
     1
102
RTVSPost2010Prop33
280
     0
102
RTVSPost2010PropOp33
 70
     1
102
RTVSPost2010Prop34
280
     0
102
RTVSPost2010PropOp34
 70
     1
102
RTVSPost2010Prop35
280
     0
102
RTVSPost2010PropOp35
 70
     1
102
RTVSPost2010Prop36
280
     0
102
RTVSPost2010PropOp36
 70
     1
102
RTVSPost2010Prop37
 90
       50
102
RTVSPost2010PropOp37
 70
     0
102
RTVSPost2010Prop38
140
0.0
102
RTVSPost2010PropOp38
 70
     0
102
RTVSPost2010Prop39
140
1.0
102
RTVSPost2010PropOp39
 70
     0
102
RTVSPost2010Prop40
 90
        0
102
RTVSPost2010PropOp40
 70
     0
102
RTVSPost2010Prop41ColorIndex
 90
       18
102
RTVSPost2010Prop41ColorRGB
 90
        0
102
RTVSPost2010PropOp41
 70
     0
102
RTVSPost2010Prop42
 90
       50
102
RTVSPost2010PropOp42
 70
     0
102
RTVSPost2010Prop43
 90
        3
102
RTVSPost2010PropOp43
 70
     0
102
RTVSPost2010Prop44ColorIndex
 90
        5
102
RTVSPost2010Prop44ColorRGB
 90
      255
102
RTVSPost2010PropOp44
 70
     0
102
RTVSPost2010Prop45
280
     0
102
RTVSPost2010PropOp45
 70
     1
102
RTVSPost2010Prop46
 90
       50
102
RTVSPost2010PropOp46
 70
     0
102
RTVSPost2010Prop47
 90
       50
102
RTVSPost2010PropOp47
 70
     0
102
RTVSPost2010Prop48
 90
       50
102
RTVSPost2010PropOp48
 70
     0
102
RTVSPost2010Prop49
280
     0
102
RTVSPost2010PropOp49
 70
     1
102
RTVSPost2010Prop50
 90
       50
102
RTVSPost2010PropOp50
 70
     0
102
RTVSPost2010Prop51ColorIndex
 90
      256
102
RTVSPost2010Prop51ColorRGB
 90
-16777216
102
RTVSPost2010PropOp51
 70
     0
102
RTVSPost2010Prop52
140
1.0
102
RTVSPost2010PropOp52
 70
     0
102
RTVSPost2010Prop53
 90
        2
102
RTVSPost2010PropOp53
 70
     0
102
RTVSPost2010Prop54
  1
strokes_ogs.tif
102
RTVSPost2010PropOp54
 70
     0
102
RTVSPost2010Prop55
280
     0
102
RTVSPost2010PropOp55
 70
     1
102
RTVSPost2010Prop56
140
1.0
102
RTVSPost2010PropOp56
 70
     0
102
RTVSPost2010Prop57
140
1.0
102
RTVSPost2010PropOp57
 70
     0
102
RTVSPropertyOp0
 70
     0
102
RTVSPropertyOp1
 70
     0
102
RTVSPropertyOp2
 70
     0
102
RTVSPropertyOp3
 70
     0
102
RTVSPropertyOp4
 70
     0
102
RTVSPropertyOp5
 70
     0
102
RTVSPropertyOp6
 70
     0
102
RTVSPropertyOp7
 70
     0
102
RTVSPropertyOp8
 70
     0
102
RTVSPropertyOp9
 70
     0
102
RTVSPropertyOp10
 70
     0
102
RTVSPropertyOp11
 70
     0
102
RTVSPropertyOp12
 70
     0
102
RTVSPropertyOp13
 70
     0
102
RTVSPropertyOp14
 70
     2
102
RTVSPropertyOp15
 70
     0
102
RTVSPropertyOp16
 70
     0
102
RTVSPropertyOp17
 70
     0
102
RTVSPropertyOp18
 70
     0
102
RTVSPropertyOp19
 70
     0
102
RTVSPropertyOp20
 70
     0
102
RTVSPropertyOp21
 70
     0
102
RTVSPropertyOp22
 70
     0
102
RTVSPropertyOp23
 70
     0
102
RTVSPropertyOp24
 70
     0
102
RTVSPropertyOp25
 70
     0
102
RTVSPropertyOp26
 70
     0
102
RTVSPropertyOp27
 70
     0
102
RTVSPropertyOp28
 70
     1
102
RTVSPropertyOp29
 70
     1
102
RTVSPropertyOp30
 70
     1
102
RTVSPropertyOp31
 70
     1
102
RTVSPropertyOp32
 70
     1
102
RTVSPropertyOp33
 70
     1
102
RTVSPropertyOp34
 70
     1
102
RTVSPropertyOp35
 70
     1
102
RTVSPropertyOp36
 70
     1
102
RTVSPropertyOp37
 70
     0
102
RTVSPropertyOp38
 70
     0
102
RTVSPropertyOp39
 70
     0
102
RTVSPropertyOp40
 70
     0
102
RTVSPropertyOp41
 70
     0
102
RTVSPropertyOp42
 70
     0
102
RTVSPropertyOp43
 70
     0
102
RTVSPropertyOp44
 70
     0
102
RTVSPropertyOp45
 70
     1
102
RTVSPropertyOp46
 70
     0
102
RTVSPropertyOp47
 70
     0
102
RTVSPropertyOp48
 70
     0
102
RTVSPropertyOp49
 70
     1
102
RTVSPropertyOp50
 70
     0
102
RTVSPropertyOp51
 70
     0
102
RTVSPropertyOp52
 70
     0
102
RTVSPropertyOp53
 70
     0
102
RTVSPropertyOp54
 70
     0
102
RTVSPropertyOp55
 70
     1
102
RTVSPropertyOp56
 70
     0
102
RTVSPropertyOp57
 70
     0
102
RTVSPropertyOp58
 70
     0
102
RTVSPropertyOp59
 70
     0
102
RTVSPropertyOp60
 70
     0
102
RTVSPropertyOp61
 70
     0
102
RTVSPropertyOp62
 70
     0
  0
XRECORD
  5
A820
102
{ACAD_REACTORS
330
A81F
102
}
330
A81F
100
AcDbXrecord
280
     1
102
RTVSPost2010Prop28
280
     0
102
RTVSPost2010PropOp28
 70
     1
102
RTVSPost2010Prop29
280
     1
102
RTVSPost2010PropOp29
 70
     1
102
RTVSPost2010Prop30
280
     1
102
RTVSPost2010PropOp30
 70
     1
102
RTVSPost2010Prop31
280
     0
102
RTVSPost2010PropOp31
 70
     1
102
RTVSPost2010Prop32
280
     0
102
RTVSPost2010PropOp32
 70
     1
102
RTVSPost2010Prop33
280
     0
102
RTVSPost2010PropOp33
 70
     1
102
RTVSPost2010Prop34
280
     0
102
RTVSPost2010PropOp34
 70
     1
102
RTVSPost2010Prop35
280
     0
102
RTVSPost2010PropOp35
 70
     1
102
RTVSPost2010Prop36
280
     0
102
RTVSPost2010PropOp36
 70
     1
102
RTVSPost2010Prop37
 90
       50
102
RTVSPost2010PropOp37
 70
     1
102
RTVSPost2010Prop38
140
0.0
102
RTVSPost2010PropOp38
 70
     1
102
RTVSPost2010Prop39
140
1.0
102
RTVSPost2010PropOp39
 70
     1
102
RTVSPost2010Prop40
 90
        0
102
RTVSPost2010PropOp40
 70
     1
102
RTVSPost2010Prop41ColorIndex
 90
       18
102
RTVSPost2010Prop41ColorRGB
 90
        0
102
RTVSPost2010PropOp41
 70
     1
102
RTVSPost2010Prop42
 90
       50
102
RTVSPost2010PropOp42
 70
     1
102
RTVSPost2010Prop43
 90
        3
102
RTVSPost2010PropOp43
 70
     1
102
RTVSPost2010Prop44ColorIndex
 90
        5
102
RTVSPost2010Prop44ColorRGB
 90
      255
102
RTVSPost2010PropOp44
 70
     1
102
RTVSPost2010Prop45
280
     0
102
RTVSPost2010PropOp45
 70
     1
102
RTVSPost2010Prop46
 90
       50
102
RTVSPost2010PropOp46
 70
     1
102
RTVSPost2010Prop47
 90
       50
102
RTVSPost2010PropOp47
 70
     1
102
RTVSPost2010Prop48
 90
       50
102
RTVSPost2010PropOp48
 70
     1
102
RTVSPost2010Prop49
280
     0
102
RTVSPost2010PropOp49
 70
     1
102
RTVSPost2010Prop50
 90
       50
102
RTVSPost2010PropOp50
 70
     1
102
RTVSPost2010Prop51ColorIndex
 90
      256
102
RTVSPost2010Prop51ColorRGB
 90
-16777216
102
RTVSPost2010PropOp51
 70
     0
102
RTVSPost2010Prop52
140
1.0
102
RTVSPost2010PropOp52
 70
     0
102
RTVSPost2010Prop53
 90
        2
102
RTVSPost2010PropOp53
 70
     1
102
RTVSPost2010Prop54
  1
strokes_ogs.tif
102
RTVSPost2010PropOp54
 70
     1
102
RTVSPost2010Prop55
280
     0
102
RTVSPost2010PropOp55
 70
     1
102
RTVSPost2010Prop56
140
1.0
102
RTVSPost2010PropOp56
 70
     1
102
RTVSPost2010Prop57
140
1.0
102
RTVSPost2010PropOp57
 70
     1
102
RTVSPropertyOp0
 70
     1
102
RTVSPropertyOp1
 70
     1
102
RTVSPropertyOp2
 70
     1
102
RTVSPropertyOp3
 70
     1
102
RTVSPropertyOp4
 70
     1
102
RTVSPropertyOp5
 70
     1
102
RTVSPropertyOp6
 70
     1
102
RTVSPropertyOp7
 70
     1
102
RTVSPropertyOp8
 70
     1
102
RTVSPropertyOp9
 70
     1
102
RTVSPropertyOp10
 70
     1
102
RTVSPropertyOp11
 70
     1
102
RTVSPropertyOp12
 70
     1
102
RTVSPropertyOp13
 70
     1
102
RTVSPropertyOp14
 70
     1
102
RTVSPropertyOp15
 70
     1
102
RTVSPropertyOp16
 70
     1
102
RTVSPropertyOp17
 70
     1
102
RTVSPropertyOp18
 70
     1
102
RTVSPropertyOp19
 70
     1
102
RTVSPropertyOp20
 70
     1
102
RTVSPropertyOp21
 70
     1
102
RTVSPropertyOp22
 70
     1
102
RTVSPropertyOp23
 70
     1
102
RTVSPropertyOp24
 70
     1
102
RTVSPropertyOp25
 70
     1
102
RTVSPropertyOp26
 70
     1
102
RTVSPropertyOp27
 70
     1
102
RTVSPropertyOp28
 70
     1
102
RTVSPropertyOp29
 70
     1
102
RTVSPropertyOp30
 70
     1
102
RTVSPropertyOp31
 70
     1
102
RTVSPropertyOp32
 70
     1
102
RTVSPropertyOp33
 70
     1
102
RTVSPropertyOp34
 70
     1
102
RTVSPropertyOp35
 70
     1
102
RTVSPropertyOp36
 70
     1
102
RTVSPropertyOp37
 70
     1
102
RTVSPropertyOp38
 70
     1
102
RTVSPropertyOp39
 70
     1
102
RTVSPropertyOp40
 70
     1
102
RTVSPropertyOp41
 70
     1
102
RTVSPropertyOp42
 70
     1
102
RTVSPropertyOp43
 70
     1
102
RTVSPropertyOp44
 70
     1
102
RTVSPropertyOp45
 70
     1
102
RTVSPropertyOp46
 70
     1
102
RTVSPropertyOp47
 70
     1
102
RTVSPropertyOp48
 70
     1
102
RTVSPropertyOp49
 70
     1
102
RTVSPropertyOp50
 70
     1
102
RTVSPropertyOp51
 70
     0
102
RTVSPropertyOp52
 70
     0
102
RTVSPropertyOp53
 70
     1
102
RTVSPropertyOp54
 70
     1
102
RTVSPropertyOp55
 70
     1
102
RTVSPropertyOp56
 70
     1
102
RTVSPropertyOp57
 70
     1
102
RTVSPropertyOp58
 70
     1
102
RTVSPropertyOp59
 70
     1
102
RTVSPropertyOp60
 70
     1
102
RTVSPropertyOp61
 70
     1
102
RTVSPropertyOp62
 70
     1
  0
XRECORD
  5
A832
102
{ACAD_REACTORS
330
A831
102
}
330
A831
100
AcDbXrecord
280
     1
102
RTVSPost2010Prop28
280
     0
102
RTVSPost2010PropOp28
 70
     1
102
RTVSPost2010Prop29
280
     1
102
RTVSPost2010PropOp29
 70
     1
102
RTVSPost2010Prop30
280
     1
102
RTVSPost2010PropOp30
 70
     1
102
RTVSPost2010Prop31
280
     0
102
RTVSPost2010PropOp31
 70
     1
102
RTVSPost2010Prop32
280
     0
102
RTVSPost2010PropOp32
 70
     1
102
RTVSPost2010Prop33
280
     0
102
RTVSPost2010PropOp33
 70
     1
102
RTVSPost2010Prop34
280
     0
102
RTVSPost2010PropOp34
 70
     1
102
RTVSPost2010Prop35
280
     0
102
RTVSPost2010PropOp35
 70
     1
102
RTVSPost2010Prop36
280
     0
102
RTVSPost2010PropOp36
 70
     1
102
RTVSPost2010Prop37
 90
       50
102
RTVSPost2010PropOp37
 70
     0
102
RTVSPost2010Prop38
140
0.0
102
RTVSPost2010PropOp38
 70
     0
102
RTVSPost2010Prop39
140
1.0
102
RTVSPost2010PropOp39
 70
     0
102
RTVSPost2010Prop40
 90
        0
102
RTVSPost2010PropOp40
 70
     0
102
RTVSPost2010Prop41ColorIndex
 90
       18
102
RTVSPost2010Prop41ColorRGB
 90
        0
102
RTVSPost2010PropOp41
 70
     0
102
RTVSPost2010Prop42
 90
       50
102
RTVSPost2010PropOp42
 70
     0
102
RTVSPost2010Prop43
 90
        3
102
RTVSPost2010PropOp43
 70
     0
102
RTVSPost2010Prop44ColorIndex
 90
        5
102
RTVSPost2010Prop44ColorRGB
 90
      255
102
RTVSPost2010PropOp44
 70
     0
102
RTVSPost2010Prop45
280
     0
102
RTVSPost2010PropOp45
 70
     1
102
RTVSPost2010Prop46
 90
       50
102
RTVSPost2010PropOp46
 70
     0
102
RTVSPost2010Prop47
 90
       50
102
RTVSPost2010PropOp47
 70
     0
102
RTVSPost2010Prop48
 90
       50
102
RTVSPost2010PropOp48
 70
     0
102
RTVSPost2010Prop49
280
     0
102
RTVSPost2010PropOp49
 70
     1
102
RTVSPost2010Prop50
 90
       50
102
RTVSPost2010PropOp50
 70
     0
102
RTVSPost2010Prop51ColorIndex
 90
      256
102
RTVSPost2010Prop51ColorRGB
 90
-16777216
102
RTVSPost2010PropOp51
 70
     0
102
RTVSPost2010Prop52
140
1.0
102
RTVSPost2010PropOp52
 70
     0
102
RTVSPost2010Prop53
 90
        2
102
RTVSPost2010PropOp53
 70
     0
102
RTVSPost2010Prop54
  1
strokes_ogs.tif
102
RTVSPost2010PropOp54
 70
     0
102
RTVSPost2010Prop55
280
     0
102
RTVSPost2010PropOp55
 70
     1
102
RTVSPost2010Prop56
140
1.0
102
RTVSPost2010PropOp56
 70
     0
102
RTVSPost2010Prop57
140
1.0
102
RTVSPost2010PropOp57
 70
     0
102
RTVSPropertyOp0
 70
     0
102
RTVSPropertyOp1
 70
     0
102
RTVSPropertyOp2
 70
     0
102
RTVSPropertyOp3
 70
     0
102
RTVSPropertyOp4
 70
     0
102
RTVSPropertyOp5
 70
     0
102
RTVSPropertyOp6
 70
     0
102
RTVSPropertyOp7
 70
     0
102
RTVSPropertyOp8
 70
     0
102
RTVSPropertyOp9
 70
     0
102
RTVSPropertyOp10
 70
     0
102
RTVSPropertyOp11
 70
     0
102
RTVSPropertyOp12
 70
     0
102
RTVSPropertyOp13
 70
     0
102
RTVSPropertyOp14
 70
     2
102
RTVSPropertyOp15
 70
     0
102
RTVSPropertyOp16
 70
     0
102
RTVSPropertyOp17
 70
     0
102
RTVSPropertyOp18
 70
     0
102
RTVSPropertyOp19
 70
     0
102
RTVSPropertyOp20
 70
     0
102
RTVSPropertyOp21
 70
     0
102
RTVSPropertyOp22
 70
     0
102
RTVSPropertyOp23
 70
     0
102
RTVSPropertyOp24
 70
     0
102
RTVSPropertyOp25
 70
     0
102
RTVSPropertyOp26
 70
     0
102
RTVSPropertyOp27
 70
     0
102
RTVSPropertyOp28
 70
     1
102
RTVSPropertyOp29
 70
     1
102
RTVSPropertyOp30
 70
     1
102
RTVSPropertyOp31
 70
     1
102
RTVSPropertyOp32
 70
     1
102
RTVSPropertyOp33
 70
     1
102
RTVSPropertyOp34
 70
     1
102
RTVSPropertyOp35
 70
     1
102
RTVSPropertyOp36
 70
     1
102
RTVSPropertyOp37
 70
     0
102
RTVSPropertyOp38
 70
     0
102
RTVSPropertyOp39
 70
     0
102
RTVSPropertyOp40
 70
     0
102
RTVSPropertyOp41
 70
     0
102
RTVSPropertyOp42
 70
     0
102
RTVSPropertyOp43
 70
     0
102
RTVSPropertyOp44
 70
     0
102
RTVSPropertyOp45
 70
     1
102
RTVSPropertyOp46
 70
     0
102
RTVSPropertyOp47
 70
     0
102
RTVSPropertyOp48
 70
     0
102
RTVSPropertyOp49
 70
     1
102
RTVSPropertyOp50
 70
     0
102
RTVSPropertyOp51
 70
     0
102
RTVSPropertyOp52
 70
     0
102
RTVSPropertyOp53
 70
     0
102
RTVSPropertyOp54
 70
     0
102
RTVSPropertyOp55
 70
     1
102
RTVSPropertyOp56
 70
     0
102
RTVSPropertyOp57
 70
     0
102
RTVSPropertyOp58
 70
     0
102
RTVSPropertyOp59
 70
     0
102
RTVSPropertyOp60
 70
     0
102
RTVSPropertyOp61
 70
     0
102
RTVSPropertyOp62
 70
     0
  0
XRECORD
  5
A818
102
{ACAD_REACTORS
330
A817
102
}
330
A817
100
AcDbXrecord
280
     1
102
RTVSPost2010Prop28
280
     0
102
RTVSPost2010PropOp28
 70
     1
102
RTVSPost2010Prop29
280
     1
102
RTVSPost2010PropOp29
 70
     1
102
RTVSPost2010Prop30
280
     1
102
RTVSPost2010PropOp30
 70
     1
102
RTVSPost2010Prop31
280
     0
102
RTVSPost2010PropOp31
 70
     1
102
RTVSPost2010Prop32
280
     0
102
RTVSPost2010PropOp32
 70
     1
102
RTVSPost2010Prop33
280
     0
102
RTVSPost2010PropOp33
 70
     1
102
RTVSPost2010Prop34
280
     0
102
RTVSPost2010PropOp34
 70
     1
102
RTVSPost2010Prop35
280
     0
102
RTVSPost2010PropOp35
 70
     1
102
RTVSPost2010Prop36
280
     0
102
RTVSPost2010PropOp36
 70
     1
102
RTVSPost2010Prop37
 90
       50
102
RTVSPost2010PropOp37
 70
     1
102
RTVSPost2010Prop38
140
0.0
102
RTVSPost2010PropOp38
 70
     1
102
RTVSPost2010Prop39
140
1.0
102
RTVSPost2010PropOp39
 70
     1
102
RTVSPost2010Prop40
 90
        0
102
RTVSPost2010PropOp40
 70
     1
102
RTVSPost2010Prop41ColorIndex
 90
       18
102
RTVSPost2010Prop41ColorRGB
 90
        0
102
RTVSPost2010PropOp41
 70
     1
102
RTVSPost2010Prop42
 90
       50
102
RTVSPost2010PropOp42
 70
     1
102
RTVSPost2010Prop43
 90
        3
102
RTVSPost2010PropOp43
 70
     1
102
RTVSPost2010Prop44ColorIndex
 90
        5
102
RTVSPost2010Prop44ColorRGB
 90
      255
102
RTVSPost2010PropOp44
 70
     1
102
RTVSPost2010Prop45
280
     0
102
RTVSPost2010PropOp45
 70
     1
102
RTVSPost2010Prop46
 90
       50
102
RTVSPost2010PropOp46
 70
     1
102
RTVSPost2010Prop47
 90
       50
102
RTVSPost2010PropOp47
 70
     1
102
RTVSPost2010Prop48
 90
       50
102
RTVSPost2010PropOp48
 70
     1
102
RTVSPost2010Prop49
280
     0
102
RTVSPost2010PropOp49
 70
     1
102
RTVSPost2010Prop50
 90
       50
102
RTVSPost2010PropOp50
 70
     1
102
RTVSPost2010Prop51ColorIndex
 90
      256
102
RTVSPost2010Prop51ColorRGB
 90
-16777216
102
RTVSPost2010PropOp51
 70
     0
102
RTVSPost2010Prop52
140
1.0
102
RTVSPost2010PropOp52
 70
     0
102
RTVSPost2010Prop53
 90
        2
102
RTVSPost2010PropOp53
 70
     1
102
RTVSPost2010Prop54
  1
strokes_ogs.tif
102
RTVSPost2010PropOp54
 70
     1
102
RTVSPost2010Prop55
280
     0
102
RTVSPost2010PropOp55
 70
     1
102
RTVSPost2010Prop56
140
1.0
102
RTVSPost2010PropOp56
 70
     1
102
RTVSPost2010Prop57
140
1.0
102
RTVSPost2010PropOp57
 70
     1
102
RTVSPropertyOp0
 70
     1
102
RTVSPropertyOp1
 70
     1
102
RTVSPropertyOp2
 70
     1
102
RTVSPropertyOp3
 70
     1
102
RTVSPropertyOp4
 70
     1
102
RTVSPropertyOp5
 70
     1
102
RTVSPropertyOp6
 70
     1
102
RTVSPropertyOp7
 70
     1
102
RTVSPropertyOp8
 70
     1
102
RTVSPropertyOp9
 70
     1
102
RTVSPropertyOp10
 70
     1
102
RTVSPropertyOp11
 70
     1
102
RTVSPropertyOp12
 70
     1
102
RTVSPropertyOp13
 70
     1
102
RTVSPropertyOp14
 70
     1
102
RTVSPropertyOp15
 70
     1
102
RTVSPropertyOp16
 70
     1
102
RTVSPropertyOp17
 70
     1
102
RTVSPropertyOp18
 70
     1
102
RTVSPropertyOp19
 70
     1
102
RTVSPropertyOp20
 70
     1
102
RTVSPropertyOp21
 70
     1
102
RTVSPropertyOp22
 70
     1
102
RTVSPropertyOp23
 70
     1
102
RTVSPropertyOp24
 70
     1
102
RTVSPropertyOp25
 70
     1
102
RTVSPropertyOp26
 70
     1
102
RTVSPropertyOp27
 70
     1
102
RTVSPropertyOp28
 70
     1
102
RTVSPropertyOp29
 70
     1
102
RTVSPropertyOp30
 70
     1
102
RTVSPropertyOp31
 70
     1
102
RTVSPropertyOp32
 70
     1
102
RTVSPropertyOp33
 70
     1
102
RTVSPropertyOp34
 70
     1
102
RTVSPropertyOp35
 70
     1
102
RTVSPropertyOp36
 70
     1
102
RTVSPropertyOp37
 70
     1
102
RTVSPropertyOp38
 70
     1
102
RTVSPropertyOp39
 70
     1
102
RTVSPropertyOp40
 70
     1
102
RTVSPropertyOp41
 70
     1
102
RTVSPropertyOp42
 70
     1
102
RTVSPropertyOp43
 70
     1
102
RTVSPropertyOp44
 70
     1
102
RTVSPropertyOp45
 70
     1
102
RTVSPropertyOp46
 70
     1
102
RTVSPropertyOp47
 70
     1
102
RTVSPropertyOp48
 70
     1
102
RTVSPropertyOp49
 70
     1
102
RTVSPropertyOp50
 70
     1
102
RTVSPropertyOp51
 70
     0
102
RTVSPropertyOp52
 70
     0
102
RTVSPropertyOp53
 70
     1
102
RTVSPropertyOp54
 70
     1
102
RTVSPropertyOp55
 70
     1
102
RTVSPropertyOp56
 70
     1
102
RTVSPropertyOp57
 70
     1
102
RTVSPropertyOp58
 70
     1
102
RTVSPropertyOp59
 70
     1
102
RTVSPropertyOp60
 70
     1
102
RTVSPropertyOp61
 70
     1
102
RTVSPropertyOp62
 70
     1
  0
XRECORD
  5
A82E
102
{ACAD_REACTORS
330
A82D
102
}
330
A82D
100
AcDbXrecord
280
     1
102
RTVSPost2010Prop28
280
     0
102
RTVSPost2010PropOp28
 70
     1
102
RTVSPost2010Prop29
280
     1
102
RTVSPost2010PropOp29
 70
     1
102
RTVSPost2010Prop30
280
     1
102
RTVSPost2010PropOp30
 70
     1
102
RTVSPost2010Prop31
280
     0
102
RTVSPost2010PropOp31
 70
     1
102
RTVSPost2010Prop32
280
     0
102
RTVSPost2010PropOp32
 70
     1
102
RTVSPost2010Prop33
280
     0
102
RTVSPost2010PropOp33
 70
     1
102
RTVSPost2010Prop34
280
     0
102
RTVSPost2010PropOp34
 70
     1
102
RTVSPost2010Prop35
280
     0
102
RTVSPost2010PropOp35
 70
     1
102
RTVSPost2010Prop36
280
     0
102
RTVSPost2010PropOp36
 70
     1
102
RTVSPost2010Prop37
 90
       50
102
RTVSPost2010PropOp37
 70
     1
102
RTVSPost2010Prop38
140
0.0
102
RTVSPost2010PropOp38
 70
     1
102
RTVSPost2010Prop39
140
1.0
102
RTVSPost2010PropOp39
 70
     1
102
RTVSPost2010Prop40
 90
        0
102
RTVSPost2010PropOp40
 70
     1
102
RTVSPost2010Prop41ColorIndex
 90
       18
102
RTVSPost2010Prop41ColorRGB
 90
        0
102
RTVSPost2010PropOp41
 70
     1
102
RTVSPost2010Prop42
 90
       50
102
RTVSPost2010PropOp42
 70
     1
102
RTVSPost2010Prop43
 90
        3
102
RTVSPost2010PropOp43
 70
     1
102
RTVSPost2010Prop44ColorIndex
 90
        5
102
RTVSPost2010Prop44ColorRGB
 90
      255
102
RTVSPost2010PropOp44
 70
     1
102
RTVSPost2010Prop45
280
     0
102
RTVSPost2010PropOp45
 70
     1
102
RTVSPost2010Prop46
 90
       50
102
RTVSPost2010PropOp46
 70
     1
102
RTVSPost2010Prop47
 90
       50
102
RTVSPost2010PropOp47
 70
     1
102
RTVSPost2010Prop48
 90
       50
102
RTVSPost2010PropOp48
 70
     1
102
RTVSPost2010Prop49
280
     0
102
RTVSPost2010PropOp49
 70
     1
102
RTVSPost2010Prop50
 90
       50
102
RTVSPost2010PropOp50
 70
     1
102
RTVSPost2010Prop51ColorIndex
 90
      256
102
RTVSPost2010Prop51ColorRGB
 90
-16777216
102
RTVSPost2010PropOp51
 70
     0
102
RTVSPost2010Prop52
140
1.0
102
RTVSPost2010PropOp52
 70
     0
102
RTVSPost2010Prop53
 90
        2
102
RTVSPost2010PropOp53
 70
     1
102
RTVSPost2010Prop54
  1
strokes_ogs.tif
102
RTVSPost2010PropOp54
 70
     1
102
RTVSPost2010Prop55
280
     0
102
RTVSPost2010PropOp55
 70
     1
102
RTVSPost2010Prop56
140
1.0
102
RTVSPost2010PropOp56
 70
     1
102
RTVSPost2010Prop57
140
1.0
102
RTVSPost2010PropOp57
 70
     1
102
RTVSPropertyOp0
 70
     1
102
RTVSPropertyOp1
 70
     1
102
RTVSPropertyOp2
 70
     1
102
RTVSPropertyOp3
 70
     1
102
RTVSPropertyOp4
 70
     1
102
RTVSPropertyOp5
 70
     1
102
RTVSPropertyOp6
 70
     1
102
RTVSPropertyOp7
 70
     1
102
RTVSPropertyOp8
 70
     1
102
RTVSPropertyOp9
 70
     1
102
RTVSPropertyOp10
 70
     1
102
RTVSPropertyOp11
 70
     1
102
RTVSPropertyOp12
 70
     1
102
RTVSPropertyOp13
 70
     1
102
RTVSPropertyOp14
 70
     1
102
RTVSPropertyOp15
 70
     1
102
RTVSPropertyOp16
 70
     1
102
RTVSPropertyOp17
 70
     1
102
RTVSPropertyOp18
 70
     1
102
RTVSPropertyOp19
 70
     1
102
RTVSPropertyOp20
 70
     1
102
RTVSPropertyOp21
 70
     1
102
RTVSPropertyOp22
 70
     1
102
RTVSPropertyOp23
 70
     1
102
RTVSPropertyOp24
 70
     1
102
RTVSPropertyOp25
 70
     1
102
RTVSPropertyOp26
 70
     1
102
RTVSPropertyOp27
 70
     1
102
RTVSPropertyOp28
 70
     1
102
RTVSPropertyOp29
 70
     1
102
RTVSPropertyOp30
 70
     1
102
RTVSPropertyOp31
 70
     1
102
RTVSPropertyOp32
 70
     1
102
RTVSPropertyOp33
 70
     1
102
RTVSPropertyOp34
 70
     1
102
RTVSPropertyOp35
 70
     1
102
RTVSPropertyOp36
 70
     1
102
RTVSPropertyOp37
 70
     1
102
RTVSPropertyOp38
 70
     1
102
RTVSPropertyOp39
 70
     1
102
RTVSPropertyOp40
 70
     1
102
RTVSPropertyOp41
 70
     1
102
RTVSPropertyOp42
 70
     1
102
RTVSPropertyOp43
 70
     1
102
RTVSPropertyOp44
 70
     1
102
RTVSPropertyOp45
 70
     1
102
RTVSPropertyOp46
 70
     1
102
RTVSPropertyOp47
 70
     1
102
RTVSPropertyOp48
 70
     1
102
RTVSPropertyOp49
 70
     1
102
RTVSPropertyOp50
 70
     1
102
RTVSPropertyOp51
 70
     0
102
RTVSPropertyOp52
 70
     0
102
RTVSPropertyOp53
 70
     1
102
RTVSPropertyOp54
 70
     1
102
RTVSPropertyOp55
 70
     1
102
RTVSPropertyOp56
 70
     1
102
RTVSPropertyOp57
 70
     1
102
RTVSPropertyOp58
 70
     1
102
RTVSPropertyOp59
 70
     1
102
RTVSPropertyOp60
 70
     1
102
RTVSPropertyOp61
 70
     1
102
RTVSPropertyOp62
 70
     1
  0
XRECORD
  5
A82C
102
{ACAD_REACTORS
330
A82B
102
}
330
A82B
100
AcDbXrecord
280
     1
102
RTVSPost2010Prop28
280
     0
102
RTVSPost2010PropOp28
 70
     1
102
RTVSPost2010Prop29
280
     1
102
RTVSPost2010PropOp29
 70
     1
102
RTVSPost2010Prop30
280
     1
102
RTVSPost2010PropOp30
 70
     1
102
RTVSPost2010Prop31
280
     0
102
RTVSPost2010PropOp31
 70
     1
102
RTVSPost2010Prop32
280
     0
102
RTVSPost2010PropOp32
 70
     1
102
RTVSPost2010Prop33
280
     0
102
RTVSPost2010PropOp33
 70
     1
102
RTVSPost2010Prop34
280
     0
102
RTVSPost2010PropOp34
 70
     1
102
RTVSPost2010Prop35
280
     0
102
RTVSPost2010PropOp35
 70
     1
102
RTVSPost2010Prop36
280
     0
102
RTVSPost2010PropOp36
 70
     1
102
RTVSPost2010Prop37
 90
       50
102
RTVSPost2010PropOp37
 70
     1
102
RTVSPost2010Prop38
140
0.0
102
RTVSPost2010PropOp38
 70
     1
102
RTVSPost2010Prop39
140
1.0
102
RTVSPost2010PropOp39
 70
     1
102
RTVSPost2010Prop40
 90
        0
102
RTVSPost2010PropOp40
 70
     1
102
RTVSPost2010Prop41ColorIndex
 90
       18
102
RTVSPost2010Prop41ColorRGB
 90
        0
102
RTVSPost2010PropOp41
 70
     1
102
RTVSPost2010Prop42
 90
       50
102
RTVSPost2010PropOp42
 70
     1
102
RTVSPost2010Prop43
 90
        3
102
RTVSPost2010PropOp43
 70
     1
102
RTVSPost2010Prop44ColorIndex
 90
        5
102
RTVSPost2010Prop44ColorRGB
 90
      255
102
RTVSPost2010PropOp44
 70
     1
102
RTVSPost2010Prop45
280
     0
102
RTVSPost2010PropOp45
 70
     1
102
RTVSPost2010Prop46
 90
       50
102
RTVSPost2010PropOp46
 70
     1
102
RTVSPost2010Prop47
 90
       50
102
RTVSPost2010PropOp47
 70
     1
102
RTVSPost2010Prop48
 90
       50
102
RTVSPost2010PropOp48
 70
     1
102
RTVSPost2010Prop49
280
     0
102
RTVSPost2010PropOp49
 70
     1
102
RTVSPost2010Prop50
 90
       50
102
RTVSPost2010PropOp50
 70
     1
102
RTVSPost2010Prop51ColorIndex
 90
      256
102
RTVSPost2010Prop51ColorRGB
 90
-16777216
102
RTVSPost2010PropOp51
 70
     0
102
RTVSPost2010Prop52
140
1.0
102
RTVSPost2010PropOp52
 70
     0
102
RTVSPost2010Prop53
 90
        2
102
RTVSPost2010PropOp53
 70
     1
102
RTVSPost2010Prop54
  1
strokes_ogs.tif
102
RTVSPost2010PropOp54
 70
     1
102
RTVSPost2010Prop55
280
     0
102
RTVSPost2010PropOp55
 70
     1
102
RTVSPost2010Prop56
140
1.0
102
RTVSPost2010PropOp56
 70
     1
102
RTVSPost2010Prop57
140
1.0
102
RTVSPost2010PropOp57
 70
     1
102
RTVSPropertyOp0
 70
     1
102
RTVSPropertyOp1
 70
     1
102
RTVSPropertyOp2
 70
     1
102
RTVSPropertyOp3
 70
     1
102
RTVSPropertyOp4
 70
     1
102
RTVSPropertyOp5
 70
     1
102
RTVSPropertyOp6
 70
     1
102
RTVSPropertyOp7
 70
     1
102
RTVSPropertyOp8
 70
     1
102
RTVSPropertyOp9
 70
     1
102
RTVSPropertyOp10
 70
     1
102
RTVSPropertyOp11
 70
     1
102
RTVSPropertyOp12
 70
     1
102
RTVSPropertyOp13
 70
     1
102
RTVSPropertyOp14
 70
     1
102
RTVSPropertyOp15
 70
     1
102
RTVSPropertyOp16
 70
     1
102
RTVSPropertyOp17
 70
     1
102
RTVSPropertyOp18
 70
     1
102
RTVSPropertyOp19
 70
     1
102
RTVSPropertyOp20
 70
     1
102
RTVSPropertyOp21
 70
     1
102
RTVSPropertyOp22
 70
     1
102
RTVSPropertyOp23
 70
     1
102
RTVSPropertyOp24
 70
     1
102
RTVSPropertyOp25
 70
     1
102
RTVSPropertyOp26
 70
     1
102
RTVSPropertyOp27
 70
     1
102
RTVSPropertyOp28
 70
     1
102
RTVSPropertyOp29
 70
     1
102
RTVSPropertyOp30
 70
     1
102
RTVSPropertyOp31
 70
     1
102
RTVSPropertyOp32
 70
     1
102
RTVSPropertyOp33
 70
     1
102
RTVSPropertyOp34
 70
     1
102
RTVSPropertyOp35
 70
     1
102
RTVSPropertyOp36
 70
     1
102
RTVSPropertyOp37
 70
     1
102
RTVSPropertyOp38
 70
     1
102
RTVSPropertyOp39
 70
     1
102
RTVSPropertyOp40
 70
     1
102
RTVSPropertyOp41
 70
     1
102
RTVSPropertyOp42
 70
     1
102
RTVSPropertyOp43
 70
     1
102
RTVSPropertyOp44
 70
     1
102
RTVSPropertyOp45
 70
     1
102
RTVSPropertyOp46
 70
     1
102
RTVSPropertyOp47
 70
     1
102
RTVSPropertyOp48
 70
     1
102
RTVSPropertyOp49
 70
     1
102
RTVSPropertyOp50
 70
     1
102
RTVSPropertyOp51
 70
     0
102
RTVSPropertyOp52
 70
     0
102
RTVSPropertyOp53
 70
     1
102
RTVSPropertyOp54
 70
     1
102
RTVSPropertyOp55
 70
     1
102
RTVSPropertyOp56
 70
     1
102
RTVSPropertyOp57
 70
     1
102
RTVSPropertyOp58
 70
     1
102
RTVSPropertyOp59
 70
     1
102
RTVSPropertyOp60
 70
     1
102
RTVSPropertyOp61
 70
     1
102
RTVSPropertyOp62
 70
     1
  0
XRECORD
  5
A826
102
{ACAD_REACTORS
330
A825
102
}
330
A825
100
AcDbXrecord
280
     1
102
RTVSPost2010Prop28
280
     0
102
RTVSPost2010PropOp28
 70
     1
102
RTVSPost2010Prop29
280
     1
102
RTVSPost2010PropOp29
 70
     1
102
RTVSPost2010Prop30
280
     1
102
RTVSPost2010PropOp30
 70
     1
102
RTVSPost2010Prop31
280
     0
102
RTVSPost2010PropOp31
 70
     1
102
RTVSPost2010Prop32
280
     0
102
RTVSPost2010PropOp32
 70
     1
102
RTVSPost2010Prop33
280
     0
102
RTVSPost2010PropOp33
 70
     1
102
RTVSPost2010Prop34
280
     0
102
RTVSPost2010PropOp34
 70
     1
102
RTVSPost2010Prop35
280
     0
102
RTVSPost2010PropOp35
 70
     1
102
RTVSPost2010Prop36
280
     0
102
RTVSPost2010PropOp36
 70
     1
102
RTVSPost2010Prop37
 90
       50
102
RTVSPost2010PropOp37
 70
     1
102
RTVSPost2010Prop38
140
0.0
102
RTVSPost2010PropOp38
 70
     1
102
RTVSPost2010Prop39
140
1.0
102
RTVSPost2010PropOp39
 70
     1
102
RTVSPost2010Prop40
 90
        0
102
RTVSPost2010PropOp40
 70
     1
102
RTVSPost2010Prop41ColorIndex
 90
       18
102
RTVSPost2010Prop41ColorRGB
 90
        0
102
RTVSPost2010PropOp41
 70
     1
102
RTVSPost2010Prop42
 90
       50
102
RTVSPost2010PropOp42
 70
     1
102
RTVSPost2010Prop43
 90
        3
102
RTVSPost2010PropOp43
 70
     1
102
RTVSPost2010Prop44ColorIndex
 90
        5
102
RTVSPost2010Prop44ColorRGB
 90
      255
102
RTVSPost2010PropOp44
 70
     1
102
RTVSPost2010Prop45
280
     0
102
RTVSPost2010PropOp45
 70
     1
102
RTVSPost2010Prop46
 90
       50
102
RTVSPost2010PropOp46
 70
     1
102
RTVSPost2010Prop47
 90
       50
102
RTVSPost2010PropOp47
 70
     1
102
RTVSPost2010Prop48
 90
       50
102
RTVSPost2010PropOp48
 70
     1
102
RTVSPost2010Prop49
280
     0
102
RTVSPost2010PropOp49
 70
     1
102
RTVSPost2010Prop50
 90
       50
102
RTVSPost2010PropOp50
 70
     1
102
RTVSPost2010Prop51ColorIndex
 90
      256
102
RTVSPost2010Prop51ColorRGB
 90
-16777216
102
RTVSPost2010PropOp51
 70
     0
102
RTVSPost2010Prop52
140
1.0
102
RTVSPost2010PropOp52
 70
     0
102
RTVSPost2010Prop53
 90
        2
102
RTVSPost2010PropOp53
 70
     1
102
RTVSPost2010Prop54
  1
strokes_ogs.tif
102
RTVSPost2010PropOp54
 70
     1
102
RTVSPost2010Prop55
280
     0
102
RTVSPost2010PropOp55
 70
     1
102
RTVSPost2010Prop56
140
1.0
102
RTVSPost2010PropOp56
 70
     1
102
RTVSPost2010Prop57
140
1.0
102
RTVSPost2010PropOp57
 70
     1
102
RTVSPropertyOp0
 70
     1
102
RTVSPropertyOp1
 70
     1
102
RTVSPropertyOp2
 70
     1
102
RTVSPropertyOp3
 70
     1
102
RTVSPropertyOp4
 70
     1
102
RTVSPropertyOp5
 70
     1
102
RTVSPropertyOp6
 70
     1
102
RTVSPropertyOp7
 70
     1
102
RTVSPropertyOp8
 70
     1
102
RTVSPropertyOp9
 70
     1
102
RTVSPropertyOp10
 70
     1
102
RTVSPropertyOp11
 70
     1
102
RTVSPropertyOp12
 70
     1
102
RTVSPropertyOp13
 70
     1
102
RTVSPropertyOp14
 70
     1
102
RTVSPropertyOp15
 70
     1
102
RTVSPropertyOp16
 70
     1
102
RTVSPropertyOp17
 70
     1
102
RTVSPropertyOp18
 70
     1
102
RTVSPropertyOp19
 70
     1
102
RTVSPropertyOp20
 70
     1
102
RTVSPropertyOp21
 70
     1
102
RTVSPropertyOp22
 70
     1
102
RTVSPropertyOp23
 70
     1
102
RTVSPropertyOp24
 70
     1
102
RTVSPropertyOp25
 70
     1
102
RTVSPropertyOp26
 70
     1
102
RTVSPropertyOp27
 70
     1
102
RTVSPropertyOp28
 70
     1
102
RTVSPropertyOp29
 70
     1
102
RTVSPropertyOp30
 70
     1
102
RTVSPropertyOp31
 70
     1
102
RTVSPropertyOp32
 70
     1
102
RTVSPropertyOp33
 70
     1
102
RTVSPropertyOp34
 70
     1
102
RTVSPropertyOp35
 70
     1
102
RTVSPropertyOp36
 70
     1
102
RTVSPropertyOp37
 70
     1
102
RTVSPropertyOp38
 70
     1
102
RTVSPropertyOp39
 70
     1
102
RTVSPropertyOp40
 70
     1
102
RTVSPropertyOp41
 70
     1
102
RTVSPropertyOp42
 70
     1
102
RTVSPropertyOp43
 70
     1
102
RTVSPropertyOp44
 70
     1
102
RTVSPropertyOp45
 70
     1
102
RTVSPropertyOp46
 70
     1
102
RTVSPropertyOp47
 70
     1
102
RTVSPropertyOp48
 70
     1
102
RTVSPropertyOp49
 70
     1
102
RTVSPropertyOp50
 70
     1
102
RTVSPropertyOp51
 70
     0
102
RTVSPropertyOp52
 70
     0
102
RTVSPropertyOp53
 70
     1
102
RTVSPropertyOp54
 70
     1
102
RTVSPropertyOp55
 70
     1
102
RTVSPropertyOp56
 70
     1
102
RTVSPropertyOp57
 70
     1
102
RTVSPropertyOp58
 70
     1
102
RTVSPropertyOp59
 70
     1
102
RTVSPropertyOp60
 70
     1
102
RTVSPropertyOp61
 70
     1
102
RTVSPropertyOp62
 70
     1
  0
XRECORD
  5
A828
102
{ACAD_REACTORS
330
A827
102
}
330
A827
100
AcDbXrecord
280
     1
102
RTVSPost2010Prop28
280
     0
102
RTVSPost2010PropOp28
 70
     1
102
RTVSPost2010Prop29
280
     1
102
RTVSPost2010PropOp29
 70
     1
102
RTVSPost2010Prop30
280
     1
102
RTVSPost2010PropOp30
 70
     1
102
RTVSPost2010Prop31
280
     0
102
RTVSPost2010PropOp31
 70
     1
102
RTVSPost2010Prop32
280
     0
102
RTVSPost2010PropOp32
 70
     1
102
RTVSPost2010Prop33
280
     0
102
RTVSPost2010PropOp33
 70
     1
102
RTVSPost2010Prop34
280
     0
102
RTVSPost2010PropOp34
 70
     1
102
RTVSPost2010Prop35
280
     0
102
RTVSPost2010PropOp35
 70
     1
102
RTVSPost2010Prop36
280
     0
102
RTVSPost2010PropOp36
 70
     1
102
RTVSPost2010Prop37
 90
       50
102
RTVSPost2010PropOp37
 70
     1
102
RTVSPost2010Prop38
140
0.0
102
RTVSPost2010PropOp38
 70
     1
102
RTVSPost2010Prop39
140
1.0
102
RTVSPost2010PropOp39
 70
     1
102
RTVSPost2010Prop40
 90
        0
102
RTVSPost2010PropOp40
 70
     1
102
RTVSPost2010Prop41ColorIndex
 90
       18
102
RTVSPost2010Prop41ColorRGB
 90
        0
102
RTVSPost2010PropOp41
 70
     1
102
RTVSPost2010Prop42
 90
       50
102
RTVSPost2010PropOp42
 70
     1
102
RTVSPost2010Prop43
 90
        3
102
RTVSPost2010PropOp43
 70
     1
102
RTVSPost2010Prop44ColorIndex
 90
        5
102
RTVSPost2010Prop44ColorRGB
 90
      255
102
RTVSPost2010PropOp44
 70
     1
102
RTVSPost2010Prop45
280
     0
102
RTVSPost2010PropOp45
 70
     1
102
RTVSPost2010Prop46
 90
       50
102
RTVSPost2010PropOp46
 70
     1
102
RTVSPost2010Prop47
 90
       50
102
RTVSPost2010PropOp47
 70
     1
102
RTVSPost2010Prop48
 90
       50
102
RTVSPost2010PropOp48
 70
     1
102
RTVSPost2010Prop49
280
     0
102
RTVSPost2010PropOp49
 70
     1
102
RTVSPost2010Prop50
 90
       50
102
RTVSPost2010PropOp50
 70
     1
102
RTVSPost2010Prop51ColorIndex
 90
      256
102
RTVSPost2010Prop51ColorRGB
 90
-16777216
102
RTVSPost2010PropOp51
 70
     0
102
RTVSPost2010Prop52
140
1.0
102
RTVSPost2010PropOp52
 70
     0
102
RTVSPost2010Prop53
 90
        2
102
RTVSPost2010PropOp53
 70
     1
102
RTVSPost2010Prop54
  1
strokes_ogs.tif
102
RTVSPost2010PropOp54
 70
     1
102
RTVSPost2010Prop55
280
     0
102
RTVSPost2010PropOp55
 70
     1
102
RTVSPost2010Prop56
140
1.0
102
RTVSPost2010PropOp56
 70
     1
102
RTVSPost2010Prop57
140
1.0
102
RTVSPost2010PropOp57
 70
     1
102
RTVSPropertyOp0
 70
     1
102
RTVSPropertyOp1
 70
     1
102
RTVSPropertyOp2
 70
     1
102
RTVSPropertyOp3
 70
     1
102
RTVSPropertyOp4
 70
     1
102
RTVSPropertyOp5
 70
     1
102
RTVSPropertyOp6
 70
     1
102
RTVSPropertyOp7
 70
     1
102
RTVSPropertyOp8
 70
     1
102
RTVSPropertyOp9
 70
     1
102
RTVSPropertyOp10
 70
     1
102
RTVSPropertyOp11
 70
     1
102
RTVSPropertyOp12
 70
     1
102
RTVSPropertyOp13
 70
     1
102
RTVSPropertyOp14
 70
     1
102
RTVSPropertyOp15
 70
     1
102
RTVSPropertyOp16
 70
     1
102
RTVSPropertyOp17
 70
     1
102
RTVSPropertyOp18
 70
     1
102
RTVSPropertyOp19
 70
     1
102
RTVSPropertyOp20
 70
     1
102
RTVSPropertyOp21
 70
     1
102
RTVSPropertyOp22
 70
     1
102
RTVSPropertyOp23
 70
     1
102
RTVSPropertyOp24
 70
     1
102
RTVSPropertyOp25
 70
     1
102
RTVSPropertyOp26
 70
     1
102
RTVSPropertyOp27
 70
     1
102
RTVSPropertyOp28
 70
     1
102
RTVSPropertyOp29
 70
     1
102
RTVSPropertyOp30
 70
     1
102
RTVSPropertyOp31
 70
     1
102
RTVSPropertyOp32
 70
     1
102
RTVSPropertyOp33
 70
     1
102
RTVSPropertyOp34
 70
     1
102
RTVSPropertyOp35
 70
     1
102
RTVSPropertyOp36
 70
     1
102
RTVSPropertyOp37
 70
     1
102
RTVSPropertyOp38
 70
     1
102
RTVSPropertyOp39
 70
     1
102
RTVSPropertyOp40
 70
     1
102
RTVSPropertyOp41
 70
     1
102
RTVSPropertyOp42
 70
     1
102
RTVSPropertyOp43
 70
     1
102
RTVSPropertyOp44
 70
     1
102
RTVSPropertyOp45
 70
     1
102
RTVSPropertyOp46
 70
     1
102
RTVSPropertyOp47
 70
     1
102
RTVSPropertyOp48
 70
     1
102
RTVSPropertyOp49
 70
     1
102
RTVSPropertyOp50
 70
     1
102
RTVSPropertyOp51
 70
     0
102
RTVSPropertyOp52
 70
     0
102
RTVSPropertyOp53
 70
     1
102
RTVSPropertyOp54
 70
     1
102
RTVSPropertyOp55
 70
     1
102
RTVSPropertyOp56
 70
     1
102
RTVSPropertyOp57
 70
     1
102
RTVSPropertyOp58
 70
     1
102
RTVSPropertyOp59
 70
     1
102
RTVSPropertyOp60
 70
     1
102
RTVSPropertyOp61
 70
     1
102
RTVSPropertyOp62
 70
     1
  0
XRECORD
  5
A81E
102
{ACAD_REACTORS
330
A81D
102
}
330
A81D
100
AcDbXrecord
280
     1
102
RTVSPost2010Prop28
280
     0
102
RTVSPost2010PropOp28
 70
     1
102
RTVSPost2010Prop29
280
     1
102
RTVSPost2010PropOp29
 70
     1
102
RTVSPost2010Prop30
280
     1
102
RTVSPost2010PropOp30
 70
     1
102
RTVSPost2010Prop31
280
     0
102
RTVSPost2010PropOp31
 70
     1
102
RTVSPost2010Prop32
280
     0
102
RTVSPost2010PropOp32
 70
     1
102
RTVSPost2010Prop33
280
     0
102
RTVSPost2010PropOp33
 70
     1
102
RTVSPost2010Prop34
280
     0
102
RTVSPost2010PropOp34
 70
     1
102
RTVSPost2010Prop35
280
     0
102
RTVSPost2010PropOp35
 70
     1
102
RTVSPost2010Prop36
280
     0
102
RTVSPost2010PropOp36
 70
     1
102
RTVSPost2010Prop37
 90
       50
102
RTVSPost2010PropOp37
 70
     1
102
RTVSPost2010Prop38
140
0.0
102
RTVSPost2010PropOp38
 70
     1
102
RTVSPost2010Prop39
140
1.0
102
RTVSPost2010PropOp39
 70
     1
102
RTVSPost2010Prop40
 90
        0
102
RTVSPost2010PropOp40
 70
     1
102
RTVSPost2010Prop41ColorIndex
 90
       18
102
RTVSPost2010Prop41ColorRGB
 90
        0
102
RTVSPost2010PropOp41
 70
     1
102
RTVSPost2010Prop42
 90
       50
102
RTVSPost2010PropOp42
 70
     1
102
RTVSPost2010Prop43
 90
        3
102
RTVSPost2010PropOp43
 70
     1
102
RTVSPost2010Prop44ColorIndex
 90
        5
102
RTVSPost2010Prop44ColorRGB
 90
      255
102
RTVSPost2010PropOp44
 70
     1
102
RTVSPost2010Prop45
280
     0
102
RTVSPost2010PropOp45
 70
     1
102
RTVSPost2010Prop46
 90
       50
102
RTVSPost2010PropOp46
 70
     1
102
RTVSPost2010Prop47
 90
       50
102
RTVSPost2010PropOp47
 70
     1
102
RTVSPost2010Prop48
 90
       50
102
RTVSPost2010PropOp48
 70
     1
102
RTVSPost2010Prop49
280
     0
102
RTVSPost2010PropOp49
 70
     1
102
RTVSPost2010Prop50
 90
       50
102
RTVSPost2010PropOp50
 70
     1
102
RTVSPost2010Prop51ColorIndex
 90
      256
102
RTVSPost2010Prop51ColorRGB
 90
-16777216
102
RTVSPost2010PropOp51
 70
     0
102
RTVSPost2010Prop52
140
1.0
102
RTVSPost2010PropOp52
 70
     0
102
RTVSPost2010Prop53
 90
        2
102
RTVSPost2010PropOp53
 70
     1
102
RTVSPost2010Prop54
  1
strokes_ogs.tif
102
RTVSPost2010PropOp54
 70
     1
102
RTVSPost2010Prop55
280
     0
102
RTVSPost2010PropOp55
 70
     1
102
RTVSPost2010Prop56
140
1.0
102
RTVSPost2010PropOp56
 70
     1
102
RTVSPost2010Prop57
140
1.0
102
RTVSPost2010PropOp57
 70
     1
102
RTVSPropertyOp0
 70
     1
102
RTVSPropertyOp1
 70
     1
102
RTVSPropertyOp2
 70
     1
102
RTVSPropertyOp3
 70
     1
102
RTVSPropertyOp4
 70
     1
102
RTVSPropertyOp5
 70
     1
102
RTVSPropertyOp6
 70
     1
102
RTVSPropertyOp7
 70
     1
102
RTVSPropertyOp8
 70
     1
102
RTVSPropertyOp9
 70
     1
102
RTVSPropertyOp10
 70
     1
102
RTVSPropertyOp11
 70
     1
102
RTVSPropertyOp12
 70
     1
102
RTVSPropertyOp13
 70
     1
102
RTVSPropertyOp14
 70
     1
102
RTVSPropertyOp15
 70
     1
102
RTVSPropertyOp16
 70
     1
102
RTVSPropertyOp17
 70
     1
102
RTVSPropertyOp18
 70
     1
102
RTVSPropertyOp19
 70
     1
102
RTVSPropertyOp20
 70
     1
102
RTVSPropertyOp21
 70
     1
102
RTVSPropertyOp22
 70
     1
102
RTVSPropertyOp23
 70
     1
102
RTVSPropertyOp24
 70
     1
102
RTVSPropertyOp25
 70
     1
102
RTVSPropertyOp26
 70
     1
102
RTVSPropertyOp27
 70
     1
102
RTVSPropertyOp28
 70
     1
102
RTVSPropertyOp29
 70
     1
102
RTVSPropertyOp30
 70
     1
102
RTVSPropertyOp31
 70
     1
102
RTVSPropertyOp32
 70
     1
102
RTVSPropertyOp33
 70
     1
102
RTVSPropertyOp34
 70
     1
102
RTVSPropertyOp35
 70
     1
102
RTVSPropertyOp36
 70
     1
102
RTVSPropertyOp37
 70
     1
102
RTVSPropertyOp38
 70
     1
102
RTVSPropertyOp39
 70
     1
102
RTVSPropertyOp40
 70
     1
102
RTVSPropertyOp41
 70
     1
102
RTVSPropertyOp42
 70
     1
102
RTVSPropertyOp43
 70
     1
102
RTVSPropertyOp44
 70
     1
102
RTVSPropertyOp45
 70
     1
102
RTVSPropertyOp46
 70
     1
102
RTVSPropertyOp47
 70
     1
102
RTVSPropertyOp48
 70
     1
102
RTVSPropertyOp49
 70
     1
102
RTVSPropertyOp50
 70
     1
102
RTVSPropertyOp51
 70
     0
102
RTVSPropertyOp52
 70
     0
102
RTVSPropertyOp53
 70
     1
102
RTVSPropertyOp54
 70
     1
102
RTVSPropertyOp55
 70
     1
102
RTVSPropertyOp56
 70
     1
102
RTVSPropertyOp57
 70
     1
102
RTVSPropertyOp58
 70
     1
102
RTVSPropertyOp59
 70
     1
102
RTVSPropertyOp60
 70
     1
102
RTVSPropertyOp61
 70
     1
102
RTVSPropertyOp62
 70
     1
  0
XRECORD
  5
A812
102
{ACAD_REACTORS
330
A811
102
}
330
A811
100
AcDbXrecord
280
     1
102
RTVSPost2010Prop28
280
     0
102
RTVSPost2010PropOp28
 70
     1
102
RTVSPost2010Prop29
280
     1
102
RTVSPost2010PropOp29
 70
     1
102
RTVSPost2010Prop30
280
     1
102
RTVSPost2010PropOp30
 70
     1
102
RTVSPost2010Prop31
280
     0
102
RTVSPost2010PropOp31
 70
     1
102
RTVSPost2010Prop32
280
     0
102
RTVSPost2010PropOp32
 70
     1
102
RTVSPost2010Prop33
280
     0
102
RTVSPost2010PropOp33
 70
     1
102
RTVSPost2010Prop34
280
     0
102
RTVSPost2010PropOp34
 70
     1
102
RTVSPost2010Prop35
280
     0
102
RTVSPost2010PropOp35
 70
     1
102
RTVSPost2010Prop36
280
     0
102
RTVSPost2010PropOp36
 70
     1
102
RTVSPost2010Prop37
 90
       50
102
RTVSPost2010PropOp37
 70
     1
102
RTVSPost2010Prop38
140
0.0
102
RTVSPost2010PropOp38
 70
     1
102
RTVSPost2010Prop39
140
1.0
102
RTVSPost2010PropOp39
 70
     1
102
RTVSPost2010Prop40
 90
        0
102
RTVSPost2010PropOp40
 70
     1
102
RTVSPost2010Prop41ColorIndex
 90
       18
102
RTVSPost2010Prop41ColorRGB
 90
        0
102
RTVSPost2010PropOp41
 70
     1
102
RTVSPost2010Prop42
 90
       50
102
RTVSPost2010PropOp42
 70
     1
102
RTVSPost2010Prop43
 90
        3
102
RTVSPost2010PropOp43
 70
     1
102
RTVSPost2010Prop44ColorIndex
 90
        5
102
RTVSPost2010Prop44ColorRGB
 90
      255
102
RTVSPost2010PropOp44
 70
     1
102
RTVSPost2010Prop45
280
     0
102
RTVSPost2010PropOp45
 70
     1
102
RTVSPost2010Prop46
 90
       50
102
RTVSPost2010PropOp46
 70
     1
102
RTVSPost2010Prop47
 90
       50
102
RTVSPost2010PropOp47
 70
     1
102
RTVSPost2010Prop48
 90
       50
102
RTVSPost2010PropOp48
 70
     1
102
RTVSPost2010Prop49
280
     0
102
RTVSPost2010PropOp49
 70
     1
102
RTVSPost2010Prop50
 90
       50
102
RTVSPost2010PropOp50
 70
     1
102
RTVSPost2010Prop51ColorIndex
 90
      256
102
RTVSPost2010Prop51ColorRGB
 90
-16777216
102
RTVSPost2010PropOp51
 70
     0
102
RTVSPost2010Prop52
140
1.0
102
RTVSPost2010PropOp52
 70
     0
102
RTVSPost2010Prop53
 90
        2
102
RTVSPost2010PropOp53
 70
     1
102
RTVSPost2010Prop54
  1
strokes_ogs.tif
102
RTVSPost2010PropOp54
 70
     1
102
RTVSPost2010Prop55
280
     0
102
RTVSPost2010PropOp55
 70
     1
102
RTVSPost2010Prop56
140
1.0
102
RTVSPost2010PropOp56
 70
     1
102
RTVSPost2010Prop57
140
1.0
102
RTVSPost2010PropOp57
 70
     1
102
RTVSPropertyOp0
 70
     1
102
RTVSPropertyOp1
 70
     1
102
RTVSPropertyOp2
 70
     1
102
RTVSPropertyOp3
 70
     1
102
RTVSPropertyOp4
 70
     1
102
RTVSPropertyOp5
 70
     1
102
RTVSPropertyOp6
 70
     1
102
RTVSPropertyOp7
 70
     1
102
RTVSPropertyOp8
 70
     1
102
RTVSPropertyOp9
 70
     1
102
RTVSPropertyOp10
 70
     1
102
RTVSPropertyOp11
 70
     1
102
RTVSPropertyOp12
 70
     1
102
RTVSPropertyOp13
 70
     1
102
RTVSPropertyOp14
 70
     1
102
RTVSPropertyOp15
 70
     1
102
RTVSPropertyOp16
 70
     1
102
RTVSPropertyOp17
 70
     1
102
RTVSPropertyOp18
 70
     1
102
RTVSPropertyOp19
 70
     1
102
RTVSPropertyOp20
 70
     1
102
RTVSPropertyOp21
 70
     1
102
RTVSPropertyOp22
 70
     1
102
RTVSPropertyOp23
 70
     1
102
RTVSPropertyOp24
 70
     1
102
RTVSPropertyOp25
 70
     1
102
RTVSPropertyOp26
 70
     1
102
RTVSPropertyOp27
 70
     1
102
RTVSPropertyOp28
 70
     1
102
RTVSPropertyOp29
 70
     1
102
RTVSPropertyOp30
 70
     1
102
RTVSPropertyOp31
 70
     1
102
RTVSPropertyOp32
 70
     1
102
RTVSPropertyOp33
 70
     1
102
RTVSPropertyOp34
 70
     1
102
RTVSPropertyOp35
 70
     1
102
RTVSPropertyOp36
 70
     1
102
RTVSPropertyOp37
 70
     1
102
RTVSPropertyOp38
 70
     1
102
RTVSPropertyOp39
 70
     1
102
RTVSPropertyOp40
 70
     1
102
RTVSPropertyOp41
 70
     1
102
RTVSPropertyOp42
 70
     1
102
RTVSPropertyOp43
 70
     1
102
RTVSPropertyOp44
 70
     1
102
RTVSPropertyOp45
 70
     1
102
RTVSPropertyOp46
 70
     1
102
RTVSPropertyOp47
 70
     1
102
RTVSPropertyOp48
 70
     1
102
RTVSPropertyOp49
 70
     1
102
RTVSPropertyOp50
 70
     1
102
RTVSPropertyOp51
 70
     0
102
RTVSPropertyOp52
 70
     0
102
RTVSPropertyOp53
 70
     1
102
RTVSPropertyOp54
 70
     1
102
RTVSPropertyOp55
 70
     1
102
RTVSPropertyOp56
 70
     1
102
RTVSPropertyOp57
 70
     1
102
RTVSPropertyOp58
 70
     1
102
RTVSPropertyOp59
 70
     1
102
RTVSPropertyOp60
 70
     1
102
RTVSPropertyOp61
 70
     1
102
RTVSPropertyOp62
 70
     1
  0
XRECORD
  5
A82A
102
{ACAD_REACTORS
330
A829
102
}
330
A829
100
AcDbXrecord
280
     1
102
RTVSPost2010Prop28
280
     0
102
RTVSPost2010PropOp28
 70
     1
102
RTVSPost2010Prop29
280
     1
102
RTVSPost2010PropOp29
 70
     1
102
RTVSPost2010Prop30
280
     1
102
RTVSPost2010PropOp30
 70
     1
102
RTVSPost2010Prop31
280
     0
102
RTVSPost2010PropOp31
 70
     1
102
RTVSPost2010Prop32
280
     0
102
RTVSPost2010PropOp32
 70
     1
102
RTVSPost2010Prop33
280
     0
102
RTVSPost2010PropOp33
 70
     1
102
RTVSPost2010Prop34
280
     0
102
RTVSPost2010PropOp34
 70
     1
102
RTVSPost2010Prop35
280
     0
102
RTVSPost2010PropOp35
 70
     1
102
RTVSPost2010Prop36
280
     0
102
RTVSPost2010PropOp36
 70
     1
102
RTVSPost2010Prop37
 90
       50
102
RTVSPost2010PropOp37
 70
     1
102
RTVSPost2010Prop38
140
0.0
102
RTVSPost2010PropOp38
 70
     1
102
RTVSPost2010Prop39
140
1.0
102
RTVSPost2010PropOp39
 70
     1
102
RTVSPost2010Prop40
 90
        0
102
RTVSPost2010PropOp40
 70
     1
102
RTVSPost2010Prop41ColorIndex
 90
       18
102
RTVSPost2010Prop41ColorRGB
 90
        0
102
RTVSPost2010PropOp41
 70
     1
102
RTVSPost2010Prop42
 90
       50
102
RTVSPost2010PropOp42
 70
     1
102
RTVSPost2010Prop43
 90
        3
102
RTVSPost2010PropOp43
 70
     1
102
RTVSPost2010Prop44ColorIndex
 90
        5
102
RTVSPost2010Prop44ColorRGB
 90
      255
102
RTVSPost2010PropOp44
 70
     1
102
RTVSPost2010Prop45
280
     0
102
RTVSPost2010PropOp45
 70
     1
102
RTVSPost2010Prop46
 90
       50
102
RTVSPost2010PropOp46
 70
     1
102
RTVSPost2010Prop47
 90
       50
102
RTVSPost2010PropOp47
 70
     1
102
RTVSPost2010Prop48
 90
       50
102
RTVSPost2010PropOp48
 70
     1
102
RTVSPost2010Prop49
280
     0
102
RTVSPost2010PropOp49
 70
     1
102
RTVSPost2010Prop50
 90
       50
102
RTVSPost2010PropOp50
 70
     1
102
RTVSPost2010Prop51ColorIndex
 90
      256
102
RTVSPost2010Prop51ColorRGB
 90
-16777216
102
RTVSPost2010PropOp51
 70
     0
102
RTVSPost2010Prop52
140
1.0
102
RTVSPost2010PropOp52
 70
     0
102
RTVSPost2010Prop53
 90
        2
102
RTVSPost2010PropOp53
 70
     1
102
RTVSPost2010Prop54
  1
strokes_ogs.tif
102
RTVSPost2010PropOp54
 70
     1
102
RTVSPost2010Prop55
280
     0
102
RTVSPost2010PropOp55
 70
     1
102
RTVSPost2010Prop56
140
1.0
102
RTVSPost2010PropOp56
 70
     1
102
RTVSPost2010Prop57
140
1.0
102
RTVSPost2010PropOp57
 70
     1
102
RTVSPropertyOp0
 70
     1
102
RTVSPropertyOp1
 70
     1
102
RTVSPropertyOp2
 70
     1
102
RTVSPropertyOp3
 70
     1
102
RTVSPropertyOp4
 70
     1
102
RTVSPropertyOp5
 70
     1
102
RTVSPropertyOp6
 70
     1
102
RTVSPropertyOp7
 70
     1
102
RTVSPropertyOp8
 70
     1
102
RTVSPropertyOp9
 70
     1
102
RTVSPropertyOp10
 70
     1
102
RTVSPropertyOp11
 70
     1
102
RTVSPropertyOp12
 70
     1
102
RTVSPropertyOp13
 70
     1
102
RTVSPropertyOp14
 70
     1
102
RTVSPropertyOp15
 70
     1
102
RTVSPropertyOp16
 70
     1
102
RTVSPropertyOp17
 70
     1
102
RTVSPropertyOp18
 70
     1
102
RTVSPropertyOp19
 70
     1
102
RTVSPropertyOp20
 70
     1
102
RTVSPropertyOp21
 70
     1
102
RTVSPropertyOp22
 70
     1
102
RTVSPropertyOp23
 70
     1
102
RTVSPropertyOp24
 70
     1
102
RTVSPropertyOp25
 70
     1
102
RTVSPropertyOp26
 70
     1
102
RTVSPropertyOp27
 70
     1
102
RTVSPropertyOp28
 70
     1
102
RTVSPropertyOp29
 70
     1
102
RTVSPropertyOp30
 70
     1
102
RTVSPropertyOp31
 70
     1
102
RTVSPropertyOp32
 70
     1
102
RTVSPropertyOp33
 70
     1
102
RTVSPropertyOp34
 70
     1
102
RTVSPropertyOp35
 70
     1
102
RTVSPropertyOp36
 70
     1
102
RTVSPropertyOp37
 70
     1
102
RTVSPropertyOp38
 70
     1
102
RTVSPropertyOp39
 70
     1
102
RTVSPropertyOp40
 70
     1
102
RTVSPropertyOp41
 70
     1
102
RTVSPropertyOp42
 70
     1
102
RTVSPropertyOp43
 70
     1
102
RTVSPropertyOp44
 70
     1
102
RTVSPropertyOp45
 70
     1
102
RTVSPropertyOp46
 70
     1
102
RTVSPropertyOp47
 70
     1
102
RTVSPropertyOp48
 70
     1
102
RTVSPropertyOp49
 70
     1
102
RTVSPropertyOp50
 70
     1
102
RTVSPropertyOp51
 70
     0
102
RTVSPropertyOp52
 70
     0
102
RTVSPropertyOp53
 70
     1
102
RTVSPropertyOp54
 70
     1
102
RTVSPropertyOp55
 70
     1
102
RTVSPropertyOp56
 70
     1
102
RTVSPropertyOp57
 70
     1
102
RTVSPropertyOp58
 70
     1
102
RTVSPropertyOp59
 70
     1
102
RTVSPropertyOp60
 70
     1
102
RTVSPropertyOp61
 70
     1
102
RTVSPropertyOp62
 70
     1
  0
ENDSEC
  0
EOF
