  0
SECTION
  2
HEADER
  9
$ACADVER
  1
AC1015
  9
$DWGCODEPAGE
  3
ANSI_932
  9
$LTSCALE
 40
20.0
  9
$FILLMODE
 70
     1
  9
$CLAYER
  8
0
  9
$PDMODE
 70
     0
  9
$SPLFRAME
 70
     0
  9
$SPLINETYPE
 70
     6
  9
$SPLINESEGS
 70
     8
  9
$DIMASZ
 40
2.000000
  9
$DIMEXE
 40
1.500000
  9
$DIMEXO
 40
0.800000
  9
$DIMTAD
 70
     1
  9
$DIMTIH
 70
     0
  9
$DIMTOH
 70
     0
  9
$DIMTVP
 40
0.500000
  9
$DIMTXT
 40
3.100000
  9
$EXTMIN
 10
0.000000
 20
0.000000
 30
0.000000
  9
$EXTMAX
 10
297.000000
 20
420.000000
 30
0.000000
  9
$MEASUREMENT
 70
  1
  9
$LIMMIN
 10
0.000000
 20
0.000000
  9
$LIMMAX
 10
297.000000
 20
420.000000
  9
$HANDSEED
  5
1DF
  9
$LWDISPLAY
290
     0
  9
$DIMBLK
  1
_OPEN
  9
$DIMDEC
 70
     2
  9
$DIMADEC
 70
     2
  9
$DIMAUNIT
 70
     0
  9
$DIMZIN
 70
     8
  9
$DIMAZIN
 70
     2
  9
$DIMTOFL
 70
     1
  0
ENDSEC
  0
SECTION
  2
CLASSES
  0
ENDSEC
  0
SECTION
  2
TABLES
  0
TABLE
  2
VPORT
  5
1AE
100
AcDbSymbolTable
 70
     1
  0
VPORT
  5
1AF
100
AcDbSymbolTableRecord
100
AcDbViewportTableRecord
  2
*ACTIVE
 70
     0
 12
248.250056
 22
274.000183
 40
512.000366
 41
0.930663
  0
ENDTAB
  0
TABLE
  2
LTYPE
  5
1B0
100
AcDbSymbolTable
 70
     3
  0
LTYPE
  5
1B1
100
AcDbSymbolTableRecord
100
AcDbLinetypeTableRecord
  2
BYBLOCK
 70
     0
  3

 72
    65
 73
     0
 40
0.0
  0
LTYPE
  5
1B2
100
AcDbSymbolTableRecord
100
AcDbLinetypeTableRecord
  2
BYLAYER
 70
     0
  3

 72
    65
 73
     0
 40
0.0
  0
LTYPE
  5
1B3
100
AcDbSymbolTableRecord
100
AcDbLinetypeTableRecord
  2
CONTINUOUS
 70
     0
  3
Solid line (NEC CAE2D for Win R16.0 : 2021.10.01)
 72
    65
 73
     0
 40
0.0
  0
LTYPE
  5
1B4
100
AcDbSymbolTableRecord
100
AcDbLinetypeTableRecord
  2
CENTER
 70
     0
  3
____ _ ____ _ ____ _ ____ _ ____ _ ____
 72
    65
 73
     4
 40
2.0
 49
1.25
 74
     0
 49
-0.25
 74
     0
 49
0.25
 74
     0
 49
-0.25
 74
     0
  0
LTYPE
  5
1B5
100
AcDbSymbolTableRecord
100
AcDbLinetypeTableRecord
  2
PHANTOM
 70
     0
  3
______  __  __  ______  __  __  ______ 
 72
    65
 73
     6
 40
2.5
 49
1.25
 74
     0
 49
-0.25
 74
     0
 49
0.25
 74
     0
 49
-0.25
 74
     0
 49
0.25
 74
     0
 49
-0.25
 74
     0
  0
ENDTAB
  0
TABLE
  2
LAYER
  5
1B6
100
AcDbSymbolTable
 70
    10
  0
LAYER
  5
1B7
100
AcDbSymbolTableRecord
100
AcDbLayerTableRecord
  2
0
 70
     0
 62
     7
  6
CONTINUOUS
370
    -3
390

  0
LAYER
  5
1B8
100
AcDbSymbolTableRecord
100
AcDbLayerTableRecord
  2
DXF0
 70
     0
 62
     7
  6
CONTINUOUS
370
    -3
390

  0
LAYER
  5
1B9
100
AcDbSymbolTableRecord
100
AcDbLayerTableRecord
  2
4
 70
     0
 62
     1
  6
CONTINUOUS
370
    -3
390

  0
LAYER
  5
1BA
100
AcDbSymbolTableRecord
100
AcDbLayerTableRecord
  2
5
 70
     0
 62
     6
  6
CONTINUOUS
370
    -3
390

  0
LAYER
  5
1BB
100
AcDbSymbolTableRecord
100
AcDbLayerTableRecord
  2
1
 70
     0
 62
     7
  6
CONTINUOUS
370
    -3
390

  0
LAYER
  5
1BC
100
AcDbSymbolTableRecord
100
AcDbLayerTableRecord
  2
2
 70
     0
 62
     4
  6
CONTINUOUS
370
    -3
390

  0
LAYER
  5
1BD
100
AcDbSymbolTableRecord
100
AcDbLayerTableRecord
  2
3
 70
     0
 62
     2
  6
CONTINUOUS
370
    -3
390

  0
LAYER
  5
1BE
100
AcDbSymbolTableRecord
100
AcDbLayerTableRecord
  2
6
 70
     0
 62
     5
  6
CONTINUOUS
370
    -3
390

  0
LAYER
  5
1BF
100
AcDbSymbolTableRecord
100
AcDbLayerTableRecord
  2
7
 70
     0
 62
     7
  6
CONTINUOUS
370
    -3
390

  0
LAYER
  5
1C0
100
AcDbSymbolTableRecord
100
AcDbLayerTableRecord
  2
DXF1023
 70
     0
 62
    16
  6
CONTINUOUS
370
    -3
390

  0
ENDTAB
  0
TABLE
  2
STYLE
  5
1C1
100
AcDbSymbolTable
 70
     4
  0
STYLE
  5
1C2
100
AcDbSymbolTableRecord
100
AcDbTextStyleTableRecord
  2
STANDARD
 70
    64
 40
0.0
 41
1.0
 50
0.0
 71
     0
 42
3.000000000000000
  3
TXT
  4

  0
STYLE
  5
1C3
100
AcDbSymbolTableRecord
100
AcDbTextStyleTableRecord
  2
ANKTATE
 70
    68
 40
0.0
 41
1.0
 50
0.0
 71
     0
 42
3.000000000000000
  3
TXT
  4

  0
STYLE
  5
1C4
100
AcDbSymbolTableRecord
100
AcDbTextStyleTableRecord
  2
KNJYOKO
 70
    64
 40
0.0
 41
1.0
 50
0.0
 71
     0
 42
3.000000000000000
  3
TXT
  4
BIGFONT
  0
STYLE
  5
1C5
100
AcDbSymbolTableRecord
100
AcDbTextStyleTableRecord
  2
KNJTATE
 70
    68
 40
0.0
 41
1.0
 50
0.0
 71
     0
 42
3.000000000000000
  3
TXT
  4
BIGFONT
  0
ENDTAB
  0
TABLE
  2
VIEW
  5
1C6
100
AcDbSymbolTable
 70
     0
  0
ENDTAB
  0
TABLE
  2
UCS
  5
1C7
100
AcDbSymbolTable
 70
     0
  0
ENDTAB
  0
TABLE
  2
APPID
  5
1C8
100
AcDbSymbolTable
 70
     1
  0
APPID
  5
1C9
100
AcDbSymbolTableRecord
100
AcDbRegAppTableRecord
  2
ACAD
 70
     0
  0
ENDTAB
  0
TABLE
  2
DIMSTYLE
  5
1CA
100
AcDbSymbolTable
 70
     2
100
AcDbDimStyleTable
  0
DIMSTYLE
105
1CB
100
AcDbSymbolTableRecord
100
AcDbDimStyleTableRecord
  2
STANDARD
 70
     0
 41
2.000000
 44
1.500000
 42
0.800000
145
0.661290
140
3.100000
144
1.000000
146
0.645161
340
1C2
  0
DIMSTYLE
105
1CC
100
AcDbSymbolTableRecord
100
AcDbDimStyleTableRecord
  2
DXF001
 70
     0
 41
2.000000
 44
1.500000
 42
0.800000
145
0.661290
140
3.100000
144
1.000000
146
0.645161
 77
     1
 73
     0
 74
     0
271
     2
179
     2
275
     0
 78
     8
 79
     2
172
     1
340
1C2
  0
ENDTAB
  0
TABLE
  2
BLOCK_RECORD
  5
1CD
100
AcDbSymbolTable
 70
    12
  0
BLOCK_RECORD
  5
1CE
100
AcDbSymbolTableRecord
100
AcDbBlockTableRecord
  2
*MODEL_SPACE
  0
BLOCK_RECORD
  5
1CF
100
AcDbSymbolTableRecord
100
AcDbBlockTableRecord
  2
*PAPER_SPACE
  0
BLOCK_RECORD
  5
1D0
100
AcDbSymbolTableRecord
100
AcDbBlockTableRecord
  2
*PAPER_SPACE0
  0
BLOCK_RECORD
  5
1
100
AcDbSymbolTableRecord
100
AcDbBlockTableRecord
  2
_NONE
  0
BLOCK_RECORD
  5
4
100
AcDbSymbolTableRecord
100
AcDbBlockTableRecord
  2
_CLOSED
  0
BLOCK_RECORD
  5
B
100
AcDbSymbolTableRecord
100
AcDbBlockTableRecord
  2
_DOT
  0
BLOCK_RECORD
  5
13
100
AcDbSymbolTableRecord
100
AcDbBlockTableRecord
  2
_OPEN
  0
BLOCK_RECORD
  5
19
100
AcDbSymbolTableRecord
100
AcDbBlockTableRecord
  2
_ORIGIN
  0
BLOCK_RECORD
  5
1E
100
AcDbSymbolTableRecord
100
AcDbBlockTableRecord
  2
_OPEN30
  0
BLOCK_RECORD
  5
24
100
AcDbSymbolTableRecord
100
AcDbBlockTableRecord
  2
_BOXFILLED
  0
BLOCK_RECORD
  5
29
100
AcDbSymbolTableRecord
100
AcDbBlockTableRecord
  2
_BOXBLANK
  0
BLOCK_RECORD
  5
31
100
AcDbSymbolTableRecord
100
AcDbBlockTableRecord
  2
_OBLIQUE
  0
BLOCK_RECORD
  5
35
100
AcDbSymbolTableRecord
100
AcDbBlockTableRecord
  2
_OPEN90
  0
BLOCK_RECORD
  5
3B
100
AcDbSymbolTableRecord
100
AcDbBlockTableRecord
  2
_CLOSEDBLANK
  0
BLOCK_RECORD
  5
41
100
AcDbSymbolTableRecord
100
AcDbBlockTableRecord
  2
_DOTBLANK
  0
ENDTAB
  0
ENDSEC
  0
SECTION
  2
BLOCKS
  0
BLOCK
  5
1D1
100
AcDbEntity
  8
0
100
AcDbBlockBegin
  2
*MODEL_SPACE
 70
     0
 10
0.0
 20
0.0
 30
0.0
  3
*MODEL_SPACE
  1

  0
ENDBLK
  5
1D2
100
AcDbEntity
  8
0
100
AcDbBlockEnd
  0
BLOCK
  5
1D3
100
AcDbEntity
  8
0
100
AcDbBlockBegin
  2
*PAPER_SPACE
 70
     0
 10
0.0
 20
0.0
 30
0.0
  3
*PAPER_SPACE
  1

  0
ENDBLK
  5
1D4
100
AcDbEntity
  8
0
100
AcDbBlockEnd
  0
BLOCK
  5
1D5
100
AcDbEntity
  8
0
100
AcDbBlockBegin
  2
*PAPER_SPACE0
 70
     0
 10
0.0
 20
0.0
 30
0.0
  3
*PAPER_SPACE0
  1

  0
ENDBLK
  5
1D6
100
AcDbEntity
  8
0
100
AcDbBlockEnd
  0
BLOCK
  5
2
330
1
100
AcDbEntity
  8
0
100
AcDbBlockBegin
  2
_NONE
 70
     0
 10
0.0
 20
0.0
 30
0.0
  3
_NONE
  1

  0
ENDBLK
  5
3
330
1
100
AcDbEntity
  8
0
100
AcDbBlockEnd
  0
BLOCK
  5
5
330
4
100
AcDbEntity
  8
0
100
AcDbBlockBegin
  2
_CLOSED
 70
     0
 10
0.0
 20
0.0
 30
0.0
  3
_CLOSED
  1

  0
LINE
  5
6
330
4
100
AcDbEntity
  8
0
  6
BYBLOCK
 62
     0
370
    -2
100
AcDbLine
 10
-1.0
 20
0.166667
 30
0.0
 11
0.0
 21
0.0
 31
0.0
  0
LINE
  5
7
330
4
100
AcDbEntity
  8
0
  6
BYBLOCK
 62
     0
370
    -2
100
AcDbLine
 10
0.0
 20
0.0
 30
0.0
 11
-1.0
 21
-0.166667
 31
0.0
  0
LINE
  5
8
330
4
100
AcDbEntity
  8
0
  6
BYBLOCK
 62
     0
370
    -2
100
AcDbLine
 10
-1.0
 20
0.166667
 30
0.0
 11
-1.0
 21
-0.166667
 31
0.0
  0
LINE
  5
9
330
4
100
AcDbEntity
  8
0
  6
BYBLOCK
 62
     0
370
    -2
100
AcDbLine
 10
0.0
 20
0.0
 30
0.0
 11
-1.0
 21
0.0
 31
0.0
  0
ENDBLK
  5
A
330
4
100
AcDbEntity
  8
0
100
AcDbBlockEnd
  0
BLOCK
  5
C
330
B
100
AcDbEntity
  8
0
100
AcDbBlockBegin
  2
_DOT
 70
     0
 10
0.0
 20
0.0
 30
0.0
  3
_DOT
  1

  0
POLYLINE
  5
D
330
B
100
AcDbEntity
  8
0
  6
BYBLOCK
 62
     0
370
    -2
100
AcDb2dPolyline
 66
     1
 10
0.0
 20
0.0
 30
0.0
 70
     1
 40
0.5
 41
0.5
  0
VERTEX
  5
E
330
B
100
AcDbEntity
  8
0
  6
BYBLOCK
 62
     0
370
    -2
100
AcDbVertex
100
AcDb2dVertex
 10
-0.25
 20
0.0
 30
0.0
 42
1.0
  0
VERTEX
  5
F
330
B
100
AcDbEntity
  8
0
  6
BYBLOCK
 62
     0
370
    -2
100
AcDbVertex
100
AcDb2dVertex
 10
0.25
 20
0.0
 30
0.0
 42
1.0
  0
SEQEND
  5
10
330
B
100
AcDbEntity
  8
0
  6
BYBLOCK
 62
     0
370
    -2
  0
LINE
  5
11
330
B
100
AcDbEntity
  8
0
  6
BYBLOCK
 62
     0
370
    -2
100
AcDbLine
 10
-0.5
 20
0.0
 30
0.0
 11
-1.0
 21
0.0
 31
0.0
  0
ENDBLK
  5
12
330
B
100
AcDbEntity
  8
0
100
AcDbBlockEnd
  0
BLOCK
  5
14
330
13
100
AcDbEntity
  8
0
100
AcDbBlockBegin
  2
_OPEN
 70
     0
 10
0.0
 20
0.0
 30
0.0
  3
_OPEN
  1

  0
LINE
  5
15
330
13
100
AcDbEntity
  8
0
  6
BYBLOCK
 62
     0
370
    -2
100
AcDbLine
 10
-1.0
 20
0.166667
 30
0.0
 11
0.0
 21
0.0
 31
0.0
  0
LINE
  5
16
330
13
100
AcDbEntity
  8
0
  6
BYBLOCK
 62
     0
370
    -2
100
AcDbLine
 10
0.0
 20
0.0
 30
0.0
 11
-1.0
 21
-0.166667
 31
0.0
  0
LINE
  5
17
330
13
100
AcDbEntity
  8
0
  6
BYBLOCK
 62
     0
370
    -2
100
AcDbLine
 10
0.0
 20
0.0
 30
0.0
 11
-1.0
 21
0.0
 31
0.0
  0
ENDBLK
  5
18
330
13
100
AcDbEntity
  8
0
100
AcDbBlockEnd
  0
BLOCK
  5
1A
330
19
100
AcDbEntity
  8
0
100
AcDbBlockBegin
  2
_ORIGIN
 70
     0
 10
0.0
 20
0.0
 30
0.0
  3
_ORIGIN
  1

  0
CIRCLE
  5
1B
330
19
100
AcDbEntity
  8
0
  6
BYBLOCK
 62
     0
370
    -2
100
AcDbCircle
 10
0.0
 20
0.0
 30
0.0
 40
0.5
  0
LINE
  5
1C
330
19
100
AcDbEntity
  8
0
  6
BYBLOCK
 62
     0
370
    -2
100
AcDbLine
 10
0.0
 20
0.0
 30
0.0
 11
-1.0
 21
0.0
 31
0.0
  0
ENDBLK
  5
1D
330
19
100
AcDbEntity
  8
0
100
AcDbBlockEnd
  0
BLOCK
  5
1F
330
1E
100
AcDbEntity
  8
0
100
AcDbBlockBegin
  2
_OPEN30
 70
     0
 10
0.0
 20
0.0
 30
0.0
  3
_OPEN30
  1

  0
LINE
  5
20
330
1E
100
AcDbEntity
  8
0
  6
BYBLOCK
 62
     0
370
    -2
100
AcDbLine
 10
-1.0
 20
0.267949
 30
0.0
 11
0.0
 21
0.0
 31
0.0
  0
LINE
  5
21
330
1E
100
AcDbEntity
  8
0
  6
BYBLOCK
 62
     0
370
    -2
100
AcDbLine
 10
0.0
 20
0.0
 30
0.0
 11
-1.0
 21
-0.267949
 31
0.0
  0
LINE
  5
22
330
1E
100
AcDbEntity
  8
0
  6
BYBLOCK
 62
     0
370
    -2
100
AcDbLine
 10
0.0
 20
0.0
 30
0.0
 11
-1.0
 21
0.0
 31
0.0
  0
ENDBLK
  5
23
330
1E
100
AcDbEntity
  8
0
100
AcDbBlockEnd
  0
BLOCK
  5
25
330
24
100
AcDbEntity
  8
0
100
AcDbBlockBegin
  2
_BOXFILLED
 70
     0
 10
0.0
 20
0.0
 30
0.0
  3
_BOXFILLED
  1

  0
SOLID
  5
26
330
24
100
AcDbEntity
  8
0
  6
BYBLOCK
 62
     0
370
    -2
100
AcDbTrace
 10
-0.5
 20
0.5
 30
0.0
 11
0.5
 21
0.5
 31
0.0
 12
-0.5
 22
-0.5
 32
0.0
 13
0.5
 23
-0.5
 33
0.0
  0
LINE
  5
27
330
24
100
AcDbEntity
  8
0
  6
BYBLOCK
 62
     0
370
    -2
100
AcDbLine
 10
-0.5
 20
0.0
 30
0.0
 11
-1.0
 21
0.0
 31
0.0
  0
ENDBLK
  5
28
330
24
100
AcDbEntity
  8
0
100
AcDbBlockEnd
  0
BLOCK
  5
2A
330
29
100
AcDbEntity
  8
0
100
AcDbBlockBegin
  2
_BOXBLANK
 70
     0
 10
0.0
 20
0.0
 30
0.0
  3
_BOXBLANK
  1

  0
LINE
  5
2B
330
29
100
AcDbEntity
  8
0
  6
BYBLOCK
 62
     0
370
    -2
100
AcDbLine
 10
-0.5
 20
-0.5
 30
0.0
 11
0.5
 21
-0.5
 31
0.0
  0
LINE
  5
2C
330
29
100
AcDbEntity
  8
0
  6
BYBLOCK
 62
     0
370
    -2
100
AcDbLine
 10
0.5
 20
-0.5
 30
0.0
 11
0.5
 21
0.5
 31
0.0
  0
LINE
  5
2D
330
29
100
AcDbEntity
  8
0
  6
BYBLOCK
 62
     0
370
    -2
100
AcDbLine
 10
0.5
 20
0.5
 30
0.0
 11
-0.5
 21
0.5
 31
0.0
  0
LINE
  5
2E
330
29
100
AcDbEntity
  8
0
  6
BYBLOCK
 62
     0
370
    -2
100
AcDbLine
 10
-0.5
 20
0.5
 30
0.0
 11
-0.5
 21
-0.5
 31
0.0
  0
LINE
  5
2F
330
29
100
AcDbEntity
  8
0
  6
BYBLOCK
 62
     0
370
    -2
100
AcDbLine
 10
-0.5
 20
0.0
 30
0.0
 11
-1.0
 21
0.0
 31
0.0
  0
ENDBLK
  5
30
330
29
100
AcDbEntity
  8
0
100
AcDbBlockEnd
  0
BLOCK
  5
32
330
31
100
AcDbEntity
  8
0
100
AcDbBlockBegin
  2
_OBLIQUE
 70
     0
 10
0.0
 20
0.0
 30
0.0
  3
_OBLIQUE
  1

  0
LINE
  5
33
330
31
100
AcDbEntity
  8
0
  6
BYBLOCK
 62
     0
370
    -2
100
AcDbLine
 10
-0.5
 20
-0.5
 30
0.0
 11
0.5
 21
0.5
 31
0.0
  0
ENDBLK
  5
34
330
31
100
AcDbEntity
  8
0
100
AcDbBlockEnd
  0
BLOCK
  5
36
330
35
100
AcDbEntity
  8
0
100
AcDbBlockBegin
  2
_OPEN90
 70
     0
 10
0.0
 20
0.0
 30
0.0
  3
_OPEN90
  1

  0
LINE
  5
37
330
35
100
AcDbEntity
  8
0
  6
BYBLOCK
 62
     0
370
    -2
100
AcDbLine
 10
-0.5
 20
0.5
 30
0.0
 11
0.0
 21
0.0
 31
0.0
  0
LINE
  5
38
330
35
100
AcDbEntity
  8
0
  6
BYBLOCK
 62
     0
370
    -2
100
AcDbLine
 10
0.0
 20
0.0
 30
0.0
 11
-0.5
 21
-0.5
 31
0.0
  0
LINE
  5
39
330
35
100
AcDbEntity
  8
0
  6
BYBLOCK
 62
     0
370
    -2
100
AcDbLine
 10
0.0
 20
0.0
 30
0.0
 11
-1.0
 21
0.0
 31
0.0
  0
ENDBLK
  5
3A
330
35
100
AcDbEntity
  8
0
100
AcDbBlockEnd
  0
BLOCK
  5
3C
330
3B
100
AcDbEntity
  8
0
100
AcDbBlockBegin
  2
_CLOSEDBLANK
 70
     0
 10
0.0
 20
0.0
 30
0.0
  3
_CLOSEDBLANK
  1

  0
LINE
  5
3D
330
3B
100
AcDbEntity
  8
0
  6
BYBLOCK
 62
     0
370
    -2
100
AcDbLine
 10
-1.0
 20
0.1666666666666666
 30
0.0
 11
0.0
 21
0.0
 31
0.0
  0
LINE
  5
3E
330
3B
100
AcDbEntity
  8
0
  6
BYBLOCK
 62
     0
370
    -2
100
AcDbLine
 10
0.0
 20
0.0
 30
0.0
 11
-1.0
 21
-0.1666666666666666
 31
0.0
  0
LINE
  5
3F
330
3B
100
AcDbEntity
  8
0
  6
BYBLOCK
 62
     0
370
    -2
100
AcDbLine
 10
-1.0
 20
0.1666666666666666
 30
0.0
 11
-1.0
 21
-0.1666666666666666
 31
0.0
  0
ENDBLK
  5
40
330
3B
100
AcDbEntity
  8
0
100
AcDbBlockEnd
  0
BLOCK
  5
42
330
41
100
AcDbEntity
  8
0
100
AcDbBlockBegin
  2
_DOTBLANK
 70
     0
 10
0.0
 20
0.0
 30
0.0
  3
_DOTBLANK
  1

  0
CIRCLE
  5
43
330
41
100
AcDbEntity
  8
0
  6
BYBLOCK
 62
     0
370
    -2
100
AcDbCircle
 10
0.0
 20
0.0
 30
0.0
 40
0.5
  0
LINE
  5
44
330
41
100
AcDbEntity
  8
0
  6
BYBLOCK
 62
     0
370
    -2
100
AcDbLine
 10
-0.5
 20
0.0
 30
0.0
 11
-1.0
 21
0.0
 31
0.0
  0
ENDBLK
  5
45
330
41
100
AcDbEntity
  8
0
100
AcDbBlockEnd
  0
ENDSEC
  0
SECTION
  2
ENTITIES
  0
LINE
  5
46
100
AcDbEntity
  8
4
  6
CENTER
 62
1
100
AcDbLine
 10
464.5000610000000
 20
386.0003659999999
 30
0.000000000000000
 11
478.2000430000000
 21
386.0003659999999
 31
0.000000000000000
  0
LINE
  5
47
100
AcDbEntity
  8
1
  6
CONTINUOUS
 62
7
100
AcDbLine
 10
470.0000610000000
 20
393.0003660000000
 30
0.000000000000000
 11
473.0000610000000
 21
393.0003660000000
 31
0.000000000000000
  0
LINE
  5
48
100
AcDbEntity
  8
1
  6
CONTINUOUS
 62
7
100
AcDbLine
 10
67.00000000000000
 20
165.0003659999998
 30
0.000000000000000
 11
31.00000000000000
 21
165.0003659999998
 31
0.000000000000000
  0
LINE
  5
49
100
AcDbEntity
  8
4
  6
CENTER
 62
1
100
AcDbLine
 10
166.4999540000000
 20
506.0003360000000
 30
0.000000000000000
 11
202.9999539999999
 21
506.0003360000000
 31
0.000000000000000
  0
LINE
  5
4A
100
AcDbEntity
  8
4
  6
CENTER
 62
1
100
AcDbLine
 10
64.00000000000000
 20
166.1503750000000
 30
0.000000000000000
 11
64.00000000000000
 21
175.8503720000000
 31
0.000000000000000
  0
LINE
  5
4B
100
AcDbEntity
  8
4
  6
CENTER
 62
1
100
AcDbLine
 10
34.00000000000000
 20
166.1503750000000
 30
0.000000000000000
 11
34.00000000000000
 21
175.8503720000000
 31
0.000000000000000
  0
LINE
  5
4C
100
AcDbEntity
  8
1
  6
CONTINUOUS
 62
7
100
AcDbLine
 10
39.50000000000000
 20
183.0003659999999
 30
0.000000000000000
 11
58.50000000000000
 21
183.0003659999999
 31
0.000000000000000
  0
LINE
  5
4D
100
AcDbEntity
  8
1
  6
CONTINUOUS
 62
7
100
AcDbLine
 10
192.9999540000000
 20
497.5003360000000
 30
0.000000000000000
 11
192.9999540000000
 21
514.5003659999998
 31
0.000000000000000
  0
LINE
  5
4E
100
AcDbEntity
  8
1
  6
CONTINUOUS
 62
7
100
AcDbLine
 10
38.14289099999999
 20
282.4543150000000
 30
0.000000000000000
 11
39.49999999999999
 21
282.9429020000000
 31
0.000000000000000
  0
LINE
  5
4F
100
AcDbEntity
  8
1
  6
CONTINUOUS
 62
7
100
AcDbLine
 10
475.2000429999998
 20
381.7683109999999
 30
0.000000000000000
 11
475.2000429999998
 21
390.2324220000000
 31
0.000000000000000
  0
LINE
  5
50
100
AcDbEntity
  8
1
  6
CONTINUOUS
 62
7
100
AcDbLine
 10
34.00000000000000
 20
406.0003659999998
 30
0.000000000000000
 11
34.00000000000000
 21
404.5003659999999
 31
0.000000000000000
  0
LINE
  5
51
100
AcDbEntity
  8
1
  6
CONTINUOUS
 62
7
100
AcDbLine
 10
38.31348400000000
 20
404.3803409999999
 30
0.000000000000000
 11
42.12748300000000
 21
384.6705019999999
 31
0.000000000000000
  0
LINE
  5
52
100
AcDbEntity
  8
1
  6
CONTINUOUS
 62
7
100
AcDbLine
 10
64.00000000000000
 20
404.5003659999999
 30
0.000000000000000
 11
64.00000000000000
 21
406.0003659999998
 31
0.000000000000000
  0
LINE
  5
53
100
AcDbEntity
  8
1
  6
CONTINUOUS
 62
7
100
AcDbLine
 10
55.87214999999999
 20
384.6686099999999
 30
0.000000000000000
 11
59.68651199999999
 21
404.3803409999998
 31
0.000000000000000
  0
LINE
  5
54
100
AcDbEntity
  8
1
  6
CONTINUOUS
 62
7
100
AcDbLine
 10
469.2500610000000
 20
391.5003659999999
 30
0.000000000000000
 11
469.0000610000000
 21
391.5003659999999
 31
0.000000000000000
  0
LINE
  5
55
100
AcDbEntity
  8
1
  6
CONTINUOUS
 62
7
100
AcDbLine
 10
469.2500610000000
 20
380.5003660000000
 30
0.000000000000000
 11
469.0000610000000
 21
380.5003660000000
 31
0.000000000000000
  0
LINE
  5
56
100
AcDbEntity
  8
1
  6
CONTINUOUS
 62
7
100
AcDbLine
 10
58.50000000000000
 20
183.0003659999999
 30
0.000000000000000
 11
58.50000000000000
 21
312.0003660000000
 31
0.000000000000000
  0
LINE
  5
57
100
AcDbEntity
  8
1
  6
CONTINUOUS
 62
7
100
AcDbLine
 10
39.50000000000000
 20
183.0003659999999
 30
0.000000000000000
 11
39.50000000000000
 21
312.0003660000000
 31
0.000000000000000
  0
LINE
  5
58
100
AcDbEntity
  8
1
  6
CONTINUOUS
 62
7
100
AcDbLine
 10
39.50000000000000
 20
312.0003660000000
 30
0.000000000000000
 11
58.50000000000000
 21
312.0003660000000
 31
0.000000000000000
  0
LINE
  5
59
100
AcDbEntity
  8
1
  6
CONTINUOUS
 62
7
100
AcDbLine
 10
55.00000000000000
 20
312.0003660000000
 30
0.000000000000000
 11
55.00000000000000
 21
389.6059270000000
 31
0.000000000000000
  0
LINE
  5
5A
100
AcDbEntity
  8
1
  6
CONTINUOUS
 62
7
100
AcDbLine
 10
43.00000000000000
 20
312.0003660000000
 30
0.000000000000000
 11
43.00000000000000
 21
389.6059270000000
 31
0.000000000000000
  0
LINE
  5
5B
100
AcDbEntity
  8
1
  6
CONTINUOUS
 62
7
100
AcDbLine
 10
64.00000000000000
 20
406.0003659999998
 30
0.000000000000000
 11
34.00000000000000
 21
406.0003659999998
 31
0.000000000000000
  0
LINE
  5
5C
100
AcDbEntity
  8
1
  6
CONTINUOUS
 62
7
100
AcDbLine
 10
64.00000000000000
 20
404.5003659999999
 30
0.000000000000000
 11
34.00000000000000
 21
404.5003659999999
 31
0.000000000000000
  0
LINE
  5
5D
100
AcDbEntity
  8
5
  6
PHANTOM
 62
1
100
AcDbLine
 10
34.00000000000000
 20
344.0003659999999
 30
0.000000000000000
 11
34.00000000000000
 21
342.5003659999999
 31
0.000000000000000
  0
LINE
  5
5E
100
AcDbEntity
  8
5
  6
PHANTOM
 62
1
100
AcDbLine
 10
38.31348799999999
 20
342.3803410000000
 30
0.000000000000000
 11
42.12748699999999
 21
322.6705020000001
 31
0.000000000000000
  0
LINE
  5
5F
100
AcDbEntity
  8
5
  6
PHANTOM
 62
1
100
AcDbLine
 10
64.00000000000000
 20
342.5003659999999
 30
0.000000000000000
 11
64.00000000000000
 21
344.0003659999999
 31
0.000000000000000
  0
LINE
  5
60
100
AcDbEntity
  8
5
  6
PHANTOM
 62
1
100
AcDbLine
 10
64.00000000000000
 20
344.0003659999999
 30
0.000000000000000
 11
34.00000000000000
 21
344.0003659999999
 31
0.000000000000000
  0
LINE
  5
61
100
AcDbEntity
  8
5
  6
PHANTOM
 62
1
100
AcDbLine
 10
64.00000000000000
 20
342.5003659999999
 30
0.000000000000000
 11
34.00000000000000
 21
342.5003659999999
 31
0.000000000000000
  0
LINE
  5
62
100
AcDbEntity
  8
5
  6
PHANTOM
 62
1
100
AcDbLine
 10
59.68651200000001
 20
342.3803410000000
 30
0.000000000000000
 11
55.87250500000000
 21
322.6704710000001
 31
0.000000000000000
  0
LINE
  5
63
100
AcDbEntity
  8
4
  6
CENTER
 62
1
100
AcDbLine
 10
59.00000000000000
 20
401.5003659999998
 30
0.000000000000000
 11
59.00000000000000
 21
409.0003659999998
 31
0.000000000000000
  0
LINE
  5
64
100
AcDbEntity
  8
4
  6
CENTER
 62
1
100
AcDbLine
 10
39.00000000000000
 20
401.5003659999998
 30
0.000000000000000
 11
39.00000000000000
 21
409.0003659999998
 31
0.000000000000000
  0
LINE
  5
65
100
AcDbEntity
  8
4
  6
CENTER
 62
1
100
AcDbLine
 10
59.00000000000000
 20
339.5003659999999
 30
0.000000000000000
 11
59.00000000000000
 21
347.0003659999999
 31
0.000000000000000
  0
LINE
  5
66
100
AcDbEntity
  8
4
  6
CENTER
 62
1
100
AcDbLine
 10
39.00000000000000
 20
339.5003659999999
 30
0.000000000000000
 11
39.00000000000000
 21
347.0003659999999
 31
0.000000000000000
  0
LINE
  5
67
100
AcDbEntity
  8
1
  6
CONTINUOUS
 62
7
100
AcDbLine
 10
474.0000610000000
 20
183.0003659999999
 30
0.000000000000000
 11
474.0000610000000
 21
312.0003660000000
 31
0.000000000000000
  0
LINE
  5
68
100
AcDbEntity
  8
1
  6
CONTINUOUS
 62
7
100
AcDbLine
 10
474.0000610000000
 20
183.0003659999999
 30
0.000000000000000
 11
464.0000610000000
 21
183.0003659999999
 31
0.000000000000000
  0
LINE
  5
69
100
AcDbEntity
  8
1
  6
CONTINUOUS
 62
7
100
AcDbLine
 10
474.0000610000000
 20
312.0003660000000
 30
0.000000000000000
 11
464.0000610000000
 21
312.0003660000000
 31
0.000000000000000
  0
LINE
  5
6A
100
AcDbEntity
  8
1
  6
CONTINUOUS
 62
7
100
AcDbLine
 10
461.5000610000000
 20
165.0003659999998
 30
0.000000000000000
 11
460.0000610000000
 21
165.0003659999998
 31
0.000000000000000
  0
LINE
  5
6B
100
AcDbEntity
  8
1
  6
CONTINUOUS
 62
7
100
AcDbLine
 10
461.5000610000000
 20
199.0003659999999
 30
0.000000000000000
 11
460.0000610000000
 21
199.0003659999999
 31
0.000000000000000
  0
LINE
  5
6C
100
AcDbEntity
  8
1
  6
CONTINUOUS
 62
7
100
AcDbLine
 10
460.0000610000000
 20
165.0003659999998
 30
0.000000000000000
 11
460.0000610000000
 21
199.0003659999999
 31
0.000000000000000
  0
LINE
  5
6D
100
AcDbEntity
  8
1
  6
CONTINUOUS
 62
7
100
AcDbLine
 10
461.5000610000000
 20
165.0003659999998
 30
0.000000000000000
 11
461.5000610000000
 21
199.0003659999999
 31
0.000000000000000
  0
LINE
  5
6E
100
AcDbEntity
  8
1
  6
CONTINUOUS
 62
7
100
AcDbLine
 10
31.60000000000000
 20
172.8503719999999
 30
0.000000000000000
 11
36.39999999999987
 21
172.8503719999999
 31
0.000000000000000
  0
LINE
  5
6F
100
AcDbEntity
  8
1
  6
CONTINUOUS
 62
7
100
AcDbLine
 10
31.60000000000000
 20
169.1503750000000
 30
0.000000000000000
 11
36.39999999999987
 21
169.1503750000000
 31
0.000000000000000
  0
LINE
  5
70
100
AcDbEntity
  8
4
  6
CENTER
 62
1
100
AcDbLine
 10
22.00000000000000
 20
171.0003659999999
 30
0.000000000000000
 11
76.00000000000000
 21
171.0003659999999
 31
0.000000000000000
  0
LINE
  5
71
100
AcDbEntity
  8
1
  6
CONTINUOUS
 62
7
100
AcDbLine
 10
193.9999540000000
 20
497.5003360000000
 30
0.000000000000000
 11
193.9999540000000
 21
514.5003659999998
 31
0.000000000000000
  0
LINE
  5
72
100
AcDbEntity
  8
1
  6
CONTINUOUS
 62
7
100
AcDbLine
 10
196.4999539999998
 20
482.0003360000000
 30
0.000000000000000
 11
197.9999540000000
 21
482.0003360000000
 31
0.000000000000000
  0
LINE
  5
73
100
AcDbEntity
  8
1
  6
CONTINUOUS
 62
7
100
AcDbLine
 10
196.4999539999998
 20
530.0003659999998
 30
0.000000000000000
 11
197.9999540000000
 21
530.0003659999998
 31
0.000000000000000
  0
LINE
  5
74
100
AcDbEntity
  8
1
  6
CONTINUOUS
 62
7
100
AcDbLine
 10
197.9999540000000
 20
530.0003659999998
 30
0.000000000000000
 11
197.9999540000000
 21
482.0003360000000
 31
0.000000000000000
  0
LINE
  5
75
100
AcDbEntity
  8
1
  6
CONTINUOUS
 62
7
100
AcDbLine
 10
196.4999539999998
 20
530.0003659999998
 30
0.000000000000000
 11
196.4999539999998
 21
482.0003360000000
 31
0.000000000000000
  0
LINE
  5
76
100
AcDbEntity
  8
4
  6
CENTER
 62
1
100
AcDbLine
 10
469.0000610000000
 20
180.0003659999999
 30
0.000000000000000
 11
469.0000610000000
 21
315.0003659999999
 31
0.000000000000000
  0
LINE
  5
77
100
AcDbEntity
  8
1
  6
CONTINUOUS
 62
7
100
AcDbLine
 10
470.8000489999998
 20
297.0003659999999
 30
0.000000000000000
 11
467.2000429999997
 21
297.0003659999999
 31
0.000000000000000
  0
LINE
  5
78
100
AcDbEntity
  8
1
  6
CONTINUOUS
 62
7
100
AcDbLine
 10
470.8000489999998
 20
279.0003659999999
 30
0.000000000000000
 11
467.2000429999997
 21
279.0003659999999
 31
0.000000000000000
  0
LINE
  5
79
100
AcDbEntity
  8
1
  6
CONTINUOUS
 62
7
100
AcDbLine
 10
470.8000489999998
 20
279.0003659999999
 30
0.000000000000000
 11
470.8000489999998
 21
297.0003659999999
 31
0.000000000000000
  0
LINE
  5
7A
100
AcDbEntity
  8
1
  6
CONTINUOUS
 62
7
100
AcDbLine
 10
467.2000429999997
 20
279.0003659999999
 30
0.000000000000000
 11
467.2000429999997
 21
297.0003659999999
 31
0.000000000000000
  0
LINE
  5
7B
100
AcDbEntity
  8
1
  6
CONTINUOUS
 62
7
100
AcDbLine
 10
470.0000610000000
 20
297.0003659999999
 30
0.000000000000000
 11
470.0000610000000
 21
279.0003659999999
 31
0.000000000000000
  0
LINE
  5
7C
100
AcDbEntity
  8
4
  6
CENTER
 62
1
100
AcDbLine
 10
456.9935909999998
 20
191.0003659999999
 30
0.000000000000000
 11
472.2500609999998
 21
191.0003659999999
 31
0.000000000000000
  0
LINE
  5
7D
100
AcDbEntity
  8
1
  6
CONTINUOUS
 62
7
100
AcDbLine
 10
469.9000550000000
 20
287.3813779999998
 30
0.000000000000000
 11
468.1000369999998
 21
287.3813779999998
 31
0.000000000000000
  0
LINE
  5
7E
100
AcDbEntity
  8
1
  6
CONTINUOUS
 62
7
100
AcDbLine
 10
469.9000550000000
 20
279.0003659999999
 30
0.000000000000000
 11
469.9000550000000
 21
287.3813779999998
 31
0.000000000000000
  0
LINE
  5
7F
100
AcDbEntity
  8
1
  6
CONTINUOUS
 62
7
100
AcDbLine
 10
468.1000369999998
 20
279.0003659999999
 30
0.000000000000000
 11
468.1000369999998
 21
287.3813779999998
 31
0.000000000000000
  0
LINE
  5
80
100
AcDbEntity
  8
1
  6
CONTINUOUS
 62
7
100
AcDbLine
 10
464.0000610000000
 20
183.0003659999999
 30
0.000000000000000
 11
464.0000610000000
 21
312.0003660000000
 31
0.000000000000000
  0
LINE
  5
81
100
AcDbEntity
  8
1
  6
CONTINUOUS
 62
7
100
AcDbLine
 10
470.0000610000000
 20
312.0003660000000
 30
0.000000000000000
 11
470.0000610000000
 21
393.0003660000000
 31
0.000000000000000
  0
LINE
  5
82
100
AcDbEntity
  8
1
  6
CONTINUOUS
 62
7
100
AcDbLine
 10
473.0000610000000
 20
312.0003660000000
 30
0.000000000000000
 11
473.0000610000000
 21
393.0003660000000
 31
0.000000000000000
  0
LINE
  5
83
100
AcDbEntity
  8
1
  6
CONTINUOUS
 62
7
100
AcDbLine
 10
190.4999540000000
 20
496.5003360000000
 30
0.000000000000000
 11
192.9999540000000
 21
496.5003360000000
 31
0.000000000000000
  0
LINE
  5
84
100
AcDbEntity
  8
1
  6
CONTINUOUS
 62
7
100
AcDbLine
 10
190.4999540000000
 20
497.5003360000000
 30
0.000000000000000
 11
192.9999540000000
 21
497.5003360000000
 31
0.000000000000000
  0
LINE
  5
85
100
AcDbEntity
  8
4
  6
CENTER
 62
1
100
AcDbLine
 10
35.54634099999999
 20
304.0003659999999
 30
0.000000000000000
 11
62.45365899999999
 21
304.0003659999999
 31
0.000000000000000
  0
LINE
  5
86
100
AcDbEntity
  8
1
  6
CONTINUOUS
 62
7
100
AcDbLine
 10
39.00000000000000
 20
300.7503659999999
 30
0.000000000000000
 11
39.50000000000000
 21
300.7503659999999
 31
0.000000000000000
  0
LINE
  5
87
100
AcDbEntity
  8
1
  6
CONTINUOUS
 62
7
100
AcDbLine
 10
39.00000000000000
 20
307.2503659999999
 30
0.000000000000000
 11
39.50000000000000
 21
307.2503659999999
 31
0.000000000000000
  0
LINE
  5
88
100
AcDbEntity
  8
1
  6
CONTINUOUS
 62
7
100
AcDbLine
 10
39.00000000000000
 20
300.7503659999999
 30
0.000000000000000
 11
39.00000000000000
 21
307.2503659999999
 31
0.000000000000000
  0
LINE
  5
89
100
AcDbEntity
  8
1
  6
CONTINUOUS
 62
7
100
AcDbLine
 10
38.54634100000000
 20
303.0003659999999
 30
0.000000000000000
 11
38.54634100000000
 21
305.0003659999999
 31
0.000000000000000
  0
LINE
  5
8A
100
AcDbEntity
  8
1
  6
CONTINUOUS
 62
7
100
AcDbLine
 10
59.00000000000000
 20
300.7503659999999
 30
0.000000000000000
 11
58.50000000000000
 21
300.7503659999999
 31
0.000000000000000
  0
LINE
  5
8B
100
AcDbEntity
  8
1
  6
CONTINUOUS
 62
7
100
AcDbLine
 10
59.00000000000000
 20
307.2503659999999
 30
0.000000000000000
 11
58.50000000000000
 21
307.2503659999999
 31
0.000000000000000
  0
LINE
  5
8C
100
AcDbEntity
  8
1
  6
CONTINUOUS
 62
7
100
AcDbLine
 10
59.00000000000000
 20
300.7503659999999
 30
0.000000000000000
 11
59.00000000000000
 21
307.2503659999999
 31
0.000000000000000
  0
LINE
  5
8D
100
AcDbEntity
  8
1
  6
CONTINUOUS
 62
7
100
AcDbLine
 10
59.45365899999998
 20
303.0003659999999
 30
0.000000000000000
 11
59.45365899999998
 21
305.0003659999999
 31
0.000000000000000
  0
LINE
  5
8E
100
AcDbEntity
  8
4
  6
CENTER
 62
1
100
AcDbLine
 10
464.2500609999998
 20
304.0003659999999
 30
0.000000000000000
 11
473.7500610000000
 21
304.0003659999999
 31
0.000000000000000
  0
LINE
  5
8F
100
AcDbEntity
  8
4
  6
CENTER
 62
1
100
AcDbLine
 10
188.9999539999998
 20
519.4539790000000
 30
0.000000000000000
 11
188.9999539999998
 21
492.5466919999998
 31
0.000000000000000
  0
LINE
  5
90
100
AcDbEntity
  8
1
  6
CONTINUOUS
 62
7
100
AcDbLine
 10
192.2499540000000
 20
516.0003660000000
 30
0.000000000000000
 11
192.2499540000000
 21
515.5003660000000
 31
0.000000000000000
  0
LINE
  5
91
100
AcDbEntity
  8
1
  6
CONTINUOUS
 62
7
100
AcDbLine
 10
192.2499540000000
 20
496.0003360000000
 30
0.000000000000000
 11
192.2499540000000
 21
496.5003360000000
 31
0.000000000000000
  0
LINE
  5
92
100
AcDbEntity
  8
1
  6
CONTINUOUS
 62
7
100
AcDbLine
 10
31.60310900000001
 20
177.0003659999999
 30
0.000000000000000
 11
31.00000000000000
 21
177.0003659999999
 31
0.000000000000000
  0
LINE
  5
93
100
AcDbEntity
  8
1
  6
CONTINUOUS
 62
7
100
AcDbLine
 10
63.69596500000002
 20
178.6944270000000
 30
0.000000000000000
 11
58.49999600000002
 21
189.6420900000000
 31
0.000000000000000
  0
LINE
  5
94
100
AcDbEntity
  8
1
  6
CONTINUOUS
 62
7
100
AcDbLine
 10
34.31334299999998
 20
178.7140499999998
 30
0.000000000000000
 11
39.49999999999999
 21
189.6420749999999
 31
0.000000000000000
  0
LINE
  5
95
100
AcDbEntity
  8
1
  6
CONTINUOUS
 62
7
100
AcDbLine
 10
190.4999540000000
 20
496.0003360000000
 30
0.000000000000000
 11
192.2499540000000
 21
496.0003360000000
 31
0.000000000000000
  0
LINE
  5
96
100
AcDbEntity
  8
4
  6
CENTER
 62
1
100
AcDbLine
 10
49.00000000000000
 20
160.0003659999998
 30
0.000000000000000
 11
49.00000000000000
 21
411.0003660000000
 31
0.000000000000000
  0
LINE
  5
97
100
AcDbEntity
  8
1
  6
CONTINUOUS
 62
7
100
AcDbLine
 10
469.0000610000000
 20
406.0003659999998
 30
0.000000000000000
 11
486.5000610000000
 21
406.0003659999998
 31
0.000000000000000
  0
LINE
  5
98
100
AcDbEntity
  8
1
  6
CONTINUOUS
 62
7
100
AcDbLine
 10
469.0000610000000
 20
404.5003659999999
 30
0.000000000000000
 11
486.5000610000000
 21
404.5003659999999
 31
0.000000000000000
  0
LINE
  5
99
100
AcDbEntity
  8
1
  6
CONTINUOUS
 62
7
100
AcDbLine
 10
467.5000610000000
 20
379.0003659999999
 30
0.000000000000000
 11
467.5000610000000
 21
404.5003659999999
 31
0.000000000000000
  0
LINE
  5
9A
100
AcDbEntity
  8
1
  6
CONTINUOUS
 62
7
100
AcDbLine
 10
469.0000610000000
 20
379.0003659999999
 30
0.000000000000000
 11
469.0000610000000
 21
406.0003659999998
 31
0.000000000000000
  0
LINE
  5
9B
100
AcDbEntity
  8
1
  6
CONTINUOUS
 62
7
100
AcDbLine
 10
467.5000610000000
 20
379.0003659999999
 30
0.000000000000000
 11
469.0000610000000
 21
379.0003659999999
 31
0.000000000000000
  0
LINE
  5
9C
100
AcDbEntity
  8
1
  6
CONTINUOUS
 62
7
100
AcDbLine
 10
486.5000610000000
 20
404.5003659999999
 30
0.000000000000000
 11
486.5000610000000
 21
406.0003659999998
 31
0.000000000000000
  0
LINE
  5
9D
100
AcDbEntity
  8
4
  6
CENTER
 62
1
100
AcDbLine
 10
478.0000610000000
 20
401.5003659999998
 30
0.000000000000000
 11
478.0000610000000
 21
409.0003659999998
 31
0.000000000000000
  0
LINE
  5
9E
100
AcDbEntity
  8
4
  6
CENTER
 62
1
100
AcDbLine
 10
457.0000610000000
 20
171.0003659999999
 30
0.000000000000000
 11
464.5000610000000
 21
171.0003659999999
 31
0.000000000000000
  0
LINE
  5
9F
100
AcDbEntity
  8
1
  6
CONTINUOUS
 62
7
100
AcDbLine
 10
460.0000610000000
 20
177.0003659999999
 30
0.000000000000000
 11
461.5000610000000
 21
177.0003659999999
 31
0.000000000000000
  0
LINE
  5
A0
100
AcDbEntity
  8
1
  6
CONTINUOUS
 62
7
100
AcDbLine
 10
190.4999540000000
 20
379.0003659999999
 30
0.000000000000000
 11
190.4999540000000
 21
404.5003659999999
 31
0.000000000000000
  0
LINE
  5
A1
100
AcDbEntity
  8
4
  6
CENTER
 62
1
100
AcDbLine
 10
193.7499540000000
 20
304.0003659999999
 30
0.000000000000000
 11
184.2499540000000
 21
304.0003659999999
 31
0.000000000000000
  0
LINE
  5
A2
100
AcDbEntity
  8
1
  6
CONTINUOUS
 62
7
100
AcDbLine
 10
184.9999539999998
 20
312.0003660000000
 30
0.000000000000000
 11
184.9999539999998
 21
393.0003660000000
 31
0.000000000000000
  0
LINE
  5
A3
100
AcDbEntity
  8
1
  6
CONTINUOUS
 62
7
100
AcDbLine
 10
187.9999540000000
 20
312.0003660000000
 30
0.000000000000000
 11
187.9999540000000
 21
393.0003660000000
 31
0.000000000000000
  0
LINE
  5
A4
100
AcDbEntity
  8
1
  6
CONTINUOUS
 62
7
100
AcDbLine
 10
193.9999540000000
 20
183.0003659999999
 30
0.000000000000000
 11
193.9999540000000
 21
312.0003660000000
 31
0.000000000000000
  0
LINE
  5
A5
100
AcDbEntity
  8
4
  6
CENTER
 62
1
100
AcDbLine
 10
200.8312230000000
 20
191.0003659999999
 30
0.000000000000000
 11
185.7499540000000
 21
191.0003659999999
 31
0.000000000000000
  0
LINE
  5
A6
100
AcDbEntity
  8
4
  6
CENTER
 62
1
100
AcDbLine
 10
188.9999539999998
 20
180.0003659999999
 30
0.000000000000000
 11
188.9999539999998
 21
315.0003659999999
 31
0.000000000000000
  0
LINE
  5
A7
100
AcDbEntity
  8
1
  6
CONTINUOUS
 62
7
100
AcDbLine
 10
196.4999539999998
 20
165.0003659999998
 30
0.000000000000000
 11
196.4999539999998
 21
199.0003659999999
 31
0.000000000000000
  0
LINE
  5
A8
100
AcDbEntity
  8
1
  6
CONTINUOUS
 62
7
100
AcDbLine
 10
197.9999540000000
 20
165.0003659999998
 30
0.000000000000000
 11
197.9999540000000
 21
199.0003659999999
 31
0.000000000000000
  0
LINE
  5
A9
100
AcDbEntity
  8
1
  6
CONTINUOUS
 62
7
100
AcDbLine
 10
196.4999539999998
 20
199.0003659999999
 30
0.000000000000000
 11
197.9999540000000
 21
199.0003659999999
 31
0.000000000000000
  0
LINE
  5
AA
100
AcDbEntity
  8
1
  6
CONTINUOUS
 62
7
100
AcDbLine
 10
196.4999539999998
 20
165.0003659999998
 30
0.000000000000000
 11
197.9999540000000
 21
165.0003659999998
 31
0.000000000000000
  0
LINE
  5
AB
100
AcDbEntity
  8
1
  6
CONTINUOUS
 62
7
100
AcDbLine
 10
183.9999539999998
 20
312.0003660000000
 30
0.000000000000000
 11
193.9999540000000
 21
312.0003660000000
 31
0.000000000000000
  0
LINE
  5
AC
100
AcDbEntity
  8
1
  6
CONTINUOUS
 62
7
100
AcDbLine
 10
183.9999539999998
 20
183.0003659999999
 30
0.000000000000000
 11
193.9999540000000
 21
183.0003659999999
 31
0.000000000000000
  0
LINE
  5
AD
100
AcDbEntity
  8
1
  6
CONTINUOUS
 62
7
100
AcDbLine
 10
183.9999539999998
 20
183.0003659999999
 30
0.000000000000000
 11
183.9999539999998
 21
312.0003660000000
 31
0.000000000000000
  0
LINE
  5
AE
100
AcDbEntity
  8
1
  6
CONTINUOUS
 62
7
100
AcDbLine
 10
188.7499540000000
 20
380.5003660000000
 30
0.000000000000000
 11
188.9999539999998
 21
380.5003660000000
 31
0.000000000000000
  0
LINE
  5
AF
100
AcDbEntity
  8
1
  6
CONTINUOUS
 62
7
100
AcDbLine
 10
188.7499540000000
 20
391.5003659999999
 30
0.000000000000000
 11
188.9999539999998
 21
391.5003659999999
 31
0.000000000000000
  0
LINE
  5
B0
100
AcDbEntity
  8
1
  6
CONTINUOUS
 62
7
100
AcDbLine
 10
188.9999539999998
 20
404.5003659999999
 30
0.000000000000000
 11
171.4999539999998
 21
404.5003659999999
 31
0.000000000000000
  0
LINE
  5
B1
100
AcDbEntity
  8
1
  6
CONTINUOUS
 62
7
100
AcDbLine
 10
182.7999570000000
 20
381.7683109999999
 30
0.000000000000000
 11
182.7999570000000
 21
390.2324220000000
 31
0.000000000000000
  0
LINE
  5
B2
100
AcDbEntity
  8
1
  6
CONTINUOUS
 62
7
100
AcDbLine
 10
187.9999540000000
 20
393.0003660000000
 30
0.000000000000000
 11
184.9999539999998
 21
393.0003660000000
 31
0.000000000000000
  0
LINE
  5
B3
100
AcDbEntity
  8
4
  6
CENTER
 62
1
100
AcDbLine
 10
193.4999539999998
 20
386.0003659999999
 30
0.000000000000000
 11
179.7999569999998
 21
386.0003659999999
 31
0.000000000000000
  0
LINE
  5
B4
100
AcDbEntity
  8
4
  6
CENTER
 62
1
100
AcDbLine
 10
179.9999539999998
 20
401.5003659999998
 30
0.000000000000000
 11
179.9999539999998
 21
409.0003659999998
 31
0.000000000000000
  0
LINE
  5
B5
100
AcDbEntity
  8
1
  6
CONTINUOUS
 62
7
100
AcDbLine
 10
171.4999539999998
 20
404.5003659999999
 30
0.000000000000000
 11
171.4999539999998
 21
406.0003659999998
 31
0.000000000000000
  0
LINE
  5
B6
100
AcDbEntity
  8
1
  6
CONTINUOUS
 62
7
100
AcDbLine
 10
190.4999540000000
 20
379.0003659999999
 30
0.000000000000000
 11
188.9999539999998
 21
379.0003659999999
 31
0.000000000000000
  0
LINE
  5
B7
100
AcDbEntity
  8
1
  6
CONTINUOUS
 62
7
100
AcDbLine
 10
188.9999539999998
 20
379.0003659999999
 30
0.000000000000000
 11
188.9999539999998
 21
406.0003659999998
 31
0.000000000000000
  0
LINE
  5
B8
100
AcDbEntity
  8
1
  6
CONTINUOUS
 62
7
100
AcDbLine
 10
188.9999539999998
 20
406.0003659999998
 30
0.000000000000000
 11
171.4999539999998
 21
406.0003659999998
 31
0.000000000000000
  0
LINE
  5
B9
100
AcDbEntity
  8
4
  6
CENTER
 62
1
100
AcDbLine
 10
200.9999539999999
 20
171.0003659999999
 30
0.000000000000000
 11
193.4999539999998
 21
171.0003659999999
 31
0.000000000000000
  0
LINE
  5
BA
100
AcDbEntity
  8
1
  6
CONTINUOUS
 62
7
100
AcDbLine
 10
197.9999540000000
 20
177.0003659999999
 30
0.000000000000000
 11
196.4999539999998
 21
177.0003659999999
 31
0.000000000000000
  0
LINE
  5
BB
100
AcDbEntity
  8
4
  6
CENTER
 62
1
100
AcDbLine
 10
328.9999080000000
 20
160.0003659999998
 30
0.000000000000000
 11
328.9999080000000
 21
411.0003660000000
 31
0.000000000000000
  0
LINE
  5
BC
100
AcDbEntity
  8
1
  6
CONTINUOUS
 62
7
100
AcDbLine
 10
343.6865840000000
 20
178.7140499999999
 30
0.000000000000000
 11
336.2265320000000
 21
194.4319609999998
 31
0.000000000000000
  0
LINE
  5
BD
100
AcDbEntity
  8
1
  6
CONTINUOUS
 62
7
100
AcDbLine
 10
314.3039250000000
 20
178.6944270000000
 30
0.000000000000000
 11
321.7726139999999
 21
194.4305730000000
 31
0.000000000000000
  0
LINE
  5
BE
100
AcDbEntity
  8
1
  6
CONTINUOUS
 62
7
100
AcDbLine
 10
346.3967900000000
 20
177.0003659999999
 30
0.000000000000000
 11
346.9999080000000
 21
177.0003659999999
 31
0.000000000000000
  0
LINE
  5
BF
100
AcDbEntity
  8
1
  6
CONTINUOUS
 62
7
100
AcDbLine
 10
318.5462339999999
 20
303.0003659999999
 30
0.000000000000000
 11
318.5462339999999
 21
305.0003659999999
 31
0.000000000000000
  0
LINE
  5
C0
100
AcDbEntity
  8
1
  6
CONTINUOUS
 62
7
100
AcDbLine
 10
318.9999080000000
 20
300.7503659999999
 30
0.000000000000000
 11
318.9999080000000
 21
307.2503659999999
 31
0.000000000000000
  0
LINE
  5
C1
100
AcDbEntity
  8
1
  6
CONTINUOUS
 62
7
100
AcDbLine
 10
318.9999080000000
 20
307.2503659999999
 30
0.000000000000000
 11
319.4999080000000
 21
307.2503659999999
 31
0.000000000000000
  0
LINE
  5
C2
100
AcDbEntity
  8
1
  6
CONTINUOUS
 62
7
100
AcDbLine
 10
318.9999080000000
 20
300.7503659999999
 30
0.000000000000000
 11
319.4999080000000
 21
300.7503659999999
 31
0.000000000000000
  0
LINE
  5
C3
100
AcDbEntity
  8
1
  6
CONTINUOUS
 62
7
100
AcDbLine
 10
339.4535520000000
 20
303.0003659999999
 30
0.000000000000000
 11
339.4535520000000
 21
305.0003659999999
 31
0.000000000000000
  0
LINE
  5
C4
100
AcDbEntity
  8
1
  6
CONTINUOUS
 62
7
100
AcDbLine
 10
338.9999079999999
 20
300.7503659999999
 30
0.000000000000000
 11
338.9999079999999
 21
307.2503659999999
 31
0.000000000000000
  0
LINE
  5
C5
100
AcDbEntity
  8
1
  6
CONTINUOUS
 62
7
100
AcDbLine
 10
338.9999079999999
 20
307.2503659999999
 30
0.000000000000000
 11
338.4999080000000
 21
307.2503659999999
 31
0.000000000000000
  0
LINE
  5
C6
100
AcDbEntity
  8
1
  6
CONTINUOUS
 62
7
100
AcDbLine
 10
338.9999079999999
 20
300.7503659999999
 30
0.000000000000000
 11
338.4999080000000
 21
300.7503659999999
 31
0.000000000000000
  0
LINE
  5
C7
100
AcDbEntity
  8
4
  6
CENTER
 62
1
100
AcDbLine
 10
342.4535520000000
 20
304.0003659999999
 30
0.000000000000000
 11
315.5462339999999
 21
304.0003659999999
 31
0.000000000000000
  0
LINE
  5
C8
100
AcDbEntity
  8
4
  6
CENTER
 62
1
100
AcDbLine
 10
338.9999079999999
 20
339.5003659999999
 30
0.000000000000000
 11
338.9999079999999
 21
347.0003659999999
 31
0.000000000000000
  0
LINE
  5
C9
100
AcDbEntity
  8
4
  6
CENTER
 62
1
100
AcDbLine
 10
318.9999080000000
 20
339.5003659999999
 30
0.000000000000000
 11
318.9999080000000
 21
347.0003659999999
 31
0.000000000000000
  0
LINE
  5
CA
100
AcDbEntity
  8
4
  6
CENTER
 62
1
100
AcDbLine
 10
338.9999079999999
 20
401.5003659999998
 30
0.000000000000000
 11
338.9999079999999
 21
409.0003659999998
 31
0.000000000000000
  0
LINE
  5
CB
100
AcDbEntity
  8
4
  6
CENTER
 62
1
100
AcDbLine
 10
318.9999080000000
 20
401.5003659999998
 30
0.000000000000000
 11
318.9999080000000
 21
409.0003659999998
 31
0.000000000000000
  0
LINE
  5
CC
100
AcDbEntity
  8
5
  6
PHANTOM
 62
1
100
AcDbLine
 10
318.2901589999999
 20
342.5003659999999
 30
0.000000000000000
 11
322.1273799999999
 21
322.6704710000001
 31
0.000000000000000
  0
LINE
  5
CD
100
AcDbEntity
  8
5
  6
PHANTOM
 62
1
100
AcDbLine
 10
313.9999079999999
 20
342.5003659999999
 30
0.000000000000000
 11
343.9999080000000
 21
342.5003659999999
 31
0.000000000000000
  0
LINE
  5
CE
100
AcDbEntity
  8
5
  6
PHANTOM
 62
1
100
AcDbLine
 10
313.9999079999999
 20
344.0003659999999
 30
0.000000000000000
 11
343.9999080000000
 21
344.0003659999999
 31
0.000000000000000
  0
LINE
  5
CF
100
AcDbEntity
  8
5
  6
PHANTOM
 62
1
100
AcDbLine
 10
313.9999079999999
 20
342.5003659999999
 30
0.000000000000000
 11
313.9999079999999
 21
344.0003659999999
 31
0.000000000000000
  0
LINE
  5
D0
100
AcDbEntity
  8
5
  6
PHANTOM
 62
1
100
AcDbLine
 10
339.6864009999998
 20
342.3803410000000
 30
0.000000000000000
 11
335.8724060000000
 21
322.6705020000000
 31
0.000000000000000
  0
LINE
  5
D1
100
AcDbEntity
  8
5
  6
PHANTOM
 62
1
100
AcDbLine
 10
343.9999080000000
 20
344.0003659999999
 30
0.000000000000000
 11
343.9999080000000
 21
342.5003659999999
 31
0.000000000000000
  0
LINE
  5
D2
100
AcDbEntity
  8
1
  6
CONTINUOUS
 62
7
100
AcDbLine
 10
313.9999079999999
 20
404.5003659999999
 30
0.000000000000000
 11
318.2901610000000
 21
404.5003659999999
 31
0.000000000000000
  0
LINE
  5
D3
100
AcDbEntity
  8
1
  6
CONTINUOUS
 62
7
100
AcDbLine
 10
313.9999079999999
 20
406.0003659999998
 30
0.000000000000000
 11
343.9999080000000
 21
406.0003659999998
 31
0.000000000000000
  0
LINE
  5
D4
100
AcDbEntity
  8
1
  6
CONTINUOUS
 62
7
100
AcDbLine
 10
334.9999079999999
 20
312.0003660000000
 30
0.000000000000000
 11
334.9999079999999
 21
382.3948360000000
 31
0.000000000000000
  0
LINE
  5
D5
100
AcDbEntity
  8
1
  6
CONTINUOUS
 62
7
100
AcDbLine
 10
322.9999080000000
 20
312.0003660000000
 30
0.000000000000000
 11
322.9999080000000
 21
382.3948360000000
 31
0.000000000000000
  0
LINE
  5
D6
100
AcDbEntity
  8
1
  6
CONTINUOUS
 62
7
100
AcDbLine
 10
338.4999080000000
 20
312.0003660000000
 30
0.000000000000000
 11
319.4999080000000
 21
312.0003660000000
 31
0.000000000000000
  0
LINE
  5
D7
100
AcDbEntity
  8
1
  6
CONTINUOUS
 62
7
100
AcDbLine
 10
338.4999080000000
 20
189.6420900000000
 30
0.000000000000000
 11
338.4999080000000
 21
312.0003660000000
 31
0.000000000000000
  0
LINE
  5
D8
100
AcDbEntity
  8
1
  6
CONTINUOUS
 62
7
100
AcDbLine
 10
319.4999080000000
 20
189.6420900000000
 30
0.000000000000000
 11
319.4999080000000
 21
312.0003660000000
 31
0.000000000000000
  0
LINE
  5
D9
100
AcDbEntity
  8
1
  6
CONTINUOUS
 62
7
100
AcDbLine
 10
322.1277469999999
 20
384.6686099999999
 30
0.000000000000000
 11
318.2350160000000
 21
404.7853390000001
 31
0.000000000000000
  0
LINE
  5
DA
100
AcDbEntity
  8
1
  6
CONTINUOUS
 62
7
100
AcDbLine
 10
313.9999079999999
 20
404.5003659999999
 30
0.000000000000000
 11
313.9999079999999
 21
406.0003659999998
 31
0.000000000000000
  0
LINE
  5
DB
100
AcDbEntity
  8
1
  6
CONTINUOUS
 62
7
100
AcDbLine
 10
339.7647710000000
 20
404.7853699999999
 30
0.000000000000000
 11
335.8724060000001
 21
384.6705019999999
 31
0.000000000000000
  0
LINE
  5
DC
100
AcDbEntity
  8
1
  6
CONTINUOUS
 62
7
100
AcDbLine
 10
343.9999080000000
 20
406.0003659999998
 30
0.000000000000000
 11
343.9999080000000
 21
404.5003659999999
 31
0.000000000000000
  0
LINE
  5
DD
100
AcDbEntity
  8
1
  6
CONTINUOUS
 62
7
100
AcDbLine
 10
339.8569950000000
 20
282.4543150000000
 30
0.000000000000000
 11
338.4999080000000
 21
282.9429020000000
 31
0.000000000000000
  0
LINE
  5
DE
100
AcDbEntity
  8
4
  6
CENTER
 62
1
100
AcDbLine
 10
343.9999080000000
 20
166.1503750000000
 30
0.000000000000000
 11
343.9999080000000
 21
175.8503720000000
 31
0.000000000000000
  0
LINE
  5
DF
100
AcDbEntity
  8
4
  6
CENTER
 62
1
100
AcDbLine
 10
313.9999079999999
 20
166.1503750000000
 30
0.000000000000000
 11
313.9999079999999
 21
175.8503720000000
 31
0.000000000000000
  0
LINE
  5
E0
100
AcDbEntity
  8
1
  6
CONTINUOUS
 62
7
100
AcDbLine
 10
310.9999080000000
 20
165.0003659999998
 30
0.000000000000000
 11
346.9999080000000
 21
165.0003659999998
 31
0.000000000000000
  0
LINE
  5
E1
100
AcDbEntity
  8
1
  6
CONTINUOUS
 62
7
100
AcDbLine
 10
339.7096560000000
 20
404.5003659999999
 30
0.000000000000000
 11
343.9999080000000
 21
404.5003659999999
 31
0.000000000000000
  0
LINE
  5
E2
100
AcDbEntity
  8
1
  6
CONTINUOUS
 62
7
100
AcDbLine
 10
330.4999079999999
 20
304.5003659999999
 30
0.000000000000000
 11
327.4999080000000
 21
304.5003659999999
 31
0.000000000000000
  0
LINE
  5
E3
100
AcDbEntity
  8
1
  6
CONTINUOUS
 62
7
100
AcDbLine
 10
330.9999080000000
 20
298.0003659999999
 30
0.000000000000000
 11
330.9999080000000
 21
304.0003659999999
 31
0.000000000000000
  0
LINE
  5
E4
100
AcDbEntity
  8
1
  6
CONTINUOUS
 62
7
100
AcDbLine
 10
326.9999080000000
 20
298.0003659999999
 30
0.000000000000000
 11
326.9999080000000
 21
304.0003659999999
 31
0.000000000000000
  0
LINE
  5
E5
100
AcDbEntity
  8
1
  6
CONTINUOUS
 62
7
100
AcDbLine
 10
330.4999079999999
 20
297.5003660000000
 30
0.000000000000000
 11
327.4999080000000
 21
297.5003660000000
 31
0.000000000000000
  0
LINE
  5
E6
100
AcDbEntity
  8
1
  6
CONTINUOUS
 62
7
100
AcDbLine
 10
174.4999540000000
 20
491.0003360000001
 30
0.000000000000000
 11
185.9999540000000
 21
491.0003360000001
 31
0.000000000000000
  0
LINE
  5
E7
100
AcDbEntity
  8
4
  6
CENTER
 62
1
100
AcDbLine
 10
179.9999539999998
 20
520.8503419999998
 30
0.000000000000000
 11
179.9999539999998
 21
511.1503299999998
 31
0.000000000000000
  0
LINE
  5
E8
100
AcDbEntity
  8
4
  6
CENTER
 62
1
100
AcDbLine
 10
172.7499540000000
 20
516.0003660000000
 30
0.000000000000000
 11
187.2499539999998
 21
516.0003660000000
 31
0.000000000000000
  0
LINE
  5
E9
100
AcDbEntity
  8
4
  6
CENTER
 62
1
100
AcDbLine
 10
179.9999539999998
 20
500.8503420000000
 30
0.000000000000000
 11
179.9999539999998
 21
491.1503299999998
 31
0.000000000000000
  0
LINE
  5
EA
100
AcDbEntity
  8
4
  6
CENTER
 62
1
100
AcDbLine
 10
172.7499540000000
 20
496.0003360000000
 30
0.000000000000000
 11
187.2499539999998
 21
496.0003360000000
 31
0.000000000000000
  0
LINE
  5
EB
100
AcDbEntity
  8
1
  6
CONTINUOUS
 62
7
100
AcDbLine
 10
190.4999540000000
 20
517.0003659999999
 30
0.000000000000000
 11
190.4999540000000
 21
495.0003360000001
 31
0.000000000000000
  0
LINE
  5
EC
100
AcDbEntity
  8
1
  6
CONTINUOUS
 62
7
100
AcDbLine
 10
185.9999540000000
 20
521.0003659999999
 30
0.000000000000000
 11
174.4999540000000
 21
521.0003659999999
 31
0.000000000000000
  0
LINE
  5
ED
100
AcDbEntity
  8
1
  6
CONTINUOUS
 62
7
100
AcDbLine
 10
171.4999539999998
 20
518.0003659999998
 30
0.000000000000000
 11
171.4999539999998
 21
494.0003360000000
 31
0.000000000000000
  0
LINE
  5
EE
100
AcDbEntity
  8
4
  6
CENTER
 62
1
100
AcDbLine
 10
200.9999539999999
 20
521.0003659999999
 30
0.000000000000000
 11
193.4999539999998
 21
521.0003659999999
 31
0.000000000000000
  0
LINE
  5
EF
100
AcDbEntity
  8
4
  6
CENTER
 62
1
100
AcDbLine
 10
200.9999539999999
 20
491.0003360000001
 30
0.000000000000000
 11
193.4999539999998
 21
491.0003360000001
 31
0.000000000000000
  0
LINE
  5
F0
100
AcDbEntity
  8
1
  6
CONTINUOUS
 62
7
100
AcDbLine
 10
197.9999540000000
 20
491.3043819999998
 30
0.000000000000000
 11
196.4999539999998
 21
491.3043819999998
 31
0.000000000000000
  0
LINE
  5
F1
100
AcDbEntity
  8
1
  6
CONTINUOUS
 62
7
100
AcDbLine
 10
197.9999540000000
 20
520.6870119999998
 30
0.000000000000000
 11
196.4999539999998
 21
520.6870119999998
 31
0.000000000000000
  0
LINE
  5
F2
100
AcDbEntity
  8
1
  6
CONTINUOUS
 62
7
100
AcDbLine
 10
185.7499540000000
 20
75.00000000000000
 30
0.000000000000000
 11
192.2499540000000
 21
75.00000000000000
 31
0.000000000000000
  0
LINE
  5
F3
100
AcDbEntity
  8
1
  6
CONTINUOUS
 62
7
100
AcDbLine
 10
187.9999540000000
 20
75.45365900000000
 30
0.000000000000000
 11
189.9999539999998
 21
75.45365900000000
 31
0.000000000000000
  0
LINE
  5
F4
100
AcDbEntity
  8
1
  6
CONTINUOUS
 62
7
100
AcDbLine
 10
192.2499540000000
 20
75.00000000000000
 30
0.000000000000000
 11
192.2499540000000
 21
74.50000000000000
 31
0.000000000000000
  0
LINE
  5
F5
100
AcDbEntity
  8
1
  6
CONTINUOUS
 62
7
100
AcDbLine
 10
185.7499540000000
 20
75.00000000000000
 30
0.000000000000000
 11
185.7499540000000
 21
74.50000000000000
 31
0.000000000000000
  0
LINE
  5
F6
100
AcDbEntity
  8
1
  6
CONTINUOUS
 62
7
100
AcDbLine
 10
187.9999540000000
 20
54.54634099999999
 30
0.000000000000000
 11
189.9999539999998
 21
54.54634099999999
 31
0.000000000000000
  0
LINE
  5
F7
100
AcDbEntity
  8
1
  6
CONTINUOUS
 62
7
100
AcDbLine
 10
185.7499540000000
 20
55.00000000000000
 30
0.000000000000000
 11
192.2499540000000
 21
55.00000000000000
 31
0.000000000000000
  0
LINE
  5
F8
100
AcDbEntity
  8
1
  6
CONTINUOUS
 62
7
100
AcDbLine
 10
192.2499540000000
 20
55.00000000000000
 30
0.000000000000000
 11
192.2499540000000
 21
55.50000000000000
 31
0.000000000000000
  0
LINE
  5
F9
100
AcDbEntity
  8
1
  6
CONTINUOUS
 62
7
100
AcDbLine
 10
185.7499540000000
 20
55.00000000000000
 30
0.000000000000000
 11
185.7499540000000
 21
55.50000000000000
 31
0.000000000000000
  0
LINE
  5
FA
100
AcDbEntity
  8
4
  6
CENTER
 62
1
100
AcDbLine
 10
188.9999539999998
 20
51.54634099999999
 30
0.000000000000000
 11
188.9999539999998
 21
78.45365900000000
 31
0.000000000000000
  0
LINE
  5
FB
100
AcDbEntity
  8
1
  6
CONTINUOUS
 62
7
100
AcDbLine
 10
184.9999539999998
 20
73.50000000000000
 30
0.000000000000000
 11
192.9999540000000
 21
73.50000000000000
 31
0.000000000000000
  0
LINE
  5
FC
100
AcDbEntity
  8
1
  6
CONTINUOUS
 62
7
100
AcDbLine
 10
184.9999539999998
 20
74.50000000000000
 30
0.000000000000000
 11
192.9999540000000
 21
74.50000000000000
 31
0.000000000000000
  0
LINE
  5
FD
100
AcDbEntity
  8
1
  6
CONTINUOUS
 62
7
100
AcDbLine
 10
184.9999539999998
 20
56.50000000000000
 30
0.000000000000000
 11
192.9999540000000
 21
56.50000000000000
 31
0.000000000000000
  0
LINE
  5
FE
100
AcDbEntity
  8
1
  6
CONTINUOUS
 62
7
100
AcDbLine
 10
184.9999539999998
 20
55.50000000000000
 30
0.000000000000000
 11
192.9999540000000
 21
55.50000000000000
 31
0.000000000000000
  0
LINE
  5
FF
100
AcDbEntity
  8
1
  6
CONTINUOUS
 62
7
100
AcDbLine
 10
196.4999539999998
 20
41.00000000000000
 30
0.000000000000000
 11
196.4999539999998
 21
89.00000000000000
 31
0.000000000000000
  0
LINE
  5
100
100
AcDbEntity
  8
1
  6
CONTINUOUS
 62
7
100
AcDbLine
 10
197.9999540000000
 20
41.00000000000000
 30
0.000000000000000
 11
197.9999540000000
 21
89.00000000000000
 31
0.000000000000000
  0
LINE
  5
101
100
AcDbEntity
  8
1
  6
CONTINUOUS
 62
7
100
AcDbLine
 10
196.4999539999998
 20
41.00000000000000
 30
0.000000000000000
 11
197.9999540000000
 21
41.00000000000000
 31
0.000000000000000
  0
LINE
  5
102
100
AcDbEntity
  8
4
  6
CENTER
 62
1
100
AcDbLine
 10
200.9999539999999
 20
50.00000000000000
 30
0.000000000000000
 11
193.4999539999998
 21
50.00000000000000
 31
0.000000000000000
  0
LINE
  5
103
100
AcDbEntity
  8
1
  6
CONTINUOUS
 62
7
100
AcDbLine
 10
196.4999539999998
 20
89.00000000000000
 30
0.000000000000000
 11
197.9999540000000
 21
89.00000000000000
 31
0.000000000000000
  0
LINE
  5
104
100
AcDbEntity
  8
1
  6
CONTINUOUS
 62
7
100
AcDbLine
 10
193.9999540000000
 20
73.50000000000000
 30
0.000000000000000
 11
193.9999540000000
 21
56.50000000000000
 31
0.000000000000000
  0
LINE
  5
105
100
AcDbEntity
  8
1
  6
CONTINUOUS
 62
7
100
AcDbLine
 10
184.9999539999998
 20
73.50000000000000
 30
0.000000000000000
 11
184.9999539999998
 21
56.50000000000000
 31
0.000000000000000
  0
LINE
  5
106
100
AcDbEntity
  8
4
  6
CENTER
 62
1
100
AcDbLine
 10
200.9999539999999
 20
80.00000000000000
 30
0.000000000000000
 11
193.4999539999998
 21
80.00000000000000
 31
0.000000000000000
  0
LINE
  5
107
100
AcDbEntity
  8
1
  6
CONTINUOUS
 62
7
100
AcDbLine
 10
192.9999540000000
 20
73.50000000000000
 30
0.000000000000000
 11
192.9999540000000
 21
56.50000000000000
 31
0.000000000000000
  0
LINE
  5
108
100
AcDbEntity
  8
1
  6
CONTINUOUS
 62
7
100
AcDbLine
 10
183.9999539999998
 20
56.50000000000000
 30
0.000000000000000
 11
183.9999539999998
 21
73.50000000000000
 31
0.000000000000000
  0
LINE
  5
109
100
AcDbEntity
  8
1
  6
CONTINUOUS
 62
7
100
AcDbLine
 10
182.9999540000000
 20
69.23204799999999
 30
0.000000000000000
 11
182.9999540000000
 21
60.76794800000000
 31
0.000000000000000
  0
LINE
  5
10A
100
AcDbEntity
  8
4
  6
CENTER
 62
1
100
AcDbLine
 10
166.4999540000000
 20
65.00000000000000
 30
0.000000000000000
 11
202.9999539999999
 21
65.00000000000000
 31
0.000000000000000
  0
LINE
  5
10B
100
AcDbEntity
  8
1
  6
CONTINUOUS
 62
7
100
AcDbLine
 10
174.4999540000000
 20
80.00000000000000
 30
0.000000000000000
 11
185.9999540000000
 21
80.00000000000000
 31
0.000000000000000
  0
LINE
  5
10C
100
AcDbEntity
  8
4
  6
CENTER
 62
1
100
AcDbLine
 10
179.9999539999998
 20
50.15000200000000
 30
0.000000000000000
 11
179.9999539999998
 21
59.84999800000000
 31
0.000000000000000
  0
LINE
  5
10D
100
AcDbEntity
  8
4
  6
CENTER
 62
1
100
AcDbLine
 10
172.7499540000000
 20
55.00000000000000
 30
0.000000000000000
 11
187.2499539999998
 21
55.00000000000000
 31
0.000000000000000
  0
LINE
  5
10E
100
AcDbEntity
  8
4
  6
CENTER
 62
1
100
AcDbLine
 10
179.9999539999998
 20
70.15000200000000
 30
0.000000000000000
 11
179.9999539999998
 21
79.84999800000000
 31
0.000000000000000
  0
LINE
  5
10F
100
AcDbEntity
  8
4
  6
CENTER
 62
1
100
AcDbLine
 10
172.7499540000000
 20
75.00000000000000
 30
0.000000000000000
 11
187.2499539999998
 21
75.00000000000000
 31
0.000000000000000
  0
LINE
  5
110
100
AcDbEntity
  8
1
  6
CONTINUOUS
 62
7
100
AcDbLine
 10
190.4999540000000
 20
54.00000000000000
 30
0.000000000000000
 11
190.4999540000000
 21
54.60455300000000
 31
0.000000000000000
  0
LINE
  5
111
100
AcDbEntity
  8
1
  6
CONTINUOUS
 62
7
100
AcDbLine
 10
185.9999540000000
 20
50.00000000000000
 30
0.000000000000000
 11
174.4999540000000
 21
50.00000000000000
 31
0.000000000000000
  0
LINE
  5
112
100
AcDbEntity
  8
1
  6
CONTINUOUS
 62
7
100
AcDbLine
 10
171.4999539999998
 20
53.00000000000000
 30
0.000000000000000
 11
171.4999539999998
 21
77.00000000000000
 31
0.000000000000000
  0
LINE
  5
113
100
AcDbEntity
  8
1
  6
CONTINUOUS
 62
7
100
AcDbLine
 10
190.4999540000000
 20
75.39544699999998
 30
0.000000000000000
 11
190.4999540000000
 21
76.00000000000000
 31
0.000000000000000
  0
LINE
  5
114
100
AcDbEntity
  8
4
  6
CENTER
 62
1
100
AcDbLine
 10
319.9999079999999
 20
191.0003659999999
 30
0.000000000000000
 11
337.9999080000000
 21
191.0003659999999
 31
0.000000000000000
  0
LINE
  5
115
100
AcDbEntity
  8
4
  6
CENTER
 62
1
100
AcDbLine
 10
319.9999079999999
 20
398.0003659999999
 30
0.000000000000000
 11
337.9999080000000
 21
398.0003659999999
 31
0.000000000000000
  0
LINE
  5
116
100
AcDbEntity
  8
4
  6
CENTER
 62
1
100
AcDbLine
 10
319.9999079999999
 20
386.0003659999999
 30
0.000000000000000
 11
337.9999080000000
 21
386.0003659999999
 31
0.000000000000000
  0
LINE
  5
117
100
AcDbEntity
  8
4
  6
CENTER
 62
1
100
AcDbLine
 10
40.00000000000000
 20
398.0003659999999
 30
0.000000000000000
 11
58.00000000000000
 21
398.0003659999999
 31
0.000000000000000
  0
LINE
  5
118
100
AcDbEntity
  8
4
  6
CENTER
 62
1
100
AcDbLine
 10
40.00000000000000
 20
386.0003659999999
 30
0.000000000000000
 11
58.00000000000000
 21
386.0003659999999
 31
0.000000000000000
  0
LINE
  5
119
100
AcDbEntity
  8
1
  6
CONTINUOUS
 62
7
100
AcDbLine
 10
190.4999540000000
 20
516.0003660000000
 30
0.000000000000000
 11
192.2499540000000
 21
516.0003660000000
 31
0.000000000000000
  0
LINE
  5
11A
100
AcDbEntity
  8
1
  6
CONTINUOUS
 62
7
100
AcDbLine
 10
190.4999540000000
 20
514.5003659999998
 30
0.000000000000000
 11
192.9999540000000
 21
514.5003659999998
 31
0.000000000000000
  0
LINE
  5
11B
100
AcDbEntity
  8
1
  6
CONTINUOUS
 62
7
100
AcDbLine
 10
190.4999540000000
 20
515.5003660000000
 30
0.000000000000000
 11
192.9999540000000
 21
515.5003660000000
 31
0.000000000000000
  0
LINE
  5
11C
100
AcDbEntity
  8
4
  6
CENTER
 62
1
100
AcDbLine
 10
40.00000000000000
 20
324.0003659999999
 30
0.000000000000000
 11
58.00000000000000
 21
324.0003659999999
 31
0.000000000000000
  0
LINE
  5
11D
100
AcDbEntity
  8
4
  6
CENTER
 62
1
100
AcDbLine
 10
319.9999079999999
 20
324.0003659999999
 30
0.000000000000000
 11
337.9999080000000
 21
324.0003659999999
 31
0.000000000000000
  0
LINE
  5
11E
100
AcDbEntity
  8
4
  6
CENTER
 62
1
100
AcDbLine
 10
355.9999080000000
 20
171.0003659999999
 30
0.000000000000000
 11
301.9999080000000
 21
171.0003659999999
 31
0.000000000000000
  0
LINE
  5
11F
100
AcDbEntity
  8
4
  6
CENTER
 62
1
100
AcDbLine
 10
41.50000000000000
 20
191.0003659999999
 30
0.000000000000000
 11
56.50000000000000
 21
191.0003659999999
 31
0.000000000000000
  0
LINE
  5
120
100
AcDbEntity
  8
1
  6
CONTINUOUS
 62
7
100
AcDbLine
 10
188.9999539999998
 20
52.64360400000001
 30
0.000000000000000
 11
188.9999539999998
 21
54.54634099999999
 31
0.000000000000000
  0
LINE
  5
121
100
AcDbEntity
  8
1
  6
CONTINUOUS
 62
7
100
AcDbLine
 10
188.9999539999998
 20
75.45365900000000
 30
0.000000000000000
 11
188.9999539999998
 21
77.35639200000000
 31
0.000000000000000
  0
CIRCLE
  5
122
100
AcDbEntity
  8
1
  6
CONTINUOUS
 62
7
100
AcDbCircle
 10
49.00000000000000
 20
386.0003659999999
 30
0.000000000000000
 40
4.500000000000000
  0
ARC
  5
123
100
AcDbEntity
  8
1
  6
CONTINUOUS
 62
7
100
AcDbCircle
 10
462.5000609999998
 20
195.5003659999999
 30
0.000000000000000
 40
1.500000000000000
100
AcDbArc
 50
0.000000000000000
 51
90.00000300000002
  0
ARC
  5
124
100
AcDbEntity
  8
1
  6
CONTINUOUS
 62
7
100
AcDbCircle
 10
462.5000609999998
 20
186.5003659999999
 30
0.000000000000000
 40
1.500000000000000
100
AcDbArc
 50
269.9999969999999
 51
360.0000000000000
  0
ARC
  5
125
100
AcDbEntity
  8
1
  6
CONTINUOUS
 62
7
100
AcDbCircle
 10
462.5000609999998
 20
184.0003659999999
 30
0.000000000000000
 40
1.000000000000000
100
AcDbArc
 50
90.00000300000002
 51
180.0000050000000
  0
ARC
  5
126
100
AcDbEntity
  8
1
  6
CONTINUOUS
 62
7
100
AcDbCircle
 10
462.5000609999998
 20
198.0003659999999
 30
0.000000000000000
 40
1.000000000000000
100
AcDbArc
 50
179.9999909999999
 51
270.0000010000000
  0
CIRCLE
  5
127
100
AcDbEntity
  8
1
  6
CONTINUOUS
 62
7
100
AcDbCircle
 10
469.0000610000000
 20
191.0003659999999
 30
0.000000000000000
 40
1.750000000000000
  0
CIRCLE
  5
128
100
AcDbEntity
  8
1
  6
CONTINUOUS
 62
7
100
AcDbCircle
 10
469.0000610000000
 20
304.0003659999999
 30
0.000000000000000
 40
3.250000000000000
  0
ARC
  5
129
100
AcDbEntity
  8
1
  6
CONTINUOUS
 62
7
100
AcDbCircle
 10
192.9999540000000
 20
514.5003659999998
 30
0.000000000000000
 40
1.000000000000000
100
AcDbArc
 50
0.000000000000000
 51
90.00000300000002
  0
ARC
  5
12A
100
AcDbEntity
  8
1
  6
CONTINUOUS
 62
7
100
AcDbCircle
 10
192.9999540000000
 20
497.5003360000000
 30
0.000000000000000
 40
1.000000000000000
100
AcDbArc
 50
269.9999969999999
 51
360.0000000000000
  0
ARC
  5
12B
100
AcDbEntity
  8
1
  6
CONTINUOUS
 62
7
100
AcDbCircle
 10
40.70910300000000
 20
283.0018620000000
 30
0.000000000000000
 40
4.000000000000000
100
AcDbArc
 50
218.8130640000000
 51
252.4056349999999
  0
ARC
  5
12C
100
AcDbEntity
  8
1
  6
CONTINUOUS
 62
7
100
AcDbCircle
 10
38.56631900000000
 20
281.2782290000000
 30
0.000000000000000
 40
1.250000000000000
100
AcDbArc
 50
109.8000929999999
 51
218.8130600000000
  0
ARC
  5
12D
100
AcDbEntity
  8
1
  6
CONTINUOUS
 62
7
100
AcDbCircle
 10
474.2000430000000
 20
383.5003659999999
 30
0.000000000000000
 40
2.000000000000000
100
AcDbArc
 50
233.1300970000000
 51
299.9999980000000
  0
ARC
  5
12E
100
AcDbEntity
  8
1
  6
CONTINUOUS
 62
7
100
AcDbCircle
 10
474.2000430000000
 20
388.5003659999999
 30
0.000000000000000
 40
2.000000000000000
100
AcDbArc
 50
60.00000200000001
 51
126.8699030000000
  0
ARC
  5
12F
100
AcDbEntity
  8
1
  6
CONTINUOUS
 62
7
100
AcDbCircle
 10
469.2500610000000
 20
390.7503660000001
 30
0.000000000000000
 40
0.7500000000000000
100
AcDbArc
 50
0.000000000000000
 51
90.00000300000002
  0
ARC
  5
130
100
AcDbEntity
  8
1
  6
CONTINUOUS
 62
7
100
AcDbCircle
 10
469.2500610000000
 20
381.2503659999999
 30
0.000000000000000
 40
0.7500000000000000
100
AcDbArc
 50
269.9999969999999
 51
360.0000000000000
  0
ARC
  5
131
100
AcDbEntity
  8
1
  6
CONTINUOUS
 62
7
100
AcDbCircle
 10
31.00000000000000
 20
171.0003659999999
 30
0.000000000000000
 40
6.000000000000000
100
AcDbArc
 50
90.00000300000002
 51
270.0000010000000
  0
ARC
  5
132
100
AcDbEntity
  8
1
  6
CONTINUOUS
 62
7
100
AcDbCircle
 10
67.00000000000000
 20
171.0003659999999
 30
0.000000000000000
 40
6.000000000000000
100
AcDbArc
 50
269.9999969999999
 51
453.7830120000000
  0
ARC
  5
133
100
AcDbEntity
  8
1
  6
CONTINUOUS
 62
7
100
AcDbCircle
 10
49.00000000000000
 20
386.0003659999999
 30
0.000000000000000
 40
7.000000000000000
100
AcDbArc
 50
31.00272000000001
 51
148.9972850000000
  0
ARC
  5
134
100
AcDbEntity
  8
1
  6
CONTINUOUS
 62
7
100
AcDbCircle
 10
36.34991500000000
 20
404.0003659999999
 30
0.000000000000000
 40
2.000000000000000
100
AcDbArc
 50
10.95179499999999
 51
14.47751099999998
  0
ARC
  5
135
100
AcDbEntity
  8
1
  6
CONTINUOUS
 62
7
100
AcDbCircle
 10
61.65008499999999
 20
404.0003659999999
 30
0.000000000000000
 40
2.000000000000000
100
AcDbArc
 50
165.5224900000000
 51
169.0482059999999
  0
ARC
  5
136
100
AcDbEntity
  8
5
  6
PHANTOM
 62
1
100
AcDbCircle
 10
61.65008499999999
 20
342.0003659999999
 30
0.000000000000000
 40
2.000000000000000
100
AcDbArc
 50
165.5224900000000
 51
169.0482059999999
  0
CIRCLE
  5
137
100
AcDbEntity
  8
5
  6
PHANTOM
 62
1
100
AcDbCircle
 10
49.00000000000000
 20
324.0003659999999
 30
0.000000000000000
 40
4.500000000000000
  0
ARC
  5
138
100
AcDbEntity
  8
5
  6
PHANTOM
 62
1
100
AcDbCircle
 10
36.34991500000000
 20
342.0003659999999
 30
0.000000000000000
 40
2.000000000000000
100
AcDbArc
 50
10.95179499999999
 51
14.47751099999998
  0
ARC
  5
139
100
AcDbEntity
  8
5
  6
PHANTOM
 62
1
100
AcDbCircle
 10
49.00000000000000
 20
324.0003659999999
 30
0.000000000000000
 40
7.000000000000000
100
AcDbArc
 50
190.9517940000000
 51
349.0482049999999
  0
ARC
  5
13A
100
AcDbEntity
  8
1
  6
CONTINUOUS
 62
7
100
AcDbCircle
 10
31.60000000000000
 20
171.0003659999999
 30
0.000000000000000
 40
1.850000000000000
100
AcDbArc
 50
90.00000000000000
 51
270.0000000000000
  0
CIRCLE
  5
13B
100
AcDbEntity
  8
1
  6
CONTINUOUS
 62
7
100
AcDbCircle
 10
49.00000000000000
 20
171.0003659999999
 30
0.000000000000000
 40
1.850000000000000
  0
ARC
  5
13C
100
AcDbEntity
  8
1
  6
CONTINUOUS
 62
7
100
AcDbCircle
 10
49.31250000000000
 20
304.0003659999999
 30
0.000000000000000
 40
10.81250000000000
100
AcDbArc
 50
162.5076719999999
 51
174.6933850000000
  0
ARC
  5
13D
100
AcDbEntity
  8
1
  6
CONTINUOUS
 62
7
100
AcDbCircle
 10
49.31250000000000
 20
304.0003659999999
 30
0.000000000000000
 40
10.81250000000000
100
AcDbArc
 50
185.3066150000000
 51
197.4923279999999
  0
ARC
  5
13E
100
AcDbEntity
  8
1
  6
CONTINUOUS
 62
7
100
AcDbCircle
 10
48.68750000000000
 20
304.0003659999999
 30
0.000000000000000
 40
10.81250000000000
100
AcDbArc
 50
5.306614999999998
 51
17.49232400000000
  0
ARC
  5
13F
100
AcDbEntity
  8
1
  6
CONTINUOUS
 62
7
100
AcDbCircle
 10
48.68750000000000
 20
304.0003659999999
 30
0.000000000000000
 40
10.81250000000000
100
AcDbArc
 50
342.5076760000000
 51
354.6933849999998
  0
CIRCLE
  5
140
100
AcDbEntity
  8
1
  6
CONTINUOUS
 62
7
100
AcDbCircle
 10
469.0000610000000
 20
304.0003659999999
 30
0.000000000000000
 40
1.000000000000000
  0
ARC
  5
141
100
AcDbEntity
  8
1
  6
CONTINUOUS
 62
7
100
AcDbCircle
 10
188.9999539999998
 20
505.6878360000000
 30
0.000000000000000
 40
10.81250000000000
100
AcDbArc
 50
72.50767600000000
 51
82.02573599999999
  0
ARC
  5
142
100
AcDbEntity
  8
1
  6
CONTINUOUS
 62
7
100
AcDbCircle
 10
188.9999539999998
 20
506.3128360000000
 30
0.000000000000000
 40
10.81250000000000
100
AcDbArc
 50
277.9742640000000
 51
287.4923239999999
  0
ARC
  5
143
100
AcDbEntity
  8
1
  6
CONTINUOUS
 62
7
100
AcDbCircle
 10
31.60310900000001
 20
180.0003659999999
 30
0.000000000000000
 40
3.000000000000000
100
AcDbArc
 50
269.9999969999999
 51
334.6100810000000
  0
ARC
  5
144
100
AcDbEntity
  8
1
  6
CONTINUOUS
 62
7
100
AcDbCircle
 10
66.40619699999999
 20
179.9807590000000
 30
0.000000000000000
 40
3.000000000000000
100
AcDbArc
 50
205.3899250000000
 51
273.7830070000000
  0
CIRCLE
  5
145
100
AcDbEntity
  8
5
  6
PHANTOM
 62
1
100
AcDbCircle
 10
49.00000000000000
 20
398.0003659999999
 30
0.000000000000000
 40
4.500000000000000
  0
ARC
  5
146
100
AcDbEntity
  8
1
  6
CONTINUOUS
 62
7
100
AcDbCircle
 10
49.00000000000000
 20
386.0003659999999
 30
0.000000000000000
 40
7.000000000000000
100
AcDbArc
 50
190.9517940000000
 51
211.0027149999999
  0
CIRCLE
  5
147
100
AcDbEntity
  8
1
  6
CONTINUOUS
 62
7
100
AcDbCircle
 10
188.9999539999998
 20
304.0003659999999
 30
0.000000000000000
 40
1.000000000000000
  0
ARC
  5
148
100
AcDbEntity
  8
1
  6
CONTINUOUS
 62
7
100
AcDbCircle
 10
188.7499540000000
 20
381.2503659999999
 30
0.000000000000000
 40
0.7500000000000000
100
AcDbArc
 50
180.0000050000000
 51
270.0000010000000
  0
ARC
  5
149
100
AcDbEntity
  8
1
  6
CONTINUOUS
 62
7
100
AcDbCircle
 10
188.7499540000000
 20
390.7503660000001
 30
0.000000000000000
 40
0.7500000000000000
100
AcDbArc
 50
90.00000300000002
 51
180.0000050000000
  0
ARC
  5
14A
100
AcDbEntity
  8
1
  6
CONTINUOUS
 62
7
100
AcDbCircle
 10
183.7999570000000
 20
388.5003659999999
 30
0.000000000000000
 40
2.000000000000000
100
AcDbArc
 50
53.13010200000000
 51
120.0000029999998
  0
ARC
  5
14B
100
AcDbEntity
  8
1
  6
CONTINUOUS
 62
7
100
AcDbCircle
 10
183.7999570000000
 20
383.5003659999999
 30
0.000000000000000
 40
2.000000000000000
100
AcDbArc
 50
239.9999970000000
 51
306.8698979999999
  0
CIRCLE
  5
14C
100
AcDbEntity
  8
1
  6
CONTINUOUS
 62
7
100
AcDbCircle
 10
188.9999539999998
 20
304.0003659999999
 30
0.000000000000000
 40
3.250000000000000
  0
CIRCLE
  5
14D
100
AcDbEntity
  8
1
  6
CONTINUOUS
 62
7
100
AcDbCircle
 10
188.9999539999998
 20
191.0003659999999
 30
0.000000000000000
 40
1.750000000000000
  0
ARC
  5
14E
100
AcDbEntity
  8
1
  6
CONTINUOUS
 62
7
100
AcDbCircle
 10
195.4999540000000
 20
198.0003659999999
 30
0.000000000000000
 40
1.000000000000000
100
AcDbArc
 50
269.9999969999999
 51
360.0000000000000
  0
ARC
  5
14F
100
AcDbEntity
  8
1
  6
CONTINUOUS
 62
7
100
AcDbCircle
 10
195.4999540000000
 20
184.0003659999999
 30
0.000000000000000
 40
1.000000000000000
100
AcDbArc
 50
0.000000000000000
 51
90.00000300000002
  0
ARC
  5
150
100
AcDbEntity
  8
1
  6
CONTINUOUS
 62
7
100
AcDbCircle
 10
195.4999540000000
 20
186.5003659999999
 30
0.000000000000000
 40
1.500000000000000
100
AcDbArc
 50
180.0000050000000
 51
270.0000010000000
  0
ARC
  5
151
100
AcDbEntity
  8
1
  6
CONTINUOUS
 62
7
100
AcDbCircle
 10
195.4999540000000
 20
195.5003659999999
 30
0.000000000000000
 40
1.500000000000000
100
AcDbArc
 50
90.00000300000002
 51
180.0000050000000
  0
CIRCLE
  5
152
100
AcDbEntity
  8
5
  6
PHANTOM
 62
1
100
AcDbCircle
 10
328.9999080000000
 20
398.0003659999999
 30
0.000000000000000
 40
4.500000000000000
  0
ARC
  5
153
100
AcDbEntity
  8
1
  6
CONTINUOUS
 62
7
100
AcDbCircle
 10
311.5936889999999
 20
179.9807590000000
 30
0.000000000000000
 40
3.000000000000000
100
AcDbArc
 50
266.2169950000001
 51
334.6100810000000
  0
ARC
  5
154
100
AcDbEntity
  8
1
  6
CONTINUOUS
 62
7
100
AcDbCircle
 10
346.3967900000000
 20
180.0003659999999
 30
0.000000000000000
 40
3.000000000000000
100
AcDbArc
 50
205.3899250000000
 51
269.9999969999999
  0
ARC
  5
155
100
AcDbEntity
  8
1
  6
CONTINUOUS
 62
7
100
AcDbCircle
 10
328.9999080000000
 20
191.0003659999999
 30
0.000000000000000
 40
8.000000000000000
100
AcDbArc
 50
25.37899499999999
 51
154.6100749999999
  0
ARC
  5
156
100
AcDbEntity
  8
1
  6
CONTINUOUS
 62
7
100
AcDbCircle
 10
329.3124080000000
 20
304.0003659999999
 30
0.000000000000000
 40
10.81250000000000
100
AcDbArc
 50
185.3066150000000
 51
197.4923279999999
  0
ARC
  5
157
100
AcDbEntity
  8
1
  6
CONTINUOUS
 62
7
100
AcDbCircle
 10
329.3124080000000
 20
304.0003659999999
 30
0.000000000000000
 40
10.81250000000000
100
AcDbArc
 50
162.5076719999999
 51
174.6933850000000
  0
ARC
  5
158
100
AcDbEntity
  8
1
  6
CONTINUOUS
 62
7
100
AcDbCircle
 10
328.6874080000000
 20
304.0003659999999
 30
0.000000000000000
 40
10.81250000000000
100
AcDbArc
 50
342.5076760000000
 51
354.6933849999998
  0
ARC
  5
159
100
AcDbEntity
  8
1
  6
CONTINUOUS
 62
7
100
AcDbCircle
 10
328.6874080000000
 20
304.0003659999999
 30
0.000000000000000
 40
10.81250000000000
100
AcDbArc
 50
5.306614999999998
 51
17.49232400000000
  0
CIRCLE
  5
15A
100
AcDbEntity
  8
1
  6
CONTINUOUS
 62
7
100
AcDbCircle
 10
328.9999080000000
 20
171.0003659999999
 30
0.000000000000000
 40
1.850000000000000
  0
ARC
  5
15B
100
AcDbEntity
  8
5
  6
PHANTOM
 62
1
100
AcDbCircle
 10
328.9999080000000
 20
324.0003659999999
 30
0.000000000000000
 40
7.000000000000000
100
AcDbArc
 50
190.9517940000000
 51
349.0482049999999
  0
ARC
  5
15C
100
AcDbEntity
  8
5
  6
PHANTOM
 62
1
100
AcDbCircle
 10
341.6499940000000
 20
342.0003659999999
 30
0.000000000000000
 40
2.000000000000000
100
AcDbArc
 50
165.5224900000000
 51
169.0482059999999
  0
CIRCLE
  5
15D
100
AcDbEntity
  8
5
  6
PHANTOM
 62
1
100
AcDbCircle
 10
328.9999080000000
 20
324.0003659999999
 30
0.000000000000000
 40
4.500000000000000
  0
ARC
  5
15E
100
AcDbEntity
  8
1
  6
CONTINUOUS
 62
7
100
AcDbCircle
 10
316.3498230000000
 20
404.0003659999999
 30
0.000000000000000
 40
2.000000000000000
100
AcDbArc
 50
10.95179499999999
 51
14.47751099999998
  0
ARC
  5
15F
100
AcDbEntity
  8
1
  6
CONTINUOUS
 62
7
100
AcDbCircle
 10
341.6499940000000
 20
404.0003659999999
 30
0.000000000000000
 40
2.000000000000000
100
AcDbArc
 50
165.5224900000000
 51
169.0482059999999
  0
ARC
  5
160
100
AcDbEntity
  8
1
  6
CONTINUOUS
 62
7
100
AcDbCircle
 10
310.9999080000000
 20
171.0003659999999
 30
0.000000000000000
 40
6.000000000000000
100
AcDbArc
 50
86.21699300000004
 51
270.0000010000000
  0
ARC
  5
161
100
AcDbEntity
  8
1
  6
CONTINUOUS
 62
7
100
AcDbCircle
 10
346.9999080000000
 20
171.0003659999999
 30
0.000000000000000
 40
6.000000000000000
100
AcDbArc
 50
269.9999969999999
 51
450.0000030000000
  0
ARC
  5
162
100
AcDbEntity
  8
1
  6
CONTINUOUS
 62
7
100
AcDbCircle
 10
328.9999080000000
 20
386.0003659999999
 30
0.000000000000000
 40
7.000000000000000
100
AcDbArc
 50
190.9362070000000
 51
349.0482039999998
  0
ARC
  5
163
100
AcDbEntity
  8
1
  6
CONTINUOUS
 62
7
100
AcDbCircle
 10
339.4335939999999
 20
281.2782290000000
 30
0.000000000000000
 40
1.250000000000000
100
AcDbArc
 50
321.1869340000000
 51
430.1999060000000
  0
ARC
  5
164
100
AcDbEntity
  8
1
  6
CONTINUOUS
 62
7
100
AcDbCircle
 10
337.2908020000000
 20
283.0018620000000
 30
0.000000000000000
 40
4.000000000000000
100
AcDbArc
 50
287.5943669999998
 51
321.1869340000000
  0
CIRCLE
  5
165
100
AcDbEntity
  8
1
  6
CONTINUOUS
 62
7
100
AcDbCircle
 10
328.9999080000000
 20
191.0003659999999
 30
0.000000000000000
 40
4.500000000000000
  0
CIRCLE
  5
166
100
AcDbEntity
  8
1
  6
CONTINUOUS
 62
7
100
AcDbCircle
 10
328.9999080000000
 20
386.0003659999999
 30
0.000000000000000
 40
4.500000000000000
  0
ARC
  5
167
100
AcDbEntity
  8
1
  6
CONTINUOUS
 62
7
100
AcDbCircle
 10
341.2374570000000
 20
404.5003659999999
 30
0.000000000000000
 40
1.500000000000000
100
AcDbArc
 50
90.00000300000002
 51
169.0482059999999
  0
ARC
  5
168
100
AcDbEntity
  8
1
  6
CONTINUOUS
 62
7
100
AcDbCircle
 10
316.7623290000000
 20
404.5003659999999
 30
0.000000000000000
 40
1.500000000000000
100
AcDbArc
 50
10.95179399999999
 51
90.00000300000002
  0
ARC
  5
169
100
AcDbEntity
  8
1
  6
CONTINUOUS
 62
7
100
AcDbCircle
 10
330.4999079999999
 20
304.0003659999999
 30
0.000000000000000
 40
0.5000000000000000
100
AcDbArc
 50
0.000000000000000
 51
90.00000300000002
  0
ARC
  5
16A
100
AcDbEntity
  8
1
  6
CONTINUOUS
 62
7
100
AcDbCircle
 10
330.4999079999999
 20
298.0003659999999
 30
0.000000000000000
 40
0.5000000000000000
100
AcDbArc
 50
269.9999969999999
 51
360.0000000000000
  0
ARC
  5
16B
100
AcDbEntity
  8
1
  6
CONTINUOUS
 62
7
100
AcDbCircle
 10
327.4999080000000
 20
298.0003659999999
 30
0.000000000000000
 40
0.5000000000000000
100
AcDbArc
 50
179.9999909999999
 51
270.0000010000000
  0
ARC
  5
16C
100
AcDbEntity
  8
1
  6
CONTINUOUS
 62
7
100
AcDbCircle
 10
327.4999080000000
 20
304.0003659999999
 30
0.000000000000000
 40
0.5000000000000000
100
AcDbArc
 50
90.00000300000002
 51
180.0000050000000
  0
ARC
  5
16D
100
AcDbEntity
  8
1
  6
CONTINUOUS
 62
7
100
AcDbCircle
 10
174.4999540000000
 20
494.0003360000000
 30
0.000000000000000
 40
3.000000000000000
100
AcDbArc
 50
179.9999909999999
 51
270.0000010000000
  0
ARC
  5
16E
100
AcDbEntity
  8
1
  6
CONTINUOUS
 62
7
100
AcDbCircle
 10
174.4999540000000
 20
518.0003659999998
 30
0.000000000000000
 40
3.000000000000000
100
AcDbArc
 50
90.00000300000002
 51
180.0000050000000
  0
ARC
  5
16F
100
AcDbEntity
  8
1
  6
CONTINUOUS
 62
7
100
AcDbCircle
 10
185.9999540000000
 20
494.0003360000000
 30
0.000000000000000
 40
3.000000000000000
100
AcDbArc
 50
269.9999969999999
 51
348.9529269999998
  0
ARC
  5
170
100
AcDbEntity
  8
1
  6
CONTINUOUS
 62
7
100
AcDbCircle
 10
190.9073030000000
 20
518.9584350000000
 30
0.000000000000000
 40
2.000000000000000
100
AcDbArc
 50
191.0470749999999
 51
258.2480419999999
  0
ARC
  5
171
100
AcDbEntity
  8
1
  6
CONTINUOUS
 62
7
100
AcDbCircle
 10
190.9073030000000
 20
493.0422669999998
 30
0.000000000000000
 40
2.000000000000000
100
AcDbArc
 50
101.7519579999998
 51
168.9529249999999
  0
ARC
  5
172
100
AcDbEntity
  8
1
  6
CONTINUOUS
 62
7
100
AcDbCircle
 10
185.9999540000000
 20
518.0003659999998
 30
0.000000000000000
 40
3.000000000000000
100
AcDbArc
 50
11.04707300000000
 51
90.00000300000002
  0
ARC
  5
173
100
AcDbEntity
  8
1
  6
CONTINUOUS
 62
7
100
AcDbCircle
 10
469.0000610000000
 20
404.5003659999999
 30
0.000000000000000
 40
1.500000000000000
100
AcDbArc
 50
90.00000300000002
 51
180.0000050000000
  0
ARC
  5
174
100
AcDbEntity
  8
1
  6
CONTINUOUS
 62
7
100
AcDbCircle
 10
188.9999539999998
 20
64.68750000000000
 30
0.000000000000000
 40
10.81250000000000
100
AcDbArc
 50
95.30661600000001
 51
107.4923220000000
  0
ARC
  5
175
100
AcDbEntity
  8
1
  6
CONTINUOUS
 62
7
100
AcDbCircle
 10
188.9999539999998
 20
64.68750000000000
 30
0.000000000000000
 40
10.81250000000000
100
AcDbArc
 50
72.50767600000000
 51
84.69338900000000
  0
ARC
  5
176
100
AcDbEntity
  8
1
  6
CONTINUOUS
 62
7
100
AcDbCircle
 10
188.9999539999998
 20
65.31250000000000
 30
0.000000000000000
 40
10.81250000000000
100
AcDbArc
 50
252.5076780000000
 51
264.6933839999999
  0
ARC
  5
177
100
AcDbEntity
  8
1
  6
CONTINUOUS
 62
7
100
AcDbCircle
 10
188.9999539999998
 20
65.31250000000000
 30
0.000000000000000
 40
10.81250000000000
100
AcDbArc
 50
275.3066170000000
 51
287.4923239999999
  0
ARC
  5
178
100
AcDbEntity
  8
1
  6
CONTINUOUS
 62
7
100
AcDbCircle
 10
192.9999540000000
 20
73.50000000000000
 30
0.000000000000000
 40
1.000000000000000
100
AcDbArc
 50
0.000000000000000
 51
90.00000300000002
  0
ARC
  5
179
100
AcDbEntity
  8
1
  6
CONTINUOUS
 62
7
100
AcDbCircle
 10
184.9999539999998
 20
73.50000000000000
 30
0.000000000000000
 40
1.000000000000000
100
AcDbArc
 50
90.00000300000002
 51
180.0000050000000
  0
ARC
  5
17A
100
AcDbEntity
  8
1
  6
CONTINUOUS
 62
7
100
AcDbCircle
 10
184.9999539999998
 20
56.50000000000000
 30
0.000000000000000
 40
1.000000000000000
100
AcDbArc
 50
180.0000050000000
 51
270.0000010000000
  0
ARC
  5
17B
100
AcDbEntity
  8
1
  6
CONTINUOUS
 62
7
100
AcDbCircle
 10
192.9999540000000
 20
56.50000000000000
 30
0.000000000000000
 40
1.000000000000000
100
AcDbArc
 50
269.9999969999999
 51
360.0000000000000
  0
ARC
  5
17C
100
AcDbEntity
  8
1
  6
CONTINUOUS
 62
7
100
AcDbCircle
 10
183.9999539999998
 20
62.50000000000000
 30
0.000000000000000
 40
2.000000000000000
100
AcDbArc
 50
239.9999970000000
 51
269.9999969999999
  0
ARC
  5
17D
100
AcDbEntity
  8
1
  6
CONTINUOUS
 62
7
100
AcDbCircle
 10
183.9999539999998
 20
67.50000000000000
 30
0.000000000000000
 40
2.000000000000000
100
AcDbArc
 50
90.00000300000002
 51
120.0000029999998
  0
ARC
  5
17E
100
AcDbEntity
  8
1
  6
CONTINUOUS
 62
7
100
AcDbCircle
 10
174.4999540000000
 20
77.00000000000000
 30
0.000000000000000
 40
3.000000000000000
100
AcDbArc
 50
90.00000300000002
 51
180.0000050000000
  0
ARC
  5
17F
100
AcDbEntity
  8
1
  6
CONTINUOUS
 62
7
100
AcDbCircle
 10
174.4999540000000
 20
53.00000000000000
 30
0.000000000000000
 40
3.000000000000000
100
AcDbArc
 50
180.0000050000000
 51
270.0000010000000
  0
ARC
  5
180
100
AcDbEntity
  8
1
  6
CONTINUOUS
 62
7
100
AcDbCircle
 10
185.9999540000000
 20
77.00000000000000
 30
0.000000000000000
 40
3.000000000000000
100
AcDbArc
 50
11.04707300000000
 51
90.00000300000002
  0
ARC
  5
181
100
AcDbEntity
  8
1
  6
CONTINUOUS
 62
7
100
AcDbCircle
 10
190.9073030000000
 20
52.04192400000000
 30
0.000000000000000
 40
2.000000000000000
100
AcDbArc
 50
101.7519579999998
 51
168.9529249999999
  0
ARC
  5
182
100
AcDbEntity
  8
1
  6
CONTINUOUS
 62
7
100
AcDbCircle
 10
190.9073030000000
 20
77.95807600000001
 30
0.000000000000000
 40
2.000000000000000
100
AcDbArc
 50
191.0470749999999
 51
258.2480419999999
  0
ARC
  5
183
100
AcDbEntity
  8
1
  6
CONTINUOUS
 62
7
100
AcDbCircle
 10
185.9999540000000
 20
53.00000000000000
 30
0.000000000000000
 40
3.000000000000000
100
AcDbArc
 50
269.9999969999999
 51
348.9529269999998
  0
ARC
  5
184
100
AcDbEntity
  8
1
  6
CONTINUOUS
 62
7
100
AcDbCircle
 10
49.00000000000000
 20
386.0003659999999
 30
0.000000000000000
 40
7.000000000000000
100
AcDbArc
 50
328.9972800000000
 51
349.0637920000000
  0
CIRCLE
  5
185
100
AcDbEntity
  8
1
  6
CONTINUOUS
 62
7
100
AcDbCircle
 10
328.9999080000000
 20
386.0003659999999
 30
0.000000000000000
 40
2.500000000000000
  0
CIRCLE
  5
186
100
AcDbEntity
  8
1
  6
CONTINUOUS
 62
7
100
AcDbCircle
 10
328.9999080000000
 20
191.0003659999999
 30
0.000000000000000
 40
2.500000000000000
  0
ARC
  5
187
100
AcDbEntity
  8
1
  6
CONTINUOUS
 62
7
100
AcDbCircle
 10
188.9999539999998
 20
404.5003659999999
 30
0.000000000000000
 40
1.500000000000000
100
AcDbArc
 50
0.000000000000000
 51
90.00000300000002
  0
ARC
  5
188
100
AcDbEntity
  8
1
  6
CONTINUOUS
 62
7
100
AcDbCircle
 10
195.4999540000000
 20
72.00000000000000
 30
0.000000000000000
 40
1.000000000000000
100
AcDbArc
 50
269.9999969999999
 51
360.0000000000000
  0
ARC
  5
189
100
AcDbEntity
  8
1
  6
CONTINUOUS
 62
7
100
AcDbCircle
 10
195.4999540000000
 20
69.50000000000000
 30
0.000000000000000
 40
1.500000000000000
100
AcDbArc
 50
90.00000300000002
 51
180.0000050000000
  0
ARC
  5
18A
100
AcDbEntity
  8
1
  6
CONTINUOUS
 62
7
100
AcDbCircle
 10
195.4999540000000
 20
60.50000000000000
 30
0.000000000000000
 40
1.500000000000000
100
AcDbArc
 50
180.0000050000000
 51
270.0000010000000
  0
ARC
  5
18B
100
AcDbEntity
  8
1
  6
CONTINUOUS
 62
7
100
AcDbCircle
 10
195.4999540000000
 20
58.00000000000000
 30
0.000000000000000
 40
1.000000000000000
100
AcDbArc
 50
0.000000000000000
 51
90.00000300000002
  0
ARC
  5
18C
100
AcDbEntity
  8
1
  6
CONTINUOUS
 62
7
100
AcDbCircle
 10
195.4999540000000
 20
513.0003659999998
 30
0.000000000000000
 40
1.000000000000000
100
AcDbArc
 50
269.9999969999999
 51
360.0000000000000
  0
ARC
  5
18D
100
AcDbEntity
  8
1
  6
CONTINUOUS
 62
7
100
AcDbCircle
 10
195.4999540000000
 20
510.5003360000000
 30
0.000000000000000
 40
1.500000000000000
100
AcDbArc
 50
90.00000300000002
 51
180.0000050000000
  0
ARC
  5
18E
100
AcDbEntity
  8
1
  6
CONTINUOUS
 62
7
100
AcDbCircle
 10
195.4999540000000
 20
501.5003360000000
 30
0.000000000000000
 40
1.500000000000000
100
AcDbArc
 50
180.0000050000000
 51
270.0000010000000
  0
ARC
  5
18F
100
AcDbEntity
  8
1
  6
CONTINUOUS
 62
7
100
AcDbCircle
 10
195.4999540000000
 20
499.0003360000001
 30
0.000000000000000
 40
1.000000000000000
100
AcDbArc
 50
0.000000000000000
 51
90.00000300000002
  0
MTEXT
  5
190
100
AcDbEntity
  8
7
  6
CONTINUOUS
 62
7
100
AcDbMText
 10
10.00005000000000
 20
18.00000000000000
 30
0.000000000000000
 40
3.000000000000000
 41
0.000000000000000
 44
0.6739999771118164
 71
     7
 72
     1
  1
{\H0.94x;{TYPE No.TM-209-1}}
 11
1.000000000000000
 21
0.000000000000000
 31
0.000000000000000
  7
STANDARD
  0
ARC
  5
191
100
AcDbEntity
  8
1
  6
CONTINUOUS
 62
7
100
AcDbCircle
 10
36.39999999999987
 20
171.0003659999999
 30
0.000000000000000
 40
1.850000000000000
100
AcDbArc
 50
270.0000000000000
 51
450.0000000000000
  0
ARC
  5
192
100
AcDbEntity
  8
1
  6
CONTINUOUS
 62
7
100
AcDbCircle
 10
61.60000000000000
 20
171.0003659999999
 30
0.000000000000000
 40
1.850000000000000
100
AcDbArc
 50
90.00000000000000
 51
270.0000000000000
  0
LINE
  5
193
100
AcDbEntity
  8
1
  6
CONTINUOUS
 62
7
100
AcDbLine
 10
61.60000000000000
 20
172.8503719999999
 30
0.000000000000000
 11
66.39999999999986
 21
172.8503719999999
 31
0.000000000000000
  0
ARC
  5
194
100
AcDbEntity
  8
1
  6
CONTINUOUS
 62
7
100
AcDbCircle
 10
66.39999999999986
 20
171.0003659999999
 30
0.000000000000000
 40
1.850000000000000
100
AcDbArc
 50
270.0000000000000
 51
450.0000000000000
  0
LINE
  5
195
100
AcDbEntity
  8
1
  6
CONTINUOUS
 62
7
100
AcDbLine
 10
61.60000000000000
 20
169.1503750000000
 30
0.000000000000000
 11
66.39999999999986
 21
169.1503750000000
 31
0.000000000000000
  0
ARC
  5
196
100
AcDbEntity
  8
1
  6
CONTINUOUS
 62
7
100
AcDbCircle
 10
311.5999080000000
 20
171.0003659999999
 30
0.000000000000000
 40
1.850000000000000
100
AcDbArc
 50
90.00000000000000
 51
270.0000000000000
  0
LINE
  5
197
100
AcDbEntity
  8
1
  6
CONTINUOUS
 62
7
100
AcDbLine
 10
311.5999080000000
 20
169.1503750000000
 30
0.000000000000000
 11
316.3999079999999
 21
169.1503750000000
 31
0.000000000000000
  0
LINE
  5
198
100
AcDbEntity
  8
1
  6
CONTINUOUS
 62
7
100
AcDbLine
 10
311.5999080000000
 20
172.8503719999999
 30
0.000000000000000
 11
316.3999079999999
 21
172.8503719999999
 31
0.000000000000000
  0
ARC
  5
199
100
AcDbEntity
  8
1
  6
CONTINUOUS
 62
7
100
AcDbCircle
 10
316.3999079999999
 20
171.0003659999999
 30
0.000000000000000
 40
1.850000000000000
100
AcDbArc
 50
270.0000000000000
 51
450.0000000000000
  0
ARC
  5
19A
100
AcDbEntity
  8
1
  6
CONTINUOUS
 62
7
100
AcDbCircle
 10
341.5999080000000
 20
171.0003659999999
 30
0.000000000000000
 40
1.850000000000000
100
AcDbArc
 50
90.00000000000000
 51
270.0000000000000
  0
ARC
  5
19B
100
AcDbEntity
  8
1
  6
CONTINUOUS
 62
7
100
AcDbCircle
 10
346.3999079999999
 20
171.0003659999999
 30
0.000000000000000
 40
1.850000000000000
100
AcDbArc
 50
270.0000000000000
 51
450.0000000000000
  0
LINE
  5
19C
100
AcDbEntity
  8
1
  6
CONTINUOUS
 62
7
100
AcDbLine
 10
341.5999080000000
 20
172.8503719999999
 30
0.000000000000000
 11
346.3999079999999
 21
172.8503719999999
 31
0.000000000000000
  0
LINE
  5
19D
100
AcDbEntity
  8
1
  6
CONTINUOUS
 62
7
100
AcDbLine
 10
341.5999080000000
 20
169.1503750000000
 30
0.000000000000000
 11
346.3999079999999
 21
169.1503750000000
 31
0.000000000000000
  0
LINE
  5
19E
100
AcDbEntity
  8
1
  6
CONTINUOUS
 62
7
100
AcDbLine
 10
182.3999539999996
 20
76.84999099999983
 30
0.000000000000000
 11
177.5999539999998
 21
76.84999099999983
 31
0.000000000000000
  0
ARC
  5
19F
100
AcDbEntity
  8
1
  6
CONTINUOUS
 62
7
100
AcDbCircle
 10
182.3999539999997
 20
74.99999999999993
 30
0.000000000000000
 40
1.850000000000000
100
AcDbArc
 50
270.0000000000000
 51
450.0000000000000
  0
LINE
  5
1A0
100
AcDbEntity
  8
1
  6
CONTINUOUS
 62
7
100
AcDbLine
 10
182.3999539999996
 20
73.14999399999992
 30
0.000000000000000
 11
177.5999539999998
 21
73.14999399999992
 31
0.000000000000000
  0
ARC
  5
1A1
100
AcDbEntity
  8
1
  6
CONTINUOUS
 62
7
100
AcDbCircle
 10
177.5999539999999
 20
74.99999999999993
 30
0.000000000000000
 40
1.850000000000000
100
AcDbArc
 50
90.00000000000000
 51
270.0000000000000
  0
LINE
  5
1A2
100
AcDbEntity
  8
1
  6
CONTINUOUS
 62
7
100
AcDbLine
 10
182.3999539999997
 20
56.84999099999985
 30
0.000000000000000
 11
177.5999539999998
 21
56.84999099999985
 31
0.000000000000000
  0
ARC
  5
1A3
100
AcDbEntity
  8
1
  6
CONTINUOUS
 62
7
100
AcDbCircle
 10
182.3999539999997
 20
54.99999999999994
 30
0.000000000000000
 40
1.850000000000000
100
AcDbArc
 50
270.0000000000000
 51
450.0000000000000
  0
LINE
  5
1A4
100
AcDbEntity
  8
1
  6
CONTINUOUS
 62
7
100
AcDbLine
 10
182.3999539999997
 20
53.14999399999994
 30
0.000000000000000
 11
177.5999539999998
 21
53.14999399999994
 31
0.000000000000000
  0
ARC
  5
1A5
100
AcDbEntity
  8
1
  6
CONTINUOUS
 62
7
100
AcDbCircle
 10
177.5999539999999
 20
54.99999999999994
 30
0.000000000000000
 40
1.850000000000000
100
AcDbArc
 50
90.00000000000000
 51
270.0000000000000
  0
ARC
  5
1A6
100
AcDbEntity
  8
1
  6
CONTINUOUS
 62
7
100
AcDbCircle
 10
177.5999539999999
 20
496.0003659999999
 30
0.000000000000000
 40
1.850000000000000
100
AcDbArc
 50
90.00000000000000
 51
270.0000000000000
  0
LINE
  5
1A7
100
AcDbEntity
  8
1
  6
CONTINUOUS
 62
7
100
AcDbLine
 10
182.3999539999997
 20
494.1503600000000
 30
0.000000000000000
 11
177.5999539999998
 21
494.1503600000000
 31
0.000000000000000
  0
ARC
  5
1A8
100
AcDbEntity
  8
1
  6
CONTINUOUS
 62
7
100
AcDbCircle
 10
182.3999539999997
 20
496.0003659999999
 30
0.000000000000000
 40
1.850000000000000
100
AcDbArc
 50
270.0000000000000
 51
450.0000000000000
  0
LINE
  5
1A9
100
AcDbEntity
  8
1
  6
CONTINUOUS
 62
7
100
AcDbLine
 10
182.3999539999997
 20
497.8503569999999
 30
0.000000000000000
 11
177.5999539999998
 21
497.8503569999999
 31
0.000000000000000
  0
LINE
  5
1AA
100
AcDbEntity
  8
1
  6
CONTINUOUS
 62
7
100
AcDbLine
 10
182.3999539999996
 20
517.8503569999998
 30
0.000000000000000
 11
177.5999539999998
 21
517.8503569999998
 31
0.000000000000000
  0
ARC
  5
1AB
100
AcDbEntity
  8
1
  6
CONTINUOUS
 62
7
100
AcDbCircle
 10
177.5999539999999
 20
516.0003659999999
 30
0.000000000000000
 40
1.850000000000000
100
AcDbArc
 50
90.00000000000000
 51
270.0000000000000
  0
LINE
  5
1AC
100
AcDbEntity
  8
1
  6
CONTINUOUS
 62
7
100
AcDbLine
 10
182.3999539999996
 20
514.1503600000000
 30
0.000000000000000
 11
177.5999539999998
 21
514.1503600000000
 31
0.000000000000000
  0
ARC
  5
1AD
100
AcDbEntity
  8
1
  6
CONTINUOUS
 62
7
100
AcDbCircle
 10
182.3999539999997
 20
516.0003659999999
 30
0.000000000000000
 40
1.850000000000000
100
AcDbArc
 50
270.0000000000000
 51
450.0000000000000
  0
ENDSEC
  0
SECTION
  2
OBJECTS
  0
DICTIONARY
  5
1D7
100
AcDbDictionary
  3
ACAD_GROUP
350
1D8
  3
ACAD_LAYOUT
350
1D9
  3
ACAD_MLINESTYLE
350
1DA
  0
DICTIONARY
  5
1D8
102
{ACAD_REACTORS
330
1D7
102
}
330
1D7
100
AcDbDictionary
  0
DICTIONARY
  5
1D9
102
{ACAD_REACTORS
330
1D7
102
}
330
1D7
100
AcDbDictionary
  3
Model
350
1DB
  3
ﾚｲｱｳﾄ1
350
1DC
  3
ﾚｲｱｳﾄ2
350
1DD
  0
DICTIONARY
  5
1DA
102
{ACAD_REACTORS
330
1D7
102
}
330
1D7
100
AcDbDictionary
  3
STANDARD
350
1DE
  0
LAYOUT
  5
1DB
102
{ACAD_REACTORS
330
1D9
102
}
330
1D9
100
AcDbPlotSettings
 70
11952
  4
A3
 44
297.000000
 45
420.000000
 73
  1
 72
  1
100
AcDbLayout
  1
Model
 71
0
330
1CE
  0
LAYOUT
  5
1DC
102
{ACAD_REACTORS
330
1D9
102
}
330
1D9
100
AcDbPlotSettings
100
AcDbLayout
  1
ﾚｲｱｳﾄ1
 71
1
330
1CF
  0
LAYOUT
  5
1DD
102
{ACAD_REACTORS
330
1D9
102
}
330
1D9
100
AcDbPlotSettings
100
AcDbLayout
  1
ﾚｲｱｳﾄ2
 71
2
330
1D0
  0
MLINESTYLE
  5
1DE
102
{ACAD_REACTORS
330
1DA
102
}
330
1DA
100
AcDbMlineStyle
  2
STANDARD
 70
     0
  3

 62
   256
 51
90.00
 52
90.00
 71
     2
 49
0.50
 62
   256
  6
BYLAYER
 49
-0.50
 62
   256
  6
BYLAYER
  0
ENDSEC
  0
EOF
