  0
SECTION
  2
HEADER
  9
$ACADVER
  1
AC1015
  9
$ACADMAINTVER
 70
    20
  9
$DWGCODEPAGE
  3
ANSI_932
  9
$INSBASE
 10
0.0
 20
0.0
 30
0.0
  9
$EXTMIN
 10
10.0
 20
9.999999999999998
 30
0.0
  9
$EXTMAX
 10
697.5
 20
734.4999999999998
 30
0.0
  9
$LIMMIN
 10
0.0
 20
0.0
  9
$LIMMAX
 10
1108.8
 20
764.4
  9
$ORTHOMODE
 70
     1
  9
$REGENMODE
 70
     1
  9
$FILLMODE
 70
     1
  9
$QTEXTMODE
 70
     0
  9
$MIRRTEXT
 70
     1
  9
$LTSCALE
 40
20.0
  9
$ATTMODE
 70
     1
  9
$TEXTSIZE
 40
5.0
  9
$TRACEWID
 40
1.0
  9
$TEXTSTYLE
  7
STANDARD
  9
$CLAYER
  8
0
  9
$CELTYPE
  6
BYLAYER
  9
$CECOLOR
 62
   256
  9
$CELTSCALE
 40
1.0
  9
$DISPSILH
 70
     0
  9
$DIMSCALE
 40
1.0
  9
$DIMASZ
 40
2.5
  9
$DIMEXO
 40
1.0
  9
$DIMDLI
 40
10.0
  9
$DIMRND
 40
0.0
  9
$DIMDLE
 40
0.0
  9
$DIMEXE
 40
1.0
  9
$DIMTP
 40
0.0
  9
$DIMTM
 40
0.0
  9
$DIMTXT
 40
2.5
  9
$DIMCEN
 40
0.0
  9
$DIMTSZ
 40
0.0
  9
$DIMTOL
 70
     0
  9
$DIMLIM
 70
     0
  9
$DIMTIH
 70
     0
  9
$DIMTOH
 70
     0
  9
$DIMSE1
 70
     0
  9
$DIMSE2
 70
     0
  9
$DIMTAD
 70
     3
  9
$DIMZIN
 70
     8
  9
$DIMBLK
  1

  9
$DIMASO
 70
     1
  9
$DIMSHO
 70
     1
  9
$DIMPOST
  1

  9
$DIMAPOST
  1

  9
$DIMALT
 70
     0
  9
$DIMALTD
 70
     2
  9
$DIMALTF
 40
25.4
  9
$DIMLFAC
 40
1.0
  9
$DIMTOFL
 70
     1
  9
$DIMTVP
 40
0.0
  9
$DIMTIX
 70
     0
  9
$DIMSOXD
 70
     0
  9
$DIMSAH
 70
     1
  9
$DIMBLK1
  1

  9
$DIMBLK2
  1

  9
$DIMSTYLE
  2
STANDARD
  9
$DIMCLRD
 70
     0
  9
$DIMCLRE
 70
     0
  9
$DIMCLRT
 70
     0
  9
$DIMTFAC
 40
1.0
  9
$DIMGAP
 40
1.0
  9
$DIMJUST
 70
     0
  9
$DIMSD1
 70
     0
  9
$DIMSD2
 70
     0
  9
$DIMTOLJ
 70
     1
  9
$DIMTZIN
 70
     0
  9
$DIMALTZ
 70
     0
  9
$DIMALTTZ
 70
     0
  9
$DIMUPT
 70
     0
  9
$DIMDEC
 70
     4
  9
$DIMTDEC
 70
     4
  9
$DIMALTU
 70
     2
  9
$DIMALTTD
 70
     2
  9
$DIMTXSTY
  7
STANDARD
  9
$DIMAUNIT
 70
     0
  9
$DIMADEC
 70
     0
  9
$DIMALTRND
 40
0.0
  9
$DIMAZIN
 70
     0
  9
$DIMDSEP
 70
    46
  9
$DIMATFIT
 70
     3
  9
$DIMFRAC
 70
     0
  9
$DIMLDRBLK
  1

  9
$DIMLUNIT
 70
     2
  9
$DIMLWD
 70
    -2
  9
$DIMLWE
 70
    -2
  9
$DIMTMOVE
 70
     0
  9
$LUNITS
 70
     2
  9
$LUPREC
 70
     4
  9
$SKETCHINC
 40
1.0
  9
$FILLETRAD
 40
0.0
  9
$AUNITS
 70
     0
  9
$AUPREC
 70
     2
  9
$MENU
  1
.
  9
$ELEVATION
 40
0.0
  9
$PELEVATION
 40
0.0
  9
$THICKNESS
 40
0.0
  9
$LIMCHECK
 70
     0
  9
$CHAMFERA
 40
10.0
  9
$CHAMFERB
 40
10.0
  9
$CHAMFERC
 40
0.0
  9
$CHAMFERD
 40
0.0
  9
$SKPOLY
 70
     0
  9
$TDCREATE
 40
2451263.697301273
  9
$TDUCREATE
 40
2451263.322301273
  9
$TDUPDATE
 40
2457192.661563414
  9
$TDUUPDATE
 40
2457192.286563414
  9
$TDINDWG
 40
0.0000143634
  9
$TDUSRTIMER
 40
0.0000138657
  9
$USRTIMER
 70
     1
  9
$ANGBASE
 50
0.0
  9
$ANGDIR
 70
     0
  9
$PDMODE
 70
     0
  9
$PDSIZE
 40
0.0
  9
$PLINEWID
 40
0.0
  9
$SPLFRAME
 70
     0
  9
$SPLINETYPE
 70
     6
  9
$SPLINESEGS
 70
     8
  9
$HANDSEED
  5
1155A
  9
$SURFTAB1
 70
     6
  9
$SURFTAB2
 70
     6
  9
$SURFTYPE
 70
     6
  9
$SURFU
 70
     6
  9
$SURFV
 70
     6
  9
$UCSBASE
  2

  9
$UCSNAME
  2

  9
$UCSORG
 10
0.0
 20
0.0
 30
0.0
  9
$UCSXDIR
 10
1.0
 20
0.0
 30
0.0
  9
$UCSYDIR
 10
0.0
 20
1.0
 30
0.0
  9
$UCSORTHOREF
  2

  9
$UCSORTHOVIEW
 70
     0
  9
$UCSORGTOP
 10
0.0
 20
0.0
 30
0.0
  9
$UCSORGBOTTOM
 10
0.0
 20
0.0
 30
0.0
  9
$UCSORGLEFT
 10
0.0
 20
0.0
 30
0.0
  9
$UCSORGRIGHT
 10
0.0
 20
0.0
 30
0.0
  9
$UCSORGFRONT
 10
0.0
 20
0.0
 30
0.0
  9
$UCSORGBACK
 10
0.0
 20
0.0
 30
0.0
  9
$PUCSBASE
  2

  9
$PUCSNAME
  2

  9
$PUCSORG
 10
0.0
 20
0.0
 30
0.0
  9
$PUCSXDIR
 10
1.0
 20
0.0
 30
0.0
  9
$PUCSYDIR
 10
0.0
 20
1.0
 30
0.0
  9
$PUCSORTHOREF
  2

  9
$PUCSORTHOVIEW
 70
     0
  9
$PUCSORGTOP
 10
0.0
 20
0.0
 30
0.0
  9
$PUCSORGBOTTOM
 10
0.0
 20
0.0
 30
0.0
  9
$PUCSORGLEFT
 10
0.0
 20
0.0
 30
0.0
  9
$PUCSORGRIGHT
 10
0.0
 20
0.0
 30
0.0
  9
$PUCSORGFRONT
 10
0.0
 20
0.0
 30
0.0
  9
$PUCSORGBACK
 10
0.0
 20
0.0
 30
0.0
  9
$USERI1
 70
     0
  9
$USERI2
 70
     0
  9
$USERI3
 70
     0
  9
$USERI4
 70
     0
  9
$USERI5
 70
     0
  9
$USERR1
 40
0.0
  9
$USERR2
 40
0.0
  9
$USERR3
 40
0.0
  9
$USERR4
 40
0.0
  9
$USERR5
 40
0.0
  9
$WORLDVIEW
 70
     1
  9
$SHADEDGE
 70
     3
  9
$SHADEDIF
 70
    70
  9
$TILEMODE
 70
     1
  9
$MAXACTVP
 70
    16
  9
$PINSBASE
 10
0.0
 20
0.0
 30
0.0
  9
$PLIMCHECK
 70
     0
  9
$PEXTMIN
 10
1.000000000000000E+20
 20
1.000000000000000E+20
 30
1.000000000000000E+20
  9
$PEXTMAX
 10
-1.000000000000000E+20
 20
-1.000000000000000E+20
 30
-1.000000000000000E+20
  9
$PLIMMIN
 10
0.0
 20
0.0
  9
$PLIMMAX
 10
420.0
 20
297.0
  9
$UNITMODE
 70
     0
  9
$VISRETAIN
 70
     0
  9
$PLINEGEN
 70
     0
  9
$PSLTSCALE
 70
     0
  9
$TREEDEPTH
 70
  3020
  9
$CMLSTYLE
  2
STANDARD
  9
$CMLJUST
 70
     0
  9
$CMLSCALE
 40
1.0
  9
$PROXYGRAPHICS
 70
     1
  9
$MEASUREMENT
 70
     0
  9
$CELWEIGHT
370
    -1
  9
$ENDCAPS
280
     0
  9
$JOINSTYLE
280
     0
  9
$LWDISPLAY
290
     0
  9
$INSUNITS
 70
     0
  9
$HYPERLINKBASE
  1

  9
$STYLESHEET
  1

  9
$XEDIT
290
     1
  9
$CEPSNTYPE
380
     0
  9
$PSTYLEMODE
290
     1
  9
$FINGERPRINTGUID
  2
{12C25D45-A03E-41AC-B78D-2CCE156904F1}
  9
$VERSIONGUID
  2
{A8FD0A90-E1BB-4217-B165-A202C4B481FD}
  9
$EXTNAMES
290
     1
  9
$PSVPSCALE
 40
0.0
  9
$OLESTARTUP
290
     0
  0
ENDSEC
  0
SECTION
  2
CLASSES
  0
CLASS
  1
ACDBDICTIONARYWDFLT
  2
AcDbDictionaryWithDefault
  3
ObjectDBX Classes
 90
        0
280
     0
281
     0
  0
CLASS
  1
ACDBPLACEHOLDER
  2
AcDbPlaceHolder
  3
ObjectDBX Classes
 90
        0
280
     0
281
     0
  0
CLASS
  1
LAYOUT
  2
AcDbLayout
  3
ObjectDBX Classes
 90
        0
280
     0
281
     0
  0
CLASS
  1
DICTIONARYVAR
  2
AcDbDictionaryVar
  3
ObjectDBX Classes
 90
        0
280
     0
281
     0
  0
CLASS
  1
MATERIAL
  2
AcDbMaterial
  3
ObjectDBX Classes
 90
     1153
280
     0
281
     0
  0
CLASS
  1
VISUALSTYLE
  2
AcDbVisualStyle
  3
ObjectDBX Classes
 90
     4095
280
     0
281
     0
  0
CLASS
  1
TABLESTYLE
  2
AcDbTableStyle
  3
ObjectDBX Classes
 90
     4095
280
     0
281
     0
  0
CLASS
  1
SCALE
  2
AcDbScale
  3
ObjectDBX Classes
 90
     1153
280
     0
281
     0
  0
CLASS
  1
MLEADERSTYLE
  2
AcDbMLeaderStyle
  3
ACDB_MLEADERSTYLE_CLASS
 90
     4095
280
     0
281
     0
  0
CLASS
  1
ACDBSECTIONVIEWSTYLE
  2
AcDbSectionViewStyle
  3
ObjectDBX Classes
 90
     1025
280
     0
281
     0
  0
CLASS
  1
ACDBDETAILVIEWSTYLE
  2
AcDbDetailViewStyle
  3
ObjectDBX Classes
 90
     1025
280
     0
281
     0
  0
CLASS
  1
CELLSTYLEMAP
  2
AcDbCellStyleMap
  3
ObjectDBX Classes
 90
     1152
280
     0
281
     0
  0
ENDSEC
  0
SECTION
  2
TABLES
  0
TABLE
  2
VPORT
  5
10FC0
330
0
100
AcDbSymbolTable
 70
     1
  0
VPORT
  5
114A3
330
10FC0
100
AcDbSymbolTableRecord
100
AcDbViewportTableRecord
  2
*ACTIVE
 70
     0
 10
0.0
 20
0.0
 11
1.0
 21
1.0
 12
573.1963693792549
 22
372.2274370708821
 13
0.0
 23
0.0
 14
10.0
 24
10.0
 15
10.0
 25
10.0
 16
0.0
 26
0.0
 36
1.0
 17
0.0
 27
0.0
 37
0.0
 40
732.6601378091749
 41
1.899603698811096
 42
50.0
 43
0.0
 44
0.0
 50
0.0
 51
0.0
 71
     0
 72
   100
 73
     1
 74
     0
 75
     0
 76
     0
 77
     0
 78
     0
281
     0
 65
     1
110
0.0
120
0.0
130
0.0
111
1.0
121
0.0
131
0.0
112
0.0
122
1.0
132
0.0
 79
     0
146
0.0
1001
ACAD_NAV_VCDISPLAY
1070
     3
  0
ENDTAB
  0
TABLE
  2
LTYPE
  5
10FBD
330
0
100
AcDbSymbolTable
 70
     4
  0
LTYPE
  5
10FCB
330
10FBD
100
AcDbSymbolTableRecord
100
AcDbLinetypeTableRecord
  2
BYBLOCK
 70
     0
  3

 72
    65
 73
     0
 40
0.0
  0
LTYPE
  5
10FCC
330
10FBD
100
AcDbSymbolTableRecord
100
AcDbLinetypeTableRecord
  2
BYLAYER
 70
     0
  3

 72
    65
 73
     0
 40
0.0
  0
LTYPE
  5
10FCD
330
10FBD
100
AcDbSymbolTableRecord
100
AcDbLinetypeTableRecord
  2
CONTINUOUS
 70
     0
  3
Solid line
 72
    65
 73
     0
 40
0.0
  0
LTYPE
  5
10FDB
330
10FBD
100
AcDbSymbolTableRecord
100
AcDbLinetypeTableRecord
  2
DASHED
 70
     0
  3
__ __ __ __ __ __ __ __ __ __ __ __ __ __ __ __
 72
    65
 73
     2
 40
0.75
 49
0.5
 74
     0
 49
-0.25
 74
     0
  0
LTYPE
  5
10FDC
330
10FBD
100
AcDbSymbolTableRecord
100
AcDbLinetypeTableRecord
  2
CENTER
 70
     0
  3
____ _ ____ _ ____ _ ____ _ ____ _ ____ _ ____ 
 72
    65
 73
     4
 40
2.0
 49
1.25
 74
     0
 49
-0.25
 74
     0
 49
0.25
 74
     0
 49
-0.25
 74
     0
  0
LTYPE
  5
10FDD
330
10FBD
100
AcDbSymbolTableRecord
100
AcDbLinetypeTableRecord
  2
PHANTOM
 70
     0
  3
______  __  __  ______  __  __  ______  __  __ 
 72
    65
 73
     6
 40
2.5
 49
1.25
 74
     0
 49
-0.25
 74
     0
 49
0.25
 74
     0
 49
-0.25
 74
     0
 49
0.25
 74
     0
 49
-0.25
 74
     0
  0
ENDTAB
  0
TABLE
  2
LAYER
  5
10FBA
330
0
100
AcDbSymbolTable
 70
     8
  0
LAYER
  5
10FC8
102
{ACAD_XDICTIONARY
360
114FE
102
}
330
10FBA
100
AcDbSymbolTableRecord
100
AcDbLayerTableRecord
  2
0
 70
     0
 62
     7
  6
CONTINUOUS
370
    -3
390
114AC
  0
LAYER
  5
10FDE
102
{ACAD_XDICTIONARY
360
11500
102
}
330
10FBA
100
AcDbSymbolTableRecord
100
AcDbLayerTableRecord
  2
4
 70
     0
 62
     1
  6
CENTER
370
    -3
390
114AC
  0
LAYER
  5
10FDF
102
{ACAD_XDICTIONARY
360
11502
102
}
330
10FBA
100
AcDbSymbolTableRecord
100
AcDbLayerTableRecord
  2
5
 70
     0
 62
     6
  6
PHANTOM
370
    -3
390
114AC
  0
LAYER
  5
10FE0
102
{ACAD_XDICTIONARY
360
11504
102
}
330
10FBA
100
AcDbSymbolTableRecord
100
AcDbLayerTableRecord
  2
1
 70
     0
 62
     7
  6
CONTINUOUS
370
    -3
390
114AC
  0
LAYER
  5
10FE1
102
{ACAD_XDICTIONARY
360
11506
102
}
330
10FBA
100
AcDbSymbolTableRecord
100
AcDbLayerTableRecord
  2
2
 70
     0
 62
     4
  6
CONTINUOUS
370
    -3
390
114AC
  0
LAYER
  5
10FE2
102
{ACAD_XDICTIONARY
360
11508
102
}
330
10FBA
100
AcDbSymbolTableRecord
100
AcDbLayerTableRecord
  2
3
 70
     0
 62
     2
  6
DASHED
370
    -3
390
114AC
  0
LAYER
  5
10FE3
102
{ACAD_XDICTIONARY
360
1150A
102
}
330
10FBA
100
AcDbSymbolTableRecord
100
AcDbLayerTableRecord
  2
6
 70
     0
 62
     5
  6
CONTINUOUS
370
    -3
390
114AC
  0
LAYER
  5
10FE4
102
{ACAD_XDICTIONARY
360
1150C
102
}
330
10FBA
100
AcDbSymbolTableRecord
100
AcDbLayerTableRecord
  2
7
 70
     0
 62
     3
  6
CONTINUOUS
370
    -3
390
114AC
  0
ENDTAB
  0
TABLE
  2
STYLE
  5
10FBB
330
0
100
AcDbSymbolTable
 70
     1
  0
STYLE
  5
10FC9
330
10FBB
100
AcDbSymbolTableRecord
100
AcDbTextStyleTableRecord
  2
STANDARD
 70
     0
 40
0.0
 41
1.0
 50
0.0
 71
     0
 42
5.0
  3
txt
  4

  0
ENDTAB
  0
TABLE
  2
VIEW
  5
10FBE
330
0
100
AcDbSymbolTable
 70
     0
  0
ENDTAB
  0
TABLE
  2
UCS
  5
10FBF
330
0
100
AcDbSymbolTable
 70
     0
  0
ENDTAB
  0
TABLE
  2
APPID
  5
10FC1
330
0
100
AcDbSymbolTable
 70
     3
  0
APPID
  5
10FCA
330
10FC1
100
AcDbSymbolTableRecord
100
AcDbRegAppTableRecord
  2
ACAD
 70
     0
  0
APPID
  5
11518
330
10FC1
100
AcDbSymbolTableRecord
100
AcDbRegAppTableRecord
  2
ACAD_NAV_VCDISPLAY
 70
     0
  0
APPID
  5
11551
330
10FC1
100
AcDbSymbolTableRecord
100
AcDbRegAppTableRecord
  2
ACAD_MLEADERVER
 70
     0
  0
ENDTAB
  0
TABLE
  2
DIMSTYLE
  5
10FC2
330
0
100
AcDbSymbolTable
 70
     1
100
AcDbDimStyleTable
 71
     0
  0
DIMSTYLE
105
10FE6
330
10FC2
100
AcDbSymbolTableRecord
100
AcDbDimStyleTableRecord
  2
STANDARD
 70
     0
 41
2.5
 42
1.0
 43
10.0
 44
1.0
 73
     0
 74
     0
 77
     3
 78
     8
140
2.5
141
0.0
147
1.0
172
     1
173
     1
284
     8
285
     8
286
     8
340
10FC9
  0
ENDTAB
  0
TABLE
  2
BLOCK_RECORD
  5
10FB9
330
0
100
AcDbSymbolTable
 70
     0
  0
BLOCK_RECORD
  5
10FD6
102
{ACAD_XDICTIONARY
360
114A6
102
}
330
10FB9
100
AcDbSymbolTableRecord
100
AcDbBlockTableRecord
  2
*MODEL_SPACE
340
114FA
  0
BLOCK_RECORD
  5
10FD2
102
{ACAD_XDICTIONARY
360
114A4
102
}
330
10FB9
100
AcDbSymbolTableRecord
100
AcDbBlockTableRecord
  2
*PAPER_SPACE
340
114FB
  0
ENDTAB
  0
ENDSEC
  0
SECTION
  2
BLOCKS
  0
BLOCK
  5
10FD7
330
10FD6
100
AcDbEntity
  8
0
100
AcDbBlockBegin
  2
*MODEL_SPACE
 70
     0
 10
0.0
 20
0.0
 30
0.0
  3
*MODEL_SPACE
  1

  0
ENDBLK
  5
10FD8
330
10FD6
100
AcDbEntity
  8
0
100
AcDbBlockEnd
  0
BLOCK
  5
10FD3
330
10FD2
100
AcDbEntity
 67
     1
  8
0
100
AcDbBlockBegin
  2
*PAPER_SPACE
 70
     0
 10
0.0
 20
0.0
 30
0.0
  3
*PAPER_SPACE
  1

  0
ENDBLK
  5
10FD4
330
10FD2
100
AcDbEntity
 67
     1
  8
0
100
AcDbBlockEnd
  0
ENDSEC
  0
SECTION
  2
ENTITIES
  0
TEXT
  5
10FEE
330
10FD6
100
AcDbEntity
  8
7
  6
Continuous
100
AcDbText
 10
10.0
 20
18.0
 30
0.0
 40
3.0
  1
TYPE No.TM-211-1
100
AcDbText
  0
TEXT
  5
10FEF
330
10FD6
100
AcDbEntity
  8
7
  6
Continuous
100
AcDbText
 10
10.0
 20
26.0
 30
0.0
 40
3.0
  1
CODE No.5791
100
AcDbText
  0
TEXT
  5
10FF0
330
10FD6
100
AcDbEntity
  8
1
  6
Continuous
100
AcDbText
 10
10.0
 20
10.0
 30
0.0
 40
1.399999999999999
  1
LAYER
100
AcDbText
  0
TEXT
  5
10FF1
330
10FD6
100
AcDbEntity
  8
1
  6
Continuous
100
AcDbText
 10
17.97951099999998
 20
10.04873699999998
 30
0.0
 40
1.399999999999999
  1
1
100
AcDbText
  0
TEXT
  5
10FF2
330
10FD6
100
AcDbEntity
  8
7
  6
Continuous
100
AcDbText
 10
29.97951099999999
 20
10.04873699999998
 30
0.0
 40
1.399999999999999
  1
7
100
AcDbText
  0
TEXT
  5
10FF3
330
10FD6
100
AcDbEntity
  8
4
  6
CENTER
100
AcDbText
 10
23.97951099999999
 20
10.04873699999998
 30
0.0
 40
1.399999999999999
  1
4
100
AcDbText
  0
TEXT
  5
10FF4
330
10FD6
100
AcDbEntity
  8
3
  6
DASHED
100
AcDbText
 10
21.979511
 20
10.04873699999998
 30
0.0
 40
1.399999999999999
  1
3
100
AcDbText
  0
TEXT
  5
10FF5
330
10FD6
100
AcDbEntity
  8
2
  6
Continuous
100
AcDbText
 10
19.97951099999999
 20
10.04873699999998
 30
0.0
 40
1.399999999999999
  1
2
100
AcDbText
  0
TEXT
  5
10FF6
330
10FD6
100
AcDbEntity
  8
6
  6
Continuous
100
AcDbText
 10
27.979511
 20
10.04873699999998
 30
0.0
 40
1.399999999999999
  1
6
100
AcDbText
  0
TEXT
  5
10FF7
330
10FD6
100
AcDbEntity
  8
5
  6
PHANTOM
100
AcDbText
 10
25.97951099999999
 20
10.04873699999998
 30
0.0
 40
1.399999999999999
  1
5
100
AcDbText
  0
CIRCLE
  5
10FF8
330
10FD6
100
AcDbEntity
  8
1
  6
Continuous
100
AcDbCircle
 10
331.0
 20
319.5
 30
0.0
 40
5.0
  0
CIRCLE
  5
10FF9
330
10FD6
100
AcDbEntity
  8
1
  6
Continuous
100
AcDbCircle
 10
331.0
 20
319.5
 30
0.0
 40
3.0
  0
LINE
  5
10FFA
330
10FD6
100
AcDbEntity
  8
3
  6
DASHED
100
AcDbLine
 10
403.0
 20
307.0
 30
0.0
 11
385.5
 21
307.0
 31
0.0
  0
LINE
  5
10FFB
330
10FD6
100
AcDbEntity
  8
4
  6
CENTER
100
AcDbLine
 10
406.0
 20
317.0
 30
0.0
 11
359.25
 21
317.0
 31
0.0
  0
LINE
  5
10FFC
330
10FD6
100
AcDbEntity
  8
1
  6
Continuous
100
AcDbLine
 10
397.763932
 20
331.0
 30
0.0
 11
111.0
 21
331.0
 31
0.0
  0
LINE
  5
10FFD
330
10FD6
100
AcDbEntity
  8
1
  6
Continuous
100
AcDbLine
 10
567.0
 20
329.4999999999999
 30
0.0
 11
399.5781949999998
 21
329.4999999999999
 31
0.0
  0
LINE
  5
10FFE
330
10FD6
100
AcDbEntity
  8
1
  6
Continuous
100
AcDbLine
 10
610.0
 20
303.5
 30
0.0
 11
384.0
 21
303.5
 31
0.0
  0
LINE
  5
10FFF
330
10FD6
100
AcDbEntity
  8
1
  6
Continuous
100
AcDbLine
 10
595.0
 20
332.0
 30
0.0
 11
567.0
 21
329.4999999999999
 31
0.0
  0
ARC
  5
11000
330
10FD6
100
AcDbEntity
  8
1
  6
Continuous
100
AcDbCircle
 10
608.4999999999999
 20
327.1145589999998
 30
0.0
 40
1.5
100
AcDbArc
 50
286.772393
 51
0.0
  0
LINE
  5
11001
330
10FD6
100
AcDbEntity
  8
1
  6
Continuous
100
AcDbLine
 10
610.0
 20
332.0
 30
0.0
 11
595.0
 21
332.0
 31
0.0
  0
LINE
  5
11002
330
10FD6
100
AcDbEntity
  8
1
  6
Continuous
100
AcDbLine
 10
610.0
 20
332.0
 30
0.0
 11
610.0
 21
327.1145589999998
 31
0.0
  0
LINE
  5
11003
330
10FD6
100
AcDbEntity
  8
1
  6
Continuous
100
AcDbLine
 10
608.932856
 20
325.6783709999999
 30
0.0
 11
601.422859
 21
323.414917
 31
0.0
  0
LINE
  5
11004
330
10FD6
100
AcDbEntity
  8
1
  6
Continuous
100
AcDbLine
 10
608.4999999999999
 20
319.5
 30
0.0
 11
602.0
 21
319.5
 31
0.0
  0
LINE
  5
11005
330
10FD6
100
AcDbEntity
  8
1
  6
Continuous
100
AcDbLine
 10
605.858195
 20
314.619837
 30
0.0
 11
602.2733969999998
 21
316.3944419999999
 31
0.0
  0
ARC
  5
11006
330
10FD6
100
AcDbEntity
  8
1
  6
Continuous
100
AcDbCircle
 10
596.0
 20
319.5
 30
0.0
 40
11.0
100
AcDbArc
 50
296.3370750000001
 51
333.6629249999999
  0
LINE
  5
11007
330
10FD6
100
AcDbEntity
  8
1
  6
Continuous
100
AcDbLine
 10
610.0
 20
318.0
 30
0.0
 11
610.0
 21
303.5
 31
0.0
  0
ARC
  5
11008
330
10FD6
100
AcDbEntity
  8
1
  6
Continuous
100
AcDbCircle
 10
608.4999999999999
 20
318.0
 30
0.0
 40
1.5
100
AcDbArc
 50
0.0
 51
90.0
  0
LINE
  5
11009
330
10FD6
100
AcDbEntity
  8
4
  6
CENTER
100
AcDbLine
 10
600.75
 20
319.5
 30
0.0
 11
579.25
 21
319.5
 31
0.0
  0
ARC
  5
1100A
330
10FD6
100
AcDbEntity
  8
1
  6
Continuous
100
AcDbCircle
 10
602.0
 20
321.4999999999998
 30
0.0
 40
2.0
100
AcDbArc
 50
106.7723929999998
 51
270.0
  0
ARC
  5
1100B
330
10FD6
100
AcDbEntity
  8
1
  6
Continuous
100
AcDbCircle
 10
596.0
 20
319.5
 30
0.0
 40
7.0
100
AcDbArc
 50
296.3370750000001
 51
333.6629249999999
  0
LINE
  5
1100C
330
10FD6
100
AcDbEntity
  8
1
  6
Continuous
100
AcDbLine
 10
600.880163
 20
309.641805
 30
0.0
 11
599.105558
 21
313.2266029999998
 31
0.0
  0
CIRCLE
  5
1100D
330
10FD6
100
AcDbEntity
  8
1
  6
Continuous
100
AcDbCircle
 10
595.0
 20
319.5
 30
0.0
 40
2.399999999999999
  0
LINE
  5
1100E
330
10FD6
100
AcDbEntity
  8
4
  6
CENTER
100
AcDbLine
 10
595.0
 20
325.2499999999999
 30
0.0
 11
595.0
 21
313.75
 31
0.0
  0
LINE
  5
1100F
330
10FD6
100
AcDbEntity
  8
1
  6
Continuous
100
AcDbLine
 10
587.3999999999997
 20
320.5
 30
0.0
 11
587.3999999999997
 21
318.5
 31
0.0
  0
ARC
  5
11010
330
10FD6
100
AcDbEntity
  8
1
  6
Continuous
100
AcDbCircle
 10
585.0
 20
320.5
 30
0.0
 40
2.399999999999999
100
AcDbArc
 50
0.0
 51
180.0
  0
LINE
  5
11011
330
10FD6
100
AcDbEntity
  8
1
  6
Continuous
100
AcDbLine
 10
582.6
 20
320.5
 30
0.0
 11
582.6
 21
318.5
 31
0.0
  0
ARC
  5
11012
330
10FD6
100
AcDbEntity
  8
1
  6
Continuous
100
AcDbCircle
 10
585.0
 20
318.5
 30
0.0
 40
2.399999999999999
100
AcDbArc
 50
180.0
 51
0.0
  0
LINE
  5
11013
330
10FD6
100
AcDbEntity
  8
4
  6
CENTER
100
AcDbLine
 10
585.0
 20
326.25
 30
0.0
 11
585.0
 21
312.7499999999999
 31
0.0
  0
LINE
  5
11014
330
10FD6
100
AcDbEntity
  8
4
  6
CENTER
100
AcDbLine
 10
364.25
 20
319.5
 30
0.0
 11
385.7499999999999
 21
319.5
 31
0.0
  0
LINE
  5
11015
330
10FD6
100
AcDbEntity
  8
1
  6
Continuous
100
AcDbLine
 10
379.0
 20
303.5
 30
0.0
 11
316.0
 21
303.5
 31
0.0
  0
LINE
  5
11016
330
10FD6
100
AcDbEntity
  8
4
  6
CENTER
100
AcDbLine
 10
476.75
 20
319.5
 30
0.0
 11
488.25
 21
319.5
 31
0.0
  0
LINE
  5
11017
330
10FD6
100
AcDbEntity
  8
4
  6
CENTER
100
AcDbLine
 10
482.5
 20
325.2499999999999
 30
0.0
 11
482.5
 21
313.75
 31
0.0
  0
CIRCLE
  5
11018
330
10FD6
100
AcDbEntity
  8
1
  6
Continuous
100
AcDbCircle
 10
482.5
 20
319.5
 30
0.0
 40
2.399999999999999
  0
LINE
  5
11019
330
10FD6
100
AcDbEntity
  8
1
  6
Continuous
100
AcDbLine
 10
383.0
 20
305.0
 30
0.0
 11
379.0
 21
303.5
 31
0.0
  0
LINE
  5
1101A
330
10FD6
100
AcDbEntity
  8
1
  6
Continuous
100
AcDbLine
 10
384.0
 20
305.0
 30
0.0
 11
384.0
 21
303.5
 31
0.0
  0
LINE
  5
1101B
330
10FD6
100
AcDbEntity
  8
4
  6
CENTER
100
AcDbLine
 10
380.0
 20
326.25
 30
0.0
 11
380.0
 21
312.7499999999999
 31
0.0
  0
LINE
  5
1101C
330
10FD6
100
AcDbEntity
  8
4
  6
CENTER
100
AcDbLine
 10
331.0
 20
334.5
 30
0.0
 11
331.0
 21
304.4999999999999
 31
0.0
  0
LINE
  5
1101D
330
10FD6
100
AcDbEntity
  8
1
  6
Continuous
100
AcDbLine
 10
314.0
 20
327.4999999999999
 30
0.0
 11
314.0
 21
305.5
 31
0.0
  0
LINE
  5
1101E
330
10FD6
100
AcDbEntity
  8
1
  6
Continuous
100
AcDbLine
 10
399.5781949999998
 20
329.4999999999999
 30
0.0
 11
364.5
 21
329.4999999999999
 31
0.0
  0
LINE
  5
1101F
330
10FD6
100
AcDbEntity
  8
4
  6
CENTER
100
AcDbLine
 10
346.0
 20
319.5
 30
0.0
 11
316.0
 21
319.5
 31
0.0
  0
LINE
  5
11020
330
10FD6
100
AcDbEntity
  8
4
  6
CENTER
100
AcDbLine
 10
339.25
 20
311.5
 30
0.0
 11
350.75
 21
311.5
 31
0.0
  0
LINE
  5
11021
330
10FD6
100
AcDbEntity
  8
4
  6
CENTER
100
AcDbLine
 10
370.0
 20
325.2499999999999
 30
0.0
 11
370.0
 21
313.75
 31
0.0
  0
LINE
  5
11022
330
10FD6
100
AcDbEntity
  8
4
  6
CENTER
100
AcDbLine
 10
319.55
 20
311.2999999999999
 30
0.0
 11
319.55
 21
303.8
 31
0.0
  0
LINE
  5
11023
330
10FD6
100
AcDbEntity
  8
4
  6
CENTER
100
AcDbLine
 10
345.0
 20
317.2499999999998
 30
0.0
 11
345.0
 21
305.75
 31
0.0
  0
LINE
  5
11024
330
10FD6
100
AcDbEntity
  8
4
  6
CENTER
100
AcDbLine
 10
315.8
 20
307.55
 30
0.0
 11
323.3
 21
307.55
 31
0.0
  0
LINE
  5
11025
330
10FD6
100
AcDbEntity
  8
1
  6
Continuous
100
AcDbLine
 10
156.0
 20
307.0
 30
0.0
 11
127.0
 21
304.4999999999999
 31
0.0
  0
LINE
  5
11026
330
10FD6
100
AcDbEntity
  8
4
  6
CENTER
100
AcDbLine
 10
119.25
 20
317.0
 30
0.0
 11
140.7499999999998
 21
317.0
 31
0.0
  0
LINE
  5
11027
330
10FD6
100
AcDbEntity
  8
3
  6
DASHED
100
AcDbLine
 10
380.0
 20
307.0
 30
0.0
 11
314.0
 21
307.0
 31
0.0
  0
LINE
  5
11028
330
10FD6
100
AcDbEntity
  8
4
  6
CENTER
100
AcDbLine
 10
391.0
 20
332.0
 30
0.0
 11
391.0
 21
302.0
 31
0.0
  0
CIRCLE
  5
11029
330
10FD6
100
AcDbEntity
  8
1
  6
Continuous
100
AcDbCircle
 10
370.0
 20
319.5
 30
0.0
 40
2.399999999999999
  0
LINE
  5
1102A
330
10FD6
100
AcDbEntity
  8
3
  6
DASHED
100
AcDbLine
 10
380.0
 20
308.4999999999999
 30
0.0
 11
380.0
 21
307.0
 31
0.0
  0
LINE
  5
1102B
330
10FD6
100
AcDbEntity
  8
3
  6
DASHED
100
AcDbLine
 10
381.4999999999998
 20
308.4999999999999
 30
0.0
 11
385.5
 21
307.0
 31
0.0
  0
LINE
  5
1102C
330
10FD6
100
AcDbEntity
  8
4
  6
CENTER
100
AcDbLine
 10
365.0
 20
323.75
 30
0.0
 11
365.0
 21
310.25
 31
0.0
  0
LINE
  5
1102D
330
10FD6
100
AcDbEntity
  8
4
  6
CENTER
100
AcDbLine
 10
375.0
 20
322.75
 30
0.0
 11
375.0
 21
311.25
 31
0.0
  0
LINE
  5
1102E
330
10FD6
100
AcDbEntity
  8
1
  6
Continuous
100
AcDbLine
 10
377.6
 20
320.5
 30
0.0
 11
377.6
 21
318.5
 31
0.0
  0
ARC
  5
1102F
330
10FD6
100
AcDbEntity
  8
1
  6
Continuous
100
AcDbCircle
 10
380.0
 20
320.5
 30
0.0
 40
2.399999999999999
100
AcDbArc
 50
0.0
 51
180.0
  0
LINE
  5
11030
330
10FD6
100
AcDbEntity
  8
1
  6
Continuous
100
AcDbLine
 10
382.3999999999998
 20
320.5
 30
0.0
 11
382.3999999999998
 21
318.5
 31
0.0
  0
ARC
  5
11031
330
10FD6
100
AcDbEntity
  8
1
  6
Continuous
100
AcDbCircle
 10
380.0
 20
318.5
 30
0.0
 40
2.399999999999999
100
AcDbArc
 50
180.0
 51
0.0
  0
LINE
  5
11032
330
10FD6
100
AcDbEntity
  8
4
  6
CENTER
100
AcDbLine
 10
295.7499999999999
 20
317.0
 30
0.0
 11
274.25
 21
317.0
 31
0.0
  0
ARC
  5
11033
330
10FD6
100
AcDbEntity
  8
1
  6
Continuous
100
AcDbCircle
 10
280.0
 20
316.0
 30
0.0
 40
2.399999999999999
100
AcDbArc
 50
180.0
 51
0.0
  0
ARC
  5
11034
330
10FD6
100
AcDbEntity
  8
1
  6
Continuous
100
AcDbCircle
 10
280.0
 20
318.0
 30
0.0
 40
2.399999999999999
100
AcDbArc
 50
0.0
 51
180.0
  0
LINE
  5
11035
330
10FD6
100
AcDbEntity
  8
1
  6
Continuous
100
AcDbLine
 10
282.3999999999998
 20
318.0
 30
0.0
 11
282.3999999999998
 21
316.0
 31
0.0
  0
LINE
  5
11036
330
10FD6
100
AcDbEntity
  8
4
  6
CENTER
100
AcDbLine
 10
280.0
 20
323.75
 30
0.0
 11
280.0
 21
310.25
 31
0.0
  0
CIRCLE
  5
11037
330
10FD6
100
AcDbEntity
  8
1
  6
Continuous
100
AcDbCircle
 10
290.0
 20
317.0
 30
0.0
 40
2.399999999999999
  0
LINE
  5
11038
330
10FD6
100
AcDbEntity
  8
4
  6
CENTER
100
AcDbLine
 10
290.0
 20
322.75
 30
0.0
 11
290.0
 21
311.25
 31
0.0
  0
LINE
  5
11039
330
10FD6
100
AcDbEntity
  8
1
  6
Continuous
100
AcDbLine
 10
277.6
 20
318.0
 30
0.0
 11
277.6
 21
316.0
 31
0.0
  0
LINE
  5
1103A
330
10FD6
100
AcDbEntity
  8
4
  6
CENTER
100
AcDbLine
 10
135.0
 20
323.75
 30
0.0
 11
135.0
 21
310.25
 31
0.0
  0
LINE
  5
1103B
330
10FD6
100
AcDbEntity
  8
1
  6
Continuous
100
AcDbLine
 10
137.4
 20
318.0
 30
0.0
 11
137.4
 21
316.0
 31
0.0
  0
ARC
  5
1103C
330
10FD6
100
AcDbEntity
  8
1
  6
Continuous
100
AcDbCircle
 10
135.0
 20
318.0
 30
0.0
 40
2.399999999999999
100
AcDbArc
 50
0.0
 51
180.0
  0
LINE
  5
1103D
330
10FD6
100
AcDbEntity
  8
1
  6
Continuous
100
AcDbLine
 10
132.6
 20
318.0
 30
0.0
 11
132.6
 21
316.0
 31
0.0
  0
ARC
  5
1103E
330
10FD6
100
AcDbEntity
  8
1
  6
Continuous
100
AcDbCircle
 10
135.0
 20
316.0
 30
0.0
 40
2.399999999999999
100
AcDbArc
 50
180.0
 51
0.0
  0
LINE
  5
1103F
330
10FD6
100
AcDbEntity
  8
1
  6
Continuous
100
AcDbLine
 10
109.0
 20
318.5
 30
0.0
 11
109.0
 21
329.0
 31
0.0
  0
ARC
  5
11040
330
10FD6
100
AcDbEntity
  8
1
  6
Continuous
100
AcDbCircle
 10
111.0
 20
329.0
 30
0.0
 40
2.0
100
AcDbArc
 50
90.0
 51
180.0
  0
LINE
  5
11041
330
10FD6
100
AcDbEntity
  8
1
  6
Continuous
100
AcDbLine
 10
109.0
 20
304.4999999999999
 30
0.0
 11
109.0
 21
309.385441
 31
0.0
  0
LINE
  5
11042
330
10FD6
100
AcDbEntity
  8
1
  6
Continuous
100
AcDbLine
 10
110.4999999999999
 20
317.0
 30
0.0
 11
117.0
 21
317.0
 31
0.0
  0
LINE
  5
11043
330
10FD6
100
AcDbEntity
  8
1
  6
Continuous
100
AcDbLine
 10
110.0671439999999
 20
310.8216289999999
 30
0.0
 11
117.577141
 21
313.0850829999999
 31
0.0
  0
ARC
  5
11044
330
10FD6
100
AcDbEntity
  8
1
  6
Continuous
100
AcDbCircle
 10
117.0
 20
315.0
 30
0.0
 40
2.0
100
AcDbArc
 50
286.772393
 51
90.0
  0
LINE
  5
11045
330
10FD6
100
AcDbEntity
  8
4
  6
CENTER
100
AcDbLine
 10
125.0
 20
322.75
 30
0.0
 11
125.0
 21
311.25
 31
0.0
  0
CIRCLE
  5
11046
330
10FD6
100
AcDbEntity
  8
1
  6
Continuous
100
AcDbCircle
 10
125.0
 20
317.0
 30
0.0
 40
2.399999999999999
  0
ARC
  5
11047
330
10FD6
100
AcDbEntity
  8
1
  6
Continuous
100
AcDbCircle
 10
110.4999999999999
 20
318.5
 30
0.0
 40
1.5
100
AcDbArc
 50
180.0
 51
270.0
  0
ARC
  5
11048
330
10FD6
100
AcDbEntity
  8
1
  6
Continuous
100
AcDbCircle
 10
110.4999999999999
 20
309.385441
 30
0.0
 40
1.5
100
AcDbArc
 50
106.7723929999998
 51
180.0
  0
LINE
  5
11049
330
10FD6
100
AcDbEntity
  8
1
  6
Continuous
100
AcDbLine
 10
109.0
 20
304.4999999999999
 30
0.0
 11
127.0
 21
304.4999999999999
 31
0.0
  0
ARC
  5
1104A
330
10FD6
100
AcDbEntity
  8
1
  6
Continuous
100
AcDbCircle
 10
331.0
 20
319.5
 30
0.0
 40
11.0
100
AcDbArc
 50
65.38002299999999
 51
114.619977
  0
LINE
  5
1104B
330
10FD6
100
AcDbEntity
  8
1
  6
Continuous
100
AcDbLine
 10
610.0
 20
233.4999999999999
 30
0.0
 11
314.0
 21
233.4999999999999
 31
0.0
  0
LINE
  5
1104C
330
10FD6
100
AcDbEntity
  8
1
  6
Continuous
100
AcDbLine
 10
405.0
 20
221.0
 30
0.0
 11
109.0
 21
221.0
 31
0.0
  0
LINE
  5
1104D
330
10FD6
100
AcDbEntity
  8
1
  6
Continuous
100
AcDbLine
 10
610.0
 20
151.0
 30
0.0
 11
384.0
 21
151.0
 31
0.0
  0
LINE
  5
1104E
330
10FD6
100
AcDbEntity
  8
1
  6
Continuous
100
AcDbLine
 10
610.0
 20
149.5
 30
0.0
 11
383.0
 21
149.5
 31
0.0
  0
LINE
  5
1104F
330
10FD6
100
AcDbEntity
  8
1
  6
Continuous
100
AcDbLine
 10
567.0
 20
125.0
 30
0.0
 11
399.75
 21
125.0
 31
0.0
  0
LINE
  5
11050
330
10FD6
100
AcDbEntity
  8
1
  6
Continuous
100
AcDbLine
 10
380.0
 20
147.5
 30
0.0
 11
156.0
 21
147.5
 31
0.0
  0
LINE
  5
11051
330
10FD6
100
AcDbEntity
  8
1
  6
Continuous
100
AcDbLine
 10
397.763932
 20
123.5
 30
0.0
 11
111.0
 21
123.5
 31
0.0
  0
LINE
  5
11052
330
10FD6
100
AcDbEntity
  8
1
  6
Continuous
100
AcDbLine
 10
156.0
 20
147.5
 30
0.0
 11
127.0
 21
150.0
 31
0.0
  0
LINE
  5
11053
330
10FD6
100
AcDbEntity
  8
1
  6
Continuous
100
AcDbLine
 10
109.0
 20
150.0
 30
0.0
 11
109.0
 21
145.114559
 31
0.0
  0
LINE
  5
11054
330
10FD6
100
AcDbEntity
  8
1
  6
Continuous
100
AcDbLine
 10
114.0
 20
150.0
 30
0.0
 11
114.0
 21
148.0
 31
0.0
  0
ARC
  5
11055
330
10FD6
100
AcDbEntity
  8
1
  6
Continuous
100
AcDbCircle
 10
115.5
 20
148.0
 30
0.0
 40
1.5
100
AcDbArc
 50
180.0
 51
270.0
  0
LINE
  5
11056
330
10FD6
100
AcDbEntity
  8
1
  6
Continuous
100
AcDbLine
 10
110.0671439999999
 20
143.678371
 30
0.0
 11
117.577141
 21
141.4149169999998
 31
0.0
  0
LINE
  5
11057
330
10FD6
100
AcDbEntity
  8
1
  6
Continuous
100
AcDbLine
 10
110.4999999999999
 20
137.5
 30
0.0
 11
117.0
 21
137.5
 31
0.0
  0
LINE
  5
11058
330
10FD6
100
AcDbEntity
  8
1
  6
Continuous
100
AcDbLine
 10
114.0
 20
148.5
 30
0.0
 11
126.9354649999998
 21
148.5
 31
0.0
  0
LINE
  5
11059
330
10FD6
100
AcDbEntity
  8
1
  6
Continuous
100
AcDbLine
 10
109.0
 20
136.0
 30
0.0
 11
109.0
 21
125.5
 31
0.0
  0
ARC
  5
1105A
330
10FD6
100
AcDbEntity
  8
1
  6
Continuous
100
AcDbCircle
 10
111.0
 20
125.5
 30
0.0
 40
2.0
100
AcDbArc
 50
180.0
 51
270.0
  0
ARC
  5
1105B
330
10FD6
100
AcDbEntity
  8
1
  6
Continuous
100
AcDbCircle
 10
110.4999999999999
 20
145.114559
 30
0.0
 40
1.5
100
AcDbArc
 50
180.0
 51
253.2276069999999
  0
ARC
  5
1105C
330
10FD6
100
AcDbEntity
  8
1
  6
Continuous
100
AcDbCircle
 10
110.4999999999999
 20
136.0
 30
0.0
 40
1.5
100
AcDbArc
 50
90.0
 51
180.0
  0
LINE
  5
1105D
330
10FD6
100
AcDbEntity
  8
4
  6
CENTER
100
AcDbLine
 10
119.25
 20
137.5
 30
0.0
 11
140.7499999999998
 21
137.5
 31
0.0
  0
LINE
  5
1105E
330
10FD6
100
AcDbEntity
  8
1
  6
Continuous
100
AcDbLine
 10
142.0
 20
146.5
 30
0.0
 11
115.5
 21
146.5
 31
0.0
  0
LINE
  5
1105F
330
10FD6
100
AcDbEntity
  8
1
  6
Continuous
100
AcDbLine
 10
143.198508
 20
147.0980139999998
 30
0.0
 11
126.9354649999998
 21
148.5
 31
0.0
  0
CIRCLE
  5
11060
330
10FD6
100
AcDbEntity
  8
1
  6
Continuous
100
AcDbCircle
 10
125.0
 20
137.5
 30
0.0
 40
2.399999999999999
  0
LINE
  5
11061
330
10FD6
100
AcDbEntity
  8
4
  6
CENTER
100
AcDbLine
 10
125.0
 20
131.75
 30
0.0
 11
125.0
 21
143.25
 31
0.0
  0
ARC
  5
11062
330
10FD6
100
AcDbEntity
  8
1
  6
Continuous
100
AcDbCircle
 10
117.0
 20
139.5
 30
0.0
 40
2.0
100
AcDbArc
 50
270.0
 51
73.22760699999998
  0
ARC
  5
11063
330
10FD6
100
AcDbEntity
  8
1
  6
Continuous
100
AcDbCircle
 10
135.0
 20
138.5
 30
0.0
 40
2.399999999999999
100
AcDbArc
 50
0.0
 51
180.0
  0
LINE
  5
11064
330
10FD6
100
AcDbEntity
  8
1
  6
Continuous
100
AcDbLine
 10
132.6
 20
136.4999999999998
 30
0.0
 11
132.6
 21
138.5
 31
0.0
  0
ARC
  5
11065
330
10FD6
100
AcDbEntity
  8
1
  6
Continuous
100
AcDbCircle
 10
135.0
 20
136.4999999999998
 30
0.0
 40
2.399999999999999
100
AcDbArc
 50
180.0
 51
0.0
  0
LINE
  5
11066
330
10FD6
100
AcDbEntity
  8
1
  6
Continuous
100
AcDbLine
 10
137.4
 20
136.4999999999998
 30
0.0
 11
137.4
 21
138.5
 31
0.0
  0
LINE
  5
11067
330
10FD6
100
AcDbEntity
  8
4
  6
CENTER
100
AcDbLine
 10
135.0
 20
130.75
 30
0.0
 11
135.0
 21
144.25
 31
0.0
  0
LINE
  5
11068
330
10FD6
100
AcDbEntity
  8
1
  6
Continuous
100
AcDbLine
 10
143.5
 20
148.5775859999999
 30
0.0
 11
143.5
 21
148.0
 31
0.0
  0
ARC
  5
11069
330
10FD6
100
AcDbEntity
  8
1
  6
Continuous
100
AcDbCircle
 10
142.0
 20
148.0
 30
0.0
 40
1.5
100
AcDbArc
 50
270.0
 51
0.0
  0
LINE
  5
1106A
330
10FD6
100
AcDbEntity
  8
1
  6
Continuous
100
AcDbLine
 10
109.0
 20
150.0
 30
0.0
 11
127.0
 21
150.0
 31
0.0
  0
LINE
  5
1106B
330
10FD6
100
AcDbEntity
  8
4
  6
CENTER
100
AcDbLine
 10
339.25
 20
143.0
 30
0.0
 11
350.75
 21
143.0
 31
0.0
  0
LINE
  5
1106C
330
10FD6
100
AcDbEntity
  8
4
  6
CENTER
100
AcDbLine
 10
346.0
 20
135.0
 30
0.0
 11
316.0
 21
135.0
 31
0.0
  0
LINE
  5
1106D
330
10FD6
100
AcDbEntity
  8
3
  6
DASHED
100
AcDbLine
 10
399.75
 20
125.0
 30
0.0
 11
364.5
 21
125.0
 31
0.0
  0
LINE
  5
1106E
330
10FD6
100
AcDbEntity
  8
1
  6
Continuous
100
AcDbLine
 10
379.0
 20
151.0
 30
0.0
 11
316.0
 21
151.0
 31
0.0
  0
ARC
  5
1106F
330
10FD6
100
AcDbEntity
  8
1
  6
Continuous
100
AcDbCircle
 10
280.0
 20
136.4999999999998
 30
0.0
 40
2.399999999999999
100
AcDbArc
 50
180.0
 51
0.0
  0
ARC
  5
11070
330
10FD6
100
AcDbEntity
  8
1
  6
Continuous
100
AcDbCircle
 10
280.0
 20
138.5
 30
0.0
 40
2.399999999999999
100
AcDbArc
 50
0.0
 51
180.0
  0
LINE
  5
11071
330
10FD6
100
AcDbEntity
  8
4
  6
CENTER
100
AcDbLine
 10
295.7499999999999
 20
137.5
 30
0.0
 11
274.25
 21
137.5
 31
0.0
  0
LINE
  5
11072
330
10FD6
100
AcDbEntity
  8
1
  6
Continuous
100
AcDbLine
 10
277.6
 20
136.4999999999998
 30
0.0
 11
277.6
 21
138.5
 31
0.0
  0
LINE
  5
11073
330
10FD6
100
AcDbEntity
  8
4
  6
CENTER
100
AcDbLine
 10
319.55
 20
143.1999999999999
 30
0.0
 11
319.55
 21
150.6999999999998
 31
0.0
  0
LINE
  5
11074
330
10FD6
100
AcDbEntity
  8
4
  6
CENTER
100
AcDbLine
 10
331.0
 20
120.0
 30
0.0
 11
331.0
 21
150.0
 31
0.0
  0
LINE
  5
11075
330
10FD6
100
AcDbEntity
  8
4
  6
CENTER
100
AcDbLine
 10
290.0
 20
131.75
 30
0.0
 11
290.0
 21
143.25
 31
0.0
  0
CIRCLE
  5
11076
330
10FD6
100
AcDbEntity
  8
1
  6
Continuous
100
AcDbCircle
 10
290.0
 20
137.5
 30
0.0
 40
2.399999999999999
  0
LINE
  5
11077
330
10FD6
100
AcDbEntity
  8
4
  6
CENTER
100
AcDbLine
 10
280.0
 20
130.75
 30
0.0
 11
280.0
 21
144.25
 31
0.0
  0
LINE
  5
11078
330
10FD6
100
AcDbEntity
  8
1
  6
Continuous
100
AcDbLine
 10
282.3999999999998
 20
136.4999999999998
 30
0.0
 11
282.3999999999998
 21
138.5
 31
0.0
  0
CIRCLE
  5
11079
330
10FD6
100
AcDbEntity
  8
3
  6
DASHED
100
AcDbCircle
 10
331.0
 20
135.0
 30
0.0
 40
11.0
  0
LINE
  5
1107A
330
10FD6
100
AcDbEntity
  8
3
  6
DASHED
100
AcDbLine
 10
314.0
 20
127.0
 30
0.0
 11
314.0
 21
147.5
 31
0.0
  0
LINE
  5
1107B
330
10FD6
100
AcDbEntity
  8
1
  6
Continuous
100
AcDbLine
 10
314.0
 20
149.0
 30
0.0
 11
314.0
 21
147.5
 31
0.0
  0
ARC
  5
1107C
330
10FD6
100
AcDbEntity
  8
1
  6
Continuous
100
AcDbCircle
 10
319.55
 20
146.9499999999999
 30
0.0
 40
1.75
100
AcDbArc
 50
18.317698
 51
161.6823019999999
  0
LINE
  5
1107D
330
10FD6
100
AcDbEntity
  8
4
  6
CENTER
100
AcDbLine
 10
315.8
 20
146.9499999999999
 30
0.0
 11
323.3
 21
146.9499999999999
 31
0.0
  0
LINE
  5
1107E
330
10FD6
100
AcDbEntity
  8
4
  6
CENTER
100
AcDbLine
 10
391.0
 20
122.5
 30
0.0
 11
391.0
 21
152.5
 31
0.0
  0
CIRCLE
  5
1107F
330
10FD6
100
AcDbEntity
  8
1
  6
Continuous
100
AcDbCircle
 10
375.0
 20
137.5
 30
0.0
 40
2.399999999999999
  0
LINE
  5
11080
330
10FD6
100
AcDbEntity
  8
4
  6
CENTER
100
AcDbLine
 10
364.25
 20
135.0
 30
0.0
 11
385.7499999999999
 21
135.0
 31
0.0
  0
LINE
  5
11081
330
10FD6
100
AcDbEntity
  8
4
  6
CENTER
100
AcDbLine
 10
406.0
 20
137.5
 30
0.0
 11
359.25
 21
137.5
 31
0.0
  0
LINE
  5
11082
330
10FD6
100
AcDbEntity
  8
4
  6
CENTER
100
AcDbLine
 10
345.0
 20
137.25
 30
0.0
 11
345.0
 21
148.75
 31
0.0
  0
ARC
  5
11083
330
10FD6
100
AcDbEntity
  8
1
  6
Continuous
100
AcDbCircle
 10
365.0
 20
138.5
 30
0.0
 40
2.399999999999999
100
AcDbArc
 50
0.0
 51
180.0
  0
LINE
  5
11084
330
10FD6
100
AcDbEntity
  8
1
  6
Continuous
100
AcDbLine
 10
367.3999999999999
 20
136.4999999999998
 30
0.0
 11
367.3999999999999
 21
138.5
 31
0.0
  0
ARC
  5
11085
330
10FD6
100
AcDbEntity
  8
1
  6
Continuous
100
AcDbCircle
 10
365.0
 20
136.4999999999998
 30
0.0
 40
2.399999999999999
100
AcDbArc
 50
180.0
 51
0.0
  0
LINE
  5
11086
330
10FD6
100
AcDbEntity
  8
1
  6
Continuous
100
AcDbLine
 10
362.6
 20
136.4999999999998
 30
0.0
 11
362.6
 21
138.5
 31
0.0
  0
LINE
  5
11087
330
10FD6
100
AcDbEntity
  8
4
  6
CENTER
100
AcDbLine
 10
375.0
 20
131.75
 30
0.0
 11
375.0
 21
143.25
 31
0.0
  0
LINE
  5
11088
330
10FD6
100
AcDbEntity
  8
4
  6
CENTER
100
AcDbLine
 10
365.0
 20
130.75
 30
0.0
 11
365.0
 21
144.25
 31
0.0
  0
LINE
  5
11089
330
10FD6
100
AcDbEntity
  8
4
  6
CENTER
100
AcDbLine
 10
370.0
 20
129.2499999999998
 30
0.0
 11
370.0
 21
140.7499999999998
 31
0.0
  0
LINE
  5
1108A
330
10FD6
100
AcDbEntity
  8
1
  6
Continuous
100
AcDbLine
 10
399.5527859999999
 20
124.6055729999998
 30
0.0
 11
405.0
 21
135.4999999999998
 31
0.0
  0
ARC
  5
1108B
330
10FD6
100
AcDbEntity
  8
3
  6
DASHED
100
AcDbCircle
 10
391.0
 20
137.5
 30
0.0
 40
11.0
100
AcDbArc
 50
114.619977
 51
65.38002299999999
  0
LINE
  5
1108C
330
10FD6
100
AcDbEntity
  8
1
  6
Continuous
100
AcDbLine
 10
403.0
 20
147.5
 30
0.0
 11
385.0
 21
147.5
 31
0.0
  0
ARC
  5
1108D
330
10FD6
100
AcDbEntity
  8
1
  6
Continuous
100
AcDbCircle
 10
391.0
 20
137.5
 30
0.0
 40
11.0
100
AcDbArc
 50
65.38002299999999
 51
114.619977
  0
CIRCLE
  5
1108E
330
10FD6
100
AcDbEntity
  8
1
  6
Continuous
100
AcDbCircle
 10
391.0
 20
137.5
 30
0.0
 40
3.0
  0
CIRCLE
  5
1108F
330
10FD6
100
AcDbEntity
  8
1
  6
Continuous
100
AcDbCircle
 10
391.0
 20
137.5
 30
0.0
 40
5.0
  0
LINE
  5
11090
330
10FD6
100
AcDbEntity
  8
1
  6
Continuous
100
AcDbLine
 10
381.0
 20
146.0
 30
0.0
 11
385.0
 21
147.5
 31
0.0
  0
LINE
  5
11091
330
10FD6
100
AcDbEntity
  8
1
  6
Continuous
100
AcDbLine
 10
380.0
 20
146.0
 30
0.0
 11
380.0
 21
147.5
 31
0.0
  0
LINE
  5
11092
330
10FD6
100
AcDbEntity
  8
1
  6
Continuous
100
AcDbLine
 10
381.0
 20
146.0
 30
0.0
 11
380.0
 21
146.0
 31
0.0
  0
LINE
  5
11093
330
10FD6
100
AcDbEntity
  8
4
  6
CENTER
100
AcDbLine
 10
380.0
 20
128.2499999999998
 30
0.0
 11
380.0
 21
141.7499999999998
 31
0.0
  0
LINE
  5
11094
330
10FD6
100
AcDbEntity
  8
1
  6
Continuous
100
AcDbLine
 10
384.0
 20
149.5
 30
0.0
 11
384.0
 21
151.0
 31
0.0
  0
LINE
  5
11095
330
10FD6
100
AcDbEntity
  8
1
  6
Continuous
100
AcDbLine
 10
383.0
 20
149.5
 30
0.0
 11
379.0
 21
151.0
 31
0.0
  0
ARC
  5
11096
330
10FD6
100
AcDbEntity
  8
1
  6
Continuous
100
AcDbCircle
 10
596.0
 20
135.0
 30
0.0
 40
11.0
100
AcDbArc
 50
26.33707499999999
 51
63.662925
  0
ARC
  5
11097
330
10FD6
100
AcDbEntity
  8
1
  6
Continuous
100
AcDbCircle
 10
596.0
 20
135.0
 30
0.0
 40
12.5
100
AcDbArc
 50
26.33707499999999
 51
63.662925
  0
LINE
  5
11098
330
10FD6
100
AcDbEntity
  8
1
  6
Continuous
100
AcDbLine
 10
607.202494
 20
140.54564
 30
0.0
 11
602.2733969999998
 21
138.1055579999998
 31
0.0
  0
LINE
  5
11099
330
10FD6
100
AcDbEntity
  8
1
  6
Continuous
100
AcDbLine
 10
608.4999999999999
 20
135.0
 30
0.0
 11
602.0
 21
135.0
 31
0.0
  0
LINE
  5
1109A
330
10FD6
100
AcDbEntity
  8
1
  6
Continuous
100
AcDbLine
 10
608.932856
 20
128.821629
 30
0.0
 11
601.422859
 21
131.0850829999999
 31
0.0
  0
LINE
  5
1109B
330
10FD6
100
AcDbEntity
  8
1
  6
Continuous
100
AcDbLine
 10
610.0
 20
122.5
 30
0.0
 11
595.0
 21
122.5
 31
0.0
  0
CIRCLE
  5
1109C
330
10FD6
100
AcDbEntity
  8
1
  6
Continuous
100
AcDbCircle
 10
482.5
 20
135.0
 30
0.0
 40
2.399999999999999
  0
CIRCLE
  5
1109D
330
10FD6
100
AcDbEntity
  8
1
  6
Continuous
100
AcDbCircle
 10
482.5
 20
135.0
 30
0.0
 40
3.75
  0
LINE
  5
1109E
330
10FD6
100
AcDbEntity
  8
4
  6
CENTER
100
AcDbLine
 10
482.5
 20
129.2499999999998
 30
0.0
 11
482.5
 21
140.7499999999998
 31
0.0
  0
LINE
  5
1109F
330
10FD6
100
AcDbEntity
  8
1
  6
Continuous
100
AcDbLine
 10
595.0
 20
122.5
 30
0.0
 11
567.0
 21
125.0
 31
0.0
  0
ARC
  5
110A0
330
10FD6
100
AcDbEntity
  8
1
  6
Continuous
100
AcDbCircle
 10
585.0
 20
134.0
 30
0.0
 40
3.75
100
AcDbArc
 50
180.0
 51
0.0
  0
ARC
  5
110A1
330
10FD6
100
AcDbEntity
  8
1
  6
Continuous
100
AcDbCircle
 10
585.0
 20
136.0
 30
0.0
 40
3.75
100
AcDbArc
 50
0.0
 51
180.0
  0
ARC
  5
110A2
330
10FD6
100
AcDbEntity
  8
1
  6
Continuous
100
AcDbCircle
 10
585.0
 20
136.0
 30
0.0
 40
2.399999999999999
100
AcDbArc
 50
0.0
 51
180.0
  0
ARC
  5
110A3
330
10FD6
100
AcDbEntity
  8
1
  6
Continuous
100
AcDbCircle
 10
585.0
 20
134.0
 30
0.0
 40
2.399999999999999
100
AcDbArc
 50
180.0
 51
0.0
  0
LINE
  5
110A4
330
10FD6
100
AcDbEntity
  8
4
  6
CENTER
100
AcDbLine
 10
585.0
 20
128.2499999999998
 30
0.0
 11
585.0
 21
141.7499999999998
 31
0.0
  0
LINE
  5
110A5
330
10FD6
100
AcDbEntity
  8
1
  6
Continuous
100
AcDbLine
 10
581.25
 20
134.0
 30
0.0
 11
581.25
 21
136.0
 31
0.0
  0
LINE
  5
110A6
330
10FD6
100
AcDbEntity
  8
1
  6
Continuous
100
AcDbLine
 10
582.6
 20
134.0
 30
0.0
 11
582.6
 21
136.0
 31
0.0
  0
LINE
  5
110A7
330
10FD6
100
AcDbEntity
  8
1
  6
Continuous
100
AcDbLine
 10
588.75
 20
134.0
 30
0.0
 11
588.75
 21
136.0
 31
0.0
  0
LINE
  5
110A8
330
10FD6
100
AcDbEntity
  8
1
  6
Continuous
100
AcDbLine
 10
587.3999999999997
 20
134.0
 30
0.0
 11
587.3999999999997
 21
136.0
 31
0.0
  0
LINE
  5
110A9
330
10FD6
100
AcDbEntity
  8
4
  6
CENTER
100
AcDbLine
 10
595.0
 20
129.2499999999998
 30
0.0
 11
595.0
 21
140.7499999999998
 31
0.0
  0
CIRCLE
  5
110AA
330
10FD6
100
AcDbEntity
  8
1
  6
Continuous
100
AcDbCircle
 10
595.0
 20
135.0
 30
0.0
 40
3.75
  0
CIRCLE
  5
110AB
330
10FD6
100
AcDbEntity
  8
1
  6
Continuous
100
AcDbCircle
 10
595.0
 20
135.0
 30
0.0
 40
2.399999999999999
  0
LINE
  5
110AC
330
10FD6
100
AcDbEntity
  8
1
  6
Continuous
100
AcDbLine
 10
601.5456400000001
 20
146.202494
 30
0.0
 11
599.105558
 21
141.2733969999998
 31
0.0
  0
ARC
  5
110AD
330
10FD6
100
AcDbEntity
  8
1
  6
Continuous
100
AcDbCircle
 10
596.0
 20
135.0
 30
0.0
 40
7.0
100
AcDbArc
 50
26.33707499999999
 51
63.662925
  0
ARC
  5
110AE
330
10FD6
100
AcDbEntity
  8
1
  6
Continuous
100
AcDbCircle
 10
602.0
 20
133.0
 30
0.0
 40
2.0
100
AcDbArc
 50
90.0
 51
253.2276069999999
  0
LINE
  5
110AF
330
10FD6
100
AcDbEntity
  8
1
  6
Continuous
100
AcDbLine
 10
610.0
 20
136.4999999999998
 30
0.0
 11
610.0
 21
151.0
 31
0.0
  0
ARC
  5
110B0
330
10FD6
100
AcDbEntity
  8
1
  6
Continuous
100
AcDbCircle
 10
608.4999999999999
 20
127.3854409999999
 30
0.0
 40
1.5
100
AcDbArc
 50
0.0
 51
73.22760699999998
  0
LINE
  5
110B1
330
10FD6
100
AcDbEntity
  8
1
  6
Continuous
100
AcDbLine
 10
610.0
 20
122.5
 30
0.0
 11
610.0
 21
127.3854409999999
 31
0.0
  0
ARC
  5
110B2
330
10FD6
100
AcDbEntity
  8
1
  6
Continuous
100
AcDbCircle
 10
608.4999999999999
 20
136.4999999999998
 30
0.0
 40
1.5
100
AcDbArc
 50
270.0
 51
0.0
  0
ARC
  5
110B3
330
10FD6
100
AcDbEntity
  8
3
  6
DASHED
100
AcDbCircle
 10
391.0
 20
317.0
 30
0.0
 40
11.0
100
AcDbArc
 50
184.691603
 51
150.4422459999998
  0
ARC
  5
110B4
330
10FD6
100
AcDbEntity
  8
3
  6
DASHED
100
AcDbCircle
 10
331.0
 20
319.5
 30
0.0
 40
11.0
100
AcDbArc
 50
114.619977
 51
65.38002299999999
  0
LINE
  5
110B5
330
10FD6
100
AcDbEntity
  8
1
  6
Continuous
100
AcDbLine
 10
314.0
 20
307.0
 30
0.0
 11
156.0
 21
307.0
 31
0.0
  0
CIRCLE
  5
110B6
330
10FD6
100
AcDbEntity
  8
1
  6
Continuous
100
AcDbCircle
 10
319.55
 20
307.55
 30
0.0
 40
1.75
  0
CIRCLE
  5
110B7
330
10FD6
100
AcDbEntity
  8
1
  6
Continuous
100
AcDbCircle
 10
345.0
 20
311.5
 30
0.0
 40
2.399999999999999
  0
ARC
  5
110B8
330
10FD6
100
AcDbEntity
  8
1
  6
Continuous
100
AcDbCircle
 10
391.0
 20
317.0
 30
0.0
 40
11.0
100
AcDbArc
 50
150.4422459999998
 51
184.691603
  0
LINE
  5
110B9
330
10FD6
100
AcDbEntity
  8
1
  6
Continuous
100
AcDbLine
 10
405.0
 20
135.4999999999998
 30
0.0
 11
405.0
 21
145.5
 31
0.0
  0
LINE
  5
110BA
330
10FD6
100
AcDbEntity
  8
1
  6
Continuous
100
AcDbLine
 10
363.5
 20
328.0
 30
0.0
 11
359.5
 21
329.4999999999999
 31
0.0
  0
LINE
  5
110BB
330
10FD6
100
AcDbEntity
  8
1
  6
Continuous
100
AcDbLine
 10
364.5
 20
329.4999999999999
 30
0.0
 11
364.5
 21
328.0
 31
0.0
  0
LINE
  5
110BC
330
10FD6
100
AcDbEntity
  8
1
  6
Continuous
100
AcDbLine
 10
383.0
 20
305.0
 30
0.0
 11
384.0
 21
305.0
 31
0.0
  0
LINE
  5
110BD
330
10FD6
100
AcDbEntity
  8
1
  6
Continuous
100
AcDbLine
 10
364.5
 20
328.0
 30
0.0
 11
363.5
 21
328.0
 31
0.0
  0
LINE
  5
110BE
330
10FD6
100
AcDbEntity
  8
1
  6
Continuous
100
AcDbLine
 10
359.5
 20
329.4999999999999
 30
0.0
 11
316.0
 21
329.4999999999999
 31
0.0
  0
LINE
  5
110BF
330
10FD6
100
AcDbEntity
  8
1
  6
Continuous
100
AcDbLine
 10
283.75
 20
318.0
 30
0.0
 11
283.75
 21
316.0
 31
0.0
  0
LINE
  5
110C0
330
10FD6
100
AcDbEntity
  8
1
  6
Continuous
100
AcDbLine
 10
276.25
 20
318.0
 30
0.0
 11
276.25
 21
316.0
 31
0.0
  0
ARC
  5
110C1
330
10FD6
100
AcDbEntity
  8
1
  6
Continuous
100
AcDbCircle
 10
280.0
 20
316.0
 30
0.0
 40
3.75
100
AcDbArc
 50
180.0
 51
0.0
  0
CIRCLE
  5
110C2
330
10FD6
100
AcDbEntity
  8
1
  6
Continuous
100
AcDbCircle
 10
290.0
 20
317.0
 30
0.0
 40
3.75
  0
ARC
  5
110C3
330
10FD6
100
AcDbEntity
  8
1
  6
Continuous
100
AcDbCircle
 10
280.0
 20
318.0
 30
0.0
 40
3.75
100
AcDbArc
 50
0.0
 51
180.0
  0
CIRCLE
  5
110C4
330
10FD6
100
AcDbEntity
  8
1
  6
Continuous
100
AcDbCircle
 10
125.0
 20
317.0
 30
0.0
 40
3.75
  0
ARC
  5
110C5
330
10FD6
100
AcDbEntity
  8
1
  6
Continuous
100
AcDbCircle
 10
135.0
 20
318.0
 30
0.0
 40
3.75
100
AcDbArc
 50
0.0
 51
180.0
  0
LINE
  5
110C6
330
10FD6
100
AcDbEntity
  8
1
  6
Continuous
100
AcDbLine
 10
131.25
 20
318.0
 30
0.0
 11
131.25
 21
316.0
 31
0.0
  0
LINE
  5
110C7
330
10FD6
100
AcDbEntity
  8
1
  6
Continuous
100
AcDbLine
 10
138.7499999999998
 20
318.0
 30
0.0
 11
138.7499999999998
 21
316.0
 31
0.0
  0
ARC
  5
110C8
330
10FD6
100
AcDbEntity
  8
1
  6
Continuous
100
AcDbCircle
 10
135.0
 20
316.0
 30
0.0
 40
3.75
100
AcDbArc
 50
180.0
 51
0.0
  0
LINE
  5
110C9
330
10FD6
100
AcDbEntity
  8
3
  6
DASHED
100
AcDbLine
 10
363.5
 20
126.5
 30
0.0
 11
400.4999999999998
 21
126.5
 31
0.0
  0
LINE
  5
110CA
330
10FD6
100
AcDbEntity
  8
3
  6
DASHED
100
AcDbLine
 10
364.5
 20
125.0
 30
0.0
 11
364.5
 21
126.5
 31
0.0
  0
LINE
  5
110CB
330
10FD6
100
AcDbEntity
  8
3
  6
DASHED
100
AcDbLine
 10
363.5
 20
126.5
 30
0.0
 11
359.5
 21
125.0
 31
0.0
  0
LINE
  5
110CC
330
10FD6
100
AcDbEntity
  8
3
  6
DASHED
100
AcDbLine
 10
359.5
 20
125.0
 30
0.0
 11
316.0
 21
125.0
 31
0.0
  0
LINE
  5
110CD
330
10FD6
100
AcDbEntity
  8
3
  6
DASHED
100
AcDbLine
 10
381.4999999999998
 20
308.4999999999999
 30
0.0
 11
341.0201059999999
 21
308.4999999999999
 31
0.0
  0
LINE
  5
110CE
330
10FD6
100
AcDbEntity
  8
3
  6
DASHED
100
AcDbLine
 10
337.78233
 20
309.0
 30
0.0
 11
340.53233
 21
307.0
 31
0.0
  0
LINE
  5
110CF
330
10FD6
100
AcDbEntity
  8
3
  6
DASHED
100
AcDbLine
 10
337.78233
 20
309.0
 30
0.0
 11
335.0323299999999
 21
307.0
 31
0.0
  0
LINE
  5
110D0
330
10FD6
100
AcDbEntity
  8
3
  6
DASHED
100
AcDbLine
 10
338.6645879999999
 20
310.2131039999998
 30
0.0
 11
341.0201059999999
 21
308.4999999999999
 31
0.0
  0
LINE
  5
110D1
330
10FD6
100
AcDbEntity
  8
3
  6
DASHED
100
AcDbLine
 10
336.900072
 20
310.2131039999998
 30
0.0
 11
334.544554
 21
308.4999999999999
 31
0.0
  0
ARC
  5
110D2
330
10FD6
100
AcDbEntity
  8
3
  6
DASHED
100
AcDbCircle
 10
337.78233
 20
309.0
 30
0.0
 40
1.5
100
AcDbArc
 50
53.972627
 51
126.0273729999997
  0
LINE
  5
110D3
330
10FD6
100
AcDbEntity
  8
1
  6
Continuous
100
AcDbLine
 10
608.4999999999999
 20
225.4999999999999
 30
0.0
 11
385.5
 21
225.4999999999999
 31
0.0
  0
LINE
  5
110D4
330
10FD6
100
AcDbEntity
  8
1
  6
Continuous
100
AcDbLine
 10
109.0
 20
221.0
 30
0.0
 11
109.0
 21
229.0
 31
0.0
  0
LINE
  5
110D5
330
10FD6
100
AcDbEntity
  8
1
  6
Continuous
100
AcDbLine
 10
314.0
 20
233.4999999999999
 30
0.0
 11
314.0
 21
232.0
 31
0.0
  0
LINE
  5
110D6
330
10FD6
100
AcDbEntity
  8
1
  6
Continuous
100
AcDbLine
 10
380.0
 20
221.0
 30
0.0
 11
380.0
 21
231.4999999999999
 31
0.0
  0
LINE
  5
110D7
330
10FD6
100
AcDbEntity
  8
1
  6
Continuous
100
AcDbLine
 10
384.0
 20
232.0
 30
0.0
 11
314.0
 21
232.0
 31
0.0
  0
LINE
  5
110D8
330
10FD6
100
AcDbEntity
  8
1
  6
Continuous
100
AcDbLine
 10
156.0
 20
222.0
 30
0.0
 11
156.0
 21
228.0
 31
0.0
  0
LINE
  5
110D9
330
10FD6
100
AcDbEntity
  8
1
  6
Continuous
100
AcDbLine
 10
143.5
 20
221.0
 30
0.0
 11
143.5
 21
224.0
 31
0.0
  0
LINE
  5
110DA
330
10FD6
100
AcDbEntity
  8
1
  6
Continuous
100
AcDbLine
 10
143.5
 20
222.5
 30
0.0
 11
114.0
 21
222.5
 31
0.0
  0
LINE
  5
110DB
330
10FD6
100
AcDbEntity
  8
1
  6
Continuous
100
AcDbLine
 10
142.0
 20
225.4999999999999
 30
0.0
 11
115.5
 21
225.4999999999999
 31
0.0
  0
LINE
  5
110DC
330
10FD6
100
AcDbEntity
  8
1
  6
Continuous
100
AcDbLine
 10
114.0
 20
224.0
 30
0.0
 11
114.0
 21
221.0
 31
0.0
  0
ARC
  5
110DD
330
10FD6
100
AcDbEntity
  8
1
  6
Continuous
100
AcDbCircle
 10
115.5
 20
224.0
 30
0.0
 40
1.5
100
AcDbArc
 50
90.0
 51
180.0
  0
ARC
  5
110DE
330
10FD6
100
AcDbEntity
  8
1
  6
Continuous
100
AcDbCircle
 10
142.0
 20
224.0
 30
0.0
 40
1.5
100
AcDbArc
 50
0.0
 51
90.0
  0
LINE
  5
110DF
330
10FD6
100
AcDbEntity
  8
1
  6
Continuous
100
AcDbLine
 10
405.0
 20
222.5
 30
0.0
 11
405.0
 21
221.0
 31
0.0
  0
LINE
  5
110E0
330
10FD6
100
AcDbEntity
  8
1
  6
Continuous
100
AcDbLine
 10
405.0
 20
222.5
 30
0.0
 11
380.0
 21
222.5
 31
0.0
  0
LINE
  5
110E1
330
10FD6
100
AcDbEntity
  8
4
  6
CENTER
100
AcDbLine
 10
391.0
 20
237.6235419999999
 30
0.0
 11
391.0
 21
217.1560739999999
 31
0.0
  0
LINE
  5
110E2
330
10FD6
100
AcDbEntity
  8
4
  6
CENTER
100
AcDbLine
 10
375.0
 20
218.0
 30
0.0
 11
375.0
 21
224.5
 31
0.0
  0
LINE
  5
110E3
330
10FD6
100
AcDbEntity
  8
4
  6
CENTER
100
AcDbLine
 10
365.0
 20
218.0
 30
0.0
 11
365.0
 21
224.5
 31
0.0
  0
LINE
  5
110E4
330
10FD6
100
AcDbEntity
  8
4
  6
CENTER
100
AcDbLine
 10
290.0
 20
218.0
 30
0.0
 11
290.0
 21
224.5
 31
0.0
  0
LINE
  5
110E5
330
10FD6
100
AcDbEntity
  8
4
  6
CENTER
100
AcDbLine
 10
280.0
 20
218.0
 30
0.0
 11
280.0
 21
224.5
 31
0.0
  0
LINE
  5
110E6
330
10FD6
100
AcDbEntity
  8
4
  6
CENTER
100
AcDbLine
 10
135.0
 20
218.0
 30
0.0
 11
135.0
 21
224.5
 31
0.0
  0
LINE
  5
110E7
330
10FD6
100
AcDbEntity
  8
4
  6
CENTER
100
AcDbLine
 10
125.0
 20
218.0
 30
0.0
 11
125.0
 21
224.5
 31
0.0
  0
LINE
  5
110E8
330
10FD6
100
AcDbEntity
  8
1
  6
Continuous
100
AcDbLine
 10
384.0
 20
227.0
 30
0.0
 11
384.0
 21
233.4999999999999
 31
0.0
  0
LINE
  5
110E9
330
10FD6
100
AcDbEntity
  8
1
  6
Continuous
100
AcDbLine
 10
364.5
 20
229.0
 30
0.0
 11
364.5
 21
232.0
 31
0.0
  0
LINE
  5
110EA
330
10FD6
100
AcDbEntity
  8
1
  6
Continuous
100
AcDbLine
 10
383.0
 20
232.0
 30
0.0
 11
383.0
 21
233.4999999999999
 31
0.0
  0
LINE
  5
110EB
330
10FD6
100
AcDbEntity
  8
1
  6
Continuous
100
AcDbLine
 10
379.0
 20
232.0
 30
0.0
 11
379.0
 21
233.4999999999999
 31
0.0
  0
ARC
  5
110EC
330
10FD6
100
AcDbEntity
  8
1
  6
Continuous
100
AcDbCircle
 10
385.5
 20
227.0
 30
0.0
 40
1.5
100
AcDbArc
 50
180.0
 51
270.0
  0
LINE
  5
110ED
330
10FD6
100
AcDbEntity
  8
1
  6
Continuous
100
AcDbLine
 10
384.0857859999999
 20
226.5
 30
0.0
 11
380.0
 21
226.5
 31
0.0
  0
LINE
  5
110EE
330
10FD6
100
AcDbEntity
  8
1
  6
Continuous
100
AcDbLine
 10
397.0
 20
225.4999999999999
 30
0.0
 11
397.0
 21
223.4999999999998
 31
0.0
  0
LINE
  5
110EF
330
10FD6
100
AcDbEntity
  8
1
  6
Continuous
100
AcDbLine
 10
385.0
 20
225.5857859999999
 30
0.0
 11
385.0
 21
223.4999999999998
 31
0.0
  0
LINE
  5
110F0
330
10FD6
100
AcDbEntity
  8
1
  6
Continuous
100
AcDbLine
 10
384.0
 20
231.4999999999999
 30
0.0
 11
380.0
 21
231.4999999999999
 31
0.0
  0
LINE
  5
110F1
330
10FD6
100
AcDbEntity
  8
1
  6
Continuous
100
AcDbLine
 10
397.0
 20
225.0
 30
0.0
 11
385.0
 21
225.0
 31
0.0
  0
LINE
  5
110F2
330
10FD6
100
AcDbEntity
  8
1
  6
Continuous
100
AcDbLine
 10
397.0
 20
223.4999999999998
 30
0.0
 11
385.0
 21
223.4999999999998
 31
0.0
  0
LINE
  5
110F3
330
10FD6
100
AcDbEntity
  8
1
  6
Continuous
100
AcDbLine
 10
396.7928929999998
 20
223.2071069999999
 30
0.0
 11
397.5
 21
222.5
 31
0.0
  0
LINE
  5
110F4
330
10FD6
100
AcDbEntity
  8
1
  6
Continuous
100
AcDbLine
 10
385.207107
 20
223.2071069999999
 30
0.0
 11
384.5
 21
222.5
 31
0.0
  0
ARC
  5
110F5
330
10FD6
100
AcDbEntity
  8
1
  6
Continuous
100
AcDbCircle
 10
385.914214
 20
222.5
 30
0.0
 40
1.0
100
AcDbArc
 50
90.0
 51
135.0
  0
ARC
  5
110F6
330
10FD6
100
AcDbEntity
  8
1
  6
Continuous
100
AcDbCircle
 10
396.0857859999999
 20
222.5
 30
0.0
 40
1.0
100
AcDbArc
 50
45.0
 51
90.0
  0
LINE
  5
110F7
330
10FD6
100
AcDbEntity
  8
4
  6
CENTER
100
AcDbLine
 10
370.0
 20
236.5
 30
0.0
 11
370.0
 21
230.0
 31
0.0
  0
LINE
  5
110F8
330
10FD6
100
AcDbEntity
  8
4
  6
CENTER
100
AcDbLine
 10
380.0
 20
236.5
 30
0.0
 11
380.0
 21
230.0
 31
0.0
  0
LINE
  5
110F9
330
10FD6
100
AcDbEntity
  8
4
  6
CENTER
100
AcDbLine
 10
482.5
 20
236.5
 30
0.0
 11
482.5
 21
230.0
 31
0.0
  0
LINE
  5
110FA
330
10FD6
100
AcDbEntity
  8
4
  6
CENTER
100
AcDbLine
 10
585.0
 20
236.5
 30
0.0
 11
585.0
 21
230.0
 31
0.0
  0
LINE
  5
110FB
330
10FD6
100
AcDbEntity
  8
4
  6
CENTER
100
AcDbLine
 10
595.0
 20
236.5
 30
0.0
 11
595.0
 21
230.0
 31
0.0
  0
LINE
  5
110FC
330
10FD6
100
AcDbEntity
  8
1
  6
Continuous
100
AcDbLine
 10
610.0
 20
233.4999999999999
 30
0.0
 11
610.0
 21
227.0
 31
0.0
  0
LINE
  5
110FD
330
10FD6
100
AcDbEntity
  8
1
  6
Continuous
100
AcDbLine
 10
385.0
 20
225.4999999999999
 30
0.0
 11
380.0
 21
225.4999999999999
 31
0.0
  0
LINE
  5
110FE
330
10FD6
100
AcDbEntity
  8
4
  6
CENTER
100
AcDbLine
 10
331.0
 20
237.768529
 30
0.0
 11
331.0
 21
217.385748
 31
0.0
  0
LINE
  5
110FF
330
10FD6
100
AcDbEntity
  8
1
  6
Continuous
100
AcDbLine
 10
337.0
 20
229.0
 30
0.0
 11
337.0
 21
231.0
 31
0.0
  0
LINE
  5
11100
330
10FD6
100
AcDbEntity
  8
1
  6
Continuous
100
AcDbLine
 10
337.0
 20
231.0
 30
0.0
 11
325.0
 21
231.0
 31
0.0
  0
LINE
  5
11101
330
10FD6
100
AcDbEntity
  8
1
  6
Continuous
100
AcDbLine
 10
325.0
 20
229.0
 30
0.0
 11
325.0
 21
231.0
 31
0.0
  0
ARC
  5
11102
330
10FD6
100
AcDbEntity
  8
1
  6
Continuous
100
AcDbCircle
 10
336.0857859999999
 20
232.0
 30
0.0
 40
1.0
100
AcDbArc
 50
270.0
 51
315.0
  0
LINE
  5
11103
330
10FD6
100
AcDbEntity
  8
1
  6
Continuous
100
AcDbLine
 10
336.792893
 20
231.2928929999999
 30
0.0
 11
337.5
 21
232.0
 31
0.0
  0
ARC
  5
11104
330
10FD6
100
AcDbEntity
  8
1
  6
Continuous
100
AcDbCircle
 10
325.914214
 20
232.0
 30
0.0
 40
1.0
100
AcDbArc
 50
225.0
 51
270.0
  0
LINE
  5
11105
330
10FD6
100
AcDbEntity
  8
1
  6
Continuous
100
AcDbLine
 10
325.2071069999999
 20
231.2928929999999
 30
0.0
 11
324.5
 21
232.0
 31
0.0
  0
LINE
  5
11106
330
10FD6
100
AcDbEntity
  8
3
  6
DASHED
100
AcDbLine
 10
402.0
 20
226.5
 30
0.0
 11
402.0
 21
231.4999999999999
 31
0.0
  0
LINE
  5
11107
330
10FD6
100
AcDbEntity
  8
3
  6
DASHED
100
AcDbLine
 10
402.0
 20
226.5
 30
0.0
 11
384.0857859999999
 21
226.5
 31
0.0
  0
LINE
  5
11108
330
10FD6
100
AcDbEntity
  8
3
  6
DASHED
100
AcDbLine
 10
402.0
 20
231.4999999999999
 30
0.0
 11
384.0
 21
231.4999999999999
 31
0.0
  0
LINE
  5
11109
330
10FD6
100
AcDbEntity
  8
3
  6
DASHED
100
AcDbLine
 10
397.0
 20
226.5
 30
0.0
 11
397.0
 21
225.4999999999999
 31
0.0
  0
LINE
  5
1110A
330
10FD6
100
AcDbEntity
  8
3
  6
DASHED
100
AcDbLine
 10
385.0
 20
226.5
 30
0.0
 11
385.0
 21
225.5857859999999
 31
0.0
  0
LINE
  5
1110B
330
10FD6
100
AcDbEntity
  8
3
  6
DASHED
100
AcDbLine
 10
342.0
 20
228.0
 30
0.0
 11
342.0
 21
223.0
 31
0.0
  0
LINE
  5
1110C
330
10FD6
100
AcDbEntity
  8
3
  6
DASHED
100
AcDbLine
 10
335.0323299999999
 20
223.0
 30
0.0
 11
320.0
 21
223.0
 31
0.0
  0
LINE
  5
1110D
330
10FD6
100
AcDbEntity
  8
3
  6
DASHED
100
AcDbLine
 10
342.0
 20
228.0
 30
0.0
 11
320.0
 21
228.0
 31
0.0
  0
LINE
  5
1110E
330
10FD6
100
AcDbEntity
  8
1
  6
Continuous
100
AcDbLine
 10
337.0
 20
229.4999999999999
 30
0.0
 11
325.0
 21
229.4999999999999
 31
0.0
  0
LINE
  5
1110F
330
10FD6
100
AcDbEntity
  8
3
  6
DASHED
100
AcDbLine
 10
337.0
 20
228.0
 30
0.0
 11
337.0
 21
229.0
 31
0.0
  0
LINE
  5
11110
330
10FD6
100
AcDbEntity
  8
3
  6
DASHED
100
AcDbLine
 10
325.0
 20
228.0
 30
0.0
 11
325.0
 21
229.0
 31
0.0
  0
LINE
  5
11111
330
10FD6
100
AcDbEntity
  8
3
  6
DASHED
100
AcDbLine
 10
320.0
 20
228.0
 30
0.0
 11
320.0
 21
223.0
 31
0.0
  0
LINE
  5
11112
330
10FD6
100
AcDbEntity
  8
4
  6
CENTER
100
AcDbLine
 10
319.55
 20
236.5
 30
0.0
 11
319.55
 21
230.0
 31
0.0
  0
LINE
  5
11113
330
10FD6
100
AcDbEntity
  8
4
  6
CENTER
100
AcDbLine
 10
345.0
 20
236.5
 30
0.0
 11
345.0
 21
230.0
 31
0.0
  0
LINE
  5
11114
330
10FD6
100
AcDbEntity
  8
1
  6
Continuous
100
AcDbLine
 10
109.0
 20
229.0
 30
0.0
 11
378.0
 21
229.0
 31
0.0
  0
LINE
  5
11115
330
10FD6
100
AcDbEntity
  8
1
  6
Continuous
100
AcDbLine
 10
340.53233
 20
228.5
 30
0.0
 11
340.53233
 21
223.0
 31
0.0
  0
LINE
  5
11116
330
10FD6
100
AcDbEntity
  8
1
  6
Continuous
100
AcDbLine
 10
337.78233
 20
228.5
 30
0.0
 11
337.78233
 21
223.0
 31
0.0
  0
LINE
  5
11117
330
10FD6
100
AcDbEntity
  8
1
  6
Continuous
100
AcDbLine
 10
335.0323299999999
 20
228.5
 30
0.0
 11
335.0323299999999
 21
223.0
 31
0.0
  0
LINE
  5
11118
330
10FD6
100
AcDbEntity
  8
1
  6
Continuous
100
AcDbLine
 10
340.53233
 20
223.0
 30
0.0
 11
335.0323299999999
 21
223.0
 31
0.0
  0
LINE
  5
11119
330
10FD6
100
AcDbEntity
  8
1
  6
Continuous
100
AcDbLine
 10
340.53233
 20
228.5
 30
0.0
 11
335.0323299999999
 21
228.5
 31
0.0
  0
LINE
  5
1111A
330
10FD6
100
AcDbEntity
  8
3
  6
DASHED
100
AcDbLine
 10
342.0
 20
223.0
 30
0.0
 11
340.53233
 21
223.0
 31
0.0
  0
LINE
  5
1111B
330
10FD6
100
AcDbEntity
  8
1
  6
Continuous
100
AcDbLine
 10
610.0
 20
41.0
 30
0.0
 11
314.0
 21
41.0
 31
0.0
  0
LINE
  5
1111C
330
10FD6
100
AcDbEntity
  8
1
  6
Continuous
100
AcDbLine
 10
608.4999999999999
 20
49.0
 30
0.0
 11
366.5
 21
49.0
 31
0.0
  0
LINE
  5
1111D
330
10FD6
100
AcDbEntity
  8
1
  6
Continuous
100
AcDbLine
 10
405.0
 20
53.5
 30
0.0
 11
109.0
 21
53.5
 31
0.0
  0
LINE
  5
1111E
330
10FD6
100
AcDbEntity
  8
1
  6
Continuous
100
AcDbLine
 10
142.0
 20
49.0
 30
0.0
 11
115.5
 21
49.0
 31
0.0
  0
LINE
  5
1111F
330
10FD6
100
AcDbEntity
  8
1
  6
Continuous
100
AcDbLine
 10
405.0
 20
52.0
 30
0.0
 11
109.0
 21
52.0
 31
0.0
  0
LINE
  5
11120
330
10FD6
100
AcDbEntity
  8
1
  6
Continuous
100
AcDbLine
 10
109.0
 20
53.5
 30
0.0
 11
109.0
 21
45.49999999999999
 31
0.0
  0
ARC
  5
11121
330
10FD6
100
AcDbEntity
  8
1
  6
Continuous
100
AcDbCircle
 10
115.5
 20
50.5
 30
0.0
 40
1.5
100
AcDbArc
 50
180.0
 51
270.0
  0
LINE
  5
11122
330
10FD6
100
AcDbEntity
  8
1
  6
Continuous
100
AcDbLine
 10
114.0
 20
50.5
 30
0.0
 11
114.0
 21
52.0
 31
0.0
  0
LINE
  5
11123
330
10FD6
100
AcDbEntity
  8
4
  6
CENTER
100
AcDbLine
 10
125.0
 20
56.5
 30
0.0
 11
125.0
 21
50.0
 31
0.0
  0
ARC
  5
11124
330
10FD6
100
AcDbEntity
  8
1
  6
Continuous
100
AcDbCircle
 10
142.0
 20
50.5
 30
0.0
 40
1.5
100
AcDbArc
 50
270.0
 51
0.0
  0
LINE
  5
11125
330
10FD6
100
AcDbEntity
  8
4
  6
CENTER
100
AcDbLine
 10
135.0
 20
56.5
 30
0.0
 11
135.0
 21
50.0
 31
0.0
  0
LINE
  5
11126
330
10FD6
100
AcDbEntity
  8
1
  6
Continuous
100
AcDbLine
 10
143.5
 20
52.0
 30
0.0
 11
143.5
 21
50.5
 31
0.0
  0
LINE
  5
11127
330
10FD6
100
AcDbEntity
  8
1
  6
Continuous
100
AcDbLine
 10
156.0
 20
51.0
 30
0.0
 11
156.0
 21
46.5
 31
0.0
  0
LINE
  5
11128
330
10FD6
100
AcDbEntity
  8
1
  6
Continuous
100
AcDbLine
 10
364.5
 20
42.5
 30
0.0
 11
314.0
 21
42.5
 31
0.0
  0
LINE
  5
11129
330
10FD6
100
AcDbEntity
  8
4
  6
CENTER
100
AcDbLine
 10
280.0
 20
56.5
 30
0.0
 11
280.0
 21
50.0
 31
0.0
  0
LINE
  5
1112A
330
10FD6
100
AcDbEntity
  8
4
  6
CENTER
100
AcDbLine
 10
290.0
 20
56.5
 30
0.0
 11
290.0
 21
50.0
 31
0.0
  0
LINE
  5
1112B
330
10FD6
100
AcDbEntity
  8
1
  6
Continuous
100
AcDbLine
 10
314.0
 20
41.0
 30
0.0
 11
314.0
 21
42.5
 31
0.0
  0
LINE
  5
1112C
330
10FD6
100
AcDbEntity
  8
1
  6
Continuous
100
AcDbLine
 10
342.0
 20
51.5
 30
0.0
 11
320.0
 21
51.5
 31
0.0
  0
LINE
  5
1112D
330
10FD6
100
AcDbEntity
  8
1
  6
Continuous
100
AcDbLine
 10
337.0
 20
43.5
 30
0.0
 11
325.0
 21
43.5
 31
0.0
  0
LINE
  5
1112E
330
10FD6
100
AcDbEntity
  8
1
  6
Continuous
100
AcDbLine
 10
342.0
 20
46.5
 30
0.0
 11
320.0
 21
46.5
 31
0.0
  0
LINE
  5
1112F
330
10FD6
100
AcDbEntity
  8
1
  6
Continuous
100
AcDbLine
 10
337.0
 20
45.0
 30
0.0
 11
325.0
 21
45.0
 31
0.0
  0
ARC
  5
11130
330
10FD6
100
AcDbEntity
  8
1
  6
Continuous
100
AcDbCircle
 10
325.914214
 20
42.5
 30
0.0
 40
1.0
100
AcDbArc
 50
90.0
 51
135.0
  0
LINE
  5
11131
330
10FD6
100
AcDbEntity
  8
1
  6
Continuous
100
AcDbLine
 10
325.2071069999999
 20
43.207107
 30
0.0
 11
324.5
 21
42.5
 31
0.0
  0
LINE
  5
11132
330
10FD6
100
AcDbEntity
  8
1
  6
Continuous
100
AcDbLine
 10
325.0
 20
46.5
 30
0.0
 11
325.0
 21
43.5
 31
0.0
  0
LINE
  5
11133
330
10FD6
100
AcDbEntity
  8
4
  6
CENTER
100
AcDbLine
 10
319.55
 20
38.0
 30
0.0
 11
319.55
 21
44.5
 31
0.0
  0
LINE
  5
11134
330
10FD6
100
AcDbEntity
  8
4
  6
CENTER
100
AcDbLine
 10
331.0
 20
36.73147099999999
 30
0.0
 11
331.0
 21
57.114252
 31
0.0
  0
LINE
  5
11135
330
10FD6
100
AcDbEntity
  8
1
  6
Continuous
100
AcDbLine
 10
320.0
 20
46.5
 30
0.0
 11
320.0
 21
51.5
 31
0.0
  0
ARC
  5
11136
330
10FD6
100
AcDbEntity
  8
1
  6
Continuous
100
AcDbCircle
 10
336.0857859999999
 20
42.5
 30
0.0
 40
1.0
100
AcDbArc
 50
45.0
 51
90.0
  0
LINE
  5
11137
330
10FD6
100
AcDbEntity
  8
1
  6
Continuous
100
AcDbLine
 10
336.792893
 20
43.207107
 30
0.0
 11
337.5
 21
42.5
 31
0.0
  0
LINE
  5
11138
330
10FD6
100
AcDbEntity
  8
1
  6
Continuous
100
AcDbLine
 10
337.0
 20
46.5
 30
0.0
 11
337.0
 21
43.5
 31
0.0
  0
LINE
  5
11139
330
10FD6
100
AcDbEntity
  8
4
  6
CENTER
100
AcDbLine
 10
345.0
 20
38.0
 30
0.0
 11
345.0
 21
44.5
 31
0.0
  0
LINE
  5
1113A
330
10FD6
100
AcDbEntity
  8
1
  6
Continuous
100
AcDbLine
 10
341.0201059999999
 20
46.0
 30
0.0
 11
337.0
 21
46.0
 31
0.0
  0
LINE
  5
1113B
330
10FD6
100
AcDbEntity
  8
1
  6
Continuous
100
AcDbLine
 10
342.0
 20
46.5
 30
0.0
 11
342.0
 21
51.5
 31
0.0
  0
LINE
  5
1113C
330
10FD6
100
AcDbEntity
  8
1
  6
Continuous
100
AcDbLine
 10
337.78233
 20
46.0
 30
0.0
 11
337.78233
 21
46.5
 31
0.0
  0
LINE
  5
1113D
330
10FD6
100
AcDbEntity
  8
4
  6
CENTER
100
AcDbLine
 10
365.0
 20
56.5
 30
0.0
 11
365.0
 21
50.0
 31
0.0
  0
LINE
  5
1113E
330
10FD6
100
AcDbEntity
  8
1
  6
Continuous
100
AcDbLine
 10
364.5
 20
47.0
 30
0.0
 11
364.5
 21
41.0
 31
0.0
  0
LINE
  5
1113F
330
10FD6
100
AcDbEntity
  8
4
  6
CENTER
100
AcDbLine
 10
375.0
 20
56.5
 30
0.0
 11
375.0
 21
50.0
 31
0.0
  0
LINE
  5
11140
330
10FD6
100
AcDbEntity
  8
4
  6
CENTER
100
AcDbLine
 10
380.0
 20
38.0
 30
0.0
 11
380.0
 21
44.5
 31
0.0
  0
LINE
  5
11141
330
10FD6
100
AcDbEntity
  8
4
  6
CENTER
100
AcDbLine
 10
370.0
 20
38.0
 30
0.0
 11
370.0
 21
44.5
 31
0.0
  0
LINE
  5
11142
330
10FD6
100
AcDbEntity
  8
3
  6
DASHED
100
AcDbLine
 10
380.0
 20
49.0
 30
0.0
 11
380.0
 21
43.0
 31
0.0
  0
LINE
  5
11143
330
10FD6
100
AcDbEntity
  8
3
  6
DASHED
100
AcDbLine
 10
402.0
 20
48.0
 30
0.0
 11
380.0
 21
48.0
 31
0.0
  0
LINE
  5
11144
330
10FD6
100
AcDbEntity
  8
3
  6
DASHED
100
AcDbLine
 10
402.0
 20
43.0
 30
0.0
 11
380.0
 21
43.0
 31
0.0
  0
LINE
  5
11145
330
10FD6
100
AcDbEntity
  8
1
  6
Continuous
100
AcDbLine
 10
397.0
 20
49.5
 30
0.0
 11
385.0
 21
49.5
 31
0.0
  0
LINE
  5
11146
330
10FD6
100
AcDbEntity
  8
1
  6
Continuous
100
AcDbLine
 10
385.207107
 20
51.29289299999999
 30
0.0
 11
384.5
 21
52.0
 31
0.0
  0
ARC
  5
11147
330
10FD6
100
AcDbEntity
  8
1
  6
Continuous
100
AcDbCircle
 10
385.914214
 20
52.0
 30
0.0
 40
1.0
100
AcDbArc
 50
225.0
 51
270.0
  0
LINE
  5
11148
330
10FD6
100
AcDbEntity
  8
1
  6
Continuous
100
AcDbLine
 10
396.7928929999998
 20
51.29289299999999
 30
0.0
 11
397.5
 21
52.0
 31
0.0
  0
ARC
  5
11149
330
10FD6
100
AcDbEntity
  8
1
  6
Continuous
100
AcDbCircle
 10
396.0857859999999
 20
52.0
 30
0.0
 40
1.0
100
AcDbArc
 50
270.0
 51
315.0
  0
LINE
  5
1114A
330
10FD6
100
AcDbEntity
  8
1
  6
Continuous
100
AcDbLine
 10
385.0
 20
48.914214
 30
0.0
 11
385.0
 21
51.0
 31
0.0
  0
LINE
  5
1114B
330
10FD6
100
AcDbEntity
  8
1
  6
Continuous
100
AcDbLine
 10
397.0
 20
51.0
 30
0.0
 11
385.0
 21
51.0
 31
0.0
  0
LINE
  5
1114C
330
10FD6
100
AcDbEntity
  8
1
  6
Continuous
100
AcDbLine
 10
397.0
 20
49.0
 30
0.0
 11
397.0
 21
51.0
 31
0.0
  0
LINE
  5
1114D
330
10FD6
100
AcDbEntity
  8
3
  6
DASHED
100
AcDbLine
 10
385.0
 20
48.0
 30
0.0
 11
385.0
 21
48.914214
 31
0.0
  0
LINE
  5
1114E
330
10FD6
100
AcDbEntity
  8
3
  6
DASHED
100
AcDbLine
 10
397.0
 20
48.0
 30
0.0
 11
397.0
 21
49.0
 31
0.0
  0
LINE
  5
1114F
330
10FD6
100
AcDbEntity
  8
4
  6
CENTER
100
AcDbLine
 10
391.0
 20
36.876458
 30
0.0
 11
391.0
 21
57.343926
 31
0.0
  0
LINE
  5
11150
330
10FD6
100
AcDbEntity
  8
1
  6
Continuous
100
AcDbLine
 10
405.0
 20
52.0
 30
0.0
 11
405.0
 21
53.5
 31
0.0
  0
LINE
  5
11151
330
10FD6
100
AcDbEntity
  8
3
  6
DASHED
100
AcDbLine
 10
402.0
 20
48.0
 30
0.0
 11
402.0
 21
43.0
 31
0.0
  0
LINE
  5
11152
330
10FD6
100
AcDbEntity
  8
4
  6
CENTER
100
AcDbLine
 10
482.5
 20
38.0
 30
0.0
 11
482.5
 21
44.5
 31
0.0
  0
LINE
  5
11153
330
10FD6
100
AcDbEntity
  8
4
  6
CENTER
100
AcDbLine
 10
585.0
 20
38.0
 30
0.0
 11
585.0
 21
44.5
 31
0.0
  0
LINE
  5
11154
330
10FD6
100
AcDbEntity
  8
4
  6
CENTER
100
AcDbLine
 10
595.0
 20
38.0
 30
0.0
 11
595.0
 21
44.5
 31
0.0
  0
LINE
  5
11155
330
10FD6
100
AcDbEntity
  8
1
  6
Continuous
100
AcDbLine
 10
610.0
 20
41.0
 30
0.0
 11
610.0
 21
47.5
 31
0.0
  0
LINE
  5
11156
330
10FD6
100
AcDbEntity
  8
1
  6
Continuous
100
AcDbLine
 10
109.0
 20
45.49999999999999
 30
0.0
 11
325.0
 21
45.49999999999999
 31
0.0
  0
LINE
  5
11157
330
10FD6
100
AcDbEntity
  8
1
  6
Continuous
100
AcDbLine
 10
341.0201059999999
 20
46.0
 30
0.0
 11
341.0201059999999
 21
46.5
 31
0.0
  0
LINE
  5
11158
330
10FD6
100
AcDbEntity
  8
1
  6
Continuous
100
AcDbLine
 10
337.0
 20
45.49999999999999
 30
0.0
 11
364.5
 21
45.49999999999999
 31
0.0
  0
LINE
  5
11159
330
10FD6
100
AcDbEntity
  8
1
  6
Continuous
100
AcDbLine
 10
380.0
 20
52.0
 30
0.0
 11
380.0
 21
49.0
 31
0.0
  0
LINE
  5
1115A
330
10FD6
100
AcDbEntity
  8
3
  6
DASHED
100
AcDbLine
 10
364.5
 20
45.49999999999999
 30
0.0
 11
378.0
 21
45.49999999999999
 31
0.0
  0
ARC
  5
1115B
330
10FD6
100
AcDbEntity
  8
1
  6
Continuous
100
AcDbCircle
 10
36.0
 20
148.5
 30
0.0
 40
1.5
100
AcDbArc
 50
0.0
 51
90.0
  0
LINE
  5
1115C
330
10FD6
100
AcDbEntity
  8
1
  6
Continuous
100
AcDbLine
 10
25.0
 20
124.0
 30
0.0
 11
25.0
 21
151.0
 31
0.0
  0
LINE
  5
1115D
330
10FD6
100
AcDbEntity
  8
1
  6
Continuous
100
AcDbLine
 10
26.5
 20
122.5
 30
0.0
 11
26.5
 21
151.0
 31
0.0
  0
LINE
  5
1115E
330
10FD6
100
AcDbEntity
  8
1
  6
Continuous
100
AcDbLine
 10
37.5
 20
123.5
 30
0.0
 11
37.5
 21
148.5
 31
0.0
  0
ARC
  5
1115F
330
10FD6
100
AcDbEntity
  8
1
  6
Continuous
100
AcDbCircle
 10
26.5
 20
124.0
 30
0.0
 40
1.5
100
AcDbArc
 50
180.0
 51
270.0
  0
LINE
  5
11160
330
10FD6
100
AcDbEntity
  8
1
  6
Continuous
100
AcDbLine
 10
37.5
 20
123.5
 30
0.0
 11
36.0
 21
123.5
 31
0.0
  0
LINE
  5
11161
330
10FD6
100
AcDbEntity
  8
1
  6
Continuous
100
AcDbLine
 10
36.0
 20
148.5
 30
0.0
 11
27.0
 21
148.5
 31
0.0
  0
LINE
  5
11162
330
10FD6
100
AcDbEntity
  8
4
  6
CENTER
100
AcDbLine
 10
41.643621
 20
137.5
 30
0.0
 11
23.84947599999999
 21
137.5
 31
0.0
  0
LINE
  5
11163
330
10FD6
100
AcDbEntity
  8
4
  6
CENTER
100
AcDbLine
 10
38.19373800000001
 20
135.0
 30
0.0
 11
20.0
 21
135.0
 31
0.0
  0
LINE
  5
11164
330
10FD6
100
AcDbEntity
  8
1
  6
Continuous
100
AcDbLine
 10
36.0
 20
123.5
 30
0.0
 11
36.0
 21
148.5
 31
0.0
  0
LINE
  5
11165
330
10FD6
100
AcDbEntity
  8
1
  6
Continuous
100
AcDbLine
 10
33.0
 20
151.0
 30
0.0
 11
25.0
 21
151.0
 31
0.0
  0
LINE
  5
11166
330
10FD6
100
AcDbEntity
  8
1
  6
Continuous
100
AcDbLine
 10
29.5
 20
149.5
 30
0.0
 11
26.5
 21
149.5
 31
0.0
  0
LINE
  5
11167
330
10FD6
100
AcDbEntity
  8
1
  6
Continuous
100
AcDbLine
 10
29.5
 20
150.0
 30
0.0
 11
36.0
 21
150.0
 31
0.0
  0
LINE
  5
11168
330
10FD6
100
AcDbEntity
  8
1
  6
Continuous
100
AcDbLine
 10
33.0
 20
150.0
 30
0.0
 11
33.0
 21
151.0
 31
0.0
  0
LINE
  5
11169
330
10FD6
100
AcDbEntity
  8
1
  6
Continuous
100
AcDbLine
 10
29.5
 20
146.0
 30
0.0
 11
29.5
 21
150.0
 31
0.0
  0
LINE
  5
1116A
330
10FD6
100
AcDbEntity
  8
1
  6
Continuous
100
AcDbLine
 10
37.5
 20
137.5
 30
0.0
 11
36.0
 21
137.5
 31
0.0
  0
LINE
  5
1116B
330
10FD6
100
AcDbEntity
  8
1
  6
Continuous
100
AcDbLine
 10
36.0
 20
144.0
 30
0.0
 11
37.5
 21
144.0
 31
0.0
  0
LINE
  5
1116C
330
10FD6
100
AcDbEntity
  8
1
  6
Continuous
100
AcDbLine
 10
25.0
 20
125.0
 30
0.0
 11
30.5
 21
125.0
 31
0.0
  0
LINE
  5
1116D
330
10FD6
100
AcDbEntity
  8
1
  6
Continuous
100
AcDbLine
 10
36.0
 20
146.0
 30
0.0
 11
29.5
 21
146.0
 31
0.0
  0
LINE
  5
1116E
330
10FD6
100
AcDbEntity
  8
1
  6
Continuous
100
AcDbLine
 10
127.0
 20
48.58615799999999
 30
0.0
 11
127.0
 21
45.98131
 31
0.0
  0
LINE
  5
1116F
330
10FD6
100
AcDbEntity
  8
1
  6
Continuous
100
AcDbLine
 10
127.0
 20
226.4156869999999
 30
0.0
 11
127.0
 21
228.200516
 31
0.0
  0
LINE
  5
11170
330
10FD6
100
AcDbEntity
  8
1
  6
Continuous
100
AcDbLine
 10
595.0
 20
46.103955
 30
0.0
 11
595.0
 21
48.203194
 31
0.0
  0
LINE
  5
11171
330
10FD6
100
AcDbEntity
  8
1
  6
Continuous
100
AcDbLine
 10
567.0
 20
42.5
 30
0.0
 11
567.0
 21
47.71568
 31
0.0
  0
ARC
  5
11172
330
10FD6
100
AcDbEntity
  8
1
  6
Continuous
100
AcDbCircle
 10
608.4999999999999
 20
227.0
 30
0.0
 40
1.5
100
AcDbArc
 50
270.0
 51
0.0
  0
LINE
  5
11173
330
10FD6
100
AcDbEntity
  8
1
  6
Continuous
100
AcDbLine
 10
610.0
 20
630.4999999999997
 30
0.0
 11
405.0
 21
630.4999999999997
 31
0.0
  0
LINE
  5
11174
330
10FD6
100
AcDbEntity
  8
1
  6
Continuous
100
AcDbLine
 10
608.4999999999999
 20
629.0
 30
0.0
 11
385.5
 21
629.0
 31
0.0
  0
LINE
  5
11175
330
10FD6
100
AcDbEntity
  8
1
  6
Continuous
100
AcDbLine
 10
567.0
 20
525.0
 30
0.0
 11
399.5781949999998
 21
525.0
 31
0.0
  0
LINE
  5
11176
330
10FD6
100
AcDbEntity
  8
1
  6
Continuous
100
AcDbLine
 10
610.0
 20
551.0
 30
0.0
 11
384.0
 21
551.0
 31
0.0
  0
LINE
  5
11177
330
10FD6
100
AcDbEntity
  8
1
  6
Continuous
100
AcDbLine
 10
610.0
 20
621.0
 30
0.0
 11
315.5
 21
621.0
 31
0.0
  0
LINE
  5
11178
330
10FD6
100
AcDbEntity
  8
1
  6
Continuous
100
AcDbLine
 10
610.0
 20
703.5
 30
0.0
 11
384.0
 21
703.5
 31
0.0
  0
LINE
  5
11179
330
10FD6
100
AcDbEntity
  8
1
  6
Continuous
100
AcDbLine
 10
610.0
 20
705.0
 30
0.0
 11
383.0
 21
705.0
 31
0.0
  0
LINE
  5
1117A
330
10FD6
100
AcDbEntity
  8
1
  6
Continuous
100
AcDbLine
 10
567.0
 20
729.4999999999999
 30
0.0
 11
399.5781949999998
 21
729.4999999999999
 31
0.0
  0
LINE
  5
1117B
330
10FD6
100
AcDbEntity
  8
1
  6
Continuous
100
AcDbLine
 10
567.245048
 20
724.0
 30
0.0
 11
401.6982459999998
 21
724.0
 31
0.0
  0
LINE
  5
1117C
330
10FD6
100
AcDbEntity
  8
1
  6
Continuous
100
AcDbLine
 10
403.5
 20
633.4999999999999
 30
0.0
 11
109.0
 21
633.4999999999999
 31
0.0
  0
LINE
  5
1117D
330
10FD6
100
AcDbEntity
  8
1
  6
Continuous
100
AcDbLine
 10
380.0
 20
707.0
 30
0.0
 11
156.0
 21
707.0
 31
0.0
  0
LINE
  5
1117E
330
10FD6
100
AcDbEntity
  8
1
  6
Continuous
100
AcDbLine
 10
397.627489
 20
731.0
 30
0.0
 11
111.0
 21
731.0
 31
0.0
  0
LINE
  5
1117F
330
10FD6
100
AcDbEntity
  8
1
  6
Continuous
100
AcDbLine
 10
109.0
 20
624.0
 30
0.0
 11
380.0
 21
624.0
 31
0.0
  0
LINE
  5
11180
330
10FD6
100
AcDbEntity
  8
1
  6
Continuous
100
AcDbLine
 10
397.627489
 20
523.5
 30
0.0
 11
111.0
 21
523.5
 31
0.0
  0
LINE
  5
11181
330
10FD6
100
AcDbEntity
  8
1
  6
Continuous
100
AcDbLine
 10
315.5
 20
547.5
 30
0.0
 11
156.0
 21
547.5
 31
0.0
  0
LINE
  5
11182
330
10FD6
100
AcDbEntity
  8
1
  6
Continuous
100
AcDbLine
 10
313.0
 20
542.4999999999998
 30
0.0
 11
155.784882
 21
542.4999999999998
 31
0.0
  0
LINE
  5
11183
330
10FD6
100
AcDbEntity
  8
1
  6
Continuous
100
AcDbLine
 10
156.0
 20
547.5
 30
0.0
 11
127.0
 21
550.0
 31
0.0
  0
LINE
  5
11184
330
10FD6
100
AcDbEntity
  8
4
  6
CENTER
100
AcDbLine
 10
119.25
 20
537.5
 30
0.0
 11
140.7499999999998
 21
537.5
 31
0.0
  0
LINE
  5
11185
330
10FD6
100
AcDbEntity
  8
1
  6
Continuous
100
AcDbLine
 10
155.784882
 20
542.4999999999998
 30
0.0
 11
126.784882
 21
545.0
 31
0.0
  0
CIRCLE
  5
11186
330
10FD6
100
AcDbEntity
  8
1
  6
Continuous
100
AcDbCircle
 10
125.0
 20
537.5
 30
0.0
 40
3.75
  0
LINE
  5
11187
330
10FD6
100
AcDbEntity
  8
1
  6
Continuous
100
AcDbLine
 10
25.0
 20
523.5
 30
0.0
 11
25.0
 21
548.5
 31
0.0
  0
LINE
  5
11188
330
10FD6
100
AcDbEntity
  8
1
  6
Continuous
100
AcDbLine
 10
26.5
 20
523.5
 30
0.0
 11
26.5
 21
548.5
 31
0.0
  0
LINE
  5
11189
330
10FD6
100
AcDbEntity
  8
1
  6
Continuous
100
AcDbLine
 10
27.0
 20
524.0
 30
0.0
 11
27.0
 21
541.0
 31
0.0
  0
LINE
  5
1118A
330
10FD6
100
AcDbEntity
  8
1
  6
Continuous
100
AcDbLine
 10
28.0
 20
524.0
 30
0.0
 11
28.0
 21
541.0
 31
0.0
  0
LINE
  5
1118B
330
10FD6
100
AcDbEntity
  8
1
  6
Continuous
100
AcDbLine
 10
37.5
 20
524.0
 30
0.0
 11
37.5
 21
551.0
 31
0.0
  0
LINE
  5
1118C
330
10FD6
100
AcDbEntity
  8
1
  6
Continuous
100
AcDbLine
 10
29.5
 20
522.5
 30
0.0
 11
36.0
 21
522.5
 31
0.0
  0
LINE
  5
1118D
330
10FD6
100
AcDbEntity
  8
1
  6
Continuous
100
AcDbLine
 10
37.5
 20
525.0
 30
0.0
 11
29.5
 21
525.0
 31
0.0
  0
LINE
  5
1118E
330
10FD6
100
AcDbEntity
  8
1
  6
Continuous
100
AcDbLine
 10
25.0
 20
523.5
 30
0.0
 11
26.5
 21
523.5
 31
0.0
  0
ARC
  5
1118F
330
10FD6
100
AcDbEntity
  8
1
  6
Continuous
100
AcDbCircle
 10
29.5
 20
524.0
 30
0.0
 40
1.5
100
AcDbArc
 50
180.0
 51
270.0
  0
LINE
  5
11190
330
10FD6
100
AcDbEntity
  8
1
  6
Continuous
100
AcDbLine
 10
27.0
 20
524.0
 30
0.0
 11
28.0
 21
524.0
 31
0.0
  0
ARC
  5
11191
330
10FD6
100
AcDbEntity
  8
1
  6
Continuous
100
AcDbCircle
 10
29.5
 20
526.4999999999998
 30
0.0
 40
1.5
100
AcDbArc
 50
180.0
 51
270.0
  0
ARC
  5
11192
330
10FD6
100
AcDbEntity
  8
1
  6
Continuous
100
AcDbCircle
 10
36.0
 20
524.0
 30
0.0
 40
1.5
100
AcDbArc
 50
270.0
 51
0.0
  0
LINE
  5
11193
330
10FD6
100
AcDbEntity
  8
1
  6
Continuous
100
AcDbLine
 10
29.5
 20
551.0
 30
0.0
 11
37.5
 21
551.0
 31
0.0
  0
LINE
  5
11194
330
10FD6
100
AcDbEntity
  8
1
  6
Continuous
100
AcDbLine
 10
33.0
 20
550.0
 30
0.0
 11
26.5
 21
550.0
 31
0.0
  0
LINE
  5
11195
330
10FD6
100
AcDbEntity
  8
4
  6
CENTER
100
AcDbLine
 10
20.856379
 20
537.5
 30
0.0
 11
38.65052399999999
 21
537.5
 31
0.0
  0
LINE
  5
11196
330
10FD6
100
AcDbEntity
  8
4
  6
CENTER
100
AcDbLine
 10
24.306262
 20
535.0
 30
0.0
 11
42.5
 21
535.0
 31
0.0
  0
LINE
  5
11197
330
10FD6
100
AcDbEntity
  8
1
  6
Continuous
100
AcDbLine
 10
26.5
 20
548.5
 30
0.0
 11
33.0
 21
548.5
 31
0.0
  0
LINE
  5
11198
330
10FD6
100
AcDbEntity
  8
1
  6
Continuous
100
AcDbLine
 10
37.5
 20
541.0
 30
0.0
 11
26.5
 21
541.0
 31
0.0
  0
LINE
  5
11199
330
10FD6
100
AcDbEntity
  8
1
  6
Continuous
100
AcDbLine
 10
33.0
 20
544.5
 30
0.0
 11
26.5
 21
544.5
 31
0.0
  0
LINE
  5
1119A
330
10FD6
100
AcDbEntity
  8
1
  6
Continuous
100
AcDbLine
 10
26.5
 20
546.0
 30
0.0
 11
33.0
 21
546.0
 31
0.0
  0
LINE
  5
1119B
330
10FD6
100
AcDbEntity
  8
1
  6
Continuous
100
AcDbLine
 10
29.5
 20
550.0
 30
0.0
 11
29.5
 21
551.0
 31
0.0
  0
LINE
  5
1119C
330
10FD6
100
AcDbEntity
  8
1
  6
Continuous
100
AcDbLine
 10
25.0
 20
537.5
 30
0.0
 11
26.5
 21
537.5
 31
0.0
  0
LINE
  5
1119D
330
10FD6
100
AcDbEntity
  8
1
  6
Continuous
100
AcDbLine
 10
26.5
 20
544.0
 30
0.0
 11
25.0
 21
544.0
 31
0.0
  0
LINE
  5
1119E
330
10FD6
100
AcDbEntity
  8
1
  6
Continuous
100
AcDbLine
 10
27.0
 20
544.5
 30
0.0
 11
27.0
 21
546.0
 31
0.0
  0
ARC
  5
1119F
330
10FD6
100
AcDbEntity
  8
1
  6
Continuous
100
AcDbCircle
 10
26.5
 20
548.5
 30
0.0
 40
1.5
100
AcDbArc
 50
90.0
 51
180.0
  0
LINE
  5
111A0
330
10FD6
100
AcDbEntity
  8
1
  6
Continuous
100
AcDbLine
 10
34.118034
 20
549.5
 30
0.0
 11
36.0
 21
549.5
 31
0.0
  0
LINE
  5
111A1
330
10FD6
100
AcDbEntity
  8
1
  6
Continuous
100
AcDbLine
 10
34.5
 20
545.0
 30
0.0
 11
33.0
 21
545.0
 31
0.0
  0
LINE
  5
111A2
330
10FD6
100
AcDbEntity
  8
1
  6
Continuous
100
AcDbLine
 10
33.0
 20
541.0
 30
0.0
 11
33.0
 21
548.5
 31
0.0
  0
LINE
  5
111A3
330
10FD6
100
AcDbEntity
  8
1
  6
Continuous
100
AcDbLine
 10
33.0
 20
542.4999999999998
 30
0.0
 11
34.5
 21
542.4999999999998
 31
0.0
  0
LINE
  5
111A4
330
10FD6
100
AcDbEntity
  8
1
  6
Continuous
100
AcDbLine
 10
34.5
 20
542.4999999999998
 30
0.0
 11
34.5
 21
548.5
 31
0.0
  0
LINE
  5
111A5
330
10FD6
100
AcDbEntity
  8
1
  6
Continuous
100
AcDbLine
 10
32.0
 20
544.5
 30
0.0
 11
32.0
 21
546.0
 31
0.0
  0
LINE
  5
111A6
330
10FD6
100
AcDbEntity
  8
1
  6
Continuous
100
AcDbLine
 10
36.0
 20
541.0
 30
0.0
 11
36.0
 21
551.0
 31
0.0
  0
ARC
  5
111A7
330
10FD6
100
AcDbEntity
  8
1
  6
Continuous
100
AcDbCircle
 10
33.0
 20
548.5
 30
0.0
 40
1.5
100
AcDbArc
 50
0.0
 51
90.0
  0
LINE
  5
111A8
330
10FD6
100
AcDbEntity
  8
4
  6
CENTER
100
AcDbLine
 10
125.0
 20
531.7499999999999
 30
0.0
 11
125.0
 21
543.25
 31
0.0
  0
LINE
  5
111A9
330
10FD6
100
AcDbEntity
  8
1
  6
Continuous
100
AcDbLine
 10
109.0
 20
536.0
 30
0.0
 11
109.0
 21
525.4999999999999
 31
0.0
  0
ARC
  5
111AA
330
10FD6
100
AcDbEntity
  8
1
  6
Continuous
100
AcDbCircle
 10
111.0
 20
525.4999999999999
 30
0.0
 40
2.0
100
AcDbArc
 50
180.0
 51
270.0
  0
LINE
  5
111AB
330
10FD6
100
AcDbEntity
  8
1
  6
Continuous
100
AcDbLine
 10
109.0
 20
550.0
 30
0.0
 11
127.0
 21
550.0
 31
0.0
  0
LINE
  5
111AC
330
10FD6
100
AcDbEntity
  8
1
  6
Continuous
100
AcDbLine
 10
110.4999999999999
 20
537.5
 30
0.0
 11
117.0
 21
537.5
 31
0.0
  0
LINE
  5
111AD
330
10FD6
100
AcDbEntity
  8
1
  6
Continuous
100
AcDbLine
 10
110.0671439999999
 20
543.6783709999998
 30
0.0
 11
117.577141
 21
541.4149169999998
 31
0.0
  0
LINE
  5
111AE
330
10FD6
100
AcDbEntity
  8
1
  6
Continuous
100
AcDbLine
 10
110.4999999999999
 20
545.0
 30
0.0
 11
126.784882
 21
545.0
 31
0.0
  0
ARC
  5
111AF
330
10FD6
100
AcDbEntity
  8
1
  6
Continuous
100
AcDbCircle
 10
110.4999999999999
 20
536.0
 30
0.0
 40
1.5
100
AcDbArc
 50
90.0
 51
180.0
  0
ARC
  5
111B0
330
10FD6
100
AcDbEntity
  8
1
  6
Continuous
100
AcDbCircle
 10
110.4999999999999
 20
545.114559
 30
0.0
 40
1.5
100
AcDbArc
 50
180.0
 51
253.2276069999999
  0
ARC
  5
111B1
330
10FD6
100
AcDbEntity
  8
1
  6
Continuous
100
AcDbCircle
 10
110.4999999999999
 20
546.4999999999998
 30
0.0
 40
1.5
100
AcDbArc
 50
180.0
 51
270.0
  0
LINE
  5
111B2
330
10FD6
100
AcDbEntity
  8
1
  6
Continuous
100
AcDbLine
 10
109.0
 20
550.0
 30
0.0
 11
109.0
 21
545.114559
 31
0.0
  0
ARC
  5
111B3
330
10FD6
100
AcDbEntity
  8
1
  6
Continuous
100
AcDbCircle
 10
117.0
 20
539.5
 30
0.0
 40
2.0
100
AcDbArc
 50
270.0
 51
73.22760699999998
  0
CIRCLE
  5
111B4
330
10FD6
100
AcDbEntity
  8
1
  6
Continuous
100
AcDbCircle
 10
125.0
 20
537.5
 30
0.0
 40
2.399999999999999
  0
LINE
  5
111B5
330
10FD6
100
AcDbEntity
  8
4
  6
CENTER
100
AcDbLine
 10
135.0
 20
530.75
 30
0.0
 11
135.0
 21
544.2499999999999
 31
0.0
  0
ARC
  5
111B6
330
10FD6
100
AcDbEntity
  8
1
  6
Continuous
100
AcDbCircle
 10
135.0
 20
536.5
 30
0.0
 40
3.75
100
AcDbArc
 50
180.0
 51
0.0
  0
ARC
  5
111B7
330
10FD6
100
AcDbEntity
  8
1
  6
Continuous
100
AcDbCircle
 10
135.0
 20
538.4999999999998
 30
0.0
 40
3.75
100
AcDbArc
 50
0.0
 51
180.0
  0
LINE
  5
111B8
330
10FD6
100
AcDbEntity
  8
1
  6
Continuous
100
AcDbLine
 10
131.25
 20
536.5
 30
0.0
 11
131.25
 21
538.4999999999998
 31
0.0
  0
LINE
  5
111B9
330
10FD6
100
AcDbEntity
  8
1
  6
Continuous
100
AcDbLine
 10
137.4
 20
536.5
 30
0.0
 11
137.4
 21
538.4999999999998
 31
0.0
  0
ARC
  5
111BA
330
10FD6
100
AcDbEntity
  8
1
  6
Continuous
100
AcDbCircle
 10
135.0
 20
536.5
 30
0.0
 40
2.399999999999999
100
AcDbArc
 50
180.0
 51
0.0
  0
LINE
  5
111BB
330
10FD6
100
AcDbEntity
  8
1
  6
Continuous
100
AcDbLine
 10
132.6
 20
536.5
 30
0.0
 11
132.6
 21
538.4999999999998
 31
0.0
  0
ARC
  5
111BC
330
10FD6
100
AcDbEntity
  8
1
  6
Continuous
100
AcDbCircle
 10
135.0
 20
538.4999999999998
 30
0.0
 40
2.399999999999999
100
AcDbArc
 50
0.0
 51
180.0
  0
LINE
  5
111BD
330
10FD6
100
AcDbEntity
  8
1
  6
Continuous
100
AcDbLine
 10
138.7499999999998
 20
536.5
 30
0.0
 11
138.7499999999998
 21
538.4999999999998
 31
0.0
  0
LINE
  5
111BE
330
10FD6
100
AcDbEntity
  8
1
  6
Continuous
100
AcDbLine
 10
156.0
 20
707.0
 30
0.0
 11
127.0
 21
704.4999999999999
 31
0.0
  0
LINE
  5
111BF
330
10FD6
100
AcDbEntity
  8
4
  6
CENTER
100
AcDbLine
 10
119.25
 20
717.0
 30
0.0
 11
140.7499999999998
 21
717.0
 31
0.0
  0
LINE
  5
111C0
330
10FD6
100
AcDbEntity
  8
1
  6
Continuous
100
AcDbLine
 10
142.0
 20
708.0
 30
0.0
 11
115.5
 21
708.0
 31
0.0
  0
LINE
  5
111C1
330
10FD6
100
AcDbEntity
  8
1
  6
Continuous
100
AcDbLine
 10
143.198508
 20
707.4019859999999
 30
0.0
 11
126.9354649999998
 21
706.0
 31
0.0
  0
LINE
  5
111C2
330
10FD6
100
AcDbEntity
  8
1
  6
Continuous
100
AcDbLine
 10
143.5
 20
632.0
 30
0.0
 11
114.0
 21
632.0
 31
0.0
  0
LINE
  5
111C3
330
10FD6
100
AcDbEntity
  8
1
  6
Continuous
100
AcDbLine
 10
142.0
 20
629.0
 30
0.0
 11
115.5
 21
629.0
 31
0.0
  0
LINE
  5
111C4
330
10FD6
100
AcDbEntity
  8
1
  6
Continuous
100
AcDbLine
 10
109.0
 20
633.4999999999999
 30
0.0
 11
109.0
 21
624.0
 31
0.0
  0
LINE
  5
111C5
330
10FD6
100
AcDbEntity
  8
1
  6
Continuous
100
AcDbLine
 10
127.0
 20
628.084313
 30
0.0
 11
127.0
 21
624.799484
 31
0.0
  0
LINE
  5
111C6
330
10FD6
100
AcDbEntity
  8
1
  6
Continuous
100
AcDbLine
 10
114.0
 20
630.4999999999997
 30
0.0
 11
114.0
 21
633.4999999999999
 31
0.0
  0
ARC
  5
111C7
330
10FD6
100
AcDbEntity
  8
1
  6
Continuous
100
AcDbCircle
 10
115.5
 20
630.4999999999997
 30
0.0
 40
1.5
100
AcDbArc
 50
180.0
 51
270.0
  0
LINE
  5
111C8
330
10FD6
100
AcDbEntity
  8
4
  6
CENTER
100
AcDbLine
 10
125.0
 20
636.5
 30
0.0
 11
125.0
 21
630.0
 31
0.0
  0
ARC
  5
111C9
330
10FD6
100
AcDbEntity
  8
1
  6
Continuous
100
AcDbCircle
 10
115.5
 20
706.5
 30
0.0
 40
1.5
100
AcDbArc
 50
90.0
 51
180.0
  0
LINE
  5
111CA
330
10FD6
100
AcDbEntity
  8
1
  6
Continuous
100
AcDbLine
 10
109.0
 20
704.4999999999999
 30
0.0
 11
109.0
 21
709.385441
 31
0.0
  0
LINE
  5
111CB
330
10FD6
100
AcDbEntity
  8
1
  6
Continuous
100
AcDbLine
 10
109.0
 20
704.4999999999999
 30
0.0
 11
127.0
 21
704.4999999999999
 31
0.0
  0
LINE
  5
111CC
330
10FD6
100
AcDbEntity
  8
1
  6
Continuous
100
AcDbLine
 10
114.0
 20
706.0
 30
0.0
 11
126.9354649999998
 21
706.0
 31
0.0
  0
LINE
  5
111CD
330
10FD6
100
AcDbEntity
  8
1
  6
Continuous
100
AcDbLine
 10
114.0
 20
704.4999999999999
 30
0.0
 11
114.0
 21
706.5
 31
0.0
  0
ARC
  5
111CE
330
10FD6
100
AcDbEntity
  8
1
  6
Continuous
100
AcDbCircle
 10
111.0
 20
729.0
 30
0.0
 40
2.0
100
AcDbArc
 50
90.0
 51
180.0
  0
LINE
  5
111CF
330
10FD6
100
AcDbEntity
  8
1
  6
Continuous
100
AcDbLine
 10
110.0671439999999
 20
710.821629
 30
0.0
 11
117.577141
 21
713.0850830000001
 31
0.0
  0
LINE
  5
111D0
330
10FD6
100
AcDbEntity
  8
1
  6
Continuous
100
AcDbLine
 10
110.4999999999999
 20
717.0
 30
0.0
 11
117.0
 21
717.0
 31
0.0
  0
ARC
  5
111D1
330
10FD6
100
AcDbEntity
  8
1
  6
Continuous
100
AcDbCircle
 10
110.4999999999999
 20
709.385441
 30
0.0
 40
1.5
100
AcDbArc
 50
106.7723929999998
 51
180.0
  0
ARC
  5
111D2
330
10FD6
100
AcDbEntity
  8
1
  6
Continuous
100
AcDbCircle
 10
110.4999999999999
 20
718.5
 30
0.0
 40
1.5
100
AcDbArc
 50
180.0
 51
270.0
  0
LINE
  5
111D3
330
10FD6
100
AcDbEntity
  8
1
  6
Continuous
100
AcDbLine
 10
109.0
 20
718.5
 30
0.0
 11
109.0
 21
729.0
 31
0.0
  0
CIRCLE
  5
111D4
330
10FD6
100
AcDbEntity
  8
1
  6
Continuous
100
AcDbCircle
 10
125.0
 20
717.0
 30
0.0
 40
2.399999999999999
  0
LINE
  5
111D5
330
10FD6
100
AcDbEntity
  8
4
  6
CENTER
100
AcDbLine
 10
125.0
 20
722.75
 30
0.0
 11
125.0
 21
711.2499999999997
 31
0.0
  0
ARC
  5
111D6
330
10FD6
100
AcDbEntity
  8
1
  6
Continuous
100
AcDbCircle
 10
117.0
 20
715.0
 30
0.0
 40
2.0
100
AcDbArc
 50
286.772393
 51
90.0
  0
ARC
  5
111D7
330
10FD6
100
AcDbEntity
  8
1
  6
Continuous
100
AcDbCircle
 10
142.0
 20
630.4999999999997
 30
0.0
 40
1.5
100
AcDbArc
 50
270.0
 51
0.0
  0
LINE
  5
111D8
330
10FD6
100
AcDbEntity
  8
1
  6
Continuous
100
AcDbLine
 10
143.5
 20
633.4999999999999
 30
0.0
 11
143.5
 21
630.4999999999997
 31
0.0
  0
LINE
  5
111D9
330
10FD6
100
AcDbEntity
  8
4
  6
CENTER
100
AcDbLine
 10
135.0
 20
636.5
 30
0.0
 11
135.0
 21
630.0
 31
0.0
  0
LINE
  5
111DA
330
10FD6
100
AcDbEntity
  8
1
  6
Continuous
100
AcDbLine
 10
156.0
 20
632.5
 30
0.0
 11
156.0
 21
625.0
 31
0.0
  0
ARC
  5
111DB
330
10FD6
100
AcDbEntity
  8
1
  6
Continuous
100
AcDbCircle
 10
142.0
 20
706.5
 30
0.0
 40
1.5
100
AcDbArc
 50
0.0
 51
90.0
  0
LINE
  5
111DC
330
10FD6
100
AcDbEntity
  8
1
  6
Continuous
100
AcDbLine
 10
143.5
 20
705.922414
 30
0.0
 11
143.5
 21
706.5
 31
0.0
  0
ARC
  5
111DD
330
10FD6
100
AcDbEntity
  8
1
  6
Continuous
100
AcDbCircle
 10
135.0
 20
716.0
 30
0.0
 40
2.399999999999999
100
AcDbArc
 50
180.0
 51
0.0
  0
LINE
  5
111DE
330
10FD6
100
AcDbEntity
  8
1
  6
Continuous
100
AcDbLine
 10
132.6
 20
718.0
 30
0.0
 11
132.6
 21
716.0
 31
0.0
  0
ARC
  5
111DF
330
10FD6
100
AcDbEntity
  8
1
  6
Continuous
100
AcDbCircle
 10
135.0
 20
718.0
 30
0.0
 40
2.399999999999999
100
AcDbArc
 50
0.0
 51
180.0
  0
LINE
  5
111E0
330
10FD6
100
AcDbEntity
  8
1
  6
Continuous
100
AcDbLine
 10
137.4
 20
718.0
 30
0.0
 11
137.4
 21
716.0
 31
0.0
  0
LINE
  5
111E1
330
10FD6
100
AcDbEntity
  8
4
  6
CENTER
100
AcDbLine
 10
135.0
 20
723.7499999999998
 30
0.0
 11
135.0
 21
710.25
 31
0.0
  0
LINE
  5
111E2
330
10FD6
100
AcDbEntity
  8
4
  6
CENTER
100
AcDbLine
 10
406.0
 20
537.5
 30
0.0
 11
359.25
 21
537.5
 31
0.0
  0
LINE
  5
111E3
330
10FD6
100
AcDbEntity
  8
1
  6
Continuous
100
AcDbLine
 10
399.5781949999998
 20
525.0
 30
0.0
 11
364.5
 21
525.0
 31
0.0
  0
ARC
  5
111E4
330
10FD6
100
AcDbEntity
  8
3
  6
DASHED
100
AcDbCircle
 10
391.0
 20
537.5
 30
0.0
 40
11.0
100
AcDbArc
 50
209.5577539999999
 51
175.3083969999999
  0
LINE
  5
111E5
330
10FD6
100
AcDbEntity
  8
4
  6
CENTER
100
AcDbLine
 10
364.25
 20
535.0
 30
0.0
 11
385.7499999999999
 21
535.0
 31
0.0
  0
LINE
  5
111E6
330
10FD6
100
AcDbEntity
  8
3
  6
DASHED
100
AcDbLine
 10
381.4999999999998
 20
546.0
 30
0.0
 11
385.5
 21
547.5
 31
0.0
  0
LINE
  5
111E7
330
10FD6
100
AcDbEntity
  8
1
  6
Continuous
100
AcDbLine
 10
383.0
 20
549.5
 30
0.0
 11
379.0
 21
551.0
 31
0.0
  0
LINE
  5
111E8
330
10FD6
100
AcDbEntity
  8
1
  6
Continuous
100
AcDbLine
 10
379.0
 20
551.0
 30
0.0
 11
317.5
 21
551.0
 31
0.0
  0
LINE
  5
111E9
330
10FD6
100
AcDbEntity
  8
4
  6
CENTER
100
AcDbLine
 10
346.0
 20
535.0
 30
0.0
 11
316.0
 21
535.0
 31
0.0
  0
LINE
  5
111EA
330
10FD6
100
AcDbEntity
  8
3
  6
DASHED
100
AcDbLine
 10
380.0
 20
547.5
 30
0.0
 11
315.5
 21
547.5
 31
0.0
  0
LINE
  5
111EB
330
10FD6
100
AcDbEntity
  8
1
  6
Continuous
100
AcDbLine
 10
359.5
 20
525.0
 30
0.0
 11
314.0
 21
525.0
 31
0.0
  0
LINE
  5
111EC
330
10FD6
100
AcDbEntity
  8
3
  6
DASHED
100
AcDbLine
 10
378.5
 20
542.4999999999998
 30
0.0
 11
313.0
 21
542.4999999999998
 31
0.0
  0
LINE
  5
111ED
330
10FD6
100
AcDbEntity
  8
3
  6
DASHED
100
AcDbLine
 10
324.675445
 20
544.0
 30
0.0
 11
315.5
 21
544.0
 31
0.0
  0
LINE
  5
111EE
330
10FD6
100
AcDbEntity
  8
3
  6
DASHED
100
AcDbLine
 10
353.580149
 20
546.0
 30
0.0
 11
341.0201059999999
 21
546.0
 31
0.0
  0
LINE
  5
111EF
330
10FD6
100
AcDbEntity
  8
4
  6
CENTER
100
AcDbLine
 10
315.8
 20
546.95
 30
0.0
 11
323.3
 21
546.95
 31
0.0
  0
CIRCLE
  5
111F0
330
10FD6
100
AcDbEntity
  8
1
  6
Continuous
100
AcDbCircle
 10
319.55
 20
546.95
 30
0.0
 40
1.75
  0
LINE
  5
111F1
330
10FD6
100
AcDbEntity
  8
4
  6
CENTER
100
AcDbLine
 10
290.0
 20
531.7499999999999
 30
0.0
 11
290.0
 21
543.25
 31
0.0
  0
LINE
  5
111F2
330
10FD6
100
AcDbEntity
  8
1
  6
Continuous
100
AcDbLine
 10
314.0
 20
525.0
 30
0.0
 11
314.0
 21
541.0
 31
0.0
  0
LINE
  5
111F3
330
10FD6
100
AcDbEntity
  8
4
  6
CENTER
100
AcDbLine
 10
280.0
 20
530.75
 30
0.0
 11
280.0
 21
544.2499999999999
 31
0.0
  0
LINE
  5
111F4
330
10FD6
100
AcDbEntity
  8
4
  6
CENTER
100
AcDbLine
 10
295.7499999999999
 20
537.5
 30
0.0
 11
274.25
 21
537.5
 31
0.0
  0
CIRCLE
  5
111F5
330
10FD6
100
AcDbEntity
  8
1
  6
Continuous
100
AcDbCircle
 10
290.0
 20
537.5
 30
0.0
 40
3.75
  0
ARC
  5
111F6
330
10FD6
100
AcDbEntity
  8
1
  6
Continuous
100
AcDbCircle
 10
280.0
 20
538.4999999999998
 30
0.0
 40
3.75
100
AcDbArc
 50
0.0
 51
180.0
  0
ARC
  5
111F7
330
10FD6
100
AcDbEntity
  8
1
  6
Continuous
100
AcDbCircle
 10
280.0
 20
536.5
 30
0.0
 40
3.75
100
AcDbArc
 50
180.0
 51
0.0
  0
LINE
  5
111F8
330
10FD6
100
AcDbEntity
  8
1
  6
Continuous
100
AcDbLine
 10
276.25
 20
536.5
 30
0.0
 11
276.25
 21
538.4999999999998
 31
0.0
  0
ARC
  5
111F9
330
10FD6
100
AcDbEntity
  8
1
  6
Continuous
100
AcDbCircle
 10
280.0
 20
538.4999999999998
 30
0.0
 40
2.399999999999999
100
AcDbArc
 50
0.0
 51
180.0
  0
ARC
  5
111FA
330
10FD6
100
AcDbEntity
  8
1
  6
Continuous
100
AcDbCircle
 10
280.0
 20
536.5
 30
0.0
 40
2.399999999999999
100
AcDbArc
 50
180.0
 51
0.0
  0
LINE
  5
111FB
330
10FD6
100
AcDbEntity
  8
1
  6
Continuous
100
AcDbLine
 10
282.3999999999998
 20
536.5
 30
0.0
 11
282.3999999999998
 21
538.4999999999998
 31
0.0
  0
LINE
  5
111FC
330
10FD6
100
AcDbEntity
  8
1
  6
Continuous
100
AcDbLine
 10
277.6
 20
536.5
 30
0.0
 11
277.6
 21
538.4999999999998
 31
0.0
  0
LINE
  5
111FD
330
10FD6
100
AcDbEntity
  8
1
  6
Continuous
100
AcDbLine
 10
283.75
 20
536.5
 30
0.0
 11
283.75
 21
538.4999999999998
 31
0.0
  0
CIRCLE
  5
111FE
330
10FD6
100
AcDbEntity
  8
1
  6
Continuous
100
AcDbCircle
 10
290.0
 20
537.5
 30
0.0
 40
2.399999999999999
  0
LINE
  5
111FF
330
10FD6
100
AcDbEntity
  8
1
  6
Continuous
100
AcDbLine
 10
313.0
 20
544.5
 30
0.0
 11
313.0
 21
541.0
 31
0.0
  0
LINE
  5
11200
330
10FD6
100
AcDbEntity
  8
1
  6
Continuous
100
AcDbLine
 10
315.5
 20
544.5
 30
0.0
 11
313.0
 21
544.5
 31
0.0
  0
LINE
  5
11201
330
10FD6
100
AcDbEntity
  8
1
  6
Continuous
100
AcDbLine
 10
315.5
 20
541.0
 30
0.0
 11
313.0
 21
541.0
 31
0.0
  0
LINE
  5
11202
330
10FD6
100
AcDbEntity
  8
1
  6
Continuous
100
AcDbLine
 10
315.5
 20
549.0
 30
0.0
 11
315.5
 21
541.0
 31
0.0
  0
LINE
  5
11203
330
10FD6
100
AcDbEntity
  8
4
  6
CENTER
100
AcDbLine
 10
370.0
 20
529.25
 30
0.0
 11
370.0
 21
540.7499999999998
 31
0.0
  0
LINE
  5
11204
330
10FD6
100
AcDbEntity
  8
4
  6
CENTER
100
AcDbLine
 10
380.0
 20
528.2499999999998
 30
0.0
 11
380.0
 21
541.75
 31
0.0
  0
LINE
  5
11205
330
10FD6
100
AcDbEntity
  8
4
  6
CENTER
100
AcDbLine
 10
375.0
 20
531.7499999999999
 30
0.0
 11
375.0
 21
543.25
 31
0.0
  0
ARC
  5
11206
330
10FD6
100
AcDbEntity
  8
1
  6
Continuous
100
AcDbCircle
 10
380.0
 20
534.0
 30
0.0
 40
2.399999999999999
100
AcDbArc
 50
180.0
 51
0.0
  0
ARC
  5
11207
330
10FD6
100
AcDbEntity
  8
1
  6
Continuous
100
AcDbCircle
 10
391.0
 20
537.5
 30
0.0
 40
11.0
100
AcDbArc
 50
175.3083969999999
 51
209.5577539999999
  0
LINE
  5
11208
330
10FD6
100
AcDbEntity
  8
4
  6
CENTER
100
AcDbLine
 10
365.0
 20
530.75
 30
0.0
 11
365.0
 21
544.2499999999999
 31
0.0
  0
CIRCLE
  5
11209
330
10FD6
100
AcDbEntity
  8
1
  6
Continuous
100
AcDbCircle
 10
331.0
 20
535.0
 30
0.0
 40
3.0
  0
CIRCLE
  5
1120A
330
10FD6
100
AcDbEntity
  8
1
  6
Continuous
100
AcDbCircle
 10
331.0
 20
535.0
 30
0.0
 40
5.0
  0
ARC
  5
1120B
330
10FD6
100
AcDbEntity
  8
3
  6
DASHED
100
AcDbCircle
 10
331.0
 20
535.0
 30
0.0
 40
11.0
100
AcDbArc
 50
294.619977
 51
245.380023
  0
LINE
  5
1120C
330
10FD6
100
AcDbEntity
  8
4
  6
CENTER
100
AcDbLine
 10
331.0
 20
520.0
 30
0.0
 11
331.0
 21
550.0
 31
0.0
  0
ARC
  5
1120D
330
10FD6
100
AcDbEntity
  8
1
  6
Continuous
100
AcDbCircle
 10
331.0
 20
535.0
 30
0.0
 40
11.0
100
AcDbArc
 50
245.380023
 51
294.619977
  0
LINE
  5
1120E
330
10FD6
100
AcDbEntity
  8
1
  6
Continuous
100
AcDbLine
 10
363.5
 20
526.4999999999998
 30
0.0
 11
359.5
 21
525.0
 31
0.0
  0
LINE
  5
1120F
330
10FD6
100
AcDbEntity
  8
1
  6
Continuous
100
AcDbLine
 10
364.5
 20
525.0
 30
0.0
 11
364.5
 21
526.4999999999998
 31
0.0
  0
LINE
  5
11210
330
10FD6
100
AcDbEntity
  8
1
  6
Continuous
100
AcDbLine
 10
364.5
 20
526.4999999999998
 30
0.0
 11
363.5
 21
526.4999999999998
 31
0.0
  0
LINE
  5
11211
330
10FD6
100
AcDbEntity
  8
3
  6
DASHED
100
AcDbLine
 10
336.900072
 20
544.2868959999998
 30
0.0
 11
334.544554
 21
546.0
 31
0.0
  0
LINE
  5
11212
330
10FD6
100
AcDbEntity
  8
4
  6
CENTER
100
AcDbLine
 10
319.55
 20
543.2
 30
0.0
 11
319.55
 21
550.7
 31
0.0
  0
LINE
  5
11213
330
10FD6
100
AcDbEntity
  8
4
  6
CENTER
100
AcDbLine
 10
339.25
 20
543.0
 30
0.0
 11
350.75
 21
543.0
 31
0.0
  0
LINE
  5
11214
330
10FD6
100
AcDbEntity
  8
3
  6
DASHED
100
AcDbLine
 10
338.6645879999999
 20
544.2868959999998
 30
0.0
 11
341.0201059999999
 21
546.0
 31
0.0
  0
LINE
  5
11215
330
10FD6
100
AcDbEntity
  8
3
  6
DASHED
100
AcDbLine
 10
337.78233
 20
545.5
 30
0.0
 11
340.53233
 21
547.5
 31
0.0
  0
LINE
  5
11216
330
10FD6
100
AcDbEntity
  8
3
  6
DASHED
100
AcDbLine
 10
337.78233
 20
545.5
 30
0.0
 11
335.0323299999999
 21
547.5
 31
0.0
  0
ARC
  5
11217
330
10FD6
100
AcDbEntity
  8
3
  6
DASHED
100
AcDbCircle
 10
337.78233
 20
545.5
 30
0.0
 40
1.5
100
AcDbArc
 50
233.9726269999999
 51
306.027373
  0
LINE
  5
11218
330
10FD6
100
AcDbEntity
  8
4
  6
CENTER
100
AcDbLine
 10
345.0
 20
537.25
 30
0.0
 11
345.0
 21
548.7499999999998
 31
0.0
  0
CIRCLE
  5
11219
330
10FD6
100
AcDbEntity
  8
1
  6
Continuous
100
AcDbCircle
 10
345.0
 20
543.0
 30
0.0
 40
2.399999999999999
  0
CIRCLE
  5
1121A
330
10FD6
100
AcDbEntity
  8
1
  6
Continuous
100
AcDbCircle
 10
370.0
 20
535.0
 30
0.0
 40
2.399999999999999
  0
LINE
  5
1121B
330
10FD6
100
AcDbEntity
  8
3
  6
DASHED
100
AcDbLine
 10
381.4999999999998
 20
546.0
 30
0.0
 11
380.0
 21
546.0
 31
0.0
  0
LINE
  5
1121C
330
10FD6
100
AcDbEntity
  8
3
  6
DASHED
100
AcDbLine
 10
380.0
 20
544.0
 30
0.0
 11
380.0
 21
547.5
 31
0.0
  0
LINE
  5
1121D
330
10FD6
100
AcDbEntity
  8
1
  6
Continuous
100
AcDbLine
 10
377.6
 20
534.0
 30
0.0
 11
377.6
 21
536.0
 31
0.0
  0
LINE
  5
1121E
330
10FD6
100
AcDbEntity
  8
1
  6
Continuous
100
AcDbLine
 10
382.3999999999998
 20
534.0
 30
0.0
 11
382.3999999999998
 21
536.0
 31
0.0
  0
ARC
  5
1121F
330
10FD6
100
AcDbEntity
  8
1
  6
Continuous
100
AcDbCircle
 10
380.0
 20
536.0
 30
0.0
 40
2.399999999999999
100
AcDbArc
 50
0.0
 51
180.0
  0
ARC
  5
11220
330
10FD6
100
AcDbEntity
  8
3
  6
DASHED
100
AcDbCircle
 10
378.5
 20
544.0
 30
0.0
 40
1.5
100
AcDbArc
 50
270.0
 51
0.0
  0
LINE
  5
11221
330
10FD6
100
AcDbEntity
  8
3
  6
DASHED
100
AcDbLine
 10
403.691288
 20
531.5
 30
0.0
 11
404.0631219999998
 21
532.464641
 31
0.0
  0
LINE
  5
11222
330
10FD6
100
AcDbEntity
  8
3
  6
DASHED
100
AcDbLine
 10
402.0837089999998
 20
531.5
 30
0.0
 11
402.6635019999998
 21
533.004144
 31
0.0
  0
LINE
  5
11223
330
10FD6
100
AcDbEntity
  8
4
  6
CENTER
100
AcDbLine
 10
391.0
 20
522.5
 30
0.0
 11
391.0
 21
552.5
 31
0.0
  0
ARC
  5
11224
330
10FD6
100
AcDbEntity
  8
1
  6
Continuous
100
AcDbCircle
 10
397.627489
 20
525.4999999999999
 30
0.0
 40
2.0
100
AcDbArc
 50
270.0
 51
338.920162
  0
LINE
  5
11225
330
10FD6
100
AcDbEntity
  8
3
  6
DASHED
100
AcDbLine
 10
403.3355409999998
 20
527.7967559999998
 30
0.0
 11
401.0692399999999
 21
528.8681839999997
 31
0.0
  0
LINE
  5
11226
330
10FD6
100
AcDbEntity
  8
3
  6
DASHED
100
AcDbLine
 10
404.597809
 20
531.0714289999999
 30
0.0
 11
403.691288
 21
531.5
 31
0.0
  0
LINE
  5
11227
330
10FD6
100
AcDbEntity
  8
3
  6
DASHED
100
AcDbLine
 10
403.3355409999998
 20
527.7967559999998
 30
0.0
 11
404.597809
 21
531.0714289999999
 31
0.0
  0
LINE
  5
11228
330
10FD6
100
AcDbEntity
  8
3
  6
DASHED
100
AcDbLine
 10
403.691288
 20
531.5
 30
0.0
 11
402.0837089999998
 21
531.5
 31
0.0
  0
LINE
  5
11229
330
10FD6
100
AcDbEntity
  8
1
  6
Continuous
100
AcDbLine
 10
399.493649
 20
524.780663
 30
0.0
 11
399.5781949999998
 21
525.0
 31
0.0
  0
LINE
  5
1122A
330
10FD6
100
AcDbEntity
  8
3
  6
DASHED
100
AcDbLine
 10
399.5781949999998
 20
525.0
 30
0.0
 11
402.0837089999998
 21
531.5
 31
0.0
  0
LINE
  5
1122B
330
10FD6
100
AcDbEntity
  8
3
  6
DASHED
100
AcDbLine
 10
401.4999999999998
 20
547.5
 30
0.0
 11
385.5
 21
547.5
 31
0.0
  0
LINE
  5
1122C
330
10FD6
100
AcDbEntity
  8
1
  6
Continuous
100
AcDbLine
 10
384.0
 20
549.5
 30
0.0
 11
384.0
 21
551.0
 31
0.0
  0
LINE
  5
1122D
330
10FD6
100
AcDbEntity
  8
1
  6
Continuous
100
AcDbLine
 10
383.0
 20
549.5
 30
0.0
 11
384.0
 21
549.5
 31
0.0
  0
LINE
  5
1122E
330
10FD6
100
AcDbEntity
  8
3
  6
DASHED
100
AcDbLine
 10
405.0
 20
541.5
 30
0.0
 11
403.5
 21
541.5
 31
0.0
  0
ARC
  5
1122F
330
10FD6
100
AcDbEntity
  8
3
  6
DASHED
100
AcDbCircle
 10
391.0
 20
537.5
 30
0.0
 40
14.0
100
AcDbArc
 50
338.920162
 51
0.0
  0
ARC
  5
11230
330
10FD6
100
AcDbEntity
  8
3
  6
DASHED
100
AcDbCircle
 10
401.4999999999998
 20
545.5
 30
0.0
 40
2.0
100
AcDbArc
 50
0.0
 51
90.0
  0
LINE
  5
11231
330
10FD6
100
AcDbEntity
  8
3
  6
DASHED
100
AcDbLine
 10
403.5
 20
537.5
 30
0.0
 11
403.5
 21
545.5
 31
0.0
  0
ARC
  5
11232
330
10FD6
100
AcDbEntity
  8
3
  6
DASHED
100
AcDbCircle
 10
391.0
 20
537.5
 30
0.0
 40
12.5
100
AcDbArc
 50
338.920162
 51
0.0
  0
LINE
  5
11233
330
10FD6
100
AcDbEntity
  8
3
  6
DASHED
100
AcDbLine
 10
405.0
 20
537.5
 30
0.0
 11
405.0
 21
541.5
 31
0.0
  0
LINE
  5
11234
330
10FD6
100
AcDbEntity
  8
4
  6
CENTER
100
AcDbLine
 10
482.5
 20
529.25
 30
0.0
 11
482.5
 21
540.7499999999998
 31
0.0
  0
CIRCLE
  5
11235
330
10FD6
100
AcDbEntity
  8
1
  6
Continuous
100
AcDbCircle
 10
482.5
 20
535.0
 30
0.0
 40
2.399999999999999
  0
LINE
  5
11236
330
10FD6
100
AcDbEntity
  8
3
  6
DASHED
100
AcDbLine
 10
399.5781949999998
 20
729.4999999999999
 30
0.0
 11
364.5
 21
729.4999999999999
 31
0.0
  0
LINE
  5
11237
330
10FD6
100
AcDbEntity
  8
4
  6
CENTER
100
AcDbLine
 10
406.0
 20
717.0
 30
0.0
 11
359.25
 21
717.0
 31
0.0
  0
ARC
  5
11238
330
10FD6
100
AcDbEntity
  8
3
  6
DASHED
100
AcDbCircle
 10
391.0
 20
717.0
 30
0.0
 40
11.0
100
AcDbArc
 50
294.619977
 51
245.380023
  0
LINE
  5
11239
330
10FD6
100
AcDbEntity
  8
3
  6
DASHED
100
AcDbLine
 10
401.6982459999998
 20
724.0
 30
0.0
 11
365.5
 21
724.0
 31
0.0
  0
LINE
  5
1123A
330
10FD6
100
AcDbEntity
  8
4
  6
CENTER
100
AcDbLine
 10
364.25
 20
719.5
 30
0.0
 11
385.7499999999999
 21
719.5
 31
0.0
  0
LINE
  5
1123B
330
10FD6
100
AcDbEntity
  8
1
  6
Continuous
100
AcDbLine
 10
381.0
 20
708.4999999999999
 30
0.0
 11
385.0
 21
707.0
 31
0.0
  0
LINE
  5
1123C
330
10FD6
100
AcDbEntity
  8
1
  6
Continuous
100
AcDbLine
 10
383.0
 20
705.0
 30
0.0
 11
379.0
 21
703.5
 31
0.0
  0
LINE
  5
1123D
330
10FD6
100
AcDbEntity
  8
1
  6
Continuous
100
AcDbLine
 10
403.5
 20
632.0
 30
0.0
 11
380.0
 21
632.0
 31
0.0
  0
LINE
  5
1123E
330
10FD6
100
AcDbEntity
  8
1
  6
Continuous
100
AcDbLine
 10
384.0857859999999
 20
628.0
 30
0.0
 11
380.0
 21
628.0
 31
0.0
  0
LINE
  5
1123F
330
10FD6
100
AcDbEntity
  8
1
  6
Continuous
100
AcDbLine
 10
384.0
 20
623.0
 30
0.0
 11
380.0
 21
623.0
 31
0.0
  0
LINE
  5
11240
330
10FD6
100
AcDbEntity
  8
1
  6
Continuous
100
AcDbLine
 10
385.0
 20
630.4999999999997
 30
0.0
 11
380.0
 21
630.4999999999997
 31
0.0
  0
LINE
  5
11241
330
10FD6
100
AcDbEntity
  8
1
  6
Continuous
100
AcDbLine
 10
385.0
 20
629.0
 30
0.0
 11
380.0
 21
629.0
 31
0.0
  0
LINE
  5
11242
330
10FD6
100
AcDbEntity
  8
1
  6
Continuous
100
AcDbLine
 10
384.0
 20
622.5
 30
0.0
 11
315.5
 21
622.5
 31
0.0
  0
LINE
  5
11243
330
10FD6
100
AcDbEntity
  8
4
  6
CENTER
100
AcDbLine
 10
280.0
 20
636.5
 30
0.0
 11
280.0
 21
630.0
 31
0.0
  0
LINE
  5
11244
330
10FD6
100
AcDbEntity
  8
4
  6
CENTER
100
AcDbLine
 10
290.0
 20
636.5
 30
0.0
 11
290.0
 21
630.0
 31
0.0
  0
LINE
  5
11245
330
10FD6
100
AcDbEntity
  8
1
  6
Continuous
100
AcDbLine
 10
314.0
 20
622.5
 30
0.0
 11
314.0
 21
624.0
 31
0.0
  0
LINE
  5
11246
330
10FD6
100
AcDbEntity
  8
1
  6
Continuous
100
AcDbLine
 10
315.5
 20
624.0
 30
0.0
 11
315.5
 21
621.0
 31
0.0
  0
ARC
  5
11247
330
10FD6
100
AcDbEntity
  8
1
  6
Continuous
100
AcDbCircle
 10
315.5
 20
622.5
 30
0.0
 40
1.5
100
AcDbArc
 50
180.0
 51
270.0
  0
LINE
  5
11248
330
10FD6
100
AcDbEntity
  8
3
  6
DASHED
100
AcDbLine
 10
315.5
 20
630.4999999999997
 30
0.0
 11
314.0
 21
630.4999999999997
 31
0.0
  0
LINE
  5
11249
330
10FD6
100
AcDbEntity
  8
3
  6
DASHED
100
AcDbLine
 10
315.5
 20
630.4999999999997
 30
0.0
 11
315.5
 21
624.0
 31
0.0
  0
LINE
  5
1124A
330
10FD6
100
AcDbEntity
  8
3
  6
DASHED
100
AcDbLine
 10
314.0
 20
624.0
 30
0.0
 11
314.0
 21
630.4999999999997
 31
0.0
  0
LINE
  5
1124B
330
10FD6
100
AcDbEntity
  8
4
  6
CENTER
100
AcDbLine
 10
370.0
 20
618.0
 30
0.0
 11
370.0
 21
624.5
 31
0.0
  0
LINE
  5
1124C
330
10FD6
100
AcDbEntity
  8
4
  6
CENTER
100
AcDbLine
 10
380.0
 20
618.0
 30
0.0
 11
380.0
 21
624.5
 31
0.0
  0
LINE
  5
1124D
330
10FD6
100
AcDbEntity
  8
4
  6
CENTER
100
AcDbLine
 10
345.0
 20
618.0
 30
0.0
 11
345.0
 21
624.5
 31
0.0
  0
LINE
  5
1124E
330
10FD6
100
AcDbEntity
  8
4
  6
CENTER
100
AcDbLine
 10
319.55
 20
618.0
 30
0.0
 11
319.55
 21
624.5
 31
0.0
  0
LINE
  5
1124F
330
10FD6
100
AcDbEntity
  8
4
  6
CENTER
100
AcDbLine
 10
331.0
 20
616.7314709999999
 30
0.0
 11
331.0
 21
637.1142519999997
 31
0.0
  0
LINE
  5
11250
330
10FD6
100
AcDbEntity
  8
1
  6
Continuous
100
AcDbLine
 10
340.53233
 20
631.5
 30
0.0
 11
335.0323299999999
 21
631.5
 31
0.0
  0
LINE
  5
11251
330
10FD6
100
AcDbEntity
  8
1
  6
Continuous
100
AcDbLine
 10
340.53233
 20
626.0
 30
0.0
 11
335.0323299999999
 21
626.0
 31
0.0
  0
LINE
  5
11252
330
10FD6
100
AcDbEntity
  8
3
  6
DASHED
100
AcDbLine
 10
342.0
 20
626.5
 30
0.0
 11
320.0
 21
626.5
 31
0.0
  0
LINE
  5
11253
330
10FD6
100
AcDbEntity
  8
1
  6
Continuous
100
AcDbLine
 10
337.0
 20
623.5
 30
0.0
 11
325.0
 21
623.5
 31
0.0
  0
LINE
  5
11254
330
10FD6
100
AcDbEntity
  8
3
  6
DASHED
100
AcDbLine
 10
337.0
 20
625.0
 30
0.0
 11
325.0
 21
625.0
 31
0.0
  0
LINE
  5
11255
330
10FD6
100
AcDbEntity
  8
1
  6
Continuous
100
AcDbLine
 10
335.0323299999999
 20
626.0
 30
0.0
 11
335.0323299999999
 21
631.5
 31
0.0
  0
LINE
  5
11256
330
10FD6
100
AcDbEntity
  8
1
  6
Continuous
100
AcDbLine
 10
325.2071069999999
 20
623.2071069999998
 30
0.0
 11
324.5
 21
622.5
 31
0.0
  0
LINE
  5
11257
330
10FD6
100
AcDbEntity
  8
3
  6
DASHED
100
AcDbLine
 10
320.0
 20
626.5
 30
0.0
 11
320.0
 21
631.5
 31
0.0
  0
LINE
  5
11258
330
10FD6
100
AcDbEntity
  8
1
  6
Continuous
100
AcDbLine
 10
325.0
 20
624.0
 30
0.0
 11
325.0
 21
623.5
 31
0.0
  0
ARC
  5
11259
330
10FD6
100
AcDbEntity
  8
1
  6
Continuous
100
AcDbCircle
 10
325.914214
 20
622.5
 30
0.0
 40
1.0
100
AcDbArc
 50
90.0
 51
135.0
  0
LINE
  5
1125A
330
10FD6
100
AcDbEntity
  8
3
  6
DASHED
100
AcDbLine
 10
325.0
 20
626.5
 30
0.0
 11
325.0
 21
624.0
 31
0.0
  0
LINE
  5
1125B
330
10FD6
100
AcDbEntity
  8
3
  6
DASHED
100
AcDbLine
 10
335.0323299999999
 20
631.5
 30
0.0
 11
320.0
 21
631.5
 31
0.0
  0
LINE
  5
1125C
330
10FD6
100
AcDbEntity
  8
3
  6
DASHED
100
AcDbLine
 10
342.0
 20
631.5
 30
0.0
 11
340.53233
 21
631.5
 31
0.0
  0
LINE
  5
1125D
330
10FD6
100
AcDbEntity
  8
1
  6
Continuous
100
AcDbLine
 10
337.0
 20
624.0
 30
0.0
 11
337.0
 21
623.5
 31
0.0
  0
ARC
  5
1125E
330
10FD6
100
AcDbEntity
  8
1
  6
Continuous
100
AcDbCircle
 10
336.0857859999999
 20
622.5
 30
0.0
 40
1.0
100
AcDbArc
 50
45.0
 51
90.0
  0
LINE
  5
1125F
330
10FD6
100
AcDbEntity
  8
1
  6
Continuous
100
AcDbLine
 10
336.792893
 20
623.2071069999998
 30
0.0
 11
337.5
 21
622.5
 31
0.0
  0
LINE
  5
11260
330
10FD6
100
AcDbEntity
  8
3
  6
DASHED
100
AcDbLine
 10
337.0
 20
626.5
 30
0.0
 11
337.0
 21
624.0
 31
0.0
  0
LINE
  5
11261
330
10FD6
100
AcDbEntity
  8
1
  6
Continuous
100
AcDbLine
 10
340.53233
 20
626.0
 30
0.0
 11
340.53233
 21
631.5
 31
0.0
  0
LINE
  5
11262
330
10FD6
100
AcDbEntity
  8
1
  6
Continuous
100
AcDbLine
 10
337.78233
 20
626.0
 30
0.0
 11
337.78233
 21
631.5
 31
0.0
  0
LINE
  5
11263
330
10FD6
100
AcDbEntity
  8
3
  6
DASHED
100
AcDbLine
 10
342.0
 20
626.5
 30
0.0
 11
342.0
 21
631.5
 31
0.0
  0
LINE
  5
11264
330
10FD6
100
AcDbEntity
  8
4
  6
CENTER
100
AcDbLine
 10
365.0
 20
636.5
 30
0.0
 11
365.0
 21
630.0
 31
0.0
  0
LINE
  5
11265
330
10FD6
100
AcDbEntity
  8
1
  6
Continuous
100
AcDbLine
 10
364.5
 20
624.0
 30
0.0
 11
364.5
 21
622.5
 31
0.0
  0
LINE
  5
11266
330
10FD6
100
AcDbEntity
  8
1
  6
Continuous
100
AcDbLine
 10
380.0
 20
633.4999999999999
 30
0.0
 11
380.0
 21
623.0
 31
0.0
  0
LINE
  5
11267
330
10FD6
100
AcDbEntity
  8
4
  6
CENTER
100
AcDbLine
 10
375.0
 20
636.5
 30
0.0
 11
375.0
 21
630.0
 31
0.0
  0
LINE
  5
11268
330
10FD6
100
AcDbEntity
  8
1
  6
Continuous
100
AcDbLine
 10
379.0
 20
622.5
 30
0.0
 11
379.0
 21
621.0
 31
0.0
  0
LINE
  5
11269
330
10FD6
100
AcDbEntity
  8
4
  6
CENTER
100
AcDbLine
 10
346.0
 20
719.5
 30
0.0
 11
316.0
 21
719.5
 31
0.0
  0
LINE
  5
1126A
330
10FD6
100
AcDbEntity
  8
1
  6
Continuous
100
AcDbLine
 10
379.0
 20
703.5
 30
0.0
 11
317.5
 21
703.5
 31
0.0
  0
LINE
  5
1126B
330
10FD6
100
AcDbEntity
  8
3
  6
DASHED
100
AcDbLine
 10
359.5
 20
729.4999999999999
 30
0.0
 11
314.0
 21
729.4999999999999
 31
0.0
  0
ARC
  5
1126C
330
10FD6
100
AcDbEntity
  8
1
  6
Continuous
100
AcDbCircle
 10
319.55
 20
707.5499999999998
 30
0.0
 40
1.75
100
AcDbArc
 50
198.317698
 51
341.6823019999999
  0
LINE
  5
1126D
330
10FD6
100
AcDbEntity
  8
4
  6
CENTER
100
AcDbLine
 10
315.8
 20
707.5499999999998
 30
0.0
 11
323.3
 21
707.5499999999998
 31
0.0
  0
LINE
  5
1126E
330
10FD6
100
AcDbEntity
  8
3
  6
DASHED
100
AcDbLine
 10
315.5
 20
710.0
 30
0.0
 11
315.5
 21
707.0
 31
0.0
  0
LINE
  5
1126F
330
10FD6
100
AcDbEntity
  8
1
  6
Continuous
100
AcDbLine
 10
315.5
 20
705.4999999999997
 30
0.0
 11
315.5
 21
707.0
 31
0.0
  0
LINE
  5
11270
330
10FD6
100
AcDbEntity
  8
4
  6
CENTER
100
AcDbLine
 10
295.7499999999999
 20
717.0
 30
0.0
 11
274.25
 21
717.0
 31
0.0
  0
ARC
  5
11271
330
10FD6
100
AcDbEntity
  8
1
  6
Continuous
100
AcDbCircle
 10
280.0
 20
718.0
 30
0.0
 40
2.399999999999999
100
AcDbArc
 50
0.0
 51
180.0
  0
ARC
  5
11272
330
10FD6
100
AcDbEntity
  8
1
  6
Continuous
100
AcDbCircle
 10
280.0
 20
716.0
 30
0.0
 40
2.399999999999999
100
AcDbArc
 50
180.0
 51
0.0
  0
LINE
  5
11273
330
10FD6
100
AcDbEntity
  8
1
  6
Continuous
100
AcDbLine
 10
277.6
 20
718.0
 30
0.0
 11
277.6
 21
716.0
 31
0.0
  0
LINE
  5
11274
330
10FD6
100
AcDbEntity
  8
4
  6
CENTER
100
AcDbLine
 10
280.0
 20
723.7499999999998
 30
0.0
 11
280.0
 21
710.25
 31
0.0
  0
LINE
  5
11275
330
10FD6
100
AcDbEntity
  8
1
  6
Continuous
100
AcDbLine
 10
282.3999999999998
 20
718.0
 30
0.0
 11
282.3999999999998
 21
716.0
 31
0.0
  0
LINE
  5
11276
330
10FD6
100
AcDbEntity
  8
4
  6
CENTER
100
AcDbLine
 10
290.0
 20
722.75
 30
0.0
 11
290.0
 21
711.2499999999997
 31
0.0
  0
CIRCLE
  5
11277
330
10FD6
100
AcDbEntity
  8
1
  6
Continuous
100
AcDbCircle
 10
290.0
 20
717.0
 30
0.0
 40
2.399999999999999
  0
LINE
  5
11278
330
10FD6
100
AcDbEntity
  8
3
  6
DASHED
100
AcDbLine
 10
316.5
 20
713.4999999999997
 30
0.0
 11
313.0
 21
713.4999999999997
 31
0.0
  0
LINE
  5
11279
330
10FD6
100
AcDbEntity
  8
3
  6
DASHED
100
AcDbLine
 10
316.5
 20
710.0
 30
0.0
 11
313.0
 21
710.0
 31
0.0
  0
LINE
  5
1127A
330
10FD6
100
AcDbEntity
  8
3
  6
DASHED
100
AcDbLine
 10
313.0
 20
710.0
 30
0.0
 11
313.0
 21
713.4999999999997
 31
0.0
  0
LINE
  5
1127B
330
10FD6
100
AcDbEntity
  8
3
  6
DASHED
100
AcDbLine
 10
316.5
 20
710.0
 30
0.0
 11
316.5
 21
713.4999999999997
 31
0.0
  0
LINE
  5
1127C
330
10FD6
100
AcDbEntity
  8
3
  6
DASHED
100
AcDbLine
 10
314.0
 20
729.4999999999999
 30
0.0
 11
314.0
 21
713.4999999999997
 31
0.0
  0
LINE
  5
1127D
330
10FD6
100
AcDbEntity
  8
3
  6
DASHED
100
AcDbLine
 10
315.5
 20
729.4999999999999
 30
0.0
 11
315.5
 21
713.4999999999997
 31
0.0
  0
LINE
  5
1127E
330
10FD6
100
AcDbEntity
  8
1
  6
Continuous
100
AcDbLine
 10
380.0
 20
708.4999999999999
 30
0.0
 11
380.0
 21
707.0
 31
0.0
  0
LINE
  5
1127F
330
10FD6
100
AcDbEntity
  8
4
  6
CENTER
100
AcDbLine
 10
345.0
 20
717.25
 30
0.0
 11
345.0
 21
705.75
 31
0.0
  0
LINE
  5
11280
330
10FD6
100
AcDbEntity
  8
4
  6
CENTER
100
AcDbLine
 10
319.55
 20
711.2999999999998
 30
0.0
 11
319.55
 21
703.7999999999998
 31
0.0
  0
LINE
  5
11281
330
10FD6
100
AcDbEntity
  8
4
  6
CENTER
100
AcDbLine
 10
331.0
 20
734.4999999999998
 30
0.0
 11
331.0
 21
704.4999999999999
 31
0.0
  0
CIRCLE
  5
11282
330
10FD6
100
AcDbEntity
  8
3
  6
DASHED
100
AcDbCircle
 10
331.0
 20
719.5
 30
0.0
 40
11.0
  0
LINE
  5
11283
330
10FD6
100
AcDbEntity
  8
4
  6
CENTER
100
AcDbLine
 10
339.25
 20
711.5
 30
0.0
 11
350.75
 21
711.5
 31
0.0
  0
ARC
  5
11284
330
10FD6
100
AcDbEntity
  8
1
  6
Continuous
100
AcDbCircle
 10
365.0
 20
716.0
 30
0.0
 40
2.399999999999999
100
AcDbArc
 50
180.0
 51
0.0
  0
ARC
  5
11285
330
10FD6
100
AcDbEntity
  8
1
  6
Continuous
100
AcDbCircle
 10
365.0
 20
718.0
 30
0.0
 40
2.399999999999999
100
AcDbArc
 50
0.0
 51
180.0
  0
ARC
  5
11286
330
10FD6
100
AcDbEntity
  8
3
  6
DASHED
100
AcDbCircle
 10
365.7236069999998
 20
727.5
 30
0.0
 40
0.5
100
AcDbArc
 50
318.189685
 51
90.0
  0
ARC
  5
11287
330
10FD6
100
AcDbEntity
  8
3
  6
DASHED
100
AcDbCircle
 10
365.5
 20
728.0
 30
0.0
 40
1.0
100
AcDbArc
 50
318.189685
 51
67.380135
  0
LINE
  5
11288
330
10FD6
100
AcDbEntity
  8
3
  6
DASHED
100
AcDbLine
 10
363.5
 20
728.0
 30
0.0
 11
364.5
 21
728.0
 31
0.0
  0
LINE
  5
11289
330
10FD6
100
AcDbEntity
  8
3
  6
DASHED
100
AcDbLine
 10
364.5
 20
728.0
 30
0.0
 11
365.7236069999998
 21
728.0
 31
0.0
  0
LINE
  5
1128A
330
10FD6
100
AcDbEntity
  8
3
  6
DASHED
100
AcDbLine
 10
364.5
 20
729.4999999999999
 30
0.0
 11
365.884615
 21
728.9230769999996
 31
0.0
  0
LINE
  5
1128B
330
10FD6
100
AcDbEntity
  8
3
  6
DASHED
100
AcDbLine
 10
364.5
 20
729.4999999999999
 30
0.0
 11
364.5
 21
728.0
 31
0.0
  0
LINE
  5
1128C
330
10FD6
100
AcDbEntity
  8
3
  6
DASHED
100
AcDbLine
 10
363.5
 20
728.0
 30
0.0
 11
359.5
 21
729.4999999999999
 31
0.0
  0
LINE
  5
1128D
330
10FD6
100
AcDbEntity
  8
3
  6
DASHED
100
AcDbLine
 10
364.7546439999999
 20
725.6666669999997
 30
0.0
 11
366.245356
 21
727.333333
 31
0.0
  0
LINE
  5
1128E
330
10FD6
100
AcDbEntity
  8
1
  6
Continuous
100
AcDbLine
 10
362.6
 20
718.0
 30
0.0
 11
362.6
 21
716.0
 31
0.0
  0
LINE
  5
1128F
330
10FD6
100
AcDbEntity
  8
4
  6
CENTER
100
AcDbLine
 10
365.0
 20
723.7499999999998
 30
0.0
 11
365.0
 21
710.25
 31
0.0
  0
ARC
  5
11290
330
10FD6
100
AcDbEntity
  8
3
  6
DASHED
100
AcDbCircle
 10
365.5
 20
725.0
 30
0.0
 40
1.0
100
AcDbArc
 50
138.1896849999999
 51
270.0
  0
CIRCLE
  5
11291
330
10FD6
100
AcDbEntity
  8
1
  6
Continuous
100
AcDbCircle
 10
375.0
 20
717.0
 30
0.0
 40
2.399999999999999
  0
LINE
  5
11292
330
10FD6
100
AcDbEntity
  8
1
  6
Continuous
100
AcDbLine
 10
367.3999999999999
 20
718.0
 30
0.0
 11
367.3999999999999
 21
716.0
 31
0.0
  0
LINE
  5
11293
330
10FD6
100
AcDbEntity
  8
4
  6
CENTER
100
AcDbLine
 10
370.0
 20
725.25
 30
0.0
 11
370.0
 21
713.75
 31
0.0
  0
LINE
  5
11294
330
10FD6
100
AcDbEntity
  8
4
  6
CENTER
100
AcDbLine
 10
375.0
 20
722.75
 30
0.0
 11
375.0
 21
711.2499999999997
 31
0.0
  0
LINE
  5
11295
330
10FD6
100
AcDbEntity
  8
1
  6
Continuous
100
AcDbLine
 10
381.0
 20
708.4999999999999
 30
0.0
 11
380.0
 21
708.4999999999999
 31
0.0
  0
LINE
  5
11296
330
10FD6
100
AcDbEntity
  8
4
  6
CENTER
100
AcDbLine
 10
380.0
 20
726.25
 30
0.0
 11
380.0
 21
712.75
 31
0.0
  0
LINE
  5
11297
330
10FD6
100
AcDbEntity
  8
4
  6
CENTER
100
AcDbLine
 10
391.0
 20
616.8764579999997
 30
0.0
 11
391.0
 21
637.343926
 31
0.0
  0
LINE
  5
11298
330
10FD6
100
AcDbEntity
  8
3
  6
DASHED
100
AcDbLine
 10
402.0
 20
628.0
 30
0.0
 11
384.0857859999999
 21
628.0
 31
0.0
  0
LINE
  5
11299
330
10FD6
100
AcDbEntity
  8
3
  6
DASHED
100
AcDbLine
 10
402.0
 20
623.0
 30
0.0
 11
384.0
 21
623.0
 31
0.0
  0
LINE
  5
1129A
330
10FD6
100
AcDbEntity
  8
1
  6
Continuous
100
AcDbLine
 10
403.5
 20
630.4999999999997
 30
0.0
 11
397.0
 21
630.4999999999997
 31
0.0
  0
LINE
  5
1129B
330
10FD6
100
AcDbEntity
  8
1
  6
Continuous
100
AcDbLine
 10
397.0
 20
629.4999999999999
 30
0.0
 11
385.0
 21
629.4999999999999
 31
0.0
  0
LINE
  5
1129C
330
10FD6
100
AcDbEntity
  8
1
  6
Continuous
100
AcDbLine
 10
397.0
 20
631.0
 30
0.0
 11
385.0
 21
631.0
 31
0.0
  0
LINE
  5
1129D
330
10FD6
100
AcDbEntity
  8
1
  6
Continuous
100
AcDbLine
 10
384.0
 20
627.5
 30
0.0
 11
384.0
 21
621.0
 31
0.0
  0
LINE
  5
1129E
330
10FD6
100
AcDbEntity
  8
1
  6
Continuous
100
AcDbLine
 10
383.0
 20
622.5
 30
0.0
 11
383.0
 21
621.0
 31
0.0
  0
ARC
  5
1129F
330
10FD6
100
AcDbEntity
  8
1
  6
Continuous
100
AcDbCircle
 10
385.5
 20
627.5
 30
0.0
 40
1.5
100
AcDbArc
 50
90.0
 51
180.0
  0
LINE
  5
112A0
330
10FD6
100
AcDbEntity
  8
1
  6
Continuous
100
AcDbLine
 10
385.0
 20
628.914214
 30
0.0
 11
385.0
 21
631.0
 31
0.0
  0
LINE
  5
112A1
330
10FD6
100
AcDbEntity
  8
1
  6
Continuous
100
AcDbLine
 10
385.207107
 20
631.2928929999999
 30
0.0
 11
384.5
 21
632.0
 31
0.0
  0
ARC
  5
112A2
330
10FD6
100
AcDbEntity
  8
1
  6
Continuous
100
AcDbCircle
 10
385.914214
 20
632.0
 30
0.0
 40
1.0
100
AcDbArc
 50
225.0
 51
270.0
  0
LINE
  5
112A3
330
10FD6
100
AcDbEntity
  8
3
  6
DASHED
100
AcDbLine
 10
385.0
 20
628.0
 30
0.0
 11
385.0
 21
628.914214
 31
0.0
  0
LINE
  5
112A4
330
10FD6
100
AcDbEntity
  8
1
  6
Continuous
100
AcDbLine
 10
397.0
 20
629.0
 30
0.0
 11
397.0
 21
631.0
 31
0.0
  0
LINE
  5
112A5
330
10FD6
100
AcDbEntity
  8
1
  6
Continuous
100
AcDbLine
 10
396.7928929999998
 20
631.2928929999999
 30
0.0
 11
397.5
 21
632.0
 31
0.0
  0
ARC
  5
112A6
330
10FD6
100
AcDbEntity
  8
1
  6
Continuous
100
AcDbCircle
 10
396.0857859999999
 20
632.0
 30
0.0
 40
1.0
100
AcDbArc
 50
270.0
 51
315.0
  0
LINE
  5
112A7
330
10FD6
100
AcDbEntity
  8
3
  6
DASHED
100
AcDbLine
 10
397.0
 20
628.0
 30
0.0
 11
397.0
 21
629.0
 31
0.0
  0
ARC
  5
112A8
330
10FD6
100
AcDbEntity
  8
1
  6
Continuous
100
AcDbCircle
 10
403.5
 20
632.0
 30
0.0
 40
1.5
100
AcDbArc
 50
0.0
 51
90.0
  0
LINE
  5
112A9
330
10FD6
100
AcDbEntity
  8
3
  6
DASHED
100
AcDbLine
 10
405.0
 20
624.0
 30
0.0
 11
403.5
 21
624.0
 31
0.0
  0
LINE
  5
112AA
330
10FD6
100
AcDbEntity
  8
1
  6
Continuous
100
AcDbLine
 10
403.5
 20
629.0
 30
0.0
 11
403.5
 21
633.4999999999999
 31
0.0
  0
LINE
  5
112AB
330
10FD6
100
AcDbEntity
  8
3
  6
DASHED
100
AcDbLine
 10
402.0
 20
628.0
 30
0.0
 11
402.0
 21
623.0
 31
0.0
  0
LINE
  5
112AC
330
10FD6
100
AcDbEntity
  8
3
  6
DASHED
100
AcDbLine
 10
403.5
 20
624.0
 30
0.0
 11
403.5
 21
629.0
 31
0.0
  0
LINE
  5
112AD
330
10FD6
100
AcDbEntity
  8
1
  6
Continuous
100
AcDbLine
 10
405.0
 20
629.0
 30
0.0
 11
405.0
 21
632.0
 31
0.0
  0
LINE
  5
112AE
330
10FD6
100
AcDbEntity
  8
3
  6
DASHED
100
AcDbLine
 10
405.0
 20
624.0
 30
0.0
 11
405.0
 21
629.0
 31
0.0
  0
LINE
  5
112AF
330
10FD6
100
AcDbEntity
  8
4
  6
CENTER
100
AcDbLine
 10
482.5
 20
618.0
 30
0.0
 11
482.5
 21
624.5
 31
0.0
  0
ARC
  5
112B0
330
10FD6
100
AcDbEntity
  8
1
  6
Continuous
100
AcDbCircle
 10
401.4999999999998
 20
709.0
 30
0.0
 40
2.0
100
AcDbArc
 50
270.0
 51
0.0
  0
LINE
  5
112B1
330
10FD6
100
AcDbEntity
  8
4
  6
CENTER
100
AcDbLine
 10
391.0
 20
732.0
 30
0.0
 11
391.0
 21
702.0
 31
0.0
  0
LINE
  5
112B2
330
10FD6
100
AcDbEntity
  8
1
  6
Continuous
100
AcDbLine
 10
401.4999999999998
 20
707.0
 30
0.0
 11
385.0
 21
707.0
 31
0.0
  0
ARC
  5
112B3
330
10FD6
100
AcDbEntity
  8
1
  6
Continuous
100
AcDbCircle
 10
391.0
 20
717.0
 30
0.0
 40
11.0
100
AcDbArc
 50
245.380023
 51
294.619977
  0
LINE
  5
112B4
330
10FD6
100
AcDbEntity
  8
1
  6
Continuous
100
AcDbLine
 10
384.0
 20
705.0
 30
0.0
 11
384.0
 21
703.5
 31
0.0
  0
ARC
  5
112B5
330
10FD6
100
AcDbEntity
  8
1
  6
Continuous
100
AcDbCircle
 10
397.627489
 20
729.0
 30
0.0
 40
2.0
100
AcDbArc
 50
21.07983799999999
 51
90.0
  0
CIRCLE
  5
112B6
330
10FD6
100
AcDbEntity
  8
1
  6
Continuous
100
AcDbCircle
 10
391.0
 20
717.0
 30
0.0
 40
3.0
  0
CIRCLE
  5
112B7
330
10FD6
100
AcDbEntity
  8
1
  6
Continuous
100
AcDbCircle
 10
391.0
 20
717.0
 30
0.0
 40
5.0
  0
ARC
  5
112B8
330
10FD6
100
AcDbEntity
  8
1
  6
Continuous
100
AcDbCircle
 10
391.0
 20
717.0
 30
0.0
 40
14.0
100
AcDbArc
 50
0.0
 51
21.07983799999999
  0
LINE
  5
112B9
330
10FD6
100
AcDbEntity
  8
1
  6
Continuous
100
AcDbLine
 10
405.0
 20
713.0
 30
0.0
 11
403.5
 21
713.0
 31
0.0
  0
LINE
  5
112BA
330
10FD6
100
AcDbEntity
  8
1
  6
Continuous
100
AcDbLine
 10
403.5
 20
713.0
 30
0.0
 11
403.5
 21
709.0
 31
0.0
  0
LINE
  5
112BB
330
10FD6
100
AcDbEntity
  8
1
  6
Continuous
100
AcDbLine
 10
403.691288
 20
723.0
 30
0.0
 11
402.0837089999998
 21
723.0
 31
0.0
  0
LINE
  5
112BC
330
10FD6
100
AcDbEntity
  8
1
  6
Continuous
100
AcDbLine
 10
403.691288
 20
723.0
 30
0.0
 11
404.0631219999998
 21
722.0353589999997
 31
0.0
  0
LINE
  5
112BD
330
10FD6
100
AcDbEntity
  8
1
  6
Continuous
100
AcDbLine
 10
404.377544
 20
724.0
 30
0.0
 11
404.597809
 21
723.428571
 31
0.0
  0
LINE
  5
112BE
330
10FD6
100
AcDbEntity
  8
1
  6
Continuous
100
AcDbLine
 10
404.597809
 20
723.428571
 30
0.0
 11
403.691288
 21
723.0
 31
0.0
  0
LINE
  5
112BF
330
10FD6
100
AcDbEntity
  8
1
  6
Continuous
100
AcDbLine
 10
405.0
 20
717.0
 30
0.0
 11
405.0
 21
713.0
 31
0.0
  0
LINE
  5
112C0
330
10FD6
100
AcDbEntity
  8
1
  6
Continuous
100
AcDbLine
 10
399.493649
 20
729.719337
 30
0.0
 11
402.0837089999998
 21
723.0
 31
0.0
  0
LINE
  5
112C1
330
10FD6
100
AcDbEntity
  8
4
  6
CENTER
100
AcDbLine
 10
476.75
 20
719.5
 30
0.0
 11
488.25
 21
719.5
 31
0.0
  0
CIRCLE
  5
112C2
330
10FD6
100
AcDbEntity
  8
1
  6
Continuous
100
AcDbCircle
 10
482.5
 20
719.5
 30
0.0
 40
3.75
  0
CIRCLE
  5
112C3
330
10FD6
100
AcDbEntity
  8
1
  6
Continuous
100
AcDbCircle
 10
482.5
 20
719.5
 30
0.0
 40
2.399999999999999
  0
LINE
  5
112C4
330
10FD6
100
AcDbEntity
  8
4
  6
CENTER
100
AcDbLine
 10
482.5
 20
725.25
 30
0.0
 11
482.5
 21
713.75
 31
0.0
  0
LINE
  5
112C5
330
10FD6
100
AcDbEntity
  8
1
  6
Continuous
100
AcDbLine
 10
595.0
 20
522.5
 30
0.0
 11
567.0
 21
525.0
 31
0.0
  0
LINE
  5
112C6
330
10FD6
100
AcDbEntity
  8
4
  6
CENTER
100
AcDbLine
 10
595.0
 20
529.25
 30
0.0
 11
595.0
 21
540.7499999999998
 31
0.0
  0
ARC
  5
112C7
330
10FD6
100
AcDbEntity
  8
1
  6
Continuous
100
AcDbCircle
 10
602.0
 20
533.0
 30
0.0
 40
2.0
100
AcDbArc
 50
90.0
 51
253.2276069999999
  0
ARC
  5
112C8
330
10FD6
100
AcDbEntity
  8
1
  6
Continuous
100
AcDbCircle
 10
585.0
 20
534.0
 30
0.0
 40
2.399999999999999
100
AcDbArc
 50
180.0
 51
0.0
  0
LINE
  5
112C9
330
10FD6
100
AcDbEntity
  8
4
  6
CENTER
100
AcDbLine
 10
585.0
 20
528.2499999999998
 30
0.0
 11
585.0
 21
541.75
 31
0.0
  0
LINE
  5
112CA
330
10FD6
100
AcDbEntity
  8
1
  6
Continuous
100
AcDbLine
 10
610.0
 20
522.5
 30
0.0
 11
595.0
 21
522.5
 31
0.0
  0
LINE
  5
112CB
330
10FD6
100
AcDbEntity
  8
1
  6
Continuous
100
AcDbLine
 10
608.932856
 20
528.821629
 30
0.0
 11
601.422859
 21
531.085083
 31
0.0
  0
LINE
  5
112CC
330
10FD6
100
AcDbEntity
  8
1
  6
Continuous
100
AcDbLine
 10
610.0
 20
522.5
 30
0.0
 11
610.0
 21
527.385441
 31
0.0
  0
ARC
  5
112CD
330
10FD6
100
AcDbEntity
  8
1
  6
Continuous
100
AcDbCircle
 10
608.4999999999999
 20
527.385441
 30
0.0
 40
1.5
100
AcDbArc
 50
0.0
 51
73.22760699999998
  0
LINE
  5
112CE
330
10FD6
100
AcDbEntity
  8
1
  6
Continuous
100
AcDbLine
 10
608.4999999999999
 20
535.0
 30
0.0
 11
602.0
 21
535.0
 31
0.0
  0
LINE
  5
112CF
330
10FD6
100
AcDbEntity
  8
1
  6
Continuous
100
AcDbLine
 10
587.3999999999997
 20
534.0
 30
0.0
 11
587.3999999999997
 21
536.0
 31
0.0
  0
LINE
  5
112D0
330
10FD6
100
AcDbEntity
  8
1
  6
Continuous
100
AcDbLine
 10
582.6
 20
534.0
 30
0.0
 11
582.6
 21
536.0
 31
0.0
  0
ARC
  5
112D1
330
10FD6
100
AcDbEntity
  8
1
  6
Continuous
100
AcDbCircle
 10
585.0
 20
536.0
 30
0.0
 40
2.399999999999999
100
AcDbArc
 50
0.0
 51
180.0
  0
CIRCLE
  5
112D2
330
10FD6
100
AcDbEntity
  8
1
  6
Continuous
100
AcDbCircle
 10
595.0
 20
535.0
 30
0.0
 40
2.399999999999999
  0
ARC
  5
112D3
330
10FD6
100
AcDbEntity
  8
1
  6
Continuous
100
AcDbCircle
 10
596.0
 20
535.0
 30
0.0
 40
7.0
100
AcDbArc
 50
26.33707499999999
 51
63.662925
  0
LINE
  5
112D4
330
10FD6
100
AcDbEntity
  8
1
  6
Continuous
100
AcDbLine
 10
605.858195
 20
539.880163
 30
0.0
 11
602.2733969999998
 21
538.1055579999999
 31
0.0
  0
LINE
  5
112D5
330
10FD6
100
AcDbEntity
  8
1
  6
Continuous
100
AcDbLine
 10
600.880163
 20
544.858195
 30
0.0
 11
599.105558
 21
541.2733969999997
 31
0.0
  0
ARC
  5
112D6
330
10FD6
100
AcDbEntity
  8
1
  6
Continuous
100
AcDbCircle
 10
596.0
 20
535.0
 30
0.0
 40
11.0
100
AcDbArc
 50
26.33707499999999
 51
63.662925
  0
ARC
  5
112D7
330
10FD6
100
AcDbEntity
  8
1
  6
Continuous
100
AcDbCircle
 10
608.4999999999999
 20
536.5
 30
0.0
 40
1.5
100
AcDbArc
 50
270.0
 51
0.0
  0
LINE
  5
112D8
330
10FD6
100
AcDbEntity
  8
1
  6
Continuous
100
AcDbLine
 10
610.0
 20
536.5
 30
0.0
 11
610.0
 21
551.0
 31
0.0
  0
LINE
  5
112D9
330
10FD6
100
AcDbEntity
  8
1
  6
Continuous
100
AcDbLine
 10
683.0
 20
531.5
 30
0.0
 11
683.0
 21
539.880163
 31
0.0
  0
LINE
  5
112DA
330
10FD6
100
AcDbEntity
  8
1
  6
Continuous
100
AcDbLine
 10
682.0
 20
531.5
 30
0.0
 11
682.0
 21
539.880163
 31
0.0
  0
LINE
  5
112DB
330
10FD6
100
AcDbEntity
  8
1
  6
Continuous
100
AcDbLine
 10
692.4999999999997
 20
523.5
 30
0.0
 11
692.4999999999997
 21
548.5
 31
0.0
  0
LINE
  5
112DC
330
10FD6
100
AcDbEntity
  8
1
  6
Continuous
100
AcDbLine
 10
681.5
 20
524.0
 30
0.0
 11
681.5
 21
549.5
 31
0.0
  0
LINE
  5
112DD
330
10FD6
100
AcDbEntity
  8
1
  6
Continuous
100
AcDbLine
 10
680.0
 20
524.0
 30
0.0
 11
680.0
 21
551.0
 31
0.0
  0
LINE
  5
112DE
330
10FD6
100
AcDbEntity
  8
1
  6
Continuous
100
AcDbLine
 10
692.4999999999997
 20
531.5
 30
0.0
 11
681.5
 21
531.5
 31
0.0
  0
LINE
  5
112DF
330
10FD6
100
AcDbEntity
  8
1
  6
Continuous
100
AcDbLine
 10
688.0
 20
527.7967559999998
 30
0.0
 11
681.5
 21
527.7967559999998
 31
0.0
  0
LINE
  5
112E0
330
10FD6
100
AcDbEntity
  8
1
  6
Continuous
100
AcDbLine
 10
688.0
 20
524.0
 30
0.0
 11
681.5
 21
524.0
 31
0.0
  0
LINE
  5
112E1
330
10FD6
100
AcDbEntity
  8
1
  6
Continuous
100
AcDbLine
 10
688.0
 20
522.5
 30
0.0
 11
681.5
 21
522.5
 31
0.0
  0
LINE
  5
112E2
330
10FD6
100
AcDbEntity
  8
1
  6
Continuous
100
AcDbLine
 10
681.5
 20
526.4999999999998
 30
0.0
 11
688.0
 21
526.4999999999998
 31
0.0
  0
LINE
  5
112E3
330
10FD6
100
AcDbEntity
  8
1
  6
Continuous
100
AcDbLine
 10
680.0
 20
528.5
 30
0.0
 11
681.5
 21
528.5
 31
0.0
  0
ARC
  5
112E4
330
10FD6
100
AcDbEntity
  8
1
  6
Continuous
100
AcDbCircle
 10
681.5
 20
524.0
 30
0.0
 40
1.5
100
AcDbArc
 50
180.0
 51
270.0
  0
LINE
  5
112E5
330
10FD6
100
AcDbEntity
  8
1
  6
Continuous
100
AcDbLine
 10
682.0
 20
526.4999999999998
 30
0.0
 11
682.0
 21
527.7967559999998
 31
0.0
  0
LINE
  5
112E6
330
10FD6
100
AcDbEntity
  8
1
  6
Continuous
100
AcDbLine
 10
689.5
 20
528.0
 30
0.0
 11
688.0
 21
528.0
 31
0.0
  0
LINE
  5
112E7
330
10FD6
100
AcDbEntity
  8
1
  6
Continuous
100
AcDbLine
 10
690.5
 20
531.5
 30
0.0
 11
691.0
 21
531.0
 31
0.0
  0
LINE
  5
112E8
330
10FD6
100
AcDbEntity
  8
1
  6
Continuous
100
AcDbLine
 10
688.0
 20
530.4999999999998
 30
0.0
 11
689.5
 21
530.4999999999998
 31
0.0
  0
ARC
  5
112E9
330
10FD6
100
AcDbEntity
  8
1
  6
Continuous
100
AcDbCircle
 10
688.0
 20
524.0
 30
0.0
 40
1.5
100
AcDbArc
 50
270.0
 51
0.0
  0
LINE
  5
112EA
330
10FD6
100
AcDbEntity
  8
1
  6
Continuous
100
AcDbLine
 10
692.4999999999997
 20
523.5
 30
0.0
 11
691.0
 21
523.5
 31
0.0
  0
LINE
  5
112EB
330
10FD6
100
AcDbEntity
  8
1
  6
Continuous
100
AcDbLine
 10
691.0
 20
523.5
 30
0.0
 11
691.0
 21
531.5
 31
0.0
  0
LINE
  5
112EC
330
10FD6
100
AcDbEntity
  8
1
  6
Continuous
100
AcDbLine
 10
688.0
 20
524.0
 30
0.0
 11
688.0
 21
531.5
 31
0.0
  0
LINE
  5
112ED
330
10FD6
100
AcDbEntity
  8
1
  6
Continuous
100
AcDbLine
 10
687.0
 20
526.4999999999998
 30
0.0
 11
687.0
 21
527.7967559999998
 31
0.0
  0
LINE
  5
112EE
330
10FD6
100
AcDbEntity
  8
1
  6
Continuous
100
AcDbLine
 10
689.5
 20
524.0
 30
0.0
 11
689.5
 21
530.4999999999998
 31
0.0
  0
LINE
  5
112EF
330
10FD6
100
AcDbEntity
  8
1
  6
Continuous
100
AcDbLine
 10
688.0
 20
549.5
 30
0.0
 11
681.5
 21
549.5
 31
0.0
  0
LINE
  5
112F0
330
10FD6
100
AcDbEntity
  8
1
  6
Continuous
100
AcDbLine
 10
688.0
 20
551.0
 30
0.0
 11
680.0
 21
551.0
 31
0.0
  0
LINE
  5
112F1
330
10FD6
100
AcDbEntity
  8
1
  6
Continuous
100
AcDbLine
 10
681.5
 20
546.202494
 30
0.0
 11
687.0
 21
546.202494
 31
0.0
  0
LINE
  5
112F2
330
10FD6
100
AcDbEntity
  8
1
  6
Continuous
100
AcDbLine
 10
681.5
 20
540.54564
 30
0.0
 11
687.0
 21
540.54564
 31
0.0
  0
LINE
  5
112F3
330
10FD6
100
AcDbEntity
  8
1
  6
Continuous
100
AcDbLine
 10
681.5
 20
539.880163
 30
0.0
 11
687.0
 21
539.880163
 31
0.0
  0
LINE
  5
112F4
330
10FD6
100
AcDbEntity
  8
4
  6
CENTER
100
AcDbLine
 10
693.1937379999999
 20
535.0
 30
0.0
 11
675.0
 21
535.0
 31
0.0
  0
LINE
  5
112F5
330
10FD6
100
AcDbEntity
  8
4
  6
CENTER
100
AcDbLine
 10
696.6436210000003
 20
537.5
 30
0.0
 11
678.8494759999998
 21
537.5
 31
0.0
  0
LINE
  5
112F6
330
10FD6
100
AcDbEntity
  8
1
  6
Continuous
100
AcDbLine
 10
687.0
 20
548.5
 30
0.0
 11
682.0
 21
548.5
 31
0.0
  0
ARC
  5
112F7
330
10FD6
100
AcDbEntity
  8
1
  6
Continuous
100
AcDbCircle
 10
681.5
 20
549.5
 30
0.0
 40
1.5
100
AcDbArc
 50
90.0
 51
180.0
  0
LINE
  5
112F8
330
10FD6
100
AcDbEntity
  8
1
  6
Continuous
100
AcDbLine
 10
681.5
 20
535.0
 30
0.0
 11
680.0
 21
535.0
 31
0.0
  0
LINE
  5
112F9
330
10FD6
100
AcDbEntity
  8
1
  6
Continuous
100
AcDbLine
 10
682.0
 20
548.5
 30
0.0
 11
682.0
 21
546.202494
 31
0.0
  0
LINE
  5
112FA
330
10FD6
100
AcDbEntity
  8
1
  6
Continuous
100
AcDbLine
 10
683.0
 20
548.5
 30
0.0
 11
683.0
 21
549.5
 31
0.0
  0
LINE
  5
112FB
330
10FD6
100
AcDbEntity
  8
1
  6
Continuous
100
AcDbLine
 10
688.0
 20
549.5
 30
0.0
 11
688.0
 21
551.0
 31
0.0
  0
LINE
  5
112FC
330
10FD6
100
AcDbEntity
  8
1
  6
Continuous
100
AcDbLine
 10
688.0
 20
550.0
 30
0.0
 11
691.0
 21
550.0
 31
0.0
  0
LINE
  5
112FD
330
10FD6
100
AcDbEntity
  8
1
  6
Continuous
100
AcDbLine
 10
691.0
 20
546.0
 30
0.0
 11
687.0
 21
546.0
 31
0.0
  0
LINE
  5
112FE
330
10FD6
100
AcDbEntity
  8
1
  6
Continuous
100
AcDbLine
 10
691.0
 20
541.5
 30
0.0
 11
691.0
 21
547.5
 31
0.0
  0
LINE
  5
112FF
330
10FD6
100
AcDbEntity
  8
1
  6
Continuous
100
AcDbLine
 10
692.4999999999997
 20
541.5
 30
0.0
 11
687.0
 21
541.5
 31
0.0
  0
LINE
  5
11300
330
10FD6
100
AcDbEntity
  8
1
  6
Continuous
100
AcDbLine
 10
687.0
 20
539.880163
 30
0.0
 11
687.0
 21
548.5
 31
0.0
  0
LINE
  5
11301
330
10FD6
100
AcDbEntity
  8
1
  6
Continuous
100
AcDbLine
 10
692.4999999999997
 20
547.5
 30
0.0
 11
687.0
 21
547.5
 31
0.0
  0
ARC
  5
11302
330
10FD6
100
AcDbEntity
  8
1
  6
Continuous
100
AcDbCircle
 10
691.0
 20
542.5857859999998
 30
0.0
 40
1.0
100
AcDbArc
 50
135.0
 51
180.0
  0
LINE
  5
11303
330
10FD6
100
AcDbEntity
  8
1
  6
Continuous
100
AcDbLine
 10
690.2928929999999
 20
543.2928929999999
 30
0.0
 11
691.0
 21
544.0
 31
0.0
  0
LINE
  5
11304
330
10FD6
100
AcDbEntity
  8
1
  6
Continuous
100
AcDbLine
 10
690.0
 20
541.5
 30
0.0
 11
690.0
 21
543.5
 31
0.0
  0
LINE
  5
11305
330
10FD6
100
AcDbEntity
  8
1
  6
Continuous
100
AcDbLine
 10
688.4999999999997
 20
541.5
 30
0.0
 11
688.4999999999997
 21
543.5
 31
0.0
  0
LINE
  5
11306
330
10FD6
100
AcDbEntity
  8
1
  6
Continuous
100
AcDbLine
 10
687.0
 20
543.5
 30
0.0
 11
690.0
 21
543.5
 31
0.0
  0
ARC
  5
11307
330
10FD6
100
AcDbEntity
  8
1
  6
Continuous
100
AcDbCircle
 10
691.0
 20
548.5
 30
0.0
 40
1.5
100
AcDbArc
 50
0.0
 51
90.0
  0
LINE
  5
11308
330
10FD6
100
AcDbEntity
  8
4
  6
CENTER
100
AcDbLine
 10
595.0
 20
618.0
 30
0.0
 11
595.0
 21
624.5
 31
0.0
  0
LINE
  5
11309
330
10FD6
100
AcDbEntity
  8
4
  6
CENTER
100
AcDbLine
 10
585.0
 20
618.0
 30
0.0
 11
585.0
 21
624.5
 31
0.0
  0
LINE
  5
1130A
330
10FD6
100
AcDbEntity
  8
1
  6
Continuous
100
AcDbLine
 10
610.0
 20
621.0
 30
0.0
 11
610.0
 21
630.4999999999997
 31
0.0
  0
ARC
  5
1130B
330
10FD6
100
AcDbEntity
  8
1
  6
Continuous
100
AcDbCircle
 10
608.4999999999999
 20
627.5
 30
0.0
 40
1.5
100
AcDbArc
 50
0.0
 51
90.0
  0
LINE
  5
1130C
330
10FD6
100
AcDbEntity
  8
1
  6
Continuous
100
AcDbLine
 10
595.0
 20
732.0
 30
0.0
 11
567.0
 21
729.4999999999999
 31
0.0
  0
LINE
  5
1130D
330
10FD6
100
AcDbEntity
  8
1
  6
Continuous
100
AcDbLine
 10
595.245048
 20
726.5
 30
0.0
 11
567.245048
 21
724.0
 31
0.0
  0
LINE
  5
1130E
330
10FD6
100
AcDbEntity
  8
1
  6
Continuous
100
AcDbLine
 10
610.0
 20
718.0
 30
0.0
 11
610.0
 21
703.5
 31
0.0
  0
ARC
  5
1130F
330
10FD6
100
AcDbEntity
  8
1
  6
Continuous
100
AcDbCircle
 10
596.0
 20
719.5
 30
0.0
 40
12.5
100
AcDbArc
 50
296.3370750000001
 51
333.6629249999999
  0
LINE
  5
11310
330
10FD6
100
AcDbEntity
  8
1
  6
Continuous
100
AcDbLine
 10
609.0
 20
726.5
 30
0.0
 11
595.245048
 21
726.5
 31
0.0
  0
LINE
  5
11311
330
10FD6
100
AcDbEntity
  8
1
  6
Continuous
100
AcDbLine
 10
610.0
 20
732.0
 30
0.0
 11
595.0
 21
732.0
 31
0.0
  0
LINE
  5
11312
330
10FD6
100
AcDbEntity
  8
1
  6
Continuous
100
AcDbLine
 10
607.202494
 20
713.9543599999998
 30
0.0
 11
602.2733969999998
 21
716.3944419999997
 31
0.0
  0
LINE
  5
11313
330
10FD6
100
AcDbEntity
  8
1
  6
Continuous
100
AcDbLine
 10
608.4999999999999
 20
719.5
 30
0.0
 11
602.0
 21
719.5
 31
0.0
  0
LINE
  5
11314
330
10FD6
100
AcDbEntity
  8
1
  6
Continuous
100
AcDbLine
 10
608.932856
 20
725.6783709999997
 30
0.0
 11
601.422859
 21
723.4149169999997
 31
0.0
  0
LINE
  5
11315
330
10FD6
100
AcDbEntity
  8
4
  6
CENTER
100
AcDbLine
 10
600.75
 20
719.5
 30
0.0
 11
579.25
 21
719.5
 31
0.0
  0
ARC
  5
11316
330
10FD6
100
AcDbEntity
  8
1
  6
Continuous
100
AcDbCircle
 10
585.0
 20
720.5
 30
0.0
 40
3.75
100
AcDbArc
 50
0.0
 51
180.0
  0
ARC
  5
11317
330
10FD6
100
AcDbEntity
  8
1
  6
Continuous
100
AcDbCircle
 10
585.0
 20
718.5
 30
0.0
 40
3.75
100
AcDbArc
 50
180.0
 51
0.0
  0
ARC
  5
11318
330
10FD6
100
AcDbEntity
  8
1
  6
Continuous
100
AcDbCircle
 10
585.0
 20
718.5
 30
0.0
 40
2.399999999999999
100
AcDbArc
 50
180.0
 51
0.0
  0
ARC
  5
11319
330
10FD6
100
AcDbEntity
  8
1
  6
Continuous
100
AcDbCircle
 10
585.0
 20
720.5
 30
0.0
 40
2.399999999999999
100
AcDbArc
 50
0.0
 51
180.0
  0
LINE
  5
1131A
330
10FD6
100
AcDbEntity
  8
1
  6
Continuous
100
AcDbLine
 10
581.25
 20
720.5
 30
0.0
 11
581.25
 21
718.5
 31
0.0
  0
LINE
  5
1131B
330
10FD6
100
AcDbEntity
  8
1
  6
Continuous
100
AcDbLine
 10
582.6
 20
720.5
 30
0.0
 11
582.6
 21
718.5
 31
0.0
  0
LINE
  5
1131C
330
10FD6
100
AcDbEntity
  8
1
  6
Continuous
100
AcDbLine
 10
588.75
 20
720.5
 30
0.0
 11
588.75
 21
718.5
 31
0.0
  0
LINE
  5
1131D
330
10FD6
100
AcDbEntity
  8
1
  6
Continuous
100
AcDbLine
 10
587.3999999999997
 20
720.5
 30
0.0
 11
587.3999999999997
 21
718.5
 31
0.0
  0
LINE
  5
1131E
330
10FD6
100
AcDbEntity
  8
4
  6
CENTER
100
AcDbLine
 10
585.0
 20
726.25
 30
0.0
 11
585.0
 21
712.75
 31
0.0
  0
CIRCLE
  5
1131F
330
10FD6
100
AcDbEntity
  8
1
  6
Continuous
100
AcDbCircle
 10
595.0
 20
719.5
 30
0.0
 40
3.75
  0
CIRCLE
  5
11320
330
10FD6
100
AcDbEntity
  8
1
  6
Continuous
100
AcDbCircle
 10
595.0
 20
719.5
 30
0.0
 40
2.399999999999999
  0
LINE
  5
11321
330
10FD6
100
AcDbEntity
  8
4
  6
CENTER
100
AcDbLine
 10
595.0
 20
725.25
 30
0.0
 11
595.0
 21
713.75
 31
0.0
  0
LINE
  5
11322
330
10FD6
100
AcDbEntity
  8
1
  6
Continuous
100
AcDbLine
 10
601.5456400000001
 20
708.2975059999996
 30
0.0
 11
599.105558
 21
713.2266030000002
 31
0.0
  0
ARC
  5
11323
330
10FD6
100
AcDbEntity
  8
1
  6
Continuous
100
AcDbCircle
 10
596.0
 20
719.5
 30
0.0
 40
7.0
100
AcDbArc
 50
296.3370750000001
 51
333.6629249999999
  0
ARC
  5
11324
330
10FD6
100
AcDbEntity
  8
1
  6
Continuous
100
AcDbCircle
 10
602.0
 20
721.4999999999998
 30
0.0
 40
2.0
100
AcDbArc
 50
106.7723929999998
 51
270.0
  0
ARC
  5
11325
330
10FD6
100
AcDbEntity
  8
1
  6
Continuous
100
AcDbCircle
 10
596.0
 20
719.5
 30
0.0
 40
11.0
100
AcDbArc
 50
296.3370750000001
 51
333.6629249999999
  0
LINE
  5
11326
330
10FD6
100
AcDbEntity
  8
1
  6
Continuous
100
AcDbLine
 10
610.0
 20
732.0
 30
0.0
 11
610.0
 21
727.1145589999996
 31
0.0
  0
ARC
  5
11327
330
10FD6
100
AcDbEntity
  8
1
  6
Continuous
100
AcDbCircle
 10
609.0
 20
730.4999999999998
 30
0.0
 40
1.0
100
AcDbArc
 50
112.6198649999998
 51
221.810315
  0
ARC
  5
11328
330
10FD6
100
AcDbEntity
  8
1
  6
Continuous
100
AcDbCircle
 10
608.776393
 20
730.0
 30
0.0
 40
0.5
100
AcDbArc
 50
90.0
 51
221.810315
  0
ARC
  5
11329
330
10FD6
100
AcDbEntity
  8
1
  6
Continuous
100
AcDbCircle
 10
608.4999999999999
 20
727.1145589999996
 30
0.0
 40
1.5
100
AcDbArc
 50
286.772393
 51
0.0
  0
ARC
  5
1132A
330
10FD6
100
AcDbEntity
  8
1
  6
Continuous
100
AcDbCircle
 10
609.0
 20
727.5
 30
0.0
 40
1.0
100
AcDbArc
 50
270.0
 51
41.810315
  0
LINE
  5
1132B
330
10FD6
100
AcDbEntity
  8
1
  6
Continuous
100
AcDbLine
 10
609.7453559999999
 20
728.1666669999999
 30
0.0
 11
608.2546439999998
 21
729.833333
 31
0.0
  0
ARC
  5
1132C
330
10FD6
100
AcDbEntity
  8
1
  6
Continuous
100
AcDbCircle
 10
608.4999999999999
 20
718.0
 30
0.0
 40
1.5
100
AcDbArc
 50
0.0
 51
90.0
  0
LINE
  5
1132D
330
10FD6
100
AcDbEntity
  8
1
  6
Continuous
100
AcDbLine
 10
610.0
 20
730.4999999999998
 30
0.0
 11
608.776393
 21
730.4999999999998
 31
0.0
  0
LINE
  5
1132E
330
10FD6
100
AcDbEntity
  8
1
  6
Continuous
100
AcDbLine
 10
610.0
 20
732.0
 30
0.0
 11
608.6153849999998
 21
731.4230769999997
 31
0.0
  0
LINE
  5
1132F
330
10FD6
100
AcDbEntity
  8
1
  6
Continuous
100
AcDbLine
 10
610.0
 20
444.0
 30
0.0
 11
364.5
 21
444.0
 31
0.0
  0
LINE
  5
11330
330
10FD6
100
AcDbEntity
  8
1
  6
Continuous
100
AcDbLine
 10
610.0
 20
453.5
 30
0.0
 11
315.5
 21
453.5
 31
0.0
  0
LINE
  5
11331
330
10FD6
100
AcDbEntity
  8
1
  6
Continuous
100
AcDbLine
 10
403.5
 20
441.0
 30
0.0
 11
109.0
 21
441.0
 31
0.0
  0
LINE
  5
11332
330
10FD6
100
AcDbEntity
  8
1
  6
Continuous
100
AcDbLine
 10
109.0
 20
450.4999999999998
 30
0.0
 11
314.0
 21
450.4999999999998
 31
0.0
  0
LINE
  5
11333
330
10FD6
100
AcDbEntity
  8
1
  6
Continuous
100
AcDbLine
 10
403.5
 20
442.4999999999998
 30
0.0
 11
109.0
 21
442.4999999999998
 31
0.0
  0
LINE
  5
11334
330
10FD6
100
AcDbEntity
  8
1
  6
Continuous
100
AcDbLine
 10
109.0
 20
449.0
 30
0.0
 11
314.0
 21
449.0
 31
0.0
  0
LINE
  5
11335
330
10FD6
100
AcDbEntity
  8
1
  6
Continuous
100
AcDbLine
 10
142.0
 20
445.5
 30
0.0
 11
115.5
 21
445.5
 31
0.0
  0
ARC
  5
11336
330
10FD6
100
AcDbEntity
  8
1
  6
Continuous
100
AcDbCircle
 10
115.5
 20
444.0
 30
0.0
 40
1.5
100
AcDbArc
 50
90.0
 51
180.0
  0
LINE
  5
11337
330
10FD6
100
AcDbEntity
  8
1
  6
Continuous
100
AcDbLine
 10
109.0
 20
441.0
 30
0.0
 11
109.0
 21
450.4999999999998
 31
0.0
  0
LINE
  5
11338
330
10FD6
100
AcDbEntity
  8
4
  6
CENTER
100
AcDbLine
 10
125.0
 20
438.0
 30
0.0
 11
125.0
 21
444.5
 31
0.0
  0
LINE
  5
11339
330
10FD6
100
AcDbEntity
  8
1
  6
Continuous
100
AcDbLine
 10
114.0
 20
444.0
 30
0.0
 11
114.0
 21
442.4999999999998
 31
0.0
  0
LINE
  5
1133A
330
10FD6
100
AcDbEntity
  8
1
  6
Continuous
100
AcDbLine
 10
127.0
 20
445.913842
 30
0.0
 11
127.0
 21
448.51869
 31
0.0
  0
LINE
  5
1133B
330
10FD6
100
AcDbEntity
  8
1
  6
Continuous
100
AcDbLine
 10
156.0
 20
443.5
 30
0.0
 11
156.0
 21
448.0
 31
0.0
  0
ARC
  5
1133C
330
10FD6
100
AcDbEntity
  8
1
  6
Continuous
100
AcDbCircle
 10
142.0
 20
444.0
 30
0.0
 40
1.5
100
AcDbArc
 50
0.0
 51
90.0
  0
LINE
  5
1133D
330
10FD6
100
AcDbEntity
  8
4
  6
CENTER
100
AcDbLine
 10
135.0
 20
438.0
 30
0.0
 11
135.0
 21
444.5
 31
0.0
  0
LINE
  5
1133E
330
10FD6
100
AcDbEntity
  8
1
  6
Continuous
100
AcDbLine
 10
143.5
 20
442.4999999999998
 30
0.0
 11
143.5
 21
444.0
 31
0.0
  0
LINE
  5
1133F
330
10FD6
100
AcDbEntity
  8
3
  6
DASHED
100
AcDbLine
 10
402.0
 20
451.4999999999998
 30
0.0
 11
380.0
 21
451.4999999999998
 31
0.0
  0
LINE
  5
11340
330
10FD6
100
AcDbEntity
  8
3
  6
DASHED
100
AcDbLine
 10
402.0
 20
446.4999999999998
 30
0.0
 11
380.0
 21
446.4999999999998
 31
0.0
  0
LINE
  5
11341
330
10FD6
100
AcDbEntity
  8
1
  6
Continuous
100
AcDbLine
 10
315.5
 20
449.0
 30
0.0
 11
325.0
 21
449.0
 31
0.0
  0
LINE
  5
11342
330
10FD6
100
AcDbEntity
  8
1
  6
Continuous
100
AcDbLine
 10
315.5
 20
450.4999999999998
 30
0.0
 11
325.0
 21
450.4999999999998
 31
0.0
  0
LINE
  5
11343
330
10FD6
100
AcDbEntity
  8
1
  6
Continuous
100
AcDbLine
 10
364.5
 20
452.0
 30
0.0
 11
315.5
 21
452.0
 31
0.0
  0
LINE
  5
11344
330
10FD6
100
AcDbEntity
  8
1
  6
Continuous
100
AcDbLine
 10
314.0
 20
452.0
 30
0.0
 11
314.0
 21
444.0
 31
0.0
  0
LINE
  5
11345
330
10FD6
100
AcDbEntity
  8
1
  6
Continuous
100
AcDbLine
 10
315.5
 20
444.0
 30
0.0
 11
315.5
 21
452.0
 31
0.0
  0
LINE
  5
11346
330
10FD6
100
AcDbEntity
  8
1
  6
Continuous
100
AcDbLine
 10
316.5
 20
442.4999999999998
 30
0.0
 11
316.5
 21
448.1
 31
0.0
  0
LINE
  5
11347
330
10FD6
100
AcDbEntity
  8
1
  6
Continuous
100
AcDbLine
 10
313.0
 20
442.4999999999998
 30
0.0
 11
313.0
 21
448.1
 31
0.0
  0
LINE
  5
11348
330
10FD6
100
AcDbEntity
  8
4
  6
CENTER
100
AcDbLine
 10
290.0
 20
438.0
 30
0.0
 11
290.0
 21
444.5
 31
0.0
  0
LINE
  5
11349
330
10FD6
100
AcDbEntity
  8
4
  6
CENTER
100
AcDbLine
 10
280.0
 20
438.0
 30
0.0
 11
280.0
 21
444.5
 31
0.0
  0
LINE
  5
1134A
330
10FD6
100
AcDbEntity
  8
1
  6
Continuous
100
AcDbLine
 10
315.5
 20
444.0
 30
0.0
 11
314.0
 21
444.0
 31
0.0
  0
ARC
  5
1134B
330
10FD6
100
AcDbEntity
  8
1
  6
Continuous
100
AcDbCircle
 10
315.5
 20
452.0
 30
0.0
 40
1.5
100
AcDbArc
 50
90.0
 51
180.0
  0
LINE
  5
1134C
330
10FD6
100
AcDbEntity
  8
1
  6
Continuous
100
AcDbLine
 10
316.5
 20
448.1
 30
0.0
 11
315.5
 21
448.1
 31
0.0
  0
LINE
  5
1134D
330
10FD6
100
AcDbEntity
  8
1
  6
Continuous
100
AcDbLine
 10
314.0
 20
448.1
 30
0.0
 11
313.0
 21
448.1
 31
0.0
  0
LINE
  5
1134E
330
10FD6
100
AcDbEntity
  8
1
  6
Continuous
100
AcDbLine
 10
364.5
 20
444.0
 30
0.0
 11
364.5
 21
453.5
 31
0.0
  0
LINE
  5
1134F
330
10FD6
100
AcDbEntity
  8
3
  6
DASHED
100
AcDbLine
 10
380.0
 20
444.0
 30
0.0
 11
380.0
 21
451.4999999999998
 31
0.0
  0
LINE
  5
11350
330
10FD6
100
AcDbEntity
  8
4
  6
CENTER
100
AcDbLine
 10
365.0
 20
438.0
 30
0.0
 11
365.0
 21
444.5
 31
0.0
  0
LINE
  5
11351
330
10FD6
100
AcDbEntity
  8
4
  6
CENTER
100
AcDbLine
 10
375.0
 20
438.0
 30
0.0
 11
375.0
 21
444.5
 31
0.0
  0
LINE
  5
11352
330
10FD6
100
AcDbEntity
  8
1
  6
Continuous
100
AcDbLine
 10
342.0
 20
448.0
 30
0.0
 11
342.0
 21
443.0
 31
0.0
  0
LINE
  5
11353
330
10FD6
100
AcDbEntity
  8
1
  6
Continuous
100
AcDbLine
 10
320.0
 20
448.0
 30
0.0
 11
320.0
 21
443.0
 31
0.0
  0
LINE
  5
11354
330
10FD6
100
AcDbEntity
  8
4
  6
CENTER
100
AcDbLine
 10
331.0
 20
457.7685289999998
 30
0.0
 11
331.0
 21
437.3857479999998
 31
0.0
  0
LINE
  5
11355
330
10FD6
100
AcDbEntity
  8
1
  6
Continuous
100
AcDbLine
 10
342.0
 20
443.0
 30
0.0
 11
320.0
 21
443.0
 31
0.0
  0
LINE
  5
11356
330
10FD6
100
AcDbEntity
  8
1
  6
Continuous
100
AcDbLine
 10
380.0
 20
442.4999999999998
 30
0.0
 11
380.0
 21
444.0
 31
0.0
  0
LINE
  5
11357
330
10FD6
100
AcDbEntity
  8
1
  6
Continuous
100
AcDbLine
 10
337.0
 20
449.0
 30
0.0
 11
364.5
 21
449.0
 31
0.0
  0
LINE
  5
11358
330
10FD6
100
AcDbEntity
  8
1
  6
Continuous
100
AcDbLine
 10
337.0
 20
450.4999999999998
 30
0.0
 11
364.5
 21
450.4999999999998
 31
0.0
  0
LINE
  5
11359
330
10FD6
100
AcDbEntity
  8
1
  6
Continuous
100
AcDbLine
 10
342.0
 20
448.0
 30
0.0
 11
320.0
 21
448.0
 31
0.0
  0
LINE
  5
1135A
330
10FD6
100
AcDbEntity
  8
1
  6
Continuous
100
AcDbLine
 10
337.0
 20
451.0
 30
0.0
 11
325.0
 21
451.0
 31
0.0
  0
LINE
  5
1135B
330
10FD6
100
AcDbEntity
  8
1
  6
Continuous
100
AcDbLine
 10
337.0
 20
449.5
 30
0.0
 11
325.0
 21
449.5
 31
0.0
  0
LINE
  5
1135C
330
10FD6
100
AcDbEntity
  8
1
  6
Continuous
100
AcDbLine
 10
325.2071069999999
 20
451.292893
 30
0.0
 11
324.5
 21
452.0
 31
0.0
  0
LINE
  5
1135D
330
10FD6
100
AcDbEntity
  8
4
  6
CENTER
100
AcDbLine
 10
319.55
 20
456.5
 30
0.0
 11
319.55
 21
450.0
 31
0.0
  0
ARC
  5
1135E
330
10FD6
100
AcDbEntity
  8
1
  6
Continuous
100
AcDbCircle
 10
325.914214
 20
452.0
 30
0.0
 40
1.0
100
AcDbArc
 50
225.0
 51
270.0
  0
LINE
  5
1135F
330
10FD6
100
AcDbEntity
  8
1
  6
Continuous
100
AcDbLine
 10
325.0
 20
448.0
 30
0.0
 11
325.0
 21
451.0
 31
0.0
  0
LINE
  5
11360
330
10FD6
100
AcDbEntity
  8
1
  6
Continuous
100
AcDbLine
 10
341.0201059999999
 20
448.5
 30
0.0
 11
337.0
 21
448.5
 31
0.0
  0
ARC
  5
11361
330
10FD6
100
AcDbEntity
  8
1
  6
Continuous
100
AcDbCircle
 10
336.0857859999999
 20
452.0
 30
0.0
 40
1.0
100
AcDbArc
 50
270.0
 51
315.0
  0
LINE
  5
11362
330
10FD6
100
AcDbEntity
  8
1
  6
Continuous
100
AcDbLine
 10
336.792893
 20
451.292893
 30
0.0
 11
337.5
 21
452.0
 31
0.0
  0
LINE
  5
11363
330
10FD6
100
AcDbEntity
  8
1
  6
Continuous
100
AcDbLine
 10
337.0
 20
448.0
 30
0.0
 11
337.0
 21
451.0
 31
0.0
  0
LINE
  5
11364
330
10FD6
100
AcDbEntity
  8
1
  6
Continuous
100
AcDbLine
 10
337.78233
 20
448.5
 30
0.0
 11
337.78233
 21
448.0
 31
0.0
  0
LINE
  5
11365
330
10FD6
100
AcDbEntity
  8
4
  6
CENTER
100
AcDbLine
 10
345.0
 20
456.5
 30
0.0
 11
345.0
 21
450.0
 31
0.0
  0
LINE
  5
11366
330
10FD6
100
AcDbEntity
  8
1
  6
Continuous
100
AcDbLine
 10
341.0201059999999
 20
448.5
 30
0.0
 11
341.0201059999999
 21
448.0
 31
0.0
  0
LINE
  5
11367
330
10FD6
100
AcDbEntity
  8
3
  6
DASHED
100
AcDbLine
 10
364.5
 20
449.0
 30
0.0
 11
380.0
 21
449.0
 31
0.0
  0
LINE
  5
11368
330
10FD6
100
AcDbEntity
  8
4
  6
CENTER
100
AcDbLine
 10
370.0
 20
456.5
 30
0.0
 11
370.0
 21
450.0
 31
0.0
  0
LINE
  5
11369
330
10FD6
100
AcDbEntity
  8
4
  6
CENTER
100
AcDbLine
 10
380.0
 20
456.5
 30
0.0
 11
380.0
 21
450.0
 31
0.0
  0
LINE
  5
1136A
330
10FD6
100
AcDbEntity
  8
3
  6
DASHED
100
AcDbLine
 10
403.5
 20
450.4999999999998
 30
0.0
 11
403.5
 21
444.0
 31
0.0
  0
LINE
  5
1136B
330
10FD6
100
AcDbEntity
  8
3
  6
DASHED
100
AcDbLine
 10
405.0
 20
450.4999999999998
 30
0.0
 11
405.0
 21
444.0
 31
0.0
  0
LINE
  5
1136C
330
10FD6
100
AcDbEntity
  8
1
  6
Continuous
100
AcDbLine
 10
385.0
 20
444.0
 30
0.0
 11
385.0
 21
443.5
 31
0.0
  0
LINE
  5
1136D
330
10FD6
100
AcDbEntity
  8
1
  6
Continuous
100
AcDbLine
 10
397.0
 20
444.0
 30
0.0
 11
397.0
 21
443.5
 31
0.0
  0
LINE
  5
1136E
330
10FD6
100
AcDbEntity
  8
4
  6
CENTER
100
AcDbLine
 10
391.0
 20
457.6235419999998
 30
0.0
 11
391.0
 21
437.1560739999998
 31
0.0
  0
LINE
  5
1136F
330
10FD6
100
AcDbEntity
  8
1
  6
Continuous
100
AcDbLine
 10
397.0
 20
443.5
 30
0.0
 11
385.0
 21
443.5
 31
0.0
  0
LINE
  5
11370
330
10FD6
100
AcDbEntity
  8
1
  6
Continuous
100
AcDbLine
 10
385.207107
 20
443.207107
 30
0.0
 11
384.5
 21
442.4999999999998
 31
0.0
  0
ARC
  5
11371
330
10FD6
100
AcDbEntity
  8
1
  6
Continuous
100
AcDbCircle
 10
385.914214
 20
442.4999999999998
 30
0.0
 40
1.0
100
AcDbArc
 50
90.0
 51
135.0
  0
LINE
  5
11372
330
10FD6
100
AcDbEntity
  8
1
  6
Continuous
100
AcDbLine
 10
396.7928929999998
 20
443.207107
 30
0.0
 11
397.5
 21
442.4999999999998
 31
0.0
  0
ARC
  5
11373
330
10FD6
100
AcDbEntity
  8
1
  6
Continuous
100
AcDbCircle
 10
396.0857859999999
 20
442.4999999999998
 30
0.0
 40
1.0
100
AcDbArc
 50
45.0
 51
90.0
  0
ARC
  5
11374
330
10FD6
100
AcDbEntity
  8
1
  6
Continuous
100
AcDbCircle
 10
403.5
 20
442.4999999999998
 30
0.0
 40
1.5
100
AcDbArc
 50
270.0
 51
0.0
  0
LINE
  5
11375
330
10FD6
100
AcDbEntity
  8
1
  6
Continuous
100
AcDbLine
 10
403.5
 20
444.0
 30
0.0
 11
403.5
 21
442.4999999999998
 31
0.0
  0
LINE
  5
11376
330
10FD6
100
AcDbEntity
  8
1
  6
Continuous
100
AcDbLine
 10
405.0
 20
444.0
 30
0.0
 11
405.0
 21
442.4999999999998
 31
0.0
  0
LINE
  5
11377
330
10FD6
100
AcDbEntity
  8
3
  6
DASHED
100
AcDbLine
 10
397.0
 20
445.0
 30
0.0
 11
385.0
 21
445.0
 31
0.0
  0
LINE
  5
11378
330
10FD6
100
AcDbEntity
  8
3
  6
DASHED
100
AcDbLine
 10
385.0
 20
446.4999999999998
 30
0.0
 11
385.0
 21
444.0
 31
0.0
  0
LINE
  5
11379
330
10FD6
100
AcDbEntity
  8
3
  6
DASHED
100
AcDbLine
 10
397.0
 20
446.4999999999998
 30
0.0
 11
397.0
 21
444.0
 31
0.0
  0
LINE
  5
1137A
330
10FD6
100
AcDbEntity
  8
3
  6
DASHED
100
AcDbLine
 10
405.0
 20
450.4999999999998
 30
0.0
 11
403.5
 21
450.4999999999998
 31
0.0
  0
LINE
  5
1137B
330
10FD6
100
AcDbEntity
  8
3
  6
DASHED
100
AcDbLine
 10
402.0
 20
446.4999999999998
 30
0.0
 11
402.0
 21
451.4999999999998
 31
0.0
  0
LINE
  5
1137C
330
10FD6
100
AcDbEntity
  8
4
  6
CENTER
100
AcDbLine
 10
482.5
 20
456.5
 30
0.0
 11
482.5
 21
450.0
 31
0.0
  0
LINE
  5
1137D
330
10FD6
100
AcDbEntity
  8
1
  6
Continuous
100
AcDbLine
 10
567.0
 20
452.0
 30
0.0
 11
567.0
 21
445.5
 31
0.0
  0
LINE
  5
1137E
330
10FD6
100
AcDbEntity
  8
1
  6
Continuous
100
AcDbLine
 10
610.0
 20
453.5
 30
0.0
 11
610.0
 21
444.0
 31
0.0
  0
LINE
  5
1137F
330
10FD6
100
AcDbEntity
  8
4
  6
CENTER
100
AcDbLine
 10
585.0
 20
456.5
 30
0.0
 11
585.0
 21
450.0
 31
0.0
  0
LINE
  5
11380
330
10FD6
100
AcDbEntity
  8
1
  6
Continuous
100
AcDbLine
 10
595.0
 20
448.4392169999998
 30
0.0
 11
595.0
 21
444.80161
 31
0.0
  0
LINE
  5
11381
330
10FD6
100
AcDbEntity
  8
4
  6
CENTER
100
AcDbLine
 10
595.0
 20
456.5
 30
0.0
 11
595.0
 21
450.0
 31
0.0
  0
ARC
  5
11382
330
10FD6
100
AcDbEntity
  8
1
  6
Continuous
100
AcDbCircle
 10
403.0
 20
145.5
 30
0.0
 40
2.0
100
AcDbArc
 50
0.0
 51
90.0
  0
ARC
  5
11383
330
10FD6
100
AcDbEntity
  8
1
  6
Continuous
100
AcDbCircle
 10
397.763932
 20
125.5
 30
0.0
 40
2.0
100
AcDbArc
 50
270.0
 51
333.434949
  0
ARC
  5
11384
330
10FD6
100
AcDbEntity
  8
1
  6
Continuous
100
AcDbCircle
 10
316.0
 20
149.0
 30
0.0
 40
2.0
100
AcDbArc
 50
90.0
 51
180.0
  0
ARC
  5
11385
330
10FD6
100
AcDbEntity
  8
1
  6
Continuous
100
AcDbCircle
 10
317.5
 20
549.0
 30
0.0
 40
2.0
100
AcDbArc
 50
90.0
 51
180.0
  0
ARC
  5
11386
330
10FD6
100
AcDbEntity
  8
1
  6
Continuous
100
AcDbCircle
 10
317.5
 20
705.4999999999997
 30
0.0
 40
2.0
100
AcDbArc
 50
180.0
 51
270.0
  0
LINE
  5
11387
330
10FD6
100
AcDbEntity
  8
1
  6
Continuous
100
AcDbLine
 10
567.0668309999999
 20
126.5
 30
0.0
 11
400.4999999999998
 21
126.5
 31
0.0
  0
LINE
  5
11388
330
10FD6
100
AcDbEntity
  8
1
  6
Continuous
100
AcDbLine
 10
595.066831
 20
124.0
 30
0.0
 11
567.0668309999999
 21
126.5
 31
0.0
  0
LINE
  5
11389
330
10FD6
100
AcDbEntity
  8
1
  6
Continuous
100
AcDbLine
 10
610.0
 20
124.0
 30
0.0
 11
595.066831
 21
124.0
 31
0.0
  0
ARC
  5
1138A
330
10FD6
100
AcDbEntity
  8
3
  6
DASHED
100
AcDbCircle
 10
316.0
 20
127.0
 30
0.0
 40
2.0
100
AcDbArc
 50
180.0
 51
270.0
  0
LINE
  5
1138B
330
10FD6
100
AcDbEntity
  8
1
  6
Continuous
100
AcDbLine
 10
109.0
 20
306.0
 30
0.0
 11
126.9354649999998
 21
306.0
 31
0.0
  0
LINE
  5
1138C
330
10FD6
100
AcDbEntity
  8
1
  6
Continuous
100
AcDbLine
 10
155.9354649999999
 20
308.4999999999999
 30
0.0
 11
126.9354649999998
 21
306.0
 31
0.0
  0
LINE
  5
1138D
330
10FD6
100
AcDbEntity
  8
1
  6
Continuous
100
AcDbLine
 10
314.0
 20
308.4999999999999
 30
0.0
 11
155.9354649999999
 21
308.4999999999999
 31
0.0
  0
LINE
  5
1138E
330
10FD6
100
AcDbEntity
  8
3
  6
DASHED
100
AcDbLine
 10
334.544554
 20
308.4999999999999
 30
0.0
 11
314.0
 21
308.4999999999999
 31
0.0
  0
LINE
  5
1138F
330
10FD6
100
AcDbEntity
  8
3
  6
DASHED
100
AcDbLine
 10
338.46983
 20
308.4999999999999
 30
0.0
 11
337.09483
 21
308.4999999999999
 31
0.0
  0
ARC
  5
11390
330
10FD6
100
AcDbEntity
  8
1
  6
Continuous
100
AcDbCircle
 10
316.0
 20
305.5
 30
0.0
 40
2.0
100
AcDbArc
 50
180.0
 51
270.0
  0
ARC
  5
11391
330
10FD6
100
AcDbEntity
  8
1
  6
Continuous
100
AcDbCircle
 10
316.0
 20
327.4999999999999
 30
0.0
 40
2.0
100
AcDbArc
 50
90.0
 51
180.0
  0
LINE
  5
11392
330
10FD6
100
AcDbEntity
  8
1
  6
Continuous
100
AcDbLine
 10
399.5527859999999
 20
329.894427
 30
0.0
 11
399.75
 21
329.4999999999999
 31
0.0
  0
ARC
  5
11393
330
10FD6
100
AcDbEntity
  8
1
  6
Continuous
100
AcDbCircle
 10
397.763932
 20
329.0
 30
0.0
 40
2.0
100
AcDbArc
 50
26.565051
 51
90.0
  0
LINE
  5
11394
330
10FD6
100
AcDbEntity
  8
3
  6
DASHED
100
AcDbLine
 10
405.0
 20
319.0
 30
0.0
 11
405.0
 21
309.0
 31
0.0
  0
ARC
  5
11395
330
10FD6
100
AcDbEntity
  8
3
  6
DASHED
100
AcDbCircle
 10
403.0
 20
309.0
 30
0.0
 40
2.0
100
AcDbArc
 50
270.0
 51
0.0
  0
ARC
  5
11396
330
10FD6
100
AcDbEntity
  8
1
  6
Continuous
100
AcDbCircle
 10
378.0
 20
227.0
 30
0.0
 40
2.0
100
AcDbArc
 50
0.0
 51
90.0
  0
ARC
  5
11397
330
10FD6
100
AcDbEntity
  8
1
  6
Continuous
100
AcDbCircle
 10
366.5
 20
47.0
 30
0.0
 40
2.0
100
AcDbArc
 50
90.0
 51
180.0
  0
ARC
  5
11398
330
10FD6
100
AcDbEntity
  8
3
  6
DASHED
100
AcDbCircle
 10
378.0
 20
47.5
 30
0.0
 40
2.0
100
AcDbArc
 50
270.0
 51
0.0
  0
LINE
  5
11399
330
10FD6
100
AcDbEntity
  8
1
  6
Continuous
100
AcDbLine
 10
33.0
 20
122.5
 30
0.0
 11
33.0
 21
124.0
 31
0.0
  0
LINE
  5
1139A
330
10FD6
100
AcDbEntity
  8
1
  6
Continuous
100
AcDbLine
 10
26.5
 20
122.5
 30
0.0
 11
33.0
 21
122.5
 31
0.0
  0
LINE
  5
1139B
330
10FD6
100
AcDbEntity
  8
1
  6
Continuous
100
AcDbLine
 10
26.5
 20
126.5
 30
0.0
 11
30.5
 21
126.5
 31
0.0
  0
LINE
  5
1139C
330
10FD6
100
AcDbEntity
  8
1
  6
Continuous
100
AcDbLine
 10
35.5
 20
124.0
 30
0.0
 11
30.5
 21
124.0
 31
0.0
  0
LINE
  5
1139D
330
10FD6
100
AcDbEntity
  8
1
  6
Continuous
100
AcDbLine
 10
35.5
 20
124.0
 30
0.0
 11
35.5
 21
146.0
 31
0.0
  0
LINE
  5
1139E
330
10FD6
100
AcDbEntity
  8
1
  6
Continuous
100
AcDbLine
 10
30.5
 20
124.0
 30
0.0
 11
30.5
 21
146.0
 31
0.0
  0
LINE
  5
1139F
330
10FD6
100
AcDbEntity
  8
1
  6
Continuous
100
AcDbLine
 10
29.0
 20
129.0
 30
0.0
 11
29.0
 21
141.0
 31
0.0
  0
LINE
  5
113A0
330
10FD6
100
AcDbEntity
  8
1
  6
Continuous
100
AcDbLine
 10
27.5
 20
129.0
 30
0.0
 11
27.5
 21
141.0
 31
0.0
  0
LINE
  5
113A1
330
10FD6
100
AcDbEntity
  8
1
  6
Continuous
100
AcDbLine
 10
30.5
 20
141.0
 30
0.0
 11
27.5
 21
141.0
 31
0.0
  0
ARC
  5
113A2
330
10FD6
100
AcDbEntity
  8
1
  6
Continuous
100
AcDbCircle
 10
26.5
 20
140.085786
 30
0.0
 40
1.0
100
AcDbArc
 50
0.0
 51
45.0
  0
LINE
  5
113A3
330
10FD6
100
AcDbEntity
  8
1
  6
Continuous
100
AcDbLine
 10
27.207107
 20
140.7928929999999
 30
0.0
 11
26.5
 21
141.5
 31
0.0
  0
LINE
  5
113A4
330
10FD6
100
AcDbEntity
  8
1
  6
Continuous
100
AcDbLine
 10
30.5
 20
129.0
 30
0.0
 11
27.5
 21
129.0
 31
0.0
  0
LINE
  5
113A5
330
10FD6
100
AcDbEntity
  8
1
  6
Continuous
100
AcDbLine
 10
27.207107
 20
129.207107
 30
0.0
 11
26.5
 21
128.4999999999998
 31
0.0
  0
ARC
  5
113A6
330
10FD6
100
AcDbEntity
  8
1
  6
Continuous
100
AcDbCircle
 10
26.5
 20
129.9142139999998
 30
0.0
 40
1.0
100
AcDbArc
 50
315.0
 51
0.0
  0
LINE
  5
113A7
330
10FD6
100
AcDbEntity
  8
1
  6
Continuous
100
AcDbLine
 10
27.0
 20
141.0
 30
0.0
 11
27.0
 21
148.5
 31
0.0
  0
LINE
  5
113A8
330
10FD6
100
AcDbEntity
  8
1
  6
Continuous
100
AcDbLine
 10
684.4999999999997
 20
122.5
 30
0.0
 11
684.4999999999997
 21
126.5
 31
0.0
  0
LINE
  5
113A9
330
10FD6
100
AcDbEntity
  8
1
  6
Continuous
100
AcDbLine
 10
691.0
 20
124.0
 30
0.0
 11
691.0
 21
149.5
 31
0.0
  0
ARC
  5
113AA
330
10FD6
100
AcDbEntity
  8
1
  6
Continuous
100
AcDbCircle
 10
691.0
 20
124.0
 30
0.0
 40
1.5
100
AcDbArc
 50
270.0
 51
0.0
  0
LINE
  5
113AB
330
10FD6
100
AcDbEntity
  8
1
  6
Continuous
100
AcDbLine
 10
691.0
 20
122.5
 30
0.0
 11
684.4999999999997
 21
122.5
 31
0.0
  0
LINE
  5
113AC
330
10FD6
100
AcDbEntity
  8
4
  6
CENTER
100
AcDbLine
 10
678.4466719999998
 20
135.0
 30
0.0
 11
697.5
 21
135.0
 31
0.0
  0
LINE
  5
113AD
330
10FD6
100
AcDbEntity
  8
1
  6
Continuous
100
AcDbLine
 10
688.0
 20
148.5
 30
0.0
 11
688.0
 21
150.0
 31
0.0
  0
LINE
  5
113AE
330
10FD6
100
AcDbEntity
  8
1
  6
Continuous
100
AcDbLine
 10
682.0
 20
124.0
 30
0.0
 11
687.0
 21
124.0
 31
0.0
  0
LINE
  5
113AF
330
10FD6
100
AcDbEntity
  8
1
  6
Continuous
100
AcDbLine
 10
688.0
 20
149.5
 30
0.0
 11
691.0
 21
149.5
 31
0.0
  0
LINE
  5
113B0
330
10FD6
100
AcDbEntity
  8
1
  6
Continuous
100
AcDbLine
 10
692.4999999999997
 20
124.0
 30
0.0
 11
692.4999999999997
 21
151.0
 31
0.0
  0
LINE
  5
113B1
330
10FD6
100
AcDbEntity
  8
1
  6
Continuous
100
AcDbLine
 10
681.5
 20
123.5
 30
0.0
 11
681.5
 21
147.5
 31
0.0
  0
LINE
  5
113B2
330
10FD6
100
AcDbEntity
  8
1
  6
Continuous
100
AcDbLine
 10
680.0
 20
123.5
 30
0.0
 11
680.0
 21
148.5
 31
0.0
  0
LINE
  5
113B3
330
10FD6
100
AcDbEntity
  8
1
  6
Continuous
100
AcDbLine
 10
680.0
 20
123.5
 30
0.0
 11
681.5
 21
123.5
 31
0.0
  0
LINE
  5
113B4
330
10FD6
100
AcDbEntity
  8
1
  6
Continuous
100
AcDbLine
 10
681.5
 20
146.0
 30
0.0
 11
685.5
 21
146.0
 31
0.0
  0
LINE
  5
113B5
330
10FD6
100
AcDbEntity
  8
1
  6
Continuous
100
AcDbLine
 10
688.0
 20
150.0
 30
0.0
 11
681.5
 21
150.0
 31
0.0
  0
LINE
  5
113B6
330
10FD6
100
AcDbEntity
  8
1
  6
Continuous
100
AcDbLine
 10
684.4999999999997
 20
151.0
 30
0.0
 11
692.4999999999997
 21
151.0
 31
0.0
  0
ARC
  5
113B7
330
10FD6
100
AcDbEntity
  8
1
  6
Continuous
100
AcDbCircle
 10
681.5
 20
148.5
 30
0.0
 40
1.5
100
AcDbArc
 50
90.0
 51
180.0
  0
LINE
  5
113B8
330
10FD6
100
AcDbEntity
  8
1
  6
Continuous
100
AcDbLine
 10
684.4999999999997
 20
150.0
 30
0.0
 11
684.4999999999997
 21
151.0
 31
0.0
  0
LINE
  5
113B9
330
10FD6
100
AcDbEntity
  8
4
  6
CENTER
100
AcDbLine
 10
675.8563789999998
 20
137.5
 30
0.0
 11
693.650524
 21
137.5
 31
0.0
  0
LINE
  5
113BA
330
10FD6
100
AcDbEntity
  8
1
  6
Continuous
100
AcDbLine
 10
691.0
 20
124.0
 30
0.0
 11
684.4999999999997
 21
124.0
 31
0.0
  0
ARC
  5
113BB
330
10FD6
100
AcDbEntity
  8
1
  6
Continuous
100
AcDbCircle
 10
691.0
 20
149.5
 30
0.0
 40
1.5
100
AcDbArc
 50
0.0
 51
90.0
  0
LINE
  5
113BC
330
10FD6
100
AcDbEntity
  8
1
  6
Continuous
100
AcDbLine
 10
680.0
 20
147.5
 30
0.0
 11
685.5
 21
147.5
 31
0.0
  0
LINE
  5
113BD
330
10FD6
100
AcDbEntity
  8
1
  6
Continuous
100
AcDbLine
 10
684.0
 20
143.5
 30
0.0
 11
684.0
 21
131.4999999999998
 31
0.0
  0
ARC
  5
113BE
330
10FD6
100
AcDbEntity
  8
1
  6
Continuous
100
AcDbCircle
 10
681.5
 20
142.585786
 30
0.0
 40
1.0
100
AcDbArc
 50
0.0
 51
45.0
  0
LINE
  5
113BF
330
10FD6
100
AcDbEntity
  8
1
  6
Continuous
100
AcDbLine
 10
682.2071069999998
 20
143.2928929999999
 30
0.0
 11
681.5
 21
144.0
 31
0.0
  0
LINE
  5
113C0
330
10FD6
100
AcDbEntity
  8
1
  6
Continuous
100
AcDbLine
 10
682.2071069999998
 20
131.707107
 30
0.0
 11
681.5
 21
131.0
 31
0.0
  0
ARC
  5
113C1
330
10FD6
100
AcDbEntity
  8
1
  6
Continuous
100
AcDbCircle
 10
681.5
 20
132.4142139999999
 30
0.0
 40
1.0
100
AcDbArc
 50
315.0
 51
0.0
  0
LINE
  5
113C2
330
10FD6
100
AcDbEntity
  8
1
  6
Continuous
100
AcDbLine
 10
682.5
 20
143.5
 30
0.0
 11
682.5
 21
131.4999999999998
 31
0.0
  0
LINE
  5
113C3
330
10FD6
100
AcDbEntity
  8
1
  6
Continuous
100
AcDbLine
 10
685.5
 20
143.5
 30
0.0
 11
682.5
 21
143.5
 31
0.0
  0
LINE
  5
113C4
330
10FD6
100
AcDbEntity
  8
1
  6
Continuous
100
AcDbLine
 10
685.5
 20
131.4999999999998
 30
0.0
 11
682.5
 21
131.4999999999998
 31
0.0
  0
LINE
  5
113C5
330
10FD6
100
AcDbEntity
  8
1
  6
Continuous
100
AcDbLine
 10
685.5
 20
148.5
 30
0.0
 11
685.5
 21
126.5
 31
0.0
  0
LINE
  5
113C6
330
10FD6
100
AcDbEntity
  8
1
  6
Continuous
100
AcDbLine
 10
690.5
 20
148.5
 30
0.0
 11
685.5
 21
148.5
 31
0.0
  0
LINE
  5
113C7
330
10FD6
100
AcDbEntity
  8
1
  6
Continuous
100
AcDbLine
 10
690.5
 20
148.5
 30
0.0
 11
690.5
 21
146.202494
 31
0.0
  0
LINE
  5
113C8
330
10FD6
100
AcDbEntity
  8
1
  6
Continuous
100
AcDbLine
 10
691.0
 20
126.5
 30
0.0
 11
684.4999999999997
 21
126.5
 31
0.0
  0
LINE
  5
113C9
330
10FD6
100
AcDbEntity
  8
1
  6
Continuous
100
AcDbLine
 10
691.0
 20
146.202494
 30
0.0
 11
685.5
 21
146.202494
 31
0.0
  0
LINE
  5
113CA
330
10FD6
100
AcDbEntity
  8
1
  6
Continuous
100
AcDbLine
 10
691.0
 20
140.54564
 30
0.0
 11
685.5
 21
140.54564
 31
0.0
  0
LINE
  5
113CB
330
10FD6
100
AcDbEntity
  8
1
  6
Continuous
100
AcDbLine
 10
691.0
 20
139.8801629999999
 30
0.0
 11
685.5
 21
139.8801629999999
 31
0.0
  0
LINE
  5
113CC
330
10FD6
100
AcDbEntity
  8
1
  6
Continuous
100
AcDbLine
 10
690.5
 20
139.8801629999999
 30
0.0
 11
690.5
 21
126.5
 31
0.0
  0
LINE
  5
113CD
330
10FD6
100
AcDbEntity
  8
1
  6
Continuous
100
AcDbLine
 10
691.0
 20
135.0
 30
0.0
 11
692.4999999999997
 21
135.0
 31
0.0
  0
LINE
  5
113CE
330
10FD6
100
AcDbEntity
  8
1
  6
Continuous
100
AcDbLine
 10
692.4999999999997
 20
128.4999999999998
 30
0.0
 11
691.0
 21
128.4999999999998
 31
0.0
  0
LINE
  5
113CF
330
10FD6
100
AcDbEntity
  8
1
  6
Continuous
100
AcDbLine
 10
682.0
 20
143.5
 30
0.0
 11
682.0
 21
146.0
 31
0.0
  0
LINE
  5
113D0
330
10FD6
100
AcDbEntity
  8
1
  6
Continuous
100
AcDbLine
 10
682.0
 20
124.0
 30
0.0
 11
682.0
 21
131.4999999999998
 31
0.0
  0
LINE
  5
113D1
330
10FD6
100
AcDbEntity
  8
1
  6
Continuous
100
AcDbLine
 10
605.0
 20
522.5
 30
0.0
 11
605.0
 21
525.4999999999999
 31
0.0
  0
LINE
  5
113D2
330
10FD6
100
AcDbEntity
  8
1
  6
Continuous
100
AcDbLine
 10
578.5
 20
523.973214
 30
0.0
 11
578.5
 21
525.4999999999999
 31
0.0
  0
LINE
  5
113D3
330
10FD6
100
AcDbEntity
  8
1
  6
Continuous
100
AcDbLine
 10
605.0
 20
524.0
 30
0.0
 11
595.0
 21
524.0
 31
0.0
  0
LINE
  5
113D4
330
10FD6
100
AcDbEntity
  8
1
  6
Continuous
100
AcDbLine
 10
595.1333980000002
 20
523.9940569999999
 30
0.0
 11
578.5
 21
525.4791809999998
 31
0.0
  0
LINE
  5
113D5
330
10FD6
100
AcDbEntity
  8
1
  6
Continuous
100
AcDbLine
 10
603.5
 20
527.0
 30
0.0
 11
580.0
 21
527.0
 31
0.0
  0
ARC
  5
113D6
330
10FD6
100
AcDbEntity
  8
1
  6
Continuous
100
AcDbCircle
 10
603.5
 20
525.4999999999999
 30
0.0
 40
1.5
100
AcDbArc
 50
0.0
 51
90.0
  0
ARC
  5
113D7
330
10FD6
100
AcDbEntity
  8
1
  6
Continuous
100
AcDbCircle
 10
580.0
 20
525.4999999999999
 30
0.0
 40
1.5
100
AcDbArc
 50
90.0
 51
180.0
  0
LINE
  5
113D8
330
10FD6
100
AcDbEntity
  8
1
  6
Continuous
100
AcDbLine
 10
578.5
 20
450.4999999999998
 30
0.0
 11
578.5
 21
453.5
 31
0.0
  0
LINE
  5
113D9
330
10FD6
100
AcDbEntity
  8
1
  6
Continuous
100
AcDbLine
 10
605.0
 20
450.4999999999998
 30
0.0
 11
605.0
 21
453.5
 31
0.0
  0
LINE
  5
113DA
330
10FD6
100
AcDbEntity
  8
1
  6
Continuous
100
AcDbLine
 10
605.0
 20
452.0
 30
0.0
 11
578.5
 21
452.0
 31
0.0
  0
LINE
  5
113DB
330
10FD6
100
AcDbEntity
  8
1
  6
Continuous
100
AcDbLine
 10
603.5
 20
449.0
 30
0.0
 11
580.0
 21
449.0
 31
0.0
  0
ARC
  5
113DC
330
10FD6
100
AcDbEntity
  8
1
  6
Continuous
100
AcDbCircle
 10
603.5
 20
450.4999999999998
 30
0.0
 40
1.5
100
AcDbArc
 50
270.0
 51
0.0
  0
ARC
  5
113DD
330
10FD6
100
AcDbEntity
  8
1
  6
Continuous
100
AcDbCircle
 10
580.0
 20
450.4999999999998
 30
0.0
 40
1.5
100
AcDbArc
 50
180.0
 51
270.0
  0
LINE
  5
113DE
330
10FD6
100
AcDbEntity
  8
1
  6
Continuous
100
AcDbLine
 10
595.1333980000002
 20
330.505943
 30
0.0
 11
578.5
 21
329.020819
 31
0.0
  0
LINE
  5
113DF
330
10FD6
100
AcDbEntity
  8
1
  6
Continuous
100
AcDbLine
 10
603.5
 20
327.4999999999999
 30
0.0
 11
580.0
 21
327.4999999999999
 31
0.0
  0
LINE
  5
113E0
330
10FD6
100
AcDbEntity
  8
1
  6
Continuous
100
AcDbLine
 10
578.5
 20
330.5267859999998
 30
0.0
 11
578.5
 21
329.0
 31
0.0
  0
ARC
  5
113E1
330
10FD6
100
AcDbEntity
  8
1
  6
Continuous
100
AcDbCircle
 10
580.0
 20
329.0
 30
0.0
 40
1.5
100
AcDbArc
 50
180.0
 51
270.0
  0
LINE
  5
113E2
330
10FD6
100
AcDbEntity
  8
1
  6
Continuous
100
AcDbLine
 10
605.0
 20
332.0
 30
0.0
 11
605.0
 21
329.0
 31
0.0
  0
LINE
  5
113E3
330
10FD6
100
AcDbEntity
  8
1
  6
Continuous
100
AcDbLine
 10
605.0
 20
330.5
 30
0.0
 11
595.0
 21
330.5
 31
0.0
  0
ARC
  5
113E4
330
10FD6
100
AcDbEntity
  8
1
  6
Continuous
100
AcDbCircle
 10
603.5
 20
329.0
 30
0.0
 40
1.5
100
AcDbArc
 50
270.0
 51
0.0
  0
LINE
  5
113E5
330
10FD6
100
AcDbEntity
  8
1
  6
Continuous
100
AcDbLine
 10
603.5
 20
127.0
 30
0.0
 11
580.0
 21
127.0
 31
0.0
  0
ARC
  5
113E6
330
10FD6
100
AcDbEntity
  8
1
  6
Continuous
100
AcDbCircle
 10
580.0
 20
125.5
 30
0.0
 40
1.5
100
AcDbArc
 50
90.0
 51
180.0
  0
LINE
  5
113E7
330
10FD6
100
AcDbEntity
  8
1
  6
Continuous
100
AcDbLine
 10
578.5
 20
125.479181
 30
0.0
 11
578.5
 21
125.5
 31
0.0
  0
ARC
  5
113E8
330
10FD6
100
AcDbEntity
  8
1
  6
Continuous
100
AcDbCircle
 10
603.5
 20
125.5
 30
0.0
 40
1.5
100
AcDbArc
 50
0.0
 51
90.0
  0
LINE
  5
113E9
330
10FD6
100
AcDbEntity
  8
1
  6
Continuous
100
AcDbLine
 10
605.0
 20
124.0
 30
0.0
 11
605.0
 21
125.5
 31
0.0
  0
LINE
  5
113EA
330
10FD6
100
AcDbEntity
  8
1
  6
Continuous
100
AcDbLine
 10
605.0
 20
42.5
 30
0.0
 11
578.5
 21
42.5
 31
0.0
  0
LINE
  5
113EB
330
10FD6
100
AcDbEntity
  8
1
  6
Continuous
100
AcDbLine
 10
603.5
 20
45.49999999999999
 30
0.0
 11
580.0
 21
45.49999999999999
 31
0.0
  0
LINE
  5
113EC
330
10FD6
100
AcDbEntity
  8
1
  6
Continuous
100
AcDbLine
 10
578.5
 20
44.0
 30
0.0
 11
578.5
 21
41.0
 31
0.0
  0
ARC
  5
113ED
330
10FD6
100
AcDbEntity
  8
1
  6
Continuous
100
AcDbCircle
 10
580.0
 20
44.0
 30
0.0
 40
1.5
100
AcDbArc
 50
90.0
 51
180.0
  0
LINE
  5
113EE
330
10FD6
100
AcDbEntity
  8
1
  6
Continuous
100
AcDbLine
 10
605.0
 20
44.0
 30
0.0
 11
605.0
 21
41.0
 31
0.0
  0
ARC
  5
113EF
330
10FD6
100
AcDbEntity
  8
1
  6
Continuous
100
AcDbCircle
 10
603.5
 20
44.0
 30
0.0
 40
1.5
100
AcDbArc
 50
0.0
 51
90.0
  0
ARC
  5
113F0
330
10FD6
100
AcDbEntity
  8
1
  6
Continuous
100
AcDbCircle
 10
608.4999999999999
 20
47.5
 30
0.0
 40
1.5
100
AcDbArc
 50
0.0
 51
90.0
  0
LINE
  5
113F1
330
10FD6
100
AcDbEntity
  8
1
  6
Continuous
100
AcDbLine
 10
142.0
 20
308.0
 30
0.0
 11
115.5
 21
308.0
 31
0.0
  0
LINE
  5
113F2
330
10FD6
100
AcDbEntity
  8
1
  6
Continuous
100
AcDbLine
 10
114.0
 20
306.0
 30
0.0
 11
114.0
 21
306.4999999999999
 31
0.0
  0
ARC
  5
113F3
330
10FD6
100
AcDbEntity
  8
1
  6
Continuous
100
AcDbCircle
 10
115.5
 20
306.4999999999999
 30
0.0
 40
1.5
100
AcDbArc
 50
90.0
 51
180.0
  0
ARC
  5
113F4
330
10FD6
100
AcDbEntity
  8
1
  6
Continuous
100
AcDbCircle
 10
142.0
 20
306.4999999999999
 30
0.0
 40
1.5
100
AcDbArc
 50
36.964804
 51
90.0
  0
LINE
  5
113F5
330
10FD6
100
AcDbEntity
  8
5
  6
PHANTOM
100
AcDbLine
 10
602.6274889999997
 20
521.0
 30
0.0
 11
316.0
 21
521.0
 31
0.0
  0
LINE
  5
113F6
330
10FD6
100
AcDbEntity
  8
5
  6
PHANTOM
100
AcDbLine
 10
583.4999999999999
 20
540.0
 30
0.0
 11
360.784882
 21
540.0
 31
0.0
  0
LINE
  5
113F7
330
10FD6
100
AcDbEntity
  8
5
  6
PHANTOM
100
AcDbLine
 10
585.0
 20
545.0
 30
0.0
 11
361.0
 21
545.0
 31
0.0
  0
ARC
  5
113F8
330
10FD6
100
AcDbEntity
  8
5
  6
PHANTOM
100
AcDbCircle
 10
340.0
 20
536.0
 30
0.0
 40
2.399999999999999
100
AcDbArc
 50
0.0
 51
180.0
  0
ARC
  5
113F9
330
10FD6
100
AcDbEntity
  8
5
  6
PHANTOM
100
AcDbCircle
 10
340.0
 20
534.0
 30
0.0
 40
2.399999999999999
100
AcDbArc
 50
180.0
 51
0.0
  0
ARC
  5
113FA
330
10FD6
100
AcDbEntity
  8
5
  6
PHANTOM
100
AcDbCircle
 10
340.0
 20
536.0
 30
0.0
 40
3.75
100
AcDbArc
 50
0.0
 51
180.0
  0
ARC
  5
113FB
330
10FD6
100
AcDbEntity
  8
5
  6
PHANTOM
100
AcDbCircle
 10
340.0
 20
534.0
 30
0.0
 40
3.75
100
AcDbArc
 50
180.0
 51
0.0
  0
LINE
  5
113FC
330
10FD6
100
AcDbEntity
  8
5
  6
PHANTOM
100
AcDbLine
 10
360.784882
 20
540.0
 30
0.0
 11
331.784882
 21
542.4999999999998
 31
0.0
  0
LINE
  5
113FD
330
10FD6
100
AcDbEntity
  8
5
  6
PHANTOM
100
AcDbLine
 10
361.0
 20
545.0
 30
0.0
 11
332.0
 21
547.5
 31
0.0
  0
ARC
  5
113FE
330
10FD6
100
AcDbEntity
  8
5
  6
PHANTOM
100
AcDbCircle
 10
316.0
 20
523.0
 30
0.0
 40
2.0
100
AcDbArc
 50
180.0
 51
270.0
  0
LINE
  5
113FF
330
10FD6
100
AcDbEntity
  8
5
  6
PHANTOM
100
AcDbLine
 10
315.0671439999999
 20
541.1783709999999
 30
0.0
 11
322.5771410000001
 21
538.9149169999998
 31
0.0
  0
LINE
  5
11400
330
10FD6
100
AcDbEntity
  8
5
  6
PHANTOM
100
AcDbLine
 10
315.5
 20
535.0
 30
0.0
 11
322.0
 21
535.0
 31
0.0
  0
LINE
  5
11401
330
10FD6
100
AcDbEntity
  8
5
  6
PHANTOM
100
AcDbLine
 10
314.0
 20
547.5
 30
0.0
 11
314.0
 21
542.6145589999999
 31
0.0
  0
ARC
  5
11402
330
10FD6
100
AcDbEntity
  8
5
  6
PHANTOM
100
AcDbCircle
 10
315.5
 20
544.0
 30
0.0
 40
1.5
100
AcDbArc
 50
180.0
 51
270.0
  0
ARC
  5
11403
330
10FD6
100
AcDbEntity
  8
5
  6
PHANTOM
100
AcDbCircle
 10
315.5
 20
542.6145589999999
 30
0.0
 40
1.5
100
AcDbArc
 50
180.0
 51
253.2276069999999
  0
ARC
  5
11404
330
10FD6
100
AcDbEntity
  8
5
  6
PHANTOM
100
AcDbCircle
 10
315.5
 20
533.4999999999999
 30
0.0
 40
1.5
100
AcDbArc
 50
90.0
 51
180.0
  0
LINE
  5
11405
330
10FD6
100
AcDbEntity
  8
5
  6
PHANTOM
100
AcDbLine
 10
314.0
 20
525.0
 30
0.0
 11
314.0
 21
523.0
 31
0.0
  0
LINE
  5
11406
330
10FD6
100
AcDbEntity
  8
5
  6
PHANTOM
100
AcDbLine
 10
337.6
 20
534.0
 30
0.0
 11
337.6
 21
536.0
 31
0.0
  0
LINE
  5
11407
330
10FD6
100
AcDbEntity
  8
5
  6
PHANTOM
100
AcDbLine
 10
336.25
 20
534.0
 30
0.0
 11
336.25
 21
536.0
 31
0.0
  0
CIRCLE
  5
11408
330
10FD6
100
AcDbEntity
  8
5
  6
PHANTOM
100
AcDbCircle
 10
330.0
 20
535.0
 30
0.0
 40
2.399999999999999
  0
ARC
  5
11409
330
10FD6
100
AcDbEntity
  8
5
  6
PHANTOM
100
AcDbCircle
 10
322.0
 20
537.0
 30
0.0
 40
2.0
100
AcDbArc
 50
270.0
 51
73.22760699999998
  0
LINE
  5
1140A
330
10FD6
100
AcDbEntity
  8
4
  6
CENTER
100
AcDbLine
 10
330.0
 20
529.25
 30
0.0
 11
330.0
 21
540.7499999999998
 31
0.0
  0
CIRCLE
  5
1140B
330
10FD6
100
AcDbEntity
  8
5
  6
PHANTOM
100
AcDbCircle
 10
330.0
 20
535.0
 30
0.0
 40
3.75
  0
LINE
  5
1140C
330
10FD6
100
AcDbEntity
  8
5
  6
PHANTOM
100
AcDbLine
 10
343.75
 20
534.0
 30
0.0
 11
343.75
 21
536.0
 31
0.0
  0
LINE
  5
1140D
330
10FD6
100
AcDbEntity
  8
5
  6
PHANTOM
100
AcDbLine
 10
342.3999999999999
 20
534.0
 30
0.0
 11
342.3999999999999
 21
536.0
 31
0.0
  0
LINE
  5
1140E
330
10FD6
100
AcDbEntity
  8
4
  6
CENTER
100
AcDbLine
 10
340.0
 20
528.2499999999998
 30
0.0
 11
340.0
 21
541.75
 31
0.0
  0
CIRCLE
  5
1140F
330
10FD6
100
AcDbEntity
  8
5
  6
PHANTOM
100
AcDbCircle
 10
495.0
 20
535.0
 30
0.0
 40
2.399999999999999
  0
CIRCLE
  5
11410
330
10FD6
100
AcDbEntity
  8
5
  6
PHANTOM
100
AcDbCircle
 10
495.0
 20
535.0
 30
0.0
 40
3.75
  0
LINE
  5
11411
330
10FD6
100
AcDbEntity
  8
4
  6
CENTER
100
AcDbLine
 10
500.75
 20
535.0
 30
0.0
 11
477.551954
 21
535.0
 31
0.0
  0
LINE
  5
11412
330
10FD6
100
AcDbEntity
  8
5
  6
PHANTOM
100
AcDbLine
 10
488.75
 20
534.0
 30
0.0
 11
488.75
 21
536.0
 31
0.0
  0
LINE
  5
11413
330
10FD6
100
AcDbEntity
  8
5
  6
PHANTOM
100
AcDbLine
 10
482.6
 20
534.0
 30
0.0
 11
482.6
 21
536.0
 31
0.0
  0
LINE
  5
11414
330
10FD6
100
AcDbEntity
  8
5
  6
PHANTOM
100
AcDbLine
 10
487.3999999999998
 20
534.0
 30
0.0
 11
487.3999999999998
 21
536.0
 31
0.0
  0
ARC
  5
11415
330
10FD6
100
AcDbEntity
  8
5
  6
PHANTOM
100
AcDbCircle
 10
485.0
 20
534.0
 30
0.0
 40
2.399999999999999
100
AcDbArc
 50
180.0
 51
0.0
  0
ARC
  5
11416
330
10FD6
100
AcDbEntity
  8
5
  6
PHANTOM
100
AcDbCircle
 10
485.0
 20
536.0
 30
0.0
 40
2.399999999999999
100
AcDbArc
 50
0.0
 51
180.0
  0
LINE
  5
11417
330
10FD6
100
AcDbEntity
  8
5
  6
PHANTOM
100
AcDbLine
 10
481.25
 20
534.0
 30
0.0
 11
481.25
 21
536.0
 31
0.0
  0
ARC
  5
11418
330
10FD6
100
AcDbEntity
  8
5
  6
PHANTOM
100
AcDbCircle
 10
485.0
 20
534.0
 30
0.0
 40
3.75
100
AcDbArc
 50
180.0
 51
0.0
  0
ARC
  5
11419
330
10FD6
100
AcDbEntity
  8
5
  6
PHANTOM
100
AcDbCircle
 10
485.0
 20
536.0
 30
0.0
 40
3.75
100
AcDbArc
 50
0.0
 51
180.0
  0
LINE
  5
1141A
330
10FD6
100
AcDbEntity
  8
4
  6
CENTER
100
AcDbLine
 10
485.0
 20
528.2499999999998
 30
0.0
 11
485.0
 21
541.75
 31
0.0
  0
LINE
  5
1141B
330
10FD6
100
AcDbEntity
  8
4
  6
CENTER
100
AcDbLine
 10
495.0
 20
529.25
 30
0.0
 11
495.0
 21
540.7499999999998
 31
0.0
  0
ARC
  5
1141C
330
10FD6
100
AcDbEntity
  8
5
  6
PHANTOM
100
AcDbCircle
 10
606.5
 20
543.0
 30
0.0
 40
2.0
100
AcDbArc
 50
0.0
 51
90.0
  0
LINE
  5
1141D
330
10FD6
100
AcDbEntity
  8
5
  6
PHANTOM
100
AcDbLine
 10
608.6912879999998
 20
529.0
 30
0.0
 11
607.083709
 21
529.0
 31
0.0
  0
LINE
  5
1141E
330
10FD6
100
AcDbEntity
  8
5
  6
PHANTOM
100
AcDbLine
 10
608.335541
 20
525.296756
 30
0.0
 11
606.06924
 21
526.3681839999998
 31
0.0
  0
LINE
  5
1141F
330
10FD6
100
AcDbEntity
  8
5
  6
PHANTOM
100
AcDbLine
 10
607.083709
 20
529.0
 30
0.0
 11
607.663502
 21
530.504144
 31
0.0
  0
LINE
  5
11420
330
10FD6
100
AcDbEntity
  8
4
  6
CENTER
100
AcDbLine
 10
611.0
 20
535.0
 30
0.0
 11
564.25
 21
535.0
 31
0.0
  0
ARC
  5
11421
330
10FD6
100
AcDbEntity
  8
5
  6
PHANTOM
100
AcDbCircle
 10
602.6274889999997
 20
523.0
 30
0.0
 40
2.0
100
AcDbArc
 50
270.0
 51
338.920162
  0
LINE
  5
11422
330
10FD6
100
AcDbEntity
  8
4
  6
CENTER
100
AcDbLine
 10
596.0
 20
520.0
 30
0.0
 11
596.0
 21
550.0
 31
0.0
  0
ARC
  5
11423
330
10FD6
100
AcDbEntity
  8
5
  6
PHANTOM
100
AcDbCircle
 10
583.4999999999999
 20
541.5
 30
0.0
 40
1.5
100
AcDbArc
 50
270.0
 51
0.0
  0
LINE
  5
11424
330
10FD6
100
AcDbEntity
  8
5
  6
PHANTOM
100
AcDbLine
 10
606.5
 20
545.0
 30
0.0
 11
590.5
 21
545.0
 31
0.0
  0
LINE
  5
11425
330
10FD6
100
AcDbEntity
  8
5
  6
PHANTOM
100
AcDbLine
 10
604.5781950000002
 20
522.5
 30
0.0
 11
607.083709
 21
529.0
 31
0.0
  0
LINE
  5
11426
330
10FD6
100
AcDbEntity
  8
5
  6
PHANTOM
100
AcDbLine
 10
604.493649
 20
522.280663
 30
0.0
 11
604.5781950000002
 21
522.5
 31
0.0
  0
LINE
  5
11427
330
10FD6
100
AcDbEntity
  8
5
  6
PHANTOM
100
AcDbLine
 10
585.0
 20
541.5
 30
0.0
 11
585.0
 21
545.0
 31
0.0
  0
LINE
  5
11428
330
10FD6
100
AcDbEntity
  8
5
  6
PHANTOM
100
AcDbLine
 10
586.5
 20
543.5
 30
0.0
 11
585.5
 21
543.5
 31
0.0
  0
LINE
  5
11429
330
10FD6
100
AcDbEntity
  8
5
  6
PHANTOM
100
AcDbLine
 10
586.5
 20
543.5
 30
0.0
 11
590.5
 21
545.0
 31
0.0
  0
LINE
  5
1142A
330
10FD6
100
AcDbEntity
  8
5
  6
PHANTOM
100
AcDbLine
 10
610.0
 20
535.0
 30
0.0
 11
610.0
 21
536.5
 31
0.0
  0
ARC
  5
1142B
330
10FD6
100
AcDbEntity
  8
5
  6
PHANTOM
100
AcDbCircle
 10
596.0
 20
535.0
 30
0.0
 40
12.5
100
AcDbArc
 50
338.920162
 51
0.0
  0
LINE
  5
1142C
330
10FD6
100
AcDbEntity
  8
5
  6
PHANTOM
100
AcDbLine
 10
608.4999999999999
 20
535.0
 30
0.0
 11
608.4999999999999
 21
543.0
 31
0.0
  0
ARC
  5
1142D
330
10FD6
100
AcDbEntity
  8
5
  6
PHANTOM
100
AcDbCircle
 10
596.0
 20
535.0
 30
0.0
 40
14.0
100
AcDbArc
 50
338.920162
 51
0.0
  0
LINE
  5
1142E
330
10FD6
100
AcDbEntity
  8
5
  6
PHANTOM
100
AcDbLine
 10
610.0
 20
539.0
 30
0.0
 11
608.4999999999999
 21
539.0
 31
0.0
  0
LINE
  5
1142F
330
10FD6
100
AcDbEntity
  8
5
  6
PHANTOM
100
AcDbLine
 10
608.335541
 20
525.296756
 30
0.0
 11
609.597809
 21
528.5714289999998
 31
0.0
  0
LINE
  5
11430
330
10FD6
100
AcDbEntity
  8
5
  6
PHANTOM
100
AcDbLine
 10
609.597809
 20
528.5714289999998
 30
0.0
 11
608.6912879999998
 21
529.0
 31
0.0
  0
LINE
  5
11431
330
10FD6
100
AcDbEntity
  8
5
  6
PHANTOM
100
AcDbLine
 10
608.6912879999998
 20
529.0
 30
0.0
 11
609.063122
 21
529.964641
 31
0.0
  0
LINE
  5
11432
330
10FD6
100
AcDbEntity
  8
5
  6
PHANTOM
100
AcDbLine
 10
602.7639319999998
 20
121.0
 30
0.0
 11
316.0
 21
121.0
 31
0.0
  0
LINE
  5
11433
330
10FD6
100
AcDbEntity
  8
5
  6
PHANTOM
100
AcDbLine
 10
585.0
 20
145.0
 30
0.0
 11
361.0
 21
145.0
 31
0.0
  0
ARC
  5
11434
330
10FD6
100
AcDbEntity
  8
5
  6
PHANTOM
100
AcDbCircle
 10
316.0
 20
123.0
 30
0.0
 40
2.0
100
AcDbArc
 50
180.0
 51
270.0
  0
ARC
  5
11435
330
10FD6
100
AcDbEntity
  8
5
  6
PHANTOM
100
AcDbCircle
 10
340.0
 20
134.0
 30
0.0
 40
2.399999999999999
100
AcDbArc
 50
180.0
 51
0.0
  0
ARC
  5
11436
330
10FD6
100
AcDbEntity
  8
5
  6
PHANTOM
100
AcDbCircle
 10
340.0
 20
136.0
 30
0.0
 40
2.399999999999999
100
AcDbArc
 50
0.0
 51
180.0
  0
LINE
  5
11437
330
10FD6
100
AcDbEntity
  8
5
  6
PHANTOM
100
AcDbLine
 10
348.198508
 20
144.5980139999998
 30
0.0
 11
331.9354649999999
 21
146.0
 31
0.0
  0
LINE
  5
11438
330
10FD6
100
AcDbEntity
  8
5
  6
PHANTOM
100
AcDbLine
 10
347.0
 20
144.0
 30
0.0
 11
320.5
 21
144.0
 31
0.0
  0
LINE
  5
11439
330
10FD6
100
AcDbEntity
  8
5
  6
PHANTOM
100
AcDbLine
 10
361.0
 20
145.0
 30
0.0
 11
332.0
 21
147.5
 31
0.0
  0
LINE
  5
1143A
330
10FD6
100
AcDbEntity
  8
5
  6
PHANTOM
100
AcDbLine
 10
315.5
 20
135.0
 30
0.0
 11
322.0
 21
135.0
 31
0.0
  0
LINE
  5
1143B
330
10FD6
100
AcDbEntity
  8
5
  6
PHANTOM
100
AcDbLine
 10
315.0671439999999
 20
141.1783709999999
 30
0.0
 11
322.5771410000001
 21
138.914917
 31
0.0
  0
ARC
  5
1143C
330
10FD6
100
AcDbEntity
  8
5
  6
PHANTOM
100
AcDbCircle
 10
315.5
 20
133.4999999999998
 30
0.0
 40
1.5
100
AcDbArc
 50
90.0
 51
180.0
  0
ARC
  5
1143D
330
10FD6
100
AcDbEntity
  8
5
  6
PHANTOM
100
AcDbCircle
 10
315.5
 20
142.614559
 30
0.0
 40
1.5
100
AcDbArc
 50
180.0
 51
253.2276069999999
  0
LINE
  5
1143E
330
10FD6
100
AcDbEntity
  8
5
  6
PHANTOM
100
AcDbLine
 10
314.0
 20
127.0
 30
0.0
 11
314.0
 21
123.0
 31
0.0
  0
LINE
  5
1143F
330
10FD6
100
AcDbEntity
  8
5
  6
PHANTOM
100
AcDbLine
 10
337.6
 20
134.0
 30
0.0
 11
337.6
 21
136.0
 31
0.0
  0
ARC
  5
11440
330
10FD6
100
AcDbEntity
  8
5
  6
PHANTOM
100
AcDbCircle
 10
322.0
 20
137.0
 30
0.0
 40
2.0
100
AcDbArc
 50
270.0
 51
73.22760699999998
  0
LINE
  5
11441
330
10FD6
100
AcDbEntity
  8
4
  6
CENTER
100
AcDbLine
 10
330.0
 20
129.2499999999998
 30
0.0
 11
330.0
 21
140.7499999999998
 31
0.0
  0
CIRCLE
  5
11442
330
10FD6
100
AcDbEntity
  8
5
  6
PHANTOM
100
AcDbCircle
 10
330.0
 20
135.0
 30
0.0
 40
2.399999999999999
  0
LINE
  5
11443
330
10FD6
100
AcDbEntity
  8
5
  6
PHANTOM
100
AcDbLine
 10
319.0
 20
146.0
 30
0.0
 11
331.9354649999999
 21
146.0
 31
0.0
  0
ARC
  5
11444
330
10FD6
100
AcDbEntity
  8
5
  6
PHANTOM
100
AcDbCircle
 10
320.5
 20
145.5
 30
0.0
 40
1.5
100
AcDbArc
 50
180.0
 51
270.0
  0
LINE
  5
11445
330
10FD6
100
AcDbEntity
  8
5
  6
PHANTOM
100
AcDbLine
 10
319.0
 20
147.5
 30
0.0
 11
319.0
 21
145.5
 31
0.0
  0
ARC
  5
11446
330
10FD6
100
AcDbEntity
  8
5
  6
PHANTOM
100
AcDbCircle
 10
347.0
 20
145.5
 30
0.0
 40
1.5
100
AcDbArc
 50
270.0
 51
0.0
  0
LINE
  5
11447
330
10FD6
100
AcDbEntity
  8
5
  6
PHANTOM
100
AcDbLine
 10
348.4999999999998
 20
146.077586
 30
0.0
 11
348.4999999999998
 21
145.5
 31
0.0
  0
LINE
  5
11448
330
10FD6
100
AcDbEntity
  8
4
  6
CENTER
100
AcDbLine
 10
340.0
 20
128.2499999999998
 30
0.0
 11
340.0
 21
141.7499999999998
 31
0.0
  0
LINE
  5
11449
330
10FD6
100
AcDbEntity
  8
5
  6
PHANTOM
100
AcDbLine
 10
342.3999999999999
 20
134.0
 30
0.0
 11
342.3999999999999
 21
136.0
 31
0.0
  0
CIRCLE
  5
1144A
330
10FD6
100
AcDbEntity
  8
5
  6
PHANTOM
100
AcDbCircle
 10
495.0
 20
135.0
 30
0.0
 40
2.399999999999999
  0
LINE
  5
1144B
330
10FD6
100
AcDbEntity
  8
4
  6
CENTER
100
AcDbLine
 10
500.75
 20
135.0
 30
0.0
 11
475.5445729999998
 21
135.0
 31
0.0
  0
LINE
  5
1144C
330
10FD6
100
AcDbEntity
  8
5
  6
PHANTOM
100
AcDbLine
 10
487.3999999999998
 20
134.0
 30
0.0
 11
487.3999999999998
 21
136.0
 31
0.0
  0
LINE
  5
1144D
330
10FD6
100
AcDbEntity
  8
4
  6
CENTER
100
AcDbLine
 10
485.0
 20
128.2499999999998
 30
0.0
 11
485.0
 21
141.7499999999998
 31
0.0
  0
LINE
  5
1144E
330
10FD6
100
AcDbEntity
  8
4
  6
CENTER
100
AcDbLine
 10
495.0
 20
129.2499999999998
 30
0.0
 11
495.0
 21
140.7499999999998
 31
0.0
  0
LINE
  5
1144F
330
10FD6
100
AcDbEntity
  8
5
  6
PHANTOM
100
AcDbLine
 10
482.6
 20
134.0
 30
0.0
 11
482.6
 21
136.0
 31
0.0
  0
ARC
  5
11450
330
10FD6
100
AcDbEntity
  8
5
  6
PHANTOM
100
AcDbCircle
 10
485.0
 20
136.0
 30
0.0
 40
2.399999999999999
100
AcDbArc
 50
0.0
 51
180.0
  0
ARC
  5
11451
330
10FD6
100
AcDbEntity
  8
5
  6
PHANTOM
100
AcDbCircle
 10
485.0
 20
134.0
 30
0.0
 40
2.399999999999999
100
AcDbArc
 50
180.0
 51
0.0
  0
LINE
  5
11452
330
10FD6
100
AcDbEntity
  8
4
  6
CENTER
100
AcDbLine
 10
596.0
 20
120.0
 30
0.0
 11
596.0
 21
150.0
 31
0.0
  0
LINE
  5
11453
330
10FD6
100
AcDbEntity
  8
5
  6
PHANTOM
100
AcDbLine
 10
608.0
 20
145.0
 30
0.0
 11
590.0
 21
145.0
 31
0.0
  0
LINE
  5
11454
330
10FD6
100
AcDbEntity
  8
5
  6
PHANTOM
100
AcDbLine
 10
604.5527859999999
 20
122.105573
 30
0.0
 11
610.0
 21
133.0
 31
0.0
  0
LINE
  5
11455
330
10FD6
100
AcDbEntity
  8
4
  6
CENTER
100
AcDbLine
 10
611.0
 20
135.0
 30
0.0
 11
564.25
 21
135.0
 31
0.0
  0
LINE
  5
11456
330
10FD6
100
AcDbEntity
  8
4
  6
CENTER
100
AcDbLine
 10
570.0
 20
128.2499999999998
 30
0.0
 11
570.0
 21
141.7499999999998
 31
0.0
  0
LINE
  5
11457
330
10FD6
100
AcDbEntity
  8
4
  6
CENTER
100
AcDbLine
 10
580.0
 20
129.2499999999998
 30
0.0
 11
580.0
 21
140.7499999999998
 31
0.0
  0
LINE
  5
11458
330
10FD6
100
AcDbEntity
  8
5
  6
PHANTOM
100
AcDbLine
 10
567.6
 20
134.0
 30
0.0
 11
567.6
 21
136.0
 31
0.0
  0
ARC
  5
11459
330
10FD6
100
AcDbEntity
  8
5
  6
PHANTOM
100
AcDbCircle
 10
570.0
 20
134.0
 30
0.0
 40
2.399999999999999
100
AcDbArc
 50
180.0
 51
0.0
  0
LINE
  5
1145A
330
10FD6
100
AcDbEntity
  8
5
  6
PHANTOM
100
AcDbLine
 10
572.4
 20
134.0
 30
0.0
 11
572.4
 21
136.0
 31
0.0
  0
ARC
  5
1145B
330
10FD6
100
AcDbEntity
  8
5
  6
PHANTOM
100
AcDbCircle
 10
570.0
 20
136.0
 30
0.0
 40
2.399999999999999
100
AcDbArc
 50
0.0
 51
180.0
  0
CIRCLE
  5
1145C
330
10FD6
100
AcDbEntity
  8
5
  6
PHANTOM
100
AcDbCircle
 10
580.0
 20
135.0
 30
0.0
 40
2.399999999999999
  0
ARC
  5
1145D
330
10FD6
100
AcDbEntity
  8
5
  6
PHANTOM
100
AcDbCircle
 10
602.7639319999998
 20
123.0
 30
0.0
 40
2.0
100
AcDbArc
 50
270.0
 51
333.434949
  0
LINE
  5
1145E
330
10FD6
100
AcDbEntity
  8
5
  6
PHANTOM
100
AcDbLine
 10
586.0
 20
143.5
 30
0.0
 11
585.0
 21
143.5
 31
0.0
  0
LINE
  5
1145F
330
10FD6
100
AcDbEntity
  8
5
  6
PHANTOM
100
AcDbLine
 10
585.0
 20
143.5
 30
0.0
 11
585.0
 21
145.0
 31
0.0
  0
LINE
  5
11460
330
10FD6
100
AcDbEntity
  8
5
  6
PHANTOM
100
AcDbLine
 10
586.0
 20
143.5
 30
0.0
 11
590.0
 21
145.0
 31
0.0
  0
CIRCLE
  5
11461
330
10FD6
100
AcDbEntity
  8
5
  6
PHANTOM
100
AcDbCircle
 10
596.0
 20
135.0
 30
0.0
 40
5.0
  0
CIRCLE
  5
11462
330
10FD6
100
AcDbEntity
  8
5
  6
PHANTOM
100
AcDbCircle
 10
596.0
 20
135.0
 30
0.0
 40
3.0
  0
ARC
  5
11463
330
10FD6
100
AcDbEntity
  8
5
  6
PHANTOM
100
AcDbCircle
 10
596.0
 20
135.0
 30
0.0
 40
11.0
100
AcDbArc
 50
65.38002299999999
 51
114.619977
  0
ARC
  5
11464
330
10FD6
100
AcDbEntity
  8
5
  6
PHANTOM
100
AcDbCircle
 10
596.0
 20
135.0
 30
0.0
 40
11.0
100
AcDbArc
 50
114.619977
 51
65.38002299999999
  0
ARC
  5
11465
330
10FD6
100
AcDbEntity
  8
5
  6
PHANTOM
100
AcDbCircle
 10
608.0
 20
143.0
 30
0.0
 40
2.0
100
AcDbArc
 50
0.0
 51
90.0
  0
LINE
  5
11466
330
10FD6
100
AcDbEntity
  8
5
  6
PHANTOM
100
AcDbLine
 10
610.0
 20
133.0
 30
0.0
 11
610.0
 21
136.4999999999998
 31
0.0
  0
CIRCLE
  5
11467
330
10FD6
100
AcDbEntity
  8
5
  6
PHANTOM
100
AcDbCircle
 10
596.0
 20
535.0
 30
0.0
 40
11.0
  0
LINE
  5
11468
330
10FD6
100
AcDbEntity
  8
4
  6
CENTER
100
AcDbLine
 10
580.0
 20
529.25
 30
0.0
 11
580.0
 21
540.7499999999998
 31
0.0
  0
LINE
  5
11469
330
10FD6
100
AcDbEntity
  8
4
  6
CENTER
100
AcDbLine
 10
570.0
 20
528.2499999999998
 30
0.0
 11
570.0
 21
541.75
 31
0.0
  0
LINE
  5
1146A
330
10FD6
100
AcDbEntity
  8
5
  6
PHANTOM
100
AcDbLine
 10
680.0
 20
145.0
 30
0.0
 11
688.0
 21
145.0
 31
0.0
  0
ARC
  5
1146B
330
10FD6
100
AcDbEntity
  8
5
  6
PHANTOM
100
AcDbCircle
 10
681.5
 20
146.0
 30
0.0
 40
1.5
100
AcDbArc
 50
90.0
 51
180.0
  0
LINE
  5
1146C
330
10FD6
100
AcDbEntity
  8
5
  6
PHANTOM
100
AcDbLine
 10
688.0
 20
147.5
 30
0.0
 11
685.5
 21
147.5
 31
0.0
  0
LINE
  5
1146D
330
10FD6
100
AcDbEntity
  8
5
  6
PHANTOM
100
AcDbLine
 10
680.0
 20
121.0
 30
0.0
 11
680.0
 21
123.5
 31
0.0
  0
LINE
  5
1146E
330
10FD6
100
AcDbEntity
  8
5
  6
PHANTOM
100
AcDbLine
 10
681.5
 20
121.0
 30
0.0
 11
681.5
 21
123.5
 31
0.0
  0
LINE
  5
1146F
330
10FD6
100
AcDbEntity
  8
5
  6
PHANTOM
100
AcDbLine
 10
688.0
 20
145.0
 30
0.0
 11
688.0
 21
147.5
 31
0.0
  0
LINE
  5
11470
330
10FD6
100
AcDbEntity
  8
5
  6
PHANTOM
100
AcDbLine
 10
680.0
 20
121.0
 30
0.0
 11
681.5
 21
121.0
 31
0.0
  0
LINE
  5
11471
330
10FD6
100
AcDbEntity
  8
5
  6
PHANTOM
100
AcDbLine
 10
29.5
 20
147.5
 30
0.0
 11
36.0
 21
147.5
 31
0.0
  0
LINE
  5
11472
330
10FD6
100
AcDbEntity
  8
5
  6
PHANTOM
100
AcDbLine
 10
36.0
 20
121.0
 30
0.0
 11
36.0
 21
123.5
 31
0.0
  0
LINE
  5
11473
330
10FD6
100
AcDbEntity
  8
5
  6
PHANTOM
100
AcDbLine
 10
37.5
 20
121.0
 30
0.0
 11
37.5
 21
123.5
 31
0.0
  0
ARC
  5
11474
330
10FD6
100
AcDbEntity
  8
5
  6
PHANTOM
100
AcDbCircle
 10
36.0
 20
146.0
 30
0.0
 40
1.5
100
AcDbArc
 50
0.0
 51
90.0
  0
LINE
  5
11475
330
10FD6
100
AcDbEntity
  8
5
  6
PHANTOM
100
AcDbLine
 10
29.5
 20
143.5
 30
0.0
 11
29.5
 21
146.0
 31
0.0
  0
LINE
  5
11476
330
10FD6
100
AcDbEntity
  8
5
  6
PHANTOM
100
AcDbLine
 10
36.0
 20
143.5
 30
0.0
 11
29.5
 21
143.5
 31
0.0
  0
LINE
  5
11477
330
10FD6
100
AcDbEntity
  8
5
  6
PHANTOM
100
AcDbLine
 10
37.5
 20
121.0
 30
0.0
 11
36.0
 21
121.0
 31
0.0
  0
LINE
  5
11478
330
10FD6
100
AcDbEntity
  8
1
  6
Continuous
100
AcDbLine
 10
27.0
 20
126.5
 30
0.0
 11
27.0
 21
129.0
 31
0.0
  0
LINE
  5
11479
330
10FD6
100
AcDbEntity
  8
5
  6
PHANTOM
100
AcDbLine
 10
692.4999999999997
 20
521.0
 30
0.0
 11
692.4999999999997
 21
523.5
 31
0.0
  0
ARC
  5
1147A
330
10FD6
100
AcDbEntity
  8
5
  6
PHANTOM
100
AcDbCircle
 10
691.0
 20
546.0
 30
0.0
 40
1.5
100
AcDbArc
 50
0.0
 51
90.0
  0
LINE
  5
1147B
330
10FD6
100
AcDbEntity
  8
5
  6
PHANTOM
100
AcDbLine
 10
692.4999999999997
 20
545.0
 30
0.0
 11
683.0
 21
545.0
 31
0.0
  0
LINE
  5
1147C
330
10FD6
100
AcDbEntity
  8
5
  6
PHANTOM
100
AcDbLine
 10
691.0
 20
539.0
 30
0.0
 11
691.0
 21
541.5
 31
0.0
  0
LINE
  5
1147D
330
10FD6
100
AcDbEntity
  8
5
  6
PHANTOM
100
AcDbLine
 10
683.0
 20
547.5
 30
0.0
 11
687.0
 21
547.5
 31
0.0
  0
LINE
  5
1147E
330
10FD6
100
AcDbEntity
  8
5
  6
PHANTOM
100
AcDbLine
 10
692.4999999999997
 20
539.0
 30
0.0
 11
683.0
 21
539.0
 31
0.0
  0
LINE
  5
1147F
330
10FD6
100
AcDbEntity
  8
5
  6
PHANTOM
100
AcDbLine
 10
683.0
 20
529.0
 30
0.0
 11
683.0
 21
531.5
 31
0.0
  0
LINE
  5
11480
330
10FD6
100
AcDbEntity
  8
5
  6
PHANTOM
100
AcDbLine
 10
691.0
 20
521.0
 30
0.0
 11
691.0
 21
523.5
 31
0.0
  0
LINE
  5
11481
330
10FD6
100
AcDbEntity
  8
5
  6
PHANTOM
100
AcDbLine
 10
692.4999999999997
 20
529.0
 30
0.0
 11
683.0
 21
529.0
 31
0.0
  0
LINE
  5
11482
330
10FD6
100
AcDbEntity
  8
5
  6
PHANTOM
100
AcDbLine
 10
692.4999999999997
 20
521.0
 30
0.0
 11
691.0
 21
521.0
 31
0.0
  0
LINE
  5
11483
330
10FD6
100
AcDbEntity
  8
5
  6
PHANTOM
100
AcDbLine
 10
683.0
 20
545.0
 30
0.0
 11
683.0
 21
547.5
 31
0.0
  0
LINE
  5
11484
330
10FD6
100
AcDbEntity
  8
5
  6
PHANTOM
100
AcDbLine
 10
34.5
 20
540.0
 30
0.0
 11
34.5
 21
542.4999999999998
 31
0.0
  0
LINE
  5
11485
330
10FD6
100
AcDbEntity
  8
5
  6
PHANTOM
100
AcDbLine
 10
33.0
 20
540.0
 30
0.0
 11
34.5
 21
540.0
 31
0.0
  0
ARC
  5
11486
330
10FD6
100
AcDbEntity
  8
5
  6
PHANTOM
100
AcDbCircle
 10
33.0
 20
546.0
 30
0.0
 40
1.5
100
AcDbArc
 50
0.0
 51
90.0
  0
LINE
  5
11487
330
10FD6
100
AcDbEntity
  8
5
  6
PHANTOM
100
AcDbLine
 10
33.0
 20
547.5
 30
0.0
 11
26.5
 21
547.5
 31
0.0
  0
LINE
  5
11488
330
10FD6
100
AcDbEntity
  8
5
  6
PHANTOM
100
AcDbLine
 10
33.0
 20
540.0
 30
0.0
 11
33.0
 21
541.0
 31
0.0
  0
LINE
  5
11489
330
10FD6
100
AcDbEntity
  8
5
  6
PHANTOM
100
AcDbLine
 10
26.5
 20
543.5
 30
0.0
 11
33.0
 21
543.5
 31
0.0
  0
LINE
  5
1148A
330
10FD6
100
AcDbEntity
  8
5
  6
PHANTOM
100
AcDbLine
 10
26.5
 20
521.0
 30
0.0
 11
26.5
 21
523.5
 31
0.0
  0
LINE
  5
1148B
330
10FD6
100
AcDbEntity
  8
5
  6
PHANTOM
100
AcDbLine
 10
25.0
 20
521.0
 30
0.0
 11
25.0
 21
523.5
 31
0.0
  0
ARC
  5
1148C
330
10FD6
100
AcDbEntity
  8
5
  6
PHANTOM
100
AcDbCircle
 10
26.5
 20
546.0
 30
0.0
 40
1.5
100
AcDbArc
 50
90.0
 51
180.0
  0
LINE
  5
1148D
330
10FD6
100
AcDbEntity
  8
5
  6
PHANTOM
100
AcDbLine
 10
25.0
 20
521.0
 30
0.0
 11
26.5
 21
521.0
 31
0.0
  0
LINE
  5
1148E
330
10FD6
100
AcDbEntity
  8
3
  6
DASHED
100
AcDbLine
 10
334.544554
 20
546.0
 30
0.0
 11
315.5
 21
546.0
 31
0.0
  0
LINE
  5
1148F
330
10FD6
100
AcDbEntity
  8
3
  6
DASHED
100
AcDbLine
 10
399.75
 20
329.4999999999999
 30
0.0
 11
405.0
 21
319.0
 31
0.0
  0
CIRCLE
  5
11490
330
10FD6
100
AcDbEntity
  8
5
  6
PHANTOM
100
AcDbCircle
 10
580.0
 20
535.0
 30
0.0
 40
3.75
  0
CIRCLE
  5
11491
330
10FD6
100
AcDbEntity
  8
5
  6
PHANTOM
100
AcDbCircle
 10
580.0
 20
535.0
 30
0.0
 40
2.399999999999999
  0
LINE
  5
11492
330
10FD6
100
AcDbEntity
  8
5
  6
PHANTOM
100
AcDbLine
 10
566.25
 20
534.0
 30
0.0
 11
566.25
 21
536.0
 31
0.0
  0
ARC
  5
11493
330
10FD6
100
AcDbEntity
  8
5
  6
PHANTOM
100
AcDbCircle
 10
570.0
 20
536.0
 30
0.0
 40
2.399999999999999
100
AcDbArc
 50
0.0
 51
180.0
  0
LINE
  5
11494
330
10FD6
100
AcDbEntity
  8
5
  6
PHANTOM
100
AcDbLine
 10
572.4
 20
534.0
 30
0.0
 11
572.4
 21
536.0
 31
0.0
  0
LINE
  5
11495
330
10FD6
100
AcDbEntity
  8
5
  6
PHANTOM
100
AcDbLine
 10
567.6
 20
534.0
 30
0.0
 11
567.6
 21
536.0
 31
0.0
  0
LINE
  5
11496
330
10FD6
100
AcDbEntity
  8
5
  6
PHANTOM
100
AcDbLine
 10
573.7499999999998
 20
534.0
 30
0.0
 11
573.7499999999998
 21
536.0
 31
0.0
  0
ARC
  5
11497
330
10FD6
100
AcDbEntity
  8
5
  6
PHANTOM
100
AcDbCircle
 10
570.0
 20
534.0
 30
0.0
 40
3.75
100
AcDbArc
 50
180.0
 51
0.0
  0
ARC
  5
11498
330
10FD6
100
AcDbEntity
  8
5
  6
PHANTOM
100
AcDbCircle
 10
570.0
 20
534.0
 30
0.0
 40
2.399999999999999
100
AcDbArc
 50
180.0
 51
0.0
  0
ARC
  5
11499
330
10FD6
100
AcDbEntity
  8
5
  6
PHANTOM
100
AcDbCircle
 10
570.0
 20
536.0
 30
0.0
 40
3.75
100
AcDbArc
 50
0.0
 51
180.0
  0
LINE
  5
1149A
330
10FD6
100
AcDbEntity
  8
1
  6
Continuous
100
AcDbLine
 10
359.5
 20
453.5
 30
0.0
 11
359.5
 21
452.0
 31
0.0
  0
LINE
  5
1149B
330
10FD6
100
AcDbEntity
  8
1
  6
Continuous
100
AcDbLine
 10
363.5
 20
453.5
 30
0.0
 11
363.5
 21
452.0
 31
0.0
  0
LINE
  5
1149C
330
10FD6
100
AcDbEntity
  8
1
  6
Continuous
100
AcDbLine
 10
359.5
 20
42.5
 30
0.0
 11
359.5
 21
41.0
 31
0.0
  0
LINE
  5
1149D
330
10FD6
100
AcDbEntity
  8
1
  6
Continuous
100
AcDbLine
 10
363.5
 20
42.5
 30
0.0
 11
363.5
 21
41.0
 31
0.0
  0
ENDSEC
  0
SECTION
  2
OBJECTS
  0
DICTIONARY
  5
10FC4
330
0
100
AcDbDictionary
281
     1
  3
ACAD_CIP_PREVIOUS_PRODUCT_INFO
350
114FD
  3
ACAD_COLOR
350
114DF
  3
ACAD_DETAILVIEWSTYLE
350
114F8
  3
ACAD_GROUP
350
10FC5
  3
ACAD_LAYOUT
350
10FD1
  3
ACAD_MATERIAL
350
114AD
  3
ACAD_MLEADERSTYLE
350
114F4
  3
ACAD_MLINESTYLE
350
10FCE
  3
ACAD_PLOTSETTINGS
350
10FD0
  3
ACAD_PLOTSTYLENAME
350
114AB
  3
ACAD_SCALELIST
350
114E2
  3
ACAD_SECTIONVIEWSTYLE
350
114F6
  3
ACAD_TABLESTYLE
350
114E0
  3
ACAD_VISUALSTYLE
350
114C6
  3
ACDB_RECOMPOSE_DATA
350
1151B
  3
AcDbVariableDictionary
350
1150E
  3
DWGPROPS
350
1151C
  0
DICTIONARY
  5
114FE
330
10FC8
100
AcDbDictionary
280
     1
281
     1
  3
ADSK_XREC_LAYER_RECONCILED
360
114FF
  0
DICTIONARY
  5
11500
330
10FDE
100
AcDbDictionary
280
     1
281
     1
  3
ADSK_XREC_LAYER_RECONCILED
360
11501
  0
DICTIONARY
  5
11502
330
10FDF
100
AcDbDictionary
280
     1
281
     1
  3
ADSK_XREC_LAYER_RECONCILED
360
11503
  0
DICTIONARY
  5
11504
330
10FE0
100
AcDbDictionary
280
     1
281
     1
  3
ADSK_XREC_LAYER_RECONCILED
360
11505
  0
DICTIONARY
  5
11506
330
10FE1
100
AcDbDictionary
280
     1
281
     1
  3
ADSK_XREC_LAYER_RECONCILED
360
11507
  0
DICTIONARY
  5
11508
330
10FE2
100
AcDbDictionary
280
     1
281
     1
  3
ADSK_XREC_LAYER_RECONCILED
360
11509
  0
DICTIONARY
  5
1150A
330
10FE3
100
AcDbDictionary
280
     1
281
     1
  3
ADSK_XREC_LAYER_RECONCILED
360
1150B
  0
DICTIONARY
  5
1150C
330
10FE4
100
AcDbDictionary
280
     1
281
     1
  3
ADSK_XREC_LAYER_RECONCILED
360
1150D
  0
DICTIONARY
  5
114A6
330
10FD6
100
AcDbDictionary
281
     1
  3
ACAD_LAYOUTSELFREF
350
114A7
  0
DICTIONARY
  5
114A4
330
10FD2
100
AcDbDictionary
281
     1
  3
ACAD_LAYOUTSELFREF
350
114A5
  0
XRECORD
  5
114FD
102
{ACAD_REACTORS
330
10FC4
102
}
330
10FC4
100
AcDbXrecord
280
     1
300
ACDLT
300
2014
300
ACDLT_F_S
  0
DICTIONARY
  5
114DF
102
{ACAD_REACTORS
330
10FC4
102
}
330
10FC4
100
AcDbDictionary
281
     1
  0
DICTIONARY
  5
114F8
102
{ACAD_REACTORS
330
10FC4
102
}
330
10FC4
100
AcDbDictionary
281
     1
  3
Imperial24
350
114F9
  0
DICTIONARY
  5
10FC5
102
{ACAD_REACTORS
330
10FC4
102
}
330
10FC4
100
AcDbDictionary
281
     1
  0
DICTIONARY
  5
10FD1
102
{ACAD_REACTORS
330
10FC4
102
}
330
10FC4
100
AcDbDictionary
281
     1
  3
Model
350
114FA
  3
レイアウト1
350
114FB
  0
DICTIONARY
  5
114AD
102
{ACAD_REACTORS
330
10FC4
102
}
330
10FC4
100
AcDbDictionary
281
     1
  3
ByBlock
350
114B6
  3
ByLayer
350
114AE
  3
Global
350
114BE
  0
DICTIONARY
  5
114F4
102
{ACAD_REACTORS
330
10FC4
102
}
330
10FC4
100
AcDbDictionary
281
     1
  3
Standard
350
114F5
  0
DICTIONARY
  5
10FCE
102
{ACAD_REACTORS
330
10FC4
102
}
330
10FC4
100
AcDbDictionary
281
     1
  3
STANDARD
350
10FCF
  0
DICTIONARY
  5
10FD0
102
{ACAD_REACTORS
330
10FC4
102
}
330
10FC4
100
AcDbDictionary
281
     1
  0
ACDBDICTIONARYWDFLT
  5
114AB
102
{ACAD_REACTORS
330
10FC4
102
}
330
10FC4
100
AcDbDictionary
281
     1
  3
Normal
350
114AC
100
AcDbDictionaryWithDefault
340
114AC
  0
DICTIONARY
  5
114E2
102
{ACAD_REACTORS
330
10FC4
102
}
330
10FC4
100
AcDbDictionary
281
     1
  3
A0
350
114E3
  3
A1
350
114E4
  3
A2
350
114E5
  3
A3
350
114E6
  3
A4
350
114E7
  3
A5
350
114E8
  3
A6
350
114E9
  3
A7
350
114EA
  3
A8
350
114EB
  3
A9
350
114EC
  3
B0
350
114ED
  3
B1
350
114EE
  3
B2
350
114EF
  3
B3
350
114F0
  3
B4
350
114F1
  3
B5
350
114F2
  3
B6
350
114F3
  0
DICTIONARY
  5
114F6
102
{ACAD_REACTORS
330
10FC4
102
}
330
10FC4
100
AcDbDictionary
281
     1
  3
Imperial24
350
114F7
  0
DICTIONARY
  5
114E0
102
{ACAD_REACTORS
330
10FC4
102
}
330
10FC4
100
AcDbDictionary
281
     1
  3
Standard
350
114E1
  0
DICTIONARY
  5
114C6
102
{ACAD_REACTORS
330
10FC4
102
}
330
10FC4
100
AcDbDictionary
281
     1
  3
2dWireframe
350
114CC
  3
Basic
350
114CB
  3
Brighten
350
114D2
  3
ColorChange
350
114D6
  3
Conceptual
350
114CF
  3
Dim
350
114D1
  3
EdgeColorOff
350
114DE
  3
Facepattern
350
114D5
  3
Flat
350
114C7
  3
FlatWithEdges
350
114C8
  3
Gouraud
350
114C9
  3
GouraudWithEdges
350
114CA
  3
Hidden
350
114CE
  3
JitterOff
350
114DC
  3
Linepattern
350
114D4
  3
OverhangOff
350
114DD
  3
Realistic
350
114D0
  3
Shaded
350
114DB
  3
Shaded with edges
350
114DA
  3
Shades of Gray
350
114D7
  3
Sketchy
350
114D8
  3
Thicken
350
114D3
  3
Wireframe
350
114CD
  3
X-Ray
350
114D9
  0
XRECORD
  5
1151B
102
{ACAD_REACTORS
330
10FC4
102
}
330
10FC4
100
AcDbXrecord
280
     1
 90
        1
330
114E1
  0
DICTIONARY
  5
1150E
102
{ACAD_REACTORS
330
10FC4
102
}
330
10FC4
100
AcDbDictionary
281
     1
  3
CANNOSCALE
350
11513
  3
CMLEADERSTYLE
350
11510
  3
CTABLESTYLE
350
1150F
  3
CVIEWDETAILSTYLE
350
11511
  3
CVIEWSECTIONSTYLE
350
11512
  3
DIMASSOC
350
11516
  3
INDEXCTL
350
11515
  3
SORTENTS
350
11514
  3
XCLIPFRAME
350
11517
  0
XRECORD
  5
1151C
102
{ACAD_REACTORS
330
10FC4
102
}
330
10FC4
100
AcDbXrecord
280
     1
  1
DWGPROPS COOKIE
  2

  3

  4

  6

  7

  8
Yoshitsune
  9

300
=
301
=
302
=
303
=
304
=
305
=
306
=
307
=
308
=
309
=
 40
0.0000136458333333
 41
2451263.697301273
 42
2457192.661563414
  1

 90
        0
  0
XRECORD
  5
114FF
102
{ACAD_REACTORS
330
114FE
102
}
330
114FE
100
AcDbXrecord
280
     1
290
     1
  0
XRECORD
  5
11501
102
{ACAD_REACTORS
330
11500
102
}
330
11500
100
AcDbXrecord
280
     1
290
     1
  0
XRECORD
  5
11503
102
{ACAD_REACTORS
330
11502
102
}
330
11502
100
AcDbXrecord
280
     1
290
     1
  0
XRECORD
  5
11505
102
{ACAD_REACTORS
330
11504
102
}
330
11504
100
AcDbXrecord
280
     1
290
     1
  0
XRECORD
  5
11507
102
{ACAD_REACTORS
330
11506
102
}
330
11506
100
AcDbXrecord
280
     1
290
     1
  0
XRECORD
  5
11509
102
{ACAD_REACTORS
330
11508
102
}
330
11508
100
AcDbXrecord
280
     1
290
     1
  0
XRECORD
  5
1150B
102
{ACAD_REACTORS
330
1150A
102
}
330
1150A
100
AcDbXrecord
280
     1
290
     1
  0
XRECORD
  5
1150D
102
{ACAD_REACTORS
330
1150C
102
}
330
1150C
100
AcDbXrecord
280
     1
290
     1
  0
XRECORD
  5
114A7
102
{ACAD_REACTORS
330
114A6
102
}
330
114A6
100
AcDbXrecord
280
     1
340
10FD6
  0
XRECORD
  5
114A5
102
{ACAD_REACTORS
330
114A4
102
}
330
114A4
100
AcDbXrecord
280
     1
340
10FD2
  0
ACDBDETAILVIEWSTYLE
  5
114F9
102
{ACAD_XDICTIONARY
360
11554
102
}
102
{ACAD_REACTORS
330
114F8
102
}
330
114F8
100
AcDbModelDocViewStyle
 70
     0
  3
Imperial24
290
     0
100
AcDbDetailViewStyle
 70
     0
 71
     0
 90
        3
 71
     1
340
10FC9
 40
0.24
340
0
 40
0.24
300

 40
0.36
280
     3
 71
     2
340
10FCD
 90
       25
 71
     3
340
10FC9
 40
0.24
 90
        1
 40
0.75
 90
        1
300
%<\AcVar ViewType \f "%tc1">% %<\AcVar ViewDetailId>%\PSCALE %<\AcVar ViewScale \f "%sn">%
 71
     4
340
10FCD
 90
       25
340
10FCD
 90
       25
280
     0
  0
LAYOUT
  5
114FA
102
{ACAD_XDICTIONARY
360
11556
102
}
102
{ACAD_REACTORS
330
10FD1
102
}
330
10FD1
100
AcDbPlotSettings
  1

  2
Canon LBP9100C
  4

  6

 40
0.0
 41
0.0
 42
0.0
 43
0.0
 44
0.0
 45
0.0
 46
0.0
 47
0.0
 48
0.0
 49
0.0
140
0.0
141
0.0
142
1.0
143
1.0
 70
  1712
 72
     0
 73
     0
 74
     0
  7

 75
     0
147
1.0
148
0.0
149
0.0
100
AcDbLayout
  1
Model
 70
     1
 71
     0
 10
0.0
 20
0.0
 11
12.0
 21
9.0
 12
0.0
 22
0.0
 32
0.0
 14
0.0
 24
0.0
 34
0.0
 15
0.0
 25
0.0
 35
0.0
146
0.0
 13
0.0
 23
0.0
 33
0.0
 16
1.0
 26
0.0
 36
0.0
 17
0.0
 27
1.0
 37
0.0
 76
     0
330
10FD6
331
114A3
  0
LAYOUT
  5
114FB
102
{ACAD_XDICTIONARY
360
11558
102
}
102
{ACAD_REACTORS
330
10FD1
102
}
330
10FD1
100
AcDbPlotSettings
  1

  2
Canon LBP9100C
  4

  6

 40
0.0
 41
0.0
 42
0.0
 43
0.0
 44
0.0
 45
0.0
 46
0.0
 47
0.0
 48
0.0
 49
0.0
140
0.0
141
0.0
142
1.0
143
1.0
 70
   688
 72
     0
 73
     0
 74
     5
  7

 75
    16
147
1.0
148
0.0
149
0.0
100
AcDbLayout
  1
レイアウト1
 70
     0
 71
     1
 10
0.0
 20
0.0
 11
420.0
 21
297.0
 12
0.0
 22
0.0
 32
0.0
 14
1.000000000000000E+20
 24
1.000000000000000E+20
 34
1.000000000000000E+20
 15
-1.000000000000000E+20
 25
-1.000000000000000E+20
 35
-1.000000000000000E+20
146
0.0
 13
0.0
 23
0.0
 33
0.0
 16
1.0
 26
0.0
 36
0.0
 17
0.0
 27
1.0
 37
0.0
 76
     0
330
10FD2
  0
MATERIAL
  5
114B6
102
{ACAD_XDICTIONARY
360
114B7
102
}
102
{ACAD_REACTORS
330
114AD
102
}
330
114AD
100
AcDbMaterial
  1
ByBlock
 72
     0
 43
0.0208333333333333
 43
0.0
 43
0.0
 43
0.0
 43
0.0
 43
0.0208333333333333
 43
0.0
 43
0.0
 43
0.0
 43
0.0
 43
1.0
 43
0.0
 43
0.0
 43
0.0
 43
0.0
 43
1.0
 77
     0
 47
0.0208333333333333
 47
0.0
 47
0.0
 47
0.0
 47
0.0
 47
0.0208333333333333
 47
0.0
 47
0.0
 47
0.0
 47
0.0
 47
1.0
 47
0.0
 47
0.0
 47
0.0
 47
0.0
 47
1.0
171
     0
 49
0.0208333333333333
 49
0.0
 49
0.0
 49
0.0
 49
0.0
 49
0.0208333333333333
 49
0.0
 49
0.0
 49
0.0
 49
0.0
 49
1.0
 49
0.0
 49
0.0
 49
0.0
 49
0.0
 49
1.0
175
     0
142
0.0208333333333333
142
0.0
142
0.0
142
0.0
142
0.0
142
0.0208333333333333
142
0.0
142
0.0
142
0.0
142
0.0
142
1.0
142
0.0
142
0.0
142
0.0
142
0.0
142
1.0
179
     0
144
0.0208333333333333
144
0.0
144
0.0
144
0.0
144
0.0
144
0.0208333333333333
144
0.0
144
0.0
144
0.0
144
0.0
144
1.0
144
0.0
144
0.0
144
0.0
144
0.0
144
1.0
147
0.0208333333333333
147
0.0
147
0.0
147
0.0
147
0.0
147
0.0208333333333333
147
0.0
147
0.0
147
0.0
147
0.0
147
1.0
147
0.0
147
0.0
147
0.0
147
0.0
147
1.0
  0
MATERIAL
  5
114AE
102
{ACAD_XDICTIONARY
360
114AF
102
}
102
{ACAD_REACTORS
330
114AD
102
}
330
114AD
100
AcDbMaterial
  1
ByLayer
 72
     0
 43
0.0208333333333333
 43
0.0
 43
0.0
 43
0.0
 43
0.0
 43
0.0208333333333333
 43
0.0
 43
0.0
 43
0.0
 43
0.0
 43
1.0
 43
0.0
 43
0.0
 43
0.0
 43
0.0
 43
1.0
 77
     0
 47
0.0208333333333333
 47
0.0
 47
0.0
 47
0.0
 47
0.0
 47
0.0208333333333333
 47
0.0
 47
0.0
 47
0.0
 47
0.0
 47
1.0
 47
0.0
 47
0.0
 47
0.0
 47
0.0
 47
1.0
171
     0
 49
0.0208333333333333
 49
0.0
 49
0.0
 49
0.0
 49
0.0
 49
0.0208333333333333
 49
0.0
 49
0.0
 49
0.0
 49
0.0
 49
1.0
 49
0.0
 49
0.0
 49
0.0
 49
0.0
 49
1.0
175
     0
142
0.0208333333333333
142
0.0
142
0.0
142
0.0
142
0.0
142
0.0208333333333333
142
0.0
142
0.0
142
0.0
142
0.0
142
1.0
142
0.0
142
0.0
142
0.0
142
0.0
142
1.0
179
     0
144
0.0208333333333333
144
0.0
144
0.0
144
0.0
144
0.0
144
0.0208333333333333
144
0.0
144
0.0
144
0.0
144
0.0
144
1.0
144
0.0
144
0.0
144
0.0
144
0.0
144
1.0
147
0.0208333333333333
147
0.0
147
0.0
147
0.0
147
0.0
147
0.0208333333333333
147
0.0
147
0.0
147
0.0
147
0.0
147
1.0
147
0.0
147
0.0
147
0.0
147
0.0
147
1.0
  0
MATERIAL
  5
114BE
102
{ACAD_XDICTIONARY
360
114BF
102
}
102
{ACAD_REACTORS
330
114AD
102
}
330
114AD
100
AcDbMaterial
  1
Global
 72
     0
 43
0.0208333333333333
 43
0.0
 43
0.0
 43
0.0
 43
0.0
 43
0.0208333333333333
 43
0.0
 43
0.0
 43
0.0
 43
0.0
 43
1.0
 43
0.0
 43
0.0
 43
0.0
 43
0.0
 43
1.0
 77
     0
 47
0.0208333333333333
 47
0.0
 47
0.0
 47
0.0
 47
0.0
 47
0.0208333333333333
 47
0.0
 47
0.0
 47
0.0
 47
0.0
 47
1.0
 47
0.0
 47
0.0
 47
0.0
 47
0.0
 47
1.0
171
     0
 49
0.0208333333333333
 49
0.0
 49
0.0
 49
0.0
 49
0.0
 49
0.0208333333333333
 49
0.0
 49
0.0
 49
0.0
 49
0.0
 49
1.0
 49
0.0
 49
0.0
 49
0.0
 49
0.0
 49
1.0
175
     0
142
0.0208333333333333
142
0.0
142
0.0
142
0.0
142
0.0
142
0.0208333333333333
142
0.0
142
0.0
142
0.0
142
0.0
142
1.0
142
0.0
142
0.0
142
0.0
142
0.0
142
1.0
179
     0
144
0.0208333333333333
144
0.0
144
0.0
144
0.0
144
0.0
144
0.0208333333333333
144
0.0
144
0.0
144
0.0
144
0.0
144
1.0
144
0.0
144
0.0
144
0.0
144
0.0
144
1.0
147
0.0208333333333333
147
0.0
147
0.0
147
0.0
147
0.0
147
0.0208333333333333
147
0.0
147
0.0
147
0.0
147
0.0
147
1.0
147
0.0
147
0.0
147
0.0
147
0.0
147
1.0
  0
MLEADERSTYLE
  5
114F5
102
{ACAD_REACTORS
330
114F4
102
}
330
114F4
100
AcDbMLeaderStyle
170
     2
171
     1
172
     0
 90
        2
 40
0.0
 41
0.0
173
     1
 91
-1056964608
340
10FCB
 92
       -2
290
     1
 42
0.09
291
     1
 43
0.36
  3
Standard
 44
0.18
300

342
10FC9
174
     1
178
     6
175
     1
176
     0
 93
-1056964608
 45
0.18
292
     0
297
     0
 46
0.18
 94
-1056964608
 47
1.0
 49
1.0
140
1.0
293
     1
141
0.0
294
     1
177
     0
142
1.0
295
     0
296
     0
143
0.125
1001
ACAD_MLEADERVER
1070
     2
  0
MLINESTYLE
  5
10FCF
102
{ACAD_REACTORS
330
10FCE
102
}
330
10FCE
100
AcDbMlineStyle
  2
STANDARD
 70
     0
  3

 62
   256
 51
90.0
 52
90.0
 71
     2
 49
0.5
 62
   256
  6
BYLAYER
 49
-0.5
 62
   256
  6
BYLAYER
  0
ACDBPLACEHOLDER
  5
114AC
102
{ACAD_REACTORS
330
114AB
102
}
330
114AB
  0
SCALE
  5
114E3
102
{ACAD_REACTORS
330
114E2
102
}
330
114E2
100
AcDbScale
 70
     0
300
1:1
140
1.0
141
1.0
290
     1
  0
SCALE
  5
114E4
102
{ACAD_REACTORS
330
114E2
102
}
330
114E2
100
AcDbScale
 70
     0
300
1/128" = 1'-0"
140
0.0078125
141
12.0
290
     0
  0
SCALE
  5
114E5
102
{ACAD_REACTORS
330
114E2
102
}
330
114E2
100
AcDbScale
 70
     0
300
1/64" = 1'-0"
140
0.015625
141
12.0
290
     0
  0
SCALE
  5
114E6
102
{ACAD_REACTORS
330
114E2
102
}
330
114E2
100
AcDbScale
 70
     0
300
1/32" = 1'-0"
140
0.03125
141
12.0
290
     0
  0
SCALE
  5
114E7
102
{ACAD_REACTORS
330
114E2
102
}
330
114E2
100
AcDbScale
 70
     0
300
1/16" = 1'-0"
140
0.0625
141
12.0
290
     0
  0
SCALE
  5
114E8
102
{ACAD_REACTORS
330
114E2
102
}
330
114E2
100
AcDbScale
 70
     0
300
3/32" = 1'-0"
140
0.09375
141
12.0
290
     0
  0
SCALE
  5
114E9
102
{ACAD_REACTORS
330
114E2
102
}
330
114E2
100
AcDbScale
 70
     0
300
1/8" = 1'-0"
140
0.125
141
12.0
290
     0
  0
SCALE
  5
114EA
102
{ACAD_REACTORS
330
114E2
102
}
330
114E2
100
AcDbScale
 70
     0
300
3/16" = 1'-0"
140
0.1875
141
12.0
290
     0
  0
SCALE
  5
114EB
102
{ACAD_REACTORS
330
114E2
102
}
330
114E2
100
AcDbScale
 70
     0
300
1/4" = 1'-0"
140
0.25
141
12.0
290
     0
  0
SCALE
  5
114EC
102
{ACAD_REACTORS
330
114E2
102
}
330
114E2
100
AcDbScale
 70
     0
300
3/8" = 1'-0"
140
0.375
141
12.0
290
     0
  0
SCALE
  5
114ED
102
{ACAD_REACTORS
330
114E2
102
}
330
114E2
100
AcDbScale
 70
     0
300
1/2" = 1'-0"
140
0.5
141
12.0
290
     0
  0
SCALE
  5
114EE
102
{ACAD_REACTORS
330
114E2
102
}
330
114E2
100
AcDbScale
 70
     0
300
3/4" = 1'-0"
140
0.75
141
12.0
290
     0
  0
SCALE
  5
114EF
102
{ACAD_REACTORS
330
114E2
102
}
330
114E2
100
AcDbScale
 70
     0
300
1" = 1'-0"
140
1.0
141
12.0
290
     0
  0
SCALE
  5
114F0
102
{ACAD_REACTORS
330
114E2
102
}
330
114E2
100
AcDbScale
 70
     0
300
1-1/2" = 1'-0"
140
1.5
141
12.0
290
     0
  0
SCALE
  5
114F1
102
{ACAD_REACTORS
330
114E2
102
}
330
114E2
100
AcDbScale
 70
     0
300
3" = 1'-0"
140
3.0
141
12.0
290
     0
  0
SCALE
  5
114F2
102
{ACAD_REACTORS
330
114E2
102
}
330
114E2
100
AcDbScale
 70
     0
300
6" = 1'-0"
140
6.0
141
12.0
290
     0
  0
SCALE
  5
114F3
102
{ACAD_REACTORS
330
114E2
102
}
330
114E2
100
AcDbScale
 70
     0
300
1'-0" = 1'-0"
140
12.0
141
12.0
290
     0
  0
ACDBSECTIONVIEWSTYLE
  5
114F7
102
{ACAD_XDICTIONARY
360
11552
102
}
102
{ACAD_REACTORS
330
114F6
102
}
330
114F6
100
AcDbModelDocViewStyle
 70
     0
  3
Imperial24
290
     0
100
AcDbSectionViewStyle
 70
     0
 71
     0
 90
       78
 71
     1
340
10FC9
 40
0.24
340
0
340
0
 40
0.24
300
I, O, Q, S, X, Z
 40
0.48
 90
        3
 40
0.18
 90
        1
 71
     2
340
10FCD
 90
       25
340
10FCD
 90
       50
 40
0.24
 40
0.0
 40
0.24
 71
     3
340
10FC9
 40
0.24
 90
        1
 40
0.75
 90
        1
300
%<\AcVar ViewType \f "%tc1">% %<\AcVar ViewSectionStartId>%-%<\AcVar ViewSectionEndId>%\PSCALE %<\AcVar ViewScale \f "%sn">%
 71
     4
300
ANSI31
 40
1.0
 90
        0
290
     0
290
     0
 90
        6
 40
0.0
 40
1.570796326794896
 40
0.2617993877991494
 40
1.308996938995747
 40
-0.2617993877991494
 40
1.832595714594046
  0
TABLESTYLE
  5
114E1
102
{ACAD_XDICTIONARY
360
11519
102
}
102
{ACAD_REACTORS
330
114E0
102
}
330
114E0
100
AcDbTableStyle
  3
Standard
 70
     0
 71
     0
 40
0.06
 41
0.06
280
     0
281
     0
  7
STANDARD
140
0.18
170
     2
 62
     0
 63
     7
283
     0
274
    -2
284
     1
 64
     0
275
    -2
285
     1
 65
     0
276
    -2
286
     1
 66
     0
277
    -2
287
     1
 67
     0
278
    -2
288
     1
 68
     0
279
    -2
289
     1
 69
     0
  7
STANDARD
140
0.25
170
     5
 62
     0
 63
     7
283
     0
274
    -2
284
     1
 64
     0
275
    -2
285
     1
 65
     0
276
    -2
286
     1
 66
     0
277
    -2
287
     1
 67
     0
278
    -2
288
     1
 68
     0
279
    -2
289
     1
 69
     0
  7
STANDARD
140
0.18
170
     5
 62
     0
 63
     7
283
     0
274
    -2
284
     1
 64
     0
275
    -2
285
     1
 65
     0
276
    -2
286
     1
 66
     0
277
    -2
287
     1
 67
     0
278
    -2
288
     1
 68
     0
279
    -2
289
     1
 69
     0
  0
VISUALSTYLE
  5
114CC
102
{ACAD_XDICTIONARY
360
1152A
102
}
102
{ACAD_REACTORS
330
114C6
102
}
330
114C6
100
AcDbVisualStyle
  2
2dWireframe
 70
     4
 71
     0
 72
     2
 73
     0
 90
        0
 40
-0.6
 41
-30.0
 62
     5
 63
     7
 74
     1
 91
        4
 64
     7
 65
   257
 75
     1
175
     1
 42
1.0
 92
        0
 66
   257
 43
1.0
 76
     1
 77
     6
 78
     2
 67
     7
 79
     5
170
     0
171
     0
290
     0
174
     0
 93
        1
 44
0.0
173
     0
291
     0
 45
0.0
1001
ACAD
1000
AcDbSavedByObjectVersion
1070
     0
  0
VISUALSTYLE
  5
114CB
102
{ACAD_XDICTIONARY
360
11528
102
}
102
{ACAD_REACTORS
330
114C6
102
}
330
114C6
100
AcDbVisualStyle
  2
Basic
 70
     7
 71
     1
 72
     0
 73
     1
 90
        0
 40
-0.6
 41
-30.0
 62
     5
 63
     7
 74
     0
 91
        4
 64
     7
 65
   257
 75
     1
175
     1
 42
1.0
 92
        8
 66
     7
 43
1.0
 76
     1
 77
     6
 78
     2
 67
     7
 79
     5
170
     0
171
     0
290
     0
174
     0
 93
        1
 44
0.0
173
     0
291
     1
 45
0.0
1001
ACAD
1000
AcDbSavedByObjectVersion
1070
     0
  0
VISUALSTYLE
  5
114D2
102
{ACAD_XDICTIONARY
360
11536
102
}
102
{ACAD_REACTORS
330
114C6
102
}
330
114C6
100
AcDbVisualStyle
  2
Brighten
 70
    12
 71
     2
 72
     2
 73
     0
 90
        0
 40
-0.6
 41
-30.0
 62
     5
 63
     7
 74
     1
 91
        4
 64
     7
 65
   257
 75
     1
175
     1
 42
1.0
 92
        8
 66
     7
 43
1.0
 76
     1
 77
     6
 78
     2
 67
     7
 79
     5
170
     0
171
     0
290
     0
174
     0
 93
        1
 44
50.0
173
     0
291
     1
 45
0.0
1001
ACAD
1000
AcDbSavedByObjectVersion
1070
     0
  0
VISUALSTYLE
  5
114D6
102
{ACAD_XDICTIONARY
360
1153E
102
}
102
{ACAD_REACTORS
330
114C6
102
}
330
114C6
100
AcDbVisualStyle
  2
ColorChange
 70
    16
 71
     2
 72
     2
 73
     3
 90
        0
 40
-0.6
 41
-30.0
 62
     5
 63
     8
 74
     1
 91
        4
 64
     7
 65
   257
 75
     1
175
     1
 42
1.0
 92
        8
 66
     8
 43
1.0
 76
     1
 77
     6
 78
     2
 67
     7
 79
     5
170
     0
171
     0
290
     0
174
     0
 93
        1
 44
0.0
173
     0
291
     1
 45
0.0
1001
ACAD
1000
AcDbSavedByObjectVersion
1070
     0
  0
VISUALSTYLE
  5
114CF
102
{ACAD_XDICTIONARY
360
11530
102
}
102
{ACAD_REACTORS
330
114C6
102
}
330
114C6
100
AcDbVisualStyle
  2
Conceptual
 70
     9
 71
     3
 72
     2
 73
     0
 90
        0
 40
-0.6
 41
-30.0
 62
     5
 63
     7
 74
     2
 91
        2
 64
     7
 65
   257
 75
     1
175
     1
 42
179.0
 92
        8
 66
     7
 43
1.0
 76
     1
 77
     6
 78
     2
 67
     7
 79
     3
170
     0
171
     0
290
     0
174
     0
 93
        1
 44
0.0
173
     0
291
     0
 45
0.0
1001
ACAD
1000
AcDbSavedByObjectVersion
1070
     0
  0
VISUALSTYLE
  5
114D1
102
{ACAD_XDICTIONARY
360
11534
102
}
102
{ACAD_REACTORS
330
114C6
102
}
330
114C6
100
AcDbVisualStyle
  2
Dim
 70
    11
 71
     2
 72
     2
 73
     0
 90
        0
 40
-0.6
 41
-30.0
 62
     5
 63
     7
 74
     1
 91
        4
 64
     7
 65
   257
 75
     1
175
     1
 42
1.0
 92
        8
 66
     7
 43
1.0
 76
     1
 77
     6
 78
     2
 67
     7
 79
     5
170
     0
171
     0
290
     0
174
     0
 93
        1
 44
-50.0
173
     0
291
     1
 45
0.0
1001
ACAD
1000
AcDbSavedByObjectVersion
1070
     0
  0
VISUALSTYLE
  5
114DE
102
{ACAD_XDICTIONARY
360
1154E
102
}
102
{ACAD_REACTORS
330
114C6
102
}
330
114C6
100
AcDbVisualStyle
  2
EdgeColorOff
 70
    22
 71
     2
 72
     2
 73
     0
 90
        0
 40
-0.6
 41
-30.0
 62
     5
 63
     7
 74
     1
 91
        4
 64
     7
 65
   257
 75
     1
175
     1
 42
1.0
 92
        8
 66
     7
 43
1.0
 76
     1
 77
     6
 78
     2
 67
     7
 79
     5
170
     0
171
     0
290
     0
174
     0
 93
        1
 44
0.0
173
     0
291
     1
 45
0.0
1001
ACAD
1000
AcDbSavedByObjectVersion
1070
     0
  0
VISUALSTYLE
  5
114D5
102
{ACAD_XDICTIONARY
360
1153C
102
}
102
{ACAD_REACTORS
330
114C6
102
}
330
114C6
100
AcDbVisualStyle
  2
Facepattern
 70
    15
 71
     2
 72
     2
 73
     0
 90
        0
 40
-0.6
 41
-30.0
 62
     5
 63
     7
 74
     1
 91
        4
 64
     7
 65
   257
 75
     1
175
     1
 42
1.0
 92
        8
 66
     7
 43
1.0
 76
     1
 77
     6
 78
     2
 67
     7
 79
     5
170
     0
171
     0
290
     0
174
     0
 93
        1
 44
0.0
173
     0
291
     1
 45
0.0
1001
ACAD
1000
AcDbSavedByObjectVersion
1070
     0
  0
VISUALSTYLE
  5
114C7
102
{ACAD_XDICTIONARY
360
11520
102
}
102
{ACAD_REACTORS
330
114C6
102
}
330
114C6
100
AcDbVisualStyle
  2
Flat
 70
     0
 71
     2
 72
     1
 73
     1
 90
        2
 40
-0.6
 41
30.0
 62
     5
 63
     7
 74
     0
 91
        0
 64
     7
 65
   257
 75
     1
175
     1
 42
1.0
 92
        8
 66
     7
 43
1.0
 76
     1
 77
     6
 78
     2
 67
     7
 79
     5
170
     0
171
     0
290
     0
174
     0
 93
       13
 44
0.0
173
     0
291
     1
 45
0.0
1001
ACAD
1000
AcDbSavedByObjectVersion
1070
     0
  0
VISUALSTYLE
  5
114C8
102
{ACAD_XDICTIONARY
360
11522
102
}
102
{ACAD_REACTORS
330
114C6
102
}
330
114C6
100
AcDbVisualStyle
  2
FlatWithEdges
 70
     1
 71
     2
 72
     1
 73
     1
 90
        2
 40
-0.6
 41
30.0
 62
     5
 63
     7
 74
     1
 91
        0
 64
     7
 65
   257
 75
     1
175
     1
 42
1.0
 92
        0
 66
   257
 43
1.0
 76
     1
 77
     6
 78
     2
 67
     7
 79
     5
170
     0
171
     0
290
     0
174
     0
 93
       13
 44
0.0
173
     0
291
     1
 45
0.0
1001
ACAD
1000
AcDbSavedByObjectVersion
1070
     0
  0
VISUALSTYLE
  5
114C9
102
{ACAD_XDICTIONARY
360
11524
102
}
102
{ACAD_REACTORS
330
114C6
102
}
330
114C6
100
AcDbVisualStyle
  2
Gouraud
 70
     2
 71
     2
 72
     2
 73
     1
 90
        2
 40
-0.6
 41
30.0
 62
     5
 63
     7
 74
     0
 91
        0
 64
     7
 65
   257
 75
     1
175
     1
 42
1.0
 92
        0
 66
     7
 43
1.0
 76
     1
 77
     6
 78
     2
 67
     7
 79
     5
170
     0
171
     0
290
     0
174
     0
 93
       13
 44
0.0
173
     0
291
     1
 45
0.0
1001
ACAD
1000
AcDbSavedByObjectVersion
1070
     0
  0
VISUALSTYLE
  5
114CA
102
{ACAD_XDICTIONARY
360
11526
102
}
102
{ACAD_REACTORS
330
114C6
102
}
330
114C6
100
AcDbVisualStyle
  2
GouraudWithEdges
 70
     3
 71
     2
 72
     2
 73
     1
 90
        2
 40
-0.6
 41
30.0
 62
     5
 63
     7
 74
     1
 91
        0
 64
     7
 65
   257
 75
     1
175
     1
 42
1.0
 92
        0
 66
   257
 43
1.0
 76
     1
 77
     6
 78
     2
 67
     7
 79
     5
170
     0
171
     0
290
     0
174
     0
 93
       13
 44
0.0
173
     0
291
     1
 45
0.0
1001
ACAD
1000
AcDbSavedByObjectVersion
1070
     0
  0
VISUALSTYLE
  5
114CE
102
{ACAD_XDICTIONARY
360
1152E
102
}
102
{ACAD_REACTORS
330
114C6
102
}
330
114C6
100
AcDbVisualStyle
  2
Hidden
 70
     6
 71
     1
 72
     2
 73
     2
 90
        0
 40
-0.6
 41
-30.0
 62
     5
 63
     7
 74
     2
 91
        2
 64
     7
 65
   257
 75
     2
175
     1
 42
40.0
 92
        0
 66
   257
 43
1.0
 76
     1
 77
     6
 78
     2
 67
     7
 79
     3
170
     0
171
     0
290
     0
174
     0
 93
        1
 44
0.0
173
     0
291
     0
 45
0.0
1001
ACAD
1000
AcDbSavedByObjectVersion
1070
     0
  0
VISUALSTYLE
  5
114DC
102
{ACAD_XDICTIONARY
360
1154A
102
}
102
{ACAD_REACTORS
330
114C6
102
}
330
114C6
100
AcDbVisualStyle
  2
JitterOff
 70
    20
 71
     2
 72
     2
 73
     0
 90
        0
 40
-0.6
 41
-30.0
 62
     5
 63
     7
 74
     1
 91
        4
 64
     7
 65
   257
 75
     1
175
     1
 42
1.0
 92
       10
 66
     7
 43
1.0
 76
     1
 77
     6
 78
     2
 67
     7
 79
     5
170
     0
171
     0
290
     0
174
     0
 93
        1
 44
0.0
173
     0
291
     1
 45
0.0
1001
ACAD
1000
AcDbSavedByObjectVersion
1070
     0
  0
VISUALSTYLE
  5
114D4
102
{ACAD_XDICTIONARY
360
1153A
102
}
102
{ACAD_REACTORS
330
114C6
102
}
330
114C6
100
AcDbVisualStyle
  2
Linepattern
 70
    14
 71
     2
 72
     2
 73
     0
 90
        0
 40
-0.6
 41
-30.0
 62
     5
 63
     7
 74
     1
 91
        4
 64
     7
 65
   257
 75
     7
175
     7
 42
1.0
 92
        8
 66
     7
 43
1.0
 76
     1
 77
     6
 78
     2
 67
     7
 79
     5
170
     0
171
     0
290
     0
174
     0
 93
        1
 44
0.0
173
     0
291
     1
 45
0.0
1001
ACAD
1000
AcDbSavedByObjectVersion
1070
     0
  0
VISUALSTYLE
  5
114DD
102
{ACAD_XDICTIONARY
360
1154C
102
}
102
{ACAD_REACTORS
330
114C6
102
}
330
114C6
100
AcDbVisualStyle
  2
OverhangOff
 70
    21
 71
     2
 72
     2
 73
     0
 90
        0
 40
-0.6
 41
-30.0
 62
     5
 63
     7
 74
     1
 91
        4
 64
     7
 65
   257
 75
     1
175
     1
 42
1.0
 92
        9
 66
     7
 43
1.0
 76
     1
 77
     6
 78
     2
 67
     7
 79
     5
170
     0
171
     0
290
     0
174
     0
 93
        1
 44
0.0
173
     0
291
     1
 45
0.0
1001
ACAD
1000
AcDbSavedByObjectVersion
1070
     0
  0
VISUALSTYLE
  5
114D0
102
{ACAD_XDICTIONARY
360
11532
102
}
102
{ACAD_REACTORS
330
114C6
102
}
330
114C6
100
AcDbVisualStyle
  2
Realistic
 70
     8
 71
     2
 72
     3
 73
     0
 90
        2
 40
-0.6
 41
30.0
 62
     5
 63
     7
 74
     0
 91
        0
 64
     7
 65
   257
 75
     1
175
     1
 42
1.0
 92
        8
 66
   257
 43
1.0
 76
     1
 77
     6
 78
     2
 67
     7
 79
     3
170
     0
171
     0
290
     0
174
     0
 93
       13
 44
0.0
173
     0
291
     0
 45
0.0
1001
ACAD
1000
AcDbSavedByObjectVersion
1070
     0
  0
VISUALSTYLE
  5
114DB
102
{ACAD_XDICTIONARY
360
11548
102
}
102
{ACAD_REACTORS
330
114C6
102
}
330
114C6
100
AcDbVisualStyle
  2
Shaded
 70
    27
 71
     2
 72
     2
 73
     1
 90
        2
 40
-0.6
 41
30.0
 62
     5
 63
     7
 74
     0
 91
        4
 64
     7
 65
   257
 75
     1
175
     1
 42
1.0
 92
        8
 66
   257
 43
1.0
 76
     1
 77
     6
 78
     2
 67
     8
 79
     3
170
     0
171
     0
290
     0
174
     0
 93
        5
 44
0.0
173
     0
291
     0
 45
0.0
1001
ACAD
1000
AcDbSavedByObjectVersion
1070
     0
  0
VISUALSTYLE
  5
114DA
102
{ACAD_XDICTIONARY
360
11546
102
}
102
{ACAD_REACTORS
330
114C6
102
}
330
114C6
100
AcDbVisualStyle
  2
Shaded with edges
 70
    26
 71
     2
 72
     2
 73
     1
 90
        2
 40
-0.6
 41
30.0
 62
     5
 63
     7
 74
     1
 91
       10
 64
     7
 65
   257
 75
     2
175
     1
 42
1.0
 92
        8
 66
   257
 43
1.0
 76
     1
 77
     6
 78
     2
 67
     7
 79
     3
170
     0
171
     0
290
     0
174
     0
 93
        5
 44
0.0
173
     0
291
     0
 45
0.0
1001
ACAD
1000
AcDbSavedByObjectVersion
1070
     0
  0
VISUALSTYLE
  5
114D7
102
{ACAD_XDICTIONARY
360
11540
102
}
102
{ACAD_REACTORS
330
114C6
102
}
330
114C6
100
AcDbVisualStyle
  2
Shades of Gray
 70
    23
 71
     2
 72
     2
 73
     3
 90
        0
 40
-0.6
 41
-30.0
 62
     5
 63
     7
 74
     2
 91
        2
 64
     7
 65
     7
 75
     1
175
     1
 42
40.0
 92
        8
 66
     7
 43
1.0
 76
     1
 77
     6
 78
     2
 67
     7
 79
     3
170
     0
171
     0
290
     0
174
     0
 93
        1
 44
0.0
173
     0
291
     0
 45
0.0
1001
ACAD
1000
AcDbSavedByObjectVersion
1070
     0
  0
VISUALSTYLE
  5
114D8
102
{ACAD_XDICTIONARY
360
11542
102
}
102
{ACAD_REACTORS
330
114C6
102
}
330
114C6
100
AcDbVisualStyle
  2
Sketchy
 70
    24
 71
     1
 72
     2
 73
     2
 90
        0
 40
-0.6
 41
-30.0
 62
     5
 63
     7
 74
     2
 91
        2
 64
     7
 65
     7
 75
     1
175
     1
 42
40.0
 92
       11
 66
     7
 43
1.0
 76
     1
 77
     6
 78
     2
 67
     7
 79
     6
170
     0
171
     0
290
     0
174
     0
 93
        1
 44
0.0
173
     0
291
     0
 45
0.0
1001
ACAD
1000
AcDbSavedByObjectVersion
1070
     0
  0
VISUALSTYLE
  5
114D3
102
{ACAD_XDICTIONARY
360
11538
102
}
102
{ACAD_REACTORS
330
114C6
102
}
330
114C6
100
AcDbVisualStyle
  2
Thicken
 70
    13
 71
     2
 72
     2
 73
     0
 90
        0
 40
-0.6
 41
-30.0
 62
     5
 63
     7
 74
     1
 91
        4
 64
     7
 65
   257
 75
     1
175
     1
 42
1.0
 92
       12
 66
     7
 43
1.0
 76
     1
 77
     6
 78
     2
 67
     7
 79
     5
170
     0
171
     0
290
     0
174
     0
 93
        1
 44
0.0
173
     0
291
     1
 45
0.0
1001
ACAD
1000
AcDbSavedByObjectVersion
1070
     0
  0
VISUALSTYLE
  5
114CD
102
{ACAD_XDICTIONARY
360
1152C
102
}
102
{ACAD_REACTORS
330
114C6
102
}
330
114C6
100
AcDbVisualStyle
  2
Wireframe
 70
     5
 71
     0
 72
     2
 73
     0
 90
        0
 40
-0.6
 41
-30.0
 62
     5
 63
     7
 74
     1
 91
        4
 64
     7
 65
   257
 75
     1
175
     1
 42
1.0
 92
        0
 66
   257
 43
1.0
 76
     1
 77
     6
 78
     2
 67
     7
 79
     3
170
     0
171
     0
290
     0
174
     0
 93
        1
 44
0.0
173
     0
291
     0
 45
0.0
1001
ACAD
1000
AcDbSavedByObjectVersion
1070
     0
  0
VISUALSTYLE
  5
114D9
102
{ACAD_XDICTIONARY
360
11544
102
}
102
{ACAD_REACTORS
330
114C6
102
}
330
114C6
100
AcDbVisualStyle
  2
X-Ray
 70
    25
 71
     2
 72
     2
 73
     1
 90
        1
 40
0.5
 41
-30.0
 62
     5
 63
     7
 74
     1
 91
        0
 64
     7
 65
   257
 75
     1
175
     1
 42
1.0
 92
        8
 66
     7
 43
1.0
 76
     1
 77
     6
 78
     2
 67
     7
 79
     3
170
     0
171
     0
290
     0
174
     0
 93
       13
 44
0.0
173
     0
291
     0
 45
0.0
1001
ACAD
1000
AcDbSavedByObjectVersion
1070
     0
  0
DICTIONARYVAR
  5
11513
102
{ACAD_REACTORS
330
1150E
102
}
330
1150E
100
DictionaryVariables
280
     0
  1
1:1
  0
DICTIONARYVAR
  5
11510
102
{ACAD_REACTORS
330
1150E
102
}
330
1150E
100
DictionaryVariables
280
     0
  1
STANDARD
  0
DICTIONARYVAR
  5
1150F
102
{ACAD_REACTORS
330
1150E
102
}
330
1150E
100
DictionaryVariables
280
     0
  1
STANDARD
  0
DICTIONARYVAR
  5
11511
102
{ACAD_REACTORS
330
1150E
102
}
330
1150E
100
DictionaryVariables
280
     0
  1
Imperial24
  0
DICTIONARYVAR
  5
11512
102
{ACAD_REACTORS
330
1150E
102
}
330
1150E
100
DictionaryVariables
280
     0
  1
Imperial24
  0
DICTIONARYVAR
  5
11516
102
{ACAD_REACTORS
330
1150E
102
}
330
1150E
100
DictionaryVariables
280
     0
  1
1
  0
DICTIONARYVAR
  5
11515
102
{ACAD_REACTORS
330
1150E
102
}
330
1150E
100
DictionaryVariables
280
     0
  1
0
  0
DICTIONARYVAR
  5
11514
102
{ACAD_REACTORS
330
1150E
102
}
330
1150E
100
DictionaryVariables
280
     0
  1
127
  0
DICTIONARYVAR
  5
11517
102
{ACAD_REACTORS
330
1150E
102
}
330
1150E
100
DictionaryVariables
280
     0
  1
2
  0
DICTIONARY
  5
11554
330
114F9
100
AcDbDictionary
280
     1
281
     1
  3
ACAD_XREC_ROUNDTRIP
360
11555
  0
DICTIONARY
  5
11556
330
114FA
100
AcDbDictionary
280
     1
281
     1
  3
ACAD_XREC_ROUNDTRIP
360
11557
  0
DICTIONARY
  5
11558
330
114FB
100
AcDbDictionary
280
     1
281
     1
  3
ACAD_XREC_ROUNDTRIP
360
11559
  0
DICTIONARY
  5
114B7
330
114B6
100
AcDbDictionary
280
     1
281
     1
  3
ACAD_XREC_ROUNDTRIP
360
1151E
  3
BUMPTILE
360
114B9
  3
DIFFUSETILE
360
114B8
  3
OPACITYTILE
360
114BC
  3
REFLECTIONTILE
360
114BB
  3
REFRACTIONTILE
360
114BD
  3
SPECULARTILE
360
114BA
  0
DICTIONARY
  5
114AF
330
114AE
100
AcDbDictionary
280
     1
281
     1
  3
ACAD_XREC_ROUNDTRIP
360
1151D
  3
BUMPTILE
360
114B1
  3
DIFFUSETILE
360
114B0
  3
OPACITYTILE
360
114B4
  3
REFLECTIONTILE
360
114B3
  3
REFRACTIONTILE
360
114B5
  3
SPECULARTILE
360
114B2
  0
DICTIONARY
  5
114BF
330
114BE
100
AcDbDictionary
280
     1
281
     1
  3
ACAD_XREC_ROUNDTRIP
360
1151F
  3
BUMPTILE
360
114C1
  3
DIFFUSETILE
360
114C0
  3
OPACITYTILE
360
114C4
  3
REFLECTIONTILE
360
114C3
  3
REFRACTIONTILE
360
114C5
  3
SPECULARTILE
360
114C2
  0
DICTIONARY
  5
11552
330
114F7
100
AcDbDictionary
280
     1
281
     1
  3
ACAD_XREC_ROUNDTRIP
360
11553
  0
DICTIONARY
  5
11519
330
114E1
100
AcDbDictionary
280
     1
281
     1
  3
ACAD_ROUNDTRIP_2008_TABLESTYLE_CELLSTYLEMAP
360
1151A
  3
ACAD_XREC_ROUNDTRIP
360
11550
  0
DICTIONARY
  5
1152A
330
114CC
100
AcDbDictionary
280
     1
281
     1
  3
ACAD_XREC_ROUNDTRIP
360
1152B
  0
DICTIONARY
  5
11528
330
114CB
100
AcDbDictionary
280
     1
281
     1
  3
ACAD_XREC_ROUNDTRIP
360
11529
  0
DICTIONARY
  5
11536
330
114D2
100
AcDbDictionary
280
     1
281
     1
  3
ACAD_XREC_ROUNDTRIP
360
11537
  0
DICTIONARY
  5
1153E
330
114D6
100
AcDbDictionary
280
     1
281
     1
  3
ACAD_XREC_ROUNDTRIP
360
1153F
  0
DICTIONARY
  5
11530
330
114CF
100
AcDbDictionary
280
     1
281
     1
  3
ACAD_XREC_ROUNDTRIP
360
11531
  0
DICTIONARY
  5
11534
330
114D1
100
AcDbDictionary
280
     1
281
     1
  3
ACAD_XREC_ROUNDTRIP
360
11535
  0
DICTIONARY
  5
1154E
330
114DE
100
AcDbDictionary
280
     1
281
     1
  3
ACAD_XREC_ROUNDTRIP
360
1154F
  0
DICTIONARY
  5
1153C
330
114D5
100
AcDbDictionary
280
     1
281
     1
  3
ACAD_XREC_ROUNDTRIP
360
1153D
  0
DICTIONARY
  5
11520
330
114C7
100
AcDbDictionary
280
     1
281
     1
  3
ACAD_XREC_ROUNDTRIP
360
11521
  0
DICTIONARY
  5
11522
330
114C8
100
AcDbDictionary
280
     1
281
     1
  3
ACAD_XREC_ROUNDTRIP
360
11523
  0
DICTIONARY
  5
11524
330
114C9
100
AcDbDictionary
280
     1
281
     1
  3
ACAD_XREC_ROUNDTRIP
360
11525
  0
DICTIONARY
  5
11526
330
114CA
100
AcDbDictionary
280
     1
281
     1
  3
ACAD_XREC_ROUNDTRIP
360
11527
  0
DICTIONARY
  5
1152E
330
114CE
100
AcDbDictionary
280
     1
281
     1
  3
ACAD_XREC_ROUNDTRIP
360
1152F
  0
DICTIONARY
  5
1154A
330
114DC
100
AcDbDictionary
280
     1
281
     1
  3
ACAD_XREC_ROUNDTRIP
360
1154B
  0
DICTIONARY
  5
1153A
330
114D4
100
AcDbDictionary
280
     1
281
     1
  3
ACAD_XREC_ROUNDTRIP
360
1153B
  0
DICTIONARY
  5
1154C
330
114DD
100
AcDbDictionary
280
     1
281
     1
  3
ACAD_XREC_ROUNDTRIP
360
1154D
  0
DICTIONARY
  5
11532
330
114D0
100
AcDbDictionary
280
     1
281
     1
  3
ACAD_XREC_ROUNDTRIP
360
11533
  0
DICTIONARY
  5
11548
330
114DB
100
AcDbDictionary
280
     1
281
     1
  3
ACAD_XREC_ROUNDTRIP
360
11549
  0
DICTIONARY
  5
11546
330
114DA
100
AcDbDictionary
280
     1
281
     1
  3
ACAD_XREC_ROUNDTRIP
360
11547
  0
DICTIONARY
  5
11540
330
114D7
100
AcDbDictionary
280
     1
281
     1
  3
ACAD_XREC_ROUNDTRIP
360
11541
  0
DICTIONARY
  5
11542
330
114D8
100
AcDbDictionary
280
     1
281
     1
  3
ACAD_XREC_ROUNDTRIP
360
11543
  0
DICTIONARY
  5
11538
330
114D3
100
AcDbDictionary
280
     1
281
     1
  3
ACAD_XREC_ROUNDTRIP
360
11539
  0
DICTIONARY
  5
1152C
330
114CD
100
AcDbDictionary
280
     1
281
     1
  3
ACAD_XREC_ROUNDTRIP
360
1152D
  0
DICTIONARY
  5
11544
330
114D9
100
AcDbDictionary
280
     1
281
     1
  3
ACAD_XREC_ROUNDTRIP
360
11545
  0
XRECORD
  5
11555
102
{ACAD_REACTORS
330
11554
102
}
330
11554
100
AcDbXrecord
280
     1
102
DISPLAYNAME
  1
Imperial24
102
FLAGS
 90
        0
  0
XRECORD
  5
11557
102
{ACAD_REACTORS
330
11556
102
}
330
11556
100
AcDbXrecord
280
     1
102
SHADEPLOT
 70
     0
102
SHADEPLOTRESLEVEL
 70
     2
102
SHADEPLOTCUSTOMDPI
 70
   300
  0
XRECORD
  5
11559
102
{ACAD_REACTORS
330
11558
102
}
330
11558
100
AcDbXrecord
280
     1
102
SHADEPLOT
 70
     0
102
SHADEPLOTRESLEVEL
 70
     2
102
SHADEPLOTCUSTOMDPI
 70
   300
  0
XRECORD
  5
1151E
102
{ACAD_REACTORS
330
114B7
102
}
330
114B7
100
AcDbXrecord
280
     1
102
MATERIAL
148
0.0
149
0.0
149
0.0
 93
        0
 94
      127
282
     0
 72
     0
 77
     0
171
     0
175
     0
179
     0
273
     0
  0
XRECORD
  5
114B9
102
{ACAD_REACTORS
330
114B7
102
}
330
114B7
100
AcDbXrecord
280
     1
270
     1
271
     1
  0
XRECORD
  5
114B8
102
{ACAD_REACTORS
330
114B7
102
}
330
114B7
100
AcDbXrecord
280
     1
270
     1
271
     1
  0
XRECORD
  5
114BC
102
{ACAD_REACTORS
330
114B7
102
}
330
114B7
100
AcDbXrecord
280
     1
270
     1
271
     1
  0
XRECORD
  5
114BB
102
{ACAD_REACTORS
330
114B7
102
}
330
114B7
100
AcDbXrecord
280
     1
270
     1
271
     1
  0
XRECORD
  5
114BD
102
{ACAD_REACTORS
330
114B7
102
}
330
114B7
100
AcDbXrecord
280
     1
270
     1
271
     1
  0
XRECORD
  5
114BA
102
{ACAD_REACTORS
330
114B7
102
}
330
114B7
100
AcDbXrecord
280
     1
270
     1
271
     1
  0
XRECORD
  5
1151D
102
{ACAD_REACTORS
330
114AF
102
}
330
114AF
100
AcDbXrecord
280
     1
102
MATERIAL
148
0.0
149
0.0
149
0.0
 93
        0
 94
      127
282
     0
 72
     0
 77
     0
171
     0
175
     0
179
     0
273
     0
  0
XRECORD
  5
114B1
102
{ACAD_REACTORS
330
114AF
102
}
330
114AF
100
AcDbXrecord
280
     1
270
     1
271
     1
  0
XRECORD
  5
114B0
102
{ACAD_REACTORS
330
114AF
102
}
330
114AF
100
AcDbXrecord
280
     1
270
     1
271
     1
  0
XRECORD
  5
114B4
102
{ACAD_REACTORS
330
114AF
102
}
330
114AF
100
AcDbXrecord
280
     1
270
     1
271
     1
  0
XRECORD
  5
114B3
102
{ACAD_REACTORS
330
114AF
102
}
330
114AF
100
AcDbXrecord
280
     1
270
     1
271
     1
  0
XRECORD
  5
114B5
102
{ACAD_REACTORS
330
114AF
102
}
330
114AF
100
AcDbXrecord
280
     1
270
     1
271
     1
  0
XRECORD
  5
114B2
102
{ACAD_REACTORS
330
114AF
102
}
330
114AF
100
AcDbXrecord
280
     1
270
     1
271
     1
  0
XRECORD
  5
1151F
102
{ACAD_REACTORS
330
114BF
102
}
330
114BF
100
AcDbXrecord
280
     1
102
MATERIAL
148
0.0
149
0.0
149
0.0
 93
        0
 94
      127
282
     0
 72
     0
 77
     0
171
     0
175
     0
179
     0
273
     0
  0
XRECORD
  5
114C1
102
{ACAD_REACTORS
330
114BF
102
}
330
114BF
100
AcDbXrecord
280
     1
270
     1
271
     1
  0
XRECORD
  5
114C0
102
{ACAD_REACTORS
330
114BF
102
}
330
114BF
100
AcDbXrecord
280
     1
270
     1
271
     1
  0
XRECORD
  5
114C4
102
{ACAD_REACTORS
330
114BF
102
}
330
114BF
100
AcDbXrecord
280
     1
270
     1
271
     1
  0
XRECORD
  5
114C3
102
{ACAD_REACTORS
330
114BF
102
}
330
114BF
100
AcDbXrecord
280
     1
270
     1
271
     1
  0
XRECORD
  5
114C5
102
{ACAD_REACTORS
330
114BF
102
}
330
114BF
100
AcDbXrecord
280
     1
270
     1
271
     1
  0
XRECORD
  5
114C2
102
{ACAD_REACTORS
330
114BF
102
}
330
114BF
100
AcDbXrecord
280
     1
270
     1
271
     1
  0
XRECORD
  5
11553
102
{ACAD_REACTORS
330
11552
102
}
330
11552
100
AcDbXrecord
280
     1
102
DISPLAYNAME
  1
Imperial24
102
FLAGS
 90
        0
  0
CELLSTYLEMAP
  5
1151A
102
{ACAD_REACTORS
330
11519
102
}
330
11519
100
AcDbCellStyleMap
 90
        3
300
CELLSTYLE
  1
TABLEFORMAT_BEGIN
 90
        5
170
     1
 91
        0
 92
    32768
 62
   257
 93
        1
300
CONTENTFORMAT
  1
CONTENTFORMAT_BEGIN
 90
        0
 91
        0
 92
      512
 93
        0
300

 40
0.0
140
1.0
 94
        5
 62
     0
340
10FC9
144
0.25
309
CONTENTFORMAT_END
171
     0
 94
        0
309
TABLEFORMAT_END
  1
CELLSTYLE_BEGIN
 90
        1
 91
        1
300
_TITLE
309
CELLSTYLE_END
300
CELLSTYLE
  1
TABLEFORMAT_BEGIN
 90
        5
170
     1
 91
        0
 92
        0
 62
   257
 93
        1
300
CONTENTFORMAT
  1
CONTENTFORMAT_BEGIN
 90
        0
 91
        0
 92
      512
 93
        0
300

 40
0.0
140
1.0
 94
        5
 62
     0
340
10FC9
144
0.18
309
CONTENTFORMAT_END
171
     0
 94
        0
309
TABLEFORMAT_END
  1
CELLSTYLE_BEGIN
 90
        2
 91
        1
300
_HEADER
309
CELLSTYLE_END
300
CELLSTYLE
  1
TABLEFORMAT_BEGIN
 90
        5
170
     1
 91
        0
 92
        0
 62
   257
 93
        1
300
CONTENTFORMAT
  1
CONTENTFORMAT_BEGIN
 90
        0
 91
        0
 92
      512
 93
        0
300

 40
0.0
140
1.0
 94
        2
 62
     0
340
10FC9
144
0.18
309
CONTENTFORMAT_END
171
     0
 94
        0
309
TABLEFORMAT_END
  1
CELLSTYLE_BEGIN
 90
        3
 91
        2
300
_DATA
309
CELLSTYLE_END
  0
XRECORD
  5
11550
102
{ACAD_REACTORS
330
11519
102
}
330
11519
100
AcDbXrecord
280
     1
102
ACAD_ROUNDTRIP_PRE2007_TABLESTYLE
 90
      512
 91
        0
  1

 92
      512
 93
        0
  2

 94
      512
 95
        0
  3

  0
XRECORD
  5
1152B
102
{ACAD_REACTORS
330
1152A
102
}
330
1152A
100
AcDbXrecord
280
     1
102
RTVSPost2010Prop28
280
     1
102
RTVSPost2010PropOp28
 70
     1
102
RTVSPost2010Prop29
280
     1
102
RTVSPost2010PropOp29
 70
     1
102
RTVSPost2010Prop30
280
     0
102
RTVSPost2010PropOp30
 70
     1
102
RTVSPost2010Prop31
280
     0
102
RTVSPost2010PropOp31
 70
     1
102
RTVSPost2010Prop32
280
     0
102
RTVSPost2010PropOp32
 70
     1
102
RTVSPost2010Prop33
280
     0
102
RTVSPost2010PropOp33
 70
     1
102
RTVSPost2010Prop34
280
     0
102
RTVSPost2010PropOp34
 70
     1
102
RTVSPost2010Prop35
280
     0
102
RTVSPost2010PropOp35
 70
     1
102
RTVSPost2010Prop36
280
     0
102
RTVSPost2010PropOp36
 70
     1
102
RTVSPost2010Prop37
 90
       50
102
RTVSPost2010PropOp37
 70
     1
102
RTVSPost2010Prop38
140
0.0
102
RTVSPost2010PropOp38
 70
     1
102
RTVSPost2010Prop39
140
1.0
102
RTVSPost2010PropOp39
 70
     1
102
RTVSPost2010Prop40
 90
        0
102
RTVSPost2010PropOp40
 70
     1
102
RTVSPost2010Prop41ColorIndex
 90
       18
102
RTVSPost2010Prop41ColorRGB
 90
        0
102
RTVSPost2010PropOp41
 70
     1
102
RTVSPost2010Prop42
 90
       50
102
RTVSPost2010PropOp42
 70
     1
102
RTVSPost2010Prop43
 90
        3
102
RTVSPost2010PropOp43
 70
     1
102
RTVSPost2010Prop44ColorIndex
 90
        5
102
RTVSPost2010Prop44ColorRGB
 90
      255
102
RTVSPost2010PropOp44
 70
     1
102
RTVSPost2010Prop45
280
     0
102
RTVSPost2010PropOp45
 70
     1
102
RTVSPost2010Prop46
 90
       50
102
RTVSPost2010PropOp46
 70
     1
102
RTVSPost2010Prop47
 90
       50
102
RTVSPost2010PropOp47
 70
     1
102
RTVSPost2010Prop48
 90
       50
102
RTVSPost2010PropOp48
 70
     1
102
RTVSPost2010Prop49
280
     0
102
RTVSPost2010PropOp49
 70
     1
102
RTVSPost2010Prop50
 90
       50
102
RTVSPost2010PropOp50
 70
     1
102
RTVSPost2010Prop51ColorIndex
 90
      256
102
RTVSPost2010Prop51ColorRGB
 90
-16777216
102
RTVSPost2010PropOp51
 70
     0
102
RTVSPost2010Prop52
140
1.0
102
RTVSPost2010PropOp52
 70
     0
102
RTVSPost2010Prop53
 90
        2
102
RTVSPost2010PropOp53
 70
     1
102
RTVSPost2010Prop54
  1
strokes_ogs.tif
102
RTVSPost2010PropOp54
 70
     1
102
RTVSPost2010Prop55
280
     0
102
RTVSPost2010PropOp55
 70
     1
102
RTVSPost2010Prop56
140
1.0
102
RTVSPost2010PropOp56
 70
     1
102
RTVSPost2010Prop57
140
1.0
102
RTVSPost2010PropOp57
 70
     1
102
RTVSPropertyOp0
 70
     1
102
RTVSPropertyOp1
 70
     1
102
RTVSPropertyOp2
 70
     1
102
RTVSPropertyOp3
 70
     1
102
RTVSPropertyOp4
 70
     1
102
RTVSPropertyOp5
 70
     1
102
RTVSPropertyOp6
 70
     1
102
RTVSPropertyOp7
 70
     1
102
RTVSPropertyOp8
 70
     1
102
RTVSPropertyOp9
 70
     1
102
RTVSPropertyOp10
 70
     1
102
RTVSPropertyOp11
 70
     1
102
RTVSPropertyOp12
 70
     1
102
RTVSPropertyOp13
 70
     1
102
RTVSPropertyOp14
 70
     1
102
RTVSPropertyOp15
 70
     1
102
RTVSPropertyOp16
 70
     1
102
RTVSPropertyOp17
 70
     1
102
RTVSPropertyOp18
 70
     1
102
RTVSPropertyOp19
 70
     1
102
RTVSPropertyOp20
 70
     1
102
RTVSPropertyOp21
 70
     1
102
RTVSPropertyOp22
 70
     1
102
RTVSPropertyOp23
 70
     1
102
RTVSPropertyOp24
 70
     1
102
RTVSPropertyOp25
 70
     1
102
RTVSPropertyOp26
 70
     1
102
RTVSPropertyOp27
 70
     1
102
RTVSPropertyOp28
 70
     1
102
RTVSPropertyOp29
 70
     1
102
RTVSPropertyOp30
 70
     1
102
RTVSPropertyOp31
 70
     1
102
RTVSPropertyOp32
 70
     1
102
RTVSPropertyOp33
 70
     1
102
RTVSPropertyOp34
 70
     1
102
RTVSPropertyOp35
 70
     1
102
RTVSPropertyOp36
 70
     1
102
RTVSPropertyOp37
 70
     1
102
RTVSPropertyOp38
 70
     1
102
RTVSPropertyOp39
 70
     1
102
RTVSPropertyOp40
 70
     1
102
RTVSPropertyOp41
 70
     1
102
RTVSPropertyOp42
 70
     1
102
RTVSPropertyOp43
 70
     1
102
RTVSPropertyOp44
 70
     1
102
RTVSPropertyOp45
 70
     1
102
RTVSPropertyOp46
 70
     1
102
RTVSPropertyOp47
 70
     1
102
RTVSPropertyOp48
 70
     1
102
RTVSPropertyOp49
 70
     1
102
RTVSPropertyOp50
 70
     1
102
RTVSPropertyOp51
 70
     0
102
RTVSPropertyOp52
 70
     0
102
RTVSPropertyOp53
 70
     1
102
RTVSPropertyOp54
 70
     1
102
RTVSPropertyOp55
 70
     1
102
RTVSPropertyOp56
 70
     1
102
RTVSPropertyOp57
 70
     1
102
RTVSPropertyOp58
 70
     1
102
RTVSPropertyOp59
 70
     1
102
RTVSPropertyOp60
 70
     1
102
RTVSPropertyOp61
 70
     1
102
RTVSPropertyOp62
 70
     1
  0
XRECORD
  5
11529
102
{ACAD_REACTORS
330
11528
102
}
330
11528
100
AcDbXrecord
280
     1
102
RTVSPost2010Prop28
280
     0
102
RTVSPost2010PropOp28
 70
     1
102
RTVSPost2010Prop29
280
     1
102
RTVSPost2010PropOp29
 70
     1
102
RTVSPost2010Prop30
280
     1
102
RTVSPost2010PropOp30
 70
     1
102
RTVSPost2010Prop31
280
     0
102
RTVSPost2010PropOp31
 70
     1
102
RTVSPost2010Prop32
280
     0
102
RTVSPost2010PropOp32
 70
     1
102
RTVSPost2010Prop33
280
     0
102
RTVSPost2010PropOp33
 70
     1
102
RTVSPost2010Prop34
280
     0
102
RTVSPost2010PropOp34
 70
     1
102
RTVSPost2010Prop35
280
     0
102
RTVSPost2010PropOp35
 70
     1
102
RTVSPost2010Prop36
280
     0
102
RTVSPost2010PropOp36
 70
     1
102
RTVSPost2010Prop37
 90
       50
102
RTVSPost2010PropOp37
 70
     1
102
RTVSPost2010Prop38
140
0.0
102
RTVSPost2010PropOp38
 70
     1
102
RTVSPost2010Prop39
140
1.0
102
RTVSPost2010PropOp39
 70
     1
102
RTVSPost2010Prop40
 90
        0
102
RTVSPost2010PropOp40
 70
     1
102
RTVSPost2010Prop41ColorIndex
 90
       18
102
RTVSPost2010Prop41ColorRGB
 90
        0
102
RTVSPost2010PropOp41
 70
     1
102
RTVSPost2010Prop42
 90
       50
102
RTVSPost2010PropOp42
 70
     1
102
RTVSPost2010Prop43
 90
        3
102
RTVSPost2010PropOp43
 70
     1
102
RTVSPost2010Prop44ColorIndex
 90
        5
102
RTVSPost2010Prop44ColorRGB
 90
      255
102
RTVSPost2010PropOp44
 70
     1
102
RTVSPost2010Prop45
280
     0
102
RTVSPost2010PropOp45
 70
     1
102
RTVSPost2010Prop46
 90
       50
102
RTVSPost2010PropOp46
 70
     1
102
RTVSPost2010Prop47
 90
       50
102
RTVSPost2010PropOp47
 70
     1
102
RTVSPost2010Prop48
 90
       50
102
RTVSPost2010PropOp48
 70
     1
102
RTVSPost2010Prop49
280
     0
102
RTVSPost2010PropOp49
 70
     1
102
RTVSPost2010Prop50
 90
       50
102
RTVSPost2010PropOp50
 70
     1
102
RTVSPost2010Prop51ColorIndex
 90
      256
102
RTVSPost2010Prop51ColorRGB
 90
-16777216
102
RTVSPost2010PropOp51
 70
     0
102
RTVSPost2010Prop52
140
1.0
102
RTVSPost2010PropOp52
 70
     0
102
RTVSPost2010Prop53
 90
        2
102
RTVSPost2010PropOp53
 70
     1
102
RTVSPost2010Prop54
  1
strokes_ogs.tif
102
RTVSPost2010PropOp54
 70
     1
102
RTVSPost2010Prop55
280
     0
102
RTVSPost2010PropOp55
 70
     1
102
RTVSPost2010Prop56
140
1.0
102
RTVSPost2010PropOp56
 70
     1
102
RTVSPost2010Prop57
140
1.0
102
RTVSPost2010PropOp57
 70
     1
102
RTVSPropertyOp0
 70
     1
102
RTVSPropertyOp1
 70
     1
102
RTVSPropertyOp2
 70
     1
102
RTVSPropertyOp3
 70
     1
102
RTVSPropertyOp4
 70
     1
102
RTVSPropertyOp5
 70
     1
102
RTVSPropertyOp6
 70
     1
102
RTVSPropertyOp7
 70
     1
102
RTVSPropertyOp8
 70
     1
102
RTVSPropertyOp9
 70
     1
102
RTVSPropertyOp10
 70
     1
102
RTVSPropertyOp11
 70
     1
102
RTVSPropertyOp12
 70
     1
102
RTVSPropertyOp13
 70
     1
102
RTVSPropertyOp14
 70
     1
102
RTVSPropertyOp15
 70
     1
102
RTVSPropertyOp16
 70
     1
102
RTVSPropertyOp17
 70
     1
102
RTVSPropertyOp18
 70
     1
102
RTVSPropertyOp19
 70
     1
102
RTVSPropertyOp20
 70
     1
102
RTVSPropertyOp21
 70
     1
102
RTVSPropertyOp22
 70
     1
102
RTVSPropertyOp23
 70
     1
102
RTVSPropertyOp24
 70
     1
102
RTVSPropertyOp25
 70
     1
102
RTVSPropertyOp26
 70
     1
102
RTVSPropertyOp27
 70
     1
102
RTVSPropertyOp28
 70
     1
102
RTVSPropertyOp29
 70
     1
102
RTVSPropertyOp30
 70
     1
102
RTVSPropertyOp31
 70
     1
102
RTVSPropertyOp32
 70
     1
102
RTVSPropertyOp33
 70
     1
102
RTVSPropertyOp34
 70
     1
102
RTVSPropertyOp35
 70
     1
102
RTVSPropertyOp36
 70
     1
102
RTVSPropertyOp37
 70
     1
102
RTVSPropertyOp38
 70
     1
102
RTVSPropertyOp39
 70
     1
102
RTVSPropertyOp40
 70
     1
102
RTVSPropertyOp41
 70
     1
102
RTVSPropertyOp42
 70
     1
102
RTVSPropertyOp43
 70
     1
102
RTVSPropertyOp44
 70
     1
102
RTVSPropertyOp45
 70
     1
102
RTVSPropertyOp46
 70
     1
102
RTVSPropertyOp47
 70
     1
102
RTVSPropertyOp48
 70
     1
102
RTVSPropertyOp49
 70
     1
102
RTVSPropertyOp50
 70
     1
102
RTVSPropertyOp51
 70
     0
102
RTVSPropertyOp52
 70
     0
102
RTVSPropertyOp53
 70
     1
102
RTVSPropertyOp54
 70
     1
102
RTVSPropertyOp55
 70
     1
102
RTVSPropertyOp56
 70
     1
102
RTVSPropertyOp57
 70
     1
102
RTVSPropertyOp58
 70
     1
102
RTVSPropertyOp59
 70
     1
102
RTVSPropertyOp60
 70
     1
102
RTVSPropertyOp61
 70
     1
102
RTVSPropertyOp62
 70
     1
  0
XRECORD
  5
11537
102
{ACAD_REACTORS
330
11536
102
}
330
11536
100
AcDbXrecord
280
     1
102
RTVSPost2010Prop28
280
     0
102
RTVSPost2010PropOp28
 70
     1
102
RTVSPost2010Prop29
280
     1
102
RTVSPost2010PropOp29
 70
     1
102
RTVSPost2010Prop30
280
     1
102
RTVSPost2010PropOp30
 70
     1
102
RTVSPost2010Prop31
280
     0
102
RTVSPost2010PropOp31
 70
     1
102
RTVSPost2010Prop32
280
     0
102
RTVSPost2010PropOp32
 70
     1
102
RTVSPost2010Prop33
280
     0
102
RTVSPost2010PropOp33
 70
     1
102
RTVSPost2010Prop34
280
     0
102
RTVSPost2010PropOp34
 70
     1
102
RTVSPost2010Prop35
280
     0
102
RTVSPost2010PropOp35
 70
     1
102
RTVSPost2010Prop36
280
     0
102
RTVSPost2010PropOp36
 70
     1
102
RTVSPost2010Prop37
 90
       50
102
RTVSPost2010PropOp37
 70
     1
102
RTVSPost2010Prop38
140
0.0
102
RTVSPost2010PropOp38
 70
     1
102
RTVSPost2010Prop39
140
1.0
102
RTVSPost2010PropOp39
 70
     1
102
RTVSPost2010Prop40
 90
        0
102
RTVSPost2010PropOp40
 70
     1
102
RTVSPost2010Prop41ColorIndex
 90
       18
102
RTVSPost2010Prop41ColorRGB
 90
        0
102
RTVSPost2010PropOp41
 70
     1
102
RTVSPost2010Prop42
 90
       50
102
RTVSPost2010PropOp42
 70
     1
102
RTVSPost2010Prop43
 90
        3
102
RTVSPost2010PropOp43
 70
     1
102
RTVSPost2010Prop44ColorIndex
 90
        5
102
RTVSPost2010Prop44ColorRGB
 90
      255
102
RTVSPost2010PropOp44
 70
     1
102
RTVSPost2010Prop45
280
     0
102
RTVSPost2010PropOp45
 70
     1
102
RTVSPost2010Prop46
 90
       50
102
RTVSPost2010PropOp46
 70
     1
102
RTVSPost2010Prop47
 90
       50
102
RTVSPost2010PropOp47
 70
     1
102
RTVSPost2010Prop48
 90
       50
102
RTVSPost2010PropOp48
 70
     1
102
RTVSPost2010Prop49
280
     0
102
RTVSPost2010PropOp49
 70
     1
102
RTVSPost2010Prop50
 90
       50
102
RTVSPost2010PropOp50
 70
     1
102
RTVSPost2010Prop51ColorIndex
 90
      256
102
RTVSPost2010Prop51ColorRGB
 90
-16777216
102
RTVSPost2010PropOp51
 70
     0
102
RTVSPost2010Prop52
140
1.0
102
RTVSPost2010PropOp52
 70
     0
102
RTVSPost2010Prop53
 90
        2
102
RTVSPost2010PropOp53
 70
     1
102
RTVSPost2010Prop54
  1
strokes_ogs.tif
102
RTVSPost2010PropOp54
 70
     1
102
RTVSPost2010Prop55
280
     0
102
RTVSPost2010PropOp55
 70
     1
102
RTVSPost2010Prop56
140
1.0
102
RTVSPost2010PropOp56
 70
     1
102
RTVSPost2010Prop57
140
1.0
102
RTVSPost2010PropOp57
 70
     1
102
RTVSPropertyOp0
 70
     1
102
RTVSPropertyOp1
 70
     1
102
RTVSPropertyOp2
 70
     1
102
RTVSPropertyOp3
 70
     1
102
RTVSPropertyOp4
 70
     1
102
RTVSPropertyOp5
 70
     1
102
RTVSPropertyOp6
 70
     1
102
RTVSPropertyOp7
 70
     1
102
RTVSPropertyOp8
 70
     1
102
RTVSPropertyOp9
 70
     1
102
RTVSPropertyOp10
 70
     1
102
RTVSPropertyOp11
 70
     1
102
RTVSPropertyOp12
 70
     1
102
RTVSPropertyOp13
 70
     1
102
RTVSPropertyOp14
 70
     1
102
RTVSPropertyOp15
 70
     1
102
RTVSPropertyOp16
 70
     1
102
RTVSPropertyOp17
 70
     1
102
RTVSPropertyOp18
 70
     1
102
RTVSPropertyOp19
 70
     1
102
RTVSPropertyOp20
 70
     1
102
RTVSPropertyOp21
 70
     1
102
RTVSPropertyOp22
 70
     1
102
RTVSPropertyOp23
 70
     1
102
RTVSPropertyOp24
 70
     1
102
RTVSPropertyOp25
 70
     1
102
RTVSPropertyOp26
 70
     1
102
RTVSPropertyOp27
 70
     1
102
RTVSPropertyOp28
 70
     1
102
RTVSPropertyOp29
 70
     1
102
RTVSPropertyOp30
 70
     1
102
RTVSPropertyOp31
 70
     1
102
RTVSPropertyOp32
 70
     1
102
RTVSPropertyOp33
 70
     1
102
RTVSPropertyOp34
 70
     1
102
RTVSPropertyOp35
 70
     1
102
RTVSPropertyOp36
 70
     1
102
RTVSPropertyOp37
 70
     1
102
RTVSPropertyOp38
 70
     1
102
RTVSPropertyOp39
 70
     1
102
RTVSPropertyOp40
 70
     1
102
RTVSPropertyOp41
 70
     1
102
RTVSPropertyOp42
 70
     1
102
RTVSPropertyOp43
 70
     1
102
RTVSPropertyOp44
 70
     1
102
RTVSPropertyOp45
 70
     1
102
RTVSPropertyOp46
 70
     1
102
RTVSPropertyOp47
 70
     1
102
RTVSPropertyOp48
 70
     1
102
RTVSPropertyOp49
 70
     1
102
RTVSPropertyOp50
 70
     1
102
RTVSPropertyOp51
 70
     0
102
RTVSPropertyOp52
 70
     0
102
RTVSPropertyOp53
 70
     1
102
RTVSPropertyOp54
 70
     1
102
RTVSPropertyOp55
 70
     1
102
RTVSPropertyOp56
 70
     1
102
RTVSPropertyOp57
 70
     1
102
RTVSPropertyOp58
 70
     1
102
RTVSPropertyOp59
 70
     1
102
RTVSPropertyOp60
 70
     1
102
RTVSPropertyOp61
 70
     1
102
RTVSPropertyOp62
 70
     1
  0
XRECORD
  5
1153F
102
{ACAD_REACTORS
330
1153E
102
}
330
1153E
100
AcDbXrecord
280
     1
102
RTVSPost2010Prop28
280
     0
102
RTVSPost2010PropOp28
 70
     1
102
RTVSPost2010Prop29
280
     1
102
RTVSPost2010PropOp29
 70
     1
102
RTVSPost2010Prop30
280
     1
102
RTVSPost2010PropOp30
 70
     1
102
RTVSPost2010Prop31
280
     0
102
RTVSPost2010PropOp31
 70
     1
102
RTVSPost2010Prop32
280
     0
102
RTVSPost2010PropOp32
 70
     1
102
RTVSPost2010Prop33
280
     0
102
RTVSPost2010PropOp33
 70
     1
102
RTVSPost2010Prop34
280
     0
102
RTVSPost2010PropOp34
 70
     1
102
RTVSPost2010Prop35
280
     0
102
RTVSPost2010PropOp35
 70
     1
102
RTVSPost2010Prop36
280
     0
102
RTVSPost2010PropOp36
 70
     1
102
RTVSPost2010Prop37
 90
       50
102
RTVSPost2010PropOp37
 70
     1
102
RTVSPost2010Prop38
140
0.0
102
RTVSPost2010PropOp38
 70
     1
102
RTVSPost2010Prop39
140
1.0
102
RTVSPost2010PropOp39
 70
     1
102
RTVSPost2010Prop40
 90
        0
102
RTVSPost2010PropOp40
 70
     1
102
RTVSPost2010Prop41ColorIndex
 90
       18
102
RTVSPost2010Prop41ColorRGB
 90
        0
102
RTVSPost2010PropOp41
 70
     1
102
RTVSPost2010Prop42
 90
       50
102
RTVSPost2010PropOp42
 70
     1
102
RTVSPost2010Prop43
 90
        3
102
RTVSPost2010PropOp43
 70
     1
102
RTVSPost2010Prop44ColorIndex
 90
        5
102
RTVSPost2010Prop44ColorRGB
 90
      255
102
RTVSPost2010PropOp44
 70
     1
102
RTVSPost2010Prop45
280
     0
102
RTVSPost2010PropOp45
 70
     1
102
RTVSPost2010Prop46
 90
       50
102
RTVSPost2010PropOp46
 70
     1
102
RTVSPost2010Prop47
 90
       50
102
RTVSPost2010PropOp47
 70
     1
102
RTVSPost2010Prop48
 90
       50
102
RTVSPost2010PropOp48
 70
     1
102
RTVSPost2010Prop49
280
     0
102
RTVSPost2010PropOp49
 70
     1
102
RTVSPost2010Prop50
 90
       50
102
RTVSPost2010PropOp50
 70
     1
102
RTVSPost2010Prop51ColorIndex
 90
      256
102
RTVSPost2010Prop51ColorRGB
 90
-16777216
102
RTVSPost2010PropOp51
 70
     0
102
RTVSPost2010Prop52
140
1.0
102
RTVSPost2010PropOp52
 70
     0
102
RTVSPost2010Prop53
 90
        2
102
RTVSPost2010PropOp53
 70
     1
102
RTVSPost2010Prop54
  1
strokes_ogs.tif
102
RTVSPost2010PropOp54
 70
     1
102
RTVSPost2010Prop55
280
     0
102
RTVSPost2010PropOp55
 70
     1
102
RTVSPost2010Prop56
140
1.0
102
RTVSPost2010PropOp56
 70
     1
102
RTVSPost2010Prop57
140
1.0
102
RTVSPost2010PropOp57
 70
     1
102
RTVSPropertyOp0
 70
     1
102
RTVSPropertyOp1
 70
     1
102
RTVSPropertyOp2
 70
     1
102
RTVSPropertyOp3
 70
     1
102
RTVSPropertyOp4
 70
     1
102
RTVSPropertyOp5
 70
     1
102
RTVSPropertyOp6
 70
     1
102
RTVSPropertyOp7
 70
     1
102
RTVSPropertyOp8
 70
     1
102
RTVSPropertyOp9
 70
     1
102
RTVSPropertyOp10
 70
     1
102
RTVSPropertyOp11
 70
     1
102
RTVSPropertyOp12
 70
     1
102
RTVSPropertyOp13
 70
     1
102
RTVSPropertyOp14
 70
     1
102
RTVSPropertyOp15
 70
     1
102
RTVSPropertyOp16
 70
     1
102
RTVSPropertyOp17
 70
     1
102
RTVSPropertyOp18
 70
     1
102
RTVSPropertyOp19
 70
     1
102
RTVSPropertyOp20
 70
     1
102
RTVSPropertyOp21
 70
     1
102
RTVSPropertyOp22
 70
     1
102
RTVSPropertyOp23
 70
     1
102
RTVSPropertyOp24
 70
     1
102
RTVSPropertyOp25
 70
     1
102
RTVSPropertyOp26
 70
     1
102
RTVSPropertyOp27
 70
     1
102
RTVSPropertyOp28
 70
     1
102
RTVSPropertyOp29
 70
     1
102
RTVSPropertyOp30
 70
     1
102
RTVSPropertyOp31
 70
     1
102
RTVSPropertyOp32
 70
     1
102
RTVSPropertyOp33
 70
     1
102
RTVSPropertyOp34
 70
     1
102
RTVSPropertyOp35
 70
     1
102
RTVSPropertyOp36
 70
     1
102
RTVSPropertyOp37
 70
     1
102
RTVSPropertyOp38
 70
     1
102
RTVSPropertyOp39
 70
     1
102
RTVSPropertyOp40
 70
     1
102
RTVSPropertyOp41
 70
     1
102
RTVSPropertyOp42
 70
     1
102
RTVSPropertyOp43
 70
     1
102
RTVSPropertyOp44
 70
     1
102
RTVSPropertyOp45
 70
     1
102
RTVSPropertyOp46
 70
     1
102
RTVSPropertyOp47
 70
     1
102
RTVSPropertyOp48
 70
     1
102
RTVSPropertyOp49
 70
     1
102
RTVSPropertyOp50
 70
     1
102
RTVSPropertyOp51
 70
     0
102
RTVSPropertyOp52
 70
     0
102
RTVSPropertyOp53
 70
     1
102
RTVSPropertyOp54
 70
     1
102
RTVSPropertyOp55
 70
     1
102
RTVSPropertyOp56
 70
     1
102
RTVSPropertyOp57
 70
     1
102
RTVSPropertyOp58
 70
     1
102
RTVSPropertyOp59
 70
     1
102
RTVSPropertyOp60
 70
     1
102
RTVSPropertyOp61
 70
     1
102
RTVSPropertyOp62
 70
     1
  0
XRECORD
  5
11531
102
{ACAD_REACTORS
330
11530
102
}
330
11530
100
AcDbXrecord
280
     1
102
RTVSPost2010Prop28
280
     0
102
RTVSPost2010PropOp28
 70
     1
102
RTVSPost2010Prop29
280
     1
102
RTVSPost2010PropOp29
 70
     1
102
RTVSPost2010Prop30
280
     1
102
RTVSPost2010PropOp30
 70
     1
102
RTVSPost2010Prop31
280
     0
102
RTVSPost2010PropOp31
 70
     1
102
RTVSPost2010Prop32
280
     0
102
RTVSPost2010PropOp32
 70
     1
102
RTVSPost2010Prop33
280
     0
102
RTVSPost2010PropOp33
 70
     1
102
RTVSPost2010Prop34
280
     0
102
RTVSPost2010PropOp34
 70
     1
102
RTVSPost2010Prop35
280
     0
102
RTVSPost2010PropOp35
 70
     1
102
RTVSPost2010Prop36
280
     0
102
RTVSPost2010PropOp36
 70
     1
102
RTVSPost2010Prop37
 90
       50
102
RTVSPost2010PropOp37
 70
     1
102
RTVSPost2010Prop38
140
0.0
102
RTVSPost2010PropOp38
 70
     1
102
RTVSPost2010Prop39
140
1.0
102
RTVSPost2010PropOp39
 70
     1
102
RTVSPost2010Prop40
 90
        0
102
RTVSPost2010PropOp40
 70
     1
102
RTVSPost2010Prop41ColorIndex
 90
       18
102
RTVSPost2010Prop41ColorRGB
 90
        0
102
RTVSPost2010PropOp41
 70
     1
102
RTVSPost2010Prop42
 90
       50
102
RTVSPost2010PropOp42
 70
     1
102
RTVSPost2010Prop43
 90
        3
102
RTVSPost2010PropOp43
 70
     1
102
RTVSPost2010Prop44ColorIndex
 90
        5
102
RTVSPost2010Prop44ColorRGB
 90
      255
102
RTVSPost2010PropOp44
 70
     1
102
RTVSPost2010Prop45
280
     0
102
RTVSPost2010PropOp45
 70
     1
102
RTVSPost2010Prop46
 90
       50
102
RTVSPost2010PropOp46
 70
     1
102
RTVSPost2010Prop47
 90
       50
102
RTVSPost2010PropOp47
 70
     1
102
RTVSPost2010Prop48
 90
       50
102
RTVSPost2010PropOp48
 70
     1
102
RTVSPost2010Prop49
280
     0
102
RTVSPost2010PropOp49
 70
     1
102
RTVSPost2010Prop50
 90
       50
102
RTVSPost2010PropOp50
 70
     1
102
RTVSPost2010Prop51ColorIndex
 90
      256
102
RTVSPost2010Prop51ColorRGB
 90
-16777216
102
RTVSPost2010PropOp51
 70
     0
102
RTVSPost2010Prop52
140
1.0
102
RTVSPost2010PropOp52
 70
     0
102
RTVSPost2010Prop53
 90
        2
102
RTVSPost2010PropOp53
 70
     1
102
RTVSPost2010Prop54
  1
strokes_ogs.tif
102
RTVSPost2010PropOp54
 70
     1
102
RTVSPost2010Prop55
280
     0
102
RTVSPost2010PropOp55
 70
     1
102
RTVSPost2010Prop56
140
1.0
102
RTVSPost2010PropOp56
 70
     1
102
RTVSPost2010Prop57
140
1.0
102
RTVSPost2010PropOp57
 70
     1
102
RTVSPropertyOp0
 70
     1
102
RTVSPropertyOp1
 70
     1
102
RTVSPropertyOp2
 70
     1
102
RTVSPropertyOp3
 70
     1
102
RTVSPropertyOp4
 70
     1
102
RTVSPropertyOp5
 70
     1
102
RTVSPropertyOp6
 70
     1
102
RTVSPropertyOp7
 70
     1
102
RTVSPropertyOp8
 70
     1
102
RTVSPropertyOp9
 70
     1
102
RTVSPropertyOp10
 70
     1
102
RTVSPropertyOp11
 70
     1
102
RTVSPropertyOp12
 70
     1
102
RTVSPropertyOp13
 70
     1
102
RTVSPropertyOp14
 70
     1
102
RTVSPropertyOp15
 70
     1
102
RTVSPropertyOp16
 70
     1
102
RTVSPropertyOp17
 70
     1
102
RTVSPropertyOp18
 70
     1
102
RTVSPropertyOp19
 70
     1
102
RTVSPropertyOp20
 70
     1
102
RTVSPropertyOp21
 70
     1
102
RTVSPropertyOp22
 70
     1
102
RTVSPropertyOp23
 70
     1
102
RTVSPropertyOp24
 70
     1
102
RTVSPropertyOp25
 70
     1
102
RTVSPropertyOp26
 70
     1
102
RTVSPropertyOp27
 70
     1
102
RTVSPropertyOp28
 70
     1
102
RTVSPropertyOp29
 70
     1
102
RTVSPropertyOp30
 70
     1
102
RTVSPropertyOp31
 70
     1
102
RTVSPropertyOp32
 70
     1
102
RTVSPropertyOp33
 70
     1
102
RTVSPropertyOp34
 70
     1
102
RTVSPropertyOp35
 70
     1
102
RTVSPropertyOp36
 70
     1
102
RTVSPropertyOp37
 70
     1
102
RTVSPropertyOp38
 70
     1
102
RTVSPropertyOp39
 70
     1
102
RTVSPropertyOp40
 70
     1
102
RTVSPropertyOp41
 70
     1
102
RTVSPropertyOp42
 70
     1
102
RTVSPropertyOp43
 70
     1
102
RTVSPropertyOp44
 70
     1
102
RTVSPropertyOp45
 70
     1
102
RTVSPropertyOp46
 70
     1
102
RTVSPropertyOp47
 70
     1
102
RTVSPropertyOp48
 70
     1
102
RTVSPropertyOp49
 70
     1
102
RTVSPropertyOp50
 70
     1
102
RTVSPropertyOp51
 70
     0
102
RTVSPropertyOp52
 70
     0
102
RTVSPropertyOp53
 70
     1
102
RTVSPropertyOp54
 70
     1
102
RTVSPropertyOp55
 70
     1
102
RTVSPropertyOp56
 70
     1
102
RTVSPropertyOp57
 70
     1
102
RTVSPropertyOp58
 70
     1
102
RTVSPropertyOp59
 70
     1
102
RTVSPropertyOp60
 70
     1
102
RTVSPropertyOp61
 70
     1
102
RTVSPropertyOp62
 70
     1
  0
XRECORD
  5
11535
102
{ACAD_REACTORS
330
11534
102
}
330
11534
100
AcDbXrecord
280
     1
102
RTVSPost2010Prop28
280
     0
102
RTVSPost2010PropOp28
 70
     1
102
RTVSPost2010Prop29
280
     1
102
RTVSPost2010PropOp29
 70
     1
102
RTVSPost2010Prop30
280
     1
102
RTVSPost2010PropOp30
 70
     1
102
RTVSPost2010Prop31
280
     0
102
RTVSPost2010PropOp31
 70
     1
102
RTVSPost2010Prop32
280
     0
102
RTVSPost2010PropOp32
 70
     1
102
RTVSPost2010Prop33
280
     0
102
RTVSPost2010PropOp33
 70
     1
102
RTVSPost2010Prop34
280
     0
102
RTVSPost2010PropOp34
 70
     1
102
RTVSPost2010Prop35
280
     0
102
RTVSPost2010PropOp35
 70
     1
102
RTVSPost2010Prop36
280
     0
102
RTVSPost2010PropOp36
 70
     1
102
RTVSPost2010Prop37
 90
       50
102
RTVSPost2010PropOp37
 70
     1
102
RTVSPost2010Prop38
140
0.0
102
RTVSPost2010PropOp38
 70
     1
102
RTVSPost2010Prop39
140
1.0
102
RTVSPost2010PropOp39
 70
     1
102
RTVSPost2010Prop40
 90
        0
102
RTVSPost2010PropOp40
 70
     1
102
RTVSPost2010Prop41ColorIndex
 90
       18
102
RTVSPost2010Prop41ColorRGB
 90
        0
102
RTVSPost2010PropOp41
 70
     1
102
RTVSPost2010Prop42
 90
       50
102
RTVSPost2010PropOp42
 70
     1
102
RTVSPost2010Prop43
 90
        3
102
RTVSPost2010PropOp43
 70
     1
102
RTVSPost2010Prop44ColorIndex
 90
        5
102
RTVSPost2010Prop44ColorRGB
 90
      255
102
RTVSPost2010PropOp44
 70
     1
102
RTVSPost2010Prop45
280
     0
102
RTVSPost2010PropOp45
 70
     1
102
RTVSPost2010Prop46
 90
       50
102
RTVSPost2010PropOp46
 70
     1
102
RTVSPost2010Prop47
 90
       50
102
RTVSPost2010PropOp47
 70
     1
102
RTVSPost2010Prop48
 90
       50
102
RTVSPost2010PropOp48
 70
     1
102
RTVSPost2010Prop49
280
     0
102
RTVSPost2010PropOp49
 70
     1
102
RTVSPost2010Prop50
 90
       50
102
RTVSPost2010PropOp50
 70
     1
102
RTVSPost2010Prop51ColorIndex
 90
      256
102
RTVSPost2010Prop51ColorRGB
 90
-16777216
102
RTVSPost2010PropOp51
 70
     0
102
RTVSPost2010Prop52
140
1.0
102
RTVSPost2010PropOp52
 70
     0
102
RTVSPost2010Prop53
 90
        2
102
RTVSPost2010PropOp53
 70
     1
102
RTVSPost2010Prop54
  1
strokes_ogs.tif
102
RTVSPost2010PropOp54
 70
     1
102
RTVSPost2010Prop55
280
     0
102
RTVSPost2010PropOp55
 70
     1
102
RTVSPost2010Prop56
140
1.0
102
RTVSPost2010PropOp56
 70
     1
102
RTVSPost2010Prop57
140
1.0
102
RTVSPost2010PropOp57
 70
     1
102
RTVSPropertyOp0
 70
     1
102
RTVSPropertyOp1
 70
     1
102
RTVSPropertyOp2
 70
     1
102
RTVSPropertyOp3
 70
     1
102
RTVSPropertyOp4
 70
     1
102
RTVSPropertyOp5
 70
     1
102
RTVSPropertyOp6
 70
     1
102
RTVSPropertyOp7
 70
     1
102
RTVSPropertyOp8
 70
     1
102
RTVSPropertyOp9
 70
     1
102
RTVSPropertyOp10
 70
     1
102
RTVSPropertyOp11
 70
     1
102
RTVSPropertyOp12
 70
     1
102
RTVSPropertyOp13
 70
     1
102
RTVSPropertyOp14
 70
     1
102
RTVSPropertyOp15
 70
     1
102
RTVSPropertyOp16
 70
     1
102
RTVSPropertyOp17
 70
     1
102
RTVSPropertyOp18
 70
     1
102
RTVSPropertyOp19
 70
     1
102
RTVSPropertyOp20
 70
     1
102
RTVSPropertyOp21
 70
     1
102
RTVSPropertyOp22
 70
     1
102
RTVSPropertyOp23
 70
     1
102
RTVSPropertyOp24
 70
     1
102
RTVSPropertyOp25
 70
     1
102
RTVSPropertyOp26
 70
     1
102
RTVSPropertyOp27
 70
     1
102
RTVSPropertyOp28
 70
     1
102
RTVSPropertyOp29
 70
     1
102
RTVSPropertyOp30
 70
     1
102
RTVSPropertyOp31
 70
     1
102
RTVSPropertyOp32
 70
     1
102
RTVSPropertyOp33
 70
     1
102
RTVSPropertyOp34
 70
     1
102
RTVSPropertyOp35
 70
     1
102
RTVSPropertyOp36
 70
     1
102
RTVSPropertyOp37
 70
     1
102
RTVSPropertyOp38
 70
     1
102
RTVSPropertyOp39
 70
     1
102
RTVSPropertyOp40
 70
     1
102
RTVSPropertyOp41
 70
     1
102
RTVSPropertyOp42
 70
     1
102
RTVSPropertyOp43
 70
     1
102
RTVSPropertyOp44
 70
     1
102
RTVSPropertyOp45
 70
     1
102
RTVSPropertyOp46
 70
     1
102
RTVSPropertyOp47
 70
     1
102
RTVSPropertyOp48
 70
     1
102
RTVSPropertyOp49
 70
     1
102
RTVSPropertyOp50
 70
     1
102
RTVSPropertyOp51
 70
     0
102
RTVSPropertyOp52
 70
     0
102
RTVSPropertyOp53
 70
     1
102
RTVSPropertyOp54
 70
     1
102
RTVSPropertyOp55
 70
     1
102
RTVSPropertyOp56
 70
     1
102
RTVSPropertyOp57
 70
     1
102
RTVSPropertyOp58
 70
     1
102
RTVSPropertyOp59
 70
     1
102
RTVSPropertyOp60
 70
     1
102
RTVSPropertyOp61
 70
     1
102
RTVSPropertyOp62
 70
     1
  0
XRECORD
  5
1154F
102
{ACAD_REACTORS
330
1154E
102
}
330
1154E
100
AcDbXrecord
280
     1
102
RTVSPost2010Prop28
280
     0
102
RTVSPost2010PropOp28
 70
     1
102
RTVSPost2010Prop29
280
     1
102
RTVSPost2010PropOp29
 70
     1
102
RTVSPost2010Prop30
280
     1
102
RTVSPost2010PropOp30
 70
     1
102
RTVSPost2010Prop31
280
     0
102
RTVSPost2010PropOp31
 70
     1
102
RTVSPost2010Prop32
280
     0
102
RTVSPost2010PropOp32
 70
     1
102
RTVSPost2010Prop33
280
     0
102
RTVSPost2010PropOp33
 70
     1
102
RTVSPost2010Prop34
280
     0
102
RTVSPost2010PropOp34
 70
     1
102
RTVSPost2010Prop35
280
     0
102
RTVSPost2010PropOp35
 70
     1
102
RTVSPost2010Prop36
280
     0
102
RTVSPost2010PropOp36
 70
     1
102
RTVSPost2010Prop37
 90
       50
102
RTVSPost2010PropOp37
 70
     0
102
RTVSPost2010Prop38
140
0.0
102
RTVSPost2010PropOp38
 70
     0
102
RTVSPost2010Prop39
140
1.0
102
RTVSPost2010PropOp39
 70
     0
102
RTVSPost2010Prop40
 90
        0
102
RTVSPost2010PropOp40
 70
     0
102
RTVSPost2010Prop41ColorIndex
 90
       18
102
RTVSPost2010Prop41ColorRGB
 90
        0
102
RTVSPost2010PropOp41
 70
     0
102
RTVSPost2010Prop42
 90
       50
102
RTVSPost2010PropOp42
 70
     0
102
RTVSPost2010Prop43
 90
        3
102
RTVSPost2010PropOp43
 70
     0
102
RTVSPost2010Prop44ColorIndex
 90
        5
102
RTVSPost2010Prop44ColorRGB
 90
      255
102
RTVSPost2010PropOp44
 70
     0
102
RTVSPost2010Prop45
280
     0
102
RTVSPost2010PropOp45
 70
     1
102
RTVSPost2010Prop46
 90
       50
102
RTVSPost2010PropOp46
 70
     0
102
RTVSPost2010Prop47
 90
       50
102
RTVSPost2010PropOp47
 70
     0
102
RTVSPost2010Prop48
 90
       50
102
RTVSPost2010PropOp48
 70
     0
102
RTVSPost2010Prop49
280
     0
102
RTVSPost2010PropOp49
 70
     1
102
RTVSPost2010Prop50
 90
       50
102
RTVSPost2010PropOp50
 70
     0
102
RTVSPost2010Prop51ColorIndex
 90
      256
102
RTVSPost2010Prop51ColorRGB
 90
-16777216
102
RTVSPost2010PropOp51
 70
     0
102
RTVSPost2010Prop52
140
1.0
102
RTVSPost2010PropOp52
 70
     0
102
RTVSPost2010Prop53
 90
        2
102
RTVSPost2010PropOp53
 70
     0
102
RTVSPost2010Prop54
  1
strokes_ogs.tif
102
RTVSPost2010PropOp54
 70
     0
102
RTVSPost2010Prop55
280
     0
102
RTVSPost2010PropOp55
 70
     1
102
RTVSPost2010Prop56
140
1.0
102
RTVSPost2010PropOp56
 70
     0
102
RTVSPost2010Prop57
140
1.0
102
RTVSPost2010PropOp57
 70
     0
102
RTVSPropertyOp0
 70
     0
102
RTVSPropertyOp1
 70
     0
102
RTVSPropertyOp2
 70
     0
102
RTVSPropertyOp3
 70
     0
102
RTVSPropertyOp4
 70
     0
102
RTVSPropertyOp5
 70
     0
102
RTVSPropertyOp6
 70
     0
102
RTVSPropertyOp7
 70
     0
102
RTVSPropertyOp8
 70
     0
102
RTVSPropertyOp9
 70
     0
102
RTVSPropertyOp10
 70
     0
102
RTVSPropertyOp11
 70
     0
102
RTVSPropertyOp12
 70
     0
102
RTVSPropertyOp13
 70
     0
102
RTVSPropertyOp14
 70
     2
102
RTVSPropertyOp15
 70
     0
102
RTVSPropertyOp16
 70
     0
102
RTVSPropertyOp17
 70
     0
102
RTVSPropertyOp18
 70
     0
102
RTVSPropertyOp19
 70
     0
102
RTVSPropertyOp20
 70
     0
102
RTVSPropertyOp21
 70
     0
102
RTVSPropertyOp22
 70
     0
102
RTVSPropertyOp23
 70
     0
102
RTVSPropertyOp24
 70
     0
102
RTVSPropertyOp25
 70
     0
102
RTVSPropertyOp26
 70
     0
102
RTVSPropertyOp27
 70
     0
102
RTVSPropertyOp28
 70
     1
102
RTVSPropertyOp29
 70
     1
102
RTVSPropertyOp30
 70
     1
102
RTVSPropertyOp31
 70
     1
102
RTVSPropertyOp32
 70
     1
102
RTVSPropertyOp33
 70
     1
102
RTVSPropertyOp34
 70
     1
102
RTVSPropertyOp35
 70
     1
102
RTVSPropertyOp36
 70
     1
102
RTVSPropertyOp37
 70
     0
102
RTVSPropertyOp38
 70
     0
102
RTVSPropertyOp39
 70
     0
102
RTVSPropertyOp40
 70
     0
102
RTVSPropertyOp41
 70
     0
102
RTVSPropertyOp42
 70
     0
102
RTVSPropertyOp43
 70
     0
102
RTVSPropertyOp44
 70
     0
102
RTVSPropertyOp45
 70
     1
102
RTVSPropertyOp46
 70
     0
102
RTVSPropertyOp47
 70
     0
102
RTVSPropertyOp48
 70
     0
102
RTVSPropertyOp49
 70
     1
102
RTVSPropertyOp50
 70
     0
102
RTVSPropertyOp51
 70
     0
102
RTVSPropertyOp52
 70
     0
102
RTVSPropertyOp53
 70
     0
102
RTVSPropertyOp54
 70
     0
102
RTVSPropertyOp55
 70
     1
102
RTVSPropertyOp56
 70
     0
102
RTVSPropertyOp57
 70
     0
102
RTVSPropertyOp58
 70
     0
102
RTVSPropertyOp59
 70
     0
102
RTVSPropertyOp60
 70
     0
102
RTVSPropertyOp61
 70
     0
102
RTVSPropertyOp62
 70
     0
  0
XRECORD
  5
1153D
102
{ACAD_REACTORS
330
1153C
102
}
330
1153C
100
AcDbXrecord
280
     1
102
RTVSPost2010Prop28
280
     0
102
RTVSPost2010PropOp28
 70
     1
102
RTVSPost2010Prop29
280
     1
102
RTVSPost2010PropOp29
 70
     1
102
RTVSPost2010Prop30
280
     1
102
RTVSPost2010PropOp30
 70
     1
102
RTVSPost2010Prop31
280
     0
102
RTVSPost2010PropOp31
 70
     1
102
RTVSPost2010Prop32
280
     0
102
RTVSPost2010PropOp32
 70
     1
102
RTVSPost2010Prop33
280
     0
102
RTVSPost2010PropOp33
 70
     1
102
RTVSPost2010Prop34
280
     0
102
RTVSPost2010PropOp34
 70
     1
102
RTVSPost2010Prop35
280
     0
102
RTVSPost2010PropOp35
 70
     1
102
RTVSPost2010Prop36
280
     0
102
RTVSPost2010PropOp36
 70
     1
102
RTVSPost2010Prop37
 90
       50
102
RTVSPost2010PropOp37
 70
     1
102
RTVSPost2010Prop38
140
0.0
102
RTVSPost2010PropOp38
 70
     1
102
RTVSPost2010Prop39
140
1.0
102
RTVSPost2010PropOp39
 70
     1
102
RTVSPost2010Prop40
 90
        0
102
RTVSPost2010PropOp40
 70
     1
102
RTVSPost2010Prop41ColorIndex
 90
       18
102
RTVSPost2010Prop41ColorRGB
 90
        0
102
RTVSPost2010PropOp41
 70
     1
102
RTVSPost2010Prop42
 90
       50
102
RTVSPost2010PropOp42
 70
     1
102
RTVSPost2010Prop43
 90
        3
102
RTVSPost2010PropOp43
 70
     1
102
RTVSPost2010Prop44ColorIndex
 90
        5
102
RTVSPost2010Prop44ColorRGB
 90
      255
102
RTVSPost2010PropOp44
 70
     1
102
RTVSPost2010Prop45
280
     0
102
RTVSPost2010PropOp45
 70
     1
102
RTVSPost2010Prop46
 90
       50
102
RTVSPost2010PropOp46
 70
     1
102
RTVSPost2010Prop47
 90
       50
102
RTVSPost2010PropOp47
 70
     1
102
RTVSPost2010Prop48
 90
       50
102
RTVSPost2010PropOp48
 70
     1
102
RTVSPost2010Prop49
280
     0
102
RTVSPost2010PropOp49
 70
     1
102
RTVSPost2010Prop50
 90
       50
102
RTVSPost2010PropOp50
 70
     1
102
RTVSPost2010Prop51ColorIndex
 90
      256
102
RTVSPost2010Prop51ColorRGB
 90
-16777216
102
RTVSPost2010PropOp51
 70
     0
102
RTVSPost2010Prop52
140
1.0
102
RTVSPost2010PropOp52
 70
     0
102
RTVSPost2010Prop53
 90
        2
102
RTVSPost2010PropOp53
 70
     1
102
RTVSPost2010Prop54
  1
strokes_ogs.tif
102
RTVSPost2010PropOp54
 70
     1
102
RTVSPost2010Prop55
280
     0
102
RTVSPost2010PropOp55
 70
     1
102
RTVSPost2010Prop56
140
1.0
102
RTVSPost2010PropOp56
 70
     1
102
RTVSPost2010Prop57
140
1.0
102
RTVSPost2010PropOp57
 70
     1
102
RTVSPropertyOp0
 70
     1
102
RTVSPropertyOp1
 70
     1
102
RTVSPropertyOp2
 70
     1
102
RTVSPropertyOp3
 70
     1
102
RTVSPropertyOp4
 70
     1
102
RTVSPropertyOp5
 70
     1
102
RTVSPropertyOp6
 70
     1
102
RTVSPropertyOp7
 70
     1
102
RTVSPropertyOp8
 70
     1
102
RTVSPropertyOp9
 70
     1
102
RTVSPropertyOp10
 70
     1
102
RTVSPropertyOp11
 70
     1
102
RTVSPropertyOp12
 70
     1
102
RTVSPropertyOp13
 70
     1
102
RTVSPropertyOp14
 70
     1
102
RTVSPropertyOp15
 70
     1
102
RTVSPropertyOp16
 70
     1
102
RTVSPropertyOp17
 70
     1
102
RTVSPropertyOp18
 70
     1
102
RTVSPropertyOp19
 70
     1
102
RTVSPropertyOp20
 70
     1
102
RTVSPropertyOp21
 70
     1
102
RTVSPropertyOp22
 70
     1
102
RTVSPropertyOp23
 70
     1
102
RTVSPropertyOp24
 70
     1
102
RTVSPropertyOp25
 70
     1
102
RTVSPropertyOp26
 70
     1
102
RTVSPropertyOp27
 70
     1
102
RTVSPropertyOp28
 70
     1
102
RTVSPropertyOp29
 70
     1
102
RTVSPropertyOp30
 70
     1
102
RTVSPropertyOp31
 70
     1
102
RTVSPropertyOp32
 70
     1
102
RTVSPropertyOp33
 70
     1
102
RTVSPropertyOp34
 70
     1
102
RTVSPropertyOp35
 70
     1
102
RTVSPropertyOp36
 70
     1
102
RTVSPropertyOp37
 70
     1
102
RTVSPropertyOp38
 70
     1
102
RTVSPropertyOp39
 70
     1
102
RTVSPropertyOp40
 70
     1
102
RTVSPropertyOp41
 70
     1
102
RTVSPropertyOp42
 70
     1
102
RTVSPropertyOp43
 70
     1
102
RTVSPropertyOp44
 70
     1
102
RTVSPropertyOp45
 70
     1
102
RTVSPropertyOp46
 70
     1
102
RTVSPropertyOp47
 70
     1
102
RTVSPropertyOp48
 70
     1
102
RTVSPropertyOp49
 70
     1
102
RTVSPropertyOp50
 70
     1
102
RTVSPropertyOp51
 70
     0
102
RTVSPropertyOp52
 70
     0
102
RTVSPropertyOp53
 70
     1
102
RTVSPropertyOp54
 70
     1
102
RTVSPropertyOp55
 70
     1
102
RTVSPropertyOp56
 70
     1
102
RTVSPropertyOp57
 70
     1
102
RTVSPropertyOp58
 70
     1
102
RTVSPropertyOp59
 70
     1
102
RTVSPropertyOp60
 70
     1
102
RTVSPropertyOp61
 70
     1
102
RTVSPropertyOp62
 70
     1
  0
XRECORD
  5
11521
102
{ACAD_REACTORS
330
11520
102
}
330
11520
100
AcDbXrecord
280
     1
102
RTVSPost2010Prop28
280
     0
102
RTVSPost2010PropOp28
 70
     1
102
RTVSPost2010Prop29
280
     1
102
RTVSPost2010PropOp29
 70
     1
102
RTVSPost2010Prop30
280
     1
102
RTVSPost2010PropOp30
 70
     1
102
RTVSPost2010Prop31
280
     0
102
RTVSPost2010PropOp31
 70
     1
102
RTVSPost2010Prop32
280
     0
102
RTVSPost2010PropOp32
 70
     1
102
RTVSPost2010Prop33
280
     0
102
RTVSPost2010PropOp33
 70
     1
102
RTVSPost2010Prop34
280
     0
102
RTVSPost2010PropOp34
 70
     1
102
RTVSPost2010Prop35
280
     0
102
RTVSPost2010PropOp35
 70
     1
102
RTVSPost2010Prop36
280
     0
102
RTVSPost2010PropOp36
 70
     1
102
RTVSPost2010Prop37
 90
       50
102
RTVSPost2010PropOp37
 70
     1
102
RTVSPost2010Prop38
140
0.0
102
RTVSPost2010PropOp38
 70
     1
102
RTVSPost2010Prop39
140
1.0
102
RTVSPost2010PropOp39
 70
     1
102
RTVSPost2010Prop40
 90
        0
102
RTVSPost2010PropOp40
 70
     1
102
RTVSPost2010Prop41ColorIndex
 90
       18
102
RTVSPost2010Prop41ColorRGB
 90
        0
102
RTVSPost2010PropOp41
 70
     1
102
RTVSPost2010Prop42
 90
       50
102
RTVSPost2010PropOp42
 70
     1
102
RTVSPost2010Prop43
 90
        3
102
RTVSPost2010PropOp43
 70
     1
102
RTVSPost2010Prop44ColorIndex
 90
        5
102
RTVSPost2010Prop44ColorRGB
 90
      255
102
RTVSPost2010PropOp44
 70
     1
102
RTVSPost2010Prop45
280
     0
102
RTVSPost2010PropOp45
 70
     1
102
RTVSPost2010Prop46
 90
       50
102
RTVSPost2010PropOp46
 70
     1
102
RTVSPost2010Prop47
 90
       50
102
RTVSPost2010PropOp47
 70
     1
102
RTVSPost2010Prop48
 90
       50
102
RTVSPost2010PropOp48
 70
     1
102
RTVSPost2010Prop49
280
     0
102
RTVSPost2010PropOp49
 70
     1
102
RTVSPost2010Prop50
 90
       50
102
RTVSPost2010PropOp50
 70
     1
102
RTVSPost2010Prop51ColorIndex
 90
      256
102
RTVSPost2010Prop51ColorRGB
 90
-16777216
102
RTVSPost2010PropOp51
 70
     0
102
RTVSPost2010Prop52
140
1.0
102
RTVSPost2010PropOp52
 70
     0
102
RTVSPost2010Prop53
 90
        2
102
RTVSPost2010PropOp53
 70
     1
102
RTVSPost2010Prop54
  1
strokes_ogs.tif
102
RTVSPost2010PropOp54
 70
     1
102
RTVSPost2010Prop55
280
     0
102
RTVSPost2010PropOp55
 70
     1
102
RTVSPost2010Prop56
140
1.0
102
RTVSPost2010PropOp56
 70
     1
102
RTVSPost2010Prop57
140
1.0
102
RTVSPost2010PropOp57
 70
     1
102
RTVSPropertyOp0
 70
     1
102
RTVSPropertyOp1
 70
     1
102
RTVSPropertyOp2
 70
     1
102
RTVSPropertyOp3
 70
     1
102
RTVSPropertyOp4
 70
     1
102
RTVSPropertyOp5
 70
     1
102
RTVSPropertyOp6
 70
     1
102
RTVSPropertyOp7
 70
     1
102
RTVSPropertyOp8
 70
     1
102
RTVSPropertyOp9
 70
     1
102
RTVSPropertyOp10
 70
     1
102
RTVSPropertyOp11
 70
     1
102
RTVSPropertyOp12
 70
     1
102
RTVSPropertyOp13
 70
     1
102
RTVSPropertyOp14
 70
     1
102
RTVSPropertyOp15
 70
     1
102
RTVSPropertyOp16
 70
     1
102
RTVSPropertyOp17
 70
     1
102
RTVSPropertyOp18
 70
     1
102
RTVSPropertyOp19
 70
     1
102
RTVSPropertyOp20
 70
     1
102
RTVSPropertyOp21
 70
     1
102
RTVSPropertyOp22
 70
     1
102
RTVSPropertyOp23
 70
     1
102
RTVSPropertyOp24
 70
     1
102
RTVSPropertyOp25
 70
     1
102
RTVSPropertyOp26
 70
     1
102
RTVSPropertyOp27
 70
     1
102
RTVSPropertyOp28
 70
     1
102
RTVSPropertyOp29
 70
     1
102
RTVSPropertyOp30
 70
     1
102
RTVSPropertyOp31
 70
     1
102
RTVSPropertyOp32
 70
     1
102
RTVSPropertyOp33
 70
     1
102
RTVSPropertyOp34
 70
     1
102
RTVSPropertyOp35
 70
     1
102
RTVSPropertyOp36
 70
     1
102
RTVSPropertyOp37
 70
     1
102
RTVSPropertyOp38
 70
     1
102
RTVSPropertyOp39
 70
     1
102
RTVSPropertyOp40
 70
     1
102
RTVSPropertyOp41
 70
     1
102
RTVSPropertyOp42
 70
     1
102
RTVSPropertyOp43
 70
     1
102
RTVSPropertyOp44
 70
     1
102
RTVSPropertyOp45
 70
     1
102
RTVSPropertyOp46
 70
     1
102
RTVSPropertyOp47
 70
     1
102
RTVSPropertyOp48
 70
     1
102
RTVSPropertyOp49
 70
     1
102
RTVSPropertyOp50
 70
     1
102
RTVSPropertyOp51
 70
     0
102
RTVSPropertyOp52
 70
     0
102
RTVSPropertyOp53
 70
     1
102
RTVSPropertyOp54
 70
     1
102
RTVSPropertyOp55
 70
     1
102
RTVSPropertyOp56
 70
     1
102
RTVSPropertyOp57
 70
     1
102
RTVSPropertyOp58
 70
     1
102
RTVSPropertyOp59
 70
     1
102
RTVSPropertyOp60
 70
     1
102
RTVSPropertyOp61
 70
     1
102
RTVSPropertyOp62
 70
     1
  0
XRECORD
  5
11523
102
{ACAD_REACTORS
330
11522
102
}
330
11522
100
AcDbXrecord
280
     1
102
RTVSPost2010Prop28
280
     0
102
RTVSPost2010PropOp28
 70
     1
102
RTVSPost2010Prop29
280
     1
102
RTVSPost2010PropOp29
 70
     1
102
RTVSPost2010Prop30
280
     1
102
RTVSPost2010PropOp30
 70
     1
102
RTVSPost2010Prop31
280
     0
102
RTVSPost2010PropOp31
 70
     1
102
RTVSPost2010Prop32
280
     0
102
RTVSPost2010PropOp32
 70
     1
102
RTVSPost2010Prop33
280
     0
102
RTVSPost2010PropOp33
 70
     1
102
RTVSPost2010Prop34
280
     0
102
RTVSPost2010PropOp34
 70
     1
102
RTVSPost2010Prop35
280
     0
102
RTVSPost2010PropOp35
 70
     1
102
RTVSPost2010Prop36
280
     0
102
RTVSPost2010PropOp36
 70
     1
102
RTVSPost2010Prop37
 90
       50
102
RTVSPost2010PropOp37
 70
     1
102
RTVSPost2010Prop38
140
0.0
102
RTVSPost2010PropOp38
 70
     1
102
RTVSPost2010Prop39
140
1.0
102
RTVSPost2010PropOp39
 70
     1
102
RTVSPost2010Prop40
 90
        0
102
RTVSPost2010PropOp40
 70
     1
102
RTVSPost2010Prop41ColorIndex
 90
       18
102
RTVSPost2010Prop41ColorRGB
 90
        0
102
RTVSPost2010PropOp41
 70
     1
102
RTVSPost2010Prop42
 90
       50
102
RTVSPost2010PropOp42
 70
     1
102
RTVSPost2010Prop43
 90
        3
102
RTVSPost2010PropOp43
 70
     1
102
RTVSPost2010Prop44ColorIndex
 90
        5
102
RTVSPost2010Prop44ColorRGB
 90
      255
102
RTVSPost2010PropOp44
 70
     1
102
RTVSPost2010Prop45
280
     0
102
RTVSPost2010PropOp45
 70
     1
102
RTVSPost2010Prop46
 90
       50
102
RTVSPost2010PropOp46
 70
     1
102
RTVSPost2010Prop47
 90
       50
102
RTVSPost2010PropOp47
 70
     1
102
RTVSPost2010Prop48
 90
       50
102
RTVSPost2010PropOp48
 70
     1
102
RTVSPost2010Prop49
280
     0
102
RTVSPost2010PropOp49
 70
     1
102
RTVSPost2010Prop50
 90
       50
102
RTVSPost2010PropOp50
 70
     1
102
RTVSPost2010Prop51ColorIndex
 90
      256
102
RTVSPost2010Prop51ColorRGB
 90
-16777216
102
RTVSPost2010PropOp51
 70
     0
102
RTVSPost2010Prop52
140
1.0
102
RTVSPost2010PropOp52
 70
     0
102
RTVSPost2010Prop53
 90
        2
102
RTVSPost2010PropOp53
 70
     1
102
RTVSPost2010Prop54
  1
strokes_ogs.tif
102
RTVSPost2010PropOp54
 70
     1
102
RTVSPost2010Prop55
280
     0
102
RTVSPost2010PropOp55
 70
     1
102
RTVSPost2010Prop56
140
1.0
102
RTVSPost2010PropOp56
 70
     1
102
RTVSPost2010Prop57
140
1.0
102
RTVSPost2010PropOp57
 70
     1
102
RTVSPropertyOp0
 70
     1
102
RTVSPropertyOp1
 70
     1
102
RTVSPropertyOp2
 70
     1
102
RTVSPropertyOp3
 70
     1
102
RTVSPropertyOp4
 70
     1
102
RTVSPropertyOp5
 70
     1
102
RTVSPropertyOp6
 70
     1
102
RTVSPropertyOp7
 70
     1
102
RTVSPropertyOp8
 70
     1
102
RTVSPropertyOp9
 70
     1
102
RTVSPropertyOp10
 70
     1
102
RTVSPropertyOp11
 70
     1
102
RTVSPropertyOp12
 70
     1
102
RTVSPropertyOp13
 70
     1
102
RTVSPropertyOp14
 70
     1
102
RTVSPropertyOp15
 70
     1
102
RTVSPropertyOp16
 70
     1
102
RTVSPropertyOp17
 70
     1
102
RTVSPropertyOp18
 70
     1
102
RTVSPropertyOp19
 70
     1
102
RTVSPropertyOp20
 70
     1
102
RTVSPropertyOp21
 70
     1
102
RTVSPropertyOp22
 70
     1
102
RTVSPropertyOp23
 70
     1
102
RTVSPropertyOp24
 70
     1
102
RTVSPropertyOp25
 70
     1
102
RTVSPropertyOp26
 70
     1
102
RTVSPropertyOp27
 70
     1
102
RTVSPropertyOp28
 70
     1
102
RTVSPropertyOp29
 70
     1
102
RTVSPropertyOp30
 70
     1
102
RTVSPropertyOp31
 70
     1
102
RTVSPropertyOp32
 70
     1
102
RTVSPropertyOp33
 70
     1
102
RTVSPropertyOp34
 70
     1
102
RTVSPropertyOp35
 70
     1
102
RTVSPropertyOp36
 70
     1
102
RTVSPropertyOp37
 70
     1
102
RTVSPropertyOp38
 70
     1
102
RTVSPropertyOp39
 70
     1
102
RTVSPropertyOp40
 70
     1
102
RTVSPropertyOp41
 70
     1
102
RTVSPropertyOp42
 70
     1
102
RTVSPropertyOp43
 70
     1
102
RTVSPropertyOp44
 70
     1
102
RTVSPropertyOp45
 70
     1
102
RTVSPropertyOp46
 70
     1
102
RTVSPropertyOp47
 70
     1
102
RTVSPropertyOp48
 70
     1
102
RTVSPropertyOp49
 70
     1
102
RTVSPropertyOp50
 70
     1
102
RTVSPropertyOp51
 70
     0
102
RTVSPropertyOp52
 70
     0
102
RTVSPropertyOp53
 70
     1
102
RTVSPropertyOp54
 70
     1
102
RTVSPropertyOp55
 70
     1
102
RTVSPropertyOp56
 70
     1
102
RTVSPropertyOp57
 70
     1
102
RTVSPropertyOp58
 70
     1
102
RTVSPropertyOp59
 70
     1
102
RTVSPropertyOp60
 70
     1
102
RTVSPropertyOp61
 70
     1
102
RTVSPropertyOp62
 70
     1
  0
XRECORD
  5
11525
102
{ACAD_REACTORS
330
11524
102
}
330
11524
100
AcDbXrecord
280
     1
102
RTVSPost2010Prop28
280
     0
102
RTVSPost2010PropOp28
 70
     1
102
RTVSPost2010Prop29
280
     1
102
RTVSPost2010PropOp29
 70
     1
102
RTVSPost2010Prop30
280
     1
102
RTVSPost2010PropOp30
 70
     1
102
RTVSPost2010Prop31
280
     0
102
RTVSPost2010PropOp31
 70
     1
102
RTVSPost2010Prop32
280
     0
102
RTVSPost2010PropOp32
 70
     1
102
RTVSPost2010Prop33
280
     0
102
RTVSPost2010PropOp33
 70
     1
102
RTVSPost2010Prop34
280
     0
102
RTVSPost2010PropOp34
 70
     1
102
RTVSPost2010Prop35
280
     0
102
RTVSPost2010PropOp35
 70
     1
102
RTVSPost2010Prop36
280
     0
102
RTVSPost2010PropOp36
 70
     1
102
RTVSPost2010Prop37
 90
       50
102
RTVSPost2010PropOp37
 70
     1
102
RTVSPost2010Prop38
140
0.0
102
RTVSPost2010PropOp38
 70
     1
102
RTVSPost2010Prop39
140
1.0
102
RTVSPost2010PropOp39
 70
     1
102
RTVSPost2010Prop40
 90
        0
102
RTVSPost2010PropOp40
 70
     1
102
RTVSPost2010Prop41ColorIndex
 90
       18
102
RTVSPost2010Prop41ColorRGB
 90
        0
102
RTVSPost2010PropOp41
 70
     1
102
RTVSPost2010Prop42
 90
       50
102
RTVSPost2010PropOp42
 70
     1
102
RTVSPost2010Prop43
 90
        3
102
RTVSPost2010PropOp43
 70
     1
102
RTVSPost2010Prop44ColorIndex
 90
        5
102
RTVSPost2010Prop44ColorRGB
 90
      255
102
RTVSPost2010PropOp44
 70
     1
102
RTVSPost2010Prop45
280
     0
102
RTVSPost2010PropOp45
 70
     1
102
RTVSPost2010Prop46
 90
       50
102
RTVSPost2010PropOp46
 70
     1
102
RTVSPost2010Prop47
 90
       50
102
RTVSPost2010PropOp47
 70
     1
102
RTVSPost2010Prop48
 90
       50
102
RTVSPost2010PropOp48
 70
     1
102
RTVSPost2010Prop49
280
     0
102
RTVSPost2010PropOp49
 70
     1
102
RTVSPost2010Prop50
 90
       50
102
RTVSPost2010PropOp50
 70
     1
102
RTVSPost2010Prop51ColorIndex
 90
      256
102
RTVSPost2010Prop51ColorRGB
 90
-16777216
102
RTVSPost2010PropOp51
 70
     0
102
RTVSPost2010Prop52
140
1.0
102
RTVSPost2010PropOp52
 70
     0
102
RTVSPost2010Prop53
 90
        2
102
RTVSPost2010PropOp53
 70
     1
102
RTVSPost2010Prop54
  1
strokes_ogs.tif
102
RTVSPost2010PropOp54
 70
     1
102
RTVSPost2010Prop55
280
     0
102
RTVSPost2010PropOp55
 70
     1
102
RTVSPost2010Prop56
140
1.0
102
RTVSPost2010PropOp56
 70
     1
102
RTVSPost2010Prop57
140
1.0
102
RTVSPost2010PropOp57
 70
     1
102
RTVSPropertyOp0
 70
     1
102
RTVSPropertyOp1
 70
     1
102
RTVSPropertyOp2
 70
     1
102
RTVSPropertyOp3
 70
     1
102
RTVSPropertyOp4
 70
     1
102
RTVSPropertyOp5
 70
     1
102
RTVSPropertyOp6
 70
     1
102
RTVSPropertyOp7
 70
     1
102
RTVSPropertyOp8
 70
     1
102
RTVSPropertyOp9
 70
     1
102
RTVSPropertyOp10
 70
     1
102
RTVSPropertyOp11
 70
     1
102
RTVSPropertyOp12
 70
     1
102
RTVSPropertyOp13
 70
     1
102
RTVSPropertyOp14
 70
     1
102
RTVSPropertyOp15
 70
     1
102
RTVSPropertyOp16
 70
     1
102
RTVSPropertyOp17
 70
     1
102
RTVSPropertyOp18
 70
     1
102
RTVSPropertyOp19
 70
     1
102
RTVSPropertyOp20
 70
     1
102
RTVSPropertyOp21
 70
     1
102
RTVSPropertyOp22
 70
     1
102
RTVSPropertyOp23
 70
     1
102
RTVSPropertyOp24
 70
     1
102
RTVSPropertyOp25
 70
     1
102
RTVSPropertyOp26
 70
     1
102
RTVSPropertyOp27
 70
     1
102
RTVSPropertyOp28
 70
     1
102
RTVSPropertyOp29
 70
     1
102
RTVSPropertyOp30
 70
     1
102
RTVSPropertyOp31
 70
     1
102
RTVSPropertyOp32
 70
     1
102
RTVSPropertyOp33
 70
     1
102
RTVSPropertyOp34
 70
     1
102
RTVSPropertyOp35
 70
     1
102
RTVSPropertyOp36
 70
     1
102
RTVSPropertyOp37
 70
     1
102
RTVSPropertyOp38
 70
     1
102
RTVSPropertyOp39
 70
     1
102
RTVSPropertyOp40
 70
     1
102
RTVSPropertyOp41
 70
     1
102
RTVSPropertyOp42
 70
     1
102
RTVSPropertyOp43
 70
     1
102
RTVSPropertyOp44
 70
     1
102
RTVSPropertyOp45
 70
     1
102
RTVSPropertyOp46
 70
     1
102
RTVSPropertyOp47
 70
     1
102
RTVSPropertyOp48
 70
     1
102
RTVSPropertyOp49
 70
     1
102
RTVSPropertyOp50
 70
     1
102
RTVSPropertyOp51
 70
     0
102
RTVSPropertyOp52
 70
     0
102
RTVSPropertyOp53
 70
     1
102
RTVSPropertyOp54
 70
     1
102
RTVSPropertyOp55
 70
     1
102
RTVSPropertyOp56
 70
     1
102
RTVSPropertyOp57
 70
     1
102
RTVSPropertyOp58
 70
     1
102
RTVSPropertyOp59
 70
     1
102
RTVSPropertyOp60
 70
     1
102
RTVSPropertyOp61
 70
     1
102
RTVSPropertyOp62
 70
     1
  0
XRECORD
  5
11527
102
{ACAD_REACTORS
330
11526
102
}
330
11526
100
AcDbXrecord
280
     1
102
RTVSPost2010Prop28
280
     0
102
RTVSPost2010PropOp28
 70
     1
102
RTVSPost2010Prop29
280
     1
102
RTVSPost2010PropOp29
 70
     1
102
RTVSPost2010Prop30
280
     1
102
RTVSPost2010PropOp30
 70
     1
102
RTVSPost2010Prop31
280
     0
102
RTVSPost2010PropOp31
 70
     1
102
RTVSPost2010Prop32
280
     0
102
RTVSPost2010PropOp32
 70
     1
102
RTVSPost2010Prop33
280
     0
102
RTVSPost2010PropOp33
 70
     1
102
RTVSPost2010Prop34
280
     0
102
RTVSPost2010PropOp34
 70
     1
102
RTVSPost2010Prop35
280
     0
102
RTVSPost2010PropOp35
 70
     1
102
RTVSPost2010Prop36
280
     0
102
RTVSPost2010PropOp36
 70
     1
102
RTVSPost2010Prop37
 90
       50
102
RTVSPost2010PropOp37
 70
     1
102
RTVSPost2010Prop38
140
0.0
102
RTVSPost2010PropOp38
 70
     1
102
RTVSPost2010Prop39
140
1.0
102
RTVSPost2010PropOp39
 70
     1
102
RTVSPost2010Prop40
 90
        0
102
RTVSPost2010PropOp40
 70
     1
102
RTVSPost2010Prop41ColorIndex
 90
       18
102
RTVSPost2010Prop41ColorRGB
 90
        0
102
RTVSPost2010PropOp41
 70
     1
102
RTVSPost2010Prop42
 90
       50
102
RTVSPost2010PropOp42
 70
     1
102
RTVSPost2010Prop43
 90
        3
102
RTVSPost2010PropOp43
 70
     1
102
RTVSPost2010Prop44ColorIndex
 90
        5
102
RTVSPost2010Prop44ColorRGB
 90
      255
102
RTVSPost2010PropOp44
 70
     1
102
RTVSPost2010Prop45
280
     0
102
RTVSPost2010PropOp45
 70
     1
102
RTVSPost2010Prop46
 90
       50
102
RTVSPost2010PropOp46
 70
     1
102
RTVSPost2010Prop47
 90
       50
102
RTVSPost2010PropOp47
 70
     1
102
RTVSPost2010Prop48
 90
       50
102
RTVSPost2010PropOp48
 70
     1
102
RTVSPost2010Prop49
280
     0
102
RTVSPost2010PropOp49
 70
     1
102
RTVSPost2010Prop50
 90
       50
102
RTVSPost2010PropOp50
 70
     1
102
RTVSPost2010Prop51ColorIndex
 90
      256
102
RTVSPost2010Prop51ColorRGB
 90
-16777216
102
RTVSPost2010PropOp51
 70
     0
102
RTVSPost2010Prop52
140
1.0
102
RTVSPost2010PropOp52
 70
     0
102
RTVSPost2010Prop53
 90
        2
102
RTVSPost2010PropOp53
 70
     1
102
RTVSPost2010Prop54
  1
strokes_ogs.tif
102
RTVSPost2010PropOp54
 70
     1
102
RTVSPost2010Prop55
280
     0
102
RTVSPost2010PropOp55
 70
     1
102
RTVSPost2010Prop56
140
1.0
102
RTVSPost2010PropOp56
 70
     1
102
RTVSPost2010Prop57
140
1.0
102
RTVSPost2010PropOp57
 70
     1
102
RTVSPropertyOp0
 70
     1
102
RTVSPropertyOp1
 70
     1
102
RTVSPropertyOp2
 70
     1
102
RTVSPropertyOp3
 70
     1
102
RTVSPropertyOp4
 70
     1
102
RTVSPropertyOp5
 70
     1
102
RTVSPropertyOp6
 70
     1
102
RTVSPropertyOp7
 70
     1
102
RTVSPropertyOp8
 70
     1
102
RTVSPropertyOp9
 70
     1
102
RTVSPropertyOp10
 70
     1
102
RTVSPropertyOp11
 70
     1
102
RTVSPropertyOp12
 70
     1
102
RTVSPropertyOp13
 70
     1
102
RTVSPropertyOp14
 70
     1
102
RTVSPropertyOp15
 70
     1
102
RTVSPropertyOp16
 70
     1
102
RTVSPropertyOp17
 70
     1
102
RTVSPropertyOp18
 70
     1
102
RTVSPropertyOp19
 70
     1
102
RTVSPropertyOp20
 70
     1
102
RTVSPropertyOp21
 70
     1
102
RTVSPropertyOp22
 70
     1
102
RTVSPropertyOp23
 70
     1
102
RTVSPropertyOp24
 70
     1
102
RTVSPropertyOp25
 70
     1
102
RTVSPropertyOp26
 70
     1
102
RTVSPropertyOp27
 70
     1
102
RTVSPropertyOp28
 70
     1
102
RTVSPropertyOp29
 70
     1
102
RTVSPropertyOp30
 70
     1
102
RTVSPropertyOp31
 70
     1
102
RTVSPropertyOp32
 70
     1
102
RTVSPropertyOp33
 70
     1
102
RTVSPropertyOp34
 70
     1
102
RTVSPropertyOp35
 70
     1
102
RTVSPropertyOp36
 70
     1
102
RTVSPropertyOp37
 70
     1
102
RTVSPropertyOp38
 70
     1
102
RTVSPropertyOp39
 70
     1
102
RTVSPropertyOp40
 70
     1
102
RTVSPropertyOp41
 70
     1
102
RTVSPropertyOp42
 70
     1
102
RTVSPropertyOp43
 70
     1
102
RTVSPropertyOp44
 70
     1
102
RTVSPropertyOp45
 70
     1
102
RTVSPropertyOp46
 70
     1
102
RTVSPropertyOp47
 70
     1
102
RTVSPropertyOp48
 70
     1
102
RTVSPropertyOp49
 70
     1
102
RTVSPropertyOp50
 70
     1
102
RTVSPropertyOp51
 70
     0
102
RTVSPropertyOp52
 70
     0
102
RTVSPropertyOp53
 70
     1
102
RTVSPropertyOp54
 70
     1
102
RTVSPropertyOp55
 70
     1
102
RTVSPropertyOp56
 70
     1
102
RTVSPropertyOp57
 70
     1
102
RTVSPropertyOp58
 70
     1
102
RTVSPropertyOp59
 70
     1
102
RTVSPropertyOp60
 70
     1
102
RTVSPropertyOp61
 70
     1
102
RTVSPropertyOp62
 70
     1
  0
XRECORD
  5
1152F
102
{ACAD_REACTORS
330
1152E
102
}
330
1152E
100
AcDbXrecord
280
     1
102
RTVSPost2010Prop28
280
     0
102
RTVSPost2010PropOp28
 70
     1
102
RTVSPost2010Prop29
280
     1
102
RTVSPost2010PropOp29
 70
     1
102
RTVSPost2010Prop30
280
     1
102
RTVSPost2010PropOp30
 70
     1
102
RTVSPost2010Prop31
280
     0
102
RTVSPost2010PropOp31
 70
     1
102
RTVSPost2010Prop32
280
     0
102
RTVSPost2010PropOp32
 70
     1
102
RTVSPost2010Prop33
280
     0
102
RTVSPost2010PropOp33
 70
     1
102
RTVSPost2010Prop34
280
     0
102
RTVSPost2010PropOp34
 70
     1
102
RTVSPost2010Prop35
280
     0
102
RTVSPost2010PropOp35
 70
     1
102
RTVSPost2010Prop36
280
     0
102
RTVSPost2010PropOp36
 70
     1
102
RTVSPost2010Prop37
 90
       50
102
RTVSPost2010PropOp37
 70
     1
102
RTVSPost2010Prop38
140
0.0
102
RTVSPost2010PropOp38
 70
     1
102
RTVSPost2010Prop39
140
1.0
102
RTVSPost2010PropOp39
 70
     1
102
RTVSPost2010Prop40
 90
        0
102
RTVSPost2010PropOp40
 70
     1
102
RTVSPost2010Prop41ColorIndex
 90
       18
102
RTVSPost2010Prop41ColorRGB
 90
        0
102
RTVSPost2010PropOp41
 70
     1
102
RTVSPost2010Prop42
 90
       50
102
RTVSPost2010PropOp42
 70
     1
102
RTVSPost2010Prop43
 90
        3
102
RTVSPost2010PropOp43
 70
     1
102
RTVSPost2010Prop44ColorIndex
 90
        5
102
RTVSPost2010Prop44ColorRGB
 90
      255
102
RTVSPost2010PropOp44
 70
     1
102
RTVSPost2010Prop45
280
     0
102
RTVSPost2010PropOp45
 70
     1
102
RTVSPost2010Prop46
 90
       50
102
RTVSPost2010PropOp46
 70
     1
102
RTVSPost2010Prop47
 90
       50
102
RTVSPost2010PropOp47
 70
     1
102
RTVSPost2010Prop48
 90
       50
102
RTVSPost2010PropOp48
 70
     1
102
RTVSPost2010Prop49
280
     0
102
RTVSPost2010PropOp49
 70
     1
102
RTVSPost2010Prop50
 90
       50
102
RTVSPost2010PropOp50
 70
     1
102
RTVSPost2010Prop51ColorIndex
 90
      256
102
RTVSPost2010Prop51ColorRGB
 90
-16777216
102
RTVSPost2010PropOp51
 70
     0
102
RTVSPost2010Prop52
140
1.0
102
RTVSPost2010PropOp52
 70
     0
102
RTVSPost2010Prop53
 90
        2
102
RTVSPost2010PropOp53
 70
     1
102
RTVSPost2010Prop54
  1
strokes_ogs.tif
102
RTVSPost2010PropOp54
 70
     1
102
RTVSPost2010Prop55
280
     0
102
RTVSPost2010PropOp55
 70
     1
102
RTVSPost2010Prop56
140
1.0
102
RTVSPost2010PropOp56
 70
     1
102
RTVSPost2010Prop57
140
1.0
102
RTVSPost2010PropOp57
 70
     1
102
RTVSPropertyOp0
 70
     1
102
RTVSPropertyOp1
 70
     1
102
RTVSPropertyOp2
 70
     1
102
RTVSPropertyOp3
 70
     1
102
RTVSPropertyOp4
 70
     1
102
RTVSPropertyOp5
 70
     1
102
RTVSPropertyOp6
 70
     1
102
RTVSPropertyOp7
 70
     1
102
RTVSPropertyOp8
 70
     1
102
RTVSPropertyOp9
 70
     1
102
RTVSPropertyOp10
 70
     1
102
RTVSPropertyOp11
 70
     1
102
RTVSPropertyOp12
 70
     1
102
RTVSPropertyOp13
 70
     1
102
RTVSPropertyOp14
 70
     1
102
RTVSPropertyOp15
 70
     1
102
RTVSPropertyOp16
 70
     1
102
RTVSPropertyOp17
 70
     1
102
RTVSPropertyOp18
 70
     1
102
RTVSPropertyOp19
 70
     1
102
RTVSPropertyOp20
 70
     1
102
RTVSPropertyOp21
 70
     1
102
RTVSPropertyOp22
 70
     1
102
RTVSPropertyOp23
 70
     1
102
RTVSPropertyOp24
 70
     1
102
RTVSPropertyOp25
 70
     1
102
RTVSPropertyOp26
 70
     1
102
RTVSPropertyOp27
 70
     1
102
RTVSPropertyOp28
 70
     1
102
RTVSPropertyOp29
 70
     1
102
RTVSPropertyOp30
 70
     1
102
RTVSPropertyOp31
 70
     1
102
RTVSPropertyOp32
 70
     1
102
RTVSPropertyOp33
 70
     1
102
RTVSPropertyOp34
 70
     1
102
RTVSPropertyOp35
 70
     1
102
RTVSPropertyOp36
 70
     1
102
RTVSPropertyOp37
 70
     1
102
RTVSPropertyOp38
 70
     1
102
RTVSPropertyOp39
 70
     1
102
RTVSPropertyOp40
 70
     1
102
RTVSPropertyOp41
 70
     1
102
RTVSPropertyOp42
 70
     1
102
RTVSPropertyOp43
 70
     1
102
RTVSPropertyOp44
 70
     1
102
RTVSPropertyOp45
 70
     1
102
RTVSPropertyOp46
 70
     1
102
RTVSPropertyOp47
 70
     1
102
RTVSPropertyOp48
 70
     1
102
RTVSPropertyOp49
 70
     1
102
RTVSPropertyOp50
 70
     1
102
RTVSPropertyOp51
 70
     0
102
RTVSPropertyOp52
 70
     0
102
RTVSPropertyOp53
 70
     1
102
RTVSPropertyOp54
 70
     1
102
RTVSPropertyOp55
 70
     1
102
RTVSPropertyOp56
 70
     1
102
RTVSPropertyOp57
 70
     1
102
RTVSPropertyOp58
 70
     1
102
RTVSPropertyOp59
 70
     1
102
RTVSPropertyOp60
 70
     1
102
RTVSPropertyOp61
 70
     1
102
RTVSPropertyOp62
 70
     1
  0
XRECORD
  5
1154B
102
{ACAD_REACTORS
330
1154A
102
}
330
1154A
100
AcDbXrecord
280
     1
102
RTVSPost2010Prop28
280
     0
102
RTVSPost2010PropOp28
 70
     1
102
RTVSPost2010Prop29
280
     1
102
RTVSPost2010PropOp29
 70
     1
102
RTVSPost2010Prop30
280
     1
102
RTVSPost2010PropOp30
 70
     1
102
RTVSPost2010Prop31
280
     0
102
RTVSPost2010PropOp31
 70
     1
102
RTVSPost2010Prop32
280
     0
102
RTVSPost2010PropOp32
 70
     1
102
RTVSPost2010Prop33
280
     0
102
RTVSPost2010PropOp33
 70
     1
102
RTVSPost2010Prop34
280
     0
102
RTVSPost2010PropOp34
 70
     1
102
RTVSPost2010Prop35
280
     0
102
RTVSPost2010PropOp35
 70
     1
102
RTVSPost2010Prop36
280
     0
102
RTVSPost2010PropOp36
 70
     1
102
RTVSPost2010Prop37
 90
       50
102
RTVSPost2010PropOp37
 70
     0
102
RTVSPost2010Prop38
140
0.0
102
RTVSPost2010PropOp38
 70
     0
102
RTVSPost2010Prop39
140
1.0
102
RTVSPost2010PropOp39
 70
     0
102
RTVSPost2010Prop40
 90
        0
102
RTVSPost2010PropOp40
 70
     0
102
RTVSPost2010Prop41ColorIndex
 90
       18
102
RTVSPost2010Prop41ColorRGB
 90
        0
102
RTVSPost2010PropOp41
 70
     0
102
RTVSPost2010Prop42
 90
       50
102
RTVSPost2010PropOp42
 70
     0
102
RTVSPost2010Prop43
 90
        3
102
RTVSPost2010PropOp43
 70
     0
102
RTVSPost2010Prop44ColorIndex
 90
        5
102
RTVSPost2010Prop44ColorRGB
 90
      255
102
RTVSPost2010PropOp44
 70
     0
102
RTVSPost2010Prop45
280
     0
102
RTVSPost2010PropOp45
 70
     1
102
RTVSPost2010Prop46
 90
       50
102
RTVSPost2010PropOp46
 70
     0
102
RTVSPost2010Prop47
 90
       50
102
RTVSPost2010PropOp47
 70
     0
102
RTVSPost2010Prop48
 90
       50
102
RTVSPost2010PropOp48
 70
     0
102
RTVSPost2010Prop49
280
     0
102
RTVSPost2010PropOp49
 70
     1
102
RTVSPost2010Prop50
 90
       50
102
RTVSPost2010PropOp50
 70
     0
102
RTVSPost2010Prop51ColorIndex
 90
      256
102
RTVSPost2010Prop51ColorRGB
 90
-16777216
102
RTVSPost2010PropOp51
 70
     0
102
RTVSPost2010Prop52
140
1.0
102
RTVSPost2010PropOp52
 70
     0
102
RTVSPost2010Prop53
 90
        2
102
RTVSPost2010PropOp53
 70
     0
102
RTVSPost2010Prop54
  1
strokes_ogs.tif
102
RTVSPost2010PropOp54
 70
     0
102
RTVSPost2010Prop55
280
     0
102
RTVSPost2010PropOp55
 70
     1
102
RTVSPost2010Prop56
140
1.0
102
RTVSPost2010PropOp56
 70
     0
102
RTVSPost2010Prop57
140
1.0
102
RTVSPost2010PropOp57
 70
     0
102
RTVSPropertyOp0
 70
     0
102
RTVSPropertyOp1
 70
     0
102
RTVSPropertyOp2
 70
     0
102
RTVSPropertyOp3
 70
     0
102
RTVSPropertyOp4
 70
     0
102
RTVSPropertyOp5
 70
     0
102
RTVSPropertyOp6
 70
     0
102
RTVSPropertyOp7
 70
     0
102
RTVSPropertyOp8
 70
     0
102
RTVSPropertyOp9
 70
     0
102
RTVSPropertyOp10
 70
     0
102
RTVSPropertyOp11
 70
     0
102
RTVSPropertyOp12
 70
     0
102
RTVSPropertyOp13
 70
     0
102
RTVSPropertyOp14
 70
     2
102
RTVSPropertyOp15
 70
     0
102
RTVSPropertyOp16
 70
     0
102
RTVSPropertyOp17
 70
     0
102
RTVSPropertyOp18
 70
     0
102
RTVSPropertyOp19
 70
     0
102
RTVSPropertyOp20
 70
     0
102
RTVSPropertyOp21
 70
     0
102
RTVSPropertyOp22
 70
     0
102
RTVSPropertyOp23
 70
     0
102
RTVSPropertyOp24
 70
     0
102
RTVSPropertyOp25
 70
     0
102
RTVSPropertyOp26
 70
     0
102
RTVSPropertyOp27
 70
     0
102
RTVSPropertyOp28
 70
     1
102
RTVSPropertyOp29
 70
     1
102
RTVSPropertyOp30
 70
     1
102
RTVSPropertyOp31
 70
     1
102
RTVSPropertyOp32
 70
     1
102
RTVSPropertyOp33
 70
     1
102
RTVSPropertyOp34
 70
     1
102
RTVSPropertyOp35
 70
     1
102
RTVSPropertyOp36
 70
     1
102
RTVSPropertyOp37
 70
     0
102
RTVSPropertyOp38
 70
     0
102
RTVSPropertyOp39
 70
     0
102
RTVSPropertyOp40
 70
     0
102
RTVSPropertyOp41
 70
     0
102
RTVSPropertyOp42
 70
     0
102
RTVSPropertyOp43
 70
     0
102
RTVSPropertyOp44
 70
     0
102
RTVSPropertyOp45
 70
     1
102
RTVSPropertyOp46
 70
     0
102
RTVSPropertyOp47
 70
     0
102
RTVSPropertyOp48
 70
     0
102
RTVSPropertyOp49
 70
     1
102
RTVSPropertyOp50
 70
     0
102
RTVSPropertyOp51
 70
     0
102
RTVSPropertyOp52
 70
     0
102
RTVSPropertyOp53
 70
     0
102
RTVSPropertyOp54
 70
     0
102
RTVSPropertyOp55
 70
     1
102
RTVSPropertyOp56
 70
     0
102
RTVSPropertyOp57
 70
     0
102
RTVSPropertyOp58
 70
     0
102
RTVSPropertyOp59
 70
     0
102
RTVSPropertyOp60
 70
     0
102
RTVSPropertyOp61
 70
     0
102
RTVSPropertyOp62
 70
     0
  0
XRECORD
  5
1153B
102
{ACAD_REACTORS
330
1153A
102
}
330
1153A
100
AcDbXrecord
280
     1
102
RTVSPost2010Prop28
280
     0
102
RTVSPost2010PropOp28
 70
     1
102
RTVSPost2010Prop29
280
     1
102
RTVSPost2010PropOp29
 70
     1
102
RTVSPost2010Prop30
280
     1
102
RTVSPost2010PropOp30
 70
     1
102
RTVSPost2010Prop31
280
     0
102
RTVSPost2010PropOp31
 70
     1
102
RTVSPost2010Prop32
280
     0
102
RTVSPost2010PropOp32
 70
     1
102
RTVSPost2010Prop33
280
     0
102
RTVSPost2010PropOp33
 70
     1
102
RTVSPost2010Prop34
280
     0
102
RTVSPost2010PropOp34
 70
     1
102
RTVSPost2010Prop35
280
     0
102
RTVSPost2010PropOp35
 70
     1
102
RTVSPost2010Prop36
280
     0
102
RTVSPost2010PropOp36
 70
     1
102
RTVSPost2010Prop37
 90
       50
102
RTVSPost2010PropOp37
 70
     1
102
RTVSPost2010Prop38
140
0.0
102
RTVSPost2010PropOp38
 70
     1
102
RTVSPost2010Prop39
140
1.0
102
RTVSPost2010PropOp39
 70
     1
102
RTVSPost2010Prop40
 90
        0
102
RTVSPost2010PropOp40
 70
     1
102
RTVSPost2010Prop41ColorIndex
 90
       18
102
RTVSPost2010Prop41ColorRGB
 90
        0
102
RTVSPost2010PropOp41
 70
     1
102
RTVSPost2010Prop42
 90
       50
102
RTVSPost2010PropOp42
 70
     1
102
RTVSPost2010Prop43
 90
        3
102
RTVSPost2010PropOp43
 70
     1
102
RTVSPost2010Prop44ColorIndex
 90
        5
102
RTVSPost2010Prop44ColorRGB
 90
      255
102
RTVSPost2010PropOp44
 70
     1
102
RTVSPost2010Prop45
280
     0
102
RTVSPost2010PropOp45
 70
     1
102
RTVSPost2010Prop46
 90
       50
102
RTVSPost2010PropOp46
 70
     1
102
RTVSPost2010Prop47
 90
       50
102
RTVSPost2010PropOp47
 70
     1
102
RTVSPost2010Prop48
 90
       50
102
RTVSPost2010PropOp48
 70
     1
102
RTVSPost2010Prop49
280
     0
102
RTVSPost2010PropOp49
 70
     1
102
RTVSPost2010Prop50
 90
       50
102
RTVSPost2010PropOp50
 70
     1
102
RTVSPost2010Prop51ColorIndex
 90
      256
102
RTVSPost2010Prop51ColorRGB
 90
-16777216
102
RTVSPost2010PropOp51
 70
     0
102
RTVSPost2010Prop52
140
1.0
102
RTVSPost2010PropOp52
 70
     0
102
RTVSPost2010Prop53
 90
        2
102
RTVSPost2010PropOp53
 70
     1
102
RTVSPost2010Prop54
  1
strokes_ogs.tif
102
RTVSPost2010PropOp54
 70
     1
102
RTVSPost2010Prop55
280
     0
102
RTVSPost2010PropOp55
 70
     1
102
RTVSPost2010Prop56
140
1.0
102
RTVSPost2010PropOp56
 70
     1
102
RTVSPost2010Prop57
140
1.0
102
RTVSPost2010PropOp57
 70
     1
102
RTVSPropertyOp0
 70
     1
102
RTVSPropertyOp1
 70
     1
102
RTVSPropertyOp2
 70
     1
102
RTVSPropertyOp3
 70
     1
102
RTVSPropertyOp4
 70
     1
102
RTVSPropertyOp5
 70
     1
102
RTVSPropertyOp6
 70
     1
102
RTVSPropertyOp7
 70
     1
102
RTVSPropertyOp8
 70
     1
102
RTVSPropertyOp9
 70
     1
102
RTVSPropertyOp10
 70
     1
102
RTVSPropertyOp11
 70
     1
102
RTVSPropertyOp12
 70
     1
102
RTVSPropertyOp13
 70
     1
102
RTVSPropertyOp14
 70
     1
102
RTVSPropertyOp15
 70
     1
102
RTVSPropertyOp16
 70
     1
102
RTVSPropertyOp17
 70
     1
102
RTVSPropertyOp18
 70
     1
102
RTVSPropertyOp19
 70
     1
102
RTVSPropertyOp20
 70
     1
102
RTVSPropertyOp21
 70
     1
102
RTVSPropertyOp22
 70
     1
102
RTVSPropertyOp23
 70
     1
102
RTVSPropertyOp24
 70
     1
102
RTVSPropertyOp25
 70
     1
102
RTVSPropertyOp26
 70
     1
102
RTVSPropertyOp27
 70
     1
102
RTVSPropertyOp28
 70
     1
102
RTVSPropertyOp29
 70
     1
102
RTVSPropertyOp30
 70
     1
102
RTVSPropertyOp31
 70
     1
102
RTVSPropertyOp32
 70
     1
102
RTVSPropertyOp33
 70
     1
102
RTVSPropertyOp34
 70
     1
102
RTVSPropertyOp35
 70
     1
102
RTVSPropertyOp36
 70
     1
102
RTVSPropertyOp37
 70
     1
102
RTVSPropertyOp38
 70
     1
102
RTVSPropertyOp39
 70
     1
102
RTVSPropertyOp40
 70
     1
102
RTVSPropertyOp41
 70
     1
102
RTVSPropertyOp42
 70
     1
102
RTVSPropertyOp43
 70
     1
102
RTVSPropertyOp44
 70
     1
102
RTVSPropertyOp45
 70
     1
102
RTVSPropertyOp46
 70
     1
102
RTVSPropertyOp47
 70
     1
102
RTVSPropertyOp48
 70
     1
102
RTVSPropertyOp49
 70
     1
102
RTVSPropertyOp50
 70
     1
102
RTVSPropertyOp51
 70
     0
102
RTVSPropertyOp52
 70
     0
102
RTVSPropertyOp53
 70
     1
102
RTVSPropertyOp54
 70
     1
102
RTVSPropertyOp55
 70
     1
102
RTVSPropertyOp56
 70
     1
102
RTVSPropertyOp57
 70
     1
102
RTVSPropertyOp58
 70
     1
102
RTVSPropertyOp59
 70
     1
102
RTVSPropertyOp60
 70
     1
102
RTVSPropertyOp61
 70
     1
102
RTVSPropertyOp62
 70
     1
  0
XRECORD
  5
1154D
102
{ACAD_REACTORS
330
1154C
102
}
330
1154C
100
AcDbXrecord
280
     1
102
RTVSPost2010Prop28
280
     0
102
RTVSPost2010PropOp28
 70
     1
102
RTVSPost2010Prop29
280
     1
102
RTVSPost2010PropOp29
 70
     1
102
RTVSPost2010Prop30
280
     1
102
RTVSPost2010PropOp30
 70
     1
102
RTVSPost2010Prop31
280
     0
102
RTVSPost2010PropOp31
 70
     1
102
RTVSPost2010Prop32
280
     0
102
RTVSPost2010PropOp32
 70
     1
102
RTVSPost2010Prop33
280
     0
102
RTVSPost2010PropOp33
 70
     1
102
RTVSPost2010Prop34
280
     0
102
RTVSPost2010PropOp34
 70
     1
102
RTVSPost2010Prop35
280
     0
102
RTVSPost2010PropOp35
 70
     1
102
RTVSPost2010Prop36
280
     0
102
RTVSPost2010PropOp36
 70
     1
102
RTVSPost2010Prop37
 90
       50
102
RTVSPost2010PropOp37
 70
     0
102
RTVSPost2010Prop38
140
0.0
102
RTVSPost2010PropOp38
 70
     0
102
RTVSPost2010Prop39
140
1.0
102
RTVSPost2010PropOp39
 70
     0
102
RTVSPost2010Prop40
 90
        0
102
RTVSPost2010PropOp40
 70
     0
102
RTVSPost2010Prop41ColorIndex
 90
       18
102
RTVSPost2010Prop41ColorRGB
 90
        0
102
RTVSPost2010PropOp41
 70
     0
102
RTVSPost2010Prop42
 90
       50
102
RTVSPost2010PropOp42
 70
     0
102
RTVSPost2010Prop43
 90
        3
102
RTVSPost2010PropOp43
 70
     0
102
RTVSPost2010Prop44ColorIndex
 90
        5
102
RTVSPost2010Prop44ColorRGB
 90
      255
102
RTVSPost2010PropOp44
 70
     0
102
RTVSPost2010Prop45
280
     0
102
RTVSPost2010PropOp45
 70
     1
102
RTVSPost2010Prop46
 90
       50
102
RTVSPost2010PropOp46
 70
     0
102
RTVSPost2010Prop47
 90
       50
102
RTVSPost2010PropOp47
 70
     0
102
RTVSPost2010Prop48
 90
       50
102
RTVSPost2010PropOp48
 70
     0
102
RTVSPost2010Prop49
280
     0
102
RTVSPost2010PropOp49
 70
     1
102
RTVSPost2010Prop50
 90
       50
102
RTVSPost2010PropOp50
 70
     0
102
RTVSPost2010Prop51ColorIndex
 90
      256
102
RTVSPost2010Prop51ColorRGB
 90
-16777216
102
RTVSPost2010PropOp51
 70
     0
102
RTVSPost2010Prop52
140
1.0
102
RTVSPost2010PropOp52
 70
     0
102
RTVSPost2010Prop53
 90
        2
102
RTVSPost2010PropOp53
 70
     0
102
RTVSPost2010Prop54
  1
strokes_ogs.tif
102
RTVSPost2010PropOp54
 70
     0
102
RTVSPost2010Prop55
280
     0
102
RTVSPost2010PropOp55
 70
     1
102
RTVSPost2010Prop56
140
1.0
102
RTVSPost2010PropOp56
 70
     0
102
RTVSPost2010Prop57
140
1.0
102
RTVSPost2010PropOp57
 70
     0
102
RTVSPropertyOp0
 70
     0
102
RTVSPropertyOp1
 70
     0
102
RTVSPropertyOp2
 70
     0
102
RTVSPropertyOp3
 70
     0
102
RTVSPropertyOp4
 70
     0
102
RTVSPropertyOp5
 70
     0
102
RTVSPropertyOp6
 70
     0
102
RTVSPropertyOp7
 70
     0
102
RTVSPropertyOp8
 70
     0
102
RTVSPropertyOp9
 70
     0
102
RTVSPropertyOp10
 70
     0
102
RTVSPropertyOp11
 70
     0
102
RTVSPropertyOp12
 70
     0
102
RTVSPropertyOp13
 70
     0
102
RTVSPropertyOp14
 70
     2
102
RTVSPropertyOp15
 70
     0
102
RTVSPropertyOp16
 70
     0
102
RTVSPropertyOp17
 70
     0
102
RTVSPropertyOp18
 70
     0
102
RTVSPropertyOp19
 70
     0
102
RTVSPropertyOp20
 70
     0
102
RTVSPropertyOp21
 70
     0
102
RTVSPropertyOp22
 70
     0
102
RTVSPropertyOp23
 70
     0
102
RTVSPropertyOp24
 70
     0
102
RTVSPropertyOp25
 70
     0
102
RTVSPropertyOp26
 70
     0
102
RTVSPropertyOp27
 70
     0
102
RTVSPropertyOp28
 70
     1
102
RTVSPropertyOp29
 70
     1
102
RTVSPropertyOp30
 70
     1
102
RTVSPropertyOp31
 70
     1
102
RTVSPropertyOp32
 70
     1
102
RTVSPropertyOp33
 70
     1
102
RTVSPropertyOp34
 70
     1
102
RTVSPropertyOp35
 70
     1
102
RTVSPropertyOp36
 70
     1
102
RTVSPropertyOp37
 70
     0
102
RTVSPropertyOp38
 70
     0
102
RTVSPropertyOp39
 70
     0
102
RTVSPropertyOp40
 70
     0
102
RTVSPropertyOp41
 70
     0
102
RTVSPropertyOp42
 70
     0
102
RTVSPropertyOp43
 70
     0
102
RTVSPropertyOp44
 70
     0
102
RTVSPropertyOp45
 70
     1
102
RTVSPropertyOp46
 70
     0
102
RTVSPropertyOp47
 70
     0
102
RTVSPropertyOp48
 70
     0
102
RTVSPropertyOp49
 70
     1
102
RTVSPropertyOp50
 70
     0
102
RTVSPropertyOp51
 70
     0
102
RTVSPropertyOp52
 70
     0
102
RTVSPropertyOp53
 70
     0
102
RTVSPropertyOp54
 70
     0
102
RTVSPropertyOp55
 70
     1
102
RTVSPropertyOp56
 70
     0
102
RTVSPropertyOp57
 70
     0
102
RTVSPropertyOp58
 70
     0
102
RTVSPropertyOp59
 70
     0
102
RTVSPropertyOp60
 70
     0
102
RTVSPropertyOp61
 70
     0
102
RTVSPropertyOp62
 70
     0
  0
XRECORD
  5
11533
102
{ACAD_REACTORS
330
11532
102
}
330
11532
100
AcDbXrecord
280
     1
102
RTVSPost2010Prop28
280
     0
102
RTVSPost2010PropOp28
 70
     1
102
RTVSPost2010Prop29
280
     1
102
RTVSPost2010PropOp29
 70
     1
102
RTVSPost2010Prop30
280
     1
102
RTVSPost2010PropOp30
 70
     1
102
RTVSPost2010Prop31
280
     0
102
RTVSPost2010PropOp31
 70
     1
102
RTVSPost2010Prop32
280
     0
102
RTVSPost2010PropOp32
 70
     1
102
RTVSPost2010Prop33
280
     0
102
RTVSPost2010PropOp33
 70
     1
102
RTVSPost2010Prop34
280
     0
102
RTVSPost2010PropOp34
 70
     1
102
RTVSPost2010Prop35
280
     0
102
RTVSPost2010PropOp35
 70
     1
102
RTVSPost2010Prop36
280
     0
102
RTVSPost2010PropOp36
 70
     1
102
RTVSPost2010Prop37
 90
       50
102
RTVSPost2010PropOp37
 70
     1
102
RTVSPost2010Prop38
140
0.0
102
RTVSPost2010PropOp38
 70
     1
102
RTVSPost2010Prop39
140
1.0
102
RTVSPost2010PropOp39
 70
     1
102
RTVSPost2010Prop40
 90
        0
102
RTVSPost2010PropOp40
 70
     1
102
RTVSPost2010Prop41ColorIndex
 90
       18
102
RTVSPost2010Prop41ColorRGB
 90
        0
102
RTVSPost2010PropOp41
 70
     1
102
RTVSPost2010Prop42
 90
       50
102
RTVSPost2010PropOp42
 70
     1
102
RTVSPost2010Prop43
 90
        3
102
RTVSPost2010PropOp43
 70
     1
102
RTVSPost2010Prop44ColorIndex
 90
        5
102
RTVSPost2010Prop44ColorRGB
 90
      255
102
RTVSPost2010PropOp44
 70
     1
102
RTVSPost2010Prop45
280
     0
102
RTVSPost2010PropOp45
 70
     1
102
RTVSPost2010Prop46
 90
       50
102
RTVSPost2010PropOp46
 70
     1
102
RTVSPost2010Prop47
 90
       50
102
RTVSPost2010PropOp47
 70
     1
102
RTVSPost2010Prop48
 90
       50
102
RTVSPost2010PropOp48
 70
     1
102
RTVSPost2010Prop49
280
     0
102
RTVSPost2010PropOp49
 70
     1
102
RTVSPost2010Prop50
 90
       50
102
RTVSPost2010PropOp50
 70
     1
102
RTVSPost2010Prop51ColorIndex
 90
      256
102
RTVSPost2010Prop51ColorRGB
 90
-16777216
102
RTVSPost2010PropOp51
 70
     0
102
RTVSPost2010Prop52
140
1.0
102
RTVSPost2010PropOp52
 70
     0
102
RTVSPost2010Prop53
 90
        2
102
RTVSPost2010PropOp53
 70
     1
102
RTVSPost2010Prop54
  1
strokes_ogs.tif
102
RTVSPost2010PropOp54
 70
     1
102
RTVSPost2010Prop55
280
     0
102
RTVSPost2010PropOp55
 70
     1
102
RTVSPost2010Prop56
140
1.0
102
RTVSPost2010PropOp56
 70
     1
102
RTVSPost2010Prop57
140
1.0
102
RTVSPost2010PropOp57
 70
     1
102
RTVSPropertyOp0
 70
     1
102
RTVSPropertyOp1
 70
     1
102
RTVSPropertyOp2
 70
     1
102
RTVSPropertyOp3
 70
     1
102
RTVSPropertyOp4
 70
     1
102
RTVSPropertyOp5
 70
     1
102
RTVSPropertyOp6
 70
     1
102
RTVSPropertyOp7
 70
     1
102
RTVSPropertyOp8
 70
     1
102
RTVSPropertyOp9
 70
     1
102
RTVSPropertyOp10
 70
     1
102
RTVSPropertyOp11
 70
     1
102
RTVSPropertyOp12
 70
     1
102
RTVSPropertyOp13
 70
     1
102
RTVSPropertyOp14
 70
     1
102
RTVSPropertyOp15
 70
     1
102
RTVSPropertyOp16
 70
     1
102
RTVSPropertyOp17
 70
     1
102
RTVSPropertyOp18
 70
     1
102
RTVSPropertyOp19
 70
     1
102
RTVSPropertyOp20
 70
     1
102
RTVSPropertyOp21
 70
     1
102
RTVSPropertyOp22
 70
     1
102
RTVSPropertyOp23
 70
     1
102
RTVSPropertyOp24
 70
     1
102
RTVSPropertyOp25
 70
     1
102
RTVSPropertyOp26
 70
     1
102
RTVSPropertyOp27
 70
     1
102
RTVSPropertyOp28
 70
     1
102
RTVSPropertyOp29
 70
     1
102
RTVSPropertyOp30
 70
     1
102
RTVSPropertyOp31
 70
     1
102
RTVSPropertyOp32
 70
     1
102
RTVSPropertyOp33
 70
     1
102
RTVSPropertyOp34
 70
     1
102
RTVSPropertyOp35
 70
     1
102
RTVSPropertyOp36
 70
     1
102
RTVSPropertyOp37
 70
     1
102
RTVSPropertyOp38
 70
     1
102
RTVSPropertyOp39
 70
     1
102
RTVSPropertyOp40
 70
     1
102
RTVSPropertyOp41
 70
     1
102
RTVSPropertyOp42
 70
     1
102
RTVSPropertyOp43
 70
     1
102
RTVSPropertyOp44
 70
     1
102
RTVSPropertyOp45
 70
     1
102
RTVSPropertyOp46
 70
     1
102
RTVSPropertyOp47
 70
     1
102
RTVSPropertyOp48
 70
     1
102
RTVSPropertyOp49
 70
     1
102
RTVSPropertyOp50
 70
     1
102
RTVSPropertyOp51
 70
     0
102
RTVSPropertyOp52
 70
     0
102
RTVSPropertyOp53
 70
     1
102
RTVSPropertyOp54
 70
     1
102
RTVSPropertyOp55
 70
     1
102
RTVSPropertyOp56
 70
     1
102
RTVSPropertyOp57
 70
     1
102
RTVSPropertyOp58
 70
     1
102
RTVSPropertyOp59
 70
     1
102
RTVSPropertyOp60
 70
     1
102
RTVSPropertyOp61
 70
     1
102
RTVSPropertyOp62
 70
     1
  0
XRECORD
  5
11549
102
{ACAD_REACTORS
330
11548
102
}
330
11548
100
AcDbXrecord
280
     1
102
RTVSPost2010Prop28
280
     0
102
RTVSPost2010PropOp28
 70
     1
102
RTVSPost2010Prop29
280
     1
102
RTVSPost2010PropOp29
 70
     1
102
RTVSPost2010Prop30
280
     1
102
RTVSPost2010PropOp30
 70
     1
102
RTVSPost2010Prop31
280
     0
102
RTVSPost2010PropOp31
 70
     1
102
RTVSPost2010Prop32
280
     0
102
RTVSPost2010PropOp32
 70
     1
102
RTVSPost2010Prop33
280
     0
102
RTVSPost2010PropOp33
 70
     1
102
RTVSPost2010Prop34
280
     0
102
RTVSPost2010PropOp34
 70
     1
102
RTVSPost2010Prop35
280
     0
102
RTVSPost2010PropOp35
 70
     1
102
RTVSPost2010Prop36
280
     0
102
RTVSPost2010PropOp36
 70
     1
102
RTVSPost2010Prop37
 90
       50
102
RTVSPost2010PropOp37
 70
     1
102
RTVSPost2010Prop38
140
0.0
102
RTVSPost2010PropOp38
 70
     1
102
RTVSPost2010Prop39
140
1.0
102
RTVSPost2010PropOp39
 70
     1
102
RTVSPost2010Prop40
 90
        0
102
RTVSPost2010PropOp40
 70
     1
102
RTVSPost2010Prop41ColorIndex
 90
       18
102
RTVSPost2010Prop41ColorRGB
 90
        0
102
RTVSPost2010PropOp41
 70
     1
102
RTVSPost2010Prop42
 90
       50
102
RTVSPost2010PropOp42
 70
     1
102
RTVSPost2010Prop43
 90
        3
102
RTVSPost2010PropOp43
 70
     1
102
RTVSPost2010Prop44ColorIndex
 90
        5
102
RTVSPost2010Prop44ColorRGB
 90
      255
102
RTVSPost2010PropOp44
 70
     1
102
RTVSPost2010Prop45
280
     0
102
RTVSPost2010PropOp45
 70
     1
102
RTVSPost2010Prop46
 90
       50
102
RTVSPost2010PropOp46
 70
     1
102
RTVSPost2010Prop47
 90
       50
102
RTVSPost2010PropOp47
 70
     1
102
RTVSPost2010Prop48
 90
       50
102
RTVSPost2010PropOp48
 70
     1
102
RTVSPost2010Prop49
280
     0
102
RTVSPost2010PropOp49
 70
     1
102
RTVSPost2010Prop50
 90
       50
102
RTVSPost2010PropOp50
 70
     1
102
RTVSPost2010Prop51ColorIndex
 90
      256
102
RTVSPost2010Prop51ColorRGB
 90
-16777216
102
RTVSPost2010PropOp51
 70
     0
102
RTVSPost2010Prop52
140
1.0
102
RTVSPost2010PropOp52
 70
     0
102
RTVSPost2010Prop53
 90
        2
102
RTVSPost2010PropOp53
 70
     1
102
RTVSPost2010Prop54
  1
strokes_ogs.tif
102
RTVSPost2010PropOp54
 70
     1
102
RTVSPost2010Prop55
280
     0
102
RTVSPost2010PropOp55
 70
     1
102
RTVSPost2010Prop56
140
1.0
102
RTVSPost2010PropOp56
 70
     1
102
RTVSPost2010Prop57
140
1.0
102
RTVSPost2010PropOp57
 70
     1
102
RTVSPropertyOp0
 70
     1
102
RTVSPropertyOp1
 70
     1
102
RTVSPropertyOp2
 70
     1
102
RTVSPropertyOp3
 70
     1
102
RTVSPropertyOp4
 70
     1
102
RTVSPropertyOp5
 70
     1
102
RTVSPropertyOp6
 70
     1
102
RTVSPropertyOp7
 70
     1
102
RTVSPropertyOp8
 70
     1
102
RTVSPropertyOp9
 70
     1
102
RTVSPropertyOp10
 70
     1
102
RTVSPropertyOp11
 70
     1
102
RTVSPropertyOp12
 70
     1
102
RTVSPropertyOp13
 70
     1
102
RTVSPropertyOp14
 70
     1
102
RTVSPropertyOp15
 70
     1
102
RTVSPropertyOp16
 70
     1
102
RTVSPropertyOp17
 70
     1
102
RTVSPropertyOp18
 70
     1
102
RTVSPropertyOp19
 70
     1
102
RTVSPropertyOp20
 70
     1
102
RTVSPropertyOp21
 70
     1
102
RTVSPropertyOp22
 70
     1
102
RTVSPropertyOp23
 70
     1
102
RTVSPropertyOp24
 70
     1
102
RTVSPropertyOp25
 70
     1
102
RTVSPropertyOp26
 70
     1
102
RTVSPropertyOp27
 70
     1
102
RTVSPropertyOp28
 70
     1
102
RTVSPropertyOp29
 70
     1
102
RTVSPropertyOp30
 70
     1
102
RTVSPropertyOp31
 70
     1
102
RTVSPropertyOp32
 70
     1
102
RTVSPropertyOp33
 70
     1
102
RTVSPropertyOp34
 70
     1
102
RTVSPropertyOp35
 70
     1
102
RTVSPropertyOp36
 70
     1
102
RTVSPropertyOp37
 70
     1
102
RTVSPropertyOp38
 70
     1
102
RTVSPropertyOp39
 70
     1
102
RTVSPropertyOp40
 70
     1
102
RTVSPropertyOp41
 70
     1
102
RTVSPropertyOp42
 70
     1
102
RTVSPropertyOp43
 70
     1
102
RTVSPropertyOp44
 70
     1
102
RTVSPropertyOp45
 70
     1
102
RTVSPropertyOp46
 70
     1
102
RTVSPropertyOp47
 70
     1
102
RTVSPropertyOp48
 70
     1
102
RTVSPropertyOp49
 70
     1
102
RTVSPropertyOp50
 70
     1
102
RTVSPropertyOp51
 70
     0
102
RTVSPropertyOp52
 70
     0
102
RTVSPropertyOp53
 70
     1
102
RTVSPropertyOp54
 70
     1
102
RTVSPropertyOp55
 70
     1
102
RTVSPropertyOp56
 70
     1
102
RTVSPropertyOp57
 70
     1
102
RTVSPropertyOp58
 70
     1
102
RTVSPropertyOp59
 70
     1
102
RTVSPropertyOp60
 70
     1
102
RTVSPropertyOp61
 70
     1
102
RTVSPropertyOp62
 70
     1
  0
XRECORD
  5
11547
102
{ACAD_REACTORS
330
11546
102
}
330
11546
100
AcDbXrecord
280
     1
102
RTVSPost2010Prop28
280
     0
102
RTVSPost2010PropOp28
 70
     1
102
RTVSPost2010Prop29
280
     1
102
RTVSPost2010PropOp29
 70
     1
102
RTVSPost2010Prop30
280
     1
102
RTVSPost2010PropOp30
 70
     1
102
RTVSPost2010Prop31
280
     0
102
RTVSPost2010PropOp31
 70
     1
102
RTVSPost2010Prop32
280
     0
102
RTVSPost2010PropOp32
 70
     1
102
RTVSPost2010Prop33
280
     0
102
RTVSPost2010PropOp33
 70
     1
102
RTVSPost2010Prop34
280
     0
102
RTVSPost2010PropOp34
 70
     1
102
RTVSPost2010Prop35
280
     0
102
RTVSPost2010PropOp35
 70
     1
102
RTVSPost2010Prop36
280
     0
102
RTVSPost2010PropOp36
 70
     1
102
RTVSPost2010Prop37
 90
       50
102
RTVSPost2010PropOp37
 70
     1
102
RTVSPost2010Prop38
140
0.0
102
RTVSPost2010PropOp38
 70
     1
102
RTVSPost2010Prop39
140
1.0
102
RTVSPost2010PropOp39
 70
     1
102
RTVSPost2010Prop40
 90
        0
102
RTVSPost2010PropOp40
 70
     1
102
RTVSPost2010Prop41ColorIndex
 90
       18
102
RTVSPost2010Prop41ColorRGB
 90
        0
102
RTVSPost2010PropOp41
 70
     1
102
RTVSPost2010Prop42
 90
       50
102
RTVSPost2010PropOp42
 70
     1
102
RTVSPost2010Prop43
 90
        3
102
RTVSPost2010PropOp43
 70
     1
102
RTVSPost2010Prop44ColorIndex
 90
        5
102
RTVSPost2010Prop44ColorRGB
 90
      255
102
RTVSPost2010PropOp44
 70
     1
102
RTVSPost2010Prop45
280
     0
102
RTVSPost2010PropOp45
 70
     1
102
RTVSPost2010Prop46
 90
       50
102
RTVSPost2010PropOp46
 70
     1
102
RTVSPost2010Prop47
 90
       50
102
RTVSPost2010PropOp47
 70
     1
102
RTVSPost2010Prop48
 90
       50
102
RTVSPost2010PropOp48
 70
     1
102
RTVSPost2010Prop49
280
     0
102
RTVSPost2010PropOp49
 70
     1
102
RTVSPost2010Prop50
 90
       50
102
RTVSPost2010PropOp50
 70
     1
102
RTVSPost2010Prop51ColorIndex
 90
      256
102
RTVSPost2010Prop51ColorRGB
 90
-16777216
102
RTVSPost2010PropOp51
 70
     0
102
RTVSPost2010Prop52
140
1.0
102
RTVSPost2010PropOp52
 70
     0
102
RTVSPost2010Prop53
 90
        2
102
RTVSPost2010PropOp53
 70
     1
102
RTVSPost2010Prop54
  1
strokes_ogs.tif
102
RTVSPost2010PropOp54
 70
     1
102
RTVSPost2010Prop55
280
     0
102
RTVSPost2010PropOp55
 70
     1
102
RTVSPost2010Prop56
140
1.0
102
RTVSPost2010PropOp56
 70
     1
102
RTVSPost2010Prop57
140
1.0
102
RTVSPost2010PropOp57
 70
     1
102
RTVSPropertyOp0
 70
     1
102
RTVSPropertyOp1
 70
     1
102
RTVSPropertyOp2
 70
     1
102
RTVSPropertyOp3
 70
     1
102
RTVSPropertyOp4
 70
     1
102
RTVSPropertyOp5
 70
     1
102
RTVSPropertyOp6
 70
     1
102
RTVSPropertyOp7
 70
     1
102
RTVSPropertyOp8
 70
     1
102
RTVSPropertyOp9
 70
     1
102
RTVSPropertyOp10
 70
     1
102
RTVSPropertyOp11
 70
     1
102
RTVSPropertyOp12
 70
     1
102
RTVSPropertyOp13
 70
     1
102
RTVSPropertyOp14
 70
     1
102
RTVSPropertyOp15
 70
     1
102
RTVSPropertyOp16
 70
     1
102
RTVSPropertyOp17
 70
     1
102
RTVSPropertyOp18
 70
     1
102
RTVSPropertyOp19
 70
     1
102
RTVSPropertyOp20
 70
     1
102
RTVSPropertyOp21
 70
     1
102
RTVSPropertyOp22
 70
     1
102
RTVSPropertyOp23
 70
     1
102
RTVSPropertyOp24
 70
     1
102
RTVSPropertyOp25
 70
     1
102
RTVSPropertyOp26
 70
     1
102
RTVSPropertyOp27
 70
     1
102
RTVSPropertyOp28
 70
     1
102
RTVSPropertyOp29
 70
     1
102
RTVSPropertyOp30
 70
     1
102
RTVSPropertyOp31
 70
     1
102
RTVSPropertyOp32
 70
     1
102
RTVSPropertyOp33
 70
     1
102
RTVSPropertyOp34
 70
     1
102
RTVSPropertyOp35
 70
     1
102
RTVSPropertyOp36
 70
     1
102
RTVSPropertyOp37
 70
     1
102
RTVSPropertyOp38
 70
     1
102
RTVSPropertyOp39
 70
     1
102
RTVSPropertyOp40
 70
     1
102
RTVSPropertyOp41
 70
     1
102
RTVSPropertyOp42
 70
     1
102
RTVSPropertyOp43
 70
     1
102
RTVSPropertyOp44
 70
     1
102
RTVSPropertyOp45
 70
     1
102
RTVSPropertyOp46
 70
     1
102
RTVSPropertyOp47
 70
     1
102
RTVSPropertyOp48
 70
     1
102
RTVSPropertyOp49
 70
     1
102
RTVSPropertyOp50
 70
     1
102
RTVSPropertyOp51
 70
     0
102
RTVSPropertyOp52
 70
     0
102
RTVSPropertyOp53
 70
     1
102
RTVSPropertyOp54
 70
     1
102
RTVSPropertyOp55
 70
     1
102
RTVSPropertyOp56
 70
     1
102
RTVSPropertyOp57
 70
     1
102
RTVSPropertyOp58
 70
     1
102
RTVSPropertyOp59
 70
     1
102
RTVSPropertyOp60
 70
     1
102
RTVSPropertyOp61
 70
     1
102
RTVSPropertyOp62
 70
     1
  0
XRECORD
  5
11541
102
{ACAD_REACTORS
330
11540
102
}
330
11540
100
AcDbXrecord
280
     1
102
RTVSPost2010Prop28
280
     0
102
RTVSPost2010PropOp28
 70
     1
102
RTVSPost2010Prop29
280
     1
102
RTVSPost2010PropOp29
 70
     1
102
RTVSPost2010Prop30
280
     1
102
RTVSPost2010PropOp30
 70
     1
102
RTVSPost2010Prop31
280
     0
102
RTVSPost2010PropOp31
 70
     1
102
RTVSPost2010Prop32
280
     0
102
RTVSPost2010PropOp32
 70
     1
102
RTVSPost2010Prop33
280
     0
102
RTVSPost2010PropOp33
 70
     1
102
RTVSPost2010Prop34
280
     0
102
RTVSPost2010PropOp34
 70
     1
102
RTVSPost2010Prop35
280
     0
102
RTVSPost2010PropOp35
 70
     1
102
RTVSPost2010Prop36
280
     0
102
RTVSPost2010PropOp36
 70
     1
102
RTVSPost2010Prop37
 90
       50
102
RTVSPost2010PropOp37
 70
     1
102
RTVSPost2010Prop38
140
0.0
102
RTVSPost2010PropOp38
 70
     1
102
RTVSPost2010Prop39
140
1.0
102
RTVSPost2010PropOp39
 70
     1
102
RTVSPost2010Prop40
 90
        0
102
RTVSPost2010PropOp40
 70
     1
102
RTVSPost2010Prop41ColorIndex
 90
       18
102
RTVSPost2010Prop41ColorRGB
 90
        0
102
RTVSPost2010PropOp41
 70
     1
102
RTVSPost2010Prop42
 90
       50
102
RTVSPost2010PropOp42
 70
     1
102
RTVSPost2010Prop43
 90
        3
102
RTVSPost2010PropOp43
 70
     1
102
RTVSPost2010Prop44ColorIndex
 90
        5
102
RTVSPost2010Prop44ColorRGB
 90
      255
102
RTVSPost2010PropOp44
 70
     1
102
RTVSPost2010Prop45
280
     0
102
RTVSPost2010PropOp45
 70
     1
102
RTVSPost2010Prop46
 90
       50
102
RTVSPost2010PropOp46
 70
     1
102
RTVSPost2010Prop47
 90
       50
102
RTVSPost2010PropOp47
 70
     1
102
RTVSPost2010Prop48
 90
       50
102
RTVSPost2010PropOp48
 70
     1
102
RTVSPost2010Prop49
280
     0
102
RTVSPost2010PropOp49
 70
     1
102
RTVSPost2010Prop50
 90
       50
102
RTVSPost2010PropOp50
 70
     1
102
RTVSPost2010Prop51ColorIndex
 90
      256
102
RTVSPost2010Prop51ColorRGB
 90
-16777216
102
RTVSPost2010PropOp51
 70
     0
102
RTVSPost2010Prop52
140
1.0
102
RTVSPost2010PropOp52
 70
     0
102
RTVSPost2010Prop53
 90
        2
102
RTVSPost2010PropOp53
 70
     1
102
RTVSPost2010Prop54
  1
strokes_ogs.tif
102
RTVSPost2010PropOp54
 70
     1
102
RTVSPost2010Prop55
280
     0
102
RTVSPost2010PropOp55
 70
     1
102
RTVSPost2010Prop56
140
1.0
102
RTVSPost2010PropOp56
 70
     1
102
RTVSPost2010Prop57
140
1.0
102
RTVSPost2010PropOp57
 70
     1
102
RTVSPropertyOp0
 70
     1
102
RTVSPropertyOp1
 70
     1
102
RTVSPropertyOp2
 70
     1
102
RTVSPropertyOp3
 70
     1
102
RTVSPropertyOp4
 70
     1
102
RTVSPropertyOp5
 70
     1
102
RTVSPropertyOp6
 70
     1
102
RTVSPropertyOp7
 70
     1
102
RTVSPropertyOp8
 70
     1
102
RTVSPropertyOp9
 70
     1
102
RTVSPropertyOp10
 70
     1
102
RTVSPropertyOp11
 70
     1
102
RTVSPropertyOp12
 70
     1
102
RTVSPropertyOp13
 70
     1
102
RTVSPropertyOp14
 70
     1
102
RTVSPropertyOp15
 70
     1
102
RTVSPropertyOp16
 70
     1
102
RTVSPropertyOp17
 70
     1
102
RTVSPropertyOp18
 70
     1
102
RTVSPropertyOp19
 70
     1
102
RTVSPropertyOp20
 70
     1
102
RTVSPropertyOp21
 70
     1
102
RTVSPropertyOp22
 70
     1
102
RTVSPropertyOp23
 70
     1
102
RTVSPropertyOp24
 70
     1
102
RTVSPropertyOp25
 70
     1
102
RTVSPropertyOp26
 70
     1
102
RTVSPropertyOp27
 70
     1
102
RTVSPropertyOp28
 70
     1
102
RTVSPropertyOp29
 70
     1
102
RTVSPropertyOp30
 70
     1
102
RTVSPropertyOp31
 70
     1
102
RTVSPropertyOp32
 70
     1
102
RTVSPropertyOp33
 70
     1
102
RTVSPropertyOp34
 70
     1
102
RTVSPropertyOp35
 70
     1
102
RTVSPropertyOp36
 70
     1
102
RTVSPropertyOp37
 70
     1
102
RTVSPropertyOp38
 70
     1
102
RTVSPropertyOp39
 70
     1
102
RTVSPropertyOp40
 70
     1
102
RTVSPropertyOp41
 70
     1
102
RTVSPropertyOp42
 70
     1
102
RTVSPropertyOp43
 70
     1
102
RTVSPropertyOp44
 70
     1
102
RTVSPropertyOp45
 70
     1
102
RTVSPropertyOp46
 70
     1
102
RTVSPropertyOp47
 70
     1
102
RTVSPropertyOp48
 70
     1
102
RTVSPropertyOp49
 70
     1
102
RTVSPropertyOp50
 70
     1
102
RTVSPropertyOp51
 70
     0
102
RTVSPropertyOp52
 70
     0
102
RTVSPropertyOp53
 70
     1
102
RTVSPropertyOp54
 70
     1
102
RTVSPropertyOp55
 70
     1
102
RTVSPropertyOp56
 70
     1
102
RTVSPropertyOp57
 70
     1
102
RTVSPropertyOp58
 70
     1
102
RTVSPropertyOp59
 70
     1
102
RTVSPropertyOp60
 70
     1
102
RTVSPropertyOp61
 70
     1
102
RTVSPropertyOp62
 70
     1
  0
XRECORD
  5
11543
102
{ACAD_REACTORS
330
11542
102
}
330
11542
100
AcDbXrecord
280
     1
102
RTVSPost2010Prop28
280
     0
102
RTVSPost2010PropOp28
 70
     1
102
RTVSPost2010Prop29
280
     1
102
RTVSPost2010PropOp29
 70
     1
102
RTVSPost2010Prop30
280
     1
102
RTVSPost2010PropOp30
 70
     1
102
RTVSPost2010Prop31
280
     0
102
RTVSPost2010PropOp31
 70
     1
102
RTVSPost2010Prop32
280
     0
102
RTVSPost2010PropOp32
 70
     1
102
RTVSPost2010Prop33
280
     0
102
RTVSPost2010PropOp33
 70
     1
102
RTVSPost2010Prop34
280
     0
102
RTVSPost2010PropOp34
 70
     1
102
RTVSPost2010Prop35
280
     0
102
RTVSPost2010PropOp35
 70
     1
102
RTVSPost2010Prop36
280
     0
102
RTVSPost2010PropOp36
 70
     1
102
RTVSPost2010Prop37
 90
       50
102
RTVSPost2010PropOp37
 70
     1
102
RTVSPost2010Prop38
140
0.0
102
RTVSPost2010PropOp38
 70
     1
102
RTVSPost2010Prop39
140
1.0
102
RTVSPost2010PropOp39
 70
     1
102
RTVSPost2010Prop40
 90
        0
102
RTVSPost2010PropOp40
 70
     1
102
RTVSPost2010Prop41ColorIndex
 90
       18
102
RTVSPost2010Prop41ColorRGB
 90
        0
102
RTVSPost2010PropOp41
 70
     1
102
RTVSPost2010Prop42
 90
       50
102
RTVSPost2010PropOp42
 70
     1
102
RTVSPost2010Prop43
 90
        3
102
RTVSPost2010PropOp43
 70
     1
102
RTVSPost2010Prop44ColorIndex
 90
        5
102
RTVSPost2010Prop44ColorRGB
 90
      255
102
RTVSPost2010PropOp44
 70
     1
102
RTVSPost2010Prop45
280
     0
102
RTVSPost2010PropOp45
 70
     1
102
RTVSPost2010Prop46
 90
       50
102
RTVSPost2010PropOp46
 70
     1
102
RTVSPost2010Prop47
 90
       50
102
RTVSPost2010PropOp47
 70
     1
102
RTVSPost2010Prop48
 90
       50
102
RTVSPost2010PropOp48
 70
     1
102
RTVSPost2010Prop49
280
     0
102
RTVSPost2010PropOp49
 70
     1
102
RTVSPost2010Prop50
 90
       50
102
RTVSPost2010PropOp50
 70
     1
102
RTVSPost2010Prop51ColorIndex
 90
      256
102
RTVSPost2010Prop51ColorRGB
 90
-16777216
102
RTVSPost2010PropOp51
 70
     0
102
RTVSPost2010Prop52
140
1.0
102
RTVSPost2010PropOp52
 70
     0
102
RTVSPost2010Prop53
 90
        2
102
RTVSPost2010PropOp53
 70
     1
102
RTVSPost2010Prop54
  1
strokes_ogs.tif
102
RTVSPost2010PropOp54
 70
     1
102
RTVSPost2010Prop55
280
     0
102
RTVSPost2010PropOp55
 70
     1
102
RTVSPost2010Prop56
140
1.0
102
RTVSPost2010PropOp56
 70
     1
102
RTVSPost2010Prop57
140
1.0
102
RTVSPost2010PropOp57
 70
     1
102
RTVSPropertyOp0
 70
     1
102
RTVSPropertyOp1
 70
     1
102
RTVSPropertyOp2
 70
     1
102
RTVSPropertyOp3
 70
     1
102
RTVSPropertyOp4
 70
     1
102
RTVSPropertyOp5
 70
     1
102
RTVSPropertyOp6
 70
     1
102
RTVSPropertyOp7
 70
     1
102
RTVSPropertyOp8
 70
     1
102
RTVSPropertyOp9
 70
     1
102
RTVSPropertyOp10
 70
     1
102
RTVSPropertyOp11
 70
     1
102
RTVSPropertyOp12
 70
     1
102
RTVSPropertyOp13
 70
     1
102
RTVSPropertyOp14
 70
     1
102
RTVSPropertyOp15
 70
     1
102
RTVSPropertyOp16
 70
     1
102
RTVSPropertyOp17
 70
     1
102
RTVSPropertyOp18
 70
     1
102
RTVSPropertyOp19
 70
     1
102
RTVSPropertyOp20
 70
     1
102
RTVSPropertyOp21
 70
     1
102
RTVSPropertyOp22
 70
     1
102
RTVSPropertyOp23
 70
     1
102
RTVSPropertyOp24
 70
     1
102
RTVSPropertyOp25
 70
     1
102
RTVSPropertyOp26
 70
     1
102
RTVSPropertyOp27
 70
     1
102
RTVSPropertyOp28
 70
     1
102
RTVSPropertyOp29
 70
     1
102
RTVSPropertyOp30
 70
     1
102
RTVSPropertyOp31
 70
     1
102
RTVSPropertyOp32
 70
     1
102
RTVSPropertyOp33
 70
     1
102
RTVSPropertyOp34
 70
     1
102
RTVSPropertyOp35
 70
     1
102
RTVSPropertyOp36
 70
     1
102
RTVSPropertyOp37
 70
     1
102
RTVSPropertyOp38
 70
     1
102
RTVSPropertyOp39
 70
     1
102
RTVSPropertyOp40
 70
     1
102
RTVSPropertyOp41
 70
     1
102
RTVSPropertyOp42
 70
     1
102
RTVSPropertyOp43
 70
     1
102
RTVSPropertyOp44
 70
     1
102
RTVSPropertyOp45
 70
     1
102
RTVSPropertyOp46
 70
     1
102
RTVSPropertyOp47
 70
     1
102
RTVSPropertyOp48
 70
     1
102
RTVSPropertyOp49
 70
     1
102
RTVSPropertyOp50
 70
     1
102
RTVSPropertyOp51
 70
     0
102
RTVSPropertyOp52
 70
     0
102
RTVSPropertyOp53
 70
     1
102
RTVSPropertyOp54
 70
     1
102
RTVSPropertyOp55
 70
     1
102
RTVSPropertyOp56
 70
     1
102
RTVSPropertyOp57
 70
     1
102
RTVSPropertyOp58
 70
     1
102
RTVSPropertyOp59
 70
     1
102
RTVSPropertyOp60
 70
     1
102
RTVSPropertyOp61
 70
     1
102
RTVSPropertyOp62
 70
     1
  0
XRECORD
  5
11539
102
{ACAD_REACTORS
330
11538
102
}
330
11538
100
AcDbXrecord
280
     1
102
RTVSPost2010Prop28
280
     0
102
RTVSPost2010PropOp28
 70
     1
102
RTVSPost2010Prop29
280
     1
102
RTVSPost2010PropOp29
 70
     1
102
RTVSPost2010Prop30
280
     1
102
RTVSPost2010PropOp30
 70
     1
102
RTVSPost2010Prop31
280
     0
102
RTVSPost2010PropOp31
 70
     1
102
RTVSPost2010Prop32
280
     0
102
RTVSPost2010PropOp32
 70
     1
102
RTVSPost2010Prop33
280
     0
102
RTVSPost2010PropOp33
 70
     1
102
RTVSPost2010Prop34
280
     0
102
RTVSPost2010PropOp34
 70
     1
102
RTVSPost2010Prop35
280
     0
102
RTVSPost2010PropOp35
 70
     1
102
RTVSPost2010Prop36
280
     0
102
RTVSPost2010PropOp36
 70
     1
102
RTVSPost2010Prop37
 90
       50
102
RTVSPost2010PropOp37
 70
     1
102
RTVSPost2010Prop38
140
0.0
102
RTVSPost2010PropOp38
 70
     1
102
RTVSPost2010Prop39
140
1.0
102
RTVSPost2010PropOp39
 70
     1
102
RTVSPost2010Prop40
 90
        0
102
RTVSPost2010PropOp40
 70
     1
102
RTVSPost2010Prop41ColorIndex
 90
       18
102
RTVSPost2010Prop41ColorRGB
 90
        0
102
RTVSPost2010PropOp41
 70
     1
102
RTVSPost2010Prop42
 90
       50
102
RTVSPost2010PropOp42
 70
     1
102
RTVSPost2010Prop43
 90
        3
102
RTVSPost2010PropOp43
 70
     1
102
RTVSPost2010Prop44ColorIndex
 90
        5
102
RTVSPost2010Prop44ColorRGB
 90
      255
102
RTVSPost2010PropOp44
 70
     1
102
RTVSPost2010Prop45
280
     0
102
RTVSPost2010PropOp45
 70
     1
102
RTVSPost2010Prop46
 90
       50
102
RTVSPost2010PropOp46
 70
     1
102
RTVSPost2010Prop47
 90
       50
102
RTVSPost2010PropOp47
 70
     1
102
RTVSPost2010Prop48
 90
       50
102
RTVSPost2010PropOp48
 70
     1
102
RTVSPost2010Prop49
280
     0
102
RTVSPost2010PropOp49
 70
     1
102
RTVSPost2010Prop50
 90
       50
102
RTVSPost2010PropOp50
 70
     1
102
RTVSPost2010Prop51ColorIndex
 90
      256
102
RTVSPost2010Prop51ColorRGB
 90
-16777216
102
RTVSPost2010PropOp51
 70
     0
102
RTVSPost2010Prop52
140
1.0
102
RTVSPost2010PropOp52
 70
     0
102
RTVSPost2010Prop53
 90
        2
102
RTVSPost2010PropOp53
 70
     1
102
RTVSPost2010Prop54
  1
strokes_ogs.tif
102
RTVSPost2010PropOp54
 70
     1
102
RTVSPost2010Prop55
280
     0
102
RTVSPost2010PropOp55
 70
     1
102
RTVSPost2010Prop56
140
1.0
102
RTVSPost2010PropOp56
 70
     1
102
RTVSPost2010Prop57
140
1.0
102
RTVSPost2010PropOp57
 70
     1
102
RTVSPropertyOp0
 70
     1
102
RTVSPropertyOp1
 70
     1
102
RTVSPropertyOp2
 70
     1
102
RTVSPropertyOp3
 70
     1
102
RTVSPropertyOp4
 70
     1
102
RTVSPropertyOp5
 70
     1
102
RTVSPropertyOp6
 70
     1
102
RTVSPropertyOp7
 70
     1
102
RTVSPropertyOp8
 70
     1
102
RTVSPropertyOp9
 70
     1
102
RTVSPropertyOp10
 70
     1
102
RTVSPropertyOp11
 70
     1
102
RTVSPropertyOp12
 70
     1
102
RTVSPropertyOp13
 70
     1
102
RTVSPropertyOp14
 70
     1
102
RTVSPropertyOp15
 70
     1
102
RTVSPropertyOp16
 70
     1
102
RTVSPropertyOp17
 70
     1
102
RTVSPropertyOp18
 70
     1
102
RTVSPropertyOp19
 70
     1
102
RTVSPropertyOp20
 70
     1
102
RTVSPropertyOp21
 70
     1
102
RTVSPropertyOp22
 70
     1
102
RTVSPropertyOp23
 70
     1
102
RTVSPropertyOp24
 70
     1
102
RTVSPropertyOp25
 70
     1
102
RTVSPropertyOp26
 70
     1
102
RTVSPropertyOp27
 70
     1
102
RTVSPropertyOp28
 70
     1
102
RTVSPropertyOp29
 70
     1
102
RTVSPropertyOp30
 70
     1
102
RTVSPropertyOp31
 70
     1
102
RTVSPropertyOp32
 70
     1
102
RTVSPropertyOp33
 70
     1
102
RTVSPropertyOp34
 70
     1
102
RTVSPropertyOp35
 70
     1
102
RTVSPropertyOp36
 70
     1
102
RTVSPropertyOp37
 70
     1
102
RTVSPropertyOp38
 70
     1
102
RTVSPropertyOp39
 70
     1
102
RTVSPropertyOp40
 70
     1
102
RTVSPropertyOp41
 70
     1
102
RTVSPropertyOp42
 70
     1
102
RTVSPropertyOp43
 70
     1
102
RTVSPropertyOp44
 70
     1
102
RTVSPropertyOp45
 70
     1
102
RTVSPropertyOp46
 70
     1
102
RTVSPropertyOp47
 70
     1
102
RTVSPropertyOp48
 70
     1
102
RTVSPropertyOp49
 70
     1
102
RTVSPropertyOp50
 70
     1
102
RTVSPropertyOp51
 70
     0
102
RTVSPropertyOp52
 70
     0
102
RTVSPropertyOp53
 70
     1
102
RTVSPropertyOp54
 70
     1
102
RTVSPropertyOp55
 70
     1
102
RTVSPropertyOp56
 70
     1
102
RTVSPropertyOp57
 70
     1
102
RTVSPropertyOp58
 70
     1
102
RTVSPropertyOp59
 70
     1
102
RTVSPropertyOp60
 70
     1
102
RTVSPropertyOp61
 70
     1
102
RTVSPropertyOp62
 70
     1
  0
XRECORD
  5
1152D
102
{ACAD_REACTORS
330
1152C
102
}
330
1152C
100
AcDbXrecord
280
     1
102
RTVSPost2010Prop28
280
     0
102
RTVSPost2010PropOp28
 70
     1
102
RTVSPost2010Prop29
280
     1
102
RTVSPost2010PropOp29
 70
     1
102
RTVSPost2010Prop30
280
     1
102
RTVSPost2010PropOp30
 70
     1
102
RTVSPost2010Prop31
280
     0
102
RTVSPost2010PropOp31
 70
     1
102
RTVSPost2010Prop32
280
     0
102
RTVSPost2010PropOp32
 70
     1
102
RTVSPost2010Prop33
280
     0
102
RTVSPost2010PropOp33
 70
     1
102
RTVSPost2010Prop34
280
     0
102
RTVSPost2010PropOp34
 70
     1
102
RTVSPost2010Prop35
280
     0
102
RTVSPost2010PropOp35
 70
     1
102
RTVSPost2010Prop36
280
     0
102
RTVSPost2010PropOp36
 70
     1
102
RTVSPost2010Prop37
 90
       50
102
RTVSPost2010PropOp37
 70
     1
102
RTVSPost2010Prop38
140
0.0
102
RTVSPost2010PropOp38
 70
     1
102
RTVSPost2010Prop39
140
1.0
102
RTVSPost2010PropOp39
 70
     1
102
RTVSPost2010Prop40
 90
        0
102
RTVSPost2010PropOp40
 70
     1
102
RTVSPost2010Prop41ColorIndex
 90
       18
102
RTVSPost2010Prop41ColorRGB
 90
        0
102
RTVSPost2010PropOp41
 70
     1
102
RTVSPost2010Prop42
 90
       50
102
RTVSPost2010PropOp42
 70
     1
102
RTVSPost2010Prop43
 90
        3
102
RTVSPost2010PropOp43
 70
     1
102
RTVSPost2010Prop44ColorIndex
 90
        5
102
RTVSPost2010Prop44ColorRGB
 90
      255
102
RTVSPost2010PropOp44
 70
     1
102
RTVSPost2010Prop45
280
     0
102
RTVSPost2010PropOp45
 70
     1
102
RTVSPost2010Prop46
 90
       50
102
RTVSPost2010PropOp46
 70
     1
102
RTVSPost2010Prop47
 90
       50
102
RTVSPost2010PropOp47
 70
     1
102
RTVSPost2010Prop48
 90
       50
102
RTVSPost2010PropOp48
 70
     1
102
RTVSPost2010Prop49
280
     0
102
RTVSPost2010PropOp49
 70
     1
102
RTVSPost2010Prop50
 90
       50
102
RTVSPost2010PropOp50
 70
     1
102
RTVSPost2010Prop51ColorIndex
 90
      256
102
RTVSPost2010Prop51ColorRGB
 90
-16777216
102
RTVSPost2010PropOp51
 70
     0
102
RTVSPost2010Prop52
140
1.0
102
RTVSPost2010PropOp52
 70
     0
102
RTVSPost2010Prop53
 90
        2
102
RTVSPost2010PropOp53
 70
     1
102
RTVSPost2010Prop54
  1
strokes_ogs.tif
102
RTVSPost2010PropOp54
 70
     1
102
RTVSPost2010Prop55
280
     0
102
RTVSPost2010PropOp55
 70
     1
102
RTVSPost2010Prop56
140
1.0
102
RTVSPost2010PropOp56
 70
     1
102
RTVSPost2010Prop57
140
1.0
102
RTVSPost2010PropOp57
 70
     1
102
RTVSPropertyOp0
 70
     1
102
RTVSPropertyOp1
 70
     1
102
RTVSPropertyOp2
 70
     1
102
RTVSPropertyOp3
 70
     1
102
RTVSPropertyOp4
 70
     1
102
RTVSPropertyOp5
 70
     1
102
RTVSPropertyOp6
 70
     1
102
RTVSPropertyOp7
 70
     1
102
RTVSPropertyOp8
 70
     1
102
RTVSPropertyOp9
 70
     1
102
RTVSPropertyOp10
 70
     1
102
RTVSPropertyOp11
 70
     1
102
RTVSPropertyOp12
 70
     1
102
RTVSPropertyOp13
 70
     1
102
RTVSPropertyOp14
 70
     1
102
RTVSPropertyOp15
 70
     1
102
RTVSPropertyOp16
 70
     1
102
RTVSPropertyOp17
 70
     1
102
RTVSPropertyOp18
 70
     1
102
RTVSPropertyOp19
 70
     1
102
RTVSPropertyOp20
 70
     1
102
RTVSPropertyOp21
 70
     1
102
RTVSPropertyOp22
 70
     1
102
RTVSPropertyOp23
 70
     1
102
RTVSPropertyOp24
 70
     1
102
RTVSPropertyOp25
 70
     1
102
RTVSPropertyOp26
 70
     1
102
RTVSPropertyOp27
 70
     1
102
RTVSPropertyOp28
 70
     1
102
RTVSPropertyOp29
 70
     1
102
RTVSPropertyOp30
 70
     1
102
RTVSPropertyOp31
 70
     1
102
RTVSPropertyOp32
 70
     1
102
RTVSPropertyOp33
 70
     1
102
RTVSPropertyOp34
 70
     1
102
RTVSPropertyOp35
 70
     1
102
RTVSPropertyOp36
 70
     1
102
RTVSPropertyOp37
 70
     1
102
RTVSPropertyOp38
 70
     1
102
RTVSPropertyOp39
 70
     1
102
RTVSPropertyOp40
 70
     1
102
RTVSPropertyOp41
 70
     1
102
RTVSPropertyOp42
 70
     1
102
RTVSPropertyOp43
 70
     1
102
RTVSPropertyOp44
 70
     1
102
RTVSPropertyOp45
 70
     1
102
RTVSPropertyOp46
 70
     1
102
RTVSPropertyOp47
 70
     1
102
RTVSPropertyOp48
 70
     1
102
RTVSPropertyOp49
 70
     1
102
RTVSPropertyOp50
 70
     1
102
RTVSPropertyOp51
 70
     0
102
RTVSPropertyOp52
 70
     0
102
RTVSPropertyOp53
 70
     1
102
RTVSPropertyOp54
 70
     1
102
RTVSPropertyOp55
 70
     1
102
RTVSPropertyOp56
 70
     1
102
RTVSPropertyOp57
 70
     1
102
RTVSPropertyOp58
 70
     1
102
RTVSPropertyOp59
 70
     1
102
RTVSPropertyOp60
 70
     1
102
RTVSPropertyOp61
 70
     1
102
RTVSPropertyOp62
 70
     1
  0
XRECORD
  5
11545
102
{ACAD_REACTORS
330
11544
102
}
330
11544
100
AcDbXrecord
280
     1
102
RTVSPost2010Prop28
280
     0
102
RTVSPost2010PropOp28
 70
     1
102
RTVSPost2010Prop29
280
     1
102
RTVSPost2010PropOp29
 70
     1
102
RTVSPost2010Prop30
280
     1
102
RTVSPost2010PropOp30
 70
     1
102
RTVSPost2010Prop31
280
     0
102
RTVSPost2010PropOp31
 70
     1
102
RTVSPost2010Prop32
280
     0
102
RTVSPost2010PropOp32
 70
     1
102
RTVSPost2010Prop33
280
     0
102
RTVSPost2010PropOp33
 70
     1
102
RTVSPost2010Prop34
280
     0
102
RTVSPost2010PropOp34
 70
     1
102
RTVSPost2010Prop35
280
     0
102
RTVSPost2010PropOp35
 70
     1
102
RTVSPost2010Prop36
280
     0
102
RTVSPost2010PropOp36
 70
     1
102
RTVSPost2010Prop37
 90
       50
102
RTVSPost2010PropOp37
 70
     1
102
RTVSPost2010Prop38
140
0.0
102
RTVSPost2010PropOp38
 70
     1
102
RTVSPost2010Prop39
140
1.0
102
RTVSPost2010PropOp39
 70
     1
102
RTVSPost2010Prop40
 90
        0
102
RTVSPost2010PropOp40
 70
     1
102
RTVSPost2010Prop41ColorIndex
 90
       18
102
RTVSPost2010Prop41ColorRGB
 90
        0
102
RTVSPost2010PropOp41
 70
     1
102
RTVSPost2010Prop42
 90
       50
102
RTVSPost2010PropOp42
 70
     1
102
RTVSPost2010Prop43
 90
        3
102
RTVSPost2010PropOp43
 70
     1
102
RTVSPost2010Prop44ColorIndex
 90
        5
102
RTVSPost2010Prop44ColorRGB
 90
      255
102
RTVSPost2010PropOp44
 70
     1
102
RTVSPost2010Prop45
280
     0
102
RTVSPost2010PropOp45
 70
     1
102
RTVSPost2010Prop46
 90
       50
102
RTVSPost2010PropOp46
 70
     1
102
RTVSPost2010Prop47
 90
       50
102
RTVSPost2010PropOp47
 70
     1
102
RTVSPost2010Prop48
 90
       50
102
RTVSPost2010PropOp48
 70
     1
102
RTVSPost2010Prop49
280
     0
102
RTVSPost2010PropOp49
 70
     1
102
RTVSPost2010Prop50
 90
       50
102
RTVSPost2010PropOp50
 70
     1
102
RTVSPost2010Prop51ColorIndex
 90
      256
102
RTVSPost2010Prop51ColorRGB
 90
-16777216
102
RTVSPost2010PropOp51
 70
     0
102
RTVSPost2010Prop52
140
1.0
102
RTVSPost2010PropOp52
 70
     0
102
RTVSPost2010Prop53
 90
        2
102
RTVSPost2010PropOp53
 70
     1
102
RTVSPost2010Prop54
  1
strokes_ogs.tif
102
RTVSPost2010PropOp54
 70
     1
102
RTVSPost2010Prop55
280
     0
102
RTVSPost2010PropOp55
 70
     1
102
RTVSPost2010Prop56
140
1.0
102
RTVSPost2010PropOp56
 70
     1
102
RTVSPost2010Prop57
140
1.0
102
RTVSPost2010PropOp57
 70
     1
102
RTVSPropertyOp0
 70
     1
102
RTVSPropertyOp1
 70
     1
102
RTVSPropertyOp2
 70
     1
102
RTVSPropertyOp3
 70
     1
102
RTVSPropertyOp4
 70
     1
102
RTVSPropertyOp5
 70
     1
102
RTVSPropertyOp6
 70
     1
102
RTVSPropertyOp7
 70
     1
102
RTVSPropertyOp8
 70
     1
102
RTVSPropertyOp9
 70
     1
102
RTVSPropertyOp10
 70
     1
102
RTVSPropertyOp11
 70
     1
102
RTVSPropertyOp12
 70
     1
102
RTVSPropertyOp13
 70
     1
102
RTVSPropertyOp14
 70
     1
102
RTVSPropertyOp15
 70
     1
102
RTVSPropertyOp16
 70
     1
102
RTVSPropertyOp17
 70
     1
102
RTVSPropertyOp18
 70
     1
102
RTVSPropertyOp19
 70
     1
102
RTVSPropertyOp20
 70
     1
102
RTVSPropertyOp21
 70
     1
102
RTVSPropertyOp22
 70
     1
102
RTVSPropertyOp23
 70
     1
102
RTVSPropertyOp24
 70
     1
102
RTVSPropertyOp25
 70
     1
102
RTVSPropertyOp26
 70
     1
102
RTVSPropertyOp27
 70
     1
102
RTVSPropertyOp28
 70
     1
102
RTVSPropertyOp29
 70
     1
102
RTVSPropertyOp30
 70
     1
102
RTVSPropertyOp31
 70
     1
102
RTVSPropertyOp32
 70
     1
102
RTVSPropertyOp33
 70
     1
102
RTVSPropertyOp34
 70
     1
102
RTVSPropertyOp35
 70
     1
102
RTVSPropertyOp36
 70
     1
102
RTVSPropertyOp37
 70
     1
102
RTVSPropertyOp38
 70
     1
102
RTVSPropertyOp39
 70
     1
102
RTVSPropertyOp40
 70
     1
102
RTVSPropertyOp41
 70
     1
102
RTVSPropertyOp42
 70
     1
102
RTVSPropertyOp43
 70
     1
102
RTVSPropertyOp44
 70
     1
102
RTVSPropertyOp45
 70
     1
102
RTVSPropertyOp46
 70
     1
102
RTVSPropertyOp47
 70
     1
102
RTVSPropertyOp48
 70
     1
102
RTVSPropertyOp49
 70
     1
102
RTVSPropertyOp50
 70
     1
102
RTVSPropertyOp51
 70
     0
102
RTVSPropertyOp52
 70
     0
102
RTVSPropertyOp53
 70
     1
102
RTVSPropertyOp54
 70
     1
102
RTVSPropertyOp55
 70
     1
102
RTVSPropertyOp56
 70
     1
102
RTVSPropertyOp57
 70
     1
102
RTVSPropertyOp58
 70
     1
102
RTVSPropertyOp59
 70
     1
102
RTVSPropertyOp60
 70
     1
102
RTVSPropertyOp61
 70
     1
102
RTVSPropertyOp62
 70
     1
  0
ENDSEC
  0
EOF
