  0
SECTION
  2
HEADER
  9
$ACADVER
  1
AC1015
  9
$ACADMAINTVER
 70
    20
  9
$DWGCODEPAGE
  3
ANSI_932
  9
$INSBASE
 10
0.0
 20
0.0
 30
0.0
  9
$EXTMIN
 10
10.0
 20
9.999999999999998
 30
0.0
  9
$EXTMAX
 10
792.4999999999998
 20
734.4999999999998
 30
0.0
  9
$LIMMIN
 10
0.0
 20
0.0
  9
$LIMMAX
 10
1108.8
 20
764.4
  9
$ORTHOMODE
 70
     0
  9
$REGENMODE
 70
     1
  9
$FILLMODE
 70
     1
  9
$QTEXTMODE
 70
     0
  9
$MIRRTEXT
 70
     1
  9
$LTSCALE
 40
20.0
  9
$ATTMODE
 70
     1
  9
$TEXTSIZE
 40
5.0
  9
$TRACEWID
 40
1.0
  9
$TEXTSTYLE
  7
STANDARD
  9
$CLAYER
  8
0
  9
$CELTYPE
  6
BYLAYER
  9
$CECOLOR
 62
   256
  9
$CELTSCALE
 40
1.0
  9
$DISPSILH
 70
     0
  9
$DIMSCALE
 40
1.0
  9
$DIMASZ
 40
2.5
  9
$DIMEXO
 40
1.0
  9
$DIMDLI
 40
10.0
  9
$DIMRND
 40
0.0
  9
$DIMDLE
 40
0.0
  9
$DIMEXE
 40
1.0
  9
$DIMTP
 40
0.0
  9
$DIMTM
 40
0.0
  9
$DIMTXT
 40
2.5
  9
$DIMCEN
 40
0.0
  9
$DIMTSZ
 40
0.0
  9
$DIMTOL
 70
     0
  9
$DIMLIM
 70
     0
  9
$DIMTIH
 70
     0
  9
$DIMTOH
 70
     0
  9
$DIMSE1
 70
     0
  9
$DIMSE2
 70
     0
  9
$DIMTAD
 70
     3
  9
$DIMZIN
 70
     8
  9
$DIMBLK
  1

  9
$DIMASO
 70
     1
  9
$DIMSHO
 70
     1
  9
$DIMPOST
  1

  9
$DIMAPOST
  1

  9
$DIMALT
 70
     0
  9
$DIMALTD
 70
     2
  9
$DIMALTF
 40
25.4
  9
$DIMLFAC
 40
1.0
  9
$DIMTOFL
 70
     1
  9
$DIMTVP
 40
0.0
  9
$DIMTIX
 70
     0
  9
$DIMSOXD
 70
     0
  9
$DIMSAH
 70
     1
  9
$DIMBLK1
  1

  9
$DIMBLK2
  1

  9
$DIMSTYLE
  2
STANDARD
  9
$DIMCLRD
 70
     0
  9
$DIMCLRE
 70
     0
  9
$DIMCLRT
 70
     0
  9
$DIMTFAC
 40
1.0
  9
$DIMGAP
 40
1.0
  9
$DIMJUST
 70
     0
  9
$DIMSD1
 70
     0
  9
$DIMSD2
 70
     0
  9
$DIMTOLJ
 70
     1
  9
$DIMTZIN
 70
     0
  9
$DIMALTZ
 70
     0
  9
$DIMALTTZ
 70
     0
  9
$DIMUPT
 70
     0
  9
$DIMDEC
 70
     4
  9
$DIMTDEC
 70
     4
  9
$DIMALTU
 70
     2
  9
$DIMALTTD
 70
     2
  9
$DIMTXSTY
  7
STANDARD
  9
$DIMAUNIT
 70
     0
  9
$DIMADEC
 70
     0
  9
$DIMALTRND
 40
0.0
  9
$DIMAZIN
 70
     0
  9
$DIMDSEP
 70
    46
  9
$DIMATFIT
 70
     3
  9
$DIMFRAC
 70
     0
  9
$DIMLDRBLK
  1

  9
$DIMLUNIT
 70
     2
  9
$DIMLWD
 70
    -2
  9
$DIMLWE
 70
    -2
  9
$DIMTMOVE
 70
     0
  9
$LUNITS
 70
     2
  9
$LUPREC
 70
     4
  9
$SKETCHINC
 40
1.0
  9
$FILLETRAD
 40
0.0
  9
$AUNITS
 70
     0
  9
$AUPREC
 70
     2
  9
$MENU
  1
.
  9
$ELEVATION
 40
0.0
  9
$PELEVATION
 40
0.0
  9
$THICKNESS
 40
0.0
  9
$LIMCHECK
 70
     0
  9
$CHAMFERA
 40
10.0
  9
$CHAMFERB
 40
10.0
  9
$CHAMFERC
 40
0.0
  9
$CHAMFERD
 40
0.0
  9
$SKPOLY
 70
     0
  9
$TDCREATE
 40
2451263.697575347
  9
$TDUCREATE
 40
2451263.322575347
  9
$TDUPDATE
 40
2457192.661572952
  9
$TDUUPDATE
 40
2457192.286572952
  9
$TDINDWG
 40
0.0000142824
  9
$TDUSRTIMER
 40
0.0000139815
  9
$USRTIMER
 70
     1
  9
$ANGBASE
 50
0.0
  9
$ANGDIR
 70
     0
  9
$PDMODE
 70
     0
  9
$PDSIZE
 40
0.0
  9
$PLINEWID
 40
0.0
  9
$SPLFRAME
 70
     0
  9
$SPLINETYPE
 70
     6
  9
$SPLINESEGS
 70
     8
  9
$HANDSEED
  5
1244F
  9
$SURFTAB1
 70
     6
  9
$SURFTAB2
 70
     6
  9
$SURFTYPE
 70
     6
  9
$SURFU
 70
     6
  9
$SURFV
 70
     6
  9
$UCSBASE
  2

  9
$UCSNAME
  2

  9
$UCSORG
 10
0.0
 20
0.0
 30
0.0
  9
$UCSXDIR
 10
1.0
 20
0.0
 30
0.0
  9
$UCSYDIR
 10
0.0
 20
1.0
 30
0.0
  9
$UCSORTHOREF
  2

  9
$UCSORTHOVIEW
 70
     0
  9
$UCSORGTOP
 10
0.0
 20
0.0
 30
0.0
  9
$UCSORGBOTTOM
 10
0.0
 20
0.0
 30
0.0
  9
$UCSORGLEFT
 10
0.0
 20
0.0
 30
0.0
  9
$UCSORGRIGHT
 10
0.0
 20
0.0
 30
0.0
  9
$UCSORGFRONT
 10
0.0
 20
0.0
 30
0.0
  9
$UCSORGBACK
 10
0.0
 20
0.0
 30
0.0
  9
$PUCSBASE
  2

  9
$PUCSNAME
  2

  9
$PUCSORG
 10
0.0
 20
0.0
 30
0.0
  9
$PUCSXDIR
 10
1.0
 20
0.0
 30
0.0
  9
$PUCSYDIR
 10
0.0
 20
1.0
 30
0.0
  9
$PUCSORTHOREF
  2

  9
$PUCSORTHOVIEW
 70
     0
  9
$PUCSORGTOP
 10
0.0
 20
0.0
 30
0.0
  9
$PUCSORGBOTTOM
 10
0.0
 20
0.0
 30
0.0
  9
$PUCSORGLEFT
 10
0.0
 20
0.0
 30
0.0
  9
$PUCSORGRIGHT
 10
0.0
 20
0.0
 30
0.0
  9
$PUCSORGFRONT
 10
0.0
 20
0.0
 30
0.0
  9
$PUCSORGBACK
 10
0.0
 20
0.0
 30
0.0
  9
$USERI1
 70
     0
  9
$USERI2
 70
     0
  9
$USERI3
 70
     0
  9
$USERI4
 70
     0
  9
$USERI5
 70
     0
  9
$USERR1
 40
0.0
  9
$USERR2
 40
0.0
  9
$USERR3
 40
0.0
  9
$USERR4
 40
0.0
  9
$USERR5
 40
0.0
  9
$WORLDVIEW
 70
     1
  9
$SHADEDGE
 70
     3
  9
$SHADEDIF
 70
    70
  9
$TILEMODE
 70
     1
  9
$MAXACTVP
 70
    16
  9
$PINSBASE
 10
0.0
 20
0.0
 30
0.0
  9
$PLIMCHECK
 70
     0
  9
$PEXTMIN
 10
1.000000000000000E+20
 20
1.000000000000000E+20
 30
1.000000000000000E+20
  9
$PEXTMAX
 10
-1.000000000000000E+20
 20
-1.000000000000000E+20
 30
-1.000000000000000E+20
  9
$PLIMMIN
 10
0.0
 20
0.0
  9
$PLIMMAX
 10
420.0
 20
297.0
  9
$UNITMODE
 70
     0
  9
$VISRETAIN
 70
     0
  9
$PLINEGEN
 70
     0
  9
$PSLTSCALE
 70
     0
  9
$TREEDEPTH
 70
  3020
  9
$CMLSTYLE
  2
STANDARD
  9
$CMLJUST
 70
     0
  9
$CMLSCALE
 40
1.0
  9
$PROXYGRAPHICS
 70
     1
  9
$MEASUREMENT
 70
     0
  9
$CELWEIGHT
370
    -1
  9
$ENDCAPS
280
     0
  9
$JOINSTYLE
280
     0
  9
$LWDISPLAY
290
     0
  9
$INSUNITS
 70
     0
  9
$HYPERLINKBASE
  1

  9
$STYLESHEET
  1

  9
$XEDIT
290
     1
  9
$CEPSNTYPE
380
     0
  9
$PSTYLEMODE
290
     1
  9
$FINGERPRINTGUID
  2
{2D976BD5-DE89-4963-990A-5106DB3DA6FD}
  9
$VERSIONGUID
  2
{9E7AFCD9-0756-4C93-AC27-DA5F6DBA40D4}
  9
$EXTNAMES
290
     1
  9
$PSVPSCALE
 40
0.0
  9
$OLESTARTUP
290
     0
  0
ENDSEC
  0
SECTION
  2
CLASSES
  0
CLASS
  1
ACDBDICTIONARYWDFLT
  2
AcDbDictionaryWithDefault
  3
ObjectDBX Classes
 90
        0
280
     0
281
     0
  0
CLASS
  1
ACDBPLACEHOLDER
  2
AcDbPlaceHolder
  3
ObjectDBX Classes
 90
        0
280
     0
281
     0
  0
CLASS
  1
LAYOUT
  2
AcDbLayout
  3
ObjectDBX Classes
 90
        0
280
     0
281
     0
  0
CLASS
  1
DICTIONARYVAR
  2
AcDbDictionaryVar
  3
ObjectDBX Classes
 90
        0
280
     0
281
     0
  0
CLASS
  1
MATERIAL
  2
AcDbMaterial
  3
ObjectDBX Classes
 90
     1153
280
     0
281
     0
  0
CLASS
  1
VISUALSTYLE
  2
AcDbVisualStyle
  3
ObjectDBX Classes
 90
     4095
280
     0
281
     0
  0
CLASS
  1
TABLESTYLE
  2
AcDbTableStyle
  3
ObjectDBX Classes
 90
     4095
280
     0
281
     0
  0
CLASS
  1
SCALE
  2
AcDbScale
  3
ObjectDBX Classes
 90
     1153
280
     0
281
     0
  0
CLASS
  1
MLEADERSTYLE
  2
AcDbMLeaderStyle
  3
ACDB_MLEADERSTYLE_CLASS
 90
     4095
280
     0
281
     0
  0
CLASS
  1
ACDBSECTIONVIEWSTYLE
  2
AcDbSectionViewStyle
  3
ObjectDBX Classes
 90
     1025
280
     0
281
     0
  0
CLASS
  1
ACDBDETAILVIEWSTYLE
  2
AcDbDetailViewStyle
  3
ObjectDBX Classes
 90
     1025
280
     0
281
     0
  0
CLASS
  1
CELLSTYLEMAP
  2
AcDbCellStyleMap
  3
ObjectDBX Classes
 90
     1152
280
     0
281
     0
  0
ENDSEC
  0
SECTION
  2
TABLES
  0
TABLE
  2
VPORT
  5
11E95
330
0
100
AcDbSymbolTable
 70
     1
  0
VPORT
  5
12398
330
11E95
100
AcDbSymbolTableRecord
100
AcDbViewportTableRecord
  2
*ACTIVE
 70
     0
 10
0.0
 20
0.0
 11
1.0
 21
1.0
 12
620.6963083993956
 22
372.2274370708821
 13
0.0
 23
0.0
 14
10.0
 24
10.0
 15
10.0
 25
10.0
 16
0.0
 26
0.0
 36
1.0
 17
0.0
 27
0.0
 37
0.0
 40
732.6601378091749
 41
1.899603698811096
 42
50.0
 43
0.0
 44
0.0
 50
0.0
 51
0.0
 71
     0
 72
   100
 73
     1
 74
     0
 75
     0
 76
     0
 77
     0
 78
     0
281
     0
 65
     1
110
0.0
120
0.0
130
0.0
111
1.0
121
0.0
131
0.0
112
0.0
122
1.0
132
0.0
 79
     0
146
0.0
1001
ACAD_NAV_VCDISPLAY
1070
     3
  0
ENDTAB
  0
TABLE
  2
LTYPE
  5
11E92
330
0
100
AcDbSymbolTable
 70
     4
  0
LTYPE
  5
11EA0
330
11E92
100
AcDbSymbolTableRecord
100
AcDbLinetypeTableRecord
  2
BYBLOCK
 70
     0
  3

 72
    65
 73
     0
 40
0.0
  0
LTYPE
  5
11EA1
330
11E92
100
AcDbSymbolTableRecord
100
AcDbLinetypeTableRecord
  2
BYLAYER
 70
     0
  3

 72
    65
 73
     0
 40
0.0
  0
LTYPE
  5
11EA2
330
11E92
100
AcDbSymbolTableRecord
100
AcDbLinetypeTableRecord
  2
CONTINUOUS
 70
     0
  3
Solid line
 72
    65
 73
     0
 40
0.0
  0
LTYPE
  5
11EB0
330
11E92
100
AcDbSymbolTableRecord
100
AcDbLinetypeTableRecord
  2
DASHED
 70
     0
  3
__ __ __ __ __ __ __ __ __ __ __ __ __ __ __ __
 72
    65
 73
     2
 40
0.75
 49
0.5
 74
     0
 49
-0.25
 74
     0
  0
LTYPE
  5
11EB1
330
11E92
100
AcDbSymbolTableRecord
100
AcDbLinetypeTableRecord
  2
CENTER
 70
     0
  3
____ _ ____ _ ____ _ ____ _ ____ _ ____ _ ____ 
 72
    65
 73
     4
 40
2.0
 49
1.25
 74
     0
 49
-0.25
 74
     0
 49
0.25
 74
     0
 49
-0.25
 74
     0
  0
LTYPE
  5
11EB2
330
11E92
100
AcDbSymbolTableRecord
100
AcDbLinetypeTableRecord
  2
PHANTOM
 70
     0
  3
______  __  __  ______  __  __  ______  __  __ 
 72
    65
 73
     6
 40
2.5
 49
1.25
 74
     0
 49
-0.25
 74
     0
 49
0.25
 74
     0
 49
-0.25
 74
     0
 49
0.25
 74
     0
 49
-0.25
 74
     0
  0
ENDTAB
  0
TABLE
  2
LAYER
  5
11E8F
330
0
100
AcDbSymbolTable
 70
     8
  0
LAYER
  5
11E9D
102
{ACAD_XDICTIONARY
360
123F3
102
}
330
11E8F
100
AcDbSymbolTableRecord
100
AcDbLayerTableRecord
  2
0
 70
     0
 62
     7
  6
CONTINUOUS
370
    -3
390
123A1
  0
LAYER
  5
11EB3
102
{ACAD_XDICTIONARY
360
123F5
102
}
330
11E8F
100
AcDbSymbolTableRecord
100
AcDbLayerTableRecord
  2
4
 70
     0
 62
     1
  6
CENTER
370
    -3
390
123A1
  0
LAYER
  5
11EB4
102
{ACAD_XDICTIONARY
360
123F7
102
}
330
11E8F
100
AcDbSymbolTableRecord
100
AcDbLayerTableRecord
  2
5
 70
     0
 62
     6
  6
PHANTOM
370
    -3
390
123A1
  0
LAYER
  5
11EB5
102
{ACAD_XDICTIONARY
360
123F9
102
}
330
11E8F
100
AcDbSymbolTableRecord
100
AcDbLayerTableRecord
  2
1
 70
     0
 62
     7
  6
CONTINUOUS
370
    -3
390
123A1
  0
LAYER
  5
11EB6
102
{ACAD_XDICTIONARY
360
123FB
102
}
330
11E8F
100
AcDbSymbolTableRecord
100
AcDbLayerTableRecord
  2
2
 70
     0
 62
     4
  6
CONTINUOUS
370
    -3
390
123A1
  0
LAYER
  5
11EB7
102
{ACAD_XDICTIONARY
360
123FD
102
}
330
11E8F
100
AcDbSymbolTableRecord
100
AcDbLayerTableRecord
  2
3
 70
     0
 62
     2
  6
DASHED
370
    -3
390
123A1
  0
LAYER
  5
11EB8
102
{ACAD_XDICTIONARY
360
123FF
102
}
330
11E8F
100
AcDbSymbolTableRecord
100
AcDbLayerTableRecord
  2
6
 70
     0
 62
     5
  6
CONTINUOUS
370
    -3
390
123A1
  0
LAYER
  5
11EB9
102
{ACAD_XDICTIONARY
360
12401
102
}
330
11E8F
100
AcDbSymbolTableRecord
100
AcDbLayerTableRecord
  2
7
 70
     0
 62
     3
  6
CONTINUOUS
370
    -3
390
123A1
  0
ENDTAB
  0
TABLE
  2
STYLE
  5
11E90
330
0
100
AcDbSymbolTable
 70
     1
  0
STYLE
  5
11E9E
330
11E90
100
AcDbSymbolTableRecord
100
AcDbTextStyleTableRecord
  2
STANDARD
 70
     0
 40
0.0
 41
1.0
 50
0.0
 71
     0
 42
5.0
  3
txt
  4

  0
ENDTAB
  0
TABLE
  2
VIEW
  5
11E93
330
0
100
AcDbSymbolTable
 70
     0
  0
ENDTAB
  0
TABLE
  2
UCS
  5
11E94
330
0
100
AcDbSymbolTable
 70
     0
  0
ENDTAB
  0
TABLE
  2
APPID
  5
11E96
330
0
100
AcDbSymbolTable
 70
     3
  0
APPID
  5
11E9F
330
11E96
100
AcDbSymbolTableRecord
100
AcDbRegAppTableRecord
  2
ACAD
 70
     0
  0
APPID
  5
1240D
330
11E96
100
AcDbSymbolTableRecord
100
AcDbRegAppTableRecord
  2
ACAD_NAV_VCDISPLAY
 70
     0
  0
APPID
  5
12446
330
11E96
100
AcDbSymbolTableRecord
100
AcDbRegAppTableRecord
  2
ACAD_MLEADERVER
 70
     0
  0
ENDTAB
  0
TABLE
  2
DIMSTYLE
  5
11E97
330
0
100
AcDbSymbolTable
 70
     1
100
AcDbDimStyleTable
 71
     0
  0
DIMSTYLE
105
11EBB
330
11E97
100
AcDbSymbolTableRecord
100
AcDbDimStyleTableRecord
  2
STANDARD
 70
     0
 41
2.5
 42
1.0
 43
10.0
 44
1.0
 73
     0
 74
     0
 77
     3
 78
     8
140
2.5
141
0.0
147
1.0
172
     1
173
     1
284
     8
285
     8
286
     8
340
11E9E
  0
ENDTAB
  0
TABLE
  2
BLOCK_RECORD
  5
11E8E
330
0
100
AcDbSymbolTable
 70
     0
  0
BLOCK_RECORD
  5
11EAB
102
{ACAD_XDICTIONARY
360
1239B
102
}
330
11E8E
100
AcDbSymbolTableRecord
100
AcDbBlockTableRecord
  2
*MODEL_SPACE
340
123EF
  0
BLOCK_RECORD
  5
11EA7
102
{ACAD_XDICTIONARY
360
12399
102
}
330
11E8E
100
AcDbSymbolTableRecord
100
AcDbBlockTableRecord
  2
*PAPER_SPACE
340
123F0
  0
ENDTAB
  0
ENDSEC
  0
SECTION
  2
BLOCKS
  0
BLOCK
  5
11EAC
330
11EAB
100
AcDbEntity
  8
0
100
AcDbBlockBegin
  2
*MODEL_SPACE
 70
     0
 10
0.0
 20
0.0
 30
0.0
  3
*MODEL_SPACE
  1

  0
ENDBLK
  5
11EAD
330
11EAB
100
AcDbEntity
  8
0
100
AcDbBlockEnd
  0
BLOCK
  5
11EA8
330
11EA7
100
AcDbEntity
 67
     1
  8
0
100
AcDbBlockBegin
  2
*PAPER_SPACE
 70
     0
 10
0.0
 20
0.0
 30
0.0
  3
*PAPER_SPACE
  1

  0
ENDBLK
  5
11EA9
330
11EA7
100
AcDbEntity
 67
     1
  8
0
100
AcDbBlockEnd
  0
ENDSEC
  0
SECTION
  2
ENTITIES
  0
TEXT
  5
11EC3
330
11EAB
100
AcDbEntity
  8
7
  6
Continuous
100
AcDbText
 10
10.0
 20
18.0
 30
0.0
 40
3.0
  1
TYPE No.TM-211-2
100
AcDbText
  0
TEXT
  5
11EC4
330
11EAB
100
AcDbEntity
  8
7
  6
Continuous
100
AcDbText
 10
10.0
 20
26.0
 30
0.0
 40
3.0
  1
CODE No.5792
100
AcDbText
  0
TEXT
  5
11EC5
330
11EAB
100
AcDbEntity
  8
1
  6
Continuous
100
AcDbText
 10
10.0
 20
10.0
 30
0.0
 40
1.399999999999999
  1
LAYER
100
AcDbText
  0
TEXT
  5
11EC6
330
11EAB
100
AcDbEntity
  8
1
  6
Continuous
100
AcDbText
 10
17.97951099999998
 20
10.04873699999998
 30
0.0
 40
1.399999999999999
  1
1
100
AcDbText
  0
TEXT
  5
11EC7
330
11EAB
100
AcDbEntity
  8
7
  6
Continuous
100
AcDbText
 10
29.97951099999999
 20
10.04873699999998
 30
0.0
 40
1.399999999999999
  1
7
100
AcDbText
  0
TEXT
  5
11EC8
330
11EAB
100
AcDbEntity
  8
4
  6
CENTER
100
AcDbText
 10
23.97951099999999
 20
10.04873699999998
 30
0.0
 40
1.399999999999999
  1
4
100
AcDbText
  0
TEXT
  5
11EC9
330
11EAB
100
AcDbEntity
  8
3
  6
DASHED
100
AcDbText
 10
21.979511
 20
10.04873699999998
 30
0.0
 40
1.399999999999999
  1
3
100
AcDbText
  0
TEXT
  5
11ECA
330
11EAB
100
AcDbEntity
  8
2
  6
Continuous
100
AcDbText
 10
19.97951099999999
 20
10.04873699999998
 30
0.0
 40
1.399999999999999
  1
2
100
AcDbText
  0
TEXT
  5
11ECB
330
11EAB
100
AcDbEntity
  8
6
  6
Continuous
100
AcDbText
 10
27.979511
 20
10.04873699999998
 30
0.0
 40
1.399999999999999
  1
6
100
AcDbText
  0
TEXT
  5
11ECC
330
11EAB
100
AcDbEntity
  8
5
  6
PHANTOM
100
AcDbText
 10
25.97951099999999
 20
10.04873699999998
 30
0.0
 40
1.399999999999999
  1
5
100
AcDbText
  0
CIRCLE
  5
11ECD
330
11EAB
100
AcDbEntity
  8
1
  6
Continuous
100
AcDbCircle
 10
376.0
 20
319.5
 30
0.0
 40
5.0
  0
CIRCLE
  5
11ECE
330
11EAB
100
AcDbEntity
  8
1
  6
Continuous
100
AcDbCircle
 10
376.0
 20
319.5
 30
0.0
 40
3.0
  0
LINE
  5
11ECF
330
11EAB
100
AcDbEntity
  8
3
  6
DASHED
100
AcDbLine
 10
453.0
 20
307.0
 30
0.0
 11
435.5
 21
307.0
 31
0.0
  0
LINE
  5
11ED0
330
11EAB
100
AcDbEntity
  8
4
  6
CENTER
100
AcDbLine
 10
456.0
 20
317.0
 30
0.0
 11
409.25
 21
317.0
 31
0.0
  0
LINE
  5
11ED1
330
11EAB
100
AcDbEntity
  8
1
  6
Continuous
100
AcDbLine
 10
447.763932
 20
331.0
 30
0.0
 11
111.0
 21
331.0
 31
0.0
  0
LINE
  5
11ED2
330
11EAB
100
AcDbEntity
  8
1
  6
Continuous
100
AcDbLine
 10
662.0
 20
329.4999999999999
 30
0.0
 11
444.5781949999997
 21
329.4999999999999
 31
0.0
  0
LINE
  5
11ED3
330
11EAB
100
AcDbEntity
  8
1
  6
Continuous
100
AcDbLine
 10
705.0
 20
303.5
 30
0.0
 11
429.0
 21
303.5
 31
0.0
  0
LINE
  5
11ED4
330
11EAB
100
AcDbEntity
  8
1
  6
Continuous
100
AcDbLine
 10
690.0
 20
332.0
 30
0.0
 11
662.0
 21
329.4999999999999
 31
0.0
  0
ARC
  5
11ED5
330
11EAB
100
AcDbEntity
  8
1
  6
Continuous
100
AcDbCircle
 10
703.5
 20
327.1145589999998
 30
0.0
 40
1.5
100
AcDbArc
 50
286.772393
 51
0.0
  0
LINE
  5
11ED6
330
11EAB
100
AcDbEntity
  8
1
  6
Continuous
100
AcDbLine
 10
705.0
 20
332.0
 30
0.0
 11
690.0
 21
332.0
 31
0.0
  0
LINE
  5
11ED7
330
11EAB
100
AcDbEntity
  8
1
  6
Continuous
100
AcDbLine
 10
705.0
 20
332.0
 30
0.0
 11
705.0
 21
327.1145589999998
 31
0.0
  0
LINE
  5
11ED8
330
11EAB
100
AcDbEntity
  8
1
  6
Continuous
100
AcDbLine
 10
703.932856
 20
325.6783709999999
 30
0.0
 11
696.422859
 21
323.414917
 31
0.0
  0
LINE
  5
11ED9
330
11EAB
100
AcDbEntity
  8
1
  6
Continuous
100
AcDbLine
 10
703.5
 20
319.5
 30
0.0
 11
697.0
 21
319.5
 31
0.0
  0
LINE
  5
11EDA
330
11EAB
100
AcDbEntity
  8
1
  6
Continuous
100
AcDbLine
 10
700.8581949999997
 20
314.619837
 30
0.0
 11
697.2733969999997
 21
316.3944419999999
 31
0.0
  0
ARC
  5
11EDB
330
11EAB
100
AcDbEntity
  8
1
  6
Continuous
100
AcDbCircle
 10
691.0
 20
319.5
 30
0.0
 40
11.0
100
AcDbArc
 50
296.3370750000001
 51
333.6629249999999
  0
LINE
  5
11EDC
330
11EAB
100
AcDbEntity
  8
1
  6
Continuous
100
AcDbLine
 10
705.0
 20
318.0
 30
0.0
 11
705.0
 21
303.5
 31
0.0
  0
ARC
  5
11EDD
330
11EAB
100
AcDbEntity
  8
1
  6
Continuous
100
AcDbCircle
 10
703.5
 20
318.0
 30
0.0
 40
1.5
100
AcDbArc
 50
0.0
 51
90.0
  0
LINE
  5
11EDE
330
11EAB
100
AcDbEntity
  8
4
  6
CENTER
100
AcDbLine
 10
695.75
 20
319.5
 30
0.0
 11
674.2499999999997
 21
319.5
 31
0.0
  0
ARC
  5
11EDF
330
11EAB
100
AcDbEntity
  8
1
  6
Continuous
100
AcDbCircle
 10
697.0
 20
321.4999999999998
 30
0.0
 40
2.0
100
AcDbArc
 50
106.7723929999998
 51
270.0
  0
ARC
  5
11EE0
330
11EAB
100
AcDbEntity
  8
1
  6
Continuous
100
AcDbCircle
 10
691.0
 20
319.5
 30
0.0
 40
7.0
100
AcDbArc
 50
296.3370750000001
 51
333.6629249999999
  0
LINE
  5
11EE1
330
11EAB
100
AcDbEntity
  8
1
  6
Continuous
100
AcDbLine
 10
695.880163
 20
309.641805
 30
0.0
 11
694.1055579999997
 21
313.2266029999998
 31
0.0
  0
CIRCLE
  5
11EE2
330
11EAB
100
AcDbEntity
  8
1
  6
Continuous
100
AcDbCircle
 10
690.0
 20
319.5
 30
0.0
 40
2.399999999999999
  0
LINE
  5
11EE3
330
11EAB
100
AcDbEntity
  8
4
  6
CENTER
100
AcDbLine
 10
690.0
 20
325.2499999999999
 30
0.0
 11
690.0
 21
313.75
 31
0.0
  0
LINE
  5
11EE4
330
11EAB
100
AcDbEntity
  8
1
  6
Continuous
100
AcDbLine
 10
682.3999999999998
 20
320.5
 30
0.0
 11
682.3999999999998
 21
318.5
 31
0.0
  0
ARC
  5
11EE5
330
11EAB
100
AcDbEntity
  8
1
  6
Continuous
100
AcDbCircle
 10
680.0
 20
320.5
 30
0.0
 40
2.399999999999999
100
AcDbArc
 50
0.0
 51
180.0
  0
LINE
  5
11EE6
330
11EAB
100
AcDbEntity
  8
1
  6
Continuous
100
AcDbLine
 10
677.6
 20
320.5
 30
0.0
 11
677.6
 21
318.5
 31
0.0
  0
ARC
  5
11EE7
330
11EAB
100
AcDbEntity
  8
1
  6
Continuous
100
AcDbCircle
 10
680.0
 20
318.5
 30
0.0
 40
2.399999999999999
100
AcDbArc
 50
180.0
 51
0.0
  0
LINE
  5
11EE8
330
11EAB
100
AcDbEntity
  8
4
  6
CENTER
100
AcDbLine
 10
680.0
 20
326.25
 30
0.0
 11
680.0
 21
312.7499999999999
 31
0.0
  0
LINE
  5
11EE9
330
11EAB
100
AcDbEntity
  8
4
  6
CENTER
100
AcDbLine
 10
409.25
 20
319.5
 30
0.0
 11
430.75
 21
319.5
 31
0.0
  0
LINE
  5
11EEA
330
11EAB
100
AcDbEntity
  8
1
  6
Continuous
100
AcDbLine
 10
424.0
 20
303.5
 30
0.0
 11
361.0
 21
303.5
 31
0.0
  0
LINE
  5
11EEB
330
11EAB
100
AcDbEntity
  8
4
  6
CENTER
100
AcDbLine
 10
500.75
 20
319.5
 30
0.0
 11
512.25
 21
319.5
 31
0.0
  0
LINE
  5
11EEC
330
11EAB
100
AcDbEntity
  8
4
  6
CENTER
100
AcDbLine
 10
506.5
 20
325.2499999999999
 30
0.0
 11
506.5
 21
313.75
 31
0.0
  0
CIRCLE
  5
11EED
330
11EAB
100
AcDbEntity
  8
1
  6
Continuous
100
AcDbCircle
 10
506.5
 20
319.5
 30
0.0
 40
2.399999999999999
  0
LINE
  5
11EEE
330
11EAB
100
AcDbEntity
  8
1
  6
Continuous
100
AcDbLine
 10
428.0
 20
305.0
 30
0.0
 11
424.0
 21
303.5
 31
0.0
  0
LINE
  5
11EEF
330
11EAB
100
AcDbEntity
  8
1
  6
Continuous
100
AcDbLine
 10
429.0
 20
305.0
 30
0.0
 11
429.0
 21
303.5
 31
0.0
  0
LINE
  5
11EF0
330
11EAB
100
AcDbEntity
  8
4
  6
CENTER
100
AcDbLine
 10
425.0
 20
326.25
 30
0.0
 11
425.0
 21
311.967557
 31
0.0
  0
LINE
  5
11EF1
330
11EAB
100
AcDbEntity
  8
4
  6
CENTER
100
AcDbLine
 10
376.0
 20
334.5
 30
0.0
 11
376.0
 21
304.4999999999999
 31
0.0
  0
LINE
  5
11EF2
330
11EAB
100
AcDbEntity
  8
1
  6
Continuous
100
AcDbLine
 10
359.0
 20
327.4999999999999
 30
0.0
 11
359.0
 21
305.5
 31
0.0
  0
LINE
  5
11EF3
330
11EAB
100
AcDbEntity
  8
1
  6
Continuous
100
AcDbLine
 10
444.5781949999997
 20
329.4999999999999
 30
0.0
 11
409.4999999999997
 21
329.4999999999999
 31
0.0
  0
LINE
  5
11EF4
330
11EAB
100
AcDbEntity
  8
4
  6
CENTER
100
AcDbLine
 10
391.0
 20
319.5
 30
0.0
 11
361.0
 21
319.5
 31
0.0
  0
LINE
  5
11EF5
330
11EAB
100
AcDbEntity
  8
4
  6
CENTER
100
AcDbLine
 10
384.25
 20
311.5
 30
0.0
 11
395.7499999999998
 21
311.5
 31
0.0
  0
LINE
  5
11EF6
330
11EAB
100
AcDbEntity
  8
4
  6
CENTER
100
AcDbLine
 10
415.0
 20
325.2499999999999
 30
0.0
 11
415.0
 21
312.2954849999999
 31
0.0
  0
LINE
  5
11EF7
330
11EAB
100
AcDbEntity
  8
4
  6
CENTER
100
AcDbLine
 10
364.55
 20
311.2999999999999
 30
0.0
 11
364.55
 21
303.8
 31
0.0
  0
LINE
  5
11EF8
330
11EAB
100
AcDbEntity
  8
4
  6
CENTER
100
AcDbLine
 10
390.0
 20
317.2499999999998
 30
0.0
 11
390.0
 21
305.75
 31
0.0
  0
LINE
  5
11EF9
330
11EAB
100
AcDbEntity
  8
4
  6
CENTER
100
AcDbLine
 10
360.8
 20
307.55
 30
0.0
 11
368.3
 21
307.55
 31
0.0
  0
LINE
  5
11EFA
330
11EAB
100
AcDbEntity
  8
1
  6
Continuous
100
AcDbLine
 10
156.0
 20
307.0
 30
0.0
 11
127.0
 21
304.4999999999999
 31
0.0
  0
LINE
  5
11EFB
330
11EAB
100
AcDbEntity
  8
4
  6
CENTER
100
AcDbLine
 10
119.25
 20
317.0
 30
0.0
 11
140.7499999999998
 21
317.0
 31
0.0
  0
LINE
  5
11EFC
330
11EAB
100
AcDbEntity
  8
3
  6
DASHED
100
AcDbLine
 10
430.0
 20
307.0
 30
0.0
 11
359.0
 21
307.0
 31
0.0
  0
LINE
  5
11EFD
330
11EAB
100
AcDbEntity
  8
4
  6
CENTER
100
AcDbLine
 10
441.0
 20
332.0
 30
0.0
 11
441.0
 21
302.0
 31
0.0
  0
CIRCLE
  5
11EFE
330
11EAB
100
AcDbEntity
  8
1
  6
Continuous
100
AcDbCircle
 10
415.0
 20
319.5
 30
0.0
 40
2.399999999999999
  0
LINE
  5
11EFF
330
11EAB
100
AcDbEntity
  8
3
  6
DASHED
100
AcDbLine
 10
430.0
 20
308.4999999999999
 30
0.0
 11
430.0
 21
307.0
 31
0.0
  0
LINE
  5
11F00
330
11EAB
100
AcDbEntity
  8
3
  6
DASHED
100
AcDbLine
 10
431.5
 20
308.4999999999999
 30
0.0
 11
435.5
 21
307.0
 31
0.0
  0
LINE
  5
11F01
330
11EAB
100
AcDbEntity
  8
1
  6
Continuous
100
AcDbLine
 10
422.5999999999998
 20
320.5
 30
0.0
 11
422.5999999999998
 21
318.5
 31
0.0
  0
ARC
  5
11F02
330
11EAB
100
AcDbEntity
  8
1
  6
Continuous
100
AcDbCircle
 10
425.0
 20
320.5
 30
0.0
 40
2.399999999999999
100
AcDbArc
 50
0.0
 51
180.0
  0
LINE
  5
11F03
330
11EAB
100
AcDbEntity
  8
1
  6
Continuous
100
AcDbLine
 10
427.4
 20
320.5
 30
0.0
 11
427.4
 21
318.5
 31
0.0
  0
ARC
  5
11F04
330
11EAB
100
AcDbEntity
  8
1
  6
Continuous
100
AcDbCircle
 10
425.0
 20
318.5
 30
0.0
 40
2.399999999999999
100
AcDbArc
 50
180.0
 51
0.0
  0
LINE
  5
11F05
330
11EAB
100
AcDbEntity
  8
4
  6
CENTER
100
AcDbLine
 10
340.75
 20
317.0
 30
0.0
 11
319.2499999999999
 21
317.0
 31
0.0
  0
ARC
  5
11F06
330
11EAB
100
AcDbEntity
  8
1
  6
Continuous
100
AcDbCircle
 10
325.0
 20
316.0
 30
0.0
 40
2.399999999999999
100
AcDbArc
 50
180.0
 51
0.0
  0
ARC
  5
11F07
330
11EAB
100
AcDbEntity
  8
1
  6
Continuous
100
AcDbCircle
 10
325.0
 20
318.0
 30
0.0
 40
2.399999999999999
100
AcDbArc
 50
0.0
 51
180.0
  0
LINE
  5
11F08
330
11EAB
100
AcDbEntity
  8
1
  6
Continuous
100
AcDbLine
 10
327.4
 20
318.0
 30
0.0
 11
327.4
 21
316.0
 31
0.0
  0
LINE
  5
11F09
330
11EAB
100
AcDbEntity
  8
4
  6
CENTER
100
AcDbLine
 10
325.0
 20
323.75
 30
0.0
 11
325.0
 21
310.25
 31
0.0
  0
CIRCLE
  5
11F0A
330
11EAB
100
AcDbEntity
  8
1
  6
Continuous
100
AcDbCircle
 10
335.0
 20
317.0
 30
0.0
 40
2.399999999999999
  0
LINE
  5
11F0B
330
11EAB
100
AcDbEntity
  8
4
  6
CENTER
100
AcDbLine
 10
335.0
 20
322.75
 30
0.0
 11
335.0
 21
311.25
 31
0.0
  0
LINE
  5
11F0C
330
11EAB
100
AcDbEntity
  8
1
  6
Continuous
100
AcDbLine
 10
322.6
 20
318.0
 30
0.0
 11
322.6
 21
316.0
 31
0.0
  0
LINE
  5
11F0D
330
11EAB
100
AcDbEntity
  8
4
  6
CENTER
100
AcDbLine
 10
135.0
 20
323.75
 30
0.0
 11
135.0
 21
310.25
 31
0.0
  0
LINE
  5
11F0E
330
11EAB
100
AcDbEntity
  8
1
  6
Continuous
100
AcDbLine
 10
137.4
 20
318.0
 30
0.0
 11
137.4
 21
316.0
 31
0.0
  0
ARC
  5
11F0F
330
11EAB
100
AcDbEntity
  8
1
  6
Continuous
100
AcDbCircle
 10
135.0
 20
318.0
 30
0.0
 40
2.399999999999999
100
AcDbArc
 50
0.0
 51
180.0
  0
LINE
  5
11F10
330
11EAB
100
AcDbEntity
  8
1
  6
Continuous
100
AcDbLine
 10
132.6
 20
318.0
 30
0.0
 11
132.6
 21
316.0
 31
0.0
  0
ARC
  5
11F11
330
11EAB
100
AcDbEntity
  8
1
  6
Continuous
100
AcDbCircle
 10
135.0
 20
316.0
 30
0.0
 40
2.399999999999999
100
AcDbArc
 50
180.0
 51
0.0
  0
LINE
  5
11F12
330
11EAB
100
AcDbEntity
  8
1
  6
Continuous
100
AcDbLine
 10
109.0
 20
318.5
 30
0.0
 11
109.0
 21
329.0
 31
0.0
  0
ARC
  5
11F13
330
11EAB
100
AcDbEntity
  8
1
  6
Continuous
100
AcDbCircle
 10
111.0
 20
329.0
 30
0.0
 40
2.0
100
AcDbArc
 50
90.0
 51
180.0
  0
LINE
  5
11F14
330
11EAB
100
AcDbEntity
  8
1
  6
Continuous
100
AcDbLine
 10
109.0
 20
304.4999999999999
 30
0.0
 11
109.0
 21
309.385441
 31
0.0
  0
LINE
  5
11F15
330
11EAB
100
AcDbEntity
  8
1
  6
Continuous
100
AcDbLine
 10
110.4999999999999
 20
317.0
 30
0.0
 11
117.0
 21
317.0
 31
0.0
  0
LINE
  5
11F16
330
11EAB
100
AcDbEntity
  8
1
  6
Continuous
100
AcDbLine
 10
110.0671439999999
 20
310.8216289999999
 30
0.0
 11
117.577141
 21
313.0850829999999
 31
0.0
  0
ARC
  5
11F17
330
11EAB
100
AcDbEntity
  8
1
  6
Continuous
100
AcDbCircle
 10
117.0
 20
315.0
 30
0.0
 40
2.0
100
AcDbArc
 50
286.772393
 51
90.0
  0
LINE
  5
11F18
330
11EAB
100
AcDbEntity
  8
4
  6
CENTER
100
AcDbLine
 10
125.0
 20
322.75
 30
0.0
 11
125.0
 21
311.25
 31
0.0
  0
CIRCLE
  5
11F19
330
11EAB
100
AcDbEntity
  8
1
  6
Continuous
100
AcDbCircle
 10
125.0
 20
317.0
 30
0.0
 40
2.399999999999999
  0
ARC
  5
11F1A
330
11EAB
100
AcDbEntity
  8
1
  6
Continuous
100
AcDbCircle
 10
110.4999999999999
 20
318.5
 30
0.0
 40
1.5
100
AcDbArc
 50
180.0
 51
270.0
  0
ARC
  5
11F1B
330
11EAB
100
AcDbEntity
  8
1
  6
Continuous
100
AcDbCircle
 10
110.4999999999999
 20
309.385441
 30
0.0
 40
1.5
100
AcDbArc
 50
106.7723929999998
 51
180.0
  0
LINE
  5
11F1C
330
11EAB
100
AcDbEntity
  8
1
  6
Continuous
100
AcDbLine
 10
109.0
 20
304.4999999999999
 30
0.0
 11
127.0
 21
304.4999999999999
 31
0.0
  0
ARC
  5
11F1D
330
11EAB
100
AcDbEntity
  8
1
  6
Continuous
100
AcDbCircle
 10
376.0
 20
319.5
 30
0.0
 40
11.0
100
AcDbArc
 50
65.38002299999999
 51
114.619977
  0
LINE
  5
11F1E
330
11EAB
100
AcDbEntity
  8
1
  6
Continuous
100
AcDbLine
 10
705.0
 20
233.4999999999999
 30
0.0
 11
359.0
 21
233.4999999999999
 31
0.0
  0
LINE
  5
11F1F
330
11EAB
100
AcDbEntity
  8
1
  6
Continuous
100
AcDbLine
 10
455.0
 20
221.0
 30
0.0
 11
109.0
 21
221.0
 31
0.0
  0
LINE
  5
11F20
330
11EAB
100
AcDbEntity
  8
1
  6
Continuous
100
AcDbLine
 10
705.0
 20
151.0
 30
0.0
 11
429.0
 21
151.0
 31
0.0
  0
LINE
  5
11F21
330
11EAB
100
AcDbEntity
  8
1
  6
Continuous
100
AcDbLine
 10
705.0
 20
149.5
 30
0.0
 11
428.0
 21
149.5
 31
0.0
  0
LINE
  5
11F22
330
11EAB
100
AcDbEntity
  8
1
  6
Continuous
100
AcDbLine
 10
662.0
 20
125.0
 30
0.0
 11
449.75
 21
125.0
 31
0.0
  0
LINE
  5
11F23
330
11EAB
100
AcDbEntity
  8
1
  6
Continuous
100
AcDbLine
 10
430.0
 20
147.5
 30
0.0
 11
156.0
 21
147.5
 31
0.0
  0
LINE
  5
11F24
330
11EAB
100
AcDbEntity
  8
1
  6
Continuous
100
AcDbLine
 10
447.763932
 20
123.5
 30
0.0
 11
111.0
 21
123.5
 31
0.0
  0
LINE
  5
11F25
330
11EAB
100
AcDbEntity
  8
1
  6
Continuous
100
AcDbLine
 10
156.0
 20
147.5
 30
0.0
 11
127.0
 21
150.0
 31
0.0
  0
LINE
  5
11F26
330
11EAB
100
AcDbEntity
  8
1
  6
Continuous
100
AcDbLine
 10
109.0
 20
150.0
 30
0.0
 11
109.0
 21
145.114559
 31
0.0
  0
LINE
  5
11F27
330
11EAB
100
AcDbEntity
  8
1
  6
Continuous
100
AcDbLine
 10
114.0
 20
150.0
 30
0.0
 11
114.0
 21
148.0
 31
0.0
  0
ARC
  5
11F28
330
11EAB
100
AcDbEntity
  8
1
  6
Continuous
100
AcDbCircle
 10
115.5
 20
148.0
 30
0.0
 40
1.5
100
AcDbArc
 50
180.0
 51
270.0
  0
LINE
  5
11F29
330
11EAB
100
AcDbEntity
  8
1
  6
Continuous
100
AcDbLine
 10
110.0671439999999
 20
143.678371
 30
0.0
 11
117.577141
 21
141.4149169999998
 31
0.0
  0
LINE
  5
11F2A
330
11EAB
100
AcDbEntity
  8
1
  6
Continuous
100
AcDbLine
 10
110.4999999999999
 20
137.5
 30
0.0
 11
117.0
 21
137.5
 31
0.0
  0
LINE
  5
11F2B
330
11EAB
100
AcDbEntity
  8
1
  6
Continuous
100
AcDbLine
 10
114.0
 20
148.5
 30
0.0
 11
126.9354649999998
 21
148.5
 31
0.0
  0
LINE
  5
11F2C
330
11EAB
100
AcDbEntity
  8
1
  6
Continuous
100
AcDbLine
 10
109.0
 20
136.0
 30
0.0
 11
109.0
 21
125.5
 31
0.0
  0
ARC
  5
11F2D
330
11EAB
100
AcDbEntity
  8
1
  6
Continuous
100
AcDbCircle
 10
111.0
 20
125.5
 30
0.0
 40
2.0
100
AcDbArc
 50
180.0
 51
270.0
  0
ARC
  5
11F2E
330
11EAB
100
AcDbEntity
  8
1
  6
Continuous
100
AcDbCircle
 10
110.4999999999999
 20
145.114559
 30
0.0
 40
1.5
100
AcDbArc
 50
180.0
 51
253.2276069999999
  0
ARC
  5
11F2F
330
11EAB
100
AcDbEntity
  8
1
  6
Continuous
100
AcDbCircle
 10
110.4999999999999
 20
136.0
 30
0.0
 40
1.5
100
AcDbArc
 50
90.0
 51
180.0
  0
LINE
  5
11F30
330
11EAB
100
AcDbEntity
  8
4
  6
CENTER
100
AcDbLine
 10
119.25
 20
137.5
 30
0.0
 11
140.7499999999998
 21
137.5
 31
0.0
  0
LINE
  5
11F31
330
11EAB
100
AcDbEntity
  8
1
  6
Continuous
100
AcDbLine
 10
142.0
 20
146.5
 30
0.0
 11
115.5
 21
146.5
 31
0.0
  0
LINE
  5
11F32
330
11EAB
100
AcDbEntity
  8
1
  6
Continuous
100
AcDbLine
 10
143.198508
 20
147.0980139999998
 30
0.0
 11
126.9354649999998
 21
148.5
 31
0.0
  0
CIRCLE
  5
11F33
330
11EAB
100
AcDbEntity
  8
1
  6
Continuous
100
AcDbCircle
 10
125.0
 20
137.5
 30
0.0
 40
2.399999999999999
  0
LINE
  5
11F34
330
11EAB
100
AcDbEntity
  8
4
  6
CENTER
100
AcDbLine
 10
125.0
 20
131.75
 30
0.0
 11
125.0
 21
143.25
 31
0.0
  0
ARC
  5
11F35
330
11EAB
100
AcDbEntity
  8
1
  6
Continuous
100
AcDbCircle
 10
117.0
 20
139.5
 30
0.0
 40
2.0
100
AcDbArc
 50
270.0
 51
73.22760699999998
  0
ARC
  5
11F36
330
11EAB
100
AcDbEntity
  8
1
  6
Continuous
100
AcDbCircle
 10
135.0
 20
138.5
 30
0.0
 40
2.399999999999999
100
AcDbArc
 50
0.0
 51
180.0
  0
LINE
  5
11F37
330
11EAB
100
AcDbEntity
  8
1
  6
Continuous
100
AcDbLine
 10
132.6
 20
136.4999999999998
 30
0.0
 11
132.6
 21
138.5
 31
0.0
  0
ARC
  5
11F38
330
11EAB
100
AcDbEntity
  8
1
  6
Continuous
100
AcDbCircle
 10
135.0
 20
136.4999999999998
 30
0.0
 40
2.399999999999999
100
AcDbArc
 50
180.0
 51
0.0
  0
LINE
  5
11F39
330
11EAB
100
AcDbEntity
  8
1
  6
Continuous
100
AcDbLine
 10
137.4
 20
136.4999999999998
 30
0.0
 11
137.4
 21
138.5
 31
0.0
  0
LINE
  5
11F3A
330
11EAB
100
AcDbEntity
  8
4
  6
CENTER
100
AcDbLine
 10
135.0
 20
130.75
 30
0.0
 11
135.0
 21
144.25
 31
0.0
  0
LINE
  5
11F3B
330
11EAB
100
AcDbEntity
  8
1
  6
Continuous
100
AcDbLine
 10
143.5
 20
148.5775859999999
 30
0.0
 11
143.5
 21
148.0
 31
0.0
  0
ARC
  5
11F3C
330
11EAB
100
AcDbEntity
  8
1
  6
Continuous
100
AcDbCircle
 10
142.0
 20
148.0
 30
0.0
 40
1.5
100
AcDbArc
 50
270.0
 51
0.0
  0
LINE
  5
11F3D
330
11EAB
100
AcDbEntity
  8
1
  6
Continuous
100
AcDbLine
 10
109.0
 20
150.0
 30
0.0
 11
127.0
 21
150.0
 31
0.0
  0
LINE
  5
11F3E
330
11EAB
100
AcDbEntity
  8
4
  6
CENTER
100
AcDbLine
 10
384.25
 20
143.0
 30
0.0
 11
395.7499999999998
 21
143.0
 31
0.0
  0
LINE
  5
11F3F
330
11EAB
100
AcDbEntity
  8
4
  6
CENTER
100
AcDbLine
 10
391.0
 20
135.0
 30
0.0
 11
361.0
 21
135.0
 31
0.0
  0
LINE
  5
11F40
330
11EAB
100
AcDbEntity
  8
3
  6
DASHED
100
AcDbLine
 10
449.75
 20
125.0
 30
0.0
 11
409.4999999999997
 21
125.0
 31
0.0
  0
LINE
  5
11F41
330
11EAB
100
AcDbEntity
  8
1
  6
Continuous
100
AcDbLine
 10
424.0
 20
151.0
 30
0.0
 11
361.0
 21
151.0
 31
0.0
  0
ARC
  5
11F42
330
11EAB
100
AcDbEntity
  8
1
  6
Continuous
100
AcDbCircle
 10
325.0
 20
136.4999999999998
 30
0.0
 40
2.399999999999999
100
AcDbArc
 50
180.0
 51
0.0
  0
ARC
  5
11F43
330
11EAB
100
AcDbEntity
  8
1
  6
Continuous
100
AcDbCircle
 10
325.0
 20
138.5
 30
0.0
 40
2.399999999999999
100
AcDbArc
 50
0.0
 51
180.0
  0
LINE
  5
11F44
330
11EAB
100
AcDbEntity
  8
4
  6
CENTER
100
AcDbLine
 10
340.75
 20
137.5
 30
0.0
 11
319.2499999999999
 21
137.5
 31
0.0
  0
LINE
  5
11F45
330
11EAB
100
AcDbEntity
  8
1
  6
Continuous
100
AcDbLine
 10
322.6
 20
136.4999999999998
 30
0.0
 11
322.6
 21
138.5
 31
0.0
  0
LINE
  5
11F46
330
11EAB
100
AcDbEntity
  8
4
  6
CENTER
100
AcDbLine
 10
364.55
 20
143.1999999999999
 30
0.0
 11
364.55
 21
150.6999999999998
 31
0.0
  0
LINE
  5
11F47
330
11EAB
100
AcDbEntity
  8
4
  6
CENTER
100
AcDbLine
 10
376.0
 20
120.0
 30
0.0
 11
376.0
 21
150.0
 31
0.0
  0
LINE
  5
11F48
330
11EAB
100
AcDbEntity
  8
4
  6
CENTER
100
AcDbLine
 10
335.0
 20
131.75
 30
0.0
 11
335.0
 21
143.25
 31
0.0
  0
CIRCLE
  5
11F49
330
11EAB
100
AcDbEntity
  8
1
  6
Continuous
100
AcDbCircle
 10
335.0
 20
137.5
 30
0.0
 40
2.399999999999999
  0
LINE
  5
11F4A
330
11EAB
100
AcDbEntity
  8
4
  6
CENTER
100
AcDbLine
 10
325.0
 20
130.75
 30
0.0
 11
325.0
 21
144.25
 31
0.0
  0
LINE
  5
11F4B
330
11EAB
100
AcDbEntity
  8
1
  6
Continuous
100
AcDbLine
 10
327.4
 20
136.4999999999998
 30
0.0
 11
327.4
 21
138.5
 31
0.0
  0
CIRCLE
  5
11F4C
330
11EAB
100
AcDbEntity
  8
3
  6
DASHED
100
AcDbCircle
 10
376.0
 20
135.0
 30
0.0
 40
11.0
  0
LINE
  5
11F4D
330
11EAB
100
AcDbEntity
  8
3
  6
DASHED
100
AcDbLine
 10
359.0
 20
127.0
 30
0.0
 11
359.0
 21
147.5
 31
0.0
  0
LINE
  5
11F4E
330
11EAB
100
AcDbEntity
  8
1
  6
Continuous
100
AcDbLine
 10
359.0
 20
149.0
 30
0.0
 11
359.0
 21
147.5
 31
0.0
  0
ARC
  5
11F4F
330
11EAB
100
AcDbEntity
  8
1
  6
Continuous
100
AcDbCircle
 10
364.55
 20
146.9499999999999
 30
0.0
 40
1.75
100
AcDbArc
 50
18.317698
 51
161.6823019999999
  0
LINE
  5
11F50
330
11EAB
100
AcDbEntity
  8
4
  6
CENTER
100
AcDbLine
 10
360.8
 20
146.9499999999999
 30
0.0
 11
368.3
 21
146.9499999999999
 31
0.0
  0
LINE
  5
11F51
330
11EAB
100
AcDbEntity
  8
4
  6
CENTER
100
AcDbLine
 10
441.0
 20
122.5
 30
0.0
 11
441.0
 21
152.5
 31
0.0
  0
CIRCLE
  5
11F52
330
11EAB
100
AcDbEntity
  8
1
  6
Continuous
100
AcDbCircle
 10
425.0
 20
137.5
 30
0.0
 40
2.399999999999999
  0
LINE
  5
11F53
330
11EAB
100
AcDbEntity
  8
4
  6
CENTER
100
AcDbLine
 10
409.25
 20
135.0
 30
0.0
 11
430.75
 21
135.0
 31
0.0
  0
LINE
  5
11F54
330
11EAB
100
AcDbEntity
  8
4
  6
CENTER
100
AcDbLine
 10
456.0
 20
137.5
 30
0.0
 11
409.25
 21
137.5
 31
0.0
  0
LINE
  5
11F55
330
11EAB
100
AcDbEntity
  8
4
  6
CENTER
100
AcDbLine
 10
390.0
 20
137.25
 30
0.0
 11
390.0
 21
148.75
 31
0.0
  0
ARC
  5
11F56
330
11EAB
100
AcDbEntity
  8
1
  6
Continuous
100
AcDbCircle
 10
415.0
 20
138.5
 30
0.0
 40
2.399999999999999
100
AcDbArc
 50
0.0
 51
180.0
  0
LINE
  5
11F57
330
11EAB
100
AcDbEntity
  8
1
  6
Continuous
100
AcDbLine
 10
417.3999999999998
 20
136.4999999999998
 30
0.0
 11
417.3999999999998
 21
138.5
 31
0.0
  0
ARC
  5
11F58
330
11EAB
100
AcDbEntity
  8
1
  6
Continuous
100
AcDbCircle
 10
415.0
 20
136.4999999999998
 30
0.0
 40
2.399999999999999
100
AcDbArc
 50
180.0
 51
0.0
  0
LINE
  5
11F59
330
11EAB
100
AcDbEntity
  8
1
  6
Continuous
100
AcDbLine
 10
412.6
 20
136.4999999999998
 30
0.0
 11
412.6
 21
138.5
 31
0.0
  0
LINE
  5
11F5A
330
11EAB
100
AcDbEntity
  8
4
  6
CENTER
100
AcDbLine
 10
425.0
 20
129.9995959999999
 30
0.0
 11
425.0
 21
143.25
 31
0.0
  0
LINE
  5
11F5B
330
11EAB
100
AcDbEntity
  8
4
  6
CENTER
100
AcDbLine
 10
415.0
 20
129.612378
 30
0.0
 11
415.0
 21
144.25
 31
0.0
  0
LINE
  5
11F5C
330
11EAB
100
AcDbEntity
  8
1
  6
Continuous
100
AcDbLine
 10
449.552786
 20
124.6055729999998
 30
0.0
 11
455.0
 21
135.4999999999998
 31
0.0
  0
ARC
  5
11F5D
330
11EAB
100
AcDbEntity
  8
3
  6
DASHED
100
AcDbCircle
 10
441.0
 20
137.5
 30
0.0
 40
11.0
100
AcDbArc
 50
114.619977
 51
65.38002299999999
  0
LINE
  5
11F5E
330
11EAB
100
AcDbEntity
  8
1
  6
Continuous
100
AcDbLine
 10
453.0
 20
147.5
 30
0.0
 11
435.0
 21
147.5
 31
0.0
  0
ARC
  5
11F5F
330
11EAB
100
AcDbEntity
  8
1
  6
Continuous
100
AcDbCircle
 10
441.0
 20
137.5
 30
0.0
 40
11.0
100
AcDbArc
 50
65.38002299999999
 51
114.619977
  0
CIRCLE
  5
11F60
330
11EAB
100
AcDbEntity
  8
1
  6
Continuous
100
AcDbCircle
 10
441.0
 20
137.5
 30
0.0
 40
3.0
  0
CIRCLE
  5
11F61
330
11EAB
100
AcDbEntity
  8
1
  6
Continuous
100
AcDbCircle
 10
441.0
 20
137.5
 30
0.0
 40
5.0
  0
LINE
  5
11F62
330
11EAB
100
AcDbEntity
  8
1
  6
Continuous
100
AcDbLine
 10
431.0
 20
146.0
 30
0.0
 11
435.0
 21
147.5
 31
0.0
  0
LINE
  5
11F63
330
11EAB
100
AcDbEntity
  8
1
  6
Continuous
100
AcDbLine
 10
430.0
 20
146.0
 30
0.0
 11
430.0
 21
147.5
 31
0.0
  0
LINE
  5
11F64
330
11EAB
100
AcDbEntity
  8
1
  6
Continuous
100
AcDbLine
 10
431.0
 20
146.0
 30
0.0
 11
430.0
 21
146.0
 31
0.0
  0
LINE
  5
11F65
330
11EAB
100
AcDbEntity
  8
1
  6
Continuous
100
AcDbLine
 10
429.0
 20
149.5
 30
0.0
 11
429.0
 21
151.0
 31
0.0
  0
LINE
  5
11F66
330
11EAB
100
AcDbEntity
  8
1
  6
Continuous
100
AcDbLine
 10
428.0
 20
149.5
 30
0.0
 11
424.0
 21
151.0
 31
0.0
  0
ARC
  5
11F67
330
11EAB
100
AcDbEntity
  8
1
  6
Continuous
100
AcDbCircle
 10
691.0
 20
135.0
 30
0.0
 40
11.0
100
AcDbArc
 50
26.33707499999999
 51
63.662925
  0
ARC
  5
11F68
330
11EAB
100
AcDbEntity
  8
1
  6
Continuous
100
AcDbCircle
 10
691.0
 20
135.0
 30
0.0
 40
12.5
100
AcDbArc
 50
26.33707499999999
 51
63.662925
  0
LINE
  5
11F69
330
11EAB
100
AcDbEntity
  8
1
  6
Continuous
100
AcDbLine
 10
702.202494
 20
140.54564
 30
0.0
 11
697.2733969999997
 21
138.1055579999998
 31
0.0
  0
LINE
  5
11F6A
330
11EAB
100
AcDbEntity
  8
1
  6
Continuous
100
AcDbLine
 10
703.5
 20
135.0
 30
0.0
 11
697.0
 21
135.0
 31
0.0
  0
LINE
  5
11F6B
330
11EAB
100
AcDbEntity
  8
1
  6
Continuous
100
AcDbLine
 10
703.932856
 20
128.821629
 30
0.0
 11
696.422859
 21
131.0850829999999
 31
0.0
  0
LINE
  5
11F6C
330
11EAB
100
AcDbEntity
  8
1
  6
Continuous
100
AcDbLine
 10
705.0
 20
122.5
 30
0.0
 11
690.0
 21
122.5
 31
0.0
  0
CIRCLE
  5
11F6D
330
11EAB
100
AcDbEntity
  8
1
  6
Continuous
100
AcDbCircle
 10
506.5
 20
135.0
 30
0.0
 40
2.399999999999999
  0
CIRCLE
  5
11F6E
330
11EAB
100
AcDbEntity
  8
1
  6
Continuous
100
AcDbCircle
 10
506.5
 20
135.0
 30
0.0
 40
3.75
  0
LINE
  5
11F6F
330
11EAB
100
AcDbEntity
  8
4
  6
CENTER
100
AcDbLine
 10
506.5
 20
129.2499999999998
 30
0.0
 11
506.5
 21
140.7499999999998
 31
0.0
  0
LINE
  5
11F70
330
11EAB
100
AcDbEntity
  8
1
  6
Continuous
100
AcDbLine
 10
690.0
 20
122.5
 30
0.0
 11
662.0
 21
125.0
 31
0.0
  0
ARC
  5
11F71
330
11EAB
100
AcDbEntity
  8
1
  6
Continuous
100
AcDbCircle
 10
680.0
 20
134.0
 30
0.0
 40
3.75
100
AcDbArc
 50
180.0
 51
0.0
  0
ARC
  5
11F72
330
11EAB
100
AcDbEntity
  8
1
  6
Continuous
100
AcDbCircle
 10
680.0
 20
136.0
 30
0.0
 40
3.75
100
AcDbArc
 50
0.0
 51
180.0
  0
ARC
  5
11F73
330
11EAB
100
AcDbEntity
  8
1
  6
Continuous
100
AcDbCircle
 10
680.0
 20
136.0
 30
0.0
 40
2.399999999999999
100
AcDbArc
 50
0.0
 51
180.0
  0
ARC
  5
11F74
330
11EAB
100
AcDbEntity
  8
1
  6
Continuous
100
AcDbCircle
 10
680.0
 20
134.0
 30
0.0
 40
2.399999999999999
100
AcDbArc
 50
180.0
 51
0.0
  0
LINE
  5
11F75
330
11EAB
100
AcDbEntity
  8
4
  6
CENTER
100
AcDbLine
 10
680.0
 20
128.2499999999998
 30
0.0
 11
680.0
 21
141.7499999999998
 31
0.0
  0
LINE
  5
11F76
330
11EAB
100
AcDbEntity
  8
1
  6
Continuous
100
AcDbLine
 10
676.25
 20
134.0
 30
0.0
 11
676.25
 21
136.0
 31
0.0
  0
LINE
  5
11F77
330
11EAB
100
AcDbEntity
  8
1
  6
Continuous
100
AcDbLine
 10
677.6
 20
134.0
 30
0.0
 11
677.6
 21
136.0
 31
0.0
  0
LINE
  5
11F78
330
11EAB
100
AcDbEntity
  8
1
  6
Continuous
100
AcDbLine
 10
683.75
 20
134.0
 30
0.0
 11
683.75
 21
136.0
 31
0.0
  0
LINE
  5
11F79
330
11EAB
100
AcDbEntity
  8
1
  6
Continuous
100
AcDbLine
 10
682.3999999999998
 20
134.0
 30
0.0
 11
682.3999999999998
 21
136.0
 31
0.0
  0
LINE
  5
11F7A
330
11EAB
100
AcDbEntity
  8
4
  6
CENTER
100
AcDbLine
 10
690.0
 20
129.2499999999998
 30
0.0
 11
690.0
 21
140.7499999999998
 31
0.0
  0
CIRCLE
  5
11F7B
330
11EAB
100
AcDbEntity
  8
1
  6
Continuous
100
AcDbCircle
 10
690.0
 20
135.0
 30
0.0
 40
3.75
  0
CIRCLE
  5
11F7C
330
11EAB
100
AcDbEntity
  8
1
  6
Continuous
100
AcDbCircle
 10
690.0
 20
135.0
 30
0.0
 40
2.399999999999999
  0
LINE
  5
11F7D
330
11EAB
100
AcDbEntity
  8
1
  6
Continuous
100
AcDbLine
 10
696.5456400000001
 20
146.202494
 30
0.0
 11
694.1055579999997
 21
141.2733969999998
 31
0.0
  0
ARC
  5
11F7E
330
11EAB
100
AcDbEntity
  8
1
  6
Continuous
100
AcDbCircle
 10
691.0
 20
135.0
 30
0.0
 40
7.0
100
AcDbArc
 50
26.33707499999999
 51
63.662925
  0
ARC
  5
11F7F
330
11EAB
100
AcDbEntity
  8
1
  6
Continuous
100
AcDbCircle
 10
697.0
 20
133.0
 30
0.0
 40
2.0
100
AcDbArc
 50
90.0
 51
253.2276069999999
  0
LINE
  5
11F80
330
11EAB
100
AcDbEntity
  8
1
  6
Continuous
100
AcDbLine
 10
705.0
 20
136.4999999999998
 30
0.0
 11
705.0
 21
151.0
 31
0.0
  0
ARC
  5
11F81
330
11EAB
100
AcDbEntity
  8
1
  6
Continuous
100
AcDbCircle
 10
703.5
 20
127.3854409999999
 30
0.0
 40
1.5
100
AcDbArc
 50
0.0
 51
73.22760699999998
  0
LINE
  5
11F82
330
11EAB
100
AcDbEntity
  8
1
  6
Continuous
100
AcDbLine
 10
705.0
 20
122.5
 30
0.0
 11
705.0
 21
127.3854409999999
 31
0.0
  0
ARC
  5
11F83
330
11EAB
100
AcDbEntity
  8
1
  6
Continuous
100
AcDbCircle
 10
703.5
 20
136.4999999999998
 30
0.0
 40
1.5
100
AcDbArc
 50
270.0
 51
0.0
  0
ARC
  5
11F84
330
11EAB
100
AcDbEntity
  8
3
  6
DASHED
100
AcDbCircle
 10
376.0
 20
319.5
 30
0.0
 40
11.0
100
AcDbArc
 50
114.619977
 51
65.38002299999999
  0
LINE
  5
11F85
330
11EAB
100
AcDbEntity
  8
1
  6
Continuous
100
AcDbLine
 10
359.0
 20
307.0
 30
0.0
 11
156.0
 21
307.0
 31
0.0
  0
CIRCLE
  5
11F86
330
11EAB
100
AcDbEntity
  8
1
  6
Continuous
100
AcDbCircle
 10
364.55
 20
307.55
 30
0.0
 40
1.75
  0
CIRCLE
  5
11F87
330
11EAB
100
AcDbEntity
  8
1
  6
Continuous
100
AcDbCircle
 10
390.0
 20
311.5
 30
0.0
 40
2.399999999999999
  0
LINE
  5
11F88
330
11EAB
100
AcDbEntity
  8
1
  6
Continuous
100
AcDbLine
 10
455.0
 20
135.4999999999998
 30
0.0
 11
455.0
 21
145.5
 31
0.0
  0
LINE
  5
11F89
330
11EAB
100
AcDbEntity
  8
1
  6
Continuous
100
AcDbLine
 10
408.4999999999998
 20
328.0
 30
0.0
 11
404.4999999999998
 21
329.4999999999999
 31
0.0
  0
LINE
  5
11F8A
330
11EAB
100
AcDbEntity
  8
1
  6
Continuous
100
AcDbLine
 10
409.4999999999997
 20
329.4999999999999
 30
0.0
 11
409.4999999999997
 21
328.0
 31
0.0
  0
LINE
  5
11F8B
330
11EAB
100
AcDbEntity
  8
1
  6
Continuous
100
AcDbLine
 10
428.0
 20
305.0
 30
0.0
 11
429.0
 21
305.0
 31
0.0
  0
LINE
  5
11F8C
330
11EAB
100
AcDbEntity
  8
1
  6
Continuous
100
AcDbLine
 10
409.4999999999997
 20
328.0
 30
0.0
 11
408.4999999999998
 21
328.0
 31
0.0
  0
LINE
  5
11F8D
330
11EAB
100
AcDbEntity
  8
1
  6
Continuous
100
AcDbLine
 10
404.4999999999998
 20
329.4999999999999
 30
0.0
 11
361.0
 21
329.4999999999999
 31
0.0
  0
LINE
  5
11F8E
330
11EAB
100
AcDbEntity
  8
1
  6
Continuous
100
AcDbLine
 10
328.75
 20
318.0
 30
0.0
 11
328.75
 21
316.0
 31
0.0
  0
LINE
  5
11F8F
330
11EAB
100
AcDbEntity
  8
1
  6
Continuous
100
AcDbLine
 10
321.2499999999999
 20
318.0
 30
0.0
 11
321.2499999999999
 21
316.0
 31
0.0
  0
ARC
  5
11F90
330
11EAB
100
AcDbEntity
  8
1
  6
Continuous
100
AcDbCircle
 10
325.0
 20
316.0
 30
0.0
 40
3.75
100
AcDbArc
 50
180.0
 51
0.0
  0
CIRCLE
  5
11F91
330
11EAB
100
AcDbEntity
  8
1
  6
Continuous
100
AcDbCircle
 10
335.0
 20
317.0
 30
0.0
 40
3.75
  0
ARC
  5
11F92
330
11EAB
100
AcDbEntity
  8
1
  6
Continuous
100
AcDbCircle
 10
325.0
 20
318.0
 30
0.0
 40
3.75
100
AcDbArc
 50
0.0
 51
180.0
  0
CIRCLE
  5
11F93
330
11EAB
100
AcDbEntity
  8
1
  6
Continuous
100
AcDbCircle
 10
125.0
 20
317.0
 30
0.0
 40
3.75
  0
ARC
  5
11F94
330
11EAB
100
AcDbEntity
  8
1
  6
Continuous
100
AcDbCircle
 10
135.0
 20
318.0
 30
0.0
 40
3.75
100
AcDbArc
 50
0.0
 51
180.0
  0
LINE
  5
11F95
330
11EAB
100
AcDbEntity
  8
1
  6
Continuous
100
AcDbLine
 10
131.25
 20
318.0
 30
0.0
 11
131.25
 21
316.0
 31
0.0
  0
LINE
  5
11F96
330
11EAB
100
AcDbEntity
  8
1
  6
Continuous
100
AcDbLine
 10
138.7499999999998
 20
318.0
 30
0.0
 11
138.7499999999998
 21
316.0
 31
0.0
  0
ARC
  5
11F97
330
11EAB
100
AcDbEntity
  8
1
  6
Continuous
100
AcDbCircle
 10
135.0
 20
316.0
 30
0.0
 40
3.75
100
AcDbArc
 50
180.0
 51
0.0
  0
LINE
  5
11F98
330
11EAB
100
AcDbEntity
  8
3
  6
DASHED
100
AcDbLine
 10
408.4999999999998
 20
126.5
 30
0.0
 11
450.4999999999998
 21
126.5
 31
0.0
  0
LINE
  5
11F99
330
11EAB
100
AcDbEntity
  8
3
  6
DASHED
100
AcDbLine
 10
409.4999999999997
 20
125.0
 30
0.0
 11
409.4999999999997
 21
126.5
 31
0.0
  0
LINE
  5
11F9A
330
11EAB
100
AcDbEntity
  8
3
  6
DASHED
100
AcDbLine
 10
408.4999999999998
 20
126.5
 30
0.0
 11
404.4999999999998
 21
125.0
 31
0.0
  0
LINE
  5
11F9B
330
11EAB
100
AcDbEntity
  8
3
  6
DASHED
100
AcDbLine
 10
404.4999999999998
 20
125.0
 30
0.0
 11
361.0
 21
125.0
 31
0.0
  0
LINE
  5
11F9C
330
11EAB
100
AcDbEntity
  8
3
  6
DASHED
100
AcDbLine
 10
431.5
 20
308.4999999999999
 30
0.0
 11
386.0201059999998
 21
308.4999999999999
 31
0.0
  0
LINE
  5
11F9D
330
11EAB
100
AcDbEntity
  8
3
  6
DASHED
100
AcDbLine
 10
382.78233
 20
309.0
 30
0.0
 11
385.53233
 21
307.0
 31
0.0
  0
LINE
  5
11F9E
330
11EAB
100
AcDbEntity
  8
3
  6
DASHED
100
AcDbLine
 10
382.78233
 20
309.0
 30
0.0
 11
380.03233
 21
307.0
 31
0.0
  0
LINE
  5
11F9F
330
11EAB
100
AcDbEntity
  8
3
  6
DASHED
100
AcDbLine
 10
383.6645879999999
 20
310.2131039999998
 30
0.0
 11
386.0201059999998
 21
308.4999999999999
 31
0.0
  0
LINE
  5
11FA0
330
11EAB
100
AcDbEntity
  8
3
  6
DASHED
100
AcDbLine
 10
381.900072
 20
310.2131039999998
 30
0.0
 11
379.544554
 21
308.4999999999999
 31
0.0
  0
ARC
  5
11FA1
330
11EAB
100
AcDbEntity
  8
3
  6
DASHED
100
AcDbCircle
 10
382.78233
 20
309.0
 30
0.0
 40
1.5
100
AcDbArc
 50
53.972627
 51
126.0273729999997
  0
LINE
  5
11FA2
330
11EAB
100
AcDbEntity
  8
1
  6
Continuous
100
AcDbLine
 10
703.5
 20
225.4999999999999
 30
0.0
 11
430.4999999999998
 21
225.4999999999999
 31
0.0
  0
LINE
  5
11FA3
330
11EAB
100
AcDbEntity
  8
1
  6
Continuous
100
AcDbLine
 10
109.0
 20
221.0
 30
0.0
 11
109.0
 21
229.0
 31
0.0
  0
LINE
  5
11FA4
330
11EAB
100
AcDbEntity
  8
1
  6
Continuous
100
AcDbLine
 10
359.0
 20
233.4999999999999
 30
0.0
 11
359.0
 21
232.0
 31
0.0
  0
LINE
  5
11FA5
330
11EAB
100
AcDbEntity
  8
1
  6
Continuous
100
AcDbLine
 10
430.0
 20
221.0
 30
0.0
 11
430.0
 21
225.5857859999999
 31
0.0
  0
LINE
  5
11FA6
330
11EAB
100
AcDbEntity
  8
1
  6
Continuous
100
AcDbLine
 10
429.0
 20
232.0
 30
0.0
 11
359.0
 21
232.0
 31
0.0
  0
LINE
  5
11FA7
330
11EAB
100
AcDbEntity
  8
1
  6
Continuous
100
AcDbLine
 10
156.0
 20
222.0
 30
0.0
 11
156.0
 21
228.0
 31
0.0
  0
LINE
  5
11FA8
330
11EAB
100
AcDbEntity
  8
1
  6
Continuous
100
AcDbLine
 10
143.5
 20
221.0
 30
0.0
 11
143.5
 21
224.0
 31
0.0
  0
LINE
  5
11FA9
330
11EAB
100
AcDbEntity
  8
1
  6
Continuous
100
AcDbLine
 10
143.5
 20
222.5
 30
0.0
 11
114.0
 21
222.5
 31
0.0
  0
LINE
  5
11FAA
330
11EAB
100
AcDbEntity
  8
1
  6
Continuous
100
AcDbLine
 10
142.0
 20
225.4999999999999
 30
0.0
 11
115.5
 21
225.4999999999999
 31
0.0
  0
LINE
  5
11FAB
330
11EAB
100
AcDbEntity
  8
1
  6
Continuous
100
AcDbLine
 10
114.0
 20
224.0
 30
0.0
 11
114.0
 21
221.0
 31
0.0
  0
ARC
  5
11FAC
330
11EAB
100
AcDbEntity
  8
1
  6
Continuous
100
AcDbCircle
 10
115.5
 20
224.0
 30
0.0
 40
1.5
100
AcDbArc
 50
90.0
 51
180.0
  0
ARC
  5
11FAD
330
11EAB
100
AcDbEntity
  8
1
  6
Continuous
100
AcDbCircle
 10
142.0
 20
224.0
 30
0.0
 40
1.5
100
AcDbArc
 50
0.0
 51
90.0
  0
LINE
  5
11FAE
330
11EAB
100
AcDbEntity
  8
1
  6
Continuous
100
AcDbLine
 10
455.0
 20
222.5
 30
0.0
 11
455.0
 21
221.0
 31
0.0
  0
LINE
  5
11FAF
330
11EAB
100
AcDbEntity
  8
1
  6
Continuous
100
AcDbLine
 10
455.0
 20
222.5
 30
0.0
 11
430.0
 21
222.5
 31
0.0
  0
LINE
  5
11FB0
330
11EAB
100
AcDbEntity
  8
4
  6
CENTER
100
AcDbLine
 10
441.0
 20
237.6235419999999
 30
0.0
 11
441.0
 21
217.1560739999999
 31
0.0
  0
LINE
  5
11FB1
330
11EAB
100
AcDbEntity
  8
4
  6
CENTER
100
AcDbLine
 10
425.0
 20
218.0
 30
0.0
 11
425.0
 21
224.5
 31
0.0
  0
LINE
  5
11FB2
330
11EAB
100
AcDbEntity
  8
4
  6
CENTER
100
AcDbLine
 10
415.0
 20
218.0
 30
0.0
 11
415.0
 21
224.5
 31
0.0
  0
LINE
  5
11FB3
330
11EAB
100
AcDbEntity
  8
4
  6
CENTER
100
AcDbLine
 10
335.0
 20
218.0
 30
0.0
 11
335.0
 21
224.5
 31
0.0
  0
LINE
  5
11FB4
330
11EAB
100
AcDbEntity
  8
4
  6
CENTER
100
AcDbLine
 10
325.0
 20
218.0
 30
0.0
 11
325.0
 21
224.5
 31
0.0
  0
LINE
  5
11FB5
330
11EAB
100
AcDbEntity
  8
4
  6
CENTER
100
AcDbLine
 10
135.0
 20
218.0
 30
0.0
 11
135.0
 21
224.5
 31
0.0
  0
LINE
  5
11FB6
330
11EAB
100
AcDbEntity
  8
4
  6
CENTER
100
AcDbLine
 10
125.0
 20
218.0
 30
0.0
 11
125.0
 21
224.5
 31
0.0
  0
LINE
  5
11FB7
330
11EAB
100
AcDbEntity
  8
1
  6
Continuous
100
AcDbLine
 10
429.0
 20
227.0
 30
0.0
 11
429.0
 21
233.4999999999999
 31
0.0
  0
LINE
  5
11FB8
330
11EAB
100
AcDbEntity
  8
1
  6
Continuous
100
AcDbLine
 10
409.4999999999997
 20
229.0
 30
0.0
 11
409.4999999999997
 21
232.0
 31
0.0
  0
LINE
  5
11FB9
330
11EAB
100
AcDbEntity
  8
1
  6
Continuous
100
AcDbLine
 10
428.0
 20
232.0
 30
0.0
 11
428.0
 21
233.4999999999999
 31
0.0
  0
LINE
  5
11FBA
330
11EAB
100
AcDbEntity
  8
1
  6
Continuous
100
AcDbLine
 10
424.0
 20
232.0
 30
0.0
 11
424.0
 21
233.4999999999999
 31
0.0
  0
ARC
  5
11FBB
330
11EAB
100
AcDbEntity
  8
1
  6
Continuous
100
AcDbCircle
 10
430.4999999999998
 20
227.0
 30
0.0
 40
1.5
100
AcDbArc
 50
180.0
 51
270.0
  0
LINE
  5
11FBC
330
11EAB
100
AcDbEntity
  8
1
  6
Continuous
100
AcDbLine
 10
447.0
 20
225.4999999999999
 30
0.0
 11
447.0
 21
223.4999999999998
 31
0.0
  0
LINE
  5
11FBD
330
11EAB
100
AcDbEntity
  8
1
  6
Continuous
100
AcDbLine
 10
435.0
 20
225.4999999999999
 30
0.0
 11
435.0
 21
223.4999999999998
 31
0.0
  0
LINE
  5
11FBE
330
11EAB
100
AcDbEntity
  8
1
  6
Continuous
100
AcDbLine
 10
447.0
 20
225.0
 30
0.0
 11
435.0
 21
225.0
 31
0.0
  0
LINE
  5
11FBF
330
11EAB
100
AcDbEntity
  8
1
  6
Continuous
100
AcDbLine
 10
447.0
 20
223.4999999999998
 30
0.0
 11
435.0
 21
223.4999999999998
 31
0.0
  0
LINE
  5
11FC0
330
11EAB
100
AcDbEntity
  8
1
  6
Continuous
100
AcDbLine
 10
446.792893
 20
223.2071069999999
 30
0.0
 11
447.5
 21
222.5
 31
0.0
  0
LINE
  5
11FC1
330
11EAB
100
AcDbEntity
  8
1
  6
Continuous
100
AcDbLine
 10
435.207107
 20
223.2071069999999
 30
0.0
 11
434.4999999999997
 21
222.5
 31
0.0
  0
ARC
  5
11FC2
330
11EAB
100
AcDbEntity
  8
1
  6
Continuous
100
AcDbCircle
 10
435.9142139999998
 20
222.5
 30
0.0
 40
1.0
100
AcDbArc
 50
90.0
 51
135.0
  0
ARC
  5
11FC3
330
11EAB
100
AcDbEntity
  8
1
  6
Continuous
100
AcDbCircle
 10
446.0857859999999
 20
222.5
 30
0.0
 40
1.0
100
AcDbArc
 50
45.0
 51
90.0
  0
LINE
  5
11FC4
330
11EAB
100
AcDbEntity
  8
4
  6
CENTER
100
AcDbLine
 10
415.0
 20
236.5
 30
0.0
 11
415.0
 21
230.0
 31
0.0
  0
LINE
  5
11FC5
330
11EAB
100
AcDbEntity
  8
4
  6
CENTER
100
AcDbLine
 10
425.0
 20
236.5
 30
0.0
 11
425.0
 21
230.0
 31
0.0
  0
LINE
  5
11FC6
330
11EAB
100
AcDbEntity
  8
4
  6
CENTER
100
AcDbLine
 10
506.5
 20
236.5
 30
0.0
 11
506.5
 21
230.0
 31
0.0
  0
LINE
  5
11FC7
330
11EAB
100
AcDbEntity
  8
4
  6
CENTER
100
AcDbLine
 10
680.0
 20
236.5
 30
0.0
 11
680.0
 21
230.0
 31
0.0
  0
LINE
  5
11FC8
330
11EAB
100
AcDbEntity
  8
4
  6
CENTER
100
AcDbLine
 10
690.0
 20
236.5
 30
0.0
 11
690.0
 21
230.0
 31
0.0
  0
LINE
  5
11FC9
330
11EAB
100
AcDbEntity
  8
1
  6
Continuous
100
AcDbLine
 10
705.0
 20
233.4999999999999
 30
0.0
 11
705.0
 21
227.0
 31
0.0
  0
LINE
  5
11FCA
330
11EAB
100
AcDbEntity
  8
4
  6
CENTER
100
AcDbLine
 10
376.0
 20
237.768529
 30
0.0
 11
376.0
 21
217.385748
 31
0.0
  0
LINE
  5
11FCB
330
11EAB
100
AcDbEntity
  8
1
  6
Continuous
100
AcDbLine
 10
382.0
 20
229.0
 30
0.0
 11
382.0
 21
231.0
 31
0.0
  0
LINE
  5
11FCC
330
11EAB
100
AcDbEntity
  8
1
  6
Continuous
100
AcDbLine
 10
382.0
 20
231.0
 30
0.0
 11
370.0
 21
231.0
 31
0.0
  0
LINE
  5
11FCD
330
11EAB
100
AcDbEntity
  8
1
  6
Continuous
100
AcDbLine
 10
370.0
 20
229.0
 30
0.0
 11
370.0
 21
231.0
 31
0.0
  0
ARC
  5
11FCE
330
11EAB
100
AcDbEntity
  8
1
  6
Continuous
100
AcDbCircle
 10
381.085786
 20
232.0
 30
0.0
 40
1.0
100
AcDbArc
 50
270.0
 51
315.0
  0
LINE
  5
11FCF
330
11EAB
100
AcDbEntity
  8
1
  6
Continuous
100
AcDbLine
 10
381.7928929999998
 20
231.2928929999999
 30
0.0
 11
382.5
 21
232.0
 31
0.0
  0
ARC
  5
11FD0
330
11EAB
100
AcDbEntity
  8
1
  6
Continuous
100
AcDbCircle
 10
370.914214
 20
232.0
 30
0.0
 40
1.0
100
AcDbArc
 50
225.0
 51
270.0
  0
LINE
  5
11FD1
330
11EAB
100
AcDbEntity
  8
1
  6
Continuous
100
AcDbLine
 10
370.207107
 20
231.2928929999999
 30
0.0
 11
369.5
 21
232.0
 31
0.0
  0
LINE
  5
11FD2
330
11EAB
100
AcDbEntity
  8
3
  6
DASHED
100
AcDbLine
 10
452.0
 20
226.5
 30
0.0
 11
452.0
 21
231.4999999999999
 31
0.0
  0
LINE
  5
11FD3
330
11EAB
100
AcDbEntity
  8
3
  6
DASHED
100
AcDbLine
 10
452.0
 20
226.5
 30
0.0
 11
430.0
 21
226.5
 31
0.0
  0
LINE
  5
11FD4
330
11EAB
100
AcDbEntity
  8
3
  6
DASHED
100
AcDbLine
 10
452.0
 20
231.4999999999999
 30
0.0
 11
430.0
 21
231.4999999999999
 31
0.0
  0
LINE
  5
11FD5
330
11EAB
100
AcDbEntity
  8
3
  6
DASHED
100
AcDbLine
 10
447.0
 20
226.5
 30
0.0
 11
447.0
 21
225.4999999999999
 31
0.0
  0
LINE
  5
11FD6
330
11EAB
100
AcDbEntity
  8
3
  6
DASHED
100
AcDbLine
 10
435.0
 20
226.5
 30
0.0
 11
435.0
 21
225.4999999999999
 31
0.0
  0
LINE
  5
11FD7
330
11EAB
100
AcDbEntity
  8
3
  6
DASHED
100
AcDbLine
 10
387.0
 20
228.0
 30
0.0
 11
387.0
 21
223.0
 31
0.0
  0
LINE
  5
11FD8
330
11EAB
100
AcDbEntity
  8
3
  6
DASHED
100
AcDbLine
 10
380.03233
 20
223.0
 30
0.0
 11
365.0
 21
223.0
 31
0.0
  0
LINE
  5
11FD9
330
11EAB
100
AcDbEntity
  8
3
  6
DASHED
100
AcDbLine
 10
387.0
 20
228.0
 30
0.0
 11
365.0
 21
228.0
 31
0.0
  0
LINE
  5
11FDA
330
11EAB
100
AcDbEntity
  8
1
  6
Continuous
100
AcDbLine
 10
382.0
 20
229.4999999999999
 30
0.0
 11
370.0
 21
229.4999999999999
 31
0.0
  0
LINE
  5
11FDB
330
11EAB
100
AcDbEntity
  8
3
  6
DASHED
100
AcDbLine
 10
382.0
 20
228.0
 30
0.0
 11
382.0
 21
229.0
 31
0.0
  0
LINE
  5
11FDC
330
11EAB
100
AcDbEntity
  8
3
  6
DASHED
100
AcDbLine
 10
370.0
 20
228.0
 30
0.0
 11
370.0
 21
229.0
 31
0.0
  0
LINE
  5
11FDD
330
11EAB
100
AcDbEntity
  8
3
  6
DASHED
100
AcDbLine
 10
365.0
 20
228.0
 30
0.0
 11
365.0
 21
223.0
 31
0.0
  0
LINE
  5
11FDE
330
11EAB
100
AcDbEntity
  8
4
  6
CENTER
100
AcDbLine
 10
364.55
 20
236.5
 30
0.0
 11
364.55
 21
230.0
 31
0.0
  0
LINE
  5
11FDF
330
11EAB
100
AcDbEntity
  8
4
  6
CENTER
100
AcDbLine
 10
390.0
 20
236.5
 30
0.0
 11
390.0
 21
230.0
 31
0.0
  0
LINE
  5
11FE0
330
11EAB
100
AcDbEntity
  8
1
  6
Continuous
100
AcDbLine
 10
109.0
 20
229.0
 30
0.0
 11
428.0
 21
229.0
 31
0.0
  0
LINE
  5
11FE1
330
11EAB
100
AcDbEntity
  8
1
  6
Continuous
100
AcDbLine
 10
385.53233
 20
228.5
 30
0.0
 11
385.53233
 21
223.0
 31
0.0
  0
LINE
  5
11FE2
330
11EAB
100
AcDbEntity
  8
1
  6
Continuous
100
AcDbLine
 10
382.78233
 20
228.5
 30
0.0
 11
382.78233
 21
223.0
 31
0.0
  0
LINE
  5
11FE3
330
11EAB
100
AcDbEntity
  8
1
  6
Continuous
100
AcDbLine
 10
380.03233
 20
228.5
 30
0.0
 11
380.03233
 21
223.0
 31
0.0
  0
LINE
  5
11FE4
330
11EAB
100
AcDbEntity
  8
1
  6
Continuous
100
AcDbLine
 10
385.53233
 20
223.0
 30
0.0
 11
380.03233
 21
223.0
 31
0.0
  0
LINE
  5
11FE5
330
11EAB
100
AcDbEntity
  8
1
  6
Continuous
100
AcDbLine
 10
385.53233
 20
228.5
 30
0.0
 11
380.03233
 21
228.5
 31
0.0
  0
LINE
  5
11FE6
330
11EAB
100
AcDbEntity
  8
3
  6
DASHED
100
AcDbLine
 10
387.0
 20
223.0
 30
0.0
 11
385.53233
 21
223.0
 31
0.0
  0
LINE
  5
11FE7
330
11EAB
100
AcDbEntity
  8
1
  6
Continuous
100
AcDbLine
 10
705.0
 20
41.0
 30
0.0
 11
359.0
 21
41.0
 31
0.0
  0
LINE
  5
11FE8
330
11EAB
100
AcDbEntity
  8
1
  6
Continuous
100
AcDbLine
 10
703.5
 20
49.0
 30
0.0
 11
411.5
 21
49.0
 31
0.0
  0
LINE
  5
11FE9
330
11EAB
100
AcDbEntity
  8
1
  6
Continuous
100
AcDbLine
 10
455.0
 20
53.5
 30
0.0
 11
109.0
 21
53.5
 31
0.0
  0
LINE
  5
11FEA
330
11EAB
100
AcDbEntity
  8
1
  6
Continuous
100
AcDbLine
 10
142.0
 20
49.0
 30
0.0
 11
115.5
 21
49.0
 31
0.0
  0
LINE
  5
11FEB
330
11EAB
100
AcDbEntity
  8
1
  6
Continuous
100
AcDbLine
 10
455.0
 20
52.0
 30
0.0
 11
109.0
 21
52.0
 31
0.0
  0
LINE
  5
11FEC
330
11EAB
100
AcDbEntity
  8
1
  6
Continuous
100
AcDbLine
 10
109.0
 20
53.5
 30
0.0
 11
109.0
 21
45.49999999999999
 31
0.0
  0
ARC
  5
11FED
330
11EAB
100
AcDbEntity
  8
1
  6
Continuous
100
AcDbCircle
 10
115.5
 20
50.5
 30
0.0
 40
1.5
100
AcDbArc
 50
180.0
 51
270.0
  0
LINE
  5
11FEE
330
11EAB
100
AcDbEntity
  8
1
  6
Continuous
100
AcDbLine
 10
114.0
 20
50.5
 30
0.0
 11
114.0
 21
52.0
 31
0.0
  0
LINE
  5
11FEF
330
11EAB
100
AcDbEntity
  8
4
  6
CENTER
100
AcDbLine
 10
125.0
 20
56.5
 30
0.0
 11
125.0
 21
50.0
 31
0.0
  0
ARC
  5
11FF0
330
11EAB
100
AcDbEntity
  8
1
  6
Continuous
100
AcDbCircle
 10
142.0
 20
50.5
 30
0.0
 40
1.5
100
AcDbArc
 50
270.0
 51
0.0
  0
LINE
  5
11FF1
330
11EAB
100
AcDbEntity
  8
4
  6
CENTER
100
AcDbLine
 10
135.0
 20
56.5
 30
0.0
 11
135.0
 21
50.0
 31
0.0
  0
LINE
  5
11FF2
330
11EAB
100
AcDbEntity
  8
1
  6
Continuous
100
AcDbLine
 10
143.5
 20
52.0
 30
0.0
 11
143.5
 21
50.5
 31
0.0
  0
LINE
  5
11FF3
330
11EAB
100
AcDbEntity
  8
1
  6
Continuous
100
AcDbLine
 10
156.0
 20
51.0
 30
0.0
 11
156.0
 21
46.5
 31
0.0
  0
LINE
  5
11FF4
330
11EAB
100
AcDbEntity
  8
1
  6
Continuous
100
AcDbLine
 10
409.4999999999997
 20
42.5
 30
0.0
 11
359.0
 21
42.5
 31
0.0
  0
LINE
  5
11FF5
330
11EAB
100
AcDbEntity
  8
4
  6
CENTER
100
AcDbLine
 10
325.0
 20
56.5
 30
0.0
 11
325.0
 21
50.0
 31
0.0
  0
LINE
  5
11FF6
330
11EAB
100
AcDbEntity
  8
4
  6
CENTER
100
AcDbLine
 10
335.0
 20
56.5
 30
0.0
 11
335.0
 21
50.0
 31
0.0
  0
LINE
  5
11FF7
330
11EAB
100
AcDbEntity
  8
1
  6
Continuous
100
AcDbLine
 10
359.0
 20
41.0
 30
0.0
 11
359.0
 21
42.5
 31
0.0
  0
LINE
  5
11FF8
330
11EAB
100
AcDbEntity
  8
1
  6
Continuous
100
AcDbLine
 10
387.0
 20
51.5
 30
0.0
 11
365.0
 21
51.5
 31
0.0
  0
LINE
  5
11FF9
330
11EAB
100
AcDbEntity
  8
1
  6
Continuous
100
AcDbLine
 10
382.0
 20
43.5
 30
0.0
 11
370.0
 21
43.5
 31
0.0
  0
LINE
  5
11FFA
330
11EAB
100
AcDbEntity
  8
1
  6
Continuous
100
AcDbLine
 10
387.0
 20
46.5
 30
0.0
 11
365.0
 21
46.5
 31
0.0
  0
LINE
  5
11FFB
330
11EAB
100
AcDbEntity
  8
1
  6
Continuous
100
AcDbLine
 10
382.0
 20
45.0
 30
0.0
 11
370.0
 21
45.0
 31
0.0
  0
ARC
  5
11FFC
330
11EAB
100
AcDbEntity
  8
1
  6
Continuous
100
AcDbCircle
 10
370.914214
 20
42.5
 30
0.0
 40
1.0
100
AcDbArc
 50
90.0
 51
135.0
  0
LINE
  5
11FFD
330
11EAB
100
AcDbEntity
  8
1
  6
Continuous
100
AcDbLine
 10
370.207107
 20
43.207107
 30
0.0
 11
369.5
 21
42.5
 31
0.0
  0
LINE
  5
11FFE
330
11EAB
100
AcDbEntity
  8
1
  6
Continuous
100
AcDbLine
 10
370.0
 20
46.5
 30
0.0
 11
370.0
 21
43.5
 31
0.0
  0
LINE
  5
11FFF
330
11EAB
100
AcDbEntity
  8
4
  6
CENTER
100
AcDbLine
 10
364.55
 20
38.0
 30
0.0
 11
364.55
 21
44.5
 31
0.0
  0
LINE
  5
12000
330
11EAB
100
AcDbEntity
  8
4
  6
CENTER
100
AcDbLine
 10
376.0
 20
36.73147099999999
 30
0.0
 11
376.0
 21
57.114252
 31
0.0
  0
LINE
  5
12001
330
11EAB
100
AcDbEntity
  8
1
  6
Continuous
100
AcDbLine
 10
365.0
 20
46.5
 30
0.0
 11
365.0
 21
51.5
 31
0.0
  0
ARC
  5
12002
330
11EAB
100
AcDbEntity
  8
1
  6
Continuous
100
AcDbCircle
 10
381.085786
 20
42.5
 30
0.0
 40
1.0
100
AcDbArc
 50
45.0
 51
90.0
  0
LINE
  5
12003
330
11EAB
100
AcDbEntity
  8
1
  6
Continuous
100
AcDbLine
 10
381.7928929999998
 20
43.207107
 30
0.0
 11
382.5
 21
42.5
 31
0.0
  0
LINE
  5
12004
330
11EAB
100
AcDbEntity
  8
1
  6
Continuous
100
AcDbLine
 10
382.0
 20
46.5
 30
0.0
 11
382.0
 21
43.5
 31
0.0
  0
LINE
  5
12005
330
11EAB
100
AcDbEntity
  8
4
  6
CENTER
100
AcDbLine
 10
390.0
 20
38.0
 30
0.0
 11
390.0
 21
44.5
 31
0.0
  0
LINE
  5
12006
330
11EAB
100
AcDbEntity
  8
1
  6
Continuous
100
AcDbLine
 10
386.0201059999998
 20
46.0
 30
0.0
 11
382.0
 21
46.0
 31
0.0
  0
LINE
  5
12007
330
11EAB
100
AcDbEntity
  8
1
  6
Continuous
100
AcDbLine
 10
387.0
 20
46.5
 30
0.0
 11
387.0
 21
51.5
 31
0.0
  0
LINE
  5
12008
330
11EAB
100
AcDbEntity
  8
1
  6
Continuous
100
AcDbLine
 10
382.78233
 20
46.0
 30
0.0
 11
382.78233
 21
46.5
 31
0.0
  0
LINE
  5
12009
330
11EAB
100
AcDbEntity
  8
4
  6
CENTER
100
AcDbLine
 10
415.0
 20
56.5
 30
0.0
 11
415.0
 21
50.0
 31
0.0
  0
LINE
  5
1200A
330
11EAB
100
AcDbEntity
  8
1
  6
Continuous
100
AcDbLine
 10
409.4999999999997
 20
47.0
 30
0.0
 11
409.4999999999997
 21
41.0
 31
0.0
  0
LINE
  5
1200B
330
11EAB
100
AcDbEntity
  8
4
  6
CENTER
100
AcDbLine
 10
425.0
 20
56.5
 30
0.0
 11
425.0
 21
50.0
 31
0.0
  0
LINE
  5
1200C
330
11EAB
100
AcDbEntity
  8
4
  6
CENTER
100
AcDbLine
 10
425.0
 20
38.0
 30
0.0
 11
425.0
 21
44.5
 31
0.0
  0
LINE
  5
1200D
330
11EAB
100
AcDbEntity
  8
4
  6
CENTER
100
AcDbLine
 10
415.0
 20
38.0
 30
0.0
 11
415.0
 21
44.5
 31
0.0
  0
LINE
  5
1200E
330
11EAB
100
AcDbEntity
  8
3
  6
DASHED
100
AcDbLine
 10
430.0
 20
49.0
 30
0.0
 11
430.0
 21
43.0
 31
0.0
  0
LINE
  5
1200F
330
11EAB
100
AcDbEntity
  8
3
  6
DASHED
100
AcDbLine
 10
452.0
 20
48.0
 30
0.0
 11
430.0
 21
48.0
 31
0.0
  0
LINE
  5
12010
330
11EAB
100
AcDbEntity
  8
3
  6
DASHED
100
AcDbLine
 10
452.0
 20
43.0
 30
0.0
 11
430.0
 21
43.0
 31
0.0
  0
LINE
  5
12011
330
11EAB
100
AcDbEntity
  8
1
  6
Continuous
100
AcDbLine
 10
447.0
 20
49.5
 30
0.0
 11
435.0
 21
49.5
 31
0.0
  0
LINE
  5
12012
330
11EAB
100
AcDbEntity
  8
1
  6
Continuous
100
AcDbLine
 10
435.207107
 20
51.29289299999999
 30
0.0
 11
434.4999999999997
 21
52.0
 31
0.0
  0
ARC
  5
12013
330
11EAB
100
AcDbEntity
  8
1
  6
Continuous
100
AcDbCircle
 10
435.9142139999998
 20
52.0
 30
0.0
 40
1.0
100
AcDbArc
 50
225.0
 51
270.0
  0
LINE
  5
12014
330
11EAB
100
AcDbEntity
  8
1
  6
Continuous
100
AcDbLine
 10
446.792893
 20
51.29289299999999
 30
0.0
 11
447.5
 21
52.0
 31
0.0
  0
ARC
  5
12015
330
11EAB
100
AcDbEntity
  8
1
  6
Continuous
100
AcDbCircle
 10
446.0857859999999
 20
52.0
 30
0.0
 40
1.0
100
AcDbArc
 50
270.0
 51
315.0
  0
LINE
  5
12016
330
11EAB
100
AcDbEntity
  8
1
  6
Continuous
100
AcDbLine
 10
435.0
 20
49.0
 30
0.0
 11
435.0
 21
51.0
 31
0.0
  0
LINE
  5
12017
330
11EAB
100
AcDbEntity
  8
1
  6
Continuous
100
AcDbLine
 10
447.0
 20
51.0
 30
0.0
 11
435.0
 21
51.0
 31
0.0
  0
LINE
  5
12018
330
11EAB
100
AcDbEntity
  8
1
  6
Continuous
100
AcDbLine
 10
447.0
 20
49.0
 30
0.0
 11
447.0
 21
51.0
 31
0.0
  0
LINE
  5
12019
330
11EAB
100
AcDbEntity
  8
3
  6
DASHED
100
AcDbLine
 10
435.0
 20
48.0
 30
0.0
 11
435.0
 21
49.0
 31
0.0
  0
LINE
  5
1201A
330
11EAB
100
AcDbEntity
  8
3
  6
DASHED
100
AcDbLine
 10
447.0
 20
48.0
 30
0.0
 11
447.0
 21
49.0
 31
0.0
  0
LINE
  5
1201B
330
11EAB
100
AcDbEntity
  8
4
  6
CENTER
100
AcDbLine
 10
441.0
 20
36.876458
 30
0.0
 11
441.0
 21
57.343926
 31
0.0
  0
LINE
  5
1201C
330
11EAB
100
AcDbEntity
  8
1
  6
Continuous
100
AcDbLine
 10
455.0
 20
52.0
 30
0.0
 11
455.0
 21
53.5
 31
0.0
  0
LINE
  5
1201D
330
11EAB
100
AcDbEntity
  8
3
  6
DASHED
100
AcDbLine
 10
452.0
 20
48.0
 30
0.0
 11
452.0
 21
43.0
 31
0.0
  0
LINE
  5
1201E
330
11EAB
100
AcDbEntity
  8
4
  6
CENTER
100
AcDbLine
 10
506.5
 20
38.0
 30
0.0
 11
506.5
 21
44.5
 31
0.0
  0
LINE
  5
1201F
330
11EAB
100
AcDbEntity
  8
4
  6
CENTER
100
AcDbLine
 10
680.0
 20
38.0
 30
0.0
 11
680.0
 21
44.5
 31
0.0
  0
LINE
  5
12020
330
11EAB
100
AcDbEntity
  8
4
  6
CENTER
100
AcDbLine
 10
690.0
 20
38.0
 30
0.0
 11
690.0
 21
44.5
 31
0.0
  0
LINE
  5
12021
330
11EAB
100
AcDbEntity
  8
1
  6
Continuous
100
AcDbLine
 10
705.0
 20
41.0
 30
0.0
 11
705.0
 21
47.5
 31
0.0
  0
LINE
  5
12022
330
11EAB
100
AcDbEntity
  8
1
  6
Continuous
100
AcDbLine
 10
109.0
 20
45.49999999999999
 30
0.0
 11
370.0
 21
45.49999999999999
 31
0.0
  0
LINE
  5
12023
330
11EAB
100
AcDbEntity
  8
1
  6
Continuous
100
AcDbLine
 10
386.0201059999998
 20
46.0
 30
0.0
 11
386.0201059999998
 21
46.5
 31
0.0
  0
LINE
  5
12024
330
11EAB
100
AcDbEntity
  8
1
  6
Continuous
100
AcDbLine
 10
382.0
 20
45.49999999999999
 30
0.0
 11
409.4999999999997
 21
45.49999999999999
 31
0.0
  0
LINE
  5
12025
330
11EAB
100
AcDbEntity
  8
1
  6
Continuous
100
AcDbLine
 10
430.0
 20
52.0
 30
0.0
 11
430.0
 21
49.0
 31
0.0
  0
LINE
  5
12026
330
11EAB
100
AcDbEntity
  8
3
  6
DASHED
100
AcDbLine
 10
409.4999999999997
 20
45.49999999999999
 30
0.0
 11
428.0
 21
45.49999999999999
 31
0.0
  0
ARC
  5
12027
330
11EAB
100
AcDbEntity
  8
1
  6
Continuous
100
AcDbCircle
 10
36.0
 20
148.5
 30
0.0
 40
1.5
100
AcDbArc
 50
0.0
 51
90.0
  0
LINE
  5
12028
330
11EAB
100
AcDbEntity
  8
1
  6
Continuous
100
AcDbLine
 10
25.0
 20
124.0
 30
0.0
 11
25.0
 21
151.0
 31
0.0
  0
LINE
  5
12029
330
11EAB
100
AcDbEntity
  8
1
  6
Continuous
100
AcDbLine
 10
26.5
 20
122.5
 30
0.0
 11
26.5
 21
151.0
 31
0.0
  0
LINE
  5
1202A
330
11EAB
100
AcDbEntity
  8
1
  6
Continuous
100
AcDbLine
 10
37.5
 20
123.5
 30
0.0
 11
37.5
 21
148.5
 31
0.0
  0
ARC
  5
1202B
330
11EAB
100
AcDbEntity
  8
1
  6
Continuous
100
AcDbCircle
 10
26.5
 20
124.0
 30
0.0
 40
1.5
100
AcDbArc
 50
180.0
 51
270.0
  0
LINE
  5
1202C
330
11EAB
100
AcDbEntity
  8
1
  6
Continuous
100
AcDbLine
 10
37.5
 20
123.5
 30
0.0
 11
36.0
 21
123.5
 31
0.0
  0
LINE
  5
1202D
330
11EAB
100
AcDbEntity
  8
1
  6
Continuous
100
AcDbLine
 10
36.0
 20
148.5
 30
0.0
 11
27.0
 21
148.5
 31
0.0
  0
LINE
  5
1202E
330
11EAB
100
AcDbEntity
  8
4
  6
CENTER
100
AcDbLine
 10
41.643621
 20
137.5
 30
0.0
 11
23.84947599999999
 21
137.5
 31
0.0
  0
LINE
  5
1202F
330
11EAB
100
AcDbEntity
  8
4
  6
CENTER
100
AcDbLine
 10
38.19373800000001
 20
135.0
 30
0.0
 11
20.0
 21
135.0
 31
0.0
  0
LINE
  5
12030
330
11EAB
100
AcDbEntity
  8
1
  6
Continuous
100
AcDbLine
 10
36.0
 20
123.5
 30
0.0
 11
36.0
 21
148.5
 31
0.0
  0
LINE
  5
12031
330
11EAB
100
AcDbEntity
  8
1
  6
Continuous
100
AcDbLine
 10
33.0
 20
151.0
 30
0.0
 11
25.0
 21
151.0
 31
0.0
  0
LINE
  5
12032
330
11EAB
100
AcDbEntity
  8
1
  6
Continuous
100
AcDbLine
 10
29.5
 20
149.5
 30
0.0
 11
26.5
 21
149.5
 31
0.0
  0
LINE
  5
12033
330
11EAB
100
AcDbEntity
  8
1
  6
Continuous
100
AcDbLine
 10
29.5
 20
150.0
 30
0.0
 11
36.0
 21
150.0
 31
0.0
  0
LINE
  5
12034
330
11EAB
100
AcDbEntity
  8
1
  6
Continuous
100
AcDbLine
 10
33.0
 20
150.0
 30
0.0
 11
33.0
 21
151.0
 31
0.0
  0
LINE
  5
12035
330
11EAB
100
AcDbEntity
  8
1
  6
Continuous
100
AcDbLine
 10
29.5
 20
146.0
 30
0.0
 11
29.5
 21
150.0
 31
0.0
  0
LINE
  5
12036
330
11EAB
100
AcDbEntity
  8
1
  6
Continuous
100
AcDbLine
 10
37.5
 20
137.5
 30
0.0
 11
36.0
 21
137.5
 31
0.0
  0
LINE
  5
12037
330
11EAB
100
AcDbEntity
  8
1
  6
Continuous
100
AcDbLine
 10
36.0
 20
144.0
 30
0.0
 11
37.5
 21
144.0
 31
0.0
  0
LINE
  5
12038
330
11EAB
100
AcDbEntity
  8
1
  6
Continuous
100
AcDbLine
 10
25.0
 20
125.0
 30
0.0
 11
30.5
 21
125.0
 31
0.0
  0
LINE
  5
12039
330
11EAB
100
AcDbEntity
  8
1
  6
Continuous
100
AcDbLine
 10
36.0
 20
146.0
 30
0.0
 11
29.5
 21
146.0
 31
0.0
  0
LINE
  5
1203A
330
11EAB
100
AcDbEntity
  8
1
  6
Continuous
100
AcDbLine
 10
127.0
 20
48.58615799999999
 30
0.0
 11
127.0
 21
45.98131
 31
0.0
  0
LINE
  5
1203B
330
11EAB
100
AcDbEntity
  8
1
  6
Continuous
100
AcDbLine
 10
127.0
 20
226.4156869999999
 30
0.0
 11
127.0
 21
228.200516
 31
0.0
  0
LINE
  5
1203C
330
11EAB
100
AcDbEntity
  8
1
  6
Continuous
100
AcDbLine
 10
690.0
 20
46.103955
 30
0.0
 11
690.0
 21
48.203194
 31
0.0
  0
LINE
  5
1203D
330
11EAB
100
AcDbEntity
  8
1
  6
Continuous
100
AcDbLine
 10
662.0
 20
42.5
 30
0.0
 11
662.0
 21
47.71568
 31
0.0
  0
ARC
  5
1203E
330
11EAB
100
AcDbEntity
  8
1
  6
Continuous
100
AcDbCircle
 10
703.5
 20
227.0
 30
0.0
 40
1.5
100
AcDbArc
 50
270.0
 51
0.0
  0
LINE
  5
1203F
330
11EAB
100
AcDbEntity
  8
1
  6
Continuous
100
AcDbLine
 10
705.0
 20
630.4999999999997
 30
0.0
 11
455.0
 21
630.4999999999997
 31
0.0
  0
LINE
  5
12040
330
11EAB
100
AcDbEntity
  8
1
  6
Continuous
100
AcDbLine
 10
703.5
 20
629.0
 30
0.0
 11
430.4999999999998
 21
629.0
 31
0.0
  0
LINE
  5
12041
330
11EAB
100
AcDbEntity
  8
1
  6
Continuous
100
AcDbLine
 10
662.0
 20
525.0
 30
0.0
 11
444.5781949999997
 21
525.0
 31
0.0
  0
LINE
  5
12042
330
11EAB
100
AcDbEntity
  8
1
  6
Continuous
100
AcDbLine
 10
705.0
 20
551.0
 30
0.0
 11
429.0
 21
551.0
 31
0.0
  0
LINE
  5
12043
330
11EAB
100
AcDbEntity
  8
1
  6
Continuous
100
AcDbLine
 10
705.0
 20
621.0
 30
0.0
 11
360.4999999999998
 21
621.0
 31
0.0
  0
LINE
  5
12044
330
11EAB
100
AcDbEntity
  8
1
  6
Continuous
100
AcDbLine
 10
705.0
 20
703.5
 30
0.0
 11
429.0
 21
703.5
 31
0.0
  0
LINE
  5
12045
330
11EAB
100
AcDbEntity
  8
1
  6
Continuous
100
AcDbLine
 10
705.0
 20
705.0
 30
0.0
 11
428.0
 21
705.0
 31
0.0
  0
LINE
  5
12046
330
11EAB
100
AcDbEntity
  8
1
  6
Continuous
100
AcDbLine
 10
662.0
 20
729.4999999999999
 30
0.0
 11
449.578195
 21
729.4999999999999
 31
0.0
  0
LINE
  5
12047
330
11EAB
100
AcDbEntity
  8
1
  6
Continuous
100
AcDbLine
 10
662.245048
 20
724.0
 30
0.0
 11
451.698246
 21
724.0
 31
0.0
  0
LINE
  5
12048
330
11EAB
100
AcDbEntity
  8
1
  6
Continuous
100
AcDbLine
 10
453.5
 20
633.4999999999999
 30
0.0
 11
109.0
 21
633.4999999999999
 31
0.0
  0
LINE
  5
12049
330
11EAB
100
AcDbEntity
  8
1
  6
Continuous
100
AcDbLine
 10
430.0
 20
707.0
 30
0.0
 11
156.0
 21
707.0
 31
0.0
  0
LINE
  5
1204A
330
11EAB
100
AcDbEntity
  8
1
  6
Continuous
100
AcDbLine
 10
447.627489
 20
731.0
 30
0.0
 11
111.0
 21
731.0
 31
0.0
  0
LINE
  5
1204B
330
11EAB
100
AcDbEntity
  8
1
  6
Continuous
100
AcDbLine
 10
109.0
 20
624.0
 30
0.0
 11
429.0
 21
624.0
 31
0.0
  0
LINE
  5
1204C
330
11EAB
100
AcDbEntity
  8
1
  6
Continuous
100
AcDbLine
 10
447.627489
 20
523.5
 30
0.0
 11
111.0
 21
523.5
 31
0.0
  0
LINE
  5
1204D
330
11EAB
100
AcDbEntity
  8
1
  6
Continuous
100
AcDbLine
 10
360.4999999999998
 20
547.5
 30
0.0
 11
156.0
 21
547.5
 31
0.0
  0
LINE
  5
1204E
330
11EAB
100
AcDbEntity
  8
1
  6
Continuous
100
AcDbLine
 10
358.0
 20
542.4999999999998
 30
0.0
 11
155.784882
 21
542.4999999999998
 31
0.0
  0
LINE
  5
1204F
330
11EAB
100
AcDbEntity
  8
1
  6
Continuous
100
AcDbLine
 10
156.0
 20
547.5
 30
0.0
 11
127.0
 21
550.0
 31
0.0
  0
LINE
  5
12050
330
11EAB
100
AcDbEntity
  8
4
  6
CENTER
100
AcDbLine
 10
119.25
 20
537.5
 30
0.0
 11
140.7499999999998
 21
537.5
 31
0.0
  0
LINE
  5
12051
330
11EAB
100
AcDbEntity
  8
1
  6
Continuous
100
AcDbLine
 10
155.784882
 20
542.4999999999998
 30
0.0
 11
126.784882
 21
545.0
 31
0.0
  0
CIRCLE
  5
12052
330
11EAB
100
AcDbEntity
  8
1
  6
Continuous
100
AcDbCircle
 10
125.0
 20
537.5
 30
0.0
 40
3.75
  0
LINE
  5
12053
330
11EAB
100
AcDbEntity
  8
1
  6
Continuous
100
AcDbLine
 10
25.0
 20
523.5
 30
0.0
 11
25.0
 21
548.5
 31
0.0
  0
LINE
  5
12054
330
11EAB
100
AcDbEntity
  8
1
  6
Continuous
100
AcDbLine
 10
26.5
 20
523.5
 30
0.0
 11
26.5
 21
548.5
 31
0.0
  0
LINE
  5
12055
330
11EAB
100
AcDbEntity
  8
1
  6
Continuous
100
AcDbLine
 10
27.0
 20
524.0
 30
0.0
 11
27.0
 21
541.0
 31
0.0
  0
LINE
  5
12056
330
11EAB
100
AcDbEntity
  8
1
  6
Continuous
100
AcDbLine
 10
28.0
 20
524.0
 30
0.0
 11
28.0
 21
541.0
 31
0.0
  0
LINE
  5
12057
330
11EAB
100
AcDbEntity
  8
1
  6
Continuous
100
AcDbLine
 10
37.5
 20
524.0
 30
0.0
 11
37.5
 21
551.0
 31
0.0
  0
LINE
  5
12058
330
11EAB
100
AcDbEntity
  8
1
  6
Continuous
100
AcDbLine
 10
29.5
 20
522.5
 30
0.0
 11
36.0
 21
522.5
 31
0.0
  0
LINE
  5
12059
330
11EAB
100
AcDbEntity
  8
1
  6
Continuous
100
AcDbLine
 10
37.5
 20
525.0
 30
0.0
 11
29.5
 21
525.0
 31
0.0
  0
LINE
  5
1205A
330
11EAB
100
AcDbEntity
  8
1
  6
Continuous
100
AcDbLine
 10
25.0
 20
523.5
 30
0.0
 11
26.5
 21
523.5
 31
0.0
  0
ARC
  5
1205B
330
11EAB
100
AcDbEntity
  8
1
  6
Continuous
100
AcDbCircle
 10
29.5
 20
524.0
 30
0.0
 40
1.5
100
AcDbArc
 50
180.0
 51
270.0
  0
LINE
  5
1205C
330
11EAB
100
AcDbEntity
  8
1
  6
Continuous
100
AcDbLine
 10
27.0
 20
524.0
 30
0.0
 11
28.0
 21
524.0
 31
0.0
  0
ARC
  5
1205D
330
11EAB
100
AcDbEntity
  8
1
  6
Continuous
100
AcDbCircle
 10
29.5
 20
526.4999999999998
 30
0.0
 40
1.5
100
AcDbArc
 50
180.0
 51
270.0
  0
ARC
  5
1205E
330
11EAB
100
AcDbEntity
  8
1
  6
Continuous
100
AcDbCircle
 10
36.0
 20
524.0
 30
0.0
 40
1.5
100
AcDbArc
 50
270.0
 51
0.0
  0
LINE
  5
1205F
330
11EAB
100
AcDbEntity
  8
1
  6
Continuous
100
AcDbLine
 10
29.5
 20
551.0
 30
0.0
 11
37.5
 21
551.0
 31
0.0
  0
LINE
  5
12060
330
11EAB
100
AcDbEntity
  8
1
  6
Continuous
100
AcDbLine
 10
33.0
 20
550.0
 30
0.0
 11
26.5
 21
550.0
 31
0.0
  0
LINE
  5
12061
330
11EAB
100
AcDbEntity
  8
4
  6
CENTER
100
AcDbLine
 10
20.856379
 20
537.5
 30
0.0
 11
38.65052399999999
 21
537.5
 31
0.0
  0
LINE
  5
12062
330
11EAB
100
AcDbEntity
  8
4
  6
CENTER
100
AcDbLine
 10
24.306262
 20
535.0
 30
0.0
 11
42.5
 21
535.0
 31
0.0
  0
LINE
  5
12063
330
11EAB
100
AcDbEntity
  8
1
  6
Continuous
100
AcDbLine
 10
26.5
 20
548.5
 30
0.0
 11
33.0
 21
548.5
 31
0.0
  0
LINE
  5
12064
330
11EAB
100
AcDbEntity
  8
1
  6
Continuous
100
AcDbLine
 10
37.5
 20
541.0
 30
0.0
 11
26.5
 21
541.0
 31
0.0
  0
LINE
  5
12065
330
11EAB
100
AcDbEntity
  8
1
  6
Continuous
100
AcDbLine
 10
33.0
 20
544.5
 30
0.0
 11
26.5
 21
544.5
 31
0.0
  0
LINE
  5
12066
330
11EAB
100
AcDbEntity
  8
1
  6
Continuous
100
AcDbLine
 10
26.5
 20
546.0
 30
0.0
 11
33.0
 21
546.0
 31
0.0
  0
LINE
  5
12067
330
11EAB
100
AcDbEntity
  8
1
  6
Continuous
100
AcDbLine
 10
29.5
 20
550.0
 30
0.0
 11
29.5
 21
551.0
 31
0.0
  0
LINE
  5
12068
330
11EAB
100
AcDbEntity
  8
1
  6
Continuous
100
AcDbLine
 10
25.0
 20
537.5
 30
0.0
 11
26.5
 21
537.5
 31
0.0
  0
LINE
  5
12069
330
11EAB
100
AcDbEntity
  8
1
  6
Continuous
100
AcDbLine
 10
26.5
 20
544.0
 30
0.0
 11
25.0
 21
544.0
 31
0.0
  0
LINE
  5
1206A
330
11EAB
100
AcDbEntity
  8
1
  6
Continuous
100
AcDbLine
 10
27.0
 20
544.5
 30
0.0
 11
27.0
 21
546.0
 31
0.0
  0
ARC
  5
1206B
330
11EAB
100
AcDbEntity
  8
1
  6
Continuous
100
AcDbCircle
 10
26.5
 20
548.5
 30
0.0
 40
1.5
100
AcDbArc
 50
90.0
 51
180.0
  0
LINE
  5
1206C
330
11EAB
100
AcDbEntity
  8
1
  6
Continuous
100
AcDbLine
 10
34.118034
 20
549.5
 30
0.0
 11
36.0
 21
549.5
 31
0.0
  0
LINE
  5
1206D
330
11EAB
100
AcDbEntity
  8
1
  6
Continuous
100
AcDbLine
 10
34.5
 20
545.0
 30
0.0
 11
33.0
 21
545.0
 31
0.0
  0
LINE
  5
1206E
330
11EAB
100
AcDbEntity
  8
1
  6
Continuous
100
AcDbLine
 10
33.0
 20
541.0
 30
0.0
 11
33.0
 21
548.5
 31
0.0
  0
LINE
  5
1206F
330
11EAB
100
AcDbEntity
  8
1
  6
Continuous
100
AcDbLine
 10
33.0
 20
542.4999999999998
 30
0.0
 11
34.5
 21
542.4999999999998
 31
0.0
  0
LINE
  5
12070
330
11EAB
100
AcDbEntity
  8
1
  6
Continuous
100
AcDbLine
 10
34.5
 20
542.4999999999998
 30
0.0
 11
34.5
 21
548.5
 31
0.0
  0
LINE
  5
12071
330
11EAB
100
AcDbEntity
  8
1
  6
Continuous
100
AcDbLine
 10
32.0
 20
544.5
 30
0.0
 11
32.0
 21
546.0
 31
0.0
  0
LINE
  5
12072
330
11EAB
100
AcDbEntity
  8
1
  6
Continuous
100
AcDbLine
 10
36.0
 20
541.0
 30
0.0
 11
36.0
 21
551.0
 31
0.0
  0
ARC
  5
12073
330
11EAB
100
AcDbEntity
  8
1
  6
Continuous
100
AcDbCircle
 10
33.0
 20
548.5
 30
0.0
 40
1.5
100
AcDbArc
 50
0.0
 51
90.0
  0
LINE
  5
12074
330
11EAB
100
AcDbEntity
  8
4
  6
CENTER
100
AcDbLine
 10
125.0
 20
531.7499999999999
 30
0.0
 11
125.0
 21
543.25
 31
0.0
  0
LINE
  5
12075
330
11EAB
100
AcDbEntity
  8
1
  6
Continuous
100
AcDbLine
 10
109.0
 20
536.0
 30
0.0
 11
109.0
 21
525.4999999999999
 31
0.0
  0
ARC
  5
12076
330
11EAB
100
AcDbEntity
  8
1
  6
Continuous
100
AcDbCircle
 10
111.0
 20
525.4999999999999
 30
0.0
 40
2.0
100
AcDbArc
 50
180.0
 51
270.0
  0
LINE
  5
12077
330
11EAB
100
AcDbEntity
  8
1
  6
Continuous
100
AcDbLine
 10
109.0
 20
550.0
 30
0.0
 11
127.0
 21
550.0
 31
0.0
  0
LINE
  5
12078
330
11EAB
100
AcDbEntity
  8
1
  6
Continuous
100
AcDbLine
 10
110.4999999999999
 20
537.5
 30
0.0
 11
117.0
 21
537.5
 31
0.0
  0
LINE
  5
12079
330
11EAB
100
AcDbEntity
  8
1
  6
Continuous
100
AcDbLine
 10
110.0671439999999
 20
543.6783709999998
 30
0.0
 11
117.577141
 21
541.4149169999998
 31
0.0
  0
LINE
  5
1207A
330
11EAB
100
AcDbEntity
  8
1
  6
Continuous
100
AcDbLine
 10
110.4999999999999
 20
545.0
 30
0.0
 11
126.784882
 21
545.0
 31
0.0
  0
ARC
  5
1207B
330
11EAB
100
AcDbEntity
  8
1
  6
Continuous
100
AcDbCircle
 10
110.4999999999999
 20
536.0
 30
0.0
 40
1.5
100
AcDbArc
 50
90.0
 51
180.0
  0
ARC
  5
1207C
330
11EAB
100
AcDbEntity
  8
1
  6
Continuous
100
AcDbCircle
 10
110.4999999999999
 20
545.114559
 30
0.0
 40
1.5
100
AcDbArc
 50
180.0
 51
253.2276069999999
  0
ARC
  5
1207D
330
11EAB
100
AcDbEntity
  8
1
  6
Continuous
100
AcDbCircle
 10
110.4999999999999
 20
546.4999999999998
 30
0.0
 40
1.5
100
AcDbArc
 50
180.0
 51
270.0
  0
LINE
  5
1207E
330
11EAB
100
AcDbEntity
  8
1
  6
Continuous
100
AcDbLine
 10
109.0
 20
550.0
 30
0.0
 11
109.0
 21
545.114559
 31
0.0
  0
ARC
  5
1207F
330
11EAB
100
AcDbEntity
  8
1
  6
Continuous
100
AcDbCircle
 10
117.0
 20
539.5
 30
0.0
 40
2.0
100
AcDbArc
 50
270.0
 51
73.22760699999998
  0
CIRCLE
  5
12080
330
11EAB
100
AcDbEntity
  8
1
  6
Continuous
100
AcDbCircle
 10
125.0
 20
537.5
 30
0.0
 40
2.399999999999999
  0
LINE
  5
12081
330
11EAB
100
AcDbEntity
  8
4
  6
CENTER
100
AcDbLine
 10
135.0
 20
530.75
 30
0.0
 11
135.0
 21
544.2499999999999
 31
0.0
  0
ARC
  5
12082
330
11EAB
100
AcDbEntity
  8
1
  6
Continuous
100
AcDbCircle
 10
135.0
 20
536.5
 30
0.0
 40
3.75
100
AcDbArc
 50
180.0
 51
0.0
  0
ARC
  5
12083
330
11EAB
100
AcDbEntity
  8
1
  6
Continuous
100
AcDbCircle
 10
135.0
 20
538.4999999999998
 30
0.0
 40
3.75
100
AcDbArc
 50
0.0
 51
180.0
  0
LINE
  5
12084
330
11EAB
100
AcDbEntity
  8
1
  6
Continuous
100
AcDbLine
 10
131.25
 20
536.5
 30
0.0
 11
131.25
 21
538.4999999999998
 31
0.0
  0
LINE
  5
12085
330
11EAB
100
AcDbEntity
  8
1
  6
Continuous
100
AcDbLine
 10
137.4
 20
536.5
 30
0.0
 11
137.4
 21
538.4999999999998
 31
0.0
  0
ARC
  5
12086
330
11EAB
100
AcDbEntity
  8
1
  6
Continuous
100
AcDbCircle
 10
135.0
 20
536.5
 30
0.0
 40
2.399999999999999
100
AcDbArc
 50
180.0
 51
0.0
  0
LINE
  5
12087
330
11EAB
100
AcDbEntity
  8
1
  6
Continuous
100
AcDbLine
 10
132.6
 20
536.5
 30
0.0
 11
132.6
 21
538.4999999999998
 31
0.0
  0
ARC
  5
12088
330
11EAB
100
AcDbEntity
  8
1
  6
Continuous
100
AcDbCircle
 10
135.0
 20
538.4999999999998
 30
0.0
 40
2.399999999999999
100
AcDbArc
 50
0.0
 51
180.0
  0
LINE
  5
12089
330
11EAB
100
AcDbEntity
  8
1
  6
Continuous
100
AcDbLine
 10
138.7499999999998
 20
536.5
 30
0.0
 11
138.7499999999998
 21
538.4999999999998
 31
0.0
  0
LINE
  5
1208A
330
11EAB
100
AcDbEntity
  8
1
  6
Continuous
100
AcDbLine
 10
156.0
 20
707.0
 30
0.0
 11
127.0
 21
704.4999999999999
 31
0.0
  0
LINE
  5
1208B
330
11EAB
100
AcDbEntity
  8
4
  6
CENTER
100
AcDbLine
 10
119.25
 20
717.0
 30
0.0
 11
140.7499999999998
 21
717.0
 31
0.0
  0
LINE
  5
1208C
330
11EAB
100
AcDbEntity
  8
1
  6
Continuous
100
AcDbLine
 10
142.0
 20
708.0
 30
0.0
 11
115.5
 21
708.0
 31
0.0
  0
LINE
  5
1208D
330
11EAB
100
AcDbEntity
  8
1
  6
Continuous
100
AcDbLine
 10
143.198508
 20
707.4019859999999
 30
0.0
 11
126.9354649999998
 21
706.0
 31
0.0
  0
LINE
  5
1208E
330
11EAB
100
AcDbEntity
  8
1
  6
Continuous
100
AcDbLine
 10
143.5
 20
632.0
 30
0.0
 11
114.0
 21
632.0
 31
0.0
  0
LINE
  5
1208F
330
11EAB
100
AcDbEntity
  8
1
  6
Continuous
100
AcDbLine
 10
142.0
 20
629.0
 30
0.0
 11
115.5
 21
629.0
 31
0.0
  0
LINE
  5
12090
330
11EAB
100
AcDbEntity
  8
1
  6
Continuous
100
AcDbLine
 10
109.0
 20
633.4999999999999
 30
0.0
 11
109.0
 21
624.0
 31
0.0
  0
LINE
  5
12091
330
11EAB
100
AcDbEntity
  8
1
  6
Continuous
100
AcDbLine
 10
127.0
 20
628.084313
 30
0.0
 11
127.0
 21
624.799484
 31
0.0
  0
LINE
  5
12092
330
11EAB
100
AcDbEntity
  8
1
  6
Continuous
100
AcDbLine
 10
114.0
 20
630.4999999999997
 30
0.0
 11
114.0
 21
633.4999999999999
 31
0.0
  0
ARC
  5
12093
330
11EAB
100
AcDbEntity
  8
1
  6
Continuous
100
AcDbCircle
 10
115.5
 20
630.4999999999997
 30
0.0
 40
1.5
100
AcDbArc
 50
180.0
 51
270.0
  0
LINE
  5
12094
330
11EAB
100
AcDbEntity
  8
4
  6
CENTER
100
AcDbLine
 10
125.0
 20
636.5
 30
0.0
 11
125.0
 21
630.0
 31
0.0
  0
ARC
  5
12095
330
11EAB
100
AcDbEntity
  8
1
  6
Continuous
100
AcDbCircle
 10
115.5
 20
706.5
 30
0.0
 40
1.5
100
AcDbArc
 50
90.0
 51
180.0
  0
LINE
  5
12096
330
11EAB
100
AcDbEntity
  8
1
  6
Continuous
100
AcDbLine
 10
109.0
 20
704.4999999999999
 30
0.0
 11
109.0
 21
709.385441
 31
0.0
  0
LINE
  5
12097
330
11EAB
100
AcDbEntity
  8
1
  6
Continuous
100
AcDbLine
 10
109.0
 20
704.4999999999999
 30
0.0
 11
127.0
 21
704.4999999999999
 31
0.0
  0
LINE
  5
12098
330
11EAB
100
AcDbEntity
  8
1
  6
Continuous
100
AcDbLine
 10
114.0
 20
706.0
 30
0.0
 11
126.9354649999998
 21
706.0
 31
0.0
  0
LINE
  5
12099
330
11EAB
100
AcDbEntity
  8
1
  6
Continuous
100
AcDbLine
 10
114.0
 20
704.4999999999999
 30
0.0
 11
114.0
 21
706.5
 31
0.0
  0
ARC
  5
1209A
330
11EAB
100
AcDbEntity
  8
1
  6
Continuous
100
AcDbCircle
 10
111.0
 20
729.0
 30
0.0
 40
2.0
100
AcDbArc
 50
90.0
 51
180.0
  0
LINE
  5
1209B
330
11EAB
100
AcDbEntity
  8
1
  6
Continuous
100
AcDbLine
 10
110.0671439999999
 20
710.821629
 30
0.0
 11
117.577141
 21
713.0850830000001
 31
0.0
  0
LINE
  5
1209C
330
11EAB
100
AcDbEntity
  8
1
  6
Continuous
100
AcDbLine
 10
110.4999999999999
 20
717.0
 30
0.0
 11
117.0
 21
717.0
 31
0.0
  0
ARC
  5
1209D
330
11EAB
100
AcDbEntity
  8
1
  6
Continuous
100
AcDbCircle
 10
110.4999999999999
 20
709.385441
 30
0.0
 40
1.5
100
AcDbArc
 50
106.7723929999998
 51
180.0
  0
ARC
  5
1209E
330
11EAB
100
AcDbEntity
  8
1
  6
Continuous
100
AcDbCircle
 10
110.4999999999999
 20
718.5
 30
0.0
 40
1.5
100
AcDbArc
 50
180.0
 51
270.0
  0
LINE
  5
1209F
330
11EAB
100
AcDbEntity
  8
1
  6
Continuous
100
AcDbLine
 10
109.0
 20
718.5
 30
0.0
 11
109.0
 21
729.0
 31
0.0
  0
CIRCLE
  5
120A0
330
11EAB
100
AcDbEntity
  8
1
  6
Continuous
100
AcDbCircle
 10
125.0
 20
717.0
 30
0.0
 40
2.399999999999999
  0
LINE
  5
120A1
330
11EAB
100
AcDbEntity
  8
4
  6
CENTER
100
AcDbLine
 10
125.0
 20
722.75
 30
0.0
 11
125.0
 21
711.2499999999997
 31
0.0
  0
ARC
  5
120A2
330
11EAB
100
AcDbEntity
  8
1
  6
Continuous
100
AcDbCircle
 10
117.0
 20
715.0
 30
0.0
 40
2.0
100
AcDbArc
 50
286.772393
 51
90.0
  0
ARC
  5
120A3
330
11EAB
100
AcDbEntity
  8
1
  6
Continuous
100
AcDbCircle
 10
142.0
 20
630.4999999999997
 30
0.0
 40
1.5
100
AcDbArc
 50
270.0
 51
0.0
  0
LINE
  5
120A4
330
11EAB
100
AcDbEntity
  8
1
  6
Continuous
100
AcDbLine
 10
143.5
 20
633.4999999999999
 30
0.0
 11
143.5
 21
630.4999999999997
 31
0.0
  0
LINE
  5
120A5
330
11EAB
100
AcDbEntity
  8
4
  6
CENTER
100
AcDbLine
 10
135.0
 20
636.5
 30
0.0
 11
135.0
 21
630.0
 31
0.0
  0
LINE
  5
120A6
330
11EAB
100
AcDbEntity
  8
1
  6
Continuous
100
AcDbLine
 10
156.0
 20
632.5
 30
0.0
 11
156.0
 21
625.0
 31
0.0
  0
ARC
  5
120A7
330
11EAB
100
AcDbEntity
  8
1
  6
Continuous
100
AcDbCircle
 10
142.0
 20
706.5
 30
0.0
 40
1.5
100
AcDbArc
 50
0.0
 51
90.0
  0
LINE
  5
120A8
330
11EAB
100
AcDbEntity
  8
1
  6
Continuous
100
AcDbLine
 10
143.5
 20
705.922414
 30
0.0
 11
143.5
 21
706.5
 31
0.0
  0
ARC
  5
120A9
330
11EAB
100
AcDbEntity
  8
1
  6
Continuous
100
AcDbCircle
 10
135.0
 20
716.0
 30
0.0
 40
2.399999999999999
100
AcDbArc
 50
180.0
 51
0.0
  0
LINE
  5
120AA
330
11EAB
100
AcDbEntity
  8
1
  6
Continuous
100
AcDbLine
 10
132.6
 20
718.0
 30
0.0
 11
132.6
 21
716.0
 31
0.0
  0
ARC
  5
120AB
330
11EAB
100
AcDbEntity
  8
1
  6
Continuous
100
AcDbCircle
 10
135.0
 20
718.0
 30
0.0
 40
2.399999999999999
100
AcDbArc
 50
0.0
 51
180.0
  0
LINE
  5
120AC
330
11EAB
100
AcDbEntity
  8
1
  6
Continuous
100
AcDbLine
 10
137.4
 20
718.0
 30
0.0
 11
137.4
 21
716.0
 31
0.0
  0
LINE
  5
120AD
330
11EAB
100
AcDbEntity
  8
4
  6
CENTER
100
AcDbLine
 10
135.0
 20
723.7499999999998
 30
0.0
 11
135.0
 21
710.25
 31
0.0
  0
LINE
  5
120AE
330
11EAB
100
AcDbEntity
  8
4
  6
CENTER
100
AcDbLine
 10
456.0
 20
537.5
 30
0.0
 11
409.25
 21
537.5
 31
0.0
  0
LINE
  5
120AF
330
11EAB
100
AcDbEntity
  8
1
  6
Continuous
100
AcDbLine
 10
444.5781949999997
 20
525.0
 30
0.0
 11
409.4999999999997
 21
525.0
 31
0.0
  0
LINE
  5
120B0
330
11EAB
100
AcDbEntity
  8
4
  6
CENTER
100
AcDbLine
 10
409.25
 20
535.0
 30
0.0
 11
430.75
 21
535.0
 31
0.0
  0
LINE
  5
120B1
330
11EAB
100
AcDbEntity
  8
3
  6
DASHED
100
AcDbLine
 10
431.5
 20
546.0
 30
0.0
 11
435.5
 21
547.5
 31
0.0
  0
LINE
  5
120B2
330
11EAB
100
AcDbEntity
  8
1
  6
Continuous
100
AcDbLine
 10
428.0
 20
549.5
 30
0.0
 11
424.0
 21
551.0
 31
0.0
  0
LINE
  5
120B3
330
11EAB
100
AcDbEntity
  8
1
  6
Continuous
100
AcDbLine
 10
424.0
 20
551.0
 30
0.0
 11
362.5
 21
551.0
 31
0.0
  0
LINE
  5
120B4
330
11EAB
100
AcDbEntity
  8
4
  6
CENTER
100
AcDbLine
 10
391.0
 20
535.0
 30
0.0
 11
361.0
 21
535.0
 31
0.0
  0
LINE
  5
120B5
330
11EAB
100
AcDbEntity
  8
3
  6
DASHED
100
AcDbLine
 10
430.0
 20
547.5
 30
0.0
 11
360.4999999999998
 21
547.5
 31
0.0
  0
LINE
  5
120B6
330
11EAB
100
AcDbEntity
  8
1
  6
Continuous
100
AcDbLine
 10
404.4999999999998
 20
525.0
 30
0.0
 11
359.0
 21
525.0
 31
0.0
  0
LINE
  5
120B7
330
11EAB
100
AcDbEntity
  8
3
  6
DASHED
100
AcDbLine
 10
428.5
 20
542.4999999999998
 30
0.0
 11
358.0
 21
542.4999999999998
 31
0.0
  0
LINE
  5
120B8
330
11EAB
100
AcDbEntity
  8
4
  6
CENTER
100
AcDbLine
 10
360.8
 20
546.95
 30
0.0
 11
368.3
 21
546.95
 31
0.0
  0
CIRCLE
  5
120B9
330
11EAB
100
AcDbEntity
  8
1
  6
Continuous
100
AcDbCircle
 10
364.55
 20
546.95
 30
0.0
 40
1.75
  0
LINE
  5
120BA
330
11EAB
100
AcDbEntity
  8
4
  6
CENTER
100
AcDbLine
 10
335.0
 20
531.7499999999999
 30
0.0
 11
335.0
 21
543.25
 31
0.0
  0
LINE
  5
120BB
330
11EAB
100
AcDbEntity
  8
1
  6
Continuous
100
AcDbLine
 10
359.0
 20
525.0
 30
0.0
 11
359.0
 21
541.0
 31
0.0
  0
LINE
  5
120BC
330
11EAB
100
AcDbEntity
  8
4
  6
CENTER
100
AcDbLine
 10
325.0
 20
530.75
 30
0.0
 11
325.0
 21
544.2499999999999
 31
0.0
  0
LINE
  5
120BD
330
11EAB
100
AcDbEntity
  8
4
  6
CENTER
100
AcDbLine
 10
340.75
 20
537.5
 30
0.0
 11
319.2499999999999
 21
537.5
 31
0.0
  0
CIRCLE
  5
120BE
330
11EAB
100
AcDbEntity
  8
1
  6
Continuous
100
AcDbCircle
 10
335.0
 20
537.5
 30
0.0
 40
3.75
  0
ARC
  5
120BF
330
11EAB
100
AcDbEntity
  8
1
  6
Continuous
100
AcDbCircle
 10
325.0
 20
538.4999999999998
 30
0.0
 40
3.75
100
AcDbArc
 50
0.0
 51
180.0
  0
ARC
  5
120C0
330
11EAB
100
AcDbEntity
  8
1
  6
Continuous
100
AcDbCircle
 10
325.0
 20
536.5
 30
0.0
 40
3.75
100
AcDbArc
 50
180.0
 51
0.0
  0
LINE
  5
120C1
330
11EAB
100
AcDbEntity
  8
1
  6
Continuous
100
AcDbLine
 10
321.2499999999999
 20
536.5
 30
0.0
 11
321.2499999999999
 21
538.4999999999998
 31
0.0
  0
ARC
  5
120C2
330
11EAB
100
AcDbEntity
  8
1
  6
Continuous
100
AcDbCircle
 10
325.0
 20
538.4999999999998
 30
0.0
 40
2.399999999999999
100
AcDbArc
 50
0.0
 51
180.0
  0
ARC
  5
120C3
330
11EAB
100
AcDbEntity
  8
1
  6
Continuous
100
AcDbCircle
 10
325.0
 20
536.5
 30
0.0
 40
2.399999999999999
100
AcDbArc
 50
180.0
 51
0.0
  0
LINE
  5
120C4
330
11EAB
100
AcDbEntity
  8
1
  6
Continuous
100
AcDbLine
 10
327.4
 20
536.5
 30
0.0
 11
327.4
 21
538.4999999999998
 31
0.0
  0
LINE
  5
120C5
330
11EAB
100
AcDbEntity
  8
1
  6
Continuous
100
AcDbLine
 10
322.6
 20
536.5
 30
0.0
 11
322.6
 21
538.4999999999998
 31
0.0
  0
LINE
  5
120C6
330
11EAB
100
AcDbEntity
  8
1
  6
Continuous
100
AcDbLine
 10
328.75
 20
536.5
 30
0.0
 11
328.75
 21
538.4999999999998
 31
0.0
  0
CIRCLE
  5
120C7
330
11EAB
100
AcDbEntity
  8
1
  6
Continuous
100
AcDbCircle
 10
335.0
 20
537.5
 30
0.0
 40
2.399999999999999
  0
LINE
  5
120C8
330
11EAB
100
AcDbEntity
  8
1
  6
Continuous
100
AcDbLine
 10
358.0
 20
544.5
 30
0.0
 11
358.0
 21
541.0
 31
0.0
  0
LINE
  5
120C9
330
11EAB
100
AcDbEntity
  8
1
  6
Continuous
100
AcDbLine
 10
360.4999999999998
 20
544.5
 30
0.0
 11
358.0
 21
544.5
 31
0.0
  0
LINE
  5
120CA
330
11EAB
100
AcDbEntity
  8
1
  6
Continuous
100
AcDbLine
 10
360.4999999999998
 20
541.0
 30
0.0
 11
358.0
 21
541.0
 31
0.0
  0
LINE
  5
120CB
330
11EAB
100
AcDbEntity
  8
1
  6
Continuous
100
AcDbLine
 10
360.4999999999998
 20
549.0
 30
0.0
 11
360.4999999999998
 21
541.0
 31
0.0
  0
LINE
  5
120CC
330
11EAB
100
AcDbEntity
  8
4
  6
CENTER
100
AcDbLine
 10
415.0
 20
529.25
 30
0.0
 11
415.0
 21
542.1726179999999
 31
0.0
  0
LINE
  5
120CD
330
11EAB
100
AcDbEntity
  8
4
  6
CENTER
100
AcDbLine
 10
425.0
 20
528.2499999999998
 30
0.0
 11
425.0
 21
542.2155639999998
 31
0.0
  0
ARC
  5
120CE
330
11EAB
100
AcDbEntity
  8
1
  6
Continuous
100
AcDbCircle
 10
425.0
 20
534.0
 30
0.0
 40
2.399999999999999
100
AcDbArc
 50
180.0
 51
0.0
  0
CIRCLE
  5
120CF
330
11EAB
100
AcDbEntity
  8
1
  6
Continuous
100
AcDbCircle
 10
376.0
 20
535.0
 30
0.0
 40
3.0
  0
CIRCLE
  5
120D0
330
11EAB
100
AcDbEntity
  8
1
  6
Continuous
100
AcDbCircle
 10
376.0
 20
535.0
 30
0.0
 40
5.0
  0
ARC
  5
120D1
330
11EAB
100
AcDbEntity
  8
3
  6
DASHED
100
AcDbCircle
 10
376.0
 20
535.0
 30
0.0
 40
11.0
100
AcDbArc
 50
294.619977
 51
245.380023
  0
LINE
  5
120D2
330
11EAB
100
AcDbEntity
  8
4
  6
CENTER
100
AcDbLine
 10
376.0
 20
520.0
 30
0.0
 11
376.0
 21
550.0
 31
0.0
  0
ARC
  5
120D3
330
11EAB
100
AcDbEntity
  8
1
  6
Continuous
100
AcDbCircle
 10
376.0
 20
535.0
 30
0.0
 40
11.0
100
AcDbArc
 50
245.380023
 51
294.619977
  0
LINE
  5
120D4
330
11EAB
100
AcDbEntity
  8
1
  6
Continuous
100
AcDbLine
 10
408.4999999999998
 20
526.4999999999998
 30
0.0
 11
404.4999999999998
 21
525.0
 31
0.0
  0
LINE
  5
120D5
330
11EAB
100
AcDbEntity
  8
1
  6
Continuous
100
AcDbLine
 10
409.4999999999997
 20
525.0
 30
0.0
 11
409.4999999999997
 21
526.4999999999998
 31
0.0
  0
LINE
  5
120D6
330
11EAB
100
AcDbEntity
  8
1
  6
Continuous
100
AcDbLine
 10
409.4999999999997
 20
526.4999999999998
 30
0.0
 11
408.4999999999998
 21
526.4999999999998
 31
0.0
  0
LINE
  5
120D7
330
11EAB
100
AcDbEntity
  8
3
  6
DASHED
100
AcDbLine
 10
381.900072
 20
544.2868959999998
 30
0.0
 11
379.544554
 21
546.0
 31
0.0
  0
LINE
  5
120D8
330
11EAB
100
AcDbEntity
  8
4
  6
CENTER
100
AcDbLine
 10
364.55
 20
543.2
 30
0.0
 11
364.55
 21
550.7
 31
0.0
  0
LINE
  5
120D9
330
11EAB
100
AcDbEntity
  8
4
  6
CENTER
100
AcDbLine
 10
384.25
 20
543.0
 30
0.0
 11
395.7499999999998
 21
543.0
 31
0.0
  0
LINE
  5
120DA
330
11EAB
100
AcDbEntity
  8
3
  6
DASHED
100
AcDbLine
 10
383.6645879999999
 20
544.2868959999998
 30
0.0
 11
386.0201059999998
 21
546.0
 31
0.0
  0
ARC
  5
120DB
330
11EAB
100
AcDbEntity
  8
3
  6
DASHED
100
AcDbCircle
 10
382.78233
 20
545.5
 30
0.0
 40
1.5
100
AcDbArc
 50
233.9726269999999
 51
306.027373
  0
LINE
  5
120DC
330
11EAB
100
AcDbEntity
  8
4
  6
CENTER
100
AcDbLine
 10
390.0
 20
537.25
 30
0.0
 11
390.0
 21
548.7499999999998
 31
0.0
  0
CIRCLE
  5
120DD
330
11EAB
100
AcDbEntity
  8
1
  6
Continuous
100
AcDbCircle
 10
390.0
 20
543.0
 30
0.0
 40
2.399999999999999
  0
CIRCLE
  5
120DE
330
11EAB
100
AcDbEntity
  8
1
  6
Continuous
100
AcDbCircle
 10
415.0
 20
535.0
 30
0.0
 40
2.399999999999999
  0
LINE
  5
120DF
330
11EAB
100
AcDbEntity
  8
3
  6
DASHED
100
AcDbLine
 10
431.5
 20
546.0
 30
0.0
 11
430.0
 21
546.0
 31
0.0
  0
LINE
  5
120E0
330
11EAB
100
AcDbEntity
  8
3
  6
DASHED
100
AcDbLine
 10
430.0
 20
544.0
 30
0.0
 11
430.0
 21
547.5
 31
0.0
  0
LINE
  5
120E1
330
11EAB
100
AcDbEntity
  8
1
  6
Continuous
100
AcDbLine
 10
422.5999999999998
 20
534.0
 30
0.0
 11
422.5999999999998
 21
536.0
 31
0.0
  0
LINE
  5
120E2
330
11EAB
100
AcDbEntity
  8
1
  6
Continuous
100
AcDbLine
 10
427.4
 20
534.0
 30
0.0
 11
427.4
 21
536.0
 31
0.0
  0
ARC
  5
120E3
330
11EAB
100
AcDbEntity
  8
1
  6
Continuous
100
AcDbCircle
 10
425.0
 20
536.0
 30
0.0
 40
2.399999999999999
100
AcDbArc
 50
0.0
 51
180.0
  0
ARC
  5
120E4
330
11EAB
100
AcDbEntity
  8
3
  6
DASHED
100
AcDbCircle
 10
428.5
 20
544.0
 30
0.0
 40
1.5
100
AcDbArc
 50
270.0
 51
0.0
  0
LINE
  5
120E5
330
11EAB
100
AcDbEntity
  8
3
  6
DASHED
100
AcDbLine
 10
453.691288
 20
531.5
 30
0.0
 11
454.0631219999998
 21
532.464641
 31
0.0
  0
LINE
  5
120E6
330
11EAB
100
AcDbEntity
  8
3
  6
DASHED
100
AcDbLine
 10
452.0837089999998
 20
531.5
 30
0.0
 11
452.6635019999998
 21
533.004144
 31
0.0
  0
LINE
  5
120E7
330
11EAB
100
AcDbEntity
  8
4
  6
CENTER
100
AcDbLine
 10
441.0
 20
522.5
 30
0.0
 11
441.0
 21
552.5
 31
0.0
  0
ARC
  5
120E8
330
11EAB
100
AcDbEntity
  8
1
  6
Continuous
100
AcDbCircle
 10
447.627489
 20
525.4999999999999
 30
0.0
 40
2.0
100
AcDbArc
 50
270.0
 51
338.920162
  0
LINE
  5
120E9
330
11EAB
100
AcDbEntity
  8
3
  6
DASHED
100
AcDbLine
 10
453.3355409999998
 20
527.7967559999998
 30
0.0
 11
451.0692399999999
 21
528.8681839999997
 31
0.0
  0
LINE
  5
120EA
330
11EAB
100
AcDbEntity
  8
3
  6
DASHED
100
AcDbLine
 10
454.597809
 20
531.0714289999999
 30
0.0
 11
453.691288
 21
531.5
 31
0.0
  0
LINE
  5
120EB
330
11EAB
100
AcDbEntity
  8
3
  6
DASHED
100
AcDbLine
 10
453.3355409999998
 20
527.7967559999998
 30
0.0
 11
454.597809
 21
531.0714289999999
 31
0.0
  0
LINE
  5
120EC
330
11EAB
100
AcDbEntity
  8
3
  6
DASHED
100
AcDbLine
 10
453.691288
 20
531.5
 30
0.0
 11
452.0837089999998
 21
531.5
 31
0.0
  0
LINE
  5
120ED
330
11EAB
100
AcDbEntity
  8
1
  6
Continuous
100
AcDbLine
 10
449.4936489999998
 20
524.780663
 30
0.0
 11
449.578195
 21
525.0
 31
0.0
  0
LINE
  5
120EE
330
11EAB
100
AcDbEntity
  8
3
  6
DASHED
100
AcDbLine
 10
449.578195
 20
525.0
 30
0.0
 11
452.0837089999998
 21
531.5
 31
0.0
  0
LINE
  5
120EF
330
11EAB
100
AcDbEntity
  8
3
  6
DASHED
100
AcDbLine
 10
451.4999999999998
 20
547.5
 30
0.0
 11
435.5
 21
547.5
 31
0.0
  0
LINE
  5
120F0
330
11EAB
100
AcDbEntity
  8
1
  6
Continuous
100
AcDbLine
 10
429.0
 20
549.5
 30
0.0
 11
429.0
 21
551.0
 31
0.0
  0
LINE
  5
120F1
330
11EAB
100
AcDbEntity
  8
1
  6
Continuous
100
AcDbLine
 10
428.0
 20
549.5
 30
0.0
 11
429.0
 21
549.5
 31
0.0
  0
LINE
  5
120F2
330
11EAB
100
AcDbEntity
  8
3
  6
DASHED
100
AcDbLine
 10
455.0
 20
541.5
 30
0.0
 11
453.5
 21
541.5
 31
0.0
  0
ARC
  5
120F3
330
11EAB
100
AcDbEntity
  8
3
  6
DASHED
100
AcDbCircle
 10
441.0
 20
537.5
 30
0.0
 40
14.0
100
AcDbArc
 50
338.920162
 51
0.0
  0
ARC
  5
120F4
330
11EAB
100
AcDbEntity
  8
3
  6
DASHED
100
AcDbCircle
 10
451.4999999999998
 20
545.5
 30
0.0
 40
2.0
100
AcDbArc
 50
0.0
 51
90.0
  0
LINE
  5
120F5
330
11EAB
100
AcDbEntity
  8
3
  6
DASHED
100
AcDbLine
 10
453.5
 20
537.5
 30
0.0
 11
453.5
 21
545.5
 31
0.0
  0
ARC
  5
120F6
330
11EAB
100
AcDbEntity
  8
3
  6
DASHED
100
AcDbCircle
 10
441.0
 20
537.5
 30
0.0
 40
12.5
100
AcDbArc
 50
338.920162
 51
0.0
  0
LINE
  5
120F7
330
11EAB
100
AcDbEntity
  8
3
  6
DASHED
100
AcDbLine
 10
455.0
 20
537.5
 30
0.0
 11
455.0
 21
541.5
 31
0.0
  0
LINE
  5
120F8
330
11EAB
100
AcDbEntity
  8
4
  6
CENTER
100
AcDbLine
 10
506.5
 20
529.25
 30
0.0
 11
506.5
 21
540.7499999999998
 31
0.0
  0
CIRCLE
  5
120F9
330
11EAB
100
AcDbEntity
  8
1
  6
Continuous
100
AcDbCircle
 10
506.5
 20
535.0
 30
0.0
 40
2.399999999999999
  0
LINE
  5
120FA
330
11EAB
100
AcDbEntity
  8
3
  6
DASHED
100
AcDbLine
 10
449.578195
 20
729.4999999999999
 30
0.0
 11
409.4999999999997
 21
729.4999999999999
 31
0.0
  0
LINE
  5
120FB
330
11EAB
100
AcDbEntity
  8
4
  6
CENTER
100
AcDbLine
 10
456.0
 20
717.0
 30
0.0
 11
409.25
 21
717.0
 31
0.0
  0
ARC
  5
120FC
330
11EAB
100
AcDbEntity
  8
3
  6
DASHED
100
AcDbCircle
 10
441.0
 20
717.0
 30
0.0
 40
11.0
100
AcDbArc
 50
294.619977
 51
245.380023
  0
LINE
  5
120FD
330
11EAB
100
AcDbEntity
  8
3
  6
DASHED
100
AcDbLine
 10
451.698246
 20
724.0
 30
0.0
 11
410.5
 21
724.0
 31
0.0
  0
LINE
  5
120FE
330
11EAB
100
AcDbEntity
  8
4
  6
CENTER
100
AcDbLine
 10
409.25
 20
719.5
 30
0.0
 11
430.75
 21
719.5
 31
0.0
  0
LINE
  5
120FF
330
11EAB
100
AcDbEntity
  8
1
  6
Continuous
100
AcDbLine
 10
431.0
 20
708.4999999999999
 30
0.0
 11
435.0
 21
707.0
 31
0.0
  0
LINE
  5
12100
330
11EAB
100
AcDbEntity
  8
1
  6
Continuous
100
AcDbLine
 10
428.0
 20
705.0
 30
0.0
 11
424.0
 21
703.5
 31
0.0
  0
LINE
  5
12101
330
11EAB
100
AcDbEntity
  8
1
  6
Continuous
100
AcDbLine
 10
453.5
 20
632.0
 30
0.0
 11
430.0
 21
632.0
 31
0.0
  0
LINE
  5
12102
330
11EAB
100
AcDbEntity
  8
1
  6
Continuous
100
AcDbLine
 10
429.0
 20
622.5
 30
0.0
 11
360.4999999999998
 21
622.5
 31
0.0
  0
LINE
  5
12103
330
11EAB
100
AcDbEntity
  8
4
  6
CENTER
100
AcDbLine
 10
325.0
 20
636.5
 30
0.0
 11
325.0
 21
630.0
 31
0.0
  0
LINE
  5
12104
330
11EAB
100
AcDbEntity
  8
4
  6
CENTER
100
AcDbLine
 10
335.0
 20
636.5
 30
0.0
 11
335.0
 21
630.0
 31
0.0
  0
LINE
  5
12105
330
11EAB
100
AcDbEntity
  8
1
  6
Continuous
100
AcDbLine
 10
359.0
 20
622.5
 30
0.0
 11
359.0
 21
624.0
 31
0.0
  0
LINE
  5
12106
330
11EAB
100
AcDbEntity
  8
1
  6
Continuous
100
AcDbLine
 10
360.4999999999998
 20
624.0
 30
0.0
 11
360.4999999999998
 21
621.0
 31
0.0
  0
ARC
  5
12107
330
11EAB
100
AcDbEntity
  8
1
  6
Continuous
100
AcDbCircle
 10
360.4999999999998
 20
622.5
 30
0.0
 40
1.5
100
AcDbArc
 50
180.0
 51
270.0
  0
LINE
  5
12108
330
11EAB
100
AcDbEntity
  8
3
  6
DASHED
100
AcDbLine
 10
360.4999999999998
 20
630.4999999999997
 30
0.0
 11
359.0
 21
630.4999999999997
 31
0.0
  0
LINE
  5
12109
330
11EAB
100
AcDbEntity
  8
3
  6
DASHED
100
AcDbLine
 10
360.4999999999998
 20
630.4999999999997
 30
0.0
 11
360.4999999999998
 21
624.0
 31
0.0
  0
LINE
  5
1210A
330
11EAB
100
AcDbEntity
  8
3
  6
DASHED
100
AcDbLine
 10
359.0
 20
624.0
 30
0.0
 11
359.0
 21
630.4999999999997
 31
0.0
  0
LINE
  5
1210B
330
11EAB
100
AcDbEntity
  8
4
  6
CENTER
100
AcDbLine
 10
415.0
 20
618.0
 30
0.0
 11
415.0
 21
624.5
 31
0.0
  0
LINE
  5
1210C
330
11EAB
100
AcDbEntity
  8
4
  6
CENTER
100
AcDbLine
 10
425.0
 20
618.0
 30
0.0
 11
425.0
 21
624.5
 31
0.0
  0
LINE
  5
1210D
330
11EAB
100
AcDbEntity
  8
4
  6
CENTER
100
AcDbLine
 10
390.0
 20
618.0
 30
0.0
 11
390.0
 21
624.5
 31
0.0
  0
LINE
  5
1210E
330
11EAB
100
AcDbEntity
  8
4
  6
CENTER
100
AcDbLine
 10
364.55
 20
618.0
 30
0.0
 11
364.55
 21
624.5
 31
0.0
  0
LINE
  5
1210F
330
11EAB
100
AcDbEntity
  8
4
  6
CENTER
100
AcDbLine
 10
376.0
 20
616.7314709999999
 30
0.0
 11
376.0
 21
637.1142519999997
 31
0.0
  0
LINE
  5
12110
330
11EAB
100
AcDbEntity
  8
1
  6
Continuous
100
AcDbLine
 10
385.53233
 20
631.5
 30
0.0
 11
380.03233
 21
631.5
 31
0.0
  0
LINE
  5
12111
330
11EAB
100
AcDbEntity
  8
1
  6
Continuous
100
AcDbLine
 10
385.53233
 20
626.0
 30
0.0
 11
380.03233
 21
626.0
 31
0.0
  0
LINE
  5
12112
330
11EAB
100
AcDbEntity
  8
3
  6
DASHED
100
AcDbLine
 10
387.0
 20
626.5
 30
0.0
 11
365.0
 21
626.5
 31
0.0
  0
LINE
  5
12113
330
11EAB
100
AcDbEntity
  8
1
  6
Continuous
100
AcDbLine
 10
382.0
 20
623.5
 30
0.0
 11
370.0
 21
623.5
 31
0.0
  0
LINE
  5
12114
330
11EAB
100
AcDbEntity
  8
3
  6
DASHED
100
AcDbLine
 10
382.0
 20
625.0
 30
0.0
 11
370.0
 21
625.0
 31
0.0
  0
LINE
  5
12115
330
11EAB
100
AcDbEntity
  8
1
  6
Continuous
100
AcDbLine
 10
380.03233
 20
626.0
 30
0.0
 11
380.03233
 21
631.5
 31
0.0
  0
LINE
  5
12116
330
11EAB
100
AcDbEntity
  8
1
  6
Continuous
100
AcDbLine
 10
370.207107
 20
623.2071069999998
 30
0.0
 11
369.5
 21
622.5
 31
0.0
  0
LINE
  5
12117
330
11EAB
100
AcDbEntity
  8
3
  6
DASHED
100
AcDbLine
 10
365.0
 20
626.5
 30
0.0
 11
365.0
 21
631.5
 31
0.0
  0
LINE
  5
12118
330
11EAB
100
AcDbEntity
  8
1
  6
Continuous
100
AcDbLine
 10
370.0
 20
624.0
 30
0.0
 11
370.0
 21
623.5
 31
0.0
  0
ARC
  5
12119
330
11EAB
100
AcDbEntity
  8
1
  6
Continuous
100
AcDbCircle
 10
370.914214
 20
622.5
 30
0.0
 40
1.0
100
AcDbArc
 50
90.0
 51
135.0
  0
LINE
  5
1211A
330
11EAB
100
AcDbEntity
  8
3
  6
DASHED
100
AcDbLine
 10
370.0
 20
626.5
 30
0.0
 11
370.0
 21
624.0
 31
0.0
  0
LINE
  5
1211B
330
11EAB
100
AcDbEntity
  8
3
  6
DASHED
100
AcDbLine
 10
380.03233
 20
631.5
 30
0.0
 11
365.0
 21
631.5
 31
0.0
  0
LINE
  5
1211C
330
11EAB
100
AcDbEntity
  8
3
  6
DASHED
100
AcDbLine
 10
387.0
 20
631.5
 30
0.0
 11
385.53233
 21
631.5
 31
0.0
  0
LINE
  5
1211D
330
11EAB
100
AcDbEntity
  8
1
  6
Continuous
100
AcDbLine
 10
382.0
 20
624.0
 30
0.0
 11
382.0
 21
623.5
 31
0.0
  0
ARC
  5
1211E
330
11EAB
100
AcDbEntity
  8
1
  6
Continuous
100
AcDbCircle
 10
381.085786
 20
622.5
 30
0.0
 40
1.0
100
AcDbArc
 50
45.0
 51
90.0
  0
LINE
  5
1211F
330
11EAB
100
AcDbEntity
  8
1
  6
Continuous
100
AcDbLine
 10
381.7928929999998
 20
623.2071069999998
 30
0.0
 11
382.5
 21
622.5
 31
0.0
  0
LINE
  5
12120
330
11EAB
100
AcDbEntity
  8
3
  6
DASHED
100
AcDbLine
 10
382.0
 20
626.5
 30
0.0
 11
382.0
 21
624.0
 31
0.0
  0
LINE
  5
12121
330
11EAB
100
AcDbEntity
  8
1
  6
Continuous
100
AcDbLine
 10
385.53233
 20
626.0
 30
0.0
 11
385.53233
 21
631.5
 31
0.0
  0
LINE
  5
12122
330
11EAB
100
AcDbEntity
  8
1
  6
Continuous
100
AcDbLine
 10
382.78233
 20
626.0
 30
0.0
 11
382.78233
 21
631.5
 31
0.0
  0
LINE
  5
12123
330
11EAB
100
AcDbEntity
  8
3
  6
DASHED
100
AcDbLine
 10
387.0
 20
626.5
 30
0.0
 11
387.0
 21
631.5
 31
0.0
  0
LINE
  5
12124
330
11EAB
100
AcDbEntity
  8
4
  6
CENTER
100
AcDbLine
 10
415.0
 20
636.5
 30
0.0
 11
415.0
 21
630.0
 31
0.0
  0
LINE
  5
12125
330
11EAB
100
AcDbEntity
  8
1
  6
Continuous
100
AcDbLine
 10
409.4999999999997
 20
624.0
 30
0.0
 11
409.4999999999997
 21
622.5
 31
0.0
  0
LINE
  5
12126
330
11EAB
100
AcDbEntity
  8
1
  6
Continuous
100
AcDbLine
 10
430.0
 20
633.4999999999999
 30
0.0
 11
430.0
 21
628.914214
 31
0.0
  0
LINE
  5
12127
330
11EAB
100
AcDbEntity
  8
4
  6
CENTER
100
AcDbLine
 10
425.0
 20
636.5
 30
0.0
 11
425.0
 21
630.0
 31
0.0
  0
LINE
  5
12128
330
11EAB
100
AcDbEntity
  8
1
  6
Continuous
100
AcDbLine
 10
424.0
 20
622.5
 30
0.0
 11
424.0
 21
621.0
 31
0.0
  0
LINE
  5
12129
330
11EAB
100
AcDbEntity
  8
4
  6
CENTER
100
AcDbLine
 10
391.0
 20
719.5
 30
0.0
 11
361.0
 21
719.5
 31
0.0
  0
LINE
  5
1212A
330
11EAB
100
AcDbEntity
  8
1
  6
Continuous
100
AcDbLine
 10
424.0
 20
703.5
 30
0.0
 11
362.5
 21
703.5
 31
0.0
  0
LINE
  5
1212B
330
11EAB
100
AcDbEntity
  8
3
  6
DASHED
100
AcDbLine
 10
404.4999999999998
 20
729.4999999999999
 30
0.0
 11
359.0
 21
729.4999999999999
 31
0.0
  0
ARC
  5
1212C
330
11EAB
100
AcDbEntity
  8
1
  6
Continuous
100
AcDbCircle
 10
364.55
 20
707.5499999999998
 30
0.0
 40
1.75
100
AcDbArc
 50
198.317698
 51
341.6823019999999
  0
LINE
  5
1212D
330
11EAB
100
AcDbEntity
  8
4
  6
CENTER
100
AcDbLine
 10
360.8
 20
707.5499999999998
 30
0.0
 11
368.3
 21
707.5499999999998
 31
0.0
  0
LINE
  5
1212E
330
11EAB
100
AcDbEntity
  8
3
  6
DASHED
100
AcDbLine
 10
360.4999999999998
 20
710.0
 30
0.0
 11
360.4999999999998
 21
707.0
 31
0.0
  0
LINE
  5
1212F
330
11EAB
100
AcDbEntity
  8
1
  6
Continuous
100
AcDbLine
 10
360.4999999999998
 20
705.4999999999997
 30
0.0
 11
360.4999999999998
 21
707.0
 31
0.0
  0
LINE
  5
12130
330
11EAB
100
AcDbEntity
  8
4
  6
CENTER
100
AcDbLine
 10
340.75
 20
717.0
 30
0.0
 11
319.2499999999999
 21
717.0
 31
0.0
  0
ARC
  5
12131
330
11EAB
100
AcDbEntity
  8
1
  6
Continuous
100
AcDbCircle
 10
325.0
 20
718.0
 30
0.0
 40
2.399999999999999
100
AcDbArc
 50
0.0
 51
180.0
  0
ARC
  5
12132
330
11EAB
100
AcDbEntity
  8
1
  6
Continuous
100
AcDbCircle
 10
325.0
 20
716.0
 30
0.0
 40
2.399999999999999
100
AcDbArc
 50
180.0
 51
0.0
  0
LINE
  5
12133
330
11EAB
100
AcDbEntity
  8
1
  6
Continuous
100
AcDbLine
 10
322.6
 20
718.0
 30
0.0
 11
322.6
 21
716.0
 31
0.0
  0
LINE
  5
12134
330
11EAB
100
AcDbEntity
  8
4
  6
CENTER
100
AcDbLine
 10
325.0
 20
723.7499999999998
 30
0.0
 11
325.0
 21
710.25
 31
0.0
  0
LINE
  5
12135
330
11EAB
100
AcDbEntity
  8
1
  6
Continuous
100
AcDbLine
 10
327.4
 20
718.0
 30
0.0
 11
327.4
 21
716.0
 31
0.0
  0
LINE
  5
12136
330
11EAB
100
AcDbEntity
  8
4
  6
CENTER
100
AcDbLine
 10
335.0
 20
722.75
 30
0.0
 11
335.0
 21
711.2499999999997
 31
0.0
  0
CIRCLE
  5
12137
330
11EAB
100
AcDbEntity
  8
1
  6
Continuous
100
AcDbCircle
 10
335.0
 20
717.0
 30
0.0
 40
2.399999999999999
  0
LINE
  5
12138
330
11EAB
100
AcDbEntity
  8
3
  6
DASHED
100
AcDbLine
 10
361.5
 20
713.4999999999997
 30
0.0
 11
358.0
 21
713.4999999999997
 31
0.0
  0
LINE
  5
12139
330
11EAB
100
AcDbEntity
  8
3
  6
DASHED
100
AcDbLine
 10
361.5
 20
710.0
 30
0.0
 11
358.0
 21
710.0
 31
0.0
  0
LINE
  5
1213A
330
11EAB
100
AcDbEntity
  8
3
  6
DASHED
100
AcDbLine
 10
358.0
 20
710.0
 30
0.0
 11
358.0
 21
713.4999999999997
 31
0.0
  0
LINE
  5
1213B
330
11EAB
100
AcDbEntity
  8
3
  6
DASHED
100
AcDbLine
 10
361.5
 20
710.0
 30
0.0
 11
361.5
 21
713.4999999999997
 31
0.0
  0
LINE
  5
1213C
330
11EAB
100
AcDbEntity
  8
3
  6
DASHED
100
AcDbLine
 10
359.0
 20
729.4999999999999
 30
0.0
 11
359.0
 21
713.4999999999997
 31
0.0
  0
LINE
  5
1213D
330
11EAB
100
AcDbEntity
  8
3
  6
DASHED
100
AcDbLine
 10
360.4999999999998
 20
729.4999999999999
 30
0.0
 11
360.4999999999998
 21
713.4999999999997
 31
0.0
  0
LINE
  5
1213E
330
11EAB
100
AcDbEntity
  8
1
  6
Continuous
100
AcDbLine
 10
430.0
 20
708.4999999999999
 30
0.0
 11
430.0
 21
707.0
 31
0.0
  0
LINE
  5
1213F
330
11EAB
100
AcDbEntity
  8
4
  6
CENTER
100
AcDbLine
 10
390.0
 20
717.25
 30
0.0
 11
390.0
 21
705.75
 31
0.0
  0
LINE
  5
12140
330
11EAB
100
AcDbEntity
  8
4
  6
CENTER
100
AcDbLine
 10
364.55
 20
711.2999999999998
 30
0.0
 11
364.55
 21
703.7999999999998
 31
0.0
  0
LINE
  5
12141
330
11EAB
100
AcDbEntity
  8
4
  6
CENTER
100
AcDbLine
 10
376.0
 20
734.4999999999998
 30
0.0
 11
376.0
 21
704.4999999999999
 31
0.0
  0
CIRCLE
  5
12142
330
11EAB
100
AcDbEntity
  8
3
  6
DASHED
100
AcDbCircle
 10
376.0
 20
719.5
 30
0.0
 40
11.0
  0
LINE
  5
12143
330
11EAB
100
AcDbEntity
  8
4
  6
CENTER
100
AcDbLine
 10
384.25
 20
711.5
 30
0.0
 11
395.7499999999998
 21
711.5
 31
0.0
  0
ARC
  5
12144
330
11EAB
100
AcDbEntity
  8
1
  6
Continuous
100
AcDbCircle
 10
415.0
 20
716.0
 30
0.0
 40
2.399999999999999
100
AcDbArc
 50
180.0
 51
0.0
  0
ARC
  5
12145
330
11EAB
100
AcDbEntity
  8
1
  6
Continuous
100
AcDbCircle
 10
415.0
 20
718.0
 30
0.0
 40
2.399999999999999
100
AcDbArc
 50
0.0
 51
180.0
  0
ARC
  5
12146
330
11EAB
100
AcDbEntity
  8
3
  6
DASHED
100
AcDbCircle
 10
410.7236069999998
 20
727.5
 30
0.0
 40
0.5
100
AcDbArc
 50
318.189685
 51
90.0
  0
ARC
  5
12147
330
11EAB
100
AcDbEntity
  8
3
  6
DASHED
100
AcDbCircle
 10
410.5
 20
728.0
 30
0.0
 40
1.0
100
AcDbArc
 50
318.189685
 51
67.380135
  0
LINE
  5
12148
330
11EAB
100
AcDbEntity
  8
3
  6
DASHED
100
AcDbLine
 10
408.4999999999998
 20
728.0
 30
0.0
 11
409.4999999999997
 21
728.0
 31
0.0
  0
LINE
  5
12149
330
11EAB
100
AcDbEntity
  8
3
  6
DASHED
100
AcDbLine
 10
409.4999999999997
 20
728.0
 30
0.0
 11
410.7236069999998
 21
728.0
 31
0.0
  0
LINE
  5
1214A
330
11EAB
100
AcDbEntity
  8
3
  6
DASHED
100
AcDbLine
 10
409.4999999999997
 20
729.4999999999999
 30
0.0
 11
410.8846149999997
 21
728.9230769999996
 31
0.0
  0
LINE
  5
1214B
330
11EAB
100
AcDbEntity
  8
3
  6
DASHED
100
AcDbLine
 10
409.4999999999997
 20
729.4999999999999
 30
0.0
 11
409.4999999999997
 21
728.0
 31
0.0
  0
LINE
  5
1214C
330
11EAB
100
AcDbEntity
  8
3
  6
DASHED
100
AcDbLine
 10
408.4999999999998
 20
728.0
 30
0.0
 11
404.4999999999998
 21
729.4999999999999
 31
0.0
  0
LINE
  5
1214D
330
11EAB
100
AcDbEntity
  8
3
  6
DASHED
100
AcDbLine
 10
409.754644
 20
725.6666669999997
 30
0.0
 11
411.245356
 21
727.333333
 31
0.0
  0
LINE
  5
1214E
330
11EAB
100
AcDbEntity
  8
1
  6
Continuous
100
AcDbLine
 10
412.6
 20
718.0
 30
0.0
 11
412.6
 21
716.0
 31
0.0
  0
ARC
  5
1214F
330
11EAB
100
AcDbEntity
  8
3
  6
DASHED
100
AcDbCircle
 10
410.5
 20
725.0
 30
0.0
 40
1.0
100
AcDbArc
 50
138.1896849999999
 51
270.0
  0
CIRCLE
  5
12150
330
11EAB
100
AcDbEntity
  8
1
  6
Continuous
100
AcDbCircle
 10
425.0
 20
717.0
 30
0.0
 40
2.399999999999999
  0
LINE
  5
12151
330
11EAB
100
AcDbEntity
  8
1
  6
Continuous
100
AcDbLine
 10
417.3999999999998
 20
718.0
 30
0.0
 11
417.3999999999998
 21
716.0
 31
0.0
  0
LINE
  5
12152
330
11EAB
100
AcDbEntity
  8
4
  6
CENTER
100
AcDbLine
 10
415.0
 20
724.859286
 30
0.0
 11
415.0
 21
711.8097650000001
 31
0.0
  0
LINE
  5
12153
330
11EAB
100
AcDbEntity
  8
1
  6
Continuous
100
AcDbLine
 10
431.0
 20
708.4999999999999
 30
0.0
 11
430.0
 21
708.4999999999999
 31
0.0
  0
LINE
  5
12154
330
11EAB
100
AcDbEntity
  8
4
  6
CENTER
100
AcDbLine
 10
425.0
 20
724.735596
 30
0.0
 11
425.0
 21
711.8097650000001
 31
0.0
  0
LINE
  5
12155
330
11EAB
100
AcDbEntity
  8
4
  6
CENTER
100
AcDbLine
 10
441.0
 20
616.8764579999997
 30
0.0
 11
441.0
 21
637.343926
 31
0.0
  0
LINE
  5
12156
330
11EAB
100
AcDbEntity
  8
3
  6
DASHED
100
AcDbLine
 10
452.0
 20
628.0
 30
0.0
 11
430.0
 21
628.0
 31
0.0
  0
LINE
  5
12157
330
11EAB
100
AcDbEntity
  8
3
  6
DASHED
100
AcDbLine
 10
452.0
 20
623.0
 30
0.0
 11
430.0
 21
623.0
 31
0.0
  0
LINE
  5
12158
330
11EAB
100
AcDbEntity
  8
1
  6
Continuous
100
AcDbLine
 10
447.0
 20
629.4999999999999
 30
0.0
 11
435.0
 21
629.4999999999999
 31
0.0
  0
LINE
  5
12159
330
11EAB
100
AcDbEntity
  8
1
  6
Continuous
100
AcDbLine
 10
447.0
 20
631.0
 30
0.0
 11
435.0
 21
631.0
 31
0.0
  0
LINE
  5
1215A
330
11EAB
100
AcDbEntity
  8
1
  6
Continuous
100
AcDbLine
 10
429.0
 20
627.5
 30
0.0
 11
429.0
 21
621.0
 31
0.0
  0
LINE
  5
1215B
330
11EAB
100
AcDbEntity
  8
1
  6
Continuous
100
AcDbLine
 10
428.0
 20
622.5
 30
0.0
 11
428.0
 21
621.0
 31
0.0
  0
ARC
  5
1215C
330
11EAB
100
AcDbEntity
  8
1
  6
Continuous
100
AcDbCircle
 10
430.4999999999998
 20
627.5
 30
0.0
 40
1.5
100
AcDbArc
 50
90.0
 51
180.0
  0
LINE
  5
1215D
330
11EAB
100
AcDbEntity
  8
1
  6
Continuous
100
AcDbLine
 10
435.0
 20
629.0
 30
0.0
 11
435.0
 21
631.0
 31
0.0
  0
LINE
  5
1215E
330
11EAB
100
AcDbEntity
  8
1
  6
Continuous
100
AcDbLine
 10
435.207107
 20
631.2928929999999
 30
0.0
 11
434.4999999999997
 21
632.0
 31
0.0
  0
ARC
  5
1215F
330
11EAB
100
AcDbEntity
  8
1
  6
Continuous
100
AcDbCircle
 10
435.9142139999998
 20
632.0
 30
0.0
 40
1.0
100
AcDbArc
 50
225.0
 51
270.0
  0
LINE
  5
12160
330
11EAB
100
AcDbEntity
  8
3
  6
DASHED
100
AcDbLine
 10
435.0
 20
628.0
 30
0.0
 11
435.0
 21
629.0
 31
0.0
  0
LINE
  5
12161
330
11EAB
100
AcDbEntity
  8
1
  6
Continuous
100
AcDbLine
 10
447.0
 20
629.0
 30
0.0
 11
447.0
 21
631.0
 31
0.0
  0
LINE
  5
12162
330
11EAB
100
AcDbEntity
  8
1
  6
Continuous
100
AcDbLine
 10
446.792893
 20
631.2928929999999
 30
0.0
 11
447.5
 21
632.0
 31
0.0
  0
ARC
  5
12163
330
11EAB
100
AcDbEntity
  8
1
  6
Continuous
100
AcDbCircle
 10
446.0857859999999
 20
632.0
 30
0.0
 40
1.0
100
AcDbArc
 50
270.0
 51
315.0
  0
LINE
  5
12164
330
11EAB
100
AcDbEntity
  8
3
  6
DASHED
100
AcDbLine
 10
447.0
 20
628.0
 30
0.0
 11
447.0
 21
629.0
 31
0.0
  0
ARC
  5
12165
330
11EAB
100
AcDbEntity
  8
1
  6
Continuous
100
AcDbCircle
 10
453.5
 20
632.0
 30
0.0
 40
1.5
100
AcDbArc
 50
0.0
 51
90.0
  0
LINE
  5
12166
330
11EAB
100
AcDbEntity
  8
3
  6
DASHED
100
AcDbLine
 10
455.0
 20
624.0
 30
0.0
 11
453.5
 21
624.0
 31
0.0
  0
LINE
  5
12167
330
11EAB
100
AcDbEntity
  8
1
  6
Continuous
100
AcDbLine
 10
453.5
 20
629.0
 30
0.0
 11
453.5
 21
633.4999999999999
 31
0.0
  0
LINE
  5
12168
330
11EAB
100
AcDbEntity
  8
3
  6
DASHED
100
AcDbLine
 10
452.0
 20
628.0
 30
0.0
 11
452.0
 21
623.0
 31
0.0
  0
LINE
  5
12169
330
11EAB
100
AcDbEntity
  8
3
  6
DASHED
100
AcDbLine
 10
453.5
 20
624.0
 30
0.0
 11
453.5
 21
629.0
 31
0.0
  0
LINE
  5
1216A
330
11EAB
100
AcDbEntity
  8
1
  6
Continuous
100
AcDbLine
 10
455.0
 20
629.0
 30
0.0
 11
455.0
 21
632.0
 31
0.0
  0
LINE
  5
1216B
330
11EAB
100
AcDbEntity
  8
3
  6
DASHED
100
AcDbLine
 10
455.0
 20
624.0
 30
0.0
 11
455.0
 21
629.0
 31
0.0
  0
LINE
  5
1216C
330
11EAB
100
AcDbEntity
  8
4
  6
CENTER
100
AcDbLine
 10
506.5
 20
618.0
 30
0.0
 11
506.5
 21
624.5
 31
0.0
  0
ARC
  5
1216D
330
11EAB
100
AcDbEntity
  8
1
  6
Continuous
100
AcDbCircle
 10
451.4999999999998
 20
709.0
 30
0.0
 40
2.0
100
AcDbArc
 50
270.0
 51
0.0
  0
LINE
  5
1216E
330
11EAB
100
AcDbEntity
  8
4
  6
CENTER
100
AcDbLine
 10
441.0
 20
732.0
 30
0.0
 11
441.0
 21
702.0
 31
0.0
  0
LINE
  5
1216F
330
11EAB
100
AcDbEntity
  8
1
  6
Continuous
100
AcDbLine
 10
451.4999999999998
 20
707.0
 30
0.0
 11
435.0
 21
707.0
 31
0.0
  0
ARC
  5
12170
330
11EAB
100
AcDbEntity
  8
1
  6
Continuous
100
AcDbCircle
 10
441.0
 20
717.0
 30
0.0
 40
11.0
100
AcDbArc
 50
245.380023
 51
294.619977
  0
LINE
  5
12171
330
11EAB
100
AcDbEntity
  8
1
  6
Continuous
100
AcDbLine
 10
429.0
 20
705.0
 30
0.0
 11
429.0
 21
703.5
 31
0.0
  0
ARC
  5
12172
330
11EAB
100
AcDbEntity
  8
1
  6
Continuous
100
AcDbCircle
 10
447.627489
 20
729.0
 30
0.0
 40
2.0
100
AcDbArc
 50
21.07983799999999
 51
90.0
  0
CIRCLE
  5
12173
330
11EAB
100
AcDbEntity
  8
1
  6
Continuous
100
AcDbCircle
 10
441.0
 20
717.0
 30
0.0
 40
3.0
  0
CIRCLE
  5
12174
330
11EAB
100
AcDbEntity
  8
1
  6
Continuous
100
AcDbCircle
 10
441.0
 20
717.0
 30
0.0
 40
5.0
  0
ARC
  5
12175
330
11EAB
100
AcDbEntity
  8
1
  6
Continuous
100
AcDbCircle
 10
441.0
 20
717.0
 30
0.0
 40
14.0
100
AcDbArc
 50
0.0
 51
21.07983799999999
  0
LINE
  5
12176
330
11EAB
100
AcDbEntity
  8
1
  6
Continuous
100
AcDbLine
 10
455.0
 20
713.0
 30
0.0
 11
453.5
 21
713.0
 31
0.0
  0
LINE
  5
12177
330
11EAB
100
AcDbEntity
  8
1
  6
Continuous
100
AcDbLine
 10
453.5
 20
713.0
 30
0.0
 11
453.5
 21
709.0
 31
0.0
  0
LINE
  5
12178
330
11EAB
100
AcDbEntity
  8
1
  6
Continuous
100
AcDbLine
 10
453.691288
 20
723.0
 30
0.0
 11
452.0837089999998
 21
723.0
 31
0.0
  0
LINE
  5
12179
330
11EAB
100
AcDbEntity
  8
1
  6
Continuous
100
AcDbLine
 10
453.691288
 20
723.0
 30
0.0
 11
454.0631219999998
 21
722.0353589999997
 31
0.0
  0
LINE
  5
1217A
330
11EAB
100
AcDbEntity
  8
1
  6
Continuous
100
AcDbLine
 10
454.377544
 20
724.0
 30
0.0
 11
454.597809
 21
723.428571
 31
0.0
  0
LINE
  5
1217B
330
11EAB
100
AcDbEntity
  8
1
  6
Continuous
100
AcDbLine
 10
454.597809
 20
723.428571
 30
0.0
 11
453.691288
 21
723.0
 31
0.0
  0
LINE
  5
1217C
330
11EAB
100
AcDbEntity
  8
1
  6
Continuous
100
AcDbLine
 10
455.0
 20
717.0
 30
0.0
 11
455.0
 21
713.0
 31
0.0
  0
LINE
  5
1217D
330
11EAB
100
AcDbEntity
  8
1
  6
Continuous
100
AcDbLine
 10
449.4936489999998
 20
729.719337
 30
0.0
 11
452.0837089999998
 21
723.0
 31
0.0
  0
LINE
  5
1217E
330
11EAB
100
AcDbEntity
  8
4
  6
CENTER
100
AcDbLine
 10
500.75
 20
719.5
 30
0.0
 11
512.25
 21
719.5
 31
0.0
  0
CIRCLE
  5
1217F
330
11EAB
100
AcDbEntity
  8
1
  6
Continuous
100
AcDbCircle
 10
506.5
 20
719.5
 30
0.0
 40
3.75
  0
CIRCLE
  5
12180
330
11EAB
100
AcDbEntity
  8
1
  6
Continuous
100
AcDbCircle
 10
506.5
 20
719.5
 30
0.0
 40
2.399999999999999
  0
LINE
  5
12181
330
11EAB
100
AcDbEntity
  8
4
  6
CENTER
100
AcDbLine
 10
506.5
 20
725.25
 30
0.0
 11
506.5
 21
713.75
 31
0.0
  0
LINE
  5
12182
330
11EAB
100
AcDbEntity
  8
1
  6
Continuous
100
AcDbLine
 10
690.0
 20
522.5
 30
0.0
 11
662.0
 21
525.0
 31
0.0
  0
LINE
  5
12183
330
11EAB
100
AcDbEntity
  8
4
  6
CENTER
100
AcDbLine
 10
690.0
 20
529.25
 30
0.0
 11
690.0
 21
540.7499999999998
 31
0.0
  0
ARC
  5
12184
330
11EAB
100
AcDbEntity
  8
1
  6
Continuous
100
AcDbCircle
 10
697.0
 20
533.0
 30
0.0
 40
2.0
100
AcDbArc
 50
90.0
 51
253.2276069999999
  0
ARC
  5
12185
330
11EAB
100
AcDbEntity
  8
1
  6
Continuous
100
AcDbCircle
 10
680.0
 20
534.0
 30
0.0
 40
2.399999999999999
100
AcDbArc
 50
180.0
 51
0.0
  0
LINE
  5
12186
330
11EAB
100
AcDbEntity
  8
4
  6
CENTER
100
AcDbLine
 10
680.0
 20
528.2499999999998
 30
0.0
 11
680.0
 21
541.75
 31
0.0
  0
LINE
  5
12187
330
11EAB
100
AcDbEntity
  8
1
  6
Continuous
100
AcDbLine
 10
705.0
 20
522.5
 30
0.0
 11
690.0
 21
522.5
 31
0.0
  0
LINE
  5
12188
330
11EAB
100
AcDbEntity
  8
1
  6
Continuous
100
AcDbLine
 10
703.932856
 20
528.821629
 30
0.0
 11
696.422859
 21
531.085083
 31
0.0
  0
LINE
  5
12189
330
11EAB
100
AcDbEntity
  8
1
  6
Continuous
100
AcDbLine
 10
705.0
 20
522.5
 30
0.0
 11
705.0
 21
527.385441
 31
0.0
  0
ARC
  5
1218A
330
11EAB
100
AcDbEntity
  8
1
  6
Continuous
100
AcDbCircle
 10
703.5
 20
527.385441
 30
0.0
 40
1.5
100
AcDbArc
 50
0.0
 51
73.22760699999998
  0
LINE
  5
1218B
330
11EAB
100
AcDbEntity
  8
1
  6
Continuous
100
AcDbLine
 10
703.5
 20
535.0
 30
0.0
 11
697.0
 21
535.0
 31
0.0
  0
LINE
  5
1218C
330
11EAB
100
AcDbEntity
  8
1
  6
Continuous
100
AcDbLine
 10
682.3999999999998
 20
534.0
 30
0.0
 11
682.3999999999998
 21
536.0
 31
0.0
  0
LINE
  5
1218D
330
11EAB
100
AcDbEntity
  8
1
  6
Continuous
100
AcDbLine
 10
677.6
 20
534.0
 30
0.0
 11
677.6
 21
536.0
 31
0.0
  0
ARC
  5
1218E
330
11EAB
100
AcDbEntity
  8
1
  6
Continuous
100
AcDbCircle
 10
680.0
 20
536.0
 30
0.0
 40
2.399999999999999
100
AcDbArc
 50
0.0
 51
180.0
  0
CIRCLE
  5
1218F
330
11EAB
100
AcDbEntity
  8
1
  6
Continuous
100
AcDbCircle
 10
690.0
 20
535.0
 30
0.0
 40
2.399999999999999
  0
ARC
  5
12190
330
11EAB
100
AcDbEntity
  8
1
  6
Continuous
100
AcDbCircle
 10
691.0
 20
535.0
 30
0.0
 40
7.0
100
AcDbArc
 50
26.33707499999999
 51
63.662925
  0
LINE
  5
12191
330
11EAB
100
AcDbEntity
  8
1
  6
Continuous
100
AcDbLine
 10
700.8581949999997
 20
539.880163
 30
0.0
 11
697.2733969999997
 21
538.1055579999999
 31
0.0
  0
LINE
  5
12192
330
11EAB
100
AcDbEntity
  8
1
  6
Continuous
100
AcDbLine
 10
695.880163
 20
544.858195
 30
0.0
 11
694.1055579999997
 21
541.2733969999997
 31
0.0
  0
ARC
  5
12193
330
11EAB
100
AcDbEntity
  8
1
  6
Continuous
100
AcDbCircle
 10
691.0
 20
535.0
 30
0.0
 40
11.0
100
AcDbArc
 50
26.33707499999999
 51
63.662925
  0
ARC
  5
12194
330
11EAB
100
AcDbEntity
  8
1
  6
Continuous
100
AcDbCircle
 10
703.5
 20
536.5
 30
0.0
 40
1.5
100
AcDbArc
 50
270.0
 51
0.0
  0
LINE
  5
12195
330
11EAB
100
AcDbEntity
  8
1
  6
Continuous
100
AcDbLine
 10
705.0
 20
536.5
 30
0.0
 11
705.0
 21
551.0
 31
0.0
  0
LINE
  5
12196
330
11EAB
100
AcDbEntity
  8
1
  6
Continuous
100
AcDbLine
 10
778.0
 20
531.5
 30
0.0
 11
778.0
 21
539.880163
 31
0.0
  0
LINE
  5
12197
330
11EAB
100
AcDbEntity
  8
1
  6
Continuous
100
AcDbLine
 10
777.0
 20
531.5
 30
0.0
 11
777.0
 21
539.880163
 31
0.0
  0
LINE
  5
12198
330
11EAB
100
AcDbEntity
  8
1
  6
Continuous
100
AcDbLine
 10
787.5
 20
523.5
 30
0.0
 11
787.5
 21
548.5
 31
0.0
  0
LINE
  5
12199
330
11EAB
100
AcDbEntity
  8
1
  6
Continuous
100
AcDbLine
 10
776.5
 20
524.0
 30
0.0
 11
776.5
 21
549.5
 31
0.0
  0
LINE
  5
1219A
330
11EAB
100
AcDbEntity
  8
1
  6
Continuous
100
AcDbLine
 10
775.0
 20
524.0
 30
0.0
 11
775.0
 21
551.0
 31
0.0
  0
LINE
  5
1219B
330
11EAB
100
AcDbEntity
  8
1
  6
Continuous
100
AcDbLine
 10
787.5
 20
531.5
 30
0.0
 11
776.5
 21
531.5
 31
0.0
  0
LINE
  5
1219C
330
11EAB
100
AcDbEntity
  8
1
  6
Continuous
100
AcDbLine
 10
783.0
 20
527.7967559999998
 30
0.0
 11
776.5
 21
527.7967559999998
 31
0.0
  0
LINE
  5
1219D
330
11EAB
100
AcDbEntity
  8
1
  6
Continuous
100
AcDbLine
 10
783.0
 20
524.0
 30
0.0
 11
776.5
 21
524.0
 31
0.0
  0
LINE
  5
1219E
330
11EAB
100
AcDbEntity
  8
1
  6
Continuous
100
AcDbLine
 10
783.0
 20
522.5
 30
0.0
 11
776.5
 21
522.5
 31
0.0
  0
LINE
  5
1219F
330
11EAB
100
AcDbEntity
  8
1
  6
Continuous
100
AcDbLine
 10
776.5
 20
526.4999999999998
 30
0.0
 11
783.0
 21
526.4999999999998
 31
0.0
  0
LINE
  5
121A0
330
11EAB
100
AcDbEntity
  8
1
  6
Continuous
100
AcDbLine
 10
775.0
 20
528.5
 30
0.0
 11
776.5
 21
528.5
 31
0.0
  0
ARC
  5
121A1
330
11EAB
100
AcDbEntity
  8
1
  6
Continuous
100
AcDbCircle
 10
776.5
 20
524.0
 30
0.0
 40
1.5
100
AcDbArc
 50
180.0
 51
270.0
  0
LINE
  5
121A2
330
11EAB
100
AcDbEntity
  8
1
  6
Continuous
100
AcDbLine
 10
777.0
 20
526.4999999999998
 30
0.0
 11
777.0
 21
527.7967559999998
 31
0.0
  0
LINE
  5
121A3
330
11EAB
100
AcDbEntity
  8
1
  6
Continuous
100
AcDbLine
 10
784.4999999999998
 20
528.0
 30
0.0
 11
783.0
 21
528.0
 31
0.0
  0
LINE
  5
121A4
330
11EAB
100
AcDbEntity
  8
1
  6
Continuous
100
AcDbLine
 10
785.5
 20
531.5
 30
0.0
 11
786.0
 21
531.0
 31
0.0
  0
LINE
  5
121A5
330
11EAB
100
AcDbEntity
  8
1
  6
Continuous
100
AcDbLine
 10
783.0
 20
530.4999999999998
 30
0.0
 11
784.4999999999998
 21
530.4999999999998
 31
0.0
  0
ARC
  5
121A6
330
11EAB
100
AcDbEntity
  8
1
  6
Continuous
100
AcDbCircle
 10
783.0
 20
524.0
 30
0.0
 40
1.5
100
AcDbArc
 50
270.0
 51
0.0
  0
LINE
  5
121A7
330
11EAB
100
AcDbEntity
  8
1
  6
Continuous
100
AcDbLine
 10
787.5
 20
523.5
 30
0.0
 11
786.0
 21
523.5
 31
0.0
  0
LINE
  5
121A8
330
11EAB
100
AcDbEntity
  8
1
  6
Continuous
100
AcDbLine
 10
786.0
 20
523.5
 30
0.0
 11
786.0
 21
531.5
 31
0.0
  0
LINE
  5
121A9
330
11EAB
100
AcDbEntity
  8
1
  6
Continuous
100
AcDbLine
 10
783.0
 20
524.0
 30
0.0
 11
783.0
 21
531.5
 31
0.0
  0
LINE
  5
121AA
330
11EAB
100
AcDbEntity
  8
1
  6
Continuous
100
AcDbLine
 10
782.0
 20
526.4999999999998
 30
0.0
 11
782.0
 21
527.7967559999998
 31
0.0
  0
LINE
  5
121AB
330
11EAB
100
AcDbEntity
  8
1
  6
Continuous
100
AcDbLine
 10
784.4999999999998
 20
524.0
 30
0.0
 11
784.4999999999998
 21
530.4999999999998
 31
0.0
  0
LINE
  5
121AC
330
11EAB
100
AcDbEntity
  8
1
  6
Continuous
100
AcDbLine
 10
783.0
 20
549.5
 30
0.0
 11
776.5
 21
549.5
 31
0.0
  0
LINE
  5
121AD
330
11EAB
100
AcDbEntity
  8
1
  6
Continuous
100
AcDbLine
 10
783.0
 20
551.0
 30
0.0
 11
775.0
 21
551.0
 31
0.0
  0
LINE
  5
121AE
330
11EAB
100
AcDbEntity
  8
1
  6
Continuous
100
AcDbLine
 10
776.5
 20
546.202494
 30
0.0
 11
782.0
 21
546.202494
 31
0.0
  0
LINE
  5
121AF
330
11EAB
100
AcDbEntity
  8
1
  6
Continuous
100
AcDbLine
 10
776.5
 20
540.54564
 30
0.0
 11
782.0
 21
540.54564
 31
0.0
  0
LINE
  5
121B0
330
11EAB
100
AcDbEntity
  8
1
  6
Continuous
100
AcDbLine
 10
776.5
 20
539.880163
 30
0.0
 11
782.0
 21
539.880163
 31
0.0
  0
LINE
  5
121B1
330
11EAB
100
AcDbEntity
  8
4
  6
CENTER
100
AcDbLine
 10
788.1937379999997
 20
535.0
 30
0.0
 11
770.0
 21
535.0
 31
0.0
  0
LINE
  5
121B2
330
11EAB
100
AcDbEntity
  8
4
  6
CENTER
100
AcDbLine
 10
791.643621
 20
537.5
 30
0.0
 11
773.849476
 21
537.5
 31
0.0
  0
LINE
  5
121B3
330
11EAB
100
AcDbEntity
  8
1
  6
Continuous
100
AcDbLine
 10
782.0
 20
548.5
 30
0.0
 11
777.0
 21
548.5
 31
0.0
  0
ARC
  5
121B4
330
11EAB
100
AcDbEntity
  8
1
  6
Continuous
100
AcDbCircle
 10
776.5
 20
549.5
 30
0.0
 40
1.5
100
AcDbArc
 50
90.0
 51
180.0
  0
LINE
  5
121B5
330
11EAB
100
AcDbEntity
  8
1
  6
Continuous
100
AcDbLine
 10
776.5
 20
535.0
 30
0.0
 11
775.0
 21
535.0
 31
0.0
  0
LINE
  5
121B6
330
11EAB
100
AcDbEntity
  8
1
  6
Continuous
100
AcDbLine
 10
777.0
 20
548.5
 30
0.0
 11
777.0
 21
546.202494
 31
0.0
  0
LINE
  5
121B7
330
11EAB
100
AcDbEntity
  8
1
  6
Continuous
100
AcDbLine
 10
778.0
 20
548.5
 30
0.0
 11
778.0
 21
549.5
 31
0.0
  0
LINE
  5
121B8
330
11EAB
100
AcDbEntity
  8
1
  6
Continuous
100
AcDbLine
 10
783.0
 20
549.5
 30
0.0
 11
783.0
 21
551.0
 31
0.0
  0
LINE
  5
121B9
330
11EAB
100
AcDbEntity
  8
1
  6
Continuous
100
AcDbLine
 10
783.0
 20
550.0
 30
0.0
 11
786.0
 21
550.0
 31
0.0
  0
LINE
  5
121BA
330
11EAB
100
AcDbEntity
  8
1
  6
Continuous
100
AcDbLine
 10
786.0
 20
546.0
 30
0.0
 11
782.0
 21
546.0
 31
0.0
  0
LINE
  5
121BB
330
11EAB
100
AcDbEntity
  8
1
  6
Continuous
100
AcDbLine
 10
786.0
 20
541.5
 30
0.0
 11
786.0
 21
547.5
 31
0.0
  0
LINE
  5
121BC
330
11EAB
100
AcDbEntity
  8
1
  6
Continuous
100
AcDbLine
 10
787.5
 20
541.5
 30
0.0
 11
782.0
 21
541.5
 31
0.0
  0
LINE
  5
121BD
330
11EAB
100
AcDbEntity
  8
1
  6
Continuous
100
AcDbLine
 10
782.0
 20
539.880163
 30
0.0
 11
782.0
 21
548.5
 31
0.0
  0
LINE
  5
121BE
330
11EAB
100
AcDbEntity
  8
1
  6
Continuous
100
AcDbLine
 10
787.5
 20
547.5
 30
0.0
 11
782.0
 21
547.5
 31
0.0
  0
ARC
  5
121BF
330
11EAB
100
AcDbEntity
  8
1
  6
Continuous
100
AcDbCircle
 10
786.0
 20
542.5857859999998
 30
0.0
 40
1.0
100
AcDbArc
 50
135.0
 51
180.0
  0
LINE
  5
121C0
330
11EAB
100
AcDbEntity
  8
1
  6
Continuous
100
AcDbLine
 10
785.2928929999997
 20
543.2928929999999
 30
0.0
 11
786.0
 21
544.0
 31
0.0
  0
LINE
  5
121C1
330
11EAB
100
AcDbEntity
  8
1
  6
Continuous
100
AcDbLine
 10
785.0
 20
541.5
 30
0.0
 11
785.0
 21
543.5
 31
0.0
  0
LINE
  5
121C2
330
11EAB
100
AcDbEntity
  8
1
  6
Continuous
100
AcDbLine
 10
783.4999999999999
 20
541.5
 30
0.0
 11
783.4999999999999
 21
543.5
 31
0.0
  0
LINE
  5
121C3
330
11EAB
100
AcDbEntity
  8
1
  6
Continuous
100
AcDbLine
 10
782.0
 20
543.5
 30
0.0
 11
785.0
 21
543.5
 31
0.0
  0
ARC
  5
121C4
330
11EAB
100
AcDbEntity
  8
1
  6
Continuous
100
AcDbCircle
 10
786.0
 20
548.5
 30
0.0
 40
1.5
100
AcDbArc
 50
0.0
 51
90.0
  0
LINE
  5
121C5
330
11EAB
100
AcDbEntity
  8
4
  6
CENTER
100
AcDbLine
 10
690.0
 20
618.0
 30
0.0
 11
690.0
 21
624.5
 31
0.0
  0
LINE
  5
121C6
330
11EAB
100
AcDbEntity
  8
4
  6
CENTER
100
AcDbLine
 10
680.0
 20
618.0
 30
0.0
 11
680.0
 21
624.5
 31
0.0
  0
LINE
  5
121C7
330
11EAB
100
AcDbEntity
  8
1
  6
Continuous
100
AcDbLine
 10
705.0
 20
621.0
 30
0.0
 11
705.0
 21
630.4999999999997
 31
0.0
  0
ARC
  5
121C8
330
11EAB
100
AcDbEntity
  8
1
  6
Continuous
100
AcDbCircle
 10
703.5
 20
627.5
 30
0.0
 40
1.5
100
AcDbArc
 50
0.0
 51
90.0
  0
LINE
  5
121C9
330
11EAB
100
AcDbEntity
  8
1
  6
Continuous
100
AcDbLine
 10
690.0
 20
732.0
 30
0.0
 11
662.0
 21
729.4999999999999
 31
0.0
  0
LINE
  5
121CA
330
11EAB
100
AcDbEntity
  8
1
  6
Continuous
100
AcDbLine
 10
690.2450479999997
 20
726.5
 30
0.0
 11
662.245048
 21
724.0
 31
0.0
  0
LINE
  5
121CB
330
11EAB
100
AcDbEntity
  8
1
  6
Continuous
100
AcDbLine
 10
705.0
 20
718.0
 30
0.0
 11
705.0
 21
703.5
 31
0.0
  0
ARC
  5
121CC
330
11EAB
100
AcDbEntity
  8
1
  6
Continuous
100
AcDbCircle
 10
691.0
 20
719.5
 30
0.0
 40
12.5
100
AcDbArc
 50
296.3370750000001
 51
333.6629249999999
  0
LINE
  5
121CD
330
11EAB
100
AcDbEntity
  8
1
  6
Continuous
100
AcDbLine
 10
704.0
 20
726.5
 30
0.0
 11
690.2450479999997
 21
726.5
 31
0.0
  0
LINE
  5
121CE
330
11EAB
100
AcDbEntity
  8
1
  6
Continuous
100
AcDbLine
 10
705.0
 20
732.0
 30
0.0
 11
690.0
 21
732.0
 31
0.0
  0
LINE
  5
121CF
330
11EAB
100
AcDbEntity
  8
1
  6
Continuous
100
AcDbLine
 10
702.202494
 20
713.9543599999998
 30
0.0
 11
697.2733969999997
 21
716.3944419999997
 31
0.0
  0
LINE
  5
121D0
330
11EAB
100
AcDbEntity
  8
1
  6
Continuous
100
AcDbLine
 10
703.5
 20
719.5
 30
0.0
 11
697.0
 21
719.5
 31
0.0
  0
LINE
  5
121D1
330
11EAB
100
AcDbEntity
  8
1
  6
Continuous
100
AcDbLine
 10
703.932856
 20
725.6783709999997
 30
0.0
 11
696.422859
 21
723.4149169999997
 31
0.0
  0
LINE
  5
121D2
330
11EAB
100
AcDbEntity
  8
4
  6
CENTER
100
AcDbLine
 10
695.75
 20
719.5
 30
0.0
 11
674.2499999999997
 21
719.5
 31
0.0
  0
ARC
  5
121D3
330
11EAB
100
AcDbEntity
  8
1
  6
Continuous
100
AcDbCircle
 10
680.0
 20
720.5
 30
0.0
 40
3.75
100
AcDbArc
 50
0.0
 51
180.0
  0
ARC
  5
121D4
330
11EAB
100
AcDbEntity
  8
1
  6
Continuous
100
AcDbCircle
 10
680.0
 20
718.5
 30
0.0
 40
3.75
100
AcDbArc
 50
180.0
 51
0.0
  0
ARC
  5
121D5
330
11EAB
100
AcDbEntity
  8
1
  6
Continuous
100
AcDbCircle
 10
680.0
 20
718.5
 30
0.0
 40
2.399999999999999
100
AcDbArc
 50
180.0
 51
0.0
  0
ARC
  5
121D6
330
11EAB
100
AcDbEntity
  8
1
  6
Continuous
100
AcDbCircle
 10
680.0
 20
720.5
 30
0.0
 40
2.399999999999999
100
AcDbArc
 50
0.0
 51
180.0
  0
LINE
  5
121D7
330
11EAB
100
AcDbEntity
  8
1
  6
Continuous
100
AcDbLine
 10
676.25
 20
720.5
 30
0.0
 11
676.25
 21
718.5
 31
0.0
  0
LINE
  5
121D8
330
11EAB
100
AcDbEntity
  8
1
  6
Continuous
100
AcDbLine
 10
677.6
 20
720.5
 30
0.0
 11
677.6
 21
718.5
 31
0.0
  0
LINE
  5
121D9
330
11EAB
100
AcDbEntity
  8
1
  6
Continuous
100
AcDbLine
 10
683.75
 20
720.5
 30
0.0
 11
683.75
 21
718.5
 31
0.0
  0
LINE
  5
121DA
330
11EAB
100
AcDbEntity
  8
1
  6
Continuous
100
AcDbLine
 10
682.3999999999998
 20
720.5
 30
0.0
 11
682.3999999999998
 21
718.5
 31
0.0
  0
LINE
  5
121DB
330
11EAB
100
AcDbEntity
  8
4
  6
CENTER
100
AcDbLine
 10
680.0
 20
726.25
 30
0.0
 11
680.0
 21
712.75
 31
0.0
  0
CIRCLE
  5
121DC
330
11EAB
100
AcDbEntity
  8
1
  6
Continuous
100
AcDbCircle
 10
690.0
 20
719.5
 30
0.0
 40
3.75
  0
CIRCLE
  5
121DD
330
11EAB
100
AcDbEntity
  8
1
  6
Continuous
100
AcDbCircle
 10
690.0
 20
719.5
 30
0.0
 40
2.399999999999999
  0
LINE
  5
121DE
330
11EAB
100
AcDbEntity
  8
4
  6
CENTER
100
AcDbLine
 10
690.0
 20
725.25
 30
0.0
 11
690.0
 21
713.75
 31
0.0
  0
LINE
  5
121DF
330
11EAB
100
AcDbEntity
  8
1
  6
Continuous
100
AcDbLine
 10
696.5456400000001
 20
708.2975059999996
 30
0.0
 11
694.1055579999997
 21
713.2266030000002
 31
0.0
  0
ARC
  5
121E0
330
11EAB
100
AcDbEntity
  8
1
  6
Continuous
100
AcDbCircle
 10
691.0
 20
719.5
 30
0.0
 40
7.0
100
AcDbArc
 50
296.3370750000001
 51
333.6629249999999
  0
ARC
  5
121E1
330
11EAB
100
AcDbEntity
  8
1
  6
Continuous
100
AcDbCircle
 10
697.0
 20
721.4999999999998
 30
0.0
 40
2.0
100
AcDbArc
 50
106.7723929999998
 51
270.0
  0
ARC
  5
121E2
330
11EAB
100
AcDbEntity
  8
1
  6
Continuous
100
AcDbCircle
 10
691.0
 20
719.5
 30
0.0
 40
11.0
100
AcDbArc
 50
296.3370750000001
 51
333.6629249999999
  0
LINE
  5
121E3
330
11EAB
100
AcDbEntity
  8
1
  6
Continuous
100
AcDbLine
 10
705.0
 20
732.0
 30
0.0
 11
705.0
 21
727.1145589999996
 31
0.0
  0
ARC
  5
121E4
330
11EAB
100
AcDbEntity
  8
1
  6
Continuous
100
AcDbCircle
 10
704.0
 20
730.4999999999998
 30
0.0
 40
1.0
100
AcDbArc
 50
112.6198649999998
 51
221.810315
  0
ARC
  5
121E5
330
11EAB
100
AcDbEntity
  8
1
  6
Continuous
100
AcDbCircle
 10
703.7763929999997
 20
730.0
 30
0.0
 40
0.5
100
AcDbArc
 50
90.0
 51
221.810315
  0
ARC
  5
121E6
330
11EAB
100
AcDbEntity
  8
1
  6
Continuous
100
AcDbCircle
 10
703.5
 20
727.1145589999996
 30
0.0
 40
1.5
100
AcDbArc
 50
286.772393
 51
0.0
  0
ARC
  5
121E7
330
11EAB
100
AcDbEntity
  8
1
  6
Continuous
100
AcDbCircle
 10
704.0
 20
727.5
 30
0.0
 40
1.0
100
AcDbArc
 50
270.0
 51
41.810315
  0
LINE
  5
121E8
330
11EAB
100
AcDbEntity
  8
1
  6
Continuous
100
AcDbLine
 10
704.745356
 20
728.1666669999999
 30
0.0
 11
703.2546439999999
 21
729.833333
 31
0.0
  0
ARC
  5
121E9
330
11EAB
100
AcDbEntity
  8
1
  6
Continuous
100
AcDbCircle
 10
703.5
 20
718.0
 30
0.0
 40
1.5
100
AcDbArc
 50
0.0
 51
90.0
  0
LINE
  5
121EA
330
11EAB
100
AcDbEntity
  8
1
  6
Continuous
100
AcDbLine
 10
705.0
 20
730.4999999999998
 30
0.0
 11
703.7763929999997
 21
730.4999999999998
 31
0.0
  0
LINE
  5
121EB
330
11EAB
100
AcDbEntity
  8
1
  6
Continuous
100
AcDbLine
 10
705.0
 20
732.0
 30
0.0
 11
703.6153849999998
 21
731.4230769999997
 31
0.0
  0
LINE
  5
121EC
330
11EAB
100
AcDbEntity
  8
1
  6
Continuous
100
AcDbLine
 10
705.0
 20
444.0
 30
0.0
 11
409.4999999999997
 21
444.0
 31
0.0
  0
LINE
  5
121ED
330
11EAB
100
AcDbEntity
  8
1
  6
Continuous
100
AcDbLine
 10
705.0
 20
453.5
 30
0.0
 11
360.4999999999998
 21
453.5
 31
0.0
  0
LINE
  5
121EE
330
11EAB
100
AcDbEntity
  8
1
  6
Continuous
100
AcDbLine
 10
453.5
 20
441.0
 30
0.0
 11
109.0
 21
441.0
 31
0.0
  0
LINE
  5
121EF
330
11EAB
100
AcDbEntity
  8
1
  6
Continuous
100
AcDbLine
 10
109.0
 20
450.4999999999998
 30
0.0
 11
359.0
 21
450.4999999999998
 31
0.0
  0
LINE
  5
121F0
330
11EAB
100
AcDbEntity
  8
1
  6
Continuous
100
AcDbLine
 10
453.5
 20
442.4999999999998
 30
0.0
 11
109.0
 21
442.4999999999998
 31
0.0
  0
LINE
  5
121F1
330
11EAB
100
AcDbEntity
  8
1
  6
Continuous
100
AcDbLine
 10
109.0
 20
449.0
 30
0.0
 11
359.0
 21
449.0
 31
0.0
  0
LINE
  5
121F2
330
11EAB
100
AcDbEntity
  8
1
  6
Continuous
100
AcDbLine
 10
142.0
 20
445.5
 30
0.0
 11
115.5
 21
445.5
 31
0.0
  0
ARC
  5
121F3
330
11EAB
100
AcDbEntity
  8
1
  6
Continuous
100
AcDbCircle
 10
115.5
 20
444.0
 30
0.0
 40
1.5
100
AcDbArc
 50
90.0
 51
180.0
  0
LINE
  5
121F4
330
11EAB
100
AcDbEntity
  8
1
  6
Continuous
100
AcDbLine
 10
109.0
 20
441.0
 30
0.0
 11
109.0
 21
450.4999999999998
 31
0.0
  0
LINE
  5
121F5
330
11EAB
100
AcDbEntity
  8
4
  6
CENTER
100
AcDbLine
 10
125.0
 20
438.0
 30
0.0
 11
125.0
 21
444.5
 31
0.0
  0
LINE
  5
121F6
330
11EAB
100
AcDbEntity
  8
1
  6
Continuous
100
AcDbLine
 10
114.0
 20
444.0
 30
0.0
 11
114.0
 21
442.4999999999998
 31
0.0
  0
LINE
  5
121F7
330
11EAB
100
AcDbEntity
  8
1
  6
Continuous
100
AcDbLine
 10
127.0
 20
445.913842
 30
0.0
 11
127.0
 21
448.51869
 31
0.0
  0
LINE
  5
121F8
330
11EAB
100
AcDbEntity
  8
1
  6
Continuous
100
AcDbLine
 10
156.0
 20
443.5
 30
0.0
 11
156.0
 21
448.0
 31
0.0
  0
ARC
  5
121F9
330
11EAB
100
AcDbEntity
  8
1
  6
Continuous
100
AcDbCircle
 10
142.0
 20
444.0
 30
0.0
 40
1.5
100
AcDbArc
 50
0.0
 51
90.0
  0
LINE
  5
121FA
330
11EAB
100
AcDbEntity
  8
4
  6
CENTER
100
AcDbLine
 10
135.0
 20
438.0
 30
0.0
 11
135.0
 21
444.5
 31
0.0
  0
LINE
  5
121FB
330
11EAB
100
AcDbEntity
  8
1
  6
Continuous
100
AcDbLine
 10
143.5
 20
442.4999999999998
 30
0.0
 11
143.5
 21
444.0
 31
0.0
  0
LINE
  5
121FC
330
11EAB
100
AcDbEntity
  8
3
  6
DASHED
100
AcDbLine
 10
452.0
 20
451.4999999999998
 30
0.0
 11
430.0
 21
451.4999999999998
 31
0.0
  0
LINE
  5
121FD
330
11EAB
100
AcDbEntity
  8
3
  6
DASHED
100
AcDbLine
 10
452.0
 20
446.4999999999998
 30
0.0
 11
430.0
 21
446.4999999999998
 31
0.0
  0
LINE
  5
121FE
330
11EAB
100
AcDbEntity
  8
1
  6
Continuous
100
AcDbLine
 10
360.4999999999998
 20
449.0
 30
0.0
 11
370.0
 21
449.0
 31
0.0
  0
LINE
  5
121FF
330
11EAB
100
AcDbEntity
  8
1
  6
Continuous
100
AcDbLine
 10
360.4999999999998
 20
450.4999999999998
 30
0.0
 11
370.0
 21
450.4999999999998
 31
0.0
  0
LINE
  5
12200
330
11EAB
100
AcDbEntity
  8
1
  6
Continuous
100
AcDbLine
 10
409.4999999999997
 20
452.0
 30
0.0
 11
360.4999999999998
 21
452.0
 31
0.0
  0
LINE
  5
12201
330
11EAB
100
AcDbEntity
  8
1
  6
Continuous
100
AcDbLine
 10
359.0
 20
452.0
 30
0.0
 11
359.0
 21
444.0
 31
0.0
  0
LINE
  5
12202
330
11EAB
100
AcDbEntity
  8
1
  6
Continuous
100
AcDbLine
 10
360.4999999999998
 20
444.0
 30
0.0
 11
360.4999999999998
 21
452.0
 31
0.0
  0
LINE
  5
12203
330
11EAB
100
AcDbEntity
  8
1
  6
Continuous
100
AcDbLine
 10
361.5
 20
442.4999999999998
 30
0.0
 11
361.5
 21
448.1
 31
0.0
  0
LINE
  5
12204
330
11EAB
100
AcDbEntity
  8
1
  6
Continuous
100
AcDbLine
 10
358.0
 20
442.4999999999998
 30
0.0
 11
358.0
 21
448.1
 31
0.0
  0
LINE
  5
12205
330
11EAB
100
AcDbEntity
  8
4
  6
CENTER
100
AcDbLine
 10
335.0
 20
438.0
 30
0.0
 11
335.0
 21
444.5
 31
0.0
  0
LINE
  5
12206
330
11EAB
100
AcDbEntity
  8
4
  6
CENTER
100
AcDbLine
 10
325.0
 20
438.0
 30
0.0
 11
325.0
 21
444.5
 31
0.0
  0
LINE
  5
12207
330
11EAB
100
AcDbEntity
  8
1
  6
Continuous
100
AcDbLine
 10
360.4999999999998
 20
444.0
 30
0.0
 11
359.0
 21
444.0
 31
0.0
  0
ARC
  5
12208
330
11EAB
100
AcDbEntity
  8
1
  6
Continuous
100
AcDbCircle
 10
360.4999999999998
 20
452.0
 30
0.0
 40
1.5
100
AcDbArc
 50
90.0
 51
180.0
  0
LINE
  5
12209
330
11EAB
100
AcDbEntity
  8
1
  6
Continuous
100
AcDbLine
 10
361.5
 20
448.1
 30
0.0
 11
360.4999999999998
 21
448.1
 31
0.0
  0
LINE
  5
1220A
330
11EAB
100
AcDbEntity
  8
1
  6
Continuous
100
AcDbLine
 10
359.0
 20
448.1
 30
0.0
 11
358.0
 21
448.1
 31
0.0
  0
LINE
  5
1220B
330
11EAB
100
AcDbEntity
  8
1
  6
Continuous
100
AcDbLine
 10
409.4999999999997
 20
444.0
 30
0.0
 11
409.4999999999997
 21
453.5
 31
0.0
  0
LINE
  5
1220C
330
11EAB
100
AcDbEntity
  8
3
  6
DASHED
100
AcDbLine
 10
430.0
 20
444.0
 30
0.0
 11
430.0
 21
451.4999999999998
 31
0.0
  0
LINE
  5
1220D
330
11EAB
100
AcDbEntity
  8
4
  6
CENTER
100
AcDbLine
 10
415.0
 20
438.0
 30
0.0
 11
415.0
 21
444.5
 31
0.0
  0
LINE
  5
1220E
330
11EAB
100
AcDbEntity
  8
4
  6
CENTER
100
AcDbLine
 10
425.0
 20
438.0
 30
0.0
 11
425.0
 21
444.5
 31
0.0
  0
LINE
  5
1220F
330
11EAB
100
AcDbEntity
  8
1
  6
Continuous
100
AcDbLine
 10
387.0
 20
448.0
 30
0.0
 11
387.0
 21
443.0
 31
0.0
  0
LINE
  5
12210
330
11EAB
100
AcDbEntity
  8
1
  6
Continuous
100
AcDbLine
 10
365.0
 20
448.0
 30
0.0
 11
365.0
 21
443.0
 31
0.0
  0
LINE
  5
12211
330
11EAB
100
AcDbEntity
  8
4
  6
CENTER
100
AcDbLine
 10
376.0
 20
457.7685289999998
 30
0.0
 11
376.0
 21
437.3857479999998
 31
0.0
  0
LINE
  5
12212
330
11EAB
100
AcDbEntity
  8
1
  6
Continuous
100
AcDbLine
 10
387.0
 20
443.0
 30
0.0
 11
365.0
 21
443.0
 31
0.0
  0
LINE
  5
12213
330
11EAB
100
AcDbEntity
  8
1
  6
Continuous
100
AcDbLine
 10
430.0
 20
442.4999999999998
 30
0.0
 11
430.0
 21
444.0
 31
0.0
  0
LINE
  5
12214
330
11EAB
100
AcDbEntity
  8
1
  6
Continuous
100
AcDbLine
 10
382.0
 20
449.0
 30
0.0
 11
409.4999999999997
 21
449.0
 31
0.0
  0
LINE
  5
12215
330
11EAB
100
AcDbEntity
  8
1
  6
Continuous
100
AcDbLine
 10
382.0
 20
450.4999999999998
 30
0.0
 11
409.4999999999997
 21
450.4999999999998
 31
0.0
  0
LINE
  5
12216
330
11EAB
100
AcDbEntity
  8
1
  6
Continuous
100
AcDbLine
 10
387.0
 20
448.0
 30
0.0
 11
365.0
 21
448.0
 31
0.0
  0
LINE
  5
12217
330
11EAB
100
AcDbEntity
  8
1
  6
Continuous
100
AcDbLine
 10
382.0
 20
451.0
 30
0.0
 11
370.0
 21
451.0
 31
0.0
  0
LINE
  5
12218
330
11EAB
100
AcDbEntity
  8
1
  6
Continuous
100
AcDbLine
 10
382.0
 20
449.5
 30
0.0
 11
370.0
 21
449.5
 31
0.0
  0
LINE
  5
12219
330
11EAB
100
AcDbEntity
  8
1
  6
Continuous
100
AcDbLine
 10
370.207107
 20
451.292893
 30
0.0
 11
369.5
 21
452.0
 31
0.0
  0
LINE
  5
1221A
330
11EAB
100
AcDbEntity
  8
4
  6
CENTER
100
AcDbLine
 10
364.55
 20
456.5
 30
0.0
 11
364.55
 21
450.0
 31
0.0
  0
ARC
  5
1221B
330
11EAB
100
AcDbEntity
  8
1
  6
Continuous
100
AcDbCircle
 10
370.914214
 20
452.0
 30
0.0
 40
1.0
100
AcDbArc
 50
225.0
 51
270.0
  0
LINE
  5
1221C
330
11EAB
100
AcDbEntity
  8
1
  6
Continuous
100
AcDbLine
 10
370.0
 20
448.0
 30
0.0
 11
370.0
 21
451.0
 31
0.0
  0
LINE
  5
1221D
330
11EAB
100
AcDbEntity
  8
1
  6
Continuous
100
AcDbLine
 10
386.0201059999998
 20
448.5
 30
0.0
 11
382.0
 21
448.5
 31
0.0
  0
ARC
  5
1221E
330
11EAB
100
AcDbEntity
  8
1
  6
Continuous
100
AcDbCircle
 10
381.085786
 20
452.0
 30
0.0
 40
1.0
100
AcDbArc
 50
270.0
 51
315.0
  0
LINE
  5
1221F
330
11EAB
100
AcDbEntity
  8
1
  6
Continuous
100
AcDbLine
 10
381.7928929999998
 20
451.292893
 30
0.0
 11
382.5
 21
452.0
 31
0.0
  0
LINE
  5
12220
330
11EAB
100
AcDbEntity
  8
1
  6
Continuous
100
AcDbLine
 10
382.0
 20
448.0
 30
0.0
 11
382.0
 21
451.0
 31
0.0
  0
LINE
  5
12221
330
11EAB
100
AcDbEntity
  8
1
  6
Continuous
100
AcDbLine
 10
382.78233
 20
448.5
 30
0.0
 11
382.78233
 21
448.0
 31
0.0
  0
LINE
  5
12222
330
11EAB
100
AcDbEntity
  8
4
  6
CENTER
100
AcDbLine
 10
390.0
 20
456.5
 30
0.0
 11
390.0
 21
450.0
 31
0.0
  0
LINE
  5
12223
330
11EAB
100
AcDbEntity
  8
1
  6
Continuous
100
AcDbLine
 10
386.0201059999998
 20
448.5
 30
0.0
 11
386.0201059999998
 21
448.0
 31
0.0
  0
LINE
  5
12224
330
11EAB
100
AcDbEntity
  8
3
  6
DASHED
100
AcDbLine
 10
409.4999999999997
 20
449.0
 30
0.0
 11
430.0
 21
449.0
 31
0.0
  0
LINE
  5
12225
330
11EAB
100
AcDbEntity
  8
4
  6
CENTER
100
AcDbLine
 10
415.0
 20
456.5
 30
0.0
 11
415.0
 21
450.0
 31
0.0
  0
LINE
  5
12226
330
11EAB
100
AcDbEntity
  8
4
  6
CENTER
100
AcDbLine
 10
425.0
 20
456.5
 30
0.0
 11
425.0
 21
450.0
 31
0.0
  0
LINE
  5
12227
330
11EAB
100
AcDbEntity
  8
3
  6
DASHED
100
AcDbLine
 10
453.5
 20
450.4999999999998
 30
0.0
 11
453.5
 21
444.0
 31
0.0
  0
LINE
  5
12228
330
11EAB
100
AcDbEntity
  8
3
  6
DASHED
100
AcDbLine
 10
455.0
 20
450.4999999999998
 30
0.0
 11
455.0
 21
444.0
 31
0.0
  0
LINE
  5
12229
330
11EAB
100
AcDbEntity
  8
1
  6
Continuous
100
AcDbLine
 10
435.0
 20
444.0
 30
0.0
 11
435.0
 21
443.5
 31
0.0
  0
LINE
  5
1222A
330
11EAB
100
AcDbEntity
  8
1
  6
Continuous
100
AcDbLine
 10
447.0
 20
444.0
 30
0.0
 11
447.0
 21
443.5
 31
0.0
  0
LINE
  5
1222B
330
11EAB
100
AcDbEntity
  8
4
  6
CENTER
100
AcDbLine
 10
441.0
 20
457.6235419999998
 30
0.0
 11
441.0
 21
437.1560739999998
 31
0.0
  0
LINE
  5
1222C
330
11EAB
100
AcDbEntity
  8
1
  6
Continuous
100
AcDbLine
 10
447.0
 20
443.5
 30
0.0
 11
435.0
 21
443.5
 31
0.0
  0
LINE
  5
1222D
330
11EAB
100
AcDbEntity
  8
1
  6
Continuous
100
AcDbLine
 10
435.207107
 20
443.207107
 30
0.0
 11
434.4999999999997
 21
442.4999999999998
 31
0.0
  0
ARC
  5
1222E
330
11EAB
100
AcDbEntity
  8
1
  6
Continuous
100
AcDbCircle
 10
435.9142139999998
 20
442.4999999999998
 30
0.0
 40
1.0
100
AcDbArc
 50
90.0
 51
135.0
  0
LINE
  5
1222F
330
11EAB
100
AcDbEntity
  8
1
  6
Continuous
100
AcDbLine
 10
446.792893
 20
443.207107
 30
0.0
 11
447.5
 21
442.4999999999998
 31
0.0
  0
ARC
  5
12230
330
11EAB
100
AcDbEntity
  8
1
  6
Continuous
100
AcDbCircle
 10
446.0857859999999
 20
442.4999999999998
 30
0.0
 40
1.0
100
AcDbArc
 50
45.0
 51
90.0
  0
ARC
  5
12231
330
11EAB
100
AcDbEntity
  8
1
  6
Continuous
100
AcDbCircle
 10
453.5
 20
442.4999999999998
 30
0.0
 40
1.5
100
AcDbArc
 50
270.0
 51
0.0
  0
LINE
  5
12232
330
11EAB
100
AcDbEntity
  8
1
  6
Continuous
100
AcDbLine
 10
453.5
 20
444.0
 30
0.0
 11
453.5
 21
442.4999999999998
 31
0.0
  0
LINE
  5
12233
330
11EAB
100
AcDbEntity
  8
1
  6
Continuous
100
AcDbLine
 10
455.0
 20
444.0
 30
0.0
 11
455.0
 21
442.4999999999998
 31
0.0
  0
LINE
  5
12234
330
11EAB
100
AcDbEntity
  8
3
  6
DASHED
100
AcDbLine
 10
447.0
 20
445.0
 30
0.0
 11
435.0
 21
445.0
 31
0.0
  0
LINE
  5
12235
330
11EAB
100
AcDbEntity
  8
3
  6
DASHED
100
AcDbLine
 10
435.0
 20
446.4999999999998
 30
0.0
 11
435.0
 21
444.0
 31
0.0
  0
LINE
  5
12236
330
11EAB
100
AcDbEntity
  8
3
  6
DASHED
100
AcDbLine
 10
447.0
 20
446.4999999999998
 30
0.0
 11
447.0
 21
444.0
 31
0.0
  0
LINE
  5
12237
330
11EAB
100
AcDbEntity
  8
3
  6
DASHED
100
AcDbLine
 10
455.0
 20
450.4999999999998
 30
0.0
 11
453.5
 21
450.4999999999998
 31
0.0
  0
LINE
  5
12238
330
11EAB
100
AcDbEntity
  8
3
  6
DASHED
100
AcDbLine
 10
452.0
 20
446.4999999999998
 30
0.0
 11
452.0
 21
451.4999999999998
 31
0.0
  0
LINE
  5
12239
330
11EAB
100
AcDbEntity
  8
4
  6
CENTER
100
AcDbLine
 10
506.5
 20
456.5
 30
0.0
 11
506.5
 21
450.0
 31
0.0
  0
LINE
  5
1223A
330
11EAB
100
AcDbEntity
  8
1
  6
Continuous
100
AcDbLine
 10
662.0
 20
452.0
 30
0.0
 11
662.0
 21
445.5
 31
0.0
  0
LINE
  5
1223B
330
11EAB
100
AcDbEntity
  8
1
  6
Continuous
100
AcDbLine
 10
705.0
 20
453.5
 30
0.0
 11
705.0
 21
444.0
 31
0.0
  0
LINE
  5
1223C
330
11EAB
100
AcDbEntity
  8
4
  6
CENTER
100
AcDbLine
 10
680.0
 20
456.5
 30
0.0
 11
680.0
 21
450.0
 31
0.0
  0
LINE
  5
1223D
330
11EAB
100
AcDbEntity
  8
1
  6
Continuous
100
AcDbLine
 10
690.0
 20
448.4392169999998
 30
0.0
 11
690.0
 21
444.80161
 31
0.0
  0
LINE
  5
1223E
330
11EAB
100
AcDbEntity
  8
4
  6
CENTER
100
AcDbLine
 10
690.0
 20
456.5
 30
0.0
 11
690.0
 21
450.0
 31
0.0
  0
ARC
  5
1223F
330
11EAB
100
AcDbEntity
  8
1
  6
Continuous
100
AcDbCircle
 10
453.0
 20
145.5
 30
0.0
 40
2.0
100
AcDbArc
 50
0.0
 51
90.0
  0
ARC
  5
12240
330
11EAB
100
AcDbEntity
  8
1
  6
Continuous
100
AcDbCircle
 10
447.763932
 20
125.5
 30
0.0
 40
2.0
100
AcDbArc
 50
270.0
 51
333.434949
  0
ARC
  5
12241
330
11EAB
100
AcDbEntity
  8
1
  6
Continuous
100
AcDbCircle
 10
361.0
 20
149.0
 30
0.0
 40
2.0
100
AcDbArc
 50
90.0
 51
180.0
  0
ARC
  5
12242
330
11EAB
100
AcDbEntity
  8
1
  6
Continuous
100
AcDbCircle
 10
362.5
 20
549.0
 30
0.0
 40
2.0
100
AcDbArc
 50
90.0
 51
180.0
  0
ARC
  5
12243
330
11EAB
100
AcDbEntity
  8
1
  6
Continuous
100
AcDbCircle
 10
362.5
 20
705.4999999999997
 30
0.0
 40
2.0
100
AcDbArc
 50
180.0
 51
270.0
  0
LINE
  5
12244
330
11EAB
100
AcDbEntity
  8
1
  6
Continuous
100
AcDbLine
 10
662.066831
 20
126.5
 30
0.0
 11
450.4999999999998
 21
126.5
 31
0.0
  0
LINE
  5
12245
330
11EAB
100
AcDbEntity
  8
1
  6
Continuous
100
AcDbLine
 10
690.066831
 20
124.0
 30
0.0
 11
662.066831
 21
126.5
 31
0.0
  0
LINE
  5
12246
330
11EAB
100
AcDbEntity
  8
1
  6
Continuous
100
AcDbLine
 10
705.0
 20
124.0
 30
0.0
 11
690.066831
 21
124.0
 31
0.0
  0
ARC
  5
12247
330
11EAB
100
AcDbEntity
  8
3
  6
DASHED
100
AcDbCircle
 10
361.0
 20
127.0
 30
0.0
 40
2.0
100
AcDbArc
 50
180.0
 51
270.0
  0
LINE
  5
12248
330
11EAB
100
AcDbEntity
  8
1
  6
Continuous
100
AcDbLine
 10
109.0
 20
306.0
 30
0.0
 11
126.9354649999998
 21
306.0
 31
0.0
  0
LINE
  5
12249
330
11EAB
100
AcDbEntity
  8
1
  6
Continuous
100
AcDbLine
 10
155.9354649999999
 20
308.4999999999999
 30
0.0
 11
126.9354649999998
 21
306.0
 31
0.0
  0
LINE
  5
1224A
330
11EAB
100
AcDbEntity
  8
1
  6
Continuous
100
AcDbLine
 10
359.0
 20
308.4999999999999
 30
0.0
 11
155.9354649999999
 21
308.4999999999999
 31
0.0
  0
LINE
  5
1224B
330
11EAB
100
AcDbEntity
  8
3
  6
DASHED
100
AcDbLine
 10
379.544554
 20
308.4999999999999
 30
0.0
 11
359.0
 21
308.4999999999999
 31
0.0
  0
LINE
  5
1224C
330
11EAB
100
AcDbEntity
  8
3
  6
DASHED
100
AcDbLine
 10
383.4698299999999
 20
308.4999999999999
 30
0.0
 11
382.0948299999998
 21
308.4999999999999
 31
0.0
  0
ARC
  5
1224D
330
11EAB
100
AcDbEntity
  8
1
  6
Continuous
100
AcDbCircle
 10
361.0
 20
305.5
 30
0.0
 40
2.0
100
AcDbArc
 50
180.0
 51
270.0
  0
ARC
  5
1224E
330
11EAB
100
AcDbEntity
  8
1
  6
Continuous
100
AcDbCircle
 10
361.0
 20
327.4999999999999
 30
0.0
 40
2.0
100
AcDbArc
 50
90.0
 51
180.0
  0
LINE
  5
1224F
330
11EAB
100
AcDbEntity
  8
1
  6
Continuous
100
AcDbLine
 10
449.552786
 20
329.894427
 30
0.0
 11
449.75
 21
329.4999999999999
 31
0.0
  0
ARC
  5
12250
330
11EAB
100
AcDbEntity
  8
1
  6
Continuous
100
AcDbCircle
 10
447.763932
 20
329.0
 30
0.0
 40
2.0
100
AcDbArc
 50
26.565051
 51
90.0
  0
LINE
  5
12251
330
11EAB
100
AcDbEntity
  8
3
  6
DASHED
100
AcDbLine
 10
455.0
 20
319.0
 30
0.0
 11
455.0
 21
309.0
 31
0.0
  0
ARC
  5
12252
330
11EAB
100
AcDbEntity
  8
3
  6
DASHED
100
AcDbCircle
 10
453.0
 20
309.0
 30
0.0
 40
2.0
100
AcDbArc
 50
270.0
 51
0.0
  0
ARC
  5
12253
330
11EAB
100
AcDbEntity
  8
1
  6
Continuous
100
AcDbCircle
 10
411.5
 20
47.0
 30
0.0
 40
2.0
100
AcDbArc
 50
90.0
 51
180.0
  0
ARC
  5
12254
330
11EAB
100
AcDbEntity
  8
3
  6
DASHED
100
AcDbCircle
 10
428.0
 20
47.5
 30
0.0
 40
2.0
100
AcDbArc
 50
270.0
 51
0.0
  0
LINE
  5
12255
330
11EAB
100
AcDbEntity
  8
1
  6
Continuous
100
AcDbLine
 10
33.0
 20
122.5
 30
0.0
 11
33.0
 21
124.0
 31
0.0
  0
LINE
  5
12256
330
11EAB
100
AcDbEntity
  8
1
  6
Continuous
100
AcDbLine
 10
26.5
 20
122.5
 30
0.0
 11
33.0
 21
122.5
 31
0.0
  0
LINE
  5
12257
330
11EAB
100
AcDbEntity
  8
1
  6
Continuous
100
AcDbLine
 10
26.5
 20
126.5
 30
0.0
 11
30.5
 21
126.5
 31
0.0
  0
LINE
  5
12258
330
11EAB
100
AcDbEntity
  8
1
  6
Continuous
100
AcDbLine
 10
35.5
 20
124.0
 30
0.0
 11
30.5
 21
124.0
 31
0.0
  0
LINE
  5
12259
330
11EAB
100
AcDbEntity
  8
1
  6
Continuous
100
AcDbLine
 10
35.5
 20
124.0
 30
0.0
 11
35.5
 21
146.0
 31
0.0
  0
LINE
  5
1225A
330
11EAB
100
AcDbEntity
  8
1
  6
Continuous
100
AcDbLine
 10
30.5
 20
124.0
 30
0.0
 11
30.5
 21
146.0
 31
0.0
  0
LINE
  5
1225B
330
11EAB
100
AcDbEntity
  8
1
  6
Continuous
100
AcDbLine
 10
29.0
 20
129.0
 30
0.0
 11
29.0
 21
141.0
 31
0.0
  0
LINE
  5
1225C
330
11EAB
100
AcDbEntity
  8
1
  6
Continuous
100
AcDbLine
 10
27.5
 20
129.0
 30
0.0
 11
27.5
 21
141.0
 31
0.0
  0
LINE
  5
1225D
330
11EAB
100
AcDbEntity
  8
1
  6
Continuous
100
AcDbLine
 10
30.5
 20
141.0
 30
0.0
 11
27.5
 21
141.0
 31
0.0
  0
ARC
  5
1225E
330
11EAB
100
AcDbEntity
  8
1
  6
Continuous
100
AcDbCircle
 10
26.5
 20
140.085786
 30
0.0
 40
1.0
100
AcDbArc
 50
0.0
 51
45.0
  0
LINE
  5
1225F
330
11EAB
100
AcDbEntity
  8
1
  6
Continuous
100
AcDbLine
 10
27.207107
 20
140.7928929999999
 30
0.0
 11
26.5
 21
141.5
 31
0.0
  0
LINE
  5
12260
330
11EAB
100
AcDbEntity
  8
1
  6
Continuous
100
AcDbLine
 10
30.5
 20
129.0
 30
0.0
 11
27.5
 21
129.0
 31
0.0
  0
LINE
  5
12261
330
11EAB
100
AcDbEntity
  8
1
  6
Continuous
100
AcDbLine
 10
27.207107
 20
129.207107
 30
0.0
 11
26.5
 21
128.4999999999998
 31
0.0
  0
ARC
  5
12262
330
11EAB
100
AcDbEntity
  8
1
  6
Continuous
100
AcDbCircle
 10
26.5
 20
129.9142139999998
 30
0.0
 40
1.0
100
AcDbArc
 50
315.0
 51
0.0
  0
LINE
  5
12263
330
11EAB
100
AcDbEntity
  8
1
  6
Continuous
100
AcDbLine
 10
27.0
 20
141.0
 30
0.0
 11
27.0
 21
148.5
 31
0.0
  0
LINE
  5
12264
330
11EAB
100
AcDbEntity
  8
1
  6
Continuous
100
AcDbLine
 10
779.4999999999999
 20
122.5
 30
0.0
 11
779.4999999999999
 21
126.5
 31
0.0
  0
LINE
  5
12265
330
11EAB
100
AcDbEntity
  8
1
  6
Continuous
100
AcDbLine
 10
786.0
 20
124.0
 30
0.0
 11
786.0
 21
149.5
 31
0.0
  0
ARC
  5
12266
330
11EAB
100
AcDbEntity
  8
1
  6
Continuous
100
AcDbCircle
 10
786.0
 20
124.0
 30
0.0
 40
1.5
100
AcDbArc
 50
270.0
 51
0.0
  0
LINE
  5
12267
330
11EAB
100
AcDbEntity
  8
1
  6
Continuous
100
AcDbLine
 10
786.0
 20
122.5
 30
0.0
 11
779.4999999999999
 21
122.5
 31
0.0
  0
LINE
  5
12268
330
11EAB
100
AcDbEntity
  8
4
  6
CENTER
100
AcDbLine
 10
773.4466719999996
 20
135.0
 30
0.0
 11
792.4999999999998
 21
135.0
 31
0.0
  0
LINE
  5
12269
330
11EAB
100
AcDbEntity
  8
1
  6
Continuous
100
AcDbLine
 10
783.0
 20
148.5
 30
0.0
 11
783.0
 21
150.0
 31
0.0
  0
LINE
  5
1226A
330
11EAB
100
AcDbEntity
  8
1
  6
Continuous
100
AcDbLine
 10
777.0
 20
124.0
 30
0.0
 11
782.0
 21
124.0
 31
0.0
  0
LINE
  5
1226B
330
11EAB
100
AcDbEntity
  8
1
  6
Continuous
100
AcDbLine
 10
783.0
 20
149.5
 30
0.0
 11
786.0
 21
149.5
 31
0.0
  0
LINE
  5
1226C
330
11EAB
100
AcDbEntity
  8
1
  6
Continuous
100
AcDbLine
 10
787.5
 20
124.0
 30
0.0
 11
787.5
 21
151.0
 31
0.0
  0
LINE
  5
1226D
330
11EAB
100
AcDbEntity
  8
1
  6
Continuous
100
AcDbLine
 10
776.5
 20
123.5
 30
0.0
 11
776.5
 21
147.5
 31
0.0
  0
LINE
  5
1226E
330
11EAB
100
AcDbEntity
  8
1
  6
Continuous
100
AcDbLine
 10
775.0
 20
123.5
 30
0.0
 11
775.0
 21
148.5
 31
0.0
  0
LINE
  5
1226F
330
11EAB
100
AcDbEntity
  8
1
  6
Continuous
100
AcDbLine
 10
775.0
 20
123.5
 30
0.0
 11
776.5
 21
123.5
 31
0.0
  0
LINE
  5
12270
330
11EAB
100
AcDbEntity
  8
1
  6
Continuous
100
AcDbLine
 10
776.5
 20
146.0
 30
0.0
 11
780.5
 21
146.0
 31
0.0
  0
LINE
  5
12271
330
11EAB
100
AcDbEntity
  8
1
  6
Continuous
100
AcDbLine
 10
783.0
 20
150.0
 30
0.0
 11
776.5
 21
150.0
 31
0.0
  0
LINE
  5
12272
330
11EAB
100
AcDbEntity
  8
1
  6
Continuous
100
AcDbLine
 10
779.4999999999999
 20
151.0
 30
0.0
 11
787.5
 21
151.0
 31
0.0
  0
ARC
  5
12273
330
11EAB
100
AcDbEntity
  8
1
  6
Continuous
100
AcDbCircle
 10
776.5
 20
148.5
 30
0.0
 40
1.5
100
AcDbArc
 50
90.0
 51
180.0
  0
LINE
  5
12274
330
11EAB
100
AcDbEntity
  8
1
  6
Continuous
100
AcDbLine
 10
779.4999999999999
 20
150.0
 30
0.0
 11
779.4999999999999
 21
151.0
 31
0.0
  0
LINE
  5
12275
330
11EAB
100
AcDbEntity
  8
4
  6
CENTER
100
AcDbLine
 10
770.8563789999997
 20
137.5
 30
0.0
 11
788.6505239999997
 21
137.5
 31
0.0
  0
LINE
  5
12276
330
11EAB
100
AcDbEntity
  8
1
  6
Continuous
100
AcDbLine
 10
786.0
 20
124.0
 30
0.0
 11
779.4999999999999
 21
124.0
 31
0.0
  0
ARC
  5
12277
330
11EAB
100
AcDbEntity
  8
1
  6
Continuous
100
AcDbCircle
 10
786.0
 20
149.5
 30
0.0
 40
1.5
100
AcDbArc
 50
0.0
 51
90.0
  0
LINE
  5
12278
330
11EAB
100
AcDbEntity
  8
1
  6
Continuous
100
AcDbLine
 10
775.0
 20
147.5
 30
0.0
 11
780.5
 21
147.5
 31
0.0
  0
LINE
  5
12279
330
11EAB
100
AcDbEntity
  8
1
  6
Continuous
100
AcDbLine
 10
779.0
 20
143.5
 30
0.0
 11
779.0
 21
131.4999999999998
 31
0.0
  0
ARC
  5
1227A
330
11EAB
100
AcDbEntity
  8
1
  6
Continuous
100
AcDbCircle
 10
776.5
 20
142.585786
 30
0.0
 40
1.0
100
AcDbArc
 50
0.0
 51
45.0
  0
LINE
  5
1227B
330
11EAB
100
AcDbEntity
  8
1
  6
Continuous
100
AcDbLine
 10
777.2071069999997
 20
143.2928929999999
 30
0.0
 11
776.5
 21
144.0
 31
0.0
  0
LINE
  5
1227C
330
11EAB
100
AcDbEntity
  8
1
  6
Continuous
100
AcDbLine
 10
777.2071069999997
 20
131.707107
 30
0.0
 11
776.5
 21
131.0
 31
0.0
  0
ARC
  5
1227D
330
11EAB
100
AcDbEntity
  8
1
  6
Continuous
100
AcDbCircle
 10
776.5
 20
132.4142139999999
 30
0.0
 40
1.0
100
AcDbArc
 50
315.0
 51
0.0
  0
LINE
  5
1227E
330
11EAB
100
AcDbEntity
  8
1
  6
Continuous
100
AcDbLine
 10
777.5
 20
143.5
 30
0.0
 11
777.5
 21
131.4999999999998
 31
0.0
  0
LINE
  5
1227F
330
11EAB
100
AcDbEntity
  8
1
  6
Continuous
100
AcDbLine
 10
780.5
 20
143.5
 30
0.0
 11
777.5
 21
143.5
 31
0.0
  0
LINE
  5
12280
330
11EAB
100
AcDbEntity
  8
1
  6
Continuous
100
AcDbLine
 10
780.5
 20
131.4999999999998
 30
0.0
 11
777.5
 21
131.4999999999998
 31
0.0
  0
LINE
  5
12281
330
11EAB
100
AcDbEntity
  8
1
  6
Continuous
100
AcDbLine
 10
780.5
 20
148.5
 30
0.0
 11
780.5
 21
126.5
 31
0.0
  0
LINE
  5
12282
330
11EAB
100
AcDbEntity
  8
1
  6
Continuous
100
AcDbLine
 10
785.5
 20
148.5
 30
0.0
 11
780.5
 21
148.5
 31
0.0
  0
LINE
  5
12283
330
11EAB
100
AcDbEntity
  8
1
  6
Continuous
100
AcDbLine
 10
785.5
 20
148.5
 30
0.0
 11
785.5
 21
146.202494
 31
0.0
  0
LINE
  5
12284
330
11EAB
100
AcDbEntity
  8
1
  6
Continuous
100
AcDbLine
 10
786.0
 20
126.5
 30
0.0
 11
779.4999999999999
 21
126.5
 31
0.0
  0
LINE
  5
12285
330
11EAB
100
AcDbEntity
  8
1
  6
Continuous
100
AcDbLine
 10
786.0
 20
146.202494
 30
0.0
 11
780.5
 21
146.202494
 31
0.0
  0
LINE
  5
12286
330
11EAB
100
AcDbEntity
  8
1
  6
Continuous
100
AcDbLine
 10
786.0
 20
140.54564
 30
0.0
 11
780.5
 21
140.54564
 31
0.0
  0
LINE
  5
12287
330
11EAB
100
AcDbEntity
  8
1
  6
Continuous
100
AcDbLine
 10
786.0
 20
139.8801629999999
 30
0.0
 11
780.5
 21
139.8801629999999
 31
0.0
  0
LINE
  5
12288
330
11EAB
100
AcDbEntity
  8
1
  6
Continuous
100
AcDbLine
 10
785.5
 20
139.8801629999999
 30
0.0
 11
785.5
 21
126.5
 31
0.0
  0
LINE
  5
12289
330
11EAB
100
AcDbEntity
  8
1
  6
Continuous
100
AcDbLine
 10
786.0
 20
135.0
 30
0.0
 11
787.5
 21
135.0
 31
0.0
  0
LINE
  5
1228A
330
11EAB
100
AcDbEntity
  8
1
  6
Continuous
100
AcDbLine
 10
787.5
 20
128.4999999999998
 30
0.0
 11
786.0
 21
128.4999999999998
 31
0.0
  0
LINE
  5
1228B
330
11EAB
100
AcDbEntity
  8
1
  6
Continuous
100
AcDbLine
 10
777.0
 20
143.5
 30
0.0
 11
777.0
 21
146.0
 31
0.0
  0
LINE
  5
1228C
330
11EAB
100
AcDbEntity
  8
1
  6
Continuous
100
AcDbLine
 10
777.0
 20
124.0
 30
0.0
 11
777.0
 21
131.4999999999998
 31
0.0
  0
LINE
  5
1228D
330
11EAB
100
AcDbEntity
  8
1
  6
Continuous
100
AcDbLine
 10
700.0
 20
522.5
 30
0.0
 11
700.0
 21
525.4999999999999
 31
0.0
  0
LINE
  5
1228E
330
11EAB
100
AcDbEntity
  8
1
  6
Continuous
100
AcDbLine
 10
673.5
 20
523.973214
 30
0.0
 11
673.5
 21
525.4999999999999
 31
0.0
  0
LINE
  5
1228F
330
11EAB
100
AcDbEntity
  8
1
  6
Continuous
100
AcDbLine
 10
700.0
 20
524.0
 30
0.0
 11
690.0
 21
524.0
 31
0.0
  0
LINE
  5
12290
330
11EAB
100
AcDbEntity
  8
1
  6
Continuous
100
AcDbLine
 10
690.1333980000003
 20
523.9940569999999
 30
0.0
 11
673.5
 21
525.4791809999998
 31
0.0
  0
LINE
  5
12291
330
11EAB
100
AcDbEntity
  8
1
  6
Continuous
100
AcDbLine
 10
698.5
 20
527.0
 30
0.0
 11
675.0
 21
527.0
 31
0.0
  0
ARC
  5
12292
330
11EAB
100
AcDbEntity
  8
1
  6
Continuous
100
AcDbCircle
 10
698.5
 20
525.4999999999999
 30
0.0
 40
1.5
100
AcDbArc
 50
0.0
 51
90.0
  0
ARC
  5
12293
330
11EAB
100
AcDbEntity
  8
1
  6
Continuous
100
AcDbCircle
 10
675.0
 20
525.4999999999999
 30
0.0
 40
1.5
100
AcDbArc
 50
90.0
 51
180.0
  0
LINE
  5
12294
330
11EAB
100
AcDbEntity
  8
1
  6
Continuous
100
AcDbLine
 10
673.5
 20
450.4999999999998
 30
0.0
 11
673.5
 21
453.5
 31
0.0
  0
LINE
  5
12295
330
11EAB
100
AcDbEntity
  8
1
  6
Continuous
100
AcDbLine
 10
700.0
 20
450.4999999999998
 30
0.0
 11
700.0
 21
453.5
 31
0.0
  0
LINE
  5
12296
330
11EAB
100
AcDbEntity
  8
1
  6
Continuous
100
AcDbLine
 10
700.0
 20
452.0
 30
0.0
 11
673.5
 21
452.0
 31
0.0
  0
LINE
  5
12297
330
11EAB
100
AcDbEntity
  8
1
  6
Continuous
100
AcDbLine
 10
698.5
 20
449.0
 30
0.0
 11
675.0
 21
449.0
 31
0.0
  0
ARC
  5
12298
330
11EAB
100
AcDbEntity
  8
1
  6
Continuous
100
AcDbCircle
 10
698.5
 20
450.4999999999998
 30
0.0
 40
1.5
100
AcDbArc
 50
270.0
 51
0.0
  0
ARC
  5
12299
330
11EAB
100
AcDbEntity
  8
1
  6
Continuous
100
AcDbCircle
 10
675.0
 20
450.4999999999998
 30
0.0
 40
1.5
100
AcDbArc
 50
180.0
 51
270.0
  0
LINE
  5
1229A
330
11EAB
100
AcDbEntity
  8
1
  6
Continuous
100
AcDbLine
 10
690.1333980000003
 20
330.505943
 30
0.0
 11
673.5
 21
329.020819
 31
0.0
  0
LINE
  5
1229B
330
11EAB
100
AcDbEntity
  8
1
  6
Continuous
100
AcDbLine
 10
698.5
 20
327.4999999999999
 30
0.0
 11
675.0
 21
327.4999999999999
 31
0.0
  0
LINE
  5
1229C
330
11EAB
100
AcDbEntity
  8
1
  6
Continuous
100
AcDbLine
 10
673.5
 20
330.5267859999998
 30
0.0
 11
673.5
 21
329.0
 31
0.0
  0
ARC
  5
1229D
330
11EAB
100
AcDbEntity
  8
1
  6
Continuous
100
AcDbCircle
 10
675.0
 20
329.0
 30
0.0
 40
1.5
100
AcDbArc
 50
180.0
 51
270.0
  0
LINE
  5
1229E
330
11EAB
100
AcDbEntity
  8
1
  6
Continuous
100
AcDbLine
 10
700.0
 20
332.0
 30
0.0
 11
700.0
 21
329.0
 31
0.0
  0
LINE
  5
1229F
330
11EAB
100
AcDbEntity
  8
1
  6
Continuous
100
AcDbLine
 10
700.0
 20
330.5
 30
0.0
 11
690.0
 21
330.5
 31
0.0
  0
ARC
  5
122A0
330
11EAB
100
AcDbEntity
  8
1
  6
Continuous
100
AcDbCircle
 10
698.5
 20
329.0
 30
0.0
 40
1.5
100
AcDbArc
 50
270.0
 51
0.0
  0
LINE
  5
122A1
330
11EAB
100
AcDbEntity
  8
1
  6
Continuous
100
AcDbLine
 10
698.5
 20
127.0
 30
0.0
 11
675.0
 21
127.0
 31
0.0
  0
ARC
  5
122A2
330
11EAB
100
AcDbEntity
  8
1
  6
Continuous
100
AcDbCircle
 10
675.0
 20
125.5
 30
0.0
 40
1.5
100
AcDbArc
 50
90.0
 51
180.0
  0
LINE
  5
122A3
330
11EAB
100
AcDbEntity
  8
1
  6
Continuous
100
AcDbLine
 10
673.5
 20
125.479181
 30
0.0
 11
673.5
 21
125.5
 31
0.0
  0
ARC
  5
122A4
330
11EAB
100
AcDbEntity
  8
1
  6
Continuous
100
AcDbCircle
 10
698.5
 20
125.5
 30
0.0
 40
1.5
100
AcDbArc
 50
0.0
 51
90.0
  0
LINE
  5
122A5
330
11EAB
100
AcDbEntity
  8
1
  6
Continuous
100
AcDbLine
 10
700.0
 20
124.0
 30
0.0
 11
700.0
 21
125.5
 31
0.0
  0
LINE
  5
122A6
330
11EAB
100
AcDbEntity
  8
1
  6
Continuous
100
AcDbLine
 10
700.0
 20
42.5
 30
0.0
 11
673.5
 21
42.5
 31
0.0
  0
LINE
  5
122A7
330
11EAB
100
AcDbEntity
  8
1
  6
Continuous
100
AcDbLine
 10
698.5
 20
45.49999999999999
 30
0.0
 11
675.0
 21
45.49999999999999
 31
0.0
  0
LINE
  5
122A8
330
11EAB
100
AcDbEntity
  8
1
  6
Continuous
100
AcDbLine
 10
673.5
 20
44.0
 30
0.0
 11
673.5
 21
41.0
 31
0.0
  0
ARC
  5
122A9
330
11EAB
100
AcDbEntity
  8
1
  6
Continuous
100
AcDbCircle
 10
675.0
 20
44.0
 30
0.0
 40
1.5
100
AcDbArc
 50
90.0
 51
180.0
  0
LINE
  5
122AA
330
11EAB
100
AcDbEntity
  8
1
  6
Continuous
100
AcDbLine
 10
700.0
 20
44.0
 30
0.0
 11
700.0
 21
41.0
 31
0.0
  0
ARC
  5
122AB
330
11EAB
100
AcDbEntity
  8
1
  6
Continuous
100
AcDbCircle
 10
698.5
 20
44.0
 30
0.0
 40
1.5
100
AcDbArc
 50
0.0
 51
90.0
  0
ARC
  5
122AC
330
11EAB
100
AcDbEntity
  8
1
  6
Continuous
100
AcDbCircle
 10
703.5
 20
47.5
 30
0.0
 40
1.5
100
AcDbArc
 50
0.0
 51
90.0
  0
LINE
  5
122AD
330
11EAB
100
AcDbEntity
  8
1
  6
Continuous
100
AcDbLine
 10
142.0
 20
308.0
 30
0.0
 11
115.5
 21
308.0
 31
0.0
  0
LINE
  5
122AE
330
11EAB
100
AcDbEntity
  8
1
  6
Continuous
100
AcDbLine
 10
114.0
 20
306.0
 30
0.0
 11
114.0
 21
306.4999999999999
 31
0.0
  0
ARC
  5
122AF
330
11EAB
100
AcDbEntity
  8
1
  6
Continuous
100
AcDbCircle
 10
115.5
 20
306.4999999999999
 30
0.0
 40
1.5
100
AcDbArc
 50
90.0
 51
180.0
  0
ARC
  5
122B0
330
11EAB
100
AcDbEntity
  8
1
  6
Continuous
100
AcDbCircle
 10
142.0
 20
306.4999999999999
 30
0.0
 40
1.5
100
AcDbArc
 50
36.964804
 51
90.0
  0
LINE
  5
122B1
330
11EAB
100
AcDbEntity
  8
5
  6
PHANTOM
100
AcDbLine
 10
697.627489
 20
521.0
 30
0.0
 11
361.0
 21
521.0
 31
0.0
  0
LINE
  5
122B2
330
11EAB
100
AcDbEntity
  8
5
  6
PHANTOM
100
AcDbLine
 10
678.5
 20
540.0
 30
0.0
 11
405.784882
 21
540.0
 31
0.0
  0
LINE
  5
122B3
330
11EAB
100
AcDbEntity
  8
5
  6
PHANTOM
100
AcDbLine
 10
680.0
 20
545.0
 30
0.0
 11
406.0
 21
545.0
 31
0.0
  0
ARC
  5
122B4
330
11EAB
100
AcDbEntity
  8
5
  6
PHANTOM
100
AcDbCircle
 10
385.0
 20
536.0
 30
0.0
 40
2.399999999999999
100
AcDbArc
 50
0.0
 51
180.0
  0
ARC
  5
122B5
330
11EAB
100
AcDbEntity
  8
5
  6
PHANTOM
100
AcDbCircle
 10
385.0
 20
534.0
 30
0.0
 40
2.399999999999999
100
AcDbArc
 50
180.0
 51
0.0
  0
ARC
  5
122B6
330
11EAB
100
AcDbEntity
  8
5
  6
PHANTOM
100
AcDbCircle
 10
385.0
 20
536.0
 30
0.0
 40
3.75
100
AcDbArc
 50
0.0
 51
180.0
  0
ARC
  5
122B7
330
11EAB
100
AcDbEntity
  8
5
  6
PHANTOM
100
AcDbCircle
 10
385.0
 20
534.0
 30
0.0
 40
3.75
100
AcDbArc
 50
180.0
 51
0.0
  0
LINE
  5
122B8
330
11EAB
100
AcDbEntity
  8
5
  6
PHANTOM
100
AcDbLine
 10
405.784882
 20
540.0
 30
0.0
 11
376.7848819999999
 21
542.4999999999998
 31
0.0
  0
LINE
  5
122B9
330
11EAB
100
AcDbEntity
  8
5
  6
PHANTOM
100
AcDbLine
 10
406.0
 20
545.0
 30
0.0
 11
377.0
 21
547.5
 31
0.0
  0
ARC
  5
122BA
330
11EAB
100
AcDbEntity
  8
5
  6
PHANTOM
100
AcDbCircle
 10
361.0
 20
523.0
 30
0.0
 40
2.0
100
AcDbArc
 50
180.0
 51
270.0
  0
LINE
  5
122BB
330
11EAB
100
AcDbEntity
  8
5
  6
PHANTOM
100
AcDbLine
 10
360.0671439999999
 20
541.1783709999999
 30
0.0
 11
367.5771409999999
 21
538.9149169999998
 31
0.0
  0
LINE
  5
122BC
330
11EAB
100
AcDbEntity
  8
5
  6
PHANTOM
100
AcDbLine
 10
360.4999999999998
 20
535.0
 30
0.0
 11
367.0
 21
535.0
 31
0.0
  0
LINE
  5
122BD
330
11EAB
100
AcDbEntity
  8
5
  6
PHANTOM
100
AcDbLine
 10
359.0
 20
547.5
 30
0.0
 11
359.0
 21
542.6145589999999
 31
0.0
  0
ARC
  5
122BE
330
11EAB
100
AcDbEntity
  8
5
  6
PHANTOM
100
AcDbCircle
 10
360.4999999999998
 20
544.0
 30
0.0
 40
1.5
100
AcDbArc
 50
180.0
 51
270.0
  0
ARC
  5
122BF
330
11EAB
100
AcDbEntity
  8
5
  6
PHANTOM
100
AcDbCircle
 10
360.4999999999998
 20
542.6145589999999
 30
0.0
 40
1.5
100
AcDbArc
 50
180.0
 51
253.2276069999999
  0
ARC
  5
122C0
330
11EAB
100
AcDbEntity
  8
5
  6
PHANTOM
100
AcDbCircle
 10
360.4999999999998
 20
533.4999999999999
 30
0.0
 40
1.5
100
AcDbArc
 50
90.0
 51
180.0
  0
LINE
  5
122C1
330
11EAB
100
AcDbEntity
  8
5
  6
PHANTOM
100
AcDbLine
 10
359.0
 20
525.0
 30
0.0
 11
359.0
 21
523.0
 31
0.0
  0
LINE
  5
122C2
330
11EAB
100
AcDbEntity
  8
5
  6
PHANTOM
100
AcDbLine
 10
382.6
 20
534.0
 30
0.0
 11
382.6
 21
536.0
 31
0.0
  0
LINE
  5
122C3
330
11EAB
100
AcDbEntity
  8
5
  6
PHANTOM
100
AcDbLine
 10
381.25
 20
534.0
 30
0.0
 11
381.25
 21
536.0
 31
0.0
  0
CIRCLE
  5
122C4
330
11EAB
100
AcDbEntity
  8
5
  6
PHANTOM
100
AcDbCircle
 10
375.0
 20
535.0
 30
0.0
 40
2.399999999999999
  0
ARC
  5
122C5
330
11EAB
100
AcDbEntity
  8
5
  6
PHANTOM
100
AcDbCircle
 10
367.0
 20
537.0
 30
0.0
 40
2.0
100
AcDbArc
 50
270.0
 51
73.22760699999998
  0
LINE
  5
122C6
330
11EAB
100
AcDbEntity
  8
4
  6
CENTER
100
AcDbLine
 10
375.0
 20
529.25
 30
0.0
 11
375.0
 21
540.7499999999998
 31
0.0
  0
CIRCLE
  5
122C7
330
11EAB
100
AcDbEntity
  8
5
  6
PHANTOM
100
AcDbCircle
 10
375.0
 20
535.0
 30
0.0
 40
3.75
  0
LINE
  5
122C8
330
11EAB
100
AcDbEntity
  8
5
  6
PHANTOM
100
AcDbLine
 10
388.75
 20
534.0
 30
0.0
 11
388.75
 21
536.0
 31
0.0
  0
LINE
  5
122C9
330
11EAB
100
AcDbEntity
  8
5
  6
PHANTOM
100
AcDbLine
 10
387.3999999999999
 20
534.0
 30
0.0
 11
387.3999999999999
 21
536.0
 31
0.0
  0
LINE
  5
122CA
330
11EAB
100
AcDbEntity
  8
4
  6
CENTER
100
AcDbLine
 10
385.0
 20
528.2499999999998
 30
0.0
 11
385.0
 21
541.75
 31
0.0
  0
ARC
  5
122CB
330
11EAB
100
AcDbEntity
  8
5
  6
PHANTOM
100
AcDbCircle
 10
701.5
 20
543.0
 30
0.0
 40
2.0
100
AcDbArc
 50
0.0
 51
90.0
  0
LINE
  5
122CC
330
11EAB
100
AcDbEntity
  8
5
  6
PHANTOM
100
AcDbLine
 10
703.691288
 20
529.0
 30
0.0
 11
702.083709
 21
529.0
 31
0.0
  0
LINE
  5
122CD
330
11EAB
100
AcDbEntity
  8
5
  6
PHANTOM
100
AcDbLine
 10
703.335541
 20
525.296756
 30
0.0
 11
701.06924
 21
526.3681839999998
 31
0.0
  0
LINE
  5
122CE
330
11EAB
100
AcDbEntity
  8
5
  6
PHANTOM
100
AcDbLine
 10
702.083709
 20
529.0
 30
0.0
 11
702.663502
 21
530.504144
 31
0.0
  0
LINE
  5
122CF
330
11EAB
100
AcDbEntity
  8
4
  6
CENTER
100
AcDbLine
 10
706.0
 20
535.0
 30
0.0
 11
659.25
 21
535.0
 31
0.0
  0
ARC
  5
122D0
330
11EAB
100
AcDbEntity
  8
5
  6
PHANTOM
100
AcDbCircle
 10
697.627489
 20
523.0
 30
0.0
 40
2.0
100
AcDbArc
 50
270.0
 51
338.920162
  0
LINE
  5
122D1
330
11EAB
100
AcDbEntity
  8
4
  6
CENTER
100
AcDbLine
 10
691.0
 20
520.0
 30
0.0
 11
691.0
 21
550.0
 31
0.0
  0
ARC
  5
122D2
330
11EAB
100
AcDbEntity
  8
5
  6
PHANTOM
100
AcDbCircle
 10
678.5
 20
541.5
 30
0.0
 40
1.5
100
AcDbArc
 50
270.0
 51
0.0
  0
LINE
  5
122D3
330
11EAB
100
AcDbEntity
  8
5
  6
PHANTOM
100
AcDbLine
 10
701.5
 20
545.0
 30
0.0
 11
685.5
 21
545.0
 31
0.0
  0
LINE
  5
122D4
330
11EAB
100
AcDbEntity
  8
5
  6
PHANTOM
100
AcDbLine
 10
699.5781950000001
 20
522.5
 30
0.0
 11
702.083709
 21
529.0
 31
0.0
  0
LINE
  5
122D5
330
11EAB
100
AcDbEntity
  8
5
  6
PHANTOM
100
AcDbLine
 10
699.493649
 20
522.280663
 30
0.0
 11
699.5781950000001
 21
522.5
 31
0.0
  0
LINE
  5
122D6
330
11EAB
100
AcDbEntity
  8
5
  6
PHANTOM
100
AcDbLine
 10
680.0
 20
541.5
 30
0.0
 11
680.0
 21
545.0
 31
0.0
  0
LINE
  5
122D7
330
11EAB
100
AcDbEntity
  8
5
  6
PHANTOM
100
AcDbLine
 10
681.5
 20
543.5
 30
0.0
 11
680.4999999999997
 21
543.5
 31
0.0
  0
LINE
  5
122D8
330
11EAB
100
AcDbEntity
  8
5
  6
PHANTOM
100
AcDbLine
 10
681.5
 20
543.5
 30
0.0
 11
685.5
 21
545.0
 31
0.0
  0
LINE
  5
122D9
330
11EAB
100
AcDbEntity
  8
5
  6
PHANTOM
100
AcDbLine
 10
705.0
 20
535.0
 30
0.0
 11
705.0
 21
536.5
 31
0.0
  0
ARC
  5
122DA
330
11EAB
100
AcDbEntity
  8
5
  6
PHANTOM
100
AcDbCircle
 10
691.0
 20
535.0
 30
0.0
 40
12.5
100
AcDbArc
 50
338.920162
 51
0.0
  0
LINE
  5
122DB
330
11EAB
100
AcDbEntity
  8
5
  6
PHANTOM
100
AcDbLine
 10
703.5
 20
535.0
 30
0.0
 11
703.5
 21
543.0
 31
0.0
  0
ARC
  5
122DC
330
11EAB
100
AcDbEntity
  8
5
  6
PHANTOM
100
AcDbCircle
 10
691.0
 20
535.0
 30
0.0
 40
14.0
100
AcDbArc
 50
338.920162
 51
0.0
  0
LINE
  5
122DD
330
11EAB
100
AcDbEntity
  8
5
  6
PHANTOM
100
AcDbLine
 10
705.0
 20
539.0
 30
0.0
 11
703.5
 21
539.0
 31
0.0
  0
LINE
  5
122DE
330
11EAB
100
AcDbEntity
  8
5
  6
PHANTOM
100
AcDbLine
 10
703.335541
 20
525.296756
 30
0.0
 11
704.597809
 21
528.5714289999998
 31
0.0
  0
LINE
  5
122DF
330
11EAB
100
AcDbEntity
  8
5
  6
PHANTOM
100
AcDbLine
 10
704.597809
 20
528.5714289999998
 30
0.0
 11
703.691288
 21
529.0
 31
0.0
  0
LINE
  5
122E0
330
11EAB
100
AcDbEntity
  8
5
  6
PHANTOM
100
AcDbLine
 10
703.691288
 20
529.0
 30
0.0
 11
704.063122
 21
529.964641
 31
0.0
  0
LINE
  5
122E1
330
11EAB
100
AcDbEntity
  8
5
  6
PHANTOM
100
AcDbLine
 10
697.7639319999998
 20
121.0
 30
0.0
 11
361.0
 21
121.0
 31
0.0
  0
LINE
  5
122E2
330
11EAB
100
AcDbEntity
  8
5
  6
PHANTOM
100
AcDbLine
 10
680.0
 20
145.0
 30
0.0
 11
406.0
 21
145.0
 31
0.0
  0
ARC
  5
122E3
330
11EAB
100
AcDbEntity
  8
5
  6
PHANTOM
100
AcDbCircle
 10
361.0
 20
123.0
 30
0.0
 40
2.0
100
AcDbArc
 50
180.0
 51
270.0
  0
ARC
  5
122E4
330
11EAB
100
AcDbEntity
  8
5
  6
PHANTOM
100
AcDbCircle
 10
385.0
 20
134.0
 30
0.0
 40
2.399999999999999
100
AcDbArc
 50
180.0
 51
0.0
  0
ARC
  5
122E5
330
11EAB
100
AcDbEntity
  8
5
  6
PHANTOM
100
AcDbCircle
 10
385.0
 20
136.0
 30
0.0
 40
2.399999999999999
100
AcDbArc
 50
0.0
 51
180.0
  0
LINE
  5
122E6
330
11EAB
100
AcDbEntity
  8
5
  6
PHANTOM
100
AcDbLine
 10
393.198508
 20
144.5980139999998
 30
0.0
 11
376.9354649999999
 21
146.0
 31
0.0
  0
LINE
  5
122E7
330
11EAB
100
AcDbEntity
  8
5
  6
PHANTOM
100
AcDbLine
 10
392.0
 20
144.0
 30
0.0
 11
365.5
 21
144.0
 31
0.0
  0
LINE
  5
122E8
330
11EAB
100
AcDbEntity
  8
5
  6
PHANTOM
100
AcDbLine
 10
406.0
 20
145.0
 30
0.0
 11
377.0
 21
147.5
 31
0.0
  0
LINE
  5
122E9
330
11EAB
100
AcDbEntity
  8
5
  6
PHANTOM
100
AcDbLine
 10
360.4999999999998
 20
135.0
 30
0.0
 11
367.0
 21
135.0
 31
0.0
  0
LINE
  5
122EA
330
11EAB
100
AcDbEntity
  8
5
  6
PHANTOM
100
AcDbLine
 10
360.0671439999999
 20
141.1783709999999
 30
0.0
 11
367.5771409999999
 21
138.914917
 31
0.0
  0
ARC
  5
122EB
330
11EAB
100
AcDbEntity
  8
5
  6
PHANTOM
100
AcDbCircle
 10
360.4999999999998
 20
133.4999999999998
 30
0.0
 40
1.5
100
AcDbArc
 50
90.0
 51
180.0
  0
ARC
  5
122EC
330
11EAB
100
AcDbEntity
  8
5
  6
PHANTOM
100
AcDbCircle
 10
360.4999999999998
 20
142.614559
 30
0.0
 40
1.5
100
AcDbArc
 50
180.0
 51
253.2276069999999
  0
LINE
  5
122ED
330
11EAB
100
AcDbEntity
  8
5
  6
PHANTOM
100
AcDbLine
 10
359.0
 20
127.0
 30
0.0
 11
359.0
 21
123.0
 31
0.0
  0
LINE
  5
122EE
330
11EAB
100
AcDbEntity
  8
5
  6
PHANTOM
100
AcDbLine
 10
382.6
 20
134.0
 30
0.0
 11
382.6
 21
136.0
 31
0.0
  0
ARC
  5
122EF
330
11EAB
100
AcDbEntity
  8
5
  6
PHANTOM
100
AcDbCircle
 10
367.0
 20
137.0
 30
0.0
 40
2.0
100
AcDbArc
 50
270.0
 51
73.22760699999998
  0
LINE
  5
122F0
330
11EAB
100
AcDbEntity
  8
4
  6
CENTER
100
AcDbLine
 10
375.0
 20
129.2499999999998
 30
0.0
 11
375.0
 21
140.7499999999998
 31
0.0
  0
CIRCLE
  5
122F1
330
11EAB
100
AcDbEntity
  8
5
  6
PHANTOM
100
AcDbCircle
 10
375.0
 20
135.0
 30
0.0
 40
2.399999999999999
  0
LINE
  5
122F2
330
11EAB
100
AcDbEntity
  8
5
  6
PHANTOM
100
AcDbLine
 10
364.0
 20
146.0
 30
0.0
 11
376.9354649999999
 21
146.0
 31
0.0
  0
ARC
  5
122F3
330
11EAB
100
AcDbEntity
  8
5
  6
PHANTOM
100
AcDbCircle
 10
365.5
 20
145.5
 30
0.0
 40
1.5
100
AcDbArc
 50
180.0
 51
270.0
  0
LINE
  5
122F4
330
11EAB
100
AcDbEntity
  8
5
  6
PHANTOM
100
AcDbLine
 10
364.0
 20
147.5
 30
0.0
 11
364.0
 21
145.5
 31
0.0
  0
ARC
  5
122F5
330
11EAB
100
AcDbEntity
  8
5
  6
PHANTOM
100
AcDbCircle
 10
392.0
 20
145.5
 30
0.0
 40
1.5
100
AcDbArc
 50
270.0
 51
0.0
  0
LINE
  5
122F6
330
11EAB
100
AcDbEntity
  8
5
  6
PHANTOM
100
AcDbLine
 10
393.5
 20
146.077586
 30
0.0
 11
393.5
 21
145.5
 31
0.0
  0
LINE
  5
122F7
330
11EAB
100
AcDbEntity
  8
4
  6
CENTER
100
AcDbLine
 10
385.0
 20
128.2499999999998
 30
0.0
 11
385.0
 21
141.7499999999998
 31
0.0
  0
LINE
  5
122F8
330
11EAB
100
AcDbEntity
  8
5
  6
PHANTOM
100
AcDbLine
 10
387.3999999999999
 20
134.0
 30
0.0
 11
387.3999999999999
 21
136.0
 31
0.0
  0
LINE
  5
122F9
330
11EAB
100
AcDbEntity
  8
4
  6
CENTER
100
AcDbLine
 10
691.0
 20
120.0
 30
0.0
 11
691.0
 21
150.0
 31
0.0
  0
LINE
  5
122FA
330
11EAB
100
AcDbEntity
  8
5
  6
PHANTOM
100
AcDbLine
 10
703.0
 20
145.0
 30
0.0
 11
685.0
 21
145.0
 31
0.0
  0
LINE
  5
122FB
330
11EAB
100
AcDbEntity
  8
5
  6
PHANTOM
100
AcDbLine
 10
699.5527860000001
 20
122.105573
 30
0.0
 11
705.0
 21
133.0
 31
0.0
  0
LINE
  5
122FC
330
11EAB
100
AcDbEntity
  8
4
  6
CENTER
100
AcDbLine
 10
706.0
 20
135.0
 30
0.0
 11
659.25
 21
135.0
 31
0.0
  0
LINE
  5
122FD
330
11EAB
100
AcDbEntity
  8
4
  6
CENTER
100
AcDbLine
 10
665.0
 20
128.2499999999998
 30
0.0
 11
665.0
 21
141.7499999999998
 31
0.0
  0
LINE
  5
122FE
330
11EAB
100
AcDbEntity
  8
4
  6
CENTER
100
AcDbLine
 10
675.0
 20
129.2499999999998
 30
0.0
 11
675.0
 21
140.7499999999998
 31
0.0
  0
LINE
  5
122FF
330
11EAB
100
AcDbEntity
  8
5
  6
PHANTOM
100
AcDbLine
 10
662.6
 20
134.0
 30
0.0
 11
662.6
 21
136.0
 31
0.0
  0
ARC
  5
12300
330
11EAB
100
AcDbEntity
  8
5
  6
PHANTOM
100
AcDbCircle
 10
665.0
 20
134.0
 30
0.0
 40
2.399999999999999
100
AcDbArc
 50
180.0
 51
0.0
  0
LINE
  5
12301
330
11EAB
100
AcDbEntity
  8
5
  6
PHANTOM
100
AcDbLine
 10
667.3999999999997
 20
134.0
 30
0.0
 11
667.3999999999997
 21
136.0
 31
0.0
  0
ARC
  5
12302
330
11EAB
100
AcDbEntity
  8
5
  6
PHANTOM
100
AcDbCircle
 10
665.0
 20
136.0
 30
0.0
 40
2.399999999999999
100
AcDbArc
 50
0.0
 51
180.0
  0
CIRCLE
  5
12303
330
11EAB
100
AcDbEntity
  8
5
  6
PHANTOM
100
AcDbCircle
 10
675.0
 20
135.0
 30
0.0
 40
2.399999999999999
  0
ARC
  5
12304
330
11EAB
100
AcDbEntity
  8
5
  6
PHANTOM
100
AcDbCircle
 10
697.7639319999998
 20
123.0
 30
0.0
 40
2.0
100
AcDbArc
 50
270.0
 51
333.434949
  0
LINE
  5
12305
330
11EAB
100
AcDbEntity
  8
5
  6
PHANTOM
100
AcDbLine
 10
681.0
 20
143.5
 30
0.0
 11
680.0
 21
143.5
 31
0.0
  0
LINE
  5
12306
330
11EAB
100
AcDbEntity
  8
5
  6
PHANTOM
100
AcDbLine
 10
680.0
 20
143.5
 30
0.0
 11
680.0
 21
145.0
 31
0.0
  0
LINE
  5
12307
330
11EAB
100
AcDbEntity
  8
5
  6
PHANTOM
100
AcDbLine
 10
681.0
 20
143.5
 30
0.0
 11
685.0
 21
145.0
 31
0.0
  0
CIRCLE
  5
12308
330
11EAB
100
AcDbEntity
  8
5
  6
PHANTOM
100
AcDbCircle
 10
691.0
 20
135.0
 30
0.0
 40
5.0
  0
CIRCLE
  5
12309
330
11EAB
100
AcDbEntity
  8
5
  6
PHANTOM
100
AcDbCircle
 10
691.0
 20
135.0
 30
0.0
 40
3.0
  0
ARC
  5
1230A
330
11EAB
100
AcDbEntity
  8
5
  6
PHANTOM
100
AcDbCircle
 10
691.0
 20
135.0
 30
0.0
 40
11.0
100
AcDbArc
 50
65.38002299999999
 51
114.619977
  0
ARC
  5
1230B
330
11EAB
100
AcDbEntity
  8
5
  6
PHANTOM
100
AcDbCircle
 10
691.0
 20
135.0
 30
0.0
 40
11.0
100
AcDbArc
 50
114.619977
 51
65.38002299999999
  0
ARC
  5
1230C
330
11EAB
100
AcDbEntity
  8
5
  6
PHANTOM
100
AcDbCircle
 10
703.0
 20
143.0
 30
0.0
 40
2.0
100
AcDbArc
 50
0.0
 51
90.0
  0
LINE
  5
1230D
330
11EAB
100
AcDbEntity
  8
5
  6
PHANTOM
100
AcDbLine
 10
705.0
 20
133.0
 30
0.0
 11
705.0
 21
136.4999999999998
 31
0.0
  0
CIRCLE
  5
1230E
330
11EAB
100
AcDbEntity
  8
5
  6
PHANTOM
100
AcDbCircle
 10
691.0
 20
535.0
 30
0.0
 40
11.0
  0
LINE
  5
1230F
330
11EAB
100
AcDbEntity
  8
4
  6
CENTER
100
AcDbLine
 10
675.0
 20
529.25
 30
0.0
 11
675.0
 21
540.7499999999998
 31
0.0
  0
LINE
  5
12310
330
11EAB
100
AcDbEntity
  8
4
  6
CENTER
100
AcDbLine
 10
665.0
 20
528.2499999999998
 30
0.0
 11
665.0
 21
541.75
 31
0.0
  0
LINE
  5
12311
330
11EAB
100
AcDbEntity
  8
5
  6
PHANTOM
100
AcDbLine
 10
775.0
 20
145.0
 30
0.0
 11
783.0
 21
145.0
 31
0.0
  0
ARC
  5
12312
330
11EAB
100
AcDbEntity
  8
5
  6
PHANTOM
100
AcDbCircle
 10
776.5
 20
146.0
 30
0.0
 40
1.5
100
AcDbArc
 50
90.0
 51
180.0
  0
LINE
  5
12313
330
11EAB
100
AcDbEntity
  8
5
  6
PHANTOM
100
AcDbLine
 10
783.0
 20
147.5
 30
0.0
 11
780.5
 21
147.5
 31
0.0
  0
LINE
  5
12314
330
11EAB
100
AcDbEntity
  8
5
  6
PHANTOM
100
AcDbLine
 10
775.0
 20
121.0
 30
0.0
 11
775.0
 21
123.5
 31
0.0
  0
LINE
  5
12315
330
11EAB
100
AcDbEntity
  8
5
  6
PHANTOM
100
AcDbLine
 10
776.5
 20
121.0
 30
0.0
 11
776.5
 21
123.5
 31
0.0
  0
LINE
  5
12316
330
11EAB
100
AcDbEntity
  8
5
  6
PHANTOM
100
AcDbLine
 10
783.0
 20
145.0
 30
0.0
 11
783.0
 21
147.5
 31
0.0
  0
LINE
  5
12317
330
11EAB
100
AcDbEntity
  8
5
  6
PHANTOM
100
AcDbLine
 10
775.0
 20
121.0
 30
0.0
 11
776.5
 21
121.0
 31
0.0
  0
LINE
  5
12318
330
11EAB
100
AcDbEntity
  8
5
  6
PHANTOM
100
AcDbLine
 10
29.5
 20
147.5
 30
0.0
 11
36.0
 21
147.5
 31
0.0
  0
LINE
  5
12319
330
11EAB
100
AcDbEntity
  8
5
  6
PHANTOM
100
AcDbLine
 10
36.0
 20
121.0
 30
0.0
 11
36.0
 21
123.5
 31
0.0
  0
LINE
  5
1231A
330
11EAB
100
AcDbEntity
  8
5
  6
PHANTOM
100
AcDbLine
 10
37.5
 20
121.0
 30
0.0
 11
37.5
 21
123.5
 31
0.0
  0
ARC
  5
1231B
330
11EAB
100
AcDbEntity
  8
5
  6
PHANTOM
100
AcDbCircle
 10
36.0
 20
146.0
 30
0.0
 40
1.5
100
AcDbArc
 50
0.0
 51
90.0
  0
LINE
  5
1231C
330
11EAB
100
AcDbEntity
  8
5
  6
PHANTOM
100
AcDbLine
 10
29.5
 20
143.5
 30
0.0
 11
29.5
 21
146.0
 31
0.0
  0
LINE
  5
1231D
330
11EAB
100
AcDbEntity
  8
5
  6
PHANTOM
100
AcDbLine
 10
36.0
 20
143.5
 30
0.0
 11
29.5
 21
143.5
 31
0.0
  0
LINE
  5
1231E
330
11EAB
100
AcDbEntity
  8
5
  6
PHANTOM
100
AcDbLine
 10
37.5
 20
121.0
 30
0.0
 11
36.0
 21
121.0
 31
0.0
  0
LINE
  5
1231F
330
11EAB
100
AcDbEntity
  8
1
  6
Continuous
100
AcDbLine
 10
27.0
 20
126.5
 30
0.0
 11
27.0
 21
129.0
 31
0.0
  0
LINE
  5
12320
330
11EAB
100
AcDbEntity
  8
5
  6
PHANTOM
100
AcDbLine
 10
787.5
 20
521.0
 30
0.0
 11
787.5
 21
523.5
 31
0.0
  0
ARC
  5
12321
330
11EAB
100
AcDbEntity
  8
5
  6
PHANTOM
100
AcDbCircle
 10
786.0
 20
546.0
 30
0.0
 40
1.5
100
AcDbArc
 50
0.0
 51
90.0
  0
LINE
  5
12322
330
11EAB
100
AcDbEntity
  8
5
  6
PHANTOM
100
AcDbLine
 10
787.5
 20
545.0
 30
0.0
 11
778.0
 21
545.0
 31
0.0
  0
LINE
  5
12323
330
11EAB
100
AcDbEntity
  8
5
  6
PHANTOM
100
AcDbLine
 10
786.0
 20
539.0
 30
0.0
 11
786.0
 21
541.5
 31
0.0
  0
LINE
  5
12324
330
11EAB
100
AcDbEntity
  8
5
  6
PHANTOM
100
AcDbLine
 10
778.0
 20
547.5
 30
0.0
 11
782.0
 21
547.5
 31
0.0
  0
LINE
  5
12325
330
11EAB
100
AcDbEntity
  8
5
  6
PHANTOM
100
AcDbLine
 10
787.5
 20
539.0
 30
0.0
 11
778.0
 21
539.0
 31
0.0
  0
LINE
  5
12326
330
11EAB
100
AcDbEntity
  8
5
  6
PHANTOM
100
AcDbLine
 10
778.0
 20
529.0
 30
0.0
 11
778.0
 21
531.5
 31
0.0
  0
LINE
  5
12327
330
11EAB
100
AcDbEntity
  8
5
  6
PHANTOM
100
AcDbLine
 10
786.0
 20
521.0
 30
0.0
 11
786.0
 21
523.5
 31
0.0
  0
LINE
  5
12328
330
11EAB
100
AcDbEntity
  8
5
  6
PHANTOM
100
AcDbLine
 10
787.5
 20
529.0
 30
0.0
 11
778.0
 21
529.0
 31
0.0
  0
LINE
  5
12329
330
11EAB
100
AcDbEntity
  8
5
  6
PHANTOM
100
AcDbLine
 10
787.5
 20
521.0
 30
0.0
 11
786.0
 21
521.0
 31
0.0
  0
LINE
  5
1232A
330
11EAB
100
AcDbEntity
  8
5
  6
PHANTOM
100
AcDbLine
 10
778.0
 20
545.0
 30
0.0
 11
778.0
 21
547.5
 31
0.0
  0
LINE
  5
1232B
330
11EAB
100
AcDbEntity
  8
5
  6
PHANTOM
100
AcDbLine
 10
34.5
 20
540.0
 30
0.0
 11
34.5
 21
542.4999999999998
 31
0.0
  0
LINE
  5
1232C
330
11EAB
100
AcDbEntity
  8
5
  6
PHANTOM
100
AcDbLine
 10
33.0
 20
540.0
 30
0.0
 11
34.5
 21
540.0
 31
0.0
  0
ARC
  5
1232D
330
11EAB
100
AcDbEntity
  8
5
  6
PHANTOM
100
AcDbCircle
 10
33.0
 20
546.0
 30
0.0
 40
1.5
100
AcDbArc
 50
0.0
 51
90.0
  0
LINE
  5
1232E
330
11EAB
100
AcDbEntity
  8
5
  6
PHANTOM
100
AcDbLine
 10
33.0
 20
547.5
 30
0.0
 11
26.5
 21
547.5
 31
0.0
  0
LINE
  5
1232F
330
11EAB
100
AcDbEntity
  8
5
  6
PHANTOM
100
AcDbLine
 10
33.0
 20
540.0
 30
0.0
 11
33.0
 21
541.0
 31
0.0
  0
LINE
  5
12330
330
11EAB
100
AcDbEntity
  8
5
  6
PHANTOM
100
AcDbLine
 10
26.5
 20
543.5
 30
0.0
 11
33.0
 21
543.5
 31
0.0
  0
LINE
  5
12331
330
11EAB
100
AcDbEntity
  8
5
  6
PHANTOM
100
AcDbLine
 10
26.5
 20
521.0
 30
0.0
 11
26.5
 21
523.5
 31
0.0
  0
LINE
  5
12332
330
11EAB
100
AcDbEntity
  8
5
  6
PHANTOM
100
AcDbLine
 10
25.0
 20
521.0
 30
0.0
 11
25.0
 21
523.5
 31
0.0
  0
ARC
  5
12333
330
11EAB
100
AcDbEntity
  8
5
  6
PHANTOM
100
AcDbCircle
 10
26.5
 20
546.0
 30
0.0
 40
1.5
100
AcDbArc
 50
90.0
 51
180.0
  0
LINE
  5
12334
330
11EAB
100
AcDbEntity
  8
5
  6
PHANTOM
100
AcDbLine
 10
25.0
 20
521.0
 30
0.0
 11
26.5
 21
521.0
 31
0.0
  0
LINE
  5
12335
330
11EAB
100
AcDbEntity
  8
4
  6
CENTER
100
AcDbLine
 10
230.0
 20
722.75
 30
0.0
 11
230.0
 21
711.2499999999997
 31
0.0
  0
CIRCLE
  5
12336
330
11EAB
100
AcDbEntity
  8
1
  6
Continuous
100
AcDbCircle
 10
230.0
 20
717.0
 30
0.0
 40
2.399999999999999
  0
LINE
  5
12337
330
11EAB
100
AcDbEntity
  8
4
  6
CENTER
100
AcDbLine
 10
224.25
 20
717.0
 30
0.0
 11
235.7499999999999
 21
717.0
 31
0.0
  0
LINE
  5
12338
330
11EAB
100
AcDbEntity
  8
4
  6
CENTER
100
AcDbLine
 10
230.0
 20
636.5
 30
0.0
 11
230.0
 21
630.0
 31
0.0
  0
LINE
  5
12339
330
11EAB
100
AcDbEntity
  8
4
  6
CENTER
100
AcDbLine
 10
230.0
 20
438.0
 30
0.0
 11
230.0
 21
444.5
 31
0.0
  0
CIRCLE
  5
1233A
330
11EAB
100
AcDbEntity
  8
1
  6
Continuous
100
AcDbCircle
 10
230.0
 20
537.5
 30
0.0
 40
2.399999999999999
  0
CIRCLE
  5
1233B
330
11EAB
100
AcDbEntity
  8
1
  6
Continuous
100
AcDbCircle
 10
230.0
 20
537.5
 30
0.0
 40
3.75
  0
LINE
  5
1233C
330
11EAB
100
AcDbEntity
  8
4
  6
CENTER
100
AcDbLine
 10
230.0
 20
531.7499999999999
 30
0.0
 11
230.0
 21
543.25
 31
0.0
  0
LINE
  5
1233D
330
11EAB
100
AcDbEntity
  8
4
  6
CENTER
100
AcDbLine
 10
235.7499999999999
 20
537.5
 30
0.0
 11
224.25
 21
537.5
 31
0.0
  0
LINE
  5
1233E
330
11EAB
100
AcDbEntity
  8
4
  6
CENTER
100
AcDbLine
 10
598.5
 20
725.25
 30
0.0
 11
598.5
 21
713.75
 31
0.0
  0
CIRCLE
  5
1233F
330
11EAB
100
AcDbEntity
  8
1
  6
Continuous
100
AcDbCircle
 10
598.5
 20
719.5
 30
0.0
 40
2.399999999999999
  0
CIRCLE
  5
12340
330
11EAB
100
AcDbEntity
  8
1
  6
Continuous
100
AcDbCircle
 10
598.5
 20
719.5
 30
0.0
 40
3.75
  0
LINE
  5
12341
330
11EAB
100
AcDbEntity
  8
4
  6
CENTER
100
AcDbLine
 10
592.75
 20
719.5
 30
0.0
 11
604.25
 21
719.5
 31
0.0
  0
LINE
  5
12342
330
11EAB
100
AcDbEntity
  8
4
  6
CENTER
100
AcDbLine
 10
598.5
 20
618.0
 30
0.0
 11
598.5
 21
624.5
 31
0.0
  0
LINE
  5
12343
330
11EAB
100
AcDbEntity
  8
4
  6
CENTER
100
AcDbLine
 10
598.5
 20
456.5
 30
0.0
 11
598.5
 21
450.0
 31
0.0
  0
CIRCLE
  5
12344
330
11EAB
100
AcDbEntity
  8
1
  6
Continuous
100
AcDbCircle
 10
598.5
 20
535.0
 30
0.0
 40
2.399999999999999
  0
LINE
  5
12345
330
11EAB
100
AcDbEntity
  8
4
  6
CENTER
100
AcDbLine
 10
598.5
 20
529.25
 30
0.0
 11
598.5
 21
540.7499999999998
 31
0.0
  0
LINE
  5
12346
330
11EAB
100
AcDbEntity
  8
4
  6
CENTER
100
AcDbLine
 10
604.25
 20
535.0
 30
0.0
 11
592.75
 21
535.0
 31
0.0
  0
CIRCLE
  5
12347
330
11EAB
100
AcDbEntity
  8
3
  6
DASHED
100
AcDbCircle
 10
441.0
 20
537.5
 30
0.0
 40
11.0
  0
LINE
  5
12348
330
11EAB
100
AcDbEntity
  8
3
  6
DASHED
100
AcDbLine
 10
397.9167019999999
 20
546.0
 30
0.0
 11
386.0201059999998
 21
546.0
 31
0.0
  0
LINE
  5
12349
330
11EAB
100
AcDbEntity
  8
3
  6
DASHED
100
AcDbLine
 10
382.78233
 20
545.5
 30
0.0
 11
380.03233
 21
547.5
 31
0.0
  0
LINE
  5
1234A
330
11EAB
100
AcDbEntity
  8
3
  6
DASHED
100
AcDbLine
 10
382.78233
 20
545.5
 30
0.0
 11
385.53233
 21
547.5
 31
0.0
  0
LINE
  5
1234B
330
11EAB
100
AcDbEntity
  8
3
  6
DASHED
100
AcDbLine
 10
379.544554
 20
546.0
 30
0.0
 11
360.4999999999998
 21
546.0
 31
0.0
  0
LINE
  5
1234C
330
11EAB
100
AcDbEntity
  8
3
  6
DASHED
100
AcDbLine
 10
430.0
 20
628.914214
 30
0.0
 11
430.0
 21
623.0
 31
0.0
  0
LINE
  5
1234D
330
11EAB
100
AcDbEntity
  8
3
  6
DASHED
100
AcDbLine
 10
429.0
 20
624.0
 30
0.0
 11
430.0
 21
624.0
 31
0.0
  0
LINE
  5
1234E
330
11EAB
100
AcDbEntity
  8
1
  6
Continuous
100
AcDbLine
 10
453.5
 20
630.4999999999997
 30
0.0
 11
447.0
 21
630.4999999999997
 31
0.0
  0
LINE
  5
1234F
330
11EAB
100
AcDbEntity
  8
1
  6
Continuous
100
AcDbLine
 10
435.0
 20
630.4999999999997
 30
0.0
 11
430.0
 21
630.4999999999997
 31
0.0
  0
LINE
  5
12350
330
11EAB
100
AcDbEntity
  8
4
  6
CENTER
100
AcDbLine
 10
512.25
 20
535.0
 30
0.0
 11
500.75
 21
535.0
 31
0.0
  0
LINE
  5
12351
330
11EAB
100
AcDbEntity
  8
4
  6
CENTER
100
AcDbLine
 10
485.7499999999998
 20
535.0
 30
0.0
 11
474.2499999999998
 21
535.0
 31
0.0
  0
LINE
  5
12352
330
11EAB
100
AcDbEntity
  8
4
  6
CENTER
100
AcDbLine
 10
480.0
 20
529.25
 30
0.0
 11
480.0
 21
540.7499999999998
 31
0.0
  0
CIRCLE
  5
12353
330
11EAB
100
AcDbEntity
  8
5
  6
PHANTOM
100
AcDbCircle
 10
480.0
 20
535.0
 30
0.0
 40
3.75
  0
CIRCLE
  5
12354
330
11EAB
100
AcDbEntity
  8
5
  6
PHANTOM
100
AcDbCircle
 10
480.0
 20
535.0
 30
0.0
 40
2.399999999999999
  0
CIRCLE
  5
12355
330
11EAB
100
AcDbEntity
  8
5
  6
PHANTOM
100
AcDbCircle
 10
585.0
 20
535.0
 30
0.0
 40
2.399999999999999
  0
CIRCLE
  5
12356
330
11EAB
100
AcDbEntity
  8
5
  6
PHANTOM
100
AcDbCircle
 10
585.0
 20
535.0
 30
0.0
 40
3.75
  0
LINE
  5
12357
330
11EAB
100
AcDbEntity
  8
4
  6
CENTER
100
AcDbLine
 10
590.7499999999997
 20
535.0
 30
0.0
 11
569.2499999999999
 21
535.0
 31
0.0
  0
LINE
  5
12358
330
11EAB
100
AcDbEntity
  8
5
  6
PHANTOM
100
AcDbLine
 10
578.75
 20
534.0
 30
0.0
 11
578.75
 21
536.0
 31
0.0
  0
LINE
  5
12359
330
11EAB
100
AcDbEntity
  8
5
  6
PHANTOM
100
AcDbLine
 10
572.5999999999998
 20
534.0
 30
0.0
 11
572.5999999999998
 21
536.0
 31
0.0
  0
LINE
  5
1235A
330
11EAB
100
AcDbEntity
  8
5
  6
PHANTOM
100
AcDbLine
 10
577.4
 20
534.0
 30
0.0
 11
577.4
 21
536.0
 31
0.0
  0
ARC
  5
1235B
330
11EAB
100
AcDbEntity
  8
5
  6
PHANTOM
100
AcDbCircle
 10
575.0
 20
534.0
 30
0.0
 40
2.399999999999999
100
AcDbArc
 50
180.0
 51
0.0
  0
ARC
  5
1235C
330
11EAB
100
AcDbEntity
  8
5
  6
PHANTOM
100
AcDbCircle
 10
575.0
 20
536.0
 30
0.0
 40
2.399999999999999
100
AcDbArc
 50
0.0
 51
180.0
  0
LINE
  5
1235D
330
11EAB
100
AcDbEntity
  8
5
  6
PHANTOM
100
AcDbLine
 10
571.25
 20
534.0
 30
0.0
 11
571.25
 21
536.0
 31
0.0
  0
ARC
  5
1235E
330
11EAB
100
AcDbEntity
  8
5
  6
PHANTOM
100
AcDbCircle
 10
575.0
 20
534.0
 30
0.0
 40
3.75
100
AcDbArc
 50
180.0
 51
0.0
  0
ARC
  5
1235F
330
11EAB
100
AcDbEntity
  8
5
  6
PHANTOM
100
AcDbCircle
 10
575.0
 20
536.0
 30
0.0
 40
3.75
100
AcDbArc
 50
0.0
 51
180.0
  0
LINE
  5
12360
330
11EAB
100
AcDbEntity
  8
4
  6
CENTER
100
AcDbLine
 10
575.0
 20
528.2499999999998
 30
0.0
 11
575.0
 21
541.75
 31
0.0
  0
LINE
  5
12361
330
11EAB
100
AcDbEntity
  8
4
  6
CENTER
100
AcDbLine
 10
585.0
 20
529.25
 30
0.0
 11
585.0
 21
540.7499999999998
 31
0.0
  0
ARC
  5
12362
330
11EAB
100
AcDbEntity
  8
5
  6
PHANTOM
100
AcDbCircle
 10
665.0
 20
536.0
 30
0.0
 40
3.75
100
AcDbArc
 50
0.0
 51
180.0
  0
ARC
  5
12363
330
11EAB
100
AcDbEntity
  8
5
  6
PHANTOM
100
AcDbCircle
 10
665.0
 20
534.0
 30
0.0
 40
3.75
100
AcDbArc
 50
180.0
 51
0.0
  0
LINE
  5
12364
330
11EAB
100
AcDbEntity
  8
5
  6
PHANTOM
100
AcDbLine
 10
661.2499999999998
 20
534.0
 30
0.0
 11
661.2499999999998
 21
536.0
 31
0.0
  0
ARC
  5
12365
330
11EAB
100
AcDbEntity
  8
5
  6
PHANTOM
100
AcDbCircle
 10
665.0
 20
536.0
 30
0.0
 40
2.399999999999999
100
AcDbArc
 50
0.0
 51
180.0
  0
ARC
  5
12366
330
11EAB
100
AcDbEntity
  8
5
  6
PHANTOM
100
AcDbCircle
 10
665.0
 20
534.0
 30
0.0
 40
2.399999999999999
100
AcDbArc
 50
180.0
 51
0.0
  0
LINE
  5
12367
330
11EAB
100
AcDbEntity
  8
5
  6
PHANTOM
100
AcDbLine
 10
667.3999999999997
 20
534.0
 30
0.0
 11
667.3999999999997
 21
536.0
 31
0.0
  0
LINE
  5
12368
330
11EAB
100
AcDbEntity
  8
5
  6
PHANTOM
100
AcDbLine
 10
662.6
 20
534.0
 30
0.0
 11
662.6
 21
536.0
 31
0.0
  0
LINE
  5
12369
330
11EAB
100
AcDbEntity
  8
5
  6
PHANTOM
100
AcDbLine
 10
668.75
 20
534.0
 30
0.0
 11
668.75
 21
536.0
 31
0.0
  0
CIRCLE
  5
1236A
330
11EAB
100
AcDbEntity
  8
5
  6
PHANTOM
100
AcDbCircle
 10
675.0
 20
535.0
 30
0.0
 40
3.75
  0
CIRCLE
  5
1236B
330
11EAB
100
AcDbEntity
  8
5
  6
PHANTOM
100
AcDbCircle
 10
675.0
 20
535.0
 30
0.0
 40
2.399999999999999
  0
LINE
  5
1236C
330
11EAB
100
AcDbEntity
  8
4
  6
CENTER
100
AcDbLine
 10
598.5
 20
236.5
 30
0.0
 11
598.5
 21
230.0
 31
0.0
  0
CIRCLE
  5
1236D
330
11EAB
100
AcDbEntity
  8
1
  6
Continuous
100
AcDbCircle
 10
598.5
 20
319.5
 30
0.0
 40
2.399999999999999
  0
LINE
  5
1236E
330
11EAB
100
AcDbEntity
  8
4
  6
CENTER
100
AcDbLine
 10
598.5
 20
325.2499999999999
 30
0.0
 11
598.5
 21
313.75
 31
0.0
  0
LINE
  5
1236F
330
11EAB
100
AcDbEntity
  8
4
  6
CENTER
100
AcDbLine
 10
592.75
 20
319.5
 30
0.0
 11
604.25
 21
319.5
 31
0.0
  0
LINE
  5
12370
330
11EAB
100
AcDbEntity
  8
4
  6
CENTER
100
AcDbLine
 10
598.5
 20
129.2499999999998
 30
0.0
 11
598.5
 21
140.7499999999998
 31
0.0
  0
CIRCLE
  5
12371
330
11EAB
100
AcDbEntity
  8
1
  6
Continuous
100
AcDbCircle
 10
598.5
 20
135.0
 30
0.0
 40
3.75
  0
CIRCLE
  5
12372
330
11EAB
100
AcDbEntity
  8
1
  6
Continuous
100
AcDbCircle
 10
598.5
 20
135.0
 30
0.0
 40
2.399999999999999
  0
LINE
  5
12373
330
11EAB
100
AcDbEntity
  8
4
  6
CENTER
100
AcDbLine
 10
230.0
 20
218.0
 30
0.0
 11
230.0
 21
224.5
 31
0.0
  0
LINE
  5
12374
330
11EAB
100
AcDbEntity
  8
4
  6
CENTER
100
AcDbLine
 10
230.0
 20
322.75
 30
0.0
 11
230.0
 21
311.25
 31
0.0
  0
CIRCLE
  5
12375
330
11EAB
100
AcDbEntity
  8
1
  6
Continuous
100
AcDbCircle
 10
230.0
 20
317.0
 30
0.0
 40
3.75
  0
CIRCLE
  5
12376
330
11EAB
100
AcDbEntity
  8
1
  6
Continuous
100
AcDbCircle
 10
230.0
 20
317.0
 30
0.0
 40
2.399999999999999
  0
LINE
  5
12377
330
11EAB
100
AcDbEntity
  8
4
  6
CENTER
100
AcDbLine
 10
224.25
 20
317.0
 30
0.0
 11
235.7499999999999
 21
317.0
 31
0.0
  0
LINE
  5
12378
330
11EAB
100
AcDbEntity
  8
4
  6
CENTER
100
AcDbLine
 10
230.0
 20
56.5
 30
0.0
 11
230.0
 21
50.0
 31
0.0
  0
LINE
  5
12379
330
11EAB
100
AcDbEntity
  8
4
  6
CENTER
100
AcDbLine
 10
230.0
 20
131.75
 30
0.0
 11
230.0
 21
143.25
 31
0.0
  0
CIRCLE
  5
1237A
330
11EAB
100
AcDbEntity
  8
1
  6
Continuous
100
AcDbCircle
 10
230.0
 20
137.5
 30
0.0
 40
2.399999999999999
  0
LINE
  5
1237B
330
11EAB
100
AcDbEntity
  8
4
  6
CENTER
100
AcDbLine
 10
235.7499999999999
 20
137.5
 30
0.0
 11
224.25
 21
137.5
 31
0.0
  0
CIRCLE
  5
1237C
330
11EAB
100
AcDbEntity
  8
3
  6
DASHED
100
AcDbCircle
 10
441.0
 20
317.0
 30
0.0
 40
11.0
  0
LINE
  5
1237D
330
11EAB
100
AcDbEntity
  8
3
  6
DASHED
100
AcDbLine
 10
449.75
 20
329.4999999999999
 30
0.0
 11
455.0
 21
319.0
 31
0.0
  0
LINE
  5
1237E
330
11EAB
100
AcDbEntity
  8
4
  6
CENTER
100
AcDbLine
 10
598.5
 20
38.0
 30
0.0
 11
598.5
 21
44.5
 31
0.0
  0
LINE
  5
1237F
330
11EAB
100
AcDbEntity
  8
3
  6
DASHED
100
AcDbLine
 10
430.0
 20
225.5857859999999
 30
0.0
 11
430.0
 21
231.4999999999999
 31
0.0
  0
ARC
  5
12380
330
11EAB
100
AcDbEntity
  8
3
  6
DASHED
100
AcDbCircle
 10
428.0
 20
227.0
 30
0.0
 40
2.0
100
AcDbArc
 50
0.0
 51
60.0
  0
ARC
  5
12381
330
11EAB
100
AcDbEntity
  8
1
  6
Continuous
100
AcDbCircle
 10
428.0
 20
227.0
 30
0.0
 40
2.0
100
AcDbArc
 50
60.0
 51
90.0
  0
LINE
  5
12382
330
11EAB
100
AcDbEntity
  8
4
  6
CENTER
100
AcDbLine
 10
512.25
 20
135.0
 30
0.0
 11
500.75
 21
135.0
 31
0.0
  0
LINE
  5
12383
330
11EAB
100
AcDbEntity
  8
4
  6
CENTER
100
AcDbLine
 10
485.7499999999998
 20
135.0
 30
0.0
 11
474.2499999999998
 21
135.0
 31
0.0
  0
CIRCLE
  5
12384
330
11EAB
100
AcDbEntity
  8
5
  6
PHANTOM
100
AcDbCircle
 10
480.0
 20
135.0
 30
0.0
 40
2.399999999999999
  0
LINE
  5
12385
330
11EAB
100
AcDbEntity
  8
4
  6
CENTER
100
AcDbLine
 10
480.0
 20
129.2499999999998
 30
0.0
 11
480.0
 21
140.7499999999998
 31
0.0
  0
CIRCLE
  5
12386
330
11EAB
100
AcDbEntity
  8
5
  6
PHANTOM
100
AcDbCircle
 10
585.0
 20
135.0
 30
0.0
 40
2.399999999999999
  0
LINE
  5
12387
330
11EAB
100
AcDbEntity
  8
4
  6
CENTER
100
AcDbLine
 10
590.7499999999997
 20
135.0
 30
0.0
 11
569.2499999999999
 21
135.0
 31
0.0
  0
LINE
  5
12388
330
11EAB
100
AcDbEntity
  8
5
  6
PHANTOM
100
AcDbLine
 10
577.4
 20
134.0
 30
0.0
 11
577.4
 21
136.0
 31
0.0
  0
LINE
  5
12389
330
11EAB
100
AcDbEntity
  8
4
  6
CENTER
100
AcDbLine
 10
575.0
 20
128.2499999999998
 30
0.0
 11
575.0
 21
141.7499999999998
 31
0.0
  0
LINE
  5
1238A
330
11EAB
100
AcDbEntity
  8
4
  6
CENTER
100
AcDbLine
 10
585.0
 20
129.2499999999998
 30
0.0
 11
585.0
 21
140.7499999999998
 31
0.0
  0
LINE
  5
1238B
330
11EAB
100
AcDbEntity
  8
5
  6
PHANTOM
100
AcDbLine
 10
572.5999999999998
 20
134.0
 30
0.0
 11
572.5999999999998
 21
136.0
 31
0.0
  0
ARC
  5
1238C
330
11EAB
100
AcDbEntity
  8
5
  6
PHANTOM
100
AcDbCircle
 10
575.0
 20
136.0
 30
0.0
 40
2.399999999999999
100
AcDbArc
 50
0.0
 51
180.0
  0
ARC
  5
1238D
330
11EAB
100
AcDbEntity
  8
5
  6
PHANTOM
100
AcDbCircle
 10
575.0
 20
134.0
 30
0.0
 40
2.399999999999999
100
AcDbArc
 50
180.0
 51
0.0
  0
LINE
  5
1238E
330
11EAB
100
AcDbEntity
  8
1
  6
Continuous
100
AcDbLine
 10
404.4999999999998
 20
453.5
 30
0.0
 11
404.4999999999998
 21
452.0
 31
0.0
  0
LINE
  5
1238F
330
11EAB
100
AcDbEntity
  8
1
  6
Continuous
100
AcDbLine
 10
408.4999999999998
 20
453.5
 30
0.0
 11
408.4999999999998
 21
452.0
 31
0.0
  0
LINE
  5
12390
330
11EAB
100
AcDbEntity
  8
1
  6
Continuous
100
AcDbLine
 10
404.4999999999998
 20
42.5
 30
0.0
 11
404.4999999999998
 21
41.0
 31
0.0
  0
LINE
  5
12391
330
11EAB
100
AcDbEntity
  8
1
  6
Continuous
100
AcDbLine
 10
408.4999999999998
 20
42.5
 30
0.0
 11
408.4999999999998
 21
41.0
 31
0.0
  0
LINE
  5
12392
330
11EAB
100
AcDbEntity
  8
4
  6
CENTER
100
AcDbLine
 10
604.25
 20
135.0
 30
0.0
 11
592.75
 21
135.0
 31
0.0
  0
ENDSEC
  0
SECTION
  2
OBJECTS
  0
DICTIONARY
  5
11E99
330
0
100
AcDbDictionary
281
     1
  3
ACAD_CIP_PREVIOUS_PRODUCT_INFO
350
123F2
  3
ACAD_COLOR
350
123D4
  3
ACAD_DETAILVIEWSTYLE
350
123ED
  3
ACAD_GROUP
350
11E9A
  3
ACAD_LAYOUT
350
11EA6
  3
ACAD_MATERIAL
350
123A2
  3
ACAD_MLEADERSTYLE
350
123E9
  3
ACAD_MLINESTYLE
350
11EA3
  3
ACAD_PLOTSETTINGS
350
11EA5
  3
ACAD_PLOTSTYLENAME
350
123A0
  3
ACAD_SCALELIST
350
123D7
  3
ACAD_SECTIONVIEWSTYLE
350
123EB
  3
ACAD_TABLESTYLE
350
123D5
  3
ACAD_VISUALSTYLE
350
123BB
  3
ACDB_RECOMPOSE_DATA
350
12410
  3
AcDbVariableDictionary
350
12403
  3
DWGPROPS
350
12411
  0
DICTIONARY
  5
123F3
330
11E9D
100
AcDbDictionary
280
     1
281
     1
  3
ADSK_XREC_LAYER_RECONCILED
360
123F4
  0
DICTIONARY
  5
123F5
330
11EB3
100
AcDbDictionary
280
     1
281
     1
  3
ADSK_XREC_LAYER_RECONCILED
360
123F6
  0
DICTIONARY
  5
123F7
330
11EB4
100
AcDbDictionary
280
     1
281
     1
  3
ADSK_XREC_LAYER_RECONCILED
360
123F8
  0
DICTIONARY
  5
123F9
330
11EB5
100
AcDbDictionary
280
     1
281
     1
  3
ADSK_XREC_LAYER_RECONCILED
360
123FA
  0
DICTIONARY
  5
123FB
330
11EB6
100
AcDbDictionary
280
     1
281
     1
  3
ADSK_XREC_LAYER_RECONCILED
360
123FC
  0
DICTIONARY
  5
123FD
330
11EB7
100
AcDbDictionary
280
     1
281
     1
  3
ADSK_XREC_LAYER_RECONCILED
360
123FE
  0
DICTIONARY
  5
123FF
330
11EB8
100
AcDbDictionary
280
     1
281
     1
  3
ADSK_XREC_LAYER_RECONCILED
360
12400
  0
DICTIONARY
  5
12401
330
11EB9
100
AcDbDictionary
280
     1
281
     1
  3
ADSK_XREC_LAYER_RECONCILED
360
12402
  0
DICTIONARY
  5
1239B
330
11EAB
100
AcDbDictionary
281
     1
  3
ACAD_LAYOUTSELFREF
350
1239C
  0
DICTIONARY
  5
12399
330
11EA7
100
AcDbDictionary
281
     1
  3
ACAD_LAYOUTSELFREF
350
1239A
  0
XRECORD
  5
123F2
102
{ACAD_REACTORS
330
11E99
102
}
330
11E99
100
AcDbXrecord
280
     1
300
ACDLT
300
2014
300
ACDLT_F_S
  0
DICTIONARY
  5
123D4
102
{ACAD_REACTORS
330
11E99
102
}
330
11E99
100
AcDbDictionary
281
     1
  0
DICTIONARY
  5
123ED
102
{ACAD_REACTORS
330
11E99
102
}
330
11E99
100
AcDbDictionary
281
     1
  3
Imperial24
350
123EE
  0
DICTIONARY
  5
11E9A
102
{ACAD_REACTORS
330
11E99
102
}
330
11E99
100
AcDbDictionary
281
     1
  0
DICTIONARY
  5
11EA6
102
{ACAD_REACTORS
330
11E99
102
}
330
11E99
100
AcDbDictionary
281
     1
  3
Model
350
123EF
  3
レイアウト1
350
123F0
  0
DICTIONARY
  5
123A2
102
{ACAD_REACTORS
330
11E99
102
}
330
11E99
100
AcDbDictionary
281
     1
  3
ByBlock
350
123AB
  3
ByLayer
350
123A3
  3
Global
350
123B3
  0
DICTIONARY
  5
123E9
102
{ACAD_REACTORS
330
11E99
102
}
330
11E99
100
AcDbDictionary
281
     1
  3
Standard
350
123EA
  0
DICTIONARY
  5
11EA3
102
{ACAD_REACTORS
330
11E99
102
}
330
11E99
100
AcDbDictionary
281
     1
  3
STANDARD
350
11EA4
  0
DICTIONARY
  5
11EA5
102
{ACAD_REACTORS
330
11E99
102
}
330
11E99
100
AcDbDictionary
281
     1
  0
ACDBDICTIONARYWDFLT
  5
123A0
102
{ACAD_REACTORS
330
11E99
102
}
330
11E99
100
AcDbDictionary
281
     1
  3
Normal
350
123A1
100
AcDbDictionaryWithDefault
340
123A1
  0
DICTIONARY
  5
123D7
102
{ACAD_REACTORS
330
11E99
102
}
330
11E99
100
AcDbDictionary
281
     1
  3
A0
350
123D8
  3
A1
350
123D9
  3
A2
350
123DA
  3
A3
350
123DB
  3
A4
350
123DC
  3
A5
350
123DD
  3
A6
350
123DE
  3
A7
350
123DF
  3
A8
350
123E0
  3
A9
350
123E1
  3
B0
350
123E2
  3
B1
350
123E3
  3
B2
350
123E4
  3
B3
350
123E5
  3
B4
350
123E6
  3
B5
350
123E7
  3
B6
350
123E8
  0
DICTIONARY
  5
123EB
102
{ACAD_REACTORS
330
11E99
102
}
330
11E99
100
AcDbDictionary
281
     1
  3
Imperial24
350
123EC
  0
DICTIONARY
  5
123D5
102
{ACAD_REACTORS
330
11E99
102
}
330
11E99
100
AcDbDictionary
281
     1
  3
Standard
350
123D6
  0
DICTIONARY
  5
123BB
102
{ACAD_REACTORS
330
11E99
102
}
330
11E99
100
AcDbDictionary
281
     1
  3
2dWireframe
350
123C1
  3
Basic
350
123C0
  3
Brighten
350
123C7
  3
ColorChange
350
123CB
  3
Conceptual
350
123C4
  3
Dim
350
123C6
  3
EdgeColorOff
350
123D3
  3
Facepattern
350
123CA
  3
Flat
350
123BC
  3
FlatWithEdges
350
123BD
  3
Gouraud
350
123BE
  3
GouraudWithEdges
350
123BF
  3
Hidden
350
123C3
  3
JitterOff
350
123D1
  3
Linepattern
350
123C9
  3
OverhangOff
350
123D2
  3
Realistic
350
123C5
  3
Shaded
350
123D0
  3
Shaded with edges
350
123CF
  3
Shades of Gray
350
123CC
  3
Sketchy
350
123CD
  3
Thicken
350
123C8
  3
Wireframe
350
123C2
  3
X-Ray
350
123CE
  0
XRECORD
  5
12410
102
{ACAD_REACTORS
330
11E99
102
}
330
11E99
100
AcDbXrecord
280
     1
 90
        1
330
123D6
  0
DICTIONARY
  5
12403
102
{ACAD_REACTORS
330
11E99
102
}
330
11E99
100
AcDbDictionary
281
     1
  3
CANNOSCALE
350
12408
  3
CMLEADERSTYLE
350
12405
  3
CTABLESTYLE
350
12404
  3
CVIEWDETAILSTYLE
350
12406
  3
CVIEWSECTIONSTYLE
350
12407
  3
DIMASSOC
350
1240B
  3
INDEXCTL
350
1240A
  3
SORTENTS
350
12409
  3
XCLIPFRAME
350
1240C
  0
XRECORD
  5
12411
102
{ACAD_REACTORS
330
11E99
102
}
330
11E99
100
AcDbXrecord
280
     1
  1
DWGPROPS COOKIE
  2

  3

  4

  6

  7

  8
Yoshitsune
  9

300
=
301
=
302
=
303
=
304
=
305
=
306
=
307
=
308
=
309
=
 40
0.000013587962963
 41
2451263.697575347
 42
2457192.661572952
  1

 90
        0
  0
XRECORD
  5
123F4
102
{ACAD_REACTORS
330
123F3
102
}
330
123F3
100
AcDbXrecord
280
     1
290
     1
  0
XRECORD
  5
123F6
102
{ACAD_REACTORS
330
123F5
102
}
330
123F5
100
AcDbXrecord
280
     1
290
     1
  0
XRECORD
  5
123F8
102
{ACAD_REACTORS
330
123F7
102
}
330
123F7
100
AcDbXrecord
280
     1
290
     1
  0
XRECORD
  5
123FA
102
{ACAD_REACTORS
330
123F9
102
}
330
123F9
100
AcDbXrecord
280
     1
290
     1
  0
XRECORD
  5
123FC
102
{ACAD_REACTORS
330
123FB
102
}
330
123FB
100
AcDbXrecord
280
     1
290
     1
  0
XRECORD
  5
123FE
102
{ACAD_REACTORS
330
123FD
102
}
330
123FD
100
AcDbXrecord
280
     1
290
     1
  0
XRECORD
  5
12400
102
{ACAD_REACTORS
330
123FF
102
}
330
123FF
100
AcDbXrecord
280
     1
290
     1
  0
XRECORD
  5
12402
102
{ACAD_REACTORS
330
12401
102
}
330
12401
100
AcDbXrecord
280
     1
290
     1
  0
XRECORD
  5
1239C
102
{ACAD_REACTORS
330
1239B
102
}
330
1239B
100
AcDbXrecord
280
     1
340
11EAB
  0
XRECORD
  5
1239A
102
{ACAD_REACTORS
330
12399
102
}
330
12399
100
AcDbXrecord
280
     1
340
11EA7
  0
ACDBDETAILVIEWSTYLE
  5
123EE
102
{ACAD_XDICTIONARY
360
12449
102
}
102
{ACAD_REACTORS
330
123ED
102
}
330
123ED
100
AcDbModelDocViewStyle
 70
     0
  3
Imperial24
290
     0
100
AcDbDetailViewStyle
 70
     0
 71
     0
 90
        3
 71
     1
340
11E9E
 40
0.24
340
0
 40
0.24
300

 40
0.36
280
     3
 71
     2
340
11EA2
 90
       25
 71
     3
340
11E9E
 40
0.24
 90
        1
 40
0.75
 90
        1
300
%<\AcVar ViewType \f "%tc1">% %<\AcVar ViewDetailId>%\PSCALE %<\AcVar ViewScale \f "%sn">%
 71
     4
340
11EA2
 90
       25
340
11EA2
 90
       25
280
     0
  0
LAYOUT
  5
123EF
102
{ACAD_XDICTIONARY
360
1244B
102
}
102
{ACAD_REACTORS
330
11EA6
102
}
330
11EA6
100
AcDbPlotSettings
  1

  2
Canon LBP9100C
  4

  6

 40
0.0
 41
0.0
 42
0.0
 43
0.0
 44
0.0
 45
0.0
 46
0.0
 47
0.0
 48
0.0
 49
0.0
140
0.0
141
0.0
142
1.0
143
1.0
 70
  1712
 72
     0
 73
     0
 74
     0
  7

 75
     0
147
1.0
148
0.0
149
0.0
100
AcDbLayout
  1
Model
 70
     1
 71
     0
 10
0.0
 20
0.0
 11
12.0
 21
9.0
 12
0.0
 22
0.0
 32
0.0
 14
0.0
 24
0.0
 34
0.0
 15
0.0
 25
0.0
 35
0.0
146
0.0
 13
0.0
 23
0.0
 33
0.0
 16
1.0
 26
0.0
 36
0.0
 17
0.0
 27
1.0
 37
0.0
 76
     0
330
11EAB
331
12398
  0
LAYOUT
  5
123F0
102
{ACAD_XDICTIONARY
360
1244D
102
}
102
{ACAD_REACTORS
330
11EA6
102
}
330
11EA6
100
AcDbPlotSettings
  1

  2
Canon LBP9100C
  4

  6

 40
0.0
 41
0.0
 42
0.0
 43
0.0
 44
0.0
 45
0.0
 46
0.0
 47
0.0
 48
0.0
 49
0.0
140
0.0
141
0.0
142
1.0
143
1.0
 70
   688
 72
     0
 73
     0
 74
     5
  7

 75
    16
147
1.0
148
0.0
149
0.0
100
AcDbLayout
  1
レイアウト1
 70
     0
 71
     1
 10
0.0
 20
0.0
 11
420.0
 21
297.0
 12
0.0
 22
0.0
 32
0.0
 14
1.000000000000000E+20
 24
1.000000000000000E+20
 34
1.000000000000000E+20
 15
-1.000000000000000E+20
 25
-1.000000000000000E+20
 35
-1.000000000000000E+20
146
0.0
 13
0.0
 23
0.0
 33
0.0
 16
1.0
 26
0.0
 36
0.0
 17
0.0
 27
1.0
 37
0.0
 76
     0
330
11EA7
  0
MATERIAL
  5
123AB
102
{ACAD_XDICTIONARY
360
123AC
102
}
102
{ACAD_REACTORS
330
123A2
102
}
330
123A2
100
AcDbMaterial
  1
ByBlock
 72
     0
 43
0.0208333333333333
 43
0.0
 43
0.0
 43
0.0
 43
0.0
 43
0.0208333333333333
 43
0.0
 43
0.0
 43
0.0
 43
0.0
 43
1.0
 43
0.0
 43
0.0
 43
0.0
 43
0.0
 43
1.0
 77
     0
 47
0.0208333333333333
 47
0.0
 47
0.0
 47
0.0
 47
0.0
 47
0.0208333333333333
 47
0.0
 47
0.0
 47
0.0
 47
0.0
 47
1.0
 47
0.0
 47
0.0
 47
0.0
 47
0.0
 47
1.0
171
     0
 49
0.0208333333333333
 49
0.0
 49
0.0
 49
0.0
 49
0.0
 49
0.0208333333333333
 49
0.0
 49
0.0
 49
0.0
 49
0.0
 49
1.0
 49
0.0
 49
0.0
 49
0.0
 49
0.0
 49
1.0
175
     0
142
0.0208333333333333
142
0.0
142
0.0
142
0.0
142
0.0
142
0.0208333333333333
142
0.0
142
0.0
142
0.0
142
0.0
142
1.0
142
0.0
142
0.0
142
0.0
142
0.0
142
1.0
179
     0
144
0.0208333333333333
144
0.0
144
0.0
144
0.0
144
0.0
144
0.0208333333333333
144
0.0
144
0.0
144
0.0
144
0.0
144
1.0
144
0.0
144
0.0
144
0.0
144
0.0
144
1.0
147
0.0208333333333333
147
0.0
147
0.0
147
0.0
147
0.0
147
0.0208333333333333
147
0.0
147
0.0
147
0.0
147
0.0
147
1.0
147
0.0
147
0.0
147
0.0
147
0.0
147
1.0
  0
MATERIAL
  5
123A3
102
{ACAD_XDICTIONARY
360
123A4
102
}
102
{ACAD_REACTORS
330
123A2
102
}
330
123A2
100
AcDbMaterial
  1
ByLayer
 72
     0
 43
0.0208333333333333
 43
0.0
 43
0.0
 43
0.0
 43
0.0
 43
0.0208333333333333
 43
0.0
 43
0.0
 43
0.0
 43
0.0
 43
1.0
 43
0.0
 43
0.0
 43
0.0
 43
0.0
 43
1.0
 77
     0
 47
0.0208333333333333
 47
0.0
 47
0.0
 47
0.0
 47
0.0
 47
0.0208333333333333
 47
0.0
 47
0.0
 47
0.0
 47
0.0
 47
1.0
 47
0.0
 47
0.0
 47
0.0
 47
0.0
 47
1.0
171
     0
 49
0.0208333333333333
 49
0.0
 49
0.0
 49
0.0
 49
0.0
 49
0.0208333333333333
 49
0.0
 49
0.0
 49
0.0
 49
0.0
 49
1.0
 49
0.0
 49
0.0
 49
0.0
 49
0.0
 49
1.0
175
     0
142
0.0208333333333333
142
0.0
142
0.0
142
0.0
142
0.0
142
0.0208333333333333
142
0.0
142
0.0
142
0.0
142
0.0
142
1.0
142
0.0
142
0.0
142
0.0
142
0.0
142
1.0
179
     0
144
0.0208333333333333
144
0.0
144
0.0
144
0.0
144
0.0
144
0.0208333333333333
144
0.0
144
0.0
144
0.0
144
0.0
144
1.0
144
0.0
144
0.0
144
0.0
144
0.0
144
1.0
147
0.0208333333333333
147
0.0
147
0.0
147
0.0
147
0.0
147
0.0208333333333333
147
0.0
147
0.0
147
0.0
147
0.0
147
1.0
147
0.0
147
0.0
147
0.0
147
0.0
147
1.0
  0
MATERIAL
  5
123B3
102
{ACAD_XDICTIONARY
360
123B4
102
}
102
{ACAD_REACTORS
330
123A2
102
}
330
123A2
100
AcDbMaterial
  1
Global
 72
     0
 43
0.0208333333333333
 43
0.0
 43
0.0
 43
0.0
 43
0.0
 43
0.0208333333333333
 43
0.0
 43
0.0
 43
0.0
 43
0.0
 43
1.0
 43
0.0
 43
0.0
 43
0.0
 43
0.0
 43
1.0
 77
     0
 47
0.0208333333333333
 47
0.0
 47
0.0
 47
0.0
 47
0.0
 47
0.0208333333333333
 47
0.0
 47
0.0
 47
0.0
 47
0.0
 47
1.0
 47
0.0
 47
0.0
 47
0.0
 47
0.0
 47
1.0
171
     0
 49
0.0208333333333333
 49
0.0
 49
0.0
 49
0.0
 49
0.0
 49
0.0208333333333333
 49
0.0
 49
0.0
 49
0.0
 49
0.0
 49
1.0
 49
0.0
 49
0.0
 49
0.0
 49
0.0
 49
1.0
175
     0
142
0.0208333333333333
142
0.0
142
0.0
142
0.0
142
0.0
142
0.0208333333333333
142
0.0
142
0.0
142
0.0
142
0.0
142
1.0
142
0.0
142
0.0
142
0.0
142
0.0
142
1.0
179
     0
144
0.0208333333333333
144
0.0
144
0.0
144
0.0
144
0.0
144
0.0208333333333333
144
0.0
144
0.0
144
0.0
144
0.0
144
1.0
144
0.0
144
0.0
144
0.0
144
0.0
144
1.0
147
0.0208333333333333
147
0.0
147
0.0
147
0.0
147
0.0
147
0.0208333333333333
147
0.0
147
0.0
147
0.0
147
0.0
147
1.0
147
0.0
147
0.0
147
0.0
147
0.0
147
1.0
  0
MLEADERSTYLE
  5
123EA
102
{ACAD_REACTORS
330
123E9
102
}
330
123E9
100
AcDbMLeaderStyle
170
     2
171
     1
172
     0
 90
        2
 40
0.0
 41
0.0
173
     1
 91
-1056964608
340
11EA0
 92
       -2
290
     1
 42
0.09
291
     1
 43
0.36
  3
Standard
 44
0.18
300

342
11E9E
174
     1
178
     6
175
     1
176
     0
 93
-1056964608
 45
0.18
292
     0
297
     0
 46
0.18
 94
-1056964608
 47
1.0
 49
1.0
140
1.0
293
     1
141
0.0
294
     1
177
     0
142
1.0
295
     0
296
     0
143
0.125
1001
ACAD_MLEADERVER
1070
     2
  0
MLINESTYLE
  5
11EA4
102
{ACAD_REACTORS
330
11EA3
102
}
330
11EA3
100
AcDbMlineStyle
  2
STANDARD
 70
     0
  3

 62
   256
 51
90.0
 52
90.0
 71
     2
 49
0.5
 62
   256
  6
BYLAYER
 49
-0.5
 62
   256
  6
BYLAYER
  0
ACDBPLACEHOLDER
  5
123A1
102
{ACAD_REACTORS
330
123A0
102
}
330
123A0
  0
SCALE
  5
123D8
102
{ACAD_REACTORS
330
123D7
102
}
330
123D7
100
AcDbScale
 70
     0
300
1:1
140
1.0
141
1.0
290
     1
  0
SCALE
  5
123D9
102
{ACAD_REACTORS
330
123D7
102
}
330
123D7
100
AcDbScale
 70
     0
300
1/128" = 1'-0"
140
0.0078125
141
12.0
290
     0
  0
SCALE
  5
123DA
102
{ACAD_REACTORS
330
123D7
102
}
330
123D7
100
AcDbScale
 70
     0
300
1/64" = 1'-0"
140
0.015625
141
12.0
290
     0
  0
SCALE
  5
123DB
102
{ACAD_REACTORS
330
123D7
102
}
330
123D7
100
AcDbScale
 70
     0
300
1/32" = 1'-0"
140
0.03125
141
12.0
290
     0
  0
SCALE
  5
123DC
102
{ACAD_REACTORS
330
123D7
102
}
330
123D7
100
AcDbScale
 70
     0
300
1/16" = 1'-0"
140
0.0625
141
12.0
290
     0
  0
SCALE
  5
123DD
102
{ACAD_REACTORS
330
123D7
102
}
330
123D7
100
AcDbScale
 70
     0
300
3/32" = 1'-0"
140
0.09375
141
12.0
290
     0
  0
SCALE
  5
123DE
102
{ACAD_REACTORS
330
123D7
102
}
330
123D7
100
AcDbScale
 70
     0
300
1/8" = 1'-0"
140
0.125
141
12.0
290
     0
  0
SCALE
  5
123DF
102
{ACAD_REACTORS
330
123D7
102
}
330
123D7
100
AcDbScale
 70
     0
300
3/16" = 1'-0"
140
0.1875
141
12.0
290
     0
  0
SCALE
  5
123E0
102
{ACAD_REACTORS
330
123D7
102
}
330
123D7
100
AcDbScale
 70
     0
300
1/4" = 1'-0"
140
0.25
141
12.0
290
     0
  0
SCALE
  5
123E1
102
{ACAD_REACTORS
330
123D7
102
}
330
123D7
100
AcDbScale
 70
     0
300
3/8" = 1'-0"
140
0.375
141
12.0
290
     0
  0
SCALE
  5
123E2
102
{ACAD_REACTORS
330
123D7
102
}
330
123D7
100
AcDbScale
 70
     0
300
1/2" = 1'-0"
140
0.5
141
12.0
290
     0
  0
SCALE
  5
123E3
102
{ACAD_REACTORS
330
123D7
102
}
330
123D7
100
AcDbScale
 70
     0
300
3/4" = 1'-0"
140
0.75
141
12.0
290
     0
  0
SCALE
  5
123E4
102
{ACAD_REACTORS
330
123D7
102
}
330
123D7
100
AcDbScale
 70
     0
300
1" = 1'-0"
140
1.0
141
12.0
290
     0
  0
SCALE
  5
123E5
102
{ACAD_REACTORS
330
123D7
102
}
330
123D7
100
AcDbScale
 70
     0
300
1-1/2" = 1'-0"
140
1.5
141
12.0
290
     0
  0
SCALE
  5
123E6
102
{ACAD_REACTORS
330
123D7
102
}
330
123D7
100
AcDbScale
 70
     0
300
3" = 1'-0"
140
3.0
141
12.0
290
     0
  0
SCALE
  5
123E7
102
{ACAD_REACTORS
330
123D7
102
}
330
123D7
100
AcDbScale
 70
     0
300
6" = 1'-0"
140
6.0
141
12.0
290
     0
  0
SCALE
  5
123E8
102
{ACAD_REACTORS
330
123D7
102
}
330
123D7
100
AcDbScale
 70
     0
300
1'-0" = 1'-0"
140
12.0
141
12.0
290
     0
  0
ACDBSECTIONVIEWSTYLE
  5
123EC
102
{ACAD_XDICTIONARY
360
12447
102
}
102
{ACAD_REACTORS
330
123EB
102
}
330
123EB
100
AcDbModelDocViewStyle
 70
     0
  3
Imperial24
290
     0
100
AcDbSectionViewStyle
 70
     0
 71
     0
 90
       78
 71
     1
340
11E9E
 40
0.24
340
0
340
0
 40
0.24
300
I, O, Q, S, X, Z
 40
0.48
 90
        3
 40
0.18
 90
        1
 71
     2
340
11EA2
 90
       25
340
11EA2
 90
       50
 40
0.24
 40
0.0
 40
0.24
 71
     3
340
11E9E
 40
0.24
 90
        1
 40
0.75
 90
        1
300
%<\AcVar ViewType \f "%tc1">% %<\AcVar ViewSectionStartId>%-%<\AcVar ViewSectionEndId>%\PSCALE %<\AcVar ViewScale \f "%sn">%
 71
     4
300
ANSI31
 40
1.0
 90
        0
290
     0
290
     0
 90
        6
 40
0.0
 40
1.570796326794896
 40
0.2617993877991494
 40
1.308996938995747
 40
-0.2617993877991494
 40
1.832595714594046
  0
TABLESTYLE
  5
123D6
102
{ACAD_XDICTIONARY
360
1240E
102
}
102
{ACAD_REACTORS
330
123D5
102
}
330
123D5
100
AcDbTableStyle
  3
Standard
 70
     0
 71
     0
 40
0.06
 41
0.06
280
     0
281
     0
  7
STANDARD
140
0.18
170
     2
 62
     0
 63
     7
283
     0
274
    -2
284
     1
 64
     0
275
    -2
285
     1
 65
     0
276
    -2
286
     1
 66
     0
277
    -2
287
     1
 67
     0
278
    -2
288
     1
 68
     0
279
    -2
289
     1
 69
     0
  7
STANDARD
140
0.25
170
     5
 62
     0
 63
     7
283
     0
274
    -2
284
     1
 64
     0
275
    -2
285
     1
 65
     0
276
    -2
286
     1
 66
     0
277
    -2
287
     1
 67
     0
278
    -2
288
     1
 68
     0
279
    -2
289
     1
 69
     0
  7
STANDARD
140
0.18
170
     5
 62
     0
 63
     7
283
     0
274
    -2
284
     1
 64
     0
275
    -2
285
     1
 65
     0
276
    -2
286
     1
 66
     0
277
    -2
287
     1
 67
     0
278
    -2
288
     1
 68
     0
279
    -2
289
     1
 69
     0
  0
VISUALSTYLE
  5
123C1
102
{ACAD_XDICTIONARY
360
1241F
102
}
102
{ACAD_REACTORS
330
123BB
102
}
330
123BB
100
AcDbVisualStyle
  2
2dWireframe
 70
     4
 71
     0
 72
     2
 73
     0
 90
        0
 40
-0.6
 41
-30.0
 62
     5
 63
     7
 74
     1
 91
        4
 64
     7
 65
   257
 75
     1
175
     1
 42
1.0
 92
        0
 66
   257
 43
1.0
 76
     1
 77
     6
 78
     2
 67
     7
 79
     5
170
     0
171
     0
290
     0
174
     0
 93
        1
 44
0.0
173
     0
291
     0
 45
0.0
1001
ACAD
1000
AcDbSavedByObjectVersion
1070
     0
  0
VISUALSTYLE
  5
123C0
102
{ACAD_XDICTIONARY
360
1241D
102
}
102
{ACAD_REACTORS
330
123BB
102
}
330
123BB
100
AcDbVisualStyle
  2
Basic
 70
     7
 71
     1
 72
     0
 73
     1
 90
        0
 40
-0.6
 41
-30.0
 62
     5
 63
     7
 74
     0
 91
        4
 64
     7
 65
   257
 75
     1
175
     1
 42
1.0
 92
        8
 66
     7
 43
1.0
 76
     1
 77
     6
 78
     2
 67
     7
 79
     5
170
     0
171
     0
290
     0
174
     0
 93
        1
 44
0.0
173
     0
291
     1
 45
0.0
1001
ACAD
1000
AcDbSavedByObjectVersion
1070
     0
  0
VISUALSTYLE
  5
123C7
102
{ACAD_XDICTIONARY
360
1242B
102
}
102
{ACAD_REACTORS
330
123BB
102
}
330
123BB
100
AcDbVisualStyle
  2
Brighten
 70
    12
 71
     2
 72
     2
 73
     0
 90
        0
 40
-0.6
 41
-30.0
 62
     5
 63
     7
 74
     1
 91
        4
 64
     7
 65
   257
 75
     1
175
     1
 42
1.0
 92
        8
 66
     7
 43
1.0
 76
     1
 77
     6
 78
     2
 67
     7
 79
     5
170
     0
171
     0
290
     0
174
     0
 93
        1
 44
50.0
173
     0
291
     1
 45
0.0
1001
ACAD
1000
AcDbSavedByObjectVersion
1070
     0
  0
VISUALSTYLE
  5
123CB
102
{ACAD_XDICTIONARY
360
12433
102
}
102
{ACAD_REACTORS
330
123BB
102
}
330
123BB
100
AcDbVisualStyle
  2
ColorChange
 70
    16
 71
     2
 72
     2
 73
     3
 90
        0
 40
-0.6
 41
-30.0
 62
     5
 63
     8
 74
     1
 91
        4
 64
     7
 65
   257
 75
     1
175
     1
 42
1.0
 92
        8
 66
     8
 43
1.0
 76
     1
 77
     6
 78
     2
 67
     7
 79
     5
170
     0
171
     0
290
     0
174
     0
 93
        1
 44
0.0
173
     0
291
     1
 45
0.0
1001
ACAD
1000
AcDbSavedByObjectVersion
1070
     0
  0
VISUALSTYLE
  5
123C4
102
{ACAD_XDICTIONARY
360
12425
102
}
102
{ACAD_REACTORS
330
123BB
102
}
330
123BB
100
AcDbVisualStyle
  2
Conceptual
 70
     9
 71
     3
 72
     2
 73
     0
 90
        0
 40
-0.6
 41
-30.0
 62
     5
 63
     7
 74
     2
 91
        2
 64
     7
 65
   257
 75
     1
175
     1
 42
179.0
 92
        8
 66
     7
 43
1.0
 76
     1
 77
     6
 78
     2
 67
     7
 79
     3
170
     0
171
     0
290
     0
174
     0
 93
        1
 44
0.0
173
     0
291
     0
 45
0.0
1001
ACAD
1000
AcDbSavedByObjectVersion
1070
     0
  0
VISUALSTYLE
  5
123C6
102
{ACAD_XDICTIONARY
360
12429
102
}
102
{ACAD_REACTORS
330
123BB
102
}
330
123BB
100
AcDbVisualStyle
  2
Dim
 70
    11
 71
     2
 72
     2
 73
     0
 90
        0
 40
-0.6
 41
-30.0
 62
     5
 63
     7
 74
     1
 91
        4
 64
     7
 65
   257
 75
     1
175
     1
 42
1.0
 92
        8
 66
     7
 43
1.0
 76
     1
 77
     6
 78
     2
 67
     7
 79
     5
170
     0
171
     0
290
     0
174
     0
 93
        1
 44
-50.0
173
     0
291
     1
 45
0.0
1001
ACAD
1000
AcDbSavedByObjectVersion
1070
     0
  0
VISUALSTYLE
  5
123D3
102
{ACAD_XDICTIONARY
360
12443
102
}
102
{ACAD_REACTORS
330
123BB
102
}
330
123BB
100
AcDbVisualStyle
  2
EdgeColorOff
 70
    22
 71
     2
 72
     2
 73
     0
 90
        0
 40
-0.6
 41
-30.0
 62
     5
 63
     7
 74
     1
 91
        4
 64
     7
 65
   257
 75
     1
175
     1
 42
1.0
 92
        8
 66
     7
 43
1.0
 76
     1
 77
     6
 78
     2
 67
     7
 79
     5
170
     0
171
     0
290
     0
174
     0
 93
        1
 44
0.0
173
     0
291
     1
 45
0.0
1001
ACAD
1000
AcDbSavedByObjectVersion
1070
     0
  0
VISUALSTYLE
  5
123CA
102
{ACAD_XDICTIONARY
360
12431
102
}
102
{ACAD_REACTORS
330
123BB
102
}
330
123BB
100
AcDbVisualStyle
  2
Facepattern
 70
    15
 71
     2
 72
     2
 73
     0
 90
        0
 40
-0.6
 41
-30.0
 62
     5
 63
     7
 74
     1
 91
        4
 64
     7
 65
   257
 75
     1
175
     1
 42
1.0
 92
        8
 66
     7
 43
1.0
 76
     1
 77
     6
 78
     2
 67
     7
 79
     5
170
     0
171
     0
290
     0
174
     0
 93
        1
 44
0.0
173
     0
291
     1
 45
0.0
1001
ACAD
1000
AcDbSavedByObjectVersion
1070
     0
  0
VISUALSTYLE
  5
123BC
102
{ACAD_XDICTIONARY
360
12415
102
}
102
{ACAD_REACTORS
330
123BB
102
}
330
123BB
100
AcDbVisualStyle
  2
Flat
 70
     0
 71
     2
 72
     1
 73
     1
 90
        2
 40
-0.6
 41
30.0
 62
     5
 63
     7
 74
     0
 91
        0
 64
     7
 65
   257
 75
     1
175
     1
 42
1.0
 92
        8
 66
     7
 43
1.0
 76
     1
 77
     6
 78
     2
 67
     7
 79
     5
170
     0
171
     0
290
     0
174
     0
 93
       13
 44
0.0
173
     0
291
     1
 45
0.0
1001
ACAD
1000
AcDbSavedByObjectVersion
1070
     0
  0
VISUALSTYLE
  5
123BD
102
{ACAD_XDICTIONARY
360
12417
102
}
102
{ACAD_REACTORS
330
123BB
102
}
330
123BB
100
AcDbVisualStyle
  2
FlatWithEdges
 70
     1
 71
     2
 72
     1
 73
     1
 90
        2
 40
-0.6
 41
30.0
 62
     5
 63
     7
 74
     1
 91
        0
 64
     7
 65
   257
 75
     1
175
     1
 42
1.0
 92
        0
 66
   257
 43
1.0
 76
     1
 77
     6
 78
     2
 67
     7
 79
     5
170
     0
171
     0
290
     0
174
     0
 93
       13
 44
0.0
173
     0
291
     1
 45
0.0
1001
ACAD
1000
AcDbSavedByObjectVersion
1070
     0
  0
VISUALSTYLE
  5
123BE
102
{ACAD_XDICTIONARY
360
12419
102
}
102
{ACAD_REACTORS
330
123BB
102
}
330
123BB
100
AcDbVisualStyle
  2
Gouraud
 70
     2
 71
     2
 72
     2
 73
     1
 90
        2
 40
-0.6
 41
30.0
 62
     5
 63
     7
 74
     0
 91
        0
 64
     7
 65
   257
 75
     1
175
     1
 42
1.0
 92
        0
 66
     7
 43
1.0
 76
     1
 77
     6
 78
     2
 67
     7
 79
     5
170
     0
171
     0
290
     0
174
     0
 93
       13
 44
0.0
173
     0
291
     1
 45
0.0
1001
ACAD
1000
AcDbSavedByObjectVersion
1070
     0
  0
VISUALSTYLE
  5
123BF
102
{ACAD_XDICTIONARY
360
1241B
102
}
102
{ACAD_REACTORS
330
123BB
102
}
330
123BB
100
AcDbVisualStyle
  2
GouraudWithEdges
 70
     3
 71
     2
 72
     2
 73
     1
 90
        2
 40
-0.6
 41
30.0
 62
     5
 63
     7
 74
     1
 91
        0
 64
     7
 65
   257
 75
     1
175
     1
 42
1.0
 92
        0
 66
   257
 43
1.0
 76
     1
 77
     6
 78
     2
 67
     7
 79
     5
170
     0
171
     0
290
     0
174
     0
 93
       13
 44
0.0
173
     0
291
     1
 45
0.0
1001
ACAD
1000
AcDbSavedByObjectVersion
1070
     0
  0
VISUALSTYLE
  5
123C3
102
{ACAD_XDICTIONARY
360
12423
102
}
102
{ACAD_REACTORS
330
123BB
102
}
330
123BB
100
AcDbVisualStyle
  2
Hidden
 70
     6
 71
     1
 72
     2
 73
     2
 90
        0
 40
-0.6
 41
-30.0
 62
     5
 63
     7
 74
     2
 91
        2
 64
     7
 65
   257
 75
     2
175
     1
 42
40.0
 92
        0
 66
   257
 43
1.0
 76
     1
 77
     6
 78
     2
 67
     7
 79
     3
170
     0
171
     0
290
     0
174
     0
 93
        1
 44
0.0
173
     0
291
     0
 45
0.0
1001
ACAD
1000
AcDbSavedByObjectVersion
1070
     0
  0
VISUALSTYLE
  5
123D1
102
{ACAD_XDICTIONARY
360
1243F
102
}
102
{ACAD_REACTORS
330
123BB
102
}
330
123BB
100
AcDbVisualStyle
  2
JitterOff
 70
    20
 71
     2
 72
     2
 73
     0
 90
        0
 40
-0.6
 41
-30.0
 62
     5
 63
     7
 74
     1
 91
        4
 64
     7
 65
   257
 75
     1
175
     1
 42
1.0
 92
       10
 66
     7
 43
1.0
 76
     1
 77
     6
 78
     2
 67
     7
 79
     5
170
     0
171
     0
290
     0
174
     0
 93
        1
 44
0.0
173
     0
291
     1
 45
0.0
1001
ACAD
1000
AcDbSavedByObjectVersion
1070
     0
  0
VISUALSTYLE
  5
123C9
102
{ACAD_XDICTIONARY
360
1242F
102
}
102
{ACAD_REACTORS
330
123BB
102
}
330
123BB
100
AcDbVisualStyle
  2
Linepattern
 70
    14
 71
     2
 72
     2
 73
     0
 90
        0
 40
-0.6
 41
-30.0
 62
     5
 63
     7
 74
     1
 91
        4
 64
     7
 65
   257
 75
     7
175
     7
 42
1.0
 92
        8
 66
     7
 43
1.0
 76
     1
 77
     6
 78
     2
 67
     7
 79
     5
170
     0
171
     0
290
     0
174
     0
 93
        1
 44
0.0
173
     0
291
     1
 45
0.0
1001
ACAD
1000
AcDbSavedByObjectVersion
1070
     0
  0
VISUALSTYLE
  5
123D2
102
{ACAD_XDICTIONARY
360
12441
102
}
102
{ACAD_REACTORS
330
123BB
102
}
330
123BB
100
AcDbVisualStyle
  2
OverhangOff
 70
    21
 71
     2
 72
     2
 73
     0
 90
        0
 40
-0.6
 41
-30.0
 62
     5
 63
     7
 74
     1
 91
        4
 64
     7
 65
   257
 75
     1
175
     1
 42
1.0
 92
        9
 66
     7
 43
1.0
 76
     1
 77
     6
 78
     2
 67
     7
 79
     5
170
     0
171
     0
290
     0
174
     0
 93
        1
 44
0.0
173
     0
291
     1
 45
0.0
1001
ACAD
1000
AcDbSavedByObjectVersion
1070
     0
  0
VISUALSTYLE
  5
123C5
102
{ACAD_XDICTIONARY
360
12427
102
}
102
{ACAD_REACTORS
330
123BB
102
}
330
123BB
100
AcDbVisualStyle
  2
Realistic
 70
     8
 71
     2
 72
     3
 73
     0
 90
        2
 40
-0.6
 41
30.0
 62
     5
 63
     7
 74
     0
 91
        0
 64
     7
 65
   257
 75
     1
175
     1
 42
1.0
 92
        8
 66
   257
 43
1.0
 76
     1
 77
     6
 78
     2
 67
     7
 79
     3
170
     0
171
     0
290
     0
174
     0
 93
       13
 44
0.0
173
     0
291
     0
 45
0.0
1001
ACAD
1000
AcDbSavedByObjectVersion
1070
     0
  0
VISUALSTYLE
  5
123D0
102
{ACAD_XDICTIONARY
360
1243D
102
}
102
{ACAD_REACTORS
330
123BB
102
}
330
123BB
100
AcDbVisualStyle
  2
Shaded
 70
    27
 71
     2
 72
     2
 73
     1
 90
        2
 40
-0.6
 41
30.0
 62
     5
 63
     7
 74
     0
 91
        4
 64
     7
 65
   257
 75
     1
175
     1
 42
1.0
 92
        8
 66
   257
 43
1.0
 76
     1
 77
     6
 78
     2
 67
     8
 79
     3
170
     0
171
     0
290
     0
174
     0
 93
        5
 44
0.0
173
     0
291
     0
 45
0.0
1001
ACAD
1000
AcDbSavedByObjectVersion
1070
     0
  0
VISUALSTYLE
  5
123CF
102
{ACAD_XDICTIONARY
360
1243B
102
}
102
{ACAD_REACTORS
330
123BB
102
}
330
123BB
100
AcDbVisualStyle
  2
Shaded with edges
 70
    26
 71
     2
 72
     2
 73
     1
 90
        2
 40
-0.6
 41
30.0
 62
     5
 63
     7
 74
     1
 91
       10
 64
     7
 65
   257
 75
     2
175
     1
 42
1.0
 92
        8
 66
   257
 43
1.0
 76
     1
 77
     6
 78
     2
 67
     7
 79
     3
170
     0
171
     0
290
     0
174
     0
 93
        5
 44
0.0
173
     0
291
     0
 45
0.0
1001
ACAD
1000
AcDbSavedByObjectVersion
1070
     0
  0
VISUALSTYLE
  5
123CC
102
{ACAD_XDICTIONARY
360
12435
102
}
102
{ACAD_REACTORS
330
123BB
102
}
330
123BB
100
AcDbVisualStyle
  2
Shades of Gray
 70
    23
 71
     2
 72
     2
 73
     3
 90
        0
 40
-0.6
 41
-30.0
 62
     5
 63
     7
 74
     2
 91
        2
 64
     7
 65
     7
 75
     1
175
     1
 42
40.0
 92
        8
 66
     7
 43
1.0
 76
     1
 77
     6
 78
     2
 67
     7
 79
     3
170
     0
171
     0
290
     0
174
     0
 93
        1
 44
0.0
173
     0
291
     0
 45
0.0
1001
ACAD
1000
AcDbSavedByObjectVersion
1070
     0
  0
VISUALSTYLE
  5
123CD
102
{ACAD_XDICTIONARY
360
12437
102
}
102
{ACAD_REACTORS
330
123BB
102
}
330
123BB
100
AcDbVisualStyle
  2
Sketchy
 70
    24
 71
     1
 72
     2
 73
     2
 90
        0
 40
-0.6
 41
-30.0
 62
     5
 63
     7
 74
     2
 91
        2
 64
     7
 65
     7
 75
     1
175
     1
 42
40.0
 92
       11
 66
     7
 43
1.0
 76
     1
 77
     6
 78
     2
 67
     7
 79
     6
170
     0
171
     0
290
     0
174
     0
 93
        1
 44
0.0
173
     0
291
     0
 45
0.0
1001
ACAD
1000
AcDbSavedByObjectVersion
1070
     0
  0
VISUALSTYLE
  5
123C8
102
{ACAD_XDICTIONARY
360
1242D
102
}
102
{ACAD_REACTORS
330
123BB
102
}
330
123BB
100
AcDbVisualStyle
  2
Thicken
 70
    13
 71
     2
 72
     2
 73
     0
 90
        0
 40
-0.6
 41
-30.0
 62
     5
 63
     7
 74
     1
 91
        4
 64
     7
 65
   257
 75
     1
175
     1
 42
1.0
 92
       12
 66
     7
 43
1.0
 76
     1
 77
     6
 78
     2
 67
     7
 79
     5
170
     0
171
     0
290
     0
174
     0
 93
        1
 44
0.0
173
     0
291
     1
 45
0.0
1001
ACAD
1000
AcDbSavedByObjectVersion
1070
     0
  0
VISUALSTYLE
  5
123C2
102
{ACAD_XDICTIONARY
360
12421
102
}
102
{ACAD_REACTORS
330
123BB
102
}
330
123BB
100
AcDbVisualStyle
  2
Wireframe
 70
     5
 71
     0
 72
     2
 73
     0
 90
        0
 40
-0.6
 41
-30.0
 62
     5
 63
     7
 74
     1
 91
        4
 64
     7
 65
   257
 75
     1
175
     1
 42
1.0
 92
        0
 66
   257
 43
1.0
 76
     1
 77
     6
 78
     2
 67
     7
 79
     3
170
     0
171
     0
290
     0
174
     0
 93
        1
 44
0.0
173
     0
291
     0
 45
0.0
1001
ACAD
1000
AcDbSavedByObjectVersion
1070
     0
  0
VISUALSTYLE
  5
123CE
102
{ACAD_XDICTIONARY
360
12439
102
}
102
{ACAD_REACTORS
330
123BB
102
}
330
123BB
100
AcDbVisualStyle
  2
X-Ray
 70
    25
 71
     2
 72
     2
 73
     1
 90
        1
 40
0.5
 41
-30.0
 62
     5
 63
     7
 74
     1
 91
        0
 64
     7
 65
   257
 75
     1
175
     1
 42
1.0
 92
        8
 66
     7
 43
1.0
 76
     1
 77
     6
 78
     2
 67
     7
 79
     3
170
     0
171
     0
290
     0
174
     0
 93
       13
 44
0.0
173
     0
291
     0
 45
0.0
1001
ACAD
1000
AcDbSavedByObjectVersion
1070
     0
  0
DICTIONARYVAR
  5
12408
102
{ACAD_REACTORS
330
12403
102
}
330
12403
100
DictionaryVariables
280
     0
  1
1:1
  0
DICTIONARYVAR
  5
12405
102
{ACAD_REACTORS
330
12403
102
}
330
12403
100
DictionaryVariables
280
     0
  1
STANDARD
  0
DICTIONARYVAR
  5
12404
102
{ACAD_REACTORS
330
12403
102
}
330
12403
100
DictionaryVariables
280
     0
  1
STANDARD
  0
DICTIONARYVAR
  5
12406
102
{ACAD_REACTORS
330
12403
102
}
330
12403
100
DictionaryVariables
280
     0
  1
Imperial24
  0
DICTIONARYVAR
  5
12407
102
{ACAD_REACTORS
330
12403
102
}
330
12403
100
DictionaryVariables
280
     0
  1
Imperial24
  0
DICTIONARYVAR
  5
1240B
102
{ACAD_REACTORS
330
12403
102
}
330
12403
100
DictionaryVariables
280
     0
  1
1
  0
DICTIONARYVAR
  5
1240A
102
{ACAD_REACTORS
330
12403
102
}
330
12403
100
DictionaryVariables
280
     0
  1
0
  0
DICTIONARYVAR
  5
12409
102
{ACAD_REACTORS
330
12403
102
}
330
12403
100
DictionaryVariables
280
     0
  1
127
  0
DICTIONARYVAR
  5
1240C
102
{ACAD_REACTORS
330
12403
102
}
330
12403
100
DictionaryVariables
280
     0
  1
2
  0
DICTIONARY
  5
12449
330
123EE
100
AcDbDictionary
280
     1
281
     1
  3
ACAD_XREC_ROUNDTRIP
360
1244A
  0
DICTIONARY
  5
1244B
330
123EF
100
AcDbDictionary
280
     1
281
     1
  3
ACAD_XREC_ROUNDTRIP
360
1244C
  0
DICTIONARY
  5
1244D
330
123F0
100
AcDbDictionary
280
     1
281
     1
  3
ACAD_XREC_ROUNDTRIP
360
1244E
  0
DICTIONARY
  5
123AC
330
123AB
100
AcDbDictionary
280
     1
281
     1
  3
ACAD_XREC_ROUNDTRIP
360
12413
  3
BUMPTILE
360
123AE
  3
DIFFUSETILE
360
123AD
  3
OPACITYTILE
360
123B1
  3
REFLECTIONTILE
360
123B0
  3
REFRACTIONTILE
360
123B2
  3
SPECULARTILE
360
123AF
  0
DICTIONARY
  5
123A4
330
123A3
100
AcDbDictionary
280
     1
281
     1
  3
ACAD_XREC_ROUNDTRIP
360
12412
  3
BUMPTILE
360
123A6
  3
DIFFUSETILE
360
123A5
  3
OPACITYTILE
360
123A9
  3
REFLECTIONTILE
360
123A8
  3
REFRACTIONTILE
360
123AA
  3
SPECULARTILE
360
123A7
  0
DICTIONARY
  5
123B4
330
123B3
100
AcDbDictionary
280
     1
281
     1
  3
ACAD_XREC_ROUNDTRIP
360
12414
  3
BUMPTILE
360
123B6
  3
DIFFUSETILE
360
123B5
  3
OPACITYTILE
360
123B9
  3
REFLECTIONTILE
360
123B8
  3
REFRACTIONTILE
360
123BA
  3
SPECULARTILE
360
123B7
  0
DICTIONARY
  5
12447
330
123EC
100
AcDbDictionary
280
     1
281
     1
  3
ACAD_XREC_ROUNDTRIP
360
12448
  0
DICTIONARY
  5
1240E
330
123D6
100
AcDbDictionary
280
     1
281
     1
  3
ACAD_ROUNDTRIP_2008_TABLESTYLE_CELLSTYLEMAP
360
1240F
  3
ACAD_XREC_ROUNDTRIP
360
12445
  0
DICTIONARY
  5
1241F
330
123C1
100
AcDbDictionary
280
     1
281
     1
  3
ACAD_XREC_ROUNDTRIP
360
12420
  0
DICTIONARY
  5
1241D
330
123C0
100
AcDbDictionary
280
     1
281
     1
  3
ACAD_XREC_ROUNDTRIP
360
1241E
  0
DICTIONARY
  5
1242B
330
123C7
100
AcDbDictionary
280
     1
281
     1
  3
ACAD_XREC_ROUNDTRIP
360
1242C
  0
DICTIONARY
  5
12433
330
123CB
100
AcDbDictionary
280
     1
281
     1
  3
ACAD_XREC_ROUNDTRIP
360
12434
  0
DICTIONARY
  5
12425
330
123C4
100
AcDbDictionary
280
     1
281
     1
  3
ACAD_XREC_ROUNDTRIP
360
12426
  0
DICTIONARY
  5
12429
330
123C6
100
AcDbDictionary
280
     1
281
     1
  3
ACAD_XREC_ROUNDTRIP
360
1242A
  0
DICTIONARY
  5
12443
330
123D3
100
AcDbDictionary
280
     1
281
     1
  3
ACAD_XREC_ROUNDTRIP
360
12444
  0
DICTIONARY
  5
12431
330
123CA
100
AcDbDictionary
280
     1
281
     1
  3
ACAD_XREC_ROUNDTRIP
360
12432
  0
DICTIONARY
  5
12415
330
123BC
100
AcDbDictionary
280
     1
281
     1
  3
ACAD_XREC_ROUNDTRIP
360
12416
  0
DICTIONARY
  5
12417
330
123BD
100
AcDbDictionary
280
     1
281
     1
  3
ACAD_XREC_ROUNDTRIP
360
12418
  0
DICTIONARY
  5
12419
330
123BE
100
AcDbDictionary
280
     1
281
     1
  3
ACAD_XREC_ROUNDTRIP
360
1241A
  0
DICTIONARY
  5
1241B
330
123BF
100
AcDbDictionary
280
     1
281
     1
  3
ACAD_XREC_ROUNDTRIP
360
1241C
  0
DICTIONARY
  5
12423
330
123C3
100
AcDbDictionary
280
     1
281
     1
  3
ACAD_XREC_ROUNDTRIP
360
12424
  0
DICTIONARY
  5
1243F
330
123D1
100
AcDbDictionary
280
     1
281
     1
  3
ACAD_XREC_ROUNDTRIP
360
12440
  0
DICTIONARY
  5
1242F
330
123C9
100
AcDbDictionary
280
     1
281
     1
  3
ACAD_XREC_ROUNDTRIP
360
12430
  0
DICTIONARY
  5
12441
330
123D2
100
AcDbDictionary
280
     1
281
     1
  3
ACAD_XREC_ROUNDTRIP
360
12442
  0
DICTIONARY
  5
12427
330
123C5
100
AcDbDictionary
280
     1
281
     1
  3
ACAD_XREC_ROUNDTRIP
360
12428
  0
DICTIONARY
  5
1243D
330
123D0
100
AcDbDictionary
280
     1
281
     1
  3
ACAD_XREC_ROUNDTRIP
360
1243E
  0
DICTIONARY
  5
1243B
330
123CF
100
AcDbDictionary
280
     1
281
     1
  3
ACAD_XREC_ROUNDTRIP
360
1243C
  0
DICTIONARY
  5
12435
330
123CC
100
AcDbDictionary
280
     1
281
     1
  3
ACAD_XREC_ROUNDTRIP
360
12436
  0
DICTIONARY
  5
12437
330
123CD
100
AcDbDictionary
280
     1
281
     1
  3
ACAD_XREC_ROUNDTRIP
360
12438
  0
DICTIONARY
  5
1242D
330
123C8
100
AcDbDictionary
280
     1
281
     1
  3
ACAD_XREC_ROUNDTRIP
360
1242E
  0
DICTIONARY
  5
12421
330
123C2
100
AcDbDictionary
280
     1
281
     1
  3
ACAD_XREC_ROUNDTRIP
360
12422
  0
DICTIONARY
  5
12439
330
123CE
100
AcDbDictionary
280
     1
281
     1
  3
ACAD_XREC_ROUNDTRIP
360
1243A
  0
XRECORD
  5
1244A
102
{ACAD_REACTORS
330
12449
102
}
330
12449
100
AcDbXrecord
280
     1
102
DISPLAYNAME
  1
Imperial24
102
FLAGS
 90
        0
  0
XRECORD
  5
1244C
102
{ACAD_REACTORS
330
1244B
102
}
330
1244B
100
AcDbXrecord
280
     1
102
SHADEPLOT
 70
     0
102
SHADEPLOTRESLEVEL
 70
     2
102
SHADEPLOTCUSTOMDPI
 70
   300
  0
XRECORD
  5
1244E
102
{ACAD_REACTORS
330
1244D
102
}
330
1244D
100
AcDbXrecord
280
     1
102
SHADEPLOT
 70
     0
102
SHADEPLOTRESLEVEL
 70
     2
102
SHADEPLOTCUSTOMDPI
 70
   300
  0
XRECORD
  5
12413
102
{ACAD_REACTORS
330
123AC
102
}
330
123AC
100
AcDbXrecord
280
     1
102
MATERIAL
148
0.0
149
0.0
149
0.0
 93
        0
 94
      127
282
     0
 72
     0
 77
     0
171
     0
175
     0
179
     0
273
     0
  0
XRECORD
  5
123AE
102
{ACAD_REACTORS
330
123AC
102
}
330
123AC
100
AcDbXrecord
280
     1
270
     1
271
     1
  0
XRECORD
  5
123AD
102
{ACAD_REACTORS
330
123AC
102
}
330
123AC
100
AcDbXrecord
280
     1
270
     1
271
     1
  0
XRECORD
  5
123B1
102
{ACAD_REACTORS
330
123AC
102
}
330
123AC
100
AcDbXrecord
280
     1
270
     1
271
     1
  0
XRECORD
  5
123B0
102
{ACAD_REACTORS
330
123AC
102
}
330
123AC
100
AcDbXrecord
280
     1
270
     1
271
     1
  0
XRECORD
  5
123B2
102
{ACAD_REACTORS
330
123AC
102
}
330
123AC
100
AcDbXrecord
280
     1
270
     1
271
     1
  0
XRECORD
  5
123AF
102
{ACAD_REACTORS
330
123AC
102
}
330
123AC
100
AcDbXrecord
280
     1
270
     1
271
     1
  0
XRECORD
  5
12412
102
{ACAD_REACTORS
330
123A4
102
}
330
123A4
100
AcDbXrecord
280
     1
102
MATERIAL
148
0.0
149
0.0
149
0.0
 93
        0
 94
      127
282
     0
 72
     0
 77
     0
171
     0
175
     0
179
     0
273
     0
  0
XRECORD
  5
123A6
102
{ACAD_REACTORS
330
123A4
102
}
330
123A4
100
AcDbXrecord
280
     1
270
     1
271
     1
  0
XRECORD
  5
123A5
102
{ACAD_REACTORS
330
123A4
102
}
330
123A4
100
AcDbXrecord
280
     1
270
     1
271
     1
  0
XRECORD
  5
123A9
102
{ACAD_REACTORS
330
123A4
102
}
330
123A4
100
AcDbXrecord
280
     1
270
     1
271
     1
  0
XRECORD
  5
123A8
102
{ACAD_REACTORS
330
123A4
102
}
330
123A4
100
AcDbXrecord
280
     1
270
     1
271
     1
  0
XRECORD
  5
123AA
102
{ACAD_REACTORS
330
123A4
102
}
330
123A4
100
AcDbXrecord
280
     1
270
     1
271
     1
  0
XRECORD
  5
123A7
102
{ACAD_REACTORS
330
123A4
102
}
330
123A4
100
AcDbXrecord
280
     1
270
     1
271
     1
  0
XRECORD
  5
12414
102
{ACAD_REACTORS
330
123B4
102
}
330
123B4
100
AcDbXrecord
280
     1
102
MATERIAL
148
0.0
149
0.0
149
0.0
 93
        0
 94
      127
282
     0
 72
     0
 77
     0
171
     0
175
     0
179
     0
273
     0
  0
XRECORD
  5
123B6
102
{ACAD_REACTORS
330
123B4
102
}
330
123B4
100
AcDbXrecord
280
     1
270
     1
271
     1
  0
XRECORD
  5
123B5
102
{ACAD_REACTORS
330
123B4
102
}
330
123B4
100
AcDbXrecord
280
     1
270
     1
271
     1
  0
XRECORD
  5
123B9
102
{ACAD_REACTORS
330
123B4
102
}
330
123B4
100
AcDbXrecord
280
     1
270
     1
271
     1
  0
XRECORD
  5
123B8
102
{ACAD_REACTORS
330
123B4
102
}
330
123B4
100
AcDbXrecord
280
     1
270
     1
271
     1
  0
XRECORD
  5
123BA
102
{ACAD_REACTORS
330
123B4
102
}
330
123B4
100
AcDbXrecord
280
     1
270
     1
271
     1
  0
XRECORD
  5
123B7
102
{ACAD_REACTORS
330
123B4
102
}
330
123B4
100
AcDbXrecord
280
     1
270
     1
271
     1
  0
XRECORD
  5
12448
102
{ACAD_REACTORS
330
12447
102
}
330
12447
100
AcDbXrecord
280
     1
102
DISPLAYNAME
  1
Imperial24
102
FLAGS
 90
        0
  0
CELLSTYLEMAP
  5
1240F
102
{ACAD_REACTORS
330
1240E
102
}
330
1240E
100
AcDbCellStyleMap
 90
        3
300
CELLSTYLE
  1
TABLEFORMAT_BEGIN
 90
        5
170
     1
 91
        0
 92
    32768
 62
   257
 93
        1
300
CONTENTFORMAT
  1
CONTENTFORMAT_BEGIN
 90
        0
 91
        0
 92
      512
 93
        0
300

 40
0.0
140
1.0
 94
        5
 62
     0
340
11E9E
144
0.25
309
CONTENTFORMAT_END
171
     0
 94
        0
309
TABLEFORMAT_END
  1
CELLSTYLE_BEGIN
 90
        1
 91
        1
300
_TITLE
309
CELLSTYLE_END
300
CELLSTYLE
  1
TABLEFORMAT_BEGIN
 90
        5
170
     1
 91
        0
 92
        0
 62
   257
 93
        1
300
CONTENTFORMAT
  1
CONTENTFORMAT_BEGIN
 90
        0
 91
        0
 92
      512
 93
        0
300

 40
0.0
140
1.0
 94
        5
 62
     0
340
11E9E
144
0.18
309
CONTENTFORMAT_END
171
     0
 94
        0
309
TABLEFORMAT_END
  1
CELLSTYLE_BEGIN
 90
        2
 91
        1
300
_HEADER
309
CELLSTYLE_END
300
CELLSTYLE
  1
TABLEFORMAT_BEGIN
 90
        5
170
     1
 91
        0
 92
        0
 62
   257
 93
        1
300
CONTENTFORMAT
  1
CONTENTFORMAT_BEGIN
 90
        0
 91
        0
 92
      512
 93
        0
300

 40
0.0
140
1.0
 94
        2
 62
     0
340
11E9E
144
0.18
309
CONTENTFORMAT_END
171
     0
 94
        0
309
TABLEFORMAT_END
  1
CELLSTYLE_BEGIN
 90
        3
 91
        2
300
_DATA
309
CELLSTYLE_END
  0
XRECORD
  5
12445
102
{ACAD_REACTORS
330
1240E
102
}
330
1240E
100
AcDbXrecord
280
     1
102
ACAD_ROUNDTRIP_PRE2007_TABLESTYLE
 90
      512
 91
        0
  1

 92
      512
 93
        0
  2

 94
      512
 95
        0
  3

  0
XRECORD
  5
12420
102
{ACAD_REACTORS
330
1241F
102
}
330
1241F
100
AcDbXrecord
280
     1
102
RTVSPost2010Prop28
280
     1
102
RTVSPost2010PropOp28
 70
     1
102
RTVSPost2010Prop29
280
     1
102
RTVSPost2010PropOp29
 70
     1
102
RTVSPost2010Prop30
280
     0
102
RTVSPost2010PropOp30
 70
     1
102
RTVSPost2010Prop31
280
     0
102
RTVSPost2010PropOp31
 70
     1
102
RTVSPost2010Prop32
280
     0
102
RTVSPost2010PropOp32
 70
     1
102
RTVSPost2010Prop33
280
     0
102
RTVSPost2010PropOp33
 70
     1
102
RTVSPost2010Prop34
280
     0
102
RTVSPost2010PropOp34
 70
     1
102
RTVSPost2010Prop35
280
     0
102
RTVSPost2010PropOp35
 70
     1
102
RTVSPost2010Prop36
280
     0
102
RTVSPost2010PropOp36
 70
     1
102
RTVSPost2010Prop37
 90
       50
102
RTVSPost2010PropOp37
 70
     1
102
RTVSPost2010Prop38
140
0.0
102
RTVSPost2010PropOp38
 70
     1
102
RTVSPost2010Prop39
140
1.0
102
RTVSPost2010PropOp39
 70
     1
102
RTVSPost2010Prop40
 90
        0
102
RTVSPost2010PropOp40
 70
     1
102
RTVSPost2010Prop41ColorIndex
 90
       18
102
RTVSPost2010Prop41ColorRGB
 90
        0
102
RTVSPost2010PropOp41
 70
     1
102
RTVSPost2010Prop42
 90
       50
102
RTVSPost2010PropOp42
 70
     1
102
RTVSPost2010Prop43
 90
        3
102
RTVSPost2010PropOp43
 70
     1
102
RTVSPost2010Prop44ColorIndex
 90
        5
102
RTVSPost2010Prop44ColorRGB
 90
      255
102
RTVSPost2010PropOp44
 70
     1
102
RTVSPost2010Prop45
280
     0
102
RTVSPost2010PropOp45
 70
     1
102
RTVSPost2010Prop46
 90
       50
102
RTVSPost2010PropOp46
 70
     1
102
RTVSPost2010Prop47
 90
       50
102
RTVSPost2010PropOp47
 70
     1
102
RTVSPost2010Prop48
 90
       50
102
RTVSPost2010PropOp48
 70
     1
102
RTVSPost2010Prop49
280
     0
102
RTVSPost2010PropOp49
 70
     1
102
RTVSPost2010Prop50
 90
       50
102
RTVSPost2010PropOp50
 70
     1
102
RTVSPost2010Prop51ColorIndex
 90
      256
102
RTVSPost2010Prop51ColorRGB
 90
-16777216
102
RTVSPost2010PropOp51
 70
     0
102
RTVSPost2010Prop52
140
1.0
102
RTVSPost2010PropOp52
 70
     0
102
RTVSPost2010Prop53
 90
        2
102
RTVSPost2010PropOp53
 70
     1
102
RTVSPost2010Prop54
  1
strokes_ogs.tif
102
RTVSPost2010PropOp54
 70
     1
102
RTVSPost2010Prop55
280
     0
102
RTVSPost2010PropOp55
 70
     1
102
RTVSPost2010Prop56
140
1.0
102
RTVSPost2010PropOp56
 70
     1
102
RTVSPost2010Prop57
140
1.0
102
RTVSPost2010PropOp57
 70
     1
102
RTVSPropertyOp0
 70
     1
102
RTVSPropertyOp1
 70
     1
102
RTVSPropertyOp2
 70
     1
102
RTVSPropertyOp3
 70
     1
102
RTVSPropertyOp4
 70
     1
102
RTVSPropertyOp5
 70
     1
102
RTVSPropertyOp6
 70
     1
102
RTVSPropertyOp7
 70
     1
102
RTVSPropertyOp8
 70
     1
102
RTVSPropertyOp9
 70
     1
102
RTVSPropertyOp10
 70
     1
102
RTVSPropertyOp11
 70
     1
102
RTVSPropertyOp12
 70
     1
102
RTVSPropertyOp13
 70
     1
102
RTVSPropertyOp14
 70
     1
102
RTVSPropertyOp15
 70
     1
102
RTVSPropertyOp16
 70
     1
102
RTVSPropertyOp17
 70
     1
102
RTVSPropertyOp18
 70
     1
102
RTVSPropertyOp19
 70
     1
102
RTVSPropertyOp20
 70
     1
102
RTVSPropertyOp21
 70
     1
102
RTVSPropertyOp22
 70
     1
102
RTVSPropertyOp23
 70
     1
102
RTVSPropertyOp24
 70
     1
102
RTVSPropertyOp25
 70
     1
102
RTVSPropertyOp26
 70
     1
102
RTVSPropertyOp27
 70
     1
102
RTVSPropertyOp28
 70
     1
102
RTVSPropertyOp29
 70
     1
102
RTVSPropertyOp30
 70
     1
102
RTVSPropertyOp31
 70
     1
102
RTVSPropertyOp32
 70
     1
102
RTVSPropertyOp33
 70
     1
102
RTVSPropertyOp34
 70
     1
102
RTVSPropertyOp35
 70
     1
102
RTVSPropertyOp36
 70
     1
102
RTVSPropertyOp37
 70
     1
102
RTVSPropertyOp38
 70
     1
102
RTVSPropertyOp39
 70
     1
102
RTVSPropertyOp40
 70
     1
102
RTVSPropertyOp41
 70
     1
102
RTVSPropertyOp42
 70
     1
102
RTVSPropertyOp43
 70
     1
102
RTVSPropertyOp44
 70
     1
102
RTVSPropertyOp45
 70
     1
102
RTVSPropertyOp46
 70
     1
102
RTVSPropertyOp47
 70
     1
102
RTVSPropertyOp48
 70
     1
102
RTVSPropertyOp49
 70
     1
102
RTVSPropertyOp50
 70
     1
102
RTVSPropertyOp51
 70
     0
102
RTVSPropertyOp52
 70
     0
102
RTVSPropertyOp53
 70
     1
102
RTVSPropertyOp54
 70
     1
102
RTVSPropertyOp55
 70
     1
102
RTVSPropertyOp56
 70
     1
102
RTVSPropertyOp57
 70
     1
102
RTVSPropertyOp58
 70
     1
102
RTVSPropertyOp59
 70
     1
102
RTVSPropertyOp60
 70
     1
102
RTVSPropertyOp61
 70
     1
102
RTVSPropertyOp62
 70
     1
  0
XRECORD
  5
1241E
102
{ACAD_REACTORS
330
1241D
102
}
330
1241D
100
AcDbXrecord
280
     1
102
RTVSPost2010Prop28
280
     0
102
RTVSPost2010PropOp28
 70
     1
102
RTVSPost2010Prop29
280
     1
102
RTVSPost2010PropOp29
 70
     1
102
RTVSPost2010Prop30
280
     1
102
RTVSPost2010PropOp30
 70
     1
102
RTVSPost2010Prop31
280
     0
102
RTVSPost2010PropOp31
 70
     1
102
RTVSPost2010Prop32
280
     0
102
RTVSPost2010PropOp32
 70
     1
102
RTVSPost2010Prop33
280
     0
102
RTVSPost2010PropOp33
 70
     1
102
RTVSPost2010Prop34
280
     0
102
RTVSPost2010PropOp34
 70
     1
102
RTVSPost2010Prop35
280
     0
102
RTVSPost2010PropOp35
 70
     1
102
RTVSPost2010Prop36
280
     0
102
RTVSPost2010PropOp36
 70
     1
102
RTVSPost2010Prop37
 90
       50
102
RTVSPost2010PropOp37
 70
     1
102
RTVSPost2010Prop38
140
0.0
102
RTVSPost2010PropOp38
 70
     1
102
RTVSPost2010Prop39
140
1.0
102
RTVSPost2010PropOp39
 70
     1
102
RTVSPost2010Prop40
 90
        0
102
RTVSPost2010PropOp40
 70
     1
102
RTVSPost2010Prop41ColorIndex
 90
       18
102
RTVSPost2010Prop41ColorRGB
 90
        0
102
RTVSPost2010PropOp41
 70
     1
102
RTVSPost2010Prop42
 90
       50
102
RTVSPost2010PropOp42
 70
     1
102
RTVSPost2010Prop43
 90
        3
102
RTVSPost2010PropOp43
 70
     1
102
RTVSPost2010Prop44ColorIndex
 90
        5
102
RTVSPost2010Prop44ColorRGB
 90
      255
102
RTVSPost2010PropOp44
 70
     1
102
RTVSPost2010Prop45
280
     0
102
RTVSPost2010PropOp45
 70
     1
102
RTVSPost2010Prop46
 90
       50
102
RTVSPost2010PropOp46
 70
     1
102
RTVSPost2010Prop47
 90
       50
102
RTVSPost2010PropOp47
 70
     1
102
RTVSPost2010Prop48
 90
       50
102
RTVSPost2010PropOp48
 70
     1
102
RTVSPost2010Prop49
280
     0
102
RTVSPost2010PropOp49
 70
     1
102
RTVSPost2010Prop50
 90
       50
102
RTVSPost2010PropOp50
 70
     1
102
RTVSPost2010Prop51ColorIndex
 90
      256
102
RTVSPost2010Prop51ColorRGB
 90
-16777216
102
RTVSPost2010PropOp51
 70
     0
102
RTVSPost2010Prop52
140
1.0
102
RTVSPost2010PropOp52
 70
     0
102
RTVSPost2010Prop53
 90
        2
102
RTVSPost2010PropOp53
 70
     1
102
RTVSPost2010Prop54
  1
strokes_ogs.tif
102
RTVSPost2010PropOp54
 70
     1
102
RTVSPost2010Prop55
280
     0
102
RTVSPost2010PropOp55
 70
     1
102
RTVSPost2010Prop56
140
1.0
102
RTVSPost2010PropOp56
 70
     1
102
RTVSPost2010Prop57
140
1.0
102
RTVSPost2010PropOp57
 70
     1
102
RTVSPropertyOp0
 70
     1
102
RTVSPropertyOp1
 70
     1
102
RTVSPropertyOp2
 70
     1
102
RTVSPropertyOp3
 70
     1
102
RTVSPropertyOp4
 70
     1
102
RTVSPropertyOp5
 70
     1
102
RTVSPropertyOp6
 70
     1
102
RTVSPropertyOp7
 70
     1
102
RTVSPropertyOp8
 70
     1
102
RTVSPropertyOp9
 70
     1
102
RTVSPropertyOp10
 70
     1
102
RTVSPropertyOp11
 70
     1
102
RTVSPropertyOp12
 70
     1
102
RTVSPropertyOp13
 70
     1
102
RTVSPropertyOp14
 70
     1
102
RTVSPropertyOp15
 70
     1
102
RTVSPropertyOp16
 70
     1
102
RTVSPropertyOp17
 70
     1
102
RTVSPropertyOp18
 70
     1
102
RTVSPropertyOp19
 70
     1
102
RTVSPropertyOp20
 70
     1
102
RTVSPropertyOp21
 70
     1
102
RTVSPropertyOp22
 70
     1
102
RTVSPropertyOp23
 70
     1
102
RTVSPropertyOp24
 70
     1
102
RTVSPropertyOp25
 70
     1
102
RTVSPropertyOp26
 70
     1
102
RTVSPropertyOp27
 70
     1
102
RTVSPropertyOp28
 70
     1
102
RTVSPropertyOp29
 70
     1
102
RTVSPropertyOp30
 70
     1
102
RTVSPropertyOp31
 70
     1
102
RTVSPropertyOp32
 70
     1
102
RTVSPropertyOp33
 70
     1
102
RTVSPropertyOp34
 70
     1
102
RTVSPropertyOp35
 70
     1
102
RTVSPropertyOp36
 70
     1
102
RTVSPropertyOp37
 70
     1
102
RTVSPropertyOp38
 70
     1
102
RTVSPropertyOp39
 70
     1
102
RTVSPropertyOp40
 70
     1
102
RTVSPropertyOp41
 70
     1
102
RTVSPropertyOp42
 70
     1
102
RTVSPropertyOp43
 70
     1
102
RTVSPropertyOp44
 70
     1
102
RTVSPropertyOp45
 70
     1
102
RTVSPropertyOp46
 70
     1
102
RTVSPropertyOp47
 70
     1
102
RTVSPropertyOp48
 70
     1
102
RTVSPropertyOp49
 70
     1
102
RTVSPropertyOp50
 70
     1
102
RTVSPropertyOp51
 70
     0
102
RTVSPropertyOp52
 70
     0
102
RTVSPropertyOp53
 70
     1
102
RTVSPropertyOp54
 70
     1
102
RTVSPropertyOp55
 70
     1
102
RTVSPropertyOp56
 70
     1
102
RTVSPropertyOp57
 70
     1
102
RTVSPropertyOp58
 70
     1
102
RTVSPropertyOp59
 70
     1
102
RTVSPropertyOp60
 70
     1
102
RTVSPropertyOp61
 70
     1
102
RTVSPropertyOp62
 70
     1
  0
XRECORD
  5
1242C
102
{ACAD_REACTORS
330
1242B
102
}
330
1242B
100
AcDbXrecord
280
     1
102
RTVSPost2010Prop28
280
     0
102
RTVSPost2010PropOp28
 70
     1
102
RTVSPost2010Prop29
280
     1
102
RTVSPost2010PropOp29
 70
     1
102
RTVSPost2010Prop30
280
     1
102
RTVSPost2010PropOp30
 70
     1
102
RTVSPost2010Prop31
280
     0
102
RTVSPost2010PropOp31
 70
     1
102
RTVSPost2010Prop32
280
     0
102
RTVSPost2010PropOp32
 70
     1
102
RTVSPost2010Prop33
280
     0
102
RTVSPost2010PropOp33
 70
     1
102
RTVSPost2010Prop34
280
     0
102
RTVSPost2010PropOp34
 70
     1
102
RTVSPost2010Prop35
280
     0
102
RTVSPost2010PropOp35
 70
     1
102
RTVSPost2010Prop36
280
     0
102
RTVSPost2010PropOp36
 70
     1
102
RTVSPost2010Prop37
 90
       50
102
RTVSPost2010PropOp37
 70
     1
102
RTVSPost2010Prop38
140
0.0
102
RTVSPost2010PropOp38
 70
     1
102
RTVSPost2010Prop39
140
1.0
102
RTVSPost2010PropOp39
 70
     1
102
RTVSPost2010Prop40
 90
        0
102
RTVSPost2010PropOp40
 70
     1
102
RTVSPost2010Prop41ColorIndex
 90
       18
102
RTVSPost2010Prop41ColorRGB
 90
        0
102
RTVSPost2010PropOp41
 70
     1
102
RTVSPost2010Prop42
 90
       50
102
RTVSPost2010PropOp42
 70
     1
102
RTVSPost2010Prop43
 90
        3
102
RTVSPost2010PropOp43
 70
     1
102
RTVSPost2010Prop44ColorIndex
 90
        5
102
RTVSPost2010Prop44ColorRGB
 90
      255
102
RTVSPost2010PropOp44
 70
     1
102
RTVSPost2010Prop45
280
     0
102
RTVSPost2010PropOp45
 70
     1
102
RTVSPost2010Prop46
 90
       50
102
RTVSPost2010PropOp46
 70
     1
102
RTVSPost2010Prop47
 90
       50
102
RTVSPost2010PropOp47
 70
     1
102
RTVSPost2010Prop48
 90
       50
102
RTVSPost2010PropOp48
 70
     1
102
RTVSPost2010Prop49
280
     0
102
RTVSPost2010PropOp49
 70
     1
102
RTVSPost2010Prop50
 90
       50
102
RTVSPost2010PropOp50
 70
     1
102
RTVSPost2010Prop51ColorIndex
 90
      256
102
RTVSPost2010Prop51ColorRGB
 90
-16777216
102
RTVSPost2010PropOp51
 70
     0
102
RTVSPost2010Prop52
140
1.0
102
RTVSPost2010PropOp52
 70
     0
102
RTVSPost2010Prop53
 90
        2
102
RTVSPost2010PropOp53
 70
     1
102
RTVSPost2010Prop54
  1
strokes_ogs.tif
102
RTVSPost2010PropOp54
 70
     1
102
RTVSPost2010Prop55
280
     0
102
RTVSPost2010PropOp55
 70
     1
102
RTVSPost2010Prop56
140
1.0
102
RTVSPost2010PropOp56
 70
     1
102
RTVSPost2010Prop57
140
1.0
102
RTVSPost2010PropOp57
 70
     1
102
RTVSPropertyOp0
 70
     1
102
RTVSPropertyOp1
 70
     1
102
RTVSPropertyOp2
 70
     1
102
RTVSPropertyOp3
 70
     1
102
RTVSPropertyOp4
 70
     1
102
RTVSPropertyOp5
 70
     1
102
RTVSPropertyOp6
 70
     1
102
RTVSPropertyOp7
 70
     1
102
RTVSPropertyOp8
 70
     1
102
RTVSPropertyOp9
 70
     1
102
RTVSPropertyOp10
 70
     1
102
RTVSPropertyOp11
 70
     1
102
RTVSPropertyOp12
 70
     1
102
RTVSPropertyOp13
 70
     1
102
RTVSPropertyOp14
 70
     1
102
RTVSPropertyOp15
 70
     1
102
RTVSPropertyOp16
 70
     1
102
RTVSPropertyOp17
 70
     1
102
RTVSPropertyOp18
 70
     1
102
RTVSPropertyOp19
 70
     1
102
RTVSPropertyOp20
 70
     1
102
RTVSPropertyOp21
 70
     1
102
RTVSPropertyOp22
 70
     1
102
RTVSPropertyOp23
 70
     1
102
RTVSPropertyOp24
 70
     1
102
RTVSPropertyOp25
 70
     1
102
RTVSPropertyOp26
 70
     1
102
RTVSPropertyOp27
 70
     1
102
RTVSPropertyOp28
 70
     1
102
RTVSPropertyOp29
 70
     1
102
RTVSPropertyOp30
 70
     1
102
RTVSPropertyOp31
 70
     1
102
RTVSPropertyOp32
 70
     1
102
RTVSPropertyOp33
 70
     1
102
RTVSPropertyOp34
 70
     1
102
RTVSPropertyOp35
 70
     1
102
RTVSPropertyOp36
 70
     1
102
RTVSPropertyOp37
 70
     1
102
RTVSPropertyOp38
 70
     1
102
RTVSPropertyOp39
 70
     1
102
RTVSPropertyOp40
 70
     1
102
RTVSPropertyOp41
 70
     1
102
RTVSPropertyOp42
 70
     1
102
RTVSPropertyOp43
 70
     1
102
RTVSPropertyOp44
 70
     1
102
RTVSPropertyOp45
 70
     1
102
RTVSPropertyOp46
 70
     1
102
RTVSPropertyOp47
 70
     1
102
RTVSPropertyOp48
 70
     1
102
RTVSPropertyOp49
 70
     1
102
RTVSPropertyOp50
 70
     1
102
RTVSPropertyOp51
 70
     0
102
RTVSPropertyOp52
 70
     0
102
RTVSPropertyOp53
 70
     1
102
RTVSPropertyOp54
 70
     1
102
RTVSPropertyOp55
 70
     1
102
RTVSPropertyOp56
 70
     1
102
RTVSPropertyOp57
 70
     1
102
RTVSPropertyOp58
 70
     1
102
RTVSPropertyOp59
 70
     1
102
RTVSPropertyOp60
 70
     1
102
RTVSPropertyOp61
 70
     1
102
RTVSPropertyOp62
 70
     1
  0
XRECORD
  5
12434
102
{ACAD_REACTORS
330
12433
102
}
330
12433
100
AcDbXrecord
280
     1
102
RTVSPost2010Prop28
280
     0
102
RTVSPost2010PropOp28
 70
     1
102
RTVSPost2010Prop29
280
     1
102
RTVSPost2010PropOp29
 70
     1
102
RTVSPost2010Prop30
280
     1
102
RTVSPost2010PropOp30
 70
     1
102
RTVSPost2010Prop31
280
     0
102
RTVSPost2010PropOp31
 70
     1
102
RTVSPost2010Prop32
280
     0
102
RTVSPost2010PropOp32
 70
     1
102
RTVSPost2010Prop33
280
     0
102
RTVSPost2010PropOp33
 70
     1
102
RTVSPost2010Prop34
280
     0
102
RTVSPost2010PropOp34
 70
     1
102
RTVSPost2010Prop35
280
     0
102
RTVSPost2010PropOp35
 70
     1
102
RTVSPost2010Prop36
280
     0
102
RTVSPost2010PropOp36
 70
     1
102
RTVSPost2010Prop37
 90
       50
102
RTVSPost2010PropOp37
 70
     1
102
RTVSPost2010Prop38
140
0.0
102
RTVSPost2010PropOp38
 70
     1
102
RTVSPost2010Prop39
140
1.0
102
RTVSPost2010PropOp39
 70
     1
102
RTVSPost2010Prop40
 90
        0
102
RTVSPost2010PropOp40
 70
     1
102
RTVSPost2010Prop41ColorIndex
 90
       18
102
RTVSPost2010Prop41ColorRGB
 90
        0
102
RTVSPost2010PropOp41
 70
     1
102
RTVSPost2010Prop42
 90
       50
102
RTVSPost2010PropOp42
 70
     1
102
RTVSPost2010Prop43
 90
        3
102
RTVSPost2010PropOp43
 70
     1
102
RTVSPost2010Prop44ColorIndex
 90
        5
102
RTVSPost2010Prop44ColorRGB
 90
      255
102
RTVSPost2010PropOp44
 70
     1
102
RTVSPost2010Prop45
280
     0
102
RTVSPost2010PropOp45
 70
     1
102
RTVSPost2010Prop46
 90
       50
102
RTVSPost2010PropOp46
 70
     1
102
RTVSPost2010Prop47
 90
       50
102
RTVSPost2010PropOp47
 70
     1
102
RTVSPost2010Prop48
 90
       50
102
RTVSPost2010PropOp48
 70
     1
102
RTVSPost2010Prop49
280
     0
102
RTVSPost2010PropOp49
 70
     1
102
RTVSPost2010Prop50
 90
       50
102
RTVSPost2010PropOp50
 70
     1
102
RTVSPost2010Prop51ColorIndex
 90
      256
102
RTVSPost2010Prop51ColorRGB
 90
-16777216
102
RTVSPost2010PropOp51
 70
     0
102
RTVSPost2010Prop52
140
1.0
102
RTVSPost2010PropOp52
 70
     0
102
RTVSPost2010Prop53
 90
        2
102
RTVSPost2010PropOp53
 70
     1
102
RTVSPost2010Prop54
  1
strokes_ogs.tif
102
RTVSPost2010PropOp54
 70
     1
102
RTVSPost2010Prop55
280
     0
102
RTVSPost2010PropOp55
 70
     1
102
RTVSPost2010Prop56
140
1.0
102
RTVSPost2010PropOp56
 70
     1
102
RTVSPost2010Prop57
140
1.0
102
RTVSPost2010PropOp57
 70
     1
102
RTVSPropertyOp0
 70
     1
102
RTVSPropertyOp1
 70
     1
102
RTVSPropertyOp2
 70
     1
102
RTVSPropertyOp3
 70
     1
102
RTVSPropertyOp4
 70
     1
102
RTVSPropertyOp5
 70
     1
102
RTVSPropertyOp6
 70
     1
102
RTVSPropertyOp7
 70
     1
102
RTVSPropertyOp8
 70
     1
102
RTVSPropertyOp9
 70
     1
102
RTVSPropertyOp10
 70
     1
102
RTVSPropertyOp11
 70
     1
102
RTVSPropertyOp12
 70
     1
102
RTVSPropertyOp13
 70
     1
102
RTVSPropertyOp14
 70
     1
102
RTVSPropertyOp15
 70
     1
102
RTVSPropertyOp16
 70
     1
102
RTVSPropertyOp17
 70
     1
102
RTVSPropertyOp18
 70
     1
102
RTVSPropertyOp19
 70
     1
102
RTVSPropertyOp20
 70
     1
102
RTVSPropertyOp21
 70
     1
102
RTVSPropertyOp22
 70
     1
102
RTVSPropertyOp23
 70
     1
102
RTVSPropertyOp24
 70
     1
102
RTVSPropertyOp25
 70
     1
102
RTVSPropertyOp26
 70
     1
102
RTVSPropertyOp27
 70
     1
102
RTVSPropertyOp28
 70
     1
102
RTVSPropertyOp29
 70
     1
102
RTVSPropertyOp30
 70
     1
102
RTVSPropertyOp31
 70
     1
102
RTVSPropertyOp32
 70
     1
102
RTVSPropertyOp33
 70
     1
102
RTVSPropertyOp34
 70
     1
102
RTVSPropertyOp35
 70
     1
102
RTVSPropertyOp36
 70
     1
102
RTVSPropertyOp37
 70
     1
102
RTVSPropertyOp38
 70
     1
102
RTVSPropertyOp39
 70
     1
102
RTVSPropertyOp40
 70
     1
102
RTVSPropertyOp41
 70
     1
102
RTVSPropertyOp42
 70
     1
102
RTVSPropertyOp43
 70
     1
102
RTVSPropertyOp44
 70
     1
102
RTVSPropertyOp45
 70
     1
102
RTVSPropertyOp46
 70
     1
102
RTVSPropertyOp47
 70
     1
102
RTVSPropertyOp48
 70
     1
102
RTVSPropertyOp49
 70
     1
102
RTVSPropertyOp50
 70
     1
102
RTVSPropertyOp51
 70
     0
102
RTVSPropertyOp52
 70
     0
102
RTVSPropertyOp53
 70
     1
102
RTVSPropertyOp54
 70
     1
102
RTVSPropertyOp55
 70
     1
102
RTVSPropertyOp56
 70
     1
102
RTVSPropertyOp57
 70
     1
102
RTVSPropertyOp58
 70
     1
102
RTVSPropertyOp59
 70
     1
102
RTVSPropertyOp60
 70
     1
102
RTVSPropertyOp61
 70
     1
102
RTVSPropertyOp62
 70
     1
  0
XRECORD
  5
12426
102
{ACAD_REACTORS
330
12425
102
}
330
12425
100
AcDbXrecord
280
     1
102
RTVSPost2010Prop28
280
     0
102
RTVSPost2010PropOp28
 70
     1
102
RTVSPost2010Prop29
280
     1
102
RTVSPost2010PropOp29
 70
     1
102
RTVSPost2010Prop30
280
     1
102
RTVSPost2010PropOp30
 70
     1
102
RTVSPost2010Prop31
280
     0
102
RTVSPost2010PropOp31
 70
     1
102
RTVSPost2010Prop32
280
     0
102
RTVSPost2010PropOp32
 70
     1
102
RTVSPost2010Prop33
280
     0
102
RTVSPost2010PropOp33
 70
     1
102
RTVSPost2010Prop34
280
     0
102
RTVSPost2010PropOp34
 70
     1
102
RTVSPost2010Prop35
280
     0
102
RTVSPost2010PropOp35
 70
     1
102
RTVSPost2010Prop36
280
     0
102
RTVSPost2010PropOp36
 70
     1
102
RTVSPost2010Prop37
 90
       50
102
RTVSPost2010PropOp37
 70
     1
102
RTVSPost2010Prop38
140
0.0
102
RTVSPost2010PropOp38
 70
     1
102
RTVSPost2010Prop39
140
1.0
102
RTVSPost2010PropOp39
 70
     1
102
RTVSPost2010Prop40
 90
        0
102
RTVSPost2010PropOp40
 70
     1
102
RTVSPost2010Prop41ColorIndex
 90
       18
102
RTVSPost2010Prop41ColorRGB
 90
        0
102
RTVSPost2010PropOp41
 70
     1
102
RTVSPost2010Prop42
 90
       50
102
RTVSPost2010PropOp42
 70
     1
102
RTVSPost2010Prop43
 90
        3
102
RTVSPost2010PropOp43
 70
     1
102
RTVSPost2010Prop44ColorIndex
 90
        5
102
RTVSPost2010Prop44ColorRGB
 90
      255
102
RTVSPost2010PropOp44
 70
     1
102
RTVSPost2010Prop45
280
     0
102
RTVSPost2010PropOp45
 70
     1
102
RTVSPost2010Prop46
 90
       50
102
RTVSPost2010PropOp46
 70
     1
102
RTVSPost2010Prop47
 90
       50
102
RTVSPost2010PropOp47
 70
     1
102
RTVSPost2010Prop48
 90
       50
102
RTVSPost2010PropOp48
 70
     1
102
RTVSPost2010Prop49
280
     0
102
RTVSPost2010PropOp49
 70
     1
102
RTVSPost2010Prop50
 90
       50
102
RTVSPost2010PropOp50
 70
     1
102
RTVSPost2010Prop51ColorIndex
 90
      256
102
RTVSPost2010Prop51ColorRGB
 90
-16777216
102
RTVSPost2010PropOp51
 70
     0
102
RTVSPost2010Prop52
140
1.0
102
RTVSPost2010PropOp52
 70
     0
102
RTVSPost2010Prop53
 90
        2
102
RTVSPost2010PropOp53
 70
     1
102
RTVSPost2010Prop54
  1
strokes_ogs.tif
102
RTVSPost2010PropOp54
 70
     1
102
RTVSPost2010Prop55
280
     0
102
RTVSPost2010PropOp55
 70
     1
102
RTVSPost2010Prop56
140
1.0
102
RTVSPost2010PropOp56
 70
     1
102
RTVSPost2010Prop57
140
1.0
102
RTVSPost2010PropOp57
 70
     1
102
RTVSPropertyOp0
 70
     1
102
RTVSPropertyOp1
 70
     1
102
RTVSPropertyOp2
 70
     1
102
RTVSPropertyOp3
 70
     1
102
RTVSPropertyOp4
 70
     1
102
RTVSPropertyOp5
 70
     1
102
RTVSPropertyOp6
 70
     1
102
RTVSPropertyOp7
 70
     1
102
RTVSPropertyOp8
 70
     1
102
RTVSPropertyOp9
 70
     1
102
RTVSPropertyOp10
 70
     1
102
RTVSPropertyOp11
 70
     1
102
RTVSPropertyOp12
 70
     1
102
RTVSPropertyOp13
 70
     1
102
RTVSPropertyOp14
 70
     1
102
RTVSPropertyOp15
 70
     1
102
RTVSPropertyOp16
 70
     1
102
RTVSPropertyOp17
 70
     1
102
RTVSPropertyOp18
 70
     1
102
RTVSPropertyOp19
 70
     1
102
RTVSPropertyOp20
 70
     1
102
RTVSPropertyOp21
 70
     1
102
RTVSPropertyOp22
 70
     1
102
RTVSPropertyOp23
 70
     1
102
RTVSPropertyOp24
 70
     1
102
RTVSPropertyOp25
 70
     1
102
RTVSPropertyOp26
 70
     1
102
RTVSPropertyOp27
 70
     1
102
RTVSPropertyOp28
 70
     1
102
RTVSPropertyOp29
 70
     1
102
RTVSPropertyOp30
 70
     1
102
RTVSPropertyOp31
 70
     1
102
RTVSPropertyOp32
 70
     1
102
RTVSPropertyOp33
 70
     1
102
RTVSPropertyOp34
 70
     1
102
RTVSPropertyOp35
 70
     1
102
RTVSPropertyOp36
 70
     1
102
RTVSPropertyOp37
 70
     1
102
RTVSPropertyOp38
 70
     1
102
RTVSPropertyOp39
 70
     1
102
RTVSPropertyOp40
 70
     1
102
RTVSPropertyOp41
 70
     1
102
RTVSPropertyOp42
 70
     1
102
RTVSPropertyOp43
 70
     1
102
RTVSPropertyOp44
 70
     1
102
RTVSPropertyOp45
 70
     1
102
RTVSPropertyOp46
 70
     1
102
RTVSPropertyOp47
 70
     1
102
RTVSPropertyOp48
 70
     1
102
RTVSPropertyOp49
 70
     1
102
RTVSPropertyOp50
 70
     1
102
RTVSPropertyOp51
 70
     0
102
RTVSPropertyOp52
 70
     0
102
RTVSPropertyOp53
 70
     1
102
RTVSPropertyOp54
 70
     1
102
RTVSPropertyOp55
 70
     1
102
RTVSPropertyOp56
 70
     1
102
RTVSPropertyOp57
 70
     1
102
RTVSPropertyOp58
 70
     1
102
RTVSPropertyOp59
 70
     1
102
RTVSPropertyOp60
 70
     1
102
RTVSPropertyOp61
 70
     1
102
RTVSPropertyOp62
 70
     1
  0
XRECORD
  5
1242A
102
{ACAD_REACTORS
330
12429
102
}
330
12429
100
AcDbXrecord
280
     1
102
RTVSPost2010Prop28
280
     0
102
RTVSPost2010PropOp28
 70
     1
102
RTVSPost2010Prop29
280
     1
102
RTVSPost2010PropOp29
 70
     1
102
RTVSPost2010Prop30
280
     1
102
RTVSPost2010PropOp30
 70
     1
102
RTVSPost2010Prop31
280
     0
102
RTVSPost2010PropOp31
 70
     1
102
RTVSPost2010Prop32
280
     0
102
RTVSPost2010PropOp32
 70
     1
102
RTVSPost2010Prop33
280
     0
102
RTVSPost2010PropOp33
 70
     1
102
RTVSPost2010Prop34
280
     0
102
RTVSPost2010PropOp34
 70
     1
102
RTVSPost2010Prop35
280
     0
102
RTVSPost2010PropOp35
 70
     1
102
RTVSPost2010Prop36
280
     0
102
RTVSPost2010PropOp36
 70
     1
102
RTVSPost2010Prop37
 90
       50
102
RTVSPost2010PropOp37
 70
     1
102
RTVSPost2010Prop38
140
0.0
102
RTVSPost2010PropOp38
 70
     1
102
RTVSPost2010Prop39
140
1.0
102
RTVSPost2010PropOp39
 70
     1
102
RTVSPost2010Prop40
 90
        0
102
RTVSPost2010PropOp40
 70
     1
102
RTVSPost2010Prop41ColorIndex
 90
       18
102
RTVSPost2010Prop41ColorRGB
 90
        0
102
RTVSPost2010PropOp41
 70
     1
102
RTVSPost2010Prop42
 90
       50
102
RTVSPost2010PropOp42
 70
     1
102
RTVSPost2010Prop43
 90
        3
102
RTVSPost2010PropOp43
 70
     1
102
RTVSPost2010Prop44ColorIndex
 90
        5
102
RTVSPost2010Prop44ColorRGB
 90
      255
102
RTVSPost2010PropOp44
 70
     1
102
RTVSPost2010Prop45
280
     0
102
RTVSPost2010PropOp45
 70
     1
102
RTVSPost2010Prop46
 90
       50
102
RTVSPost2010PropOp46
 70
     1
102
RTVSPost2010Prop47
 90
       50
102
RTVSPost2010PropOp47
 70
     1
102
RTVSPost2010Prop48
 90
       50
102
RTVSPost2010PropOp48
 70
     1
102
RTVSPost2010Prop49
280
     0
102
RTVSPost2010PropOp49
 70
     1
102
RTVSPost2010Prop50
 90
       50
102
RTVSPost2010PropOp50
 70
     1
102
RTVSPost2010Prop51ColorIndex
 90
      256
102
RTVSPost2010Prop51ColorRGB
 90
-16777216
102
RTVSPost2010PropOp51
 70
     0
102
RTVSPost2010Prop52
140
1.0
102
RTVSPost2010PropOp52
 70
     0
102
RTVSPost2010Prop53
 90
        2
102
RTVSPost2010PropOp53
 70
     1
102
RTVSPost2010Prop54
  1
strokes_ogs.tif
102
RTVSPost2010PropOp54
 70
     1
102
RTVSPost2010Prop55
280
     0
102
RTVSPost2010PropOp55
 70
     1
102
RTVSPost2010Prop56
140
1.0
102
RTVSPost2010PropOp56
 70
     1
102
RTVSPost2010Prop57
140
1.0
102
RTVSPost2010PropOp57
 70
     1
102
RTVSPropertyOp0
 70
     1
102
RTVSPropertyOp1
 70
     1
102
RTVSPropertyOp2
 70
     1
102
RTVSPropertyOp3
 70
     1
102
RTVSPropertyOp4
 70
     1
102
RTVSPropertyOp5
 70
     1
102
RTVSPropertyOp6
 70
     1
102
RTVSPropertyOp7
 70
     1
102
RTVSPropertyOp8
 70
     1
102
RTVSPropertyOp9
 70
     1
102
RTVSPropertyOp10
 70
     1
102
RTVSPropertyOp11
 70
     1
102
RTVSPropertyOp12
 70
     1
102
RTVSPropertyOp13
 70
     1
102
RTVSPropertyOp14
 70
     1
102
RTVSPropertyOp15
 70
     1
102
RTVSPropertyOp16
 70
     1
102
RTVSPropertyOp17
 70
     1
102
RTVSPropertyOp18
 70
     1
102
RTVSPropertyOp19
 70
     1
102
RTVSPropertyOp20
 70
     1
102
RTVSPropertyOp21
 70
     1
102
RTVSPropertyOp22
 70
     1
102
RTVSPropertyOp23
 70
     1
102
RTVSPropertyOp24
 70
     1
102
RTVSPropertyOp25
 70
     1
102
RTVSPropertyOp26
 70
     1
102
RTVSPropertyOp27
 70
     1
102
RTVSPropertyOp28
 70
     1
102
RTVSPropertyOp29
 70
     1
102
RTVSPropertyOp30
 70
     1
102
RTVSPropertyOp31
 70
     1
102
RTVSPropertyOp32
 70
     1
102
RTVSPropertyOp33
 70
     1
102
RTVSPropertyOp34
 70
     1
102
RTVSPropertyOp35
 70
     1
102
RTVSPropertyOp36
 70
     1
102
RTVSPropertyOp37
 70
     1
102
RTVSPropertyOp38
 70
     1
102
RTVSPropertyOp39
 70
     1
102
RTVSPropertyOp40
 70
     1
102
RTVSPropertyOp41
 70
     1
102
RTVSPropertyOp42
 70
     1
102
RTVSPropertyOp43
 70
     1
102
RTVSPropertyOp44
 70
     1
102
RTVSPropertyOp45
 70
     1
102
RTVSPropertyOp46
 70
     1
102
RTVSPropertyOp47
 70
     1
102
RTVSPropertyOp48
 70
     1
102
RTVSPropertyOp49
 70
     1
102
RTVSPropertyOp50
 70
     1
102
RTVSPropertyOp51
 70
     0
102
RTVSPropertyOp52
 70
     0
102
RTVSPropertyOp53
 70
     1
102
RTVSPropertyOp54
 70
     1
102
RTVSPropertyOp55
 70
     1
102
RTVSPropertyOp56
 70
     1
102
RTVSPropertyOp57
 70
     1
102
RTVSPropertyOp58
 70
     1
102
RTVSPropertyOp59
 70
     1
102
RTVSPropertyOp60
 70
     1
102
RTVSPropertyOp61
 70
     1
102
RTVSPropertyOp62
 70
     1
  0
XRECORD
  5
12444
102
{ACAD_REACTORS
330
12443
102
}
330
12443
100
AcDbXrecord
280
     1
102
RTVSPost2010Prop28
280
     0
102
RTVSPost2010PropOp28
 70
     1
102
RTVSPost2010Prop29
280
     1
102
RTVSPost2010PropOp29
 70
     1
102
RTVSPost2010Prop30
280
     1
102
RTVSPost2010PropOp30
 70
     1
102
RTVSPost2010Prop31
280
     0
102
RTVSPost2010PropOp31
 70
     1
102
RTVSPost2010Prop32
280
     0
102
RTVSPost2010PropOp32
 70
     1
102
RTVSPost2010Prop33
280
     0
102
RTVSPost2010PropOp33
 70
     1
102
RTVSPost2010Prop34
280
     0
102
RTVSPost2010PropOp34
 70
     1
102
RTVSPost2010Prop35
280
     0
102
RTVSPost2010PropOp35
 70
     1
102
RTVSPost2010Prop36
280
     0
102
RTVSPost2010PropOp36
 70
     1
102
RTVSPost2010Prop37
 90
       50
102
RTVSPost2010PropOp37
 70
     0
102
RTVSPost2010Prop38
140
0.0
102
RTVSPost2010PropOp38
 70
     0
102
RTVSPost2010Prop39
140
1.0
102
RTVSPost2010PropOp39
 70
     0
102
RTVSPost2010Prop40
 90
        0
102
RTVSPost2010PropOp40
 70
     0
102
RTVSPost2010Prop41ColorIndex
 90
       18
102
RTVSPost2010Prop41ColorRGB
 90
        0
102
RTVSPost2010PropOp41
 70
     0
102
RTVSPost2010Prop42
 90
       50
102
RTVSPost2010PropOp42
 70
     0
102
RTVSPost2010Prop43
 90
        3
102
RTVSPost2010PropOp43
 70
     0
102
RTVSPost2010Prop44ColorIndex
 90
        5
102
RTVSPost2010Prop44ColorRGB
 90
      255
102
RTVSPost2010PropOp44
 70
     0
102
RTVSPost2010Prop45
280
     0
102
RTVSPost2010PropOp45
 70
     1
102
RTVSPost2010Prop46
 90
       50
102
RTVSPost2010PropOp46
 70
     0
102
RTVSPost2010Prop47
 90
       50
102
RTVSPost2010PropOp47
 70
     0
102
RTVSPost2010Prop48
 90
       50
102
RTVSPost2010PropOp48
 70
     0
102
RTVSPost2010Prop49
280
     0
102
RTVSPost2010PropOp49
 70
     1
102
RTVSPost2010Prop50
 90
       50
102
RTVSPost2010PropOp50
 70
     0
102
RTVSPost2010Prop51ColorIndex
 90
      256
102
RTVSPost2010Prop51ColorRGB
 90
-16777216
102
RTVSPost2010PropOp51
 70
     0
102
RTVSPost2010Prop52
140
1.0
102
RTVSPost2010PropOp52
 70
     0
102
RTVSPost2010Prop53
 90
        2
102
RTVSPost2010PropOp53
 70
     0
102
RTVSPost2010Prop54
  1
strokes_ogs.tif
102
RTVSPost2010PropOp54
 70
     0
102
RTVSPost2010Prop55
280
     0
102
RTVSPost2010PropOp55
 70
     1
102
RTVSPost2010Prop56
140
1.0
102
RTVSPost2010PropOp56
 70
     0
102
RTVSPost2010Prop57
140
1.0
102
RTVSPost2010PropOp57
 70
     0
102
RTVSPropertyOp0
 70
     0
102
RTVSPropertyOp1
 70
     0
102
RTVSPropertyOp2
 70
     0
102
RTVSPropertyOp3
 70
     0
102
RTVSPropertyOp4
 70
     0
102
RTVSPropertyOp5
 70
     0
102
RTVSPropertyOp6
 70
     0
102
RTVSPropertyOp7
 70
     0
102
RTVSPropertyOp8
 70
     0
102
RTVSPropertyOp9
 70
     0
102
RTVSPropertyOp10
 70
     0
102
RTVSPropertyOp11
 70
     0
102
RTVSPropertyOp12
 70
     0
102
RTVSPropertyOp13
 70
     0
102
RTVSPropertyOp14
 70
     2
102
RTVSPropertyOp15
 70
     0
102
RTVSPropertyOp16
 70
     0
102
RTVSPropertyOp17
 70
     0
102
RTVSPropertyOp18
 70
     0
102
RTVSPropertyOp19
 70
     0
102
RTVSPropertyOp20
 70
     0
102
RTVSPropertyOp21
 70
     0
102
RTVSPropertyOp22
 70
     0
102
RTVSPropertyOp23
 70
     0
102
RTVSPropertyOp24
 70
     0
102
RTVSPropertyOp25
 70
     0
102
RTVSPropertyOp26
 70
     0
102
RTVSPropertyOp27
 70
     0
102
RTVSPropertyOp28
 70
     1
102
RTVSPropertyOp29
 70
     1
102
RTVSPropertyOp30
 70
     1
102
RTVSPropertyOp31
 70
     1
102
RTVSPropertyOp32
 70
     1
102
RTVSPropertyOp33
 70
     1
102
RTVSPropertyOp34
 70
     1
102
RTVSPropertyOp35
 70
     1
102
RTVSPropertyOp36
 70
     1
102
RTVSPropertyOp37
 70
     0
102
RTVSPropertyOp38
 70
     0
102
RTVSPropertyOp39
 70
     0
102
RTVSPropertyOp40
 70
     0
102
RTVSPropertyOp41
 70
     0
102
RTVSPropertyOp42
 70
     0
102
RTVSPropertyOp43
 70
     0
102
RTVSPropertyOp44
 70
     0
102
RTVSPropertyOp45
 70
     1
102
RTVSPropertyOp46
 70
     0
102
RTVSPropertyOp47
 70
     0
102
RTVSPropertyOp48
 70
     0
102
RTVSPropertyOp49
 70
     1
102
RTVSPropertyOp50
 70
     0
102
RTVSPropertyOp51
 70
     0
102
RTVSPropertyOp52
 70
     0
102
RTVSPropertyOp53
 70
     0
102
RTVSPropertyOp54
 70
     0
102
RTVSPropertyOp55
 70
     1
102
RTVSPropertyOp56
 70
     0
102
RTVSPropertyOp57
 70
     0
102
RTVSPropertyOp58
 70
     0
102
RTVSPropertyOp59
 70
     0
102
RTVSPropertyOp60
 70
     0
102
RTVSPropertyOp61
 70
     0
102
RTVSPropertyOp62
 70
     0
  0
XRECORD
  5
12432
102
{ACAD_REACTORS
330
12431
102
}
330
12431
100
AcDbXrecord
280
     1
102
RTVSPost2010Prop28
280
     0
102
RTVSPost2010PropOp28
 70
     1
102
RTVSPost2010Prop29
280
     1
102
RTVSPost2010PropOp29
 70
     1
102
RTVSPost2010Prop30
280
     1
102
RTVSPost2010PropOp30
 70
     1
102
RTVSPost2010Prop31
280
     0
102
RTVSPost2010PropOp31
 70
     1
102
RTVSPost2010Prop32
280
     0
102
RTVSPost2010PropOp32
 70
     1
102
RTVSPost2010Prop33
280
     0
102
RTVSPost2010PropOp33
 70
     1
102
RTVSPost2010Prop34
280
     0
102
RTVSPost2010PropOp34
 70
     1
102
RTVSPost2010Prop35
280
     0
102
RTVSPost2010PropOp35
 70
     1
102
RTVSPost2010Prop36
280
     0
102
RTVSPost2010PropOp36
 70
     1
102
RTVSPost2010Prop37
 90
       50
102
RTVSPost2010PropOp37
 70
     1
102
RTVSPost2010Prop38
140
0.0
102
RTVSPost2010PropOp38
 70
     1
102
RTVSPost2010Prop39
140
1.0
102
RTVSPost2010PropOp39
 70
     1
102
RTVSPost2010Prop40
 90
        0
102
RTVSPost2010PropOp40
 70
     1
102
RTVSPost2010Prop41ColorIndex
 90
       18
102
RTVSPost2010Prop41ColorRGB
 90
        0
102
RTVSPost2010PropOp41
 70
     1
102
RTVSPost2010Prop42
 90
       50
102
RTVSPost2010PropOp42
 70
     1
102
RTVSPost2010Prop43
 90
        3
102
RTVSPost2010PropOp43
 70
     1
102
RTVSPost2010Prop44ColorIndex
 90
        5
102
RTVSPost2010Prop44ColorRGB
 90
      255
102
RTVSPost2010PropOp44
 70
     1
102
RTVSPost2010Prop45
280
     0
102
RTVSPost2010PropOp45
 70
     1
102
RTVSPost2010Prop46
 90
       50
102
RTVSPost2010PropOp46
 70
     1
102
RTVSPost2010Prop47
 90
       50
102
RTVSPost2010PropOp47
 70
     1
102
RTVSPost2010Prop48
 90
       50
102
RTVSPost2010PropOp48
 70
     1
102
RTVSPost2010Prop49
280
     0
102
RTVSPost2010PropOp49
 70
     1
102
RTVSPost2010Prop50
 90
       50
102
RTVSPost2010PropOp50
 70
     1
102
RTVSPost2010Prop51ColorIndex
 90
      256
102
RTVSPost2010Prop51ColorRGB
 90
-16777216
102
RTVSPost2010PropOp51
 70
     0
102
RTVSPost2010Prop52
140
1.0
102
RTVSPost2010PropOp52
 70
     0
102
RTVSPost2010Prop53
 90
        2
102
RTVSPost2010PropOp53
 70
     1
102
RTVSPost2010Prop54
  1
strokes_ogs.tif
102
RTVSPost2010PropOp54
 70
     1
102
RTVSPost2010Prop55
280
     0
102
RTVSPost2010PropOp55
 70
     1
102
RTVSPost2010Prop56
140
1.0
102
RTVSPost2010PropOp56
 70
     1
102
RTVSPost2010Prop57
140
1.0
102
RTVSPost2010PropOp57
 70
     1
102
RTVSPropertyOp0
 70
     1
102
RTVSPropertyOp1
 70
     1
102
RTVSPropertyOp2
 70
     1
102
RTVSPropertyOp3
 70
     1
102
RTVSPropertyOp4
 70
     1
102
RTVSPropertyOp5
 70
     1
102
RTVSPropertyOp6
 70
     1
102
RTVSPropertyOp7
 70
     1
102
RTVSPropertyOp8
 70
     1
102
RTVSPropertyOp9
 70
     1
102
RTVSPropertyOp10
 70
     1
102
RTVSPropertyOp11
 70
     1
102
RTVSPropertyOp12
 70
     1
102
RTVSPropertyOp13
 70
     1
102
RTVSPropertyOp14
 70
     1
102
RTVSPropertyOp15
 70
     1
102
RTVSPropertyOp16
 70
     1
102
RTVSPropertyOp17
 70
     1
102
RTVSPropertyOp18
 70
     1
102
RTVSPropertyOp19
 70
     1
102
RTVSPropertyOp20
 70
     1
102
RTVSPropertyOp21
 70
     1
102
RTVSPropertyOp22
 70
     1
102
RTVSPropertyOp23
 70
     1
102
RTVSPropertyOp24
 70
     1
102
RTVSPropertyOp25
 70
     1
102
RTVSPropertyOp26
 70
     1
102
RTVSPropertyOp27
 70
     1
102
RTVSPropertyOp28
 70
     1
102
RTVSPropertyOp29
 70
     1
102
RTVSPropertyOp30
 70
     1
102
RTVSPropertyOp31
 70
     1
102
RTVSPropertyOp32
 70
     1
102
RTVSPropertyOp33
 70
     1
102
RTVSPropertyOp34
 70
     1
102
RTVSPropertyOp35
 70
     1
102
RTVSPropertyOp36
 70
     1
102
RTVSPropertyOp37
 70
     1
102
RTVSPropertyOp38
 70
     1
102
RTVSPropertyOp39
 70
     1
102
RTVSPropertyOp40
 70
     1
102
RTVSPropertyOp41
 70
     1
102
RTVSPropertyOp42
 70
     1
102
RTVSPropertyOp43
 70
     1
102
RTVSPropertyOp44
 70
     1
102
RTVSPropertyOp45
 70
     1
102
RTVSPropertyOp46
 70
     1
102
RTVSPropertyOp47
 70
     1
102
RTVSPropertyOp48
 70
     1
102
RTVSPropertyOp49
 70
     1
102
RTVSPropertyOp50
 70
     1
102
RTVSPropertyOp51
 70
     0
102
RTVSPropertyOp52
 70
     0
102
RTVSPropertyOp53
 70
     1
102
RTVSPropertyOp54
 70
     1
102
RTVSPropertyOp55
 70
     1
102
RTVSPropertyOp56
 70
     1
102
RTVSPropertyOp57
 70
     1
102
RTVSPropertyOp58
 70
     1
102
RTVSPropertyOp59
 70
     1
102
RTVSPropertyOp60
 70
     1
102
RTVSPropertyOp61
 70
     1
102
RTVSPropertyOp62
 70
     1
  0
XRECORD
  5
12416
102
{ACAD_REACTORS
330
12415
102
}
330
12415
100
AcDbXrecord
280
     1
102
RTVSPost2010Prop28
280
     0
102
RTVSPost2010PropOp28
 70
     1
102
RTVSPost2010Prop29
280
     1
102
RTVSPost2010PropOp29
 70
     1
102
RTVSPost2010Prop30
280
     1
102
RTVSPost2010PropOp30
 70
     1
102
RTVSPost2010Prop31
280
     0
102
RTVSPost2010PropOp31
 70
     1
102
RTVSPost2010Prop32
280
     0
102
RTVSPost2010PropOp32
 70
     1
102
RTVSPost2010Prop33
280
     0
102
RTVSPost2010PropOp33
 70
     1
102
RTVSPost2010Prop34
280
     0
102
RTVSPost2010PropOp34
 70
     1
102
RTVSPost2010Prop35
280
     0
102
RTVSPost2010PropOp35
 70
     1
102
RTVSPost2010Prop36
280
     0
102
RTVSPost2010PropOp36
 70
     1
102
RTVSPost2010Prop37
 90
       50
102
RTVSPost2010PropOp37
 70
     1
102
RTVSPost2010Prop38
140
0.0
102
RTVSPost2010PropOp38
 70
     1
102
RTVSPost2010Prop39
140
1.0
102
RTVSPost2010PropOp39
 70
     1
102
RTVSPost2010Prop40
 90
        0
102
RTVSPost2010PropOp40
 70
     1
102
RTVSPost2010Prop41ColorIndex
 90
       18
102
RTVSPost2010Prop41ColorRGB
 90
        0
102
RTVSPost2010PropOp41
 70
     1
102
RTVSPost2010Prop42
 90
       50
102
RTVSPost2010PropOp42
 70
     1
102
RTVSPost2010Prop43
 90
        3
102
RTVSPost2010PropOp43
 70
     1
102
RTVSPost2010Prop44ColorIndex
 90
        5
102
RTVSPost2010Prop44ColorRGB
 90
      255
102
RTVSPost2010PropOp44
 70
     1
102
RTVSPost2010Prop45
280
     0
102
RTVSPost2010PropOp45
 70
     1
102
RTVSPost2010Prop46
 90
       50
102
RTVSPost2010PropOp46
 70
     1
102
RTVSPost2010Prop47
 90
       50
102
RTVSPost2010PropOp47
 70
     1
102
RTVSPost2010Prop48
 90
       50
102
RTVSPost2010PropOp48
 70
     1
102
RTVSPost2010Prop49
280
     0
102
RTVSPost2010PropOp49
 70
     1
102
RTVSPost2010Prop50
 90
       50
102
RTVSPost2010PropOp50
 70
     1
102
RTVSPost2010Prop51ColorIndex
 90
      256
102
RTVSPost2010Prop51ColorRGB
 90
-16777216
102
RTVSPost2010PropOp51
 70
     0
102
RTVSPost2010Prop52
140
1.0
102
RTVSPost2010PropOp52
 70
     0
102
RTVSPost2010Prop53
 90
        2
102
RTVSPost2010PropOp53
 70
     1
102
RTVSPost2010Prop54
  1
strokes_ogs.tif
102
RTVSPost2010PropOp54
 70
     1
102
RTVSPost2010Prop55
280
     0
102
RTVSPost2010PropOp55
 70
     1
102
RTVSPost2010Prop56
140
1.0
102
RTVSPost2010PropOp56
 70
     1
102
RTVSPost2010Prop57
140
1.0
102
RTVSPost2010PropOp57
 70
     1
102
RTVSPropertyOp0
 70
     1
102
RTVSPropertyOp1
 70
     1
102
RTVSPropertyOp2
 70
     1
102
RTVSPropertyOp3
 70
     1
102
RTVSPropertyOp4
 70
     1
102
RTVSPropertyOp5
 70
     1
102
RTVSPropertyOp6
 70
     1
102
RTVSPropertyOp7
 70
     1
102
RTVSPropertyOp8
 70
     1
102
RTVSPropertyOp9
 70
     1
102
RTVSPropertyOp10
 70
     1
102
RTVSPropertyOp11
 70
     1
102
RTVSPropertyOp12
 70
     1
102
RTVSPropertyOp13
 70
     1
102
RTVSPropertyOp14
 70
     1
102
RTVSPropertyOp15
 70
     1
102
RTVSPropertyOp16
 70
     1
102
RTVSPropertyOp17
 70
     1
102
RTVSPropertyOp18
 70
     1
102
RTVSPropertyOp19
 70
     1
102
RTVSPropertyOp20
 70
     1
102
RTVSPropertyOp21
 70
     1
102
RTVSPropertyOp22
 70
     1
102
RTVSPropertyOp23
 70
     1
102
RTVSPropertyOp24
 70
     1
102
RTVSPropertyOp25
 70
     1
102
RTVSPropertyOp26
 70
     1
102
RTVSPropertyOp27
 70
     1
102
RTVSPropertyOp28
 70
     1
102
RTVSPropertyOp29
 70
     1
102
RTVSPropertyOp30
 70
     1
102
RTVSPropertyOp31
 70
     1
102
RTVSPropertyOp32
 70
     1
102
RTVSPropertyOp33
 70
     1
102
RTVSPropertyOp34
 70
     1
102
RTVSPropertyOp35
 70
     1
102
RTVSPropertyOp36
 70
     1
102
RTVSPropertyOp37
 70
     1
102
RTVSPropertyOp38
 70
     1
102
RTVSPropertyOp39
 70
     1
102
RTVSPropertyOp40
 70
     1
102
RTVSPropertyOp41
 70
     1
102
RTVSPropertyOp42
 70
     1
102
RTVSPropertyOp43
 70
     1
102
RTVSPropertyOp44
 70
     1
102
RTVSPropertyOp45
 70
     1
102
RTVSPropertyOp46
 70
     1
102
RTVSPropertyOp47
 70
     1
102
RTVSPropertyOp48
 70
     1
102
RTVSPropertyOp49
 70
     1
102
RTVSPropertyOp50
 70
     1
102
RTVSPropertyOp51
 70
     0
102
RTVSPropertyOp52
 70
     0
102
RTVSPropertyOp53
 70
     1
102
RTVSPropertyOp54
 70
     1
102
RTVSPropertyOp55
 70
     1
102
RTVSPropertyOp56
 70
     1
102
RTVSPropertyOp57
 70
     1
102
RTVSPropertyOp58
 70
     1
102
RTVSPropertyOp59
 70
     1
102
RTVSPropertyOp60
 70
     1
102
RTVSPropertyOp61
 70
     1
102
RTVSPropertyOp62
 70
     1
  0
XRECORD
  5
12418
102
{ACAD_REACTORS
330
12417
102
}
330
12417
100
AcDbXrecord
280
     1
102
RTVSPost2010Prop28
280
     0
102
RTVSPost2010PropOp28
 70
     1
102
RTVSPost2010Prop29
280
     1
102
RTVSPost2010PropOp29
 70
     1
102
RTVSPost2010Prop30
280
     1
102
RTVSPost2010PropOp30
 70
     1
102
RTVSPost2010Prop31
280
     0
102
RTVSPost2010PropOp31
 70
     1
102
RTVSPost2010Prop32
280
     0
102
RTVSPost2010PropOp32
 70
     1
102
RTVSPost2010Prop33
280
     0
102
RTVSPost2010PropOp33
 70
     1
102
RTVSPost2010Prop34
280
     0
102
RTVSPost2010PropOp34
 70
     1
102
RTVSPost2010Prop35
280
     0
102
RTVSPost2010PropOp35
 70
     1
102
RTVSPost2010Prop36
280
     0
102
RTVSPost2010PropOp36
 70
     1
102
RTVSPost2010Prop37
 90
       50
102
RTVSPost2010PropOp37
 70
     1
102
RTVSPost2010Prop38
140
0.0
102
RTVSPost2010PropOp38
 70
     1
102
RTVSPost2010Prop39
140
1.0
102
RTVSPost2010PropOp39
 70
     1
102
RTVSPost2010Prop40
 90
        0
102
RTVSPost2010PropOp40
 70
     1
102
RTVSPost2010Prop41ColorIndex
 90
       18
102
RTVSPost2010Prop41ColorRGB
 90
        0
102
RTVSPost2010PropOp41
 70
     1
102
RTVSPost2010Prop42
 90
       50
102
RTVSPost2010PropOp42
 70
     1
102
RTVSPost2010Prop43
 90
        3
102
RTVSPost2010PropOp43
 70
     1
102
RTVSPost2010Prop44ColorIndex
 90
        5
102
RTVSPost2010Prop44ColorRGB
 90
      255
102
RTVSPost2010PropOp44
 70
     1
102
RTVSPost2010Prop45
280
     0
102
RTVSPost2010PropOp45
 70
     1
102
RTVSPost2010Prop46
 90
       50
102
RTVSPost2010PropOp46
 70
     1
102
RTVSPost2010Prop47
 90
       50
102
RTVSPost2010PropOp47
 70
     1
102
RTVSPost2010Prop48
 90
       50
102
RTVSPost2010PropOp48
 70
     1
102
RTVSPost2010Prop49
280
     0
102
RTVSPost2010PropOp49
 70
     1
102
RTVSPost2010Prop50
 90
       50
102
RTVSPost2010PropOp50
 70
     1
102
RTVSPost2010Prop51ColorIndex
 90
      256
102
RTVSPost2010Prop51ColorRGB
 90
-16777216
102
RTVSPost2010PropOp51
 70
     0
102
RTVSPost2010Prop52
140
1.0
102
RTVSPost2010PropOp52
 70
     0
102
RTVSPost2010Prop53
 90
        2
102
RTVSPost2010PropOp53
 70
     1
102
RTVSPost2010Prop54
  1
strokes_ogs.tif
102
RTVSPost2010PropOp54
 70
     1
102
RTVSPost2010Prop55
280
     0
102
RTVSPost2010PropOp55
 70
     1
102
RTVSPost2010Prop56
140
1.0
102
RTVSPost2010PropOp56
 70
     1
102
RTVSPost2010Prop57
140
1.0
102
RTVSPost2010PropOp57
 70
     1
102
RTVSPropertyOp0
 70
     1
102
RTVSPropertyOp1
 70
     1
102
RTVSPropertyOp2
 70
     1
102
RTVSPropertyOp3
 70
     1
102
RTVSPropertyOp4
 70
     1
102
RTVSPropertyOp5
 70
     1
102
RTVSPropertyOp6
 70
     1
102
RTVSPropertyOp7
 70
     1
102
RTVSPropertyOp8
 70
     1
102
RTVSPropertyOp9
 70
     1
102
RTVSPropertyOp10
 70
     1
102
RTVSPropertyOp11
 70
     1
102
RTVSPropertyOp12
 70
     1
102
RTVSPropertyOp13
 70
     1
102
RTVSPropertyOp14
 70
     1
102
RTVSPropertyOp15
 70
     1
102
RTVSPropertyOp16
 70
     1
102
RTVSPropertyOp17
 70
     1
102
RTVSPropertyOp18
 70
     1
102
RTVSPropertyOp19
 70
     1
102
RTVSPropertyOp20
 70
     1
102
RTVSPropertyOp21
 70
     1
102
RTVSPropertyOp22
 70
     1
102
RTVSPropertyOp23
 70
     1
102
RTVSPropertyOp24
 70
     1
102
RTVSPropertyOp25
 70
     1
102
RTVSPropertyOp26
 70
     1
102
RTVSPropertyOp27
 70
     1
102
RTVSPropertyOp28
 70
     1
102
RTVSPropertyOp29
 70
     1
102
RTVSPropertyOp30
 70
     1
102
RTVSPropertyOp31
 70
     1
102
RTVSPropertyOp32
 70
     1
102
RTVSPropertyOp33
 70
     1
102
RTVSPropertyOp34
 70
     1
102
RTVSPropertyOp35
 70
     1
102
RTVSPropertyOp36
 70
     1
102
RTVSPropertyOp37
 70
     1
102
RTVSPropertyOp38
 70
     1
102
RTVSPropertyOp39
 70
     1
102
RTVSPropertyOp40
 70
     1
102
RTVSPropertyOp41
 70
     1
102
RTVSPropertyOp42
 70
     1
102
RTVSPropertyOp43
 70
     1
102
RTVSPropertyOp44
 70
     1
102
RTVSPropertyOp45
 70
     1
102
RTVSPropertyOp46
 70
     1
102
RTVSPropertyOp47
 70
     1
102
RTVSPropertyOp48
 70
     1
102
RTVSPropertyOp49
 70
     1
102
RTVSPropertyOp50
 70
     1
102
RTVSPropertyOp51
 70
     0
102
RTVSPropertyOp52
 70
     0
102
RTVSPropertyOp53
 70
     1
102
RTVSPropertyOp54
 70
     1
102
RTVSPropertyOp55
 70
     1
102
RTVSPropertyOp56
 70
     1
102
RTVSPropertyOp57
 70
     1
102
RTVSPropertyOp58
 70
     1
102
RTVSPropertyOp59
 70
     1
102
RTVSPropertyOp60
 70
     1
102
RTVSPropertyOp61
 70
     1
102
RTVSPropertyOp62
 70
     1
  0
XRECORD
  5
1241A
102
{ACAD_REACTORS
330
12419
102
}
330
12419
100
AcDbXrecord
280
     1
102
RTVSPost2010Prop28
280
     0
102
RTVSPost2010PropOp28
 70
     1
102
RTVSPost2010Prop29
280
     1
102
RTVSPost2010PropOp29
 70
     1
102
RTVSPost2010Prop30
280
     1
102
RTVSPost2010PropOp30
 70
     1
102
RTVSPost2010Prop31
280
     0
102
RTVSPost2010PropOp31
 70
     1
102
RTVSPost2010Prop32
280
     0
102
RTVSPost2010PropOp32
 70
     1
102
RTVSPost2010Prop33
280
     0
102
RTVSPost2010PropOp33
 70
     1
102
RTVSPost2010Prop34
280
     0
102
RTVSPost2010PropOp34
 70
     1
102
RTVSPost2010Prop35
280
     0
102
RTVSPost2010PropOp35
 70
     1
102
RTVSPost2010Prop36
280
     0
102
RTVSPost2010PropOp36
 70
     1
102
RTVSPost2010Prop37
 90
       50
102
RTVSPost2010PropOp37
 70
     1
102
RTVSPost2010Prop38
140
0.0
102
RTVSPost2010PropOp38
 70
     1
102
RTVSPost2010Prop39
140
1.0
102
RTVSPost2010PropOp39
 70
     1
102
RTVSPost2010Prop40
 90
        0
102
RTVSPost2010PropOp40
 70
     1
102
RTVSPost2010Prop41ColorIndex
 90
       18
102
RTVSPost2010Prop41ColorRGB
 90
        0
102
RTVSPost2010PropOp41
 70
     1
102
RTVSPost2010Prop42
 90
       50
102
RTVSPost2010PropOp42
 70
     1
102
RTVSPost2010Prop43
 90
        3
102
RTVSPost2010PropOp43
 70
     1
102
RTVSPost2010Prop44ColorIndex
 90
        5
102
RTVSPost2010Prop44ColorRGB
 90
      255
102
RTVSPost2010PropOp44
 70
     1
102
RTVSPost2010Prop45
280
     0
102
RTVSPost2010PropOp45
 70
     1
102
RTVSPost2010Prop46
 90
       50
102
RTVSPost2010PropOp46
 70
     1
102
RTVSPost2010Prop47
 90
       50
102
RTVSPost2010PropOp47
 70
     1
102
RTVSPost2010Prop48
 90
       50
102
RTVSPost2010PropOp48
 70
     1
102
RTVSPost2010Prop49
280
     0
102
RTVSPost2010PropOp49
 70
     1
102
RTVSPost2010Prop50
 90
       50
102
RTVSPost2010PropOp50
 70
     1
102
RTVSPost2010Prop51ColorIndex
 90
      256
102
RTVSPost2010Prop51ColorRGB
 90
-16777216
102
RTVSPost2010PropOp51
 70
     0
102
RTVSPost2010Prop52
140
1.0
102
RTVSPost2010PropOp52
 70
     0
102
RTVSPost2010Prop53
 90
        2
102
RTVSPost2010PropOp53
 70
     1
102
RTVSPost2010Prop54
  1
strokes_ogs.tif
102
RTVSPost2010PropOp54
 70
     1
102
RTVSPost2010Prop55
280
     0
102
RTVSPost2010PropOp55
 70
     1
102
RTVSPost2010Prop56
140
1.0
102
RTVSPost2010PropOp56
 70
     1
102
RTVSPost2010Prop57
140
1.0
102
RTVSPost2010PropOp57
 70
     1
102
RTVSPropertyOp0
 70
     1
102
RTVSPropertyOp1
 70
     1
102
RTVSPropertyOp2
 70
     1
102
RTVSPropertyOp3
 70
     1
102
RTVSPropertyOp4
 70
     1
102
RTVSPropertyOp5
 70
     1
102
RTVSPropertyOp6
 70
     1
102
RTVSPropertyOp7
 70
     1
102
RTVSPropertyOp8
 70
     1
102
RTVSPropertyOp9
 70
     1
102
RTVSPropertyOp10
 70
     1
102
RTVSPropertyOp11
 70
     1
102
RTVSPropertyOp12
 70
     1
102
RTVSPropertyOp13
 70
     1
102
RTVSPropertyOp14
 70
     1
102
RTVSPropertyOp15
 70
     1
102
RTVSPropertyOp16
 70
     1
102
RTVSPropertyOp17
 70
     1
102
RTVSPropertyOp18
 70
     1
102
RTVSPropertyOp19
 70
     1
102
RTVSPropertyOp20
 70
     1
102
RTVSPropertyOp21
 70
     1
102
RTVSPropertyOp22
 70
     1
102
RTVSPropertyOp23
 70
     1
102
RTVSPropertyOp24
 70
     1
102
RTVSPropertyOp25
 70
     1
102
RTVSPropertyOp26
 70
     1
102
RTVSPropertyOp27
 70
     1
102
RTVSPropertyOp28
 70
     1
102
RTVSPropertyOp29
 70
     1
102
RTVSPropertyOp30
 70
     1
102
RTVSPropertyOp31
 70
     1
102
RTVSPropertyOp32
 70
     1
102
RTVSPropertyOp33
 70
     1
102
RTVSPropertyOp34
 70
     1
102
RTVSPropertyOp35
 70
     1
102
RTVSPropertyOp36
 70
     1
102
RTVSPropertyOp37
 70
     1
102
RTVSPropertyOp38
 70
     1
102
RTVSPropertyOp39
 70
     1
102
RTVSPropertyOp40
 70
     1
102
RTVSPropertyOp41
 70
     1
102
RTVSPropertyOp42
 70
     1
102
RTVSPropertyOp43
 70
     1
102
RTVSPropertyOp44
 70
     1
102
RTVSPropertyOp45
 70
     1
102
RTVSPropertyOp46
 70
     1
102
RTVSPropertyOp47
 70
     1
102
RTVSPropertyOp48
 70
     1
102
RTVSPropertyOp49
 70
     1
102
RTVSPropertyOp50
 70
     1
102
RTVSPropertyOp51
 70
     0
102
RTVSPropertyOp52
 70
     0
102
RTVSPropertyOp53
 70
     1
102
RTVSPropertyOp54
 70
     1
102
RTVSPropertyOp55
 70
     1
102
RTVSPropertyOp56
 70
     1
102
RTVSPropertyOp57
 70
     1
102
RTVSPropertyOp58
 70
     1
102
RTVSPropertyOp59
 70
     1
102
RTVSPropertyOp60
 70
     1
102
RTVSPropertyOp61
 70
     1
102
RTVSPropertyOp62
 70
     1
  0
XRECORD
  5
1241C
102
{ACAD_REACTORS
330
1241B
102
}
330
1241B
100
AcDbXrecord
280
     1
102
RTVSPost2010Prop28
280
     0
102
RTVSPost2010PropOp28
 70
     1
102
RTVSPost2010Prop29
280
     1
102
RTVSPost2010PropOp29
 70
     1
102
RTVSPost2010Prop30
280
     1
102
RTVSPost2010PropOp30
 70
     1
102
RTVSPost2010Prop31
280
     0
102
RTVSPost2010PropOp31
 70
     1
102
RTVSPost2010Prop32
280
     0
102
RTVSPost2010PropOp32
 70
     1
102
RTVSPost2010Prop33
280
     0
102
RTVSPost2010PropOp33
 70
     1
102
RTVSPost2010Prop34
280
     0
102
RTVSPost2010PropOp34
 70
     1
102
RTVSPost2010Prop35
280
     0
102
RTVSPost2010PropOp35
 70
     1
102
RTVSPost2010Prop36
280
     0
102
RTVSPost2010PropOp36
 70
     1
102
RTVSPost2010Prop37
 90
       50
102
RTVSPost2010PropOp37
 70
     1
102
RTVSPost2010Prop38
140
0.0
102
RTVSPost2010PropOp38
 70
     1
102
RTVSPost2010Prop39
140
1.0
102
RTVSPost2010PropOp39
 70
     1
102
RTVSPost2010Prop40
 90
        0
102
RTVSPost2010PropOp40
 70
     1
102
RTVSPost2010Prop41ColorIndex
 90
       18
102
RTVSPost2010Prop41ColorRGB
 90
        0
102
RTVSPost2010PropOp41
 70
     1
102
RTVSPost2010Prop42
 90
       50
102
RTVSPost2010PropOp42
 70
     1
102
RTVSPost2010Prop43
 90
        3
102
RTVSPost2010PropOp43
 70
     1
102
RTVSPost2010Prop44ColorIndex
 90
        5
102
RTVSPost2010Prop44ColorRGB
 90
      255
102
RTVSPost2010PropOp44
 70
     1
102
RTVSPost2010Prop45
280
     0
102
RTVSPost2010PropOp45
 70
     1
102
RTVSPost2010Prop46
 90
       50
102
RTVSPost2010PropOp46
 70
     1
102
RTVSPost2010Prop47
 90
       50
102
RTVSPost2010PropOp47
 70
     1
102
RTVSPost2010Prop48
 90
       50
102
RTVSPost2010PropOp48
 70
     1
102
RTVSPost2010Prop49
280
     0
102
RTVSPost2010PropOp49
 70
     1
102
RTVSPost2010Prop50
 90
       50
102
RTVSPost2010PropOp50
 70
     1
102
RTVSPost2010Prop51ColorIndex
 90
      256
102
RTVSPost2010Prop51ColorRGB
 90
-16777216
102
RTVSPost2010PropOp51
 70
     0
102
RTVSPost2010Prop52
140
1.0
102
RTVSPost2010PropOp52
 70
     0
102
RTVSPost2010Prop53
 90
        2
102
RTVSPost2010PropOp53
 70
     1
102
RTVSPost2010Prop54
  1
strokes_ogs.tif
102
RTVSPost2010PropOp54
 70
     1
102
RTVSPost2010Prop55
280
     0
102
RTVSPost2010PropOp55
 70
     1
102
RTVSPost2010Prop56
140
1.0
102
RTVSPost2010PropOp56
 70
     1
102
RTVSPost2010Prop57
140
1.0
102
RTVSPost2010PropOp57
 70
     1
102
RTVSPropertyOp0
 70
     1
102
RTVSPropertyOp1
 70
     1
102
RTVSPropertyOp2
 70
     1
102
RTVSPropertyOp3
 70
     1
102
RTVSPropertyOp4
 70
     1
102
RTVSPropertyOp5
 70
     1
102
RTVSPropertyOp6
 70
     1
102
RTVSPropertyOp7
 70
     1
102
RTVSPropertyOp8
 70
     1
102
RTVSPropertyOp9
 70
     1
102
RTVSPropertyOp10
 70
     1
102
RTVSPropertyOp11
 70
     1
102
RTVSPropertyOp12
 70
     1
102
RTVSPropertyOp13
 70
     1
102
RTVSPropertyOp14
 70
     1
102
RTVSPropertyOp15
 70
     1
102
RTVSPropertyOp16
 70
     1
102
RTVSPropertyOp17
 70
     1
102
RTVSPropertyOp18
 70
     1
102
RTVSPropertyOp19
 70
     1
102
RTVSPropertyOp20
 70
     1
102
RTVSPropertyOp21
 70
     1
102
RTVSPropertyOp22
 70
     1
102
RTVSPropertyOp23
 70
     1
102
RTVSPropertyOp24
 70
     1
102
RTVSPropertyOp25
 70
     1
102
RTVSPropertyOp26
 70
     1
102
RTVSPropertyOp27
 70
     1
102
RTVSPropertyOp28
 70
     1
102
RTVSPropertyOp29
 70
     1
102
RTVSPropertyOp30
 70
     1
102
RTVSPropertyOp31
 70
     1
102
RTVSPropertyOp32
 70
     1
102
RTVSPropertyOp33
 70
     1
102
RTVSPropertyOp34
 70
     1
102
RTVSPropertyOp35
 70
     1
102
RTVSPropertyOp36
 70
     1
102
RTVSPropertyOp37
 70
     1
102
RTVSPropertyOp38
 70
     1
102
RTVSPropertyOp39
 70
     1
102
RTVSPropertyOp40
 70
     1
102
RTVSPropertyOp41
 70
     1
102
RTVSPropertyOp42
 70
     1
102
RTVSPropertyOp43
 70
     1
102
RTVSPropertyOp44
 70
     1
102
RTVSPropertyOp45
 70
     1
102
RTVSPropertyOp46
 70
     1
102
RTVSPropertyOp47
 70
     1
102
RTVSPropertyOp48
 70
     1
102
RTVSPropertyOp49
 70
     1
102
RTVSPropertyOp50
 70
     1
102
RTVSPropertyOp51
 70
     0
102
RTVSPropertyOp52
 70
     0
102
RTVSPropertyOp53
 70
     1
102
RTVSPropertyOp54
 70
     1
102
RTVSPropertyOp55
 70
     1
102
RTVSPropertyOp56
 70
     1
102
RTVSPropertyOp57
 70
     1
102
RTVSPropertyOp58
 70
     1
102
RTVSPropertyOp59
 70
     1
102
RTVSPropertyOp60
 70
     1
102
RTVSPropertyOp61
 70
     1
102
RTVSPropertyOp62
 70
     1
  0
XRECORD
  5
12424
102
{ACAD_REACTORS
330
12423
102
}
330
12423
100
AcDbXrecord
280
     1
102
RTVSPost2010Prop28
280
     0
102
RTVSPost2010PropOp28
 70
     1
102
RTVSPost2010Prop29
280
     1
102
RTVSPost2010PropOp29
 70
     1
102
RTVSPost2010Prop30
280
     1
102
RTVSPost2010PropOp30
 70
     1
102
RTVSPost2010Prop31
280
     0
102
RTVSPost2010PropOp31
 70
     1
102
RTVSPost2010Prop32
280
     0
102
RTVSPost2010PropOp32
 70
     1
102
RTVSPost2010Prop33
280
     0
102
RTVSPost2010PropOp33
 70
     1
102
RTVSPost2010Prop34
280
     0
102
RTVSPost2010PropOp34
 70
     1
102
RTVSPost2010Prop35
280
     0
102
RTVSPost2010PropOp35
 70
     1
102
RTVSPost2010Prop36
280
     0
102
RTVSPost2010PropOp36
 70
     1
102
RTVSPost2010Prop37
 90
       50
102
RTVSPost2010PropOp37
 70
     1
102
RTVSPost2010Prop38
140
0.0
102
RTVSPost2010PropOp38
 70
     1
102
RTVSPost2010Prop39
140
1.0
102
RTVSPost2010PropOp39
 70
     1
102
RTVSPost2010Prop40
 90
        0
102
RTVSPost2010PropOp40
 70
     1
102
RTVSPost2010Prop41ColorIndex
 90
       18
102
RTVSPost2010Prop41ColorRGB
 90
        0
102
RTVSPost2010PropOp41
 70
     1
102
RTVSPost2010Prop42
 90
       50
102
RTVSPost2010PropOp42
 70
     1
102
RTVSPost2010Prop43
 90
        3
102
RTVSPost2010PropOp43
 70
     1
102
RTVSPost2010Prop44ColorIndex
 90
        5
102
RTVSPost2010Prop44ColorRGB
 90
      255
102
RTVSPost2010PropOp44
 70
     1
102
RTVSPost2010Prop45
280
     0
102
RTVSPost2010PropOp45
 70
     1
102
RTVSPost2010Prop46
 90
       50
102
RTVSPost2010PropOp46
 70
     1
102
RTVSPost2010Prop47
 90
       50
102
RTVSPost2010PropOp47
 70
     1
102
RTVSPost2010Prop48
 90
       50
102
RTVSPost2010PropOp48
 70
     1
102
RTVSPost2010Prop49
280
     0
102
RTVSPost2010PropOp49
 70
     1
102
RTVSPost2010Prop50
 90
       50
102
RTVSPost2010PropOp50
 70
     1
102
RTVSPost2010Prop51ColorIndex
 90
      256
102
RTVSPost2010Prop51ColorRGB
 90
-16777216
102
RTVSPost2010PropOp51
 70
     0
102
RTVSPost2010Prop52
140
1.0
102
RTVSPost2010PropOp52
 70
     0
102
RTVSPost2010Prop53
 90
        2
102
RTVSPost2010PropOp53
 70
     1
102
RTVSPost2010Prop54
  1
strokes_ogs.tif
102
RTVSPost2010PropOp54
 70
     1
102
RTVSPost2010Prop55
280
     0
102
RTVSPost2010PropOp55
 70
     1
102
RTVSPost2010Prop56
140
1.0
102
RTVSPost2010PropOp56
 70
     1
102
RTVSPost2010Prop57
140
1.0
102
RTVSPost2010PropOp57
 70
     1
102
RTVSPropertyOp0
 70
     1
102
RTVSPropertyOp1
 70
     1
102
RTVSPropertyOp2
 70
     1
102
RTVSPropertyOp3
 70
     1
102
RTVSPropertyOp4
 70
     1
102
RTVSPropertyOp5
 70
     1
102
RTVSPropertyOp6
 70
     1
102
RTVSPropertyOp7
 70
     1
102
RTVSPropertyOp8
 70
     1
102
RTVSPropertyOp9
 70
     1
102
RTVSPropertyOp10
 70
     1
102
RTVSPropertyOp11
 70
     1
102
RTVSPropertyOp12
 70
     1
102
RTVSPropertyOp13
 70
     1
102
RTVSPropertyOp14
 70
     1
102
RTVSPropertyOp15
 70
     1
102
RTVSPropertyOp16
 70
     1
102
RTVSPropertyOp17
 70
     1
102
RTVSPropertyOp18
 70
     1
102
RTVSPropertyOp19
 70
     1
102
RTVSPropertyOp20
 70
     1
102
RTVSPropertyOp21
 70
     1
102
RTVSPropertyOp22
 70
     1
102
RTVSPropertyOp23
 70
     1
102
RTVSPropertyOp24
 70
     1
102
RTVSPropertyOp25
 70
     1
102
RTVSPropertyOp26
 70
     1
102
RTVSPropertyOp27
 70
     1
102
RTVSPropertyOp28
 70
     1
102
RTVSPropertyOp29
 70
     1
102
RTVSPropertyOp30
 70
     1
102
RTVSPropertyOp31
 70
     1
102
RTVSPropertyOp32
 70
     1
102
RTVSPropertyOp33
 70
     1
102
RTVSPropertyOp34
 70
     1
102
RTVSPropertyOp35
 70
     1
102
RTVSPropertyOp36
 70
     1
102
RTVSPropertyOp37
 70
     1
102
RTVSPropertyOp38
 70
     1
102
RTVSPropertyOp39
 70
     1
102
RTVSPropertyOp40
 70
     1
102
RTVSPropertyOp41
 70
     1
102
RTVSPropertyOp42
 70
     1
102
RTVSPropertyOp43
 70
     1
102
RTVSPropertyOp44
 70
     1
102
RTVSPropertyOp45
 70
     1
102
RTVSPropertyOp46
 70
     1
102
RTVSPropertyOp47
 70
     1
102
RTVSPropertyOp48
 70
     1
102
RTVSPropertyOp49
 70
     1
102
RTVSPropertyOp50
 70
     1
102
RTVSPropertyOp51
 70
     0
102
RTVSPropertyOp52
 70
     0
102
RTVSPropertyOp53
 70
     1
102
RTVSPropertyOp54
 70
     1
102
RTVSPropertyOp55
 70
     1
102
RTVSPropertyOp56
 70
     1
102
RTVSPropertyOp57
 70
     1
102
RTVSPropertyOp58
 70
     1
102
RTVSPropertyOp59
 70
     1
102
RTVSPropertyOp60
 70
     1
102
RTVSPropertyOp61
 70
     1
102
RTVSPropertyOp62
 70
     1
  0
XRECORD
  5
12440
102
{ACAD_REACTORS
330
1243F
102
}
330
1243F
100
AcDbXrecord
280
     1
102
RTVSPost2010Prop28
280
     0
102
RTVSPost2010PropOp28
 70
     1
102
RTVSPost2010Prop29
280
     1
102
RTVSPost2010PropOp29
 70
     1
102
RTVSPost2010Prop30
280
     1
102
RTVSPost2010PropOp30
 70
     1
102
RTVSPost2010Prop31
280
     0
102
RTVSPost2010PropOp31
 70
     1
102
RTVSPost2010Prop32
280
     0
102
RTVSPost2010PropOp32
 70
     1
102
RTVSPost2010Prop33
280
     0
102
RTVSPost2010PropOp33
 70
     1
102
RTVSPost2010Prop34
280
     0
102
RTVSPost2010PropOp34
 70
     1
102
RTVSPost2010Prop35
280
     0
102
RTVSPost2010PropOp35
 70
     1
102
RTVSPost2010Prop36
280
     0
102
RTVSPost2010PropOp36
 70
     1
102
RTVSPost2010Prop37
 90
       50
102
RTVSPost2010PropOp37
 70
     0
102
RTVSPost2010Prop38
140
0.0
102
RTVSPost2010PropOp38
 70
     0
102
RTVSPost2010Prop39
140
1.0
102
RTVSPost2010PropOp39
 70
     0
102
RTVSPost2010Prop40
 90
        0
102
RTVSPost2010PropOp40
 70
     0
102
RTVSPost2010Prop41ColorIndex
 90
       18
102
RTVSPost2010Prop41ColorRGB
 90
        0
102
RTVSPost2010PropOp41
 70
     0
102
RTVSPost2010Prop42
 90
       50
102
RTVSPost2010PropOp42
 70
     0
102
RTVSPost2010Prop43
 90
        3
102
RTVSPost2010PropOp43
 70
     0
102
RTVSPost2010Prop44ColorIndex
 90
        5
102
RTVSPost2010Prop44ColorRGB
 90
      255
102
RTVSPost2010PropOp44
 70
     0
102
RTVSPost2010Prop45
280
     0
102
RTVSPost2010PropOp45
 70
     1
102
RTVSPost2010Prop46
 90
       50
102
RTVSPost2010PropOp46
 70
     0
102
RTVSPost2010Prop47
 90
       50
102
RTVSPost2010PropOp47
 70
     0
102
RTVSPost2010Prop48
 90
       50
102
RTVSPost2010PropOp48
 70
     0
102
RTVSPost2010Prop49
280
     0
102
RTVSPost2010PropOp49
 70
     1
102
RTVSPost2010Prop50
 90
       50
102
RTVSPost2010PropOp50
 70
     0
102
RTVSPost2010Prop51ColorIndex
 90
      256
102
RTVSPost2010Prop51ColorRGB
 90
-16777216
102
RTVSPost2010PropOp51
 70
     0
102
RTVSPost2010Prop52
140
1.0
102
RTVSPost2010PropOp52
 70
     0
102
RTVSPost2010Prop53
 90
        2
102
RTVSPost2010PropOp53
 70
     0
102
RTVSPost2010Prop54
  1
strokes_ogs.tif
102
RTVSPost2010PropOp54
 70
     0
102
RTVSPost2010Prop55
280
     0
102
RTVSPost2010PropOp55
 70
     1
102
RTVSPost2010Prop56
140
1.0
102
RTVSPost2010PropOp56
 70
     0
102
RTVSPost2010Prop57
140
1.0
102
RTVSPost2010PropOp57
 70
     0
102
RTVSPropertyOp0
 70
     0
102
RTVSPropertyOp1
 70
     0
102
RTVSPropertyOp2
 70
     0
102
RTVSPropertyOp3
 70
     0
102
RTVSPropertyOp4
 70
     0
102
RTVSPropertyOp5
 70
     0
102
RTVSPropertyOp6
 70
     0
102
RTVSPropertyOp7
 70
     0
102
RTVSPropertyOp8
 70
     0
102
RTVSPropertyOp9
 70
     0
102
RTVSPropertyOp10
 70
     0
102
RTVSPropertyOp11
 70
     0
102
RTVSPropertyOp12
 70
     0
102
RTVSPropertyOp13
 70
     0
102
RTVSPropertyOp14
 70
     2
102
RTVSPropertyOp15
 70
     0
102
RTVSPropertyOp16
 70
     0
102
RTVSPropertyOp17
 70
     0
102
RTVSPropertyOp18
 70
     0
102
RTVSPropertyOp19
 70
     0
102
RTVSPropertyOp20
 70
     0
102
RTVSPropertyOp21
 70
     0
102
RTVSPropertyOp22
 70
     0
102
RTVSPropertyOp23
 70
     0
102
RTVSPropertyOp24
 70
     0
102
RTVSPropertyOp25
 70
     0
102
RTVSPropertyOp26
 70
     0
102
RTVSPropertyOp27
 70
     0
102
RTVSPropertyOp28
 70
     1
102
RTVSPropertyOp29
 70
     1
102
RTVSPropertyOp30
 70
     1
102
RTVSPropertyOp31
 70
     1
102
RTVSPropertyOp32
 70
     1
102
RTVSPropertyOp33
 70
     1
102
RTVSPropertyOp34
 70
     1
102
RTVSPropertyOp35
 70
     1
102
RTVSPropertyOp36
 70
     1
102
RTVSPropertyOp37
 70
     0
102
RTVSPropertyOp38
 70
     0
102
RTVSPropertyOp39
 70
     0
102
RTVSPropertyOp40
 70
     0
102
RTVSPropertyOp41
 70
     0
102
RTVSPropertyOp42
 70
     0
102
RTVSPropertyOp43
 70
     0
102
RTVSPropertyOp44
 70
     0
102
RTVSPropertyOp45
 70
     1
102
RTVSPropertyOp46
 70
     0
102
RTVSPropertyOp47
 70
     0
102
RTVSPropertyOp48
 70
     0
102
RTVSPropertyOp49
 70
     1
102
RTVSPropertyOp50
 70
     0
102
RTVSPropertyOp51
 70
     0
102
RTVSPropertyOp52
 70
     0
102
RTVSPropertyOp53
 70
     0
102
RTVSPropertyOp54
 70
     0
102
RTVSPropertyOp55
 70
     1
102
RTVSPropertyOp56
 70
     0
102
RTVSPropertyOp57
 70
     0
102
RTVSPropertyOp58
 70
     0
102
RTVSPropertyOp59
 70
     0
102
RTVSPropertyOp60
 70
     0
102
RTVSPropertyOp61
 70
     0
102
RTVSPropertyOp62
 70
     0
  0
XRECORD
  5
12430
102
{ACAD_REACTORS
330
1242F
102
}
330
1242F
100
AcDbXrecord
280
     1
102
RTVSPost2010Prop28
280
     0
102
RTVSPost2010PropOp28
 70
     1
102
RTVSPost2010Prop29
280
     1
102
RTVSPost2010PropOp29
 70
     1
102
RTVSPost2010Prop30
280
     1
102
RTVSPost2010PropOp30
 70
     1
102
RTVSPost2010Prop31
280
     0
102
RTVSPost2010PropOp31
 70
     1
102
RTVSPost2010Prop32
280
     0
102
RTVSPost2010PropOp32
 70
     1
102
RTVSPost2010Prop33
280
     0
102
RTVSPost2010PropOp33
 70
     1
102
RTVSPost2010Prop34
280
     0
102
RTVSPost2010PropOp34
 70
     1
102
RTVSPost2010Prop35
280
     0
102
RTVSPost2010PropOp35
 70
     1
102
RTVSPost2010Prop36
280
     0
102
RTVSPost2010PropOp36
 70
     1
102
RTVSPost2010Prop37
 90
       50
102
RTVSPost2010PropOp37
 70
     1
102
RTVSPost2010Prop38
140
0.0
102
RTVSPost2010PropOp38
 70
     1
102
RTVSPost2010Prop39
140
1.0
102
RTVSPost2010PropOp39
 70
     1
102
RTVSPost2010Prop40
 90
        0
102
RTVSPost2010PropOp40
 70
     1
102
RTVSPost2010Prop41ColorIndex
 90
       18
102
RTVSPost2010Prop41ColorRGB
 90
        0
102
RTVSPost2010PropOp41
 70
     1
102
RTVSPost2010Prop42
 90
       50
102
RTVSPost2010PropOp42
 70
     1
102
RTVSPost2010Prop43
 90
        3
102
RTVSPost2010PropOp43
 70
     1
102
RTVSPost2010Prop44ColorIndex
 90
        5
102
RTVSPost2010Prop44ColorRGB
 90
      255
102
RTVSPost2010PropOp44
 70
     1
102
RTVSPost2010Prop45
280
     0
102
RTVSPost2010PropOp45
 70
     1
102
RTVSPost2010Prop46
 90
       50
102
RTVSPost2010PropOp46
 70
     1
102
RTVSPost2010Prop47
 90
       50
102
RTVSPost2010PropOp47
 70
     1
102
RTVSPost2010Prop48
 90
       50
102
RTVSPost2010PropOp48
 70
     1
102
RTVSPost2010Prop49
280
     0
102
RTVSPost2010PropOp49
 70
     1
102
RTVSPost2010Prop50
 90
       50
102
RTVSPost2010PropOp50
 70
     1
102
RTVSPost2010Prop51ColorIndex
 90
      256
102
RTVSPost2010Prop51ColorRGB
 90
-16777216
102
RTVSPost2010PropOp51
 70
     0
102
RTVSPost2010Prop52
140
1.0
102
RTVSPost2010PropOp52
 70
     0
102
RTVSPost2010Prop53
 90
        2
102
RTVSPost2010PropOp53
 70
     1
102
RTVSPost2010Prop54
  1
strokes_ogs.tif
102
RTVSPost2010PropOp54
 70
     1
102
RTVSPost2010Prop55
280
     0
102
RTVSPost2010PropOp55
 70
     1
102
RTVSPost2010Prop56
140
1.0
102
RTVSPost2010PropOp56
 70
     1
102
RTVSPost2010Prop57
140
1.0
102
RTVSPost2010PropOp57
 70
     1
102
RTVSPropertyOp0
 70
     1
102
RTVSPropertyOp1
 70
     1
102
RTVSPropertyOp2
 70
     1
102
RTVSPropertyOp3
 70
     1
102
RTVSPropertyOp4
 70
     1
102
RTVSPropertyOp5
 70
     1
102
RTVSPropertyOp6
 70
     1
102
RTVSPropertyOp7
 70
     1
102
RTVSPropertyOp8
 70
     1
102
RTVSPropertyOp9
 70
     1
102
RTVSPropertyOp10
 70
     1
102
RTVSPropertyOp11
 70
     1
102
RTVSPropertyOp12
 70
     1
102
RTVSPropertyOp13
 70
     1
102
RTVSPropertyOp14
 70
     1
102
RTVSPropertyOp15
 70
     1
102
RTVSPropertyOp16
 70
     1
102
RTVSPropertyOp17
 70
     1
102
RTVSPropertyOp18
 70
     1
102
RTVSPropertyOp19
 70
     1
102
RTVSPropertyOp20
 70
     1
102
RTVSPropertyOp21
 70
     1
102
RTVSPropertyOp22
 70
     1
102
RTVSPropertyOp23
 70
     1
102
RTVSPropertyOp24
 70
     1
102
RTVSPropertyOp25
 70
     1
102
RTVSPropertyOp26
 70
     1
102
RTVSPropertyOp27
 70
     1
102
RTVSPropertyOp28
 70
     1
102
RTVSPropertyOp29
 70
     1
102
RTVSPropertyOp30
 70
     1
102
RTVSPropertyOp31
 70
     1
102
RTVSPropertyOp32
 70
     1
102
RTVSPropertyOp33
 70
     1
102
RTVSPropertyOp34
 70
     1
102
RTVSPropertyOp35
 70
     1
102
RTVSPropertyOp36
 70
     1
102
RTVSPropertyOp37
 70
     1
102
RTVSPropertyOp38
 70
     1
102
RTVSPropertyOp39
 70
     1
102
RTVSPropertyOp40
 70
     1
102
RTVSPropertyOp41
 70
     1
102
RTVSPropertyOp42
 70
     1
102
RTVSPropertyOp43
 70
     1
102
RTVSPropertyOp44
 70
     1
102
RTVSPropertyOp45
 70
     1
102
RTVSPropertyOp46
 70
     1
102
RTVSPropertyOp47
 70
     1
102
RTVSPropertyOp48
 70
     1
102
RTVSPropertyOp49
 70
     1
102
RTVSPropertyOp50
 70
     1
102
RTVSPropertyOp51
 70
     0
102
RTVSPropertyOp52
 70
     0
102
RTVSPropertyOp53
 70
     1
102
RTVSPropertyOp54
 70
     1
102
RTVSPropertyOp55
 70
     1
102
RTVSPropertyOp56
 70
     1
102
RTVSPropertyOp57
 70
     1
102
RTVSPropertyOp58
 70
     1
102
RTVSPropertyOp59
 70
     1
102
RTVSPropertyOp60
 70
     1
102
RTVSPropertyOp61
 70
     1
102
RTVSPropertyOp62
 70
     1
  0
XRECORD
  5
12442
102
{ACAD_REACTORS
330
12441
102
}
330
12441
100
AcDbXrecord
280
     1
102
RTVSPost2010Prop28
280
     0
102
RTVSPost2010PropOp28
 70
     1
102
RTVSPost2010Prop29
280
     1
102
RTVSPost2010PropOp29
 70
     1
102
RTVSPost2010Prop30
280
     1
102
RTVSPost2010PropOp30
 70
     1
102
RTVSPost2010Prop31
280
     0
102
RTVSPost2010PropOp31
 70
     1
102
RTVSPost2010Prop32
280
     0
102
RTVSPost2010PropOp32
 70
     1
102
RTVSPost2010Prop33
280
     0
102
RTVSPost2010PropOp33
 70
     1
102
RTVSPost2010Prop34
280
     0
102
RTVSPost2010PropOp34
 70
     1
102
RTVSPost2010Prop35
280
     0
102
RTVSPost2010PropOp35
 70
     1
102
RTVSPost2010Prop36
280
     0
102
RTVSPost2010PropOp36
 70
     1
102
RTVSPost2010Prop37
 90
       50
102
RTVSPost2010PropOp37
 70
     0
102
RTVSPost2010Prop38
140
0.0
102
RTVSPost2010PropOp38
 70
     0
102
RTVSPost2010Prop39
140
1.0
102
RTVSPost2010PropOp39
 70
     0
102
RTVSPost2010Prop40
 90
        0
102
RTVSPost2010PropOp40
 70
     0
102
RTVSPost2010Prop41ColorIndex
 90
       18
102
RTVSPost2010Prop41ColorRGB
 90
        0
102
RTVSPost2010PropOp41
 70
     0
102
RTVSPost2010Prop42
 90
       50
102
RTVSPost2010PropOp42
 70
     0
102
RTVSPost2010Prop43
 90
        3
102
RTVSPost2010PropOp43
 70
     0
102
RTVSPost2010Prop44ColorIndex
 90
        5
102
RTVSPost2010Prop44ColorRGB
 90
      255
102
RTVSPost2010PropOp44
 70
     0
102
RTVSPost2010Prop45
280
     0
102
RTVSPost2010PropOp45
 70
     1
102
RTVSPost2010Prop46
 90
       50
102
RTVSPost2010PropOp46
 70
     0
102
RTVSPost2010Prop47
 90
       50
102
RTVSPost2010PropOp47
 70
     0
102
RTVSPost2010Prop48
 90
       50
102
RTVSPost2010PropOp48
 70
     0
102
RTVSPost2010Prop49
280
     0
102
RTVSPost2010PropOp49
 70
     1
102
RTVSPost2010Prop50
 90
       50
102
RTVSPost2010PropOp50
 70
     0
102
RTVSPost2010Prop51ColorIndex
 90
      256
102
RTVSPost2010Prop51ColorRGB
 90
-16777216
102
RTVSPost2010PropOp51
 70
     0
102
RTVSPost2010Prop52
140
1.0
102
RTVSPost2010PropOp52
 70
     0
102
RTVSPost2010Prop53
 90
        2
102
RTVSPost2010PropOp53
 70
     0
102
RTVSPost2010Prop54
  1
strokes_ogs.tif
102
RTVSPost2010PropOp54
 70
     0
102
RTVSPost2010Prop55
280
     0
102
RTVSPost2010PropOp55
 70
     1
102
RTVSPost2010Prop56
140
1.0
102
RTVSPost2010PropOp56
 70
     0
102
RTVSPost2010Prop57
140
1.0
102
RTVSPost2010PropOp57
 70
     0
102
RTVSPropertyOp0
 70
     0
102
RTVSPropertyOp1
 70
     0
102
RTVSPropertyOp2
 70
     0
102
RTVSPropertyOp3
 70
     0
102
RTVSPropertyOp4
 70
     0
102
RTVSPropertyOp5
 70
     0
102
RTVSPropertyOp6
 70
     0
102
RTVSPropertyOp7
 70
     0
102
RTVSPropertyOp8
 70
     0
102
RTVSPropertyOp9
 70
     0
102
RTVSPropertyOp10
 70
     0
102
RTVSPropertyOp11
 70
     0
102
RTVSPropertyOp12
 70
     0
102
RTVSPropertyOp13
 70
     0
102
RTVSPropertyOp14
 70
     2
102
RTVSPropertyOp15
 70
     0
102
RTVSPropertyOp16
 70
     0
102
RTVSPropertyOp17
 70
     0
102
RTVSPropertyOp18
 70
     0
102
RTVSPropertyOp19
 70
     0
102
RTVSPropertyOp20
 70
     0
102
RTVSPropertyOp21
 70
     0
102
RTVSPropertyOp22
 70
     0
102
RTVSPropertyOp23
 70
     0
102
RTVSPropertyOp24
 70
     0
102
RTVSPropertyOp25
 70
     0
102
RTVSPropertyOp26
 70
     0
102
RTVSPropertyOp27
 70
     0
102
RTVSPropertyOp28
 70
     1
102
RTVSPropertyOp29
 70
     1
102
RTVSPropertyOp30
 70
     1
102
RTVSPropertyOp31
 70
     1
102
RTVSPropertyOp32
 70
     1
102
RTVSPropertyOp33
 70
     1
102
RTVSPropertyOp34
 70
     1
102
RTVSPropertyOp35
 70
     1
102
RTVSPropertyOp36
 70
     1
102
RTVSPropertyOp37
 70
     0
102
RTVSPropertyOp38
 70
     0
102
RTVSPropertyOp39
 70
     0
102
RTVSPropertyOp40
 70
     0
102
RTVSPropertyOp41
 70
     0
102
RTVSPropertyOp42
 70
     0
102
RTVSPropertyOp43
 70
     0
102
RTVSPropertyOp44
 70
     0
102
RTVSPropertyOp45
 70
     1
102
RTVSPropertyOp46
 70
     0
102
RTVSPropertyOp47
 70
     0
102
RTVSPropertyOp48
 70
     0
102
RTVSPropertyOp49
 70
     1
102
RTVSPropertyOp50
 70
     0
102
RTVSPropertyOp51
 70
     0
102
RTVSPropertyOp52
 70
     0
102
RTVSPropertyOp53
 70
     0
102
RTVSPropertyOp54
 70
     0
102
RTVSPropertyOp55
 70
     1
102
RTVSPropertyOp56
 70
     0
102
RTVSPropertyOp57
 70
     0
102
RTVSPropertyOp58
 70
     0
102
RTVSPropertyOp59
 70
     0
102
RTVSPropertyOp60
 70
     0
102
RTVSPropertyOp61
 70
     0
102
RTVSPropertyOp62
 70
     0
  0
XRECORD
  5
12428
102
{ACAD_REACTORS
330
12427
102
}
330
12427
100
AcDbXrecord
280
     1
102
RTVSPost2010Prop28
280
     0
102
RTVSPost2010PropOp28
 70
     1
102
RTVSPost2010Prop29
280
     1
102
RTVSPost2010PropOp29
 70
     1
102
RTVSPost2010Prop30
280
     1
102
RTVSPost2010PropOp30
 70
     1
102
RTVSPost2010Prop31
280
     0
102
RTVSPost2010PropOp31
 70
     1
102
RTVSPost2010Prop32
280
     0
102
RTVSPost2010PropOp32
 70
     1
102
RTVSPost2010Prop33
280
     0
102
RTVSPost2010PropOp33
 70
     1
102
RTVSPost2010Prop34
280
     0
102
RTVSPost2010PropOp34
 70
     1
102
RTVSPost2010Prop35
280
     0
102
RTVSPost2010PropOp35
 70
     1
102
RTVSPost2010Prop36
280
     0
102
RTVSPost2010PropOp36
 70
     1
102
RTVSPost2010Prop37
 90
       50
102
RTVSPost2010PropOp37
 70
     1
102
RTVSPost2010Prop38
140
0.0
102
RTVSPost2010PropOp38
 70
     1
102
RTVSPost2010Prop39
140
1.0
102
RTVSPost2010PropOp39
 70
     1
102
RTVSPost2010Prop40
 90
        0
102
RTVSPost2010PropOp40
 70
     1
102
RTVSPost2010Prop41ColorIndex
 90
       18
102
RTVSPost2010Prop41ColorRGB
 90
        0
102
RTVSPost2010PropOp41
 70
     1
102
RTVSPost2010Prop42
 90
       50
102
RTVSPost2010PropOp42
 70
     1
102
RTVSPost2010Prop43
 90
        3
102
RTVSPost2010PropOp43
 70
     1
102
RTVSPost2010Prop44ColorIndex
 90
        5
102
RTVSPost2010Prop44ColorRGB
 90
      255
102
RTVSPost2010PropOp44
 70
     1
102
RTVSPost2010Prop45
280
     0
102
RTVSPost2010PropOp45
 70
     1
102
RTVSPost2010Prop46
 90
       50
102
RTVSPost2010PropOp46
 70
     1
102
RTVSPost2010Prop47
 90
       50
102
RTVSPost2010PropOp47
 70
     1
102
RTVSPost2010Prop48
 90
       50
102
RTVSPost2010PropOp48
 70
     1
102
RTVSPost2010Prop49
280
     0
102
RTVSPost2010PropOp49
 70
     1
102
RTVSPost2010Prop50
 90
       50
102
RTVSPost2010PropOp50
 70
     1
102
RTVSPost2010Prop51ColorIndex
 90
      256
102
RTVSPost2010Prop51ColorRGB
 90
-16777216
102
RTVSPost2010PropOp51
 70
     0
102
RTVSPost2010Prop52
140
1.0
102
RTVSPost2010PropOp52
 70
     0
102
RTVSPost2010Prop53
 90
        2
102
RTVSPost2010PropOp53
 70
     1
102
RTVSPost2010Prop54
  1
strokes_ogs.tif
102
RTVSPost2010PropOp54
 70
     1
102
RTVSPost2010Prop55
280
     0
102
RTVSPost2010PropOp55
 70
     1
102
RTVSPost2010Prop56
140
1.0
102
RTVSPost2010PropOp56
 70
     1
102
RTVSPost2010Prop57
140
1.0
102
RTVSPost2010PropOp57
 70
     1
102
RTVSPropertyOp0
 70
     1
102
RTVSPropertyOp1
 70
     1
102
RTVSPropertyOp2
 70
     1
102
RTVSPropertyOp3
 70
     1
102
RTVSPropertyOp4
 70
     1
102
RTVSPropertyOp5
 70
     1
102
RTVSPropertyOp6
 70
     1
102
RTVSPropertyOp7
 70
     1
102
RTVSPropertyOp8
 70
     1
102
RTVSPropertyOp9
 70
     1
102
RTVSPropertyOp10
 70
     1
102
RTVSPropertyOp11
 70
     1
102
RTVSPropertyOp12
 70
     1
102
RTVSPropertyOp13
 70
     1
102
RTVSPropertyOp14
 70
     1
102
RTVSPropertyOp15
 70
     1
102
RTVSPropertyOp16
 70
     1
102
RTVSPropertyOp17
 70
     1
102
RTVSPropertyOp18
 70
     1
102
RTVSPropertyOp19
 70
     1
102
RTVSPropertyOp20
 70
     1
102
RTVSPropertyOp21
 70
     1
102
RTVSPropertyOp22
 70
     1
102
RTVSPropertyOp23
 70
     1
102
RTVSPropertyOp24
 70
     1
102
RTVSPropertyOp25
 70
     1
102
RTVSPropertyOp26
 70
     1
102
RTVSPropertyOp27
 70
     1
102
RTVSPropertyOp28
 70
     1
102
RTVSPropertyOp29
 70
     1
102
RTVSPropertyOp30
 70
     1
102
RTVSPropertyOp31
 70
     1
102
RTVSPropertyOp32
 70
     1
102
RTVSPropertyOp33
 70
     1
102
RTVSPropertyOp34
 70
     1
102
RTVSPropertyOp35
 70
     1
102
RTVSPropertyOp36
 70
     1
102
RTVSPropertyOp37
 70
     1
102
RTVSPropertyOp38
 70
     1
102
RTVSPropertyOp39
 70
     1
102
RTVSPropertyOp40
 70
     1
102
RTVSPropertyOp41
 70
     1
102
RTVSPropertyOp42
 70
     1
102
RTVSPropertyOp43
 70
     1
102
RTVSPropertyOp44
 70
     1
102
RTVSPropertyOp45
 70
     1
102
RTVSPropertyOp46
 70
     1
102
RTVSPropertyOp47
 70
     1
102
RTVSPropertyOp48
 70
     1
102
RTVSPropertyOp49
 70
     1
102
RTVSPropertyOp50
 70
     1
102
RTVSPropertyOp51
 70
     0
102
RTVSPropertyOp52
 70
     0
102
RTVSPropertyOp53
 70
     1
102
RTVSPropertyOp54
 70
     1
102
RTVSPropertyOp55
 70
     1
102
RTVSPropertyOp56
 70
     1
102
RTVSPropertyOp57
 70
     1
102
RTVSPropertyOp58
 70
     1
102
RTVSPropertyOp59
 70
     1
102
RTVSPropertyOp60
 70
     1
102
RTVSPropertyOp61
 70
     1
102
RTVSPropertyOp62
 70
     1
  0
XRECORD
  5
1243E
102
{ACAD_REACTORS
330
1243D
102
}
330
1243D
100
AcDbXrecord
280
     1
102
RTVSPost2010Prop28
280
     0
102
RTVSPost2010PropOp28
 70
     1
102
RTVSPost2010Prop29
280
     1
102
RTVSPost2010PropOp29
 70
     1
102
RTVSPost2010Prop30
280
     1
102
RTVSPost2010PropOp30
 70
     1
102
RTVSPost2010Prop31
280
     0
102
RTVSPost2010PropOp31
 70
     1
102
RTVSPost2010Prop32
280
     0
102
RTVSPost2010PropOp32
 70
     1
102
RTVSPost2010Prop33
280
     0
102
RTVSPost2010PropOp33
 70
     1
102
RTVSPost2010Prop34
280
     0
102
RTVSPost2010PropOp34
 70
     1
102
RTVSPost2010Prop35
280
     0
102
RTVSPost2010PropOp35
 70
     1
102
RTVSPost2010Prop36
280
     0
102
RTVSPost2010PropOp36
 70
     1
102
RTVSPost2010Prop37
 90
       50
102
RTVSPost2010PropOp37
 70
     1
102
RTVSPost2010Prop38
140
0.0
102
RTVSPost2010PropOp38
 70
     1
102
RTVSPost2010Prop39
140
1.0
102
RTVSPost2010PropOp39
 70
     1
102
RTVSPost2010Prop40
 90
        0
102
RTVSPost2010PropOp40
 70
     1
102
RTVSPost2010Prop41ColorIndex
 90
       18
102
RTVSPost2010Prop41ColorRGB
 90
        0
102
RTVSPost2010PropOp41
 70
     1
102
RTVSPost2010Prop42
 90
       50
102
RTVSPost2010PropOp42
 70
     1
102
RTVSPost2010Prop43
 90
        3
102
RTVSPost2010PropOp43
 70
     1
102
RTVSPost2010Prop44ColorIndex
 90
        5
102
RTVSPost2010Prop44ColorRGB
 90
      255
102
RTVSPost2010PropOp44
 70
     1
102
RTVSPost2010Prop45
280
     0
102
RTVSPost2010PropOp45
 70
     1
102
RTVSPost2010Prop46
 90
       50
102
RTVSPost2010PropOp46
 70
     1
102
RTVSPost2010Prop47
 90
       50
102
RTVSPost2010PropOp47
 70
     1
102
RTVSPost2010Prop48
 90
       50
102
RTVSPost2010PropOp48
 70
     1
102
RTVSPost2010Prop49
280
     0
102
RTVSPost2010PropOp49
 70
     1
102
RTVSPost2010Prop50
 90
       50
102
RTVSPost2010PropOp50
 70
     1
102
RTVSPost2010Prop51ColorIndex
 90
      256
102
RTVSPost2010Prop51ColorRGB
 90
-16777216
102
RTVSPost2010PropOp51
 70
     0
102
RTVSPost2010Prop52
140
1.0
102
RTVSPost2010PropOp52
 70
     0
102
RTVSPost2010Prop53
 90
        2
102
RTVSPost2010PropOp53
 70
     1
102
RTVSPost2010Prop54
  1
strokes_ogs.tif
102
RTVSPost2010PropOp54
 70
     1
102
RTVSPost2010Prop55
280
     0
102
RTVSPost2010PropOp55
 70
     1
102
RTVSPost2010Prop56
140
1.0
102
RTVSPost2010PropOp56
 70
     1
102
RTVSPost2010Prop57
140
1.0
102
RTVSPost2010PropOp57
 70
     1
102
RTVSPropertyOp0
 70
     1
102
RTVSPropertyOp1
 70
     1
102
RTVSPropertyOp2
 70
     1
102
RTVSPropertyOp3
 70
     1
102
RTVSPropertyOp4
 70
     1
102
RTVSPropertyOp5
 70
     1
102
RTVSPropertyOp6
 70
     1
102
RTVSPropertyOp7
 70
     1
102
RTVSPropertyOp8
 70
     1
102
RTVSPropertyOp9
 70
     1
102
RTVSPropertyOp10
 70
     1
102
RTVSPropertyOp11
 70
     1
102
RTVSPropertyOp12
 70
     1
102
RTVSPropertyOp13
 70
     1
102
RTVSPropertyOp14
 70
     1
102
RTVSPropertyOp15
 70
     1
102
RTVSPropertyOp16
 70
     1
102
RTVSPropertyOp17
 70
     1
102
RTVSPropertyOp18
 70
     1
102
RTVSPropertyOp19
 70
     1
102
RTVSPropertyOp20
 70
     1
102
RTVSPropertyOp21
 70
     1
102
RTVSPropertyOp22
 70
     1
102
RTVSPropertyOp23
 70
     1
102
RTVSPropertyOp24
 70
     1
102
RTVSPropertyOp25
 70
     1
102
RTVSPropertyOp26
 70
     1
102
RTVSPropertyOp27
 70
     1
102
RTVSPropertyOp28
 70
     1
102
RTVSPropertyOp29
 70
     1
102
RTVSPropertyOp30
 70
     1
102
RTVSPropertyOp31
 70
     1
102
RTVSPropertyOp32
 70
     1
102
RTVSPropertyOp33
 70
     1
102
RTVSPropertyOp34
 70
     1
102
RTVSPropertyOp35
 70
     1
102
RTVSPropertyOp36
 70
     1
102
RTVSPropertyOp37
 70
     1
102
RTVSPropertyOp38
 70
     1
102
RTVSPropertyOp39
 70
     1
102
RTVSPropertyOp40
 70
     1
102
RTVSPropertyOp41
 70
     1
102
RTVSPropertyOp42
 70
     1
102
RTVSPropertyOp43
 70
     1
102
RTVSPropertyOp44
 70
     1
102
RTVSPropertyOp45
 70
     1
102
RTVSPropertyOp46
 70
     1
102
RTVSPropertyOp47
 70
     1
102
RTVSPropertyOp48
 70
     1
102
RTVSPropertyOp49
 70
     1
102
RTVSPropertyOp50
 70
     1
102
RTVSPropertyOp51
 70
     0
102
RTVSPropertyOp52
 70
     0
102
RTVSPropertyOp53
 70
     1
102
RTVSPropertyOp54
 70
     1
102
RTVSPropertyOp55
 70
     1
102
RTVSPropertyOp56
 70
     1
102
RTVSPropertyOp57
 70
     1
102
RTVSPropertyOp58
 70
     1
102
RTVSPropertyOp59
 70
     1
102
RTVSPropertyOp60
 70
     1
102
RTVSPropertyOp61
 70
     1
102
RTVSPropertyOp62
 70
     1
  0
XRECORD
  5
1243C
102
{ACAD_REACTORS
330
1243B
102
}
330
1243B
100
AcDbXrecord
280
     1
102
RTVSPost2010Prop28
280
     0
102
RTVSPost2010PropOp28
 70
     1
102
RTVSPost2010Prop29
280
     1
102
RTVSPost2010PropOp29
 70
     1
102
RTVSPost2010Prop30
280
     1
102
RTVSPost2010PropOp30
 70
     1
102
RTVSPost2010Prop31
280
     0
102
RTVSPost2010PropOp31
 70
     1
102
RTVSPost2010Prop32
280
     0
102
RTVSPost2010PropOp32
 70
     1
102
RTVSPost2010Prop33
280
     0
102
RTVSPost2010PropOp33
 70
     1
102
RTVSPost2010Prop34
280
     0
102
RTVSPost2010PropOp34
 70
     1
102
RTVSPost2010Prop35
280
     0
102
RTVSPost2010PropOp35
 70
     1
102
RTVSPost2010Prop36
280
     0
102
RTVSPost2010PropOp36
 70
     1
102
RTVSPost2010Prop37
 90
       50
102
RTVSPost2010PropOp37
 70
     1
102
RTVSPost2010Prop38
140
0.0
102
RTVSPost2010PropOp38
 70
     1
102
RTVSPost2010Prop39
140
1.0
102
RTVSPost2010PropOp39
 70
     1
102
RTVSPost2010Prop40
 90
        0
102
RTVSPost2010PropOp40
 70
     1
102
RTVSPost2010Prop41ColorIndex
 90
       18
102
RTVSPost2010Prop41ColorRGB
 90
        0
102
RTVSPost2010PropOp41
 70
     1
102
RTVSPost2010Prop42
 90
       50
102
RTVSPost2010PropOp42
 70
     1
102
RTVSPost2010Prop43
 90
        3
102
RTVSPost2010PropOp43
 70
     1
102
RTVSPost2010Prop44ColorIndex
 90
        5
102
RTVSPost2010Prop44ColorRGB
 90
      255
102
RTVSPost2010PropOp44
 70
     1
102
RTVSPost2010Prop45
280
     0
102
RTVSPost2010PropOp45
 70
     1
102
RTVSPost2010Prop46
 90
       50
102
RTVSPost2010PropOp46
 70
     1
102
RTVSPost2010Prop47
 90
       50
102
RTVSPost2010PropOp47
 70
     1
102
RTVSPost2010Prop48
 90
       50
102
RTVSPost2010PropOp48
 70
     1
102
RTVSPost2010Prop49
280
     0
102
RTVSPost2010PropOp49
 70
     1
102
RTVSPost2010Prop50
 90
       50
102
RTVSPost2010PropOp50
 70
     1
102
RTVSPost2010Prop51ColorIndex
 90
      256
102
RTVSPost2010Prop51ColorRGB
 90
-16777216
102
RTVSPost2010PropOp51
 70
     0
102
RTVSPost2010Prop52
140
1.0
102
RTVSPost2010PropOp52
 70
     0
102
RTVSPost2010Prop53
 90
        2
102
RTVSPost2010PropOp53
 70
     1
102
RTVSPost2010Prop54
  1
strokes_ogs.tif
102
RTVSPost2010PropOp54
 70
     1
102
RTVSPost2010Prop55
280
     0
102
RTVSPost2010PropOp55
 70
     1
102
RTVSPost2010Prop56
140
1.0
102
RTVSPost2010PropOp56
 70
     1
102
RTVSPost2010Prop57
140
1.0
102
RTVSPost2010PropOp57
 70
     1
102
RTVSPropertyOp0
 70
     1
102
RTVSPropertyOp1
 70
     1
102
RTVSPropertyOp2
 70
     1
102
RTVSPropertyOp3
 70
     1
102
RTVSPropertyOp4
 70
     1
102
RTVSPropertyOp5
 70
     1
102
RTVSPropertyOp6
 70
     1
102
RTVSPropertyOp7
 70
     1
102
RTVSPropertyOp8
 70
     1
102
RTVSPropertyOp9
 70
     1
102
RTVSPropertyOp10
 70
     1
102
RTVSPropertyOp11
 70
     1
102
RTVSPropertyOp12
 70
     1
102
RTVSPropertyOp13
 70
     1
102
RTVSPropertyOp14
 70
     1
102
RTVSPropertyOp15
 70
     1
102
RTVSPropertyOp16
 70
     1
102
RTVSPropertyOp17
 70
     1
102
RTVSPropertyOp18
 70
     1
102
RTVSPropertyOp19
 70
     1
102
RTVSPropertyOp20
 70
     1
102
RTVSPropertyOp21
 70
     1
102
RTVSPropertyOp22
 70
     1
102
RTVSPropertyOp23
 70
     1
102
RTVSPropertyOp24
 70
     1
102
RTVSPropertyOp25
 70
     1
102
RTVSPropertyOp26
 70
     1
102
RTVSPropertyOp27
 70
     1
102
RTVSPropertyOp28
 70
     1
102
RTVSPropertyOp29
 70
     1
102
RTVSPropertyOp30
 70
     1
102
RTVSPropertyOp31
 70
     1
102
RTVSPropertyOp32
 70
     1
102
RTVSPropertyOp33
 70
     1
102
RTVSPropertyOp34
 70
     1
102
RTVSPropertyOp35
 70
     1
102
RTVSPropertyOp36
 70
     1
102
RTVSPropertyOp37
 70
     1
102
RTVSPropertyOp38
 70
     1
102
RTVSPropertyOp39
 70
     1
102
RTVSPropertyOp40
 70
     1
102
RTVSPropertyOp41
 70
     1
102
RTVSPropertyOp42
 70
     1
102
RTVSPropertyOp43
 70
     1
102
RTVSPropertyOp44
 70
     1
102
RTVSPropertyOp45
 70
     1
102
RTVSPropertyOp46
 70
     1
102
RTVSPropertyOp47
 70
     1
102
RTVSPropertyOp48
 70
     1
102
RTVSPropertyOp49
 70
     1
102
RTVSPropertyOp50
 70
     1
102
RTVSPropertyOp51
 70
     0
102
RTVSPropertyOp52
 70
     0
102
RTVSPropertyOp53
 70
     1
102
RTVSPropertyOp54
 70
     1
102
RTVSPropertyOp55
 70
     1
102
RTVSPropertyOp56
 70
     1
102
RTVSPropertyOp57
 70
     1
102
RTVSPropertyOp58
 70
     1
102
RTVSPropertyOp59
 70
     1
102
RTVSPropertyOp60
 70
     1
102
RTVSPropertyOp61
 70
     1
102
RTVSPropertyOp62
 70
     1
  0
XRECORD
  5
12436
102
{ACAD_REACTORS
330
12435
102
}
330
12435
100
AcDbXrecord
280
     1
102
RTVSPost2010Prop28
280
     0
102
RTVSPost2010PropOp28
 70
     1
102
RTVSPost2010Prop29
280
     1
102
RTVSPost2010PropOp29
 70
     1
102
RTVSPost2010Prop30
280
     1
102
RTVSPost2010PropOp30
 70
     1
102
RTVSPost2010Prop31
280
     0
102
RTVSPost2010PropOp31
 70
     1
102
RTVSPost2010Prop32
280
     0
102
RTVSPost2010PropOp32
 70
     1
102
RTVSPost2010Prop33
280
     0
102
RTVSPost2010PropOp33
 70
     1
102
RTVSPost2010Prop34
280
     0
102
RTVSPost2010PropOp34
 70
     1
102
RTVSPost2010Prop35
280
     0
102
RTVSPost2010PropOp35
 70
     1
102
RTVSPost2010Prop36
280
     0
102
RTVSPost2010PropOp36
 70
     1
102
RTVSPost2010Prop37
 90
       50
102
RTVSPost2010PropOp37
 70
     1
102
RTVSPost2010Prop38
140
0.0
102
RTVSPost2010PropOp38
 70
     1
102
RTVSPost2010Prop39
140
1.0
102
RTVSPost2010PropOp39
 70
     1
102
RTVSPost2010Prop40
 90
        0
102
RTVSPost2010PropOp40
 70
     1
102
RTVSPost2010Prop41ColorIndex
 90
       18
102
RTVSPost2010Prop41ColorRGB
 90
        0
102
RTVSPost2010PropOp41
 70
     1
102
RTVSPost2010Prop42
 90
       50
102
RTVSPost2010PropOp42
 70
     1
102
RTVSPost2010Prop43
 90
        3
102
RTVSPost2010PropOp43
 70
     1
102
RTVSPost2010Prop44ColorIndex
 90
        5
102
RTVSPost2010Prop44ColorRGB
 90
      255
102
RTVSPost2010PropOp44
 70
     1
102
RTVSPost2010Prop45
280
     0
102
RTVSPost2010PropOp45
 70
     1
102
RTVSPost2010Prop46
 90
       50
102
RTVSPost2010PropOp46
 70
     1
102
RTVSPost2010Prop47
 90
       50
102
RTVSPost2010PropOp47
 70
     1
102
RTVSPost2010Prop48
 90
       50
102
RTVSPost2010PropOp48
 70
     1
102
RTVSPost2010Prop49
280
     0
102
RTVSPost2010PropOp49
 70
     1
102
RTVSPost2010Prop50
 90
       50
102
RTVSPost2010PropOp50
 70
     1
102
RTVSPost2010Prop51ColorIndex
 90
      256
102
RTVSPost2010Prop51ColorRGB
 90
-16777216
102
RTVSPost2010PropOp51
 70
     0
102
RTVSPost2010Prop52
140
1.0
102
RTVSPost2010PropOp52
 70
     0
102
RTVSPost2010Prop53
 90
        2
102
RTVSPost2010PropOp53
 70
     1
102
RTVSPost2010Prop54
  1
strokes_ogs.tif
102
RTVSPost2010PropOp54
 70
     1
102
RTVSPost2010Prop55
280
     0
102
RTVSPost2010PropOp55
 70
     1
102
RTVSPost2010Prop56
140
1.0
102
RTVSPost2010PropOp56
 70
     1
102
RTVSPost2010Prop57
140
1.0
102
RTVSPost2010PropOp57
 70
     1
102
RTVSPropertyOp0
 70
     1
102
RTVSPropertyOp1
 70
     1
102
RTVSPropertyOp2
 70
     1
102
RTVSPropertyOp3
 70
     1
102
RTVSPropertyOp4
 70
     1
102
RTVSPropertyOp5
 70
     1
102
RTVSPropertyOp6
 70
     1
102
RTVSPropertyOp7
 70
     1
102
RTVSPropertyOp8
 70
     1
102
RTVSPropertyOp9
 70
     1
102
RTVSPropertyOp10
 70
     1
102
RTVSPropertyOp11
 70
     1
102
RTVSPropertyOp12
 70
     1
102
RTVSPropertyOp13
 70
     1
102
RTVSPropertyOp14
 70
     1
102
RTVSPropertyOp15
 70
     1
102
RTVSPropertyOp16
 70
     1
102
RTVSPropertyOp17
 70
     1
102
RTVSPropertyOp18
 70
     1
102
RTVSPropertyOp19
 70
     1
102
RTVSPropertyOp20
 70
     1
102
RTVSPropertyOp21
 70
     1
102
RTVSPropertyOp22
 70
     1
102
RTVSPropertyOp23
 70
     1
102
RTVSPropertyOp24
 70
     1
102
RTVSPropertyOp25
 70
     1
102
RTVSPropertyOp26
 70
     1
102
RTVSPropertyOp27
 70
     1
102
RTVSPropertyOp28
 70
     1
102
RTVSPropertyOp29
 70
     1
102
RTVSPropertyOp30
 70
     1
102
RTVSPropertyOp31
 70
     1
102
RTVSPropertyOp32
 70
     1
102
RTVSPropertyOp33
 70
     1
102
RTVSPropertyOp34
 70
     1
102
RTVSPropertyOp35
 70
     1
102
RTVSPropertyOp36
 70
     1
102
RTVSPropertyOp37
 70
     1
102
RTVSPropertyOp38
 70
     1
102
RTVSPropertyOp39
 70
     1
102
RTVSPropertyOp40
 70
     1
102
RTVSPropertyOp41
 70
     1
102
RTVSPropertyOp42
 70
     1
102
RTVSPropertyOp43
 70
     1
102
RTVSPropertyOp44
 70
     1
102
RTVSPropertyOp45
 70
     1
102
RTVSPropertyOp46
 70
     1
102
RTVSPropertyOp47
 70
     1
102
RTVSPropertyOp48
 70
     1
102
RTVSPropertyOp49
 70
     1
102
RTVSPropertyOp50
 70
     1
102
RTVSPropertyOp51
 70
     0
102
RTVSPropertyOp52
 70
     0
102
RTVSPropertyOp53
 70
     1
102
RTVSPropertyOp54
 70
     1
102
RTVSPropertyOp55
 70
     1
102
RTVSPropertyOp56
 70
     1
102
RTVSPropertyOp57
 70
     1
102
RTVSPropertyOp58
 70
     1
102
RTVSPropertyOp59
 70
     1
102
RTVSPropertyOp60
 70
     1
102
RTVSPropertyOp61
 70
     1
102
RTVSPropertyOp62
 70
     1
  0
XRECORD
  5
12438
102
{ACAD_REACTORS
330
12437
102
}
330
12437
100
AcDbXrecord
280
     1
102
RTVSPost2010Prop28
280
     0
102
RTVSPost2010PropOp28
 70
     1
102
RTVSPost2010Prop29
280
     1
102
RTVSPost2010PropOp29
 70
     1
102
RTVSPost2010Prop30
280
     1
102
RTVSPost2010PropOp30
 70
     1
102
RTVSPost2010Prop31
280
     0
102
RTVSPost2010PropOp31
 70
     1
102
RTVSPost2010Prop32
280
     0
102
RTVSPost2010PropOp32
 70
     1
102
RTVSPost2010Prop33
280
     0
102
RTVSPost2010PropOp33
 70
     1
102
RTVSPost2010Prop34
280
     0
102
RTVSPost2010PropOp34
 70
     1
102
RTVSPost2010Prop35
280
     0
102
RTVSPost2010PropOp35
 70
     1
102
RTVSPost2010Prop36
280
     0
102
RTVSPost2010PropOp36
 70
     1
102
RTVSPost2010Prop37
 90
       50
102
RTVSPost2010PropOp37
 70
     1
102
RTVSPost2010Prop38
140
0.0
102
RTVSPost2010PropOp38
 70
     1
102
RTVSPost2010Prop39
140
1.0
102
RTVSPost2010PropOp39
 70
     1
102
RTVSPost2010Prop40
 90
        0
102
RTVSPost2010PropOp40
 70
     1
102
RTVSPost2010Prop41ColorIndex
 90
       18
102
RTVSPost2010Prop41ColorRGB
 90
        0
102
RTVSPost2010PropOp41
 70
     1
102
RTVSPost2010Prop42
 90
       50
102
RTVSPost2010PropOp42
 70
     1
102
RTVSPost2010Prop43
 90
        3
102
RTVSPost2010PropOp43
 70
     1
102
RTVSPost2010Prop44ColorIndex
 90
        5
102
RTVSPost2010Prop44ColorRGB
 90
      255
102
RTVSPost2010PropOp44
 70
     1
102
RTVSPost2010Prop45
280
     0
102
RTVSPost2010PropOp45
 70
     1
102
RTVSPost2010Prop46
 90
       50
102
RTVSPost2010PropOp46
 70
     1
102
RTVSPost2010Prop47
 90
       50
102
RTVSPost2010PropOp47
 70
     1
102
RTVSPost2010Prop48
 90
       50
102
RTVSPost2010PropOp48
 70
     1
102
RTVSPost2010Prop49
280
     0
102
RTVSPost2010PropOp49
 70
     1
102
RTVSPost2010Prop50
 90
       50
102
RTVSPost2010PropOp50
 70
     1
102
RTVSPost2010Prop51ColorIndex
 90
      256
102
RTVSPost2010Prop51ColorRGB
 90
-16777216
102
RTVSPost2010PropOp51
 70
     0
102
RTVSPost2010Prop52
140
1.0
102
RTVSPost2010PropOp52
 70
     0
102
RTVSPost2010Prop53
 90
        2
102
RTVSPost2010PropOp53
 70
     1
102
RTVSPost2010Prop54
  1
strokes_ogs.tif
102
RTVSPost2010PropOp54
 70
     1
102
RTVSPost2010Prop55
280
     0
102
RTVSPost2010PropOp55
 70
     1
102
RTVSPost2010Prop56
140
1.0
102
RTVSPost2010PropOp56
 70
     1
102
RTVSPost2010Prop57
140
1.0
102
RTVSPost2010PropOp57
 70
     1
102
RTVSPropertyOp0
 70
     1
102
RTVSPropertyOp1
 70
     1
102
RTVSPropertyOp2
 70
     1
102
RTVSPropertyOp3
 70
     1
102
RTVSPropertyOp4
 70
     1
102
RTVSPropertyOp5
 70
     1
102
RTVSPropertyOp6
 70
     1
102
RTVSPropertyOp7
 70
     1
102
RTVSPropertyOp8
 70
     1
102
RTVSPropertyOp9
 70
     1
102
RTVSPropertyOp10
 70
     1
102
RTVSPropertyOp11
 70
     1
102
RTVSPropertyOp12
 70
     1
102
RTVSPropertyOp13
 70
     1
102
RTVSPropertyOp14
 70
     1
102
RTVSPropertyOp15
 70
     1
102
RTVSPropertyOp16
 70
     1
102
RTVSPropertyOp17
 70
     1
102
RTVSPropertyOp18
 70
     1
102
RTVSPropertyOp19
 70
     1
102
RTVSPropertyOp20
 70
     1
102
RTVSPropertyOp21
 70
     1
102
RTVSPropertyOp22
 70
     1
102
RTVSPropertyOp23
 70
     1
102
RTVSPropertyOp24
 70
     1
102
RTVSPropertyOp25
 70
     1
102
RTVSPropertyOp26
 70
     1
102
RTVSPropertyOp27
 70
     1
102
RTVSPropertyOp28
 70
     1
102
RTVSPropertyOp29
 70
     1
102
RTVSPropertyOp30
 70
     1
102
RTVSPropertyOp31
 70
     1
102
RTVSPropertyOp32
 70
     1
102
RTVSPropertyOp33
 70
     1
102
RTVSPropertyOp34
 70
     1
102
RTVSPropertyOp35
 70
     1
102
RTVSPropertyOp36
 70
     1
102
RTVSPropertyOp37
 70
     1
102
RTVSPropertyOp38
 70
     1
102
RTVSPropertyOp39
 70
     1
102
RTVSPropertyOp40
 70
     1
102
RTVSPropertyOp41
 70
     1
102
RTVSPropertyOp42
 70
     1
102
RTVSPropertyOp43
 70
     1
102
RTVSPropertyOp44
 70
     1
102
RTVSPropertyOp45
 70
     1
102
RTVSPropertyOp46
 70
     1
102
RTVSPropertyOp47
 70
     1
102
RTVSPropertyOp48
 70
     1
102
RTVSPropertyOp49
 70
     1
102
RTVSPropertyOp50
 70
     1
102
RTVSPropertyOp51
 70
     0
102
RTVSPropertyOp52
 70
     0
102
RTVSPropertyOp53
 70
     1
102
RTVSPropertyOp54
 70
     1
102
RTVSPropertyOp55
 70
     1
102
RTVSPropertyOp56
 70
     1
102
RTVSPropertyOp57
 70
     1
102
RTVSPropertyOp58
 70
     1
102
RTVSPropertyOp59
 70
     1
102
RTVSPropertyOp60
 70
     1
102
RTVSPropertyOp61
 70
     1
102
RTVSPropertyOp62
 70
     1
  0
XRECORD
  5
1242E
102
{ACAD_REACTORS
330
1242D
102
}
330
1242D
100
AcDbXrecord
280
     1
102
RTVSPost2010Prop28
280
     0
102
RTVSPost2010PropOp28
 70
     1
102
RTVSPost2010Prop29
280
     1
102
RTVSPost2010PropOp29
 70
     1
102
RTVSPost2010Prop30
280
     1
102
RTVSPost2010PropOp30
 70
     1
102
RTVSPost2010Prop31
280
     0
102
RTVSPost2010PropOp31
 70
     1
102
RTVSPost2010Prop32
280
     0
102
RTVSPost2010PropOp32
 70
     1
102
RTVSPost2010Prop33
280
     0
102
RTVSPost2010PropOp33
 70
     1
102
RTVSPost2010Prop34
280
     0
102
RTVSPost2010PropOp34
 70
     1
102
RTVSPost2010Prop35
280
     0
102
RTVSPost2010PropOp35
 70
     1
102
RTVSPost2010Prop36
280
     0
102
RTVSPost2010PropOp36
 70
     1
102
RTVSPost2010Prop37
 90
       50
102
RTVSPost2010PropOp37
 70
     1
102
RTVSPost2010Prop38
140
0.0
102
RTVSPost2010PropOp38
 70
     1
102
RTVSPost2010Prop39
140
1.0
102
RTVSPost2010PropOp39
 70
     1
102
RTVSPost2010Prop40
 90
        0
102
RTVSPost2010PropOp40
 70
     1
102
RTVSPost2010Prop41ColorIndex
 90
       18
102
RTVSPost2010Prop41ColorRGB
 90
        0
102
RTVSPost2010PropOp41
 70
     1
102
RTVSPost2010Prop42
 90
       50
102
RTVSPost2010PropOp42
 70
     1
102
RTVSPost2010Prop43
 90
        3
102
RTVSPost2010PropOp43
 70
     1
102
RTVSPost2010Prop44ColorIndex
 90
        5
102
RTVSPost2010Prop44ColorRGB
 90
      255
102
RTVSPost2010PropOp44
 70
     1
102
RTVSPost2010Prop45
280
     0
102
RTVSPost2010PropOp45
 70
     1
102
RTVSPost2010Prop46
 90
       50
102
RTVSPost2010PropOp46
 70
     1
102
RTVSPost2010Prop47
 90
       50
102
RTVSPost2010PropOp47
 70
     1
102
RTVSPost2010Prop48
 90
       50
102
RTVSPost2010PropOp48
 70
     1
102
RTVSPost2010Prop49
280
     0
102
RTVSPost2010PropOp49
 70
     1
102
RTVSPost2010Prop50
 90
       50
102
RTVSPost2010PropOp50
 70
     1
102
RTVSPost2010Prop51ColorIndex
 90
      256
102
RTVSPost2010Prop51ColorRGB
 90
-16777216
102
RTVSPost2010PropOp51
 70
     0
102
RTVSPost2010Prop52
140
1.0
102
RTVSPost2010PropOp52
 70
     0
102
RTVSPost2010Prop53
 90
        2
102
RTVSPost2010PropOp53
 70
     1
102
RTVSPost2010Prop54
  1
strokes_ogs.tif
102
RTVSPost2010PropOp54
 70
     1
102
RTVSPost2010Prop55
280
     0
102
RTVSPost2010PropOp55
 70
     1
102
RTVSPost2010Prop56
140
1.0
102
RTVSPost2010PropOp56
 70
     1
102
RTVSPost2010Prop57
140
1.0
102
RTVSPost2010PropOp57
 70
     1
102
RTVSPropertyOp0
 70
     1
102
RTVSPropertyOp1
 70
     1
102
RTVSPropertyOp2
 70
     1
102
RTVSPropertyOp3
 70
     1
102
RTVSPropertyOp4
 70
     1
102
RTVSPropertyOp5
 70
     1
102
RTVSPropertyOp6
 70
     1
102
RTVSPropertyOp7
 70
     1
102
RTVSPropertyOp8
 70
     1
102
RTVSPropertyOp9
 70
     1
102
RTVSPropertyOp10
 70
     1
102
RTVSPropertyOp11
 70
     1
102
RTVSPropertyOp12
 70
     1
102
RTVSPropertyOp13
 70
     1
102
RTVSPropertyOp14
 70
     1
102
RTVSPropertyOp15
 70
     1
102
RTVSPropertyOp16
 70
     1
102
RTVSPropertyOp17
 70
     1
102
RTVSPropertyOp18
 70
     1
102
RTVSPropertyOp19
 70
     1
102
RTVSPropertyOp20
 70
     1
102
RTVSPropertyOp21
 70
     1
102
RTVSPropertyOp22
 70
     1
102
RTVSPropertyOp23
 70
     1
102
RTVSPropertyOp24
 70
     1
102
RTVSPropertyOp25
 70
     1
102
RTVSPropertyOp26
 70
     1
102
RTVSPropertyOp27
 70
     1
102
RTVSPropertyOp28
 70
     1
102
RTVSPropertyOp29
 70
     1
102
RTVSPropertyOp30
 70
     1
102
RTVSPropertyOp31
 70
     1
102
RTVSPropertyOp32
 70
     1
102
RTVSPropertyOp33
 70
     1
102
RTVSPropertyOp34
 70
     1
102
RTVSPropertyOp35
 70
     1
102
RTVSPropertyOp36
 70
     1
102
RTVSPropertyOp37
 70
     1
102
RTVSPropertyOp38
 70
     1
102
RTVSPropertyOp39
 70
     1
102
RTVSPropertyOp40
 70
     1
102
RTVSPropertyOp41
 70
     1
102
RTVSPropertyOp42
 70
     1
102
RTVSPropertyOp43
 70
     1
102
RTVSPropertyOp44
 70
     1
102
RTVSPropertyOp45
 70
     1
102
RTVSPropertyOp46
 70
     1
102
RTVSPropertyOp47
 70
     1
102
RTVSPropertyOp48
 70
     1
102
RTVSPropertyOp49
 70
     1
102
RTVSPropertyOp50
 70
     1
102
RTVSPropertyOp51
 70
     0
102
RTVSPropertyOp52
 70
     0
102
RTVSPropertyOp53
 70
     1
102
RTVSPropertyOp54
 70
     1
102
RTVSPropertyOp55
 70
     1
102
RTVSPropertyOp56
 70
     1
102
RTVSPropertyOp57
 70
     1
102
RTVSPropertyOp58
 70
     1
102
RTVSPropertyOp59
 70
     1
102
RTVSPropertyOp60
 70
     1
102
RTVSPropertyOp61
 70
     1
102
RTVSPropertyOp62
 70
     1
  0
XRECORD
  5
12422
102
{ACAD_REACTORS
330
12421
102
}
330
12421
100
AcDbXrecord
280
     1
102
RTVSPost2010Prop28
280
     0
102
RTVSPost2010PropOp28
 70
     1
102
RTVSPost2010Prop29
280
     1
102
RTVSPost2010PropOp29
 70
     1
102
RTVSPost2010Prop30
280
     1
102
RTVSPost2010PropOp30
 70
     1
102
RTVSPost2010Prop31
280
     0
102
RTVSPost2010PropOp31
 70
     1
102
RTVSPost2010Prop32
280
     0
102
RTVSPost2010PropOp32
 70
     1
102
RTVSPost2010Prop33
280
     0
102
RTVSPost2010PropOp33
 70
     1
102
RTVSPost2010Prop34
280
     0
102
RTVSPost2010PropOp34
 70
     1
102
RTVSPost2010Prop35
280
     0
102
RTVSPost2010PropOp35
 70
     1
102
RTVSPost2010Prop36
280
     0
102
RTVSPost2010PropOp36
 70
     1
102
RTVSPost2010Prop37
 90
       50
102
RTVSPost2010PropOp37
 70
     1
102
RTVSPost2010Prop38
140
0.0
102
RTVSPost2010PropOp38
 70
     1
102
RTVSPost2010Prop39
140
1.0
102
RTVSPost2010PropOp39
 70
     1
102
RTVSPost2010Prop40
 90
        0
102
RTVSPost2010PropOp40
 70
     1
102
RTVSPost2010Prop41ColorIndex
 90
       18
102
RTVSPost2010Prop41ColorRGB
 90
        0
102
RTVSPost2010PropOp41
 70
     1
102
RTVSPost2010Prop42
 90
       50
102
RTVSPost2010PropOp42
 70
     1
102
RTVSPost2010Prop43
 90
        3
102
RTVSPost2010PropOp43
 70
     1
102
RTVSPost2010Prop44ColorIndex
 90
        5
102
RTVSPost2010Prop44ColorRGB
 90
      255
102
RTVSPost2010PropOp44
 70
     1
102
RTVSPost2010Prop45
280
     0
102
RTVSPost2010PropOp45
 70
     1
102
RTVSPost2010Prop46
 90
       50
102
RTVSPost2010PropOp46
 70
     1
102
RTVSPost2010Prop47
 90
       50
102
RTVSPost2010PropOp47
 70
     1
102
RTVSPost2010Prop48
 90
       50
102
RTVSPost2010PropOp48
 70
     1
102
RTVSPost2010Prop49
280
     0
102
RTVSPost2010PropOp49
 70
     1
102
RTVSPost2010Prop50
 90
       50
102
RTVSPost2010PropOp50
 70
     1
102
RTVSPost2010Prop51ColorIndex
 90
      256
102
RTVSPost2010Prop51ColorRGB
 90
-16777216
102
RTVSPost2010PropOp51
 70
     0
102
RTVSPost2010Prop52
140
1.0
102
RTVSPost2010PropOp52
 70
     0
102
RTVSPost2010Prop53
 90
        2
102
RTVSPost2010PropOp53
 70
     1
102
RTVSPost2010Prop54
  1
strokes_ogs.tif
102
RTVSPost2010PropOp54
 70
     1
102
RTVSPost2010Prop55
280
     0
102
RTVSPost2010PropOp55
 70
     1
102
RTVSPost2010Prop56
140
1.0
102
RTVSPost2010PropOp56
 70
     1
102
RTVSPost2010Prop57
140
1.0
102
RTVSPost2010PropOp57
 70
     1
102
RTVSPropertyOp0
 70
     1
102
RTVSPropertyOp1
 70
     1
102
RTVSPropertyOp2
 70
     1
102
RTVSPropertyOp3
 70
     1
102
RTVSPropertyOp4
 70
     1
102
RTVSPropertyOp5
 70
     1
102
RTVSPropertyOp6
 70
     1
102
RTVSPropertyOp7
 70
     1
102
RTVSPropertyOp8
 70
     1
102
RTVSPropertyOp9
 70
     1
102
RTVSPropertyOp10
 70
     1
102
RTVSPropertyOp11
 70
     1
102
RTVSPropertyOp12
 70
     1
102
RTVSPropertyOp13
 70
     1
102
RTVSPropertyOp14
 70
     1
102
RTVSPropertyOp15
 70
     1
102
RTVSPropertyOp16
 70
     1
102
RTVSPropertyOp17
 70
     1
102
RTVSPropertyOp18
 70
     1
102
RTVSPropertyOp19
 70
     1
102
RTVSPropertyOp20
 70
     1
102
RTVSPropertyOp21
 70
     1
102
RTVSPropertyOp22
 70
     1
102
RTVSPropertyOp23
 70
     1
102
RTVSPropertyOp24
 70
     1
102
RTVSPropertyOp25
 70
     1
102
RTVSPropertyOp26
 70
     1
102
RTVSPropertyOp27
 70
     1
102
RTVSPropertyOp28
 70
     1
102
RTVSPropertyOp29
 70
     1
102
RTVSPropertyOp30
 70
     1
102
RTVSPropertyOp31
 70
     1
102
RTVSPropertyOp32
 70
     1
102
RTVSPropertyOp33
 70
     1
102
RTVSPropertyOp34
 70
     1
102
RTVSPropertyOp35
 70
     1
102
RTVSPropertyOp36
 70
     1
102
RTVSPropertyOp37
 70
     1
102
RTVSPropertyOp38
 70
     1
102
RTVSPropertyOp39
 70
     1
102
RTVSPropertyOp40
 70
     1
102
RTVSPropertyOp41
 70
     1
102
RTVSPropertyOp42
 70
     1
102
RTVSPropertyOp43
 70
     1
102
RTVSPropertyOp44
 70
     1
102
RTVSPropertyOp45
 70
     1
102
RTVSPropertyOp46
 70
     1
102
RTVSPropertyOp47
 70
     1
102
RTVSPropertyOp48
 70
     1
102
RTVSPropertyOp49
 70
     1
102
RTVSPropertyOp50
 70
     1
102
RTVSPropertyOp51
 70
     0
102
RTVSPropertyOp52
 70
     0
102
RTVSPropertyOp53
 70
     1
102
RTVSPropertyOp54
 70
     1
102
RTVSPropertyOp55
 70
     1
102
RTVSPropertyOp56
 70
     1
102
RTVSPropertyOp57
 70
     1
102
RTVSPropertyOp58
 70
     1
102
RTVSPropertyOp59
 70
     1
102
RTVSPropertyOp60
 70
     1
102
RTVSPropertyOp61
 70
     1
102
RTVSPropertyOp62
 70
     1
  0
XRECORD
  5
1243A
102
{ACAD_REACTORS
330
12439
102
}
330
12439
100
AcDbXrecord
280
     1
102
RTVSPost2010Prop28
280
     0
102
RTVSPost2010PropOp28
 70
     1
102
RTVSPost2010Prop29
280
     1
102
RTVSPost2010PropOp29
 70
     1
102
RTVSPost2010Prop30
280
     1
102
RTVSPost2010PropOp30
 70
     1
102
RTVSPost2010Prop31
280
     0
102
RTVSPost2010PropOp31
 70
     1
102
RTVSPost2010Prop32
280
     0
102
RTVSPost2010PropOp32
 70
     1
102
RTVSPost2010Prop33
280
     0
102
RTVSPost2010PropOp33
 70
     1
102
RTVSPost2010Prop34
280
     0
102
RTVSPost2010PropOp34
 70
     1
102
RTVSPost2010Prop35
280
     0
102
RTVSPost2010PropOp35
 70
     1
102
RTVSPost2010Prop36
280
     0
102
RTVSPost2010PropOp36
 70
     1
102
RTVSPost2010Prop37
 90
       50
102
RTVSPost2010PropOp37
 70
     1
102
RTVSPost2010Prop38
140
0.0
102
RTVSPost2010PropOp38
 70
     1
102
RTVSPost2010Prop39
140
1.0
102
RTVSPost2010PropOp39
 70
     1
102
RTVSPost2010Prop40
 90
        0
102
RTVSPost2010PropOp40
 70
     1
102
RTVSPost2010Prop41ColorIndex
 90
       18
102
RTVSPost2010Prop41ColorRGB
 90
        0
102
RTVSPost2010PropOp41
 70
     1
102
RTVSPost2010Prop42
 90
       50
102
RTVSPost2010PropOp42
 70
     1
102
RTVSPost2010Prop43
 90
        3
102
RTVSPost2010PropOp43
 70
     1
102
RTVSPost2010Prop44ColorIndex
 90
        5
102
RTVSPost2010Prop44ColorRGB
 90
      255
102
RTVSPost2010PropOp44
 70
     1
102
RTVSPost2010Prop45
280
     0
102
RTVSPost2010PropOp45
 70
     1
102
RTVSPost2010Prop46
 90
       50
102
RTVSPost2010PropOp46
 70
     1
102
RTVSPost2010Prop47
 90
       50
102
RTVSPost2010PropOp47
 70
     1
102
RTVSPost2010Prop48
 90
       50
102
RTVSPost2010PropOp48
 70
     1
102
RTVSPost2010Prop49
280
     0
102
RTVSPost2010PropOp49
 70
     1
102
RTVSPost2010Prop50
 90
       50
102
RTVSPost2010PropOp50
 70
     1
102
RTVSPost2010Prop51ColorIndex
 90
      256
102
RTVSPost2010Prop51ColorRGB
 90
-16777216
102
RTVSPost2010PropOp51
 70
     0
102
RTVSPost2010Prop52
140
1.0
102
RTVSPost2010PropOp52
 70
     0
102
RTVSPost2010Prop53
 90
        2
102
RTVSPost2010PropOp53
 70
     1
102
RTVSPost2010Prop54
  1
strokes_ogs.tif
102
RTVSPost2010PropOp54
 70
     1
102
RTVSPost2010Prop55
280
     0
102
RTVSPost2010PropOp55
 70
     1
102
RTVSPost2010Prop56
140
1.0
102
RTVSPost2010PropOp56
 70
     1
102
RTVSPost2010Prop57
140
1.0
102
RTVSPost2010PropOp57
 70
     1
102
RTVSPropertyOp0
 70
     1
102
RTVSPropertyOp1
 70
     1
102
RTVSPropertyOp2
 70
     1
102
RTVSPropertyOp3
 70
     1
102
RTVSPropertyOp4
 70
     1
102
RTVSPropertyOp5
 70
     1
102
RTVSPropertyOp6
 70
     1
102
RTVSPropertyOp7
 70
     1
102
RTVSPropertyOp8
 70
     1
102
RTVSPropertyOp9
 70
     1
102
RTVSPropertyOp10
 70
     1
102
RTVSPropertyOp11
 70
     1
102
RTVSPropertyOp12
 70
     1
102
RTVSPropertyOp13
 70
     1
102
RTVSPropertyOp14
 70
     1
102
RTVSPropertyOp15
 70
     1
102
RTVSPropertyOp16
 70
     1
102
RTVSPropertyOp17
 70
     1
102
RTVSPropertyOp18
 70
     1
102
RTVSPropertyOp19
 70
     1
102
RTVSPropertyOp20
 70
     1
102
RTVSPropertyOp21
 70
     1
102
RTVSPropertyOp22
 70
     1
102
RTVSPropertyOp23
 70
     1
102
RTVSPropertyOp24
 70
     1
102
RTVSPropertyOp25
 70
     1
102
RTVSPropertyOp26
 70
     1
102
RTVSPropertyOp27
 70
     1
102
RTVSPropertyOp28
 70
     1
102
RTVSPropertyOp29
 70
     1
102
RTVSPropertyOp30
 70
     1
102
RTVSPropertyOp31
 70
     1
102
RTVSPropertyOp32
 70
     1
102
RTVSPropertyOp33
 70
     1
102
RTVSPropertyOp34
 70
     1
102
RTVSPropertyOp35
 70
     1
102
RTVSPropertyOp36
 70
     1
102
RTVSPropertyOp37
 70
     1
102
RTVSPropertyOp38
 70
     1
102
RTVSPropertyOp39
 70
     1
102
RTVSPropertyOp40
 70
     1
102
RTVSPropertyOp41
 70
     1
102
RTVSPropertyOp42
 70
     1
102
RTVSPropertyOp43
 70
     1
102
RTVSPropertyOp44
 70
     1
102
RTVSPropertyOp45
 70
     1
102
RTVSPropertyOp46
 70
     1
102
RTVSPropertyOp47
 70
     1
102
RTVSPropertyOp48
 70
     1
102
RTVSPropertyOp49
 70
     1
102
RTVSPropertyOp50
 70
     1
102
RTVSPropertyOp51
 70
     0
102
RTVSPropertyOp52
 70
     0
102
RTVSPropertyOp53
 70
     1
102
RTVSPropertyOp54
 70
     1
102
RTVSPropertyOp55
 70
     1
102
RTVSPropertyOp56
 70
     1
102
RTVSPropertyOp57
 70
     1
102
RTVSPropertyOp58
 70
     1
102
RTVSPropertyOp59
 70
     1
102
RTVSPropertyOp60
 70
     1
102
RTVSPropertyOp61
 70
     1
102
RTVSPropertyOp62
 70
     1
  0
ENDSEC
  0
EOF
