  0
SECTION
  2
HEADER
  9
$ACADVER
  1
AC1015
  9
$ACADMAINTVER
 70
    20
  9
$DWGCODEPAGE
  3
ANSI_932
  9
$INSBASE
 10
0.0
 20
0.0
 30
0.0
  9
$EXTMIN
 10
10.0
 20
9.999999999999998
 30
0.0
  9
$EXTMAX
 10
887.5
 20
734.4999999999998
 30
0.0
  9
$LIMMIN
 10
0.0
 20
0.0
  9
$LIMMAX
 10
1108.8
 20
764.4
  9
$ORTHOMODE
 70
     1
  9
$REGENMODE
 70
     1
  9
$FILLMODE
 70
     1
  9
$QTEXTMODE
 70
     0
  9
$MIRRTEXT
 70
     1
  9
$LTSCALE
 40
20.0
  9
$ATTMODE
 70
     1
  9
$TEXTSIZE
 40
5.0
  9
$TRACEWID
 40
1.0
  9
$TEXTSTYLE
  7
STANDARD
  9
$CLAYER
  8
0
  9
$CELTYPE
  6
BYLAYER
  9
$CECOLOR
 62
   256
  9
$CELTSCALE
 40
1.0
  9
$DISPSILH
 70
     0
  9
$DIMSCALE
 40
1.0
  9
$DIMASZ
 40
2.5
  9
$DIMEXO
 40
1.0
  9
$DIMDLI
 40
10.0
  9
$DIMRND
 40
0.0
  9
$DIMDLE
 40
0.0
  9
$DIMEXE
 40
1.0
  9
$DIMTP
 40
0.0
  9
$DIMTM
 40
0.0
  9
$DIMTXT
 40
2.5
  9
$DIMCEN
 40
0.0
  9
$DIMTSZ
 40
0.0
  9
$DIMTOL
 70
     0
  9
$DIMLIM
 70
     0
  9
$DIMTIH
 70
     0
  9
$DIMTOH
 70
     0
  9
$DIMSE1
 70
     0
  9
$DIMSE2
 70
     0
  9
$DIMTAD
 70
     3
  9
$DIMZIN
 70
     8
  9
$DIMBLK
  1

  9
$DIMASO
 70
     1
  9
$DIMSHO
 70
     1
  9
$DIMPOST
  1

  9
$DIMAPOST
  1

  9
$DIMALT
 70
     0
  9
$DIMALTD
 70
     2
  9
$DIMALTF
 40
25.4
  9
$DIMLFAC
 40
1.0
  9
$DIMTOFL
 70
     1
  9
$DIMTVP
 40
0.0
  9
$DIMTIX
 70
     0
  9
$DIMSOXD
 70
     0
  9
$DIMSAH
 70
     1
  9
$DIMBLK1
  1

  9
$DIMBLK2
  1

  9
$DIMSTYLE
  2
STANDARD
  9
$DIMCLRD
 70
     0
  9
$DIMCLRE
 70
     0
  9
$DIMCLRT
 70
     0
  9
$DIMTFAC
 40
1.0
  9
$DIMGAP
 40
1.0
  9
$DIMJUST
 70
     0
  9
$DIMSD1
 70
     0
  9
$DIMSD2
 70
     0
  9
$DIMTOLJ
 70
     1
  9
$DIMTZIN
 70
     0
  9
$DIMALTZ
 70
     0
  9
$DIMALTTZ
 70
     0
  9
$DIMUPT
 70
     0
  9
$DIMDEC
 70
     4
  9
$DIMTDEC
 70
     4
  9
$DIMALTU
 70
     2
  9
$DIMALTTD
 70
     2
  9
$DIMTXSTY
  7
STANDARD
  9
$DIMAUNIT
 70
     0
  9
$DIMADEC
 70
     0
  9
$DIMALTRND
 40
0.0
  9
$DIMAZIN
 70
     0
  9
$DIMDSEP
 70
    46
  9
$DIMATFIT
 70
     3
  9
$DIMFRAC
 70
     0
  9
$DIMLDRBLK
  1

  9
$DIMLUNIT
 70
     2
  9
$DIMLWD
 70
    -2
  9
$DIMLWE
 70
    -2
  9
$DIMTMOVE
 70
     0
  9
$LUNITS
 70
     2
  9
$LUPREC
 70
     4
  9
$SKETCHINC
 40
1.0
  9
$FILLETRAD
 40
0.0
  9
$AUNITS
 70
     0
  9
$AUPREC
 70
     2
  9
$MENU
  1
.
  9
$ELEVATION
 40
0.0
  9
$PELEVATION
 40
0.0
  9
$THICKNESS
 40
0.0
  9
$LIMCHECK
 70
     0
  9
$CHAMFERA
 40
10.0
  9
$CHAMFERB
 40
10.0
  9
$CHAMFERC
 40
0.0
  9
$CHAMFERD
 40
0.0
  9
$SKPOLY
 70
     0
  9
$TDCREATE
 40
2451263.697860764
  9
$TDUCREATE
 40
2451263.322860764
  9
$TDUPDATE
 40
2457192.661586887
  9
$TDUUPDATE
 40
2457192.286586887
  9
$TDINDWG
 40
0.0000143866
  9
$TDUSRTIMER
 40
0.0000140741
  9
$USRTIMER
 70
     1
  9
$ANGBASE
 50
0.0
  9
$ANGDIR
 70
     0
  9
$PDMODE
 70
     0
  9
$PDSIZE
 40
0.0
  9
$PLINEWID
 40
0.0
  9
$SPLFRAME
 70
     0
  9
$SPLINETYPE
 70
     6
  9
$SPLINESEGS
 70
     8
  9
$HANDSEED
  5
130EA
  9
$SURFTAB1
 70
     6
  9
$SURFTAB2
 70
     6
  9
$SURFTYPE
 70
     6
  9
$SURFU
 70
     6
  9
$SURFV
 70
     6
  9
$UCSBASE
  2

  9
$UCSNAME
  2

  9
$UCSORG
 10
0.0
 20
0.0
 30
0.0
  9
$UCSXDIR
 10
1.0
 20
0.0
 30
0.0
  9
$UCSYDIR
 10
0.0
 20
1.0
 30
0.0
  9
$UCSORTHOREF
  2

  9
$UCSORTHOVIEW
 70
     0
  9
$UCSORGTOP
 10
0.0
 20
0.0
 30
0.0
  9
$UCSORGBOTTOM
 10
0.0
 20
0.0
 30
0.0
  9
$UCSORGLEFT
 10
0.0
 20
0.0
 30
0.0
  9
$UCSORGRIGHT
 10
0.0
 20
0.0
 30
0.0
  9
$UCSORGFRONT
 10
0.0
 20
0.0
 30
0.0
  9
$UCSORGBACK
 10
0.0
 20
0.0
 30
0.0
  9
$PUCSBASE
  2

  9
$PUCSNAME
  2

  9
$PUCSORG
 10
0.0
 20
0.0
 30
0.0
  9
$PUCSXDIR
 10
1.0
 20
0.0
 30
0.0
  9
$PUCSYDIR
 10
0.0
 20
1.0
 30
0.0
  9
$PUCSORTHOREF
  2

  9
$PUCSORTHOVIEW
 70
     0
  9
$PUCSORGTOP
 10
0.0
 20
0.0
 30
0.0
  9
$PUCSORGBOTTOM
 10
0.0
 20
0.0
 30
0.0
  9
$PUCSORGLEFT
 10
0.0
 20
0.0
 30
0.0
  9
$PUCSORGRIGHT
 10
0.0
 20
0.0
 30
0.0
  9
$PUCSORGFRONT
 10
0.0
 20
0.0
 30
0.0
  9
$PUCSORGBACK
 10
0.0
 20
0.0
 30
0.0
  9
$USERI1
 70
     0
  9
$USERI2
 70
     0
  9
$USERI3
 70
     0
  9
$USERI4
 70
     0
  9
$USERI5
 70
     0
  9
$USERR1
 40
0.0
  9
$USERR2
 40
0.0
  9
$USERR3
 40
0.0
  9
$USERR4
 40
0.0
  9
$USERR5
 40
0.0
  9
$WORLDVIEW
 70
     1
  9
$SHADEDGE
 70
     3
  9
$SHADEDIF
 70
    70
  9
$TILEMODE
 70
     1
  9
$MAXACTVP
 70
    16
  9
$PINSBASE
 10
0.0
 20
0.0
 30
0.0
  9
$PLIMCHECK
 70
     0
  9
$PEXTMIN
 10
1.000000000000000E+20
 20
1.000000000000000E+20
 30
1.000000000000000E+20
  9
$PEXTMAX
 10
-1.000000000000000E+20
 20
-1.000000000000000E+20
 30
-1.000000000000000E+20
  9
$PLIMMIN
 10
0.0
 20
0.0
  9
$PLIMMAX
 10
420.0
 20
297.0
  9
$UNITMODE
 70
     0
  9
$VISRETAIN
 70
     0
  9
$PLINEGEN
 70
     0
  9
$PSLTSCALE
 70
     0
  9
$TREEDEPTH
 70
  3020
  9
$CMLSTYLE
  2
STANDARD
  9
$CMLJUST
 70
     0
  9
$CMLSCALE
 40
1.0
  9
$PROXYGRAPHICS
 70
     1
  9
$MEASUREMENT
 70
     0
  9
$CELWEIGHT
370
    -1
  9
$ENDCAPS
280
     0
  9
$JOINSTYLE
280
     0
  9
$LWDISPLAY
290
     0
  9
$INSUNITS
 70
     0
  9
$HYPERLINKBASE
  1

  9
$STYLESHEET
  1

  9
$XEDIT
290
     1
  9
$CEPSNTYPE
380
     0
  9
$PSTYLEMODE
290
     1
  9
$FINGERPRINTGUID
  2
{5A70A837-F74F-4E24-96B5-BA8386B613F2}
  9
$VERSIONGUID
  2
{874FF394-B91C-4806-B987-AA7AA3E5FCE0}
  9
$EXTNAMES
290
     1
  9
$PSVPSCALE
 40
0.0
  9
$OLESTARTUP
290
     0
  0
ENDSEC
  0
SECTION
  2
CLASSES
  0
CLASS
  1
ACDBDICTIONARYWDFLT
  2
AcDbDictionaryWithDefault
  3
ObjectDBX Classes
 90
        0
280
     0
281
     0
  0
CLASS
  1
ACDBPLACEHOLDER
  2
AcDbPlaceHolder
  3
ObjectDBX Classes
 90
        0
280
     0
281
     0
  0
CLASS
  1
LAYOUT
  2
AcDbLayout
  3
ObjectDBX Classes
 90
        0
280
     0
281
     0
  0
CLASS
  1
DICTIONARYVAR
  2
AcDbDictionaryVar
  3
ObjectDBX Classes
 90
        0
280
     0
281
     0
  0
CLASS
  1
MATERIAL
  2
AcDbMaterial
  3
ObjectDBX Classes
 90
     1153
280
     0
281
     0
  0
CLASS
  1
VISUALSTYLE
  2
AcDbVisualStyle
  3
ObjectDBX Classes
 90
     4095
280
     0
281
     0
  0
CLASS
  1
TABLESTYLE
  2
AcDbTableStyle
  3
ObjectDBX Classes
 90
     4095
280
     0
281
     0
  0
CLASS
  1
SCALE
  2
AcDbScale
  3
ObjectDBX Classes
 90
     1153
280
     0
281
     0
  0
CLASS
  1
MLEADERSTYLE
  2
AcDbMLeaderStyle
  3
ACDB_MLEADERSTYLE_CLASS
 90
     4095
280
     0
281
     0
  0
CLASS
  1
ACDBSECTIONVIEWSTYLE
  2
AcDbSectionViewStyle
  3
ObjectDBX Classes
 90
     1025
280
     0
281
     0
  0
CLASS
  1
ACDBDETAILVIEWSTYLE
  2
AcDbDetailViewStyle
  3
ObjectDBX Classes
 90
     1025
280
     0
281
     0
  0
CLASS
  1
CELLSTYLEMAP
  2
AcDbCellStyleMap
  3
ObjectDBX Classes
 90
     1152
280
     0
281
     0
  0
ENDSEC
  0
SECTION
  2
TABLES
  0
TABLE
  2
VPORT
  5
12B29
330
0
100
AcDbSymbolTable
 70
     1
  0
VPORT
  5
13033
330
12B29
100
AcDbSymbolTableRecord
100
AcDbViewportTableRecord
  2
*ACTIVE
 70
     0
 10
0.0
 20
0.0
 11
1.0
 21
1.0
 12
668.1962474195367
 22
372.2274370708821
 13
0.0
 23
0.0
 14
10.0
 24
10.0
 15
10.0
 25
10.0
 16
0.0
 26
0.0
 36
1.0
 17
0.0
 27
0.0
 37
0.0
 40
732.6601378091749
 41
1.899603698811096
 42
50.0
 43
0.0
 44
0.0
 50
0.0
 51
0.0
 71
     0
 72
   100
 73
     1
 74
     0
 75
     0
 76
     0
 77
     0
 78
     0
281
     0
 65
     1
110
0.0
120
0.0
130
0.0
111
1.0
121
0.0
131
0.0
112
0.0
122
1.0
132
0.0
 79
     0
146
0.0
1001
ACAD_NAV_VCDISPLAY
1070
     3
  0
ENDTAB
  0
TABLE
  2
LTYPE
  5
12B26
330
0
100
AcDbSymbolTable
 70
     4
  0
LTYPE
  5
12B34
330
12B26
100
AcDbSymbolTableRecord
100
AcDbLinetypeTableRecord
  2
BYBLOCK
 70
     0
  3

 72
    65
 73
     0
 40
0.0
  0
LTYPE
  5
12B35
330
12B26
100
AcDbSymbolTableRecord
100
AcDbLinetypeTableRecord
  2
BYLAYER
 70
     0
  3

 72
    65
 73
     0
 40
0.0
  0
LTYPE
  5
12B36
330
12B26
100
AcDbSymbolTableRecord
100
AcDbLinetypeTableRecord
  2
CONTINUOUS
 70
     0
  3
Solid line
 72
    65
 73
     0
 40
0.0
  0
LTYPE
  5
12B44
330
12B26
100
AcDbSymbolTableRecord
100
AcDbLinetypeTableRecord
  2
DASHED
 70
     0
  3
__ __ __ __ __ __ __ __ __ __ __ __ __ __ __ __
 72
    65
 73
     2
 40
0.75
 49
0.5
 74
     0
 49
-0.25
 74
     0
  0
LTYPE
  5
12B45
330
12B26
100
AcDbSymbolTableRecord
100
AcDbLinetypeTableRecord
  2
CENTER
 70
     0
  3
____ _ ____ _ ____ _ ____ _ ____ _ ____ _ ____ 
 72
    65
 73
     4
 40
2.0
 49
1.25
 74
     0
 49
-0.25
 74
     0
 49
0.25
 74
     0
 49
-0.25
 74
     0
  0
LTYPE
  5
12B46
330
12B26
100
AcDbSymbolTableRecord
100
AcDbLinetypeTableRecord
  2
PHANTOM
 70
     0
  3
______  __  __  ______  __  __  ______  __  __ 
 72
    65
 73
     6
 40
2.5
 49
1.25
 74
     0
 49
-0.25
 74
     0
 49
0.25
 74
     0
 49
-0.25
 74
     0
 49
0.25
 74
     0
 49
-0.25
 74
     0
  0
ENDTAB
  0
TABLE
  2
LAYER
  5
12B23
330
0
100
AcDbSymbolTable
 70
     8
  0
LAYER
  5
12B31
102
{ACAD_XDICTIONARY
360
1308E
102
}
330
12B23
100
AcDbSymbolTableRecord
100
AcDbLayerTableRecord
  2
0
 70
     0
 62
     7
  6
CONTINUOUS
370
    -3
390
1303C
  0
LAYER
  5
12B47
102
{ACAD_XDICTIONARY
360
13090
102
}
330
12B23
100
AcDbSymbolTableRecord
100
AcDbLayerTableRecord
  2
4
 70
     0
 62
     1
  6
CENTER
370
    -3
390
1303C
  0
LAYER
  5
12B48
102
{ACAD_XDICTIONARY
360
13092
102
}
330
12B23
100
AcDbSymbolTableRecord
100
AcDbLayerTableRecord
  2
5
 70
     0
 62
     6
  6
PHANTOM
370
    -3
390
1303C
  0
LAYER
  5
12B49
102
{ACAD_XDICTIONARY
360
13094
102
}
330
12B23
100
AcDbSymbolTableRecord
100
AcDbLayerTableRecord
  2
1
 70
     0
 62
     7
  6
CONTINUOUS
370
    -3
390
1303C
  0
LAYER
  5
12B4A
102
{ACAD_XDICTIONARY
360
13096
102
}
330
12B23
100
AcDbSymbolTableRecord
100
AcDbLayerTableRecord
  2
2
 70
     0
 62
     4
  6
CONTINUOUS
370
    -3
390
1303C
  0
LAYER
  5
12B4B
102
{ACAD_XDICTIONARY
360
13098
102
}
330
12B23
100
AcDbSymbolTableRecord
100
AcDbLayerTableRecord
  2
3
 70
     0
 62
     2
  6
DASHED
370
    -3
390
1303C
  0
LAYER
  5
12B4C
102
{ACAD_XDICTIONARY
360
1309A
102
}
330
12B23
100
AcDbSymbolTableRecord
100
AcDbLayerTableRecord
  2
6
 70
     0
 62
     5
  6
CONTINUOUS
370
    -3
390
1303C
  0
LAYER
  5
12B4D
102
{ACAD_XDICTIONARY
360
1309C
102
}
330
12B23
100
AcDbSymbolTableRecord
100
AcDbLayerTableRecord
  2
7
 70
     0
 62
     3
  6
CONTINUOUS
370
    -3
390
1303C
  0
ENDTAB
  0
TABLE
  2
STYLE
  5
12B24
330
0
100
AcDbSymbolTable
 70
     1
  0
STYLE
  5
12B32
330
12B24
100
AcDbSymbolTableRecord
100
AcDbTextStyleTableRecord
  2
STANDARD
 70
     0
 40
0.0
 41
1.0
 50
0.0
 71
     0
 42
5.0
  3
txt
  4

  0
ENDTAB
  0
TABLE
  2
VIEW
  5
12B27
330
0
100
AcDbSymbolTable
 70
     0
  0
ENDTAB
  0
TABLE
  2
UCS
  5
12B28
330
0
100
AcDbSymbolTable
 70
     0
  0
ENDTAB
  0
TABLE
  2
APPID
  5
12B2A
330
0
100
AcDbSymbolTable
 70
     3
  0
APPID
  5
12B33
330
12B2A
100
AcDbSymbolTableRecord
100
AcDbRegAppTableRecord
  2
ACAD
 70
     0
  0
APPID
  5
130A8
330
12B2A
100
AcDbSymbolTableRecord
100
AcDbRegAppTableRecord
  2
ACAD_NAV_VCDISPLAY
 70
     0
  0
APPID
  5
130E1
330
12B2A
100
AcDbSymbolTableRecord
100
AcDbRegAppTableRecord
  2
ACAD_MLEADERVER
 70
     0
  0
ENDTAB
  0
TABLE
  2
DIMSTYLE
  5
12B2B
330
0
100
AcDbSymbolTable
 70
     1
100
AcDbDimStyleTable
 71
     0
  0
DIMSTYLE
105
12B4F
330
12B2B
100
AcDbSymbolTableRecord
100
AcDbDimStyleTableRecord
  2
STANDARD
 70
     0
 41
2.5
 42
1.0
 43
10.0
 44
1.0
 73
     0
 74
     0
 77
     3
 78
     8
140
2.5
141
0.0
147
1.0
172
     1
173
     1
284
     8
285
     8
286
     8
340
12B32
  0
ENDTAB
  0
TABLE
  2
BLOCK_RECORD
  5
12B22
330
0
100
AcDbSymbolTable
 70
     0
  0
BLOCK_RECORD
  5
12B3F
102
{ACAD_XDICTIONARY
360
13036
102
}
330
12B22
100
AcDbSymbolTableRecord
100
AcDbBlockTableRecord
  2
*MODEL_SPACE
340
1308A
  0
BLOCK_RECORD
  5
12B3B
102
{ACAD_XDICTIONARY
360
13034
102
}
330
12B22
100
AcDbSymbolTableRecord
100
AcDbBlockTableRecord
  2
*PAPER_SPACE
340
1308B
  0
ENDTAB
  0
ENDSEC
  0
SECTION
  2
BLOCKS
  0
BLOCK
  5
12B40
330
12B3F
100
AcDbEntity
  8
0
100
AcDbBlockBegin
  2
*MODEL_SPACE
 70
     0
 10
0.0
 20
0.0
 30
0.0
  3
*MODEL_SPACE
  1

  0
ENDBLK
  5
12B41
330
12B3F
100
AcDbEntity
  8
0
100
AcDbBlockEnd
  0
BLOCK
  5
12B3C
330
12B3B
100
AcDbEntity
 67
     1
  8
0
100
AcDbBlockBegin
  2
*PAPER_SPACE
 70
     0
 10
0.0
 20
0.0
 30
0.0
  3
*PAPER_SPACE
  1

  0
ENDBLK
  5
12B3D
330
12B3B
100
AcDbEntity
 67
     1
  8
0
100
AcDbBlockEnd
  0
ENDSEC
  0
SECTION
  2
ENTITIES
  0
TEXT
  5
12B57
330
12B3F
100
AcDbEntity
  8
7
  6
Continuous
100
AcDbText
 10
10.0
 20
18.0
 30
0.0
 40
3.0
  1
TYPE No.TM-211-3
100
AcDbText
  0
TEXT
  5
12B58
330
12B3F
100
AcDbEntity
  8
7
  6
Continuous
100
AcDbText
 10
10.0
 20
26.0
 30
0.0
 40
3.0
  1
CODE No.5793
100
AcDbText
  0
TEXT
  5
12B59
330
12B3F
100
AcDbEntity
  8
1
  6
Continuous
100
AcDbText
 10
10.0
 20
10.0
 30
0.0
 40
1.399999999999999
  1
LAYER
100
AcDbText
  0
TEXT
  5
12B5A
330
12B3F
100
AcDbEntity
  8
1
  6
Continuous
100
AcDbText
 10
17.97951099999998
 20
10.04873699999998
 30
0.0
 40
1.399999999999999
  1
1
100
AcDbText
  0
TEXT
  5
12B5B
330
12B3F
100
AcDbEntity
  8
7
  6
Continuous
100
AcDbText
 10
29.97951099999999
 20
10.04873699999998
 30
0.0
 40
1.399999999999999
  1
7
100
AcDbText
  0
TEXT
  5
12B5C
330
12B3F
100
AcDbEntity
  8
4
  6
CENTER
100
AcDbText
 10
23.97951099999999
 20
10.04873699999998
 30
0.0
 40
1.399999999999999
  1
4
100
AcDbText
  0
TEXT
  5
12B5D
330
12B3F
100
AcDbEntity
  8
3
  6
DASHED
100
AcDbText
 10
21.979511
 20
10.04873699999998
 30
0.0
 40
1.399999999999999
  1
3
100
AcDbText
  0
TEXT
  5
12B5E
330
12B3F
100
AcDbEntity
  8
2
  6
Continuous
100
AcDbText
 10
19.97951099999999
 20
10.04873699999998
 30
0.0
 40
1.399999999999999
  1
2
100
AcDbText
  0
TEXT
  5
12B5F
330
12B3F
100
AcDbEntity
  8
6
  6
Continuous
100
AcDbText
 10
27.979511
 20
10.04873699999998
 30
0.0
 40
1.399999999999999
  1
6
100
AcDbText
  0
TEXT
  5
12B60
330
12B3F
100
AcDbEntity
  8
5
  6
PHANTOM
100
AcDbText
 10
25.97951099999999
 20
10.04873699999998
 30
0.0
 40
1.399999999999999
  1
5
100
AcDbText
  0
CIRCLE
  5
12B61
330
12B3F
100
AcDbEntity
  8
1
  6
Continuous
100
AcDbCircle
 10
421.0
 20
319.5
 30
0.0
 40
5.0
  0
CIRCLE
  5
12B62
330
12B3F
100
AcDbEntity
  8
1
  6
Continuous
100
AcDbCircle
 10
421.0
 20
319.5
 30
0.0
 40
3.0
  0
LINE
  5
12B63
330
12B3F
100
AcDbEntity
  8
3
  6
DASHED
100
AcDbLine
 10
503.0
 20
307.0
 30
0.0
 11
485.5
 21
307.0
 31
0.0
  0
LINE
  5
12B64
330
12B3F
100
AcDbEntity
  8
4
  6
CENTER
100
AcDbLine
 10
506.0
 20
317.0
 30
0.0
 11
459.25
 21
317.0
 31
0.0
  0
LINE
  5
12B65
330
12B3F
100
AcDbEntity
  8
1
  6
Continuous
100
AcDbLine
 10
497.763932
 20
331.0
 30
0.0
 11
111.0
 21
331.0
 31
0.0
  0
LINE
  5
12B66
330
12B3F
100
AcDbEntity
  8
1
  6
Continuous
100
AcDbLine
 10
757.0
 20
329.4999999999999
 30
0.0
 11
489.5781949999998
 21
329.4999999999999
 31
0.0
  0
LINE
  5
12B67
330
12B3F
100
AcDbEntity
  8
1
  6
Continuous
100
AcDbLine
 10
800.0
 20
303.5
 30
0.0
 11
474.0
 21
303.5
 31
0.0
  0
LINE
  5
12B68
330
12B3F
100
AcDbEntity
  8
1
  6
Continuous
100
AcDbLine
 10
785.0
 20
332.0
 30
0.0
 11
757.0
 21
329.4999999999999
 31
0.0
  0
ARC
  5
12B69
330
12B3F
100
AcDbEntity
  8
1
  6
Continuous
100
AcDbCircle
 10
798.5
 20
327.1145589999998
 30
0.0
 40
1.5
100
AcDbArc
 50
286.772393
 51
0.0
  0
LINE
  5
12B6A
330
12B3F
100
AcDbEntity
  8
1
  6
Continuous
100
AcDbLine
 10
800.0
 20
332.0
 30
0.0
 11
785.0
 21
332.0
 31
0.0
  0
LINE
  5
12B6B
330
12B3F
100
AcDbEntity
  8
1
  6
Continuous
100
AcDbLine
 10
800.0
 20
332.0
 30
0.0
 11
800.0
 21
327.1145589999998
 31
0.0
  0
LINE
  5
12B6C
330
12B3F
100
AcDbEntity
  8
1
  6
Continuous
100
AcDbLine
 10
798.932856
 20
325.6783709999999
 30
0.0
 11
791.422859
 21
323.414917
 31
0.0
  0
LINE
  5
12B6D
330
12B3F
100
AcDbEntity
  8
1
  6
Continuous
100
AcDbLine
 10
798.5
 20
319.5
 30
0.0
 11
792.0
 21
319.5
 31
0.0
  0
LINE
  5
12B6E
330
12B3F
100
AcDbEntity
  8
1
  6
Continuous
100
AcDbLine
 10
795.858195
 20
314.619837
 30
0.0
 11
792.2733969999996
 21
316.3944419999999
 31
0.0
  0
ARC
  5
12B6F
330
12B3F
100
AcDbEntity
  8
1
  6
Continuous
100
AcDbCircle
 10
786.0
 20
319.5
 30
0.0
 40
11.0
100
AcDbArc
 50
296.3370750000001
 51
333.6629249999999
  0
LINE
  5
12B70
330
12B3F
100
AcDbEntity
  8
1
  6
Continuous
100
AcDbLine
 10
800.0
 20
318.0
 30
0.0
 11
800.0
 21
303.5
 31
0.0
  0
ARC
  5
12B71
330
12B3F
100
AcDbEntity
  8
1
  6
Continuous
100
AcDbCircle
 10
798.5
 20
318.0
 30
0.0
 40
1.5
100
AcDbArc
 50
0.0
 51
90.0
  0
LINE
  5
12B72
330
12B3F
100
AcDbEntity
  8
4
  6
CENTER
100
AcDbLine
 10
790.7499999999998
 20
319.5
 30
0.0
 11
769.2499999999999
 21
319.5
 31
0.0
  0
ARC
  5
12B73
330
12B3F
100
AcDbEntity
  8
1
  6
Continuous
100
AcDbCircle
 10
792.0
 20
321.4999999999998
 30
0.0
 40
2.0
100
AcDbArc
 50
106.7723929999998
 51
270.0
  0
ARC
  5
12B74
330
12B3F
100
AcDbEntity
  8
1
  6
Continuous
100
AcDbCircle
 10
786.0
 20
319.5
 30
0.0
 40
7.0
100
AcDbArc
 50
296.3370750000001
 51
333.6629249999999
  0
LINE
  5
12B75
330
12B3F
100
AcDbEntity
  8
1
  6
Continuous
100
AcDbLine
 10
790.880163
 20
309.641805
 30
0.0
 11
789.1055579999997
 21
313.2266029999998
 31
0.0
  0
CIRCLE
  5
12B76
330
12B3F
100
AcDbEntity
  8
1
  6
Continuous
100
AcDbCircle
 10
785.0
 20
319.5
 30
0.0
 40
2.399999999999999
  0
LINE
  5
12B77
330
12B3F
100
AcDbEntity
  8
4
  6
CENTER
100
AcDbLine
 10
785.0
 20
325.2499999999999
 30
0.0
 11
785.0
 21
313.75
 31
0.0
  0
LINE
  5
12B78
330
12B3F
100
AcDbEntity
  8
1
  6
Continuous
100
AcDbLine
 10
777.4
 20
320.5
 30
0.0
 11
777.4
 21
318.5
 31
0.0
  0
ARC
  5
12B79
330
12B3F
100
AcDbEntity
  8
1
  6
Continuous
100
AcDbCircle
 10
775.0
 20
320.5
 30
0.0
 40
2.399999999999999
100
AcDbArc
 50
0.0
 51
180.0
  0
LINE
  5
12B7A
330
12B3F
100
AcDbEntity
  8
1
  6
Continuous
100
AcDbLine
 10
772.5999999999997
 20
320.5
 30
0.0
 11
772.5999999999997
 21
318.5
 31
0.0
  0
ARC
  5
12B7B
330
12B3F
100
AcDbEntity
  8
1
  6
Continuous
100
AcDbCircle
 10
775.0
 20
318.5
 30
0.0
 40
2.399999999999999
100
AcDbArc
 50
180.0
 51
0.0
  0
LINE
  5
12B7C
330
12B3F
100
AcDbEntity
  8
4
  6
CENTER
100
AcDbLine
 10
775.0
 20
326.25
 30
0.0
 11
775.0
 21
312.7499999999999
 31
0.0
  0
LINE
  5
12B7D
330
12B3F
100
AcDbEntity
  8
4
  6
CENTER
100
AcDbLine
 10
454.25
 20
319.5
 30
0.0
 11
475.75
 21
319.5
 31
0.0
  0
LINE
  5
12B7E
330
12B3F
100
AcDbEntity
  8
1
  6
Continuous
100
AcDbLine
 10
469.0
 20
303.5
 30
0.0
 11
406.0
 21
303.5
 31
0.0
  0
LINE
  5
12B7F
330
12B3F
100
AcDbEntity
  8
4
  6
CENTER
100
AcDbLine
 10
562.75
 20
319.5
 30
0.0
 11
574.2499999999997
 21
319.5
 31
0.0
  0
LINE
  5
12B80
330
12B3F
100
AcDbEntity
  8
4
  6
CENTER
100
AcDbLine
 10
568.5
 20
325.2499999999999
 30
0.0
 11
568.5
 21
313.75
 31
0.0
  0
CIRCLE
  5
12B81
330
12B3F
100
AcDbEntity
  8
1
  6
Continuous
100
AcDbCircle
 10
568.5
 20
319.5
 30
0.0
 40
2.399999999999999
  0
LINE
  5
12B82
330
12B3F
100
AcDbEntity
  8
1
  6
Continuous
100
AcDbLine
 10
473.0
 20
305.0
 30
0.0
 11
469.0
 21
303.5
 31
0.0
  0
LINE
  5
12B83
330
12B3F
100
AcDbEntity
  8
1
  6
Continuous
100
AcDbLine
 10
474.0
 20
305.0
 30
0.0
 11
474.0
 21
303.5
 31
0.0
  0
LINE
  5
12B84
330
12B3F
100
AcDbEntity
  8
4
  6
CENTER
100
AcDbLine
 10
470.0
 20
325.8999999999999
 30
0.0
 11
470.0
 21
313.1
 31
0.0
  0
LINE
  5
12B85
330
12B3F
100
AcDbEntity
  8
4
  6
CENTER
100
AcDbLine
 10
421.0
 20
334.5
 30
0.0
 11
421.0
 21
304.4999999999999
 31
0.0
  0
LINE
  5
12B86
330
12B3F
100
AcDbEntity
  8
1
  6
Continuous
100
AcDbLine
 10
404.0
 20
327.4999999999999
 30
0.0
 11
404.0
 21
305.5
 31
0.0
  0
LINE
  5
12B87
330
12B3F
100
AcDbEntity
  8
1
  6
Continuous
100
AcDbLine
 10
489.5781949999998
 20
329.4999999999999
 30
0.0
 11
454.4999999999998
 21
329.4999999999999
 31
0.0
  0
LINE
  5
12B88
330
12B3F
100
AcDbEntity
  8
4
  6
CENTER
100
AcDbLine
 10
436.0
 20
319.5
 30
0.0
 11
406.0
 21
319.5
 31
0.0
  0
LINE
  5
12B89
330
12B3F
100
AcDbEntity
  8
4
  6
CENTER
100
AcDbLine
 10
429.25
 20
311.5
 30
0.0
 11
440.7499999999997
 21
311.5
 31
0.0
  0
LINE
  5
12B8A
330
12B3F
100
AcDbEntity
  8
4
  6
CENTER
100
AcDbLine
 10
460.0
 20
324.8999999999999
 30
0.0
 11
460.0
 21
314.1
 31
0.0
  0
LINE
  5
12B8B
330
12B3F
100
AcDbEntity
  8
4
  6
CENTER
100
AcDbLine
 10
409.55
 20
311.2999999999999
 30
0.0
 11
409.55
 21
303.8
 31
0.0
  0
LINE
  5
12B8C
330
12B3F
100
AcDbEntity
  8
4
  6
CENTER
100
AcDbLine
 10
435.0
 20
317.2499999999998
 30
0.0
 11
435.0
 21
305.75
 31
0.0
  0
LINE
  5
12B8D
330
12B3F
100
AcDbEntity
  8
4
  6
CENTER
100
AcDbLine
 10
405.7999999999998
 20
307.55
 30
0.0
 11
413.3
 21
307.55
 31
0.0
  0
LINE
  5
12B8E
330
12B3F
100
AcDbEntity
  8
1
  6
Continuous
100
AcDbLine
 10
156.0
 20
307.0
 30
0.0
 11
127.0
 21
304.4999999999999
 31
0.0
  0
LINE
  5
12B8F
330
12B3F
100
AcDbEntity
  8
4
  6
CENTER
100
AcDbLine
 10
119.25
 20
317.0
 30
0.0
 11
140.7499999999998
 21
317.0
 31
0.0
  0
LINE
  5
12B90
330
12B3F
100
AcDbEntity
  8
3
  6
DASHED
100
AcDbLine
 10
480.0
 20
307.0
 30
0.0
 11
404.0
 21
307.0
 31
0.0
  0
LINE
  5
12B91
330
12B3F
100
AcDbEntity
  8
4
  6
CENTER
100
AcDbLine
 10
491.0
 20
332.0
 30
0.0
 11
491.0
 21
302.0
 31
0.0
  0
CIRCLE
  5
12B92
330
12B3F
100
AcDbEntity
  8
1
  6
Continuous
100
AcDbCircle
 10
460.0
 20
319.5
 30
0.0
 40
2.399999999999999
  0
LINE
  5
12B93
330
12B3F
100
AcDbEntity
  8
3
  6
DASHED
100
AcDbLine
 10
480.0
 20
308.4999999999999
 30
0.0
 11
480.0
 21
307.0
 31
0.0
  0
LINE
  5
12B94
330
12B3F
100
AcDbEntity
  8
3
  6
DASHED
100
AcDbLine
 10
481.5
 20
308.4999999999999
 30
0.0
 11
485.5
 21
307.0
 31
0.0
  0
LINE
  5
12B95
330
12B3F
100
AcDbEntity
  8
1
  6
Continuous
100
AcDbLine
 10
467.6
 20
320.5
 30
0.0
 11
467.6
 21
318.5
 31
0.0
  0
ARC
  5
12B96
330
12B3F
100
AcDbEntity
  8
1
  6
Continuous
100
AcDbCircle
 10
470.0
 20
320.5
 30
0.0
 40
2.399999999999999
100
AcDbArc
 50
0.0
 51
180.0
  0
LINE
  5
12B97
330
12B3F
100
AcDbEntity
  8
1
  6
Continuous
100
AcDbLine
 10
472.4
 20
320.5
 30
0.0
 11
472.4
 21
318.5
 31
0.0
  0
ARC
  5
12B98
330
12B3F
100
AcDbEntity
  8
1
  6
Continuous
100
AcDbCircle
 10
470.0
 20
318.5
 30
0.0
 40
2.399999999999999
100
AcDbArc
 50
180.0
 51
0.0
  0
LINE
  5
12B99
330
12B3F
100
AcDbEntity
  8
4
  6
CENTER
100
AcDbLine
 10
385.7499999999999
 20
317.0
 30
0.0
 11
364.25
 21
317.0
 31
0.0
  0
ARC
  5
12B9A
330
12B3F
100
AcDbEntity
  8
1
  6
Continuous
100
AcDbCircle
 10
370.0
 20
316.0
 30
0.0
 40
2.399999999999999
100
AcDbArc
 50
180.0
 51
0.0
  0
ARC
  5
12B9B
330
12B3F
100
AcDbEntity
  8
1
  6
Continuous
100
AcDbCircle
 10
370.0
 20
318.0
 30
0.0
 40
2.399999999999999
100
AcDbArc
 50
0.0
 51
180.0
  0
LINE
  5
12B9C
330
12B3F
100
AcDbEntity
  8
1
  6
Continuous
100
AcDbLine
 10
372.3999999999999
 20
318.0
 30
0.0
 11
372.3999999999999
 21
316.0
 31
0.0
  0
LINE
  5
12B9D
330
12B3F
100
AcDbEntity
  8
4
  6
CENTER
100
AcDbLine
 10
370.0
 20
323.75
 30
0.0
 11
370.0
 21
310.25
 31
0.0
  0
CIRCLE
  5
12B9E
330
12B3F
100
AcDbEntity
  8
1
  6
Continuous
100
AcDbCircle
 10
380.0
 20
317.0
 30
0.0
 40
2.399999999999999
  0
LINE
  5
12B9F
330
12B3F
100
AcDbEntity
  8
4
  6
CENTER
100
AcDbLine
 10
380.0
 20
322.75
 30
0.0
 11
380.0
 21
311.25
 31
0.0
  0
LINE
  5
12BA0
330
12B3F
100
AcDbEntity
  8
1
  6
Continuous
100
AcDbLine
 10
367.6
 20
318.0
 30
0.0
 11
367.6
 21
316.0
 31
0.0
  0
LINE
  5
12BA1
330
12B3F
100
AcDbEntity
  8
4
  6
CENTER
100
AcDbLine
 10
135.0
 20
323.75
 30
0.0
 11
135.0
 21
310.25
 31
0.0
  0
LINE
  5
12BA2
330
12B3F
100
AcDbEntity
  8
1
  6
Continuous
100
AcDbLine
 10
137.4
 20
318.0
 30
0.0
 11
137.4
 21
316.0
 31
0.0
  0
ARC
  5
12BA3
330
12B3F
100
AcDbEntity
  8
1
  6
Continuous
100
AcDbCircle
 10
135.0
 20
318.0
 30
0.0
 40
2.399999999999999
100
AcDbArc
 50
0.0
 51
180.0
  0
LINE
  5
12BA4
330
12B3F
100
AcDbEntity
  8
1
  6
Continuous
100
AcDbLine
 10
132.6
 20
318.0
 30
0.0
 11
132.6
 21
316.0
 31
0.0
  0
ARC
  5
12BA5
330
12B3F
100
AcDbEntity
  8
1
  6
Continuous
100
AcDbCircle
 10
135.0
 20
316.0
 30
0.0
 40
2.399999999999999
100
AcDbArc
 50
180.0
 51
0.0
  0
LINE
  5
12BA6
330
12B3F
100
AcDbEntity
  8
1
  6
Continuous
100
AcDbLine
 10
109.0
 20
318.5
 30
0.0
 11
109.0
 21
329.0
 31
0.0
  0
ARC
  5
12BA7
330
12B3F
100
AcDbEntity
  8
1
  6
Continuous
100
AcDbCircle
 10
111.0
 20
329.0
 30
0.0
 40
2.0
100
AcDbArc
 50
90.0
 51
180.0
  0
LINE
  5
12BA8
330
12B3F
100
AcDbEntity
  8
1
  6
Continuous
100
AcDbLine
 10
109.0
 20
304.4999999999999
 30
0.0
 11
109.0
 21
309.385441
 31
0.0
  0
LINE
  5
12BA9
330
12B3F
100
AcDbEntity
  8
1
  6
Continuous
100
AcDbLine
 10
110.4999999999999
 20
317.0
 30
0.0
 11
117.0
 21
317.0
 31
0.0
  0
LINE
  5
12BAA
330
12B3F
100
AcDbEntity
  8
1
  6
Continuous
100
AcDbLine
 10
110.0671439999999
 20
310.8216289999999
 30
0.0
 11
117.577141
 21
313.0850829999999
 31
0.0
  0
ARC
  5
12BAB
330
12B3F
100
AcDbEntity
  8
1
  6
Continuous
100
AcDbCircle
 10
117.0
 20
315.0
 30
0.0
 40
2.0
100
AcDbArc
 50
286.772393
 51
90.0
  0
LINE
  5
12BAC
330
12B3F
100
AcDbEntity
  8
4
  6
CENTER
100
AcDbLine
 10
125.0
 20
322.75
 30
0.0
 11
125.0
 21
311.25
 31
0.0
  0
CIRCLE
  5
12BAD
330
12B3F
100
AcDbEntity
  8
1
  6
Continuous
100
AcDbCircle
 10
125.0
 20
317.0
 30
0.0
 40
2.399999999999999
  0
ARC
  5
12BAE
330
12B3F
100
AcDbEntity
  8
1
  6
Continuous
100
AcDbCircle
 10
110.4999999999999
 20
318.5
 30
0.0
 40
1.5
100
AcDbArc
 50
180.0
 51
270.0
  0
ARC
  5
12BAF
330
12B3F
100
AcDbEntity
  8
1
  6
Continuous
100
AcDbCircle
 10
110.4999999999999
 20
309.385441
 30
0.0
 40
1.5
100
AcDbArc
 50
106.7723929999998
 51
180.0
  0
LINE
  5
12BB0
330
12B3F
100
AcDbEntity
  8
1
  6
Continuous
100
AcDbLine
 10
109.0
 20
304.4999999999999
 30
0.0
 11
127.0
 21
304.4999999999999
 31
0.0
  0
ARC
  5
12BB1
330
12B3F
100
AcDbEntity
  8
1
  6
Continuous
100
AcDbCircle
 10
421.0
 20
319.5
 30
0.0
 40
11.0
100
AcDbArc
 50
65.38002299999999
 51
114.619977
  0
LINE
  5
12BB2
330
12B3F
100
AcDbEntity
  8
1
  6
Continuous
100
AcDbLine
 10
800.0
 20
233.4999999999999
 30
0.0
 11
404.0
 21
233.4999999999999
 31
0.0
  0
LINE
  5
12BB3
330
12B3F
100
AcDbEntity
  8
1
  6
Continuous
100
AcDbLine
 10
505.0
 20
221.0
 30
0.0
 11
109.0
 21
221.0
 31
0.0
  0
LINE
  5
12BB4
330
12B3F
100
AcDbEntity
  8
1
  6
Continuous
100
AcDbLine
 10
800.0
 20
151.0
 30
0.0
 11
474.0
 21
151.0
 31
0.0
  0
LINE
  5
12BB5
330
12B3F
100
AcDbEntity
  8
1
  6
Continuous
100
AcDbLine
 10
800.0
 20
149.5
 30
0.0
 11
473.0
 21
149.5
 31
0.0
  0
LINE
  5
12BB6
330
12B3F
100
AcDbEntity
  8
1
  6
Continuous
100
AcDbLine
 10
757.0
 20
125.0
 30
0.0
 11
499.75
 21
125.0
 31
0.0
  0
LINE
  5
12BB7
330
12B3F
100
AcDbEntity
  8
1
  6
Continuous
100
AcDbLine
 10
480.0
 20
147.5
 30
0.0
 11
156.0
 21
147.5
 31
0.0
  0
LINE
  5
12BB8
330
12B3F
100
AcDbEntity
  8
1
  6
Continuous
100
AcDbLine
 10
497.763932
 20
123.5
 30
0.0
 11
111.0
 21
123.5
 31
0.0
  0
LINE
  5
12BB9
330
12B3F
100
AcDbEntity
  8
1
  6
Continuous
100
AcDbLine
 10
156.0
 20
147.5
 30
0.0
 11
127.0
 21
150.0
 31
0.0
  0
LINE
  5
12BBA
330
12B3F
100
AcDbEntity
  8
1
  6
Continuous
100
AcDbLine
 10
109.0
 20
150.0
 30
0.0
 11
109.0
 21
145.114559
 31
0.0
  0
LINE
  5
12BBB
330
12B3F
100
AcDbEntity
  8
1
  6
Continuous
100
AcDbLine
 10
114.0
 20
150.0
 30
0.0
 11
114.0
 21
148.0
 31
0.0
  0
ARC
  5
12BBC
330
12B3F
100
AcDbEntity
  8
1
  6
Continuous
100
AcDbCircle
 10
115.5
 20
148.0
 30
0.0
 40
1.5
100
AcDbArc
 50
180.0
 51
270.0
  0
LINE
  5
12BBD
330
12B3F
100
AcDbEntity
  8
1
  6
Continuous
100
AcDbLine
 10
110.0671439999999
 20
143.678371
 30
0.0
 11
117.577141
 21
141.4149169999998
 31
0.0
  0
LINE
  5
12BBE
330
12B3F
100
AcDbEntity
  8
1
  6
Continuous
100
AcDbLine
 10
110.4999999999999
 20
137.5
 30
0.0
 11
117.0
 21
137.5
 31
0.0
  0
LINE
  5
12BBF
330
12B3F
100
AcDbEntity
  8
1
  6
Continuous
100
AcDbLine
 10
114.0
 20
148.5
 30
0.0
 11
126.9354649999998
 21
148.5
 31
0.0
  0
LINE
  5
12BC0
330
12B3F
100
AcDbEntity
  8
1
  6
Continuous
100
AcDbLine
 10
109.0
 20
136.0
 30
0.0
 11
109.0
 21
125.5
 31
0.0
  0
ARC
  5
12BC1
330
12B3F
100
AcDbEntity
  8
1
  6
Continuous
100
AcDbCircle
 10
111.0
 20
125.5
 30
0.0
 40
2.0
100
AcDbArc
 50
180.0
 51
270.0
  0
ARC
  5
12BC2
330
12B3F
100
AcDbEntity
  8
1
  6
Continuous
100
AcDbCircle
 10
110.4999999999999
 20
145.114559
 30
0.0
 40
1.5
100
AcDbArc
 50
180.0
 51
253.2276069999999
  0
ARC
  5
12BC3
330
12B3F
100
AcDbEntity
  8
1
  6
Continuous
100
AcDbCircle
 10
110.4999999999999
 20
136.0
 30
0.0
 40
1.5
100
AcDbArc
 50
90.0
 51
180.0
  0
LINE
  5
12BC4
330
12B3F
100
AcDbEntity
  8
4
  6
CENTER
100
AcDbLine
 10
119.25
 20
137.5
 30
0.0
 11
140.7499999999998
 21
137.5
 31
0.0
  0
LINE
  5
12BC5
330
12B3F
100
AcDbEntity
  8
1
  6
Continuous
100
AcDbLine
 10
142.0
 20
146.5
 30
0.0
 11
115.5
 21
146.5
 31
0.0
  0
LINE
  5
12BC6
330
12B3F
100
AcDbEntity
  8
1
  6
Continuous
100
AcDbLine
 10
143.198508
 20
147.0980139999998
 30
0.0
 11
126.9354649999998
 21
148.5
 31
0.0
  0
CIRCLE
  5
12BC7
330
12B3F
100
AcDbEntity
  8
1
  6
Continuous
100
AcDbCircle
 10
125.0
 20
137.5
 30
0.0
 40
2.399999999999999
  0
LINE
  5
12BC8
330
12B3F
100
AcDbEntity
  8
4
  6
CENTER
100
AcDbLine
 10
125.0
 20
131.75
 30
0.0
 11
125.0
 21
143.25
 31
0.0
  0
ARC
  5
12BC9
330
12B3F
100
AcDbEntity
  8
1
  6
Continuous
100
AcDbCircle
 10
117.0
 20
139.5
 30
0.0
 40
2.0
100
AcDbArc
 50
270.0
 51
73.22760699999998
  0
ARC
  5
12BCA
330
12B3F
100
AcDbEntity
  8
1
  6
Continuous
100
AcDbCircle
 10
135.0
 20
138.5
 30
0.0
 40
2.399999999999999
100
AcDbArc
 50
0.0
 51
180.0
  0
LINE
  5
12BCB
330
12B3F
100
AcDbEntity
  8
1
  6
Continuous
100
AcDbLine
 10
132.6
 20
136.4999999999998
 30
0.0
 11
132.6
 21
138.5
 31
0.0
  0
ARC
  5
12BCC
330
12B3F
100
AcDbEntity
  8
1
  6
Continuous
100
AcDbCircle
 10
135.0
 20
136.4999999999998
 30
0.0
 40
2.399999999999999
100
AcDbArc
 50
180.0
 51
0.0
  0
LINE
  5
12BCD
330
12B3F
100
AcDbEntity
  8
1
  6
Continuous
100
AcDbLine
 10
137.4
 20
136.4999999999998
 30
0.0
 11
137.4
 21
138.5
 31
0.0
  0
LINE
  5
12BCE
330
12B3F
100
AcDbEntity
  8
4
  6
CENTER
100
AcDbLine
 10
135.0
 20
130.75
 30
0.0
 11
135.0
 21
144.25
 31
0.0
  0
LINE
  5
12BCF
330
12B3F
100
AcDbEntity
  8
1
  6
Continuous
100
AcDbLine
 10
143.5
 20
148.5775859999999
 30
0.0
 11
143.5
 21
148.0
 31
0.0
  0
ARC
  5
12BD0
330
12B3F
100
AcDbEntity
  8
1
  6
Continuous
100
AcDbCircle
 10
142.0
 20
148.0
 30
0.0
 40
1.5
100
AcDbArc
 50
270.0
 51
0.0
  0
LINE
  5
12BD1
330
12B3F
100
AcDbEntity
  8
1
  6
Continuous
100
AcDbLine
 10
109.0
 20
150.0
 30
0.0
 11
127.0
 21
150.0
 31
0.0
  0
LINE
  5
12BD2
330
12B3F
100
AcDbEntity
  8
4
  6
CENTER
100
AcDbLine
 10
429.25
 20
143.0
 30
0.0
 11
440.7499999999997
 21
143.0
 31
0.0
  0
LINE
  5
12BD3
330
12B3F
100
AcDbEntity
  8
4
  6
CENTER
100
AcDbLine
 10
436.0
 20
135.0
 30
0.0
 11
406.0
 21
135.0
 31
0.0
  0
LINE
  5
12BD4
330
12B3F
100
AcDbEntity
  8
3
  6
DASHED
100
AcDbLine
 10
499.75
 20
125.0
 30
0.0
 11
454.4999999999998
 21
125.0
 31
0.0
  0
LINE
  5
12BD5
330
12B3F
100
AcDbEntity
  8
1
  6
Continuous
100
AcDbLine
 10
469.0
 20
151.0
 30
0.0
 11
406.0
 21
151.0
 31
0.0
  0
ARC
  5
12BD6
330
12B3F
100
AcDbEntity
  8
1
  6
Continuous
100
AcDbCircle
 10
370.0
 20
136.4999999999998
 30
0.0
 40
2.399999999999999
100
AcDbArc
 50
180.0
 51
0.0
  0
ARC
  5
12BD7
330
12B3F
100
AcDbEntity
  8
1
  6
Continuous
100
AcDbCircle
 10
370.0
 20
138.5
 30
0.0
 40
2.399999999999999
100
AcDbArc
 50
0.0
 51
180.0
  0
LINE
  5
12BD8
330
12B3F
100
AcDbEntity
  8
4
  6
CENTER
100
AcDbLine
 10
385.7499999999999
 20
137.5
 30
0.0
 11
364.25
 21
137.5
 31
0.0
  0
LINE
  5
12BD9
330
12B3F
100
AcDbEntity
  8
1
  6
Continuous
100
AcDbLine
 10
367.6
 20
136.4999999999998
 30
0.0
 11
367.6
 21
138.5
 31
0.0
  0
LINE
  5
12BDA
330
12B3F
100
AcDbEntity
  8
4
  6
CENTER
100
AcDbLine
 10
409.55
 20
143.1999999999999
 30
0.0
 11
409.55
 21
150.6999999999998
 31
0.0
  0
LINE
  5
12BDB
330
12B3F
100
AcDbEntity
  8
4
  6
CENTER
100
AcDbLine
 10
421.0
 20
120.0
 30
0.0
 11
421.0
 21
150.0
 31
0.0
  0
LINE
  5
12BDC
330
12B3F
100
AcDbEntity
  8
4
  6
CENTER
100
AcDbLine
 10
380.0
 20
131.75
 30
0.0
 11
380.0
 21
143.25
 31
0.0
  0
CIRCLE
  5
12BDD
330
12B3F
100
AcDbEntity
  8
1
  6
Continuous
100
AcDbCircle
 10
380.0
 20
137.5
 30
0.0
 40
2.399999999999999
  0
LINE
  5
12BDE
330
12B3F
100
AcDbEntity
  8
4
  6
CENTER
100
AcDbLine
 10
370.0
 20
130.75
 30
0.0
 11
370.0
 21
144.25
 31
0.0
  0
LINE
  5
12BDF
330
12B3F
100
AcDbEntity
  8
1
  6
Continuous
100
AcDbLine
 10
372.3999999999999
 20
136.4999999999998
 30
0.0
 11
372.3999999999999
 21
138.5
 31
0.0
  0
CIRCLE
  5
12BE0
330
12B3F
100
AcDbEntity
  8
3
  6
DASHED
100
AcDbCircle
 10
421.0
 20
135.0
 30
0.0
 40
11.0
  0
LINE
  5
12BE1
330
12B3F
100
AcDbEntity
  8
3
  6
DASHED
100
AcDbLine
 10
404.0
 20
127.0
 30
0.0
 11
404.0
 21
147.5
 31
0.0
  0
LINE
  5
12BE2
330
12B3F
100
AcDbEntity
  8
1
  6
Continuous
100
AcDbLine
 10
404.0
 20
149.0
 30
0.0
 11
404.0
 21
147.5
 31
0.0
  0
ARC
  5
12BE3
330
12B3F
100
AcDbEntity
  8
1
  6
Continuous
100
AcDbCircle
 10
409.55
 20
146.9499999999999
 30
0.0
 40
1.75
100
AcDbArc
 50
18.317698
 51
161.6823019999999
  0
LINE
  5
12BE4
330
12B3F
100
AcDbEntity
  8
4
  6
CENTER
100
AcDbLine
 10
405.7999999999998
 20
146.9499999999999
 30
0.0
 11
413.3
 21
146.9499999999999
 31
0.0
  0
LINE
  5
12BE5
330
12B3F
100
AcDbEntity
  8
4
  6
CENTER
100
AcDbLine
 10
491.0
 20
122.5
 30
0.0
 11
491.0
 21
152.5
 31
0.0
  0
CIRCLE
  5
12BE6
330
12B3F
100
AcDbEntity
  8
1
  6
Continuous
100
AcDbCircle
 10
475.0
 20
137.5
 30
0.0
 40
2.399999999999999
  0
LINE
  5
12BE7
330
12B3F
100
AcDbEntity
  8
4
  6
CENTER
100
AcDbLine
 10
454.25
 20
135.0
 30
0.0
 11
475.75
 21
135.0
 31
0.0
  0
LINE
  5
12BE8
330
12B3F
100
AcDbEntity
  8
4
  6
CENTER
100
AcDbLine
 10
506.0
 20
137.5
 30
0.0
 11
459.25
 21
137.5
 31
0.0
  0
LINE
  5
12BE9
330
12B3F
100
AcDbEntity
  8
4
  6
CENTER
100
AcDbLine
 10
435.0
 20
137.25
 30
0.0
 11
435.0
 21
148.75
 31
0.0
  0
ARC
  5
12BEA
330
12B3F
100
AcDbEntity
  8
1
  6
Continuous
100
AcDbCircle
 10
465.0
 20
138.5
 30
0.0
 40
2.399999999999999
100
AcDbArc
 50
0.0
 51
180.0
  0
LINE
  5
12BEB
330
12B3F
100
AcDbEntity
  8
1
  6
Continuous
100
AcDbLine
 10
467.3999999999998
 20
136.4999999999998
 30
0.0
 11
467.3999999999998
 21
138.5
 31
0.0
  0
ARC
  5
12BEC
330
12B3F
100
AcDbEntity
  8
1
  6
Continuous
100
AcDbCircle
 10
465.0
 20
136.4999999999998
 30
0.0
 40
2.399999999999999
100
AcDbArc
 50
180.0
 51
0.0
  0
LINE
  5
12BED
330
12B3F
100
AcDbEntity
  8
1
  6
Continuous
100
AcDbLine
 10
462.6
 20
136.4999999999998
 30
0.0
 11
462.6
 21
138.5
 31
0.0
  0
LINE
  5
12BEE
330
12B3F
100
AcDbEntity
  8
4
  6
CENTER
100
AcDbLine
 10
475.0
 20
132.0999999999999
 30
0.0
 11
475.0
 21
142.9
 31
0.0
  0
LINE
  5
12BEF
330
12B3F
100
AcDbEntity
  8
4
  6
CENTER
100
AcDbLine
 10
465.0
 20
131.0999999999999
 30
0.0
 11
465.0
 21
143.9
 31
0.0
  0
LINE
  5
12BF0
330
12B3F
100
AcDbEntity
  8
1
  6
Continuous
100
AcDbLine
 10
499.552786
 20
124.6055729999998
 30
0.0
 11
505.0
 21
135.4999999999998
 31
0.0
  0
ARC
  5
12BF1
330
12B3F
100
AcDbEntity
  8
3
  6
DASHED
100
AcDbCircle
 10
491.0
 20
137.5
 30
0.0
 40
11.0
100
AcDbArc
 50
114.619977
 51
65.38002299999999
  0
LINE
  5
12BF2
330
12B3F
100
AcDbEntity
  8
1
  6
Continuous
100
AcDbLine
 10
503.0
 20
147.5
 30
0.0
 11
485.0
 21
147.5
 31
0.0
  0
ARC
  5
12BF3
330
12B3F
100
AcDbEntity
  8
1
  6
Continuous
100
AcDbCircle
 10
491.0
 20
137.5
 30
0.0
 40
11.0
100
AcDbArc
 50
65.38002299999999
 51
114.619977
  0
CIRCLE
  5
12BF4
330
12B3F
100
AcDbEntity
  8
1
  6
Continuous
100
AcDbCircle
 10
491.0
 20
137.5
 30
0.0
 40
3.0
  0
CIRCLE
  5
12BF5
330
12B3F
100
AcDbEntity
  8
1
  6
Continuous
100
AcDbCircle
 10
491.0
 20
137.5
 30
0.0
 40
5.0
  0
LINE
  5
12BF6
330
12B3F
100
AcDbEntity
  8
1
  6
Continuous
100
AcDbLine
 10
481.0
 20
146.0
 30
0.0
 11
485.0
 21
147.5
 31
0.0
  0
LINE
  5
12BF7
330
12B3F
100
AcDbEntity
  8
1
  6
Continuous
100
AcDbLine
 10
480.0
 20
146.0
 30
0.0
 11
480.0
 21
147.5
 31
0.0
  0
LINE
  5
12BF8
330
12B3F
100
AcDbEntity
  8
1
  6
Continuous
100
AcDbLine
 10
481.0
 20
146.0
 30
0.0
 11
480.0
 21
146.0
 31
0.0
  0
LINE
  5
12BF9
330
12B3F
100
AcDbEntity
  8
1
  6
Continuous
100
AcDbLine
 10
474.0
 20
149.5
 30
0.0
 11
474.0
 21
151.0
 31
0.0
  0
LINE
  5
12BFA
330
12B3F
100
AcDbEntity
  8
1
  6
Continuous
100
AcDbLine
 10
473.0
 20
149.5
 30
0.0
 11
469.0
 21
151.0
 31
0.0
  0
ARC
  5
12BFB
330
12B3F
100
AcDbEntity
  8
1
  6
Continuous
100
AcDbCircle
 10
786.0
 20
135.0
 30
0.0
 40
11.0
100
AcDbArc
 50
26.33707499999999
 51
63.662925
  0
ARC
  5
12BFC
330
12B3F
100
AcDbEntity
  8
1
  6
Continuous
100
AcDbCircle
 10
786.0
 20
135.0
 30
0.0
 40
12.5
100
AcDbArc
 50
26.33707499999999
 51
63.662925
  0
LINE
  5
12BFD
330
12B3F
100
AcDbEntity
  8
1
  6
Continuous
100
AcDbLine
 10
797.2024939999998
 20
140.54564
 30
0.0
 11
792.2733969999996
 21
138.1055579999998
 31
0.0
  0
LINE
  5
12BFE
330
12B3F
100
AcDbEntity
  8
1
  6
Continuous
100
AcDbLine
 10
798.5
 20
135.0
 30
0.0
 11
792.0
 21
135.0
 31
0.0
  0
LINE
  5
12BFF
330
12B3F
100
AcDbEntity
  8
1
  6
Continuous
100
AcDbLine
 10
798.932856
 20
128.821629
 30
0.0
 11
791.422859
 21
131.0850829999999
 31
0.0
  0
LINE
  5
12C00
330
12B3F
100
AcDbEntity
  8
1
  6
Continuous
100
AcDbLine
 10
800.0
 20
122.5
 30
0.0
 11
785.0
 21
122.5
 31
0.0
  0
CIRCLE
  5
12C01
330
12B3F
100
AcDbEntity
  8
1
  6
Continuous
100
AcDbCircle
 10
568.5
 20
135.0
 30
0.0
 40
2.399999999999999
  0
CIRCLE
  5
12C02
330
12B3F
100
AcDbEntity
  8
1
  6
Continuous
100
AcDbCircle
 10
568.5
 20
135.0
 30
0.0
 40
3.75
  0
LINE
  5
12C03
330
12B3F
100
AcDbEntity
  8
4
  6
CENTER
100
AcDbLine
 10
568.5
 20
129.2499999999998
 30
0.0
 11
568.5
 21
140.7499999999998
 31
0.0
  0
LINE
  5
12C04
330
12B3F
100
AcDbEntity
  8
1
  6
Continuous
100
AcDbLine
 10
785.0
 20
122.5
 30
0.0
 11
757.0
 21
125.0
 31
0.0
  0
ARC
  5
12C05
330
12B3F
100
AcDbEntity
  8
1
  6
Continuous
100
AcDbCircle
 10
775.0
 20
134.0
 30
0.0
 40
3.75
100
AcDbArc
 50
180.0
 51
0.0
  0
ARC
  5
12C06
330
12B3F
100
AcDbEntity
  8
1
  6
Continuous
100
AcDbCircle
 10
775.0
 20
136.0
 30
0.0
 40
3.75
100
AcDbArc
 50
0.0
 51
180.0
  0
ARC
  5
12C07
330
12B3F
100
AcDbEntity
  8
1
  6
Continuous
100
AcDbCircle
 10
775.0
 20
136.0
 30
0.0
 40
2.399999999999999
100
AcDbArc
 50
0.0
 51
180.0
  0
ARC
  5
12C08
330
12B3F
100
AcDbEntity
  8
1
  6
Continuous
100
AcDbCircle
 10
775.0
 20
134.0
 30
0.0
 40
2.399999999999999
100
AcDbArc
 50
180.0
 51
0.0
  0
LINE
  5
12C09
330
12B3F
100
AcDbEntity
  8
4
  6
CENTER
100
AcDbLine
 10
775.0
 20
128.2499999999998
 30
0.0
 11
775.0
 21
141.7499999999998
 31
0.0
  0
LINE
  5
12C0A
330
12B3F
100
AcDbEntity
  8
1
  6
Continuous
100
AcDbLine
 10
771.25
 20
134.0
 30
0.0
 11
771.25
 21
136.0
 31
0.0
  0
LINE
  5
12C0B
330
12B3F
100
AcDbEntity
  8
1
  6
Continuous
100
AcDbLine
 10
772.5999999999997
 20
134.0
 30
0.0
 11
772.5999999999997
 21
136.0
 31
0.0
  0
LINE
  5
12C0C
330
12B3F
100
AcDbEntity
  8
1
  6
Continuous
100
AcDbLine
 10
778.75
 20
134.0
 30
0.0
 11
778.75
 21
136.0
 31
0.0
  0
LINE
  5
12C0D
330
12B3F
100
AcDbEntity
  8
1
  6
Continuous
100
AcDbLine
 10
777.4
 20
134.0
 30
0.0
 11
777.4
 21
136.0
 31
0.0
  0
LINE
  5
12C0E
330
12B3F
100
AcDbEntity
  8
4
  6
CENTER
100
AcDbLine
 10
785.0
 20
129.2499999999998
 30
0.0
 11
785.0
 21
140.7499999999998
 31
0.0
  0
CIRCLE
  5
12C0F
330
12B3F
100
AcDbEntity
  8
1
  6
Continuous
100
AcDbCircle
 10
785.0
 20
135.0
 30
0.0
 40
3.75
  0
CIRCLE
  5
12C10
330
12B3F
100
AcDbEntity
  8
1
  6
Continuous
100
AcDbCircle
 10
785.0
 20
135.0
 30
0.0
 40
2.399999999999999
  0
LINE
  5
12C11
330
12B3F
100
AcDbEntity
  8
1
  6
Continuous
100
AcDbLine
 10
791.54564
 20
146.202494
 30
0.0
 11
789.1055579999997
 21
141.2733969999998
 31
0.0
  0
ARC
  5
12C12
330
12B3F
100
AcDbEntity
  8
1
  6
Continuous
100
AcDbCircle
 10
786.0
 20
135.0
 30
0.0
 40
7.0
100
AcDbArc
 50
26.33707499999999
 51
63.662925
  0
ARC
  5
12C13
330
12B3F
100
AcDbEntity
  8
1
  6
Continuous
100
AcDbCircle
 10
792.0
 20
133.0
 30
0.0
 40
2.0
100
AcDbArc
 50
90.0
 51
253.2276069999999
  0
LINE
  5
12C14
330
12B3F
100
AcDbEntity
  8
1
  6
Continuous
100
AcDbLine
 10
800.0
 20
136.4999999999998
 30
0.0
 11
800.0
 21
151.0
 31
0.0
  0
ARC
  5
12C15
330
12B3F
100
AcDbEntity
  8
1
  6
Continuous
100
AcDbCircle
 10
798.5
 20
127.3854409999999
 30
0.0
 40
1.5
100
AcDbArc
 50
0.0
 51
73.22760699999998
  0
LINE
  5
12C16
330
12B3F
100
AcDbEntity
  8
1
  6
Continuous
100
AcDbLine
 10
800.0
 20
122.5
 30
0.0
 11
800.0
 21
127.3854409999999
 31
0.0
  0
ARC
  5
12C17
330
12B3F
100
AcDbEntity
  8
1
  6
Continuous
100
AcDbCircle
 10
798.5
 20
136.4999999999998
 30
0.0
 40
1.5
100
AcDbArc
 50
270.0
 51
0.0
  0
ARC
  5
12C18
330
12B3F
100
AcDbEntity
  8
3
  6
DASHED
100
AcDbCircle
 10
421.0
 20
319.5
 30
0.0
 40
11.0
100
AcDbArc
 50
114.619977
 51
65.38002299999999
  0
LINE
  5
12C19
330
12B3F
100
AcDbEntity
  8
1
  6
Continuous
100
AcDbLine
 10
404.0
 20
307.0
 30
0.0
 11
156.0
 21
307.0
 31
0.0
  0
CIRCLE
  5
12C1A
330
12B3F
100
AcDbEntity
  8
1
  6
Continuous
100
AcDbCircle
 10
409.55
 20
307.55
 30
0.0
 40
1.75
  0
CIRCLE
  5
12C1B
330
12B3F
100
AcDbEntity
  8
1
  6
Continuous
100
AcDbCircle
 10
435.0
 20
311.5
 30
0.0
 40
2.399999999999999
  0
LINE
  5
12C1C
330
12B3F
100
AcDbEntity
  8
1
  6
Continuous
100
AcDbLine
 10
505.0
 20
135.4999999999998
 30
0.0
 11
505.0
 21
145.5
 31
0.0
  0
LINE
  5
12C1D
330
12B3F
100
AcDbEntity
  8
1
  6
Continuous
100
AcDbLine
 10
453.5
 20
328.0
 30
0.0
 11
449.5
 21
329.4999999999999
 31
0.0
  0
LINE
  5
12C1E
330
12B3F
100
AcDbEntity
  8
1
  6
Continuous
100
AcDbLine
 10
454.4999999999998
 20
329.4999999999999
 30
0.0
 11
454.4999999999998
 21
328.0
 31
0.0
  0
LINE
  5
12C1F
330
12B3F
100
AcDbEntity
  8
1
  6
Continuous
100
AcDbLine
 10
473.0
 20
305.0
 30
0.0
 11
474.0
 21
305.0
 31
0.0
  0
LINE
  5
12C20
330
12B3F
100
AcDbEntity
  8
1
  6
Continuous
100
AcDbLine
 10
454.4999999999998
 20
328.0
 30
0.0
 11
453.5
 21
328.0
 31
0.0
  0
LINE
  5
12C21
330
12B3F
100
AcDbEntity
  8
1
  6
Continuous
100
AcDbLine
 10
449.5
 20
329.4999999999999
 30
0.0
 11
406.0
 21
329.4999999999999
 31
0.0
  0
LINE
  5
12C22
330
12B3F
100
AcDbEntity
  8
1
  6
Continuous
100
AcDbLine
 10
373.75
 20
318.0
 30
0.0
 11
373.75
 21
316.0
 31
0.0
  0
LINE
  5
12C23
330
12B3F
100
AcDbEntity
  8
1
  6
Continuous
100
AcDbLine
 10
366.25
 20
318.0
 30
0.0
 11
366.25
 21
316.0
 31
0.0
  0
ARC
  5
12C24
330
12B3F
100
AcDbEntity
  8
1
  6
Continuous
100
AcDbCircle
 10
370.0
 20
316.0
 30
0.0
 40
3.75
100
AcDbArc
 50
180.0
 51
0.0
  0
CIRCLE
  5
12C25
330
12B3F
100
AcDbEntity
  8
1
  6
Continuous
100
AcDbCircle
 10
380.0
 20
317.0
 30
0.0
 40
3.75
  0
ARC
  5
12C26
330
12B3F
100
AcDbEntity
  8
1
  6
Continuous
100
AcDbCircle
 10
370.0
 20
318.0
 30
0.0
 40
3.75
100
AcDbArc
 50
0.0
 51
180.0
  0
CIRCLE
  5
12C27
330
12B3F
100
AcDbEntity
  8
1
  6
Continuous
100
AcDbCircle
 10
125.0
 20
317.0
 30
0.0
 40
3.75
  0
ARC
  5
12C28
330
12B3F
100
AcDbEntity
  8
1
  6
Continuous
100
AcDbCircle
 10
135.0
 20
318.0
 30
0.0
 40
3.75
100
AcDbArc
 50
0.0
 51
180.0
  0
LINE
  5
12C29
330
12B3F
100
AcDbEntity
  8
1
  6
Continuous
100
AcDbLine
 10
131.25
 20
318.0
 30
0.0
 11
131.25
 21
316.0
 31
0.0
  0
LINE
  5
12C2A
330
12B3F
100
AcDbEntity
  8
1
  6
Continuous
100
AcDbLine
 10
138.7499999999998
 20
318.0
 30
0.0
 11
138.7499999999998
 21
316.0
 31
0.0
  0
ARC
  5
12C2B
330
12B3F
100
AcDbEntity
  8
1
  6
Continuous
100
AcDbCircle
 10
135.0
 20
316.0
 30
0.0
 40
3.75
100
AcDbArc
 50
180.0
 51
0.0
  0
LINE
  5
12C2C
330
12B3F
100
AcDbEntity
  8
3
  6
DASHED
100
AcDbLine
 10
453.5
 20
126.5
 30
0.0
 11
454.4999999999998
 21
126.5
 31
0.0
  0
LINE
  5
12C2D
330
12B3F
100
AcDbEntity
  8
3
  6
DASHED
100
AcDbLine
 10
454.4999999999998
 20
126.5
 30
0.0
 11
500.4999999999998
 21
126.5
 31
0.0
  0
LINE
  5
12C2E
330
12B3F
100
AcDbEntity
  8
3
  6
DASHED
100
AcDbLine
 10
454.4999999999998
 20
125.0
 30
0.0
 11
454.4999999999998
 21
126.5
 31
0.0
  0
LINE
  5
12C2F
330
12B3F
100
AcDbEntity
  8
3
  6
DASHED
100
AcDbLine
 10
453.5
 20
126.5
 30
0.0
 11
449.5
 21
125.0
 31
0.0
  0
LINE
  5
12C30
330
12B3F
100
AcDbEntity
  8
3
  6
DASHED
100
AcDbLine
 10
449.5
 20
125.0
 30
0.0
 11
406.0
 21
125.0
 31
0.0
  0
LINE
  5
12C31
330
12B3F
100
AcDbEntity
  8
3
  6
DASHED
100
AcDbLine
 10
481.5
 20
308.4999999999999
 30
0.0
 11
431.0201059999998
 21
308.4999999999999
 31
0.0
  0
LINE
  5
12C32
330
12B3F
100
AcDbEntity
  8
3
  6
DASHED
100
AcDbLine
 10
427.78233
 20
309.0
 30
0.0
 11
430.53233
 21
307.0
 31
0.0
  0
LINE
  5
12C33
330
12B3F
100
AcDbEntity
  8
3
  6
DASHED
100
AcDbLine
 10
427.78233
 20
309.0
 30
0.0
 11
425.0323299999998
 21
307.0
 31
0.0
  0
LINE
  5
12C34
330
12B3F
100
AcDbEntity
  8
3
  6
DASHED
100
AcDbLine
 10
428.664588
 20
310.2131039999998
 30
0.0
 11
431.0201059999998
 21
308.4999999999999
 31
0.0
  0
LINE
  5
12C35
330
12B3F
100
AcDbEntity
  8
3
  6
DASHED
100
AcDbLine
 10
426.900072
 20
310.2131039999998
 30
0.0
 11
424.544554
 21
308.4999999999999
 31
0.0
  0
ARC
  5
12C36
330
12B3F
100
AcDbEntity
  8
3
  6
DASHED
100
AcDbCircle
 10
427.78233
 20
309.0
 30
0.0
 40
1.5
100
AcDbArc
 50
53.972627
 51
126.0273729999997
  0
LINE
  5
12C37
330
12B3F
100
AcDbEntity
  8
1
  6
Continuous
100
AcDbLine
 10
798.5
 20
225.4999999999999
 30
0.0
 11
475.4999999999998
 21
225.4999999999999
 31
0.0
  0
LINE
  5
12C38
330
12B3F
100
AcDbEntity
  8
1
  6
Continuous
100
AcDbLine
 10
109.0
 20
221.0
 30
0.0
 11
109.0
 21
229.0
 31
0.0
  0
LINE
  5
12C39
330
12B3F
100
AcDbEntity
  8
1
  6
Continuous
100
AcDbLine
 10
404.0
 20
233.4999999999999
 30
0.0
 11
404.0
 21
232.0
 31
0.0
  0
LINE
  5
12C3A
330
12B3F
100
AcDbEntity
  8
1
  6
Continuous
100
AcDbLine
 10
480.0
 20
221.0
 30
0.0
 11
480.0
 21
225.4999999999999
 31
0.0
  0
LINE
  5
12C3B
330
12B3F
100
AcDbEntity
  8
1
  6
Continuous
100
AcDbLine
 10
474.0
 20
232.0
 30
0.0
 11
404.0
 21
232.0
 31
0.0
  0
LINE
  5
12C3C
330
12B3F
100
AcDbEntity
  8
1
  6
Continuous
100
AcDbLine
 10
156.0
 20
222.0
 30
0.0
 11
156.0
 21
228.0
 31
0.0
  0
LINE
  5
12C3D
330
12B3F
100
AcDbEntity
  8
1
  6
Continuous
100
AcDbLine
 10
143.5
 20
221.0
 30
0.0
 11
143.5
 21
224.0
 31
0.0
  0
LINE
  5
12C3E
330
12B3F
100
AcDbEntity
  8
1
  6
Continuous
100
AcDbLine
 10
143.5
 20
222.5
 30
0.0
 11
114.0
 21
222.5
 31
0.0
  0
LINE
  5
12C3F
330
12B3F
100
AcDbEntity
  8
1
  6
Continuous
100
AcDbLine
 10
142.0
 20
225.4999999999999
 30
0.0
 11
115.5
 21
225.4999999999999
 31
0.0
  0
LINE
  5
12C40
330
12B3F
100
AcDbEntity
  8
1
  6
Continuous
100
AcDbLine
 10
114.0
 20
224.0
 30
0.0
 11
114.0
 21
221.0
 31
0.0
  0
ARC
  5
12C41
330
12B3F
100
AcDbEntity
  8
1
  6
Continuous
100
AcDbCircle
 10
115.5
 20
224.0
 30
0.0
 40
1.5
100
AcDbArc
 50
90.0
 51
180.0
  0
ARC
  5
12C42
330
12B3F
100
AcDbEntity
  8
1
  6
Continuous
100
AcDbCircle
 10
142.0
 20
224.0
 30
0.0
 40
1.5
100
AcDbArc
 50
0.0
 51
90.0
  0
LINE
  5
12C43
330
12B3F
100
AcDbEntity
  8
1
  6
Continuous
100
AcDbLine
 10
505.0
 20
222.5
 30
0.0
 11
505.0
 21
221.0
 31
0.0
  0
LINE
  5
12C44
330
12B3F
100
AcDbEntity
  8
1
  6
Continuous
100
AcDbLine
 10
505.0
 20
222.5
 30
0.0
 11
480.0
 21
222.5
 31
0.0
  0
LINE
  5
12C45
330
12B3F
100
AcDbEntity
  8
4
  6
CENTER
100
AcDbLine
 10
491.0
 20
237.6235419999999
 30
0.0
 11
491.0
 21
217.1560739999999
 31
0.0
  0
LINE
  5
12C46
330
12B3F
100
AcDbEntity
  8
4
  6
CENTER
100
AcDbLine
 10
475.0
 20
218.0
 30
0.0
 11
475.0
 21
224.5
 31
0.0
  0
LINE
  5
12C47
330
12B3F
100
AcDbEntity
  8
4
  6
CENTER
100
AcDbLine
 10
465.0
 20
218.0
 30
0.0
 11
465.0
 21
224.5
 31
0.0
  0
LINE
  5
12C48
330
12B3F
100
AcDbEntity
  8
4
  6
CENTER
100
AcDbLine
 10
380.0
 20
218.0
 30
0.0
 11
380.0
 21
224.5
 31
0.0
  0
LINE
  5
12C49
330
12B3F
100
AcDbEntity
  8
4
  6
CENTER
100
AcDbLine
 10
370.0
 20
218.0
 30
0.0
 11
370.0
 21
224.5
 31
0.0
  0
LINE
  5
12C4A
330
12B3F
100
AcDbEntity
  8
4
  6
CENTER
100
AcDbLine
 10
135.0
 20
218.0
 30
0.0
 11
135.0
 21
224.5
 31
0.0
  0
LINE
  5
12C4B
330
12B3F
100
AcDbEntity
  8
4
  6
CENTER
100
AcDbLine
 10
125.0
 20
218.0
 30
0.0
 11
125.0
 21
224.5
 31
0.0
  0
LINE
  5
12C4C
330
12B3F
100
AcDbEntity
  8
1
  6
Continuous
100
AcDbLine
 10
474.0
 20
227.0
 30
0.0
 11
474.0
 21
233.4999999999999
 31
0.0
  0
LINE
  5
12C4D
330
12B3F
100
AcDbEntity
  8
1
  6
Continuous
100
AcDbLine
 10
454.4999999999998
 20
229.0
 30
0.0
 11
454.4999999999998
 21
232.0
 31
0.0
  0
LINE
  5
12C4E
330
12B3F
100
AcDbEntity
  8
1
  6
Continuous
100
AcDbLine
 10
473.0
 20
232.0
 30
0.0
 11
473.0
 21
233.4999999999999
 31
0.0
  0
LINE
  5
12C4F
330
12B3F
100
AcDbEntity
  8
1
  6
Continuous
100
AcDbLine
 10
469.0
 20
232.0
 30
0.0
 11
469.0
 21
233.4999999999999
 31
0.0
  0
ARC
  5
12C50
330
12B3F
100
AcDbEntity
  8
1
  6
Continuous
100
AcDbCircle
 10
475.4999999999998
 20
227.0
 30
0.0
 40
1.5
100
AcDbArc
 50
180.0
 51
270.0
  0
LINE
  5
12C51
330
12B3F
100
AcDbEntity
  8
1
  6
Continuous
100
AcDbLine
 10
497.0
 20
225.4999999999999
 30
0.0
 11
497.0
 21
223.4999999999998
 31
0.0
  0
LINE
  5
12C52
330
12B3F
100
AcDbEntity
  8
1
  6
Continuous
100
AcDbLine
 10
485.0
 20
225.4999999999999
 30
0.0
 11
485.0
 21
223.4999999999998
 31
0.0
  0
LINE
  5
12C53
330
12B3F
100
AcDbEntity
  8
1
  6
Continuous
100
AcDbLine
 10
497.0
 20
225.0
 30
0.0
 11
485.0
 21
225.0
 31
0.0
  0
LINE
  5
12C54
330
12B3F
100
AcDbEntity
  8
1
  6
Continuous
100
AcDbLine
 10
497.0
 20
223.4999999999998
 30
0.0
 11
485.0
 21
223.4999999999998
 31
0.0
  0
LINE
  5
12C55
330
12B3F
100
AcDbEntity
  8
1
  6
Continuous
100
AcDbLine
 10
496.792893
 20
223.2071069999999
 30
0.0
 11
497.5
 21
222.5
 31
0.0
  0
LINE
  5
12C56
330
12B3F
100
AcDbEntity
  8
1
  6
Continuous
100
AcDbLine
 10
485.207107
 20
223.2071069999999
 30
0.0
 11
484.4999999999997
 21
222.5
 31
0.0
  0
ARC
  5
12C57
330
12B3F
100
AcDbEntity
  8
1
  6
Continuous
100
AcDbCircle
 10
485.9142139999998
 20
222.5
 30
0.0
 40
1.0
100
AcDbArc
 50
90.0
 51
135.0
  0
ARC
  5
12C58
330
12B3F
100
AcDbEntity
  8
1
  6
Continuous
100
AcDbCircle
 10
496.0857859999999
 20
222.5
 30
0.0
 40
1.0
100
AcDbArc
 50
45.0
 51
90.0
  0
LINE
  5
12C59
330
12B3F
100
AcDbEntity
  8
4
  6
CENTER
100
AcDbLine
 10
460.0
 20
236.5
 30
0.0
 11
460.0
 21
230.0
 31
0.0
  0
LINE
  5
12C5A
330
12B3F
100
AcDbEntity
  8
4
  6
CENTER
100
AcDbLine
 10
470.0
 20
236.5
 30
0.0
 11
470.0
 21
230.0
 31
0.0
  0
LINE
  5
12C5B
330
12B3F
100
AcDbEntity
  8
4
  6
CENTER
100
AcDbLine
 10
568.5
 20
236.5
 30
0.0
 11
568.5
 21
230.0
 31
0.0
  0
LINE
  5
12C5C
330
12B3F
100
AcDbEntity
  8
4
  6
CENTER
100
AcDbLine
 10
775.0
 20
236.5
 30
0.0
 11
775.0
 21
230.0
 31
0.0
  0
LINE
  5
12C5D
330
12B3F
100
AcDbEntity
  8
4
  6
CENTER
100
AcDbLine
 10
785.0
 20
236.5
 30
0.0
 11
785.0
 21
230.0
 31
0.0
  0
LINE
  5
12C5E
330
12B3F
100
AcDbEntity
  8
1
  6
Continuous
100
AcDbLine
 10
800.0
 20
233.4999999999999
 30
0.0
 11
800.0
 21
227.0
 31
0.0
  0
LINE
  5
12C5F
330
12B3F
100
AcDbEntity
  8
4
  6
CENTER
100
AcDbLine
 10
421.0
 20
237.768529
 30
0.0
 11
421.0
 21
217.385748
 31
0.0
  0
LINE
  5
12C60
330
12B3F
100
AcDbEntity
  8
1
  6
Continuous
100
AcDbLine
 10
427.0
 20
229.0
 30
0.0
 11
427.0
 21
231.0
 31
0.0
  0
LINE
  5
12C61
330
12B3F
100
AcDbEntity
  8
1
  6
Continuous
100
AcDbLine
 10
427.0
 20
231.0
 30
0.0
 11
415.0
 21
231.0
 31
0.0
  0
LINE
  5
12C62
330
12B3F
100
AcDbEntity
  8
1
  6
Continuous
100
AcDbLine
 10
415.0
 20
229.0
 30
0.0
 11
415.0
 21
231.0
 31
0.0
  0
ARC
  5
12C63
330
12B3F
100
AcDbEntity
  8
1
  6
Continuous
100
AcDbCircle
 10
426.0857859999998
 20
232.0
 30
0.0
 40
1.0
100
AcDbArc
 50
270.0
 51
315.0
  0
LINE
  5
12C64
330
12B3F
100
AcDbEntity
  8
1
  6
Continuous
100
AcDbLine
 10
426.792893
 20
231.2928929999999
 30
0.0
 11
427.5
 21
232.0
 31
0.0
  0
ARC
  5
12C65
330
12B3F
100
AcDbEntity
  8
1
  6
Continuous
100
AcDbCircle
 10
415.914214
 20
232.0
 30
0.0
 40
1.0
100
AcDbArc
 50
225.0
 51
270.0
  0
LINE
  5
12C66
330
12B3F
100
AcDbEntity
  8
1
  6
Continuous
100
AcDbLine
 10
415.2071069999998
 20
231.2928929999999
 30
0.0
 11
414.5
 21
232.0
 31
0.0
  0
LINE
  5
12C67
330
12B3F
100
AcDbEntity
  8
3
  6
DASHED
100
AcDbLine
 10
502.0
 20
226.5
 30
0.0
 11
502.0
 21
231.4999999999999
 31
0.0
  0
LINE
  5
12C68
330
12B3F
100
AcDbEntity
  8
3
  6
DASHED
100
AcDbLine
 10
502.0
 20
226.5
 30
0.0
 11
480.0
 21
226.5
 31
0.0
  0
LINE
  5
12C69
330
12B3F
100
AcDbEntity
  8
3
  6
DASHED
100
AcDbLine
 10
502.0
 20
231.4999999999999
 30
0.0
 11
480.0
 21
231.4999999999999
 31
0.0
  0
LINE
  5
12C6A
330
12B3F
100
AcDbEntity
  8
3
  6
DASHED
100
AcDbLine
 10
497.0
 20
226.5
 30
0.0
 11
497.0
 21
225.4999999999999
 31
0.0
  0
LINE
  5
12C6B
330
12B3F
100
AcDbEntity
  8
3
  6
DASHED
100
AcDbLine
 10
485.0
 20
226.5
 30
0.0
 11
485.0
 21
225.4999999999999
 31
0.0
  0
LINE
  5
12C6C
330
12B3F
100
AcDbEntity
  8
3
  6
DASHED
100
AcDbLine
 10
432.0
 20
228.0
 30
0.0
 11
432.0
 21
223.0
 31
0.0
  0
LINE
  5
12C6D
330
12B3F
100
AcDbEntity
  8
3
  6
DASHED
100
AcDbLine
 10
425.0323299999998
 20
223.0
 30
0.0
 11
410.0
 21
223.0
 31
0.0
  0
LINE
  5
12C6E
330
12B3F
100
AcDbEntity
  8
3
  6
DASHED
100
AcDbLine
 10
432.0
 20
228.0
 30
0.0
 11
410.0
 21
228.0
 31
0.0
  0
LINE
  5
12C6F
330
12B3F
100
AcDbEntity
  8
1
  6
Continuous
100
AcDbLine
 10
427.0
 20
229.4999999999999
 30
0.0
 11
415.0
 21
229.4999999999999
 31
0.0
  0
LINE
  5
12C70
330
12B3F
100
AcDbEntity
  8
3
  6
DASHED
100
AcDbLine
 10
427.0
 20
228.0
 30
0.0
 11
427.0
 21
229.0
 31
0.0
  0
LINE
  5
12C71
330
12B3F
100
AcDbEntity
  8
3
  6
DASHED
100
AcDbLine
 10
415.0
 20
228.0
 30
0.0
 11
415.0
 21
229.0
 31
0.0
  0
LINE
  5
12C72
330
12B3F
100
AcDbEntity
  8
3
  6
DASHED
100
AcDbLine
 10
410.0
 20
228.0
 30
0.0
 11
410.0
 21
223.0
 31
0.0
  0
LINE
  5
12C73
330
12B3F
100
AcDbEntity
  8
4
  6
CENTER
100
AcDbLine
 10
409.55
 20
236.5
 30
0.0
 11
409.55
 21
230.0
 31
0.0
  0
LINE
  5
12C74
330
12B3F
100
AcDbEntity
  8
4
  6
CENTER
100
AcDbLine
 10
435.0
 20
236.5
 30
0.0
 11
435.0
 21
230.0
 31
0.0
  0
LINE
  5
12C75
330
12B3F
100
AcDbEntity
  8
1
  6
Continuous
100
AcDbLine
 10
109.0
 20
229.0
 30
0.0
 11
474.0
 21
229.0
 31
0.0
  0
LINE
  5
12C76
330
12B3F
100
AcDbEntity
  8
1
  6
Continuous
100
AcDbLine
 10
430.53233
 20
228.5
 30
0.0
 11
430.53233
 21
223.0
 31
0.0
  0
LINE
  5
12C77
330
12B3F
100
AcDbEntity
  8
1
  6
Continuous
100
AcDbLine
 10
427.78233
 20
228.5
 30
0.0
 11
427.78233
 21
223.0
 31
0.0
  0
LINE
  5
12C78
330
12B3F
100
AcDbEntity
  8
1
  6
Continuous
100
AcDbLine
 10
425.0323299999998
 20
228.5
 30
0.0
 11
425.0323299999998
 21
223.0
 31
0.0
  0
LINE
  5
12C79
330
12B3F
100
AcDbEntity
  8
1
  6
Continuous
100
AcDbLine
 10
430.53233
 20
223.0
 30
0.0
 11
425.0323299999998
 21
223.0
 31
0.0
  0
LINE
  5
12C7A
330
12B3F
100
AcDbEntity
  8
1
  6
Continuous
100
AcDbLine
 10
430.53233
 20
228.5
 30
0.0
 11
425.0323299999998
 21
228.5
 31
0.0
  0
LINE
  5
12C7B
330
12B3F
100
AcDbEntity
  8
3
  6
DASHED
100
AcDbLine
 10
432.0
 20
223.0
 30
0.0
 11
430.53233
 21
223.0
 31
0.0
  0
LINE
  5
12C7C
330
12B3F
100
AcDbEntity
  8
1
  6
Continuous
100
AcDbLine
 10
800.0
 20
41.0
 30
0.0
 11
404.0
 21
41.0
 31
0.0
  0
LINE
  5
12C7D
330
12B3F
100
AcDbEntity
  8
1
  6
Continuous
100
AcDbLine
 10
798.5
 20
49.0
 30
0.0
 11
456.5
 21
49.0
 31
0.0
  0
LINE
  5
12C7E
330
12B3F
100
AcDbEntity
  8
1
  6
Continuous
100
AcDbLine
 10
505.0
 20
53.5
 30
0.0
 11
109.0
 21
53.5
 31
0.0
  0
LINE
  5
12C7F
330
12B3F
100
AcDbEntity
  8
1
  6
Continuous
100
AcDbLine
 10
142.0
 20
49.0
 30
0.0
 11
115.5
 21
49.0
 31
0.0
  0
LINE
  5
12C80
330
12B3F
100
AcDbEntity
  8
1
  6
Continuous
100
AcDbLine
 10
505.0
 20
52.0
 30
0.0
 11
109.0
 21
52.0
 31
0.0
  0
LINE
  5
12C81
330
12B3F
100
AcDbEntity
  8
1
  6
Continuous
100
AcDbLine
 10
109.0
 20
53.5
 30
0.0
 11
109.0
 21
45.49999999999999
 31
0.0
  0
ARC
  5
12C82
330
12B3F
100
AcDbEntity
  8
1
  6
Continuous
100
AcDbCircle
 10
115.5
 20
50.5
 30
0.0
 40
1.5
100
AcDbArc
 50
180.0
 51
270.0
  0
LINE
  5
12C83
330
12B3F
100
AcDbEntity
  8
1
  6
Continuous
100
AcDbLine
 10
114.0
 20
50.5
 30
0.0
 11
114.0
 21
52.0
 31
0.0
  0
LINE
  5
12C84
330
12B3F
100
AcDbEntity
  8
4
  6
CENTER
100
AcDbLine
 10
125.0
 20
56.5
 30
0.0
 11
125.0
 21
50.0
 31
0.0
  0
ARC
  5
12C85
330
12B3F
100
AcDbEntity
  8
1
  6
Continuous
100
AcDbCircle
 10
142.0
 20
50.5
 30
0.0
 40
1.5
100
AcDbArc
 50
270.0
 51
0.0
  0
LINE
  5
12C86
330
12B3F
100
AcDbEntity
  8
4
  6
CENTER
100
AcDbLine
 10
135.0
 20
56.5
 30
0.0
 11
135.0
 21
50.0
 31
0.0
  0
LINE
  5
12C87
330
12B3F
100
AcDbEntity
  8
1
  6
Continuous
100
AcDbLine
 10
143.5
 20
52.0
 30
0.0
 11
143.5
 21
50.5
 31
0.0
  0
LINE
  5
12C88
330
12B3F
100
AcDbEntity
  8
1
  6
Continuous
100
AcDbLine
 10
156.0
 20
51.0
 30
0.0
 11
156.0
 21
46.5
 31
0.0
  0
LINE
  5
12C89
330
12B3F
100
AcDbEntity
  8
1
  6
Continuous
100
AcDbLine
 10
454.4999999999998
 20
42.5
 30
0.0
 11
404.0
 21
42.5
 31
0.0
  0
LINE
  5
12C8A
330
12B3F
100
AcDbEntity
  8
4
  6
CENTER
100
AcDbLine
 10
370.0
 20
56.5
 30
0.0
 11
370.0
 21
50.0
 31
0.0
  0
LINE
  5
12C8B
330
12B3F
100
AcDbEntity
  8
4
  6
CENTER
100
AcDbLine
 10
380.0
 20
56.5
 30
0.0
 11
380.0
 21
50.0
 31
0.0
  0
LINE
  5
12C8C
330
12B3F
100
AcDbEntity
  8
1
  6
Continuous
100
AcDbLine
 10
404.0
 20
41.0
 30
0.0
 11
404.0
 21
42.5
 31
0.0
  0
LINE
  5
12C8D
330
12B3F
100
AcDbEntity
  8
1
  6
Continuous
100
AcDbLine
 10
432.0
 20
51.5
 30
0.0
 11
410.0
 21
51.5
 31
0.0
  0
LINE
  5
12C8E
330
12B3F
100
AcDbEntity
  8
1
  6
Continuous
100
AcDbLine
 10
427.0
 20
43.5
 30
0.0
 11
415.0
 21
43.5
 31
0.0
  0
LINE
  5
12C8F
330
12B3F
100
AcDbEntity
  8
1
  6
Continuous
100
AcDbLine
 10
432.0
 20
46.5
 30
0.0
 11
410.0
 21
46.5
 31
0.0
  0
LINE
  5
12C90
330
12B3F
100
AcDbEntity
  8
1
  6
Continuous
100
AcDbLine
 10
427.0
 20
45.0
 30
0.0
 11
415.0
 21
45.0
 31
0.0
  0
ARC
  5
12C91
330
12B3F
100
AcDbEntity
  8
1
  6
Continuous
100
AcDbCircle
 10
415.914214
 20
42.5
 30
0.0
 40
1.0
100
AcDbArc
 50
90.0
 51
135.0
  0
LINE
  5
12C92
330
12B3F
100
AcDbEntity
  8
1
  6
Continuous
100
AcDbLine
 10
415.2071069999998
 20
43.207107
 30
0.0
 11
414.5
 21
42.5
 31
0.0
  0
LINE
  5
12C93
330
12B3F
100
AcDbEntity
  8
1
  6
Continuous
100
AcDbLine
 10
415.0
 20
46.5
 30
0.0
 11
415.0
 21
43.5
 31
0.0
  0
LINE
  5
12C94
330
12B3F
100
AcDbEntity
  8
4
  6
CENTER
100
AcDbLine
 10
409.55
 20
38.0
 30
0.0
 11
409.55
 21
44.5
 31
0.0
  0
LINE
  5
12C95
330
12B3F
100
AcDbEntity
  8
4
  6
CENTER
100
AcDbLine
 10
421.0
 20
36.73147099999999
 30
0.0
 11
421.0
 21
57.114252
 31
0.0
  0
LINE
  5
12C96
330
12B3F
100
AcDbEntity
  8
1
  6
Continuous
100
AcDbLine
 10
410.0
 20
46.5
 30
0.0
 11
410.0
 21
51.5
 31
0.0
  0
ARC
  5
12C97
330
12B3F
100
AcDbEntity
  8
1
  6
Continuous
100
AcDbCircle
 10
426.0857859999998
 20
42.5
 30
0.0
 40
1.0
100
AcDbArc
 50
45.0
 51
90.0
  0
LINE
  5
12C98
330
12B3F
100
AcDbEntity
  8
1
  6
Continuous
100
AcDbLine
 10
426.792893
 20
43.207107
 30
0.0
 11
427.5
 21
42.5
 31
0.0
  0
LINE
  5
12C99
330
12B3F
100
AcDbEntity
  8
1
  6
Continuous
100
AcDbLine
 10
427.0
 20
46.5
 30
0.0
 11
427.0
 21
43.5
 31
0.0
  0
LINE
  5
12C9A
330
12B3F
100
AcDbEntity
  8
4
  6
CENTER
100
AcDbLine
 10
435.0
 20
38.0
 30
0.0
 11
435.0
 21
44.5
 31
0.0
  0
LINE
  5
12C9B
330
12B3F
100
AcDbEntity
  8
1
  6
Continuous
100
AcDbLine
 10
431.0201059999998
 20
46.0
 30
0.0
 11
427.0
 21
46.0
 31
0.0
  0
LINE
  5
12C9C
330
12B3F
100
AcDbEntity
  8
1
  6
Continuous
100
AcDbLine
 10
432.0
 20
46.5
 30
0.0
 11
432.0
 21
51.5
 31
0.0
  0
LINE
  5
12C9D
330
12B3F
100
AcDbEntity
  8
1
  6
Continuous
100
AcDbLine
 10
427.78233
 20
46.0
 30
0.0
 11
427.78233
 21
46.5
 31
0.0
  0
LINE
  5
12C9E
330
12B3F
100
AcDbEntity
  8
4
  6
CENTER
100
AcDbLine
 10
465.0
 20
56.5
 30
0.0
 11
465.0
 21
50.0
 31
0.0
  0
LINE
  5
12C9F
330
12B3F
100
AcDbEntity
  8
1
  6
Continuous
100
AcDbLine
 10
454.4999999999998
 20
47.0
 30
0.0
 11
454.4999999999998
 21
41.0
 31
0.0
  0
LINE
  5
12CA0
330
12B3F
100
AcDbEntity
  8
4
  6
CENTER
100
AcDbLine
 10
475.0
 20
56.5
 30
0.0
 11
475.0
 21
50.0
 31
0.0
  0
LINE
  5
12CA1
330
12B3F
100
AcDbEntity
  8
4
  6
CENTER
100
AcDbLine
 10
470.0
 20
38.0
 30
0.0
 11
470.0
 21
44.5
 31
0.0
  0
LINE
  5
12CA2
330
12B3F
100
AcDbEntity
  8
4
  6
CENTER
100
AcDbLine
 10
460.0
 20
38.0
 30
0.0
 11
460.0
 21
44.5
 31
0.0
  0
LINE
  5
12CA3
330
12B3F
100
AcDbEntity
  8
3
  6
DASHED
100
AcDbLine
 10
480.0
 20
49.0
 30
0.0
 11
480.0
 21
43.0
 31
0.0
  0
LINE
  5
12CA4
330
12B3F
100
AcDbEntity
  8
3
  6
DASHED
100
AcDbLine
 10
502.0
 20
48.0
 30
0.0
 11
480.0
 21
48.0
 31
0.0
  0
LINE
  5
12CA5
330
12B3F
100
AcDbEntity
  8
3
  6
DASHED
100
AcDbLine
 10
502.0
 20
43.0
 30
0.0
 11
480.0
 21
43.0
 31
0.0
  0
LINE
  5
12CA6
330
12B3F
100
AcDbEntity
  8
1
  6
Continuous
100
AcDbLine
 10
497.0
 20
49.5
 30
0.0
 11
485.0
 21
49.5
 31
0.0
  0
LINE
  5
12CA7
330
12B3F
100
AcDbEntity
  8
1
  6
Continuous
100
AcDbLine
 10
485.207107
 20
51.29289299999999
 30
0.0
 11
484.4999999999997
 21
52.0
 31
0.0
  0
ARC
  5
12CA8
330
12B3F
100
AcDbEntity
  8
1
  6
Continuous
100
AcDbCircle
 10
485.9142139999998
 20
52.0
 30
0.0
 40
1.0
100
AcDbArc
 50
225.0
 51
270.0
  0
LINE
  5
12CA9
330
12B3F
100
AcDbEntity
  8
1
  6
Continuous
100
AcDbLine
 10
496.792893
 20
51.29289299999999
 30
0.0
 11
497.5
 21
52.0
 31
0.0
  0
ARC
  5
12CAA
330
12B3F
100
AcDbEntity
  8
1
  6
Continuous
100
AcDbCircle
 10
496.0857859999999
 20
52.0
 30
0.0
 40
1.0
100
AcDbArc
 50
270.0
 51
315.0
  0
LINE
  5
12CAB
330
12B3F
100
AcDbEntity
  8
1
  6
Continuous
100
AcDbLine
 10
485.0
 20
49.0
 30
0.0
 11
485.0
 21
51.0
 31
0.0
  0
LINE
  5
12CAC
330
12B3F
100
AcDbEntity
  8
1
  6
Continuous
100
AcDbLine
 10
497.0
 20
51.0
 30
0.0
 11
485.0
 21
51.0
 31
0.0
  0
LINE
  5
12CAD
330
12B3F
100
AcDbEntity
  8
1
  6
Continuous
100
AcDbLine
 10
497.0
 20
49.0
 30
0.0
 11
497.0
 21
51.0
 31
0.0
  0
LINE
  5
12CAE
330
12B3F
100
AcDbEntity
  8
3
  6
DASHED
100
AcDbLine
 10
485.0
 20
48.0
 30
0.0
 11
485.0
 21
49.0
 31
0.0
  0
LINE
  5
12CAF
330
12B3F
100
AcDbEntity
  8
3
  6
DASHED
100
AcDbLine
 10
497.0
 20
48.0
 30
0.0
 11
497.0
 21
49.0
 31
0.0
  0
LINE
  5
12CB0
330
12B3F
100
AcDbEntity
  8
4
  6
CENTER
100
AcDbLine
 10
491.0
 20
36.876458
 30
0.0
 11
491.0
 21
57.343926
 31
0.0
  0
LINE
  5
12CB1
330
12B3F
100
AcDbEntity
  8
1
  6
Continuous
100
AcDbLine
 10
505.0
 20
52.0
 30
0.0
 11
505.0
 21
53.5
 31
0.0
  0
LINE
  5
12CB2
330
12B3F
100
AcDbEntity
  8
3
  6
DASHED
100
AcDbLine
 10
502.0
 20
48.0
 30
0.0
 11
502.0
 21
43.0
 31
0.0
  0
LINE
  5
12CB3
330
12B3F
100
AcDbEntity
  8
4
  6
CENTER
100
AcDbLine
 10
568.5
 20
38.0
 30
0.0
 11
568.5
 21
44.5
 31
0.0
  0
LINE
  5
12CB4
330
12B3F
100
AcDbEntity
  8
4
  6
CENTER
100
AcDbLine
 10
775.0
 20
38.0
 30
0.0
 11
775.0
 21
44.5
 31
0.0
  0
LINE
  5
12CB5
330
12B3F
100
AcDbEntity
  8
4
  6
CENTER
100
AcDbLine
 10
785.0
 20
38.0
 30
0.0
 11
785.0
 21
44.5
 31
0.0
  0
LINE
  5
12CB6
330
12B3F
100
AcDbEntity
  8
1
  6
Continuous
100
AcDbLine
 10
800.0
 20
41.0
 30
0.0
 11
800.0
 21
47.5
 31
0.0
  0
LINE
  5
12CB7
330
12B3F
100
AcDbEntity
  8
1
  6
Continuous
100
AcDbLine
 10
109.0
 20
45.49999999999999
 30
0.0
 11
415.0
 21
45.49999999999999
 31
0.0
  0
LINE
  5
12CB8
330
12B3F
100
AcDbEntity
  8
1
  6
Continuous
100
AcDbLine
 10
431.0201059999998
 20
46.0
 30
0.0
 11
431.0201059999998
 21
46.5
 31
0.0
  0
LINE
  5
12CB9
330
12B3F
100
AcDbEntity
  8
1
  6
Continuous
100
AcDbLine
 10
427.0
 20
45.49999999999999
 30
0.0
 11
454.4999999999998
 21
45.49999999999999
 31
0.0
  0
LINE
  5
12CBA
330
12B3F
100
AcDbEntity
  8
1
  6
Continuous
100
AcDbLine
 10
480.0
 20
52.0
 30
0.0
 11
480.0
 21
49.0
 31
0.0
  0
LINE
  5
12CBB
330
12B3F
100
AcDbEntity
  8
3
  6
DASHED
100
AcDbLine
 10
454.4999999999998
 20
45.49999999999999
 30
0.0
 11
478.0
 21
45.49999999999999
 31
0.0
  0
ARC
  5
12CBC
330
12B3F
100
AcDbEntity
  8
1
  6
Continuous
100
AcDbCircle
 10
36.0
 20
148.5
 30
0.0
 40
1.5
100
AcDbArc
 50
0.0
 51
90.0
  0
LINE
  5
12CBD
330
12B3F
100
AcDbEntity
  8
1
  6
Continuous
100
AcDbLine
 10
25.0
 20
124.0
 30
0.0
 11
25.0
 21
151.0
 31
0.0
  0
LINE
  5
12CBE
330
12B3F
100
AcDbEntity
  8
1
  6
Continuous
100
AcDbLine
 10
26.5
 20
122.5
 30
0.0
 11
26.5
 21
151.0
 31
0.0
  0
LINE
  5
12CBF
330
12B3F
100
AcDbEntity
  8
1
  6
Continuous
100
AcDbLine
 10
37.5
 20
123.5
 30
0.0
 11
37.5
 21
148.5
 31
0.0
  0
ARC
  5
12CC0
330
12B3F
100
AcDbEntity
  8
1
  6
Continuous
100
AcDbCircle
 10
26.5
 20
124.0
 30
0.0
 40
1.5
100
AcDbArc
 50
180.0
 51
270.0
  0
LINE
  5
12CC1
330
12B3F
100
AcDbEntity
  8
1
  6
Continuous
100
AcDbLine
 10
37.5
 20
123.5
 30
0.0
 11
36.0
 21
123.5
 31
0.0
  0
LINE
  5
12CC2
330
12B3F
100
AcDbEntity
  8
1
  6
Continuous
100
AcDbLine
 10
36.0
 20
148.5
 30
0.0
 11
27.0
 21
148.5
 31
0.0
  0
LINE
  5
12CC3
330
12B3F
100
AcDbEntity
  8
4
  6
CENTER
100
AcDbLine
 10
41.643621
 20
137.5
 30
0.0
 11
23.84947599999999
 21
137.5
 31
0.0
  0
LINE
  5
12CC4
330
12B3F
100
AcDbEntity
  8
4
  6
CENTER
100
AcDbLine
 10
38.19373800000001
 20
135.0
 30
0.0
 11
20.0
 21
135.0
 31
0.0
  0
LINE
  5
12CC5
330
12B3F
100
AcDbEntity
  8
1
  6
Continuous
100
AcDbLine
 10
36.0
 20
123.5
 30
0.0
 11
36.0
 21
148.5
 31
0.0
  0
LINE
  5
12CC6
330
12B3F
100
AcDbEntity
  8
1
  6
Continuous
100
AcDbLine
 10
33.0
 20
151.0
 30
0.0
 11
25.0
 21
151.0
 31
0.0
  0
LINE
  5
12CC7
330
12B3F
100
AcDbEntity
  8
1
  6
Continuous
100
AcDbLine
 10
29.5
 20
149.5
 30
0.0
 11
26.5
 21
149.5
 31
0.0
  0
LINE
  5
12CC8
330
12B3F
100
AcDbEntity
  8
1
  6
Continuous
100
AcDbLine
 10
29.5
 20
150.0
 30
0.0
 11
36.0
 21
150.0
 31
0.0
  0
LINE
  5
12CC9
330
12B3F
100
AcDbEntity
  8
1
  6
Continuous
100
AcDbLine
 10
33.0
 20
150.0
 30
0.0
 11
33.0
 21
151.0
 31
0.0
  0
LINE
  5
12CCA
330
12B3F
100
AcDbEntity
  8
1
  6
Continuous
100
AcDbLine
 10
29.5
 20
146.0
 30
0.0
 11
29.5
 21
150.0
 31
0.0
  0
LINE
  5
12CCB
330
12B3F
100
AcDbEntity
  8
1
  6
Continuous
100
AcDbLine
 10
37.5
 20
137.5
 30
0.0
 11
36.0
 21
137.5
 31
0.0
  0
LINE
  5
12CCC
330
12B3F
100
AcDbEntity
  8
1
  6
Continuous
100
AcDbLine
 10
36.0
 20
144.0
 30
0.0
 11
37.5
 21
144.0
 31
0.0
  0
LINE
  5
12CCD
330
12B3F
100
AcDbEntity
  8
1
  6
Continuous
100
AcDbLine
 10
25.0
 20
125.0
 30
0.0
 11
30.5
 21
125.0
 31
0.0
  0
LINE
  5
12CCE
330
12B3F
100
AcDbEntity
  8
1
  6
Continuous
100
AcDbLine
 10
36.0
 20
146.0
 30
0.0
 11
29.5
 21
146.0
 31
0.0
  0
LINE
  5
12CCF
330
12B3F
100
AcDbEntity
  8
1
  6
Continuous
100
AcDbLine
 10
127.0
 20
48.58615799999999
 30
0.0
 11
127.0
 21
45.98131
 31
0.0
  0
LINE
  5
12CD0
330
12B3F
100
AcDbEntity
  8
1
  6
Continuous
100
AcDbLine
 10
127.0
 20
226.4156869999999
 30
0.0
 11
127.0
 21
228.200516
 31
0.0
  0
LINE
  5
12CD1
330
12B3F
100
AcDbEntity
  8
1
  6
Continuous
100
AcDbLine
 10
785.0
 20
46.103955
 30
0.0
 11
785.0
 21
48.203194
 31
0.0
  0
LINE
  5
12CD2
330
12B3F
100
AcDbEntity
  8
1
  6
Continuous
100
AcDbLine
 10
757.0
 20
42.5
 30
0.0
 11
757.0
 21
47.71568
 31
0.0
  0
ARC
  5
12CD3
330
12B3F
100
AcDbEntity
  8
1
  6
Continuous
100
AcDbCircle
 10
798.5
 20
227.0
 30
0.0
 40
1.5
100
AcDbArc
 50
270.0
 51
0.0
  0
LINE
  5
12CD4
330
12B3F
100
AcDbEntity
  8
1
  6
Continuous
100
AcDbLine
 10
800.0
 20
630.4999999999997
 30
0.0
 11
505.0
 21
630.4999999999997
 31
0.0
  0
LINE
  5
12CD5
330
12B3F
100
AcDbEntity
  8
1
  6
Continuous
100
AcDbLine
 10
798.5
 20
629.0
 30
0.0
 11
475.4999999999998
 21
629.0
 31
0.0
  0
LINE
  5
12CD6
330
12B3F
100
AcDbEntity
  8
1
  6
Continuous
100
AcDbLine
 10
757.0
 20
525.0
 30
0.0
 11
489.5781949999998
 21
525.0
 31
0.0
  0
LINE
  5
12CD7
330
12B3F
100
AcDbEntity
  8
1
  6
Continuous
100
AcDbLine
 10
800.0
 20
551.0
 30
0.0
 11
474.0
 21
551.0
 31
0.0
  0
LINE
  5
12CD8
330
12B3F
100
AcDbEntity
  8
1
  6
Continuous
100
AcDbLine
 10
800.0
 20
621.0
 30
0.0
 11
405.4999999999997
 21
621.0
 31
0.0
  0
LINE
  5
12CD9
330
12B3F
100
AcDbEntity
  8
1
  6
Continuous
100
AcDbLine
 10
800.0
 20
703.5
 30
0.0
 11
474.0
 21
703.5
 31
0.0
  0
LINE
  5
12CDA
330
12B3F
100
AcDbEntity
  8
1
  6
Continuous
100
AcDbLine
 10
800.0
 20
705.0
 30
0.0
 11
473.0
 21
705.0
 31
0.0
  0
LINE
  5
12CDB
330
12B3F
100
AcDbEntity
  8
1
  6
Continuous
100
AcDbLine
 10
757.0
 20
729.4999999999999
 30
0.0
 11
499.578195
 21
729.4999999999999
 31
0.0
  0
LINE
  5
12CDC
330
12B3F
100
AcDbEntity
  8
1
  6
Continuous
100
AcDbLine
 10
757.245048
 20
724.0
 30
0.0
 11
501.698246
 21
724.0
 31
0.0
  0
LINE
  5
12CDD
330
12B3F
100
AcDbEntity
  8
1
  6
Continuous
100
AcDbLine
 10
503.5
 20
633.4999999999999
 30
0.0
 11
109.0
 21
633.4999999999999
 31
0.0
  0
LINE
  5
12CDE
330
12B3F
100
AcDbEntity
  8
1
  6
Continuous
100
AcDbLine
 10
480.0
 20
707.0
 30
0.0
 11
156.0
 21
707.0
 31
0.0
  0
LINE
  5
12CDF
330
12B3F
100
AcDbEntity
  8
1
  6
Continuous
100
AcDbLine
 10
497.627489
 20
731.0
 30
0.0
 11
111.0
 21
731.0
 31
0.0
  0
LINE
  5
12CE0
330
12B3F
100
AcDbEntity
  8
1
  6
Continuous
100
AcDbLine
 10
109.0
 20
624.0
 30
0.0
 11
474.0
 21
624.0
 31
0.0
  0
LINE
  5
12CE1
330
12B3F
100
AcDbEntity
  8
1
  6
Continuous
100
AcDbLine
 10
497.627489
 20
523.5
 30
0.0
 11
111.0
 21
523.5
 31
0.0
  0
LINE
  5
12CE2
330
12B3F
100
AcDbEntity
  8
1
  6
Continuous
100
AcDbLine
 10
405.4999999999997
 20
547.5
 30
0.0
 11
156.0
 21
547.5
 31
0.0
  0
LINE
  5
12CE3
330
12B3F
100
AcDbEntity
  8
1
  6
Continuous
100
AcDbLine
 10
403.0
 20
542.4999999999998
 30
0.0
 11
155.784882
 21
542.4999999999998
 31
0.0
  0
LINE
  5
12CE4
330
12B3F
100
AcDbEntity
  8
1
  6
Continuous
100
AcDbLine
 10
156.0
 20
547.5
 30
0.0
 11
127.0
 21
550.0
 31
0.0
  0
LINE
  5
12CE5
330
12B3F
100
AcDbEntity
  8
4
  6
CENTER
100
AcDbLine
 10
119.25
 20
537.5
 30
0.0
 11
140.7499999999998
 21
537.5
 31
0.0
  0
LINE
  5
12CE6
330
12B3F
100
AcDbEntity
  8
1
  6
Continuous
100
AcDbLine
 10
155.784882
 20
542.4999999999998
 30
0.0
 11
126.784882
 21
545.0
 31
0.0
  0
CIRCLE
  5
12CE7
330
12B3F
100
AcDbEntity
  8
1
  6
Continuous
100
AcDbCircle
 10
125.0
 20
537.5
 30
0.0
 40
3.75
  0
LINE
  5
12CE8
330
12B3F
100
AcDbEntity
  8
1
  6
Continuous
100
AcDbLine
 10
25.0
 20
523.5
 30
0.0
 11
25.0
 21
548.5
 31
0.0
  0
LINE
  5
12CE9
330
12B3F
100
AcDbEntity
  8
1
  6
Continuous
100
AcDbLine
 10
26.5
 20
523.5
 30
0.0
 11
26.5
 21
548.5
 31
0.0
  0
LINE
  5
12CEA
330
12B3F
100
AcDbEntity
  8
1
  6
Continuous
100
AcDbLine
 10
27.0
 20
524.0
 30
0.0
 11
27.0
 21
541.0
 31
0.0
  0
LINE
  5
12CEB
330
12B3F
100
AcDbEntity
  8
1
  6
Continuous
100
AcDbLine
 10
28.0
 20
524.0
 30
0.0
 11
28.0
 21
541.0
 31
0.0
  0
LINE
  5
12CEC
330
12B3F
100
AcDbEntity
  8
1
  6
Continuous
100
AcDbLine
 10
37.5
 20
524.0
 30
0.0
 11
37.5
 21
551.0
 31
0.0
  0
LINE
  5
12CED
330
12B3F
100
AcDbEntity
  8
1
  6
Continuous
100
AcDbLine
 10
29.5
 20
522.5
 30
0.0
 11
36.0
 21
522.5
 31
0.0
  0
LINE
  5
12CEE
330
12B3F
100
AcDbEntity
  8
1
  6
Continuous
100
AcDbLine
 10
37.5
 20
525.0
 30
0.0
 11
29.5
 21
525.0
 31
0.0
  0
LINE
  5
12CEF
330
12B3F
100
AcDbEntity
  8
1
  6
Continuous
100
AcDbLine
 10
25.0
 20
523.5
 30
0.0
 11
26.5
 21
523.5
 31
0.0
  0
ARC
  5
12CF0
330
12B3F
100
AcDbEntity
  8
1
  6
Continuous
100
AcDbCircle
 10
29.5
 20
524.0
 30
0.0
 40
1.5
100
AcDbArc
 50
180.0
 51
270.0
  0
LINE
  5
12CF1
330
12B3F
100
AcDbEntity
  8
1
  6
Continuous
100
AcDbLine
 10
27.0
 20
524.0
 30
0.0
 11
28.0
 21
524.0
 31
0.0
  0
ARC
  5
12CF2
330
12B3F
100
AcDbEntity
  8
1
  6
Continuous
100
AcDbCircle
 10
29.5
 20
526.4999999999998
 30
0.0
 40
1.5
100
AcDbArc
 50
180.0
 51
270.0
  0
ARC
  5
12CF3
330
12B3F
100
AcDbEntity
  8
1
  6
Continuous
100
AcDbCircle
 10
36.0
 20
524.0
 30
0.0
 40
1.5
100
AcDbArc
 50
270.0
 51
0.0
  0
LINE
  5
12CF4
330
12B3F
100
AcDbEntity
  8
1
  6
Continuous
100
AcDbLine
 10
29.5
 20
551.0
 30
0.0
 11
37.5
 21
551.0
 31
0.0
  0
LINE
  5
12CF5
330
12B3F
100
AcDbEntity
  8
1
  6
Continuous
100
AcDbLine
 10
33.0
 20
550.0
 30
0.0
 11
26.5
 21
550.0
 31
0.0
  0
LINE
  5
12CF6
330
12B3F
100
AcDbEntity
  8
4
  6
CENTER
100
AcDbLine
 10
20.856379
 20
537.5
 30
0.0
 11
38.65052399999999
 21
537.5
 31
0.0
  0
LINE
  5
12CF7
330
12B3F
100
AcDbEntity
  8
4
  6
CENTER
100
AcDbLine
 10
24.306262
 20
535.0
 30
0.0
 11
42.5
 21
535.0
 31
0.0
  0
LINE
  5
12CF8
330
12B3F
100
AcDbEntity
  8
1
  6
Continuous
100
AcDbLine
 10
26.5
 20
548.5
 30
0.0
 11
33.0
 21
548.5
 31
0.0
  0
LINE
  5
12CF9
330
12B3F
100
AcDbEntity
  8
1
  6
Continuous
100
AcDbLine
 10
37.5
 20
541.0
 30
0.0
 11
26.5
 21
541.0
 31
0.0
  0
LINE
  5
12CFA
330
12B3F
100
AcDbEntity
  8
1
  6
Continuous
100
AcDbLine
 10
33.0
 20
544.5
 30
0.0
 11
26.5
 21
544.5
 31
0.0
  0
LINE
  5
12CFB
330
12B3F
100
AcDbEntity
  8
1
  6
Continuous
100
AcDbLine
 10
26.5
 20
546.0
 30
0.0
 11
33.0
 21
546.0
 31
0.0
  0
LINE
  5
12CFC
330
12B3F
100
AcDbEntity
  8
1
  6
Continuous
100
AcDbLine
 10
29.5
 20
550.0
 30
0.0
 11
29.5
 21
551.0
 31
0.0
  0
LINE
  5
12CFD
330
12B3F
100
AcDbEntity
  8
1
  6
Continuous
100
AcDbLine
 10
25.0
 20
537.5
 30
0.0
 11
26.5
 21
537.5
 31
0.0
  0
LINE
  5
12CFE
330
12B3F
100
AcDbEntity
  8
1
  6
Continuous
100
AcDbLine
 10
26.5
 20
544.0
 30
0.0
 11
25.0
 21
544.0
 31
0.0
  0
LINE
  5
12CFF
330
12B3F
100
AcDbEntity
  8
1
  6
Continuous
100
AcDbLine
 10
27.0
 20
544.5
 30
0.0
 11
27.0
 21
546.0
 31
0.0
  0
ARC
  5
12D00
330
12B3F
100
AcDbEntity
  8
1
  6
Continuous
100
AcDbCircle
 10
26.5
 20
548.5
 30
0.0
 40
1.5
100
AcDbArc
 50
90.0
 51
180.0
  0
LINE
  5
12D01
330
12B3F
100
AcDbEntity
  8
1
  6
Continuous
100
AcDbLine
 10
34.118034
 20
549.5
 30
0.0
 11
36.0
 21
549.5
 31
0.0
  0
LINE
  5
12D02
330
12B3F
100
AcDbEntity
  8
1
  6
Continuous
100
AcDbLine
 10
34.5
 20
545.0
 30
0.0
 11
33.0
 21
545.0
 31
0.0
  0
LINE
  5
12D03
330
12B3F
100
AcDbEntity
  8
1
  6
Continuous
100
AcDbLine
 10
33.0
 20
541.0
 30
0.0
 11
33.0
 21
548.5
 31
0.0
  0
LINE
  5
12D04
330
12B3F
100
AcDbEntity
  8
1
  6
Continuous
100
AcDbLine
 10
33.0
 20
542.4999999999998
 30
0.0
 11
34.5
 21
542.4999999999998
 31
0.0
  0
LINE
  5
12D05
330
12B3F
100
AcDbEntity
  8
1
  6
Continuous
100
AcDbLine
 10
34.5
 20
542.4999999999998
 30
0.0
 11
34.5
 21
548.5
 31
0.0
  0
LINE
  5
12D06
330
12B3F
100
AcDbEntity
  8
1
  6
Continuous
100
AcDbLine
 10
32.0
 20
544.5
 30
0.0
 11
32.0
 21
546.0
 31
0.0
  0
LINE
  5
12D07
330
12B3F
100
AcDbEntity
  8
1
  6
Continuous
100
AcDbLine
 10
36.0
 20
541.0
 30
0.0
 11
36.0
 21
551.0
 31
0.0
  0
ARC
  5
12D08
330
12B3F
100
AcDbEntity
  8
1
  6
Continuous
100
AcDbCircle
 10
33.0
 20
548.5
 30
0.0
 40
1.5
100
AcDbArc
 50
0.0
 51
90.0
  0
LINE
  5
12D09
330
12B3F
100
AcDbEntity
  8
4
  6
CENTER
100
AcDbLine
 10
125.0
 20
531.7499999999999
 30
0.0
 11
125.0
 21
543.25
 31
0.0
  0
LINE
  5
12D0A
330
12B3F
100
AcDbEntity
  8
1
  6
Continuous
100
AcDbLine
 10
109.0
 20
536.0
 30
0.0
 11
109.0
 21
525.4999999999999
 31
0.0
  0
ARC
  5
12D0B
330
12B3F
100
AcDbEntity
  8
1
  6
Continuous
100
AcDbCircle
 10
111.0
 20
525.4999999999999
 30
0.0
 40
2.0
100
AcDbArc
 50
180.0
 51
270.0
  0
LINE
  5
12D0C
330
12B3F
100
AcDbEntity
  8
1
  6
Continuous
100
AcDbLine
 10
109.0
 20
550.0
 30
0.0
 11
127.0
 21
550.0
 31
0.0
  0
LINE
  5
12D0D
330
12B3F
100
AcDbEntity
  8
1
  6
Continuous
100
AcDbLine
 10
110.4999999999999
 20
537.5
 30
0.0
 11
117.0
 21
537.5
 31
0.0
  0
LINE
  5
12D0E
330
12B3F
100
AcDbEntity
  8
1
  6
Continuous
100
AcDbLine
 10
110.0671439999999
 20
543.6783709999998
 30
0.0
 11
117.577141
 21
541.4149169999998
 31
0.0
  0
LINE
  5
12D0F
330
12B3F
100
AcDbEntity
  8
1
  6
Continuous
100
AcDbLine
 10
110.4999999999999
 20
545.0
 30
0.0
 11
126.784882
 21
545.0
 31
0.0
  0
ARC
  5
12D10
330
12B3F
100
AcDbEntity
  8
1
  6
Continuous
100
AcDbCircle
 10
110.4999999999999
 20
536.0
 30
0.0
 40
1.5
100
AcDbArc
 50
90.0
 51
180.0
  0
ARC
  5
12D11
330
12B3F
100
AcDbEntity
  8
1
  6
Continuous
100
AcDbCircle
 10
110.4999999999999
 20
545.114559
 30
0.0
 40
1.5
100
AcDbArc
 50
180.0
 51
253.2276069999999
  0
ARC
  5
12D12
330
12B3F
100
AcDbEntity
  8
1
  6
Continuous
100
AcDbCircle
 10
110.4999999999999
 20
546.4999999999998
 30
0.0
 40
1.5
100
AcDbArc
 50
180.0
 51
270.0
  0
LINE
  5
12D13
330
12B3F
100
AcDbEntity
  8
1
  6
Continuous
100
AcDbLine
 10
109.0
 20
550.0
 30
0.0
 11
109.0
 21
545.114559
 31
0.0
  0
ARC
  5
12D14
330
12B3F
100
AcDbEntity
  8
1
  6
Continuous
100
AcDbCircle
 10
117.0
 20
539.5
 30
0.0
 40
2.0
100
AcDbArc
 50
270.0
 51
73.22760699999998
  0
CIRCLE
  5
12D15
330
12B3F
100
AcDbEntity
  8
1
  6
Continuous
100
AcDbCircle
 10
125.0
 20
537.5
 30
0.0
 40
2.399999999999999
  0
LINE
  5
12D16
330
12B3F
100
AcDbEntity
  8
4
  6
CENTER
100
AcDbLine
 10
135.0
 20
530.75
 30
0.0
 11
135.0
 21
544.2499999999999
 31
0.0
  0
ARC
  5
12D17
330
12B3F
100
AcDbEntity
  8
1
  6
Continuous
100
AcDbCircle
 10
135.0
 20
536.5
 30
0.0
 40
3.75
100
AcDbArc
 50
180.0
 51
0.0
  0
ARC
  5
12D18
330
12B3F
100
AcDbEntity
  8
1
  6
Continuous
100
AcDbCircle
 10
135.0
 20
538.4999999999998
 30
0.0
 40
3.75
100
AcDbArc
 50
0.0
 51
180.0
  0
LINE
  5
12D19
330
12B3F
100
AcDbEntity
  8
1
  6
Continuous
100
AcDbLine
 10
131.25
 20
536.5
 30
0.0
 11
131.25
 21
538.4999999999998
 31
0.0
  0
LINE
  5
12D1A
330
12B3F
100
AcDbEntity
  8
1
  6
Continuous
100
AcDbLine
 10
137.4
 20
536.5
 30
0.0
 11
137.4
 21
538.4999999999998
 31
0.0
  0
ARC
  5
12D1B
330
12B3F
100
AcDbEntity
  8
1
  6
Continuous
100
AcDbCircle
 10
135.0
 20
536.5
 30
0.0
 40
2.399999999999999
100
AcDbArc
 50
180.0
 51
0.0
  0
LINE
  5
12D1C
330
12B3F
100
AcDbEntity
  8
1
  6
Continuous
100
AcDbLine
 10
132.6
 20
536.5
 30
0.0
 11
132.6
 21
538.4999999999998
 31
0.0
  0
ARC
  5
12D1D
330
12B3F
100
AcDbEntity
  8
1
  6
Continuous
100
AcDbCircle
 10
135.0
 20
538.4999999999998
 30
0.0
 40
2.399999999999999
100
AcDbArc
 50
0.0
 51
180.0
  0
LINE
  5
12D1E
330
12B3F
100
AcDbEntity
  8
1
  6
Continuous
100
AcDbLine
 10
138.7499999999998
 20
536.5
 30
0.0
 11
138.7499999999998
 21
538.4999999999998
 31
0.0
  0
LINE
  5
12D1F
330
12B3F
100
AcDbEntity
  8
1
  6
Continuous
100
AcDbLine
 10
156.0
 20
707.0
 30
0.0
 11
127.0
 21
704.4999999999999
 31
0.0
  0
LINE
  5
12D20
330
12B3F
100
AcDbEntity
  8
4
  6
CENTER
100
AcDbLine
 10
119.25
 20
717.0
 30
0.0
 11
140.7499999999998
 21
717.0
 31
0.0
  0
LINE
  5
12D21
330
12B3F
100
AcDbEntity
  8
1
  6
Continuous
100
AcDbLine
 10
142.0
 20
708.0
 30
0.0
 11
115.5
 21
708.0
 31
0.0
  0
LINE
  5
12D22
330
12B3F
100
AcDbEntity
  8
1
  6
Continuous
100
AcDbLine
 10
143.198508
 20
707.4019859999999
 30
0.0
 11
126.9354649999998
 21
706.0
 31
0.0
  0
LINE
  5
12D23
330
12B3F
100
AcDbEntity
  8
1
  6
Continuous
100
AcDbLine
 10
143.5
 20
632.0
 30
0.0
 11
114.0
 21
632.0
 31
0.0
  0
LINE
  5
12D24
330
12B3F
100
AcDbEntity
  8
1
  6
Continuous
100
AcDbLine
 10
142.0
 20
629.0
 30
0.0
 11
115.5
 21
629.0
 31
0.0
  0
LINE
  5
12D25
330
12B3F
100
AcDbEntity
  8
1
  6
Continuous
100
AcDbLine
 10
109.0
 20
633.4999999999999
 30
0.0
 11
109.0
 21
624.0
 31
0.0
  0
LINE
  5
12D26
330
12B3F
100
AcDbEntity
  8
1
  6
Continuous
100
AcDbLine
 10
127.0
 20
628.084313
 30
0.0
 11
127.0
 21
624.799484
 31
0.0
  0
LINE
  5
12D27
330
12B3F
100
AcDbEntity
  8
1
  6
Continuous
100
AcDbLine
 10
114.0
 20
630.4999999999997
 30
0.0
 11
114.0
 21
633.4999999999999
 31
0.0
  0
ARC
  5
12D28
330
12B3F
100
AcDbEntity
  8
1
  6
Continuous
100
AcDbCircle
 10
115.5
 20
630.4999999999997
 30
0.0
 40
1.5
100
AcDbArc
 50
180.0
 51
270.0
  0
LINE
  5
12D29
330
12B3F
100
AcDbEntity
  8
4
  6
CENTER
100
AcDbLine
 10
125.0
 20
636.5
 30
0.0
 11
125.0
 21
630.0
 31
0.0
  0
ARC
  5
12D2A
330
12B3F
100
AcDbEntity
  8
1
  6
Continuous
100
AcDbCircle
 10
115.5
 20
706.5
 30
0.0
 40
1.5
100
AcDbArc
 50
90.0
 51
180.0
  0
LINE
  5
12D2B
330
12B3F
100
AcDbEntity
  8
1
  6
Continuous
100
AcDbLine
 10
109.0
 20
704.4999999999999
 30
0.0
 11
109.0
 21
709.385441
 31
0.0
  0
LINE
  5
12D2C
330
12B3F
100
AcDbEntity
  8
1
  6
Continuous
100
AcDbLine
 10
109.0
 20
704.4999999999999
 30
0.0
 11
127.0
 21
704.4999999999999
 31
0.0
  0
LINE
  5
12D2D
330
12B3F
100
AcDbEntity
  8
1
  6
Continuous
100
AcDbLine
 10
114.0
 20
706.0
 30
0.0
 11
126.9354649999998
 21
706.0
 31
0.0
  0
LINE
  5
12D2E
330
12B3F
100
AcDbEntity
  8
1
  6
Continuous
100
AcDbLine
 10
114.0
 20
704.4999999999999
 30
0.0
 11
114.0
 21
706.5
 31
0.0
  0
ARC
  5
12D2F
330
12B3F
100
AcDbEntity
  8
1
  6
Continuous
100
AcDbCircle
 10
111.0
 20
729.0
 30
0.0
 40
2.0
100
AcDbArc
 50
90.0
 51
180.0
  0
LINE
  5
12D30
330
12B3F
100
AcDbEntity
  8
1
  6
Continuous
100
AcDbLine
 10
110.0671439999999
 20
710.821629
 30
0.0
 11
117.577141
 21
713.0850830000001
 31
0.0
  0
LINE
  5
12D31
330
12B3F
100
AcDbEntity
  8
1
  6
Continuous
100
AcDbLine
 10
110.4999999999999
 20
717.0
 30
0.0
 11
117.0
 21
717.0
 31
0.0
  0
ARC
  5
12D32
330
12B3F
100
AcDbEntity
  8
1
  6
Continuous
100
AcDbCircle
 10
110.4999999999999
 20
709.385441
 30
0.0
 40
1.5
100
AcDbArc
 50
106.7723929999998
 51
180.0
  0
ARC
  5
12D33
330
12B3F
100
AcDbEntity
  8
1
  6
Continuous
100
AcDbCircle
 10
110.4999999999999
 20
718.5
 30
0.0
 40
1.5
100
AcDbArc
 50
180.0
 51
270.0
  0
LINE
  5
12D34
330
12B3F
100
AcDbEntity
  8
1
  6
Continuous
100
AcDbLine
 10
109.0
 20
718.5
 30
0.0
 11
109.0
 21
729.0
 31
0.0
  0
CIRCLE
  5
12D35
330
12B3F
100
AcDbEntity
  8
1
  6
Continuous
100
AcDbCircle
 10
125.0
 20
717.0
 30
0.0
 40
2.399999999999999
  0
LINE
  5
12D36
330
12B3F
100
AcDbEntity
  8
4
  6
CENTER
100
AcDbLine
 10
125.0
 20
722.75
 30
0.0
 11
125.0
 21
711.2499999999997
 31
0.0
  0
ARC
  5
12D37
330
12B3F
100
AcDbEntity
  8
1
  6
Continuous
100
AcDbCircle
 10
117.0
 20
715.0
 30
0.0
 40
2.0
100
AcDbArc
 50
286.772393
 51
90.0
  0
ARC
  5
12D38
330
12B3F
100
AcDbEntity
  8
1
  6
Continuous
100
AcDbCircle
 10
142.0
 20
630.4999999999997
 30
0.0
 40
1.5
100
AcDbArc
 50
270.0
 51
0.0
  0
LINE
  5
12D39
330
12B3F
100
AcDbEntity
  8
1
  6
Continuous
100
AcDbLine
 10
143.5
 20
633.4999999999999
 30
0.0
 11
143.5
 21
630.4999999999997
 31
0.0
  0
LINE
  5
12D3A
330
12B3F
100
AcDbEntity
  8
4
  6
CENTER
100
AcDbLine
 10
135.0
 20
636.5
 30
0.0
 11
135.0
 21
630.0
 31
0.0
  0
LINE
  5
12D3B
330
12B3F
100
AcDbEntity
  8
1
  6
Continuous
100
AcDbLine
 10
156.0
 20
632.5
 30
0.0
 11
156.0
 21
625.0
 31
0.0
  0
ARC
  5
12D3C
330
12B3F
100
AcDbEntity
  8
1
  6
Continuous
100
AcDbCircle
 10
142.0
 20
706.5
 30
0.0
 40
1.5
100
AcDbArc
 50
0.0
 51
90.0
  0
LINE
  5
12D3D
330
12B3F
100
AcDbEntity
  8
1
  6
Continuous
100
AcDbLine
 10
143.5
 20
705.922414
 30
0.0
 11
143.5
 21
706.5
 31
0.0
  0
ARC
  5
12D3E
330
12B3F
100
AcDbEntity
  8
1
  6
Continuous
100
AcDbCircle
 10
135.0
 20
716.0
 30
0.0
 40
2.399999999999999
100
AcDbArc
 50
180.0
 51
0.0
  0
LINE
  5
12D3F
330
12B3F
100
AcDbEntity
  8
1
  6
Continuous
100
AcDbLine
 10
132.6
 20
718.0
 30
0.0
 11
132.6
 21
716.0
 31
0.0
  0
ARC
  5
12D40
330
12B3F
100
AcDbEntity
  8
1
  6
Continuous
100
AcDbCircle
 10
135.0
 20
718.0
 30
0.0
 40
2.399999999999999
100
AcDbArc
 50
0.0
 51
180.0
  0
LINE
  5
12D41
330
12B3F
100
AcDbEntity
  8
1
  6
Continuous
100
AcDbLine
 10
137.4
 20
718.0
 30
0.0
 11
137.4
 21
716.0
 31
0.0
  0
LINE
  5
12D42
330
12B3F
100
AcDbEntity
  8
4
  6
CENTER
100
AcDbLine
 10
135.0
 20
723.7499999999998
 30
0.0
 11
135.0
 21
710.25
 31
0.0
  0
LINE
  5
12D43
330
12B3F
100
AcDbEntity
  8
4
  6
CENTER
100
AcDbLine
 10
506.0
 20
537.5
 30
0.0
 11
459.25
 21
537.5
 31
0.0
  0
LINE
  5
12D44
330
12B3F
100
AcDbEntity
  8
1
  6
Continuous
100
AcDbLine
 10
489.5781949999998
 20
525.0
 30
0.0
 11
454.4999999999998
 21
525.0
 31
0.0
  0
LINE
  5
12D45
330
12B3F
100
AcDbEntity
  8
4
  6
CENTER
100
AcDbLine
 10
454.25
 20
535.0
 30
0.0
 11
475.75
 21
535.0
 31
0.0
  0
LINE
  5
12D46
330
12B3F
100
AcDbEntity
  8
3
  6
DASHED
100
AcDbLine
 10
481.5
 20
546.0
 30
0.0
 11
485.5
 21
547.5
 31
0.0
  0
LINE
  5
12D47
330
12B3F
100
AcDbEntity
  8
1
  6
Continuous
100
AcDbLine
 10
473.0
 20
549.5
 30
0.0
 11
469.0
 21
551.0
 31
0.0
  0
LINE
  5
12D48
330
12B3F
100
AcDbEntity
  8
1
  6
Continuous
100
AcDbLine
 10
469.0
 20
551.0
 30
0.0
 11
407.5
 21
551.0
 31
0.0
  0
LINE
  5
12D49
330
12B3F
100
AcDbEntity
  8
4
  6
CENTER
100
AcDbLine
 10
436.0
 20
535.0
 30
0.0
 11
406.0
 21
535.0
 31
0.0
  0
LINE
  5
12D4A
330
12B3F
100
AcDbEntity
  8
3
  6
DASHED
100
AcDbLine
 10
480.0
 20
547.5
 30
0.0
 11
405.4999999999997
 21
547.5
 31
0.0
  0
LINE
  5
12D4B
330
12B3F
100
AcDbEntity
  8
1
  6
Continuous
100
AcDbLine
 10
449.5
 20
525.0
 30
0.0
 11
404.0
 21
525.0
 31
0.0
  0
LINE
  5
12D4C
330
12B3F
100
AcDbEntity
  8
3
  6
DASHED
100
AcDbLine
 10
478.5
 20
542.4999999999998
 30
0.0
 11
403.0
 21
542.4999999999998
 31
0.0
  0
LINE
  5
12D4D
330
12B3F
100
AcDbEntity
  8
4
  6
CENTER
100
AcDbLine
 10
405.7999999999998
 20
546.95
 30
0.0
 11
413.3
 21
546.95
 31
0.0
  0
CIRCLE
  5
12D4E
330
12B3F
100
AcDbEntity
  8
1
  6
Continuous
100
AcDbCircle
 10
409.55
 20
546.95
 30
0.0
 40
1.75
  0
LINE
  5
12D4F
330
12B3F
100
AcDbEntity
  8
4
  6
CENTER
100
AcDbLine
 10
380.0
 20
531.7499999999999
 30
0.0
 11
380.0
 21
543.25
 31
0.0
  0
LINE
  5
12D50
330
12B3F
100
AcDbEntity
  8
1
  6
Continuous
100
AcDbLine
 10
404.0
 20
525.0
 30
0.0
 11
404.0
 21
541.0
 31
0.0
  0
LINE
  5
12D51
330
12B3F
100
AcDbEntity
  8
4
  6
CENTER
100
AcDbLine
 10
370.0
 20
530.75
 30
0.0
 11
370.0
 21
544.2499999999999
 31
0.0
  0
LINE
  5
12D52
330
12B3F
100
AcDbEntity
  8
4
  6
CENTER
100
AcDbLine
 10
385.7499999999999
 20
537.5
 30
0.0
 11
364.25
 21
537.5
 31
0.0
  0
CIRCLE
  5
12D53
330
12B3F
100
AcDbEntity
  8
1
  6
Continuous
100
AcDbCircle
 10
380.0
 20
537.5
 30
0.0
 40
3.75
  0
ARC
  5
12D54
330
12B3F
100
AcDbEntity
  8
1
  6
Continuous
100
AcDbCircle
 10
370.0
 20
538.4999999999998
 30
0.0
 40
3.75
100
AcDbArc
 50
0.0
 51
180.0
  0
ARC
  5
12D55
330
12B3F
100
AcDbEntity
  8
1
  6
Continuous
100
AcDbCircle
 10
370.0
 20
536.5
 30
0.0
 40
3.75
100
AcDbArc
 50
180.0
 51
0.0
  0
LINE
  5
12D56
330
12B3F
100
AcDbEntity
  8
1
  6
Continuous
100
AcDbLine
 10
366.25
 20
536.5
 30
0.0
 11
366.25
 21
538.4999999999998
 31
0.0
  0
ARC
  5
12D57
330
12B3F
100
AcDbEntity
  8
1
  6
Continuous
100
AcDbCircle
 10
370.0
 20
538.4999999999998
 30
0.0
 40
2.399999999999999
100
AcDbArc
 50
0.0
 51
180.0
  0
ARC
  5
12D58
330
12B3F
100
AcDbEntity
  8
1
  6
Continuous
100
AcDbCircle
 10
370.0
 20
536.5
 30
0.0
 40
2.399999999999999
100
AcDbArc
 50
180.0
 51
0.0
  0
LINE
  5
12D59
330
12B3F
100
AcDbEntity
  8
1
  6
Continuous
100
AcDbLine
 10
372.3999999999999
 20
536.5
 30
0.0
 11
372.3999999999999
 21
538.4999999999998
 31
0.0
  0
LINE
  5
12D5A
330
12B3F
100
AcDbEntity
  8
1
  6
Continuous
100
AcDbLine
 10
367.6
 20
536.5
 30
0.0
 11
367.6
 21
538.4999999999998
 31
0.0
  0
LINE
  5
12D5B
330
12B3F
100
AcDbEntity
  8
1
  6
Continuous
100
AcDbLine
 10
373.75
 20
536.5
 30
0.0
 11
373.75
 21
538.4999999999998
 31
0.0
  0
CIRCLE
  5
12D5C
330
12B3F
100
AcDbEntity
  8
1
  6
Continuous
100
AcDbCircle
 10
380.0
 20
537.5
 30
0.0
 40
2.399999999999999
  0
LINE
  5
12D5D
330
12B3F
100
AcDbEntity
  8
1
  6
Continuous
100
AcDbLine
 10
403.0
 20
544.5
 30
0.0
 11
403.0
 21
541.0
 31
0.0
  0
LINE
  5
12D5E
330
12B3F
100
AcDbEntity
  8
1
  6
Continuous
100
AcDbLine
 10
405.4999999999997
 20
544.5
 30
0.0
 11
403.0
 21
544.5
 31
0.0
  0
LINE
  5
12D5F
330
12B3F
100
AcDbEntity
  8
1
  6
Continuous
100
AcDbLine
 10
405.4999999999997
 20
541.0
 30
0.0
 11
403.0
 21
541.0
 31
0.0
  0
LINE
  5
12D60
330
12B3F
100
AcDbEntity
  8
1
  6
Continuous
100
AcDbLine
 10
405.4999999999997
 20
549.0
 30
0.0
 11
405.4999999999997
 21
541.0
 31
0.0
  0
LINE
  5
12D61
330
12B3F
100
AcDbEntity
  8
4
  6
CENTER
100
AcDbLine
 10
460.0
 20
529.6
 30
0.0
 11
460.0
 21
540.3999999999999
 31
0.0
  0
LINE
  5
12D62
330
12B3F
100
AcDbEntity
  8
4
  6
CENTER
100
AcDbLine
 10
470.0
 20
528.6
 30
0.0
 11
470.0
 21
541.3999999999998
 31
0.0
  0
ARC
  5
12D63
330
12B3F
100
AcDbEntity
  8
1
  6
Continuous
100
AcDbCircle
 10
470.0
 20
534.0
 30
0.0
 40
2.399999999999999
100
AcDbArc
 50
180.0
 51
0.0
  0
CIRCLE
  5
12D64
330
12B3F
100
AcDbEntity
  8
1
  6
Continuous
100
AcDbCircle
 10
421.0
 20
535.0
 30
0.0
 40
3.0
  0
CIRCLE
  5
12D65
330
12B3F
100
AcDbEntity
  8
1
  6
Continuous
100
AcDbCircle
 10
421.0
 20
535.0
 30
0.0
 40
5.0
  0
ARC
  5
12D66
330
12B3F
100
AcDbEntity
  8
3
  6
DASHED
100
AcDbCircle
 10
421.0
 20
535.0
 30
0.0
 40
11.0
100
AcDbArc
 50
294.619977
 51
245.380023
  0
LINE
  5
12D67
330
12B3F
100
AcDbEntity
  8
4
  6
CENTER
100
AcDbLine
 10
421.0
 20
520.0
 30
0.0
 11
421.0
 21
550.0
 31
0.0
  0
ARC
  5
12D68
330
12B3F
100
AcDbEntity
  8
1
  6
Continuous
100
AcDbCircle
 10
421.0
 20
535.0
 30
0.0
 40
11.0
100
AcDbArc
 50
245.380023
 51
294.619977
  0
LINE
  5
12D69
330
12B3F
100
AcDbEntity
  8
1
  6
Continuous
100
AcDbLine
 10
453.5
 20
526.4999999999998
 30
0.0
 11
449.5
 21
525.0
 31
0.0
  0
LINE
  5
12D6A
330
12B3F
100
AcDbEntity
  8
1
  6
Continuous
100
AcDbLine
 10
454.4999999999998
 20
525.0
 30
0.0
 11
454.4999999999998
 21
526.4999999999998
 31
0.0
  0
LINE
  5
12D6B
330
12B3F
100
AcDbEntity
  8
1
  6
Continuous
100
AcDbLine
 10
454.4999999999998
 20
526.4999999999998
 30
0.0
 11
453.5
 21
526.4999999999998
 31
0.0
  0
LINE
  5
12D6C
330
12B3F
100
AcDbEntity
  8
3
  6
DASHED
100
AcDbLine
 10
426.900072
 20
544.2868959999998
 30
0.0
 11
424.544554
 21
546.0
 31
0.0
  0
LINE
  5
12D6D
330
12B3F
100
AcDbEntity
  8
4
  6
CENTER
100
AcDbLine
 10
409.55
 20
543.2
 30
0.0
 11
409.55
 21
550.7
 31
0.0
  0
LINE
  5
12D6E
330
12B3F
100
AcDbEntity
  8
4
  6
CENTER
100
AcDbLine
 10
429.25
 20
543.0
 30
0.0
 11
440.7499999999997
 21
543.0
 31
0.0
  0
LINE
  5
12D6F
330
12B3F
100
AcDbEntity
  8
3
  6
DASHED
100
AcDbLine
 10
428.664588
 20
544.2868959999998
 30
0.0
 11
431.0201059999998
 21
546.0
 31
0.0
  0
ARC
  5
12D70
330
12B3F
100
AcDbEntity
  8
3
  6
DASHED
100
AcDbCircle
 10
427.78233
 20
545.5
 30
0.0
 40
1.5
100
AcDbArc
 50
233.9726269999999
 51
306.027373
  0
LINE
  5
12D71
330
12B3F
100
AcDbEntity
  8
4
  6
CENTER
100
AcDbLine
 10
435.0
 20
537.25
 30
0.0
 11
435.0
 21
548.7499999999998
 31
0.0
  0
CIRCLE
  5
12D72
330
12B3F
100
AcDbEntity
  8
1
  6
Continuous
100
AcDbCircle
 10
435.0
 20
543.0
 30
0.0
 40
2.399999999999999
  0
CIRCLE
  5
12D73
330
12B3F
100
AcDbEntity
  8
1
  6
Continuous
100
AcDbCircle
 10
460.0
 20
535.0
 30
0.0
 40
2.399999999999999
  0
LINE
  5
12D74
330
12B3F
100
AcDbEntity
  8
3
  6
DASHED
100
AcDbLine
 10
481.5
 20
546.0
 30
0.0
 11
480.0
 21
546.0
 31
0.0
  0
LINE
  5
12D75
330
12B3F
100
AcDbEntity
  8
3
  6
DASHED
100
AcDbLine
 10
480.0
 20
544.0
 30
0.0
 11
480.0
 21
547.5
 31
0.0
  0
LINE
  5
12D76
330
12B3F
100
AcDbEntity
  8
1
  6
Continuous
100
AcDbLine
 10
467.6
 20
534.0
 30
0.0
 11
467.6
 21
536.0
 31
0.0
  0
LINE
  5
12D77
330
12B3F
100
AcDbEntity
  8
1
  6
Continuous
100
AcDbLine
 10
472.4
 20
534.0
 30
0.0
 11
472.4
 21
536.0
 31
0.0
  0
ARC
  5
12D78
330
12B3F
100
AcDbEntity
  8
1
  6
Continuous
100
AcDbCircle
 10
470.0
 20
536.0
 30
0.0
 40
2.399999999999999
100
AcDbArc
 50
0.0
 51
180.0
  0
ARC
  5
12D79
330
12B3F
100
AcDbEntity
  8
3
  6
DASHED
100
AcDbCircle
 10
478.5
 20
544.0
 30
0.0
 40
1.5
100
AcDbArc
 50
270.0
 51
0.0
  0
LINE
  5
12D7A
330
12B3F
100
AcDbEntity
  8
3
  6
DASHED
100
AcDbLine
 10
503.691288
 20
531.5
 30
0.0
 11
504.0631219999998
 21
532.464641
 31
0.0
  0
LINE
  5
12D7B
330
12B3F
100
AcDbEntity
  8
3
  6
DASHED
100
AcDbLine
 10
502.0837089999998
 20
531.5
 30
0.0
 11
502.6635019999998
 21
533.004144
 31
0.0
  0
LINE
  5
12D7C
330
12B3F
100
AcDbEntity
  8
4
  6
CENTER
100
AcDbLine
 10
491.0
 20
522.5
 30
0.0
 11
491.0
 21
552.5
 31
0.0
  0
ARC
  5
12D7D
330
12B3F
100
AcDbEntity
  8
1
  6
Continuous
100
AcDbCircle
 10
497.627489
 20
525.4999999999999
 30
0.0
 40
2.0
100
AcDbArc
 50
270.0
 51
338.920162
  0
LINE
  5
12D7E
330
12B3F
100
AcDbEntity
  8
3
  6
DASHED
100
AcDbLine
 10
503.3355409999998
 20
527.7967559999998
 30
0.0
 11
501.0692399999999
 21
528.8681839999997
 31
0.0
  0
LINE
  5
12D7F
330
12B3F
100
AcDbEntity
  8
3
  6
DASHED
100
AcDbLine
 10
504.597809
 20
531.0714289999999
 30
0.0
 11
503.691288
 21
531.5
 31
0.0
  0
LINE
  5
12D80
330
12B3F
100
AcDbEntity
  8
3
  6
DASHED
100
AcDbLine
 10
503.3355409999998
 20
527.7967559999998
 30
0.0
 11
504.597809
 21
531.0714289999999
 31
0.0
  0
LINE
  5
12D81
330
12B3F
100
AcDbEntity
  8
3
  6
DASHED
100
AcDbLine
 10
503.691288
 20
531.5
 30
0.0
 11
502.0837089999998
 21
531.5
 31
0.0
  0
LINE
  5
12D82
330
12B3F
100
AcDbEntity
  8
1
  6
Continuous
100
AcDbLine
 10
499.4936489999998
 20
524.780663
 30
0.0
 11
499.578195
 21
525.0
 31
0.0
  0
LINE
  5
12D83
330
12B3F
100
AcDbEntity
  8
3
  6
DASHED
100
AcDbLine
 10
499.578195
 20
525.0
 30
0.0
 11
502.0837089999998
 21
531.5
 31
0.0
  0
LINE
  5
12D84
330
12B3F
100
AcDbEntity
  8
3
  6
DASHED
100
AcDbLine
 10
501.4999999999998
 20
547.5
 30
0.0
 11
485.5
 21
547.5
 31
0.0
  0
LINE
  5
12D85
330
12B3F
100
AcDbEntity
  8
1
  6
Continuous
100
AcDbLine
 10
474.0
 20
549.5
 30
0.0
 11
474.0
 21
551.0
 31
0.0
  0
LINE
  5
12D86
330
12B3F
100
AcDbEntity
  8
1
  6
Continuous
100
AcDbLine
 10
473.0
 20
549.5
 30
0.0
 11
474.0
 21
549.5
 31
0.0
  0
LINE
  5
12D87
330
12B3F
100
AcDbEntity
  8
3
  6
DASHED
100
AcDbLine
 10
505.0
 20
541.5
 30
0.0
 11
503.5
 21
541.5
 31
0.0
  0
ARC
  5
12D88
330
12B3F
100
AcDbEntity
  8
3
  6
DASHED
100
AcDbCircle
 10
491.0
 20
537.5
 30
0.0
 40
14.0
100
AcDbArc
 50
338.920162
 51
0.0
  0
ARC
  5
12D89
330
12B3F
100
AcDbEntity
  8
3
  6
DASHED
100
AcDbCircle
 10
501.4999999999998
 20
545.5
 30
0.0
 40
2.0
100
AcDbArc
 50
0.0
 51
90.0
  0
LINE
  5
12D8A
330
12B3F
100
AcDbEntity
  8
3
  6
DASHED
100
AcDbLine
 10
503.5
 20
537.5
 30
0.0
 11
503.5
 21
545.5
 31
0.0
  0
ARC
  5
12D8B
330
12B3F
100
AcDbEntity
  8
3
  6
DASHED
100
AcDbCircle
 10
491.0
 20
537.5
 30
0.0
 40
12.5
100
AcDbArc
 50
338.920162
 51
0.0
  0
LINE
  5
12D8C
330
12B3F
100
AcDbEntity
  8
3
  6
DASHED
100
AcDbLine
 10
505.0
 20
537.5
 30
0.0
 11
505.0
 21
541.5
 31
0.0
  0
LINE
  5
12D8D
330
12B3F
100
AcDbEntity
  8
4
  6
CENTER
100
AcDbLine
 10
568.5
 20
529.25
 30
0.0
 11
568.5
 21
540.7499999999998
 31
0.0
  0
CIRCLE
  5
12D8E
330
12B3F
100
AcDbEntity
  8
1
  6
Continuous
100
AcDbCircle
 10
568.5
 20
535.0
 30
0.0
 40
2.399999999999999
  0
LINE
  5
12D8F
330
12B3F
100
AcDbEntity
  8
3
  6
DASHED
100
AcDbLine
 10
499.578195
 20
729.4999999999999
 30
0.0
 11
454.4999999999998
 21
729.4999999999999
 31
0.0
  0
LINE
  5
12D90
330
12B3F
100
AcDbEntity
  8
4
  6
CENTER
100
AcDbLine
 10
506.0
 20
717.0
 30
0.0
 11
459.25
 21
717.0
 31
0.0
  0
ARC
  5
12D91
330
12B3F
100
AcDbEntity
  8
3
  6
DASHED
100
AcDbCircle
 10
491.0
 20
717.0
 30
0.0
 40
11.0
100
AcDbArc
 50
294.619977
 51
245.380023
  0
LINE
  5
12D92
330
12B3F
100
AcDbEntity
  8
3
  6
DASHED
100
AcDbLine
 10
501.698246
 20
724.0
 30
0.0
 11
455.4999999999998
 21
724.0
 31
0.0
  0
LINE
  5
12D93
330
12B3F
100
AcDbEntity
  8
4
  6
CENTER
100
AcDbLine
 10
454.25
 20
719.5
 30
0.0
 11
475.75
 21
719.5
 31
0.0
  0
LINE
  5
12D94
330
12B3F
100
AcDbEntity
  8
1
  6
Continuous
100
AcDbLine
 10
481.0
 20
708.4999999999999
 30
0.0
 11
485.0
 21
707.0
 31
0.0
  0
LINE
  5
12D95
330
12B3F
100
AcDbEntity
  8
1
  6
Continuous
100
AcDbLine
 10
473.0
 20
705.0
 30
0.0
 11
469.0
 21
703.5
 31
0.0
  0
LINE
  5
12D96
330
12B3F
100
AcDbEntity
  8
1
  6
Continuous
100
AcDbLine
 10
503.5
 20
632.0
 30
0.0
 11
480.0
 21
632.0
 31
0.0
  0
LINE
  5
12D97
330
12B3F
100
AcDbEntity
  8
1
  6
Continuous
100
AcDbLine
 10
474.0
 20
622.5
 30
0.0
 11
405.4999999999997
 21
622.5
 31
0.0
  0
LINE
  5
12D98
330
12B3F
100
AcDbEntity
  8
4
  6
CENTER
100
AcDbLine
 10
370.0
 20
636.5
 30
0.0
 11
370.0
 21
630.0
 31
0.0
  0
LINE
  5
12D99
330
12B3F
100
AcDbEntity
  8
4
  6
CENTER
100
AcDbLine
 10
380.0
 20
636.5
 30
0.0
 11
380.0
 21
630.0
 31
0.0
  0
LINE
  5
12D9A
330
12B3F
100
AcDbEntity
  8
1
  6
Continuous
100
AcDbLine
 10
404.0
 20
622.5
 30
0.0
 11
404.0
 21
624.0
 31
0.0
  0
LINE
  5
12D9B
330
12B3F
100
AcDbEntity
  8
1
  6
Continuous
100
AcDbLine
 10
405.4999999999997
 20
624.0
 30
0.0
 11
405.4999999999997
 21
621.0
 31
0.0
  0
ARC
  5
12D9C
330
12B3F
100
AcDbEntity
  8
1
  6
Continuous
100
AcDbCircle
 10
405.4999999999997
 20
622.5
 30
0.0
 40
1.5
100
AcDbArc
 50
180.0
 51
270.0
  0
LINE
  5
12D9D
330
12B3F
100
AcDbEntity
  8
3
  6
DASHED
100
AcDbLine
 10
405.4999999999997
 20
630.4999999999997
 30
0.0
 11
404.0
 21
630.4999999999997
 31
0.0
  0
LINE
  5
12D9E
330
12B3F
100
AcDbEntity
  8
3
  6
DASHED
100
AcDbLine
 10
405.4999999999997
 20
630.4999999999997
 30
0.0
 11
405.4999999999997
 21
624.0
 31
0.0
  0
LINE
  5
12D9F
330
12B3F
100
AcDbEntity
  8
3
  6
DASHED
100
AcDbLine
 10
404.0
 20
624.0
 30
0.0
 11
404.0
 21
630.4999999999997
 31
0.0
  0
LINE
  5
12DA0
330
12B3F
100
AcDbEntity
  8
4
  6
CENTER
100
AcDbLine
 10
460.0
 20
618.0
 30
0.0
 11
460.0
 21
624.5
 31
0.0
  0
LINE
  5
12DA1
330
12B3F
100
AcDbEntity
  8
4
  6
CENTER
100
AcDbLine
 10
470.0
 20
618.0
 30
0.0
 11
470.0
 21
624.5
 31
0.0
  0
LINE
  5
12DA2
330
12B3F
100
AcDbEntity
  8
4
  6
CENTER
100
AcDbLine
 10
435.0
 20
618.0
 30
0.0
 11
435.0
 21
624.5
 31
0.0
  0
LINE
  5
12DA3
330
12B3F
100
AcDbEntity
  8
4
  6
CENTER
100
AcDbLine
 10
409.55
 20
618.0
 30
0.0
 11
409.55
 21
624.5
 31
0.0
  0
LINE
  5
12DA4
330
12B3F
100
AcDbEntity
  8
4
  6
CENTER
100
AcDbLine
 10
421.0
 20
616.7314709999999
 30
0.0
 11
421.0
 21
637.1142519999997
 31
0.0
  0
LINE
  5
12DA5
330
12B3F
100
AcDbEntity
  8
1
  6
Continuous
100
AcDbLine
 10
430.53233
 20
631.5
 30
0.0
 11
425.0323299999998
 21
631.5
 31
0.0
  0
LINE
  5
12DA6
330
12B3F
100
AcDbEntity
  8
1
  6
Continuous
100
AcDbLine
 10
430.53233
 20
626.0
 30
0.0
 11
425.0323299999998
 21
626.0
 31
0.0
  0
LINE
  5
12DA7
330
12B3F
100
AcDbEntity
  8
3
  6
DASHED
100
AcDbLine
 10
432.0
 20
626.5
 30
0.0
 11
410.0
 21
626.5
 31
0.0
  0
LINE
  5
12DA8
330
12B3F
100
AcDbEntity
  8
1
  6
Continuous
100
AcDbLine
 10
427.0
 20
623.5
 30
0.0
 11
415.0
 21
623.5
 31
0.0
  0
LINE
  5
12DA9
330
12B3F
100
AcDbEntity
  8
3
  6
DASHED
100
AcDbLine
 10
427.0
 20
625.0
 30
0.0
 11
415.0
 21
625.0
 31
0.0
  0
LINE
  5
12DAA
330
12B3F
100
AcDbEntity
  8
1
  6
Continuous
100
AcDbLine
 10
425.0323299999998
 20
626.0
 30
0.0
 11
425.0323299999998
 21
631.5
 31
0.0
  0
LINE
  5
12DAB
330
12B3F
100
AcDbEntity
  8
1
  6
Continuous
100
AcDbLine
 10
415.2071069999998
 20
623.2071069999998
 30
0.0
 11
414.5
 21
622.5
 31
0.0
  0
LINE
  5
12DAC
330
12B3F
100
AcDbEntity
  8
3
  6
DASHED
100
AcDbLine
 10
410.0
 20
626.5
 30
0.0
 11
410.0
 21
631.5
 31
0.0
  0
LINE
  5
12DAD
330
12B3F
100
AcDbEntity
  8
1
  6
Continuous
100
AcDbLine
 10
415.0
 20
624.0
 30
0.0
 11
415.0
 21
623.5
 31
0.0
  0
ARC
  5
12DAE
330
12B3F
100
AcDbEntity
  8
1
  6
Continuous
100
AcDbCircle
 10
415.914214
 20
622.5
 30
0.0
 40
1.0
100
AcDbArc
 50
90.0
 51
135.0
  0
LINE
  5
12DAF
330
12B3F
100
AcDbEntity
  8
3
  6
DASHED
100
AcDbLine
 10
415.0
 20
626.5
 30
0.0
 11
415.0
 21
624.0
 31
0.0
  0
LINE
  5
12DB0
330
12B3F
100
AcDbEntity
  8
3
  6
DASHED
100
AcDbLine
 10
425.0323299999998
 20
631.5
 30
0.0
 11
410.0
 21
631.5
 31
0.0
  0
LINE
  5
12DB1
330
12B3F
100
AcDbEntity
  8
3
  6
DASHED
100
AcDbLine
 10
432.0
 20
631.5
 30
0.0
 11
430.53233
 21
631.5
 31
0.0
  0
LINE
  5
12DB2
330
12B3F
100
AcDbEntity
  8
1
  6
Continuous
100
AcDbLine
 10
427.0
 20
624.0
 30
0.0
 11
427.0
 21
623.5
 31
0.0
  0
ARC
  5
12DB3
330
12B3F
100
AcDbEntity
  8
1
  6
Continuous
100
AcDbCircle
 10
426.0857859999998
 20
622.5
 30
0.0
 40
1.0
100
AcDbArc
 50
45.0
 51
90.0
  0
LINE
  5
12DB4
330
12B3F
100
AcDbEntity
  8
1
  6
Continuous
100
AcDbLine
 10
426.792893
 20
623.2071069999998
 30
0.0
 11
427.5
 21
622.5
 31
0.0
  0
LINE
  5
12DB5
330
12B3F
100
AcDbEntity
  8
3
  6
DASHED
100
AcDbLine
 10
427.0
 20
626.5
 30
0.0
 11
427.0
 21
624.0
 31
0.0
  0
LINE
  5
12DB6
330
12B3F
100
AcDbEntity
  8
1
  6
Continuous
100
AcDbLine
 10
430.53233
 20
626.0
 30
0.0
 11
430.53233
 21
631.5
 31
0.0
  0
LINE
  5
12DB7
330
12B3F
100
AcDbEntity
  8
1
  6
Continuous
100
AcDbLine
 10
427.78233
 20
626.0
 30
0.0
 11
427.78233
 21
631.5
 31
0.0
  0
LINE
  5
12DB8
330
12B3F
100
AcDbEntity
  8
3
  6
DASHED
100
AcDbLine
 10
432.0
 20
626.5
 30
0.0
 11
432.0
 21
631.5
 31
0.0
  0
LINE
  5
12DB9
330
12B3F
100
AcDbEntity
  8
4
  6
CENTER
100
AcDbLine
 10
465.0
 20
636.5
 30
0.0
 11
465.0
 21
630.0
 31
0.0
  0
LINE
  5
12DBA
330
12B3F
100
AcDbEntity
  8
1
  6
Continuous
100
AcDbLine
 10
454.4999999999998
 20
624.0
 30
0.0
 11
454.4999999999998
 21
622.5
 31
0.0
  0
LINE
  5
12DBB
330
12B3F
100
AcDbEntity
  8
1
  6
Continuous
100
AcDbLine
 10
480.0
 20
633.4999999999999
 30
0.0
 11
480.0
 21
629.0
 31
0.0
  0
LINE
  5
12DBC
330
12B3F
100
AcDbEntity
  8
4
  6
CENTER
100
AcDbLine
 10
475.0
 20
636.5
 30
0.0
 11
475.0
 21
630.0
 31
0.0
  0
LINE
  5
12DBD
330
12B3F
100
AcDbEntity
  8
1
  6
Continuous
100
AcDbLine
 10
469.0
 20
622.5
 30
0.0
 11
469.0
 21
621.0
 31
0.0
  0
LINE
  5
12DBE
330
12B3F
100
AcDbEntity
  8
4
  6
CENTER
100
AcDbLine
 10
436.0
 20
719.5
 30
0.0
 11
406.0
 21
719.5
 31
0.0
  0
LINE
  5
12DBF
330
12B3F
100
AcDbEntity
  8
1
  6
Continuous
100
AcDbLine
 10
469.0
 20
703.5
 30
0.0
 11
407.5
 21
703.5
 31
0.0
  0
LINE
  5
12DC0
330
12B3F
100
AcDbEntity
  8
3
  6
DASHED
100
AcDbLine
 10
449.5
 20
729.4999999999999
 30
0.0
 11
404.0
 21
729.4999999999999
 31
0.0
  0
ARC
  5
12DC1
330
12B3F
100
AcDbEntity
  8
1
  6
Continuous
100
AcDbCircle
 10
409.55
 20
707.5499999999998
 30
0.0
 40
1.75
100
AcDbArc
 50
198.317698
 51
341.6823019999999
  0
LINE
  5
12DC2
330
12B3F
100
AcDbEntity
  8
4
  6
CENTER
100
AcDbLine
 10
405.7999999999998
 20
707.5499999999998
 30
0.0
 11
413.3
 21
707.5499999999998
 31
0.0
  0
LINE
  5
12DC3
330
12B3F
100
AcDbEntity
  8
3
  6
DASHED
100
AcDbLine
 10
405.4999999999997
 20
710.0
 30
0.0
 11
405.4999999999997
 21
707.0
 31
0.0
  0
LINE
  5
12DC4
330
12B3F
100
AcDbEntity
  8
1
  6
Continuous
100
AcDbLine
 10
405.4999999999997
 20
705.4999999999997
 30
0.0
 11
405.4999999999997
 21
707.0
 31
0.0
  0
LINE
  5
12DC5
330
12B3F
100
AcDbEntity
  8
4
  6
CENTER
100
AcDbLine
 10
385.7499999999999
 20
717.0
 30
0.0
 11
364.25
 21
717.0
 31
0.0
  0
ARC
  5
12DC6
330
12B3F
100
AcDbEntity
  8
1
  6
Continuous
100
AcDbCircle
 10
370.0
 20
718.0
 30
0.0
 40
2.399999999999999
100
AcDbArc
 50
0.0
 51
180.0
  0
ARC
  5
12DC7
330
12B3F
100
AcDbEntity
  8
1
  6
Continuous
100
AcDbCircle
 10
370.0
 20
716.0
 30
0.0
 40
2.399999999999999
100
AcDbArc
 50
180.0
 51
0.0
  0
LINE
  5
12DC8
330
12B3F
100
AcDbEntity
  8
1
  6
Continuous
100
AcDbLine
 10
367.6
 20
718.0
 30
0.0
 11
367.6
 21
716.0
 31
0.0
  0
LINE
  5
12DC9
330
12B3F
100
AcDbEntity
  8
4
  6
CENTER
100
AcDbLine
 10
370.0
 20
723.7499999999998
 30
0.0
 11
370.0
 21
710.25
 31
0.0
  0
LINE
  5
12DCA
330
12B3F
100
AcDbEntity
  8
1
  6
Continuous
100
AcDbLine
 10
372.3999999999999
 20
718.0
 30
0.0
 11
372.3999999999999
 21
716.0
 31
0.0
  0
LINE
  5
12DCB
330
12B3F
100
AcDbEntity
  8
4
  6
CENTER
100
AcDbLine
 10
380.0
 20
722.75
 30
0.0
 11
380.0
 21
711.2499999999997
 31
0.0
  0
CIRCLE
  5
12DCC
330
12B3F
100
AcDbEntity
  8
1
  6
Continuous
100
AcDbCircle
 10
380.0
 20
717.0
 30
0.0
 40
2.399999999999999
  0
LINE
  5
12DCD
330
12B3F
100
AcDbEntity
  8
3
  6
DASHED
100
AcDbLine
 10
406.5
 20
713.4999999999997
 30
0.0
 11
403.0
 21
713.4999999999997
 31
0.0
  0
LINE
  5
12DCE
330
12B3F
100
AcDbEntity
  8
3
  6
DASHED
100
AcDbLine
 10
406.5
 20
710.0
 30
0.0
 11
403.0
 21
710.0
 31
0.0
  0
LINE
  5
12DCF
330
12B3F
100
AcDbEntity
  8
3
  6
DASHED
100
AcDbLine
 10
403.0
 20
710.0
 30
0.0
 11
403.0
 21
713.4999999999997
 31
0.0
  0
LINE
  5
12DD0
330
12B3F
100
AcDbEntity
  8
3
  6
DASHED
100
AcDbLine
 10
406.5
 20
710.0
 30
0.0
 11
406.5
 21
713.4999999999997
 31
0.0
  0
LINE
  5
12DD1
330
12B3F
100
AcDbEntity
  8
3
  6
DASHED
100
AcDbLine
 10
404.0
 20
729.4999999999999
 30
0.0
 11
404.0
 21
713.4999999999997
 31
0.0
  0
LINE
  5
12DD2
330
12B3F
100
AcDbEntity
  8
3
  6
DASHED
100
AcDbLine
 10
405.4999999999997
 20
729.4999999999999
 30
0.0
 11
405.4999999999997
 21
713.4999999999997
 31
0.0
  0
LINE
  5
12DD3
330
12B3F
100
AcDbEntity
  8
1
  6
Continuous
100
AcDbLine
 10
480.0
 20
708.4999999999999
 30
0.0
 11
480.0
 21
707.0
 31
0.0
  0
LINE
  5
12DD4
330
12B3F
100
AcDbEntity
  8
4
  6
CENTER
100
AcDbLine
 10
435.0
 20
717.25
 30
0.0
 11
435.0
 21
705.75
 31
0.0
  0
LINE
  5
12DD5
330
12B3F
100
AcDbEntity
  8
4
  6
CENTER
100
AcDbLine
 10
409.55
 20
711.2999999999998
 30
0.0
 11
409.55
 21
703.7999999999998
 31
0.0
  0
LINE
  5
12DD6
330
12B3F
100
AcDbEntity
  8
4
  6
CENTER
100
AcDbLine
 10
421.0
 20
734.4999999999998
 30
0.0
 11
421.0
 21
704.4999999999999
 31
0.0
  0
CIRCLE
  5
12DD7
330
12B3F
100
AcDbEntity
  8
3
  6
DASHED
100
AcDbCircle
 10
421.0
 20
719.5
 30
0.0
 40
11.0
  0
LINE
  5
12DD8
330
12B3F
100
AcDbEntity
  8
4
  6
CENTER
100
AcDbLine
 10
429.25
 20
711.5
 30
0.0
 11
440.7499999999997
 21
711.5
 31
0.0
  0
ARC
  5
12DD9
330
12B3F
100
AcDbEntity
  8
1
  6
Continuous
100
AcDbCircle
 10
465.0
 20
716.0
 30
0.0
 40
2.399999999999999
100
AcDbArc
 50
180.0
 51
0.0
  0
ARC
  5
12DDA
330
12B3F
100
AcDbEntity
  8
1
  6
Continuous
100
AcDbCircle
 10
465.0
 20
718.0
 30
0.0
 40
2.399999999999999
100
AcDbArc
 50
0.0
 51
180.0
  0
ARC
  5
12DDB
330
12B3F
100
AcDbEntity
  8
3
  6
DASHED
100
AcDbCircle
 10
455.723607
 20
727.5
 30
0.0
 40
0.5
100
AcDbArc
 50
318.189685
 51
90.0
  0
ARC
  5
12DDC
330
12B3F
100
AcDbEntity
  8
3
  6
DASHED
100
AcDbCircle
 10
455.4999999999998
 20
728.0
 30
0.0
 40
1.0
100
AcDbArc
 50
318.189685
 51
67.380135
  0
LINE
  5
12DDD
330
12B3F
100
AcDbEntity
  8
3
  6
DASHED
100
AcDbLine
 10
453.5
 20
728.0
 30
0.0
 11
454.4999999999998
 21
728.0
 31
0.0
  0
LINE
  5
12DDE
330
12B3F
100
AcDbEntity
  8
3
  6
DASHED
100
AcDbLine
 10
454.4999999999998
 20
728.0
 30
0.0
 11
455.723607
 21
728.0
 31
0.0
  0
LINE
  5
12DDF
330
12B3F
100
AcDbEntity
  8
3
  6
DASHED
100
AcDbLine
 10
454.4999999999998
 20
729.4999999999999
 30
0.0
 11
455.884615
 21
728.9230769999996
 31
0.0
  0
LINE
  5
12DE0
330
12B3F
100
AcDbEntity
  8
3
  6
DASHED
100
AcDbLine
 10
454.4999999999998
 20
729.4999999999999
 30
0.0
 11
454.4999999999998
 21
728.0
 31
0.0
  0
LINE
  5
12DE1
330
12B3F
100
AcDbEntity
  8
3
  6
DASHED
100
AcDbLine
 10
453.5
 20
728.0
 30
0.0
 11
449.5
 21
729.4999999999999
 31
0.0
  0
LINE
  5
12DE2
330
12B3F
100
AcDbEntity
  8
3
  6
DASHED
100
AcDbLine
 10
454.7546439999998
 20
725.6666669999997
 30
0.0
 11
456.2453559999998
 21
727.333333
 31
0.0
  0
LINE
  5
12DE3
330
12B3F
100
AcDbEntity
  8
1
  6
Continuous
100
AcDbLine
 10
462.6
 20
718.0
 30
0.0
 11
462.6
 21
716.0
 31
0.0
  0
ARC
  5
12DE4
330
12B3F
100
AcDbEntity
  8
3
  6
DASHED
100
AcDbCircle
 10
455.4999999999998
 20
725.0
 30
0.0
 40
1.0
100
AcDbArc
 50
138.1896849999999
 51
270.0
  0
CIRCLE
  5
12DE5
330
12B3F
100
AcDbEntity
  8
1
  6
Continuous
100
AcDbCircle
 10
475.0
 20
717.0
 30
0.0
 40
2.399999999999999
  0
LINE
  5
12DE6
330
12B3F
100
AcDbEntity
  8
1
  6
Continuous
100
AcDbLine
 10
467.3999999999998
 20
718.0
 30
0.0
 11
467.3999999999998
 21
716.0
 31
0.0
  0
LINE
  5
12DE7
330
12B3F
100
AcDbEntity
  8
1
  6
Continuous
100
AcDbLine
 10
481.0
 20
708.4999999999999
 30
0.0
 11
480.0
 21
708.4999999999999
 31
0.0
  0
LINE
  5
12DE8
330
12B3F
100
AcDbEntity
  8
4
  6
CENTER
100
AcDbLine
 10
491.0
 20
616.8764579999997
 30
0.0
 11
491.0
 21
637.343926
 31
0.0
  0
LINE
  5
12DE9
330
12B3F
100
AcDbEntity
  8
3
  6
DASHED
100
AcDbLine
 10
502.0
 20
628.0
 30
0.0
 11
480.0
 21
628.0
 31
0.0
  0
LINE
  5
12DEA
330
12B3F
100
AcDbEntity
  8
3
  6
DASHED
100
AcDbLine
 10
502.0
 20
623.0
 30
0.0
 11
480.0
 21
623.0
 31
0.0
  0
LINE
  5
12DEB
330
12B3F
100
AcDbEntity
  8
1
  6
Continuous
100
AcDbLine
 10
497.0
 20
629.4999999999999
 30
0.0
 11
485.0
 21
629.4999999999999
 31
0.0
  0
LINE
  5
12DEC
330
12B3F
100
AcDbEntity
  8
1
  6
Continuous
100
AcDbLine
 10
497.0
 20
631.0
 30
0.0
 11
485.0
 21
631.0
 31
0.0
  0
LINE
  5
12DED
330
12B3F
100
AcDbEntity
  8
1
  6
Continuous
100
AcDbLine
 10
474.0
 20
627.5
 30
0.0
 11
474.0
 21
621.0
 31
0.0
  0
LINE
  5
12DEE
330
12B3F
100
AcDbEntity
  8
1
  6
Continuous
100
AcDbLine
 10
473.0
 20
622.5
 30
0.0
 11
473.0
 21
621.0
 31
0.0
  0
ARC
  5
12DEF
330
12B3F
100
AcDbEntity
  8
1
  6
Continuous
100
AcDbCircle
 10
475.4999999999998
 20
627.5
 30
0.0
 40
1.5
100
AcDbArc
 50
90.0
 51
180.0
  0
LINE
  5
12DF0
330
12B3F
100
AcDbEntity
  8
1
  6
Continuous
100
AcDbLine
 10
485.0
 20
629.0
 30
0.0
 11
485.0
 21
631.0
 31
0.0
  0
LINE
  5
12DF1
330
12B3F
100
AcDbEntity
  8
1
  6
Continuous
100
AcDbLine
 10
485.207107
 20
631.2928929999999
 30
0.0
 11
484.4999999999997
 21
632.0
 31
0.0
  0
ARC
  5
12DF2
330
12B3F
100
AcDbEntity
  8
1
  6
Continuous
100
AcDbCircle
 10
485.9142139999998
 20
632.0
 30
0.0
 40
1.0
100
AcDbArc
 50
225.0
 51
270.0
  0
LINE
  5
12DF3
330
12B3F
100
AcDbEntity
  8
3
  6
DASHED
100
AcDbLine
 10
485.0
 20
628.0
 30
0.0
 11
485.0
 21
629.0
 31
0.0
  0
LINE
  5
12DF4
330
12B3F
100
AcDbEntity
  8
1
  6
Continuous
100
AcDbLine
 10
497.0
 20
629.0
 30
0.0
 11
497.0
 21
631.0
 31
0.0
  0
LINE
  5
12DF5
330
12B3F
100
AcDbEntity
  8
1
  6
Continuous
100
AcDbLine
 10
496.792893
 20
631.2928929999999
 30
0.0
 11
497.5
 21
632.0
 31
0.0
  0
ARC
  5
12DF6
330
12B3F
100
AcDbEntity
  8
1
  6
Continuous
100
AcDbCircle
 10
496.0857859999999
 20
632.0
 30
0.0
 40
1.0
100
AcDbArc
 50
270.0
 51
315.0
  0
LINE
  5
12DF7
330
12B3F
100
AcDbEntity
  8
3
  6
DASHED
100
AcDbLine
 10
497.0
 20
628.0
 30
0.0
 11
497.0
 21
629.0
 31
0.0
  0
ARC
  5
12DF8
330
12B3F
100
AcDbEntity
  8
1
  6
Continuous
100
AcDbCircle
 10
503.5
 20
632.0
 30
0.0
 40
1.5
100
AcDbArc
 50
0.0
 51
90.0
  0
LINE
  5
12DF9
330
12B3F
100
AcDbEntity
  8
3
  6
DASHED
100
AcDbLine
 10
505.0
 20
624.0
 30
0.0
 11
503.5
 21
624.0
 31
0.0
  0
LINE
  5
12DFA
330
12B3F
100
AcDbEntity
  8
1
  6
Continuous
100
AcDbLine
 10
503.5
 20
629.0
 30
0.0
 11
503.5
 21
633.4999999999999
 31
0.0
  0
LINE
  5
12DFB
330
12B3F
100
AcDbEntity
  8
3
  6
DASHED
100
AcDbLine
 10
502.0
 20
628.0
 30
0.0
 11
502.0
 21
623.0
 31
0.0
  0
LINE
  5
12DFC
330
12B3F
100
AcDbEntity
  8
3
  6
DASHED
100
AcDbLine
 10
503.5
 20
624.0
 30
0.0
 11
503.5
 21
629.0
 31
0.0
  0
LINE
  5
12DFD
330
12B3F
100
AcDbEntity
  8
1
  6
Continuous
100
AcDbLine
 10
505.0
 20
629.0
 30
0.0
 11
505.0
 21
632.0
 31
0.0
  0
LINE
  5
12DFE
330
12B3F
100
AcDbEntity
  8
3
  6
DASHED
100
AcDbLine
 10
505.0
 20
624.0
 30
0.0
 11
505.0
 21
629.0
 31
0.0
  0
LINE
  5
12DFF
330
12B3F
100
AcDbEntity
  8
4
  6
CENTER
100
AcDbLine
 10
568.5
 20
618.0
 30
0.0
 11
568.5
 21
624.5
 31
0.0
  0
ARC
  5
12E00
330
12B3F
100
AcDbEntity
  8
1
  6
Continuous
100
AcDbCircle
 10
501.4999999999998
 20
709.0
 30
0.0
 40
2.0
100
AcDbArc
 50
270.0
 51
0.0
  0
LINE
  5
12E01
330
12B3F
100
AcDbEntity
  8
4
  6
CENTER
100
AcDbLine
 10
491.0
 20
732.0
 30
0.0
 11
491.0
 21
702.0
 31
0.0
  0
LINE
  5
12E02
330
12B3F
100
AcDbEntity
  8
1
  6
Continuous
100
AcDbLine
 10
501.4999999999998
 20
707.0
 30
0.0
 11
485.0
 21
707.0
 31
0.0
  0
ARC
  5
12E03
330
12B3F
100
AcDbEntity
  8
1
  6
Continuous
100
AcDbCircle
 10
491.0
 20
717.0
 30
0.0
 40
11.0
100
AcDbArc
 50
245.380023
 51
294.619977
  0
LINE
  5
12E04
330
12B3F
100
AcDbEntity
  8
1
  6
Continuous
100
AcDbLine
 10
474.0
 20
705.0
 30
0.0
 11
474.0
 21
703.5
 31
0.0
  0
ARC
  5
12E05
330
12B3F
100
AcDbEntity
  8
1
  6
Continuous
100
AcDbCircle
 10
497.627489
 20
729.0
 30
0.0
 40
2.0
100
AcDbArc
 50
21.07983799999999
 51
90.0
  0
CIRCLE
  5
12E06
330
12B3F
100
AcDbEntity
  8
1
  6
Continuous
100
AcDbCircle
 10
491.0
 20
717.0
 30
0.0
 40
3.0
  0
CIRCLE
  5
12E07
330
12B3F
100
AcDbEntity
  8
1
  6
Continuous
100
AcDbCircle
 10
491.0
 20
717.0
 30
0.0
 40
5.0
  0
ARC
  5
12E08
330
12B3F
100
AcDbEntity
  8
1
  6
Continuous
100
AcDbCircle
 10
491.0
 20
717.0
 30
0.0
 40
14.0
100
AcDbArc
 50
0.0
 51
21.07983799999999
  0
LINE
  5
12E09
330
12B3F
100
AcDbEntity
  8
1
  6
Continuous
100
AcDbLine
 10
505.0
 20
713.0
 30
0.0
 11
503.5
 21
713.0
 31
0.0
  0
LINE
  5
12E0A
330
12B3F
100
AcDbEntity
  8
1
  6
Continuous
100
AcDbLine
 10
503.5
 20
713.0
 30
0.0
 11
503.5
 21
709.0
 31
0.0
  0
LINE
  5
12E0B
330
12B3F
100
AcDbEntity
  8
1
  6
Continuous
100
AcDbLine
 10
503.691288
 20
723.0
 30
0.0
 11
502.0837089999998
 21
723.0
 31
0.0
  0
LINE
  5
12E0C
330
12B3F
100
AcDbEntity
  8
1
  6
Continuous
100
AcDbLine
 10
503.691288
 20
723.0
 30
0.0
 11
504.0631219999998
 21
722.0353589999997
 31
0.0
  0
LINE
  5
12E0D
330
12B3F
100
AcDbEntity
  8
1
  6
Continuous
100
AcDbLine
 10
504.377544
 20
724.0
 30
0.0
 11
504.597809
 21
723.428571
 31
0.0
  0
LINE
  5
12E0E
330
12B3F
100
AcDbEntity
  8
1
  6
Continuous
100
AcDbLine
 10
504.597809
 20
723.428571
 30
0.0
 11
503.691288
 21
723.0
 31
0.0
  0
LINE
  5
12E0F
330
12B3F
100
AcDbEntity
  8
1
  6
Continuous
100
AcDbLine
 10
505.0
 20
717.0
 30
0.0
 11
505.0
 21
713.0
 31
0.0
  0
LINE
  5
12E10
330
12B3F
100
AcDbEntity
  8
1
  6
Continuous
100
AcDbLine
 10
499.4936489999998
 20
729.719337
 30
0.0
 11
502.0837089999998
 21
723.0
 31
0.0
  0
LINE
  5
12E11
330
12B3F
100
AcDbEntity
  8
4
  6
CENTER
100
AcDbLine
 10
562.75
 20
719.5
 30
0.0
 11
574.2499999999997
 21
719.5
 31
0.0
  0
CIRCLE
  5
12E12
330
12B3F
100
AcDbEntity
  8
1
  6
Continuous
100
AcDbCircle
 10
568.5
 20
719.5
 30
0.0
 40
3.75
  0
CIRCLE
  5
12E13
330
12B3F
100
AcDbEntity
  8
1
  6
Continuous
100
AcDbCircle
 10
568.5
 20
719.5
 30
0.0
 40
2.399999999999999
  0
LINE
  5
12E14
330
12B3F
100
AcDbEntity
  8
4
  6
CENTER
100
AcDbLine
 10
568.5
 20
725.25
 30
0.0
 11
568.5
 21
713.75
 31
0.0
  0
LINE
  5
12E15
330
12B3F
100
AcDbEntity
  8
1
  6
Continuous
100
AcDbLine
 10
785.0
 20
522.5
 30
0.0
 11
757.0
 21
525.0
 31
0.0
  0
LINE
  5
12E16
330
12B3F
100
AcDbEntity
  8
4
  6
CENTER
100
AcDbLine
 10
785.0
 20
529.25
 30
0.0
 11
785.0
 21
540.7499999999998
 31
0.0
  0
ARC
  5
12E17
330
12B3F
100
AcDbEntity
  8
1
  6
Continuous
100
AcDbCircle
 10
792.0
 20
533.0
 30
0.0
 40
2.0
100
AcDbArc
 50
90.0
 51
253.2276069999999
  0
ARC
  5
12E18
330
12B3F
100
AcDbEntity
  8
1
  6
Continuous
100
AcDbCircle
 10
775.0
 20
534.0
 30
0.0
 40
2.399999999999999
100
AcDbArc
 50
180.0
 51
0.0
  0
LINE
  5
12E19
330
12B3F
100
AcDbEntity
  8
4
  6
CENTER
100
AcDbLine
 10
775.0
 20
528.2499999999998
 30
0.0
 11
775.0
 21
541.75
 31
0.0
  0
LINE
  5
12E1A
330
12B3F
100
AcDbEntity
  8
1
  6
Continuous
100
AcDbLine
 10
800.0
 20
522.5
 30
0.0
 11
785.0
 21
522.5
 31
0.0
  0
LINE
  5
12E1B
330
12B3F
100
AcDbEntity
  8
1
  6
Continuous
100
AcDbLine
 10
798.932856
 20
528.821629
 30
0.0
 11
791.422859
 21
531.085083
 31
0.0
  0
LINE
  5
12E1C
330
12B3F
100
AcDbEntity
  8
1
  6
Continuous
100
AcDbLine
 10
800.0
 20
522.5
 30
0.0
 11
800.0
 21
527.385441
 31
0.0
  0
ARC
  5
12E1D
330
12B3F
100
AcDbEntity
  8
1
  6
Continuous
100
AcDbCircle
 10
798.5
 20
527.385441
 30
0.0
 40
1.5
100
AcDbArc
 50
0.0
 51
73.22760699999998
  0
LINE
  5
12E1E
330
12B3F
100
AcDbEntity
  8
1
  6
Continuous
100
AcDbLine
 10
798.5
 20
535.0
 30
0.0
 11
792.0
 21
535.0
 31
0.0
  0
LINE
  5
12E1F
330
12B3F
100
AcDbEntity
  8
1
  6
Continuous
100
AcDbLine
 10
777.4
 20
534.0
 30
0.0
 11
777.4
 21
536.0
 31
0.0
  0
LINE
  5
12E20
330
12B3F
100
AcDbEntity
  8
1
  6
Continuous
100
AcDbLine
 10
772.5999999999997
 20
534.0
 30
0.0
 11
772.5999999999997
 21
536.0
 31
0.0
  0
ARC
  5
12E21
330
12B3F
100
AcDbEntity
  8
1
  6
Continuous
100
AcDbCircle
 10
775.0
 20
536.0
 30
0.0
 40
2.399999999999999
100
AcDbArc
 50
0.0
 51
180.0
  0
CIRCLE
  5
12E22
330
12B3F
100
AcDbEntity
  8
1
  6
Continuous
100
AcDbCircle
 10
785.0
 20
535.0
 30
0.0
 40
2.399999999999999
  0
ARC
  5
12E23
330
12B3F
100
AcDbEntity
  8
1
  6
Continuous
100
AcDbCircle
 10
786.0
 20
535.0
 30
0.0
 40
7.0
100
AcDbArc
 50
26.33707499999999
 51
63.662925
  0
LINE
  5
12E24
330
12B3F
100
AcDbEntity
  8
1
  6
Continuous
100
AcDbLine
 10
795.858195
 20
539.880163
 30
0.0
 11
792.2733969999996
 21
538.1055579999999
 31
0.0
  0
LINE
  5
12E25
330
12B3F
100
AcDbEntity
  8
1
  6
Continuous
100
AcDbLine
 10
790.880163
 20
544.858195
 30
0.0
 11
789.1055579999997
 21
541.2733969999997
 31
0.0
  0
ARC
  5
12E26
330
12B3F
100
AcDbEntity
  8
1
  6
Continuous
100
AcDbCircle
 10
786.0
 20
535.0
 30
0.0
 40
11.0
100
AcDbArc
 50
26.33707499999999
 51
63.662925
  0
ARC
  5
12E27
330
12B3F
100
AcDbEntity
  8
1
  6
Continuous
100
AcDbCircle
 10
798.5
 20
536.5
 30
0.0
 40
1.5
100
AcDbArc
 50
270.0
 51
0.0
  0
LINE
  5
12E28
330
12B3F
100
AcDbEntity
  8
1
  6
Continuous
100
AcDbLine
 10
800.0
 20
536.5
 30
0.0
 11
800.0
 21
551.0
 31
0.0
  0
LINE
  5
12E29
330
12B3F
100
AcDbEntity
  8
1
  6
Continuous
100
AcDbLine
 10
873.0
 20
531.5
 30
0.0
 11
873.0
 21
539.880163
 31
0.0
  0
LINE
  5
12E2A
330
12B3F
100
AcDbEntity
  8
1
  6
Continuous
100
AcDbLine
 10
872.0
 20
531.5
 30
0.0
 11
872.0
 21
539.880163
 31
0.0
  0
LINE
  5
12E2B
330
12B3F
100
AcDbEntity
  8
1
  6
Continuous
100
AcDbLine
 10
882.5000000000001
 20
523.5
 30
0.0
 11
882.5000000000001
 21
548.5
 31
0.0
  0
LINE
  5
12E2C
330
12B3F
100
AcDbEntity
  8
1
  6
Continuous
100
AcDbLine
 10
871.4999999999999
 20
524.0
 30
0.0
 11
871.4999999999999
 21
549.5
 31
0.0
  0
LINE
  5
12E2D
330
12B3F
100
AcDbEntity
  8
1
  6
Continuous
100
AcDbLine
 10
870.0
 20
524.0
 30
0.0
 11
870.0
 21
551.0
 31
0.0
  0
LINE
  5
12E2E
330
12B3F
100
AcDbEntity
  8
1
  6
Continuous
100
AcDbLine
 10
882.5000000000001
 20
531.5
 30
0.0
 11
871.4999999999999
 21
531.5
 31
0.0
  0
LINE
  5
12E2F
330
12B3F
100
AcDbEntity
  8
1
  6
Continuous
100
AcDbLine
 10
878.0
 20
527.7967559999998
 30
0.0
 11
871.4999999999999
 21
527.7967559999998
 31
0.0
  0
LINE
  5
12E30
330
12B3F
100
AcDbEntity
  8
1
  6
Continuous
100
AcDbLine
 10
878.0
 20
524.0
 30
0.0
 11
871.4999999999999
 21
524.0
 31
0.0
  0
LINE
  5
12E31
330
12B3F
100
AcDbEntity
  8
1
  6
Continuous
100
AcDbLine
 10
878.0
 20
522.5
 30
0.0
 11
871.4999999999999
 21
522.5
 31
0.0
  0
LINE
  5
12E32
330
12B3F
100
AcDbEntity
  8
1
  6
Continuous
100
AcDbLine
 10
871.4999999999999
 20
526.4999999999998
 30
0.0
 11
878.0
 21
526.4999999999998
 31
0.0
  0
LINE
  5
12E33
330
12B3F
100
AcDbEntity
  8
1
  6
Continuous
100
AcDbLine
 10
870.0
 20
528.5
 30
0.0
 11
871.4999999999999
 21
528.5
 31
0.0
  0
ARC
  5
12E34
330
12B3F
100
AcDbEntity
  8
1
  6
Continuous
100
AcDbCircle
 10
871.4999999999999
 20
524.0
 30
0.0
 40
1.5
100
AcDbArc
 50
180.0
 51
270.0
  0
LINE
  5
12E35
330
12B3F
100
AcDbEntity
  8
1
  6
Continuous
100
AcDbLine
 10
872.0
 20
526.4999999999998
 30
0.0
 11
872.0
 21
527.7967559999998
 31
0.0
  0
LINE
  5
12E36
330
12B3F
100
AcDbEntity
  8
1
  6
Continuous
100
AcDbLine
 10
879.4999999999999
 20
528.0
 30
0.0
 11
878.0
 21
528.0
 31
0.0
  0
LINE
  5
12E37
330
12B3F
100
AcDbEntity
  8
1
  6
Continuous
100
AcDbLine
 10
880.4999999999999
 20
531.5
 30
0.0
 11
881.0
 21
531.0
 31
0.0
  0
LINE
  5
12E38
330
12B3F
100
AcDbEntity
  8
1
  6
Continuous
100
AcDbLine
 10
878.0
 20
530.4999999999998
 30
0.0
 11
879.4999999999999
 21
530.4999999999998
 31
0.0
  0
ARC
  5
12E39
330
12B3F
100
AcDbEntity
  8
1
  6
Continuous
100
AcDbCircle
 10
878.0
 20
524.0
 30
0.0
 40
1.5
100
AcDbArc
 50
270.0
 51
0.0
  0
LINE
  5
12E3A
330
12B3F
100
AcDbEntity
  8
1
  6
Continuous
100
AcDbLine
 10
882.5000000000001
 20
523.5
 30
0.0
 11
881.0
 21
523.5
 31
0.0
  0
LINE
  5
12E3B
330
12B3F
100
AcDbEntity
  8
1
  6
Continuous
100
AcDbLine
 10
881.0
 20
523.5
 30
0.0
 11
881.0
 21
531.5
 31
0.0
  0
LINE
  5
12E3C
330
12B3F
100
AcDbEntity
  8
1
  6
Continuous
100
AcDbLine
 10
878.0
 20
524.0
 30
0.0
 11
878.0
 21
531.5
 31
0.0
  0
LINE
  5
12E3D
330
12B3F
100
AcDbEntity
  8
1
  6
Continuous
100
AcDbLine
 10
877.0
 20
526.4999999999998
 30
0.0
 11
877.0
 21
527.7967559999998
 31
0.0
  0
LINE
  5
12E3E
330
12B3F
100
AcDbEntity
  8
1
  6
Continuous
100
AcDbLine
 10
879.4999999999999
 20
524.0
 30
0.0
 11
879.4999999999999
 21
530.4999999999998
 31
0.0
  0
LINE
  5
12E3F
330
12B3F
100
AcDbEntity
  8
1
  6
Continuous
100
AcDbLine
 10
878.0
 20
549.5
 30
0.0
 11
871.4999999999999
 21
549.5
 31
0.0
  0
LINE
  5
12E40
330
12B3F
100
AcDbEntity
  8
1
  6
Continuous
100
AcDbLine
 10
878.0
 20
551.0
 30
0.0
 11
870.0
 21
551.0
 31
0.0
  0
LINE
  5
12E41
330
12B3F
100
AcDbEntity
  8
1
  6
Continuous
100
AcDbLine
 10
871.4999999999999
 20
546.202494
 30
0.0
 11
877.0
 21
546.202494
 31
0.0
  0
LINE
  5
12E42
330
12B3F
100
AcDbEntity
  8
1
  6
Continuous
100
AcDbLine
 10
871.4999999999999
 20
540.54564
 30
0.0
 11
877.0
 21
540.54564
 31
0.0
  0
LINE
  5
12E43
330
12B3F
100
AcDbEntity
  8
1
  6
Continuous
100
AcDbLine
 10
871.4999999999999
 20
539.880163
 30
0.0
 11
877.0
 21
539.880163
 31
0.0
  0
LINE
  5
12E44
330
12B3F
100
AcDbEntity
  8
4
  6
CENTER
100
AcDbLine
 10
883.1937380000001
 20
535.0
 30
0.0
 11
865.0
 21
535.0
 31
0.0
  0
LINE
  5
12E45
330
12B3F
100
AcDbEntity
  8
4
  6
CENTER
100
AcDbLine
 10
886.6436210000001
 20
537.5
 30
0.0
 11
868.8494759999999
 21
537.5
 31
0.0
  0
LINE
  5
12E46
330
12B3F
100
AcDbEntity
  8
1
  6
Continuous
100
AcDbLine
 10
877.0
 20
548.5
 30
0.0
 11
872.0
 21
548.5
 31
0.0
  0
ARC
  5
12E47
330
12B3F
100
AcDbEntity
  8
1
  6
Continuous
100
AcDbCircle
 10
871.4999999999999
 20
549.5
 30
0.0
 40
1.5
100
AcDbArc
 50
90.0
 51
180.0
  0
LINE
  5
12E48
330
12B3F
100
AcDbEntity
  8
1
  6
Continuous
100
AcDbLine
 10
871.4999999999999
 20
535.0
 30
0.0
 11
870.0
 21
535.0
 31
0.0
  0
LINE
  5
12E49
330
12B3F
100
AcDbEntity
  8
1
  6
Continuous
100
AcDbLine
 10
872.0
 20
548.5
 30
0.0
 11
872.0
 21
546.202494
 31
0.0
  0
LINE
  5
12E4A
330
12B3F
100
AcDbEntity
  8
1
  6
Continuous
100
AcDbLine
 10
873.0
 20
548.5
 30
0.0
 11
873.0
 21
549.5
 31
0.0
  0
LINE
  5
12E4B
330
12B3F
100
AcDbEntity
  8
1
  6
Continuous
100
AcDbLine
 10
878.0
 20
549.5
 30
0.0
 11
878.0
 21
551.0
 31
0.0
  0
LINE
  5
12E4C
330
12B3F
100
AcDbEntity
  8
1
  6
Continuous
100
AcDbLine
 10
878.0
 20
550.0
 30
0.0
 11
881.0
 21
550.0
 31
0.0
  0
LINE
  5
12E4D
330
12B3F
100
AcDbEntity
  8
1
  6
Continuous
100
AcDbLine
 10
881.0
 20
546.0
 30
0.0
 11
877.0
 21
546.0
 31
0.0
  0
LINE
  5
12E4E
330
12B3F
100
AcDbEntity
  8
1
  6
Continuous
100
AcDbLine
 10
881.0
 20
541.5
 30
0.0
 11
881.0
 21
547.5
 31
0.0
  0
LINE
  5
12E4F
330
12B3F
100
AcDbEntity
  8
1
  6
Continuous
100
AcDbLine
 10
882.5000000000001
 20
541.5
 30
0.0
 11
877.0
 21
541.5
 31
0.0
  0
LINE
  5
12E50
330
12B3F
100
AcDbEntity
  8
1
  6
Continuous
100
AcDbLine
 10
877.0
 20
539.880163
 30
0.0
 11
877.0
 21
548.5
 31
0.0
  0
LINE
  5
12E51
330
12B3F
100
AcDbEntity
  8
1
  6
Continuous
100
AcDbLine
 10
882.5000000000001
 20
547.5
 30
0.0
 11
877.0
 21
547.5
 31
0.0
  0
ARC
  5
12E52
330
12B3F
100
AcDbEntity
  8
1
  6
Continuous
100
AcDbCircle
 10
881.0
 20
542.5857859999998
 30
0.0
 40
1.0
100
AcDbArc
 50
135.0
 51
180.0
  0
LINE
  5
12E53
330
12B3F
100
AcDbEntity
  8
1
  6
Continuous
100
AcDbLine
 10
880.292893
 20
543.2928929999999
 30
0.0
 11
881.0
 21
544.0
 31
0.0
  0
LINE
  5
12E54
330
12B3F
100
AcDbEntity
  8
1
  6
Continuous
100
AcDbLine
 10
880.0
 20
541.5
 30
0.0
 11
880.0
 21
543.5
 31
0.0
  0
LINE
  5
12E55
330
12B3F
100
AcDbEntity
  8
1
  6
Continuous
100
AcDbLine
 10
878.5
 20
541.5
 30
0.0
 11
878.5
 21
543.5
 31
0.0
  0
LINE
  5
12E56
330
12B3F
100
AcDbEntity
  8
1
  6
Continuous
100
AcDbLine
 10
877.0
 20
543.5
 30
0.0
 11
880.0
 21
543.5
 31
0.0
  0
ARC
  5
12E57
330
12B3F
100
AcDbEntity
  8
1
  6
Continuous
100
AcDbCircle
 10
881.0
 20
548.5
 30
0.0
 40
1.5
100
AcDbArc
 50
0.0
 51
90.0
  0
LINE
  5
12E58
330
12B3F
100
AcDbEntity
  8
4
  6
CENTER
100
AcDbLine
 10
785.0
 20
618.0
 30
0.0
 11
785.0
 21
624.5
 31
0.0
  0
LINE
  5
12E59
330
12B3F
100
AcDbEntity
  8
4
  6
CENTER
100
AcDbLine
 10
775.0
 20
618.0
 30
0.0
 11
775.0
 21
624.5
 31
0.0
  0
LINE
  5
12E5A
330
12B3F
100
AcDbEntity
  8
1
  6
Continuous
100
AcDbLine
 10
800.0
 20
621.0
 30
0.0
 11
800.0
 21
630.4999999999997
 31
0.0
  0
ARC
  5
12E5B
330
12B3F
100
AcDbEntity
  8
1
  6
Continuous
100
AcDbCircle
 10
798.5
 20
627.5
 30
0.0
 40
1.5
100
AcDbArc
 50
0.0
 51
90.0
  0
LINE
  5
12E5C
330
12B3F
100
AcDbEntity
  8
1
  6
Continuous
100
AcDbLine
 10
785.0
 20
732.0
 30
0.0
 11
757.0
 21
729.4999999999999
 31
0.0
  0
LINE
  5
12E5D
330
12B3F
100
AcDbEntity
  8
1
  6
Continuous
100
AcDbLine
 10
785.2450479999999
 20
726.5
 30
0.0
 11
757.245048
 21
724.0
 31
0.0
  0
LINE
  5
12E5E
330
12B3F
100
AcDbEntity
  8
1
  6
Continuous
100
AcDbLine
 10
800.0
 20
718.0
 30
0.0
 11
800.0
 21
703.5
 31
0.0
  0
ARC
  5
12E5F
330
12B3F
100
AcDbEntity
  8
1
  6
Continuous
100
AcDbCircle
 10
786.0
 20
719.5
 30
0.0
 40
12.5
100
AcDbArc
 50
296.3370750000001
 51
333.6629249999999
  0
LINE
  5
12E60
330
12B3F
100
AcDbEntity
  8
1
  6
Continuous
100
AcDbLine
 10
799.0
 20
726.5
 30
0.0
 11
785.2450479999999
 21
726.5
 31
0.0
  0
LINE
  5
12E61
330
12B3F
100
AcDbEntity
  8
1
  6
Continuous
100
AcDbLine
 10
800.0
 20
732.0
 30
0.0
 11
785.0
 21
732.0
 31
0.0
  0
LINE
  5
12E62
330
12B3F
100
AcDbEntity
  8
1
  6
Continuous
100
AcDbLine
 10
797.2024939999998
 20
713.9543599999998
 30
0.0
 11
792.2733969999996
 21
716.3944419999997
 31
0.0
  0
LINE
  5
12E63
330
12B3F
100
AcDbEntity
  8
1
  6
Continuous
100
AcDbLine
 10
798.5
 20
719.5
 30
0.0
 11
792.0
 21
719.5
 31
0.0
  0
LINE
  5
12E64
330
12B3F
100
AcDbEntity
  8
1
  6
Continuous
100
AcDbLine
 10
798.932856
 20
725.6783709999997
 30
0.0
 11
791.422859
 21
723.4149169999997
 31
0.0
  0
LINE
  5
12E65
330
12B3F
100
AcDbEntity
  8
4
  6
CENTER
100
AcDbLine
 10
790.7499999999998
 20
719.5
 30
0.0
 11
769.2499999999999
 21
719.5
 31
0.0
  0
ARC
  5
12E66
330
12B3F
100
AcDbEntity
  8
1
  6
Continuous
100
AcDbCircle
 10
775.0
 20
720.5
 30
0.0
 40
3.75
100
AcDbArc
 50
0.0
 51
180.0
  0
ARC
  5
12E67
330
12B3F
100
AcDbEntity
  8
1
  6
Continuous
100
AcDbCircle
 10
775.0
 20
718.5
 30
0.0
 40
3.75
100
AcDbArc
 50
180.0
 51
0.0
  0
ARC
  5
12E68
330
12B3F
100
AcDbEntity
  8
1
  6
Continuous
100
AcDbCircle
 10
775.0
 20
718.5
 30
0.0
 40
2.399999999999999
100
AcDbArc
 50
180.0
 51
0.0
  0
ARC
  5
12E69
330
12B3F
100
AcDbEntity
  8
1
  6
Continuous
100
AcDbCircle
 10
775.0
 20
720.5
 30
0.0
 40
2.399999999999999
100
AcDbArc
 50
0.0
 51
180.0
  0
LINE
  5
12E6A
330
12B3F
100
AcDbEntity
  8
1
  6
Continuous
100
AcDbLine
 10
771.25
 20
720.5
 30
0.0
 11
771.25
 21
718.5
 31
0.0
  0
LINE
  5
12E6B
330
12B3F
100
AcDbEntity
  8
1
  6
Continuous
100
AcDbLine
 10
772.5999999999997
 20
720.5
 30
0.0
 11
772.5999999999997
 21
718.5
 31
0.0
  0
LINE
  5
12E6C
330
12B3F
100
AcDbEntity
  8
1
  6
Continuous
100
AcDbLine
 10
778.75
 20
720.5
 30
0.0
 11
778.75
 21
718.5
 31
0.0
  0
LINE
  5
12E6D
330
12B3F
100
AcDbEntity
  8
1
  6
Continuous
100
AcDbLine
 10
777.4
 20
720.5
 30
0.0
 11
777.4
 21
718.5
 31
0.0
  0
LINE
  5
12E6E
330
12B3F
100
AcDbEntity
  8
4
  6
CENTER
100
AcDbLine
 10
775.0
 20
726.25
 30
0.0
 11
775.0
 21
712.75
 31
0.0
  0
CIRCLE
  5
12E6F
330
12B3F
100
AcDbEntity
  8
1
  6
Continuous
100
AcDbCircle
 10
785.0
 20
719.5
 30
0.0
 40
3.75
  0
CIRCLE
  5
12E70
330
12B3F
100
AcDbEntity
  8
1
  6
Continuous
100
AcDbCircle
 10
785.0
 20
719.5
 30
0.0
 40
2.399999999999999
  0
LINE
  5
12E71
330
12B3F
100
AcDbEntity
  8
4
  6
CENTER
100
AcDbLine
 10
785.0
 20
725.25
 30
0.0
 11
785.0
 21
713.75
 31
0.0
  0
LINE
  5
12E72
330
12B3F
100
AcDbEntity
  8
1
  6
Continuous
100
AcDbLine
 10
791.54564
 20
708.2975059999996
 30
0.0
 11
789.1055579999997
 21
713.2266030000002
 31
0.0
  0
ARC
  5
12E73
330
12B3F
100
AcDbEntity
  8
1
  6
Continuous
100
AcDbCircle
 10
786.0
 20
719.5
 30
0.0
 40
7.0
100
AcDbArc
 50
296.3370750000001
 51
333.6629249999999
  0
ARC
  5
12E74
330
12B3F
100
AcDbEntity
  8
1
  6
Continuous
100
AcDbCircle
 10
792.0
 20
721.4999999999998
 30
0.0
 40
2.0
100
AcDbArc
 50
106.7723929999998
 51
270.0
  0
ARC
  5
12E75
330
12B3F
100
AcDbEntity
  8
1
  6
Continuous
100
AcDbCircle
 10
786.0
 20
719.5
 30
0.0
 40
11.0
100
AcDbArc
 50
296.3370750000001
 51
333.6629249999999
  0
LINE
  5
12E76
330
12B3F
100
AcDbEntity
  8
1
  6
Continuous
100
AcDbLine
 10
800.0
 20
732.0
 30
0.0
 11
800.0
 21
727.1145589999996
 31
0.0
  0
ARC
  5
12E77
330
12B3F
100
AcDbEntity
  8
1
  6
Continuous
100
AcDbCircle
 10
799.0
 20
730.4999999999998
 30
0.0
 40
1.0
100
AcDbArc
 50
112.6198649999998
 51
221.810315
  0
ARC
  5
12E78
330
12B3F
100
AcDbEntity
  8
1
  6
Continuous
100
AcDbCircle
 10
798.7763929999996
 20
730.0
 30
0.0
 40
0.5
100
AcDbArc
 50
90.0
 51
221.810315
  0
ARC
  5
12E79
330
12B3F
100
AcDbEntity
  8
1
  6
Continuous
100
AcDbCircle
 10
798.5
 20
727.1145589999996
 30
0.0
 40
1.5
100
AcDbArc
 50
286.772393
 51
0.0
  0
ARC
  5
12E7A
330
12B3F
100
AcDbEntity
  8
1
  6
Continuous
100
AcDbCircle
 10
799.0
 20
727.5
 30
0.0
 40
1.0
100
AcDbArc
 50
270.0
 51
41.810315
  0
LINE
  5
12E7B
330
12B3F
100
AcDbEntity
  8
1
  6
Continuous
100
AcDbLine
 10
799.745356
 20
728.1666669999999
 30
0.0
 11
798.254644
 21
729.833333
 31
0.0
  0
ARC
  5
12E7C
330
12B3F
100
AcDbEntity
  8
1
  6
Continuous
100
AcDbCircle
 10
798.5
 20
718.0
 30
0.0
 40
1.5
100
AcDbArc
 50
0.0
 51
90.0
  0
LINE
  5
12E7D
330
12B3F
100
AcDbEntity
  8
1
  6
Continuous
100
AcDbLine
 10
800.0
 20
730.4999999999998
 30
0.0
 11
798.7763929999996
 21
730.4999999999998
 31
0.0
  0
LINE
  5
12E7E
330
12B3F
100
AcDbEntity
  8
1
  6
Continuous
100
AcDbLine
 10
800.0
 20
732.0
 30
0.0
 11
798.6153849999997
 21
731.4230769999997
 31
0.0
  0
LINE
  5
12E7F
330
12B3F
100
AcDbEntity
  8
1
  6
Continuous
100
AcDbLine
 10
800.0
 20
444.0
 30
0.0
 11
454.4999999999998
 21
444.0
 31
0.0
  0
LINE
  5
12E80
330
12B3F
100
AcDbEntity
  8
1
  6
Continuous
100
AcDbLine
 10
800.0
 20
453.5
 30
0.0
 11
405.4999999999997
 21
453.5
 31
0.0
  0
LINE
  5
12E81
330
12B3F
100
AcDbEntity
  8
1
  6
Continuous
100
AcDbLine
 10
503.5
 20
441.0
 30
0.0
 11
109.0
 21
441.0
 31
0.0
  0
LINE
  5
12E82
330
12B3F
100
AcDbEntity
  8
1
  6
Continuous
100
AcDbLine
 10
109.0
 20
450.4999999999998
 30
0.0
 11
404.0
 21
450.4999999999998
 31
0.0
  0
LINE
  5
12E83
330
12B3F
100
AcDbEntity
  8
1
  6
Continuous
100
AcDbLine
 10
503.5
 20
442.4999999999998
 30
0.0
 11
109.0
 21
442.4999999999998
 31
0.0
  0
LINE
  5
12E84
330
12B3F
100
AcDbEntity
  8
1
  6
Continuous
100
AcDbLine
 10
109.0
 20
449.0
 30
0.0
 11
404.0
 21
449.0
 31
0.0
  0
LINE
  5
12E85
330
12B3F
100
AcDbEntity
  8
1
  6
Continuous
100
AcDbLine
 10
142.0
 20
445.5
 30
0.0
 11
115.5
 21
445.5
 31
0.0
  0
ARC
  5
12E86
330
12B3F
100
AcDbEntity
  8
1
  6
Continuous
100
AcDbCircle
 10
115.5
 20
444.0
 30
0.0
 40
1.5
100
AcDbArc
 50
90.0
 51
180.0
  0
LINE
  5
12E87
330
12B3F
100
AcDbEntity
  8
1
  6
Continuous
100
AcDbLine
 10
109.0
 20
441.0
 30
0.0
 11
109.0
 21
450.4999999999998
 31
0.0
  0
LINE
  5
12E88
330
12B3F
100
AcDbEntity
  8
4
  6
CENTER
100
AcDbLine
 10
125.0
 20
438.0
 30
0.0
 11
125.0
 21
444.5
 31
0.0
  0
LINE
  5
12E89
330
12B3F
100
AcDbEntity
  8
1
  6
Continuous
100
AcDbLine
 10
114.0
 20
444.0
 30
0.0
 11
114.0
 21
442.4999999999998
 31
0.0
  0
LINE
  5
12E8A
330
12B3F
100
AcDbEntity
  8
1
  6
Continuous
100
AcDbLine
 10
127.0
 20
445.913842
 30
0.0
 11
127.0
 21
448.51869
 31
0.0
  0
LINE
  5
12E8B
330
12B3F
100
AcDbEntity
  8
1
  6
Continuous
100
AcDbLine
 10
156.0
 20
443.5
 30
0.0
 11
156.0
 21
448.0
 31
0.0
  0
ARC
  5
12E8C
330
12B3F
100
AcDbEntity
  8
1
  6
Continuous
100
AcDbCircle
 10
142.0
 20
444.0
 30
0.0
 40
1.5
100
AcDbArc
 50
0.0
 51
90.0
  0
LINE
  5
12E8D
330
12B3F
100
AcDbEntity
  8
4
  6
CENTER
100
AcDbLine
 10
135.0
 20
438.0
 30
0.0
 11
135.0
 21
444.5
 31
0.0
  0
LINE
  5
12E8E
330
12B3F
100
AcDbEntity
  8
1
  6
Continuous
100
AcDbLine
 10
143.5
 20
442.4999999999998
 30
0.0
 11
143.5
 21
444.0
 31
0.0
  0
LINE
  5
12E8F
330
12B3F
100
AcDbEntity
  8
3
  6
DASHED
100
AcDbLine
 10
502.0
 20
451.4999999999998
 30
0.0
 11
480.0
 21
451.4999999999998
 31
0.0
  0
LINE
  5
12E90
330
12B3F
100
AcDbEntity
  8
3
  6
DASHED
100
AcDbLine
 10
502.0
 20
446.4999999999998
 30
0.0
 11
480.0
 21
446.4999999999998
 31
0.0
  0
LINE
  5
12E91
330
12B3F
100
AcDbEntity
  8
1
  6
Continuous
100
AcDbLine
 10
405.4999999999997
 20
449.0
 30
0.0
 11
415.0
 21
449.0
 31
0.0
  0
LINE
  5
12E92
330
12B3F
100
AcDbEntity
  8
1
  6
Continuous
100
AcDbLine
 10
405.4999999999997
 20
450.4999999999998
 30
0.0
 11
415.0
 21
450.4999999999998
 31
0.0
  0
LINE
  5
12E93
330
12B3F
100
AcDbEntity
  8
1
  6
Continuous
100
AcDbLine
 10
454.4999999999998
 20
452.0
 30
0.0
 11
405.4999999999997
 21
452.0
 31
0.0
  0
LINE
  5
12E94
330
12B3F
100
AcDbEntity
  8
1
  6
Continuous
100
AcDbLine
 10
404.0
 20
452.0
 30
0.0
 11
404.0
 21
444.0
 31
0.0
  0
LINE
  5
12E95
330
12B3F
100
AcDbEntity
  8
1
  6
Continuous
100
AcDbLine
 10
405.4999999999997
 20
444.0
 30
0.0
 11
405.4999999999997
 21
452.0
 31
0.0
  0
LINE
  5
12E96
330
12B3F
100
AcDbEntity
  8
1
  6
Continuous
100
AcDbLine
 10
406.5
 20
442.4999999999998
 30
0.0
 11
406.5
 21
448.1
 31
0.0
  0
LINE
  5
12E97
330
12B3F
100
AcDbEntity
  8
1
  6
Continuous
100
AcDbLine
 10
403.0
 20
442.4999999999998
 30
0.0
 11
403.0
 21
448.1
 31
0.0
  0
LINE
  5
12E98
330
12B3F
100
AcDbEntity
  8
4
  6
CENTER
100
AcDbLine
 10
380.0
 20
438.0
 30
0.0
 11
380.0
 21
444.5
 31
0.0
  0
LINE
  5
12E99
330
12B3F
100
AcDbEntity
  8
4
  6
CENTER
100
AcDbLine
 10
370.0
 20
438.0
 30
0.0
 11
370.0
 21
444.5
 31
0.0
  0
LINE
  5
12E9A
330
12B3F
100
AcDbEntity
  8
1
  6
Continuous
100
AcDbLine
 10
405.4999999999997
 20
444.0
 30
0.0
 11
404.0
 21
444.0
 31
0.0
  0
ARC
  5
12E9B
330
12B3F
100
AcDbEntity
  8
1
  6
Continuous
100
AcDbCircle
 10
405.4999999999997
 20
452.0
 30
0.0
 40
1.5
100
AcDbArc
 50
90.0
 51
180.0
  0
LINE
  5
12E9C
330
12B3F
100
AcDbEntity
  8
1
  6
Continuous
100
AcDbLine
 10
406.5
 20
448.1
 30
0.0
 11
405.4999999999997
 21
448.1
 31
0.0
  0
LINE
  5
12E9D
330
12B3F
100
AcDbEntity
  8
1
  6
Continuous
100
AcDbLine
 10
404.0
 20
448.1
 30
0.0
 11
403.0
 21
448.1
 31
0.0
  0
LINE
  5
12E9E
330
12B3F
100
AcDbEntity
  8
1
  6
Continuous
100
AcDbLine
 10
454.4999999999998
 20
444.0
 30
0.0
 11
454.4999999999998
 21
453.5
 31
0.0
  0
LINE
  5
12E9F
330
12B3F
100
AcDbEntity
  8
3
  6
DASHED
100
AcDbLine
 10
480.0
 20
444.0
 30
0.0
 11
480.0
 21
451.4999999999998
 31
0.0
  0
LINE
  5
12EA0
330
12B3F
100
AcDbEntity
  8
4
  6
CENTER
100
AcDbLine
 10
465.0
 20
438.0
 30
0.0
 11
465.0
 21
444.5
 31
0.0
  0
LINE
  5
12EA1
330
12B3F
100
AcDbEntity
  8
4
  6
CENTER
100
AcDbLine
 10
475.0
 20
438.0
 30
0.0
 11
475.0
 21
444.5
 31
0.0
  0
LINE
  5
12EA2
330
12B3F
100
AcDbEntity
  8
1
  6
Continuous
100
AcDbLine
 10
432.0
 20
448.0
 30
0.0
 11
432.0
 21
443.0
 31
0.0
  0
LINE
  5
12EA3
330
12B3F
100
AcDbEntity
  8
1
  6
Continuous
100
AcDbLine
 10
410.0
 20
448.0
 30
0.0
 11
410.0
 21
443.0
 31
0.0
  0
LINE
  5
12EA4
330
12B3F
100
AcDbEntity
  8
4
  6
CENTER
100
AcDbLine
 10
421.0
 20
457.7685289999998
 30
0.0
 11
421.0
 21
437.3857479999998
 31
0.0
  0
LINE
  5
12EA5
330
12B3F
100
AcDbEntity
  8
1
  6
Continuous
100
AcDbLine
 10
432.0
 20
443.0
 30
0.0
 11
410.0
 21
443.0
 31
0.0
  0
LINE
  5
12EA6
330
12B3F
100
AcDbEntity
  8
1
  6
Continuous
100
AcDbLine
 10
480.0
 20
442.4999999999998
 30
0.0
 11
480.0
 21
444.0
 31
0.0
  0
LINE
  5
12EA7
330
12B3F
100
AcDbEntity
  8
1
  6
Continuous
100
AcDbLine
 10
427.0
 20
449.0
 30
0.0
 11
454.4999999999998
 21
449.0
 31
0.0
  0
LINE
  5
12EA8
330
12B3F
100
AcDbEntity
  8
1
  6
Continuous
100
AcDbLine
 10
427.0
 20
450.4999999999998
 30
0.0
 11
454.4999999999998
 21
450.4999999999998
 31
0.0
  0
LINE
  5
12EA9
330
12B3F
100
AcDbEntity
  8
1
  6
Continuous
100
AcDbLine
 10
432.0
 20
448.0
 30
0.0
 11
410.0
 21
448.0
 31
0.0
  0
LINE
  5
12EAA
330
12B3F
100
AcDbEntity
  8
1
  6
Continuous
100
AcDbLine
 10
427.0
 20
451.0
 30
0.0
 11
415.0
 21
451.0
 31
0.0
  0
LINE
  5
12EAB
330
12B3F
100
AcDbEntity
  8
1
  6
Continuous
100
AcDbLine
 10
427.0
 20
449.5
 30
0.0
 11
415.0
 21
449.5
 31
0.0
  0
LINE
  5
12EAC
330
12B3F
100
AcDbEntity
  8
1
  6
Continuous
100
AcDbLine
 10
415.2071069999998
 20
451.292893
 30
0.0
 11
414.5
 21
452.0
 31
0.0
  0
LINE
  5
12EAD
330
12B3F
100
AcDbEntity
  8
4
  6
CENTER
100
AcDbLine
 10
409.55
 20
456.5
 30
0.0
 11
409.55
 21
450.0
 31
0.0
  0
ARC
  5
12EAE
330
12B3F
100
AcDbEntity
  8
1
  6
Continuous
100
AcDbCircle
 10
415.914214
 20
452.0
 30
0.0
 40
1.0
100
AcDbArc
 50
225.0
 51
270.0
  0
LINE
  5
12EAF
330
12B3F
100
AcDbEntity
  8
1
  6
Continuous
100
AcDbLine
 10
415.0
 20
448.0
 30
0.0
 11
415.0
 21
451.0
 31
0.0
  0
LINE
  5
12EB0
330
12B3F
100
AcDbEntity
  8
1
  6
Continuous
100
AcDbLine
 10
431.0201059999998
 20
448.5
 30
0.0
 11
427.0
 21
448.5
 31
0.0
  0
ARC
  5
12EB1
330
12B3F
100
AcDbEntity
  8
1
  6
Continuous
100
AcDbCircle
 10
426.0857859999998
 20
452.0
 30
0.0
 40
1.0
100
AcDbArc
 50
270.0
 51
315.0
  0
LINE
  5
12EB2
330
12B3F
100
AcDbEntity
  8
1
  6
Continuous
100
AcDbLine
 10
426.792893
 20
451.292893
 30
0.0
 11
427.5
 21
452.0
 31
0.0
  0
LINE
  5
12EB3
330
12B3F
100
AcDbEntity
  8
1
  6
Continuous
100
AcDbLine
 10
427.0
 20
448.0
 30
0.0
 11
427.0
 21
451.0
 31
0.0
  0
LINE
  5
12EB4
330
12B3F
100
AcDbEntity
  8
1
  6
Continuous
100
AcDbLine
 10
427.78233
 20
448.5
 30
0.0
 11
427.78233
 21
448.0
 31
0.0
  0
LINE
  5
12EB5
330
12B3F
100
AcDbEntity
  8
4
  6
CENTER
100
AcDbLine
 10
435.0
 20
456.5
 30
0.0
 11
435.0
 21
450.0
 31
0.0
  0
LINE
  5
12EB6
330
12B3F
100
AcDbEntity
  8
1
  6
Continuous
100
AcDbLine
 10
431.0201059999998
 20
448.5
 30
0.0
 11
431.0201059999998
 21
448.0
 31
0.0
  0
LINE
  5
12EB7
330
12B3F
100
AcDbEntity
  8
3
  6
DASHED
100
AcDbLine
 10
454.4999999999998
 20
449.0
 30
0.0
 11
480.0
 21
449.0
 31
0.0
  0
LINE
  5
12EB8
330
12B3F
100
AcDbEntity
  8
4
  6
CENTER
100
AcDbLine
 10
460.0
 20
456.5
 30
0.0
 11
460.0
 21
450.0
 31
0.0
  0
LINE
  5
12EB9
330
12B3F
100
AcDbEntity
  8
4
  6
CENTER
100
AcDbLine
 10
470.0
 20
456.5
 30
0.0
 11
470.0
 21
450.0
 31
0.0
  0
LINE
  5
12EBA
330
12B3F
100
AcDbEntity
  8
3
  6
DASHED
100
AcDbLine
 10
503.5
 20
450.4999999999998
 30
0.0
 11
503.5
 21
444.0
 31
0.0
  0
LINE
  5
12EBB
330
12B3F
100
AcDbEntity
  8
3
  6
DASHED
100
AcDbLine
 10
505.0
 20
450.4999999999998
 30
0.0
 11
505.0
 21
444.0
 31
0.0
  0
LINE
  5
12EBC
330
12B3F
100
AcDbEntity
  8
1
  6
Continuous
100
AcDbLine
 10
485.0
 20
444.0
 30
0.0
 11
485.0
 21
443.5
 31
0.0
  0
LINE
  5
12EBD
330
12B3F
100
AcDbEntity
  8
1
  6
Continuous
100
AcDbLine
 10
497.0
 20
444.0
 30
0.0
 11
497.0
 21
443.5
 31
0.0
  0
LINE
  5
12EBE
330
12B3F
100
AcDbEntity
  8
4
  6
CENTER
100
AcDbLine
 10
491.0
 20
457.6235419999998
 30
0.0
 11
491.0
 21
437.1560739999998
 31
0.0
  0
LINE
  5
12EBF
330
12B3F
100
AcDbEntity
  8
1
  6
Continuous
100
AcDbLine
 10
497.0
 20
443.5
 30
0.0
 11
485.0
 21
443.5
 31
0.0
  0
LINE
  5
12EC0
330
12B3F
100
AcDbEntity
  8
1
  6
Continuous
100
AcDbLine
 10
485.207107
 20
443.207107
 30
0.0
 11
484.4999999999997
 21
442.4999999999998
 31
0.0
  0
ARC
  5
12EC1
330
12B3F
100
AcDbEntity
  8
1
  6
Continuous
100
AcDbCircle
 10
485.9142139999998
 20
442.4999999999998
 30
0.0
 40
1.0
100
AcDbArc
 50
90.0
 51
135.0
  0
LINE
  5
12EC2
330
12B3F
100
AcDbEntity
  8
1
  6
Continuous
100
AcDbLine
 10
496.792893
 20
443.207107
 30
0.0
 11
497.5
 21
442.4999999999998
 31
0.0
  0
ARC
  5
12EC3
330
12B3F
100
AcDbEntity
  8
1
  6
Continuous
100
AcDbCircle
 10
496.0857859999999
 20
442.4999999999998
 30
0.0
 40
1.0
100
AcDbArc
 50
45.0
 51
90.0
  0
ARC
  5
12EC4
330
12B3F
100
AcDbEntity
  8
1
  6
Continuous
100
AcDbCircle
 10
503.5
 20
442.4999999999998
 30
0.0
 40
1.5
100
AcDbArc
 50
270.0
 51
0.0
  0
LINE
  5
12EC5
330
12B3F
100
AcDbEntity
  8
1
  6
Continuous
100
AcDbLine
 10
503.5
 20
444.0
 30
0.0
 11
503.5
 21
442.4999999999998
 31
0.0
  0
LINE
  5
12EC6
330
12B3F
100
AcDbEntity
  8
1
  6
Continuous
100
AcDbLine
 10
505.0
 20
444.0
 30
0.0
 11
505.0
 21
442.4999999999998
 31
0.0
  0
LINE
  5
12EC7
330
12B3F
100
AcDbEntity
  8
3
  6
DASHED
100
AcDbLine
 10
497.0
 20
445.0
 30
0.0
 11
485.0
 21
445.0
 31
0.0
  0
LINE
  5
12EC8
330
12B3F
100
AcDbEntity
  8
3
  6
DASHED
100
AcDbLine
 10
485.0
 20
446.4999999999998
 30
0.0
 11
485.0
 21
444.0
 31
0.0
  0
LINE
  5
12EC9
330
12B3F
100
AcDbEntity
  8
3
  6
DASHED
100
AcDbLine
 10
497.0
 20
446.4999999999998
 30
0.0
 11
497.0
 21
444.0
 31
0.0
  0
LINE
  5
12ECA
330
12B3F
100
AcDbEntity
  8
3
  6
DASHED
100
AcDbLine
 10
505.0
 20
450.4999999999998
 30
0.0
 11
503.5
 21
450.4999999999998
 31
0.0
  0
LINE
  5
12ECB
330
12B3F
100
AcDbEntity
  8
3
  6
DASHED
100
AcDbLine
 10
502.0
 20
446.4999999999998
 30
0.0
 11
502.0
 21
451.4999999999998
 31
0.0
  0
LINE
  5
12ECC
330
12B3F
100
AcDbEntity
  8
4
  6
CENTER
100
AcDbLine
 10
568.5
 20
456.5
 30
0.0
 11
568.5
 21
450.0
 31
0.0
  0
LINE
  5
12ECD
330
12B3F
100
AcDbEntity
  8
1
  6
Continuous
100
AcDbLine
 10
757.0
 20
452.0
 30
0.0
 11
757.0
 21
445.5
 31
0.0
  0
LINE
  5
12ECE
330
12B3F
100
AcDbEntity
  8
1
  6
Continuous
100
AcDbLine
 10
800.0
 20
453.5
 30
0.0
 11
800.0
 21
444.0
 31
0.0
  0
LINE
  5
12ECF
330
12B3F
100
AcDbEntity
  8
4
  6
CENTER
100
AcDbLine
 10
775.0
 20
456.5
 30
0.0
 11
775.0
 21
450.0
 31
0.0
  0
LINE
  5
12ED0
330
12B3F
100
AcDbEntity
  8
1
  6
Continuous
100
AcDbLine
 10
785.0
 20
448.4392169999998
 30
0.0
 11
785.0
 21
444.80161
 31
0.0
  0
LINE
  5
12ED1
330
12B3F
100
AcDbEntity
  8
4
  6
CENTER
100
AcDbLine
 10
785.0
 20
456.5
 30
0.0
 11
785.0
 21
450.0
 31
0.0
  0
ARC
  5
12ED2
330
12B3F
100
AcDbEntity
  8
1
  6
Continuous
100
AcDbCircle
 10
503.0
 20
145.5
 30
0.0
 40
2.0
100
AcDbArc
 50
0.0
 51
90.0
  0
ARC
  5
12ED3
330
12B3F
100
AcDbEntity
  8
1
  6
Continuous
100
AcDbCircle
 10
497.763932
 20
125.5
 30
0.0
 40
2.0
100
AcDbArc
 50
270.0
 51
333.434949
  0
ARC
  5
12ED4
330
12B3F
100
AcDbEntity
  8
1
  6
Continuous
100
AcDbCircle
 10
406.0
 20
149.0
 30
0.0
 40
2.0
100
AcDbArc
 50
90.0
 51
180.0
  0
ARC
  5
12ED5
330
12B3F
100
AcDbEntity
  8
1
  6
Continuous
100
AcDbCircle
 10
407.5
 20
549.0
 30
0.0
 40
2.0
100
AcDbArc
 50
90.0
 51
180.0
  0
ARC
  5
12ED6
330
12B3F
100
AcDbEntity
  8
1
  6
Continuous
100
AcDbCircle
 10
407.5
 20
705.4999999999997
 30
0.0
 40
2.0
100
AcDbArc
 50
180.0
 51
270.0
  0
LINE
  5
12ED7
330
12B3F
100
AcDbEntity
  8
1
  6
Continuous
100
AcDbLine
 10
757.066831
 20
126.5
 30
0.0
 11
500.4999999999998
 21
126.5
 31
0.0
  0
LINE
  5
12ED8
330
12B3F
100
AcDbEntity
  8
1
  6
Continuous
100
AcDbLine
 10
785.0668309999996
 20
124.0
 30
0.0
 11
757.066831
 21
126.5
 31
0.0
  0
LINE
  5
12ED9
330
12B3F
100
AcDbEntity
  8
1
  6
Continuous
100
AcDbLine
 10
800.0
 20
124.0
 30
0.0
 11
785.0668309999996
 21
124.0
 31
0.0
  0
ARC
  5
12EDA
330
12B3F
100
AcDbEntity
  8
3
  6
DASHED
100
AcDbCircle
 10
406.0
 20
127.0
 30
0.0
 40
2.0
100
AcDbArc
 50
180.0
 51
270.0
  0
LINE
  5
12EDB
330
12B3F
100
AcDbEntity
  8
1
  6
Continuous
100
AcDbLine
 10
109.0
 20
306.0
 30
0.0
 11
126.9354649999998
 21
306.0
 31
0.0
  0
LINE
  5
12EDC
330
12B3F
100
AcDbEntity
  8
1
  6
Continuous
100
AcDbLine
 10
155.9354649999999
 20
308.4999999999999
 30
0.0
 11
126.9354649999998
 21
306.0
 31
0.0
  0
LINE
  5
12EDD
330
12B3F
100
AcDbEntity
  8
1
  6
Continuous
100
AcDbLine
 10
404.0
 20
308.4999999999999
 30
0.0
 11
155.9354649999999
 21
308.4999999999999
 31
0.0
  0
LINE
  5
12EDE
330
12B3F
100
AcDbEntity
  8
3
  6
DASHED
100
AcDbLine
 10
424.544554
 20
308.4999999999999
 30
0.0
 11
404.0
 21
308.4999999999999
 31
0.0
  0
LINE
  5
12EDF
330
12B3F
100
AcDbEntity
  8
3
  6
DASHED
100
AcDbLine
 10
428.46983
 20
308.4999999999999
 30
0.0
 11
427.0948299999998
 21
308.4999999999999
 31
0.0
  0
ARC
  5
12EE0
330
12B3F
100
AcDbEntity
  8
1
  6
Continuous
100
AcDbCircle
 10
406.0
 20
305.5
 30
0.0
 40
2.0
100
AcDbArc
 50
180.0
 51
270.0
  0
ARC
  5
12EE1
330
12B3F
100
AcDbEntity
  8
1
  6
Continuous
100
AcDbCircle
 10
406.0
 20
327.4999999999999
 30
0.0
 40
2.0
100
AcDbArc
 50
90.0
 51
180.0
  0
LINE
  5
12EE2
330
12B3F
100
AcDbEntity
  8
1
  6
Continuous
100
AcDbLine
 10
499.552786
 20
329.894427
 30
0.0
 11
499.75
 21
329.4999999999999
 31
0.0
  0
ARC
  5
12EE3
330
12B3F
100
AcDbEntity
  8
1
  6
Continuous
100
AcDbCircle
 10
497.763932
 20
329.0
 30
0.0
 40
2.0
100
AcDbArc
 50
26.565051
 51
90.0
  0
LINE
  5
12EE4
330
12B3F
100
AcDbEntity
  8
3
  6
DASHED
100
AcDbLine
 10
505.0
 20
319.0
 30
0.0
 11
505.0
 21
309.0
 31
0.0
  0
ARC
  5
12EE5
330
12B3F
100
AcDbEntity
  8
3
  6
DASHED
100
AcDbCircle
 10
503.0
 20
309.0
 30
0.0
 40
2.0
100
AcDbArc
 50
270.0
 51
0.0
  0
ARC
  5
12EE6
330
12B3F
100
AcDbEntity
  8
1
  6
Continuous
100
AcDbCircle
 10
456.5
 20
47.0
 30
0.0
 40
2.0
100
AcDbArc
 50
90.0
 51
180.0
  0
ARC
  5
12EE7
330
12B3F
100
AcDbEntity
  8
3
  6
DASHED
100
AcDbCircle
 10
478.0
 20
47.5
 30
0.0
 40
2.0
100
AcDbArc
 50
270.0
 51
0.0
  0
LINE
  5
12EE8
330
12B3F
100
AcDbEntity
  8
1
  6
Continuous
100
AcDbLine
 10
33.0
 20
122.5
 30
0.0
 11
33.0
 21
124.0
 31
0.0
  0
LINE
  5
12EE9
330
12B3F
100
AcDbEntity
  8
1
  6
Continuous
100
AcDbLine
 10
26.5
 20
122.5
 30
0.0
 11
33.0
 21
122.5
 31
0.0
  0
LINE
  5
12EEA
330
12B3F
100
AcDbEntity
  8
1
  6
Continuous
100
AcDbLine
 10
26.5
 20
126.5
 30
0.0
 11
30.5
 21
126.5
 31
0.0
  0
LINE
  5
12EEB
330
12B3F
100
AcDbEntity
  8
1
  6
Continuous
100
AcDbLine
 10
35.5
 20
124.0
 30
0.0
 11
30.5
 21
124.0
 31
0.0
  0
LINE
  5
12EEC
330
12B3F
100
AcDbEntity
  8
1
  6
Continuous
100
AcDbLine
 10
35.5
 20
124.0
 30
0.0
 11
35.5
 21
146.0
 31
0.0
  0
LINE
  5
12EED
330
12B3F
100
AcDbEntity
  8
1
  6
Continuous
100
AcDbLine
 10
30.5
 20
124.0
 30
0.0
 11
30.5
 21
146.0
 31
0.0
  0
LINE
  5
12EEE
330
12B3F
100
AcDbEntity
  8
1
  6
Continuous
100
AcDbLine
 10
29.0
 20
129.0
 30
0.0
 11
29.0
 21
141.0
 31
0.0
  0
LINE
  5
12EEF
330
12B3F
100
AcDbEntity
  8
1
  6
Continuous
100
AcDbLine
 10
27.5
 20
129.0
 30
0.0
 11
27.5
 21
141.0
 31
0.0
  0
LINE
  5
12EF0
330
12B3F
100
AcDbEntity
  8
1
  6
Continuous
100
AcDbLine
 10
30.5
 20
141.0
 30
0.0
 11
27.5
 21
141.0
 31
0.0
  0
ARC
  5
12EF1
330
12B3F
100
AcDbEntity
  8
1
  6
Continuous
100
AcDbCircle
 10
26.5
 20
140.085786
 30
0.0
 40
1.0
100
AcDbArc
 50
0.0
 51
45.0
  0
LINE
  5
12EF2
330
12B3F
100
AcDbEntity
  8
1
  6
Continuous
100
AcDbLine
 10
27.207107
 20
140.7928929999999
 30
0.0
 11
26.5
 21
141.5
 31
0.0
  0
LINE
  5
12EF3
330
12B3F
100
AcDbEntity
  8
1
  6
Continuous
100
AcDbLine
 10
30.5
 20
129.0
 30
0.0
 11
27.5
 21
129.0
 31
0.0
  0
LINE
  5
12EF4
330
12B3F
100
AcDbEntity
  8
1
  6
Continuous
100
AcDbLine
 10
27.207107
 20
129.207107
 30
0.0
 11
26.5
 21
128.4999999999998
 31
0.0
  0
ARC
  5
12EF5
330
12B3F
100
AcDbEntity
  8
1
  6
Continuous
100
AcDbCircle
 10
26.5
 20
129.9142139999998
 30
0.0
 40
1.0
100
AcDbArc
 50
315.0
 51
0.0
  0
LINE
  5
12EF6
330
12B3F
100
AcDbEntity
  8
1
  6
Continuous
100
AcDbLine
 10
27.0
 20
141.0
 30
0.0
 11
27.0
 21
148.5
 31
0.0
  0
LINE
  5
12EF7
330
12B3F
100
AcDbEntity
  8
1
  6
Continuous
100
AcDbLine
 10
874.5
 20
122.5
 30
0.0
 11
874.5
 21
126.5
 31
0.0
  0
LINE
  5
12EF8
330
12B3F
100
AcDbEntity
  8
1
  6
Continuous
100
AcDbLine
 10
881.0
 20
124.0
 30
0.0
 11
881.0
 21
149.5
 31
0.0
  0
ARC
  5
12EF9
330
12B3F
100
AcDbEntity
  8
1
  6
Continuous
100
AcDbCircle
 10
881.0
 20
124.0
 30
0.0
 40
1.5
100
AcDbArc
 50
270.0
 51
0.0
  0
LINE
  5
12EFA
330
12B3F
100
AcDbEntity
  8
1
  6
Continuous
100
AcDbLine
 10
881.0
 20
122.5
 30
0.0
 11
874.5
 21
122.5
 31
0.0
  0
LINE
  5
12EFB
330
12B3F
100
AcDbEntity
  8
4
  6
CENTER
100
AcDbLine
 10
868.4466720000001
 20
135.0
 30
0.0
 11
887.5
 21
135.0
 31
0.0
  0
LINE
  5
12EFC
330
12B3F
100
AcDbEntity
  8
1
  6
Continuous
100
AcDbLine
 10
878.0
 20
148.5
 30
0.0
 11
878.0
 21
150.0
 31
0.0
  0
LINE
  5
12EFD
330
12B3F
100
AcDbEntity
  8
1
  6
Continuous
100
AcDbLine
 10
872.0
 20
124.0
 30
0.0
 11
877.0
 21
124.0
 31
0.0
  0
LINE
  5
12EFE
330
12B3F
100
AcDbEntity
  8
1
  6
Continuous
100
AcDbLine
 10
878.0
 20
149.5
 30
0.0
 11
881.0
 21
149.5
 31
0.0
  0
LINE
  5
12EFF
330
12B3F
100
AcDbEntity
  8
1
  6
Continuous
100
AcDbLine
 10
882.5000000000001
 20
124.0
 30
0.0
 11
882.5000000000001
 21
151.0
 31
0.0
  0
LINE
  5
12F00
330
12B3F
100
AcDbEntity
  8
1
  6
Continuous
100
AcDbLine
 10
871.4999999999999
 20
123.5
 30
0.0
 11
871.4999999999999
 21
147.5
 31
0.0
  0
LINE
  5
12F01
330
12B3F
100
AcDbEntity
  8
1
  6
Continuous
100
AcDbLine
 10
870.0
 20
123.5
 30
0.0
 11
870.0
 21
148.5
 31
0.0
  0
LINE
  5
12F02
330
12B3F
100
AcDbEntity
  8
1
  6
Continuous
100
AcDbLine
 10
870.0
 20
123.5
 30
0.0
 11
871.4999999999999
 21
123.5
 31
0.0
  0
LINE
  5
12F03
330
12B3F
100
AcDbEntity
  8
1
  6
Continuous
100
AcDbLine
 10
871.4999999999999
 20
146.0
 30
0.0
 11
875.5
 21
146.0
 31
0.0
  0
LINE
  5
12F04
330
12B3F
100
AcDbEntity
  8
1
  6
Continuous
100
AcDbLine
 10
878.0
 20
150.0
 30
0.0
 11
871.4999999999999
 21
150.0
 31
0.0
  0
LINE
  5
12F05
330
12B3F
100
AcDbEntity
  8
1
  6
Continuous
100
AcDbLine
 10
874.5
 20
151.0
 30
0.0
 11
882.5000000000001
 21
151.0
 31
0.0
  0
ARC
  5
12F06
330
12B3F
100
AcDbEntity
  8
1
  6
Continuous
100
AcDbCircle
 10
871.4999999999999
 20
148.5
 30
0.0
 40
1.5
100
AcDbArc
 50
90.0
 51
180.0
  0
LINE
  5
12F07
330
12B3F
100
AcDbEntity
  8
1
  6
Continuous
100
AcDbLine
 10
874.5
 20
150.0
 30
0.0
 11
874.5
 21
151.0
 31
0.0
  0
LINE
  5
12F08
330
12B3F
100
AcDbEntity
  8
4
  6
CENTER
100
AcDbLine
 10
865.8563789999996
 20
137.5
 30
0.0
 11
883.6505240000001
 21
137.5
 31
0.0
  0
LINE
  5
12F09
330
12B3F
100
AcDbEntity
  8
1
  6
Continuous
100
AcDbLine
 10
881.0
 20
124.0
 30
0.0
 11
874.5
 21
124.0
 31
0.0
  0
ARC
  5
12F0A
330
12B3F
100
AcDbEntity
  8
1
  6
Continuous
100
AcDbCircle
 10
881.0
 20
149.5
 30
0.0
 40
1.5
100
AcDbArc
 50
0.0
 51
90.0
  0
LINE
  5
12F0B
330
12B3F
100
AcDbEntity
  8
1
  6
Continuous
100
AcDbLine
 10
870.0
 20
147.5
 30
0.0
 11
875.5
 21
147.5
 31
0.0
  0
LINE
  5
12F0C
330
12B3F
100
AcDbEntity
  8
1
  6
Continuous
100
AcDbLine
 10
874.0
 20
143.5
 30
0.0
 11
874.0
 21
131.4999999999998
 31
0.0
  0
ARC
  5
12F0D
330
12B3F
100
AcDbEntity
  8
1
  6
Continuous
100
AcDbCircle
 10
871.4999999999999
 20
142.585786
 30
0.0
 40
1.0
100
AcDbArc
 50
0.0
 51
45.0
  0
LINE
  5
12F0E
330
12B3F
100
AcDbEntity
  8
1
  6
Continuous
100
AcDbLine
 10
872.2071069999996
 20
143.2928929999999
 30
0.0
 11
871.4999999999999
 21
144.0
 31
0.0
  0
LINE
  5
12F0F
330
12B3F
100
AcDbEntity
  8
1
  6
Continuous
100
AcDbLine
 10
872.2071069999996
 20
131.707107
 30
0.0
 11
871.4999999999999
 21
131.0
 31
0.0
  0
ARC
  5
12F10
330
12B3F
100
AcDbEntity
  8
1
  6
Continuous
100
AcDbCircle
 10
871.4999999999999
 20
132.4142139999999
 30
0.0
 40
1.0
100
AcDbArc
 50
315.0
 51
0.0
  0
LINE
  5
12F11
330
12B3F
100
AcDbEntity
  8
1
  6
Continuous
100
AcDbLine
 10
872.4999999999999
 20
143.5
 30
0.0
 11
872.4999999999999
 21
131.4999999999998
 31
0.0
  0
LINE
  5
12F12
330
12B3F
100
AcDbEntity
  8
1
  6
Continuous
100
AcDbLine
 10
875.5
 20
143.5
 30
0.0
 11
872.4999999999999
 21
143.5
 31
0.0
  0
LINE
  5
12F13
330
12B3F
100
AcDbEntity
  8
1
  6
Continuous
100
AcDbLine
 10
875.5
 20
131.4999999999998
 30
0.0
 11
872.4999999999999
 21
131.4999999999998
 31
0.0
  0
LINE
  5
12F14
330
12B3F
100
AcDbEntity
  8
1
  6
Continuous
100
AcDbLine
 10
875.5
 20
148.5
 30
0.0
 11
875.5
 21
126.5
 31
0.0
  0
LINE
  5
12F15
330
12B3F
100
AcDbEntity
  8
1
  6
Continuous
100
AcDbLine
 10
880.4999999999999
 20
148.5
 30
0.0
 11
875.5
 21
148.5
 31
0.0
  0
LINE
  5
12F16
330
12B3F
100
AcDbEntity
  8
1
  6
Continuous
100
AcDbLine
 10
880.4999999999999
 20
148.5
 30
0.0
 11
880.4999999999999
 21
146.202494
 31
0.0
  0
LINE
  5
12F17
330
12B3F
100
AcDbEntity
  8
1
  6
Continuous
100
AcDbLine
 10
881.0
 20
126.5
 30
0.0
 11
874.5
 21
126.5
 31
0.0
  0
LINE
  5
12F18
330
12B3F
100
AcDbEntity
  8
1
  6
Continuous
100
AcDbLine
 10
881.0
 20
146.202494
 30
0.0
 11
875.5
 21
146.202494
 31
0.0
  0
LINE
  5
12F19
330
12B3F
100
AcDbEntity
  8
1
  6
Continuous
100
AcDbLine
 10
881.0
 20
140.54564
 30
0.0
 11
875.5
 21
140.54564
 31
0.0
  0
LINE
  5
12F1A
330
12B3F
100
AcDbEntity
  8
1
  6
Continuous
100
AcDbLine
 10
881.0
 20
139.8801629999999
 30
0.0
 11
875.5
 21
139.8801629999999
 31
0.0
  0
LINE
  5
12F1B
330
12B3F
100
AcDbEntity
  8
1
  6
Continuous
100
AcDbLine
 10
880.4999999999999
 20
139.8801629999999
 30
0.0
 11
880.4999999999999
 21
126.5
 31
0.0
  0
LINE
  5
12F1C
330
12B3F
100
AcDbEntity
  8
1
  6
Continuous
100
AcDbLine
 10
881.0
 20
135.0
 30
0.0
 11
882.5000000000001
 21
135.0
 31
0.0
  0
LINE
  5
12F1D
330
12B3F
100
AcDbEntity
  8
1
  6
Continuous
100
AcDbLine
 10
882.5000000000001
 20
128.4999999999998
 30
0.0
 11
881.0
 21
128.4999999999998
 31
0.0
  0
LINE
  5
12F1E
330
12B3F
100
AcDbEntity
  8
1
  6
Continuous
100
AcDbLine
 10
872.0
 20
143.5
 30
0.0
 11
872.0
 21
146.0
 31
0.0
  0
LINE
  5
12F1F
330
12B3F
100
AcDbEntity
  8
1
  6
Continuous
100
AcDbLine
 10
872.0
 20
124.0
 30
0.0
 11
872.0
 21
131.4999999999998
 31
0.0
  0
LINE
  5
12F20
330
12B3F
100
AcDbEntity
  8
1
  6
Continuous
100
AcDbLine
 10
795.0
 20
522.5
 30
0.0
 11
795.0
 21
525.4999999999999
 31
0.0
  0
LINE
  5
12F21
330
12B3F
100
AcDbEntity
  8
1
  6
Continuous
100
AcDbLine
 10
768.5
 20
523.973214
 30
0.0
 11
768.5
 21
525.4999999999999
 31
0.0
  0
LINE
  5
12F22
330
12B3F
100
AcDbEntity
  8
1
  6
Continuous
100
AcDbLine
 10
795.0
 20
524.0
 30
0.0
 11
785.0
 21
524.0
 31
0.0
  0
LINE
  5
12F23
330
12B3F
100
AcDbEntity
  8
1
  6
Continuous
100
AcDbLine
 10
785.133398
 20
523.9940569999999
 30
0.0
 11
768.5
 21
525.4791809999998
 31
0.0
  0
LINE
  5
12F24
330
12B3F
100
AcDbEntity
  8
1
  6
Continuous
100
AcDbLine
 10
793.5
 20
527.0
 30
0.0
 11
770.0
 21
527.0
 31
0.0
  0
ARC
  5
12F25
330
12B3F
100
AcDbEntity
  8
1
  6
Continuous
100
AcDbCircle
 10
793.5
 20
525.4999999999999
 30
0.0
 40
1.5
100
AcDbArc
 50
0.0
 51
90.0
  0
ARC
  5
12F26
330
12B3F
100
AcDbEntity
  8
1
  6
Continuous
100
AcDbCircle
 10
770.0
 20
525.4999999999999
 30
0.0
 40
1.5
100
AcDbArc
 50
90.0
 51
180.0
  0
LINE
  5
12F27
330
12B3F
100
AcDbEntity
  8
1
  6
Continuous
100
AcDbLine
 10
768.5
 20
450.4999999999998
 30
0.0
 11
768.5
 21
453.5
 31
0.0
  0
LINE
  5
12F28
330
12B3F
100
AcDbEntity
  8
1
  6
Continuous
100
AcDbLine
 10
795.0
 20
450.4999999999998
 30
0.0
 11
795.0
 21
453.5
 31
0.0
  0
LINE
  5
12F29
330
12B3F
100
AcDbEntity
  8
1
  6
Continuous
100
AcDbLine
 10
795.0
 20
452.0
 30
0.0
 11
768.5
 21
452.0
 31
0.0
  0
LINE
  5
12F2A
330
12B3F
100
AcDbEntity
  8
1
  6
Continuous
100
AcDbLine
 10
793.5
 20
449.0
 30
0.0
 11
770.0
 21
449.0
 31
0.0
  0
ARC
  5
12F2B
330
12B3F
100
AcDbEntity
  8
1
  6
Continuous
100
AcDbCircle
 10
793.5
 20
450.4999999999998
 30
0.0
 40
1.5
100
AcDbArc
 50
270.0
 51
0.0
  0
ARC
  5
12F2C
330
12B3F
100
AcDbEntity
  8
1
  6
Continuous
100
AcDbCircle
 10
770.0
 20
450.4999999999998
 30
0.0
 40
1.5
100
AcDbArc
 50
180.0
 51
270.0
  0
LINE
  5
12F2D
330
12B3F
100
AcDbEntity
  8
1
  6
Continuous
100
AcDbLine
 10
785.133398
 20
330.505943
 30
0.0
 11
768.5
 21
329.020819
 31
0.0
  0
LINE
  5
12F2E
330
12B3F
100
AcDbEntity
  8
1
  6
Continuous
100
AcDbLine
 10
793.5
 20
327.4999999999999
 30
0.0
 11
770.0
 21
327.4999999999999
 31
0.0
  0
LINE
  5
12F2F
330
12B3F
100
AcDbEntity
  8
1
  6
Continuous
100
AcDbLine
 10
768.5
 20
330.5267859999998
 30
0.0
 11
768.5
 21
329.0
 31
0.0
  0
ARC
  5
12F30
330
12B3F
100
AcDbEntity
  8
1
  6
Continuous
100
AcDbCircle
 10
770.0
 20
329.0
 30
0.0
 40
1.5
100
AcDbArc
 50
180.0
 51
270.0
  0
LINE
  5
12F31
330
12B3F
100
AcDbEntity
  8
1
  6
Continuous
100
AcDbLine
 10
795.0
 20
332.0
 30
0.0
 11
795.0
 21
329.0
 31
0.0
  0
LINE
  5
12F32
330
12B3F
100
AcDbEntity
  8
1
  6
Continuous
100
AcDbLine
 10
795.0
 20
330.5
 30
0.0
 11
785.0
 21
330.5
 31
0.0
  0
ARC
  5
12F33
330
12B3F
100
AcDbEntity
  8
1
  6
Continuous
100
AcDbCircle
 10
793.5
 20
329.0
 30
0.0
 40
1.5
100
AcDbArc
 50
270.0
 51
0.0
  0
LINE
  5
12F34
330
12B3F
100
AcDbEntity
  8
1
  6
Continuous
100
AcDbLine
 10
793.5
 20
127.0
 30
0.0
 11
770.0
 21
127.0
 31
0.0
  0
ARC
  5
12F35
330
12B3F
100
AcDbEntity
  8
1
  6
Continuous
100
AcDbCircle
 10
770.0
 20
125.5
 30
0.0
 40
1.5
100
AcDbArc
 50
90.0
 51
180.0
  0
LINE
  5
12F36
330
12B3F
100
AcDbEntity
  8
1
  6
Continuous
100
AcDbLine
 10
768.5
 20
125.479181
 30
0.0
 11
768.5
 21
125.5
 31
0.0
  0
ARC
  5
12F37
330
12B3F
100
AcDbEntity
  8
1
  6
Continuous
100
AcDbCircle
 10
793.5
 20
125.5
 30
0.0
 40
1.5
100
AcDbArc
 50
0.0
 51
90.0
  0
LINE
  5
12F38
330
12B3F
100
AcDbEntity
  8
1
  6
Continuous
100
AcDbLine
 10
795.0
 20
124.0
 30
0.0
 11
795.0
 21
125.5
 31
0.0
  0
LINE
  5
12F39
330
12B3F
100
AcDbEntity
  8
1
  6
Continuous
100
AcDbLine
 10
795.0
 20
42.5
 30
0.0
 11
768.5
 21
42.5
 31
0.0
  0
LINE
  5
12F3A
330
12B3F
100
AcDbEntity
  8
1
  6
Continuous
100
AcDbLine
 10
793.5
 20
45.49999999999999
 30
0.0
 11
770.0
 21
45.49999999999999
 31
0.0
  0
LINE
  5
12F3B
330
12B3F
100
AcDbEntity
  8
1
  6
Continuous
100
AcDbLine
 10
768.5
 20
44.0
 30
0.0
 11
768.5
 21
41.0
 31
0.0
  0
ARC
  5
12F3C
330
12B3F
100
AcDbEntity
  8
1
  6
Continuous
100
AcDbCircle
 10
770.0
 20
44.0
 30
0.0
 40
1.5
100
AcDbArc
 50
90.0
 51
180.0
  0
LINE
  5
12F3D
330
12B3F
100
AcDbEntity
  8
1
  6
Continuous
100
AcDbLine
 10
795.0
 20
44.0
 30
0.0
 11
795.0
 21
41.0
 31
0.0
  0
ARC
  5
12F3E
330
12B3F
100
AcDbEntity
  8
1
  6
Continuous
100
AcDbCircle
 10
793.5
 20
44.0
 30
0.0
 40
1.5
100
AcDbArc
 50
0.0
 51
90.0
  0
ARC
  5
12F3F
330
12B3F
100
AcDbEntity
  8
1
  6
Continuous
100
AcDbCircle
 10
798.5
 20
47.5
 30
0.0
 40
1.5
100
AcDbArc
 50
0.0
 51
90.0
  0
LINE
  5
12F40
330
12B3F
100
AcDbEntity
  8
1
  6
Continuous
100
AcDbLine
 10
142.0
 20
308.0
 30
0.0
 11
115.5
 21
308.0
 31
0.0
  0
LINE
  5
12F41
330
12B3F
100
AcDbEntity
  8
1
  6
Continuous
100
AcDbLine
 10
114.0
 20
306.0
 30
0.0
 11
114.0
 21
306.4999999999999
 31
0.0
  0
ARC
  5
12F42
330
12B3F
100
AcDbEntity
  8
1
  6
Continuous
100
AcDbCircle
 10
115.5
 20
306.4999999999999
 30
0.0
 40
1.5
100
AcDbArc
 50
90.0
 51
180.0
  0
ARC
  5
12F43
330
12B3F
100
AcDbEntity
  8
1
  6
Continuous
100
AcDbCircle
 10
142.0
 20
306.4999999999999
 30
0.0
 40
1.5
100
AcDbArc
 50
36.964804
 51
90.0
  0
LINE
  5
12F44
330
12B3F
100
AcDbEntity
  8
5
  6
PHANTOM
100
AcDbLine
 10
792.6274889999997
 20
521.0
 30
0.0
 11
406.0
 21
521.0
 31
0.0
  0
LINE
  5
12F45
330
12B3F
100
AcDbEntity
  8
5
  6
PHANTOM
100
AcDbLine
 10
773.5
 20
540.0
 30
0.0
 11
450.7848819999998
 21
540.0
 31
0.0
  0
LINE
  5
12F46
330
12B3F
100
AcDbEntity
  8
5
  6
PHANTOM
100
AcDbLine
 10
775.0
 20
545.0
 30
0.0
 11
451.0
 21
545.0
 31
0.0
  0
ARC
  5
12F47
330
12B3F
100
AcDbEntity
  8
5
  6
PHANTOM
100
AcDbCircle
 10
430.0
 20
536.0
 30
0.0
 40
2.399999999999999
100
AcDbArc
 50
0.0
 51
180.0
  0
ARC
  5
12F48
330
12B3F
100
AcDbEntity
  8
5
  6
PHANTOM
100
AcDbCircle
 10
430.0
 20
534.0
 30
0.0
 40
2.399999999999999
100
AcDbArc
 50
180.0
 51
0.0
  0
ARC
  5
12F49
330
12B3F
100
AcDbEntity
  8
5
  6
PHANTOM
100
AcDbCircle
 10
430.0
 20
536.0
 30
0.0
 40
3.75
100
AcDbArc
 50
0.0
 51
180.0
  0
ARC
  5
12F4A
330
12B3F
100
AcDbEntity
  8
5
  6
PHANTOM
100
AcDbCircle
 10
430.0
 20
534.0
 30
0.0
 40
3.75
100
AcDbArc
 50
180.0
 51
0.0
  0
LINE
  5
12F4B
330
12B3F
100
AcDbEntity
  8
5
  6
PHANTOM
100
AcDbLine
 10
450.7848819999998
 20
540.0
 30
0.0
 11
421.7848819999998
 21
542.4999999999998
 31
0.0
  0
LINE
  5
12F4C
330
12B3F
100
AcDbEntity
  8
5
  6
PHANTOM
100
AcDbLine
 10
451.0
 20
545.0
 30
0.0
 11
422.0
 21
547.5
 31
0.0
  0
ARC
  5
12F4D
330
12B3F
100
AcDbEntity
  8
5
  6
PHANTOM
100
AcDbCircle
 10
406.0
 20
523.0
 30
0.0
 40
2.0
100
AcDbArc
 50
180.0
 51
270.0
  0
LINE
  5
12F4E
330
12B3F
100
AcDbEntity
  8
5
  6
PHANTOM
100
AcDbLine
 10
405.067144
 20
541.1783709999999
 30
0.0
 11
412.5771409999998
 21
538.9149169999998
 31
0.0
  0
LINE
  5
12F4F
330
12B3F
100
AcDbEntity
  8
5
  6
PHANTOM
100
AcDbLine
 10
405.4999999999997
 20
535.0
 30
0.0
 11
412.0
 21
535.0
 31
0.0
  0
LINE
  5
12F50
330
12B3F
100
AcDbEntity
  8
5
  6
PHANTOM
100
AcDbLine
 10
404.0
 20
547.5
 30
0.0
 11
404.0
 21
542.6145589999999
 31
0.0
  0
ARC
  5
12F51
330
12B3F
100
AcDbEntity
  8
5
  6
PHANTOM
100
AcDbCircle
 10
405.4999999999997
 20
544.0
 30
0.0
 40
1.5
100
AcDbArc
 50
180.0
 51
270.0
  0
ARC
  5
12F52
330
12B3F
100
AcDbEntity
  8
5
  6
PHANTOM
100
AcDbCircle
 10
405.4999999999997
 20
542.6145589999999
 30
0.0
 40
1.5
100
AcDbArc
 50
180.0
 51
253.2276069999999
  0
ARC
  5
12F53
330
12B3F
100
AcDbEntity
  8
5
  6
PHANTOM
100
AcDbCircle
 10
405.4999999999997
 20
533.4999999999999
 30
0.0
 40
1.5
100
AcDbArc
 50
90.0
 51
180.0
  0
LINE
  5
12F54
330
12B3F
100
AcDbEntity
  8
5
  6
PHANTOM
100
AcDbLine
 10
404.0
 20
525.0
 30
0.0
 11
404.0
 21
523.0
 31
0.0
  0
LINE
  5
12F55
330
12B3F
100
AcDbEntity
  8
5
  6
PHANTOM
100
AcDbLine
 10
427.6
 20
534.0
 30
0.0
 11
427.6
 21
536.0
 31
0.0
  0
LINE
  5
12F56
330
12B3F
100
AcDbEntity
  8
5
  6
PHANTOM
100
AcDbLine
 10
426.25
 20
534.0
 30
0.0
 11
426.25
 21
536.0
 31
0.0
  0
CIRCLE
  5
12F57
330
12B3F
100
AcDbEntity
  8
5
  6
PHANTOM
100
AcDbCircle
 10
420.0
 20
535.0
 30
0.0
 40
2.399999999999999
  0
ARC
  5
12F58
330
12B3F
100
AcDbEntity
  8
5
  6
PHANTOM
100
AcDbCircle
 10
412.0
 20
537.0
 30
0.0
 40
2.0
100
AcDbArc
 50
270.0
 51
73.22760699999998
  0
LINE
  5
12F59
330
12B3F
100
AcDbEntity
  8
4
  6
CENTER
100
AcDbLine
 10
420.0
 20
529.25
 30
0.0
 11
420.0
 21
540.7499999999998
 31
0.0
  0
CIRCLE
  5
12F5A
330
12B3F
100
AcDbEntity
  8
5
  6
PHANTOM
100
AcDbCircle
 10
420.0
 20
535.0
 30
0.0
 40
3.75
  0
LINE
  5
12F5B
330
12B3F
100
AcDbEntity
  8
5
  6
PHANTOM
100
AcDbLine
 10
433.75
 20
534.0
 30
0.0
 11
433.75
 21
536.0
 31
0.0
  0
LINE
  5
12F5C
330
12B3F
100
AcDbEntity
  8
5
  6
PHANTOM
100
AcDbLine
 10
432.3999999999998
 20
534.0
 30
0.0
 11
432.3999999999998
 21
536.0
 31
0.0
  0
LINE
  5
12F5D
330
12B3F
100
AcDbEntity
  8
4
  6
CENTER
100
AcDbLine
 10
430.0
 20
528.2499999999998
 30
0.0
 11
430.0
 21
541.75
 31
0.0
  0
ARC
  5
12F5E
330
12B3F
100
AcDbEntity
  8
5
  6
PHANTOM
100
AcDbCircle
 10
796.4999999999998
 20
543.0
 30
0.0
 40
2.0
100
AcDbArc
 50
0.0
 51
90.0
  0
LINE
  5
12F5F
330
12B3F
100
AcDbEntity
  8
5
  6
PHANTOM
100
AcDbLine
 10
798.691288
 20
529.0
 30
0.0
 11
797.0837089999998
 21
529.0
 31
0.0
  0
LINE
  5
12F60
330
12B3F
100
AcDbEntity
  8
5
  6
PHANTOM
100
AcDbLine
 10
798.335541
 20
525.296756
 30
0.0
 11
796.06924
 21
526.3681839999998
 31
0.0
  0
LINE
  5
12F61
330
12B3F
100
AcDbEntity
  8
5
  6
PHANTOM
100
AcDbLine
 10
797.0837089999998
 20
529.0
 30
0.0
 11
797.6635019999998
 21
530.504144
 31
0.0
  0
LINE
  5
12F62
330
12B3F
100
AcDbEntity
  8
4
  6
CENTER
100
AcDbLine
 10
801.0
 20
535.0
 30
0.0
 11
754.25
 21
535.0
 31
0.0
  0
ARC
  5
12F63
330
12B3F
100
AcDbEntity
  8
5
  6
PHANTOM
100
AcDbCircle
 10
792.6274889999997
 20
523.0
 30
0.0
 40
2.0
100
AcDbArc
 50
270.0
 51
338.920162
  0
LINE
  5
12F64
330
12B3F
100
AcDbEntity
  8
4
  6
CENTER
100
AcDbLine
 10
786.0
 20
520.0
 30
0.0
 11
786.0
 21
550.0
 31
0.0
  0
ARC
  5
12F65
330
12B3F
100
AcDbEntity
  8
5
  6
PHANTOM
100
AcDbCircle
 10
773.5
 20
541.5
 30
0.0
 40
1.5
100
AcDbArc
 50
270.0
 51
0.0
  0
LINE
  5
12F66
330
12B3F
100
AcDbEntity
  8
5
  6
PHANTOM
100
AcDbLine
 10
796.4999999999998
 20
545.0
 30
0.0
 11
780.5
 21
545.0
 31
0.0
  0
LINE
  5
12F67
330
12B3F
100
AcDbEntity
  8
5
  6
PHANTOM
100
AcDbLine
 10
794.578195
 20
522.5
 30
0.0
 11
797.0837089999998
 21
529.0
 31
0.0
  0
LINE
  5
12F68
330
12B3F
100
AcDbEntity
  8
5
  6
PHANTOM
100
AcDbLine
 10
794.4936489999999
 20
522.280663
 30
0.0
 11
794.578195
 21
522.5
 31
0.0
  0
LINE
  5
12F69
330
12B3F
100
AcDbEntity
  8
5
  6
PHANTOM
100
AcDbLine
 10
775.0
 20
541.5
 30
0.0
 11
775.0
 21
545.0
 31
0.0
  0
LINE
  5
12F6A
330
12B3F
100
AcDbEntity
  8
5
  6
PHANTOM
100
AcDbLine
 10
776.5
 20
543.5
 30
0.0
 11
775.4999999999999
 21
543.5
 31
0.0
  0
LINE
  5
12F6B
330
12B3F
100
AcDbEntity
  8
5
  6
PHANTOM
100
AcDbLine
 10
776.5
 20
543.5
 30
0.0
 11
780.5
 21
545.0
 31
0.0
  0
LINE
  5
12F6C
330
12B3F
100
AcDbEntity
  8
5
  6
PHANTOM
100
AcDbLine
 10
800.0
 20
535.0
 30
0.0
 11
800.0
 21
536.5
 31
0.0
  0
ARC
  5
12F6D
330
12B3F
100
AcDbEntity
  8
5
  6
PHANTOM
100
AcDbCircle
 10
786.0
 20
535.0
 30
0.0
 40
12.5
100
AcDbArc
 50
338.920162
 51
0.0
  0
LINE
  5
12F6E
330
12B3F
100
AcDbEntity
  8
5
  6
PHANTOM
100
AcDbLine
 10
798.5
 20
535.0
 30
0.0
 11
798.5
 21
543.0
 31
0.0
  0
ARC
  5
12F6F
330
12B3F
100
AcDbEntity
  8
5
  6
PHANTOM
100
AcDbCircle
 10
786.0
 20
535.0
 30
0.0
 40
14.0
100
AcDbArc
 50
338.920162
 51
0.0
  0
LINE
  5
12F70
330
12B3F
100
AcDbEntity
  8
5
  6
PHANTOM
100
AcDbLine
 10
800.0
 20
539.0
 30
0.0
 11
798.5
 21
539.0
 31
0.0
  0
LINE
  5
12F71
330
12B3F
100
AcDbEntity
  8
5
  6
PHANTOM
100
AcDbLine
 10
798.335541
 20
525.296756
 30
0.0
 11
799.597809
 21
528.5714289999998
 31
0.0
  0
LINE
  5
12F72
330
12B3F
100
AcDbEntity
  8
5
  6
PHANTOM
100
AcDbLine
 10
799.597809
 20
528.5714289999998
 30
0.0
 11
798.691288
 21
529.0
 31
0.0
  0
LINE
  5
12F73
330
12B3F
100
AcDbEntity
  8
5
  6
PHANTOM
100
AcDbLine
 10
798.691288
 20
529.0
 30
0.0
 11
799.063122
 21
529.964641
 31
0.0
  0
LINE
  5
12F74
330
12B3F
100
AcDbEntity
  8
5
  6
PHANTOM
100
AcDbLine
 10
792.7639319999997
 20
121.0
 30
0.0
 11
406.0
 21
121.0
 31
0.0
  0
LINE
  5
12F75
330
12B3F
100
AcDbEntity
  8
5
  6
PHANTOM
100
AcDbLine
 10
775.0
 20
145.0
 30
0.0
 11
451.0
 21
145.0
 31
0.0
  0
ARC
  5
12F76
330
12B3F
100
AcDbEntity
  8
5
  6
PHANTOM
100
AcDbCircle
 10
406.0
 20
123.0
 30
0.0
 40
2.0
100
AcDbArc
 50
180.0
 51
270.0
  0
ARC
  5
12F77
330
12B3F
100
AcDbEntity
  8
5
  6
PHANTOM
100
AcDbCircle
 10
430.0
 20
134.0
 30
0.0
 40
2.399999999999999
100
AcDbArc
 50
180.0
 51
0.0
  0
ARC
  5
12F78
330
12B3F
100
AcDbEntity
  8
5
  6
PHANTOM
100
AcDbCircle
 10
430.0
 20
136.0
 30
0.0
 40
2.399999999999999
100
AcDbArc
 50
0.0
 51
180.0
  0
LINE
  5
12F79
330
12B3F
100
AcDbEntity
  8
5
  6
PHANTOM
100
AcDbLine
 10
438.1985079999998
 20
144.5980139999998
 30
0.0
 11
421.935465
 21
146.0
 31
0.0
  0
LINE
  5
12F7A
330
12B3F
100
AcDbEntity
  8
5
  6
PHANTOM
100
AcDbLine
 10
437.0
 20
144.0
 30
0.0
 11
410.5
 21
144.0
 31
0.0
  0
LINE
  5
12F7B
330
12B3F
100
AcDbEntity
  8
5
  6
PHANTOM
100
AcDbLine
 10
451.0
 20
145.0
 30
0.0
 11
422.0
 21
147.5
 31
0.0
  0
LINE
  5
12F7C
330
12B3F
100
AcDbEntity
  8
5
  6
PHANTOM
100
AcDbLine
 10
405.4999999999997
 20
135.0
 30
0.0
 11
412.0
 21
135.0
 31
0.0
  0
LINE
  5
12F7D
330
12B3F
100
AcDbEntity
  8
5
  6
PHANTOM
100
AcDbLine
 10
405.067144
 20
141.1783709999999
 30
0.0
 11
412.5771409999998
 21
138.914917
 31
0.0
  0
ARC
  5
12F7E
330
12B3F
100
AcDbEntity
  8
5
  6
PHANTOM
100
AcDbCircle
 10
405.4999999999997
 20
133.4999999999998
 30
0.0
 40
1.5
100
AcDbArc
 50
90.0
 51
180.0
  0
ARC
  5
12F7F
330
12B3F
100
AcDbEntity
  8
5
  6
PHANTOM
100
AcDbCircle
 10
405.4999999999997
 20
142.614559
 30
0.0
 40
1.5
100
AcDbArc
 50
180.0
 51
253.2276069999999
  0
LINE
  5
12F80
330
12B3F
100
AcDbEntity
  8
5
  6
PHANTOM
100
AcDbLine
 10
404.0
 20
127.0
 30
0.0
 11
404.0
 21
123.0
 31
0.0
  0
LINE
  5
12F81
330
12B3F
100
AcDbEntity
  8
5
  6
PHANTOM
100
AcDbLine
 10
427.6
 20
134.0
 30
0.0
 11
427.6
 21
136.0
 31
0.0
  0
ARC
  5
12F82
330
12B3F
100
AcDbEntity
  8
5
  6
PHANTOM
100
AcDbCircle
 10
412.0
 20
137.0
 30
0.0
 40
2.0
100
AcDbArc
 50
270.0
 51
73.22760699999998
  0
LINE
  5
12F83
330
12B3F
100
AcDbEntity
  8
4
  6
CENTER
100
AcDbLine
 10
420.0
 20
129.2499999999998
 30
0.0
 11
420.0
 21
140.7499999999998
 31
0.0
  0
CIRCLE
  5
12F84
330
12B3F
100
AcDbEntity
  8
5
  6
PHANTOM
100
AcDbCircle
 10
420.0
 20
135.0
 30
0.0
 40
2.399999999999999
  0
LINE
  5
12F85
330
12B3F
100
AcDbEntity
  8
5
  6
PHANTOM
100
AcDbLine
 10
409.0
 20
146.0
 30
0.0
 11
421.935465
 21
146.0
 31
0.0
  0
ARC
  5
12F86
330
12B3F
100
AcDbEntity
  8
5
  6
PHANTOM
100
AcDbCircle
 10
410.5
 20
145.5
 30
0.0
 40
1.5
100
AcDbArc
 50
180.0
 51
270.0
  0
LINE
  5
12F87
330
12B3F
100
AcDbEntity
  8
5
  6
PHANTOM
100
AcDbLine
 10
409.0
 20
147.5
 30
0.0
 11
409.0
 21
145.5
 31
0.0
  0
ARC
  5
12F88
330
12B3F
100
AcDbEntity
  8
5
  6
PHANTOM
100
AcDbCircle
 10
437.0
 20
145.5
 30
0.0
 40
1.5
100
AcDbArc
 50
270.0
 51
0.0
  0
LINE
  5
12F89
330
12B3F
100
AcDbEntity
  8
5
  6
PHANTOM
100
AcDbLine
 10
438.4999999999998
 20
146.077586
 30
0.0
 11
438.4999999999998
 21
145.5
 31
0.0
  0
LINE
  5
12F8A
330
12B3F
100
AcDbEntity
  8
4
  6
CENTER
100
AcDbLine
 10
430.0
 20
128.2499999999998
 30
0.0
 11
430.0
 21
141.7499999999998
 31
0.0
  0
LINE
  5
12F8B
330
12B3F
100
AcDbEntity
  8
5
  6
PHANTOM
100
AcDbLine
 10
432.3999999999998
 20
134.0
 30
0.0
 11
432.3999999999998
 21
136.0
 31
0.0
  0
LINE
  5
12F8C
330
12B3F
100
AcDbEntity
  8
4
  6
CENTER
100
AcDbLine
 10
786.0
 20
120.0
 30
0.0
 11
786.0
 21
150.0
 31
0.0
  0
LINE
  5
12F8D
330
12B3F
100
AcDbEntity
  8
5
  6
PHANTOM
100
AcDbLine
 10
798.0
 20
145.0
 30
0.0
 11
780.0
 21
145.0
 31
0.0
  0
LINE
  5
12F8E
330
12B3F
100
AcDbEntity
  8
5
  6
PHANTOM
100
AcDbLine
 10
794.5527859999998
 20
122.105573
 30
0.0
 11
800.0
 21
133.0
 31
0.0
  0
LINE
  5
12F8F
330
12B3F
100
AcDbEntity
  8
4
  6
CENTER
100
AcDbLine
 10
801.0
 20
135.0
 30
0.0
 11
754.25
 21
135.0
 31
0.0
  0
LINE
  5
12F90
330
12B3F
100
AcDbEntity
  8
4
  6
CENTER
100
AcDbLine
 10
760.0
 20
128.2499999999998
 30
0.0
 11
760.0
 21
141.7499999999998
 31
0.0
  0
LINE
  5
12F91
330
12B3F
100
AcDbEntity
  8
4
  6
CENTER
100
AcDbLine
 10
770.0
 20
129.2499999999998
 30
0.0
 11
770.0
 21
140.7499999999998
 31
0.0
  0
LINE
  5
12F92
330
12B3F
100
AcDbEntity
  8
5
  6
PHANTOM
100
AcDbLine
 10
757.6
 20
134.0
 30
0.0
 11
757.6
 21
136.0
 31
0.0
  0
ARC
  5
12F93
330
12B3F
100
AcDbEntity
  8
5
  6
PHANTOM
100
AcDbCircle
 10
760.0
 20
134.0
 30
0.0
 40
2.399999999999999
100
AcDbArc
 50
180.0
 51
0.0
  0
LINE
  5
12F94
330
12B3F
100
AcDbEntity
  8
5
  6
PHANTOM
100
AcDbLine
 10
762.3999999999997
 20
134.0
 30
0.0
 11
762.3999999999997
 21
136.0
 31
0.0
  0
ARC
  5
12F95
330
12B3F
100
AcDbEntity
  8
5
  6
PHANTOM
100
AcDbCircle
 10
760.0
 20
136.0
 30
0.0
 40
2.399999999999999
100
AcDbArc
 50
0.0
 51
180.0
  0
CIRCLE
  5
12F96
330
12B3F
100
AcDbEntity
  8
5
  6
PHANTOM
100
AcDbCircle
 10
770.0
 20
135.0
 30
0.0
 40
2.399999999999999
  0
ARC
  5
12F97
330
12B3F
100
AcDbEntity
  8
5
  6
PHANTOM
100
AcDbCircle
 10
792.7639319999997
 20
123.0
 30
0.0
 40
2.0
100
AcDbArc
 50
270.0
 51
333.434949
  0
LINE
  5
12F98
330
12B3F
100
AcDbEntity
  8
5
  6
PHANTOM
100
AcDbLine
 10
776.0
 20
143.5
 30
0.0
 11
775.0
 21
143.5
 31
0.0
  0
LINE
  5
12F99
330
12B3F
100
AcDbEntity
  8
5
  6
PHANTOM
100
AcDbLine
 10
775.0
 20
143.5
 30
0.0
 11
775.0
 21
145.0
 31
0.0
  0
LINE
  5
12F9A
330
12B3F
100
AcDbEntity
  8
5
  6
PHANTOM
100
AcDbLine
 10
776.0
 20
143.5
 30
0.0
 11
780.0
 21
145.0
 31
0.0
  0
CIRCLE
  5
12F9B
330
12B3F
100
AcDbEntity
  8
5
  6
PHANTOM
100
AcDbCircle
 10
786.0
 20
135.0
 30
0.0
 40
5.0
  0
CIRCLE
  5
12F9C
330
12B3F
100
AcDbEntity
  8
5
  6
PHANTOM
100
AcDbCircle
 10
786.0
 20
135.0
 30
0.0
 40
3.0
  0
ARC
  5
12F9D
330
12B3F
100
AcDbEntity
  8
5
  6
PHANTOM
100
AcDbCircle
 10
786.0
 20
135.0
 30
0.0
 40
11.0
100
AcDbArc
 50
65.38002299999999
 51
114.619977
  0
ARC
  5
12F9E
330
12B3F
100
AcDbEntity
  8
5
  6
PHANTOM
100
AcDbCircle
 10
786.0
 20
135.0
 30
0.0
 40
11.0
100
AcDbArc
 50
114.619977
 51
65.38002299999999
  0
ARC
  5
12F9F
330
12B3F
100
AcDbEntity
  8
5
  6
PHANTOM
100
AcDbCircle
 10
798.0
 20
143.0
 30
0.0
 40
2.0
100
AcDbArc
 50
0.0
 51
90.0
  0
LINE
  5
12FA0
330
12B3F
100
AcDbEntity
  8
5
  6
PHANTOM
100
AcDbLine
 10
800.0
 20
133.0
 30
0.0
 11
800.0
 21
136.4999999999998
 31
0.0
  0
CIRCLE
  5
12FA1
330
12B3F
100
AcDbEntity
  8
5
  6
PHANTOM
100
AcDbCircle
 10
786.0
 20
535.0
 30
0.0
 40
11.0
  0
LINE
  5
12FA2
330
12B3F
100
AcDbEntity
  8
4
  6
CENTER
100
AcDbLine
 10
770.0
 20
529.25
 30
0.0
 11
770.0
 21
540.7499999999998
 31
0.0
  0
LINE
  5
12FA3
330
12B3F
100
AcDbEntity
  8
4
  6
CENTER
100
AcDbLine
 10
760.0
 20
528.2499999999998
 30
0.0
 11
760.0
 21
541.75
 31
0.0
  0
LINE
  5
12FA4
330
12B3F
100
AcDbEntity
  8
5
  6
PHANTOM
100
AcDbLine
 10
870.0
 20
145.0
 30
0.0
 11
878.0
 21
145.0
 31
0.0
  0
ARC
  5
12FA5
330
12B3F
100
AcDbEntity
  8
5
  6
PHANTOM
100
AcDbCircle
 10
871.4999999999999
 20
146.0
 30
0.0
 40
1.5
100
AcDbArc
 50
90.0
 51
180.0
  0
LINE
  5
12FA6
330
12B3F
100
AcDbEntity
  8
5
  6
PHANTOM
100
AcDbLine
 10
878.0
 20
147.5
 30
0.0
 11
875.5
 21
147.5
 31
0.0
  0
LINE
  5
12FA7
330
12B3F
100
AcDbEntity
  8
5
  6
PHANTOM
100
AcDbLine
 10
870.0
 20
121.0
 30
0.0
 11
870.0
 21
123.5
 31
0.0
  0
LINE
  5
12FA8
330
12B3F
100
AcDbEntity
  8
5
  6
PHANTOM
100
AcDbLine
 10
871.4999999999999
 20
121.0
 30
0.0
 11
871.4999999999999
 21
123.5
 31
0.0
  0
LINE
  5
12FA9
330
12B3F
100
AcDbEntity
  8
5
  6
PHANTOM
100
AcDbLine
 10
878.0
 20
145.0
 30
0.0
 11
878.0
 21
147.5
 31
0.0
  0
LINE
  5
12FAA
330
12B3F
100
AcDbEntity
  8
5
  6
PHANTOM
100
AcDbLine
 10
870.0
 20
121.0
 30
0.0
 11
871.4999999999999
 21
121.0
 31
0.0
  0
LINE
  5
12FAB
330
12B3F
100
AcDbEntity
  8
5
  6
PHANTOM
100
AcDbLine
 10
29.5
 20
147.5
 30
0.0
 11
36.0
 21
147.5
 31
0.0
  0
LINE
  5
12FAC
330
12B3F
100
AcDbEntity
  8
5
  6
PHANTOM
100
AcDbLine
 10
36.0
 20
121.0
 30
0.0
 11
36.0
 21
123.5
 31
0.0
  0
LINE
  5
12FAD
330
12B3F
100
AcDbEntity
  8
5
  6
PHANTOM
100
AcDbLine
 10
37.5
 20
121.0
 30
0.0
 11
37.5
 21
123.5
 31
0.0
  0
ARC
  5
12FAE
330
12B3F
100
AcDbEntity
  8
5
  6
PHANTOM
100
AcDbCircle
 10
36.0
 20
146.0
 30
0.0
 40
1.5
100
AcDbArc
 50
0.0
 51
90.0
  0
LINE
  5
12FAF
330
12B3F
100
AcDbEntity
  8
5
  6
PHANTOM
100
AcDbLine
 10
29.5
 20
143.5
 30
0.0
 11
29.5
 21
146.0
 31
0.0
  0
LINE
  5
12FB0
330
12B3F
100
AcDbEntity
  8
5
  6
PHANTOM
100
AcDbLine
 10
36.0
 20
143.5
 30
0.0
 11
29.5
 21
143.5
 31
0.0
  0
LINE
  5
12FB1
330
12B3F
100
AcDbEntity
  8
5
  6
PHANTOM
100
AcDbLine
 10
37.5
 20
121.0
 30
0.0
 11
36.0
 21
121.0
 31
0.0
  0
LINE
  5
12FB2
330
12B3F
100
AcDbEntity
  8
1
  6
Continuous
100
AcDbLine
 10
27.0
 20
126.5
 30
0.0
 11
27.0
 21
129.0
 31
0.0
  0
LINE
  5
12FB3
330
12B3F
100
AcDbEntity
  8
5
  6
PHANTOM
100
AcDbLine
 10
882.5000000000001
 20
521.0
 30
0.0
 11
882.5000000000001
 21
523.5
 31
0.0
  0
ARC
  5
12FB4
330
12B3F
100
AcDbEntity
  8
5
  6
PHANTOM
100
AcDbCircle
 10
881.0
 20
546.0
 30
0.0
 40
1.5
100
AcDbArc
 50
0.0
 51
90.0
  0
LINE
  5
12FB5
330
12B3F
100
AcDbEntity
  8
5
  6
PHANTOM
100
AcDbLine
 10
882.5000000000001
 20
545.0
 30
0.0
 11
873.0
 21
545.0
 31
0.0
  0
LINE
  5
12FB6
330
12B3F
100
AcDbEntity
  8
5
  6
PHANTOM
100
AcDbLine
 10
881.0
 20
539.0
 30
0.0
 11
881.0
 21
541.5
 31
0.0
  0
LINE
  5
12FB7
330
12B3F
100
AcDbEntity
  8
5
  6
PHANTOM
100
AcDbLine
 10
873.0
 20
547.5
 30
0.0
 11
877.0
 21
547.5
 31
0.0
  0
LINE
  5
12FB8
330
12B3F
100
AcDbEntity
  8
5
  6
PHANTOM
100
AcDbLine
 10
882.5000000000001
 20
539.0
 30
0.0
 11
873.0
 21
539.0
 31
0.0
  0
LINE
  5
12FB9
330
12B3F
100
AcDbEntity
  8
5
  6
PHANTOM
100
AcDbLine
 10
873.0
 20
529.0
 30
0.0
 11
873.0
 21
531.5
 31
0.0
  0
LINE
  5
12FBA
330
12B3F
100
AcDbEntity
  8
5
  6
PHANTOM
100
AcDbLine
 10
881.0
 20
521.0
 30
0.0
 11
881.0
 21
523.5
 31
0.0
  0
LINE
  5
12FBB
330
12B3F
100
AcDbEntity
  8
5
  6
PHANTOM
100
AcDbLine
 10
882.5000000000001
 20
529.0
 30
0.0
 11
873.0
 21
529.0
 31
0.0
  0
LINE
  5
12FBC
330
12B3F
100
AcDbEntity
  8
5
  6
PHANTOM
100
AcDbLine
 10
882.5000000000001
 20
521.0
 30
0.0
 11
881.0
 21
521.0
 31
0.0
  0
LINE
  5
12FBD
330
12B3F
100
AcDbEntity
  8
5
  6
PHANTOM
100
AcDbLine
 10
873.0
 20
545.0
 30
0.0
 11
873.0
 21
547.5
 31
0.0
  0
LINE
  5
12FBE
330
12B3F
100
AcDbEntity
  8
5
  6
PHANTOM
100
AcDbLine
 10
34.5
 20
540.0
 30
0.0
 11
34.5
 21
542.4999999999998
 31
0.0
  0
LINE
  5
12FBF
330
12B3F
100
AcDbEntity
  8
5
  6
PHANTOM
100
AcDbLine
 10
33.0
 20
540.0
 30
0.0
 11
34.5
 21
540.0
 31
0.0
  0
ARC
  5
12FC0
330
12B3F
100
AcDbEntity
  8
5
  6
PHANTOM
100
AcDbCircle
 10
33.0
 20
546.0
 30
0.0
 40
1.5
100
AcDbArc
 50
0.0
 51
90.0
  0
LINE
  5
12FC1
330
12B3F
100
AcDbEntity
  8
5
  6
PHANTOM
100
AcDbLine
 10
33.0
 20
547.5
 30
0.0
 11
26.5
 21
547.5
 31
0.0
  0
LINE
  5
12FC2
330
12B3F
100
AcDbEntity
  8
5
  6
PHANTOM
100
AcDbLine
 10
33.0
 20
540.0
 30
0.0
 11
33.0
 21
541.0
 31
0.0
  0
LINE
  5
12FC3
330
12B3F
100
AcDbEntity
  8
5
  6
PHANTOM
100
AcDbLine
 10
26.5
 20
543.5
 30
0.0
 11
33.0
 21
543.5
 31
0.0
  0
LINE
  5
12FC4
330
12B3F
100
AcDbEntity
  8
5
  6
PHANTOM
100
AcDbLine
 10
26.5
 20
521.0
 30
0.0
 11
26.5
 21
523.5
 31
0.0
  0
LINE
  5
12FC5
330
12B3F
100
AcDbEntity
  8
5
  6
PHANTOM
100
AcDbLine
 10
25.0
 20
521.0
 30
0.0
 11
25.0
 21
523.5
 31
0.0
  0
ARC
  5
12FC6
330
12B3F
100
AcDbEntity
  8
5
  6
PHANTOM
100
AcDbCircle
 10
26.5
 20
546.0
 30
0.0
 40
1.5
100
AcDbArc
 50
90.0
 51
180.0
  0
LINE
  5
12FC7
330
12B3F
100
AcDbEntity
  8
5
  6
PHANTOM
100
AcDbLine
 10
25.0
 20
521.0
 30
0.0
 11
26.5
 21
521.0
 31
0.0
  0
LINE
  5
12FC8
330
12B3F
100
AcDbEntity
  8
4
  6
CENTER
100
AcDbLine
 10
252.4999999999999
 20
722.75
 30
0.0
 11
252.4999999999999
 21
711.2499999999997
 31
0.0
  0
CIRCLE
  5
12FC9
330
12B3F
100
AcDbEntity
  8
1
  6
Continuous
100
AcDbCircle
 10
252.4999999999999
 20
717.0
 30
0.0
 40
2.399999999999999
  0
LINE
  5
12FCA
330
12B3F
100
AcDbEntity
  8
4
  6
CENTER
100
AcDbLine
 10
246.75
 20
717.0
 30
0.0
 11
258.25
 21
717.0
 31
0.0
  0
LINE
  5
12FCB
330
12B3F
100
AcDbEntity
  8
4
  6
CENTER
100
AcDbLine
 10
252.4999999999999
 20
636.5
 30
0.0
 11
252.4999999999999
 21
630.0
 31
0.0
  0
LINE
  5
12FCC
330
12B3F
100
AcDbEntity
  8
4
  6
CENTER
100
AcDbLine
 10
252.4999999999999
 20
438.0
 30
0.0
 11
252.4999999999999
 21
444.5
 31
0.0
  0
CIRCLE
  5
12FCD
330
12B3F
100
AcDbEntity
  8
1
  6
Continuous
100
AcDbCircle
 10
252.4999999999999
 20
537.5
 30
0.0
 40
2.399999999999999
  0
CIRCLE
  5
12FCE
330
12B3F
100
AcDbEntity
  8
1
  6
Continuous
100
AcDbCircle
 10
252.4999999999999
 20
537.5
 30
0.0
 40
3.75
  0
LINE
  5
12FCF
330
12B3F
100
AcDbEntity
  8
4
  6
CENTER
100
AcDbLine
 10
252.4999999999999
 20
531.7499999999999
 30
0.0
 11
252.4999999999999
 21
543.25
 31
0.0
  0
LINE
  5
12FD0
330
12B3F
100
AcDbEntity
  8
4
  6
CENTER
100
AcDbLine
 10
258.25
 20
537.5
 30
0.0
 11
246.75
 21
537.5
 31
0.0
  0
LINE
  5
12FD1
330
12B3F
100
AcDbEntity
  8
4
  6
CENTER
100
AcDbLine
 10
676.5
 20
725.25
 30
0.0
 11
676.5
 21
713.75
 31
0.0
  0
CIRCLE
  5
12FD2
330
12B3F
100
AcDbEntity
  8
1
  6
Continuous
100
AcDbCircle
 10
676.5
 20
719.5
 30
0.0
 40
2.399999999999999
  0
CIRCLE
  5
12FD3
330
12B3F
100
AcDbEntity
  8
1
  6
Continuous
100
AcDbCircle
 10
676.5
 20
719.5
 30
0.0
 40
3.75
  0
LINE
  5
12FD4
330
12B3F
100
AcDbEntity
  8
4
  6
CENTER
100
AcDbLine
 10
670.75
 20
719.5
 30
0.0
 11
682.2499999999998
 21
719.5
 31
0.0
  0
LINE
  5
12FD5
330
12B3F
100
AcDbEntity
  8
4
  6
CENTER
100
AcDbLine
 10
676.5
 20
618.0
 30
0.0
 11
676.5
 21
624.5
 31
0.0
  0
LINE
  5
12FD6
330
12B3F
100
AcDbEntity
  8
4
  6
CENTER
100
AcDbLine
 10
676.5
 20
456.5
 30
0.0
 11
676.5
 21
450.0
 31
0.0
  0
CIRCLE
  5
12FD7
330
12B3F
100
AcDbEntity
  8
1
  6
Continuous
100
AcDbCircle
 10
676.5
 20
535.0
 30
0.0
 40
2.399999999999999
  0
LINE
  5
12FD8
330
12B3F
100
AcDbEntity
  8
4
  6
CENTER
100
AcDbLine
 10
676.5
 20
529.25
 30
0.0
 11
676.5
 21
540.7499999999998
 31
0.0
  0
CIRCLE
  5
12FD9
330
12B3F
100
AcDbEntity
  8
3
  6
DASHED
100
AcDbCircle
 10
491.0
 20
537.5
 30
0.0
 40
11.0
  0
LINE
  5
12FDA
330
12B3F
100
AcDbEntity
  8
3
  6
DASHED
100
AcDbLine
 10
442.9167019999998
 20
546.0
 30
0.0
 11
431.0201059999998
 21
546.0
 31
0.0
  0
LINE
  5
12FDB
330
12B3F
100
AcDbEntity
  8
3
  6
DASHED
100
AcDbLine
 10
427.78233
 20
545.5
 30
0.0
 11
425.0323299999998
 21
547.5
 31
0.0
  0
LINE
  5
12FDC
330
12B3F
100
AcDbEntity
  8
3
  6
DASHED
100
AcDbLine
 10
427.78233
 20
545.5
 30
0.0
 11
430.53233
 21
547.5
 31
0.0
  0
LINE
  5
12FDD
330
12B3F
100
AcDbEntity
  8
3
  6
DASHED
100
AcDbLine
 10
424.544554
 20
546.0
 30
0.0
 11
405.4999999999997
 21
546.0
 31
0.0
  0
LINE
  5
12FDE
330
12B3F
100
AcDbEntity
  8
3
  6
DASHED
100
AcDbLine
 10
480.0
 20
629.0
 30
0.0
 11
480.0
 21
623.0
 31
0.0
  0
LINE
  5
12FDF
330
12B3F
100
AcDbEntity
  8
3
  6
DASHED
100
AcDbLine
 10
474.0
 20
624.0
 30
0.0
 11
480.0
 21
624.0
 31
0.0
  0
LINE
  5
12FE0
330
12B3F
100
AcDbEntity
  8
1
  6
Continuous
100
AcDbLine
 10
503.5
 20
630.4999999999997
 30
0.0
 11
497.0
 21
630.4999999999997
 31
0.0
  0
LINE
  5
12FE1
330
12B3F
100
AcDbEntity
  8
1
  6
Continuous
100
AcDbLine
 10
485.0
 20
630.4999999999997
 30
0.0
 11
480.0
 21
630.4999999999997
 31
0.0
  0
LINE
  5
12FE2
330
12B3F
100
AcDbEntity
  8
4
  6
CENTER
100
AcDbLine
 10
574.2499999999997
 20
535.0
 30
0.0
 11
562.75
 21
535.0
 31
0.0
  0
LINE
  5
12FE3
330
12B3F
100
AcDbEntity
  8
4
  6
CENTER
100
AcDbLine
 10
553.2499999999998
 20
535.0
 30
0.0
 11
541.75
 21
535.0
 31
0.0
  0
LINE
  5
12FE4
330
12B3F
100
AcDbEntity
  8
4
  6
CENTER
100
AcDbLine
 10
547.5
 20
529.25
 30
0.0
 11
547.5
 21
540.7499999999998
 31
0.0
  0
CIRCLE
  5
12FE5
330
12B3F
100
AcDbEntity
  8
5
  6
PHANTOM
100
AcDbCircle
 10
547.5
 20
535.0
 30
0.0
 40
3.75
  0
CIRCLE
  5
12FE6
330
12B3F
100
AcDbEntity
  8
5
  6
PHANTOM
100
AcDbCircle
 10
547.5
 20
535.0
 30
0.0
 40
2.399999999999999
  0
CIRCLE
  5
12FE7
330
12B3F
100
AcDbEntity
  8
5
  6
PHANTOM
100
AcDbCircle
 10
675.0
 20
535.0
 30
0.0
 40
2.399999999999999
  0
CIRCLE
  5
12FE8
330
12B3F
100
AcDbEntity
  8
5
  6
PHANTOM
100
AcDbCircle
 10
675.0
 20
535.0
 30
0.0
 40
3.75
  0
LINE
  5
12FE9
330
12B3F
100
AcDbEntity
  8
4
  6
CENTER
100
AcDbLine
 10
681.4902899999998
 20
535.0
 30
0.0
 11
659.25
 21
535.0
 31
0.0
  0
LINE
  5
12FEA
330
12B3F
100
AcDbEntity
  8
5
  6
PHANTOM
100
AcDbLine
 10
668.75
 20
534.0
 30
0.0
 11
668.75
 21
536.0
 31
0.0
  0
LINE
  5
12FEB
330
12B3F
100
AcDbEntity
  8
5
  6
PHANTOM
100
AcDbLine
 10
662.6
 20
534.0
 30
0.0
 11
662.6
 21
536.0
 31
0.0
  0
LINE
  5
12FEC
330
12B3F
100
AcDbEntity
  8
5
  6
PHANTOM
100
AcDbLine
 10
667.3999999999997
 20
534.0
 30
0.0
 11
667.3999999999997
 21
536.0
 31
0.0
  0
ARC
  5
12FED
330
12B3F
100
AcDbEntity
  8
5
  6
PHANTOM
100
AcDbCircle
 10
665.0
 20
534.0
 30
0.0
 40
2.399999999999999
100
AcDbArc
 50
180.0
 51
0.0
  0
ARC
  5
12FEE
330
12B3F
100
AcDbEntity
  8
5
  6
PHANTOM
100
AcDbCircle
 10
665.0
 20
536.0
 30
0.0
 40
2.399999999999999
100
AcDbArc
 50
0.0
 51
180.0
  0
LINE
  5
12FEF
330
12B3F
100
AcDbEntity
  8
5
  6
PHANTOM
100
AcDbLine
 10
661.2499999999998
 20
534.0
 30
0.0
 11
661.2499999999998
 21
536.0
 31
0.0
  0
ARC
  5
12FF0
330
12B3F
100
AcDbEntity
  8
5
  6
PHANTOM
100
AcDbCircle
 10
665.0
 20
534.0
 30
0.0
 40
3.75
100
AcDbArc
 50
180.0
 51
0.0
  0
ARC
  5
12FF1
330
12B3F
100
AcDbEntity
  8
5
  6
PHANTOM
100
AcDbCircle
 10
665.0
 20
536.0
 30
0.0
 40
3.75
100
AcDbArc
 50
0.0
 51
180.0
  0
LINE
  5
12FF2
330
12B3F
100
AcDbEntity
  8
4
  6
CENTER
100
AcDbLine
 10
665.0
 20
528.2499999999998
 30
0.0
 11
665.0
 21
541.75
 31
0.0
  0
LINE
  5
12FF3
330
12B3F
100
AcDbEntity
  8
4
  6
CENTER
100
AcDbLine
 10
675.0
 20
529.25
 30
0.0
 11
675.0
 21
540.7499999999998
 31
0.0
  0
ARC
  5
12FF4
330
12B3F
100
AcDbEntity
  8
5
  6
PHANTOM
100
AcDbCircle
 10
760.0
 20
536.0
 30
0.0
 40
3.75
100
AcDbArc
 50
0.0
 51
180.0
  0
ARC
  5
12FF5
330
12B3F
100
AcDbEntity
  8
5
  6
PHANTOM
100
AcDbCircle
 10
760.0
 20
534.0
 30
0.0
 40
3.75
100
AcDbArc
 50
180.0
 51
0.0
  0
LINE
  5
12FF6
330
12B3F
100
AcDbEntity
  8
5
  6
PHANTOM
100
AcDbLine
 10
756.25
 20
534.0
 30
0.0
 11
756.25
 21
536.0
 31
0.0
  0
ARC
  5
12FF7
330
12B3F
100
AcDbEntity
  8
5
  6
PHANTOM
100
AcDbCircle
 10
760.0
 20
536.0
 30
0.0
 40
2.399999999999999
100
AcDbArc
 50
0.0
 51
180.0
  0
ARC
  5
12FF8
330
12B3F
100
AcDbEntity
  8
5
  6
PHANTOM
100
AcDbCircle
 10
760.0
 20
534.0
 30
0.0
 40
2.399999999999999
100
AcDbArc
 50
180.0
 51
0.0
  0
LINE
  5
12FF9
330
12B3F
100
AcDbEntity
  8
5
  6
PHANTOM
100
AcDbLine
 10
762.3999999999997
 20
534.0
 30
0.0
 11
762.3999999999997
 21
536.0
 31
0.0
  0
LINE
  5
12FFA
330
12B3F
100
AcDbEntity
  8
5
  6
PHANTOM
100
AcDbLine
 10
757.6
 20
534.0
 30
0.0
 11
757.6
 21
536.0
 31
0.0
  0
LINE
  5
12FFB
330
12B3F
100
AcDbEntity
  8
5
  6
PHANTOM
100
AcDbLine
 10
763.75
 20
534.0
 30
0.0
 11
763.75
 21
536.0
 31
0.0
  0
CIRCLE
  5
12FFC
330
12B3F
100
AcDbEntity
  8
5
  6
PHANTOM
100
AcDbCircle
 10
770.0
 20
535.0
 30
0.0
 40
3.75
  0
CIRCLE
  5
12FFD
330
12B3F
100
AcDbEntity
  8
5
  6
PHANTOM
100
AcDbCircle
 10
770.0
 20
535.0
 30
0.0
 40
2.399999999999999
  0
LINE
  5
12FFE
330
12B3F
100
AcDbEntity
  8
4
  6
CENTER
100
AcDbLine
 10
676.5
 20
236.5
 30
0.0
 11
676.5
 21
230.0
 31
0.0
  0
CIRCLE
  5
12FFF
330
12B3F
100
AcDbEntity
  8
1
  6
Continuous
100
AcDbCircle
 10
676.5
 20
319.5
 30
0.0
 40
2.399999999999999
  0
LINE
  5
13000
330
12B3F
100
AcDbEntity
  8
4
  6
CENTER
100
AcDbLine
 10
676.5
 20
325.2499999999999
 30
0.0
 11
676.5
 21
313.75
 31
0.0
  0
LINE
  5
13001
330
12B3F
100
AcDbEntity
  8
4
  6
CENTER
100
AcDbLine
 10
670.75
 20
319.5
 30
0.0
 11
682.2499999999998
 21
319.5
 31
0.0
  0
LINE
  5
13002
330
12B3F
100
AcDbEntity
  8
4
  6
CENTER
100
AcDbLine
 10
676.5
 20
129.2499999999998
 30
0.0
 11
676.5
 21
140.7499999999998
 31
0.0
  0
CIRCLE
  5
13003
330
12B3F
100
AcDbEntity
  8
1
  6
Continuous
100
AcDbCircle
 10
676.5
 20
135.0
 30
0.0
 40
3.75
  0
CIRCLE
  5
13004
330
12B3F
100
AcDbEntity
  8
1
  6
Continuous
100
AcDbCircle
 10
676.5
 20
135.0
 30
0.0
 40
2.399999999999999
  0
LINE
  5
13005
330
12B3F
100
AcDbEntity
  8
4
  6
CENTER
100
AcDbLine
 10
252.4999999999999
 20
218.0
 30
0.0
 11
252.4999999999999
 21
224.5
 31
0.0
  0
LINE
  5
13006
330
12B3F
100
AcDbEntity
  8
4
  6
CENTER
100
AcDbLine
 10
252.4999999999999
 20
322.75
 30
0.0
 11
252.4999999999999
 21
311.25
 31
0.0
  0
CIRCLE
  5
13007
330
12B3F
100
AcDbEntity
  8
1
  6
Continuous
100
AcDbCircle
 10
252.4999999999999
 20
317.0
 30
0.0
 40
3.75
  0
CIRCLE
  5
13008
330
12B3F
100
AcDbEntity
  8
1
  6
Continuous
100
AcDbCircle
 10
252.4999999999999
 20
317.0
 30
0.0
 40
2.399999999999999
  0
LINE
  5
13009
330
12B3F
100
AcDbEntity
  8
4
  6
CENTER
100
AcDbLine
 10
246.75
 20
317.0
 30
0.0
 11
258.25
 21
317.0
 31
0.0
  0
LINE
  5
1300A
330
12B3F
100
AcDbEntity
  8
4
  6
CENTER
100
AcDbLine
 10
252.4999999999999
 20
56.5
 30
0.0
 11
252.4999999999999
 21
50.0
 31
0.0
  0
LINE
  5
1300B
330
12B3F
100
AcDbEntity
  8
4
  6
CENTER
100
AcDbLine
 10
252.4999999999999
 20
131.75
 30
0.0
 11
252.4999999999999
 21
143.25
 31
0.0
  0
CIRCLE
  5
1300C
330
12B3F
100
AcDbEntity
  8
1
  6
Continuous
100
AcDbCircle
 10
252.4999999999999
 20
137.5
 30
0.0
 40
2.399999999999999
  0
LINE
  5
1300D
330
12B3F
100
AcDbEntity
  8
4
  6
CENTER
100
AcDbLine
 10
258.25
 20
137.5
 30
0.0
 11
246.75
 21
137.5
 31
0.0
  0
CIRCLE
  5
1300E
330
12B3F
100
AcDbEntity
  8
3
  6
DASHED
100
AcDbCircle
 10
491.0
 20
317.0
 30
0.0
 40
11.0
  0
LINE
  5
1300F
330
12B3F
100
AcDbEntity
  8
3
  6
DASHED
100
AcDbLine
 10
499.75
 20
329.4999999999999
 30
0.0
 11
505.0
 21
319.0
 31
0.0
  0
LINE
  5
13010
330
12B3F
100
AcDbEntity
  8
4
  6
CENTER
100
AcDbLine
 10
676.5
 20
38.0
 30
0.0
 11
676.5
 21
44.5
 31
0.0
  0
LINE
  5
13011
330
12B3F
100
AcDbEntity
  8
3
  6
DASHED
100
AcDbLine
 10
480.0
 20
225.4999999999999
 30
0.0
 11
480.0
 21
231.4999999999999
 31
0.0
  0
ARC
  5
13012
330
12B3F
100
AcDbEntity
  8
3
  6
DASHED
100
AcDbCircle
 10
478.0
 20
227.0
 30
0.0
 40
2.0
100
AcDbArc
 50
0.0
 51
90.0
  0
LINE
  5
13013
330
12B3F
100
AcDbEntity
  8
4
  6
CENTER
100
AcDbLine
 10
574.2499999999997
 20
135.0
 30
0.0
 11
562.75
 21
135.0
 31
0.0
  0
LINE
  5
13014
330
12B3F
100
AcDbEntity
  8
4
  6
CENTER
100
AcDbLine
 10
553.2499999999998
 20
135.0
 30
0.0
 11
541.75
 21
135.0
 31
0.0
  0
CIRCLE
  5
13015
330
12B3F
100
AcDbEntity
  8
5
  6
PHANTOM
100
AcDbCircle
 10
547.5
 20
135.0
 30
0.0
 40
2.399999999999999
  0
LINE
  5
13016
330
12B3F
100
AcDbEntity
  8
4
  6
CENTER
100
AcDbLine
 10
547.5
 20
129.2499999999998
 30
0.0
 11
547.5
 21
140.7499999999998
 31
0.0
  0
CIRCLE
  5
13017
330
12B3F
100
AcDbEntity
  8
5
  6
PHANTOM
100
AcDbCircle
 10
675.0
 20
135.0
 30
0.0
 40
2.399999999999999
  0
LINE
  5
13018
330
12B3F
100
AcDbEntity
  8
4
  6
CENTER
100
AcDbLine
 10
683.2159139999999
 20
135.0
 30
0.0
 11
659.25
 21
135.0
 31
0.0
  0
LINE
  5
13019
330
12B3F
100
AcDbEntity
  8
5
  6
PHANTOM
100
AcDbLine
 10
667.3999999999997
 20
134.0
 30
0.0
 11
667.3999999999997
 21
136.0
 31
0.0
  0
LINE
  5
1301A
330
12B3F
100
AcDbEntity
  8
4
  6
CENTER
100
AcDbLine
 10
665.0
 20
128.2499999999998
 30
0.0
 11
665.0
 21
141.7499999999998
 31
0.0
  0
LINE
  5
1301B
330
12B3F
100
AcDbEntity
  8
4
  6
CENTER
100
AcDbLine
 10
675.0
 20
129.2499999999998
 30
0.0
 11
675.0
 21
140.7499999999998
 31
0.0
  0
LINE
  5
1301C
330
12B3F
100
AcDbEntity
  8
5
  6
PHANTOM
100
AcDbLine
 10
662.6
 20
134.0
 30
0.0
 11
662.6
 21
136.0
 31
0.0
  0
ARC
  5
1301D
330
12B3F
100
AcDbEntity
  8
5
  6
PHANTOM
100
AcDbCircle
 10
665.0
 20
136.0
 30
0.0
 40
2.399999999999999
100
AcDbArc
 50
0.0
 51
180.0
  0
ARC
  5
1301E
330
12B3F
100
AcDbEntity
  8
5
  6
PHANTOM
100
AcDbCircle
 10
665.0
 20
134.0
 30
0.0
 40
2.399999999999999
100
AcDbArc
 50
180.0
 51
0.0
  0
LINE
  5
1301F
330
12B3F
100
AcDbEntity
  8
4
  6
CENTER
100
AcDbLine
 10
475.0
 20
722.4
 30
0.0
 11
475.0
 21
711.6
 31
0.0
  0
LINE
  5
13020
330
12B3F
100
AcDbEntity
  8
4
  6
CENTER
100
AcDbLine
 10
465.0
 20
723.3999999999999
 30
0.0
 11
465.0
 21
710.6
 31
0.0
  0
LINE
  5
13021
330
12B3F
100
AcDbEntity
  8
4
  6
CENTER
100
AcDbLine
 10
470.0
 20
725.9
 30
0.0
 11
470.0
 21
713.1
 31
0.0
  0
LINE
  5
13022
330
12B3F
100
AcDbEntity
  8
4
  6
CENTER
100
AcDbLine
 10
460.0
 20
724.8999999999997
 30
0.0
 11
460.0
 21
714.1
 31
0.0
  0
LINE
  5
13023
330
12B3F
100
AcDbEntity
  8
4
  6
CENTER
100
AcDbLine
 10
475.0
 20
532.1
 30
0.0
 11
475.0
 21
542.9
 31
0.0
  0
LINE
  5
13024
330
12B3F
100
AcDbEntity
  8
4
  6
CENTER
100
AcDbLine
 10
465.0
 20
531.0999999999998
 30
0.0
 11
465.0
 21
543.9
 31
0.0
  0
LINE
  5
13025
330
12B3F
100
AcDbEntity
  8
4
  6
CENTER
100
AcDbLine
 10
465.0
 20
323.3999999999999
 30
0.0
 11
465.0
 21
310.6
 31
0.0
  0
LINE
  5
13026
330
12B3F
100
AcDbEntity
  8
4
  6
CENTER
100
AcDbLine
 10
475.0
 20
322.3999999999999
 30
0.0
 11
475.0
 21
311.6
 31
0.0
  0
LINE
  5
13027
330
12B3F
100
AcDbEntity
  8
3
  6
DASHED
100
AcDbLine
 10
474.0
 20
229.0
 30
0.0
 11
478.0
 21
229.0
 31
0.0
  0
LINE
  5
13028
330
12B3F
100
AcDbEntity
  8
4
  6
CENTER
100
AcDbLine
 10
460.0
 20
129.6
 30
0.0
 11
460.0
 21
140.4
 31
0.0
  0
LINE
  5
13029
330
12B3F
100
AcDbEntity
  8
4
  6
CENTER
100
AcDbLine
 10
470.0
 20
128.6
 30
0.0
 11
470.0
 21
141.4
 31
0.0
  0
LINE
  5
1302A
330
12B3F
100
AcDbEntity
  8
1
  6
Continuous
100
AcDbLine
 10
449.5
 20
453.5
 30
0.0
 11
449.5
 21
452.0
 31
0.0
  0
LINE
  5
1302B
330
12B3F
100
AcDbEntity
  8
1
  6
Continuous
100
AcDbLine
 10
453.5
 20
453.5
 30
0.0
 11
453.5
 21
452.0
 31
0.0
  0
LINE
  5
1302C
330
12B3F
100
AcDbEntity
  8
1
  6
Continuous
100
AcDbLine
 10
453.5
 20
42.5
 30
0.0
 11
453.5
 21
41.0
 31
0.0
  0
LINE
  5
1302D
330
12B3F
100
AcDbEntity
  8
1
  6
Continuous
100
AcDbLine
 10
449.5
 20
42.5
 30
0.0
 11
449.5
 21
41.0
 31
0.0
  0
ENDSEC
  0
SECTION
  2
OBJECTS
  0
DICTIONARY
  5
12B2D
330
0
100
AcDbDictionary
281
     1
  3
ACAD_CIP_PREVIOUS_PRODUCT_INFO
350
1308D
  3
ACAD_COLOR
350
1306F
  3
ACAD_DETAILVIEWSTYLE
350
13088
  3
ACAD_GROUP
350
12B2E
  3
ACAD_LAYOUT
350
12B3A
  3
ACAD_MATERIAL
350
1303D
  3
ACAD_MLEADERSTYLE
350
13084
  3
ACAD_MLINESTYLE
350
12B37
  3
ACAD_PLOTSETTINGS
350
12B39
  3
ACAD_PLOTSTYLENAME
350
1303B
  3
ACAD_SCALELIST
350
13072
  3
ACAD_SECTIONVIEWSTYLE
350
13086
  3
ACAD_TABLESTYLE
350
13070
  3
ACAD_VISUALSTYLE
350
13056
  3
ACDB_RECOMPOSE_DATA
350
130AB
  3
AcDbVariableDictionary
350
1309E
  3
DWGPROPS
350
130AC
  0
DICTIONARY
  5
1308E
330
12B31
100
AcDbDictionary
280
     1
281
     1
  3
ADSK_XREC_LAYER_RECONCILED
360
1308F
  0
DICTIONARY
  5
13090
330
12B47
100
AcDbDictionary
280
     1
281
     1
  3
ADSK_XREC_LAYER_RECONCILED
360
13091
  0
DICTIONARY
  5
13092
330
12B48
100
AcDbDictionary
280
     1
281
     1
  3
ADSK_XREC_LAYER_RECONCILED
360
13093
  0
DICTIONARY
  5
13094
330
12B49
100
AcDbDictionary
280
     1
281
     1
  3
ADSK_XREC_LAYER_RECONCILED
360
13095
  0
DICTIONARY
  5
13096
330
12B4A
100
AcDbDictionary
280
     1
281
     1
  3
ADSK_XREC_LAYER_RECONCILED
360
13097
  0
DICTIONARY
  5
13098
330
12B4B
100
AcDbDictionary
280
     1
281
     1
  3
ADSK_XREC_LAYER_RECONCILED
360
13099
  0
DICTIONARY
  5
1309A
330
12B4C
100
AcDbDictionary
280
     1
281
     1
  3
ADSK_XREC_LAYER_RECONCILED
360
1309B
  0
DICTIONARY
  5
1309C
330
12B4D
100
AcDbDictionary
280
     1
281
     1
  3
ADSK_XREC_LAYER_RECONCILED
360
1309D
  0
DICTIONARY
  5
13036
330
12B3F
100
AcDbDictionary
281
     1
  3
ACAD_LAYOUTSELFREF
350
13037
  0
DICTIONARY
  5
13034
330
12B3B
100
AcDbDictionary
281
     1
  3
ACAD_LAYOUTSELFREF
350
13035
  0
XRECORD
  5
1308D
102
{ACAD_REACTORS
330
12B2D
102
}
330
12B2D
100
AcDbXrecord
280
     1
300
ACDLT
300
2014
300
ACDLT_F_S
  0
DICTIONARY
  5
1306F
102
{ACAD_REACTORS
330
12B2D
102
}
330
12B2D
100
AcDbDictionary
281
     1
  0
DICTIONARY
  5
13088
102
{ACAD_REACTORS
330
12B2D
102
}
330
12B2D
100
AcDbDictionary
281
     1
  3
Imperial24
350
13089
  0
DICTIONARY
  5
12B2E
102
{ACAD_REACTORS
330
12B2D
102
}
330
12B2D
100
AcDbDictionary
281
     1
  0
DICTIONARY
  5
12B3A
102
{ACAD_REACTORS
330
12B2D
102
}
330
12B2D
100
AcDbDictionary
281
     1
  3
Model
350
1308A
  3
レイアウト1
350
1308B
  0
DICTIONARY
  5
1303D
102
{ACAD_REACTORS
330
12B2D
102
}
330
12B2D
100
AcDbDictionary
281
     1
  3
ByBlock
350
13046
  3
ByLayer
350
1303E
  3
Global
350
1304E
  0
DICTIONARY
  5
13084
102
{ACAD_REACTORS
330
12B2D
102
}
330
12B2D
100
AcDbDictionary
281
     1
  3
Standard
350
13085
  0
DICTIONARY
  5
12B37
102
{ACAD_REACTORS
330
12B2D
102
}
330
12B2D
100
AcDbDictionary
281
     1
  3
STANDARD
350
12B38
  0
DICTIONARY
  5
12B39
102
{ACAD_REACTORS
330
12B2D
102
}
330
12B2D
100
AcDbDictionary
281
     1
  0
ACDBDICTIONARYWDFLT
  5
1303B
102
{ACAD_REACTORS
330
12B2D
102
}
330
12B2D
100
AcDbDictionary
281
     1
  3
Normal
350
1303C
100
AcDbDictionaryWithDefault
340
1303C
  0
DICTIONARY
  5
13072
102
{ACAD_REACTORS
330
12B2D
102
}
330
12B2D
100
AcDbDictionary
281
     1
  3
A0
350
13073
  3
A1
350
13074
  3
A2
350
13075
  3
A3
350
13076
  3
A4
350
13077
  3
A5
350
13078
  3
A6
350
13079
  3
A7
350
1307A
  3
A8
350
1307B
  3
A9
350
1307C
  3
B0
350
1307D
  3
B1
350
1307E
  3
B2
350
1307F
  3
B3
350
13080
  3
B4
350
13081
  3
B5
350
13082
  3
B6
350
13083
  0
DICTIONARY
  5
13086
102
{ACAD_REACTORS
330
12B2D
102
}
330
12B2D
100
AcDbDictionary
281
     1
  3
Imperial24
350
13087
  0
DICTIONARY
  5
13070
102
{ACAD_REACTORS
330
12B2D
102
}
330
12B2D
100
AcDbDictionary
281
     1
  3
Standard
350
13071
  0
DICTIONARY
  5
13056
102
{ACAD_REACTORS
330
12B2D
102
}
330
12B2D
100
AcDbDictionary
281
     1
  3
2dWireframe
350
1305C
  3
Basic
350
1305B
  3
Brighten
350
13062
  3
ColorChange
350
13066
  3
Conceptual
350
1305F
  3
Dim
350
13061
  3
EdgeColorOff
350
1306E
  3
Facepattern
350
13065
  3
Flat
350
13057
  3
FlatWithEdges
350
13058
  3
Gouraud
350
13059
  3
GouraudWithEdges
350
1305A
  3
Hidden
350
1305E
  3
JitterOff
350
1306C
  3
Linepattern
350
13064
  3
OverhangOff
350
1306D
  3
Realistic
350
13060
  3
Shaded
350
1306B
  3
Shaded with edges
350
1306A
  3
Shades of Gray
350
13067
  3
Sketchy
350
13068
  3
Thicken
350
13063
  3
Wireframe
350
1305D
  3
X-Ray
350
13069
  0
XRECORD
  5
130AB
102
{ACAD_REACTORS
330
12B2D
102
}
330
12B2D
100
AcDbXrecord
280
     1
 90
        1
330
13071
  0
DICTIONARY
  5
1309E
102
{ACAD_REACTORS
330
12B2D
102
}
330
12B2D
100
AcDbDictionary
281
     1
  3
CANNOSCALE
350
130A3
  3
CMLEADERSTYLE
350
130A0
  3
CTABLESTYLE
350
1309F
  3
CVIEWDETAILSTYLE
350
130A1
  3
CVIEWSECTIONSTYLE
350
130A2
  3
DIMASSOC
350
130A6
  3
INDEXCTL
350
130A5
  3
SORTENTS
350
130A4
  3
XCLIPFRAME
350
130A7
  0
XRECORD
  5
130AC
102
{ACAD_REACTORS
330
12B2D
102
}
330
12B2D
100
AcDbXrecord
280
     1
  1
DWGPROPS COOKIE
  2

  3

  4

  6

  7

  8
Yoshitsune
  9

300
=
301
=
302
=
303
=
304
=
305
=
306
=
307
=
308
=
309
=
 40
0.0000136921296296
 41
2451263.697860764
 42
2457192.661586887
  1

 90
        0
  0
XRECORD
  5
1308F
102
{ACAD_REACTORS
330
1308E
102
}
330
1308E
100
AcDbXrecord
280
     1
290
     1
  0
XRECORD
  5
13091
102
{ACAD_REACTORS
330
13090
102
}
330
13090
100
AcDbXrecord
280
     1
290
     1
  0
XRECORD
  5
13093
102
{ACAD_REACTORS
330
13092
102
}
330
13092
100
AcDbXrecord
280
     1
290
     1
  0
XRECORD
  5
13095
102
{ACAD_REACTORS
330
13094
102
}
330
13094
100
AcDbXrecord
280
     1
290
     1
  0
XRECORD
  5
13097
102
{ACAD_REACTORS
330
13096
102
}
330
13096
100
AcDbXrecord
280
     1
290
     1
  0
XRECORD
  5
13099
102
{ACAD_REACTORS
330
13098
102
}
330
13098
100
AcDbXrecord
280
     1
290
     1
  0
XRECORD
  5
1309B
102
{ACAD_REACTORS
330
1309A
102
}
330
1309A
100
AcDbXrecord
280
     1
290
     1
  0
XRECORD
  5
1309D
102
{ACAD_REACTORS
330
1309C
102
}
330
1309C
100
AcDbXrecord
280
     1
290
     1
  0
XRECORD
  5
13037
102
{ACAD_REACTORS
330
13036
102
}
330
13036
100
AcDbXrecord
280
     1
340
12B3F
  0
XRECORD
  5
13035
102
{ACAD_REACTORS
330
13034
102
}
330
13034
100
AcDbXrecord
280
     1
340
12B3B
  0
ACDBDETAILVIEWSTYLE
  5
13089
102
{ACAD_XDICTIONARY
360
130E4
102
}
102
{ACAD_REACTORS
330
13088
102
}
330
13088
100
AcDbModelDocViewStyle
 70
     0
  3
Imperial24
290
     0
100
AcDbDetailViewStyle
 70
     0
 71
     0
 90
        3
 71
     1
340
12B32
 40
0.24
340
0
 40
0.24
300

 40
0.36
280
     3
 71
     2
340
12B36
 90
       25
 71
     3
340
12B32
 40
0.24
 90
        1
 40
0.75
 90
        1
300
%<\AcVar ViewType \f "%tc1">% %<\AcVar ViewDetailId>%\PSCALE %<\AcVar ViewScale \f "%sn">%
 71
     4
340
12B36
 90
       25
340
12B36
 90
       25
280
     0
  0
LAYOUT
  5
1308A
102
{ACAD_XDICTIONARY
360
130E6
102
}
102
{ACAD_REACTORS
330
12B3A
102
}
330
12B3A
100
AcDbPlotSettings
  1

  2
Canon LBP9100C
  4

  6

 40
0.0
 41
0.0
 42
0.0
 43
0.0
 44
0.0
 45
0.0
 46
0.0
 47
0.0
 48
0.0
 49
0.0
140
0.0
141
0.0
142
1.0
143
1.0
 70
  1712
 72
     0
 73
     0
 74
     0
  7

 75
     0
147
1.0
148
0.0
149
0.0
100
AcDbLayout
  1
Model
 70
     1
 71
     0
 10
0.0
 20
0.0
 11
12.0
 21
9.0
 12
0.0
 22
0.0
 32
0.0
 14
0.0
 24
0.0
 34
0.0
 15
0.0
 25
0.0
 35
0.0
146
0.0
 13
0.0
 23
0.0
 33
0.0
 16
1.0
 26
0.0
 36
0.0
 17
0.0
 27
1.0
 37
0.0
 76
     0
330
12B3F
331
13033
  0
LAYOUT
  5
1308B
102
{ACAD_XDICTIONARY
360
130E8
102
}
102
{ACAD_REACTORS
330
12B3A
102
}
330
12B3A
100
AcDbPlotSettings
  1

  2
Canon LBP9100C
  4

  6

 40
0.0
 41
0.0
 42
0.0
 43
0.0
 44
0.0
 45
0.0
 46
0.0
 47
0.0
 48
0.0
 49
0.0
140
0.0
141
0.0
142
1.0
143
1.0
 70
   688
 72
     0
 73
     0
 74
     5
  7

 75
    16
147
1.0
148
0.0
149
0.0
100
AcDbLayout
  1
レイアウト1
 70
     0
 71
     1
 10
0.0
 20
0.0
 11
420.0
 21
297.0
 12
0.0
 22
0.0
 32
0.0
 14
1.000000000000000E+20
 24
1.000000000000000E+20
 34
1.000000000000000E+20
 15
-1.000000000000000E+20
 25
-1.000000000000000E+20
 35
-1.000000000000000E+20
146
0.0
 13
0.0
 23
0.0
 33
0.0
 16
1.0
 26
0.0
 36
0.0
 17
0.0
 27
1.0
 37
0.0
 76
     0
330
12B3B
  0
MATERIAL
  5
13046
102
{ACAD_XDICTIONARY
360
13047
102
}
102
{ACAD_REACTORS
330
1303D
102
}
330
1303D
100
AcDbMaterial
  1
ByBlock
 72
     0
 43
0.0208333333333333
 43
0.0
 43
0.0
 43
0.0
 43
0.0
 43
0.0208333333333333
 43
0.0
 43
0.0
 43
0.0
 43
0.0
 43
1.0
 43
0.0
 43
0.0
 43
0.0
 43
0.0
 43
1.0
 77
     0
 47
0.0208333333333333
 47
0.0
 47
0.0
 47
0.0
 47
0.0
 47
0.0208333333333333
 47
0.0
 47
0.0
 47
0.0
 47
0.0
 47
1.0
 47
0.0
 47
0.0
 47
0.0
 47
0.0
 47
1.0
171
     0
 49
0.0208333333333333
 49
0.0
 49
0.0
 49
0.0
 49
0.0
 49
0.0208333333333333
 49
0.0
 49
0.0
 49
0.0
 49
0.0
 49
1.0
 49
0.0
 49
0.0
 49
0.0
 49
0.0
 49
1.0
175
     0
142
0.0208333333333333
142
0.0
142
0.0
142
0.0
142
0.0
142
0.0208333333333333
142
0.0
142
0.0
142
0.0
142
0.0
142
1.0
142
0.0
142
0.0
142
0.0
142
0.0
142
1.0
179
     0
144
0.0208333333333333
144
0.0
144
0.0
144
0.0
144
0.0
144
0.0208333333333333
144
0.0
144
0.0
144
0.0
144
0.0
144
1.0
144
0.0
144
0.0
144
0.0
144
0.0
144
1.0
147
0.0208333333333333
147
0.0
147
0.0
147
0.0
147
0.0
147
0.0208333333333333
147
0.0
147
0.0
147
0.0
147
0.0
147
1.0
147
0.0
147
0.0
147
0.0
147
0.0
147
1.0
  0
MATERIAL
  5
1303E
102
{ACAD_XDICTIONARY
360
1303F
102
}
102
{ACAD_REACTORS
330
1303D
102
}
330
1303D
100
AcDbMaterial
  1
ByLayer
 72
     0
 43
0.0208333333333333
 43
0.0
 43
0.0
 43
0.0
 43
0.0
 43
0.0208333333333333
 43
0.0
 43
0.0
 43
0.0
 43
0.0
 43
1.0
 43
0.0
 43
0.0
 43
0.0
 43
0.0
 43
1.0
 77
     0
 47
0.0208333333333333
 47
0.0
 47
0.0
 47
0.0
 47
0.0
 47
0.0208333333333333
 47
0.0
 47
0.0
 47
0.0
 47
0.0
 47
1.0
 47
0.0
 47
0.0
 47
0.0
 47
0.0
 47
1.0
171
     0
 49
0.0208333333333333
 49
0.0
 49
0.0
 49
0.0
 49
0.0
 49
0.0208333333333333
 49
0.0
 49
0.0
 49
0.0
 49
0.0
 49
1.0
 49
0.0
 49
0.0
 49
0.0
 49
0.0
 49
1.0
175
     0
142
0.0208333333333333
142
0.0
142
0.0
142
0.0
142
0.0
142
0.0208333333333333
142
0.0
142
0.0
142
0.0
142
0.0
142
1.0
142
0.0
142
0.0
142
0.0
142
0.0
142
1.0
179
     0
144
0.0208333333333333
144
0.0
144
0.0
144
0.0
144
0.0
144
0.0208333333333333
144
0.0
144
0.0
144
0.0
144
0.0
144
1.0
144
0.0
144
0.0
144
0.0
144
0.0
144
1.0
147
0.0208333333333333
147
0.0
147
0.0
147
0.0
147
0.0
147
0.0208333333333333
147
0.0
147
0.0
147
0.0
147
0.0
147
1.0
147
0.0
147
0.0
147
0.0
147
0.0
147
1.0
  0
MATERIAL
  5
1304E
102
{ACAD_XDICTIONARY
360
1304F
102
}
102
{ACAD_REACTORS
330
1303D
102
}
330
1303D
100
AcDbMaterial
  1
Global
 72
     0
 43
0.0208333333333333
 43
0.0
 43
0.0
 43
0.0
 43
0.0
 43
0.0208333333333333
 43
0.0
 43
0.0
 43
0.0
 43
0.0
 43
1.0
 43
0.0
 43
0.0
 43
0.0
 43
0.0
 43
1.0
 77
     0
 47
0.0208333333333333
 47
0.0
 47
0.0
 47
0.0
 47
0.0
 47
0.0208333333333333
 47
0.0
 47
0.0
 47
0.0
 47
0.0
 47
1.0
 47
0.0
 47
0.0
 47
0.0
 47
0.0
 47
1.0
171
     0
 49
0.0208333333333333
 49
0.0
 49
0.0
 49
0.0
 49
0.0
 49
0.0208333333333333
 49
0.0
 49
0.0
 49
0.0
 49
0.0
 49
1.0
 49
0.0
 49
0.0
 49
0.0
 49
0.0
 49
1.0
175
     0
142
0.0208333333333333
142
0.0
142
0.0
142
0.0
142
0.0
142
0.0208333333333333
142
0.0
142
0.0
142
0.0
142
0.0
142
1.0
142
0.0
142
0.0
142
0.0
142
0.0
142
1.0
179
     0
144
0.0208333333333333
144
0.0
144
0.0
144
0.0
144
0.0
144
0.0208333333333333
144
0.0
144
0.0
144
0.0
144
0.0
144
1.0
144
0.0
144
0.0
144
0.0
144
0.0
144
1.0
147
0.0208333333333333
147
0.0
147
0.0
147
0.0
147
0.0
147
0.0208333333333333
147
0.0
147
0.0
147
0.0
147
0.0
147
1.0
147
0.0
147
0.0
147
0.0
147
0.0
147
1.0
  0
MLEADERSTYLE
  5
13085
102
{ACAD_REACTORS
330
13084
102
}
330
13084
100
AcDbMLeaderStyle
170
     2
171
     1
172
     0
 90
        2
 40
0.0
 41
0.0
173
     1
 91
-1056964608
340
12B34
 92
       -2
290
     1
 42
0.09
291
     1
 43
0.36
  3
Standard
 44
0.18
300

342
12B32
174
     1
178
     6
175
     1
176
     0
 93
-1056964608
 45
0.18
292
     0
297
     0
 46
0.18
 94
-1056964608
 47
1.0
 49
1.0
140
1.0
293
     1
141
0.0
294
     1
177
     0
142
1.0
295
     0
296
     0
143
0.125
1001
ACAD_MLEADERVER
1070
     2
  0
MLINESTYLE
  5
12B38
102
{ACAD_REACTORS
330
12B37
102
}
330
12B37
100
AcDbMlineStyle
  2
STANDARD
 70
     0
  3

 62
   256
 51
90.0
 52
90.0
 71
     2
 49
0.5
 62
   256
  6
BYLAYER
 49
-0.5
 62
   256
  6
BYLAYER
  0
ACDBPLACEHOLDER
  5
1303C
102
{ACAD_REACTORS
330
1303B
102
}
330
1303B
  0
SCALE
  5
13073
102
{ACAD_REACTORS
330
13072
102
}
330
13072
100
AcDbScale
 70
     0
300
1:1
140
1.0
141
1.0
290
     1
  0
SCALE
  5
13074
102
{ACAD_REACTORS
330
13072
102
}
330
13072
100
AcDbScale
 70
     0
300
1/128" = 1'-0"
140
0.0078125
141
12.0
290
     0
  0
SCALE
  5
13075
102
{ACAD_REACTORS
330
13072
102
}
330
13072
100
AcDbScale
 70
     0
300
1/64" = 1'-0"
140
0.015625
141
12.0
290
     0
  0
SCALE
  5
13076
102
{ACAD_REACTORS
330
13072
102
}
330
13072
100
AcDbScale
 70
     0
300
1/32" = 1'-0"
140
0.03125
141
12.0
290
     0
  0
SCALE
  5
13077
102
{ACAD_REACTORS
330
13072
102
}
330
13072
100
AcDbScale
 70
     0
300
1/16" = 1'-0"
140
0.0625
141
12.0
290
     0
  0
SCALE
  5
13078
102
{ACAD_REACTORS
330
13072
102
}
330
13072
100
AcDbScale
 70
     0
300
3/32" = 1'-0"
140
0.09375
141
12.0
290
     0
  0
SCALE
  5
13079
102
{ACAD_REACTORS
330
13072
102
}
330
13072
100
AcDbScale
 70
     0
300
1/8" = 1'-0"
140
0.125
141
12.0
290
     0
  0
SCALE
  5
1307A
102
{ACAD_REACTORS
330
13072
102
}
330
13072
100
AcDbScale
 70
     0
300
3/16" = 1'-0"
140
0.1875
141
12.0
290
     0
  0
SCALE
  5
1307B
102
{ACAD_REACTORS
330
13072
102
}
330
13072
100
AcDbScale
 70
     0
300
1/4" = 1'-0"
140
0.25
141
12.0
290
     0
  0
SCALE
  5
1307C
102
{ACAD_REACTORS
330
13072
102
}
330
13072
100
AcDbScale
 70
     0
300
3/8" = 1'-0"
140
0.375
141
12.0
290
     0
  0
SCALE
  5
1307D
102
{ACAD_REACTORS
330
13072
102
}
330
13072
100
AcDbScale
 70
     0
300
1/2" = 1'-0"
140
0.5
141
12.0
290
     0
  0
SCALE
  5
1307E
102
{ACAD_REACTORS
330
13072
102
}
330
13072
100
AcDbScale
 70
     0
300
3/4" = 1'-0"
140
0.75
141
12.0
290
     0
  0
SCALE
  5
1307F
102
{ACAD_REACTORS
330
13072
102
}
330
13072
100
AcDbScale
 70
     0
300
1" = 1'-0"
140
1.0
141
12.0
290
     0
  0
SCALE
  5
13080
102
{ACAD_REACTORS
330
13072
102
}
330
13072
100
AcDbScale
 70
     0
300
1-1/2" = 1'-0"
140
1.5
141
12.0
290
     0
  0
SCALE
  5
13081
102
{ACAD_REACTORS
330
13072
102
}
330
13072
100
AcDbScale
 70
     0
300
3" = 1'-0"
140
3.0
141
12.0
290
     0
  0
SCALE
  5
13082
102
{ACAD_REACTORS
330
13072
102
}
330
13072
100
AcDbScale
 70
     0
300
6" = 1'-0"
140
6.0
141
12.0
290
     0
  0
SCALE
  5
13083
102
{ACAD_REACTORS
330
13072
102
}
330
13072
100
AcDbScale
 70
     0
300
1'-0" = 1'-0"
140
12.0
141
12.0
290
     0
  0
ACDBSECTIONVIEWSTYLE
  5
13087
102
{ACAD_XDICTIONARY
360
130E2
102
}
102
{ACAD_REACTORS
330
13086
102
}
330
13086
100
AcDbModelDocViewStyle
 70
     0
  3
Imperial24
290
     0
100
AcDbSectionViewStyle
 70
     0
 71
     0
 90
       78
 71
     1
340
12B32
 40
0.24
340
0
340
0
 40
0.24
300
I, O, Q, S, X, Z
 40
0.48
 90
        3
 40
0.18
 90
        1
 71
     2
340
12B36
 90
       25
340
12B36
 90
       50
 40
0.24
 40
0.0
 40
0.24
 71
     3
340
12B32
 40
0.24
 90
        1
 40
0.75
 90
        1
300
%<\AcVar ViewType \f "%tc1">% %<\AcVar ViewSectionStartId>%-%<\AcVar ViewSectionEndId>%\PSCALE %<\AcVar ViewScale \f "%sn">%
 71
     4
300
ANSI31
 40
1.0
 90
        0
290
     0
290
     0
 90
        6
 40
0.0
 40
1.570796326794896
 40
0.2617993877991494
 40
1.308996938995747
 40
-0.2617993877991494
 40
1.832595714594046
  0
TABLESTYLE
  5
13071
102
{ACAD_XDICTIONARY
360
130A9
102
}
102
{ACAD_REACTORS
330
13070
102
}
330
13070
100
AcDbTableStyle
  3
Standard
 70
     0
 71
     0
 40
0.06
 41
0.06
280
     0
281
     0
  7
STANDARD
140
0.18
170
     2
 62
     0
 63
     7
283
     0
274
    -2
284
     1
 64
     0
275
    -2
285
     1
 65
     0
276
    -2
286
     1
 66
     0
277
    -2
287
     1
 67
     0
278
    -2
288
     1
 68
     0
279
    -2
289
     1
 69
     0
  7
STANDARD
140
0.25
170
     5
 62
     0
 63
     7
283
     0
274
    -2
284
     1
 64
     0
275
    -2
285
     1
 65
     0
276
    -2
286
     1
 66
     0
277
    -2
287
     1
 67
     0
278
    -2
288
     1
 68
     0
279
    -2
289
     1
 69
     0
  7
STANDARD
140
0.18
170
     5
 62
     0
 63
     7
283
     0
274
    -2
284
     1
 64
     0
275
    -2
285
     1
 65
     0
276
    -2
286
     1
 66
     0
277
    -2
287
     1
 67
     0
278
    -2
288
     1
 68
     0
279
    -2
289
     1
 69
     0
  0
VISUALSTYLE
  5
1305C
102
{ACAD_XDICTIONARY
360
130BA
102
}
102
{ACAD_REACTORS
330
13056
102
}
330
13056
100
AcDbVisualStyle
  2
2dWireframe
 70
     4
 71
     0
 72
     2
 73
     0
 90
        0
 40
-0.6
 41
-30.0
 62
     5
 63
     7
 74
     1
 91
        4
 64
     7
 65
   257
 75
     1
175
     1
 42
1.0
 92
        0
 66
   257
 43
1.0
 76
     1
 77
     6
 78
     2
 67
     7
 79
     5
170
     0
171
     0
290
     0
174
     0
 93
        1
 44
0.0
173
     0
291
     0
 45
0.0
1001
ACAD
1000
AcDbSavedByObjectVersion
1070
     0
  0
VISUALSTYLE
  5
1305B
102
{ACAD_XDICTIONARY
360
130B8
102
}
102
{ACAD_REACTORS
330
13056
102
}
330
13056
100
AcDbVisualStyle
  2
Basic
 70
     7
 71
     1
 72
     0
 73
     1
 90
        0
 40
-0.6
 41
-30.0
 62
     5
 63
     7
 74
     0
 91
        4
 64
     7
 65
   257
 75
     1
175
     1
 42
1.0
 92
        8
 66
     7
 43
1.0
 76
     1
 77
     6
 78
     2
 67
     7
 79
     5
170
     0
171
     0
290
     0
174
     0
 93
        1
 44
0.0
173
     0
291
     1
 45
0.0
1001
ACAD
1000
AcDbSavedByObjectVersion
1070
     0
  0
VISUALSTYLE
  5
13062
102
{ACAD_XDICTIONARY
360
130C6
102
}
102
{ACAD_REACTORS
330
13056
102
}
330
13056
100
AcDbVisualStyle
  2
Brighten
 70
    12
 71
     2
 72
     2
 73
     0
 90
        0
 40
-0.6
 41
-30.0
 62
     5
 63
     7
 74
     1
 91
        4
 64
     7
 65
   257
 75
     1
175
     1
 42
1.0
 92
        8
 66
     7
 43
1.0
 76
     1
 77
     6
 78
     2
 67
     7
 79
     5
170
     0
171
     0
290
     0
174
     0
 93
        1
 44
50.0
173
     0
291
     1
 45
0.0
1001
ACAD
1000
AcDbSavedByObjectVersion
1070
     0
  0
VISUALSTYLE
  5
13066
102
{ACAD_XDICTIONARY
360
130CE
102
}
102
{ACAD_REACTORS
330
13056
102
}
330
13056
100
AcDbVisualStyle
  2
ColorChange
 70
    16
 71
     2
 72
     2
 73
     3
 90
        0
 40
-0.6
 41
-30.0
 62
     5
 63
     8
 74
     1
 91
        4
 64
     7
 65
   257
 75
     1
175
     1
 42
1.0
 92
        8
 66
     8
 43
1.0
 76
     1
 77
     6
 78
     2
 67
     7
 79
     5
170
     0
171
     0
290
     0
174
     0
 93
        1
 44
0.0
173
     0
291
     1
 45
0.0
1001
ACAD
1000
AcDbSavedByObjectVersion
1070
     0
  0
VISUALSTYLE
  5
1305F
102
{ACAD_XDICTIONARY
360
130C0
102
}
102
{ACAD_REACTORS
330
13056
102
}
330
13056
100
AcDbVisualStyle
  2
Conceptual
 70
     9
 71
     3
 72
     2
 73
     0
 90
        0
 40
-0.6
 41
-30.0
 62
     5
 63
     7
 74
     2
 91
        2
 64
     7
 65
   257
 75
     1
175
     1
 42
179.0
 92
        8
 66
     7
 43
1.0
 76
     1
 77
     6
 78
     2
 67
     7
 79
     3
170
     0
171
     0
290
     0
174
     0
 93
        1
 44
0.0
173
     0
291
     0
 45
0.0
1001
ACAD
1000
AcDbSavedByObjectVersion
1070
     0
  0
VISUALSTYLE
  5
13061
102
{ACAD_XDICTIONARY
360
130C4
102
}
102
{ACAD_REACTORS
330
13056
102
}
330
13056
100
AcDbVisualStyle
  2
Dim
 70
    11
 71
     2
 72
     2
 73
     0
 90
        0
 40
-0.6
 41
-30.0
 62
     5
 63
     7
 74
     1
 91
        4
 64
     7
 65
   257
 75
     1
175
     1
 42
1.0
 92
        8
 66
     7
 43
1.0
 76
     1
 77
     6
 78
     2
 67
     7
 79
     5
170
     0
171
     0
290
     0
174
     0
 93
        1
 44
-50.0
173
     0
291
     1
 45
0.0
1001
ACAD
1000
AcDbSavedByObjectVersion
1070
     0
  0
VISUALSTYLE
  5
1306E
102
{ACAD_XDICTIONARY
360
130DE
102
}
102
{ACAD_REACTORS
330
13056
102
}
330
13056
100
AcDbVisualStyle
  2
EdgeColorOff
 70
    22
 71
     2
 72
     2
 73
     0
 90
        0
 40
-0.6
 41
-30.0
 62
     5
 63
     7
 74
     1
 91
        4
 64
     7
 65
   257
 75
     1
175
     1
 42
1.0
 92
        8
 66
     7
 43
1.0
 76
     1
 77
     6
 78
     2
 67
     7
 79
     5
170
     0
171
     0
290
     0
174
     0
 93
        1
 44
0.0
173
     0
291
     1
 45
0.0
1001
ACAD
1000
AcDbSavedByObjectVersion
1070
     0
  0
VISUALSTYLE
  5
13065
102
{ACAD_XDICTIONARY
360
130CC
102
}
102
{ACAD_REACTORS
330
13056
102
}
330
13056
100
AcDbVisualStyle
  2
Facepattern
 70
    15
 71
     2
 72
     2
 73
     0
 90
        0
 40
-0.6
 41
-30.0
 62
     5
 63
     7
 74
     1
 91
        4
 64
     7
 65
   257
 75
     1
175
     1
 42
1.0
 92
        8
 66
     7
 43
1.0
 76
     1
 77
     6
 78
     2
 67
     7
 79
     5
170
     0
171
     0
290
     0
174
     0
 93
        1
 44
0.0
173
     0
291
     1
 45
0.0
1001
ACAD
1000
AcDbSavedByObjectVersion
1070
     0
  0
VISUALSTYLE
  5
13057
102
{ACAD_XDICTIONARY
360
130B0
102
}
102
{ACAD_REACTORS
330
13056
102
}
330
13056
100
AcDbVisualStyle
  2
Flat
 70
     0
 71
     2
 72
     1
 73
     1
 90
        2
 40
-0.6
 41
30.0
 62
     5
 63
     7
 74
     0
 91
        0
 64
     7
 65
   257
 75
     1
175
     1
 42
1.0
 92
        8
 66
     7
 43
1.0
 76
     1
 77
     6
 78
     2
 67
     7
 79
     5
170
     0
171
     0
290
     0
174
     0
 93
       13
 44
0.0
173
     0
291
     1
 45
0.0
1001
ACAD
1000
AcDbSavedByObjectVersion
1070
     0
  0
VISUALSTYLE
  5
13058
102
{ACAD_XDICTIONARY
360
130B2
102
}
102
{ACAD_REACTORS
330
13056
102
}
330
13056
100
AcDbVisualStyle
  2
FlatWithEdges
 70
     1
 71
     2
 72
     1
 73
     1
 90
        2
 40
-0.6
 41
30.0
 62
     5
 63
     7
 74
     1
 91
        0
 64
     7
 65
   257
 75
     1
175
     1
 42
1.0
 92
        0
 66
   257
 43
1.0
 76
     1
 77
     6
 78
     2
 67
     7
 79
     5
170
     0
171
     0
290
     0
174
     0
 93
       13
 44
0.0
173
     0
291
     1
 45
0.0
1001
ACAD
1000
AcDbSavedByObjectVersion
1070
     0
  0
VISUALSTYLE
  5
13059
102
{ACAD_XDICTIONARY
360
130B4
102
}
102
{ACAD_REACTORS
330
13056
102
}
330
13056
100
AcDbVisualStyle
  2
Gouraud
 70
     2
 71
     2
 72
     2
 73
     1
 90
        2
 40
-0.6
 41
30.0
 62
     5
 63
     7
 74
     0
 91
        0
 64
     7
 65
   257
 75
     1
175
     1
 42
1.0
 92
        0
 66
     7
 43
1.0
 76
     1
 77
     6
 78
     2
 67
     7
 79
     5
170
     0
171
     0
290
     0
174
     0
 93
       13
 44
0.0
173
     0
291
     1
 45
0.0
1001
ACAD
1000
AcDbSavedByObjectVersion
1070
     0
  0
VISUALSTYLE
  5
1305A
102
{ACAD_XDICTIONARY
360
130B6
102
}
102
{ACAD_REACTORS
330
13056
102
}
330
13056
100
AcDbVisualStyle
  2
GouraudWithEdges
 70
     3
 71
     2
 72
     2
 73
     1
 90
        2
 40
-0.6
 41
30.0
 62
     5
 63
     7
 74
     1
 91
        0
 64
     7
 65
   257
 75
     1
175
     1
 42
1.0
 92
        0
 66
   257
 43
1.0
 76
     1
 77
     6
 78
     2
 67
     7
 79
     5
170
     0
171
     0
290
     0
174
     0
 93
       13
 44
0.0
173
     0
291
     1
 45
0.0
1001
ACAD
1000
AcDbSavedByObjectVersion
1070
     0
  0
VISUALSTYLE
  5
1305E
102
{ACAD_XDICTIONARY
360
130BE
102
}
102
{ACAD_REACTORS
330
13056
102
}
330
13056
100
AcDbVisualStyle
  2
Hidden
 70
     6
 71
     1
 72
     2
 73
     2
 90
        0
 40
-0.6
 41
-30.0
 62
     5
 63
     7
 74
     2
 91
        2
 64
     7
 65
   257
 75
     2
175
     1
 42
40.0
 92
        0
 66
   257
 43
1.0
 76
     1
 77
     6
 78
     2
 67
     7
 79
     3
170
     0
171
     0
290
     0
174
     0
 93
        1
 44
0.0
173
     0
291
     0
 45
0.0
1001
ACAD
1000
AcDbSavedByObjectVersion
1070
     0
  0
VISUALSTYLE
  5
1306C
102
{ACAD_XDICTIONARY
360
130DA
102
}
102
{ACAD_REACTORS
330
13056
102
}
330
13056
100
AcDbVisualStyle
  2
JitterOff
 70
    20
 71
     2
 72
     2
 73
     0
 90
        0
 40
-0.6
 41
-30.0
 62
     5
 63
     7
 74
     1
 91
        4
 64
     7
 65
   257
 75
     1
175
     1
 42
1.0
 92
       10
 66
     7
 43
1.0
 76
     1
 77
     6
 78
     2
 67
     7
 79
     5
170
     0
171
     0
290
     0
174
     0
 93
        1
 44
0.0
173
     0
291
     1
 45
0.0
1001
ACAD
1000
AcDbSavedByObjectVersion
1070
     0
  0
VISUALSTYLE
  5
13064
102
{ACAD_XDICTIONARY
360
130CA
102
}
102
{ACAD_REACTORS
330
13056
102
}
330
13056
100
AcDbVisualStyle
  2
Linepattern
 70
    14
 71
     2
 72
     2
 73
     0
 90
        0
 40
-0.6
 41
-30.0
 62
     5
 63
     7
 74
     1
 91
        4
 64
     7
 65
   257
 75
     7
175
     7
 42
1.0
 92
        8
 66
     7
 43
1.0
 76
     1
 77
     6
 78
     2
 67
     7
 79
     5
170
     0
171
     0
290
     0
174
     0
 93
        1
 44
0.0
173
     0
291
     1
 45
0.0
1001
ACAD
1000
AcDbSavedByObjectVersion
1070
     0
  0
VISUALSTYLE
  5
1306D
102
{ACAD_XDICTIONARY
360
130DC
102
}
102
{ACAD_REACTORS
330
13056
102
}
330
13056
100
AcDbVisualStyle
  2
OverhangOff
 70
    21
 71
     2
 72
     2
 73
     0
 90
        0
 40
-0.6
 41
-30.0
 62
     5
 63
     7
 74
     1
 91
        4
 64
     7
 65
   257
 75
     1
175
     1
 42
1.0
 92
        9
 66
     7
 43
1.0
 76
     1
 77
     6
 78
     2
 67
     7
 79
     5
170
     0
171
     0
290
     0
174
     0
 93
        1
 44
0.0
173
     0
291
     1
 45
0.0
1001
ACAD
1000
AcDbSavedByObjectVersion
1070
     0
  0
VISUALSTYLE
  5
13060
102
{ACAD_XDICTIONARY
360
130C2
102
}
102
{ACAD_REACTORS
330
13056
102
}
330
13056
100
AcDbVisualStyle
  2
Realistic
 70
     8
 71
     2
 72
     3
 73
     0
 90
        2
 40
-0.6
 41
30.0
 62
     5
 63
     7
 74
     0
 91
        0
 64
     7
 65
   257
 75
     1
175
     1
 42
1.0
 92
        8
 66
   257
 43
1.0
 76
     1
 77
     6
 78
     2
 67
     7
 79
     3
170
     0
171
     0
290
     0
174
     0
 93
       13
 44
0.0
173
     0
291
     0
 45
0.0
1001
ACAD
1000
AcDbSavedByObjectVersion
1070
     0
  0
VISUALSTYLE
  5
1306B
102
{ACAD_XDICTIONARY
360
130D8
102
}
102
{ACAD_REACTORS
330
13056
102
}
330
13056
100
AcDbVisualStyle
  2
Shaded
 70
    27
 71
     2
 72
     2
 73
     1
 90
        2
 40
-0.6
 41
30.0
 62
     5
 63
     7
 74
     0
 91
        4
 64
     7
 65
   257
 75
     1
175
     1
 42
1.0
 92
        8
 66
   257
 43
1.0
 76
     1
 77
     6
 78
     2
 67
     8
 79
     3
170
     0
171
     0
290
     0
174
     0
 93
        5
 44
0.0
173
     0
291
     0
 45
0.0
1001
ACAD
1000
AcDbSavedByObjectVersion
1070
     0
  0
VISUALSTYLE
  5
1306A
102
{ACAD_XDICTIONARY
360
130D6
102
}
102
{ACAD_REACTORS
330
13056
102
}
330
13056
100
AcDbVisualStyle
  2
Shaded with edges
 70
    26
 71
     2
 72
     2
 73
     1
 90
        2
 40
-0.6
 41
30.0
 62
     5
 63
     7
 74
     1
 91
       10
 64
     7
 65
   257
 75
     2
175
     1
 42
1.0
 92
        8
 66
   257
 43
1.0
 76
     1
 77
     6
 78
     2
 67
     7
 79
     3
170
     0
171
     0
290
     0
174
     0
 93
        5
 44
0.0
173
     0
291
     0
 45
0.0
1001
ACAD
1000
AcDbSavedByObjectVersion
1070
     0
  0
VISUALSTYLE
  5
13067
102
{ACAD_XDICTIONARY
360
130D0
102
}
102
{ACAD_REACTORS
330
13056
102
}
330
13056
100
AcDbVisualStyle
  2
Shades of Gray
 70
    23
 71
     2
 72
     2
 73
     3
 90
        0
 40
-0.6
 41
-30.0
 62
     5
 63
     7
 74
     2
 91
        2
 64
     7
 65
     7
 75
     1
175
     1
 42
40.0
 92
        8
 66
     7
 43
1.0
 76
     1
 77
     6
 78
     2
 67
     7
 79
     3
170
     0
171
     0
290
     0
174
     0
 93
        1
 44
0.0
173
     0
291
     0
 45
0.0
1001
ACAD
1000
AcDbSavedByObjectVersion
1070
     0
  0
VISUALSTYLE
  5
13068
102
{ACAD_XDICTIONARY
360
130D2
102
}
102
{ACAD_REACTORS
330
13056
102
}
330
13056
100
AcDbVisualStyle
  2
Sketchy
 70
    24
 71
     1
 72
     2
 73
     2
 90
        0
 40
-0.6
 41
-30.0
 62
     5
 63
     7
 74
     2
 91
        2
 64
     7
 65
     7
 75
     1
175
     1
 42
40.0
 92
       11
 66
     7
 43
1.0
 76
     1
 77
     6
 78
     2
 67
     7
 79
     6
170
     0
171
     0
290
     0
174
     0
 93
        1
 44
0.0
173
     0
291
     0
 45
0.0
1001
ACAD
1000
AcDbSavedByObjectVersion
1070
     0
  0
VISUALSTYLE
  5
13063
102
{ACAD_XDICTIONARY
360
130C8
102
}
102
{ACAD_REACTORS
330
13056
102
}
330
13056
100
AcDbVisualStyle
  2
Thicken
 70
    13
 71
     2
 72
     2
 73
     0
 90
        0
 40
-0.6
 41
-30.0
 62
     5
 63
     7
 74
     1
 91
        4
 64
     7
 65
   257
 75
     1
175
     1
 42
1.0
 92
       12
 66
     7
 43
1.0
 76
     1
 77
     6
 78
     2
 67
     7
 79
     5
170
     0
171
     0
290
     0
174
     0
 93
        1
 44
0.0
173
     0
291
     1
 45
0.0
1001
ACAD
1000
AcDbSavedByObjectVersion
1070
     0
  0
VISUALSTYLE
  5
1305D
102
{ACAD_XDICTIONARY
360
130BC
102
}
102
{ACAD_REACTORS
330
13056
102
}
330
13056
100
AcDbVisualStyle
  2
Wireframe
 70
     5
 71
     0
 72
     2
 73
     0
 90
        0
 40
-0.6
 41
-30.0
 62
     5
 63
     7
 74
     1
 91
        4
 64
     7
 65
   257
 75
     1
175
     1
 42
1.0
 92
        0
 66
   257
 43
1.0
 76
     1
 77
     6
 78
     2
 67
     7
 79
     3
170
     0
171
     0
290
     0
174
     0
 93
        1
 44
0.0
173
     0
291
     0
 45
0.0
1001
ACAD
1000
AcDbSavedByObjectVersion
1070
     0
  0
VISUALSTYLE
  5
13069
102
{ACAD_XDICTIONARY
360
130D4
102
}
102
{ACAD_REACTORS
330
13056
102
}
330
13056
100
AcDbVisualStyle
  2
X-Ray
 70
    25
 71
     2
 72
     2
 73
     1
 90
        1
 40
0.5
 41
-30.0
 62
     5
 63
     7
 74
     1
 91
        0
 64
     7
 65
   257
 75
     1
175
     1
 42
1.0
 92
        8
 66
     7
 43
1.0
 76
     1
 77
     6
 78
     2
 67
     7
 79
     3
170
     0
171
     0
290
     0
174
     0
 93
       13
 44
0.0
173
     0
291
     0
 45
0.0
1001
ACAD
1000
AcDbSavedByObjectVersion
1070
     0
  0
DICTIONARYVAR
  5
130A3
102
{ACAD_REACTORS
330
1309E
102
}
330
1309E
100
DictionaryVariables
280
     0
  1
1:1
  0
DICTIONARYVAR
  5
130A0
102
{ACAD_REACTORS
330
1309E
102
}
330
1309E
100
DictionaryVariables
280
     0
  1
STANDARD
  0
DICTIONARYVAR
  5
1309F
102
{ACAD_REACTORS
330
1309E
102
}
330
1309E
100
DictionaryVariables
280
     0
  1
STANDARD
  0
DICTIONARYVAR
  5
130A1
102
{ACAD_REACTORS
330
1309E
102
}
330
1309E
100
DictionaryVariables
280
     0
  1
Imperial24
  0
DICTIONARYVAR
  5
130A2
102
{ACAD_REACTORS
330
1309E
102
}
330
1309E
100
DictionaryVariables
280
     0
  1
Imperial24
  0
DICTIONARYVAR
  5
130A6
102
{ACAD_REACTORS
330
1309E
102
}
330
1309E
100
DictionaryVariables
280
     0
  1
1
  0
DICTIONARYVAR
  5
130A5
102
{ACAD_REACTORS
330
1309E
102
}
330
1309E
100
DictionaryVariables
280
     0
  1
0
  0
DICTIONARYVAR
  5
130A4
102
{ACAD_REACTORS
330
1309E
102
}
330
1309E
100
DictionaryVariables
280
     0
  1
127
  0
DICTIONARYVAR
  5
130A7
102
{ACAD_REACTORS
330
1309E
102
}
330
1309E
100
DictionaryVariables
280
     0
  1
2
  0
DICTIONARY
  5
130E4
330
13089
100
AcDbDictionary
280
     1
281
     1
  3
ACAD_XREC_ROUNDTRIP
360
130E5
  0
DICTIONARY
  5
130E6
330
1308A
100
AcDbDictionary
280
     1
281
     1
  3
ACAD_XREC_ROUNDTRIP
360
130E7
  0
DICTIONARY
  5
130E8
330
1308B
100
AcDbDictionary
280
     1
281
     1
  3
ACAD_XREC_ROUNDTRIP
360
130E9
  0
DICTIONARY
  5
13047
330
13046
100
AcDbDictionary
280
     1
281
     1
  3
ACAD_XREC_ROUNDTRIP
360
130AE
  3
BUMPTILE
360
13049
  3
DIFFUSETILE
360
13048
  3
OPACITYTILE
360
1304C
  3
REFLECTIONTILE
360
1304B
  3
REFRACTIONTILE
360
1304D
  3
SPECULARTILE
360
1304A
  0
DICTIONARY
  5
1303F
330
1303E
100
AcDbDictionary
280
     1
281
     1
  3
ACAD_XREC_ROUNDTRIP
360
130AD
  3
BUMPTILE
360
13041
  3
DIFFUSETILE
360
13040
  3
OPACITYTILE
360
13044
  3
REFLECTIONTILE
360
13043
  3
REFRACTIONTILE
360
13045
  3
SPECULARTILE
360
13042
  0
DICTIONARY
  5
1304F
330
1304E
100
AcDbDictionary
280
     1
281
     1
  3
ACAD_XREC_ROUNDTRIP
360
130AF
  3
BUMPTILE
360
13051
  3
DIFFUSETILE
360
13050
  3
OPACITYTILE
360
13054
  3
REFLECTIONTILE
360
13053
  3
REFRACTIONTILE
360
13055
  3
SPECULARTILE
360
13052
  0
DICTIONARY
  5
130E2
330
13087
100
AcDbDictionary
280
     1
281
     1
  3
ACAD_XREC_ROUNDTRIP
360
130E3
  0
DICTIONARY
  5
130A9
330
13071
100
AcDbDictionary
280
     1
281
     1
  3
ACAD_ROUNDTRIP_2008_TABLESTYLE_CELLSTYLEMAP
360
130AA
  3
ACAD_XREC_ROUNDTRIP
360
130E0
  0
DICTIONARY
  5
130BA
330
1305C
100
AcDbDictionary
280
     1
281
     1
  3
ACAD_XREC_ROUNDTRIP
360
130BB
  0
DICTIONARY
  5
130B8
330
1305B
100
AcDbDictionary
280
     1
281
     1
  3
ACAD_XREC_ROUNDTRIP
360
130B9
  0
DICTIONARY
  5
130C6
330
13062
100
AcDbDictionary
280
     1
281
     1
  3
ACAD_XREC_ROUNDTRIP
360
130C7
  0
DICTIONARY
  5
130CE
330
13066
100
AcDbDictionary
280
     1
281
     1
  3
ACAD_XREC_ROUNDTRIP
360
130CF
  0
DICTIONARY
  5
130C0
330
1305F
100
AcDbDictionary
280
     1
281
     1
  3
ACAD_XREC_ROUNDTRIP
360
130C1
  0
DICTIONARY
  5
130C4
330
13061
100
AcDbDictionary
280
     1
281
     1
  3
ACAD_XREC_ROUNDTRIP
360
130C5
  0
DICTIONARY
  5
130DE
330
1306E
100
AcDbDictionary
280
     1
281
     1
  3
ACAD_XREC_ROUNDTRIP
360
130DF
  0
DICTIONARY
  5
130CC
330
13065
100
AcDbDictionary
280
     1
281
     1
  3
ACAD_XREC_ROUNDTRIP
360
130CD
  0
DICTIONARY
  5
130B0
330
13057
100
AcDbDictionary
280
     1
281
     1
  3
ACAD_XREC_ROUNDTRIP
360
130B1
  0
DICTIONARY
  5
130B2
330
13058
100
AcDbDictionary
280
     1
281
     1
  3
ACAD_XREC_ROUNDTRIP
360
130B3
  0
DICTIONARY
  5
130B4
330
13059
100
AcDbDictionary
280
     1
281
     1
  3
ACAD_XREC_ROUNDTRIP
360
130B5
  0
DICTIONARY
  5
130B6
330
1305A
100
AcDbDictionary
280
     1
281
     1
  3
ACAD_XREC_ROUNDTRIP
360
130B7
  0
DICTIONARY
  5
130BE
330
1305E
100
AcDbDictionary
280
     1
281
     1
  3
ACAD_XREC_ROUNDTRIP
360
130BF
  0
DICTIONARY
  5
130DA
330
1306C
100
AcDbDictionary
280
     1
281
     1
  3
ACAD_XREC_ROUNDTRIP
360
130DB
  0
DICTIONARY
  5
130CA
330
13064
100
AcDbDictionary
280
     1
281
     1
  3
ACAD_XREC_ROUNDTRIP
360
130CB
  0
DICTIONARY
  5
130DC
330
1306D
100
AcDbDictionary
280
     1
281
     1
  3
ACAD_XREC_ROUNDTRIP
360
130DD
  0
DICTIONARY
  5
130C2
330
13060
100
AcDbDictionary
280
     1
281
     1
  3
ACAD_XREC_ROUNDTRIP
360
130C3
  0
DICTIONARY
  5
130D8
330
1306B
100
AcDbDictionary
280
     1
281
     1
  3
ACAD_XREC_ROUNDTRIP
360
130D9
  0
DICTIONARY
  5
130D6
330
1306A
100
AcDbDictionary
280
     1
281
     1
  3
ACAD_XREC_ROUNDTRIP
360
130D7
  0
DICTIONARY
  5
130D0
330
13067
100
AcDbDictionary
280
     1
281
     1
  3
ACAD_XREC_ROUNDTRIP
360
130D1
  0
DICTIONARY
  5
130D2
330
13068
100
AcDbDictionary
280
     1
281
     1
  3
ACAD_XREC_ROUNDTRIP
360
130D3
  0
DICTIONARY
  5
130C8
330
13063
100
AcDbDictionary
280
     1
281
     1
  3
ACAD_XREC_ROUNDTRIP
360
130C9
  0
DICTIONARY
  5
130BC
330
1305D
100
AcDbDictionary
280
     1
281
     1
  3
ACAD_XREC_ROUNDTRIP
360
130BD
  0
DICTIONARY
  5
130D4
330
13069
100
AcDbDictionary
280
     1
281
     1
  3
ACAD_XREC_ROUNDTRIP
360
130D5
  0
XRECORD
  5
130E5
102
{ACAD_REACTORS
330
130E4
102
}
330
130E4
100
AcDbXrecord
280
     1
102
DISPLAYNAME
  1
Imperial24
102
FLAGS
 90
        0
  0
XRECORD
  5
130E7
102
{ACAD_REACTORS
330
130E6
102
}
330
130E6
100
AcDbXrecord
280
     1
102
SHADEPLOT
 70
     0
102
SHADEPLOTRESLEVEL
 70
     2
102
SHADEPLOTCUSTOMDPI
 70
   300
  0
XRECORD
  5
130E9
102
{ACAD_REACTORS
330
130E8
102
}
330
130E8
100
AcDbXrecord
280
     1
102
SHADEPLOT
 70
     0
102
SHADEPLOTRESLEVEL
 70
     2
102
SHADEPLOTCUSTOMDPI
 70
   300
  0
XRECORD
  5
130AE
102
{ACAD_REACTORS
330
13047
102
}
330
13047
100
AcDbXrecord
280
     1
102
MATERIAL
148
0.0
149
0.0
149
0.0
 93
        0
 94
      127
282
     0
 72
     0
 77
     0
171
     0
175
     0
179
     0
273
     0
  0
XRECORD
  5
13049
102
{ACAD_REACTORS
330
13047
102
}
330
13047
100
AcDbXrecord
280
     1
270
     1
271
     1
  0
XRECORD
  5
13048
102
{ACAD_REACTORS
330
13047
102
}
330
13047
100
AcDbXrecord
280
     1
270
     1
271
     1
  0
XRECORD
  5
1304C
102
{ACAD_REACTORS
330
13047
102
}
330
13047
100
AcDbXrecord
280
     1
270
     1
271
     1
  0
XRECORD
  5
1304B
102
{ACAD_REACTORS
330
13047
102
}
330
13047
100
AcDbXrecord
280
     1
270
     1
271
     1
  0
XRECORD
  5
1304D
102
{ACAD_REACTORS
330
13047
102
}
330
13047
100
AcDbXrecord
280
     1
270
     1
271
     1
  0
XRECORD
  5
1304A
102
{ACAD_REACTORS
330
13047
102
}
330
13047
100
AcDbXrecord
280
     1
270
     1
271
     1
  0
XRECORD
  5
130AD
102
{ACAD_REACTORS
330
1303F
102
}
330
1303F
100
AcDbXrecord
280
     1
102
MATERIAL
148
0.0
149
0.0
149
0.0
 93
        0
 94
      127
282
     0
 72
     0
 77
     0
171
     0
175
     0
179
     0
273
     0
  0
XRECORD
  5
13041
102
{ACAD_REACTORS
330
1303F
102
}
330
1303F
100
AcDbXrecord
280
     1
270
     1
271
     1
  0
XRECORD
  5
13040
102
{ACAD_REACTORS
330
1303F
102
}
330
1303F
100
AcDbXrecord
280
     1
270
     1
271
     1
  0
XRECORD
  5
13044
102
{ACAD_REACTORS
330
1303F
102
}
330
1303F
100
AcDbXrecord
280
     1
270
     1
271
     1
  0
XRECORD
  5
13043
102
{ACAD_REACTORS
330
1303F
102
}
330
1303F
100
AcDbXrecord
280
     1
270
     1
271
     1
  0
XRECORD
  5
13045
102
{ACAD_REACTORS
330
1303F
102
}
330
1303F
100
AcDbXrecord
280
     1
270
     1
271
     1
  0
XRECORD
  5
13042
102
{ACAD_REACTORS
330
1303F
102
}
330
1303F
100
AcDbXrecord
280
     1
270
     1
271
     1
  0
XRECORD
  5
130AF
102
{ACAD_REACTORS
330
1304F
102
}
330
1304F
100
AcDbXrecord
280
     1
102
MATERIAL
148
0.0
149
0.0
149
0.0
 93
        0
 94
      127
282
     0
 72
     0
 77
     0
171
     0
175
     0
179
     0
273
     0
  0
XRECORD
  5
13051
102
{ACAD_REACTORS
330
1304F
102
}
330
1304F
100
AcDbXrecord
280
     1
270
     1
271
     1
  0
XRECORD
  5
13050
102
{ACAD_REACTORS
330
1304F
102
}
330
1304F
100
AcDbXrecord
280
     1
270
     1
271
     1
  0
XRECORD
  5
13054
102
{ACAD_REACTORS
330
1304F
102
}
330
1304F
100
AcDbXrecord
280
     1
270
     1
271
     1
  0
XRECORD
  5
13053
102
{ACAD_REACTORS
330
1304F
102
}
330
1304F
100
AcDbXrecord
280
     1
270
     1
271
     1
  0
XRECORD
  5
13055
102
{ACAD_REACTORS
330
1304F
102
}
330
1304F
100
AcDbXrecord
280
     1
270
     1
271
     1
  0
XRECORD
  5
13052
102
{ACAD_REACTORS
330
1304F
102
}
330
1304F
100
AcDbXrecord
280
     1
270
     1
271
     1
  0
XRECORD
  5
130E3
102
{ACAD_REACTORS
330
130E2
102
}
330
130E2
100
AcDbXrecord
280
     1
102
DISPLAYNAME
  1
Imperial24
102
FLAGS
 90
        0
  0
CELLSTYLEMAP
  5
130AA
102
{ACAD_REACTORS
330
130A9
102
}
330
130A9
100
AcDbCellStyleMap
 90
        3
300
CELLSTYLE
  1
TABLEFORMAT_BEGIN
 90
        5
170
     1
 91
        0
 92
    32768
 62
   257
 93
        1
300
CONTENTFORMAT
  1
CONTENTFORMAT_BEGIN
 90
        0
 91
        0
 92
      512
 93
        0
300

 40
0.0
140
1.0
 94
        5
 62
     0
340
12B32
144
0.25
309
CONTENTFORMAT_END
171
     0
 94
        0
309
TABLEFORMAT_END
  1
CELLSTYLE_BEGIN
 90
        1
 91
        1
300
_TITLE
309
CELLSTYLE_END
300
CELLSTYLE
  1
TABLEFORMAT_BEGIN
 90
        5
170
     1
 91
        0
 92
        0
 62
   257
 93
        1
300
CONTENTFORMAT
  1
CONTENTFORMAT_BEGIN
 90
        0
 91
        0
 92
      512
 93
        0
300

 40
0.0
140
1.0
 94
        5
 62
     0
340
12B32
144
0.18
309
CONTENTFORMAT_END
171
     0
 94
        0
309
TABLEFORMAT_END
  1
CELLSTYLE_BEGIN
 90
        2
 91
        1
300
_HEADER
309
CELLSTYLE_END
300
CELLSTYLE
  1
TABLEFORMAT_BEGIN
 90
        5
170
     1
 91
        0
 92
        0
 62
   257
 93
        1
300
CONTENTFORMAT
  1
CONTENTFORMAT_BEGIN
 90
        0
 91
        0
 92
      512
 93
        0
300

 40
0.0
140
1.0
 94
        2
 62
     0
340
12B32
144
0.18
309
CONTENTFORMAT_END
171
     0
 94
        0
309
TABLEFORMAT_END
  1
CELLSTYLE_BEGIN
 90
        3
 91
        2
300
_DATA
309
CELLSTYLE_END
  0
XRECORD
  5
130E0
102
{ACAD_REACTORS
330
130A9
102
}
330
130A9
100
AcDbXrecord
280
     1
102
ACAD_ROUNDTRIP_PRE2007_TABLESTYLE
 90
      512
 91
        0
  1

 92
      512
 93
        0
  2

 94
      512
 95
        0
  3

  0
XRECORD
  5
130BB
102
{ACAD_REACTORS
330
130BA
102
}
330
130BA
100
AcDbXrecord
280
     1
102
RTVSPost2010Prop28
280
     1
102
RTVSPost2010PropOp28
 70
     1
102
RTVSPost2010Prop29
280
     1
102
RTVSPost2010PropOp29
 70
     1
102
RTVSPost2010Prop30
280
     0
102
RTVSPost2010PropOp30
 70
     1
102
RTVSPost2010Prop31
280
     0
102
RTVSPost2010PropOp31
 70
     1
102
RTVSPost2010Prop32
280
     0
102
RTVSPost2010PropOp32
 70
     1
102
RTVSPost2010Prop33
280
     0
102
RTVSPost2010PropOp33
 70
     1
102
RTVSPost2010Prop34
280
     0
102
RTVSPost2010PropOp34
 70
     1
102
RTVSPost2010Prop35
280
     0
102
RTVSPost2010PropOp35
 70
     1
102
RTVSPost2010Prop36
280
     0
102
RTVSPost2010PropOp36
 70
     1
102
RTVSPost2010Prop37
 90
       50
102
RTVSPost2010PropOp37
 70
     1
102
RTVSPost2010Prop38
140
0.0
102
RTVSPost2010PropOp38
 70
     1
102
RTVSPost2010Prop39
140
1.0
102
RTVSPost2010PropOp39
 70
     1
102
RTVSPost2010Prop40
 90
        0
102
RTVSPost2010PropOp40
 70
     1
102
RTVSPost2010Prop41ColorIndex
 90
       18
102
RTVSPost2010Prop41ColorRGB
 90
        0
102
RTVSPost2010PropOp41
 70
     1
102
RTVSPost2010Prop42
 90
       50
102
RTVSPost2010PropOp42
 70
     1
102
RTVSPost2010Prop43
 90
        3
102
RTVSPost2010PropOp43
 70
     1
102
RTVSPost2010Prop44ColorIndex
 90
        5
102
RTVSPost2010Prop44ColorRGB
 90
      255
102
RTVSPost2010PropOp44
 70
     1
102
RTVSPost2010Prop45
280
     0
102
RTVSPost2010PropOp45
 70
     1
102
RTVSPost2010Prop46
 90
       50
102
RTVSPost2010PropOp46
 70
     1
102
RTVSPost2010Prop47
 90
       50
102
RTVSPost2010PropOp47
 70
     1
102
RTVSPost2010Prop48
 90
       50
102
RTVSPost2010PropOp48
 70
     1
102
RTVSPost2010Prop49
280
     0
102
RTVSPost2010PropOp49
 70
     1
102
RTVSPost2010Prop50
 90
       50
102
RTVSPost2010PropOp50
 70
     1
102
RTVSPost2010Prop51ColorIndex
 90
      256
102
RTVSPost2010Prop51ColorRGB
 90
-16777216
102
RTVSPost2010PropOp51
 70
     0
102
RTVSPost2010Prop52
140
1.0
102
RTVSPost2010PropOp52
 70
     0
102
RTVSPost2010Prop53
 90
        2
102
RTVSPost2010PropOp53
 70
     1
102
RTVSPost2010Prop54
  1
strokes_ogs.tif
102
RTVSPost2010PropOp54
 70
     1
102
RTVSPost2010Prop55
280
     0
102
RTVSPost2010PropOp55
 70
     1
102
RTVSPost2010Prop56
140
1.0
102
RTVSPost2010PropOp56
 70
     1
102
RTVSPost2010Prop57
140
1.0
102
RTVSPost2010PropOp57
 70
     1
102
RTVSPropertyOp0
 70
     1
102
RTVSPropertyOp1
 70
     1
102
RTVSPropertyOp2
 70
     1
102
RTVSPropertyOp3
 70
     1
102
RTVSPropertyOp4
 70
     1
102
RTVSPropertyOp5
 70
     1
102
RTVSPropertyOp6
 70
     1
102
RTVSPropertyOp7
 70
     1
102
RTVSPropertyOp8
 70
     1
102
RTVSPropertyOp9
 70
     1
102
RTVSPropertyOp10
 70
     1
102
RTVSPropertyOp11
 70
     1
102
RTVSPropertyOp12
 70
     1
102
RTVSPropertyOp13
 70
     1
102
RTVSPropertyOp14
 70
     1
102
RTVSPropertyOp15
 70
     1
102
RTVSPropertyOp16
 70
     1
102
RTVSPropertyOp17
 70
     1
102
RTVSPropertyOp18
 70
     1
102
RTVSPropertyOp19
 70
     1
102
RTVSPropertyOp20
 70
     1
102
RTVSPropertyOp21
 70
     1
102
RTVSPropertyOp22
 70
     1
102
RTVSPropertyOp23
 70
     1
102
RTVSPropertyOp24
 70
     1
102
RTVSPropertyOp25
 70
     1
102
RTVSPropertyOp26
 70
     1
102
RTVSPropertyOp27
 70
     1
102
RTVSPropertyOp28
 70
     1
102
RTVSPropertyOp29
 70
     1
102
RTVSPropertyOp30
 70
     1
102
RTVSPropertyOp31
 70
     1
102
RTVSPropertyOp32
 70
     1
102
RTVSPropertyOp33
 70
     1
102
RTVSPropertyOp34
 70
     1
102
RTVSPropertyOp35
 70
     1
102
RTVSPropertyOp36
 70
     1
102
RTVSPropertyOp37
 70
     1
102
RTVSPropertyOp38
 70
     1
102
RTVSPropertyOp39
 70
     1
102
RTVSPropertyOp40
 70
     1
102
RTVSPropertyOp41
 70
     1
102
RTVSPropertyOp42
 70
     1
102
RTVSPropertyOp43
 70
     1
102
RTVSPropertyOp44
 70
     1
102
RTVSPropertyOp45
 70
     1
102
RTVSPropertyOp46
 70
     1
102
RTVSPropertyOp47
 70
     1
102
RTVSPropertyOp48
 70
     1
102
RTVSPropertyOp49
 70
     1
102
RTVSPropertyOp50
 70
     1
102
RTVSPropertyOp51
 70
     0
102
RTVSPropertyOp52
 70
     0
102
RTVSPropertyOp53
 70
     1
102
RTVSPropertyOp54
 70
     1
102
RTVSPropertyOp55
 70
     1
102
RTVSPropertyOp56
 70
     1
102
RTVSPropertyOp57
 70
     1
102
RTVSPropertyOp58
 70
     1
102
RTVSPropertyOp59
 70
     1
102
RTVSPropertyOp60
 70
     1
102
RTVSPropertyOp61
 70
     1
102
RTVSPropertyOp62
 70
     1
  0
XRECORD
  5
130B9
102
{ACAD_REACTORS
330
130B8
102
}
330
130B8
100
AcDbXrecord
280
     1
102
RTVSPost2010Prop28
280
     0
102
RTVSPost2010PropOp28
 70
     1
102
RTVSPost2010Prop29
280
     1
102
RTVSPost2010PropOp29
 70
     1
102
RTVSPost2010Prop30
280
     1
102
RTVSPost2010PropOp30
 70
     1
102
RTVSPost2010Prop31
280
     0
102
RTVSPost2010PropOp31
 70
     1
102
RTVSPost2010Prop32
280
     0
102
RTVSPost2010PropOp32
 70
     1
102
RTVSPost2010Prop33
280
     0
102
RTVSPost2010PropOp33
 70
     1
102
RTVSPost2010Prop34
280
     0
102
RTVSPost2010PropOp34
 70
     1
102
RTVSPost2010Prop35
280
     0
102
RTVSPost2010PropOp35
 70
     1
102
RTVSPost2010Prop36
280
     0
102
RTVSPost2010PropOp36
 70
     1
102
RTVSPost2010Prop37
 90
       50
102
RTVSPost2010PropOp37
 70
     1
102
RTVSPost2010Prop38
140
0.0
102
RTVSPost2010PropOp38
 70
     1
102
RTVSPost2010Prop39
140
1.0
102
RTVSPost2010PropOp39
 70
     1
102
RTVSPost2010Prop40
 90
        0
102
RTVSPost2010PropOp40
 70
     1
102
RTVSPost2010Prop41ColorIndex
 90
       18
102
RTVSPost2010Prop41ColorRGB
 90
        0
102
RTVSPost2010PropOp41
 70
     1
102
RTVSPost2010Prop42
 90
       50
102
RTVSPost2010PropOp42
 70
     1
102
RTVSPost2010Prop43
 90
        3
102
RTVSPost2010PropOp43
 70
     1
102
RTVSPost2010Prop44ColorIndex
 90
        5
102
RTVSPost2010Prop44ColorRGB
 90
      255
102
RTVSPost2010PropOp44
 70
     1
102
RTVSPost2010Prop45
280
     0
102
RTVSPost2010PropOp45
 70
     1
102
RTVSPost2010Prop46
 90
       50
102
RTVSPost2010PropOp46
 70
     1
102
RTVSPost2010Prop47
 90
       50
102
RTVSPost2010PropOp47
 70
     1
102
RTVSPost2010Prop48
 90
       50
102
RTVSPost2010PropOp48
 70
     1
102
RTVSPost2010Prop49
280
     0
102
RTVSPost2010PropOp49
 70
     1
102
RTVSPost2010Prop50
 90
       50
102
RTVSPost2010PropOp50
 70
     1
102
RTVSPost2010Prop51ColorIndex
 90
      256
102
RTVSPost2010Prop51ColorRGB
 90
-16777216
102
RTVSPost2010PropOp51
 70
     0
102
RTVSPost2010Prop52
140
1.0
102
RTVSPost2010PropOp52
 70
     0
102
RTVSPost2010Prop53
 90
        2
102
RTVSPost2010PropOp53
 70
     1
102
RTVSPost2010Prop54
  1
strokes_ogs.tif
102
RTVSPost2010PropOp54
 70
     1
102
RTVSPost2010Prop55
280
     0
102
RTVSPost2010PropOp55
 70
     1
102
RTVSPost2010Prop56
140
1.0
102
RTVSPost2010PropOp56
 70
     1
102
RTVSPost2010Prop57
140
1.0
102
RTVSPost2010PropOp57
 70
     1
102
RTVSPropertyOp0
 70
     1
102
RTVSPropertyOp1
 70
     1
102
RTVSPropertyOp2
 70
     1
102
RTVSPropertyOp3
 70
     1
102
RTVSPropertyOp4
 70
     1
102
RTVSPropertyOp5
 70
     1
102
RTVSPropertyOp6
 70
     1
102
RTVSPropertyOp7
 70
     1
102
RTVSPropertyOp8
 70
     1
102
RTVSPropertyOp9
 70
     1
102
RTVSPropertyOp10
 70
     1
102
RTVSPropertyOp11
 70
     1
102
RTVSPropertyOp12
 70
     1
102
RTVSPropertyOp13
 70
     1
102
RTVSPropertyOp14
 70
     1
102
RTVSPropertyOp15
 70
     1
102
RTVSPropertyOp16
 70
     1
102
RTVSPropertyOp17
 70
     1
102
RTVSPropertyOp18
 70
     1
102
RTVSPropertyOp19
 70
     1
102
RTVSPropertyOp20
 70
     1
102
RTVSPropertyOp21
 70
     1
102
RTVSPropertyOp22
 70
     1
102
RTVSPropertyOp23
 70
     1
102
RTVSPropertyOp24
 70
     1
102
RTVSPropertyOp25
 70
     1
102
RTVSPropertyOp26
 70
     1
102
RTVSPropertyOp27
 70
     1
102
RTVSPropertyOp28
 70
     1
102
RTVSPropertyOp29
 70
     1
102
RTVSPropertyOp30
 70
     1
102
RTVSPropertyOp31
 70
     1
102
RTVSPropertyOp32
 70
     1
102
RTVSPropertyOp33
 70
     1
102
RTVSPropertyOp34
 70
     1
102
RTVSPropertyOp35
 70
     1
102
RTVSPropertyOp36
 70
     1
102
RTVSPropertyOp37
 70
     1
102
RTVSPropertyOp38
 70
     1
102
RTVSPropertyOp39
 70
     1
102
RTVSPropertyOp40
 70
     1
102
RTVSPropertyOp41
 70
     1
102
RTVSPropertyOp42
 70
     1
102
RTVSPropertyOp43
 70
     1
102
RTVSPropertyOp44
 70
     1
102
RTVSPropertyOp45
 70
     1
102
RTVSPropertyOp46
 70
     1
102
RTVSPropertyOp47
 70
     1
102
RTVSPropertyOp48
 70
     1
102
RTVSPropertyOp49
 70
     1
102
RTVSPropertyOp50
 70
     1
102
RTVSPropertyOp51
 70
     0
102
RTVSPropertyOp52
 70
     0
102
RTVSPropertyOp53
 70
     1
102
RTVSPropertyOp54
 70
     1
102
RTVSPropertyOp55
 70
     1
102
RTVSPropertyOp56
 70
     1
102
RTVSPropertyOp57
 70
     1
102
RTVSPropertyOp58
 70
     1
102
RTVSPropertyOp59
 70
     1
102
RTVSPropertyOp60
 70
     1
102
RTVSPropertyOp61
 70
     1
102
RTVSPropertyOp62
 70
     1
  0
XRECORD
  5
130C7
102
{ACAD_REACTORS
330
130C6
102
}
330
130C6
100
AcDbXrecord
280
     1
102
RTVSPost2010Prop28
280
     0
102
RTVSPost2010PropOp28
 70
     1
102
RTVSPost2010Prop29
280
     1
102
RTVSPost2010PropOp29
 70
     1
102
RTVSPost2010Prop30
280
     1
102
RTVSPost2010PropOp30
 70
     1
102
RTVSPost2010Prop31
280
     0
102
RTVSPost2010PropOp31
 70
     1
102
RTVSPost2010Prop32
280
     0
102
RTVSPost2010PropOp32
 70
     1
102
RTVSPost2010Prop33
280
     0
102
RTVSPost2010PropOp33
 70
     1
102
RTVSPost2010Prop34
280
     0
102
RTVSPost2010PropOp34
 70
     1
102
RTVSPost2010Prop35
280
     0
102
RTVSPost2010PropOp35
 70
     1
102
RTVSPost2010Prop36
280
     0
102
RTVSPost2010PropOp36
 70
     1
102
RTVSPost2010Prop37
 90
       50
102
RTVSPost2010PropOp37
 70
     1
102
RTVSPost2010Prop38
140
0.0
102
RTVSPost2010PropOp38
 70
     1
102
RTVSPost2010Prop39
140
1.0
102
RTVSPost2010PropOp39
 70
     1
102
RTVSPost2010Prop40
 90
        0
102
RTVSPost2010PropOp40
 70
     1
102
RTVSPost2010Prop41ColorIndex
 90
       18
102
RTVSPost2010Prop41ColorRGB
 90
        0
102
RTVSPost2010PropOp41
 70
     1
102
RTVSPost2010Prop42
 90
       50
102
RTVSPost2010PropOp42
 70
     1
102
RTVSPost2010Prop43
 90
        3
102
RTVSPost2010PropOp43
 70
     1
102
RTVSPost2010Prop44ColorIndex
 90
        5
102
RTVSPost2010Prop44ColorRGB
 90
      255
102
RTVSPost2010PropOp44
 70
     1
102
RTVSPost2010Prop45
280
     0
102
RTVSPost2010PropOp45
 70
     1
102
RTVSPost2010Prop46
 90
       50
102
RTVSPost2010PropOp46
 70
     1
102
RTVSPost2010Prop47
 90
       50
102
RTVSPost2010PropOp47
 70
     1
102
RTVSPost2010Prop48
 90
       50
102
RTVSPost2010PropOp48
 70
     1
102
RTVSPost2010Prop49
280
     0
102
RTVSPost2010PropOp49
 70
     1
102
RTVSPost2010Prop50
 90
       50
102
RTVSPost2010PropOp50
 70
     1
102
RTVSPost2010Prop51ColorIndex
 90
      256
102
RTVSPost2010Prop51ColorRGB
 90
-16777216
102
RTVSPost2010PropOp51
 70
     0
102
RTVSPost2010Prop52
140
1.0
102
RTVSPost2010PropOp52
 70
     0
102
RTVSPost2010Prop53
 90
        2
102
RTVSPost2010PropOp53
 70
     1
102
RTVSPost2010Prop54
  1
strokes_ogs.tif
102
RTVSPost2010PropOp54
 70
     1
102
RTVSPost2010Prop55
280
     0
102
RTVSPost2010PropOp55
 70
     1
102
RTVSPost2010Prop56
140
1.0
102
RTVSPost2010PropOp56
 70
     1
102
RTVSPost2010Prop57
140
1.0
102
RTVSPost2010PropOp57
 70
     1
102
RTVSPropertyOp0
 70
     1
102
RTVSPropertyOp1
 70
     1
102
RTVSPropertyOp2
 70
     1
102
RTVSPropertyOp3
 70
     1
102
RTVSPropertyOp4
 70
     1
102
RTVSPropertyOp5
 70
     1
102
RTVSPropertyOp6
 70
     1
102
RTVSPropertyOp7
 70
     1
102
RTVSPropertyOp8
 70
     1
102
RTVSPropertyOp9
 70
     1
102
RTVSPropertyOp10
 70
     1
102
RTVSPropertyOp11
 70
     1
102
RTVSPropertyOp12
 70
     1
102
RTVSPropertyOp13
 70
     1
102
RTVSPropertyOp14
 70
     1
102
RTVSPropertyOp15
 70
     1
102
RTVSPropertyOp16
 70
     1
102
RTVSPropertyOp17
 70
     1
102
RTVSPropertyOp18
 70
     1
102
RTVSPropertyOp19
 70
     1
102
RTVSPropertyOp20
 70
     1
102
RTVSPropertyOp21
 70
     1
102
RTVSPropertyOp22
 70
     1
102
RTVSPropertyOp23
 70
     1
102
RTVSPropertyOp24
 70
     1
102
RTVSPropertyOp25
 70
     1
102
RTVSPropertyOp26
 70
     1
102
RTVSPropertyOp27
 70
     1
102
RTVSPropertyOp28
 70
     1
102
RTVSPropertyOp29
 70
     1
102
RTVSPropertyOp30
 70
     1
102
RTVSPropertyOp31
 70
     1
102
RTVSPropertyOp32
 70
     1
102
RTVSPropertyOp33
 70
     1
102
RTVSPropertyOp34
 70
     1
102
RTVSPropertyOp35
 70
     1
102
RTVSPropertyOp36
 70
     1
102
RTVSPropertyOp37
 70
     1
102
RTVSPropertyOp38
 70
     1
102
RTVSPropertyOp39
 70
     1
102
RTVSPropertyOp40
 70
     1
102
RTVSPropertyOp41
 70
     1
102
RTVSPropertyOp42
 70
     1
102
RTVSPropertyOp43
 70
     1
102
RTVSPropertyOp44
 70
     1
102
RTVSPropertyOp45
 70
     1
102
RTVSPropertyOp46
 70
     1
102
RTVSPropertyOp47
 70
     1
102
RTVSPropertyOp48
 70
     1
102
RTVSPropertyOp49
 70
     1
102
RTVSPropertyOp50
 70
     1
102
RTVSPropertyOp51
 70
     0
102
RTVSPropertyOp52
 70
     0
102
RTVSPropertyOp53
 70
     1
102
RTVSPropertyOp54
 70
     1
102
RTVSPropertyOp55
 70
     1
102
RTVSPropertyOp56
 70
     1
102
RTVSPropertyOp57
 70
     1
102
RTVSPropertyOp58
 70
     1
102
RTVSPropertyOp59
 70
     1
102
RTVSPropertyOp60
 70
     1
102
RTVSPropertyOp61
 70
     1
102
RTVSPropertyOp62
 70
     1
  0
XRECORD
  5
130CF
102
{ACAD_REACTORS
330
130CE
102
}
330
130CE
100
AcDbXrecord
280
     1
102
RTVSPost2010Prop28
280
     0
102
RTVSPost2010PropOp28
 70
     1
102
RTVSPost2010Prop29
280
     1
102
RTVSPost2010PropOp29
 70
     1
102
RTVSPost2010Prop30
280
     1
102
RTVSPost2010PropOp30
 70
     1
102
RTVSPost2010Prop31
280
     0
102
RTVSPost2010PropOp31
 70
     1
102
RTVSPost2010Prop32
280
     0
102
RTVSPost2010PropOp32
 70
     1
102
RTVSPost2010Prop33
280
     0
102
RTVSPost2010PropOp33
 70
     1
102
RTVSPost2010Prop34
280
     0
102
RTVSPost2010PropOp34
 70
     1
102
RTVSPost2010Prop35
280
     0
102
RTVSPost2010PropOp35
 70
     1
102
RTVSPost2010Prop36
280
     0
102
RTVSPost2010PropOp36
 70
     1
102
RTVSPost2010Prop37
 90
       50
102
RTVSPost2010PropOp37
 70
     1
102
RTVSPost2010Prop38
140
0.0
102
RTVSPost2010PropOp38
 70
     1
102
RTVSPost2010Prop39
140
1.0
102
RTVSPost2010PropOp39
 70
     1
102
RTVSPost2010Prop40
 90
        0
102
RTVSPost2010PropOp40
 70
     1
102
RTVSPost2010Prop41ColorIndex
 90
       18
102
RTVSPost2010Prop41ColorRGB
 90
        0
102
RTVSPost2010PropOp41
 70
     1
102
RTVSPost2010Prop42
 90
       50
102
RTVSPost2010PropOp42
 70
     1
102
RTVSPost2010Prop43
 90
        3
102
RTVSPost2010PropOp43
 70
     1
102
RTVSPost2010Prop44ColorIndex
 90
        5
102
RTVSPost2010Prop44ColorRGB
 90
      255
102
RTVSPost2010PropOp44
 70
     1
102
RTVSPost2010Prop45
280
     0
102
RTVSPost2010PropOp45
 70
     1
102
RTVSPost2010Prop46
 90
       50
102
RTVSPost2010PropOp46
 70
     1
102
RTVSPost2010Prop47
 90
       50
102
RTVSPost2010PropOp47
 70
     1
102
RTVSPost2010Prop48
 90
       50
102
RTVSPost2010PropOp48
 70
     1
102
RTVSPost2010Prop49
280
     0
102
RTVSPost2010PropOp49
 70
     1
102
RTVSPost2010Prop50
 90
       50
102
RTVSPost2010PropOp50
 70
     1
102
RTVSPost2010Prop51ColorIndex
 90
      256
102
RTVSPost2010Prop51ColorRGB
 90
-16777216
102
RTVSPost2010PropOp51
 70
     0
102
RTVSPost2010Prop52
140
1.0
102
RTVSPost2010PropOp52
 70
     0
102
RTVSPost2010Prop53
 90
        2
102
RTVSPost2010PropOp53
 70
     1
102
RTVSPost2010Prop54
  1
strokes_ogs.tif
102
RTVSPost2010PropOp54
 70
     1
102
RTVSPost2010Prop55
280
     0
102
RTVSPost2010PropOp55
 70
     1
102
RTVSPost2010Prop56
140
1.0
102
RTVSPost2010PropOp56
 70
     1
102
RTVSPost2010Prop57
140
1.0
102
RTVSPost2010PropOp57
 70
     1
102
RTVSPropertyOp0
 70
     1
102
RTVSPropertyOp1
 70
     1
102
RTVSPropertyOp2
 70
     1
102
RTVSPropertyOp3
 70
     1
102
RTVSPropertyOp4
 70
     1
102
RTVSPropertyOp5
 70
     1
102
RTVSPropertyOp6
 70
     1
102
RTVSPropertyOp7
 70
     1
102
RTVSPropertyOp8
 70
     1
102
RTVSPropertyOp9
 70
     1
102
RTVSPropertyOp10
 70
     1
102
RTVSPropertyOp11
 70
     1
102
RTVSPropertyOp12
 70
     1
102
RTVSPropertyOp13
 70
     1
102
RTVSPropertyOp14
 70
     1
102
RTVSPropertyOp15
 70
     1
102
RTVSPropertyOp16
 70
     1
102
RTVSPropertyOp17
 70
     1
102
RTVSPropertyOp18
 70
     1
102
RTVSPropertyOp19
 70
     1
102
RTVSPropertyOp20
 70
     1
102
RTVSPropertyOp21
 70
     1
102
RTVSPropertyOp22
 70
     1
102
RTVSPropertyOp23
 70
     1
102
RTVSPropertyOp24
 70
     1
102
RTVSPropertyOp25
 70
     1
102
RTVSPropertyOp26
 70
     1
102
RTVSPropertyOp27
 70
     1
102
RTVSPropertyOp28
 70
     1
102
RTVSPropertyOp29
 70
     1
102
RTVSPropertyOp30
 70
     1
102
RTVSPropertyOp31
 70
     1
102
RTVSPropertyOp32
 70
     1
102
RTVSPropertyOp33
 70
     1
102
RTVSPropertyOp34
 70
     1
102
RTVSPropertyOp35
 70
     1
102
RTVSPropertyOp36
 70
     1
102
RTVSPropertyOp37
 70
     1
102
RTVSPropertyOp38
 70
     1
102
RTVSPropertyOp39
 70
     1
102
RTVSPropertyOp40
 70
     1
102
RTVSPropertyOp41
 70
     1
102
RTVSPropertyOp42
 70
     1
102
RTVSPropertyOp43
 70
     1
102
RTVSPropertyOp44
 70
     1
102
RTVSPropertyOp45
 70
     1
102
RTVSPropertyOp46
 70
     1
102
RTVSPropertyOp47
 70
     1
102
RTVSPropertyOp48
 70
     1
102
RTVSPropertyOp49
 70
     1
102
RTVSPropertyOp50
 70
     1
102
RTVSPropertyOp51
 70
     0
102
RTVSPropertyOp52
 70
     0
102
RTVSPropertyOp53
 70
     1
102
RTVSPropertyOp54
 70
     1
102
RTVSPropertyOp55
 70
     1
102
RTVSPropertyOp56
 70
     1
102
RTVSPropertyOp57
 70
     1
102
RTVSPropertyOp58
 70
     1
102
RTVSPropertyOp59
 70
     1
102
RTVSPropertyOp60
 70
     1
102
RTVSPropertyOp61
 70
     1
102
RTVSPropertyOp62
 70
     1
  0
XRECORD
  5
130C1
102
{ACAD_REACTORS
330
130C0
102
}
330
130C0
100
AcDbXrecord
280
     1
102
RTVSPost2010Prop28
280
     0
102
RTVSPost2010PropOp28
 70
     1
102
RTVSPost2010Prop29
280
     1
102
RTVSPost2010PropOp29
 70
     1
102
RTVSPost2010Prop30
280
     1
102
RTVSPost2010PropOp30
 70
     1
102
RTVSPost2010Prop31
280
     0
102
RTVSPost2010PropOp31
 70
     1
102
RTVSPost2010Prop32
280
     0
102
RTVSPost2010PropOp32
 70
     1
102
RTVSPost2010Prop33
280
     0
102
RTVSPost2010PropOp33
 70
     1
102
RTVSPost2010Prop34
280
     0
102
RTVSPost2010PropOp34
 70
     1
102
RTVSPost2010Prop35
280
     0
102
RTVSPost2010PropOp35
 70
     1
102
RTVSPost2010Prop36
280
     0
102
RTVSPost2010PropOp36
 70
     1
102
RTVSPost2010Prop37
 90
       50
102
RTVSPost2010PropOp37
 70
     1
102
RTVSPost2010Prop38
140
0.0
102
RTVSPost2010PropOp38
 70
     1
102
RTVSPost2010Prop39
140
1.0
102
RTVSPost2010PropOp39
 70
     1
102
RTVSPost2010Prop40
 90
        0
102
RTVSPost2010PropOp40
 70
     1
102
RTVSPost2010Prop41ColorIndex
 90
       18
102
RTVSPost2010Prop41ColorRGB
 90
        0
102
RTVSPost2010PropOp41
 70
     1
102
RTVSPost2010Prop42
 90
       50
102
RTVSPost2010PropOp42
 70
     1
102
RTVSPost2010Prop43
 90
        3
102
RTVSPost2010PropOp43
 70
     1
102
RTVSPost2010Prop44ColorIndex
 90
        5
102
RTVSPost2010Prop44ColorRGB
 90
      255
102
RTVSPost2010PropOp44
 70
     1
102
RTVSPost2010Prop45
280
     0
102
RTVSPost2010PropOp45
 70
     1
102
RTVSPost2010Prop46
 90
       50
102
RTVSPost2010PropOp46
 70
     1
102
RTVSPost2010Prop47
 90
       50
102
RTVSPost2010PropOp47
 70
     1
102
RTVSPost2010Prop48
 90
       50
102
RTVSPost2010PropOp48
 70
     1
102
RTVSPost2010Prop49
280
     0
102
RTVSPost2010PropOp49
 70
     1
102
RTVSPost2010Prop50
 90
       50
102
RTVSPost2010PropOp50
 70
     1
102
RTVSPost2010Prop51ColorIndex
 90
      256
102
RTVSPost2010Prop51ColorRGB
 90
-16777216
102
RTVSPost2010PropOp51
 70
     0
102
RTVSPost2010Prop52
140
1.0
102
RTVSPost2010PropOp52
 70
     0
102
RTVSPost2010Prop53
 90
        2
102
RTVSPost2010PropOp53
 70
     1
102
RTVSPost2010Prop54
  1
strokes_ogs.tif
102
RTVSPost2010PropOp54
 70
     1
102
RTVSPost2010Prop55
280
     0
102
RTVSPost2010PropOp55
 70
     1
102
RTVSPost2010Prop56
140
1.0
102
RTVSPost2010PropOp56
 70
     1
102
RTVSPost2010Prop57
140
1.0
102
RTVSPost2010PropOp57
 70
     1
102
RTVSPropertyOp0
 70
     1
102
RTVSPropertyOp1
 70
     1
102
RTVSPropertyOp2
 70
     1
102
RTVSPropertyOp3
 70
     1
102
RTVSPropertyOp4
 70
     1
102
RTVSPropertyOp5
 70
     1
102
RTVSPropertyOp6
 70
     1
102
RTVSPropertyOp7
 70
     1
102
RTVSPropertyOp8
 70
     1
102
RTVSPropertyOp9
 70
     1
102
RTVSPropertyOp10
 70
     1
102
RTVSPropertyOp11
 70
     1
102
RTVSPropertyOp12
 70
     1
102
RTVSPropertyOp13
 70
     1
102
RTVSPropertyOp14
 70
     1
102
RTVSPropertyOp15
 70
     1
102
RTVSPropertyOp16
 70
     1
102
RTVSPropertyOp17
 70
     1
102
RTVSPropertyOp18
 70
     1
102
RTVSPropertyOp19
 70
     1
102
RTVSPropertyOp20
 70
     1
102
RTVSPropertyOp21
 70
     1
102
RTVSPropertyOp22
 70
     1
102
RTVSPropertyOp23
 70
     1
102
RTVSPropertyOp24
 70
     1
102
RTVSPropertyOp25
 70
     1
102
RTVSPropertyOp26
 70
     1
102
RTVSPropertyOp27
 70
     1
102
RTVSPropertyOp28
 70
     1
102
RTVSPropertyOp29
 70
     1
102
RTVSPropertyOp30
 70
     1
102
RTVSPropertyOp31
 70
     1
102
RTVSPropertyOp32
 70
     1
102
RTVSPropertyOp33
 70
     1
102
RTVSPropertyOp34
 70
     1
102
RTVSPropertyOp35
 70
     1
102
RTVSPropertyOp36
 70
     1
102
RTVSPropertyOp37
 70
     1
102
RTVSPropertyOp38
 70
     1
102
RTVSPropertyOp39
 70
     1
102
RTVSPropertyOp40
 70
     1
102
RTVSPropertyOp41
 70
     1
102
RTVSPropertyOp42
 70
     1
102
RTVSPropertyOp43
 70
     1
102
RTVSPropertyOp44
 70
     1
102
RTVSPropertyOp45
 70
     1
102
RTVSPropertyOp46
 70
     1
102
RTVSPropertyOp47
 70
     1
102
RTVSPropertyOp48
 70
     1
102
RTVSPropertyOp49
 70
     1
102
RTVSPropertyOp50
 70
     1
102
RTVSPropertyOp51
 70
     0
102
RTVSPropertyOp52
 70
     0
102
RTVSPropertyOp53
 70
     1
102
RTVSPropertyOp54
 70
     1
102
RTVSPropertyOp55
 70
     1
102
RTVSPropertyOp56
 70
     1
102
RTVSPropertyOp57
 70
     1
102
RTVSPropertyOp58
 70
     1
102
RTVSPropertyOp59
 70
     1
102
RTVSPropertyOp60
 70
     1
102
RTVSPropertyOp61
 70
     1
102
RTVSPropertyOp62
 70
     1
  0
XRECORD
  5
130C5
102
{ACAD_REACTORS
330
130C4
102
}
330
130C4
100
AcDbXrecord
280
     1
102
RTVSPost2010Prop28
280
     0
102
RTVSPost2010PropOp28
 70
     1
102
RTVSPost2010Prop29
280
     1
102
RTVSPost2010PropOp29
 70
     1
102
RTVSPost2010Prop30
280
     1
102
RTVSPost2010PropOp30
 70
     1
102
RTVSPost2010Prop31
280
     0
102
RTVSPost2010PropOp31
 70
     1
102
RTVSPost2010Prop32
280
     0
102
RTVSPost2010PropOp32
 70
     1
102
RTVSPost2010Prop33
280
     0
102
RTVSPost2010PropOp33
 70
     1
102
RTVSPost2010Prop34
280
     0
102
RTVSPost2010PropOp34
 70
     1
102
RTVSPost2010Prop35
280
     0
102
RTVSPost2010PropOp35
 70
     1
102
RTVSPost2010Prop36
280
     0
102
RTVSPost2010PropOp36
 70
     1
102
RTVSPost2010Prop37
 90
       50
102
RTVSPost2010PropOp37
 70
     1
102
RTVSPost2010Prop38
140
0.0
102
RTVSPost2010PropOp38
 70
     1
102
RTVSPost2010Prop39
140
1.0
102
RTVSPost2010PropOp39
 70
     1
102
RTVSPost2010Prop40
 90
        0
102
RTVSPost2010PropOp40
 70
     1
102
RTVSPost2010Prop41ColorIndex
 90
       18
102
RTVSPost2010Prop41ColorRGB
 90
        0
102
RTVSPost2010PropOp41
 70
     1
102
RTVSPost2010Prop42
 90
       50
102
RTVSPost2010PropOp42
 70
     1
102
RTVSPost2010Prop43
 90
        3
102
RTVSPost2010PropOp43
 70
     1
102
RTVSPost2010Prop44ColorIndex
 90
        5
102
RTVSPost2010Prop44ColorRGB
 90
      255
102
RTVSPost2010PropOp44
 70
     1
102
RTVSPost2010Prop45
280
     0
102
RTVSPost2010PropOp45
 70
     1
102
RTVSPost2010Prop46
 90
       50
102
RTVSPost2010PropOp46
 70
     1
102
RTVSPost2010Prop47
 90
       50
102
RTVSPost2010PropOp47
 70
     1
102
RTVSPost2010Prop48
 90
       50
102
RTVSPost2010PropOp48
 70
     1
102
RTVSPost2010Prop49
280
     0
102
RTVSPost2010PropOp49
 70
     1
102
RTVSPost2010Prop50
 90
       50
102
RTVSPost2010PropOp50
 70
     1
102
RTVSPost2010Prop51ColorIndex
 90
      256
102
RTVSPost2010Prop51ColorRGB
 90
-16777216
102
RTVSPost2010PropOp51
 70
     0
102
RTVSPost2010Prop52
140
1.0
102
RTVSPost2010PropOp52
 70
     0
102
RTVSPost2010Prop53
 90
        2
102
RTVSPost2010PropOp53
 70
     1
102
RTVSPost2010Prop54
  1
strokes_ogs.tif
102
RTVSPost2010PropOp54
 70
     1
102
RTVSPost2010Prop55
280
     0
102
RTVSPost2010PropOp55
 70
     1
102
RTVSPost2010Prop56
140
1.0
102
RTVSPost2010PropOp56
 70
     1
102
RTVSPost2010Prop57
140
1.0
102
RTVSPost2010PropOp57
 70
     1
102
RTVSPropertyOp0
 70
     1
102
RTVSPropertyOp1
 70
     1
102
RTVSPropertyOp2
 70
     1
102
RTVSPropertyOp3
 70
     1
102
RTVSPropertyOp4
 70
     1
102
RTVSPropertyOp5
 70
     1
102
RTVSPropertyOp6
 70
     1
102
RTVSPropertyOp7
 70
     1
102
RTVSPropertyOp8
 70
     1
102
RTVSPropertyOp9
 70
     1
102
RTVSPropertyOp10
 70
     1
102
RTVSPropertyOp11
 70
     1
102
RTVSPropertyOp12
 70
     1
102
RTVSPropertyOp13
 70
     1
102
RTVSPropertyOp14
 70
     1
102
RTVSPropertyOp15
 70
     1
102
RTVSPropertyOp16
 70
     1
102
RTVSPropertyOp17
 70
     1
102
RTVSPropertyOp18
 70
     1
102
RTVSPropertyOp19
 70
     1
102
RTVSPropertyOp20
 70
     1
102
RTVSPropertyOp21
 70
     1
102
RTVSPropertyOp22
 70
     1
102
RTVSPropertyOp23
 70
     1
102
RTVSPropertyOp24
 70
     1
102
RTVSPropertyOp25
 70
     1
102
RTVSPropertyOp26
 70
     1
102
RTVSPropertyOp27
 70
     1
102
RTVSPropertyOp28
 70
     1
102
RTVSPropertyOp29
 70
     1
102
RTVSPropertyOp30
 70
     1
102
RTVSPropertyOp31
 70
     1
102
RTVSPropertyOp32
 70
     1
102
RTVSPropertyOp33
 70
     1
102
RTVSPropertyOp34
 70
     1
102
RTVSPropertyOp35
 70
     1
102
RTVSPropertyOp36
 70
     1
102
RTVSPropertyOp37
 70
     1
102
RTVSPropertyOp38
 70
     1
102
RTVSPropertyOp39
 70
     1
102
RTVSPropertyOp40
 70
     1
102
RTVSPropertyOp41
 70
     1
102
RTVSPropertyOp42
 70
     1
102
RTVSPropertyOp43
 70
     1
102
RTVSPropertyOp44
 70
     1
102
RTVSPropertyOp45
 70
     1
102
RTVSPropertyOp46
 70
     1
102
RTVSPropertyOp47
 70
     1
102
RTVSPropertyOp48
 70
     1
102
RTVSPropertyOp49
 70
     1
102
RTVSPropertyOp50
 70
     1
102
RTVSPropertyOp51
 70
     0
102
RTVSPropertyOp52
 70
     0
102
RTVSPropertyOp53
 70
     1
102
RTVSPropertyOp54
 70
     1
102
RTVSPropertyOp55
 70
     1
102
RTVSPropertyOp56
 70
     1
102
RTVSPropertyOp57
 70
     1
102
RTVSPropertyOp58
 70
     1
102
RTVSPropertyOp59
 70
     1
102
RTVSPropertyOp60
 70
     1
102
RTVSPropertyOp61
 70
     1
102
RTVSPropertyOp62
 70
     1
  0
XRECORD
  5
130DF
102
{ACAD_REACTORS
330
130DE
102
}
330
130DE
100
AcDbXrecord
280
     1
102
RTVSPost2010Prop28
280
     0
102
RTVSPost2010PropOp28
 70
     1
102
RTVSPost2010Prop29
280
     1
102
RTVSPost2010PropOp29
 70
     1
102
RTVSPost2010Prop30
280
     1
102
RTVSPost2010PropOp30
 70
     1
102
RTVSPost2010Prop31
280
     0
102
RTVSPost2010PropOp31
 70
     1
102
RTVSPost2010Prop32
280
     0
102
RTVSPost2010PropOp32
 70
     1
102
RTVSPost2010Prop33
280
     0
102
RTVSPost2010PropOp33
 70
     1
102
RTVSPost2010Prop34
280
     0
102
RTVSPost2010PropOp34
 70
     1
102
RTVSPost2010Prop35
280
     0
102
RTVSPost2010PropOp35
 70
     1
102
RTVSPost2010Prop36
280
     0
102
RTVSPost2010PropOp36
 70
     1
102
RTVSPost2010Prop37
 90
       50
102
RTVSPost2010PropOp37
 70
     0
102
RTVSPost2010Prop38
140
0.0
102
RTVSPost2010PropOp38
 70
     0
102
RTVSPost2010Prop39
140
1.0
102
RTVSPost2010PropOp39
 70
     0
102
RTVSPost2010Prop40
 90
        0
102
RTVSPost2010PropOp40
 70
     0
102
RTVSPost2010Prop41ColorIndex
 90
       18
102
RTVSPost2010Prop41ColorRGB
 90
        0
102
RTVSPost2010PropOp41
 70
     0
102
RTVSPost2010Prop42
 90
       50
102
RTVSPost2010PropOp42
 70
     0
102
RTVSPost2010Prop43
 90
        3
102
RTVSPost2010PropOp43
 70
     0
102
RTVSPost2010Prop44ColorIndex
 90
        5
102
RTVSPost2010Prop44ColorRGB
 90
      255
102
RTVSPost2010PropOp44
 70
     0
102
RTVSPost2010Prop45
280
     0
102
RTVSPost2010PropOp45
 70
     1
102
RTVSPost2010Prop46
 90
       50
102
RTVSPost2010PropOp46
 70
     0
102
RTVSPost2010Prop47
 90
       50
102
RTVSPost2010PropOp47
 70
     0
102
RTVSPost2010Prop48
 90
       50
102
RTVSPost2010PropOp48
 70
     0
102
RTVSPost2010Prop49
280
     0
102
RTVSPost2010PropOp49
 70
     1
102
RTVSPost2010Prop50
 90
       50
102
RTVSPost2010PropOp50
 70
     0
102
RTVSPost2010Prop51ColorIndex
 90
      256
102
RTVSPost2010Prop51ColorRGB
 90
-16777216
102
RTVSPost2010PropOp51
 70
     0
102
RTVSPost2010Prop52
140
1.0
102
RTVSPost2010PropOp52
 70
     0
102
RTVSPost2010Prop53
 90
        2
102
RTVSPost2010PropOp53
 70
     0
102
RTVSPost2010Prop54
  1
strokes_ogs.tif
102
RTVSPost2010PropOp54
 70
     0
102
RTVSPost2010Prop55
280
     0
102
RTVSPost2010PropOp55
 70
     1
102
RTVSPost2010Prop56
140
1.0
102
RTVSPost2010PropOp56
 70
     0
102
RTVSPost2010Prop57
140
1.0
102
RTVSPost2010PropOp57
 70
     0
102
RTVSPropertyOp0
 70
     0
102
RTVSPropertyOp1
 70
     0
102
RTVSPropertyOp2
 70
     0
102
RTVSPropertyOp3
 70
     0
102
RTVSPropertyOp4
 70
     0
102
RTVSPropertyOp5
 70
     0
102
RTVSPropertyOp6
 70
     0
102
RTVSPropertyOp7
 70
     0
102
RTVSPropertyOp8
 70
     0
102
RTVSPropertyOp9
 70
     0
102
RTVSPropertyOp10
 70
     0
102
RTVSPropertyOp11
 70
     0
102
RTVSPropertyOp12
 70
     0
102
RTVSPropertyOp13
 70
     0
102
RTVSPropertyOp14
 70
     2
102
RTVSPropertyOp15
 70
     0
102
RTVSPropertyOp16
 70
     0
102
RTVSPropertyOp17
 70
     0
102
RTVSPropertyOp18
 70
     0
102
RTVSPropertyOp19
 70
     0
102
RTVSPropertyOp20
 70
     0
102
RTVSPropertyOp21
 70
     0
102
RTVSPropertyOp22
 70
     0
102
RTVSPropertyOp23
 70
     0
102
RTVSPropertyOp24
 70
     0
102
RTVSPropertyOp25
 70
     0
102
RTVSPropertyOp26
 70
     0
102
RTVSPropertyOp27
 70
     0
102
RTVSPropertyOp28
 70
     1
102
RTVSPropertyOp29
 70
     1
102
RTVSPropertyOp30
 70
     1
102
RTVSPropertyOp31
 70
     1
102
RTVSPropertyOp32
 70
     1
102
RTVSPropertyOp33
 70
     1
102
RTVSPropertyOp34
 70
     1
102
RTVSPropertyOp35
 70
     1
102
RTVSPropertyOp36
 70
     1
102
RTVSPropertyOp37
 70
     0
102
RTVSPropertyOp38
 70
     0
102
RTVSPropertyOp39
 70
     0
102
RTVSPropertyOp40
 70
     0
102
RTVSPropertyOp41
 70
     0
102
RTVSPropertyOp42
 70
     0
102
RTVSPropertyOp43
 70
     0
102
RTVSPropertyOp44
 70
     0
102
RTVSPropertyOp45
 70
     1
102
RTVSPropertyOp46
 70
     0
102
RTVSPropertyOp47
 70
     0
102
RTVSPropertyOp48
 70
     0
102
RTVSPropertyOp49
 70
     1
102
RTVSPropertyOp50
 70
     0
102
RTVSPropertyOp51
 70
     0
102
RTVSPropertyOp52
 70
     0
102
RTVSPropertyOp53
 70
     0
102
RTVSPropertyOp54
 70
     0
102
RTVSPropertyOp55
 70
     1
102
RTVSPropertyOp56
 70
     0
102
RTVSPropertyOp57
 70
     0
102
RTVSPropertyOp58
 70
     0
102
RTVSPropertyOp59
 70
     0
102
RTVSPropertyOp60
 70
     0
102
RTVSPropertyOp61
 70
     0
102
RTVSPropertyOp62
 70
     0
  0
XRECORD
  5
130CD
102
{ACAD_REACTORS
330
130CC
102
}
330
130CC
100
AcDbXrecord
280
     1
102
RTVSPost2010Prop28
280
     0
102
RTVSPost2010PropOp28
 70
     1
102
RTVSPost2010Prop29
280
     1
102
RTVSPost2010PropOp29
 70
     1
102
RTVSPost2010Prop30
280
     1
102
RTVSPost2010PropOp30
 70
     1
102
RTVSPost2010Prop31
280
     0
102
RTVSPost2010PropOp31
 70
     1
102
RTVSPost2010Prop32
280
     0
102
RTVSPost2010PropOp32
 70
     1
102
RTVSPost2010Prop33
280
     0
102
RTVSPost2010PropOp33
 70
     1
102
RTVSPost2010Prop34
280
     0
102
RTVSPost2010PropOp34
 70
     1
102
RTVSPost2010Prop35
280
     0
102
RTVSPost2010PropOp35
 70
     1
102
RTVSPost2010Prop36
280
     0
102
RTVSPost2010PropOp36
 70
     1
102
RTVSPost2010Prop37
 90
       50
102
RTVSPost2010PropOp37
 70
     1
102
RTVSPost2010Prop38
140
0.0
102
RTVSPost2010PropOp38
 70
     1
102
RTVSPost2010Prop39
140
1.0
102
RTVSPost2010PropOp39
 70
     1
102
RTVSPost2010Prop40
 90
        0
102
RTVSPost2010PropOp40
 70
     1
102
RTVSPost2010Prop41ColorIndex
 90
       18
102
RTVSPost2010Prop41ColorRGB
 90
        0
102
RTVSPost2010PropOp41
 70
     1
102
RTVSPost2010Prop42
 90
       50
102
RTVSPost2010PropOp42
 70
     1
102
RTVSPost2010Prop43
 90
        3
102
RTVSPost2010PropOp43
 70
     1
102
RTVSPost2010Prop44ColorIndex
 90
        5
102
RTVSPost2010Prop44ColorRGB
 90
      255
102
RTVSPost2010PropOp44
 70
     1
102
RTVSPost2010Prop45
280
     0
102
RTVSPost2010PropOp45
 70
     1
102
RTVSPost2010Prop46
 90
       50
102
RTVSPost2010PropOp46
 70
     1
102
RTVSPost2010Prop47
 90
       50
102
RTVSPost2010PropOp47
 70
     1
102
RTVSPost2010Prop48
 90
       50
102
RTVSPost2010PropOp48
 70
     1
102
RTVSPost2010Prop49
280
     0
102
RTVSPost2010PropOp49
 70
     1
102
RTVSPost2010Prop50
 90
       50
102
RTVSPost2010PropOp50
 70
     1
102
RTVSPost2010Prop51ColorIndex
 90
      256
102
RTVSPost2010Prop51ColorRGB
 90
-16777216
102
RTVSPost2010PropOp51
 70
     0
102
RTVSPost2010Prop52
140
1.0
102
RTVSPost2010PropOp52
 70
     0
102
RTVSPost2010Prop53
 90
        2
102
RTVSPost2010PropOp53
 70
     1
102
RTVSPost2010Prop54
  1
strokes_ogs.tif
102
RTVSPost2010PropOp54
 70
     1
102
RTVSPost2010Prop55
280
     0
102
RTVSPost2010PropOp55
 70
     1
102
RTVSPost2010Prop56
140
1.0
102
RTVSPost2010PropOp56
 70
     1
102
RTVSPost2010Prop57
140
1.0
102
RTVSPost2010PropOp57
 70
     1
102
RTVSPropertyOp0
 70
     1
102
RTVSPropertyOp1
 70
     1
102
RTVSPropertyOp2
 70
     1
102
RTVSPropertyOp3
 70
     1
102
RTVSPropertyOp4
 70
     1
102
RTVSPropertyOp5
 70
     1
102
RTVSPropertyOp6
 70
     1
102
RTVSPropertyOp7
 70
     1
102
RTVSPropertyOp8
 70
     1
102
RTVSPropertyOp9
 70
     1
102
RTVSPropertyOp10
 70
     1
102
RTVSPropertyOp11
 70
     1
102
RTVSPropertyOp12
 70
     1
102
RTVSPropertyOp13
 70
     1
102
RTVSPropertyOp14
 70
     1
102
RTVSPropertyOp15
 70
     1
102
RTVSPropertyOp16
 70
     1
102
RTVSPropertyOp17
 70
     1
102
RTVSPropertyOp18
 70
     1
102
RTVSPropertyOp19
 70
     1
102
RTVSPropertyOp20
 70
     1
102
RTVSPropertyOp21
 70
     1
102
RTVSPropertyOp22
 70
     1
102
RTVSPropertyOp23
 70
     1
102
RTVSPropertyOp24
 70
     1
102
RTVSPropertyOp25
 70
     1
102
RTVSPropertyOp26
 70
     1
102
RTVSPropertyOp27
 70
     1
102
RTVSPropertyOp28
 70
     1
102
RTVSPropertyOp29
 70
     1
102
RTVSPropertyOp30
 70
     1
102
RTVSPropertyOp31
 70
     1
102
RTVSPropertyOp32
 70
     1
102
RTVSPropertyOp33
 70
     1
102
RTVSPropertyOp34
 70
     1
102
RTVSPropertyOp35
 70
     1
102
RTVSPropertyOp36
 70
     1
102
RTVSPropertyOp37
 70
     1
102
RTVSPropertyOp38
 70
     1
102
RTVSPropertyOp39
 70
     1
102
RTVSPropertyOp40
 70
     1
102
RTVSPropertyOp41
 70
     1
102
RTVSPropertyOp42
 70
     1
102
RTVSPropertyOp43
 70
     1
102
RTVSPropertyOp44
 70
     1
102
RTVSPropertyOp45
 70
     1
102
RTVSPropertyOp46
 70
     1
102
RTVSPropertyOp47
 70
     1
102
RTVSPropertyOp48
 70
     1
102
RTVSPropertyOp49
 70
     1
102
RTVSPropertyOp50
 70
     1
102
RTVSPropertyOp51
 70
     0
102
RTVSPropertyOp52
 70
     0
102
RTVSPropertyOp53
 70
     1
102
RTVSPropertyOp54
 70
     1
102
RTVSPropertyOp55
 70
     1
102
RTVSPropertyOp56
 70
     1
102
RTVSPropertyOp57
 70
     1
102
RTVSPropertyOp58
 70
     1
102
RTVSPropertyOp59
 70
     1
102
RTVSPropertyOp60
 70
     1
102
RTVSPropertyOp61
 70
     1
102
RTVSPropertyOp62
 70
     1
  0
XRECORD
  5
130B1
102
{ACAD_REACTORS
330
130B0
102
}
330
130B0
100
AcDbXrecord
280
     1
102
RTVSPost2010Prop28
280
     0
102
RTVSPost2010PropOp28
 70
     1
102
RTVSPost2010Prop29
280
     1
102
RTVSPost2010PropOp29
 70
     1
102
RTVSPost2010Prop30
280
     1
102
RTVSPost2010PropOp30
 70
     1
102
RTVSPost2010Prop31
280
     0
102
RTVSPost2010PropOp31
 70
     1
102
RTVSPost2010Prop32
280
     0
102
RTVSPost2010PropOp32
 70
     1
102
RTVSPost2010Prop33
280
     0
102
RTVSPost2010PropOp33
 70
     1
102
RTVSPost2010Prop34
280
     0
102
RTVSPost2010PropOp34
 70
     1
102
RTVSPost2010Prop35
280
     0
102
RTVSPost2010PropOp35
 70
     1
102
RTVSPost2010Prop36
280
     0
102
RTVSPost2010PropOp36
 70
     1
102
RTVSPost2010Prop37
 90
       50
102
RTVSPost2010PropOp37
 70
     1
102
RTVSPost2010Prop38
140
0.0
102
RTVSPost2010PropOp38
 70
     1
102
RTVSPost2010Prop39
140
1.0
102
RTVSPost2010PropOp39
 70
     1
102
RTVSPost2010Prop40
 90
        0
102
RTVSPost2010PropOp40
 70
     1
102
RTVSPost2010Prop41ColorIndex
 90
       18
102
RTVSPost2010Prop41ColorRGB
 90
        0
102
RTVSPost2010PropOp41
 70
     1
102
RTVSPost2010Prop42
 90
       50
102
RTVSPost2010PropOp42
 70
     1
102
RTVSPost2010Prop43
 90
        3
102
RTVSPost2010PropOp43
 70
     1
102
RTVSPost2010Prop44ColorIndex
 90
        5
102
RTVSPost2010Prop44ColorRGB
 90
      255
102
RTVSPost2010PropOp44
 70
     1
102
RTVSPost2010Prop45
280
     0
102
RTVSPost2010PropOp45
 70
     1
102
RTVSPost2010Prop46
 90
       50
102
RTVSPost2010PropOp46
 70
     1
102
RTVSPost2010Prop47
 90
       50
102
RTVSPost2010PropOp47
 70
     1
102
RTVSPost2010Prop48
 90
       50
102
RTVSPost2010PropOp48
 70
     1
102
RTVSPost2010Prop49
280
     0
102
RTVSPost2010PropOp49
 70
     1
102
RTVSPost2010Prop50
 90
       50
102
RTVSPost2010PropOp50
 70
     1
102
RTVSPost2010Prop51ColorIndex
 90
      256
102
RTVSPost2010Prop51ColorRGB
 90
-16777216
102
RTVSPost2010PropOp51
 70
     0
102
RTVSPost2010Prop52
140
1.0
102
RTVSPost2010PropOp52
 70
     0
102
RTVSPost2010Prop53
 90
        2
102
RTVSPost2010PropOp53
 70
     1
102
RTVSPost2010Prop54
  1
strokes_ogs.tif
102
RTVSPost2010PropOp54
 70
     1
102
RTVSPost2010Prop55
280
     0
102
RTVSPost2010PropOp55
 70
     1
102
RTVSPost2010Prop56
140
1.0
102
RTVSPost2010PropOp56
 70
     1
102
RTVSPost2010Prop57
140
1.0
102
RTVSPost2010PropOp57
 70
     1
102
RTVSPropertyOp0
 70
     1
102
RTVSPropertyOp1
 70
     1
102
RTVSPropertyOp2
 70
     1
102
RTVSPropertyOp3
 70
     1
102
RTVSPropertyOp4
 70
     1
102
RTVSPropertyOp5
 70
     1
102
RTVSPropertyOp6
 70
     1
102
RTVSPropertyOp7
 70
     1
102
RTVSPropertyOp8
 70
     1
102
RTVSPropertyOp9
 70
     1
102
RTVSPropertyOp10
 70
     1
102
RTVSPropertyOp11
 70
     1
102
RTVSPropertyOp12
 70
     1
102
RTVSPropertyOp13
 70
     1
102
RTVSPropertyOp14
 70
     1
102
RTVSPropertyOp15
 70
     1
102
RTVSPropertyOp16
 70
     1
102
RTVSPropertyOp17
 70
     1
102
RTVSPropertyOp18
 70
     1
102
RTVSPropertyOp19
 70
     1
102
RTVSPropertyOp20
 70
     1
102
RTVSPropertyOp21
 70
     1
102
RTVSPropertyOp22
 70
     1
102
RTVSPropertyOp23
 70
     1
102
RTVSPropertyOp24
 70
     1
102
RTVSPropertyOp25
 70
     1
102
RTVSPropertyOp26
 70
     1
102
RTVSPropertyOp27
 70
     1
102
RTVSPropertyOp28
 70
     1
102
RTVSPropertyOp29
 70
     1
102
RTVSPropertyOp30
 70
     1
102
RTVSPropertyOp31
 70
     1
102
RTVSPropertyOp32
 70
     1
102
RTVSPropertyOp33
 70
     1
102
RTVSPropertyOp34
 70
     1
102
RTVSPropertyOp35
 70
     1
102
RTVSPropertyOp36
 70
     1
102
RTVSPropertyOp37
 70
     1
102
RTVSPropertyOp38
 70
     1
102
RTVSPropertyOp39
 70
     1
102
RTVSPropertyOp40
 70
     1
102
RTVSPropertyOp41
 70
     1
102
RTVSPropertyOp42
 70
     1
102
RTVSPropertyOp43
 70
     1
102
RTVSPropertyOp44
 70
     1
102
RTVSPropertyOp45
 70
     1
102
RTVSPropertyOp46
 70
     1
102
RTVSPropertyOp47
 70
     1
102
RTVSPropertyOp48
 70
     1
102
RTVSPropertyOp49
 70
     1
102
RTVSPropertyOp50
 70
     1
102
RTVSPropertyOp51
 70
     0
102
RTVSPropertyOp52
 70
     0
102
RTVSPropertyOp53
 70
     1
102
RTVSPropertyOp54
 70
     1
102
RTVSPropertyOp55
 70
     1
102
RTVSPropertyOp56
 70
     1
102
RTVSPropertyOp57
 70
     1
102
RTVSPropertyOp58
 70
     1
102
RTVSPropertyOp59
 70
     1
102
RTVSPropertyOp60
 70
     1
102
RTVSPropertyOp61
 70
     1
102
RTVSPropertyOp62
 70
     1
  0
XRECORD
  5
130B3
102
{ACAD_REACTORS
330
130B2
102
}
330
130B2
100
AcDbXrecord
280
     1
102
RTVSPost2010Prop28
280
     0
102
RTVSPost2010PropOp28
 70
     1
102
RTVSPost2010Prop29
280
     1
102
RTVSPost2010PropOp29
 70
     1
102
RTVSPost2010Prop30
280
     1
102
RTVSPost2010PropOp30
 70
     1
102
RTVSPost2010Prop31
280
     0
102
RTVSPost2010PropOp31
 70
     1
102
RTVSPost2010Prop32
280
     0
102
RTVSPost2010PropOp32
 70
     1
102
RTVSPost2010Prop33
280
     0
102
RTVSPost2010PropOp33
 70
     1
102
RTVSPost2010Prop34
280
     0
102
RTVSPost2010PropOp34
 70
     1
102
RTVSPost2010Prop35
280
     0
102
RTVSPost2010PropOp35
 70
     1
102
RTVSPost2010Prop36
280
     0
102
RTVSPost2010PropOp36
 70
     1
102
RTVSPost2010Prop37
 90
       50
102
RTVSPost2010PropOp37
 70
     1
102
RTVSPost2010Prop38
140
0.0
102
RTVSPost2010PropOp38
 70
     1
102
RTVSPost2010Prop39
140
1.0
102
RTVSPost2010PropOp39
 70
     1
102
RTVSPost2010Prop40
 90
        0
102
RTVSPost2010PropOp40
 70
     1
102
RTVSPost2010Prop41ColorIndex
 90
       18
102
RTVSPost2010Prop41ColorRGB
 90
        0
102
RTVSPost2010PropOp41
 70
     1
102
RTVSPost2010Prop42
 90
       50
102
RTVSPost2010PropOp42
 70
     1
102
RTVSPost2010Prop43
 90
        3
102
RTVSPost2010PropOp43
 70
     1
102
RTVSPost2010Prop44ColorIndex
 90
        5
102
RTVSPost2010Prop44ColorRGB
 90
      255
102
RTVSPost2010PropOp44
 70
     1
102
RTVSPost2010Prop45
280
     0
102
RTVSPost2010PropOp45
 70
     1
102
RTVSPost2010Prop46
 90
       50
102
RTVSPost2010PropOp46
 70
     1
102
RTVSPost2010Prop47
 90
       50
102
RTVSPost2010PropOp47
 70
     1
102
RTVSPost2010Prop48
 90
       50
102
RTVSPost2010PropOp48
 70
     1
102
RTVSPost2010Prop49
280
     0
102
RTVSPost2010PropOp49
 70
     1
102
RTVSPost2010Prop50
 90
       50
102
RTVSPost2010PropOp50
 70
     1
102
RTVSPost2010Prop51ColorIndex
 90
      256
102
RTVSPost2010Prop51ColorRGB
 90
-16777216
102
RTVSPost2010PropOp51
 70
     0
102
RTVSPost2010Prop52
140
1.0
102
RTVSPost2010PropOp52
 70
     0
102
RTVSPost2010Prop53
 90
        2
102
RTVSPost2010PropOp53
 70
     1
102
RTVSPost2010Prop54
  1
strokes_ogs.tif
102
RTVSPost2010PropOp54
 70
     1
102
RTVSPost2010Prop55
280
     0
102
RTVSPost2010PropOp55
 70
     1
102
RTVSPost2010Prop56
140
1.0
102
RTVSPost2010PropOp56
 70
     1
102
RTVSPost2010Prop57
140
1.0
102
RTVSPost2010PropOp57
 70
     1
102
RTVSPropertyOp0
 70
     1
102
RTVSPropertyOp1
 70
     1
102
RTVSPropertyOp2
 70
     1
102
RTVSPropertyOp3
 70
     1
102
RTVSPropertyOp4
 70
     1
102
RTVSPropertyOp5
 70
     1
102
RTVSPropertyOp6
 70
     1
102
RTVSPropertyOp7
 70
     1
102
RTVSPropertyOp8
 70
     1
102
RTVSPropertyOp9
 70
     1
102
RTVSPropertyOp10
 70
     1
102
RTVSPropertyOp11
 70
     1
102
RTVSPropertyOp12
 70
     1
102
RTVSPropertyOp13
 70
     1
102
RTVSPropertyOp14
 70
     1
102
RTVSPropertyOp15
 70
     1
102
RTVSPropertyOp16
 70
     1
102
RTVSPropertyOp17
 70
     1
102
RTVSPropertyOp18
 70
     1
102
RTVSPropertyOp19
 70
     1
102
RTVSPropertyOp20
 70
     1
102
RTVSPropertyOp21
 70
     1
102
RTVSPropertyOp22
 70
     1
102
RTVSPropertyOp23
 70
     1
102
RTVSPropertyOp24
 70
     1
102
RTVSPropertyOp25
 70
     1
102
RTVSPropertyOp26
 70
     1
102
RTVSPropertyOp27
 70
     1
102
RTVSPropertyOp28
 70
     1
102
RTVSPropertyOp29
 70
     1
102
RTVSPropertyOp30
 70
     1
102
RTVSPropertyOp31
 70
     1
102
RTVSPropertyOp32
 70
     1
102
RTVSPropertyOp33
 70
     1
102
RTVSPropertyOp34
 70
     1
102
RTVSPropertyOp35
 70
     1
102
RTVSPropertyOp36
 70
     1
102
RTVSPropertyOp37
 70
     1
102
RTVSPropertyOp38
 70
     1
102
RTVSPropertyOp39
 70
     1
102
RTVSPropertyOp40
 70
     1
102
RTVSPropertyOp41
 70
     1
102
RTVSPropertyOp42
 70
     1
102
RTVSPropertyOp43
 70
     1
102
RTVSPropertyOp44
 70
     1
102
RTVSPropertyOp45
 70
     1
102
RTVSPropertyOp46
 70
     1
102
RTVSPropertyOp47
 70
     1
102
RTVSPropertyOp48
 70
     1
102
RTVSPropertyOp49
 70
     1
102
RTVSPropertyOp50
 70
     1
102
RTVSPropertyOp51
 70
     0
102
RTVSPropertyOp52
 70
     0
102
RTVSPropertyOp53
 70
     1
102
RTVSPropertyOp54
 70
     1
102
RTVSPropertyOp55
 70
     1
102
RTVSPropertyOp56
 70
     1
102
RTVSPropertyOp57
 70
     1
102
RTVSPropertyOp58
 70
     1
102
RTVSPropertyOp59
 70
     1
102
RTVSPropertyOp60
 70
     1
102
RTVSPropertyOp61
 70
     1
102
RTVSPropertyOp62
 70
     1
  0
XRECORD
  5
130B5
102
{ACAD_REACTORS
330
130B4
102
}
330
130B4
100
AcDbXrecord
280
     1
102
RTVSPost2010Prop28
280
     0
102
RTVSPost2010PropOp28
 70
     1
102
RTVSPost2010Prop29
280
     1
102
RTVSPost2010PropOp29
 70
     1
102
RTVSPost2010Prop30
280
     1
102
RTVSPost2010PropOp30
 70
     1
102
RTVSPost2010Prop31
280
     0
102
RTVSPost2010PropOp31
 70
     1
102
RTVSPost2010Prop32
280
     0
102
RTVSPost2010PropOp32
 70
     1
102
RTVSPost2010Prop33
280
     0
102
RTVSPost2010PropOp33
 70
     1
102
RTVSPost2010Prop34
280
     0
102
RTVSPost2010PropOp34
 70
     1
102
RTVSPost2010Prop35
280
     0
102
RTVSPost2010PropOp35
 70
     1
102
RTVSPost2010Prop36
280
     0
102
RTVSPost2010PropOp36
 70
     1
102
RTVSPost2010Prop37
 90
       50
102
RTVSPost2010PropOp37
 70
     1
102
RTVSPost2010Prop38
140
0.0
102
RTVSPost2010PropOp38
 70
     1
102
RTVSPost2010Prop39
140
1.0
102
RTVSPost2010PropOp39
 70
     1
102
RTVSPost2010Prop40
 90
        0
102
RTVSPost2010PropOp40
 70
     1
102
RTVSPost2010Prop41ColorIndex
 90
       18
102
RTVSPost2010Prop41ColorRGB
 90
        0
102
RTVSPost2010PropOp41
 70
     1
102
RTVSPost2010Prop42
 90
       50
102
RTVSPost2010PropOp42
 70
     1
102
RTVSPost2010Prop43
 90
        3
102
RTVSPost2010PropOp43
 70
     1
102
RTVSPost2010Prop44ColorIndex
 90
        5
102
RTVSPost2010Prop44ColorRGB
 90
      255
102
RTVSPost2010PropOp44
 70
     1
102
RTVSPost2010Prop45
280
     0
102
RTVSPost2010PropOp45
 70
     1
102
RTVSPost2010Prop46
 90
       50
102
RTVSPost2010PropOp46
 70
     1
102
RTVSPost2010Prop47
 90
       50
102
RTVSPost2010PropOp47
 70
     1
102
RTVSPost2010Prop48
 90
       50
102
RTVSPost2010PropOp48
 70
     1
102
RTVSPost2010Prop49
280
     0
102
RTVSPost2010PropOp49
 70
     1
102
RTVSPost2010Prop50
 90
       50
102
RTVSPost2010PropOp50
 70
     1
102
RTVSPost2010Prop51ColorIndex
 90
      256
102
RTVSPost2010Prop51ColorRGB
 90
-16777216
102
RTVSPost2010PropOp51
 70
     0
102
RTVSPost2010Prop52
140
1.0
102
RTVSPost2010PropOp52
 70
     0
102
RTVSPost2010Prop53
 90
        2
102
RTVSPost2010PropOp53
 70
     1
102
RTVSPost2010Prop54
  1
strokes_ogs.tif
102
RTVSPost2010PropOp54
 70
     1
102
RTVSPost2010Prop55
280
     0
102
RTVSPost2010PropOp55
 70
     1
102
RTVSPost2010Prop56
140
1.0
102
RTVSPost2010PropOp56
 70
     1
102
RTVSPost2010Prop57
140
1.0
102
RTVSPost2010PropOp57
 70
     1
102
RTVSPropertyOp0
 70
     1
102
RTVSPropertyOp1
 70
     1
102
RTVSPropertyOp2
 70
     1
102
RTVSPropertyOp3
 70
     1
102
RTVSPropertyOp4
 70
     1
102
RTVSPropertyOp5
 70
     1
102
RTVSPropertyOp6
 70
     1
102
RTVSPropertyOp7
 70
     1
102
RTVSPropertyOp8
 70
     1
102
RTVSPropertyOp9
 70
     1
102
RTVSPropertyOp10
 70
     1
102
RTVSPropertyOp11
 70
     1
102
RTVSPropertyOp12
 70
     1
102
RTVSPropertyOp13
 70
     1
102
RTVSPropertyOp14
 70
     1
102
RTVSPropertyOp15
 70
     1
102
RTVSPropertyOp16
 70
     1
102
RTVSPropertyOp17
 70
     1
102
RTVSPropertyOp18
 70
     1
102
RTVSPropertyOp19
 70
     1
102
RTVSPropertyOp20
 70
     1
102
RTVSPropertyOp21
 70
     1
102
RTVSPropertyOp22
 70
     1
102
RTVSPropertyOp23
 70
     1
102
RTVSPropertyOp24
 70
     1
102
RTVSPropertyOp25
 70
     1
102
RTVSPropertyOp26
 70
     1
102
RTVSPropertyOp27
 70
     1
102
RTVSPropertyOp28
 70
     1
102
RTVSPropertyOp29
 70
     1
102
RTVSPropertyOp30
 70
     1
102
RTVSPropertyOp31
 70
     1
102
RTVSPropertyOp32
 70
     1
102
RTVSPropertyOp33
 70
     1
102
RTVSPropertyOp34
 70
     1
102
RTVSPropertyOp35
 70
     1
102
RTVSPropertyOp36
 70
     1
102
RTVSPropertyOp37
 70
     1
102
RTVSPropertyOp38
 70
     1
102
RTVSPropertyOp39
 70
     1
102
RTVSPropertyOp40
 70
     1
102
RTVSPropertyOp41
 70
     1
102
RTVSPropertyOp42
 70
     1
102
RTVSPropertyOp43
 70
     1
102
RTVSPropertyOp44
 70
     1
102
RTVSPropertyOp45
 70
     1
102
RTVSPropertyOp46
 70
     1
102
RTVSPropertyOp47
 70
     1
102
RTVSPropertyOp48
 70
     1
102
RTVSPropertyOp49
 70
     1
102
RTVSPropertyOp50
 70
     1
102
RTVSPropertyOp51
 70
     0
102
RTVSPropertyOp52
 70
     0
102
RTVSPropertyOp53
 70
     1
102
RTVSPropertyOp54
 70
     1
102
RTVSPropertyOp55
 70
     1
102
RTVSPropertyOp56
 70
     1
102
RTVSPropertyOp57
 70
     1
102
RTVSPropertyOp58
 70
     1
102
RTVSPropertyOp59
 70
     1
102
RTVSPropertyOp60
 70
     1
102
RTVSPropertyOp61
 70
     1
102
RTVSPropertyOp62
 70
     1
  0
XRECORD
  5
130B7
102
{ACAD_REACTORS
330
130B6
102
}
330
130B6
100
AcDbXrecord
280
     1
102
RTVSPost2010Prop28
280
     0
102
RTVSPost2010PropOp28
 70
     1
102
RTVSPost2010Prop29
280
     1
102
RTVSPost2010PropOp29
 70
     1
102
RTVSPost2010Prop30
280
     1
102
RTVSPost2010PropOp30
 70
     1
102
RTVSPost2010Prop31
280
     0
102
RTVSPost2010PropOp31
 70
     1
102
RTVSPost2010Prop32
280
     0
102
RTVSPost2010PropOp32
 70
     1
102
RTVSPost2010Prop33
280
     0
102
RTVSPost2010PropOp33
 70
     1
102
RTVSPost2010Prop34
280
     0
102
RTVSPost2010PropOp34
 70
     1
102
RTVSPost2010Prop35
280
     0
102
RTVSPost2010PropOp35
 70
     1
102
RTVSPost2010Prop36
280
     0
102
RTVSPost2010PropOp36
 70
     1
102
RTVSPost2010Prop37
 90
       50
102
RTVSPost2010PropOp37
 70
     1
102
RTVSPost2010Prop38
140
0.0
102
RTVSPost2010PropOp38
 70
     1
102
RTVSPost2010Prop39
140
1.0
102
RTVSPost2010PropOp39
 70
     1
102
RTVSPost2010Prop40
 90
        0
102
RTVSPost2010PropOp40
 70
     1
102
RTVSPost2010Prop41ColorIndex
 90
       18
102
RTVSPost2010Prop41ColorRGB
 90
        0
102
RTVSPost2010PropOp41
 70
     1
102
RTVSPost2010Prop42
 90
       50
102
RTVSPost2010PropOp42
 70
     1
102
RTVSPost2010Prop43
 90
        3
102
RTVSPost2010PropOp43
 70
     1
102
RTVSPost2010Prop44ColorIndex
 90
        5
102
RTVSPost2010Prop44ColorRGB
 90
      255
102
RTVSPost2010PropOp44
 70
     1
102
RTVSPost2010Prop45
280
     0
102
RTVSPost2010PropOp45
 70
     1
102
RTVSPost2010Prop46
 90
       50
102
RTVSPost2010PropOp46
 70
     1
102
RTVSPost2010Prop47
 90
       50
102
RTVSPost2010PropOp47
 70
     1
102
RTVSPost2010Prop48
 90
       50
102
RTVSPost2010PropOp48
 70
     1
102
RTVSPost2010Prop49
280
     0
102
RTVSPost2010PropOp49
 70
     1
102
RTVSPost2010Prop50
 90
       50
102
RTVSPost2010PropOp50
 70
     1
102
RTVSPost2010Prop51ColorIndex
 90
      256
102
RTVSPost2010Prop51ColorRGB
 90
-16777216
102
RTVSPost2010PropOp51
 70
     0
102
RTVSPost2010Prop52
140
1.0
102
RTVSPost2010PropOp52
 70
     0
102
RTVSPost2010Prop53
 90
        2
102
RTVSPost2010PropOp53
 70
     1
102
RTVSPost2010Prop54
  1
strokes_ogs.tif
102
RTVSPost2010PropOp54
 70
     1
102
RTVSPost2010Prop55
280
     0
102
RTVSPost2010PropOp55
 70
     1
102
RTVSPost2010Prop56
140
1.0
102
RTVSPost2010PropOp56
 70
     1
102
RTVSPost2010Prop57
140
1.0
102
RTVSPost2010PropOp57
 70
     1
102
RTVSPropertyOp0
 70
     1
102
RTVSPropertyOp1
 70
     1
102
RTVSPropertyOp2
 70
     1
102
RTVSPropertyOp3
 70
     1
102
RTVSPropertyOp4
 70
     1
102
RTVSPropertyOp5
 70
     1
102
RTVSPropertyOp6
 70
     1
102
RTVSPropertyOp7
 70
     1
102
RTVSPropertyOp8
 70
     1
102
RTVSPropertyOp9
 70
     1
102
RTVSPropertyOp10
 70
     1
102
RTVSPropertyOp11
 70
     1
102
RTVSPropertyOp12
 70
     1
102
RTVSPropertyOp13
 70
     1
102
RTVSPropertyOp14
 70
     1
102
RTVSPropertyOp15
 70
     1
102
RTVSPropertyOp16
 70
     1
102
RTVSPropertyOp17
 70
     1
102
RTVSPropertyOp18
 70
     1
102
RTVSPropertyOp19
 70
     1
102
RTVSPropertyOp20
 70
     1
102
RTVSPropertyOp21
 70
     1
102
RTVSPropertyOp22
 70
     1
102
RTVSPropertyOp23
 70
     1
102
RTVSPropertyOp24
 70
     1
102
RTVSPropertyOp25
 70
     1
102
RTVSPropertyOp26
 70
     1
102
RTVSPropertyOp27
 70
     1
102
RTVSPropertyOp28
 70
     1
102
RTVSPropertyOp29
 70
     1
102
RTVSPropertyOp30
 70
     1
102
RTVSPropertyOp31
 70
     1
102
RTVSPropertyOp32
 70
     1
102
RTVSPropertyOp33
 70
     1
102
RTVSPropertyOp34
 70
     1
102
RTVSPropertyOp35
 70
     1
102
RTVSPropertyOp36
 70
     1
102
RTVSPropertyOp37
 70
     1
102
RTVSPropertyOp38
 70
     1
102
RTVSPropertyOp39
 70
     1
102
RTVSPropertyOp40
 70
     1
102
RTVSPropertyOp41
 70
     1
102
RTVSPropertyOp42
 70
     1
102
RTVSPropertyOp43
 70
     1
102
RTVSPropertyOp44
 70
     1
102
RTVSPropertyOp45
 70
     1
102
RTVSPropertyOp46
 70
     1
102
RTVSPropertyOp47
 70
     1
102
RTVSPropertyOp48
 70
     1
102
RTVSPropertyOp49
 70
     1
102
RTVSPropertyOp50
 70
     1
102
RTVSPropertyOp51
 70
     0
102
RTVSPropertyOp52
 70
     0
102
RTVSPropertyOp53
 70
     1
102
RTVSPropertyOp54
 70
     1
102
RTVSPropertyOp55
 70
     1
102
RTVSPropertyOp56
 70
     1
102
RTVSPropertyOp57
 70
     1
102
RTVSPropertyOp58
 70
     1
102
RTVSPropertyOp59
 70
     1
102
RTVSPropertyOp60
 70
     1
102
RTVSPropertyOp61
 70
     1
102
RTVSPropertyOp62
 70
     1
  0
XRECORD
  5
130BF
102
{ACAD_REACTORS
330
130BE
102
}
330
130BE
100
AcDbXrecord
280
     1
102
RTVSPost2010Prop28
280
     0
102
RTVSPost2010PropOp28
 70
     1
102
RTVSPost2010Prop29
280
     1
102
RTVSPost2010PropOp29
 70
     1
102
RTVSPost2010Prop30
280
     1
102
RTVSPost2010PropOp30
 70
     1
102
RTVSPost2010Prop31
280
     0
102
RTVSPost2010PropOp31
 70
     1
102
RTVSPost2010Prop32
280
     0
102
RTVSPost2010PropOp32
 70
     1
102
RTVSPost2010Prop33
280
     0
102
RTVSPost2010PropOp33
 70
     1
102
RTVSPost2010Prop34
280
     0
102
RTVSPost2010PropOp34
 70
     1
102
RTVSPost2010Prop35
280
     0
102
RTVSPost2010PropOp35
 70
     1
102
RTVSPost2010Prop36
280
     0
102
RTVSPost2010PropOp36
 70
     1
102
RTVSPost2010Prop37
 90
       50
102
RTVSPost2010PropOp37
 70
     1
102
RTVSPost2010Prop38
140
0.0
102
RTVSPost2010PropOp38
 70
     1
102
RTVSPost2010Prop39
140
1.0
102
RTVSPost2010PropOp39
 70
     1
102
RTVSPost2010Prop40
 90
        0
102
RTVSPost2010PropOp40
 70
     1
102
RTVSPost2010Prop41ColorIndex
 90
       18
102
RTVSPost2010Prop41ColorRGB
 90
        0
102
RTVSPost2010PropOp41
 70
     1
102
RTVSPost2010Prop42
 90
       50
102
RTVSPost2010PropOp42
 70
     1
102
RTVSPost2010Prop43
 90
        3
102
RTVSPost2010PropOp43
 70
     1
102
RTVSPost2010Prop44ColorIndex
 90
        5
102
RTVSPost2010Prop44ColorRGB
 90
      255
102
RTVSPost2010PropOp44
 70
     1
102
RTVSPost2010Prop45
280
     0
102
RTVSPost2010PropOp45
 70
     1
102
RTVSPost2010Prop46
 90
       50
102
RTVSPost2010PropOp46
 70
     1
102
RTVSPost2010Prop47
 90
       50
102
RTVSPost2010PropOp47
 70
     1
102
RTVSPost2010Prop48
 90
       50
102
RTVSPost2010PropOp48
 70
     1
102
RTVSPost2010Prop49
280
     0
102
RTVSPost2010PropOp49
 70
     1
102
RTVSPost2010Prop50
 90
       50
102
RTVSPost2010PropOp50
 70
     1
102
RTVSPost2010Prop51ColorIndex
 90
      256
102
RTVSPost2010Prop51ColorRGB
 90
-16777216
102
RTVSPost2010PropOp51
 70
     0
102
RTVSPost2010Prop52
140
1.0
102
RTVSPost2010PropOp52
 70
     0
102
RTVSPost2010Prop53
 90
        2
102
RTVSPost2010PropOp53
 70
     1
102
RTVSPost2010Prop54
  1
strokes_ogs.tif
102
RTVSPost2010PropOp54
 70
     1
102
RTVSPost2010Prop55
280
     0
102
RTVSPost2010PropOp55
 70
     1
102
RTVSPost2010Prop56
140
1.0
102
RTVSPost2010PropOp56
 70
     1
102
RTVSPost2010Prop57
140
1.0
102
RTVSPost2010PropOp57
 70
     1
102
RTVSPropertyOp0
 70
     1
102
RTVSPropertyOp1
 70
     1
102
RTVSPropertyOp2
 70
     1
102
RTVSPropertyOp3
 70
     1
102
RTVSPropertyOp4
 70
     1
102
RTVSPropertyOp5
 70
     1
102
RTVSPropertyOp6
 70
     1
102
RTVSPropertyOp7
 70
     1
102
RTVSPropertyOp8
 70
     1
102
RTVSPropertyOp9
 70
     1
102
RTVSPropertyOp10
 70
     1
102
RTVSPropertyOp11
 70
     1
102
RTVSPropertyOp12
 70
     1
102
RTVSPropertyOp13
 70
     1
102
RTVSPropertyOp14
 70
     1
102
RTVSPropertyOp15
 70
     1
102
RTVSPropertyOp16
 70
     1
102
RTVSPropertyOp17
 70
     1
102
RTVSPropertyOp18
 70
     1
102
RTVSPropertyOp19
 70
     1
102
RTVSPropertyOp20
 70
     1
102
RTVSPropertyOp21
 70
     1
102
RTVSPropertyOp22
 70
     1
102
RTVSPropertyOp23
 70
     1
102
RTVSPropertyOp24
 70
     1
102
RTVSPropertyOp25
 70
     1
102
RTVSPropertyOp26
 70
     1
102
RTVSPropertyOp27
 70
     1
102
RTVSPropertyOp28
 70
     1
102
RTVSPropertyOp29
 70
     1
102
RTVSPropertyOp30
 70
     1
102
RTVSPropertyOp31
 70
     1
102
RTVSPropertyOp32
 70
     1
102
RTVSPropertyOp33
 70
     1
102
RTVSPropertyOp34
 70
     1
102
RTVSPropertyOp35
 70
     1
102
RTVSPropertyOp36
 70
     1
102
RTVSPropertyOp37
 70
     1
102
RTVSPropertyOp38
 70
     1
102
RTVSPropertyOp39
 70
     1
102
RTVSPropertyOp40
 70
     1
102
RTVSPropertyOp41
 70
     1
102
RTVSPropertyOp42
 70
     1
102
RTVSPropertyOp43
 70
     1
102
RTVSPropertyOp44
 70
     1
102
RTVSPropertyOp45
 70
     1
102
RTVSPropertyOp46
 70
     1
102
RTVSPropertyOp47
 70
     1
102
RTVSPropertyOp48
 70
     1
102
RTVSPropertyOp49
 70
     1
102
RTVSPropertyOp50
 70
     1
102
RTVSPropertyOp51
 70
     0
102
RTVSPropertyOp52
 70
     0
102
RTVSPropertyOp53
 70
     1
102
RTVSPropertyOp54
 70
     1
102
RTVSPropertyOp55
 70
     1
102
RTVSPropertyOp56
 70
     1
102
RTVSPropertyOp57
 70
     1
102
RTVSPropertyOp58
 70
     1
102
RTVSPropertyOp59
 70
     1
102
RTVSPropertyOp60
 70
     1
102
RTVSPropertyOp61
 70
     1
102
RTVSPropertyOp62
 70
     1
  0
XRECORD
  5
130DB
102
{ACAD_REACTORS
330
130DA
102
}
330
130DA
100
AcDbXrecord
280
     1
102
RTVSPost2010Prop28
280
     0
102
RTVSPost2010PropOp28
 70
     1
102
RTVSPost2010Prop29
280
     1
102
RTVSPost2010PropOp29
 70
     1
102
RTVSPost2010Prop30
280
     1
102
RTVSPost2010PropOp30
 70
     1
102
RTVSPost2010Prop31
280
     0
102
RTVSPost2010PropOp31
 70
     1
102
RTVSPost2010Prop32
280
     0
102
RTVSPost2010PropOp32
 70
     1
102
RTVSPost2010Prop33
280
     0
102
RTVSPost2010PropOp33
 70
     1
102
RTVSPost2010Prop34
280
     0
102
RTVSPost2010PropOp34
 70
     1
102
RTVSPost2010Prop35
280
     0
102
RTVSPost2010PropOp35
 70
     1
102
RTVSPost2010Prop36
280
     0
102
RTVSPost2010PropOp36
 70
     1
102
RTVSPost2010Prop37
 90
       50
102
RTVSPost2010PropOp37
 70
     0
102
RTVSPost2010Prop38
140
0.0
102
RTVSPost2010PropOp38
 70
     0
102
RTVSPost2010Prop39
140
1.0
102
RTVSPost2010PropOp39
 70
     0
102
RTVSPost2010Prop40
 90
        0
102
RTVSPost2010PropOp40
 70
     0
102
RTVSPost2010Prop41ColorIndex
 90
       18
102
RTVSPost2010Prop41ColorRGB
 90
        0
102
RTVSPost2010PropOp41
 70
     0
102
RTVSPost2010Prop42
 90
       50
102
RTVSPost2010PropOp42
 70
     0
102
RTVSPost2010Prop43
 90
        3
102
RTVSPost2010PropOp43
 70
     0
102
RTVSPost2010Prop44ColorIndex
 90
        5
102
RTVSPost2010Prop44ColorRGB
 90
      255
102
RTVSPost2010PropOp44
 70
     0
102
RTVSPost2010Prop45
280
     0
102
RTVSPost2010PropOp45
 70
     1
102
RTVSPost2010Prop46
 90
       50
102
RTVSPost2010PropOp46
 70
     0
102
RTVSPost2010Prop47
 90
       50
102
RTVSPost2010PropOp47
 70
     0
102
RTVSPost2010Prop48
 90
       50
102
RTVSPost2010PropOp48
 70
     0
102
RTVSPost2010Prop49
280
     0
102
RTVSPost2010PropOp49
 70
     1
102
RTVSPost2010Prop50
 90
       50
102
RTVSPost2010PropOp50
 70
     0
102
RTVSPost2010Prop51ColorIndex
 90
      256
102
RTVSPost2010Prop51ColorRGB
 90
-16777216
102
RTVSPost2010PropOp51
 70
     0
102
RTVSPost2010Prop52
140
1.0
102
RTVSPost2010PropOp52
 70
     0
102
RTVSPost2010Prop53
 90
        2
102
RTVSPost2010PropOp53
 70
     0
102
RTVSPost2010Prop54
  1
strokes_ogs.tif
102
RTVSPost2010PropOp54
 70
     0
102
RTVSPost2010Prop55
280
     0
102
RTVSPost2010PropOp55
 70
     1
102
RTVSPost2010Prop56
140
1.0
102
RTVSPost2010PropOp56
 70
     0
102
RTVSPost2010Prop57
140
1.0
102
RTVSPost2010PropOp57
 70
     0
102
RTVSPropertyOp0
 70
     0
102
RTVSPropertyOp1
 70
     0
102
RTVSPropertyOp2
 70
     0
102
RTVSPropertyOp3
 70
     0
102
RTVSPropertyOp4
 70
     0
102
RTVSPropertyOp5
 70
     0
102
RTVSPropertyOp6
 70
     0
102
RTVSPropertyOp7
 70
     0
102
RTVSPropertyOp8
 70
     0
102
RTVSPropertyOp9
 70
     0
102
RTVSPropertyOp10
 70
     0
102
RTVSPropertyOp11
 70
     0
102
RTVSPropertyOp12
 70
     0
102
RTVSPropertyOp13
 70
     0
102
RTVSPropertyOp14
 70
     2
102
RTVSPropertyOp15
 70
     0
102
RTVSPropertyOp16
 70
     0
102
RTVSPropertyOp17
 70
     0
102
RTVSPropertyOp18
 70
     0
102
RTVSPropertyOp19
 70
     0
102
RTVSPropertyOp20
 70
     0
102
RTVSPropertyOp21
 70
     0
102
RTVSPropertyOp22
 70
     0
102
RTVSPropertyOp23
 70
     0
102
RTVSPropertyOp24
 70
     0
102
RTVSPropertyOp25
 70
     0
102
RTVSPropertyOp26
 70
     0
102
RTVSPropertyOp27
 70
     0
102
RTVSPropertyOp28
 70
     1
102
RTVSPropertyOp29
 70
     1
102
RTVSPropertyOp30
 70
     1
102
RTVSPropertyOp31
 70
     1
102
RTVSPropertyOp32
 70
     1
102
RTVSPropertyOp33
 70
     1
102
RTVSPropertyOp34
 70
     1
102
RTVSPropertyOp35
 70
     1
102
RTVSPropertyOp36
 70
     1
102
RTVSPropertyOp37
 70
     0
102
RTVSPropertyOp38
 70
     0
102
RTVSPropertyOp39
 70
     0
102
RTVSPropertyOp40
 70
     0
102
RTVSPropertyOp41
 70
     0
102
RTVSPropertyOp42
 70
     0
102
RTVSPropertyOp43
 70
     0
102
RTVSPropertyOp44
 70
     0
102
RTVSPropertyOp45
 70
     1
102
RTVSPropertyOp46
 70
     0
102
RTVSPropertyOp47
 70
     0
102
RTVSPropertyOp48
 70
     0
102
RTVSPropertyOp49
 70
     1
102
RTVSPropertyOp50
 70
     0
102
RTVSPropertyOp51
 70
     0
102
RTVSPropertyOp52
 70
     0
102
RTVSPropertyOp53
 70
     0
102
RTVSPropertyOp54
 70
     0
102
RTVSPropertyOp55
 70
     1
102
RTVSPropertyOp56
 70
     0
102
RTVSPropertyOp57
 70
     0
102
RTVSPropertyOp58
 70
     0
102
RTVSPropertyOp59
 70
     0
102
RTVSPropertyOp60
 70
     0
102
RTVSPropertyOp61
 70
     0
102
RTVSPropertyOp62
 70
     0
  0
XRECORD
  5
130CB
102
{ACAD_REACTORS
330
130CA
102
}
330
130CA
100
AcDbXrecord
280
     1
102
RTVSPost2010Prop28
280
     0
102
RTVSPost2010PropOp28
 70
     1
102
RTVSPost2010Prop29
280
     1
102
RTVSPost2010PropOp29
 70
     1
102
RTVSPost2010Prop30
280
     1
102
RTVSPost2010PropOp30
 70
     1
102
RTVSPost2010Prop31
280
     0
102
RTVSPost2010PropOp31
 70
     1
102
RTVSPost2010Prop32
280
     0
102
RTVSPost2010PropOp32
 70
     1
102
RTVSPost2010Prop33
280
     0
102
RTVSPost2010PropOp33
 70
     1
102
RTVSPost2010Prop34
280
     0
102
RTVSPost2010PropOp34
 70
     1
102
RTVSPost2010Prop35
280
     0
102
RTVSPost2010PropOp35
 70
     1
102
RTVSPost2010Prop36
280
     0
102
RTVSPost2010PropOp36
 70
     1
102
RTVSPost2010Prop37
 90
       50
102
RTVSPost2010PropOp37
 70
     1
102
RTVSPost2010Prop38
140
0.0
102
RTVSPost2010PropOp38
 70
     1
102
RTVSPost2010Prop39
140
1.0
102
RTVSPost2010PropOp39
 70
     1
102
RTVSPost2010Prop40
 90
        0
102
RTVSPost2010PropOp40
 70
     1
102
RTVSPost2010Prop41ColorIndex
 90
       18
102
RTVSPost2010Prop41ColorRGB
 90
        0
102
RTVSPost2010PropOp41
 70
     1
102
RTVSPost2010Prop42
 90
       50
102
RTVSPost2010PropOp42
 70
     1
102
RTVSPost2010Prop43
 90
        3
102
RTVSPost2010PropOp43
 70
     1
102
RTVSPost2010Prop44ColorIndex
 90
        5
102
RTVSPost2010Prop44ColorRGB
 90
      255
102
RTVSPost2010PropOp44
 70
     1
102
RTVSPost2010Prop45
280
     0
102
RTVSPost2010PropOp45
 70
     1
102
RTVSPost2010Prop46
 90
       50
102
RTVSPost2010PropOp46
 70
     1
102
RTVSPost2010Prop47
 90
       50
102
RTVSPost2010PropOp47
 70
     1
102
RTVSPost2010Prop48
 90
       50
102
RTVSPost2010PropOp48
 70
     1
102
RTVSPost2010Prop49
280
     0
102
RTVSPost2010PropOp49
 70
     1
102
RTVSPost2010Prop50
 90
       50
102
RTVSPost2010PropOp50
 70
     1
102
RTVSPost2010Prop51ColorIndex
 90
      256
102
RTVSPost2010Prop51ColorRGB
 90
-16777216
102
RTVSPost2010PropOp51
 70
     0
102
RTVSPost2010Prop52
140
1.0
102
RTVSPost2010PropOp52
 70
     0
102
RTVSPost2010Prop53
 90
        2
102
RTVSPost2010PropOp53
 70
     1
102
RTVSPost2010Prop54
  1
strokes_ogs.tif
102
RTVSPost2010PropOp54
 70
     1
102
RTVSPost2010Prop55
280
     0
102
RTVSPost2010PropOp55
 70
     1
102
RTVSPost2010Prop56
140
1.0
102
RTVSPost2010PropOp56
 70
     1
102
RTVSPost2010Prop57
140
1.0
102
RTVSPost2010PropOp57
 70
     1
102
RTVSPropertyOp0
 70
     1
102
RTVSPropertyOp1
 70
     1
102
RTVSPropertyOp2
 70
     1
102
RTVSPropertyOp3
 70
     1
102
RTVSPropertyOp4
 70
     1
102
RTVSPropertyOp5
 70
     1
102
RTVSPropertyOp6
 70
     1
102
RTVSPropertyOp7
 70
     1
102
RTVSPropertyOp8
 70
     1
102
RTVSPropertyOp9
 70
     1
102
RTVSPropertyOp10
 70
     1
102
RTVSPropertyOp11
 70
     1
102
RTVSPropertyOp12
 70
     1
102
RTVSPropertyOp13
 70
     1
102
RTVSPropertyOp14
 70
     1
102
RTVSPropertyOp15
 70
     1
102
RTVSPropertyOp16
 70
     1
102
RTVSPropertyOp17
 70
     1
102
RTVSPropertyOp18
 70
     1
102
RTVSPropertyOp19
 70
     1
102
RTVSPropertyOp20
 70
     1
102
RTVSPropertyOp21
 70
     1
102
RTVSPropertyOp22
 70
     1
102
RTVSPropertyOp23
 70
     1
102
RTVSPropertyOp24
 70
     1
102
RTVSPropertyOp25
 70
     1
102
RTVSPropertyOp26
 70
     1
102
RTVSPropertyOp27
 70
     1
102
RTVSPropertyOp28
 70
     1
102
RTVSPropertyOp29
 70
     1
102
RTVSPropertyOp30
 70
     1
102
RTVSPropertyOp31
 70
     1
102
RTVSPropertyOp32
 70
     1
102
RTVSPropertyOp33
 70
     1
102
RTVSPropertyOp34
 70
     1
102
RTVSPropertyOp35
 70
     1
102
RTVSPropertyOp36
 70
     1
102
RTVSPropertyOp37
 70
     1
102
RTVSPropertyOp38
 70
     1
102
RTVSPropertyOp39
 70
     1
102
RTVSPropertyOp40
 70
     1
102
RTVSPropertyOp41
 70
     1
102
RTVSPropertyOp42
 70
     1
102
RTVSPropertyOp43
 70
     1
102
RTVSPropertyOp44
 70
     1
102
RTVSPropertyOp45
 70
     1
102
RTVSPropertyOp46
 70
     1
102
RTVSPropertyOp47
 70
     1
102
RTVSPropertyOp48
 70
     1
102
RTVSPropertyOp49
 70
     1
102
RTVSPropertyOp50
 70
     1
102
RTVSPropertyOp51
 70
     0
102
RTVSPropertyOp52
 70
     0
102
RTVSPropertyOp53
 70
     1
102
RTVSPropertyOp54
 70
     1
102
RTVSPropertyOp55
 70
     1
102
RTVSPropertyOp56
 70
     1
102
RTVSPropertyOp57
 70
     1
102
RTVSPropertyOp58
 70
     1
102
RTVSPropertyOp59
 70
     1
102
RTVSPropertyOp60
 70
     1
102
RTVSPropertyOp61
 70
     1
102
RTVSPropertyOp62
 70
     1
  0
XRECORD
  5
130DD
102
{ACAD_REACTORS
330
130DC
102
}
330
130DC
100
AcDbXrecord
280
     1
102
RTVSPost2010Prop28
280
     0
102
RTVSPost2010PropOp28
 70
     1
102
RTVSPost2010Prop29
280
     1
102
RTVSPost2010PropOp29
 70
     1
102
RTVSPost2010Prop30
280
     1
102
RTVSPost2010PropOp30
 70
     1
102
RTVSPost2010Prop31
280
     0
102
RTVSPost2010PropOp31
 70
     1
102
RTVSPost2010Prop32
280
     0
102
RTVSPost2010PropOp32
 70
     1
102
RTVSPost2010Prop33
280
     0
102
RTVSPost2010PropOp33
 70
     1
102
RTVSPost2010Prop34
280
     0
102
RTVSPost2010PropOp34
 70
     1
102
RTVSPost2010Prop35
280
     0
102
RTVSPost2010PropOp35
 70
     1
102
RTVSPost2010Prop36
280
     0
102
RTVSPost2010PropOp36
 70
     1
102
RTVSPost2010Prop37
 90
       50
102
RTVSPost2010PropOp37
 70
     0
102
RTVSPost2010Prop38
140
0.0
102
RTVSPost2010PropOp38
 70
     0
102
RTVSPost2010Prop39
140
1.0
102
RTVSPost2010PropOp39
 70
     0
102
RTVSPost2010Prop40
 90
        0
102
RTVSPost2010PropOp40
 70
     0
102
RTVSPost2010Prop41ColorIndex
 90
       18
102
RTVSPost2010Prop41ColorRGB
 90
        0
102
RTVSPost2010PropOp41
 70
     0
102
RTVSPost2010Prop42
 90
       50
102
RTVSPost2010PropOp42
 70
     0
102
RTVSPost2010Prop43
 90
        3
102
RTVSPost2010PropOp43
 70
     0
102
RTVSPost2010Prop44ColorIndex
 90
        5
102
RTVSPost2010Prop44ColorRGB
 90
      255
102
RTVSPost2010PropOp44
 70
     0
102
RTVSPost2010Prop45
280
     0
102
RTVSPost2010PropOp45
 70
     1
102
RTVSPost2010Prop46
 90
       50
102
RTVSPost2010PropOp46
 70
     0
102
RTVSPost2010Prop47
 90
       50
102
RTVSPost2010PropOp47
 70
     0
102
RTVSPost2010Prop48
 90
       50
102
RTVSPost2010PropOp48
 70
     0
102
RTVSPost2010Prop49
280
     0
102
RTVSPost2010PropOp49
 70
     1
102
RTVSPost2010Prop50
 90
       50
102
RTVSPost2010PropOp50
 70
     0
102
RTVSPost2010Prop51ColorIndex
 90
      256
102
RTVSPost2010Prop51ColorRGB
 90
-16777216
102
RTVSPost2010PropOp51
 70
     0
102
RTVSPost2010Prop52
140
1.0
102
RTVSPost2010PropOp52
 70
     0
102
RTVSPost2010Prop53
 90
        2
102
RTVSPost2010PropOp53
 70
     0
102
RTVSPost2010Prop54
  1
strokes_ogs.tif
102
RTVSPost2010PropOp54
 70
     0
102
RTVSPost2010Prop55
280
     0
102
RTVSPost2010PropOp55
 70
     1
102
RTVSPost2010Prop56
140
1.0
102
RTVSPost2010PropOp56
 70
     0
102
RTVSPost2010Prop57
140
1.0
102
RTVSPost2010PropOp57
 70
     0
102
RTVSPropertyOp0
 70
     0
102
RTVSPropertyOp1
 70
     0
102
RTVSPropertyOp2
 70
     0
102
RTVSPropertyOp3
 70
     0
102
RTVSPropertyOp4
 70
     0
102
RTVSPropertyOp5
 70
     0
102
RTVSPropertyOp6
 70
     0
102
RTVSPropertyOp7
 70
     0
102
RTVSPropertyOp8
 70
     0
102
RTVSPropertyOp9
 70
     0
102
RTVSPropertyOp10
 70
     0
102
RTVSPropertyOp11
 70
     0
102
RTVSPropertyOp12
 70
     0
102
RTVSPropertyOp13
 70
     0
102
RTVSPropertyOp14
 70
     2
102
RTVSPropertyOp15
 70
     0
102
RTVSPropertyOp16
 70
     0
102
RTVSPropertyOp17
 70
     0
102
RTVSPropertyOp18
 70
     0
102
RTVSPropertyOp19
 70
     0
102
RTVSPropertyOp20
 70
     0
102
RTVSPropertyOp21
 70
     0
102
RTVSPropertyOp22
 70
     0
102
RTVSPropertyOp23
 70
     0
102
RTVSPropertyOp24
 70
     0
102
RTVSPropertyOp25
 70
     0
102
RTVSPropertyOp26
 70
     0
102
RTVSPropertyOp27
 70
     0
102
RTVSPropertyOp28
 70
     1
102
RTVSPropertyOp29
 70
     1
102
RTVSPropertyOp30
 70
     1
102
RTVSPropertyOp31
 70
     1
102
RTVSPropertyOp32
 70
     1
102
RTVSPropertyOp33
 70
     1
102
RTVSPropertyOp34
 70
     1
102
RTVSPropertyOp35
 70
     1
102
RTVSPropertyOp36
 70
     1
102
RTVSPropertyOp37
 70
     0
102
RTVSPropertyOp38
 70
     0
102
RTVSPropertyOp39
 70
     0
102
RTVSPropertyOp40
 70
     0
102
RTVSPropertyOp41
 70
     0
102
RTVSPropertyOp42
 70
     0
102
RTVSPropertyOp43
 70
     0
102
RTVSPropertyOp44
 70
     0
102
RTVSPropertyOp45
 70
     1
102
RTVSPropertyOp46
 70
     0
102
RTVSPropertyOp47
 70
     0
102
RTVSPropertyOp48
 70
     0
102
RTVSPropertyOp49
 70
     1
102
RTVSPropertyOp50
 70
     0
102
RTVSPropertyOp51
 70
     0
102
RTVSPropertyOp52
 70
     0
102
RTVSPropertyOp53
 70
     0
102
RTVSPropertyOp54
 70
     0
102
RTVSPropertyOp55
 70
     1
102
RTVSPropertyOp56
 70
     0
102
RTVSPropertyOp57
 70
     0
102
RTVSPropertyOp58
 70
     0
102
RTVSPropertyOp59
 70
     0
102
RTVSPropertyOp60
 70
     0
102
RTVSPropertyOp61
 70
     0
102
RTVSPropertyOp62
 70
     0
  0
XRECORD
  5
130C3
102
{ACAD_REACTORS
330
130C2
102
}
330
130C2
100
AcDbXrecord
280
     1
102
RTVSPost2010Prop28
280
     0
102
RTVSPost2010PropOp28
 70
     1
102
RTVSPost2010Prop29
280
     1
102
RTVSPost2010PropOp29
 70
     1
102
RTVSPost2010Prop30
280
     1
102
RTVSPost2010PropOp30
 70
     1
102
RTVSPost2010Prop31
280
     0
102
RTVSPost2010PropOp31
 70
     1
102
RTVSPost2010Prop32
280
     0
102
RTVSPost2010PropOp32
 70
     1
102
RTVSPost2010Prop33
280
     0
102
RTVSPost2010PropOp33
 70
     1
102
RTVSPost2010Prop34
280
     0
102
RTVSPost2010PropOp34
 70
     1
102
RTVSPost2010Prop35
280
     0
102
RTVSPost2010PropOp35
 70
     1
102
RTVSPost2010Prop36
280
     0
102
RTVSPost2010PropOp36
 70
     1
102
RTVSPost2010Prop37
 90
       50
102
RTVSPost2010PropOp37
 70
     1
102
RTVSPost2010Prop38
140
0.0
102
RTVSPost2010PropOp38
 70
     1
102
RTVSPost2010Prop39
140
1.0
102
RTVSPost2010PropOp39
 70
     1
102
RTVSPost2010Prop40
 90
        0
102
RTVSPost2010PropOp40
 70
     1
102
RTVSPost2010Prop41ColorIndex
 90
       18
102
RTVSPost2010Prop41ColorRGB
 90
        0
102
RTVSPost2010PropOp41
 70
     1
102
RTVSPost2010Prop42
 90
       50
102
RTVSPost2010PropOp42
 70
     1
102
RTVSPost2010Prop43
 90
        3
102
RTVSPost2010PropOp43
 70
     1
102
RTVSPost2010Prop44ColorIndex
 90
        5
102
RTVSPost2010Prop44ColorRGB
 90
      255
102
RTVSPost2010PropOp44
 70
     1
102
RTVSPost2010Prop45
280
     0
102
RTVSPost2010PropOp45
 70
     1
102
RTVSPost2010Prop46
 90
       50
102
RTVSPost2010PropOp46
 70
     1
102
RTVSPost2010Prop47
 90
       50
102
RTVSPost2010PropOp47
 70
     1
102
RTVSPost2010Prop48
 90
       50
102
RTVSPost2010PropOp48
 70
     1
102
RTVSPost2010Prop49
280
     0
102
RTVSPost2010PropOp49
 70
     1
102
RTVSPost2010Prop50
 90
       50
102
RTVSPost2010PropOp50
 70
     1
102
RTVSPost2010Prop51ColorIndex
 90
      256
102
RTVSPost2010Prop51ColorRGB
 90
-16777216
102
RTVSPost2010PropOp51
 70
     0
102
RTVSPost2010Prop52
140
1.0
102
RTVSPost2010PropOp52
 70
     0
102
RTVSPost2010Prop53
 90
        2
102
RTVSPost2010PropOp53
 70
     1
102
RTVSPost2010Prop54
  1
strokes_ogs.tif
102
RTVSPost2010PropOp54
 70
     1
102
RTVSPost2010Prop55
280
     0
102
RTVSPost2010PropOp55
 70
     1
102
RTVSPost2010Prop56
140
1.0
102
RTVSPost2010PropOp56
 70
     1
102
RTVSPost2010Prop57
140
1.0
102
RTVSPost2010PropOp57
 70
     1
102
RTVSPropertyOp0
 70
     1
102
RTVSPropertyOp1
 70
     1
102
RTVSPropertyOp2
 70
     1
102
RTVSPropertyOp3
 70
     1
102
RTVSPropertyOp4
 70
     1
102
RTVSPropertyOp5
 70
     1
102
RTVSPropertyOp6
 70
     1
102
RTVSPropertyOp7
 70
     1
102
RTVSPropertyOp8
 70
     1
102
RTVSPropertyOp9
 70
     1
102
RTVSPropertyOp10
 70
     1
102
RTVSPropertyOp11
 70
     1
102
RTVSPropertyOp12
 70
     1
102
RTVSPropertyOp13
 70
     1
102
RTVSPropertyOp14
 70
     1
102
RTVSPropertyOp15
 70
     1
102
RTVSPropertyOp16
 70
     1
102
RTVSPropertyOp17
 70
     1
102
RTVSPropertyOp18
 70
     1
102
RTVSPropertyOp19
 70
     1
102
RTVSPropertyOp20
 70
     1
102
RTVSPropertyOp21
 70
     1
102
RTVSPropertyOp22
 70
     1
102
RTVSPropertyOp23
 70
     1
102
RTVSPropertyOp24
 70
     1
102
RTVSPropertyOp25
 70
     1
102
RTVSPropertyOp26
 70
     1
102
RTVSPropertyOp27
 70
     1
102
RTVSPropertyOp28
 70
     1
102
RTVSPropertyOp29
 70
     1
102
RTVSPropertyOp30
 70
     1
102
RTVSPropertyOp31
 70
     1
102
RTVSPropertyOp32
 70
     1
102
RTVSPropertyOp33
 70
     1
102
RTVSPropertyOp34
 70
     1
102
RTVSPropertyOp35
 70
     1
102
RTVSPropertyOp36
 70
     1
102
RTVSPropertyOp37
 70
     1
102
RTVSPropertyOp38
 70
     1
102
RTVSPropertyOp39
 70
     1
102
RTVSPropertyOp40
 70
     1
102
RTVSPropertyOp41
 70
     1
102
RTVSPropertyOp42
 70
     1
102
RTVSPropertyOp43
 70
     1
102
RTVSPropertyOp44
 70
     1
102
RTVSPropertyOp45
 70
     1
102
RTVSPropertyOp46
 70
     1
102
RTVSPropertyOp47
 70
     1
102
RTVSPropertyOp48
 70
     1
102
RTVSPropertyOp49
 70
     1
102
RTVSPropertyOp50
 70
     1
102
RTVSPropertyOp51
 70
     0
102
RTVSPropertyOp52
 70
     0
102
RTVSPropertyOp53
 70
     1
102
RTVSPropertyOp54
 70
     1
102
RTVSPropertyOp55
 70
     1
102
RTVSPropertyOp56
 70
     1
102
RTVSPropertyOp57
 70
     1
102
RTVSPropertyOp58
 70
     1
102
RTVSPropertyOp59
 70
     1
102
RTVSPropertyOp60
 70
     1
102
RTVSPropertyOp61
 70
     1
102
RTVSPropertyOp62
 70
     1
  0
XRECORD
  5
130D9
102
{ACAD_REACTORS
330
130D8
102
}
330
130D8
100
AcDbXrecord
280
     1
102
RTVSPost2010Prop28
280
     0
102
RTVSPost2010PropOp28
 70
     1
102
RTVSPost2010Prop29
280
     1
102
RTVSPost2010PropOp29
 70
     1
102
RTVSPost2010Prop30
280
     1
102
RTVSPost2010PropOp30
 70
     1
102
RTVSPost2010Prop31
280
     0
102
RTVSPost2010PropOp31
 70
     1
102
RTVSPost2010Prop32
280
     0
102
RTVSPost2010PropOp32
 70
     1
102
RTVSPost2010Prop33
280
     0
102
RTVSPost2010PropOp33
 70
     1
102
RTVSPost2010Prop34
280
     0
102
RTVSPost2010PropOp34
 70
     1
102
RTVSPost2010Prop35
280
     0
102
RTVSPost2010PropOp35
 70
     1
102
RTVSPost2010Prop36
280
     0
102
RTVSPost2010PropOp36
 70
     1
102
RTVSPost2010Prop37
 90
       50
102
RTVSPost2010PropOp37
 70
     1
102
RTVSPost2010Prop38
140
0.0
102
RTVSPost2010PropOp38
 70
     1
102
RTVSPost2010Prop39
140
1.0
102
RTVSPost2010PropOp39
 70
     1
102
RTVSPost2010Prop40
 90
        0
102
RTVSPost2010PropOp40
 70
     1
102
RTVSPost2010Prop41ColorIndex
 90
       18
102
RTVSPost2010Prop41ColorRGB
 90
        0
102
RTVSPost2010PropOp41
 70
     1
102
RTVSPost2010Prop42
 90
       50
102
RTVSPost2010PropOp42
 70
     1
102
RTVSPost2010Prop43
 90
        3
102
RTVSPost2010PropOp43
 70
     1
102
RTVSPost2010Prop44ColorIndex
 90
        5
102
RTVSPost2010Prop44ColorRGB
 90
      255
102
RTVSPost2010PropOp44
 70
     1
102
RTVSPost2010Prop45
280
     0
102
RTVSPost2010PropOp45
 70
     1
102
RTVSPost2010Prop46
 90
       50
102
RTVSPost2010PropOp46
 70
     1
102
RTVSPost2010Prop47
 90
       50
102
RTVSPost2010PropOp47
 70
     1
102
RTVSPost2010Prop48
 90
       50
102
RTVSPost2010PropOp48
 70
     1
102
RTVSPost2010Prop49
280
     0
102
RTVSPost2010PropOp49
 70
     1
102
RTVSPost2010Prop50
 90
       50
102
RTVSPost2010PropOp50
 70
     1
102
RTVSPost2010Prop51ColorIndex
 90
      256
102
RTVSPost2010Prop51ColorRGB
 90
-16777216
102
RTVSPost2010PropOp51
 70
     0
102
RTVSPost2010Prop52
140
1.0
102
RTVSPost2010PropOp52
 70
     0
102
RTVSPost2010Prop53
 90
        2
102
RTVSPost2010PropOp53
 70
     1
102
RTVSPost2010Prop54
  1
strokes_ogs.tif
102
RTVSPost2010PropOp54
 70
     1
102
RTVSPost2010Prop55
280
     0
102
RTVSPost2010PropOp55
 70
     1
102
RTVSPost2010Prop56
140
1.0
102
RTVSPost2010PropOp56
 70
     1
102
RTVSPost2010Prop57
140
1.0
102
RTVSPost2010PropOp57
 70
     1
102
RTVSPropertyOp0
 70
     1
102
RTVSPropertyOp1
 70
     1
102
RTVSPropertyOp2
 70
     1
102
RTVSPropertyOp3
 70
     1
102
RTVSPropertyOp4
 70
     1
102
RTVSPropertyOp5
 70
     1
102
RTVSPropertyOp6
 70
     1
102
RTVSPropertyOp7
 70
     1
102
RTVSPropertyOp8
 70
     1
102
RTVSPropertyOp9
 70
     1
102
RTVSPropertyOp10
 70
     1
102
RTVSPropertyOp11
 70
     1
102
RTVSPropertyOp12
 70
     1
102
RTVSPropertyOp13
 70
     1
102
RTVSPropertyOp14
 70
     1
102
RTVSPropertyOp15
 70
     1
102
RTVSPropertyOp16
 70
     1
102
RTVSPropertyOp17
 70
     1
102
RTVSPropertyOp18
 70
     1
102
RTVSPropertyOp19
 70
     1
102
RTVSPropertyOp20
 70
     1
102
RTVSPropertyOp21
 70
     1
102
RTVSPropertyOp22
 70
     1
102
RTVSPropertyOp23
 70
     1
102
RTVSPropertyOp24
 70
     1
102
RTVSPropertyOp25
 70
     1
102
RTVSPropertyOp26
 70
     1
102
RTVSPropertyOp27
 70
     1
102
RTVSPropertyOp28
 70
     1
102
RTVSPropertyOp29
 70
     1
102
RTVSPropertyOp30
 70
     1
102
RTVSPropertyOp31
 70
     1
102
RTVSPropertyOp32
 70
     1
102
RTVSPropertyOp33
 70
     1
102
RTVSPropertyOp34
 70
     1
102
RTVSPropertyOp35
 70
     1
102
RTVSPropertyOp36
 70
     1
102
RTVSPropertyOp37
 70
     1
102
RTVSPropertyOp38
 70
     1
102
RTVSPropertyOp39
 70
     1
102
RTVSPropertyOp40
 70
     1
102
RTVSPropertyOp41
 70
     1
102
RTVSPropertyOp42
 70
     1
102
RTVSPropertyOp43
 70
     1
102
RTVSPropertyOp44
 70
     1
102
RTVSPropertyOp45
 70
     1
102
RTVSPropertyOp46
 70
     1
102
RTVSPropertyOp47
 70
     1
102
RTVSPropertyOp48
 70
     1
102
RTVSPropertyOp49
 70
     1
102
RTVSPropertyOp50
 70
     1
102
RTVSPropertyOp51
 70
     0
102
RTVSPropertyOp52
 70
     0
102
RTVSPropertyOp53
 70
     1
102
RTVSPropertyOp54
 70
     1
102
RTVSPropertyOp55
 70
     1
102
RTVSPropertyOp56
 70
     1
102
RTVSPropertyOp57
 70
     1
102
RTVSPropertyOp58
 70
     1
102
RTVSPropertyOp59
 70
     1
102
RTVSPropertyOp60
 70
     1
102
RTVSPropertyOp61
 70
     1
102
RTVSPropertyOp62
 70
     1
  0
XRECORD
  5
130D7
102
{ACAD_REACTORS
330
130D6
102
}
330
130D6
100
AcDbXrecord
280
     1
102
RTVSPost2010Prop28
280
     0
102
RTVSPost2010PropOp28
 70
     1
102
RTVSPost2010Prop29
280
     1
102
RTVSPost2010PropOp29
 70
     1
102
RTVSPost2010Prop30
280
     1
102
RTVSPost2010PropOp30
 70
     1
102
RTVSPost2010Prop31
280
     0
102
RTVSPost2010PropOp31
 70
     1
102
RTVSPost2010Prop32
280
     0
102
RTVSPost2010PropOp32
 70
     1
102
RTVSPost2010Prop33
280
     0
102
RTVSPost2010PropOp33
 70
     1
102
RTVSPost2010Prop34
280
     0
102
RTVSPost2010PropOp34
 70
     1
102
RTVSPost2010Prop35
280
     0
102
RTVSPost2010PropOp35
 70
     1
102
RTVSPost2010Prop36
280
     0
102
RTVSPost2010PropOp36
 70
     1
102
RTVSPost2010Prop37
 90
       50
102
RTVSPost2010PropOp37
 70
     1
102
RTVSPost2010Prop38
140
0.0
102
RTVSPost2010PropOp38
 70
     1
102
RTVSPost2010Prop39
140
1.0
102
RTVSPost2010PropOp39
 70
     1
102
RTVSPost2010Prop40
 90
        0
102
RTVSPost2010PropOp40
 70
     1
102
RTVSPost2010Prop41ColorIndex
 90
       18
102
RTVSPost2010Prop41ColorRGB
 90
        0
102
RTVSPost2010PropOp41
 70
     1
102
RTVSPost2010Prop42
 90
       50
102
RTVSPost2010PropOp42
 70
     1
102
RTVSPost2010Prop43
 90
        3
102
RTVSPost2010PropOp43
 70
     1
102
RTVSPost2010Prop44ColorIndex
 90
        5
102
RTVSPost2010Prop44ColorRGB
 90
      255
102
RTVSPost2010PropOp44
 70
     1
102
RTVSPost2010Prop45
280
     0
102
RTVSPost2010PropOp45
 70
     1
102
RTVSPost2010Prop46
 90
       50
102
RTVSPost2010PropOp46
 70
     1
102
RTVSPost2010Prop47
 90
       50
102
RTVSPost2010PropOp47
 70
     1
102
RTVSPost2010Prop48
 90
       50
102
RTVSPost2010PropOp48
 70
     1
102
RTVSPost2010Prop49
280
     0
102
RTVSPost2010PropOp49
 70
     1
102
RTVSPost2010Prop50
 90
       50
102
RTVSPost2010PropOp50
 70
     1
102
RTVSPost2010Prop51ColorIndex
 90
      256
102
RTVSPost2010Prop51ColorRGB
 90
-16777216
102
RTVSPost2010PropOp51
 70
     0
102
RTVSPost2010Prop52
140
1.0
102
RTVSPost2010PropOp52
 70
     0
102
RTVSPost2010Prop53
 90
        2
102
RTVSPost2010PropOp53
 70
     1
102
RTVSPost2010Prop54
  1
strokes_ogs.tif
102
RTVSPost2010PropOp54
 70
     1
102
RTVSPost2010Prop55
280
     0
102
RTVSPost2010PropOp55
 70
     1
102
RTVSPost2010Prop56
140
1.0
102
RTVSPost2010PropOp56
 70
     1
102
RTVSPost2010Prop57
140
1.0
102
RTVSPost2010PropOp57
 70
     1
102
RTVSPropertyOp0
 70
     1
102
RTVSPropertyOp1
 70
     1
102
RTVSPropertyOp2
 70
     1
102
RTVSPropertyOp3
 70
     1
102
RTVSPropertyOp4
 70
     1
102
RTVSPropertyOp5
 70
     1
102
RTVSPropertyOp6
 70
     1
102
RTVSPropertyOp7
 70
     1
102
RTVSPropertyOp8
 70
     1
102
RTVSPropertyOp9
 70
     1
102
RTVSPropertyOp10
 70
     1
102
RTVSPropertyOp11
 70
     1
102
RTVSPropertyOp12
 70
     1
102
RTVSPropertyOp13
 70
     1
102
RTVSPropertyOp14
 70
     1
102
RTVSPropertyOp15
 70
     1
102
RTVSPropertyOp16
 70
     1
102
RTVSPropertyOp17
 70
     1
102
RTVSPropertyOp18
 70
     1
102
RTVSPropertyOp19
 70
     1
102
RTVSPropertyOp20
 70
     1
102
RTVSPropertyOp21
 70
     1
102
RTVSPropertyOp22
 70
     1
102
RTVSPropertyOp23
 70
     1
102
RTVSPropertyOp24
 70
     1
102
RTVSPropertyOp25
 70
     1
102
RTVSPropertyOp26
 70
     1
102
RTVSPropertyOp27
 70
     1
102
RTVSPropertyOp28
 70
     1
102
RTVSPropertyOp29
 70
     1
102
RTVSPropertyOp30
 70
     1
102
RTVSPropertyOp31
 70
     1
102
RTVSPropertyOp32
 70
     1
102
RTVSPropertyOp33
 70
     1
102
RTVSPropertyOp34
 70
     1
102
RTVSPropertyOp35
 70
     1
102
RTVSPropertyOp36
 70
     1
102
RTVSPropertyOp37
 70
     1
102
RTVSPropertyOp38
 70
     1
102
RTVSPropertyOp39
 70
     1
102
RTVSPropertyOp40
 70
     1
102
RTVSPropertyOp41
 70
     1
102
RTVSPropertyOp42
 70
     1
102
RTVSPropertyOp43
 70
     1
102
RTVSPropertyOp44
 70
     1
102
RTVSPropertyOp45
 70
     1
102
RTVSPropertyOp46
 70
     1
102
RTVSPropertyOp47
 70
     1
102
RTVSPropertyOp48
 70
     1
102
RTVSPropertyOp49
 70
     1
102
RTVSPropertyOp50
 70
     1
102
RTVSPropertyOp51
 70
     0
102
RTVSPropertyOp52
 70
     0
102
RTVSPropertyOp53
 70
     1
102
RTVSPropertyOp54
 70
     1
102
RTVSPropertyOp55
 70
     1
102
RTVSPropertyOp56
 70
     1
102
RTVSPropertyOp57
 70
     1
102
RTVSPropertyOp58
 70
     1
102
RTVSPropertyOp59
 70
     1
102
RTVSPropertyOp60
 70
     1
102
RTVSPropertyOp61
 70
     1
102
RTVSPropertyOp62
 70
     1
  0
XRECORD
  5
130D1
102
{ACAD_REACTORS
330
130D0
102
}
330
130D0
100
AcDbXrecord
280
     1
102
RTVSPost2010Prop28
280
     0
102
RTVSPost2010PropOp28
 70
     1
102
RTVSPost2010Prop29
280
     1
102
RTVSPost2010PropOp29
 70
     1
102
RTVSPost2010Prop30
280
     1
102
RTVSPost2010PropOp30
 70
     1
102
RTVSPost2010Prop31
280
     0
102
RTVSPost2010PropOp31
 70
     1
102
RTVSPost2010Prop32
280
     0
102
RTVSPost2010PropOp32
 70
     1
102
RTVSPost2010Prop33
280
     0
102
RTVSPost2010PropOp33
 70
     1
102
RTVSPost2010Prop34
280
     0
102
RTVSPost2010PropOp34
 70
     1
102
RTVSPost2010Prop35
280
     0
102
RTVSPost2010PropOp35
 70
     1
102
RTVSPost2010Prop36
280
     0
102
RTVSPost2010PropOp36
 70
     1
102
RTVSPost2010Prop37
 90
       50
102
RTVSPost2010PropOp37
 70
     1
102
RTVSPost2010Prop38
140
0.0
102
RTVSPost2010PropOp38
 70
     1
102
RTVSPost2010Prop39
140
1.0
102
RTVSPost2010PropOp39
 70
     1
102
RTVSPost2010Prop40
 90
        0
102
RTVSPost2010PropOp40
 70
     1
102
RTVSPost2010Prop41ColorIndex
 90
       18
102
RTVSPost2010Prop41ColorRGB
 90
        0
102
RTVSPost2010PropOp41
 70
     1
102
RTVSPost2010Prop42
 90
       50
102
RTVSPost2010PropOp42
 70
     1
102
RTVSPost2010Prop43
 90
        3
102
RTVSPost2010PropOp43
 70
     1
102
RTVSPost2010Prop44ColorIndex
 90
        5
102
RTVSPost2010Prop44ColorRGB
 90
      255
102
RTVSPost2010PropOp44
 70
     1
102
RTVSPost2010Prop45
280
     0
102
RTVSPost2010PropOp45
 70
     1
102
RTVSPost2010Prop46
 90
       50
102
RTVSPost2010PropOp46
 70
     1
102
RTVSPost2010Prop47
 90
       50
102
RTVSPost2010PropOp47
 70
     1
102
RTVSPost2010Prop48
 90
       50
102
RTVSPost2010PropOp48
 70
     1
102
RTVSPost2010Prop49
280
     0
102
RTVSPost2010PropOp49
 70
     1
102
RTVSPost2010Prop50
 90
       50
102
RTVSPost2010PropOp50
 70
     1
102
RTVSPost2010Prop51ColorIndex
 90
      256
102
RTVSPost2010Prop51ColorRGB
 90
-16777216
102
RTVSPost2010PropOp51
 70
     0
102
RTVSPost2010Prop52
140
1.0
102
RTVSPost2010PropOp52
 70
     0
102
RTVSPost2010Prop53
 90
        2
102
RTVSPost2010PropOp53
 70
     1
102
RTVSPost2010Prop54
  1
strokes_ogs.tif
102
RTVSPost2010PropOp54
 70
     1
102
RTVSPost2010Prop55
280
     0
102
RTVSPost2010PropOp55
 70
     1
102
RTVSPost2010Prop56
140
1.0
102
RTVSPost2010PropOp56
 70
     1
102
RTVSPost2010Prop57
140
1.0
102
RTVSPost2010PropOp57
 70
     1
102
RTVSPropertyOp0
 70
     1
102
RTVSPropertyOp1
 70
     1
102
RTVSPropertyOp2
 70
     1
102
RTVSPropertyOp3
 70
     1
102
RTVSPropertyOp4
 70
     1
102
RTVSPropertyOp5
 70
     1
102
RTVSPropertyOp6
 70
     1
102
RTVSPropertyOp7
 70
     1
102
RTVSPropertyOp8
 70
     1
102
RTVSPropertyOp9
 70
     1
102
RTVSPropertyOp10
 70
     1
102
RTVSPropertyOp11
 70
     1
102
RTVSPropertyOp12
 70
     1
102
RTVSPropertyOp13
 70
     1
102
RTVSPropertyOp14
 70
     1
102
RTVSPropertyOp15
 70
     1
102
RTVSPropertyOp16
 70
     1
102
RTVSPropertyOp17
 70
     1
102
RTVSPropertyOp18
 70
     1
102
RTVSPropertyOp19
 70
     1
102
RTVSPropertyOp20
 70
     1
102
RTVSPropertyOp21
 70
     1
102
RTVSPropertyOp22
 70
     1
102
RTVSPropertyOp23
 70
     1
102
RTVSPropertyOp24
 70
     1
102
RTVSPropertyOp25
 70
     1
102
RTVSPropertyOp26
 70
     1
102
RTVSPropertyOp27
 70
     1
102
RTVSPropertyOp28
 70
     1
102
RTVSPropertyOp29
 70
     1
102
RTVSPropertyOp30
 70
     1
102
RTVSPropertyOp31
 70
     1
102
RTVSPropertyOp32
 70
     1
102
RTVSPropertyOp33
 70
     1
102
RTVSPropertyOp34
 70
     1
102
RTVSPropertyOp35
 70
     1
102
RTVSPropertyOp36
 70
     1
102
RTVSPropertyOp37
 70
     1
102
RTVSPropertyOp38
 70
     1
102
RTVSPropertyOp39
 70
     1
102
RTVSPropertyOp40
 70
     1
102
RTVSPropertyOp41
 70
     1
102
RTVSPropertyOp42
 70
     1
102
RTVSPropertyOp43
 70
     1
102
RTVSPropertyOp44
 70
     1
102
RTVSPropertyOp45
 70
     1
102
RTVSPropertyOp46
 70
     1
102
RTVSPropertyOp47
 70
     1
102
RTVSPropertyOp48
 70
     1
102
RTVSPropertyOp49
 70
     1
102
RTVSPropertyOp50
 70
     1
102
RTVSPropertyOp51
 70
     0
102
RTVSPropertyOp52
 70
     0
102
RTVSPropertyOp53
 70
     1
102
RTVSPropertyOp54
 70
     1
102
RTVSPropertyOp55
 70
     1
102
RTVSPropertyOp56
 70
     1
102
RTVSPropertyOp57
 70
     1
102
RTVSPropertyOp58
 70
     1
102
RTVSPropertyOp59
 70
     1
102
RTVSPropertyOp60
 70
     1
102
RTVSPropertyOp61
 70
     1
102
RTVSPropertyOp62
 70
     1
  0
XRECORD
  5
130D3
102
{ACAD_REACTORS
330
130D2
102
}
330
130D2
100
AcDbXrecord
280
     1
102
RTVSPost2010Prop28
280
     0
102
RTVSPost2010PropOp28
 70
     1
102
RTVSPost2010Prop29
280
     1
102
RTVSPost2010PropOp29
 70
     1
102
RTVSPost2010Prop30
280
     1
102
RTVSPost2010PropOp30
 70
     1
102
RTVSPost2010Prop31
280
     0
102
RTVSPost2010PropOp31
 70
     1
102
RTVSPost2010Prop32
280
     0
102
RTVSPost2010PropOp32
 70
     1
102
RTVSPost2010Prop33
280
     0
102
RTVSPost2010PropOp33
 70
     1
102
RTVSPost2010Prop34
280
     0
102
RTVSPost2010PropOp34
 70
     1
102
RTVSPost2010Prop35
280
     0
102
RTVSPost2010PropOp35
 70
     1
102
RTVSPost2010Prop36
280
     0
102
RTVSPost2010PropOp36
 70
     1
102
RTVSPost2010Prop37
 90
       50
102
RTVSPost2010PropOp37
 70
     1
102
RTVSPost2010Prop38
140
0.0
102
RTVSPost2010PropOp38
 70
     1
102
RTVSPost2010Prop39
140
1.0
102
RTVSPost2010PropOp39
 70
     1
102
RTVSPost2010Prop40
 90
        0
102
RTVSPost2010PropOp40
 70
     1
102
RTVSPost2010Prop41ColorIndex
 90
       18
102
RTVSPost2010Prop41ColorRGB
 90
        0
102
RTVSPost2010PropOp41
 70
     1
102
RTVSPost2010Prop42
 90
       50
102
RTVSPost2010PropOp42
 70
     1
102
RTVSPost2010Prop43
 90
        3
102
RTVSPost2010PropOp43
 70
     1
102
RTVSPost2010Prop44ColorIndex
 90
        5
102
RTVSPost2010Prop44ColorRGB
 90
      255
102
RTVSPost2010PropOp44
 70
     1
102
RTVSPost2010Prop45
280
     0
102
RTVSPost2010PropOp45
 70
     1
102
RTVSPost2010Prop46
 90
       50
102
RTVSPost2010PropOp46
 70
     1
102
RTVSPost2010Prop47
 90
       50
102
RTVSPost2010PropOp47
 70
     1
102
RTVSPost2010Prop48
 90
       50
102
RTVSPost2010PropOp48
 70
     1
102
RTVSPost2010Prop49
280
     0
102
RTVSPost2010PropOp49
 70
     1
102
RTVSPost2010Prop50
 90
       50
102
RTVSPost2010PropOp50
 70
     1
102
RTVSPost2010Prop51ColorIndex
 90
      256
102
RTVSPost2010Prop51ColorRGB
 90
-16777216
102
RTVSPost2010PropOp51
 70
     0
102
RTVSPost2010Prop52
140
1.0
102
RTVSPost2010PropOp52
 70
     0
102
RTVSPost2010Prop53
 90
        2
102
RTVSPost2010PropOp53
 70
     1
102
RTVSPost2010Prop54
  1
strokes_ogs.tif
102
RTVSPost2010PropOp54
 70
     1
102
RTVSPost2010Prop55
280
     0
102
RTVSPost2010PropOp55
 70
     1
102
RTVSPost2010Prop56
140
1.0
102
RTVSPost2010PropOp56
 70
     1
102
RTVSPost2010Prop57
140
1.0
102
RTVSPost2010PropOp57
 70
     1
102
RTVSPropertyOp0
 70
     1
102
RTVSPropertyOp1
 70
     1
102
RTVSPropertyOp2
 70
     1
102
RTVSPropertyOp3
 70
     1
102
RTVSPropertyOp4
 70
     1
102
RTVSPropertyOp5
 70
     1
102
RTVSPropertyOp6
 70
     1
102
RTVSPropertyOp7
 70
     1
102
RTVSPropertyOp8
 70
     1
102
RTVSPropertyOp9
 70
     1
102
RTVSPropertyOp10
 70
     1
102
RTVSPropertyOp11
 70
     1
102
RTVSPropertyOp12
 70
     1
102
RTVSPropertyOp13
 70
     1
102
RTVSPropertyOp14
 70
     1
102
RTVSPropertyOp15
 70
     1
102
RTVSPropertyOp16
 70
     1
102
RTVSPropertyOp17
 70
     1
102
RTVSPropertyOp18
 70
     1
102
RTVSPropertyOp19
 70
     1
102
RTVSPropertyOp20
 70
     1
102
RTVSPropertyOp21
 70
     1
102
RTVSPropertyOp22
 70
     1
102
RTVSPropertyOp23
 70
     1
102
RTVSPropertyOp24
 70
     1
102
RTVSPropertyOp25
 70
     1
102
RTVSPropertyOp26
 70
     1
102
RTVSPropertyOp27
 70
     1
102
RTVSPropertyOp28
 70
     1
102
RTVSPropertyOp29
 70
     1
102
RTVSPropertyOp30
 70
     1
102
RTVSPropertyOp31
 70
     1
102
RTVSPropertyOp32
 70
     1
102
RTVSPropertyOp33
 70
     1
102
RTVSPropertyOp34
 70
     1
102
RTVSPropertyOp35
 70
     1
102
RTVSPropertyOp36
 70
     1
102
RTVSPropertyOp37
 70
     1
102
RTVSPropertyOp38
 70
     1
102
RTVSPropertyOp39
 70
     1
102
RTVSPropertyOp40
 70
     1
102
RTVSPropertyOp41
 70
     1
102
RTVSPropertyOp42
 70
     1
102
RTVSPropertyOp43
 70
     1
102
RTVSPropertyOp44
 70
     1
102
RTVSPropertyOp45
 70
     1
102
RTVSPropertyOp46
 70
     1
102
RTVSPropertyOp47
 70
     1
102
RTVSPropertyOp48
 70
     1
102
RTVSPropertyOp49
 70
     1
102
RTVSPropertyOp50
 70
     1
102
RTVSPropertyOp51
 70
     0
102
RTVSPropertyOp52
 70
     0
102
RTVSPropertyOp53
 70
     1
102
RTVSPropertyOp54
 70
     1
102
RTVSPropertyOp55
 70
     1
102
RTVSPropertyOp56
 70
     1
102
RTVSPropertyOp57
 70
     1
102
RTVSPropertyOp58
 70
     1
102
RTVSPropertyOp59
 70
     1
102
RTVSPropertyOp60
 70
     1
102
RTVSPropertyOp61
 70
     1
102
RTVSPropertyOp62
 70
     1
  0
XRECORD
  5
130C9
102
{ACAD_REACTORS
330
130C8
102
}
330
130C8
100
AcDbXrecord
280
     1
102
RTVSPost2010Prop28
280
     0
102
RTVSPost2010PropOp28
 70
     1
102
RTVSPost2010Prop29
280
     1
102
RTVSPost2010PropOp29
 70
     1
102
RTVSPost2010Prop30
280
     1
102
RTVSPost2010PropOp30
 70
     1
102
RTVSPost2010Prop31
280
     0
102
RTVSPost2010PropOp31
 70
     1
102
RTVSPost2010Prop32
280
     0
102
RTVSPost2010PropOp32
 70
     1
102
RTVSPost2010Prop33
280
     0
102
RTVSPost2010PropOp33
 70
     1
102
RTVSPost2010Prop34
280
     0
102
RTVSPost2010PropOp34
 70
     1
102
RTVSPost2010Prop35
280
     0
102
RTVSPost2010PropOp35
 70
     1
102
RTVSPost2010Prop36
280
     0
102
RTVSPost2010PropOp36
 70
     1
102
RTVSPost2010Prop37
 90
       50
102
RTVSPost2010PropOp37
 70
     1
102
RTVSPost2010Prop38
140
0.0
102
RTVSPost2010PropOp38
 70
     1
102
RTVSPost2010Prop39
140
1.0
102
RTVSPost2010PropOp39
 70
     1
102
RTVSPost2010Prop40
 90
        0
102
RTVSPost2010PropOp40
 70
     1
102
RTVSPost2010Prop41ColorIndex
 90
       18
102
RTVSPost2010Prop41ColorRGB
 90
        0
102
RTVSPost2010PropOp41
 70
     1
102
RTVSPost2010Prop42
 90
       50
102
RTVSPost2010PropOp42
 70
     1
102
RTVSPost2010Prop43
 90
        3
102
RTVSPost2010PropOp43
 70
     1
102
RTVSPost2010Prop44ColorIndex
 90
        5
102
RTVSPost2010Prop44ColorRGB
 90
      255
102
RTVSPost2010PropOp44
 70
     1
102
RTVSPost2010Prop45
280
     0
102
RTVSPost2010PropOp45
 70
     1
102
RTVSPost2010Prop46
 90
       50
102
RTVSPost2010PropOp46
 70
     1
102
RTVSPost2010Prop47
 90
       50
102
RTVSPost2010PropOp47
 70
     1
102
RTVSPost2010Prop48
 90
       50
102
RTVSPost2010PropOp48
 70
     1
102
RTVSPost2010Prop49
280
     0
102
RTVSPost2010PropOp49
 70
     1
102
RTVSPost2010Prop50
 90
       50
102
RTVSPost2010PropOp50
 70
     1
102
RTVSPost2010Prop51ColorIndex
 90
      256
102
RTVSPost2010Prop51ColorRGB
 90
-16777216
102
RTVSPost2010PropOp51
 70
     0
102
RTVSPost2010Prop52
140
1.0
102
RTVSPost2010PropOp52
 70
     0
102
RTVSPost2010Prop53
 90
        2
102
RTVSPost2010PropOp53
 70
     1
102
RTVSPost2010Prop54
  1
strokes_ogs.tif
102
RTVSPost2010PropOp54
 70
     1
102
RTVSPost2010Prop55
280
     0
102
RTVSPost2010PropOp55
 70
     1
102
RTVSPost2010Prop56
140
1.0
102
RTVSPost2010PropOp56
 70
     1
102
RTVSPost2010Prop57
140
1.0
102
RTVSPost2010PropOp57
 70
     1
102
RTVSPropertyOp0
 70
     1
102
RTVSPropertyOp1
 70
     1
102
RTVSPropertyOp2
 70
     1
102
RTVSPropertyOp3
 70
     1
102
RTVSPropertyOp4
 70
     1
102
RTVSPropertyOp5
 70
     1
102
RTVSPropertyOp6
 70
     1
102
RTVSPropertyOp7
 70
     1
102
RTVSPropertyOp8
 70
     1
102
RTVSPropertyOp9
 70
     1
102
RTVSPropertyOp10
 70
     1
102
RTVSPropertyOp11
 70
     1
102
RTVSPropertyOp12
 70
     1
102
RTVSPropertyOp13
 70
     1
102
RTVSPropertyOp14
 70
     1
102
RTVSPropertyOp15
 70
     1
102
RTVSPropertyOp16
 70
     1
102
RTVSPropertyOp17
 70
     1
102
RTVSPropertyOp18
 70
     1
102
RTVSPropertyOp19
 70
     1
102
RTVSPropertyOp20
 70
     1
102
RTVSPropertyOp21
 70
     1
102
RTVSPropertyOp22
 70
     1
102
RTVSPropertyOp23
 70
     1
102
RTVSPropertyOp24
 70
     1
102
RTVSPropertyOp25
 70
     1
102
RTVSPropertyOp26
 70
     1
102
RTVSPropertyOp27
 70
     1
102
RTVSPropertyOp28
 70
     1
102
RTVSPropertyOp29
 70
     1
102
RTVSPropertyOp30
 70
     1
102
RTVSPropertyOp31
 70
     1
102
RTVSPropertyOp32
 70
     1
102
RTVSPropertyOp33
 70
     1
102
RTVSPropertyOp34
 70
     1
102
RTVSPropertyOp35
 70
     1
102
RTVSPropertyOp36
 70
     1
102
RTVSPropertyOp37
 70
     1
102
RTVSPropertyOp38
 70
     1
102
RTVSPropertyOp39
 70
     1
102
RTVSPropertyOp40
 70
     1
102
RTVSPropertyOp41
 70
     1
102
RTVSPropertyOp42
 70
     1
102
RTVSPropertyOp43
 70
     1
102
RTVSPropertyOp44
 70
     1
102
RTVSPropertyOp45
 70
     1
102
RTVSPropertyOp46
 70
     1
102
RTVSPropertyOp47
 70
     1
102
RTVSPropertyOp48
 70
     1
102
RTVSPropertyOp49
 70
     1
102
RTVSPropertyOp50
 70
     1
102
RTVSPropertyOp51
 70
     0
102
RTVSPropertyOp52
 70
     0
102
RTVSPropertyOp53
 70
     1
102
RTVSPropertyOp54
 70
     1
102
RTVSPropertyOp55
 70
     1
102
RTVSPropertyOp56
 70
     1
102
RTVSPropertyOp57
 70
     1
102
RTVSPropertyOp58
 70
     1
102
RTVSPropertyOp59
 70
     1
102
RTVSPropertyOp60
 70
     1
102
RTVSPropertyOp61
 70
     1
102
RTVSPropertyOp62
 70
     1
  0
XRECORD
  5
130BD
102
{ACAD_REACTORS
330
130BC
102
}
330
130BC
100
AcDbXrecord
280
     1
102
RTVSPost2010Prop28
280
     0
102
RTVSPost2010PropOp28
 70
     1
102
RTVSPost2010Prop29
280
     1
102
RTVSPost2010PropOp29
 70
     1
102
RTVSPost2010Prop30
280
     1
102
RTVSPost2010PropOp30
 70
     1
102
RTVSPost2010Prop31
280
     0
102
RTVSPost2010PropOp31
 70
     1
102
RTVSPost2010Prop32
280
     0
102
RTVSPost2010PropOp32
 70
     1
102
RTVSPost2010Prop33
280
     0
102
RTVSPost2010PropOp33
 70
     1
102
RTVSPost2010Prop34
280
     0
102
RTVSPost2010PropOp34
 70
     1
102
RTVSPost2010Prop35
280
     0
102
RTVSPost2010PropOp35
 70
     1
102
RTVSPost2010Prop36
280
     0
102
RTVSPost2010PropOp36
 70
     1
102
RTVSPost2010Prop37
 90
       50
102
RTVSPost2010PropOp37
 70
     1
102
RTVSPost2010Prop38
140
0.0
102
RTVSPost2010PropOp38
 70
     1
102
RTVSPost2010Prop39
140
1.0
102
RTVSPost2010PropOp39
 70
     1
102
RTVSPost2010Prop40
 90
        0
102
RTVSPost2010PropOp40
 70
     1
102
RTVSPost2010Prop41ColorIndex
 90
       18
102
RTVSPost2010Prop41ColorRGB
 90
        0
102
RTVSPost2010PropOp41
 70
     1
102
RTVSPost2010Prop42
 90
       50
102
RTVSPost2010PropOp42
 70
     1
102
RTVSPost2010Prop43
 90
        3
102
RTVSPost2010PropOp43
 70
     1
102
RTVSPost2010Prop44ColorIndex
 90
        5
102
RTVSPost2010Prop44ColorRGB
 90
      255
102
RTVSPost2010PropOp44
 70
     1
102
RTVSPost2010Prop45
280
     0
102
RTVSPost2010PropOp45
 70
     1
102
RTVSPost2010Prop46
 90
       50
102
RTVSPost2010PropOp46
 70
     1
102
RTVSPost2010Prop47
 90
       50
102
RTVSPost2010PropOp47
 70
     1
102
RTVSPost2010Prop48
 90
       50
102
RTVSPost2010PropOp48
 70
     1
102
RTVSPost2010Prop49
280
     0
102
RTVSPost2010PropOp49
 70
     1
102
RTVSPost2010Prop50
 90
       50
102
RTVSPost2010PropOp50
 70
     1
102
RTVSPost2010Prop51ColorIndex
 90
      256
102
RTVSPost2010Prop51ColorRGB
 90
-16777216
102
RTVSPost2010PropOp51
 70
     0
102
RTVSPost2010Prop52
140
1.0
102
RTVSPost2010PropOp52
 70
     0
102
RTVSPost2010Prop53
 90
        2
102
RTVSPost2010PropOp53
 70
     1
102
RTVSPost2010Prop54
  1
strokes_ogs.tif
102
RTVSPost2010PropOp54
 70
     1
102
RTVSPost2010Prop55
280
     0
102
RTVSPost2010PropOp55
 70
     1
102
RTVSPost2010Prop56
140
1.0
102
RTVSPost2010PropOp56
 70
     1
102
RTVSPost2010Prop57
140
1.0
102
RTVSPost2010PropOp57
 70
     1
102
RTVSPropertyOp0
 70
     1
102
RTVSPropertyOp1
 70
     1
102
RTVSPropertyOp2
 70
     1
102
RTVSPropertyOp3
 70
     1
102
RTVSPropertyOp4
 70
     1
102
RTVSPropertyOp5
 70
     1
102
RTVSPropertyOp6
 70
     1
102
RTVSPropertyOp7
 70
     1
102
RTVSPropertyOp8
 70
     1
102
RTVSPropertyOp9
 70
     1
102
RTVSPropertyOp10
 70
     1
102
RTVSPropertyOp11
 70
     1
102
RTVSPropertyOp12
 70
     1
102
RTVSPropertyOp13
 70
     1
102
RTVSPropertyOp14
 70
     1
102
RTVSPropertyOp15
 70
     1
102
RTVSPropertyOp16
 70
     1
102
RTVSPropertyOp17
 70
     1
102
RTVSPropertyOp18
 70
     1
102
RTVSPropertyOp19
 70
     1
102
RTVSPropertyOp20
 70
     1
102
RTVSPropertyOp21
 70
     1
102
RTVSPropertyOp22
 70
     1
102
RTVSPropertyOp23
 70
     1
102
RTVSPropertyOp24
 70
     1
102
RTVSPropertyOp25
 70
     1
102
RTVSPropertyOp26
 70
     1
102
RTVSPropertyOp27
 70
     1
102
RTVSPropertyOp28
 70
     1
102
RTVSPropertyOp29
 70
     1
102
RTVSPropertyOp30
 70
     1
102
RTVSPropertyOp31
 70
     1
102
RTVSPropertyOp32
 70
     1
102
RTVSPropertyOp33
 70
     1
102
RTVSPropertyOp34
 70
     1
102
RTVSPropertyOp35
 70
     1
102
RTVSPropertyOp36
 70
     1
102
RTVSPropertyOp37
 70
     1
102
RTVSPropertyOp38
 70
     1
102
RTVSPropertyOp39
 70
     1
102
RTVSPropertyOp40
 70
     1
102
RTVSPropertyOp41
 70
     1
102
RTVSPropertyOp42
 70
     1
102
RTVSPropertyOp43
 70
     1
102
RTVSPropertyOp44
 70
     1
102
RTVSPropertyOp45
 70
     1
102
RTVSPropertyOp46
 70
     1
102
RTVSPropertyOp47
 70
     1
102
RTVSPropertyOp48
 70
     1
102
RTVSPropertyOp49
 70
     1
102
RTVSPropertyOp50
 70
     1
102
RTVSPropertyOp51
 70
     0
102
RTVSPropertyOp52
 70
     0
102
RTVSPropertyOp53
 70
     1
102
RTVSPropertyOp54
 70
     1
102
RTVSPropertyOp55
 70
     1
102
RTVSPropertyOp56
 70
     1
102
RTVSPropertyOp57
 70
     1
102
RTVSPropertyOp58
 70
     1
102
RTVSPropertyOp59
 70
     1
102
RTVSPropertyOp60
 70
     1
102
RTVSPropertyOp61
 70
     1
102
RTVSPropertyOp62
 70
     1
  0
XRECORD
  5
130D5
102
{ACAD_REACTORS
330
130D4
102
}
330
130D4
100
AcDbXrecord
280
     1
102
RTVSPost2010Prop28
280
     0
102
RTVSPost2010PropOp28
 70
     1
102
RTVSPost2010Prop29
280
     1
102
RTVSPost2010PropOp29
 70
     1
102
RTVSPost2010Prop30
280
     1
102
RTVSPost2010PropOp30
 70
     1
102
RTVSPost2010Prop31
280
     0
102
RTVSPost2010PropOp31
 70
     1
102
RTVSPost2010Prop32
280
     0
102
RTVSPost2010PropOp32
 70
     1
102
RTVSPost2010Prop33
280
     0
102
RTVSPost2010PropOp33
 70
     1
102
RTVSPost2010Prop34
280
     0
102
RTVSPost2010PropOp34
 70
     1
102
RTVSPost2010Prop35
280
     0
102
RTVSPost2010PropOp35
 70
     1
102
RTVSPost2010Prop36
280
     0
102
RTVSPost2010PropOp36
 70
     1
102
RTVSPost2010Prop37
 90
       50
102
RTVSPost2010PropOp37
 70
     1
102
RTVSPost2010Prop38
140
0.0
102
RTVSPost2010PropOp38
 70
     1
102
RTVSPost2010Prop39
140
1.0
102
RTVSPost2010PropOp39
 70
     1
102
RTVSPost2010Prop40
 90
        0
102
RTVSPost2010PropOp40
 70
     1
102
RTVSPost2010Prop41ColorIndex
 90
       18
102
RTVSPost2010Prop41ColorRGB
 90
        0
102
RTVSPost2010PropOp41
 70
     1
102
RTVSPost2010Prop42
 90
       50
102
RTVSPost2010PropOp42
 70
     1
102
RTVSPost2010Prop43
 90
        3
102
RTVSPost2010PropOp43
 70
     1
102
RTVSPost2010Prop44ColorIndex
 90
        5
102
RTVSPost2010Prop44ColorRGB
 90
      255
102
RTVSPost2010PropOp44
 70
     1
102
RTVSPost2010Prop45
280
     0
102
RTVSPost2010PropOp45
 70
     1
102
RTVSPost2010Prop46
 90
       50
102
RTVSPost2010PropOp46
 70
     1
102
RTVSPost2010Prop47
 90
       50
102
RTVSPost2010PropOp47
 70
     1
102
RTVSPost2010Prop48
 90
       50
102
RTVSPost2010PropOp48
 70
     1
102
RTVSPost2010Prop49
280
     0
102
RTVSPost2010PropOp49
 70
     1
102
RTVSPost2010Prop50
 90
       50
102
RTVSPost2010PropOp50
 70
     1
102
RTVSPost2010Prop51ColorIndex
 90
      256
102
RTVSPost2010Prop51ColorRGB
 90
-16777216
102
RTVSPost2010PropOp51
 70
     0
102
RTVSPost2010Prop52
140
1.0
102
RTVSPost2010PropOp52
 70
     0
102
RTVSPost2010Prop53
 90
        2
102
RTVSPost2010PropOp53
 70
     1
102
RTVSPost2010Prop54
  1
strokes_ogs.tif
102
RTVSPost2010PropOp54
 70
     1
102
RTVSPost2010Prop55
280
     0
102
RTVSPost2010PropOp55
 70
     1
102
RTVSPost2010Prop56
140
1.0
102
RTVSPost2010PropOp56
 70
     1
102
RTVSPost2010Prop57
140
1.0
102
RTVSPost2010PropOp57
 70
     1
102
RTVSPropertyOp0
 70
     1
102
RTVSPropertyOp1
 70
     1
102
RTVSPropertyOp2
 70
     1
102
RTVSPropertyOp3
 70
     1
102
RTVSPropertyOp4
 70
     1
102
RTVSPropertyOp5
 70
     1
102
RTVSPropertyOp6
 70
     1
102
RTVSPropertyOp7
 70
     1
102
RTVSPropertyOp8
 70
     1
102
RTVSPropertyOp9
 70
     1
102
RTVSPropertyOp10
 70
     1
102
RTVSPropertyOp11
 70
     1
102
RTVSPropertyOp12
 70
     1
102
RTVSPropertyOp13
 70
     1
102
RTVSPropertyOp14
 70
     1
102
RTVSPropertyOp15
 70
     1
102
RTVSPropertyOp16
 70
     1
102
RTVSPropertyOp17
 70
     1
102
RTVSPropertyOp18
 70
     1
102
RTVSPropertyOp19
 70
     1
102
RTVSPropertyOp20
 70
     1
102
RTVSPropertyOp21
 70
     1
102
RTVSPropertyOp22
 70
     1
102
RTVSPropertyOp23
 70
     1
102
RTVSPropertyOp24
 70
     1
102
RTVSPropertyOp25
 70
     1
102
RTVSPropertyOp26
 70
     1
102
RTVSPropertyOp27
 70
     1
102
RTVSPropertyOp28
 70
     1
102
RTVSPropertyOp29
 70
     1
102
RTVSPropertyOp30
 70
     1
102
RTVSPropertyOp31
 70
     1
102
RTVSPropertyOp32
 70
     1
102
RTVSPropertyOp33
 70
     1
102
RTVSPropertyOp34
 70
     1
102
RTVSPropertyOp35
 70
     1
102
RTVSPropertyOp36
 70
     1
102
RTVSPropertyOp37
 70
     1
102
RTVSPropertyOp38
 70
     1
102
RTVSPropertyOp39
 70
     1
102
RTVSPropertyOp40
 70
     1
102
RTVSPropertyOp41
 70
     1
102
RTVSPropertyOp42
 70
     1
102
RTVSPropertyOp43
 70
     1
102
RTVSPropertyOp44
 70
     1
102
RTVSPropertyOp45
 70
     1
102
RTVSPropertyOp46
 70
     1
102
RTVSPropertyOp47
 70
     1
102
RTVSPropertyOp48
 70
     1
102
RTVSPropertyOp49
 70
     1
102
RTVSPropertyOp50
 70
     1
102
RTVSPropertyOp51
 70
     0
102
RTVSPropertyOp52
 70
     0
102
RTVSPropertyOp53
 70
     1
102
RTVSPropertyOp54
 70
     1
102
RTVSPropertyOp55
 70
     1
102
RTVSPropertyOp56
 70
     1
102
RTVSPropertyOp57
 70
     1
102
RTVSPropertyOp58
 70
     1
102
RTVSPropertyOp59
 70
     1
102
RTVSPropertyOp60
 70
     1
102
RTVSPropertyOp61
 70
     1
102
RTVSPropertyOp62
 70
     1
  0
ENDSEC
  0
EOF
