  0
SECTION
  2
HEADER
  9
$ACADVER
  1
AC1015
  9
$ACADMAINTVER
 70
    20
  9
$DWGCODEPAGE
  3
ANSI_932
  9
$INSBASE
 10
0.0
 20
0.0
 30
0.0
  9
$EXTMIN
 10
10.0
 20
9.999999999999998
 30
0.0
  9
$EXTMAX
 10
1072.5
 20
734.4999999999998
 30
0.0
  9
$LIMMIN
 10
0.0
 20
0.0
  9
$LIMMAX
 10
1108.8
 20
764.4
  9
$ORTHOMODE
 70
     0
  9
$REGENMODE
 70
     1
  9
$FILLMODE
 70
     1
  9
$QTEXTMODE
 70
     0
  9
$MIRRTEXT
 70
     1
  9
$LTSCALE
 40
20.0
  9
$ATTMODE
 70
     1
  9
$TEXTSIZE
 40
5.0
  9
$TRACEWID
 40
1.0
  9
$TEXTSTYLE
  7
STANDARD
  9
$CLAYER
  8
0
  9
$CELTYPE
  6
BYLAYER
  9
$CECOLOR
 62
   256
  9
$CELTSCALE
 40
1.0
  9
$DISPSILH
 70
     0
  9
$DIMSCALE
 40
1.0
  9
$DIMASZ
 40
2.5
  9
$DIMEXO
 40
1.0
  9
$DIMDLI
 40
10.0
  9
$DIMRND
 40
0.0
  9
$DIMDLE
 40
0.0
  9
$DIMEXE
 40
1.0
  9
$DIMTP
 40
0.0
  9
$DIMTM
 40
0.0
  9
$DIMTXT
 40
2.5
  9
$DIMCEN
 40
0.0
  9
$DIMTSZ
 40
0.0
  9
$DIMTOL
 70
     0
  9
$DIMLIM
 70
     0
  9
$DIMTIH
 70
     0
  9
$DIMTOH
 70
     0
  9
$DIMSE1
 70
     0
  9
$DIMSE2
 70
     0
  9
$DIMTAD
 70
     3
  9
$DIMZIN
 70
     8
  9
$DIMBLK
  1

  9
$DIMASO
 70
     1
  9
$DIMSHO
 70
     1
  9
$DIMPOST
  1

  9
$DIMAPOST
  1

  9
$DIMALT
 70
     0
  9
$DIMALTD
 70
     2
  9
$DIMALTF
 40
25.4
  9
$DIMLFAC
 40
1.0
  9
$DIMTOFL
 70
     1
  9
$DIMTVP
 40
0.0
  9
$DIMTIX
 70
     0
  9
$DIMSOXD
 70
     0
  9
$DIMSAH
 70
     1
  9
$DIMBLK1
  1

  9
$DIMBLK2
  1

  9
$DIMSTYLE
  2
STANDARD
  9
$DIMCLRD
 70
     0
  9
$DIMCLRE
 70
     0
  9
$DIMCLRT
 70
     0
  9
$DIMTFAC
 40
1.0
  9
$DIMGAP
 40
1.0
  9
$DIMJUST
 70
     0
  9
$DIMSD1
 70
     0
  9
$DIMSD2
 70
     0
  9
$DIMTOLJ
 70
     1
  9
$DIMTZIN
 70
     0
  9
$DIMALTZ
 70
     0
  9
$DIMALTTZ
 70
     0
  9
$DIMUPT
 70
     0
  9
$DIMDEC
 70
     4
  9
$DIMTDEC
 70
     4
  9
$DIMALTU
 70
     2
  9
$DIMALTTD
 70
     2
  9
$DIMTXSTY
  7
STANDARD
  9
$DIMAUNIT
 70
     0
  9
$DIMADEC
 70
     0
  9
$DIMALTRND
 40
0.0
  9
$DIMAZIN
 70
     0
  9
$DIMDSEP
 70
    46
  9
$DIMATFIT
 70
     3
  9
$DIMFRAC
 70
     0
  9
$DIMLDRBLK
  1

  9
$DIMLUNIT
 70
     2
  9
$DIMLWD
 70
    -2
  9
$DIMLWE
 70
    -2
  9
$DIMTMOVE
 70
     0
  9
$LUNITS
 70
     2
  9
$LUPREC
 70
     4
  9
$SKETCHINC
 40
1.0
  9
$FILLETRAD
 40
0.0
  9
$AUNITS
 70
     0
  9
$AUPREC
 70
     2
  9
$MENU
  1
.
  9
$ELEVATION
 40
0.0
  9
$PELEVATION
 40
0.0
  9
$THICKNESS
 40
0.0
  9
$LIMCHECK
 70
     0
  9
$CHAMFERA
 40
10.0
  9
$CHAMFERB
 40
10.0
  9
$CHAMFERC
 40
0.0
  9
$CHAMFERD
 40
0.0
  9
$SKPOLY
 70
     0
  9
$TDCREATE
 40
2451263.698476158
  9
$TDUCREATE
 40
2451263.323476158
  9
$TDUPDATE
 40
2457192.661609144
  9
$TDUUPDATE
 40
2457192.286609144
  9
$TDINDWG
 40
0.0000144213
  9
$TDUSRTIMER
 40
0.0000143056
  9
$USRTIMER
 70
     1
  9
$ANGBASE
 50
0.0
  9
$ANGDIR
 70
     0
  9
$PDMODE
 70
     0
  9
$PDSIZE
 40
0.0
  9
$PLINEWID
 40
0.0
  9
$SPLFRAME
 70
     0
  9
$SPLINETYPE
 70
     6
  9
$SPLINESEGS
 70
     8
  9
$HANDSEED
  5
14F6D
  9
$SURFTAB1
 70
     6
  9
$SURFTAB2
 70
     6
  9
$SURFTYPE
 70
     6
  9
$SURFU
 70
     6
  9
$SURFV
 70
     6
  9
$UCSBASE
  2

  9
$UCSNAME
  2

  9
$UCSORG
 10
0.0
 20
0.0
 30
0.0
  9
$UCSXDIR
 10
1.0
 20
0.0
 30
0.0
  9
$UCSYDIR
 10
0.0
 20
1.0
 30
0.0
  9
$UCSORTHOREF
  2

  9
$UCSORTHOVIEW
 70
     0
  9
$UCSORGTOP
 10
0.0
 20
0.0
 30
0.0
  9
$UCSORGBOTTOM
 10
0.0
 20
0.0
 30
0.0
  9
$UCSORGLEFT
 10
0.0
 20
0.0
 30
0.0
  9
$UCSORGRIGHT
 10
0.0
 20
0.0
 30
0.0
  9
$UCSORGFRONT
 10
0.0
 20
0.0
 30
0.0
  9
$UCSORGBACK
 10
0.0
 20
0.0
 30
0.0
  9
$PUCSBASE
  2

  9
$PUCSNAME
  2

  9
$PUCSORG
 10
0.0
 20
0.0
 30
0.0
  9
$PUCSXDIR
 10
1.0
 20
0.0
 30
0.0
  9
$PUCSYDIR
 10
0.0
 20
1.0
 30
0.0
  9
$PUCSORTHOREF
  2

  9
$PUCSORTHOVIEW
 70
     0
  9
$PUCSORGTOP
 10
0.0
 20
0.0
 30
0.0
  9
$PUCSORGBOTTOM
 10
0.0
 20
0.0
 30
0.0
  9
$PUCSORGLEFT
 10
0.0
 20
0.0
 30
0.0
  9
$PUCSORGRIGHT
 10
0.0
 20
0.0
 30
0.0
  9
$PUCSORGFRONT
 10
0.0
 20
0.0
 30
0.0
  9
$PUCSORGBACK
 10
0.0
 20
0.0
 30
0.0
  9
$USERI1
 70
     0
  9
$USERI2
 70
     0
  9
$USERI3
 70
     0
  9
$USERI4
 70
     0
  9
$USERI5
 70
     0
  9
$USERR1
 40
0.0
  9
$USERR2
 40
0.0
  9
$USERR3
 40
0.0
  9
$USERR4
 40
0.0
  9
$USERR5
 40
0.0
  9
$WORLDVIEW
 70
     1
  9
$SHADEDGE
 70
     3
  9
$SHADEDIF
 70
    70
  9
$TILEMODE
 70
     1
  9
$MAXACTVP
 70
    16
  9
$PINSBASE
 10
0.0
 20
0.0
 30
0.0
  9
$PLIMCHECK
 70
     0
  9
$PEXTMIN
 10
1.000000000000000E+20
 20
1.000000000000000E+20
 30
1.000000000000000E+20
  9
$PEXTMAX
 10
-1.000000000000000E+20
 20
-1.000000000000000E+20
 30
-1.000000000000000E+20
  9
$PLIMMIN
 10
0.0
 20
0.0
  9
$PLIMMAX
 10
420.0
 20
297.0
  9
$UNITMODE
 70
     0
  9
$VISRETAIN
 70
     0
  9
$PLINEGEN
 70
     0
  9
$PSLTSCALE
 70
     0
  9
$TREEDEPTH
 70
  3020
  9
$CMLSTYLE
  2
STANDARD
  9
$CMLJUST
 70
     0
  9
$CMLSCALE
 40
1.0
  9
$PROXYGRAPHICS
 70
     1
  9
$MEASUREMENT
 70
     0
  9
$CELWEIGHT
370
    -1
  9
$ENDCAPS
280
     0
  9
$JOINSTYLE
280
     0
  9
$LWDISPLAY
290
     0
  9
$INSUNITS
 70
     0
  9
$HYPERLINKBASE
  1

  9
$STYLESHEET
  1

  9
$XEDIT
290
     1
  9
$CEPSNTYPE
380
     0
  9
$PSTYLEMODE
290
     1
  9
$FINGERPRINTGUID
  2
{575DED6C-C167-4454-A993-7AC8886FFB73}
  9
$VERSIONGUID
  2
{D131C1A3-FD66-4544-BA63-6DC879D72231}
  9
$EXTNAMES
290
     1
  9
$PSVPSCALE
 40
0.0
  9
$OLESTARTUP
290
     0
  0
ENDSEC
  0
SECTION
  2
CLASSES
  0
CLASS
  1
ACDBDICTIONARYWDFLT
  2
AcDbDictionaryWithDefault
  3
ObjectDBX Classes
 90
        0
280
     0
281
     0
  0
CLASS
  1
ACDBPLACEHOLDER
  2
AcDbPlaceHolder
  3
ObjectDBX Classes
 90
        0
280
     0
281
     0
  0
CLASS
  1
LAYOUT
  2
AcDbLayout
  3
ObjectDBX Classes
 90
        0
280
     0
281
     0
  0
CLASS
  1
DICTIONARYVAR
  2
AcDbDictionaryVar
  3
ObjectDBX Classes
 90
        0
280
     0
281
     0
  0
CLASS
  1
MATERIAL
  2
AcDbMaterial
  3
ObjectDBX Classes
 90
     1153
280
     0
281
     0
  0
CLASS
  1
VISUALSTYLE
  2
AcDbVisualStyle
  3
ObjectDBX Classes
 90
     4095
280
     0
281
     0
  0
CLASS
  1
TABLESTYLE
  2
AcDbTableStyle
  3
ObjectDBX Classes
 90
     4095
280
     0
281
     0
  0
CLASS
  1
SCALE
  2
AcDbScale
  3
ObjectDBX Classes
 90
     1153
280
     0
281
     0
  0
CLASS
  1
MLEADERSTYLE
  2
AcDbMLeaderStyle
  3
ACDB_MLEADERSTYLE_CLASS
 90
     4095
280
     0
281
     0
  0
CLASS
  1
ACDBSECTIONVIEWSTYLE
  2
AcDbSectionViewStyle
  3
ObjectDBX Classes
 90
     1025
280
     0
281
     0
  0
CLASS
  1
ACDBDETAILVIEWSTYLE
  2
AcDbDetailViewStyle
  3
ObjectDBX Classes
 90
     1025
280
     0
281
     0
  0
CLASS
  1
CELLSTYLEMAP
  2
AcDbCellStyleMap
  3
ObjectDBX Classes
 90
     1152
280
     0
281
     0
  0
ENDSEC
  0
SECTION
  2
TABLES
  0
TABLE
  2
VPORT
  5
1497F
330
0
100
AcDbSymbolTable
 70
     1
  0
VPORT
  5
14EB6
330
1497F
100
AcDbSymbolTableRecord
100
AcDbViewportTableRecord
  2
*ACTIVE
 70
     0
 10
0.0
 20
0.0
 11
1.0
 21
1.0
 12
760.7005810233196
 22
372.2274370708821
 13
0.0
 23
0.0
 14
10.0
 24
10.0
 15
10.0
 25
10.0
 16
0.0
 26
0.0
 36
1.0
 17
0.0
 27
0.0
 37
0.0
 40
732.6601378091749
 41
1.899603698811096
 42
50.0
 43
0.0
 44
0.0
 50
0.0
 51
0.0
 71
     0
 72
   100
 73
     1
 74
     0
 75
     0
 76
     0
 77
     0
 78
     0
281
     0
 65
     1
110
0.0
120
0.0
130
0.0
111
1.0
121
0.0
131
0.0
112
0.0
122
1.0
132
0.0
 79
     0
146
0.0
1001
ACAD_NAV_VCDISPLAY
1070
     3
  0
ENDTAB
  0
TABLE
  2
LTYPE
  5
1497C
330
0
100
AcDbSymbolTable
 70
     4
  0
LTYPE
  5
1498A
330
1497C
100
AcDbSymbolTableRecord
100
AcDbLinetypeTableRecord
  2
BYBLOCK
 70
     0
  3

 72
    65
 73
     0
 40
0.0
  0
LTYPE
  5
1498B
330
1497C
100
AcDbSymbolTableRecord
100
AcDbLinetypeTableRecord
  2
BYLAYER
 70
     0
  3

 72
    65
 73
     0
 40
0.0
  0
LTYPE
  5
1498C
330
1497C
100
AcDbSymbolTableRecord
100
AcDbLinetypeTableRecord
  2
CONTINUOUS
 70
     0
  3
Solid line
 72
    65
 73
     0
 40
0.0
  0
LTYPE
  5
1499A
330
1497C
100
AcDbSymbolTableRecord
100
AcDbLinetypeTableRecord
  2
DASHED
 70
     0
  3
__ __ __ __ __ __ __ __ __ __ __ __ __ __ __ __
 72
    65
 73
     2
 40
0.75
 49
0.5
 74
     0
 49
-0.25
 74
     0
  0
LTYPE
  5
1499B
330
1497C
100
AcDbSymbolTableRecord
100
AcDbLinetypeTableRecord
  2
CENTER
 70
     0
  3
____ _ ____ _ ____ _ ____ _ ____ _ ____ _ ____ 
 72
    65
 73
     4
 40
2.0
 49
1.25
 74
     0
 49
-0.25
 74
     0
 49
0.25
 74
     0
 49
-0.25
 74
     0
  0
LTYPE
  5
1499C
330
1497C
100
AcDbSymbolTableRecord
100
AcDbLinetypeTableRecord
  2
PHANTOM
 70
     0
  3
______  __  __  ______  __  __  ______  __  __ 
 72
    65
 73
     6
 40
2.5
 49
1.25
 74
     0
 49
-0.25
 74
     0
 49
0.25
 74
     0
 49
-0.25
 74
     0
 49
0.25
 74
     0
 49
-0.25
 74
     0
  0
ENDTAB
  0
TABLE
  2
LAYER
  5
14979
330
0
100
AcDbSymbolTable
 70
     8
  0
LAYER
  5
14987
102
{ACAD_XDICTIONARY
360
14F11
102
}
330
14979
100
AcDbSymbolTableRecord
100
AcDbLayerTableRecord
  2
0
 70
     0
 62
     7
  6
CONTINUOUS
370
    -3
390
14EBF
  0
LAYER
  5
1499D
102
{ACAD_XDICTIONARY
360
14F13
102
}
330
14979
100
AcDbSymbolTableRecord
100
AcDbLayerTableRecord
  2
4
 70
     0
 62
     1
  6
CENTER
370
    -3
390
14EBF
  0
LAYER
  5
1499E
102
{ACAD_XDICTIONARY
360
14F15
102
}
330
14979
100
AcDbSymbolTableRecord
100
AcDbLayerTableRecord
  2
5
 70
     0
 62
     6
  6
PHANTOM
370
    -3
390
14EBF
  0
LAYER
  5
1499F
102
{ACAD_XDICTIONARY
360
14F17
102
}
330
14979
100
AcDbSymbolTableRecord
100
AcDbLayerTableRecord
  2
1
 70
     0
 62
     7
  6
CONTINUOUS
370
    -3
390
14EBF
  0
LAYER
  5
149A0
102
{ACAD_XDICTIONARY
360
14F19
102
}
330
14979
100
AcDbSymbolTableRecord
100
AcDbLayerTableRecord
  2
2
 70
     0
 62
     4
  6
CONTINUOUS
370
    -3
390
14EBF
  0
LAYER
  5
149A1
102
{ACAD_XDICTIONARY
360
14F1B
102
}
330
14979
100
AcDbSymbolTableRecord
100
AcDbLayerTableRecord
  2
3
 70
     0
 62
     2
  6
DASHED
370
    -3
390
14EBF
  0
LAYER
  5
149A2
102
{ACAD_XDICTIONARY
360
14F1D
102
}
330
14979
100
AcDbSymbolTableRecord
100
AcDbLayerTableRecord
  2
6
 70
     0
 62
     5
  6
CONTINUOUS
370
    -3
390
14EBF
  0
LAYER
  5
149A3
102
{ACAD_XDICTIONARY
360
14F1F
102
}
330
14979
100
AcDbSymbolTableRecord
100
AcDbLayerTableRecord
  2
7
 70
     0
 62
     3
  6
CONTINUOUS
370
    -3
390
14EBF
  0
ENDTAB
  0
TABLE
  2
STYLE
  5
1497A
330
0
100
AcDbSymbolTable
 70
     1
  0
STYLE
  5
14988
330
1497A
100
AcDbSymbolTableRecord
100
AcDbTextStyleTableRecord
  2
STANDARD
 70
     0
 40
0.0
 41
1.0
 50
0.0
 71
     0
 42
5.0
  3
txt
  4

  0
ENDTAB
  0
TABLE
  2
VIEW
  5
1497D
330
0
100
AcDbSymbolTable
 70
     0
  0
ENDTAB
  0
TABLE
  2
UCS
  5
1497E
330
0
100
AcDbSymbolTable
 70
     0
  0
ENDTAB
  0
TABLE
  2
APPID
  5
14980
330
0
100
AcDbSymbolTable
 70
     3
  0
APPID
  5
14989
330
14980
100
AcDbSymbolTableRecord
100
AcDbRegAppTableRecord
  2
ACAD
 70
     0
  0
APPID
  5
14F2B
330
14980
100
AcDbSymbolTableRecord
100
AcDbRegAppTableRecord
  2
ACAD_NAV_VCDISPLAY
 70
     0
  0
APPID
  5
14F64
330
14980
100
AcDbSymbolTableRecord
100
AcDbRegAppTableRecord
  2
ACAD_MLEADERVER
 70
     0
  0
ENDTAB
  0
TABLE
  2
DIMSTYLE
  5
14981
330
0
100
AcDbSymbolTable
 70
     1
100
AcDbDimStyleTable
 71
     0
  0
DIMSTYLE
105
149A5
330
14981
100
AcDbSymbolTableRecord
100
AcDbDimStyleTableRecord
  2
STANDARD
 70
     0
 41
2.5
 42
1.0
 43
10.0
 44
1.0
 73
     0
 74
     0
 77
     3
 78
     8
140
2.5
141
0.0
147
1.0
172
     1
173
     1
284
     8
285
     8
286
     8
340
14988
  0
ENDTAB
  0
TABLE
  2
BLOCK_RECORD
  5
14978
330
0
100
AcDbSymbolTable
 70
     0
  0
BLOCK_RECORD
  5
14995
102
{ACAD_XDICTIONARY
360
14EB9
102
}
330
14978
100
AcDbSymbolTableRecord
100
AcDbBlockTableRecord
  2
*MODEL_SPACE
340
14F0D
  0
BLOCK_RECORD
  5
14991
102
{ACAD_XDICTIONARY
360
14EB7
102
}
330
14978
100
AcDbSymbolTableRecord
100
AcDbBlockTableRecord
  2
*PAPER_SPACE
340
14F0E
  0
ENDTAB
  0
ENDSEC
  0
SECTION
  2
BLOCKS
  0
BLOCK
  5
14996
330
14995
100
AcDbEntity
  8
0
100
AcDbBlockBegin
  2
*MODEL_SPACE
 70
     0
 10
0.0
 20
0.0
 30
0.0
  3
*MODEL_SPACE
  1

  0
ENDBLK
  5
14997
330
14995
100
AcDbEntity
  8
0
100
AcDbBlockEnd
  0
BLOCK
  5
14992
330
14991
100
AcDbEntity
 67
     1
  8
0
100
AcDbBlockBegin
  2
*PAPER_SPACE
 70
     0
 10
0.0
 20
0.0
 30
0.0
  3
*PAPER_SPACE
  1

  0
ENDBLK
  5
14993
330
14991
100
AcDbEntity
 67
     1
  8
0
100
AcDbBlockEnd
  0
ENDSEC
  0
SECTION
  2
ENTITIES
  0
TEXT
  5
149AD
330
14995
100
AcDbEntity
  8
7
  6
Continuous
100
AcDbText
 10
10.0
 20
18.0
 30
0.0
 40
3.0
  1
TYPE No.TM-211-5
100
AcDbText
  0
TEXT
  5
149AE
330
14995
100
AcDbEntity
  8
7
  6
Continuous
100
AcDbText
 10
10.0
 20
26.0
 30
0.0
 40
3.0
  1
CODE No.5795
100
AcDbText
  0
TEXT
  5
149AF
330
14995
100
AcDbEntity
  8
1
  6
Continuous
100
AcDbText
 10
10.0
 20
10.0
 30
0.0
 40
1.399999999999999
  1
LAYER
100
AcDbText
  0
TEXT
  5
149B0
330
14995
100
AcDbEntity
  8
1
  6
Continuous
100
AcDbText
 10
17.97951099999998
 20
10.04873699999998
 30
0.0
 40
1.399999999999999
  1
1
100
AcDbText
  0
TEXT
  5
149B1
330
14995
100
AcDbEntity
  8
7
  6
Continuous
100
AcDbText
 10
29.97951099999999
 20
10.04873699999998
 30
0.0
 40
1.399999999999999
  1
7
100
AcDbText
  0
TEXT
  5
149B2
330
14995
100
AcDbEntity
  8
4
  6
CENTER
100
AcDbText
 10
23.97951099999999
 20
10.04873699999998
 30
0.0
 40
1.399999999999999
  1
4
100
AcDbText
  0
TEXT
  5
149B3
330
14995
100
AcDbEntity
  8
3
  6
DASHED
100
AcDbText
 10
21.979511
 20
10.04873699999998
 30
0.0
 40
1.399999999999999
  1
3
100
AcDbText
  0
TEXT
  5
149B4
330
14995
100
AcDbEntity
  8
2
  6
Continuous
100
AcDbText
 10
19.97951099999999
 20
10.04873699999998
 30
0.0
 40
1.399999999999999
  1
2
100
AcDbText
  0
TEXT
  5
149B5
330
14995
100
AcDbEntity
  8
6
  6
Continuous
100
AcDbText
 10
27.979511
 20
10.04873699999998
 30
0.0
 40
1.399999999999999
  1
6
100
AcDbText
  0
TEXT
  5
149B6
330
14995
100
AcDbEntity
  8
5
  6
PHANTOM
100
AcDbText
 10
25.97951099999999
 20
10.04873699999998
 30
0.0
 40
1.399999999999999
  1
5
100
AcDbText
  0
CIRCLE
  5
149B7
330
14995
100
AcDbEntity
  8
1
  6
Continuous
100
AcDbCircle
 10
506.0
 20
319.5
 30
0.0
 40
5.0
  0
CIRCLE
  5
149B8
330
14995
100
AcDbEntity
  8
1
  6
Continuous
100
AcDbCircle
 10
506.0
 20
319.5
 30
0.0
 40
3.0
  0
LINE
  5
149B9
330
14995
100
AcDbEntity
  8
3
  6
DASHED
100
AcDbLine
 10
603.0
 20
307.0
 30
0.0
 11
585.5
 21
307.0
 31
0.0
  0
LINE
  5
149BA
330
14995
100
AcDbEntity
  8
4
  6
CENTER
100
AcDbLine
 10
606.0
 20
317.0
 30
0.0
 11
559.25
 21
317.0
 31
0.0
  0
LINE
  5
149BB
330
14995
100
AcDbEntity
  8
1
  6
Continuous
100
AcDbLine
 10
597.7639319999998
 20
331.0
 30
0.0
 11
111.0
 21
331.0
 31
0.0
  0
LINE
  5
149BC
330
14995
100
AcDbEntity
  8
1
  6
Continuous
100
AcDbLine
 10
942.0
 20
329.4999999999999
 30
0.0
 11
574.5781950000001
 21
329.4999999999999
 31
0.0
  0
LINE
  5
149BD
330
14995
100
AcDbEntity
  8
1
  6
Continuous
100
AcDbLine
 10
985.0
 20
303.5
 30
0.0
 11
559.0
 21
303.5
 31
0.0
  0
LINE
  5
149BE
330
14995
100
AcDbEntity
  8
1
  6
Continuous
100
AcDbLine
 10
970.0
 20
332.0
 30
0.0
 11
942.0
 21
329.4999999999999
 31
0.0
  0
ARC
  5
149BF
330
14995
100
AcDbEntity
  8
1
  6
Continuous
100
AcDbCircle
 10
983.5
 20
327.1145589999998
 30
0.0
 40
1.5
100
AcDbArc
 50
286.772393
 51
0.0
  0
LINE
  5
149C0
330
14995
100
AcDbEntity
  8
1
  6
Continuous
100
AcDbLine
 10
985.0
 20
332.0
 30
0.0
 11
970.0
 21
332.0
 31
0.0
  0
LINE
  5
149C1
330
14995
100
AcDbEntity
  8
1
  6
Continuous
100
AcDbLine
 10
985.0
 20
332.0
 30
0.0
 11
985.0
 21
327.1145589999998
 31
0.0
  0
LINE
  5
149C2
330
14995
100
AcDbEntity
  8
1
  6
Continuous
100
AcDbLine
 10
983.932856
 20
325.6783709999999
 30
0.0
 11
976.422859
 21
323.414917
 31
0.0
  0
LINE
  5
149C3
330
14995
100
AcDbEntity
  8
1
  6
Continuous
100
AcDbLine
 10
983.5
 20
319.5
 30
0.0
 11
977.0
 21
319.5
 31
0.0
  0
LINE
  5
149C4
330
14995
100
AcDbEntity
  8
1
  6
Continuous
100
AcDbLine
 10
980.8581949999997
 20
314.619837
 30
0.0
 11
977.273397
 21
316.3944419999999
 31
0.0
  0
ARC
  5
149C5
330
14995
100
AcDbEntity
  8
1
  6
Continuous
100
AcDbCircle
 10
971.0
 20
319.5
 30
0.0
 40
11.0
100
AcDbArc
 50
296.3370750000001
 51
333.6629249999999
  0
LINE
  5
149C6
330
14995
100
AcDbEntity
  8
1
  6
Continuous
100
AcDbLine
 10
985.0
 20
318.0
 30
0.0
 11
985.0
 21
303.5
 31
0.0
  0
ARC
  5
149C7
330
14995
100
AcDbEntity
  8
1
  6
Continuous
100
AcDbCircle
 10
983.5
 20
318.0
 30
0.0
 40
1.5
100
AcDbArc
 50
0.0
 51
90.0
  0
LINE
  5
149C8
330
14995
100
AcDbEntity
  8
4
  6
CENTER
100
AcDbLine
 10
975.75
 20
319.5
 30
0.0
 11
954.25
 21
319.5
 31
0.0
  0
ARC
  5
149C9
330
14995
100
AcDbEntity
  8
1
  6
Continuous
100
AcDbCircle
 10
977.0
 20
321.4999999999998
 30
0.0
 40
2.0
100
AcDbArc
 50
106.7723929999998
 51
270.0
  0
ARC
  5
149CA
330
14995
100
AcDbEntity
  8
1
  6
Continuous
100
AcDbCircle
 10
971.0
 20
319.5
 30
0.0
 40
7.0
100
AcDbArc
 50
296.3370750000001
 51
333.6629249999999
  0
LINE
  5
149CB
330
14995
100
AcDbEntity
  8
1
  6
Continuous
100
AcDbLine
 10
975.880163
 20
309.641805
 30
0.0
 11
974.1055579999999
 21
313.2266029999998
 31
0.0
  0
CIRCLE
  5
149CC
330
14995
100
AcDbEntity
  8
1
  6
Continuous
100
AcDbCircle
 10
970.0
 20
319.5
 30
0.0
 40
2.399999999999999
  0
LINE
  5
149CD
330
14995
100
AcDbEntity
  8
4
  6
CENTER
100
AcDbLine
 10
970.0
 20
325.2499999999999
 30
0.0
 11
970.0
 21
313.75
 31
0.0
  0
LINE
  5
149CE
330
14995
100
AcDbEntity
  8
1
  6
Continuous
100
AcDbLine
 10
962.4
 20
320.5
 30
0.0
 11
962.4
 21
318.5
 31
0.0
  0
ARC
  5
149CF
330
14995
100
AcDbEntity
  8
1
  6
Continuous
100
AcDbCircle
 10
960.0
 20
320.5
 30
0.0
 40
2.399999999999999
100
AcDbArc
 50
0.0
 51
180.0
  0
LINE
  5
149D0
330
14995
100
AcDbEntity
  8
1
  6
Continuous
100
AcDbLine
 10
957.6
 20
320.5
 30
0.0
 11
957.6
 21
318.5
 31
0.0
  0
ARC
  5
149D1
330
14995
100
AcDbEntity
  8
1
  6
Continuous
100
AcDbCircle
 10
960.0
 20
318.5
 30
0.0
 40
2.399999999999999
100
AcDbArc
 50
180.0
 51
0.0
  0
LINE
  5
149D2
330
14995
100
AcDbEntity
  8
4
  6
CENTER
100
AcDbLine
 10
960.0
 20
326.25
 30
0.0
 11
960.0
 21
312.7499999999999
 31
0.0
  0
LINE
  5
149D3
330
14995
100
AcDbEntity
  8
4
  6
CENTER
100
AcDbLine
 10
539.25
 20
319.5
 30
0.0
 11
560.7499999999999
 21
319.5
 31
0.0
  0
LINE
  5
149D4
330
14995
100
AcDbEntity
  8
1
  6
Continuous
100
AcDbLine
 10
554.0
 20
303.5
 30
0.0
 11
491.0
 21
303.5
 31
0.0
  0
LINE
  5
149D5
330
14995
100
AcDbEntity
  8
4
  6
CENTER
100
AcDbLine
 10
645.25
 20
319.5
 30
0.0
 11
656.7499999999999
 21
319.5
 31
0.0
  0
LINE
  5
149D6
330
14995
100
AcDbEntity
  8
4
  6
CENTER
100
AcDbLine
 10
651.0
 20
325.2499999999999
 30
0.0
 11
651.0
 21
313.75
 31
0.0
  0
CIRCLE
  5
149D7
330
14995
100
AcDbEntity
  8
1
  6
Continuous
100
AcDbCircle
 10
651.0
 20
319.5
 30
0.0
 40
2.399999999999999
  0
LINE
  5
149D8
330
14995
100
AcDbEntity
  8
1
  6
Continuous
100
AcDbLine
 10
558.0
 20
305.0
 30
0.0
 11
554.0
 21
303.5
 31
0.0
  0
LINE
  5
149D9
330
14995
100
AcDbEntity
  8
1
  6
Continuous
100
AcDbLine
 10
559.0
 20
305.0
 30
0.0
 11
559.0
 21
303.5
 31
0.0
  0
LINE
  5
149DA
330
14995
100
AcDbEntity
  8
4
  6
CENTER
100
AcDbLine
 10
506.0
 20
334.5
 30
0.0
 11
506.0
 21
304.4999999999999
 31
0.0
  0
LINE
  5
149DB
330
14995
100
AcDbEntity
  8
1
  6
Continuous
100
AcDbLine
 10
489.0
 20
327.4999999999999
 30
0.0
 11
489.0
 21
305.5
 31
0.0
  0
LINE
  5
149DC
330
14995
100
AcDbEntity
  8
1
  6
Continuous
100
AcDbLine
 10
574.5781950000001
 20
329.4999999999999
 30
0.0
 11
539.5
 21
329.4999999999999
 31
0.0
  0
LINE
  5
149DD
330
14995
100
AcDbEntity
  8
4
  6
CENTER
100
AcDbLine
 10
521.0
 20
319.5
 30
0.0
 11
491.0
 21
319.5
 31
0.0
  0
LINE
  5
149DE
330
14995
100
AcDbEntity
  8
4
  6
CENTER
100
AcDbLine
 10
514.25
 20
311.5
 30
0.0
 11
525.75
 21
311.5
 31
0.0
  0
LINE
  5
149DF
330
14995
100
AcDbEntity
  8
4
  6
CENTER
100
AcDbLine
 10
545.0
 20
324.8999999999999
 30
0.0
 11
545.0
 21
314.1
 31
0.0
  0
LINE
  5
149E0
330
14995
100
AcDbEntity
  8
4
  6
CENTER
100
AcDbLine
 10
494.55
 20
311.2999999999999
 30
0.0
 11
494.55
 21
303.8
 31
0.0
  0
LINE
  5
149E1
330
14995
100
AcDbEntity
  8
4
  6
CENTER
100
AcDbLine
 10
520.0
 20
317.2499999999998
 30
0.0
 11
520.0
 21
305.75
 31
0.0
  0
LINE
  5
149E2
330
14995
100
AcDbEntity
  8
4
  6
CENTER
100
AcDbLine
 10
490.8
 20
307.55
 30
0.0
 11
498.3
 21
307.55
 31
0.0
  0
LINE
  5
149E3
330
14995
100
AcDbEntity
  8
1
  6
Continuous
100
AcDbLine
 10
156.0
 20
307.0
 30
0.0
 11
127.0
 21
304.4999999999999
 31
0.0
  0
LINE
  5
149E4
330
14995
100
AcDbEntity
  8
4
  6
CENTER
100
AcDbLine
 10
119.25
 20
317.0
 30
0.0
 11
140.7499999999998
 21
317.0
 31
0.0
  0
LINE
  5
149E5
330
14995
100
AcDbEntity
  8
3
  6
DASHED
100
AcDbLine
 10
580.0
 20
307.0
 30
0.0
 11
489.0
 21
307.0
 31
0.0
  0
LINE
  5
149E6
330
14995
100
AcDbEntity
  8
4
  6
CENTER
100
AcDbLine
 10
591.0
 20
332.0
 30
0.0
 11
591.0
 21
302.0
 31
0.0
  0
CIRCLE
  5
149E7
330
14995
100
AcDbEntity
  8
1
  6
Continuous
100
AcDbCircle
 10
545.0
 20
319.5
 30
0.0
 40
2.399999999999999
  0
LINE
  5
149E8
330
14995
100
AcDbEntity
  8
3
  6
DASHED
100
AcDbLine
 10
580.0
 20
308.4999999999999
 30
0.0
 11
580.0
 21
307.0
 31
0.0
  0
LINE
  5
149E9
330
14995
100
AcDbEntity
  8
3
  6
DASHED
100
AcDbLine
 10
581.5
 20
308.4999999999999
 30
0.0
 11
585.5
 21
307.0
 31
0.0
  0
LINE
  5
149EA
330
14995
100
AcDbEntity
  8
1
  6
Continuous
100
AcDbLine
 10
552.6
 20
320.5
 30
0.0
 11
552.6
 21
318.5
 31
0.0
  0
ARC
  5
149EB
330
14995
100
AcDbEntity
  8
1
  6
Continuous
100
AcDbCircle
 10
555.0
 20
320.5
 30
0.0
 40
2.399999999999999
100
AcDbArc
 50
0.0
 51
180.0
  0
LINE
  5
149EC
330
14995
100
AcDbEntity
  8
1
  6
Continuous
100
AcDbLine
 10
557.3999999999998
 20
320.5
 30
0.0
 11
557.3999999999998
 21
318.5
 31
0.0
  0
ARC
  5
149ED
330
14995
100
AcDbEntity
  8
1
  6
Continuous
100
AcDbCircle
 10
555.0
 20
318.5
 30
0.0
 40
2.399999999999999
100
AcDbArc
 50
180.0
 51
0.0
  0
LINE
  5
149EE
330
14995
100
AcDbEntity
  8
4
  6
CENTER
100
AcDbLine
 10
470.75
 20
317.0
 30
0.0
 11
449.2499999999998
 21
317.0
 31
0.0
  0
ARC
  5
149EF
330
14995
100
AcDbEntity
  8
1
  6
Continuous
100
AcDbCircle
 10
455.0
 20
316.0
 30
0.0
 40
2.399999999999999
100
AcDbArc
 50
180.0
 51
0.0
  0
ARC
  5
149F0
330
14995
100
AcDbEntity
  8
1
  6
Continuous
100
AcDbCircle
 10
455.0
 20
318.0
 30
0.0
 40
2.399999999999999
100
AcDbArc
 50
0.0
 51
180.0
  0
LINE
  5
149F1
330
14995
100
AcDbEntity
  8
1
  6
Continuous
100
AcDbLine
 10
457.3999999999998
 20
318.0
 30
0.0
 11
457.3999999999998
 21
316.0
 31
0.0
  0
LINE
  5
149F2
330
14995
100
AcDbEntity
  8
4
  6
CENTER
100
AcDbLine
 10
455.0
 20
323.75
 30
0.0
 11
455.0
 21
310.25
 31
0.0
  0
CIRCLE
  5
149F3
330
14995
100
AcDbEntity
  8
1
  6
Continuous
100
AcDbCircle
 10
465.0
 20
317.0
 30
0.0
 40
2.399999999999999
  0
LINE
  5
149F4
330
14995
100
AcDbEntity
  8
4
  6
CENTER
100
AcDbLine
 10
465.0
 20
322.75
 30
0.0
 11
465.0
 21
311.25
 31
0.0
  0
LINE
  5
149F5
330
14995
100
AcDbEntity
  8
1
  6
Continuous
100
AcDbLine
 10
452.6
 20
318.0
 30
0.0
 11
452.6
 21
316.0
 31
0.0
  0
LINE
  5
149F6
330
14995
100
AcDbEntity
  8
4
  6
CENTER
100
AcDbLine
 10
135.0
 20
323.75
 30
0.0
 11
135.0
 21
310.25
 31
0.0
  0
LINE
  5
149F7
330
14995
100
AcDbEntity
  8
1
  6
Continuous
100
AcDbLine
 10
137.4
 20
318.0
 30
0.0
 11
137.4
 21
316.0
 31
0.0
  0
ARC
  5
149F8
330
14995
100
AcDbEntity
  8
1
  6
Continuous
100
AcDbCircle
 10
135.0
 20
318.0
 30
0.0
 40
2.399999999999999
100
AcDbArc
 50
0.0
 51
180.0
  0
LINE
  5
149F9
330
14995
100
AcDbEntity
  8
1
  6
Continuous
100
AcDbLine
 10
132.6
 20
318.0
 30
0.0
 11
132.6
 21
316.0
 31
0.0
  0
ARC
  5
149FA
330
14995
100
AcDbEntity
  8
1
  6
Continuous
100
AcDbCircle
 10
135.0
 20
316.0
 30
0.0
 40
2.399999999999999
100
AcDbArc
 50
180.0
 51
0.0
  0
LINE
  5
149FB
330
14995
100
AcDbEntity
  8
1
  6
Continuous
100
AcDbLine
 10
109.0
 20
318.5
 30
0.0
 11
109.0
 21
329.0
 31
0.0
  0
ARC
  5
149FC
330
14995
100
AcDbEntity
  8
1
  6
Continuous
100
AcDbCircle
 10
111.0
 20
329.0
 30
0.0
 40
2.0
100
AcDbArc
 50
90.0
 51
180.0
  0
LINE
  5
149FD
330
14995
100
AcDbEntity
  8
1
  6
Continuous
100
AcDbLine
 10
109.0
 20
304.4999999999999
 30
0.0
 11
109.0
 21
309.385441
 31
0.0
  0
LINE
  5
149FE
330
14995
100
AcDbEntity
  8
1
  6
Continuous
100
AcDbLine
 10
110.4999999999999
 20
317.0
 30
0.0
 11
117.0
 21
317.0
 31
0.0
  0
LINE
  5
149FF
330
14995
100
AcDbEntity
  8
1
  6
Continuous
100
AcDbLine
 10
110.0671439999999
 20
310.8216289999999
 30
0.0
 11
117.577141
 21
313.0850829999999
 31
0.0
  0
ARC
  5
14A00
330
14995
100
AcDbEntity
  8
1
  6
Continuous
100
AcDbCircle
 10
117.0
 20
315.0
 30
0.0
 40
2.0
100
AcDbArc
 50
286.772393
 51
90.0
  0
LINE
  5
14A01
330
14995
100
AcDbEntity
  8
4
  6
CENTER
100
AcDbLine
 10
125.0
 20
322.75
 30
0.0
 11
125.0
 21
311.25
 31
0.0
  0
CIRCLE
  5
14A02
330
14995
100
AcDbEntity
  8
1
  6
Continuous
100
AcDbCircle
 10
125.0
 20
317.0
 30
0.0
 40
2.399999999999999
  0
ARC
  5
14A03
330
14995
100
AcDbEntity
  8
1
  6
Continuous
100
AcDbCircle
 10
110.4999999999999
 20
318.5
 30
0.0
 40
1.5
100
AcDbArc
 50
180.0
 51
270.0
  0
ARC
  5
14A04
330
14995
100
AcDbEntity
  8
1
  6
Continuous
100
AcDbCircle
 10
110.4999999999999
 20
309.385441
 30
0.0
 40
1.5
100
AcDbArc
 50
106.7723929999998
 51
180.0
  0
LINE
  5
14A05
330
14995
100
AcDbEntity
  8
1
  6
Continuous
100
AcDbLine
 10
109.0
 20
304.4999999999999
 30
0.0
 11
127.0
 21
304.4999999999999
 31
0.0
  0
ARC
  5
14A06
330
14995
100
AcDbEntity
  8
1
  6
Continuous
100
AcDbCircle
 10
506.0
 20
319.5
 30
0.0
 40
11.0
100
AcDbArc
 50
65.38002299999999
 51
114.619977
  0
LINE
  5
14A07
330
14995
100
AcDbEntity
  8
1
  6
Continuous
100
AcDbLine
 10
985.0
 20
233.4999999999999
 30
0.0
 11
489.0
 21
233.4999999999999
 31
0.0
  0
LINE
  5
14A08
330
14995
100
AcDbEntity
  8
1
  6
Continuous
100
AcDbLine
 10
605.0
 20
221.0
 30
0.0
 11
109.0
 21
221.0
 31
0.0
  0
LINE
  5
14A09
330
14995
100
AcDbEntity
  8
1
  6
Continuous
100
AcDbLine
 10
985.0
 20
151.0
 30
0.0
 11
559.0
 21
151.0
 31
0.0
  0
LINE
  5
14A0A
330
14995
100
AcDbEntity
  8
1
  6
Continuous
100
AcDbLine
 10
985.0
 20
149.5
 30
0.0
 11
558.0
 21
149.5
 31
0.0
  0
LINE
  5
14A0B
330
14995
100
AcDbEntity
  8
1
  6
Continuous
100
AcDbLine
 10
942.0
 20
125.0
 30
0.0
 11
599.75
 21
125.0
 31
0.0
  0
LINE
  5
14A0C
330
14995
100
AcDbEntity
  8
1
  6
Continuous
100
AcDbLine
 10
580.0
 20
147.5
 30
0.0
 11
156.0
 21
147.5
 31
0.0
  0
LINE
  5
14A0D
330
14995
100
AcDbEntity
  8
1
  6
Continuous
100
AcDbLine
 10
597.7639319999998
 20
123.5
 30
0.0
 11
111.0
 21
123.5
 31
0.0
  0
LINE
  5
14A0E
330
14995
100
AcDbEntity
  8
1
  6
Continuous
100
AcDbLine
 10
156.0
 20
147.5
 30
0.0
 11
127.0
 21
150.0
 31
0.0
  0
LINE
  5
14A0F
330
14995
100
AcDbEntity
  8
1
  6
Continuous
100
AcDbLine
 10
109.0
 20
150.0
 30
0.0
 11
109.0
 21
145.114559
 31
0.0
  0
LINE
  5
14A10
330
14995
100
AcDbEntity
  8
1
  6
Continuous
100
AcDbLine
 10
114.0
 20
150.0
 30
0.0
 11
114.0
 21
148.0
 31
0.0
  0
ARC
  5
14A11
330
14995
100
AcDbEntity
  8
1
  6
Continuous
100
AcDbCircle
 10
115.5
 20
148.0
 30
0.0
 40
1.5
100
AcDbArc
 50
180.0
 51
270.0
  0
LINE
  5
14A12
330
14995
100
AcDbEntity
  8
1
  6
Continuous
100
AcDbLine
 10
110.0671439999999
 20
143.678371
 30
0.0
 11
117.577141
 21
141.4149169999998
 31
0.0
  0
LINE
  5
14A13
330
14995
100
AcDbEntity
  8
1
  6
Continuous
100
AcDbLine
 10
110.4999999999999
 20
137.5
 30
0.0
 11
117.0
 21
137.5
 31
0.0
  0
LINE
  5
14A14
330
14995
100
AcDbEntity
  8
1
  6
Continuous
100
AcDbLine
 10
114.0
 20
148.5
 30
0.0
 11
126.9354649999998
 21
148.5
 31
0.0
  0
LINE
  5
14A15
330
14995
100
AcDbEntity
  8
1
  6
Continuous
100
AcDbLine
 10
109.0
 20
136.0
 30
0.0
 11
109.0
 21
125.5
 31
0.0
  0
ARC
  5
14A16
330
14995
100
AcDbEntity
  8
1
  6
Continuous
100
AcDbCircle
 10
111.0
 20
125.5
 30
0.0
 40
2.0
100
AcDbArc
 50
180.0
 51
270.0
  0
ARC
  5
14A17
330
14995
100
AcDbEntity
  8
1
  6
Continuous
100
AcDbCircle
 10
110.4999999999999
 20
145.114559
 30
0.0
 40
1.5
100
AcDbArc
 50
180.0
 51
253.2276069999999
  0
ARC
  5
14A18
330
14995
100
AcDbEntity
  8
1
  6
Continuous
100
AcDbCircle
 10
110.4999999999999
 20
136.0
 30
0.0
 40
1.5
100
AcDbArc
 50
90.0
 51
180.0
  0
LINE
  5
14A19
330
14995
100
AcDbEntity
  8
4
  6
CENTER
100
AcDbLine
 10
119.25
 20
137.5
 30
0.0
 11
140.7499999999998
 21
137.5
 31
0.0
  0
LINE
  5
14A1A
330
14995
100
AcDbEntity
  8
1
  6
Continuous
100
AcDbLine
 10
142.0
 20
146.5
 30
0.0
 11
115.5
 21
146.5
 31
0.0
  0
LINE
  5
14A1B
330
14995
100
AcDbEntity
  8
1
  6
Continuous
100
AcDbLine
 10
143.198508
 20
147.0980139999998
 30
0.0
 11
126.9354649999998
 21
148.5
 31
0.0
  0
CIRCLE
  5
14A1C
330
14995
100
AcDbEntity
  8
1
  6
Continuous
100
AcDbCircle
 10
125.0
 20
137.5
 30
0.0
 40
2.399999999999999
  0
LINE
  5
14A1D
330
14995
100
AcDbEntity
  8
4
  6
CENTER
100
AcDbLine
 10
125.0
 20
131.75
 30
0.0
 11
125.0
 21
143.25
 31
0.0
  0
ARC
  5
14A1E
330
14995
100
AcDbEntity
  8
1
  6
Continuous
100
AcDbCircle
 10
117.0
 20
139.5
 30
0.0
 40
2.0
100
AcDbArc
 50
270.0
 51
73.22760699999998
  0
ARC
  5
14A1F
330
14995
100
AcDbEntity
  8
1
  6
Continuous
100
AcDbCircle
 10
135.0
 20
138.5
 30
0.0
 40
2.399999999999999
100
AcDbArc
 50
0.0
 51
180.0
  0
LINE
  5
14A20
330
14995
100
AcDbEntity
  8
1
  6
Continuous
100
AcDbLine
 10
132.6
 20
136.4999999999998
 30
0.0
 11
132.6
 21
138.5
 31
0.0
  0
ARC
  5
14A21
330
14995
100
AcDbEntity
  8
1
  6
Continuous
100
AcDbCircle
 10
135.0
 20
136.4999999999998
 30
0.0
 40
2.399999999999999
100
AcDbArc
 50
180.0
 51
0.0
  0
LINE
  5
14A22
330
14995
100
AcDbEntity
  8
1
  6
Continuous
100
AcDbLine
 10
137.4
 20
136.4999999999998
 30
0.0
 11
137.4
 21
138.5
 31
0.0
  0
LINE
  5
14A23
330
14995
100
AcDbEntity
  8
4
  6
CENTER
100
AcDbLine
 10
135.0
 20
130.75
 30
0.0
 11
135.0
 21
144.25
 31
0.0
  0
LINE
  5
14A24
330
14995
100
AcDbEntity
  8
1
  6
Continuous
100
AcDbLine
 10
143.5
 20
148.5775859999999
 30
0.0
 11
143.5
 21
148.0
 31
0.0
  0
ARC
  5
14A25
330
14995
100
AcDbEntity
  8
1
  6
Continuous
100
AcDbCircle
 10
142.0
 20
148.0
 30
0.0
 40
1.5
100
AcDbArc
 50
270.0
 51
0.0
  0
LINE
  5
14A26
330
14995
100
AcDbEntity
  8
1
  6
Continuous
100
AcDbLine
 10
109.0
 20
150.0
 30
0.0
 11
127.0
 21
150.0
 31
0.0
  0
LINE
  5
14A27
330
14995
100
AcDbEntity
  8
4
  6
CENTER
100
AcDbLine
 10
514.25
 20
143.0
 30
0.0
 11
525.75
 21
143.0
 31
0.0
  0
LINE
  5
14A28
330
14995
100
AcDbEntity
  8
4
  6
CENTER
100
AcDbLine
 10
521.0
 20
135.0
 30
0.0
 11
491.0
 21
135.0
 31
0.0
  0
LINE
  5
14A29
330
14995
100
AcDbEntity
  8
3
  6
DASHED
100
AcDbLine
 10
599.75
 20
125.0
 30
0.0
 11
539.5
 21
125.0
 31
0.0
  0
LINE
  5
14A2A
330
14995
100
AcDbEntity
  8
1
  6
Continuous
100
AcDbLine
 10
554.0
 20
151.0
 30
0.0
 11
491.0
 21
151.0
 31
0.0
  0
ARC
  5
14A2B
330
14995
100
AcDbEntity
  8
1
  6
Continuous
100
AcDbCircle
 10
455.0
 20
136.4999999999998
 30
0.0
 40
2.399999999999999
100
AcDbArc
 50
180.0
 51
0.0
  0
ARC
  5
14A2C
330
14995
100
AcDbEntity
  8
1
  6
Continuous
100
AcDbCircle
 10
455.0
 20
138.5
 30
0.0
 40
2.399999999999999
100
AcDbArc
 50
0.0
 51
180.0
  0
LINE
  5
14A2D
330
14995
100
AcDbEntity
  8
4
  6
CENTER
100
AcDbLine
 10
470.75
 20
137.5
 30
0.0
 11
449.2499999999998
 21
137.5
 31
0.0
  0
LINE
  5
14A2E
330
14995
100
AcDbEntity
  8
1
  6
Continuous
100
AcDbLine
 10
452.6
 20
136.4999999999998
 30
0.0
 11
452.6
 21
138.5
 31
0.0
  0
LINE
  5
14A2F
330
14995
100
AcDbEntity
  8
4
  6
CENTER
100
AcDbLine
 10
494.55
 20
143.1999999999999
 30
0.0
 11
494.55
 21
150.6999999999998
 31
0.0
  0
LINE
  5
14A30
330
14995
100
AcDbEntity
  8
4
  6
CENTER
100
AcDbLine
 10
506.0
 20
120.0
 30
0.0
 11
506.0
 21
150.0
 31
0.0
  0
LINE
  5
14A31
330
14995
100
AcDbEntity
  8
4
  6
CENTER
100
AcDbLine
 10
465.0
 20
131.75
 30
0.0
 11
465.0
 21
143.25
 31
0.0
  0
CIRCLE
  5
14A32
330
14995
100
AcDbEntity
  8
1
  6
Continuous
100
AcDbCircle
 10
465.0
 20
137.5
 30
0.0
 40
2.399999999999999
  0
LINE
  5
14A33
330
14995
100
AcDbEntity
  8
4
  6
CENTER
100
AcDbLine
 10
455.0
 20
130.75
 30
0.0
 11
455.0
 21
144.25
 31
0.0
  0
LINE
  5
14A34
330
14995
100
AcDbEntity
  8
1
  6
Continuous
100
AcDbLine
 10
457.3999999999998
 20
136.4999999999998
 30
0.0
 11
457.3999999999998
 21
138.5
 31
0.0
  0
CIRCLE
  5
14A35
330
14995
100
AcDbEntity
  8
3
  6
DASHED
100
AcDbCircle
 10
506.0
 20
135.0
 30
0.0
 40
11.0
  0
LINE
  5
14A36
330
14995
100
AcDbEntity
  8
3
  6
DASHED
100
AcDbLine
 10
489.0
 20
127.0
 30
0.0
 11
489.0
 21
147.5
 31
0.0
  0
LINE
  5
14A37
330
14995
100
AcDbEntity
  8
1
  6
Continuous
100
AcDbLine
 10
489.0
 20
149.0
 30
0.0
 11
489.0
 21
147.5
 31
0.0
  0
ARC
  5
14A38
330
14995
100
AcDbEntity
  8
1
  6
Continuous
100
AcDbCircle
 10
494.55
 20
146.9499999999999
 30
0.0
 40
1.75
100
AcDbArc
 50
18.317698
 51
161.6823019999999
  0
LINE
  5
14A39
330
14995
100
AcDbEntity
  8
4
  6
CENTER
100
AcDbLine
 10
490.8
 20
146.9499999999999
 30
0.0
 11
498.3
 21
146.9499999999999
 31
0.0
  0
LINE
  5
14A3A
330
14995
100
AcDbEntity
  8
4
  6
CENTER
100
AcDbLine
 10
591.0
 20
122.5
 30
0.0
 11
591.0
 21
152.5
 31
0.0
  0
CIRCLE
  5
14A3B
330
14995
100
AcDbEntity
  8
1
  6
Continuous
100
AcDbCircle
 10
575.0
 20
137.5
 30
0.0
 40
2.399999999999999
  0
LINE
  5
14A3C
330
14995
100
AcDbEntity
  8
4
  6
CENTER
100
AcDbLine
 10
539.25
 20
135.0
 30
0.0
 11
560.7499999999999
 21
135.0
 31
0.0
  0
LINE
  5
14A3D
330
14995
100
AcDbEntity
  8
4
  6
CENTER
100
AcDbLine
 10
606.0
 20
137.5
 30
0.0
 11
559.25
 21
137.5
 31
0.0
  0
LINE
  5
14A3E
330
14995
100
AcDbEntity
  8
4
  6
CENTER
100
AcDbLine
 10
520.0
 20
137.25
 30
0.0
 11
520.0
 21
148.75
 31
0.0
  0
ARC
  5
14A3F
330
14995
100
AcDbEntity
  8
1
  6
Continuous
100
AcDbCircle
 10
565.0
 20
138.5
 30
0.0
 40
2.399999999999999
100
AcDbArc
 50
0.0
 51
180.0
  0
LINE
  5
14A40
330
14995
100
AcDbEntity
  8
1
  6
Continuous
100
AcDbLine
 10
567.3999999999997
 20
136.4999999999998
 30
0.0
 11
567.3999999999997
 21
138.5
 31
0.0
  0
ARC
  5
14A41
330
14995
100
AcDbEntity
  8
1
  6
Continuous
100
AcDbCircle
 10
565.0
 20
136.4999999999998
 30
0.0
 40
2.399999999999999
100
AcDbArc
 50
180.0
 51
0.0
  0
LINE
  5
14A42
330
14995
100
AcDbEntity
  8
1
  6
Continuous
100
AcDbLine
 10
562.6
 20
136.4999999999998
 30
0.0
 11
562.6
 21
138.5
 31
0.0
  0
LINE
  5
14A43
330
14995
100
AcDbEntity
  8
4
  6
CENTER
100
AcDbLine
 10
575.0
 20
132.0999999999999
 30
0.0
 11
575.0
 21
142.9
 31
0.0
  0
LINE
  5
14A44
330
14995
100
AcDbEntity
  8
1
  6
Continuous
100
AcDbLine
 10
599.5527860000001
 20
124.6055729999998
 30
0.0
 11
605.0
 21
135.4999999999998
 31
0.0
  0
ARC
  5
14A45
330
14995
100
AcDbEntity
  8
3
  6
DASHED
100
AcDbCircle
 10
591.0
 20
137.5
 30
0.0
 40
11.0
100
AcDbArc
 50
114.619977
 51
65.38002299999999
  0
LINE
  5
14A46
330
14995
100
AcDbEntity
  8
1
  6
Continuous
100
AcDbLine
 10
603.0
 20
147.5
 30
0.0
 11
585.0
 21
147.5
 31
0.0
  0
ARC
  5
14A47
330
14995
100
AcDbEntity
  8
1
  6
Continuous
100
AcDbCircle
 10
591.0
 20
137.5
 30
0.0
 40
11.0
100
AcDbArc
 50
65.38002299999999
 51
114.619977
  0
CIRCLE
  5
14A48
330
14995
100
AcDbEntity
  8
1
  6
Continuous
100
AcDbCircle
 10
591.0
 20
137.5
 30
0.0
 40
3.0
  0
CIRCLE
  5
14A49
330
14995
100
AcDbEntity
  8
1
  6
Continuous
100
AcDbCircle
 10
591.0
 20
137.5
 30
0.0
 40
5.0
  0
LINE
  5
14A4A
330
14995
100
AcDbEntity
  8
1
  6
Continuous
100
AcDbLine
 10
581.0
 20
146.0
 30
0.0
 11
585.0
 21
147.5
 31
0.0
  0
LINE
  5
14A4B
330
14995
100
AcDbEntity
  8
1
  6
Continuous
100
AcDbLine
 10
580.0
 20
146.0
 30
0.0
 11
580.0
 21
147.5
 31
0.0
  0
LINE
  5
14A4C
330
14995
100
AcDbEntity
  8
1
  6
Continuous
100
AcDbLine
 10
581.0
 20
146.0
 30
0.0
 11
580.0
 21
146.0
 31
0.0
  0
LINE
  5
14A4D
330
14995
100
AcDbEntity
  8
1
  6
Continuous
100
AcDbLine
 10
559.0
 20
149.5
 30
0.0
 11
559.0
 21
151.0
 31
0.0
  0
LINE
  5
14A4E
330
14995
100
AcDbEntity
  8
1
  6
Continuous
100
AcDbLine
 10
558.0
 20
149.5
 30
0.0
 11
554.0
 21
151.0
 31
0.0
  0
ARC
  5
14A4F
330
14995
100
AcDbEntity
  8
1
  6
Continuous
100
AcDbCircle
 10
971.0
 20
135.0
 30
0.0
 40
11.0
100
AcDbArc
 50
26.33707499999999
 51
63.662925
  0
ARC
  5
14A50
330
14995
100
AcDbEntity
  8
1
  6
Continuous
100
AcDbCircle
 10
971.0
 20
135.0
 30
0.0
 40
12.5
100
AcDbArc
 50
26.33707499999999
 51
63.662925
  0
LINE
  5
14A51
330
14995
100
AcDbEntity
  8
1
  6
Continuous
100
AcDbLine
 10
982.202494
 20
140.54564
 30
0.0
 11
977.273397
 21
138.1055579999998
 31
0.0
  0
LINE
  5
14A52
330
14995
100
AcDbEntity
  8
1
  6
Continuous
100
AcDbLine
 10
983.5
 20
135.0
 30
0.0
 11
977.0
 21
135.0
 31
0.0
  0
LINE
  5
14A53
330
14995
100
AcDbEntity
  8
1
  6
Continuous
100
AcDbLine
 10
983.932856
 20
128.821629
 30
0.0
 11
976.422859
 21
131.0850829999999
 31
0.0
  0
LINE
  5
14A54
330
14995
100
AcDbEntity
  8
1
  6
Continuous
100
AcDbLine
 10
985.0
 20
122.5
 30
0.0
 11
970.0
 21
122.5
 31
0.0
  0
CIRCLE
  5
14A55
330
14995
100
AcDbEntity
  8
1
  6
Continuous
100
AcDbCircle
 10
651.0
 20
135.0
 30
0.0
 40
2.399999999999999
  0
CIRCLE
  5
14A56
330
14995
100
AcDbEntity
  8
1
  6
Continuous
100
AcDbCircle
 10
651.0
 20
135.0
 30
0.0
 40
3.75
  0
LINE
  5
14A57
330
14995
100
AcDbEntity
  8
4
  6
CENTER
100
AcDbLine
 10
651.0
 20
129.2499999999998
 30
0.0
 11
651.0
 21
140.7499999999998
 31
0.0
  0
LINE
  5
14A58
330
14995
100
AcDbEntity
  8
1
  6
Continuous
100
AcDbLine
 10
970.0
 20
122.5
 30
0.0
 11
942.0
 21
125.0
 31
0.0
  0
ARC
  5
14A59
330
14995
100
AcDbEntity
  8
1
  6
Continuous
100
AcDbCircle
 10
960.0
 20
134.0
 30
0.0
 40
3.75
100
AcDbArc
 50
180.0
 51
0.0
  0
ARC
  5
14A5A
330
14995
100
AcDbEntity
  8
1
  6
Continuous
100
AcDbCircle
 10
960.0
 20
136.0
 30
0.0
 40
3.75
100
AcDbArc
 50
0.0
 51
180.0
  0
ARC
  5
14A5B
330
14995
100
AcDbEntity
  8
1
  6
Continuous
100
AcDbCircle
 10
960.0
 20
136.0
 30
0.0
 40
2.399999999999999
100
AcDbArc
 50
0.0
 51
180.0
  0
ARC
  5
14A5C
330
14995
100
AcDbEntity
  8
1
  6
Continuous
100
AcDbCircle
 10
960.0
 20
134.0
 30
0.0
 40
2.399999999999999
100
AcDbArc
 50
180.0
 51
0.0
  0
LINE
  5
14A5D
330
14995
100
AcDbEntity
  8
4
  6
CENTER
100
AcDbLine
 10
960.0
 20
128.2499999999998
 30
0.0
 11
960.0
 21
141.7499999999998
 31
0.0
  0
LINE
  5
14A5E
330
14995
100
AcDbEntity
  8
1
  6
Continuous
100
AcDbLine
 10
956.25
 20
134.0
 30
0.0
 11
956.25
 21
136.0
 31
0.0
  0
LINE
  5
14A5F
330
14995
100
AcDbEntity
  8
1
  6
Continuous
100
AcDbLine
 10
957.6
 20
134.0
 30
0.0
 11
957.6
 21
136.0
 31
0.0
  0
LINE
  5
14A60
330
14995
100
AcDbEntity
  8
1
  6
Continuous
100
AcDbLine
 10
963.7500000000001
 20
134.0
 30
0.0
 11
963.7500000000001
 21
136.0
 31
0.0
  0
LINE
  5
14A61
330
14995
100
AcDbEntity
  8
1
  6
Continuous
100
AcDbLine
 10
962.4
 20
134.0
 30
0.0
 11
962.4
 21
136.0
 31
0.0
  0
LINE
  5
14A62
330
14995
100
AcDbEntity
  8
4
  6
CENTER
100
AcDbLine
 10
970.0
 20
129.2499999999998
 30
0.0
 11
970.0
 21
140.7499999999998
 31
0.0
  0
CIRCLE
  5
14A63
330
14995
100
AcDbEntity
  8
1
  6
Continuous
100
AcDbCircle
 10
970.0
 20
135.0
 30
0.0
 40
3.75
  0
CIRCLE
  5
14A64
330
14995
100
AcDbEntity
  8
1
  6
Continuous
100
AcDbCircle
 10
970.0
 20
135.0
 30
0.0
 40
2.399999999999999
  0
LINE
  5
14A65
330
14995
100
AcDbEntity
  8
1
  6
Continuous
100
AcDbLine
 10
976.5456400000001
 20
146.202494
 30
0.0
 11
974.1055579999999
 21
141.2733969999998
 31
0.0
  0
ARC
  5
14A66
330
14995
100
AcDbEntity
  8
1
  6
Continuous
100
AcDbCircle
 10
971.0
 20
135.0
 30
0.0
 40
7.0
100
AcDbArc
 50
26.33707499999999
 51
63.662925
  0
ARC
  5
14A67
330
14995
100
AcDbEntity
  8
1
  6
Continuous
100
AcDbCircle
 10
977.0
 20
133.0
 30
0.0
 40
2.0
100
AcDbArc
 50
90.0
 51
253.2276069999999
  0
LINE
  5
14A68
330
14995
100
AcDbEntity
  8
1
  6
Continuous
100
AcDbLine
 10
985.0
 20
136.4999999999998
 30
0.0
 11
985.0
 21
151.0
 31
0.0
  0
ARC
  5
14A69
330
14995
100
AcDbEntity
  8
1
  6
Continuous
100
AcDbCircle
 10
983.5
 20
127.3854409999999
 30
0.0
 40
1.5
100
AcDbArc
 50
0.0
 51
73.22760699999998
  0
LINE
  5
14A6A
330
14995
100
AcDbEntity
  8
1
  6
Continuous
100
AcDbLine
 10
985.0
 20
122.5
 30
0.0
 11
985.0
 21
127.3854409999999
 31
0.0
  0
ARC
  5
14A6B
330
14995
100
AcDbEntity
  8
1
  6
Continuous
100
AcDbCircle
 10
983.5
 20
136.4999999999998
 30
0.0
 40
1.5
100
AcDbArc
 50
270.0
 51
0.0
  0
ARC
  5
14A6C
330
14995
100
AcDbEntity
  8
3
  6
DASHED
100
AcDbCircle
 10
506.0
 20
319.5
 30
0.0
 40
11.0
100
AcDbArc
 50
114.619977
 51
65.38002299999999
  0
LINE
  5
14A6D
330
14995
100
AcDbEntity
  8
1
  6
Continuous
100
AcDbLine
 10
489.0
 20
307.0
 30
0.0
 11
156.0
 21
307.0
 31
0.0
  0
CIRCLE
  5
14A6E
330
14995
100
AcDbEntity
  8
1
  6
Continuous
100
AcDbCircle
 10
494.55
 20
307.55
 30
0.0
 40
1.75
  0
CIRCLE
  5
14A6F
330
14995
100
AcDbEntity
  8
1
  6
Continuous
100
AcDbCircle
 10
520.0
 20
311.5
 30
0.0
 40
2.399999999999999
  0
LINE
  5
14A70
330
14995
100
AcDbEntity
  8
1
  6
Continuous
100
AcDbLine
 10
605.0
 20
135.4999999999998
 30
0.0
 11
605.0
 21
145.5
 31
0.0
  0
LINE
  5
14A71
330
14995
100
AcDbEntity
  8
1
  6
Continuous
100
AcDbLine
 10
538.4999999999998
 20
328.0
 30
0.0
 11
534.4999999999998
 21
329.4999999999999
 31
0.0
  0
LINE
  5
14A72
330
14995
100
AcDbEntity
  8
1
  6
Continuous
100
AcDbLine
 10
539.5
 20
329.4999999999999
 30
0.0
 11
539.5
 21
328.0
 31
0.0
  0
LINE
  5
14A73
330
14995
100
AcDbEntity
  8
1
  6
Continuous
100
AcDbLine
 10
558.0
 20
305.0
 30
0.0
 11
559.0
 21
305.0
 31
0.0
  0
LINE
  5
14A74
330
14995
100
AcDbEntity
  8
1
  6
Continuous
100
AcDbLine
 10
539.5
 20
328.0
 30
0.0
 11
538.4999999999998
 21
328.0
 31
0.0
  0
LINE
  5
14A75
330
14995
100
AcDbEntity
  8
1
  6
Continuous
100
AcDbLine
 10
534.4999999999998
 20
329.4999999999999
 30
0.0
 11
491.0
 21
329.4999999999999
 31
0.0
  0
LINE
  5
14A76
330
14995
100
AcDbEntity
  8
1
  6
Continuous
100
AcDbLine
 10
458.75
 20
318.0
 30
0.0
 11
458.75
 21
316.0
 31
0.0
  0
LINE
  5
14A77
330
14995
100
AcDbEntity
  8
1
  6
Continuous
100
AcDbLine
 10
451.25
 20
318.0
 30
0.0
 11
451.25
 21
316.0
 31
0.0
  0
ARC
  5
14A78
330
14995
100
AcDbEntity
  8
1
  6
Continuous
100
AcDbCircle
 10
455.0
 20
316.0
 30
0.0
 40
3.75
100
AcDbArc
 50
180.0
 51
0.0
  0
CIRCLE
  5
14A79
330
14995
100
AcDbEntity
  8
1
  6
Continuous
100
AcDbCircle
 10
465.0
 20
317.0
 30
0.0
 40
3.75
  0
ARC
  5
14A7A
330
14995
100
AcDbEntity
  8
1
  6
Continuous
100
AcDbCircle
 10
455.0
 20
318.0
 30
0.0
 40
3.75
100
AcDbArc
 50
0.0
 51
180.0
  0
CIRCLE
  5
14A7B
330
14995
100
AcDbEntity
  8
1
  6
Continuous
100
AcDbCircle
 10
125.0
 20
317.0
 30
0.0
 40
3.75
  0
ARC
  5
14A7C
330
14995
100
AcDbEntity
  8
1
  6
Continuous
100
AcDbCircle
 10
135.0
 20
318.0
 30
0.0
 40
3.75
100
AcDbArc
 50
0.0
 51
180.0
  0
LINE
  5
14A7D
330
14995
100
AcDbEntity
  8
1
  6
Continuous
100
AcDbLine
 10
131.25
 20
318.0
 30
0.0
 11
131.25
 21
316.0
 31
0.0
  0
LINE
  5
14A7E
330
14995
100
AcDbEntity
  8
1
  6
Continuous
100
AcDbLine
 10
138.7499999999998
 20
318.0
 30
0.0
 11
138.7499999999998
 21
316.0
 31
0.0
  0
ARC
  5
14A7F
330
14995
100
AcDbEntity
  8
1
  6
Continuous
100
AcDbCircle
 10
135.0
 20
316.0
 30
0.0
 40
3.75
100
AcDbArc
 50
180.0
 51
0.0
  0
LINE
  5
14A80
330
14995
100
AcDbEntity
  8
3
  6
DASHED
100
AcDbLine
 10
538.4999999999998
 20
126.5
 30
0.0
 11
539.5
 21
126.5
 31
0.0
  0
LINE
  5
14A81
330
14995
100
AcDbEntity
  8
3
  6
DASHED
100
AcDbLine
 10
539.5
 20
126.5
 30
0.0
 11
600.4999999999999
 21
126.5
 31
0.0
  0
LINE
  5
14A82
330
14995
100
AcDbEntity
  8
3
  6
DASHED
100
AcDbLine
 10
539.5
 20
125.0
 30
0.0
 11
539.5
 21
126.5
 31
0.0
  0
LINE
  5
14A83
330
14995
100
AcDbEntity
  8
3
  6
DASHED
100
AcDbLine
 10
538.4999999999998
 20
126.5
 30
0.0
 11
534.4999999999998
 21
125.0
 31
0.0
  0
LINE
  5
14A84
330
14995
100
AcDbEntity
  8
3
  6
DASHED
100
AcDbLine
 10
534.4999999999998
 20
125.0
 30
0.0
 11
491.0
 21
125.0
 31
0.0
  0
LINE
  5
14A85
330
14995
100
AcDbEntity
  8
3
  6
DASHED
100
AcDbLine
 10
581.5
 20
308.4999999999999
 30
0.0
 11
516.0201059999999
 21
308.4999999999999
 31
0.0
  0
LINE
  5
14A86
330
14995
100
AcDbEntity
  8
3
  6
DASHED
100
AcDbLine
 10
512.78233
 20
309.0
 30
0.0
 11
515.53233
 21
307.0
 31
0.0
  0
LINE
  5
14A87
330
14995
100
AcDbEntity
  8
3
  6
DASHED
100
AcDbLine
 10
512.78233
 20
309.0
 30
0.0
 11
510.03233
 21
307.0
 31
0.0
  0
LINE
  5
14A88
330
14995
100
AcDbEntity
  8
3
  6
DASHED
100
AcDbLine
 10
513.6645879999998
 20
310.2131039999998
 30
0.0
 11
516.0201059999999
 21
308.4999999999999
 31
0.0
  0
LINE
  5
14A89
330
14995
100
AcDbEntity
  8
3
  6
DASHED
100
AcDbLine
 10
511.9000719999998
 20
310.2131039999998
 30
0.0
 11
509.544554
 21
308.4999999999999
 31
0.0
  0
ARC
  5
14A8A
330
14995
100
AcDbEntity
  8
3
  6
DASHED
100
AcDbCircle
 10
512.78233
 20
309.0
 30
0.0
 40
1.5
100
AcDbArc
 50
53.972627
 51
126.0273729999997
  0
LINE
  5
14A8B
330
14995
100
AcDbEntity
  8
1
  6
Continuous
100
AcDbLine
 10
983.5
 20
225.4999999999999
 30
0.0
 11
560.5
 21
225.4999999999999
 31
0.0
  0
LINE
  5
14A8C
330
14995
100
AcDbEntity
  8
1
  6
Continuous
100
AcDbLine
 10
109.0
 20
221.0
 30
0.0
 11
109.0
 21
229.0
 31
0.0
  0
LINE
  5
14A8D
330
14995
100
AcDbEntity
  8
1
  6
Continuous
100
AcDbLine
 10
489.0
 20
233.4999999999999
 30
0.0
 11
489.0
 21
232.0
 31
0.0
  0
LINE
  5
14A8E
330
14995
100
AcDbEntity
  8
1
  6
Continuous
100
AcDbLine
 10
580.0
 20
221.0
 30
0.0
 11
580.0
 21
225.4999999999999
 31
0.0
  0
LINE
  5
14A8F
330
14995
100
AcDbEntity
  8
1
  6
Continuous
100
AcDbLine
 10
559.0
 20
232.0
 30
0.0
 11
489.0
 21
232.0
 31
0.0
  0
LINE
  5
14A90
330
14995
100
AcDbEntity
  8
1
  6
Continuous
100
AcDbLine
 10
156.0
 20
222.0
 30
0.0
 11
156.0
 21
228.0
 31
0.0
  0
LINE
  5
14A91
330
14995
100
AcDbEntity
  8
1
  6
Continuous
100
AcDbLine
 10
143.5
 20
221.0
 30
0.0
 11
143.5
 21
224.0
 31
0.0
  0
LINE
  5
14A92
330
14995
100
AcDbEntity
  8
1
  6
Continuous
100
AcDbLine
 10
143.5
 20
222.5
 30
0.0
 11
114.0
 21
222.5
 31
0.0
  0
LINE
  5
14A93
330
14995
100
AcDbEntity
  8
1
  6
Continuous
100
AcDbLine
 10
142.0
 20
225.4999999999999
 30
0.0
 11
115.5
 21
225.4999999999999
 31
0.0
  0
LINE
  5
14A94
330
14995
100
AcDbEntity
  8
1
  6
Continuous
100
AcDbLine
 10
114.0
 20
224.0
 30
0.0
 11
114.0
 21
221.0
 31
0.0
  0
ARC
  5
14A95
330
14995
100
AcDbEntity
  8
1
  6
Continuous
100
AcDbCircle
 10
115.5
 20
224.0
 30
0.0
 40
1.5
100
AcDbArc
 50
90.0
 51
180.0
  0
ARC
  5
14A96
330
14995
100
AcDbEntity
  8
1
  6
Continuous
100
AcDbCircle
 10
142.0
 20
224.0
 30
0.0
 40
1.5
100
AcDbArc
 50
0.0
 51
90.0
  0
LINE
  5
14A97
330
14995
100
AcDbEntity
  8
1
  6
Continuous
100
AcDbLine
 10
605.0
 20
222.5
 30
0.0
 11
605.0
 21
221.0
 31
0.0
  0
LINE
  5
14A98
330
14995
100
AcDbEntity
  8
1
  6
Continuous
100
AcDbLine
 10
605.0
 20
222.5
 30
0.0
 11
580.0
 21
222.5
 31
0.0
  0
LINE
  5
14A99
330
14995
100
AcDbEntity
  8
4
  6
CENTER
100
AcDbLine
 10
591.0
 20
237.6235419999999
 30
0.0
 11
591.0
 21
217.1560739999999
 31
0.0
  0
LINE
  5
14A9A
330
14995
100
AcDbEntity
  8
4
  6
CENTER
100
AcDbLine
 10
575.0
 20
218.0
 30
0.0
 11
575.0
 21
224.5
 31
0.0
  0
LINE
  5
14A9B
330
14995
100
AcDbEntity
  8
4
  6
CENTER
100
AcDbLine
 10
565.0
 20
218.0
 30
0.0
 11
565.0
 21
224.5
 31
0.0
  0
LINE
  5
14A9C
330
14995
100
AcDbEntity
  8
4
  6
CENTER
100
AcDbLine
 10
465.0
 20
218.0
 30
0.0
 11
465.0
 21
224.5
 31
0.0
  0
LINE
  5
14A9D
330
14995
100
AcDbEntity
  8
4
  6
CENTER
100
AcDbLine
 10
455.0
 20
218.0
 30
0.0
 11
455.0
 21
224.5
 31
0.0
  0
LINE
  5
14A9E
330
14995
100
AcDbEntity
  8
4
  6
CENTER
100
AcDbLine
 10
135.0
 20
218.0
 30
0.0
 11
135.0
 21
224.5
 31
0.0
  0
LINE
  5
14A9F
330
14995
100
AcDbEntity
  8
4
  6
CENTER
100
AcDbLine
 10
125.0
 20
218.0
 30
0.0
 11
125.0
 21
224.5
 31
0.0
  0
LINE
  5
14AA0
330
14995
100
AcDbEntity
  8
1
  6
Continuous
100
AcDbLine
 10
559.0
 20
227.0
 30
0.0
 11
559.0
 21
233.4999999999999
 31
0.0
  0
LINE
  5
14AA1
330
14995
100
AcDbEntity
  8
1
  6
Continuous
100
AcDbLine
 10
539.5
 20
229.0
 30
0.0
 11
539.5
 21
232.0
 31
0.0
  0
LINE
  5
14AA2
330
14995
100
AcDbEntity
  8
1
  6
Continuous
100
AcDbLine
 10
558.0
 20
232.0
 30
0.0
 11
558.0
 21
233.4999999999999
 31
0.0
  0
LINE
  5
14AA3
330
14995
100
AcDbEntity
  8
1
  6
Continuous
100
AcDbLine
 10
554.0
 20
232.0
 30
0.0
 11
554.0
 21
233.4999999999999
 31
0.0
  0
ARC
  5
14AA4
330
14995
100
AcDbEntity
  8
1
  6
Continuous
100
AcDbCircle
 10
560.5
 20
227.0
 30
0.0
 40
1.5
100
AcDbArc
 50
180.0
 51
270.0
  0
LINE
  5
14AA5
330
14995
100
AcDbEntity
  8
1
  6
Continuous
100
AcDbLine
 10
597.0
 20
225.4999999999999
 30
0.0
 11
597.0
 21
223.4999999999998
 31
0.0
  0
LINE
  5
14AA6
330
14995
100
AcDbEntity
  8
1
  6
Continuous
100
AcDbLine
 10
585.0
 20
225.4999999999999
 30
0.0
 11
585.0
 21
223.4999999999998
 31
0.0
  0
LINE
  5
14AA7
330
14995
100
AcDbEntity
  8
1
  6
Continuous
100
AcDbLine
 10
597.0
 20
225.0
 30
0.0
 11
585.0
 21
225.0
 31
0.0
  0
LINE
  5
14AA8
330
14995
100
AcDbEntity
  8
1
  6
Continuous
100
AcDbLine
 10
597.0
 20
223.4999999999998
 30
0.0
 11
585.0
 21
223.4999999999998
 31
0.0
  0
LINE
  5
14AA9
330
14995
100
AcDbEntity
  8
1
  6
Continuous
100
AcDbLine
 10
596.7928929999999
 20
223.2071069999999
 30
0.0
 11
597.5
 21
222.5
 31
0.0
  0
LINE
  5
14AAA
330
14995
100
AcDbEntity
  8
1
  6
Continuous
100
AcDbLine
 10
585.207107
 20
223.2071069999999
 30
0.0
 11
584.4999999999997
 21
222.5
 31
0.0
  0
ARC
  5
14AAB
330
14995
100
AcDbEntity
  8
1
  6
Continuous
100
AcDbCircle
 10
585.914214
 20
222.5
 30
0.0
 40
1.0
100
AcDbArc
 50
90.0
 51
135.0
  0
ARC
  5
14AAC
330
14995
100
AcDbEntity
  8
1
  6
Continuous
100
AcDbCircle
 10
596.0857859999999
 20
222.5
 30
0.0
 40
1.0
100
AcDbArc
 50
45.0
 51
90.0
  0
LINE
  5
14AAD
330
14995
100
AcDbEntity
  8
4
  6
CENTER
100
AcDbLine
 10
545.0
 20
236.5
 30
0.0
 11
545.0
 21
230.0
 31
0.0
  0
LINE
  5
14AAE
330
14995
100
AcDbEntity
  8
4
  6
CENTER
100
AcDbLine
 10
555.0
 20
236.5
 30
0.0
 11
555.0
 21
230.0
 31
0.0
  0
LINE
  5
14AAF
330
14995
100
AcDbEntity
  8
4
  6
CENTER
100
AcDbLine
 10
651.0
 20
236.5
 30
0.0
 11
651.0
 21
230.0
 31
0.0
  0
LINE
  5
14AB0
330
14995
100
AcDbEntity
  8
4
  6
CENTER
100
AcDbLine
 10
960.0
 20
236.5
 30
0.0
 11
960.0
 21
230.0
 31
0.0
  0
LINE
  5
14AB1
330
14995
100
AcDbEntity
  8
4
  6
CENTER
100
AcDbLine
 10
970.0
 20
236.5
 30
0.0
 11
970.0
 21
230.0
 31
0.0
  0
LINE
  5
14AB2
330
14995
100
AcDbEntity
  8
1
  6
Continuous
100
AcDbLine
 10
985.0
 20
233.4999999999999
 30
0.0
 11
985.0
 21
227.0
 31
0.0
  0
LINE
  5
14AB3
330
14995
100
AcDbEntity
  8
4
  6
CENTER
100
AcDbLine
 10
506.0
 20
237.768529
 30
0.0
 11
506.0
 21
217.385748
 31
0.0
  0
LINE
  5
14AB4
330
14995
100
AcDbEntity
  8
1
  6
Continuous
100
AcDbLine
 10
512.0
 20
229.0
 30
0.0
 11
512.0
 21
231.0
 31
0.0
  0
LINE
  5
14AB5
330
14995
100
AcDbEntity
  8
1
  6
Continuous
100
AcDbLine
 10
512.0
 20
231.0
 30
0.0
 11
500.0
 21
231.0
 31
0.0
  0
LINE
  5
14AB6
330
14995
100
AcDbEntity
  8
1
  6
Continuous
100
AcDbLine
 10
500.0
 20
229.0
 30
0.0
 11
500.0
 21
231.0
 31
0.0
  0
ARC
  5
14AB7
330
14995
100
AcDbEntity
  8
1
  6
Continuous
100
AcDbCircle
 10
511.085786
 20
232.0
 30
0.0
 40
1.0
100
AcDbArc
 50
270.0
 51
315.0
  0
LINE
  5
14AB8
330
14995
100
AcDbEntity
  8
1
  6
Continuous
100
AcDbLine
 10
511.7928929999997
 20
231.2928929999999
 30
0.0
 11
512.5
 21
232.0
 31
0.0
  0
ARC
  5
14AB9
330
14995
100
AcDbEntity
  8
1
  6
Continuous
100
AcDbCircle
 10
500.9142139999998
 20
232.0
 30
0.0
 40
1.0
100
AcDbArc
 50
225.0
 51
270.0
  0
LINE
  5
14ABA
330
14995
100
AcDbEntity
  8
1
  6
Continuous
100
AcDbLine
 10
500.207107
 20
231.2928929999999
 30
0.0
 11
499.5
 21
232.0
 31
0.0
  0
LINE
  5
14ABB
330
14995
100
AcDbEntity
  8
3
  6
DASHED
100
AcDbLine
 10
602.0
 20
226.5
 30
0.0
 11
602.0
 21
231.4999999999999
 31
0.0
  0
LINE
  5
14ABC
330
14995
100
AcDbEntity
  8
3
  6
DASHED
100
AcDbLine
 10
602.0
 20
226.5
 30
0.0
 11
580.0
 21
226.5
 31
0.0
  0
LINE
  5
14ABD
330
14995
100
AcDbEntity
  8
3
  6
DASHED
100
AcDbLine
 10
602.0
 20
231.4999999999999
 30
0.0
 11
580.0
 21
231.4999999999999
 31
0.0
  0
LINE
  5
14ABE
330
14995
100
AcDbEntity
  8
3
  6
DASHED
100
AcDbLine
 10
597.0
 20
226.5
 30
0.0
 11
597.0
 21
225.4999999999999
 31
0.0
  0
LINE
  5
14ABF
330
14995
100
AcDbEntity
  8
3
  6
DASHED
100
AcDbLine
 10
585.0
 20
226.5
 30
0.0
 11
585.0
 21
225.4999999999999
 31
0.0
  0
LINE
  5
14AC0
330
14995
100
AcDbEntity
  8
3
  6
DASHED
100
AcDbLine
 10
517.0
 20
228.0
 30
0.0
 11
517.0
 21
223.0
 31
0.0
  0
LINE
  5
14AC1
330
14995
100
AcDbEntity
  8
3
  6
DASHED
100
AcDbLine
 10
510.03233
 20
223.0
 30
0.0
 11
495.0
 21
223.0
 31
0.0
  0
LINE
  5
14AC2
330
14995
100
AcDbEntity
  8
3
  6
DASHED
100
AcDbLine
 10
517.0
 20
228.0
 30
0.0
 11
495.0
 21
228.0
 31
0.0
  0
LINE
  5
14AC3
330
14995
100
AcDbEntity
  8
1
  6
Continuous
100
AcDbLine
 10
512.0
 20
229.4999999999999
 30
0.0
 11
500.0
 21
229.4999999999999
 31
0.0
  0
LINE
  5
14AC4
330
14995
100
AcDbEntity
  8
3
  6
DASHED
100
AcDbLine
 10
512.0
 20
228.0
 30
0.0
 11
512.0
 21
229.0
 31
0.0
  0
LINE
  5
14AC5
330
14995
100
AcDbEntity
  8
3
  6
DASHED
100
AcDbLine
 10
500.0
 20
228.0
 30
0.0
 11
500.0
 21
229.0
 31
0.0
  0
LINE
  5
14AC6
330
14995
100
AcDbEntity
  8
3
  6
DASHED
100
AcDbLine
 10
495.0
 20
228.0
 30
0.0
 11
495.0
 21
223.0
 31
0.0
  0
LINE
  5
14AC7
330
14995
100
AcDbEntity
  8
4
  6
CENTER
100
AcDbLine
 10
494.55
 20
236.5
 30
0.0
 11
494.55
 21
230.0
 31
0.0
  0
LINE
  5
14AC8
330
14995
100
AcDbEntity
  8
4
  6
CENTER
100
AcDbLine
 10
520.0
 20
236.5
 30
0.0
 11
520.0
 21
230.0
 31
0.0
  0
LINE
  5
14AC9
330
14995
100
AcDbEntity
  8
1
  6
Continuous
100
AcDbLine
 10
109.0
 20
229.0
 30
0.0
 11
559.0
 21
229.0
 31
0.0
  0
LINE
  5
14ACA
330
14995
100
AcDbEntity
  8
1
  6
Continuous
100
AcDbLine
 10
515.53233
 20
228.5
 30
0.0
 11
515.53233
 21
223.0
 31
0.0
  0
LINE
  5
14ACB
330
14995
100
AcDbEntity
  8
1
  6
Continuous
100
AcDbLine
 10
512.78233
 20
228.5
 30
0.0
 11
512.78233
 21
223.0
 31
0.0
  0
LINE
  5
14ACC
330
14995
100
AcDbEntity
  8
1
  6
Continuous
100
AcDbLine
 10
510.03233
 20
228.5
 30
0.0
 11
510.03233
 21
223.0
 31
0.0
  0
LINE
  5
14ACD
330
14995
100
AcDbEntity
  8
1
  6
Continuous
100
AcDbLine
 10
515.53233
 20
223.0
 30
0.0
 11
510.03233
 21
223.0
 31
0.0
  0
LINE
  5
14ACE
330
14995
100
AcDbEntity
  8
1
  6
Continuous
100
AcDbLine
 10
515.53233
 20
228.5
 30
0.0
 11
510.03233
 21
228.5
 31
0.0
  0
LINE
  5
14ACF
330
14995
100
AcDbEntity
  8
3
  6
DASHED
100
AcDbLine
 10
517.0
 20
223.0
 30
0.0
 11
515.53233
 21
223.0
 31
0.0
  0
LINE
  5
14AD0
330
14995
100
AcDbEntity
  8
1
  6
Continuous
100
AcDbLine
 10
985.0
 20
41.0
 30
0.0
 11
489.0
 21
41.0
 31
0.0
  0
LINE
  5
14AD1
330
14995
100
AcDbEntity
  8
1
  6
Continuous
100
AcDbLine
 10
983.5
 20
49.0
 30
0.0
 11
541.5
 21
49.0
 31
0.0
  0
LINE
  5
14AD2
330
14995
100
AcDbEntity
  8
1
  6
Continuous
100
AcDbLine
 10
605.0
 20
53.5
 30
0.0
 11
109.0
 21
53.5
 31
0.0
  0
LINE
  5
14AD3
330
14995
100
AcDbEntity
  8
1
  6
Continuous
100
AcDbLine
 10
142.0
 20
49.0
 30
0.0
 11
115.5
 21
49.0
 31
0.0
  0
LINE
  5
14AD4
330
14995
100
AcDbEntity
  8
1
  6
Continuous
100
AcDbLine
 10
605.0
 20
52.0
 30
0.0
 11
109.0
 21
52.0
 31
0.0
  0
LINE
  5
14AD5
330
14995
100
AcDbEntity
  8
1
  6
Continuous
100
AcDbLine
 10
109.0
 20
53.5
 30
0.0
 11
109.0
 21
45.49999999999999
 31
0.0
  0
ARC
  5
14AD6
330
14995
100
AcDbEntity
  8
1
  6
Continuous
100
AcDbCircle
 10
115.5
 20
50.5
 30
0.0
 40
1.5
100
AcDbArc
 50
180.0
 51
270.0
  0
LINE
  5
14AD7
330
14995
100
AcDbEntity
  8
1
  6
Continuous
100
AcDbLine
 10
114.0
 20
50.5
 30
0.0
 11
114.0
 21
52.0
 31
0.0
  0
LINE
  5
14AD8
330
14995
100
AcDbEntity
  8
4
  6
CENTER
100
AcDbLine
 10
125.0
 20
56.5
 30
0.0
 11
125.0
 21
50.0
 31
0.0
  0
ARC
  5
14AD9
330
14995
100
AcDbEntity
  8
1
  6
Continuous
100
AcDbCircle
 10
142.0
 20
50.5
 30
0.0
 40
1.5
100
AcDbArc
 50
270.0
 51
0.0
  0
LINE
  5
14ADA
330
14995
100
AcDbEntity
  8
4
  6
CENTER
100
AcDbLine
 10
135.0
 20
56.5
 30
0.0
 11
135.0
 21
50.0
 31
0.0
  0
LINE
  5
14ADB
330
14995
100
AcDbEntity
  8
1
  6
Continuous
100
AcDbLine
 10
143.5
 20
52.0
 30
0.0
 11
143.5
 21
50.5
 31
0.0
  0
LINE
  5
14ADC
330
14995
100
AcDbEntity
  8
1
  6
Continuous
100
AcDbLine
 10
156.0
 20
51.0
 30
0.0
 11
156.0
 21
46.5
 31
0.0
  0
LINE
  5
14ADD
330
14995
100
AcDbEntity
  8
1
  6
Continuous
100
AcDbLine
 10
539.5
 20
42.5
 30
0.0
 11
489.0
 21
42.5
 31
0.0
  0
LINE
  5
14ADE
330
14995
100
AcDbEntity
  8
4
  6
CENTER
100
AcDbLine
 10
455.0
 20
56.5
 30
0.0
 11
455.0
 21
50.0
 31
0.0
  0
LINE
  5
14ADF
330
14995
100
AcDbEntity
  8
4
  6
CENTER
100
AcDbLine
 10
465.0
 20
56.5
 30
0.0
 11
465.0
 21
50.0
 31
0.0
  0
LINE
  5
14AE0
330
14995
100
AcDbEntity
  8
1
  6
Continuous
100
AcDbLine
 10
489.0
 20
41.0
 30
0.0
 11
489.0
 21
42.5
 31
0.0
  0
LINE
  5
14AE1
330
14995
100
AcDbEntity
  8
1
  6
Continuous
100
AcDbLine
 10
517.0
 20
51.5
 30
0.0
 11
495.0
 21
51.5
 31
0.0
  0
LINE
  5
14AE2
330
14995
100
AcDbEntity
  8
1
  6
Continuous
100
AcDbLine
 10
512.0
 20
43.5
 30
0.0
 11
500.0
 21
43.5
 31
0.0
  0
LINE
  5
14AE3
330
14995
100
AcDbEntity
  8
1
  6
Continuous
100
AcDbLine
 10
517.0
 20
46.5
 30
0.0
 11
495.0
 21
46.5
 31
0.0
  0
LINE
  5
14AE4
330
14995
100
AcDbEntity
  8
1
  6
Continuous
100
AcDbLine
 10
512.0
 20
45.0
 30
0.0
 11
500.0
 21
45.0
 31
0.0
  0
ARC
  5
14AE5
330
14995
100
AcDbEntity
  8
1
  6
Continuous
100
AcDbCircle
 10
500.9142139999998
 20
42.5
 30
0.0
 40
1.0
100
AcDbArc
 50
90.0
 51
135.0
  0
LINE
  5
14AE6
330
14995
100
AcDbEntity
  8
1
  6
Continuous
100
AcDbLine
 10
500.207107
 20
43.207107
 30
0.0
 11
499.5
 21
42.5
 31
0.0
  0
LINE
  5
14AE7
330
14995
100
AcDbEntity
  8
1
  6
Continuous
100
AcDbLine
 10
500.0
 20
46.5
 30
0.0
 11
500.0
 21
43.5
 31
0.0
  0
LINE
  5
14AE8
330
14995
100
AcDbEntity
  8
4
  6
CENTER
100
AcDbLine
 10
494.55
 20
38.0
 30
0.0
 11
494.55
 21
44.5
 31
0.0
  0
LINE
  5
14AE9
330
14995
100
AcDbEntity
  8
4
  6
CENTER
100
AcDbLine
 10
506.0
 20
36.73147099999999
 30
0.0
 11
506.0
 21
57.114252
 31
0.0
  0
LINE
  5
14AEA
330
14995
100
AcDbEntity
  8
1
  6
Continuous
100
AcDbLine
 10
495.0
 20
46.5
 30
0.0
 11
495.0
 21
51.5
 31
0.0
  0
ARC
  5
14AEB
330
14995
100
AcDbEntity
  8
1
  6
Continuous
100
AcDbCircle
 10
511.085786
 20
42.5
 30
0.0
 40
1.0
100
AcDbArc
 50
45.0
 51
90.0
  0
LINE
  5
14AEC
330
14995
100
AcDbEntity
  8
1
  6
Continuous
100
AcDbLine
 10
511.7928929999997
 20
43.207107
 30
0.0
 11
512.5
 21
42.5
 31
0.0
  0
LINE
  5
14AED
330
14995
100
AcDbEntity
  8
1
  6
Continuous
100
AcDbLine
 10
512.0
 20
46.5
 30
0.0
 11
512.0
 21
43.5
 31
0.0
  0
LINE
  5
14AEE
330
14995
100
AcDbEntity
  8
4
  6
CENTER
100
AcDbLine
 10
520.0
 20
38.0
 30
0.0
 11
520.0
 21
44.5
 31
0.0
  0
LINE
  5
14AEF
330
14995
100
AcDbEntity
  8
1
  6
Continuous
100
AcDbLine
 10
516.0201059999999
 20
46.0
 30
0.0
 11
512.0
 21
46.0
 31
0.0
  0
LINE
  5
14AF0
330
14995
100
AcDbEntity
  8
1
  6
Continuous
100
AcDbLine
 10
517.0
 20
46.5
 30
0.0
 11
517.0
 21
51.5
 31
0.0
  0
LINE
  5
14AF1
330
14995
100
AcDbEntity
  8
1
  6
Continuous
100
AcDbLine
 10
512.78233
 20
46.0
 30
0.0
 11
512.78233
 21
46.5
 31
0.0
  0
LINE
  5
14AF2
330
14995
100
AcDbEntity
  8
4
  6
CENTER
100
AcDbLine
 10
565.0
 20
56.5
 30
0.0
 11
565.0
 21
50.0
 31
0.0
  0
LINE
  5
14AF3
330
14995
100
AcDbEntity
  8
1
  6
Continuous
100
AcDbLine
 10
539.5
 20
47.0
 30
0.0
 11
539.5
 21
41.0
 31
0.0
  0
LINE
  5
14AF4
330
14995
100
AcDbEntity
  8
4
  6
CENTER
100
AcDbLine
 10
575.0
 20
56.5
 30
0.0
 11
575.0
 21
50.0
 31
0.0
  0
LINE
  5
14AF5
330
14995
100
AcDbEntity
  8
4
  6
CENTER
100
AcDbLine
 10
555.0
 20
38.0
 30
0.0
 11
555.0
 21
44.5
 31
0.0
  0
LINE
  5
14AF6
330
14995
100
AcDbEntity
  8
4
  6
CENTER
100
AcDbLine
 10
545.0
 20
38.0
 30
0.0
 11
545.0
 21
44.5
 31
0.0
  0
LINE
  5
14AF7
330
14995
100
AcDbEntity
  8
3
  6
DASHED
100
AcDbLine
 10
580.0
 20
49.0
 30
0.0
 11
580.0
 21
43.0
 31
0.0
  0
LINE
  5
14AF8
330
14995
100
AcDbEntity
  8
3
  6
DASHED
100
AcDbLine
 10
602.0
 20
48.0
 30
0.0
 11
580.0
 21
48.0
 31
0.0
  0
LINE
  5
14AF9
330
14995
100
AcDbEntity
  8
3
  6
DASHED
100
AcDbLine
 10
602.0
 20
43.0
 30
0.0
 11
580.0
 21
43.0
 31
0.0
  0
LINE
  5
14AFA
330
14995
100
AcDbEntity
  8
1
  6
Continuous
100
AcDbLine
 10
597.0
 20
49.5
 30
0.0
 11
585.0
 21
49.5
 31
0.0
  0
LINE
  5
14AFB
330
14995
100
AcDbEntity
  8
1
  6
Continuous
100
AcDbLine
 10
585.207107
 20
51.29289299999999
 30
0.0
 11
584.4999999999997
 21
52.0
 31
0.0
  0
ARC
  5
14AFC
330
14995
100
AcDbEntity
  8
1
  6
Continuous
100
AcDbCircle
 10
585.914214
 20
52.0
 30
0.0
 40
1.0
100
AcDbArc
 50
225.0
 51
270.0
  0
LINE
  5
14AFD
330
14995
100
AcDbEntity
  8
1
  6
Continuous
100
AcDbLine
 10
596.7928929999999
 20
51.29289299999999
 30
0.0
 11
597.5
 21
52.0
 31
0.0
  0
ARC
  5
14AFE
330
14995
100
AcDbEntity
  8
1
  6
Continuous
100
AcDbCircle
 10
596.0857859999999
 20
52.0
 30
0.0
 40
1.0
100
AcDbArc
 50
270.0
 51
315.0
  0
LINE
  5
14AFF
330
14995
100
AcDbEntity
  8
1
  6
Continuous
100
AcDbLine
 10
585.0
 20
49.0
 30
0.0
 11
585.0
 21
51.0
 31
0.0
  0
LINE
  5
14B00
330
14995
100
AcDbEntity
  8
1
  6
Continuous
100
AcDbLine
 10
597.0
 20
51.0
 30
0.0
 11
585.0
 21
51.0
 31
0.0
  0
LINE
  5
14B01
330
14995
100
AcDbEntity
  8
1
  6
Continuous
100
AcDbLine
 10
597.0
 20
49.0
 30
0.0
 11
597.0
 21
51.0
 31
0.0
  0
LINE
  5
14B02
330
14995
100
AcDbEntity
  8
3
  6
DASHED
100
AcDbLine
 10
585.0
 20
48.0
 30
0.0
 11
585.0
 21
49.0
 31
0.0
  0
LINE
  5
14B03
330
14995
100
AcDbEntity
  8
3
  6
DASHED
100
AcDbLine
 10
597.0
 20
48.0
 30
0.0
 11
597.0
 21
49.0
 31
0.0
  0
LINE
  5
14B04
330
14995
100
AcDbEntity
  8
4
  6
CENTER
100
AcDbLine
 10
591.0
 20
36.876458
 30
0.0
 11
591.0
 21
57.343926
 31
0.0
  0
LINE
  5
14B05
330
14995
100
AcDbEntity
  8
1
  6
Continuous
100
AcDbLine
 10
605.0
 20
52.0
 30
0.0
 11
605.0
 21
53.5
 31
0.0
  0
LINE
  5
14B06
330
14995
100
AcDbEntity
  8
3
  6
DASHED
100
AcDbLine
 10
602.0
 20
48.0
 30
0.0
 11
602.0
 21
43.0
 31
0.0
  0
LINE
  5
14B07
330
14995
100
AcDbEntity
  8
4
  6
CENTER
100
AcDbLine
 10
651.0
 20
38.0
 30
0.0
 11
651.0
 21
44.5
 31
0.0
  0
LINE
  5
14B08
330
14995
100
AcDbEntity
  8
4
  6
CENTER
100
AcDbLine
 10
960.0
 20
38.0
 30
0.0
 11
960.0
 21
44.5
 31
0.0
  0
LINE
  5
14B09
330
14995
100
AcDbEntity
  8
4
  6
CENTER
100
AcDbLine
 10
970.0
 20
38.0
 30
0.0
 11
970.0
 21
44.5
 31
0.0
  0
LINE
  5
14B0A
330
14995
100
AcDbEntity
  8
1
  6
Continuous
100
AcDbLine
 10
985.0
 20
41.0
 30
0.0
 11
985.0
 21
47.5
 31
0.0
  0
LINE
  5
14B0B
330
14995
100
AcDbEntity
  8
1
  6
Continuous
100
AcDbLine
 10
109.0
 20
45.49999999999999
 30
0.0
 11
500.0
 21
45.49999999999999
 31
0.0
  0
LINE
  5
14B0C
330
14995
100
AcDbEntity
  8
1
  6
Continuous
100
AcDbLine
 10
516.0201059999999
 20
46.0
 30
0.0
 11
516.0201059999999
 21
46.5
 31
0.0
  0
LINE
  5
14B0D
330
14995
100
AcDbEntity
  8
1
  6
Continuous
100
AcDbLine
 10
512.0
 20
45.49999999999999
 30
0.0
 11
539.5
 21
45.49999999999999
 31
0.0
  0
LINE
  5
14B0E
330
14995
100
AcDbEntity
  8
1
  6
Continuous
100
AcDbLine
 10
580.0
 20
52.0
 30
0.0
 11
580.0
 21
49.0
 31
0.0
  0
LINE
  5
14B0F
330
14995
100
AcDbEntity
  8
3
  6
DASHED
100
AcDbLine
 10
539.5
 20
45.49999999999999
 30
0.0
 11
578.0
 21
45.49999999999999
 31
0.0
  0
ARC
  5
14B10
330
14995
100
AcDbEntity
  8
1
  6
Continuous
100
AcDbCircle
 10
36.0
 20
148.5
 30
0.0
 40
1.5
100
AcDbArc
 50
0.0
 51
90.0
  0
LINE
  5
14B11
330
14995
100
AcDbEntity
  8
1
  6
Continuous
100
AcDbLine
 10
25.0
 20
124.0
 30
0.0
 11
25.0
 21
151.0
 31
0.0
  0
LINE
  5
14B12
330
14995
100
AcDbEntity
  8
1
  6
Continuous
100
AcDbLine
 10
26.5
 20
122.5
 30
0.0
 11
26.5
 21
151.0
 31
0.0
  0
LINE
  5
14B13
330
14995
100
AcDbEntity
  8
1
  6
Continuous
100
AcDbLine
 10
37.5
 20
123.5
 30
0.0
 11
37.5
 21
148.5
 31
0.0
  0
ARC
  5
14B14
330
14995
100
AcDbEntity
  8
1
  6
Continuous
100
AcDbCircle
 10
26.5
 20
124.0
 30
0.0
 40
1.5
100
AcDbArc
 50
180.0
 51
270.0
  0
LINE
  5
14B15
330
14995
100
AcDbEntity
  8
1
  6
Continuous
100
AcDbLine
 10
37.5
 20
123.5
 30
0.0
 11
36.0
 21
123.5
 31
0.0
  0
LINE
  5
14B16
330
14995
100
AcDbEntity
  8
1
  6
Continuous
100
AcDbLine
 10
36.0
 20
148.5
 30
0.0
 11
27.0
 21
148.5
 31
0.0
  0
LINE
  5
14B17
330
14995
100
AcDbEntity
  8
4
  6
CENTER
100
AcDbLine
 10
41.643621
 20
137.5
 30
0.0
 11
23.84947599999999
 21
137.5
 31
0.0
  0
LINE
  5
14B18
330
14995
100
AcDbEntity
  8
4
  6
CENTER
100
AcDbLine
 10
38.19373800000001
 20
135.0
 30
0.0
 11
20.0
 21
135.0
 31
0.0
  0
LINE
  5
14B19
330
14995
100
AcDbEntity
  8
1
  6
Continuous
100
AcDbLine
 10
36.0
 20
123.5
 30
0.0
 11
36.0
 21
148.5
 31
0.0
  0
LINE
  5
14B1A
330
14995
100
AcDbEntity
  8
1
  6
Continuous
100
AcDbLine
 10
33.0
 20
151.0
 30
0.0
 11
25.0
 21
151.0
 31
0.0
  0
LINE
  5
14B1B
330
14995
100
AcDbEntity
  8
1
  6
Continuous
100
AcDbLine
 10
29.5
 20
149.5
 30
0.0
 11
26.5
 21
149.5
 31
0.0
  0
LINE
  5
14B1C
330
14995
100
AcDbEntity
  8
1
  6
Continuous
100
AcDbLine
 10
29.5
 20
150.0
 30
0.0
 11
36.0
 21
150.0
 31
0.0
  0
LINE
  5
14B1D
330
14995
100
AcDbEntity
  8
1
  6
Continuous
100
AcDbLine
 10
33.0
 20
150.0
 30
0.0
 11
33.0
 21
151.0
 31
0.0
  0
LINE
  5
14B1E
330
14995
100
AcDbEntity
  8
1
  6
Continuous
100
AcDbLine
 10
29.5
 20
146.0
 30
0.0
 11
29.5
 21
150.0
 31
0.0
  0
LINE
  5
14B1F
330
14995
100
AcDbEntity
  8
1
  6
Continuous
100
AcDbLine
 10
37.5
 20
137.5
 30
0.0
 11
36.0
 21
137.5
 31
0.0
  0
LINE
  5
14B20
330
14995
100
AcDbEntity
  8
1
  6
Continuous
100
AcDbLine
 10
36.0
 20
144.0
 30
0.0
 11
37.5
 21
144.0
 31
0.0
  0
LINE
  5
14B21
330
14995
100
AcDbEntity
  8
1
  6
Continuous
100
AcDbLine
 10
25.0
 20
125.0
 30
0.0
 11
30.5
 21
125.0
 31
0.0
  0
LINE
  5
14B22
330
14995
100
AcDbEntity
  8
1
  6
Continuous
100
AcDbLine
 10
36.0
 20
146.0
 30
0.0
 11
29.5
 21
146.0
 31
0.0
  0
LINE
  5
14B23
330
14995
100
AcDbEntity
  8
1
  6
Continuous
100
AcDbLine
 10
127.0
 20
48.58615799999999
 30
0.0
 11
127.0
 21
45.98131
 31
0.0
  0
LINE
  5
14B24
330
14995
100
AcDbEntity
  8
1
  6
Continuous
100
AcDbLine
 10
127.0
 20
226.4156869999999
 30
0.0
 11
127.0
 21
228.200516
 31
0.0
  0
LINE
  5
14B25
330
14995
100
AcDbEntity
  8
1
  6
Continuous
100
AcDbLine
 10
970.0
 20
46.103955
 30
0.0
 11
970.0
 21
48.203194
 31
0.0
  0
LINE
  5
14B26
330
14995
100
AcDbEntity
  8
1
  6
Continuous
100
AcDbLine
 10
942.0
 20
42.5
 30
0.0
 11
942.0
 21
47.71568
 31
0.0
  0
ARC
  5
14B27
330
14995
100
AcDbEntity
  8
1
  6
Continuous
100
AcDbCircle
 10
983.5
 20
227.0
 30
0.0
 40
1.5
100
AcDbArc
 50
270.0
 51
0.0
  0
LINE
  5
14B28
330
14995
100
AcDbEntity
  8
1
  6
Continuous
100
AcDbLine
 10
985.0
 20
630.4999999999997
 30
0.0
 11
605.0
 21
630.4999999999997
 31
0.0
  0
LINE
  5
14B29
330
14995
100
AcDbEntity
  8
1
  6
Continuous
100
AcDbLine
 10
983.5
 20
629.0
 30
0.0
 11
560.5
 21
629.0
 31
0.0
  0
LINE
  5
14B2A
330
14995
100
AcDbEntity
  8
1
  6
Continuous
100
AcDbLine
 10
942.0
 20
525.0
 30
0.0
 11
574.5781950000001
 21
525.0
 31
0.0
  0
LINE
  5
14B2B
330
14995
100
AcDbEntity
  8
1
  6
Continuous
100
AcDbLine
 10
985.0
 20
551.0
 30
0.0
 11
559.0
 21
551.0
 31
0.0
  0
LINE
  5
14B2C
330
14995
100
AcDbEntity
  8
1
  6
Continuous
100
AcDbLine
 10
985.0
 20
621.0
 30
0.0
 11
490.5
 21
621.0
 31
0.0
  0
LINE
  5
14B2D
330
14995
100
AcDbEntity
  8
1
  6
Continuous
100
AcDbLine
 10
985.0
 20
703.5
 30
0.0
 11
559.0
 21
703.5
 31
0.0
  0
LINE
  5
14B2E
330
14995
100
AcDbEntity
  8
1
  6
Continuous
100
AcDbLine
 10
985.0
 20
705.0
 30
0.0
 11
558.0
 21
705.0
 31
0.0
  0
LINE
  5
14B2F
330
14995
100
AcDbEntity
  8
1
  6
Continuous
100
AcDbLine
 10
942.0
 20
729.4999999999999
 30
0.0
 11
599.5781950000001
 21
729.4999999999999
 31
0.0
  0
LINE
  5
14B30
330
14995
100
AcDbEntity
  8
1
  6
Continuous
100
AcDbLine
 10
942.245048
 20
724.0
 30
0.0
 11
601.698246
 21
724.0
 31
0.0
  0
LINE
  5
14B31
330
14995
100
AcDbEntity
  8
1
  6
Continuous
100
AcDbLine
 10
603.5
 20
633.4999999999999
 30
0.0
 11
109.0
 21
633.4999999999999
 31
0.0
  0
LINE
  5
14B32
330
14995
100
AcDbEntity
  8
1
  6
Continuous
100
AcDbLine
 10
580.0
 20
707.0
 30
0.0
 11
156.0
 21
707.0
 31
0.0
  0
LINE
  5
14B33
330
14995
100
AcDbEntity
  8
1
  6
Continuous
100
AcDbLine
 10
597.627489
 20
731.0
 30
0.0
 11
111.0
 21
731.0
 31
0.0
  0
LINE
  5
14B34
330
14995
100
AcDbEntity
  8
1
  6
Continuous
100
AcDbLine
 10
109.0
 20
624.0
 30
0.0
 11
559.0
 21
624.0
 31
0.0
  0
LINE
  5
14B35
330
14995
100
AcDbEntity
  8
1
  6
Continuous
100
AcDbLine
 10
597.627489
 20
523.5
 30
0.0
 11
111.0
 21
523.5
 31
0.0
  0
LINE
  5
14B36
330
14995
100
AcDbEntity
  8
1
  6
Continuous
100
AcDbLine
 10
490.5
 20
547.5
 30
0.0
 11
156.0
 21
547.5
 31
0.0
  0
LINE
  5
14B37
330
14995
100
AcDbEntity
  8
1
  6
Continuous
100
AcDbLine
 10
488.0
 20
542.4999999999998
 30
0.0
 11
155.784882
 21
542.4999999999998
 31
0.0
  0
LINE
  5
14B38
330
14995
100
AcDbEntity
  8
1
  6
Continuous
100
AcDbLine
 10
156.0
 20
547.5
 30
0.0
 11
127.0
 21
550.0
 31
0.0
  0
LINE
  5
14B39
330
14995
100
AcDbEntity
  8
4
  6
CENTER
100
AcDbLine
 10
119.25
 20
537.5
 30
0.0
 11
140.7499999999998
 21
537.5
 31
0.0
  0
LINE
  5
14B3A
330
14995
100
AcDbEntity
  8
1
  6
Continuous
100
AcDbLine
 10
155.784882
 20
542.4999999999998
 30
0.0
 11
126.784882
 21
545.0
 31
0.0
  0
CIRCLE
  5
14B3B
330
14995
100
AcDbEntity
  8
1
  6
Continuous
100
AcDbCircle
 10
125.0
 20
537.5
 30
0.0
 40
3.75
  0
LINE
  5
14B3C
330
14995
100
AcDbEntity
  8
1
  6
Continuous
100
AcDbLine
 10
25.0
 20
523.5
 30
0.0
 11
25.0
 21
548.5
 31
0.0
  0
LINE
  5
14B3D
330
14995
100
AcDbEntity
  8
1
  6
Continuous
100
AcDbLine
 10
26.5
 20
523.5
 30
0.0
 11
26.5
 21
548.5
 31
0.0
  0
LINE
  5
14B3E
330
14995
100
AcDbEntity
  8
1
  6
Continuous
100
AcDbLine
 10
27.0
 20
524.0
 30
0.0
 11
27.0
 21
541.0
 31
0.0
  0
LINE
  5
14B3F
330
14995
100
AcDbEntity
  8
1
  6
Continuous
100
AcDbLine
 10
28.0
 20
524.0
 30
0.0
 11
28.0
 21
541.0
 31
0.0
  0
LINE
  5
14B40
330
14995
100
AcDbEntity
  8
1
  6
Continuous
100
AcDbLine
 10
37.5
 20
524.0
 30
0.0
 11
37.5
 21
551.0
 31
0.0
  0
LINE
  5
14B41
330
14995
100
AcDbEntity
  8
1
  6
Continuous
100
AcDbLine
 10
29.5
 20
522.5
 30
0.0
 11
36.0
 21
522.5
 31
0.0
  0
LINE
  5
14B42
330
14995
100
AcDbEntity
  8
1
  6
Continuous
100
AcDbLine
 10
37.5
 20
525.0
 30
0.0
 11
29.5
 21
525.0
 31
0.0
  0
LINE
  5
14B43
330
14995
100
AcDbEntity
  8
1
  6
Continuous
100
AcDbLine
 10
25.0
 20
523.5
 30
0.0
 11
26.5
 21
523.5
 31
0.0
  0
ARC
  5
14B44
330
14995
100
AcDbEntity
  8
1
  6
Continuous
100
AcDbCircle
 10
29.5
 20
524.0
 30
0.0
 40
1.5
100
AcDbArc
 50
180.0
 51
270.0
  0
LINE
  5
14B45
330
14995
100
AcDbEntity
  8
1
  6
Continuous
100
AcDbLine
 10
27.0
 20
524.0
 30
0.0
 11
28.0
 21
524.0
 31
0.0
  0
ARC
  5
14B46
330
14995
100
AcDbEntity
  8
1
  6
Continuous
100
AcDbCircle
 10
29.5
 20
526.4999999999998
 30
0.0
 40
1.5
100
AcDbArc
 50
180.0
 51
270.0
  0
ARC
  5
14B47
330
14995
100
AcDbEntity
  8
1
  6
Continuous
100
AcDbCircle
 10
36.0
 20
524.0
 30
0.0
 40
1.5
100
AcDbArc
 50
270.0
 51
0.0
  0
LINE
  5
14B48
330
14995
100
AcDbEntity
  8
1
  6
Continuous
100
AcDbLine
 10
29.5
 20
551.0
 30
0.0
 11
37.5
 21
551.0
 31
0.0
  0
LINE
  5
14B49
330
14995
100
AcDbEntity
  8
1
  6
Continuous
100
AcDbLine
 10
33.0
 20
550.0
 30
0.0
 11
26.5
 21
550.0
 31
0.0
  0
LINE
  5
14B4A
330
14995
100
AcDbEntity
  8
4
  6
CENTER
100
AcDbLine
 10
20.856379
 20
537.5
 30
0.0
 11
38.65052399999999
 21
537.5
 31
0.0
  0
LINE
  5
14B4B
330
14995
100
AcDbEntity
  8
4
  6
CENTER
100
AcDbLine
 10
24.306262
 20
535.0
 30
0.0
 11
42.5
 21
535.0
 31
0.0
  0
LINE
  5
14B4C
330
14995
100
AcDbEntity
  8
1
  6
Continuous
100
AcDbLine
 10
26.5
 20
548.5
 30
0.0
 11
33.0
 21
548.5
 31
0.0
  0
LINE
  5
14B4D
330
14995
100
AcDbEntity
  8
1
  6
Continuous
100
AcDbLine
 10
37.5
 20
541.0
 30
0.0
 11
26.5
 21
541.0
 31
0.0
  0
LINE
  5
14B4E
330
14995
100
AcDbEntity
  8
1
  6
Continuous
100
AcDbLine
 10
33.0
 20
544.5
 30
0.0
 11
26.5
 21
544.5
 31
0.0
  0
LINE
  5
14B4F
330
14995
100
AcDbEntity
  8
1
  6
Continuous
100
AcDbLine
 10
26.5
 20
546.0
 30
0.0
 11
33.0
 21
546.0
 31
0.0
  0
LINE
  5
14B50
330
14995
100
AcDbEntity
  8
1
  6
Continuous
100
AcDbLine
 10
29.5
 20
550.0
 30
0.0
 11
29.5
 21
551.0
 31
0.0
  0
LINE
  5
14B51
330
14995
100
AcDbEntity
  8
1
  6
Continuous
100
AcDbLine
 10
25.0
 20
537.5
 30
0.0
 11
26.5
 21
537.5
 31
0.0
  0
LINE
  5
14B52
330
14995
100
AcDbEntity
  8
1
  6
Continuous
100
AcDbLine
 10
26.5
 20
544.0
 30
0.0
 11
25.0
 21
544.0
 31
0.0
  0
LINE
  5
14B53
330
14995
100
AcDbEntity
  8
1
  6
Continuous
100
AcDbLine
 10
27.0
 20
544.5
 30
0.0
 11
27.0
 21
546.0
 31
0.0
  0
ARC
  5
14B54
330
14995
100
AcDbEntity
  8
1
  6
Continuous
100
AcDbCircle
 10
26.5
 20
548.5
 30
0.0
 40
1.5
100
AcDbArc
 50
90.0
 51
180.0
  0
LINE
  5
14B55
330
14995
100
AcDbEntity
  8
1
  6
Continuous
100
AcDbLine
 10
34.118034
 20
549.5
 30
0.0
 11
36.0
 21
549.5
 31
0.0
  0
LINE
  5
14B56
330
14995
100
AcDbEntity
  8
1
  6
Continuous
100
AcDbLine
 10
34.5
 20
545.0
 30
0.0
 11
33.0
 21
545.0
 31
0.0
  0
LINE
  5
14B57
330
14995
100
AcDbEntity
  8
1
  6
Continuous
100
AcDbLine
 10
33.0
 20
541.0
 30
0.0
 11
33.0
 21
548.5
 31
0.0
  0
LINE
  5
14B58
330
14995
100
AcDbEntity
  8
1
  6
Continuous
100
AcDbLine
 10
33.0
 20
542.4999999999998
 30
0.0
 11
34.5
 21
542.4999999999998
 31
0.0
  0
LINE
  5
14B59
330
14995
100
AcDbEntity
  8
1
  6
Continuous
100
AcDbLine
 10
34.5
 20
542.4999999999998
 30
0.0
 11
34.5
 21
548.5
 31
0.0
  0
LINE
  5
14B5A
330
14995
100
AcDbEntity
  8
1
  6
Continuous
100
AcDbLine
 10
32.0
 20
544.5
 30
0.0
 11
32.0
 21
546.0
 31
0.0
  0
LINE
  5
14B5B
330
14995
100
AcDbEntity
  8
1
  6
Continuous
100
AcDbLine
 10
36.0
 20
541.0
 30
0.0
 11
36.0
 21
551.0
 31
0.0
  0
ARC
  5
14B5C
330
14995
100
AcDbEntity
  8
1
  6
Continuous
100
AcDbCircle
 10
33.0
 20
548.5
 30
0.0
 40
1.5
100
AcDbArc
 50
0.0
 51
90.0
  0
LINE
  5
14B5D
330
14995
100
AcDbEntity
  8
4
  6
CENTER
100
AcDbLine
 10
125.0
 20
531.7499999999999
 30
0.0
 11
125.0
 21
543.25
 31
0.0
  0
LINE
  5
14B5E
330
14995
100
AcDbEntity
  8
1
  6
Continuous
100
AcDbLine
 10
109.0
 20
536.0
 30
0.0
 11
109.0
 21
525.4999999999999
 31
0.0
  0
ARC
  5
14B5F
330
14995
100
AcDbEntity
  8
1
  6
Continuous
100
AcDbCircle
 10
111.0
 20
525.4999999999999
 30
0.0
 40
2.0
100
AcDbArc
 50
180.0
 51
270.0
  0
LINE
  5
14B60
330
14995
100
AcDbEntity
  8
1
  6
Continuous
100
AcDbLine
 10
109.0
 20
550.0
 30
0.0
 11
127.0
 21
550.0
 31
0.0
  0
LINE
  5
14B61
330
14995
100
AcDbEntity
  8
1
  6
Continuous
100
AcDbLine
 10
110.4999999999999
 20
537.5
 30
0.0
 11
117.0
 21
537.5
 31
0.0
  0
LINE
  5
14B62
330
14995
100
AcDbEntity
  8
1
  6
Continuous
100
AcDbLine
 10
110.0671439999999
 20
543.6783709999998
 30
0.0
 11
117.577141
 21
541.4149169999998
 31
0.0
  0
LINE
  5
14B63
330
14995
100
AcDbEntity
  8
1
  6
Continuous
100
AcDbLine
 10
110.4999999999999
 20
545.0
 30
0.0
 11
126.784882
 21
545.0
 31
0.0
  0
ARC
  5
14B64
330
14995
100
AcDbEntity
  8
1
  6
Continuous
100
AcDbCircle
 10
110.4999999999999
 20
536.0
 30
0.0
 40
1.5
100
AcDbArc
 50
90.0
 51
180.0
  0
ARC
  5
14B65
330
14995
100
AcDbEntity
  8
1
  6
Continuous
100
AcDbCircle
 10
110.4999999999999
 20
545.114559
 30
0.0
 40
1.5
100
AcDbArc
 50
180.0
 51
253.2276069999999
  0
ARC
  5
14B66
330
14995
100
AcDbEntity
  8
1
  6
Continuous
100
AcDbCircle
 10
110.4999999999999
 20
546.4999999999998
 30
0.0
 40
1.5
100
AcDbArc
 50
180.0
 51
270.0
  0
LINE
  5
14B67
330
14995
100
AcDbEntity
  8
1
  6
Continuous
100
AcDbLine
 10
109.0
 20
550.0
 30
0.0
 11
109.0
 21
545.114559
 31
0.0
  0
ARC
  5
14B68
330
14995
100
AcDbEntity
  8
1
  6
Continuous
100
AcDbCircle
 10
117.0
 20
539.5
 30
0.0
 40
2.0
100
AcDbArc
 50
270.0
 51
73.22760699999998
  0
CIRCLE
  5
14B69
330
14995
100
AcDbEntity
  8
1
  6
Continuous
100
AcDbCircle
 10
125.0
 20
537.5
 30
0.0
 40
2.399999999999999
  0
LINE
  5
14B6A
330
14995
100
AcDbEntity
  8
4
  6
CENTER
100
AcDbLine
 10
135.0
 20
530.75
 30
0.0
 11
135.0
 21
544.2499999999999
 31
0.0
  0
ARC
  5
14B6B
330
14995
100
AcDbEntity
  8
1
  6
Continuous
100
AcDbCircle
 10
135.0
 20
536.5
 30
0.0
 40
3.75
100
AcDbArc
 50
180.0
 51
0.0
  0
ARC
  5
14B6C
330
14995
100
AcDbEntity
  8
1
  6
Continuous
100
AcDbCircle
 10
135.0
 20
538.4999999999998
 30
0.0
 40
3.75
100
AcDbArc
 50
0.0
 51
180.0
  0
LINE
  5
14B6D
330
14995
100
AcDbEntity
  8
1
  6
Continuous
100
AcDbLine
 10
131.25
 20
536.5
 30
0.0
 11
131.25
 21
538.4999999999998
 31
0.0
  0
LINE
  5
14B6E
330
14995
100
AcDbEntity
  8
1
  6
Continuous
100
AcDbLine
 10
137.4
 20
536.5
 30
0.0
 11
137.4
 21
538.4999999999998
 31
0.0
  0
ARC
  5
14B6F
330
14995
100
AcDbEntity
  8
1
  6
Continuous
100
AcDbCircle
 10
135.0
 20
536.5
 30
0.0
 40
2.399999999999999
100
AcDbArc
 50
180.0
 51
0.0
  0
LINE
  5
14B70
330
14995
100
AcDbEntity
  8
1
  6
Continuous
100
AcDbLine
 10
132.6
 20
536.5
 30
0.0
 11
132.6
 21
538.4999999999998
 31
0.0
  0
ARC
  5
14B71
330
14995
100
AcDbEntity
  8
1
  6
Continuous
100
AcDbCircle
 10
135.0
 20
538.4999999999998
 30
0.0
 40
2.399999999999999
100
AcDbArc
 50
0.0
 51
180.0
  0
LINE
  5
14B72
330
14995
100
AcDbEntity
  8
1
  6
Continuous
100
AcDbLine
 10
138.7499999999998
 20
536.5
 30
0.0
 11
138.7499999999998
 21
538.4999999999998
 31
0.0
  0
LINE
  5
14B73
330
14995
100
AcDbEntity
  8
1
  6
Continuous
100
AcDbLine
 10
156.0
 20
707.0
 30
0.0
 11
127.0
 21
704.4999999999999
 31
0.0
  0
LINE
  5
14B74
330
14995
100
AcDbEntity
  8
4
  6
CENTER
100
AcDbLine
 10
119.25
 20
717.0
 30
0.0
 11
140.7499999999998
 21
717.0
 31
0.0
  0
LINE
  5
14B75
330
14995
100
AcDbEntity
  8
1
  6
Continuous
100
AcDbLine
 10
142.0
 20
708.0
 30
0.0
 11
115.5
 21
708.0
 31
0.0
  0
LINE
  5
14B76
330
14995
100
AcDbEntity
  8
1
  6
Continuous
100
AcDbLine
 10
143.198508
 20
707.4019859999999
 30
0.0
 11
126.9354649999998
 21
706.0
 31
0.0
  0
LINE
  5
14B77
330
14995
100
AcDbEntity
  8
1
  6
Continuous
100
AcDbLine
 10
143.5
 20
632.0
 30
0.0
 11
114.0
 21
632.0
 31
0.0
  0
LINE
  5
14B78
330
14995
100
AcDbEntity
  8
1
  6
Continuous
100
AcDbLine
 10
142.0
 20
629.0
 30
0.0
 11
115.5
 21
629.0
 31
0.0
  0
LINE
  5
14B79
330
14995
100
AcDbEntity
  8
1
  6
Continuous
100
AcDbLine
 10
109.0
 20
633.4999999999999
 30
0.0
 11
109.0
 21
624.0
 31
0.0
  0
LINE
  5
14B7A
330
14995
100
AcDbEntity
  8
1
  6
Continuous
100
AcDbLine
 10
127.0
 20
628.084313
 30
0.0
 11
127.0
 21
624.799484
 31
0.0
  0
LINE
  5
14B7B
330
14995
100
AcDbEntity
  8
1
  6
Continuous
100
AcDbLine
 10
114.0
 20
630.4999999999997
 30
0.0
 11
114.0
 21
633.4999999999999
 31
0.0
  0
ARC
  5
14B7C
330
14995
100
AcDbEntity
  8
1
  6
Continuous
100
AcDbCircle
 10
115.5
 20
630.4999999999997
 30
0.0
 40
1.5
100
AcDbArc
 50
180.0
 51
270.0
  0
LINE
  5
14B7D
330
14995
100
AcDbEntity
  8
4
  6
CENTER
100
AcDbLine
 10
125.0
 20
636.5
 30
0.0
 11
125.0
 21
630.0
 31
0.0
  0
ARC
  5
14B7E
330
14995
100
AcDbEntity
  8
1
  6
Continuous
100
AcDbCircle
 10
115.5
 20
706.5
 30
0.0
 40
1.5
100
AcDbArc
 50
90.0
 51
180.0
  0
LINE
  5
14B7F
330
14995
100
AcDbEntity
  8
1
  6
Continuous
100
AcDbLine
 10
109.0
 20
704.4999999999999
 30
0.0
 11
109.0
 21
709.385441
 31
0.0
  0
LINE
  5
14B80
330
14995
100
AcDbEntity
  8
1
  6
Continuous
100
AcDbLine
 10
109.0
 20
704.4999999999999
 30
0.0
 11
127.0
 21
704.4999999999999
 31
0.0
  0
LINE
  5
14B81
330
14995
100
AcDbEntity
  8
1
  6
Continuous
100
AcDbLine
 10
114.0
 20
706.0
 30
0.0
 11
126.9354649999998
 21
706.0
 31
0.0
  0
LINE
  5
14B82
330
14995
100
AcDbEntity
  8
1
  6
Continuous
100
AcDbLine
 10
114.0
 20
704.4999999999999
 30
0.0
 11
114.0
 21
706.5
 31
0.0
  0
ARC
  5
14B83
330
14995
100
AcDbEntity
  8
1
  6
Continuous
100
AcDbCircle
 10
111.0
 20
729.0
 30
0.0
 40
2.0
100
AcDbArc
 50
90.0
 51
180.0
  0
LINE
  5
14B84
330
14995
100
AcDbEntity
  8
1
  6
Continuous
100
AcDbLine
 10
110.0671439999999
 20
710.821629
 30
0.0
 11
117.577141
 21
713.0850830000001
 31
0.0
  0
LINE
  5
14B85
330
14995
100
AcDbEntity
  8
1
  6
Continuous
100
AcDbLine
 10
110.4999999999999
 20
717.0
 30
0.0
 11
117.0
 21
717.0
 31
0.0
  0
ARC
  5
14B86
330
14995
100
AcDbEntity
  8
1
  6
Continuous
100
AcDbCircle
 10
110.4999999999999
 20
709.385441
 30
0.0
 40
1.5
100
AcDbArc
 50
106.7723929999998
 51
180.0
  0
ARC
  5
14B87
330
14995
100
AcDbEntity
  8
1
  6
Continuous
100
AcDbCircle
 10
110.4999999999999
 20
718.5
 30
0.0
 40
1.5
100
AcDbArc
 50
180.0
 51
270.0
  0
LINE
  5
14B88
330
14995
100
AcDbEntity
  8
1
  6
Continuous
100
AcDbLine
 10
109.0
 20
718.5
 30
0.0
 11
109.0
 21
729.0
 31
0.0
  0
CIRCLE
  5
14B89
330
14995
100
AcDbEntity
  8
1
  6
Continuous
100
AcDbCircle
 10
125.0
 20
717.0
 30
0.0
 40
2.399999999999999
  0
LINE
  5
14B8A
330
14995
100
AcDbEntity
  8
4
  6
CENTER
100
AcDbLine
 10
125.0
 20
722.75
 30
0.0
 11
125.0
 21
711.2499999999997
 31
0.0
  0
ARC
  5
14B8B
330
14995
100
AcDbEntity
  8
1
  6
Continuous
100
AcDbCircle
 10
117.0
 20
715.0
 30
0.0
 40
2.0
100
AcDbArc
 50
286.772393
 51
90.0
  0
ARC
  5
14B8C
330
14995
100
AcDbEntity
  8
1
  6
Continuous
100
AcDbCircle
 10
142.0
 20
630.4999999999997
 30
0.0
 40
1.5
100
AcDbArc
 50
270.0
 51
0.0
  0
LINE
  5
14B8D
330
14995
100
AcDbEntity
  8
1
  6
Continuous
100
AcDbLine
 10
143.5
 20
633.4999999999999
 30
0.0
 11
143.5
 21
630.4999999999997
 31
0.0
  0
LINE
  5
14B8E
330
14995
100
AcDbEntity
  8
4
  6
CENTER
100
AcDbLine
 10
135.0
 20
636.5
 30
0.0
 11
135.0
 21
630.0
 31
0.0
  0
LINE
  5
14B8F
330
14995
100
AcDbEntity
  8
1
  6
Continuous
100
AcDbLine
 10
156.0
 20
632.5
 30
0.0
 11
156.0
 21
625.0
 31
0.0
  0
ARC
  5
14B90
330
14995
100
AcDbEntity
  8
1
  6
Continuous
100
AcDbCircle
 10
142.0
 20
706.5
 30
0.0
 40
1.5
100
AcDbArc
 50
0.0
 51
90.0
  0
LINE
  5
14B91
330
14995
100
AcDbEntity
  8
1
  6
Continuous
100
AcDbLine
 10
143.5
 20
705.922414
 30
0.0
 11
143.5
 21
706.5
 31
0.0
  0
ARC
  5
14B92
330
14995
100
AcDbEntity
  8
1
  6
Continuous
100
AcDbCircle
 10
135.0
 20
716.0
 30
0.0
 40
2.399999999999999
100
AcDbArc
 50
180.0
 51
0.0
  0
LINE
  5
14B93
330
14995
100
AcDbEntity
  8
1
  6
Continuous
100
AcDbLine
 10
132.6
 20
718.0
 30
0.0
 11
132.6
 21
716.0
 31
0.0
  0
ARC
  5
14B94
330
14995
100
AcDbEntity
  8
1
  6
Continuous
100
AcDbCircle
 10
135.0
 20
718.0
 30
0.0
 40
2.399999999999999
100
AcDbArc
 50
0.0
 51
180.0
  0
LINE
  5
14B95
330
14995
100
AcDbEntity
  8
1
  6
Continuous
100
AcDbLine
 10
137.4
 20
718.0
 30
0.0
 11
137.4
 21
716.0
 31
0.0
  0
LINE
  5
14B96
330
14995
100
AcDbEntity
  8
4
  6
CENTER
100
AcDbLine
 10
135.0
 20
723.7499999999998
 30
0.0
 11
135.0
 21
710.25
 31
0.0
  0
LINE
  5
14B97
330
14995
100
AcDbEntity
  8
4
  6
CENTER
100
AcDbLine
 10
606.0
 20
537.5
 30
0.0
 11
559.25
 21
537.5
 31
0.0
  0
LINE
  5
14B98
330
14995
100
AcDbEntity
  8
1
  6
Continuous
100
AcDbLine
 10
574.5781950000001
 20
525.0
 30
0.0
 11
539.5
 21
525.0
 31
0.0
  0
LINE
  5
14B99
330
14995
100
AcDbEntity
  8
4
  6
CENTER
100
AcDbLine
 10
539.25
 20
535.0
 30
0.0
 11
560.7499999999999
 21
535.0
 31
0.0
  0
LINE
  5
14B9A
330
14995
100
AcDbEntity
  8
3
  6
DASHED
100
AcDbLine
 10
581.5
 20
546.0
 30
0.0
 11
585.5
 21
547.5
 31
0.0
  0
LINE
  5
14B9B
330
14995
100
AcDbEntity
  8
1
  6
Continuous
100
AcDbLine
 10
558.0
 20
549.5
 30
0.0
 11
554.0
 21
551.0
 31
0.0
  0
LINE
  5
14B9C
330
14995
100
AcDbEntity
  8
1
  6
Continuous
100
AcDbLine
 10
554.0
 20
551.0
 30
0.0
 11
492.4999999999998
 21
551.0
 31
0.0
  0
LINE
  5
14B9D
330
14995
100
AcDbEntity
  8
4
  6
CENTER
100
AcDbLine
 10
521.0
 20
535.0
 30
0.0
 11
491.0
 21
535.0
 31
0.0
  0
LINE
  5
14B9E
330
14995
100
AcDbEntity
  8
3
  6
DASHED
100
AcDbLine
 10
580.0
 20
547.5
 30
0.0
 11
490.5
 21
547.5
 31
0.0
  0
LINE
  5
14B9F
330
14995
100
AcDbEntity
  8
1
  6
Continuous
100
AcDbLine
 10
534.4999999999998
 20
525.0
 30
0.0
 11
489.0
 21
525.0
 31
0.0
  0
LINE
  5
14BA0
330
14995
100
AcDbEntity
  8
3
  6
DASHED
100
AcDbLine
 10
578.5
 20
542.4999999999998
 30
0.0
 11
488.0
 21
542.4999999999998
 31
0.0
  0
LINE
  5
14BA1
330
14995
100
AcDbEntity
  8
4
  6
CENTER
100
AcDbLine
 10
490.8
 20
546.95
 30
0.0
 11
498.3
 21
546.95
 31
0.0
  0
CIRCLE
  5
14BA2
330
14995
100
AcDbEntity
  8
1
  6
Continuous
100
AcDbCircle
 10
494.55
 20
546.95
 30
0.0
 40
1.75
  0
LINE
  5
14BA3
330
14995
100
AcDbEntity
  8
4
  6
CENTER
100
AcDbLine
 10
465.0
 20
531.7499999999999
 30
0.0
 11
465.0
 21
543.25
 31
0.0
  0
LINE
  5
14BA4
330
14995
100
AcDbEntity
  8
1
  6
Continuous
100
AcDbLine
 10
489.0
 20
525.0
 30
0.0
 11
489.0
 21
541.0
 31
0.0
  0
LINE
  5
14BA5
330
14995
100
AcDbEntity
  8
4
  6
CENTER
100
AcDbLine
 10
455.0
 20
530.75
 30
0.0
 11
455.0
 21
544.2499999999999
 31
0.0
  0
LINE
  5
14BA6
330
14995
100
AcDbEntity
  8
4
  6
CENTER
100
AcDbLine
 10
470.75
 20
537.5
 30
0.0
 11
449.2499999999998
 21
537.5
 31
0.0
  0
CIRCLE
  5
14BA7
330
14995
100
AcDbEntity
  8
1
  6
Continuous
100
AcDbCircle
 10
465.0
 20
537.5
 30
0.0
 40
3.75
  0
ARC
  5
14BA8
330
14995
100
AcDbEntity
  8
1
  6
Continuous
100
AcDbCircle
 10
455.0
 20
538.4999999999998
 30
0.0
 40
3.75
100
AcDbArc
 50
0.0
 51
180.0
  0
ARC
  5
14BA9
330
14995
100
AcDbEntity
  8
1
  6
Continuous
100
AcDbCircle
 10
455.0
 20
536.5
 30
0.0
 40
3.75
100
AcDbArc
 50
180.0
 51
0.0
  0
LINE
  5
14BAA
330
14995
100
AcDbEntity
  8
1
  6
Continuous
100
AcDbLine
 10
451.25
 20
536.5
 30
0.0
 11
451.25
 21
538.4999999999998
 31
0.0
  0
ARC
  5
14BAB
330
14995
100
AcDbEntity
  8
1
  6
Continuous
100
AcDbCircle
 10
455.0
 20
538.4999999999998
 30
0.0
 40
2.399999999999999
100
AcDbArc
 50
0.0
 51
180.0
  0
ARC
  5
14BAC
330
14995
100
AcDbEntity
  8
1
  6
Continuous
100
AcDbCircle
 10
455.0
 20
536.5
 30
0.0
 40
2.399999999999999
100
AcDbArc
 50
180.0
 51
0.0
  0
LINE
  5
14BAD
330
14995
100
AcDbEntity
  8
1
  6
Continuous
100
AcDbLine
 10
457.3999999999998
 20
536.5
 30
0.0
 11
457.3999999999998
 21
538.4999999999998
 31
0.0
  0
LINE
  5
14BAE
330
14995
100
AcDbEntity
  8
1
  6
Continuous
100
AcDbLine
 10
452.6
 20
536.5
 30
0.0
 11
452.6
 21
538.4999999999998
 31
0.0
  0
LINE
  5
14BAF
330
14995
100
AcDbEntity
  8
1
  6
Continuous
100
AcDbLine
 10
458.75
 20
536.5
 30
0.0
 11
458.75
 21
538.4999999999998
 31
0.0
  0
CIRCLE
  5
14BB0
330
14995
100
AcDbEntity
  8
1
  6
Continuous
100
AcDbCircle
 10
465.0
 20
537.5
 30
0.0
 40
2.399999999999999
  0
LINE
  5
14BB1
330
14995
100
AcDbEntity
  8
1
  6
Continuous
100
AcDbLine
 10
488.0
 20
544.5
 30
0.0
 11
488.0
 21
541.0
 31
0.0
  0
LINE
  5
14BB2
330
14995
100
AcDbEntity
  8
1
  6
Continuous
100
AcDbLine
 10
490.5
 20
544.5
 30
0.0
 11
488.0
 21
544.5
 31
0.0
  0
LINE
  5
14BB3
330
14995
100
AcDbEntity
  8
1
  6
Continuous
100
AcDbLine
 10
490.5
 20
541.0
 30
0.0
 11
488.0
 21
541.0
 31
0.0
  0
LINE
  5
14BB4
330
14995
100
AcDbEntity
  8
1
  6
Continuous
100
AcDbLine
 10
490.5
 20
549.0
 30
0.0
 11
490.5
 21
541.0
 31
0.0
  0
LINE
  5
14BB5
330
14995
100
AcDbEntity
  8
4
  6
CENTER
100
AcDbLine
 10
545.0
 20
529.6
 30
0.0
 11
545.0
 21
540.3999999999999
 31
0.0
  0
LINE
  5
14BB6
330
14995
100
AcDbEntity
  8
4
  6
CENTER
100
AcDbLine
 10
555.0
 20
528.6
 30
0.0
 11
555.0
 21
541.3999999999998
 31
0.0
  0
ARC
  5
14BB7
330
14995
100
AcDbEntity
  8
1
  6
Continuous
100
AcDbCircle
 10
555.0
 20
534.0
 30
0.0
 40
2.399999999999999
100
AcDbArc
 50
180.0
 51
0.0
  0
CIRCLE
  5
14BB8
330
14995
100
AcDbEntity
  8
1
  6
Continuous
100
AcDbCircle
 10
506.0
 20
535.0
 30
0.0
 40
3.0
  0
CIRCLE
  5
14BB9
330
14995
100
AcDbEntity
  8
1
  6
Continuous
100
AcDbCircle
 10
506.0
 20
535.0
 30
0.0
 40
5.0
  0
ARC
  5
14BBA
330
14995
100
AcDbEntity
  8
3
  6
DASHED
100
AcDbCircle
 10
506.0
 20
535.0
 30
0.0
 40
11.0
100
AcDbArc
 50
294.619977
 51
245.380023
  0
LINE
  5
14BBB
330
14995
100
AcDbEntity
  8
4
  6
CENTER
100
AcDbLine
 10
506.0
 20
520.0
 30
0.0
 11
506.0
 21
550.0
 31
0.0
  0
ARC
  5
14BBC
330
14995
100
AcDbEntity
  8
1
  6
Continuous
100
AcDbCircle
 10
506.0
 20
535.0
 30
0.0
 40
11.0
100
AcDbArc
 50
245.380023
 51
294.619977
  0
LINE
  5
14BBD
330
14995
100
AcDbEntity
  8
1
  6
Continuous
100
AcDbLine
 10
538.4999999999998
 20
526.4999999999998
 30
0.0
 11
534.4999999999998
 21
525.0
 31
0.0
  0
LINE
  5
14BBE
330
14995
100
AcDbEntity
  8
1
  6
Continuous
100
AcDbLine
 10
539.5
 20
525.0
 30
0.0
 11
539.5
 21
526.4999999999998
 31
0.0
  0
LINE
  5
14BBF
330
14995
100
AcDbEntity
  8
1
  6
Continuous
100
AcDbLine
 10
539.5
 20
526.4999999999998
 30
0.0
 11
538.4999999999998
 21
526.4999999999998
 31
0.0
  0
LINE
  5
14BC0
330
14995
100
AcDbEntity
  8
3
  6
DASHED
100
AcDbLine
 10
511.9000719999998
 20
544.2868959999998
 30
0.0
 11
509.544554
 21
546.0
 31
0.0
  0
LINE
  5
14BC1
330
14995
100
AcDbEntity
  8
4
  6
CENTER
100
AcDbLine
 10
494.55
 20
543.2
 30
0.0
 11
494.55
 21
550.7
 31
0.0
  0
LINE
  5
14BC2
330
14995
100
AcDbEntity
  8
4
  6
CENTER
100
AcDbLine
 10
514.25
 20
543.0
 30
0.0
 11
525.75
 21
543.0
 31
0.0
  0
LINE
  5
14BC3
330
14995
100
AcDbEntity
  8
3
  6
DASHED
100
AcDbLine
 10
513.6645879999998
 20
544.2868959999998
 30
0.0
 11
516.0201059999999
 21
546.0
 31
0.0
  0
ARC
  5
14BC4
330
14995
100
AcDbEntity
  8
3
  6
DASHED
100
AcDbCircle
 10
512.78233
 20
545.5
 30
0.0
 40
1.5
100
AcDbArc
 50
233.9726269999999
 51
306.027373
  0
LINE
  5
14BC5
330
14995
100
AcDbEntity
  8
4
  6
CENTER
100
AcDbLine
 10
520.0
 20
537.25
 30
0.0
 11
520.0
 21
548.7499999999998
 31
0.0
  0
CIRCLE
  5
14BC6
330
14995
100
AcDbEntity
  8
1
  6
Continuous
100
AcDbCircle
 10
520.0
 20
543.0
 30
0.0
 40
2.399999999999999
  0
CIRCLE
  5
14BC7
330
14995
100
AcDbEntity
  8
1
  6
Continuous
100
AcDbCircle
 10
545.0
 20
535.0
 30
0.0
 40
2.399999999999999
  0
LINE
  5
14BC8
330
14995
100
AcDbEntity
  8
3
  6
DASHED
100
AcDbLine
 10
581.5
 20
546.0
 30
0.0
 11
580.0
 21
546.0
 31
0.0
  0
LINE
  5
14BC9
330
14995
100
AcDbEntity
  8
3
  6
DASHED
100
AcDbLine
 10
580.0
 20
544.0
 30
0.0
 11
580.0
 21
547.5
 31
0.0
  0
LINE
  5
14BCA
330
14995
100
AcDbEntity
  8
1
  6
Continuous
100
AcDbLine
 10
552.6
 20
534.0
 30
0.0
 11
552.6
 21
536.0
 31
0.0
  0
LINE
  5
14BCB
330
14995
100
AcDbEntity
  8
1
  6
Continuous
100
AcDbLine
 10
557.3999999999998
 20
534.0
 30
0.0
 11
557.3999999999998
 21
536.0
 31
0.0
  0
ARC
  5
14BCC
330
14995
100
AcDbEntity
  8
1
  6
Continuous
100
AcDbCircle
 10
555.0
 20
536.0
 30
0.0
 40
2.399999999999999
100
AcDbArc
 50
0.0
 51
180.0
  0
ARC
  5
14BCD
330
14995
100
AcDbEntity
  8
3
  6
DASHED
100
AcDbCircle
 10
578.5
 20
544.0
 30
0.0
 40
1.5
100
AcDbArc
 50
270.0
 51
0.0
  0
LINE
  5
14BCE
330
14995
100
AcDbEntity
  8
3
  6
DASHED
100
AcDbLine
 10
603.691288
 20
531.5
 30
0.0
 11
604.063122
 21
532.464641
 31
0.0
  0
LINE
  5
14BCF
330
14995
100
AcDbEntity
  8
3
  6
DASHED
100
AcDbLine
 10
602.083709
 20
531.5
 30
0.0
 11
602.663502
 21
533.004144
 31
0.0
  0
LINE
  5
14BD0
330
14995
100
AcDbEntity
  8
4
  6
CENTER
100
AcDbLine
 10
591.0
 20
522.5
 30
0.0
 11
591.0
 21
552.5
 31
0.0
  0
ARC
  5
14BD1
330
14995
100
AcDbEntity
  8
1
  6
Continuous
100
AcDbCircle
 10
597.627489
 20
525.4999999999999
 30
0.0
 40
2.0
100
AcDbArc
 50
270.0
 51
338.920162
  0
LINE
  5
14BD2
330
14995
100
AcDbEntity
  8
3
  6
DASHED
100
AcDbLine
 10
603.335541
 20
527.7967559999998
 30
0.0
 11
601.06924
 21
528.8681839999997
 31
0.0
  0
LINE
  5
14BD3
330
14995
100
AcDbEntity
  8
3
  6
DASHED
100
AcDbLine
 10
604.597809
 20
531.0714289999999
 30
0.0
 11
603.691288
 21
531.5
 31
0.0
  0
LINE
  5
14BD4
330
14995
100
AcDbEntity
  8
3
  6
DASHED
100
AcDbLine
 10
603.335541
 20
527.7967559999998
 30
0.0
 11
604.597809
 21
531.0714289999999
 31
0.0
  0
LINE
  5
14BD5
330
14995
100
AcDbEntity
  8
3
  6
DASHED
100
AcDbLine
 10
603.691288
 20
531.5
 30
0.0
 11
602.083709
 21
531.5
 31
0.0
  0
LINE
  5
14BD6
330
14995
100
AcDbEntity
  8
1
  6
Continuous
100
AcDbLine
 10
599.493649
 20
524.780663
 30
0.0
 11
599.5781950000001
 21
525.0
 31
0.0
  0
LINE
  5
14BD7
330
14995
100
AcDbEntity
  8
3
  6
DASHED
100
AcDbLine
 10
599.5781950000001
 20
525.0
 30
0.0
 11
602.083709
 21
531.5
 31
0.0
  0
LINE
  5
14BD8
330
14995
100
AcDbEntity
  8
3
  6
DASHED
100
AcDbLine
 10
601.5
 20
547.5
 30
0.0
 11
585.5
 21
547.5
 31
0.0
  0
LINE
  5
14BD9
330
14995
100
AcDbEntity
  8
1
  6
Continuous
100
AcDbLine
 10
559.0
 20
549.5
 30
0.0
 11
559.0
 21
551.0
 31
0.0
  0
LINE
  5
14BDA
330
14995
100
AcDbEntity
  8
1
  6
Continuous
100
AcDbLine
 10
558.0
 20
549.5
 30
0.0
 11
559.0
 21
549.5
 31
0.0
  0
LINE
  5
14BDB
330
14995
100
AcDbEntity
  8
3
  6
DASHED
100
AcDbLine
 10
605.0
 20
541.5
 30
0.0
 11
603.5
 21
541.5
 31
0.0
  0
ARC
  5
14BDC
330
14995
100
AcDbEntity
  8
3
  6
DASHED
100
AcDbCircle
 10
591.0
 20
537.5
 30
0.0
 40
14.0
100
AcDbArc
 50
338.920162
 51
0.0
  0
ARC
  5
14BDD
330
14995
100
AcDbEntity
  8
3
  6
DASHED
100
AcDbCircle
 10
601.5
 20
545.5
 30
0.0
 40
2.0
100
AcDbArc
 50
0.0
 51
90.0
  0
LINE
  5
14BDE
330
14995
100
AcDbEntity
  8
3
  6
DASHED
100
AcDbLine
 10
603.5
 20
537.5
 30
0.0
 11
603.5
 21
545.5
 31
0.0
  0
ARC
  5
14BDF
330
14995
100
AcDbEntity
  8
3
  6
DASHED
100
AcDbCircle
 10
591.0
 20
537.5
 30
0.0
 40
12.5
100
AcDbArc
 50
338.920162
 51
0.0
  0
LINE
  5
14BE0
330
14995
100
AcDbEntity
  8
3
  6
DASHED
100
AcDbLine
 10
605.0
 20
537.5
 30
0.0
 11
605.0
 21
541.5
 31
0.0
  0
LINE
  5
14BE1
330
14995
100
AcDbEntity
  8
4
  6
CENTER
100
AcDbLine
 10
651.0
 20
529.25
 30
0.0
 11
651.0
 21
540.7499999999998
 31
0.0
  0
CIRCLE
  5
14BE2
330
14995
100
AcDbEntity
  8
1
  6
Continuous
100
AcDbCircle
 10
651.0
 20
535.0
 30
0.0
 40
2.399999999999999
  0
LINE
  5
14BE3
330
14995
100
AcDbEntity
  8
3
  6
DASHED
100
AcDbLine
 10
599.5781950000001
 20
729.4999999999999
 30
0.0
 11
539.5
 21
729.4999999999999
 31
0.0
  0
LINE
  5
14BE4
330
14995
100
AcDbEntity
  8
4
  6
CENTER
100
AcDbLine
 10
606.0
 20
717.0
 30
0.0
 11
559.25
 21
717.0
 31
0.0
  0
ARC
  5
14BE5
330
14995
100
AcDbEntity
  8
3
  6
DASHED
100
AcDbCircle
 10
591.0
 20
717.0
 30
0.0
 40
11.0
100
AcDbArc
 50
294.619977
 51
245.380023
  0
LINE
  5
14BE6
330
14995
100
AcDbEntity
  8
3
  6
DASHED
100
AcDbLine
 10
601.698246
 20
724.0
 30
0.0
 11
540.5
 21
724.0
 31
0.0
  0
LINE
  5
14BE7
330
14995
100
AcDbEntity
  8
4
  6
CENTER
100
AcDbLine
 10
539.25
 20
719.5
 30
0.0
 11
560.7499999999999
 21
719.5
 31
0.0
  0
LINE
  5
14BE8
330
14995
100
AcDbEntity
  8
1
  6
Continuous
100
AcDbLine
 10
581.0
 20
708.4999999999999
 30
0.0
 11
585.0
 21
707.0
 31
0.0
  0
LINE
  5
14BE9
330
14995
100
AcDbEntity
  8
1
  6
Continuous
100
AcDbLine
 10
558.0
 20
705.0
 30
0.0
 11
554.0
 21
703.5
 31
0.0
  0
LINE
  5
14BEA
330
14995
100
AcDbEntity
  8
1
  6
Continuous
100
AcDbLine
 10
603.5
 20
632.0
 30
0.0
 11
580.0
 21
632.0
 31
0.0
  0
LINE
  5
14BEB
330
14995
100
AcDbEntity
  8
1
  6
Continuous
100
AcDbLine
 10
559.0
 20
622.5
 30
0.0
 11
490.5
 21
622.5
 31
0.0
  0
LINE
  5
14BEC
330
14995
100
AcDbEntity
  8
4
  6
CENTER
100
AcDbLine
 10
455.0
 20
636.5
 30
0.0
 11
455.0
 21
630.0
 31
0.0
  0
LINE
  5
14BED
330
14995
100
AcDbEntity
  8
4
  6
CENTER
100
AcDbLine
 10
465.0
 20
636.5
 30
0.0
 11
465.0
 21
630.0
 31
0.0
  0
LINE
  5
14BEE
330
14995
100
AcDbEntity
  8
1
  6
Continuous
100
AcDbLine
 10
489.0
 20
622.5
 30
0.0
 11
489.0
 21
624.0
 31
0.0
  0
LINE
  5
14BEF
330
14995
100
AcDbEntity
  8
1
  6
Continuous
100
AcDbLine
 10
490.5
 20
624.0
 30
0.0
 11
490.5
 21
621.0
 31
0.0
  0
ARC
  5
14BF0
330
14995
100
AcDbEntity
  8
1
  6
Continuous
100
AcDbCircle
 10
490.5
 20
622.5
 30
0.0
 40
1.5
100
AcDbArc
 50
180.0
 51
270.0
  0
LINE
  5
14BF1
330
14995
100
AcDbEntity
  8
3
  6
DASHED
100
AcDbLine
 10
490.5
 20
630.4999999999997
 30
0.0
 11
489.0
 21
630.4999999999997
 31
0.0
  0
LINE
  5
14BF2
330
14995
100
AcDbEntity
  8
3
  6
DASHED
100
AcDbLine
 10
490.5
 20
630.4999999999997
 30
0.0
 11
490.5
 21
624.0
 31
0.0
  0
LINE
  5
14BF3
330
14995
100
AcDbEntity
  8
3
  6
DASHED
100
AcDbLine
 10
489.0
 20
624.0
 30
0.0
 11
489.0
 21
630.4999999999997
 31
0.0
  0
LINE
  5
14BF4
330
14995
100
AcDbEntity
  8
4
  6
CENTER
100
AcDbLine
 10
545.0
 20
618.0
 30
0.0
 11
545.0
 21
624.5
 31
0.0
  0
LINE
  5
14BF5
330
14995
100
AcDbEntity
  8
4
  6
CENTER
100
AcDbLine
 10
555.0
 20
618.0
 30
0.0
 11
555.0
 21
624.5
 31
0.0
  0
LINE
  5
14BF6
330
14995
100
AcDbEntity
  8
4
  6
CENTER
100
AcDbLine
 10
520.0
 20
618.0
 30
0.0
 11
520.0
 21
624.5
 31
0.0
  0
LINE
  5
14BF7
330
14995
100
AcDbEntity
  8
4
  6
CENTER
100
AcDbLine
 10
494.55
 20
618.0
 30
0.0
 11
494.55
 21
624.5
 31
0.0
  0
LINE
  5
14BF8
330
14995
100
AcDbEntity
  8
4
  6
CENTER
100
AcDbLine
 10
506.0
 20
616.7314709999999
 30
0.0
 11
506.0
 21
637.1142519999997
 31
0.0
  0
LINE
  5
14BF9
330
14995
100
AcDbEntity
  8
1
  6
Continuous
100
AcDbLine
 10
515.53233
 20
631.5
 30
0.0
 11
510.03233
 21
631.5
 31
0.0
  0
LINE
  5
14BFA
330
14995
100
AcDbEntity
  8
1
  6
Continuous
100
AcDbLine
 10
515.53233
 20
626.0
 30
0.0
 11
510.03233
 21
626.0
 31
0.0
  0
LINE
  5
14BFB
330
14995
100
AcDbEntity
  8
3
  6
DASHED
100
AcDbLine
 10
517.0
 20
626.5
 30
0.0
 11
495.0
 21
626.5
 31
0.0
  0
LINE
  5
14BFC
330
14995
100
AcDbEntity
  8
1
  6
Continuous
100
AcDbLine
 10
512.0
 20
623.5
 30
0.0
 11
500.0
 21
623.5
 31
0.0
  0
LINE
  5
14BFD
330
14995
100
AcDbEntity
  8
3
  6
DASHED
100
AcDbLine
 10
512.0
 20
625.0
 30
0.0
 11
500.0
 21
625.0
 31
0.0
  0
LINE
  5
14BFE
330
14995
100
AcDbEntity
  8
1
  6
Continuous
100
AcDbLine
 10
510.03233
 20
626.0
 30
0.0
 11
510.03233
 21
631.5
 31
0.0
  0
LINE
  5
14BFF
330
14995
100
AcDbEntity
  8
1
  6
Continuous
100
AcDbLine
 10
500.207107
 20
623.2071069999998
 30
0.0
 11
499.5
 21
622.5
 31
0.0
  0
LINE
  5
14C00
330
14995
100
AcDbEntity
  8
3
  6
DASHED
100
AcDbLine
 10
495.0
 20
626.5
 30
0.0
 11
495.0
 21
631.5
 31
0.0
  0
LINE
  5
14C01
330
14995
100
AcDbEntity
  8
1
  6
Continuous
100
AcDbLine
 10
500.0
 20
624.0
 30
0.0
 11
500.0
 21
623.5
 31
0.0
  0
ARC
  5
14C02
330
14995
100
AcDbEntity
  8
1
  6
Continuous
100
AcDbCircle
 10
500.9142139999998
 20
622.5
 30
0.0
 40
1.0
100
AcDbArc
 50
90.0
 51
135.0
  0
LINE
  5
14C03
330
14995
100
AcDbEntity
  8
3
  6
DASHED
100
AcDbLine
 10
500.0
 20
626.5
 30
0.0
 11
500.0
 21
624.0
 31
0.0
  0
LINE
  5
14C04
330
14995
100
AcDbEntity
  8
3
  6
DASHED
100
AcDbLine
 10
510.03233
 20
631.5
 30
0.0
 11
495.0
 21
631.5
 31
0.0
  0
LINE
  5
14C05
330
14995
100
AcDbEntity
  8
3
  6
DASHED
100
AcDbLine
 10
517.0
 20
631.5
 30
0.0
 11
515.53233
 21
631.5
 31
0.0
  0
LINE
  5
14C06
330
14995
100
AcDbEntity
  8
1
  6
Continuous
100
AcDbLine
 10
512.0
 20
624.0
 30
0.0
 11
512.0
 21
623.5
 31
0.0
  0
ARC
  5
14C07
330
14995
100
AcDbEntity
  8
1
  6
Continuous
100
AcDbCircle
 10
511.085786
 20
622.5
 30
0.0
 40
1.0
100
AcDbArc
 50
45.0
 51
90.0
  0
LINE
  5
14C08
330
14995
100
AcDbEntity
  8
1
  6
Continuous
100
AcDbLine
 10
511.7928929999997
 20
623.2071069999998
 30
0.0
 11
512.5
 21
622.5
 31
0.0
  0
LINE
  5
14C09
330
14995
100
AcDbEntity
  8
3
  6
DASHED
100
AcDbLine
 10
512.0
 20
626.5
 30
0.0
 11
512.0
 21
624.0
 31
0.0
  0
LINE
  5
14C0A
330
14995
100
AcDbEntity
  8
1
  6
Continuous
100
AcDbLine
 10
515.53233
 20
626.0
 30
0.0
 11
515.53233
 21
631.5
 31
0.0
  0
LINE
  5
14C0B
330
14995
100
AcDbEntity
  8
1
  6
Continuous
100
AcDbLine
 10
512.78233
 20
626.0
 30
0.0
 11
512.78233
 21
631.5
 31
0.0
  0
LINE
  5
14C0C
330
14995
100
AcDbEntity
  8
3
  6
DASHED
100
AcDbLine
 10
517.0
 20
626.5
 30
0.0
 11
517.0
 21
631.5
 31
0.0
  0
LINE
  5
14C0D
330
14995
100
AcDbEntity
  8
4
  6
CENTER
100
AcDbLine
 10
565.0
 20
636.5
 30
0.0
 11
565.0
 21
630.0
 31
0.0
  0
LINE
  5
14C0E
330
14995
100
AcDbEntity
  8
1
  6
Continuous
100
AcDbLine
 10
539.5
 20
624.0
 30
0.0
 11
539.5
 21
622.5
 31
0.0
  0
LINE
  5
14C0F
330
14995
100
AcDbEntity
  8
1
  6
Continuous
100
AcDbLine
 10
580.0
 20
633.4999999999999
 30
0.0
 11
580.0
 21
629.0
 31
0.0
  0
LINE
  5
14C10
330
14995
100
AcDbEntity
  8
4
  6
CENTER
100
AcDbLine
 10
575.0
 20
636.5
 30
0.0
 11
575.0
 21
630.0
 31
0.0
  0
LINE
  5
14C11
330
14995
100
AcDbEntity
  8
1
  6
Continuous
100
AcDbLine
 10
554.0
 20
622.5
 30
0.0
 11
554.0
 21
621.0
 31
0.0
  0
LINE
  5
14C12
330
14995
100
AcDbEntity
  8
4
  6
CENTER
100
AcDbLine
 10
521.0
 20
719.5
 30
0.0
 11
491.0
 21
719.5
 31
0.0
  0
LINE
  5
14C13
330
14995
100
AcDbEntity
  8
1
  6
Continuous
100
AcDbLine
 10
554.0
 20
703.5
 30
0.0
 11
492.4999999999998
 21
703.5
 31
0.0
  0
LINE
  5
14C14
330
14995
100
AcDbEntity
  8
3
  6
DASHED
100
AcDbLine
 10
534.4999999999998
 20
729.4999999999999
 30
0.0
 11
489.0
 21
729.4999999999999
 31
0.0
  0
ARC
  5
14C15
330
14995
100
AcDbEntity
  8
1
  6
Continuous
100
AcDbCircle
 10
494.55
 20
707.5499999999998
 30
0.0
 40
1.75
100
AcDbArc
 50
198.317698
 51
341.6823019999999
  0
LINE
  5
14C16
330
14995
100
AcDbEntity
  8
4
  6
CENTER
100
AcDbLine
 10
490.8
 20
707.5499999999998
 30
0.0
 11
498.3
 21
707.5499999999998
 31
0.0
  0
LINE
  5
14C17
330
14995
100
AcDbEntity
  8
3
  6
DASHED
100
AcDbLine
 10
490.5
 20
710.0
 30
0.0
 11
490.5
 21
707.0
 31
0.0
  0
LINE
  5
14C18
330
14995
100
AcDbEntity
  8
1
  6
Continuous
100
AcDbLine
 10
490.5
 20
705.4999999999997
 30
0.0
 11
490.5
 21
707.0
 31
0.0
  0
LINE
  5
14C19
330
14995
100
AcDbEntity
  8
4
  6
CENTER
100
AcDbLine
 10
470.75
 20
717.0
 30
0.0
 11
449.2499999999998
 21
717.0
 31
0.0
  0
ARC
  5
14C1A
330
14995
100
AcDbEntity
  8
1
  6
Continuous
100
AcDbCircle
 10
455.0
 20
718.0
 30
0.0
 40
2.399999999999999
100
AcDbArc
 50
0.0
 51
180.0
  0
ARC
  5
14C1B
330
14995
100
AcDbEntity
  8
1
  6
Continuous
100
AcDbCircle
 10
455.0
 20
716.0
 30
0.0
 40
2.399999999999999
100
AcDbArc
 50
180.0
 51
0.0
  0
LINE
  5
14C1C
330
14995
100
AcDbEntity
  8
1
  6
Continuous
100
AcDbLine
 10
452.6
 20
718.0
 30
0.0
 11
452.6
 21
716.0
 31
0.0
  0
LINE
  5
14C1D
330
14995
100
AcDbEntity
  8
4
  6
CENTER
100
AcDbLine
 10
455.0
 20
723.7499999999998
 30
0.0
 11
455.0
 21
710.25
 31
0.0
  0
LINE
  5
14C1E
330
14995
100
AcDbEntity
  8
1
  6
Continuous
100
AcDbLine
 10
457.3999999999998
 20
718.0
 30
0.0
 11
457.3999999999998
 21
716.0
 31
0.0
  0
LINE
  5
14C1F
330
14995
100
AcDbEntity
  8
4
  6
CENTER
100
AcDbLine
 10
465.0
 20
722.75
 30
0.0
 11
465.0
 21
711.2499999999997
 31
0.0
  0
CIRCLE
  5
14C20
330
14995
100
AcDbEntity
  8
1
  6
Continuous
100
AcDbCircle
 10
465.0
 20
717.0
 30
0.0
 40
2.399999999999999
  0
LINE
  5
14C21
330
14995
100
AcDbEntity
  8
3
  6
DASHED
100
AcDbLine
 10
491.5
 20
713.4999999999997
 30
0.0
 11
488.0
 21
713.4999999999997
 31
0.0
  0
LINE
  5
14C22
330
14995
100
AcDbEntity
  8
3
  6
DASHED
100
AcDbLine
 10
491.5
 20
710.0
 30
0.0
 11
488.0
 21
710.0
 31
0.0
  0
LINE
  5
14C23
330
14995
100
AcDbEntity
  8
3
  6
DASHED
100
AcDbLine
 10
488.0
 20
710.0
 30
0.0
 11
488.0
 21
713.4999999999997
 31
0.0
  0
LINE
  5
14C24
330
14995
100
AcDbEntity
  8
3
  6
DASHED
100
AcDbLine
 10
491.5
 20
710.0
 30
0.0
 11
491.5
 21
713.4999999999997
 31
0.0
  0
LINE
  5
14C25
330
14995
100
AcDbEntity
  8
3
  6
DASHED
100
AcDbLine
 10
489.0
 20
729.4999999999999
 30
0.0
 11
489.0
 21
713.4999999999997
 31
0.0
  0
LINE
  5
14C26
330
14995
100
AcDbEntity
  8
3
  6
DASHED
100
AcDbLine
 10
490.5
 20
729.4999999999999
 30
0.0
 11
490.5
 21
713.4999999999997
 31
0.0
  0
LINE
  5
14C27
330
14995
100
AcDbEntity
  8
1
  6
Continuous
100
AcDbLine
 10
580.0
 20
708.4999999999999
 30
0.0
 11
580.0
 21
707.0
 31
0.0
  0
LINE
  5
14C28
330
14995
100
AcDbEntity
  8
4
  6
CENTER
100
AcDbLine
 10
520.0
 20
717.25
 30
0.0
 11
520.0
 21
705.75
 31
0.0
  0
LINE
  5
14C29
330
14995
100
AcDbEntity
  8
4
  6
CENTER
100
AcDbLine
 10
494.55
 20
711.2999999999998
 30
0.0
 11
494.55
 21
703.7999999999998
 31
0.0
  0
LINE
  5
14C2A
330
14995
100
AcDbEntity
  8
4
  6
CENTER
100
AcDbLine
 10
506.0
 20
734.4999999999998
 30
0.0
 11
506.0
 21
704.4999999999999
 31
0.0
  0
CIRCLE
  5
14C2B
330
14995
100
AcDbEntity
  8
3
  6
DASHED
100
AcDbCircle
 10
506.0
 20
719.5
 30
0.0
 40
11.0
  0
LINE
  5
14C2C
330
14995
100
AcDbEntity
  8
4
  6
CENTER
100
AcDbLine
 10
514.25
 20
711.5
 30
0.0
 11
525.75
 21
711.5
 31
0.0
  0
ARC
  5
14C2D
330
14995
100
AcDbEntity
  8
1
  6
Continuous
100
AcDbCircle
 10
565.0
 20
716.0
 30
0.0
 40
2.399999999999999
100
AcDbArc
 50
180.0
 51
0.0
  0
ARC
  5
14C2E
330
14995
100
AcDbEntity
  8
1
  6
Continuous
100
AcDbCircle
 10
565.0
 20
718.0
 30
0.0
 40
2.399999999999999
100
AcDbArc
 50
0.0
 51
180.0
  0
ARC
  5
14C2F
330
14995
100
AcDbEntity
  8
3
  6
DASHED
100
AcDbCircle
 10
540.723607
 20
727.5
 30
0.0
 40
0.5
100
AcDbArc
 50
318.189685
 51
90.0
  0
ARC
  5
14C30
330
14995
100
AcDbEntity
  8
3
  6
DASHED
100
AcDbCircle
 10
540.5
 20
728.0
 30
0.0
 40
1.0
100
AcDbArc
 50
318.189685
 51
67.380135
  0
LINE
  5
14C31
330
14995
100
AcDbEntity
  8
3
  6
DASHED
100
AcDbLine
 10
538.4999999999998
 20
728.0
 30
0.0
 11
539.5
 21
728.0
 31
0.0
  0
LINE
  5
14C32
330
14995
100
AcDbEntity
  8
3
  6
DASHED
100
AcDbLine
 10
539.5
 20
728.0
 30
0.0
 11
540.723607
 21
728.0
 31
0.0
  0
LINE
  5
14C33
330
14995
100
AcDbEntity
  8
3
  6
DASHED
100
AcDbLine
 10
539.5
 20
729.4999999999999
 30
0.0
 11
540.884615
 21
728.9230769999996
 31
0.0
  0
LINE
  5
14C34
330
14995
100
AcDbEntity
  8
3
  6
DASHED
100
AcDbLine
 10
539.5
 20
729.4999999999999
 30
0.0
 11
539.5
 21
728.0
 31
0.0
  0
LINE
  5
14C35
330
14995
100
AcDbEntity
  8
3
  6
DASHED
100
AcDbLine
 10
538.4999999999998
 20
728.0
 30
0.0
 11
534.4999999999998
 21
729.4999999999999
 31
0.0
  0
LINE
  5
14C36
330
14995
100
AcDbEntity
  8
3
  6
DASHED
100
AcDbLine
 10
539.754644
 20
725.6666669999997
 30
0.0
 11
541.245356
 21
727.333333
 31
0.0
  0
LINE
  5
14C37
330
14995
100
AcDbEntity
  8
1
  6
Continuous
100
AcDbLine
 10
562.6
 20
718.0
 30
0.0
 11
562.6
 21
716.0
 31
0.0
  0
ARC
  5
14C38
330
14995
100
AcDbEntity
  8
3
  6
DASHED
100
AcDbCircle
 10
540.5
 20
725.0
 30
0.0
 40
1.0
100
AcDbArc
 50
138.1896849999999
 51
270.0
  0
CIRCLE
  5
14C39
330
14995
100
AcDbEntity
  8
1
  6
Continuous
100
AcDbCircle
 10
575.0
 20
717.0
 30
0.0
 40
2.399999999999999
  0
LINE
  5
14C3A
330
14995
100
AcDbEntity
  8
1
  6
Continuous
100
AcDbLine
 10
567.3999999999997
 20
718.0
 30
0.0
 11
567.3999999999997
 21
716.0
 31
0.0
  0
LINE
  5
14C3B
330
14995
100
AcDbEntity
  8
1
  6
Continuous
100
AcDbLine
 10
581.0
 20
708.4999999999999
 30
0.0
 11
580.0
 21
708.4999999999999
 31
0.0
  0
LINE
  5
14C3C
330
14995
100
AcDbEntity
  8
4
  6
CENTER
100
AcDbLine
 10
591.0
 20
616.8764579999997
 30
0.0
 11
591.0
 21
637.343926
 31
0.0
  0
LINE
  5
14C3D
330
14995
100
AcDbEntity
  8
3
  6
DASHED
100
AcDbLine
 10
602.0
 20
628.0
 30
0.0
 11
580.0
 21
628.0
 31
0.0
  0
LINE
  5
14C3E
330
14995
100
AcDbEntity
  8
3
  6
DASHED
100
AcDbLine
 10
602.0
 20
623.0
 30
0.0
 11
580.0
 21
623.0
 31
0.0
  0
LINE
  5
14C3F
330
14995
100
AcDbEntity
  8
1
  6
Continuous
100
AcDbLine
 10
597.0
 20
629.4999999999999
 30
0.0
 11
585.0
 21
629.4999999999999
 31
0.0
  0
LINE
  5
14C40
330
14995
100
AcDbEntity
  8
1
  6
Continuous
100
AcDbLine
 10
597.0
 20
631.0
 30
0.0
 11
585.0
 21
631.0
 31
0.0
  0
LINE
  5
14C41
330
14995
100
AcDbEntity
  8
1
  6
Continuous
100
AcDbLine
 10
559.0
 20
627.5
 30
0.0
 11
559.0
 21
621.0
 31
0.0
  0
LINE
  5
14C42
330
14995
100
AcDbEntity
  8
1
  6
Continuous
100
AcDbLine
 10
558.0
 20
622.5
 30
0.0
 11
558.0
 21
621.0
 31
0.0
  0
ARC
  5
14C43
330
14995
100
AcDbEntity
  8
1
  6
Continuous
100
AcDbCircle
 10
560.5
 20
627.5
 30
0.0
 40
1.5
100
AcDbArc
 50
90.0
 51
180.0
  0
LINE
  5
14C44
330
14995
100
AcDbEntity
  8
1
  6
Continuous
100
AcDbLine
 10
585.0
 20
629.0
 30
0.0
 11
585.0
 21
631.0
 31
0.0
  0
LINE
  5
14C45
330
14995
100
AcDbEntity
  8
1
  6
Continuous
100
AcDbLine
 10
585.207107
 20
631.2928929999999
 30
0.0
 11
584.4999999999997
 21
632.0
 31
0.0
  0
ARC
  5
14C46
330
14995
100
AcDbEntity
  8
1
  6
Continuous
100
AcDbCircle
 10
585.914214
 20
632.0
 30
0.0
 40
1.0
100
AcDbArc
 50
225.0
 51
270.0
  0
LINE
  5
14C47
330
14995
100
AcDbEntity
  8
3
  6
DASHED
100
AcDbLine
 10
585.0
 20
628.0
 30
0.0
 11
585.0
 21
629.0
 31
0.0
  0
LINE
  5
14C48
330
14995
100
AcDbEntity
  8
1
  6
Continuous
100
AcDbLine
 10
597.0
 20
629.0
 30
0.0
 11
597.0
 21
631.0
 31
0.0
  0
LINE
  5
14C49
330
14995
100
AcDbEntity
  8
1
  6
Continuous
100
AcDbLine
 10
596.7928929999999
 20
631.2928929999999
 30
0.0
 11
597.5
 21
632.0
 31
0.0
  0
ARC
  5
14C4A
330
14995
100
AcDbEntity
  8
1
  6
Continuous
100
AcDbCircle
 10
596.0857859999999
 20
632.0
 30
0.0
 40
1.0
100
AcDbArc
 50
270.0
 51
315.0
  0
LINE
  5
14C4B
330
14995
100
AcDbEntity
  8
3
  6
DASHED
100
AcDbLine
 10
597.0
 20
628.0
 30
0.0
 11
597.0
 21
629.0
 31
0.0
  0
ARC
  5
14C4C
330
14995
100
AcDbEntity
  8
1
  6
Continuous
100
AcDbCircle
 10
603.5
 20
632.0
 30
0.0
 40
1.5
100
AcDbArc
 50
0.0
 51
90.0
  0
LINE
  5
14C4D
330
14995
100
AcDbEntity
  8
3
  6
DASHED
100
AcDbLine
 10
605.0
 20
624.0
 30
0.0
 11
603.5
 21
624.0
 31
0.0
  0
LINE
  5
14C4E
330
14995
100
AcDbEntity
  8
1
  6
Continuous
100
AcDbLine
 10
603.5
 20
629.0
 30
0.0
 11
603.5
 21
633.4999999999999
 31
0.0
  0
LINE
  5
14C4F
330
14995
100
AcDbEntity
  8
3
  6
DASHED
100
AcDbLine
 10
602.0
 20
628.0
 30
0.0
 11
602.0
 21
623.0
 31
0.0
  0
LINE
  5
14C50
330
14995
100
AcDbEntity
  8
3
  6
DASHED
100
AcDbLine
 10
603.5
 20
624.0
 30
0.0
 11
603.5
 21
629.0
 31
0.0
  0
LINE
  5
14C51
330
14995
100
AcDbEntity
  8
1
  6
Continuous
100
AcDbLine
 10
605.0
 20
629.0
 30
0.0
 11
605.0
 21
632.0
 31
0.0
  0
LINE
  5
14C52
330
14995
100
AcDbEntity
  8
3
  6
DASHED
100
AcDbLine
 10
605.0
 20
624.0
 30
0.0
 11
605.0
 21
629.0
 31
0.0
  0
LINE
  5
14C53
330
14995
100
AcDbEntity
  8
4
  6
CENTER
100
AcDbLine
 10
651.0
 20
618.0
 30
0.0
 11
651.0
 21
624.5
 31
0.0
  0
ARC
  5
14C54
330
14995
100
AcDbEntity
  8
1
  6
Continuous
100
AcDbCircle
 10
601.5
 20
709.0
 30
0.0
 40
2.0
100
AcDbArc
 50
270.0
 51
0.0
  0
LINE
  5
14C55
330
14995
100
AcDbEntity
  8
4
  6
CENTER
100
AcDbLine
 10
591.0
 20
732.0
 30
0.0
 11
591.0
 21
702.0
 31
0.0
  0
LINE
  5
14C56
330
14995
100
AcDbEntity
  8
1
  6
Continuous
100
AcDbLine
 10
601.5
 20
707.0
 30
0.0
 11
585.0
 21
707.0
 31
0.0
  0
ARC
  5
14C57
330
14995
100
AcDbEntity
  8
1
  6
Continuous
100
AcDbCircle
 10
591.0
 20
717.0
 30
0.0
 40
11.0
100
AcDbArc
 50
245.380023
 51
294.619977
  0
LINE
  5
14C58
330
14995
100
AcDbEntity
  8
1
  6
Continuous
100
AcDbLine
 10
559.0
 20
705.0
 30
0.0
 11
559.0
 21
703.5
 31
0.0
  0
ARC
  5
14C59
330
14995
100
AcDbEntity
  8
1
  6
Continuous
100
AcDbCircle
 10
597.627489
 20
729.0
 30
0.0
 40
2.0
100
AcDbArc
 50
21.07983799999999
 51
90.0
  0
CIRCLE
  5
14C5A
330
14995
100
AcDbEntity
  8
1
  6
Continuous
100
AcDbCircle
 10
591.0
 20
717.0
 30
0.0
 40
3.0
  0
CIRCLE
  5
14C5B
330
14995
100
AcDbEntity
  8
1
  6
Continuous
100
AcDbCircle
 10
591.0
 20
717.0
 30
0.0
 40
5.0
  0
ARC
  5
14C5C
330
14995
100
AcDbEntity
  8
1
  6
Continuous
100
AcDbCircle
 10
591.0
 20
717.0
 30
0.0
 40
14.0
100
AcDbArc
 50
0.0
 51
21.07983799999999
  0
LINE
  5
14C5D
330
14995
100
AcDbEntity
  8
1
  6
Continuous
100
AcDbLine
 10
605.0
 20
713.0
 30
0.0
 11
603.5
 21
713.0
 31
0.0
  0
LINE
  5
14C5E
330
14995
100
AcDbEntity
  8
1
  6
Continuous
100
AcDbLine
 10
603.5
 20
713.0
 30
0.0
 11
603.5
 21
709.0
 31
0.0
  0
LINE
  5
14C5F
330
14995
100
AcDbEntity
  8
1
  6
Continuous
100
AcDbLine
 10
603.691288
 20
723.0
 30
0.0
 11
602.083709
 21
723.0
 31
0.0
  0
LINE
  5
14C60
330
14995
100
AcDbEntity
  8
1
  6
Continuous
100
AcDbLine
 10
603.691288
 20
723.0
 30
0.0
 11
604.063122
 21
722.0353589999997
 31
0.0
  0
LINE
  5
14C61
330
14995
100
AcDbEntity
  8
1
  6
Continuous
100
AcDbLine
 10
604.3775439999998
 20
724.0
 30
0.0
 11
604.597809
 21
723.428571
 31
0.0
  0
LINE
  5
14C62
330
14995
100
AcDbEntity
  8
1
  6
Continuous
100
AcDbLine
 10
604.597809
 20
723.428571
 30
0.0
 11
603.691288
 21
723.0
 31
0.0
  0
LINE
  5
14C63
330
14995
100
AcDbEntity
  8
1
  6
Continuous
100
AcDbLine
 10
605.0
 20
717.0
 30
0.0
 11
605.0
 21
713.0
 31
0.0
  0
LINE
  5
14C64
330
14995
100
AcDbEntity
  8
1
  6
Continuous
100
AcDbLine
 10
599.493649
 20
729.719337
 30
0.0
 11
602.083709
 21
723.0
 31
0.0
  0
LINE
  5
14C65
330
14995
100
AcDbEntity
  8
4
  6
CENTER
100
AcDbLine
 10
645.25
 20
719.5
 30
0.0
 11
656.7499999999999
 21
719.5
 31
0.0
  0
CIRCLE
  5
14C66
330
14995
100
AcDbEntity
  8
1
  6
Continuous
100
AcDbCircle
 10
651.0
 20
719.5
 30
0.0
 40
3.75
  0
CIRCLE
  5
14C67
330
14995
100
AcDbEntity
  8
1
  6
Continuous
100
AcDbCircle
 10
651.0
 20
719.5
 30
0.0
 40
2.399999999999999
  0
LINE
  5
14C68
330
14995
100
AcDbEntity
  8
4
  6
CENTER
100
AcDbLine
 10
651.0
 20
725.25
 30
0.0
 11
651.0
 21
713.75
 31
0.0
  0
LINE
  5
14C69
330
14995
100
AcDbEntity
  8
1
  6
Continuous
100
AcDbLine
 10
970.0
 20
522.5
 30
0.0
 11
942.0
 21
525.0
 31
0.0
  0
LINE
  5
14C6A
330
14995
100
AcDbEntity
  8
4
  6
CENTER
100
AcDbLine
 10
970.0
 20
529.25
 30
0.0
 11
970.0
 21
540.7499999999998
 31
0.0
  0
ARC
  5
14C6B
330
14995
100
AcDbEntity
  8
1
  6
Continuous
100
AcDbCircle
 10
977.0
 20
533.0
 30
0.0
 40
2.0
100
AcDbArc
 50
90.0
 51
253.2276069999999
  0
ARC
  5
14C6C
330
14995
100
AcDbEntity
  8
1
  6
Continuous
100
AcDbCircle
 10
960.0
 20
534.0
 30
0.0
 40
2.399999999999999
100
AcDbArc
 50
180.0
 51
0.0
  0
LINE
  5
14C6D
330
14995
100
AcDbEntity
  8
4
  6
CENTER
100
AcDbLine
 10
960.0
 20
528.2499999999998
 30
0.0
 11
960.0
 21
541.75
 31
0.0
  0
LINE
  5
14C6E
330
14995
100
AcDbEntity
  8
1
  6
Continuous
100
AcDbLine
 10
985.0
 20
522.5
 30
0.0
 11
970.0
 21
522.5
 31
0.0
  0
LINE
  5
14C6F
330
14995
100
AcDbEntity
  8
1
  6
Continuous
100
AcDbLine
 10
983.932856
 20
528.821629
 30
0.0
 11
976.422859
 21
531.085083
 31
0.0
  0
LINE
  5
14C70
330
14995
100
AcDbEntity
  8
1
  6
Continuous
100
AcDbLine
 10
985.0
 20
522.5
 30
0.0
 11
985.0
 21
527.385441
 31
0.0
  0
ARC
  5
14C71
330
14995
100
AcDbEntity
  8
1
  6
Continuous
100
AcDbCircle
 10
983.5
 20
527.385441
 30
0.0
 40
1.5
100
AcDbArc
 50
0.0
 51
73.22760699999998
  0
LINE
  5
14C72
330
14995
100
AcDbEntity
  8
1
  6
Continuous
100
AcDbLine
 10
983.5
 20
535.0
 30
0.0
 11
977.0
 21
535.0
 31
0.0
  0
LINE
  5
14C73
330
14995
100
AcDbEntity
  8
1
  6
Continuous
100
AcDbLine
 10
962.4
 20
534.0
 30
0.0
 11
962.4
 21
536.0
 31
0.0
  0
LINE
  5
14C74
330
14995
100
AcDbEntity
  8
1
  6
Continuous
100
AcDbLine
 10
957.6
 20
534.0
 30
0.0
 11
957.6
 21
536.0
 31
0.0
  0
ARC
  5
14C75
330
14995
100
AcDbEntity
  8
1
  6
Continuous
100
AcDbCircle
 10
960.0
 20
536.0
 30
0.0
 40
2.399999999999999
100
AcDbArc
 50
0.0
 51
180.0
  0
CIRCLE
  5
14C76
330
14995
100
AcDbEntity
  8
1
  6
Continuous
100
AcDbCircle
 10
970.0
 20
535.0
 30
0.0
 40
2.399999999999999
  0
ARC
  5
14C77
330
14995
100
AcDbEntity
  8
1
  6
Continuous
100
AcDbCircle
 10
971.0
 20
535.0
 30
0.0
 40
7.0
100
AcDbArc
 50
26.33707499999999
 51
63.662925
  0
LINE
  5
14C78
330
14995
100
AcDbEntity
  8
1
  6
Continuous
100
AcDbLine
 10
980.8581949999997
 20
539.880163
 30
0.0
 11
977.273397
 21
538.1055579999999
 31
0.0
  0
LINE
  5
14C79
330
14995
100
AcDbEntity
  8
1
  6
Continuous
100
AcDbLine
 10
975.880163
 20
544.858195
 30
0.0
 11
974.1055579999999
 21
541.2733969999997
 31
0.0
  0
ARC
  5
14C7A
330
14995
100
AcDbEntity
  8
1
  6
Continuous
100
AcDbCircle
 10
971.0
 20
535.0
 30
0.0
 40
11.0
100
AcDbArc
 50
26.33707499999999
 51
63.662925
  0
ARC
  5
14C7B
330
14995
100
AcDbEntity
  8
1
  6
Continuous
100
AcDbCircle
 10
983.5
 20
536.5
 30
0.0
 40
1.5
100
AcDbArc
 50
270.0
 51
0.0
  0
LINE
  5
14C7C
330
14995
100
AcDbEntity
  8
1
  6
Continuous
100
AcDbLine
 10
985.0
 20
536.5
 30
0.0
 11
985.0
 21
551.0
 31
0.0
  0
LINE
  5
14C7D
330
14995
100
AcDbEntity
  8
1
  6
Continuous
100
AcDbLine
 10
1058.0
 20
531.5
 30
0.0
 11
1058.0
 21
539.880163
 31
0.0
  0
LINE
  5
14C7E
330
14995
100
AcDbEntity
  8
1
  6
Continuous
100
AcDbLine
 10
1057.0
 20
531.5
 30
0.0
 11
1057.0
 21
539.880163
 31
0.0
  0
LINE
  5
14C7F
330
14995
100
AcDbEntity
  8
1
  6
Continuous
100
AcDbLine
 10
1067.5
 20
523.5
 30
0.0
 11
1067.5
 21
548.5
 31
0.0
  0
LINE
  5
14C80
330
14995
100
AcDbEntity
  8
1
  6
Continuous
100
AcDbLine
 10
1056.499999999999
 20
524.0
 30
0.0
 11
1056.499999999999
 21
549.5
 31
0.0
  0
LINE
  5
14C81
330
14995
100
AcDbEntity
  8
1
  6
Continuous
100
AcDbLine
 10
1055.0
 20
524.0
 30
0.0
 11
1055.0
 21
551.0
 31
0.0
  0
LINE
  5
14C82
330
14995
100
AcDbEntity
  8
1
  6
Continuous
100
AcDbLine
 10
1067.5
 20
531.5
 30
0.0
 11
1056.499999999999
 21
531.5
 31
0.0
  0
LINE
  5
14C83
330
14995
100
AcDbEntity
  8
1
  6
Continuous
100
AcDbLine
 10
1063.0
 20
527.7967559999998
 30
0.0
 11
1056.499999999999
 21
527.7967559999998
 31
0.0
  0
LINE
  5
14C84
330
14995
100
AcDbEntity
  8
1
  6
Continuous
100
AcDbLine
 10
1063.0
 20
524.0
 30
0.0
 11
1056.499999999999
 21
524.0
 31
0.0
  0
LINE
  5
14C85
330
14995
100
AcDbEntity
  8
1
  6
Continuous
100
AcDbLine
 10
1063.0
 20
522.5
 30
0.0
 11
1056.499999999999
 21
522.5
 31
0.0
  0
LINE
  5
14C86
330
14995
100
AcDbEntity
  8
1
  6
Continuous
100
AcDbLine
 10
1056.499999999999
 20
526.4999999999998
 30
0.0
 11
1063.0
 21
526.4999999999998
 31
0.0
  0
LINE
  5
14C87
330
14995
100
AcDbEntity
  8
1
  6
Continuous
100
AcDbLine
 10
1055.0
 20
528.5
 30
0.0
 11
1056.499999999999
 21
528.5
 31
0.0
  0
ARC
  5
14C88
330
14995
100
AcDbEntity
  8
1
  6
Continuous
100
AcDbCircle
 10
1056.499999999999
 20
524.0
 30
0.0
 40
1.5
100
AcDbArc
 50
180.0
 51
270.0
  0
LINE
  5
14C89
330
14995
100
AcDbEntity
  8
1
  6
Continuous
100
AcDbLine
 10
1057.0
 20
526.4999999999998
 30
0.0
 11
1057.0
 21
527.7967559999998
 31
0.0
  0
LINE
  5
14C8A
330
14995
100
AcDbEntity
  8
1
  6
Continuous
100
AcDbLine
 10
1064.5
 20
528.0
 30
0.0
 11
1063.0
 21
528.0
 31
0.0
  0
LINE
  5
14C8B
330
14995
100
AcDbEntity
  8
1
  6
Continuous
100
AcDbLine
 10
1065.499999999999
 20
531.5
 30
0.0
 11
1066.0
 21
531.0
 31
0.0
  0
LINE
  5
14C8C
330
14995
100
AcDbEntity
  8
1
  6
Continuous
100
AcDbLine
 10
1063.0
 20
530.4999999999998
 30
0.0
 11
1064.5
 21
530.4999999999998
 31
0.0
  0
ARC
  5
14C8D
330
14995
100
AcDbEntity
  8
1
  6
Continuous
100
AcDbCircle
 10
1063.0
 20
524.0
 30
0.0
 40
1.5
100
AcDbArc
 50
270.0
 51
0.0
  0
LINE
  5
14C8E
330
14995
100
AcDbEntity
  8
1
  6
Continuous
100
AcDbLine
 10
1067.5
 20
523.5
 30
0.0
 11
1066.0
 21
523.5
 31
0.0
  0
LINE
  5
14C8F
330
14995
100
AcDbEntity
  8
1
  6
Continuous
100
AcDbLine
 10
1066.0
 20
523.5
 30
0.0
 11
1066.0
 21
531.5
 31
0.0
  0
LINE
  5
14C90
330
14995
100
AcDbEntity
  8
1
  6
Continuous
100
AcDbLine
 10
1063.0
 20
524.0
 30
0.0
 11
1063.0
 21
531.5
 31
0.0
  0
LINE
  5
14C91
330
14995
100
AcDbEntity
  8
1
  6
Continuous
100
AcDbLine
 10
1062.0
 20
526.4999999999998
 30
0.0
 11
1062.0
 21
527.7967559999998
 31
0.0
  0
LINE
  5
14C92
330
14995
100
AcDbEntity
  8
1
  6
Continuous
100
AcDbLine
 10
1064.5
 20
524.0
 30
0.0
 11
1064.5
 21
530.4999999999998
 31
0.0
  0
LINE
  5
14C93
330
14995
100
AcDbEntity
  8
1
  6
Continuous
100
AcDbLine
 10
1063.0
 20
549.5
 30
0.0
 11
1056.499999999999
 21
549.5
 31
0.0
  0
LINE
  5
14C94
330
14995
100
AcDbEntity
  8
1
  6
Continuous
100
AcDbLine
 10
1063.0
 20
551.0
 30
0.0
 11
1055.0
 21
551.0
 31
0.0
  0
LINE
  5
14C95
330
14995
100
AcDbEntity
  8
1
  6
Continuous
100
AcDbLine
 10
1056.499999999999
 20
546.202494
 30
0.0
 11
1062.0
 21
546.202494
 31
0.0
  0
LINE
  5
14C96
330
14995
100
AcDbEntity
  8
1
  6
Continuous
100
AcDbLine
 10
1056.499999999999
 20
540.54564
 30
0.0
 11
1062.0
 21
540.54564
 31
0.0
  0
LINE
  5
14C97
330
14995
100
AcDbEntity
  8
1
  6
Continuous
100
AcDbLine
 10
1056.499999999999
 20
539.880163
 30
0.0
 11
1062.0
 21
539.880163
 31
0.0
  0
LINE
  5
14C98
330
14995
100
AcDbEntity
  8
4
  6
CENTER
100
AcDbLine
 10
1068.193737999999
 20
535.0
 30
0.0
 11
1050.0
 21
535.0
 31
0.0
  0
LINE
  5
14C99
330
14995
100
AcDbEntity
  8
4
  6
CENTER
100
AcDbLine
 10
1071.643620999999
 20
537.5
 30
0.0
 11
1053.849475999999
 21
537.5
 31
0.0
  0
LINE
  5
14C9A
330
14995
100
AcDbEntity
  8
1
  6
Continuous
100
AcDbLine
 10
1062.0
 20
548.5
 30
0.0
 11
1057.0
 21
548.5
 31
0.0
  0
ARC
  5
14C9B
330
14995
100
AcDbEntity
  8
1
  6
Continuous
100
AcDbCircle
 10
1056.499999999999
 20
549.5
 30
0.0
 40
1.5
100
AcDbArc
 50
90.0
 51
180.0
  0
LINE
  5
14C9C
330
14995
100
AcDbEntity
  8
1
  6
Continuous
100
AcDbLine
 10
1056.499999999999
 20
535.0
 30
0.0
 11
1055.0
 21
535.0
 31
0.0
  0
LINE
  5
14C9D
330
14995
100
AcDbEntity
  8
1
  6
Continuous
100
AcDbLine
 10
1057.0
 20
548.5
 30
0.0
 11
1057.0
 21
546.202494
 31
0.0
  0
LINE
  5
14C9E
330
14995
100
AcDbEntity
  8
1
  6
Continuous
100
AcDbLine
 10
1058.0
 20
548.5
 30
0.0
 11
1058.0
 21
549.5
 31
0.0
  0
LINE
  5
14C9F
330
14995
100
AcDbEntity
  8
1
  6
Continuous
100
AcDbLine
 10
1063.0
 20
549.5
 30
0.0
 11
1063.0
 21
551.0
 31
0.0
  0
LINE
  5
14CA0
330
14995
100
AcDbEntity
  8
1
  6
Continuous
100
AcDbLine
 10
1063.0
 20
550.0
 30
0.0
 11
1066.0
 21
550.0
 31
0.0
  0
LINE
  5
14CA1
330
14995
100
AcDbEntity
  8
1
  6
Continuous
100
AcDbLine
 10
1066.0
 20
546.0
 30
0.0
 11
1062.0
 21
546.0
 31
0.0
  0
LINE
  5
14CA2
330
14995
100
AcDbEntity
  8
1
  6
Continuous
100
AcDbLine
 10
1066.0
 20
541.5
 30
0.0
 11
1066.0
 21
547.5
 31
0.0
  0
LINE
  5
14CA3
330
14995
100
AcDbEntity
  8
1
  6
Continuous
100
AcDbLine
 10
1067.5
 20
541.5
 30
0.0
 11
1062.0
 21
541.5
 31
0.0
  0
LINE
  5
14CA4
330
14995
100
AcDbEntity
  8
1
  6
Continuous
100
AcDbLine
 10
1062.0
 20
539.880163
 30
0.0
 11
1062.0
 21
548.5
 31
0.0
  0
LINE
  5
14CA5
330
14995
100
AcDbEntity
  8
1
  6
Continuous
100
AcDbLine
 10
1067.5
 20
547.5
 30
0.0
 11
1062.0
 21
547.5
 31
0.0
  0
ARC
  5
14CA6
330
14995
100
AcDbEntity
  8
1
  6
Continuous
100
AcDbCircle
 10
1066.0
 20
542.5857859999998
 30
0.0
 40
1.0
100
AcDbArc
 50
135.0
 51
180.0
  0
LINE
  5
14CA7
330
14995
100
AcDbEntity
  8
1
  6
Continuous
100
AcDbLine
 10
1065.292893
 20
543.2928929999999
 30
0.0
 11
1066.0
 21
544.0
 31
0.0
  0
LINE
  5
14CA8
330
14995
100
AcDbEntity
  8
1
  6
Continuous
100
AcDbLine
 10
1065.0
 20
541.5
 30
0.0
 11
1065.0
 21
543.5
 31
0.0
  0
LINE
  5
14CA9
330
14995
100
AcDbEntity
  8
1
  6
Continuous
100
AcDbLine
 10
1063.5
 20
541.5
 30
0.0
 11
1063.5
 21
543.5
 31
0.0
  0
LINE
  5
14CAA
330
14995
100
AcDbEntity
  8
1
  6
Continuous
100
AcDbLine
 10
1062.0
 20
543.5
 30
0.0
 11
1065.0
 21
543.5
 31
0.0
  0
ARC
  5
14CAB
330
14995
100
AcDbEntity
  8
1
  6
Continuous
100
AcDbCircle
 10
1066.0
 20
548.5
 30
0.0
 40
1.5
100
AcDbArc
 50
0.0
 51
90.0
  0
LINE
  5
14CAC
330
14995
100
AcDbEntity
  8
4
  6
CENTER
100
AcDbLine
 10
970.0
 20
618.0
 30
0.0
 11
970.0
 21
624.5
 31
0.0
  0
LINE
  5
14CAD
330
14995
100
AcDbEntity
  8
4
  6
CENTER
100
AcDbLine
 10
960.0
 20
618.0
 30
0.0
 11
960.0
 21
624.5
 31
0.0
  0
LINE
  5
14CAE
330
14995
100
AcDbEntity
  8
1
  6
Continuous
100
AcDbLine
 10
985.0
 20
621.0
 30
0.0
 11
985.0
 21
630.4999999999997
 31
0.0
  0
ARC
  5
14CAF
330
14995
100
AcDbEntity
  8
1
  6
Continuous
100
AcDbCircle
 10
983.5
 20
627.5
 30
0.0
 40
1.5
100
AcDbArc
 50
0.0
 51
90.0
  0
LINE
  5
14CB0
330
14995
100
AcDbEntity
  8
1
  6
Continuous
100
AcDbLine
 10
970.0
 20
732.0
 30
0.0
 11
942.0
 21
729.4999999999999
 31
0.0
  0
LINE
  5
14CB1
330
14995
100
AcDbEntity
  8
1
  6
Continuous
100
AcDbLine
 10
970.2450479999999
 20
726.5
 30
0.0
 11
942.245048
 21
724.0
 31
0.0
  0
LINE
  5
14CB2
330
14995
100
AcDbEntity
  8
1
  6
Continuous
100
AcDbLine
 10
985.0
 20
718.0
 30
0.0
 11
985.0
 21
703.5
 31
0.0
  0
ARC
  5
14CB3
330
14995
100
AcDbEntity
  8
1
  6
Continuous
100
AcDbCircle
 10
971.0
 20
719.5
 30
0.0
 40
12.5
100
AcDbArc
 50
296.3370750000001
 51
333.6629249999999
  0
LINE
  5
14CB4
330
14995
100
AcDbEntity
  8
1
  6
Continuous
100
AcDbLine
 10
984.0
 20
726.5
 30
0.0
 11
970.2450479999999
 21
726.5
 31
0.0
  0
LINE
  5
14CB5
330
14995
100
AcDbEntity
  8
1
  6
Continuous
100
AcDbLine
 10
985.0
 20
732.0
 30
0.0
 11
970.0
 21
732.0
 31
0.0
  0
LINE
  5
14CB6
330
14995
100
AcDbEntity
  8
1
  6
Continuous
100
AcDbLine
 10
982.202494
 20
713.9543599999998
 30
0.0
 11
977.273397
 21
716.3944419999997
 31
0.0
  0
LINE
  5
14CB7
330
14995
100
AcDbEntity
  8
1
  6
Continuous
100
AcDbLine
 10
983.5
 20
719.5
 30
0.0
 11
977.0
 21
719.5
 31
0.0
  0
LINE
  5
14CB8
330
14995
100
AcDbEntity
  8
1
  6
Continuous
100
AcDbLine
 10
983.932856
 20
725.6783709999997
 30
0.0
 11
976.422859
 21
723.4149169999997
 31
0.0
  0
LINE
  5
14CB9
330
14995
100
AcDbEntity
  8
4
  6
CENTER
100
AcDbLine
 10
975.75
 20
719.5
 30
0.0
 11
954.25
 21
719.5
 31
0.0
  0
ARC
  5
14CBA
330
14995
100
AcDbEntity
  8
1
  6
Continuous
100
AcDbCircle
 10
960.0
 20
720.5
 30
0.0
 40
3.75
100
AcDbArc
 50
0.0
 51
180.0
  0
ARC
  5
14CBB
330
14995
100
AcDbEntity
  8
1
  6
Continuous
100
AcDbCircle
 10
960.0
 20
718.5
 30
0.0
 40
3.75
100
AcDbArc
 50
180.0
 51
0.0
  0
ARC
  5
14CBC
330
14995
100
AcDbEntity
  8
1
  6
Continuous
100
AcDbCircle
 10
960.0
 20
718.5
 30
0.0
 40
2.399999999999999
100
AcDbArc
 50
180.0
 51
0.0
  0
ARC
  5
14CBD
330
14995
100
AcDbEntity
  8
1
  6
Continuous
100
AcDbCircle
 10
960.0
 20
720.5
 30
0.0
 40
2.399999999999999
100
AcDbArc
 50
0.0
 51
180.0
  0
LINE
  5
14CBE
330
14995
100
AcDbEntity
  8
1
  6
Continuous
100
AcDbLine
 10
956.25
 20
720.5
 30
0.0
 11
956.25
 21
718.5
 31
0.0
  0
LINE
  5
14CBF
330
14995
100
AcDbEntity
  8
1
  6
Continuous
100
AcDbLine
 10
957.6
 20
720.5
 30
0.0
 11
957.6
 21
718.5
 31
0.0
  0
LINE
  5
14CC0
330
14995
100
AcDbEntity
  8
1
  6
Continuous
100
AcDbLine
 10
963.7500000000001
 20
720.5
 30
0.0
 11
963.7500000000001
 21
718.5
 31
0.0
  0
LINE
  5
14CC1
330
14995
100
AcDbEntity
  8
1
  6
Continuous
100
AcDbLine
 10
962.4
 20
720.5
 30
0.0
 11
962.4
 21
718.5
 31
0.0
  0
LINE
  5
14CC2
330
14995
100
AcDbEntity
  8
4
  6
CENTER
100
AcDbLine
 10
960.0
 20
726.25
 30
0.0
 11
960.0
 21
712.75
 31
0.0
  0
CIRCLE
  5
14CC3
330
14995
100
AcDbEntity
  8
1
  6
Continuous
100
AcDbCircle
 10
970.0
 20
719.5
 30
0.0
 40
3.75
  0
CIRCLE
  5
14CC4
330
14995
100
AcDbEntity
  8
1
  6
Continuous
100
AcDbCircle
 10
970.0
 20
719.5
 30
0.0
 40
2.399999999999999
  0
LINE
  5
14CC5
330
14995
100
AcDbEntity
  8
4
  6
CENTER
100
AcDbLine
 10
970.0
 20
725.25
 30
0.0
 11
970.0
 21
713.75
 31
0.0
  0
LINE
  5
14CC6
330
14995
100
AcDbEntity
  8
1
  6
Continuous
100
AcDbLine
 10
976.5456400000001
 20
708.2975059999996
 30
0.0
 11
974.1055579999999
 21
713.2266030000002
 31
0.0
  0
ARC
  5
14CC7
330
14995
100
AcDbEntity
  8
1
  6
Continuous
100
AcDbCircle
 10
971.0
 20
719.5
 30
0.0
 40
7.0
100
AcDbArc
 50
296.3370750000001
 51
333.6629249999999
  0
ARC
  5
14CC8
330
14995
100
AcDbEntity
  8
1
  6
Continuous
100
AcDbCircle
 10
977.0
 20
721.4999999999998
 30
0.0
 40
2.0
100
AcDbArc
 50
106.7723929999998
 51
270.0
  0
ARC
  5
14CC9
330
14995
100
AcDbEntity
  8
1
  6
Continuous
100
AcDbCircle
 10
971.0
 20
719.5
 30
0.0
 40
11.0
100
AcDbArc
 50
296.3370750000001
 51
333.6629249999999
  0
LINE
  5
14CCA
330
14995
100
AcDbEntity
  8
1
  6
Continuous
100
AcDbLine
 10
985.0
 20
732.0
 30
0.0
 11
985.0
 21
727.1145589999996
 31
0.0
  0
ARC
  5
14CCB
330
14995
100
AcDbEntity
  8
1
  6
Continuous
100
AcDbCircle
 10
984.0
 20
730.4999999999998
 30
0.0
 40
1.0
100
AcDbArc
 50
112.6198649999998
 51
221.810315
  0
ARC
  5
14CCC
330
14995
100
AcDbEntity
  8
1
  6
Continuous
100
AcDbCircle
 10
983.7763929999999
 20
730.0
 30
0.0
 40
0.5
100
AcDbArc
 50
90.0
 51
221.810315
  0
ARC
  5
14CCD
330
14995
100
AcDbEntity
  8
1
  6
Continuous
100
AcDbCircle
 10
983.5
 20
727.1145589999996
 30
0.0
 40
1.5
100
AcDbArc
 50
286.772393
 51
0.0
  0
ARC
  5
14CCE
330
14995
100
AcDbEntity
  8
1
  6
Continuous
100
AcDbCircle
 10
984.0
 20
727.5
 30
0.0
 40
1.0
100
AcDbArc
 50
270.0
 51
41.810315
  0
LINE
  5
14CCF
330
14995
100
AcDbEntity
  8
1
  6
Continuous
100
AcDbLine
 10
984.7453559999999
 20
728.1666669999999
 30
0.0
 11
983.2546439999999
 21
729.833333
 31
0.0
  0
ARC
  5
14CD0
330
14995
100
AcDbEntity
  8
1
  6
Continuous
100
AcDbCircle
 10
983.5
 20
718.0
 30
0.0
 40
1.5
100
AcDbArc
 50
0.0
 51
90.0
  0
LINE
  5
14CD1
330
14995
100
AcDbEntity
  8
1
  6
Continuous
100
AcDbLine
 10
985.0
 20
730.4999999999998
 30
0.0
 11
983.7763929999999
 21
730.4999999999998
 31
0.0
  0
LINE
  5
14CD2
330
14995
100
AcDbEntity
  8
1
  6
Continuous
100
AcDbLine
 10
985.0
 20
732.0
 30
0.0
 11
983.615385
 21
731.4230769999997
 31
0.0
  0
LINE
  5
14CD3
330
14995
100
AcDbEntity
  8
1
  6
Continuous
100
AcDbLine
 10
985.0
 20
444.0
 30
0.0
 11
539.5
 21
444.0
 31
0.0
  0
LINE
  5
14CD4
330
14995
100
AcDbEntity
  8
1
  6
Continuous
100
AcDbLine
 10
985.0
 20
453.5
 30
0.0
 11
490.5
 21
453.5
 31
0.0
  0
LINE
  5
14CD5
330
14995
100
AcDbEntity
  8
1
  6
Continuous
100
AcDbLine
 10
603.5
 20
441.0
 30
0.0
 11
109.0
 21
441.0
 31
0.0
  0
LINE
  5
14CD6
330
14995
100
AcDbEntity
  8
1
  6
Continuous
100
AcDbLine
 10
109.0
 20
450.4999999999998
 30
0.0
 11
489.0
 21
450.4999999999998
 31
0.0
  0
LINE
  5
14CD7
330
14995
100
AcDbEntity
  8
1
  6
Continuous
100
AcDbLine
 10
603.5
 20
442.4999999999998
 30
0.0
 11
109.0
 21
442.4999999999998
 31
0.0
  0
LINE
  5
14CD8
330
14995
100
AcDbEntity
  8
1
  6
Continuous
100
AcDbLine
 10
109.0
 20
449.0
 30
0.0
 11
489.0
 21
449.0
 31
0.0
  0
LINE
  5
14CD9
330
14995
100
AcDbEntity
  8
1
  6
Continuous
100
AcDbLine
 10
142.0
 20
445.5
 30
0.0
 11
115.5
 21
445.5
 31
0.0
  0
ARC
  5
14CDA
330
14995
100
AcDbEntity
  8
1
  6
Continuous
100
AcDbCircle
 10
115.5
 20
444.0
 30
0.0
 40
1.5
100
AcDbArc
 50
90.0
 51
180.0
  0
LINE
  5
14CDB
330
14995
100
AcDbEntity
  8
1
  6
Continuous
100
AcDbLine
 10
109.0
 20
441.0
 30
0.0
 11
109.0
 21
450.4999999999998
 31
0.0
  0
LINE
  5
14CDC
330
14995
100
AcDbEntity
  8
4
  6
CENTER
100
AcDbLine
 10
125.0
 20
438.0
 30
0.0
 11
125.0
 21
444.5
 31
0.0
  0
LINE
  5
14CDD
330
14995
100
AcDbEntity
  8
1
  6
Continuous
100
AcDbLine
 10
114.0
 20
444.0
 30
0.0
 11
114.0
 21
442.4999999999998
 31
0.0
  0
LINE
  5
14CDE
330
14995
100
AcDbEntity
  8
1
  6
Continuous
100
AcDbLine
 10
127.0
 20
445.913842
 30
0.0
 11
127.0
 21
448.51869
 31
0.0
  0
LINE
  5
14CDF
330
14995
100
AcDbEntity
  8
1
  6
Continuous
100
AcDbLine
 10
156.0
 20
443.5
 30
0.0
 11
156.0
 21
448.0
 31
0.0
  0
ARC
  5
14CE0
330
14995
100
AcDbEntity
  8
1
  6
Continuous
100
AcDbCircle
 10
142.0
 20
444.0
 30
0.0
 40
1.5
100
AcDbArc
 50
0.0
 51
90.0
  0
LINE
  5
14CE1
330
14995
100
AcDbEntity
  8
4
  6
CENTER
100
AcDbLine
 10
135.0
 20
438.0
 30
0.0
 11
135.0
 21
444.5
 31
0.0
  0
LINE
  5
14CE2
330
14995
100
AcDbEntity
  8
1
  6
Continuous
100
AcDbLine
 10
143.5
 20
442.4999999999998
 30
0.0
 11
143.5
 21
444.0
 31
0.0
  0
LINE
  5
14CE3
330
14995
100
AcDbEntity
  8
3
  6
DASHED
100
AcDbLine
 10
602.0
 20
451.4999999999998
 30
0.0
 11
580.0
 21
451.4999999999998
 31
0.0
  0
LINE
  5
14CE4
330
14995
100
AcDbEntity
  8
3
  6
DASHED
100
AcDbLine
 10
602.0
 20
446.4999999999998
 30
0.0
 11
580.0
 21
446.4999999999998
 31
0.0
  0
LINE
  5
14CE5
330
14995
100
AcDbEntity
  8
1
  6
Continuous
100
AcDbLine
 10
490.5
 20
449.0
 30
0.0
 11
500.0
 21
449.0
 31
0.0
  0
LINE
  5
14CE6
330
14995
100
AcDbEntity
  8
1
  6
Continuous
100
AcDbLine
 10
490.5
 20
450.4999999999998
 30
0.0
 11
500.0
 21
450.4999999999998
 31
0.0
  0
LINE
  5
14CE7
330
14995
100
AcDbEntity
  8
1
  6
Continuous
100
AcDbLine
 10
539.5
 20
452.0
 30
0.0
 11
490.5
 21
452.0
 31
0.0
  0
LINE
  5
14CE8
330
14995
100
AcDbEntity
  8
1
  6
Continuous
100
AcDbLine
 10
489.0
 20
452.0
 30
0.0
 11
489.0
 21
444.0
 31
0.0
  0
LINE
  5
14CE9
330
14995
100
AcDbEntity
  8
1
  6
Continuous
100
AcDbLine
 10
490.5
 20
444.0
 30
0.0
 11
490.5
 21
452.0
 31
0.0
  0
LINE
  5
14CEA
330
14995
100
AcDbEntity
  8
1
  6
Continuous
100
AcDbLine
 10
491.5
 20
442.4999999999998
 30
0.0
 11
491.5
 21
448.1
 31
0.0
  0
LINE
  5
14CEB
330
14995
100
AcDbEntity
  8
1
  6
Continuous
100
AcDbLine
 10
488.0
 20
442.4999999999998
 30
0.0
 11
488.0
 21
448.1
 31
0.0
  0
LINE
  5
14CEC
330
14995
100
AcDbEntity
  8
4
  6
CENTER
100
AcDbLine
 10
465.0
 20
438.0
 30
0.0
 11
465.0
 21
444.5
 31
0.0
  0
LINE
  5
14CED
330
14995
100
AcDbEntity
  8
4
  6
CENTER
100
AcDbLine
 10
455.0
 20
438.0
 30
0.0
 11
455.0
 21
444.5
 31
0.0
  0
LINE
  5
14CEE
330
14995
100
AcDbEntity
  8
1
  6
Continuous
100
AcDbLine
 10
490.5
 20
444.0
 30
0.0
 11
489.0
 21
444.0
 31
0.0
  0
ARC
  5
14CEF
330
14995
100
AcDbEntity
  8
1
  6
Continuous
100
AcDbCircle
 10
490.5
 20
452.0
 30
0.0
 40
1.5
100
AcDbArc
 50
90.0
 51
180.0
  0
LINE
  5
14CF0
330
14995
100
AcDbEntity
  8
1
  6
Continuous
100
AcDbLine
 10
491.5
 20
448.1
 30
0.0
 11
490.5
 21
448.1
 31
0.0
  0
LINE
  5
14CF1
330
14995
100
AcDbEntity
  8
1
  6
Continuous
100
AcDbLine
 10
489.0
 20
448.1
 30
0.0
 11
488.0
 21
448.1
 31
0.0
  0
LINE
  5
14CF2
330
14995
100
AcDbEntity
  8
1
  6
Continuous
100
AcDbLine
 10
539.5
 20
444.0
 30
0.0
 11
539.5
 21
453.5
 31
0.0
  0
LINE
  5
14CF3
330
14995
100
AcDbEntity
  8
3
  6
DASHED
100
AcDbLine
 10
580.0
 20
444.0
 30
0.0
 11
580.0
 21
451.4999999999998
 31
0.0
  0
LINE
  5
14CF4
330
14995
100
AcDbEntity
  8
4
  6
CENTER
100
AcDbLine
 10
565.0
 20
438.0
 30
0.0
 11
565.0
 21
444.5
 31
0.0
  0
LINE
  5
14CF5
330
14995
100
AcDbEntity
  8
4
  6
CENTER
100
AcDbLine
 10
575.0
 20
438.0
 30
0.0
 11
575.0
 21
444.5
 31
0.0
  0
LINE
  5
14CF6
330
14995
100
AcDbEntity
  8
1
  6
Continuous
100
AcDbLine
 10
517.0
 20
448.0
 30
0.0
 11
517.0
 21
443.0
 31
0.0
  0
LINE
  5
14CF7
330
14995
100
AcDbEntity
  8
1
  6
Continuous
100
AcDbLine
 10
495.0
 20
448.0
 30
0.0
 11
495.0
 21
443.0
 31
0.0
  0
LINE
  5
14CF8
330
14995
100
AcDbEntity
  8
4
  6
CENTER
100
AcDbLine
 10
506.0
 20
457.7685289999998
 30
0.0
 11
506.0
 21
437.3857479999998
 31
0.0
  0
LINE
  5
14CF9
330
14995
100
AcDbEntity
  8
1
  6
Continuous
100
AcDbLine
 10
517.0
 20
443.0
 30
0.0
 11
495.0
 21
443.0
 31
0.0
  0
LINE
  5
14CFA
330
14995
100
AcDbEntity
  8
1
  6
Continuous
100
AcDbLine
 10
580.0
 20
442.4999999999998
 30
0.0
 11
580.0
 21
444.0
 31
0.0
  0
LINE
  5
14CFB
330
14995
100
AcDbEntity
  8
1
  6
Continuous
100
AcDbLine
 10
512.0
 20
449.0
 30
0.0
 11
539.5
 21
449.0
 31
0.0
  0
LINE
  5
14CFC
330
14995
100
AcDbEntity
  8
1
  6
Continuous
100
AcDbLine
 10
512.0
 20
450.4999999999998
 30
0.0
 11
539.5
 21
450.4999999999998
 31
0.0
  0
LINE
  5
14CFD
330
14995
100
AcDbEntity
  8
1
  6
Continuous
100
AcDbLine
 10
517.0
 20
448.0
 30
0.0
 11
495.0
 21
448.0
 31
0.0
  0
LINE
  5
14CFE
330
14995
100
AcDbEntity
  8
1
  6
Continuous
100
AcDbLine
 10
512.0
 20
451.0
 30
0.0
 11
500.0
 21
451.0
 31
0.0
  0
LINE
  5
14CFF
330
14995
100
AcDbEntity
  8
1
  6
Continuous
100
AcDbLine
 10
512.0
 20
449.5
 30
0.0
 11
500.0
 21
449.5
 31
0.0
  0
LINE
  5
14D00
330
14995
100
AcDbEntity
  8
1
  6
Continuous
100
AcDbLine
 10
500.207107
 20
451.292893
 30
0.0
 11
499.5
 21
452.0
 31
0.0
  0
LINE
  5
14D01
330
14995
100
AcDbEntity
  8
4
  6
CENTER
100
AcDbLine
 10
494.55
 20
456.5
 30
0.0
 11
494.55
 21
450.0
 31
0.0
  0
ARC
  5
14D02
330
14995
100
AcDbEntity
  8
1
  6
Continuous
100
AcDbCircle
 10
500.9142139999998
 20
452.0
 30
0.0
 40
1.0
100
AcDbArc
 50
225.0
 51
270.0
  0
LINE
  5
14D03
330
14995
100
AcDbEntity
  8
1
  6
Continuous
100
AcDbLine
 10
500.0
 20
448.0
 30
0.0
 11
500.0
 21
451.0
 31
0.0
  0
LINE
  5
14D04
330
14995
100
AcDbEntity
  8
1
  6
Continuous
100
AcDbLine
 10
516.0201059999999
 20
448.5
 30
0.0
 11
512.0
 21
448.5
 31
0.0
  0
ARC
  5
14D05
330
14995
100
AcDbEntity
  8
1
  6
Continuous
100
AcDbCircle
 10
511.085786
 20
452.0
 30
0.0
 40
1.0
100
AcDbArc
 50
270.0
 51
315.0
  0
LINE
  5
14D06
330
14995
100
AcDbEntity
  8
1
  6
Continuous
100
AcDbLine
 10
511.7928929999997
 20
451.292893
 30
0.0
 11
512.5
 21
452.0
 31
0.0
  0
LINE
  5
14D07
330
14995
100
AcDbEntity
  8
1
  6
Continuous
100
AcDbLine
 10
512.0
 20
448.0
 30
0.0
 11
512.0
 21
451.0
 31
0.0
  0
LINE
  5
14D08
330
14995
100
AcDbEntity
  8
1
  6
Continuous
100
AcDbLine
 10
512.78233
 20
448.5
 30
0.0
 11
512.78233
 21
448.0
 31
0.0
  0
LINE
  5
14D09
330
14995
100
AcDbEntity
  8
4
  6
CENTER
100
AcDbLine
 10
520.0
 20
456.5
 30
0.0
 11
520.0
 21
450.0
 31
0.0
  0
LINE
  5
14D0A
330
14995
100
AcDbEntity
  8
1
  6
Continuous
100
AcDbLine
 10
516.0201059999999
 20
448.5
 30
0.0
 11
516.0201059999999
 21
448.0
 31
0.0
  0
LINE
  5
14D0B
330
14995
100
AcDbEntity
  8
3
  6
DASHED
100
AcDbLine
 10
539.5
 20
449.0
 30
0.0
 11
580.0
 21
449.0
 31
0.0
  0
LINE
  5
14D0C
330
14995
100
AcDbEntity
  8
4
  6
CENTER
100
AcDbLine
 10
545.0
 20
456.5
 30
0.0
 11
545.0
 21
450.0
 31
0.0
  0
LINE
  5
14D0D
330
14995
100
AcDbEntity
  8
4
  6
CENTER
100
AcDbLine
 10
555.0
 20
456.5
 30
0.0
 11
555.0
 21
450.0
 31
0.0
  0
LINE
  5
14D0E
330
14995
100
AcDbEntity
  8
3
  6
DASHED
100
AcDbLine
 10
603.5
 20
450.4999999999998
 30
0.0
 11
603.5
 21
444.0
 31
0.0
  0
LINE
  5
14D0F
330
14995
100
AcDbEntity
  8
3
  6
DASHED
100
AcDbLine
 10
605.0
 20
450.4999999999998
 30
0.0
 11
605.0
 21
444.0
 31
0.0
  0
LINE
  5
14D10
330
14995
100
AcDbEntity
  8
1
  6
Continuous
100
AcDbLine
 10
585.0
 20
444.0
 30
0.0
 11
585.0
 21
443.5
 31
0.0
  0
LINE
  5
14D11
330
14995
100
AcDbEntity
  8
1
  6
Continuous
100
AcDbLine
 10
597.0
 20
444.0
 30
0.0
 11
597.0
 21
443.5
 31
0.0
  0
LINE
  5
14D12
330
14995
100
AcDbEntity
  8
4
  6
CENTER
100
AcDbLine
 10
591.0
 20
457.6235419999998
 30
0.0
 11
591.0
 21
437.1560739999998
 31
0.0
  0
LINE
  5
14D13
330
14995
100
AcDbEntity
  8
1
  6
Continuous
100
AcDbLine
 10
597.0
 20
443.5
 30
0.0
 11
585.0
 21
443.5
 31
0.0
  0
LINE
  5
14D14
330
14995
100
AcDbEntity
  8
1
  6
Continuous
100
AcDbLine
 10
585.207107
 20
443.207107
 30
0.0
 11
584.4999999999997
 21
442.4999999999998
 31
0.0
  0
ARC
  5
14D15
330
14995
100
AcDbEntity
  8
1
  6
Continuous
100
AcDbCircle
 10
585.914214
 20
442.4999999999998
 30
0.0
 40
1.0
100
AcDbArc
 50
90.0
 51
135.0
  0
LINE
  5
14D16
330
14995
100
AcDbEntity
  8
1
  6
Continuous
100
AcDbLine
 10
596.7928929999999
 20
443.207107
 30
0.0
 11
597.5
 21
442.4999999999998
 31
0.0
  0
ARC
  5
14D17
330
14995
100
AcDbEntity
  8
1
  6
Continuous
100
AcDbCircle
 10
596.0857859999999
 20
442.4999999999998
 30
0.0
 40
1.0
100
AcDbArc
 50
45.0
 51
90.0
  0
ARC
  5
14D18
330
14995
100
AcDbEntity
  8
1
  6
Continuous
100
AcDbCircle
 10
603.5
 20
442.4999999999998
 30
0.0
 40
1.5
100
AcDbArc
 50
270.0
 51
0.0
  0
LINE
  5
14D19
330
14995
100
AcDbEntity
  8
1
  6
Continuous
100
AcDbLine
 10
603.5
 20
444.0
 30
0.0
 11
603.5
 21
442.4999999999998
 31
0.0
  0
LINE
  5
14D1A
330
14995
100
AcDbEntity
  8
1
  6
Continuous
100
AcDbLine
 10
605.0
 20
444.0
 30
0.0
 11
605.0
 21
442.4999999999998
 31
0.0
  0
LINE
  5
14D1B
330
14995
100
AcDbEntity
  8
3
  6
DASHED
100
AcDbLine
 10
597.0
 20
445.0
 30
0.0
 11
585.0
 21
445.0
 31
0.0
  0
LINE
  5
14D1C
330
14995
100
AcDbEntity
  8
3
  6
DASHED
100
AcDbLine
 10
585.0
 20
446.4999999999998
 30
0.0
 11
585.0
 21
444.0
 31
0.0
  0
LINE
  5
14D1D
330
14995
100
AcDbEntity
  8
3
  6
DASHED
100
AcDbLine
 10
597.0
 20
446.4999999999998
 30
0.0
 11
597.0
 21
444.0
 31
0.0
  0
LINE
  5
14D1E
330
14995
100
AcDbEntity
  8
3
  6
DASHED
100
AcDbLine
 10
605.0
 20
450.4999999999998
 30
0.0
 11
603.5
 21
450.4999999999998
 31
0.0
  0
LINE
  5
14D1F
330
14995
100
AcDbEntity
  8
3
  6
DASHED
100
AcDbLine
 10
602.0
 20
446.4999999999998
 30
0.0
 11
602.0
 21
451.4999999999998
 31
0.0
  0
LINE
  5
14D20
330
14995
100
AcDbEntity
  8
4
  6
CENTER
100
AcDbLine
 10
651.0
 20
456.5
 30
0.0
 11
651.0
 21
450.0
 31
0.0
  0
LINE
  5
14D21
330
14995
100
AcDbEntity
  8
1
  6
Continuous
100
AcDbLine
 10
942.0
 20
452.0
 30
0.0
 11
942.0
 21
445.5
 31
0.0
  0
LINE
  5
14D22
330
14995
100
AcDbEntity
  8
1
  6
Continuous
100
AcDbLine
 10
985.0
 20
453.5
 30
0.0
 11
985.0
 21
444.0
 31
0.0
  0
LINE
  5
14D23
330
14995
100
AcDbEntity
  8
4
  6
CENTER
100
AcDbLine
 10
960.0
 20
456.5
 30
0.0
 11
960.0
 21
450.0
 31
0.0
  0
LINE
  5
14D24
330
14995
100
AcDbEntity
  8
1
  6
Continuous
100
AcDbLine
 10
970.0
 20
448.4392169999998
 30
0.0
 11
970.0
 21
444.80161
 31
0.0
  0
LINE
  5
14D25
330
14995
100
AcDbEntity
  8
4
  6
CENTER
100
AcDbLine
 10
970.0
 20
456.5
 30
0.0
 11
970.0
 21
450.0
 31
0.0
  0
ARC
  5
14D26
330
14995
100
AcDbEntity
  8
1
  6
Continuous
100
AcDbCircle
 10
603.0
 20
145.5
 30
0.0
 40
2.0
100
AcDbArc
 50
0.0
 51
90.0
  0
ARC
  5
14D27
330
14995
100
AcDbEntity
  8
1
  6
Continuous
100
AcDbCircle
 10
597.7639319999998
 20
125.5
 30
0.0
 40
2.0
100
AcDbArc
 50
270.0
 51
333.434949
  0
ARC
  5
14D28
330
14995
100
AcDbEntity
  8
1
  6
Continuous
100
AcDbCircle
 10
491.0
 20
149.0
 30
0.0
 40
2.0
100
AcDbArc
 50
90.0
 51
180.0
  0
ARC
  5
14D29
330
14995
100
AcDbEntity
  8
1
  6
Continuous
100
AcDbCircle
 10
492.4999999999998
 20
549.0
 30
0.0
 40
2.0
100
AcDbArc
 50
90.0
 51
180.0
  0
ARC
  5
14D2A
330
14995
100
AcDbEntity
  8
1
  6
Continuous
100
AcDbCircle
 10
492.4999999999998
 20
705.4999999999997
 30
0.0
 40
2.0
100
AcDbArc
 50
180.0
 51
270.0
  0
LINE
  5
14D2B
330
14995
100
AcDbEntity
  8
1
  6
Continuous
100
AcDbLine
 10
942.0668309999999
 20
126.5
 30
0.0
 11
600.4999999999999
 21
126.5
 31
0.0
  0
LINE
  5
14D2C
330
14995
100
AcDbEntity
  8
1
  6
Continuous
100
AcDbLine
 10
970.0668310000002
 20
124.0
 30
0.0
 11
942.0668309999999
 21
126.5
 31
0.0
  0
LINE
  5
14D2D
330
14995
100
AcDbEntity
  8
1
  6
Continuous
100
AcDbLine
 10
985.0
 20
124.0
 30
0.0
 11
970.0668310000002
 21
124.0
 31
0.0
  0
ARC
  5
14D2E
330
14995
100
AcDbEntity
  8
3
  6
DASHED
100
AcDbCircle
 10
491.0
 20
127.0
 30
0.0
 40
2.0
100
AcDbArc
 50
180.0
 51
270.0
  0
LINE
  5
14D2F
330
14995
100
AcDbEntity
  8
1
  6
Continuous
100
AcDbLine
 10
109.0
 20
306.0
 30
0.0
 11
126.9354649999998
 21
306.0
 31
0.0
  0
LINE
  5
14D30
330
14995
100
AcDbEntity
  8
1
  6
Continuous
100
AcDbLine
 10
155.9354649999999
 20
308.4999999999999
 30
0.0
 11
126.9354649999998
 21
306.0
 31
0.0
  0
LINE
  5
14D31
330
14995
100
AcDbEntity
  8
1
  6
Continuous
100
AcDbLine
 10
489.0
 20
308.4999999999999
 30
0.0
 11
155.9354649999999
 21
308.4999999999999
 31
0.0
  0
LINE
  5
14D32
330
14995
100
AcDbEntity
  8
3
  6
DASHED
100
AcDbLine
 10
509.544554
 20
308.4999999999999
 30
0.0
 11
489.0
 21
308.4999999999999
 31
0.0
  0
LINE
  5
14D33
330
14995
100
AcDbEntity
  8
3
  6
DASHED
100
AcDbLine
 10
513.46983
 20
308.4999999999999
 30
0.0
 11
512.09483
 21
308.4999999999999
 31
0.0
  0
ARC
  5
14D34
330
14995
100
AcDbEntity
  8
1
  6
Continuous
100
AcDbCircle
 10
491.0
 20
305.5
 30
0.0
 40
2.0
100
AcDbArc
 50
180.0
 51
270.0
  0
ARC
  5
14D35
330
14995
100
AcDbEntity
  8
1
  6
Continuous
100
AcDbCircle
 10
491.0
 20
327.4999999999999
 30
0.0
 40
2.0
100
AcDbArc
 50
90.0
 51
180.0
  0
LINE
  5
14D36
330
14995
100
AcDbEntity
  8
1
  6
Continuous
100
AcDbLine
 10
599.5527860000001
 20
329.894427
 30
0.0
 11
599.75
 21
329.4999999999999
 31
0.0
  0
ARC
  5
14D37
330
14995
100
AcDbEntity
  8
1
  6
Continuous
100
AcDbCircle
 10
597.7639319999998
 20
329.0
 30
0.0
 40
2.0
100
AcDbArc
 50
26.565051
 51
90.0
  0
LINE
  5
14D38
330
14995
100
AcDbEntity
  8
3
  6
DASHED
100
AcDbLine
 10
605.0
 20
319.0
 30
0.0
 11
605.0
 21
309.0
 31
0.0
  0
ARC
  5
14D39
330
14995
100
AcDbEntity
  8
3
  6
DASHED
100
AcDbCircle
 10
603.0
 20
309.0
 30
0.0
 40
2.0
100
AcDbArc
 50
270.0
 51
0.0
  0
ARC
  5
14D3A
330
14995
100
AcDbEntity
  8
1
  6
Continuous
100
AcDbCircle
 10
541.5
 20
47.0
 30
0.0
 40
2.0
100
AcDbArc
 50
90.0
 51
180.0
  0
ARC
  5
14D3B
330
14995
100
AcDbEntity
  8
3
  6
DASHED
100
AcDbCircle
 10
578.0
 20
47.5
 30
0.0
 40
2.0
100
AcDbArc
 50
270.0
 51
0.0
  0
LINE
  5
14D3C
330
14995
100
AcDbEntity
  8
1
  6
Continuous
100
AcDbLine
 10
33.0
 20
122.5
 30
0.0
 11
33.0
 21
124.0
 31
0.0
  0
LINE
  5
14D3D
330
14995
100
AcDbEntity
  8
1
  6
Continuous
100
AcDbLine
 10
26.5
 20
122.5
 30
0.0
 11
33.0
 21
122.5
 31
0.0
  0
LINE
  5
14D3E
330
14995
100
AcDbEntity
  8
1
  6
Continuous
100
AcDbLine
 10
26.5
 20
126.5
 30
0.0
 11
30.5
 21
126.5
 31
0.0
  0
LINE
  5
14D3F
330
14995
100
AcDbEntity
  8
1
  6
Continuous
100
AcDbLine
 10
35.5
 20
124.0
 30
0.0
 11
30.5
 21
124.0
 31
0.0
  0
LINE
  5
14D40
330
14995
100
AcDbEntity
  8
1
  6
Continuous
100
AcDbLine
 10
35.5
 20
124.0
 30
0.0
 11
35.5
 21
146.0
 31
0.0
  0
LINE
  5
14D41
330
14995
100
AcDbEntity
  8
1
  6
Continuous
100
AcDbLine
 10
30.5
 20
124.0
 30
0.0
 11
30.5
 21
146.0
 31
0.0
  0
LINE
  5
14D42
330
14995
100
AcDbEntity
  8
1
  6
Continuous
100
AcDbLine
 10
29.0
 20
129.0
 30
0.0
 11
29.0
 21
141.0
 31
0.0
  0
LINE
  5
14D43
330
14995
100
AcDbEntity
  8
1
  6
Continuous
100
AcDbLine
 10
27.5
 20
129.0
 30
0.0
 11
27.5
 21
141.0
 31
0.0
  0
LINE
  5
14D44
330
14995
100
AcDbEntity
  8
1
  6
Continuous
100
AcDbLine
 10
30.5
 20
141.0
 30
0.0
 11
27.5
 21
141.0
 31
0.0
  0
ARC
  5
14D45
330
14995
100
AcDbEntity
  8
1
  6
Continuous
100
AcDbCircle
 10
26.5
 20
140.085786
 30
0.0
 40
1.0
100
AcDbArc
 50
0.0
 51
45.0
  0
LINE
  5
14D46
330
14995
100
AcDbEntity
  8
1
  6
Continuous
100
AcDbLine
 10
27.207107
 20
140.7928929999999
 30
0.0
 11
26.5
 21
141.5
 31
0.0
  0
LINE
  5
14D47
330
14995
100
AcDbEntity
  8
1
  6
Continuous
100
AcDbLine
 10
30.5
 20
129.0
 30
0.0
 11
27.5
 21
129.0
 31
0.0
  0
LINE
  5
14D48
330
14995
100
AcDbEntity
  8
1
  6
Continuous
100
AcDbLine
 10
27.207107
 20
129.207107
 30
0.0
 11
26.5
 21
128.4999999999998
 31
0.0
  0
ARC
  5
14D49
330
14995
100
AcDbEntity
  8
1
  6
Continuous
100
AcDbCircle
 10
26.5
 20
129.9142139999998
 30
0.0
 40
1.0
100
AcDbArc
 50
315.0
 51
0.0
  0
LINE
  5
14D4A
330
14995
100
AcDbEntity
  8
1
  6
Continuous
100
AcDbLine
 10
27.0
 20
141.0
 30
0.0
 11
27.0
 21
148.5
 31
0.0
  0
LINE
  5
14D4B
330
14995
100
AcDbEntity
  8
1
  6
Continuous
100
AcDbLine
 10
1059.5
 20
122.5
 30
0.0
 11
1059.5
 21
126.5
 31
0.0
  0
LINE
  5
14D4C
330
14995
100
AcDbEntity
  8
1
  6
Continuous
100
AcDbLine
 10
1066.0
 20
124.0
 30
0.0
 11
1066.0
 21
149.5
 31
0.0
  0
ARC
  5
14D4D
330
14995
100
AcDbEntity
  8
1
  6
Continuous
100
AcDbCircle
 10
1066.0
 20
124.0
 30
0.0
 40
1.5
100
AcDbArc
 50
270.0
 51
0.0
  0
LINE
  5
14D4E
330
14995
100
AcDbEntity
  8
1
  6
Continuous
100
AcDbLine
 10
1066.0
 20
122.5
 30
0.0
 11
1059.5
 21
122.5
 31
0.0
  0
LINE
  5
14D4F
330
14995
100
AcDbEntity
  8
4
  6
CENTER
100
AcDbLine
 10
1053.446672
 20
135.0
 30
0.0
 11
1072.5
 21
135.0
 31
0.0
  0
LINE
  5
14D50
330
14995
100
AcDbEntity
  8
1
  6
Continuous
100
AcDbLine
 10
1063.0
 20
148.5
 30
0.0
 11
1063.0
 21
150.0
 31
0.0
  0
LINE
  5
14D51
330
14995
100
AcDbEntity
  8
1
  6
Continuous
100
AcDbLine
 10
1057.0
 20
124.0
 30
0.0
 11
1062.0
 21
124.0
 31
0.0
  0
LINE
  5
14D52
330
14995
100
AcDbEntity
  8
1
  6
Continuous
100
AcDbLine
 10
1063.0
 20
149.5
 30
0.0
 11
1066.0
 21
149.5
 31
0.0
  0
LINE
  5
14D53
330
14995
100
AcDbEntity
  8
1
  6
Continuous
100
AcDbLine
 10
1067.5
 20
124.0
 30
0.0
 11
1067.5
 21
151.0
 31
0.0
  0
LINE
  5
14D54
330
14995
100
AcDbEntity
  8
1
  6
Continuous
100
AcDbLine
 10
1056.499999999999
 20
123.5
 30
0.0
 11
1056.499999999999
 21
147.5
 31
0.0
  0
LINE
  5
14D55
330
14995
100
AcDbEntity
  8
1
  6
Continuous
100
AcDbLine
 10
1055.0
 20
123.5
 30
0.0
 11
1055.0
 21
148.5
 31
0.0
  0
LINE
  5
14D56
330
14995
100
AcDbEntity
  8
1
  6
Continuous
100
AcDbLine
 10
1055.0
 20
123.5
 30
0.0
 11
1056.499999999999
 21
123.5
 31
0.0
  0
LINE
  5
14D57
330
14995
100
AcDbEntity
  8
1
  6
Continuous
100
AcDbLine
 10
1056.499999999999
 20
146.0
 30
0.0
 11
1060.499999999999
 21
146.0
 31
0.0
  0
LINE
  5
14D58
330
14995
100
AcDbEntity
  8
1
  6
Continuous
100
AcDbLine
 10
1063.0
 20
150.0
 30
0.0
 11
1056.499999999999
 21
150.0
 31
0.0
  0
LINE
  5
14D59
330
14995
100
AcDbEntity
  8
1
  6
Continuous
100
AcDbLine
 10
1059.5
 20
151.0
 30
0.0
 11
1067.5
 21
151.0
 31
0.0
  0
ARC
  5
14D5A
330
14995
100
AcDbEntity
  8
1
  6
Continuous
100
AcDbCircle
 10
1056.499999999999
 20
148.5
 30
0.0
 40
1.5
100
AcDbArc
 50
90.0
 51
180.0
  0
LINE
  5
14D5B
330
14995
100
AcDbEntity
  8
1
  6
Continuous
100
AcDbLine
 10
1059.5
 20
150.0
 30
0.0
 11
1059.5
 21
151.0
 31
0.0
  0
LINE
  5
14D5C
330
14995
100
AcDbEntity
  8
4
  6
CENTER
100
AcDbLine
 10
1050.856378999998
 20
137.5
 30
0.0
 11
1068.650523999999
 21
137.5
 31
0.0
  0
LINE
  5
14D5D
330
14995
100
AcDbEntity
  8
1
  6
Continuous
100
AcDbLine
 10
1066.0
 20
124.0
 30
0.0
 11
1059.5
 21
124.0
 31
0.0
  0
ARC
  5
14D5E
330
14995
100
AcDbEntity
  8
1
  6
Continuous
100
AcDbCircle
 10
1066.0
 20
149.5
 30
0.0
 40
1.5
100
AcDbArc
 50
0.0
 51
90.0
  0
LINE
  5
14D5F
330
14995
100
AcDbEntity
  8
1
  6
Continuous
100
AcDbLine
 10
1055.0
 20
147.5
 30
0.0
 11
1060.499999999999
 21
147.5
 31
0.0
  0
LINE
  5
14D60
330
14995
100
AcDbEntity
  8
1
  6
Continuous
100
AcDbLine
 10
1059.0
 20
143.5
 30
0.0
 11
1059.0
 21
131.4999999999998
 31
0.0
  0
ARC
  5
14D61
330
14995
100
AcDbEntity
  8
1
  6
Continuous
100
AcDbCircle
 10
1056.499999999999
 20
142.585786
 30
0.0
 40
1.0
100
AcDbArc
 50
0.0
 51
45.0
  0
LINE
  5
14D62
330
14995
100
AcDbEntity
  8
1
  6
Continuous
100
AcDbLine
 10
1057.207106999999
 20
143.2928929999999
 30
0.0
 11
1056.499999999999
 21
144.0
 31
0.0
  0
LINE
  5
14D63
330
14995
100
AcDbEntity
  8
1
  6
Continuous
100
AcDbLine
 10
1057.207106999999
 20
131.707107
 30
0.0
 11
1056.499999999999
 21
131.0
 31
0.0
  0
ARC
  5
14D64
330
14995
100
AcDbEntity
  8
1
  6
Continuous
100
AcDbCircle
 10
1056.499999999999
 20
132.4142139999999
 30
0.0
 40
1.0
100
AcDbArc
 50
315.0
 51
0.0
  0
LINE
  5
14D65
330
14995
100
AcDbEntity
  8
1
  6
Continuous
100
AcDbLine
 10
1057.5
 20
143.5
 30
0.0
 11
1057.5
 21
131.4999999999998
 31
0.0
  0
LINE
  5
14D66
330
14995
100
AcDbEntity
  8
1
  6
Continuous
100
AcDbLine
 10
1060.499999999999
 20
143.5
 30
0.0
 11
1057.5
 21
143.5
 31
0.0
  0
LINE
  5
14D67
330
14995
100
AcDbEntity
  8
1
  6
Continuous
100
AcDbLine
 10
1060.499999999999
 20
131.4999999999998
 30
0.0
 11
1057.5
 21
131.4999999999998
 31
0.0
  0
LINE
  5
14D68
330
14995
100
AcDbEntity
  8
1
  6
Continuous
100
AcDbLine
 10
1060.499999999999
 20
148.5
 30
0.0
 11
1060.499999999999
 21
126.5
 31
0.0
  0
LINE
  5
14D69
330
14995
100
AcDbEntity
  8
1
  6
Continuous
100
AcDbLine
 10
1065.499999999999
 20
148.5
 30
0.0
 11
1060.499999999999
 21
148.5
 31
0.0
  0
LINE
  5
14D6A
330
14995
100
AcDbEntity
  8
1
  6
Continuous
100
AcDbLine
 10
1065.499999999999
 20
148.5
 30
0.0
 11
1065.499999999999
 21
146.202494
 31
0.0
  0
LINE
  5
14D6B
330
14995
100
AcDbEntity
  8
1
  6
Continuous
100
AcDbLine
 10
1066.0
 20
126.5
 30
0.0
 11
1059.5
 21
126.5
 31
0.0
  0
LINE
  5
14D6C
330
14995
100
AcDbEntity
  8
1
  6
Continuous
100
AcDbLine
 10
1066.0
 20
146.202494
 30
0.0
 11
1060.499999999999
 21
146.202494
 31
0.0
  0
LINE
  5
14D6D
330
14995
100
AcDbEntity
  8
1
  6
Continuous
100
AcDbLine
 10
1066.0
 20
140.54564
 30
0.0
 11
1060.499999999999
 21
140.54564
 31
0.0
  0
LINE
  5
14D6E
330
14995
100
AcDbEntity
  8
1
  6
Continuous
100
AcDbLine
 10
1066.0
 20
139.8801629999999
 30
0.0
 11
1060.499999999999
 21
139.8801629999999
 31
0.0
  0
LINE
  5
14D6F
330
14995
100
AcDbEntity
  8
1
  6
Continuous
100
AcDbLine
 10
1065.499999999999
 20
139.8801629999999
 30
0.0
 11
1065.499999999999
 21
126.5
 31
0.0
  0
LINE
  5
14D70
330
14995
100
AcDbEntity
  8
1
  6
Continuous
100
AcDbLine
 10
1066.0
 20
135.0
 30
0.0
 11
1067.5
 21
135.0
 31
0.0
  0
LINE
  5
14D71
330
14995
100
AcDbEntity
  8
1
  6
Continuous
100
AcDbLine
 10
1067.5
 20
128.4999999999998
 30
0.0
 11
1066.0
 21
128.4999999999998
 31
0.0
  0
LINE
  5
14D72
330
14995
100
AcDbEntity
  8
1
  6
Continuous
100
AcDbLine
 10
1057.0
 20
143.5
 30
0.0
 11
1057.0
 21
146.0
 31
0.0
  0
LINE
  5
14D73
330
14995
100
AcDbEntity
  8
1
  6
Continuous
100
AcDbLine
 10
1057.0
 20
124.0
 30
0.0
 11
1057.0
 21
131.4999999999998
 31
0.0
  0
LINE
  5
14D74
330
14995
100
AcDbEntity
  8
1
  6
Continuous
100
AcDbLine
 10
980.0
 20
522.5
 30
0.0
 11
980.0
 21
525.4999999999999
 31
0.0
  0
LINE
  5
14D75
330
14995
100
AcDbEntity
  8
1
  6
Continuous
100
AcDbLine
 10
953.5
 20
523.973214
 30
0.0
 11
953.5
 21
525.4999999999999
 31
0.0
  0
LINE
  5
14D76
330
14995
100
AcDbEntity
  8
1
  6
Continuous
100
AcDbLine
 10
980.0
 20
524.0
 30
0.0
 11
970.0
 21
524.0
 31
0.0
  0
LINE
  5
14D77
330
14995
100
AcDbEntity
  8
1
  6
Continuous
100
AcDbLine
 10
970.1333980000001
 20
523.9940569999999
 30
0.0
 11
953.5
 21
525.4791809999998
 31
0.0
  0
LINE
  5
14D78
330
14995
100
AcDbEntity
  8
1
  6
Continuous
100
AcDbLine
 10
978.5
 20
527.0
 30
0.0
 11
955.0
 21
527.0
 31
0.0
  0
ARC
  5
14D79
330
14995
100
AcDbEntity
  8
1
  6
Continuous
100
AcDbCircle
 10
978.5
 20
525.4999999999999
 30
0.0
 40
1.5
100
AcDbArc
 50
0.0
 51
90.0
  0
ARC
  5
14D7A
330
14995
100
AcDbEntity
  8
1
  6
Continuous
100
AcDbCircle
 10
955.0
 20
525.4999999999999
 30
0.0
 40
1.5
100
AcDbArc
 50
90.0
 51
180.0
  0
LINE
  5
14D7B
330
14995
100
AcDbEntity
  8
1
  6
Continuous
100
AcDbLine
 10
953.5
 20
450.4999999999998
 30
0.0
 11
953.5
 21
453.5
 31
0.0
  0
LINE
  5
14D7C
330
14995
100
AcDbEntity
  8
1
  6
Continuous
100
AcDbLine
 10
980.0
 20
450.4999999999998
 30
0.0
 11
980.0
 21
453.5
 31
0.0
  0
LINE
  5
14D7D
330
14995
100
AcDbEntity
  8
1
  6
Continuous
100
AcDbLine
 10
980.0
 20
452.0
 30
0.0
 11
953.5
 21
452.0
 31
0.0
  0
LINE
  5
14D7E
330
14995
100
AcDbEntity
  8
1
  6
Continuous
100
AcDbLine
 10
978.5
 20
449.0
 30
0.0
 11
955.0
 21
449.0
 31
0.0
  0
ARC
  5
14D7F
330
14995
100
AcDbEntity
  8
1
  6
Continuous
100
AcDbCircle
 10
978.5
 20
450.4999999999998
 30
0.0
 40
1.5
100
AcDbArc
 50
270.0
 51
0.0
  0
ARC
  5
14D80
330
14995
100
AcDbEntity
  8
1
  6
Continuous
100
AcDbCircle
 10
955.0
 20
450.4999999999998
 30
0.0
 40
1.5
100
AcDbArc
 50
180.0
 51
270.0
  0
LINE
  5
14D81
330
14995
100
AcDbEntity
  8
1
  6
Continuous
100
AcDbLine
 10
970.1333980000001
 20
330.505943
 30
0.0
 11
953.5
 21
329.020819
 31
0.0
  0
LINE
  5
14D82
330
14995
100
AcDbEntity
  8
1
  6
Continuous
100
AcDbLine
 10
978.5
 20
327.4999999999999
 30
0.0
 11
955.0
 21
327.4999999999999
 31
0.0
  0
LINE
  5
14D83
330
14995
100
AcDbEntity
  8
1
  6
Continuous
100
AcDbLine
 10
953.5
 20
330.5267859999998
 30
0.0
 11
953.5
 21
329.0
 31
0.0
  0
ARC
  5
14D84
330
14995
100
AcDbEntity
  8
1
  6
Continuous
100
AcDbCircle
 10
955.0
 20
329.0
 30
0.0
 40
1.5
100
AcDbArc
 50
180.0
 51
270.0
  0
LINE
  5
14D85
330
14995
100
AcDbEntity
  8
1
  6
Continuous
100
AcDbLine
 10
980.0
 20
332.0
 30
0.0
 11
980.0
 21
329.0
 31
0.0
  0
LINE
  5
14D86
330
14995
100
AcDbEntity
  8
1
  6
Continuous
100
AcDbLine
 10
980.0
 20
330.5
 30
0.0
 11
970.0
 21
330.5
 31
0.0
  0
ARC
  5
14D87
330
14995
100
AcDbEntity
  8
1
  6
Continuous
100
AcDbCircle
 10
978.5
 20
329.0
 30
0.0
 40
1.5
100
AcDbArc
 50
270.0
 51
0.0
  0
LINE
  5
14D88
330
14995
100
AcDbEntity
  8
1
  6
Continuous
100
AcDbLine
 10
978.5
 20
127.0
 30
0.0
 11
955.0
 21
127.0
 31
0.0
  0
ARC
  5
14D89
330
14995
100
AcDbEntity
  8
1
  6
Continuous
100
AcDbCircle
 10
955.0
 20
125.5
 30
0.0
 40
1.5
100
AcDbArc
 50
90.0
 51
180.0
  0
LINE
  5
14D8A
330
14995
100
AcDbEntity
  8
1
  6
Continuous
100
AcDbLine
 10
953.5
 20
125.479181
 30
0.0
 11
953.5
 21
125.5
 31
0.0
  0
ARC
  5
14D8B
330
14995
100
AcDbEntity
  8
1
  6
Continuous
100
AcDbCircle
 10
978.5
 20
125.5
 30
0.0
 40
1.5
100
AcDbArc
 50
0.0
 51
90.0
  0
LINE
  5
14D8C
330
14995
100
AcDbEntity
  8
1
  6
Continuous
100
AcDbLine
 10
980.0
 20
124.0
 30
0.0
 11
980.0
 21
125.5
 31
0.0
  0
LINE
  5
14D8D
330
14995
100
AcDbEntity
  8
1
  6
Continuous
100
AcDbLine
 10
980.0
 20
42.5
 30
0.0
 11
953.5
 21
42.5
 31
0.0
  0
LINE
  5
14D8E
330
14995
100
AcDbEntity
  8
1
  6
Continuous
100
AcDbLine
 10
978.5
 20
45.49999999999999
 30
0.0
 11
955.0
 21
45.49999999999999
 31
0.0
  0
LINE
  5
14D8F
330
14995
100
AcDbEntity
  8
1
  6
Continuous
100
AcDbLine
 10
953.5
 20
44.0
 30
0.0
 11
953.5
 21
41.0
 31
0.0
  0
ARC
  5
14D90
330
14995
100
AcDbEntity
  8
1
  6
Continuous
100
AcDbCircle
 10
955.0
 20
44.0
 30
0.0
 40
1.5
100
AcDbArc
 50
90.0
 51
180.0
  0
LINE
  5
14D91
330
14995
100
AcDbEntity
  8
1
  6
Continuous
100
AcDbLine
 10
980.0
 20
44.0
 30
0.0
 11
980.0
 21
41.0
 31
0.0
  0
ARC
  5
14D92
330
14995
100
AcDbEntity
  8
1
  6
Continuous
100
AcDbCircle
 10
978.5
 20
44.0
 30
0.0
 40
1.5
100
AcDbArc
 50
0.0
 51
90.0
  0
ARC
  5
14D93
330
14995
100
AcDbEntity
  8
1
  6
Continuous
100
AcDbCircle
 10
983.5
 20
47.5
 30
0.0
 40
1.5
100
AcDbArc
 50
0.0
 51
90.0
  0
LINE
  5
14D94
330
14995
100
AcDbEntity
  8
1
  6
Continuous
100
AcDbLine
 10
142.0
 20
308.0
 30
0.0
 11
115.5
 21
308.0
 31
0.0
  0
LINE
  5
14D95
330
14995
100
AcDbEntity
  8
1
  6
Continuous
100
AcDbLine
 10
114.0
 20
306.0
 30
0.0
 11
114.0
 21
306.4999999999999
 31
0.0
  0
ARC
  5
14D96
330
14995
100
AcDbEntity
  8
1
  6
Continuous
100
AcDbCircle
 10
115.5
 20
306.4999999999999
 30
0.0
 40
1.5
100
AcDbArc
 50
90.0
 51
180.0
  0
ARC
  5
14D97
330
14995
100
AcDbEntity
  8
1
  6
Continuous
100
AcDbCircle
 10
142.0
 20
306.4999999999999
 30
0.0
 40
1.5
100
AcDbArc
 50
36.964804
 51
90.0
  0
LINE
  5
14D98
330
14995
100
AcDbEntity
  8
5
  6
PHANTOM
100
AcDbLine
 10
977.6274889999999
 20
521.0
 30
0.0
 11
491.0
 21
521.0
 31
0.0
  0
LINE
  5
14D99
330
14995
100
AcDbEntity
  8
5
  6
PHANTOM
100
AcDbLine
 10
958.5
 20
540.0
 30
0.0
 11
535.784882
 21
540.0
 31
0.0
  0
LINE
  5
14D9A
330
14995
100
AcDbEntity
  8
5
  6
PHANTOM
100
AcDbLine
 10
960.0
 20
545.0
 30
0.0
 11
536.0
 21
545.0
 31
0.0
  0
ARC
  5
14D9B
330
14995
100
AcDbEntity
  8
5
  6
PHANTOM
100
AcDbCircle
 10
515.0
 20
536.0
 30
0.0
 40
2.399999999999999
100
AcDbArc
 50
0.0
 51
180.0
  0
ARC
  5
14D9C
330
14995
100
AcDbEntity
  8
5
  6
PHANTOM
100
AcDbCircle
 10
515.0
 20
534.0
 30
0.0
 40
2.399999999999999
100
AcDbArc
 50
180.0
 51
0.0
  0
ARC
  5
14D9D
330
14995
100
AcDbEntity
  8
5
  6
PHANTOM
100
AcDbCircle
 10
515.0
 20
536.0
 30
0.0
 40
3.75
100
AcDbArc
 50
0.0
 51
180.0
  0
ARC
  5
14D9E
330
14995
100
AcDbEntity
  8
5
  6
PHANTOM
100
AcDbCircle
 10
515.0
 20
534.0
 30
0.0
 40
3.75
100
AcDbArc
 50
180.0
 51
0.0
  0
LINE
  5
14D9F
330
14995
100
AcDbEntity
  8
5
  6
PHANTOM
100
AcDbLine
 10
535.784882
 20
540.0
 30
0.0
 11
506.784882
 21
542.4999999999998
 31
0.0
  0
LINE
  5
14DA0
330
14995
100
AcDbEntity
  8
5
  6
PHANTOM
100
AcDbLine
 10
536.0
 20
545.0
 30
0.0
 11
507.0
 21
547.5
 31
0.0
  0
ARC
  5
14DA1
330
14995
100
AcDbEntity
  8
5
  6
PHANTOM
100
AcDbCircle
 10
491.0
 20
523.0
 30
0.0
 40
2.0
100
AcDbArc
 50
180.0
 51
270.0
  0
LINE
  5
14DA2
330
14995
100
AcDbEntity
  8
5
  6
PHANTOM
100
AcDbLine
 10
490.0671439999999
 20
541.1783709999999
 30
0.0
 11
497.577141
 21
538.9149169999998
 31
0.0
  0
LINE
  5
14DA3
330
14995
100
AcDbEntity
  8
5
  6
PHANTOM
100
AcDbLine
 10
490.5
 20
535.0
 30
0.0
 11
497.0
 21
535.0
 31
0.0
  0
LINE
  5
14DA4
330
14995
100
AcDbEntity
  8
5
  6
PHANTOM
100
AcDbLine
 10
489.0
 20
547.5
 30
0.0
 11
489.0
 21
542.6145589999999
 31
0.0
  0
ARC
  5
14DA5
330
14995
100
AcDbEntity
  8
5
  6
PHANTOM
100
AcDbCircle
 10
490.5
 20
544.0
 30
0.0
 40
1.5
100
AcDbArc
 50
180.0
 51
270.0
  0
ARC
  5
14DA6
330
14995
100
AcDbEntity
  8
5
  6
PHANTOM
100
AcDbCircle
 10
490.5
 20
542.6145589999999
 30
0.0
 40
1.5
100
AcDbArc
 50
180.0
 51
253.2276069999999
  0
ARC
  5
14DA7
330
14995
100
AcDbEntity
  8
5
  6
PHANTOM
100
AcDbCircle
 10
490.5
 20
533.4999999999999
 30
0.0
 40
1.5
100
AcDbArc
 50
90.0
 51
180.0
  0
LINE
  5
14DA8
330
14995
100
AcDbEntity
  8
5
  6
PHANTOM
100
AcDbLine
 10
489.0
 20
525.0
 30
0.0
 11
489.0
 21
523.0
 31
0.0
  0
LINE
  5
14DA9
330
14995
100
AcDbEntity
  8
5
  6
PHANTOM
100
AcDbLine
 10
512.6
 20
534.0
 30
0.0
 11
512.6
 21
536.0
 31
0.0
  0
LINE
  5
14DAA
330
14995
100
AcDbEntity
  8
5
  6
PHANTOM
100
AcDbLine
 10
511.2499999999998
 20
534.0
 30
0.0
 11
511.2499999999998
 21
536.0
 31
0.0
  0
CIRCLE
  5
14DAB
330
14995
100
AcDbEntity
  8
5
  6
PHANTOM
100
AcDbCircle
 10
505.0
 20
535.0
 30
0.0
 40
2.399999999999999
  0
ARC
  5
14DAC
330
14995
100
AcDbEntity
  8
5
  6
PHANTOM
100
AcDbCircle
 10
497.0
 20
537.0
 30
0.0
 40
2.0
100
AcDbArc
 50
270.0
 51
73.22760699999998
  0
LINE
  5
14DAD
330
14995
100
AcDbEntity
  8
4
  6
CENTER
100
AcDbLine
 10
505.0
 20
529.25
 30
0.0
 11
505.0
 21
540.7499999999998
 31
0.0
  0
CIRCLE
  5
14DAE
330
14995
100
AcDbEntity
  8
5
  6
PHANTOM
100
AcDbCircle
 10
505.0
 20
535.0
 30
0.0
 40
3.75
  0
LINE
  5
14DAF
330
14995
100
AcDbEntity
  8
5
  6
PHANTOM
100
AcDbLine
 10
518.75
 20
534.0
 30
0.0
 11
518.75
 21
536.0
 31
0.0
  0
LINE
  5
14DB0
330
14995
100
AcDbEntity
  8
5
  6
PHANTOM
100
AcDbLine
 10
517.3999999999998
 20
534.0
 30
0.0
 11
517.3999999999998
 21
536.0
 31
0.0
  0
LINE
  5
14DB1
330
14995
100
AcDbEntity
  8
4
  6
CENTER
100
AcDbLine
 10
515.0
 20
528.2499999999998
 30
0.0
 11
515.0
 21
541.75
 31
0.0
  0
ARC
  5
14DB2
330
14995
100
AcDbEntity
  8
5
  6
PHANTOM
100
AcDbCircle
 10
981.4999999999999
 20
543.0
 30
0.0
 40
2.0
100
AcDbArc
 50
0.0
 51
90.0
  0
LINE
  5
14DB3
330
14995
100
AcDbEntity
  8
5
  6
PHANTOM
100
AcDbLine
 10
983.6912879999999
 20
529.0
 30
0.0
 11
982.0837089999999
 21
529.0
 31
0.0
  0
LINE
  5
14DB4
330
14995
100
AcDbEntity
  8
5
  6
PHANTOM
100
AcDbLine
 10
983.3355410000001
 20
525.296756
 30
0.0
 11
981.06924
 21
526.3681839999998
 31
0.0
  0
LINE
  5
14DB5
330
14995
100
AcDbEntity
  8
5
  6
PHANTOM
100
AcDbLine
 10
982.0837089999999
 20
529.0
 30
0.0
 11
982.6635019999999
 21
530.504144
 31
0.0
  0
LINE
  5
14DB6
330
14995
100
AcDbEntity
  8
4
  6
CENTER
100
AcDbLine
 10
986.0
 20
535.0
 30
0.0
 11
939.25
 21
535.0
 31
0.0
  0
ARC
  5
14DB7
330
14995
100
AcDbEntity
  8
5
  6
PHANTOM
100
AcDbCircle
 10
977.6274889999999
 20
523.0
 30
0.0
 40
2.0
100
AcDbArc
 50
270.0
 51
338.920162
  0
LINE
  5
14DB8
330
14995
100
AcDbEntity
  8
4
  6
CENTER
100
AcDbLine
 10
971.0
 20
520.0
 30
0.0
 11
971.0
 21
550.0
 31
0.0
  0
ARC
  5
14DB9
330
14995
100
AcDbEntity
  8
5
  6
PHANTOM
100
AcDbCircle
 10
958.5
 20
541.5
 30
0.0
 40
1.5
100
AcDbArc
 50
270.0
 51
0.0
  0
LINE
  5
14DBA
330
14995
100
AcDbEntity
  8
5
  6
PHANTOM
100
AcDbLine
 10
981.4999999999999
 20
545.0
 30
0.0
 11
965.4999999999999
 21
545.0
 31
0.0
  0
LINE
  5
14DBB
330
14995
100
AcDbEntity
  8
5
  6
PHANTOM
100
AcDbLine
 10
979.578195
 20
522.5
 30
0.0
 11
982.0837089999999
 21
529.0
 31
0.0
  0
LINE
  5
14DBC
330
14995
100
AcDbEntity
  8
5
  6
PHANTOM
100
AcDbLine
 10
979.4936489999999
 20
522.280663
 30
0.0
 11
979.578195
 21
522.5
 31
0.0
  0
LINE
  5
14DBD
330
14995
100
AcDbEntity
  8
5
  6
PHANTOM
100
AcDbLine
 10
960.0
 20
541.5
 30
0.0
 11
960.0
 21
545.0
 31
0.0
  0
LINE
  5
14DBE
330
14995
100
AcDbEntity
  8
5
  6
PHANTOM
100
AcDbLine
 10
961.5
 20
543.5
 30
0.0
 11
960.5
 21
543.5
 31
0.0
  0
LINE
  5
14DBF
330
14995
100
AcDbEntity
  8
5
  6
PHANTOM
100
AcDbLine
 10
961.5
 20
543.5
 30
0.0
 11
965.4999999999999
 21
545.0
 31
0.0
  0
LINE
  5
14DC0
330
14995
100
AcDbEntity
  8
5
  6
PHANTOM
100
AcDbLine
 10
985.0
 20
535.0
 30
0.0
 11
985.0
 21
536.5
 31
0.0
  0
ARC
  5
14DC1
330
14995
100
AcDbEntity
  8
5
  6
PHANTOM
100
AcDbCircle
 10
971.0
 20
535.0
 30
0.0
 40
12.5
100
AcDbArc
 50
338.920162
 51
0.0
  0
LINE
  5
14DC2
330
14995
100
AcDbEntity
  8
5
  6
PHANTOM
100
AcDbLine
 10
983.5
 20
535.0
 30
0.0
 11
983.5
 21
543.0
 31
0.0
  0
ARC
  5
14DC3
330
14995
100
AcDbEntity
  8
5
  6
PHANTOM
100
AcDbCircle
 10
971.0
 20
535.0
 30
0.0
 40
14.0
100
AcDbArc
 50
338.920162
 51
0.0
  0
LINE
  5
14DC4
330
14995
100
AcDbEntity
  8
5
  6
PHANTOM
100
AcDbLine
 10
985.0
 20
539.0
 30
0.0
 11
983.5
 21
539.0
 31
0.0
  0
LINE
  5
14DC5
330
14995
100
AcDbEntity
  8
5
  6
PHANTOM
100
AcDbLine
 10
983.3355410000001
 20
525.296756
 30
0.0
 11
984.597809
 21
528.5714289999998
 31
0.0
  0
LINE
  5
14DC6
330
14995
100
AcDbEntity
  8
5
  6
PHANTOM
100
AcDbLine
 10
984.597809
 20
528.5714289999998
 30
0.0
 11
983.6912879999999
 21
529.0
 31
0.0
  0
LINE
  5
14DC7
330
14995
100
AcDbEntity
  8
5
  6
PHANTOM
100
AcDbLine
 10
983.6912879999999
 20
529.0
 30
0.0
 11
984.063122
 21
529.964641
 31
0.0
  0
LINE
  5
14DC8
330
14995
100
AcDbEntity
  8
5
  6
PHANTOM
100
AcDbLine
 10
977.763932
 20
121.0
 30
0.0
 11
491.0
 21
121.0
 31
0.0
  0
LINE
  5
14DC9
330
14995
100
AcDbEntity
  8
5
  6
PHANTOM
100
AcDbLine
 10
960.0
 20
145.0
 30
0.0
 11
536.0
 21
145.0
 31
0.0
  0
ARC
  5
14DCA
330
14995
100
AcDbEntity
  8
5
  6
PHANTOM
100
AcDbCircle
 10
491.0
 20
123.0
 30
0.0
 40
2.0
100
AcDbArc
 50
180.0
 51
270.0
  0
ARC
  5
14DCB
330
14995
100
AcDbEntity
  8
5
  6
PHANTOM
100
AcDbCircle
 10
515.0
 20
134.0
 30
0.0
 40
2.399999999999999
100
AcDbArc
 50
180.0
 51
0.0
  0
ARC
  5
14DCC
330
14995
100
AcDbEntity
  8
5
  6
PHANTOM
100
AcDbCircle
 10
515.0
 20
136.0
 30
0.0
 40
2.399999999999999
100
AcDbArc
 50
0.0
 51
180.0
  0
LINE
  5
14DCD
330
14995
100
AcDbEntity
  8
5
  6
PHANTOM
100
AcDbLine
 10
523.1985079999998
 20
144.5980139999998
 30
0.0
 11
506.935465
 21
146.0
 31
0.0
  0
LINE
  5
14DCE
330
14995
100
AcDbEntity
  8
5
  6
PHANTOM
100
AcDbLine
 10
522.0
 20
144.0
 30
0.0
 11
495.5
 21
144.0
 31
0.0
  0
LINE
  5
14DCF
330
14995
100
AcDbEntity
  8
5
  6
PHANTOM
100
AcDbLine
 10
536.0
 20
145.0
 30
0.0
 11
507.0
 21
147.5
 31
0.0
  0
LINE
  5
14DD0
330
14995
100
AcDbEntity
  8
5
  6
PHANTOM
100
AcDbLine
 10
490.5
 20
135.0
 30
0.0
 11
497.0
 21
135.0
 31
0.0
  0
LINE
  5
14DD1
330
14995
100
AcDbEntity
  8
5
  6
PHANTOM
100
AcDbLine
 10
490.0671439999999
 20
141.1783709999999
 30
0.0
 11
497.577141
 21
138.914917
 31
0.0
  0
ARC
  5
14DD2
330
14995
100
AcDbEntity
  8
5
  6
PHANTOM
100
AcDbCircle
 10
490.5
 20
133.4999999999998
 30
0.0
 40
1.5
100
AcDbArc
 50
90.0
 51
180.0
  0
ARC
  5
14DD3
330
14995
100
AcDbEntity
  8
5
  6
PHANTOM
100
AcDbCircle
 10
490.5
 20
142.614559
 30
0.0
 40
1.5
100
AcDbArc
 50
180.0
 51
253.2276069999999
  0
LINE
  5
14DD4
330
14995
100
AcDbEntity
  8
5
  6
PHANTOM
100
AcDbLine
 10
489.0
 20
127.0
 30
0.0
 11
489.0
 21
123.0
 31
0.0
  0
LINE
  5
14DD5
330
14995
100
AcDbEntity
  8
5
  6
PHANTOM
100
AcDbLine
 10
512.6
 20
134.0
 30
0.0
 11
512.6
 21
136.0
 31
0.0
  0
ARC
  5
14DD6
330
14995
100
AcDbEntity
  8
5
  6
PHANTOM
100
AcDbCircle
 10
497.0
 20
137.0
 30
0.0
 40
2.0
100
AcDbArc
 50
270.0
 51
73.22760699999998
  0
LINE
  5
14DD7
330
14995
100
AcDbEntity
  8
4
  6
CENTER
100
AcDbLine
 10
505.0
 20
129.2499999999998
 30
0.0
 11
505.0
 21
140.7499999999998
 31
0.0
  0
CIRCLE
  5
14DD8
330
14995
100
AcDbEntity
  8
5
  6
PHANTOM
100
AcDbCircle
 10
505.0
 20
135.0
 30
0.0
 40
2.399999999999999
  0
LINE
  5
14DD9
330
14995
100
AcDbEntity
  8
5
  6
PHANTOM
100
AcDbLine
 10
494.0
 20
146.0
 30
0.0
 11
506.935465
 21
146.0
 31
0.0
  0
ARC
  5
14DDA
330
14995
100
AcDbEntity
  8
5
  6
PHANTOM
100
AcDbCircle
 10
495.5
 20
145.5
 30
0.0
 40
1.5
100
AcDbArc
 50
180.0
 51
270.0
  0
LINE
  5
14DDB
330
14995
100
AcDbEntity
  8
5
  6
PHANTOM
100
AcDbLine
 10
494.0
 20
147.5
 30
0.0
 11
494.0
 21
145.5
 31
0.0
  0
ARC
  5
14DDC
330
14995
100
AcDbEntity
  8
5
  6
PHANTOM
100
AcDbCircle
 10
522.0
 20
145.5
 30
0.0
 40
1.5
100
AcDbArc
 50
270.0
 51
0.0
  0
LINE
  5
14DDD
330
14995
100
AcDbEntity
  8
5
  6
PHANTOM
100
AcDbLine
 10
523.5
 20
146.077586
 30
0.0
 11
523.5
 21
145.5
 31
0.0
  0
LINE
  5
14DDE
330
14995
100
AcDbEntity
  8
4
  6
CENTER
100
AcDbLine
 10
515.0
 20
128.2499999999998
 30
0.0
 11
515.0
 21
141.7499999999998
 31
0.0
  0
LINE
  5
14DDF
330
14995
100
AcDbEntity
  8
5
  6
PHANTOM
100
AcDbLine
 10
517.3999999999998
 20
134.0
 30
0.0
 11
517.3999999999998
 21
136.0
 31
0.0
  0
LINE
  5
14DE0
330
14995
100
AcDbEntity
  8
4
  6
CENTER
100
AcDbLine
 10
971.0
 20
120.0
 30
0.0
 11
971.0
 21
150.0
 31
0.0
  0
LINE
  5
14DE1
330
14995
100
AcDbEntity
  8
5
  6
PHANTOM
100
AcDbLine
 10
983.0
 20
145.0
 30
0.0
 11
965.0
 21
145.0
 31
0.0
  0
LINE
  5
14DE2
330
14995
100
AcDbEntity
  8
5
  6
PHANTOM
100
AcDbLine
 10
979.5527859999998
 20
122.105573
 30
0.0
 11
985.0
 21
133.0
 31
0.0
  0
LINE
  5
14DE3
330
14995
100
AcDbEntity
  8
4
  6
CENTER
100
AcDbLine
 10
986.0
 20
135.0
 30
0.0
 11
939.25
 21
135.0
 31
0.0
  0
LINE
  5
14DE4
330
14995
100
AcDbEntity
  8
4
  6
CENTER
100
AcDbLine
 10
945.0
 20
128.2499999999998
 30
0.0
 11
945.0
 21
141.7499999999998
 31
0.0
  0
LINE
  5
14DE5
330
14995
100
AcDbEntity
  8
4
  6
CENTER
100
AcDbLine
 10
955.0
 20
129.2499999999998
 30
0.0
 11
955.0
 21
140.7499999999998
 31
0.0
  0
LINE
  5
14DE6
330
14995
100
AcDbEntity
  8
5
  6
PHANTOM
100
AcDbLine
 10
942.6
 20
134.0
 30
0.0
 11
942.6
 21
136.0
 31
0.0
  0
ARC
  5
14DE7
330
14995
100
AcDbEntity
  8
5
  6
PHANTOM
100
AcDbCircle
 10
945.0
 20
134.0
 30
0.0
 40
2.399999999999999
100
AcDbArc
 50
180.0
 51
0.0
  0
LINE
  5
14DE8
330
14995
100
AcDbEntity
  8
5
  6
PHANTOM
100
AcDbLine
 10
947.4
 20
134.0
 30
0.0
 11
947.4
 21
136.0
 31
0.0
  0
ARC
  5
14DE9
330
14995
100
AcDbEntity
  8
5
  6
PHANTOM
100
AcDbCircle
 10
945.0
 20
136.0
 30
0.0
 40
2.399999999999999
100
AcDbArc
 50
0.0
 51
180.0
  0
CIRCLE
  5
14DEA
330
14995
100
AcDbEntity
  8
5
  6
PHANTOM
100
AcDbCircle
 10
955.0
 20
135.0
 30
0.0
 40
2.399999999999999
  0
ARC
  5
14DEB
330
14995
100
AcDbEntity
  8
5
  6
PHANTOM
100
AcDbCircle
 10
977.763932
 20
123.0
 30
0.0
 40
2.0
100
AcDbArc
 50
270.0
 51
333.434949
  0
LINE
  5
14DEC
330
14995
100
AcDbEntity
  8
5
  6
PHANTOM
100
AcDbLine
 10
961.0
 20
143.5
 30
0.0
 11
960.0
 21
143.5
 31
0.0
  0
LINE
  5
14DED
330
14995
100
AcDbEntity
  8
5
  6
PHANTOM
100
AcDbLine
 10
960.0
 20
143.5
 30
0.0
 11
960.0
 21
145.0
 31
0.0
  0
LINE
  5
14DEE
330
14995
100
AcDbEntity
  8
5
  6
PHANTOM
100
AcDbLine
 10
961.0
 20
143.5
 30
0.0
 11
965.0
 21
145.0
 31
0.0
  0
CIRCLE
  5
14DEF
330
14995
100
AcDbEntity
  8
5
  6
PHANTOM
100
AcDbCircle
 10
971.0
 20
135.0
 30
0.0
 40
5.0
  0
CIRCLE
  5
14DF0
330
14995
100
AcDbEntity
  8
5
  6
PHANTOM
100
AcDbCircle
 10
971.0
 20
135.0
 30
0.0
 40
3.0
  0
ARC
  5
14DF1
330
14995
100
AcDbEntity
  8
5
  6
PHANTOM
100
AcDbCircle
 10
971.0
 20
135.0
 30
0.0
 40
11.0
100
AcDbArc
 50
65.38002299999999
 51
114.619977
  0
ARC
  5
14DF2
330
14995
100
AcDbEntity
  8
5
  6
PHANTOM
100
AcDbCircle
 10
971.0
 20
135.0
 30
0.0
 40
11.0
100
AcDbArc
 50
114.619977
 51
65.38002299999999
  0
ARC
  5
14DF3
330
14995
100
AcDbEntity
  8
5
  6
PHANTOM
100
AcDbCircle
 10
983.0
 20
143.0
 30
0.0
 40
2.0
100
AcDbArc
 50
0.0
 51
90.0
  0
LINE
  5
14DF4
330
14995
100
AcDbEntity
  8
5
  6
PHANTOM
100
AcDbLine
 10
985.0
 20
133.0
 30
0.0
 11
985.0
 21
136.4999999999998
 31
0.0
  0
CIRCLE
  5
14DF5
330
14995
100
AcDbEntity
  8
5
  6
PHANTOM
100
AcDbCircle
 10
971.0
 20
535.0
 30
0.0
 40
11.0
  0
LINE
  5
14DF6
330
14995
100
AcDbEntity
  8
4
  6
CENTER
100
AcDbLine
 10
955.0
 20
529.25
 30
0.0
 11
955.0
 21
540.7499999999998
 31
0.0
  0
LINE
  5
14DF7
330
14995
100
AcDbEntity
  8
4
  6
CENTER
100
AcDbLine
 10
945.0
 20
528.2499999999998
 30
0.0
 11
945.0
 21
541.75
 31
0.0
  0
LINE
  5
14DF8
330
14995
100
AcDbEntity
  8
5
  6
PHANTOM
100
AcDbLine
 10
1055.0
 20
145.0
 30
0.0
 11
1063.0
 21
145.0
 31
0.0
  0
ARC
  5
14DF9
330
14995
100
AcDbEntity
  8
5
  6
PHANTOM
100
AcDbCircle
 10
1056.499999999999
 20
146.0
 30
0.0
 40
1.5
100
AcDbArc
 50
90.0
 51
180.0
  0
LINE
  5
14DFA
330
14995
100
AcDbEntity
  8
5
  6
PHANTOM
100
AcDbLine
 10
1063.0
 20
147.5
 30
0.0
 11
1060.499999999999
 21
147.5
 31
0.0
  0
LINE
  5
14DFB
330
14995
100
AcDbEntity
  8
5
  6
PHANTOM
100
AcDbLine
 10
1055.0
 20
121.0
 30
0.0
 11
1055.0
 21
123.5
 31
0.0
  0
LINE
  5
14DFC
330
14995
100
AcDbEntity
  8
5
  6
PHANTOM
100
AcDbLine
 10
1056.499999999999
 20
121.0
 30
0.0
 11
1056.499999999999
 21
123.5
 31
0.0
  0
LINE
  5
14DFD
330
14995
100
AcDbEntity
  8
5
  6
PHANTOM
100
AcDbLine
 10
1063.0
 20
145.0
 30
0.0
 11
1063.0
 21
147.5
 31
0.0
  0
LINE
  5
14DFE
330
14995
100
AcDbEntity
  8
5
  6
PHANTOM
100
AcDbLine
 10
1055.0
 20
121.0
 30
0.0
 11
1056.499999999999
 21
121.0
 31
0.0
  0
LINE
  5
14DFF
330
14995
100
AcDbEntity
  8
5
  6
PHANTOM
100
AcDbLine
 10
29.5
 20
147.5
 30
0.0
 11
36.0
 21
147.5
 31
0.0
  0
LINE
  5
14E00
330
14995
100
AcDbEntity
  8
5
  6
PHANTOM
100
AcDbLine
 10
36.0
 20
121.0
 30
0.0
 11
36.0
 21
123.5
 31
0.0
  0
LINE
  5
14E01
330
14995
100
AcDbEntity
  8
5
  6
PHANTOM
100
AcDbLine
 10
37.5
 20
121.0
 30
0.0
 11
37.5
 21
123.5
 31
0.0
  0
ARC
  5
14E02
330
14995
100
AcDbEntity
  8
5
  6
PHANTOM
100
AcDbCircle
 10
36.0
 20
146.0
 30
0.0
 40
1.5
100
AcDbArc
 50
0.0
 51
90.0
  0
LINE
  5
14E03
330
14995
100
AcDbEntity
  8
5
  6
PHANTOM
100
AcDbLine
 10
29.5
 20
143.5
 30
0.0
 11
29.5
 21
146.0
 31
0.0
  0
LINE
  5
14E04
330
14995
100
AcDbEntity
  8
5
  6
PHANTOM
100
AcDbLine
 10
36.0
 20
143.5
 30
0.0
 11
29.5
 21
143.5
 31
0.0
  0
LINE
  5
14E05
330
14995
100
AcDbEntity
  8
5
  6
PHANTOM
100
AcDbLine
 10
37.5
 20
121.0
 30
0.0
 11
36.0
 21
121.0
 31
0.0
  0
LINE
  5
14E06
330
14995
100
AcDbEntity
  8
1
  6
Continuous
100
AcDbLine
 10
27.0
 20
126.5
 30
0.0
 11
27.0
 21
129.0
 31
0.0
  0
LINE
  5
14E07
330
14995
100
AcDbEntity
  8
5
  6
PHANTOM
100
AcDbLine
 10
1067.5
 20
521.0
 30
0.0
 11
1067.5
 21
523.5
 31
0.0
  0
ARC
  5
14E08
330
14995
100
AcDbEntity
  8
5
  6
PHANTOM
100
AcDbCircle
 10
1066.0
 20
546.0
 30
0.0
 40
1.5
100
AcDbArc
 50
0.0
 51
90.0
  0
LINE
  5
14E09
330
14995
100
AcDbEntity
  8
5
  6
PHANTOM
100
AcDbLine
 10
1067.5
 20
545.0
 30
0.0
 11
1058.0
 21
545.0
 31
0.0
  0
LINE
  5
14E0A
330
14995
100
AcDbEntity
  8
5
  6
PHANTOM
100
AcDbLine
 10
1066.0
 20
539.0
 30
0.0
 11
1066.0
 21
541.5
 31
0.0
  0
LINE
  5
14E0B
330
14995
100
AcDbEntity
  8
5
  6
PHANTOM
100
AcDbLine
 10
1058.0
 20
547.5
 30
0.0
 11
1062.0
 21
547.5
 31
0.0
  0
LINE
  5
14E0C
330
14995
100
AcDbEntity
  8
5
  6
PHANTOM
100
AcDbLine
 10
1067.5
 20
539.0
 30
0.0
 11
1058.0
 21
539.0
 31
0.0
  0
LINE
  5
14E0D
330
14995
100
AcDbEntity
  8
5
  6
PHANTOM
100
AcDbLine
 10
1058.0
 20
529.0
 30
0.0
 11
1058.0
 21
531.5
 31
0.0
  0
LINE
  5
14E0E
330
14995
100
AcDbEntity
  8
5
  6
PHANTOM
100
AcDbLine
 10
1066.0
 20
521.0
 30
0.0
 11
1066.0
 21
523.5
 31
0.0
  0
LINE
  5
14E0F
330
14995
100
AcDbEntity
  8
5
  6
PHANTOM
100
AcDbLine
 10
1067.5
 20
529.0
 30
0.0
 11
1058.0
 21
529.0
 31
0.0
  0
LINE
  5
14E10
330
14995
100
AcDbEntity
  8
5
  6
PHANTOM
100
AcDbLine
 10
1067.5
 20
521.0
 30
0.0
 11
1066.0
 21
521.0
 31
0.0
  0
LINE
  5
14E11
330
14995
100
AcDbEntity
  8
5
  6
PHANTOM
100
AcDbLine
 10
1058.0
 20
545.0
 30
0.0
 11
1058.0
 21
547.5
 31
0.0
  0
LINE
  5
14E12
330
14995
100
AcDbEntity
  8
5
  6
PHANTOM
100
AcDbLine
 10
34.5
 20
540.0
 30
0.0
 11
34.5
 21
542.4999999999998
 31
0.0
  0
LINE
  5
14E13
330
14995
100
AcDbEntity
  8
5
  6
PHANTOM
100
AcDbLine
 10
33.0
 20
540.0
 30
0.0
 11
34.5
 21
540.0
 31
0.0
  0
ARC
  5
14E14
330
14995
100
AcDbEntity
  8
5
  6
PHANTOM
100
AcDbCircle
 10
33.0
 20
546.0
 30
0.0
 40
1.5
100
AcDbArc
 50
0.0
 51
90.0
  0
LINE
  5
14E15
330
14995
100
AcDbEntity
  8
5
  6
PHANTOM
100
AcDbLine
 10
33.0
 20
547.5
 30
0.0
 11
26.5
 21
547.5
 31
0.0
  0
LINE
  5
14E16
330
14995
100
AcDbEntity
  8
5
  6
PHANTOM
100
AcDbLine
 10
33.0
 20
540.0
 30
0.0
 11
33.0
 21
541.0
 31
0.0
  0
LINE
  5
14E17
330
14995
100
AcDbEntity
  8
5
  6
PHANTOM
100
AcDbLine
 10
26.5
 20
543.5
 30
0.0
 11
33.0
 21
543.5
 31
0.0
  0
LINE
  5
14E18
330
14995
100
AcDbEntity
  8
5
  6
PHANTOM
100
AcDbLine
 10
26.5
 20
521.0
 30
0.0
 11
26.5
 21
523.5
 31
0.0
  0
LINE
  5
14E19
330
14995
100
AcDbEntity
  8
5
  6
PHANTOM
100
AcDbLine
 10
25.0
 20
521.0
 30
0.0
 11
25.0
 21
523.5
 31
0.0
  0
ARC
  5
14E1A
330
14995
100
AcDbEntity
  8
5
  6
PHANTOM
100
AcDbCircle
 10
26.5
 20
546.0
 30
0.0
 40
1.5
100
AcDbArc
 50
90.0
 51
180.0
  0
LINE
  5
14E1B
330
14995
100
AcDbEntity
  8
5
  6
PHANTOM
100
AcDbLine
 10
25.0
 20
521.0
 30
0.0
 11
26.5
 21
521.0
 31
0.0
  0
LINE
  5
14E1C
330
14995
100
AcDbEntity
  8
4
  6
CENTER
100
AcDbLine
 10
238.0
 20
722.75
 30
0.0
 11
238.0
 21
711.2499999999997
 31
0.0
  0
CIRCLE
  5
14E1D
330
14995
100
AcDbEntity
  8
1
  6
Continuous
100
AcDbCircle
 10
238.0
 20
717.0
 30
0.0
 40
2.399999999999999
  0
LINE
  5
14E1E
330
14995
100
AcDbEntity
  8
4
  6
CENTER
100
AcDbLine
 10
232.25
 20
717.0
 30
0.0
 11
243.75
 21
717.0
 31
0.0
  0
LINE
  5
14E1F
330
14995
100
AcDbEntity
  8
4
  6
CENTER
100
AcDbLine
 10
238.0
 20
636.5
 30
0.0
 11
238.0
 21
630.0
 31
0.0
  0
LINE
  5
14E20
330
14995
100
AcDbEntity
  8
4
  6
CENTER
100
AcDbLine
 10
238.0
 20
438.0
 30
0.0
 11
238.0
 21
444.5
 31
0.0
  0
CIRCLE
  5
14E21
330
14995
100
AcDbEntity
  8
1
  6
Continuous
100
AcDbCircle
 10
238.0
 20
537.5
 30
0.0
 40
2.399999999999999
  0
CIRCLE
  5
14E22
330
14995
100
AcDbEntity
  8
1
  6
Continuous
100
AcDbCircle
 10
238.0
 20
537.5
 30
0.0
 40
3.75
  0
LINE
  5
14E23
330
14995
100
AcDbEntity
  8
4
  6
CENTER
100
AcDbLine
 10
238.0
 20
531.7499999999999
 30
0.0
 11
238.0
 21
543.25
 31
0.0
  0
LINE
  5
14E24
330
14995
100
AcDbEntity
  8
4
  6
CENTER
100
AcDbLine
 10
243.75
 20
537.5
 30
0.0
 11
232.25
 21
537.5
 31
0.0
  0
LINE
  5
14E25
330
14995
100
AcDbEntity
  8
4
  6
CENTER
100
AcDbLine
 10
757.5
 20
725.25
 30
0.0
 11
757.5
 21
713.75
 31
0.0
  0
CIRCLE
  5
14E26
330
14995
100
AcDbEntity
  8
1
  6
Continuous
100
AcDbCircle
 10
757.5
 20
719.5
 30
0.0
 40
2.399999999999999
  0
CIRCLE
  5
14E27
330
14995
100
AcDbEntity
  8
1
  6
Continuous
100
AcDbCircle
 10
757.5
 20
719.5
 30
0.0
 40
3.75
  0
LINE
  5
14E28
330
14995
100
AcDbEntity
  8
4
  6
CENTER
100
AcDbLine
 10
751.75
 20
719.5
 30
0.0
 11
763.25
 21
719.5
 31
0.0
  0
LINE
  5
14E29
330
14995
100
AcDbEntity
  8
4
  6
CENTER
100
AcDbLine
 10
757.5
 20
618.0
 30
0.0
 11
757.5
 21
624.5
 31
0.0
  0
LINE
  5
14E2A
330
14995
100
AcDbEntity
  8
4
  6
CENTER
100
AcDbLine
 10
757.5
 20
456.5
 30
0.0
 11
757.5
 21
450.0
 31
0.0
  0
CIRCLE
  5
14E2B
330
14995
100
AcDbEntity
  8
1
  6
Continuous
100
AcDbCircle
 10
757.5
 20
535.0
 30
0.0
 40
2.399999999999999
  0
LINE
  5
14E2C
330
14995
100
AcDbEntity
  8
4
  6
CENTER
100
AcDbLine
 10
757.5
 20
529.25
 30
0.0
 11
757.5
 21
540.7499999999998
 31
0.0
  0
CIRCLE
  5
14E2D
330
14995
100
AcDbEntity
  8
3
  6
DASHED
100
AcDbCircle
 10
591.0
 20
537.5
 30
0.0
 40
11.0
  0
LINE
  5
14E2E
330
14995
100
AcDbEntity
  8
3
  6
DASHED
100
AcDbLine
 10
527.916702
 20
546.0
 30
0.0
 11
516.0201059999999
 21
546.0
 31
0.0
  0
LINE
  5
14E2F
330
14995
100
AcDbEntity
  8
3
  6
DASHED
100
AcDbLine
 10
512.78233
 20
545.5
 30
0.0
 11
510.03233
 21
547.5
 31
0.0
  0
LINE
  5
14E30
330
14995
100
AcDbEntity
  8
3
  6
DASHED
100
AcDbLine
 10
512.78233
 20
545.5
 30
0.0
 11
515.53233
 21
547.5
 31
0.0
  0
LINE
  5
14E31
330
14995
100
AcDbEntity
  8
3
  6
DASHED
100
AcDbLine
 10
509.544554
 20
546.0
 30
0.0
 11
490.5
 21
546.0
 31
0.0
  0
LINE
  5
14E32
330
14995
100
AcDbEntity
  8
3
  6
DASHED
100
AcDbLine
 10
580.0
 20
629.0
 30
0.0
 11
580.0
 21
623.0
 31
0.0
  0
LINE
  5
14E33
330
14995
100
AcDbEntity
  8
3
  6
DASHED
100
AcDbLine
 10
559.0
 20
624.0
 30
0.0
 11
580.0
 21
624.0
 31
0.0
  0
LINE
  5
14E34
330
14995
100
AcDbEntity
  8
1
  6
Continuous
100
AcDbLine
 10
603.5
 20
630.4999999999997
 30
0.0
 11
597.0
 21
630.4999999999997
 31
0.0
  0
LINE
  5
14E35
330
14995
100
AcDbEntity
  8
1
  6
Continuous
100
AcDbLine
 10
585.0
 20
630.4999999999997
 30
0.0
 11
580.0
 21
630.4999999999997
 31
0.0
  0
LINE
  5
14E36
330
14995
100
AcDbEntity
  8
4
  6
CENTER
100
AcDbLine
 10
656.7499999999999
 20
535.0
 30
0.0
 11
645.25
 21
535.0
 31
0.0
  0
CIRCLE
  5
14E37
330
14995
100
AcDbEntity
  8
5
  6
PHANTOM
100
AcDbCircle
 10
845.0
 20
535.0
 30
0.0
 40
2.399999999999999
  0
CIRCLE
  5
14E38
330
14995
100
AcDbEntity
  8
5
  6
PHANTOM
100
AcDbCircle
 10
845.0
 20
535.0
 30
0.0
 40
3.75
  0
LINE
  5
14E39
330
14995
100
AcDbEntity
  8
4
  6
CENTER
100
AcDbLine
 10
850.75
 20
535.0
 30
0.0
 11
829.25
 21
535.0
 31
0.0
  0
LINE
  5
14E3A
330
14995
100
AcDbEntity
  8
5
  6
PHANTOM
100
AcDbLine
 10
838.7499999999999
 20
534.0
 30
0.0
 11
838.7499999999999
 21
536.0
 31
0.0
  0
LINE
  5
14E3B
330
14995
100
AcDbEntity
  8
5
  6
PHANTOM
100
AcDbLine
 10
832.6
 20
534.0
 30
0.0
 11
832.6
 21
536.0
 31
0.0
  0
LINE
  5
14E3C
330
14995
100
AcDbEntity
  8
5
  6
PHANTOM
100
AcDbLine
 10
837.4
 20
534.0
 30
0.0
 11
837.4
 21
536.0
 31
0.0
  0
ARC
  5
14E3D
330
14995
100
AcDbEntity
  8
5
  6
PHANTOM
100
AcDbCircle
 10
835.0
 20
534.0
 30
0.0
 40
2.399999999999999
100
AcDbArc
 50
180.0
 51
0.0
  0
ARC
  5
14E3E
330
14995
100
AcDbEntity
  8
5
  6
PHANTOM
100
AcDbCircle
 10
835.0
 20
536.0
 30
0.0
 40
2.399999999999999
100
AcDbArc
 50
0.0
 51
180.0
  0
LINE
  5
14E3F
330
14995
100
AcDbEntity
  8
5
  6
PHANTOM
100
AcDbLine
 10
831.25
 20
534.0
 30
0.0
 11
831.25
 21
536.0
 31
0.0
  0
ARC
  5
14E40
330
14995
100
AcDbEntity
  8
5
  6
PHANTOM
100
AcDbCircle
 10
835.0
 20
534.0
 30
0.0
 40
3.75
100
AcDbArc
 50
180.0
 51
0.0
  0
ARC
  5
14E41
330
14995
100
AcDbEntity
  8
5
  6
PHANTOM
100
AcDbCircle
 10
835.0
 20
536.0
 30
0.0
 40
3.75
100
AcDbArc
 50
0.0
 51
180.0
  0
LINE
  5
14E42
330
14995
100
AcDbEntity
  8
4
  6
CENTER
100
AcDbLine
 10
845.0
 20
529.25
 30
0.0
 11
845.0
 21
540.7499999999998
 31
0.0
  0
ARC
  5
14E43
330
14995
100
AcDbEntity
  8
5
  6
PHANTOM
100
AcDbCircle
 10
945.0
 20
536.0
 30
0.0
 40
3.75
100
AcDbArc
 50
0.0
 51
180.0
  0
ARC
  5
14E44
330
14995
100
AcDbEntity
  8
5
  6
PHANTOM
100
AcDbCircle
 10
945.0
 20
534.0
 30
0.0
 40
3.75
100
AcDbArc
 50
180.0
 51
0.0
  0
LINE
  5
14E45
330
14995
100
AcDbEntity
  8
5
  6
PHANTOM
100
AcDbLine
 10
941.2499999999999
 20
534.0
 30
0.0
 11
941.2499999999999
 21
536.0
 31
0.0
  0
ARC
  5
14E46
330
14995
100
AcDbEntity
  8
5
  6
PHANTOM
100
AcDbCircle
 10
945.0
 20
536.0
 30
0.0
 40
2.399999999999999
100
AcDbArc
 50
0.0
 51
180.0
  0
ARC
  5
14E47
330
14995
100
AcDbEntity
  8
5
  6
PHANTOM
100
AcDbCircle
 10
945.0
 20
534.0
 30
0.0
 40
2.399999999999999
100
AcDbArc
 50
180.0
 51
0.0
  0
LINE
  5
14E48
330
14995
100
AcDbEntity
  8
5
  6
PHANTOM
100
AcDbLine
 10
947.4
 20
534.0
 30
0.0
 11
947.4
 21
536.0
 31
0.0
  0
LINE
  5
14E49
330
14995
100
AcDbEntity
  8
5
  6
PHANTOM
100
AcDbLine
 10
942.6
 20
534.0
 30
0.0
 11
942.6
 21
536.0
 31
0.0
  0
LINE
  5
14E4A
330
14995
100
AcDbEntity
  8
5
  6
PHANTOM
100
AcDbLine
 10
948.75
 20
534.0
 30
0.0
 11
948.75
 21
536.0
 31
0.0
  0
CIRCLE
  5
14E4B
330
14995
100
AcDbEntity
  8
5
  6
PHANTOM
100
AcDbCircle
 10
955.0
 20
535.0
 30
0.0
 40
3.75
  0
CIRCLE
  5
14E4C
330
14995
100
AcDbEntity
  8
5
  6
PHANTOM
100
AcDbCircle
 10
955.0
 20
535.0
 30
0.0
 40
2.399999999999999
  0
LINE
  5
14E4D
330
14995
100
AcDbEntity
  8
4
  6
CENTER
100
AcDbLine
 10
757.5
 20
236.5
 30
0.0
 11
757.5
 21
230.0
 31
0.0
  0
CIRCLE
  5
14E4E
330
14995
100
AcDbEntity
  8
1
  6
Continuous
100
AcDbCircle
 10
757.5
 20
319.5
 30
0.0
 40
2.399999999999999
  0
LINE
  5
14E4F
330
14995
100
AcDbEntity
  8
4
  6
CENTER
100
AcDbLine
 10
757.5
 20
325.2499999999999
 30
0.0
 11
757.5
 21
313.75
 31
0.0
  0
LINE
  5
14E50
330
14995
100
AcDbEntity
  8
4
  6
CENTER
100
AcDbLine
 10
751.75
 20
319.5
 30
0.0
 11
763.25
 21
319.5
 31
0.0
  0
LINE
  5
14E51
330
14995
100
AcDbEntity
  8
4
  6
CENTER
100
AcDbLine
 10
757.5
 20
129.2499999999998
 30
0.0
 11
757.5
 21
140.7499999999998
 31
0.0
  0
CIRCLE
  5
14E52
330
14995
100
AcDbEntity
  8
1
  6
Continuous
100
AcDbCircle
 10
757.5
 20
135.0
 30
0.0
 40
3.75
  0
CIRCLE
  5
14E53
330
14995
100
AcDbEntity
  8
1
  6
Continuous
100
AcDbCircle
 10
757.5
 20
135.0
 30
0.0
 40
2.399999999999999
  0
LINE
  5
14E54
330
14995
100
AcDbEntity
  8
4
  6
CENTER
100
AcDbLine
 10
238.0
 20
218.0
 30
0.0
 11
238.0
 21
224.5
 31
0.0
  0
LINE
  5
14E55
330
14995
100
AcDbEntity
  8
4
  6
CENTER
100
AcDbLine
 10
238.0
 20
322.75
 30
0.0
 11
238.0
 21
311.25
 31
0.0
  0
CIRCLE
  5
14E56
330
14995
100
AcDbEntity
  8
1
  6
Continuous
100
AcDbCircle
 10
238.0
 20
317.0
 30
0.0
 40
3.75
  0
CIRCLE
  5
14E57
330
14995
100
AcDbEntity
  8
1
  6
Continuous
100
AcDbCircle
 10
238.0
 20
317.0
 30
0.0
 40
2.399999999999999
  0
LINE
  5
14E58
330
14995
100
AcDbEntity
  8
4
  6
CENTER
100
AcDbLine
 10
232.25
 20
317.0
 30
0.0
 11
243.75
 21
317.0
 31
0.0
  0
LINE
  5
14E59
330
14995
100
AcDbEntity
  8
4
  6
CENTER
100
AcDbLine
 10
238.0
 20
56.5
 30
0.0
 11
238.0
 21
50.0
 31
0.0
  0
LINE
  5
14E5A
330
14995
100
AcDbEntity
  8
4
  6
CENTER
100
AcDbLine
 10
238.0
 20
131.75
 30
0.0
 11
238.0
 21
143.25
 31
0.0
  0
CIRCLE
  5
14E5B
330
14995
100
AcDbEntity
  8
1
  6
Continuous
100
AcDbCircle
 10
238.0
 20
137.5
 30
0.0
 40
2.399999999999999
  0
LINE
  5
14E5C
330
14995
100
AcDbEntity
  8
4
  6
CENTER
100
AcDbLine
 10
243.75
 20
137.5
 30
0.0
 11
232.25
 21
137.5
 31
0.0
  0
CIRCLE
  5
14E5D
330
14995
100
AcDbEntity
  8
3
  6
DASHED
100
AcDbCircle
 10
591.0
 20
317.0
 30
0.0
 40
11.0
  0
LINE
  5
14E5E
330
14995
100
AcDbEntity
  8
3
  6
DASHED
100
AcDbLine
 10
599.75
 20
329.4999999999999
 30
0.0
 11
605.0
 21
319.0
 31
0.0
  0
LINE
  5
14E5F
330
14995
100
AcDbEntity
  8
4
  6
CENTER
100
AcDbLine
 10
757.5
 20
38.0
 30
0.0
 11
757.5
 21
44.5
 31
0.0
  0
LINE
  5
14E60
330
14995
100
AcDbEntity
  8
3
  6
DASHED
100
AcDbLine
 10
580.0
 20
225.4999999999999
 30
0.0
 11
580.0
 21
231.4999999999999
 31
0.0
  0
ARC
  5
14E61
330
14995
100
AcDbEntity
  8
3
  6
DASHED
100
AcDbCircle
 10
578.0
 20
227.0
 30
0.0
 40
2.0
100
AcDbArc
 50
0.0
 51
90.0
  0
LINE
  5
14E62
330
14995
100
AcDbEntity
  8
4
  6
CENTER
100
AcDbLine
 10
656.7499999999999
 20
135.0
 30
0.0
 11
645.25
 21
135.0
 31
0.0
  0
CIRCLE
  5
14E63
330
14995
100
AcDbEntity
  8
5
  6
PHANTOM
100
AcDbCircle
 10
845.0
 20
135.0
 30
0.0
 40
2.399999999999999
  0
LINE
  5
14E64
330
14995
100
AcDbEntity
  8
4
  6
CENTER
100
AcDbLine
 10
850.75
 20
135.0
 30
0.0
 11
829.25
 21
135.0
 31
0.0
  0
LINE
  5
14E65
330
14995
100
AcDbEntity
  8
5
  6
PHANTOM
100
AcDbLine
 10
837.4
 20
134.0
 30
0.0
 11
837.4
 21
136.0
 31
0.0
  0
LINE
  5
14E66
330
14995
100
AcDbEntity
  8
4
  6
CENTER
100
AcDbLine
 10
845.0
 20
129.2499999999998
 30
0.0
 11
845.0
 21
140.7499999999998
 31
0.0
  0
LINE
  5
14E67
330
14995
100
AcDbEntity
  8
5
  6
PHANTOM
100
AcDbLine
 10
832.6
 20
134.0
 30
0.0
 11
832.6
 21
136.0
 31
0.0
  0
ARC
  5
14E68
330
14995
100
AcDbEntity
  8
5
  6
PHANTOM
100
AcDbCircle
 10
835.0
 20
136.0
 30
0.0
 40
2.399999999999999
100
AcDbArc
 50
0.0
 51
180.0
  0
ARC
  5
14E69
330
14995
100
AcDbEntity
  8
5
  6
PHANTOM
100
AcDbCircle
 10
835.0
 20
134.0
 30
0.0
 40
2.399999999999999
100
AcDbArc
 50
180.0
 51
0.0
  0
LINE
  5
14E6A
330
14995
100
AcDbEntity
  8
4
  6
CENTER
100
AcDbLine
 10
575.0
 20
722.4
 30
0.0
 11
575.0
 21
711.6
 31
0.0
  0
LINE
  5
14E6B
330
14995
100
AcDbEntity
  8
4
  6
CENTER
100
AcDbLine
 10
565.0
 20
723.3999999999999
 30
0.0
 11
565.0
 21
710.7550149999998
 31
0.0
  0
LINE
  5
14E6C
330
14995
100
AcDbEntity
  8
4
  6
CENTER
100
AcDbLine
 10
545.0
 20
724.8999999999997
 30
0.0
 11
545.0
 21
714.1
 31
0.0
  0
LINE
  5
14E6D
330
14995
100
AcDbEntity
  8
4
  6
CENTER
100
AcDbLine
 10
575.0
 20
532.1
 30
0.0
 11
575.0
 21
542.9
 31
0.0
  0
LINE
  5
14E6E
330
14995
100
AcDbEntity
  8
4
  6
CENTER
100
AcDbLine
 10
555.0
 20
325.8999999999999
 30
0.0
 11
555.0
 21
313.1
 31
0.0
  0
LINE
  5
14E6F
330
14995
100
AcDbEntity
  8
4
  6
CENTER
100
AcDbLine
 10
575.0
 20
322.3999999999999
 30
0.0
 11
575.0
 21
311.6
 31
0.0
  0
LINE
  5
14E70
330
14995
100
AcDbEntity
  8
3
  6
DASHED
100
AcDbLine
 10
559.0
 20
229.0
 30
0.0
 11
578.0
 21
229.0
 31
0.0
  0
LINE
  5
14E71
330
14995
100
AcDbEntity
  8
4
  6
CENTER
100
AcDbLine
 10
545.0
 20
129.6
 30
0.0
 11
545.0
 21
140.4
 31
0.0
  0
LINE
  5
14E72
330
14995
100
AcDbEntity
  8
4
  6
CENTER
100
AcDbLine
 10
565.0
 20
131.0999999999999
 30
0.0
 11
565.0
 21
143.9
 31
0.0
  0
CIRCLE
  5
14E73
330
14995
100
AcDbEntity
  8
1
  6
Continuous
100
AcDbCircle
 10
352.0
 20
717.0
 30
0.0
 40
2.399999999999999
  0
LINE
  5
14E74
330
14995
100
AcDbEntity
  8
4
  6
CENTER
100
AcDbLine
 10
346.2499999999999
 20
717.0
 30
0.0
 11
357.75
 21
717.0
 31
0.0
  0
LINE
  5
14E75
330
14995
100
AcDbEntity
  8
4
  6
CENTER
100
AcDbLine
 10
352.0
 20
722.75
 30
0.0
 11
352.0
 21
711.2499999999997
 31
0.0
  0
LINE
  5
14E76
330
14995
100
AcDbEntity
  8
4
  6
CENTER
100
AcDbLine
 10
352.0
 20
636.5
 30
0.0
 11
352.0
 21
630.0
 31
0.0
  0
LINE
  5
14E77
330
14995
100
AcDbEntity
  8
4
  6
CENTER
100
AcDbLine
 10
352.0
 20
438.0
 30
0.0
 11
352.0
 21
444.5
 31
0.0
  0
CIRCLE
  5
14E78
330
14995
100
AcDbEntity
  8
1
  6
Continuous
100
AcDbCircle
 10
352.0
 20
537.5
 30
0.0
 40
2.399999999999999
  0
CIRCLE
  5
14E79
330
14995
100
AcDbEntity
  8
1
  6
Continuous
100
AcDbCircle
 10
352.0
 20
537.5
 30
0.0
 40
3.75
  0
LINE
  5
14E7A
330
14995
100
AcDbEntity
  8
4
  6
CENTER
100
AcDbLine
 10
357.75
 20
537.5
 30
0.0
 11
346.2499999999999
 21
537.5
 31
0.0
  0
LINE
  5
14E7B
330
14995
100
AcDbEntity
  8
4
  6
CENTER
100
AcDbLine
 10
352.0
 20
531.7499999999999
 30
0.0
 11
352.0
 21
543.25
 31
0.0
  0
CIRCLE
  5
14E7C
330
14995
100
AcDbEntity
  8
1
  6
Continuous
100
AcDbCircle
 10
352.0
 20
317.0
 30
0.0
 40
3.75
  0
CIRCLE
  5
14E7D
330
14995
100
AcDbEntity
  8
1
  6
Continuous
100
AcDbCircle
 10
352.0
 20
317.0
 30
0.0
 40
2.399999999999999
  0
LINE
  5
14E7E
330
14995
100
AcDbEntity
  8
4
  6
CENTER
100
AcDbLine
 10
346.2499999999999
 20
317.0
 30
0.0
 11
357.75
 21
317.0
 31
0.0
  0
LINE
  5
14E7F
330
14995
100
AcDbEntity
  8
4
  6
CENTER
100
AcDbLine
 10
352.0
 20
322.75
 30
0.0
 11
352.0
 21
311.25
 31
0.0
  0
LINE
  5
14E80
330
14995
100
AcDbEntity
  8
4
  6
CENTER
100
AcDbLine
 10
352.0
 20
218.0
 30
0.0
 11
352.0
 21
224.5
 31
0.0
  0
LINE
  5
14E81
330
14995
100
AcDbEntity
  8
4
  6
CENTER
100
AcDbLine
 10
352.0
 20
56.5
 30
0.0
 11
352.0
 21
50.0
 31
0.0
  0
CIRCLE
  5
14E82
330
14995
100
AcDbEntity
  8
1
  6
Continuous
100
AcDbCircle
 10
352.0
 20
137.5
 30
0.0
 40
2.399999999999999
  0
LINE
  5
14E83
330
14995
100
AcDbEntity
  8
4
  6
CENTER
100
AcDbLine
 10
357.75
 20
137.5
 30
0.0
 11
346.2499999999999
 21
137.5
 31
0.0
  0
LINE
  5
14E84
330
14995
100
AcDbEntity
  8
4
  6
CENTER
100
AcDbLine
 10
352.0
 20
131.75
 30
0.0
 11
352.0
 21
143.25
 31
0.0
  0
LINE
  5
14E85
330
14995
100
AcDbEntity
  8
4
  6
CENTER
100
AcDbLine
 10
623.7499999999998
 20
535.0
 30
0.0
 11
612.25
 21
535.0
 31
0.0
  0
LINE
  5
14E86
330
14995
100
AcDbEntity
  8
4
  6
CENTER
100
AcDbLine
 10
618.0
 20
529.25
 30
0.0
 11
618.0
 21
540.7499999999998
 31
0.0
  0
CIRCLE
  5
14E87
330
14995
100
AcDbEntity
  8
5
  6
PHANTOM
100
AcDbCircle
 10
618.0
 20
535.0
 30
0.0
 40
3.75
  0
CIRCLE
  5
14E88
330
14995
100
AcDbEntity
  8
5
  6
PHANTOM
100
AcDbCircle
 10
618.0
 20
535.0
 30
0.0
 40
2.399999999999999
  0
LINE
  5
14E89
330
14995
100
AcDbEntity
  8
4
  6
CENTER
100
AcDbLine
 10
737.75
 20
135.0
 30
0.0
 11
726.25
 21
135.0
 31
0.0
  0
CIRCLE
  5
14E8A
330
14995
100
AcDbEntity
  8
5
  6
PHANTOM
100
AcDbCircle
 10
732.0
 20
135.0
 30
0.0
 40
2.399999999999999
  0
LINE
  5
14E8B
330
14995
100
AcDbEntity
  8
4
  6
CENTER
100
AcDbLine
 10
732.0
 20
129.2499999999998
 30
0.0
 11
732.0
 21
140.7499999999998
 31
0.0
  0
LINE
  5
14E8C
330
14995
100
AcDbEntity
  8
1
  6
Continuous
100
AcDbLine
 10
534.4999999999998
 20
453.5
 30
0.0
 11
534.4999999999998
 21
452.0
 31
0.0
  0
LINE
  5
14E8D
330
14995
100
AcDbEntity
  8
1
  6
Continuous
100
AcDbLine
 10
538.4999999999998
 20
453.5
 30
0.0
 11
538.4999999999998
 21
452.0
 31
0.0
  0
LINE
  5
14E8E
330
14995
100
AcDbEntity
  8
1
  6
Continuous
100
AcDbLine
 10
534.4999999999998
 20
42.5
 30
0.0
 11
534.4999999999998
 21
41.0
 31
0.0
  0
LINE
  5
14E8F
330
14995
100
AcDbEntity
  8
1
  6
Continuous
100
AcDbLine
 10
538.4999999999998
 20
42.5
 30
0.0
 11
538.4999999999998
 21
41.0
 31
0.0
  0
CIRCLE
  5
14E90
330
14995
100
AcDbEntity
  8
1
  6
Continuous
100
AcDbCircle
 10
864.0
 20
719.5
 30
0.0
 40
2.399999999999999
  0
CIRCLE
  5
14E91
330
14995
100
AcDbEntity
  8
1
  6
Continuous
100
AcDbCircle
 10
864.0
 20
719.5
 30
0.0
 40
3.75
  0
LINE
  5
14E92
330
14995
100
AcDbEntity
  8
4
  6
CENTER
100
AcDbLine
 10
858.2499999999999
 20
719.5
 30
0.0
 11
869.7499999999999
 21
719.5
 31
0.0
  0
LINE
  5
14E93
330
14995
100
AcDbEntity
  8
4
  6
CENTER
100
AcDbLine
 10
864.0
 20
725.25
 30
0.0
 11
864.0
 21
713.75
 31
0.0
  0
LINE
  5
14E94
330
14995
100
AcDbEntity
  8
4
  6
CENTER
100
AcDbLine
 10
864.0
 20
618.0
 30
0.0
 11
864.0
 21
624.5
 31
0.0
  0
LINE
  5
14E95
330
14995
100
AcDbEntity
  8
4
  6
CENTER
100
AcDbLine
 10
864.0
 20
529.25
 30
0.0
 11
864.0
 21
540.7499999999998
 31
0.0
  0
CIRCLE
  5
14E96
330
14995
100
AcDbEntity
  8
1
  6
Continuous
100
AcDbCircle
 10
864.0
 20
535.0
 30
0.0
 40
2.399999999999999
  0
LINE
  5
14E97
330
14995
100
AcDbEntity
  8
4
  6
CENTER
100
AcDbLine
 10
869.7499999999999
 20
535.0
 30
0.0
 11
858.2499999999999
 21
535.0
 31
0.0
  0
LINE
  5
14E98
330
14995
100
AcDbEntity
  8
4
  6
CENTER
100
AcDbLine
 10
864.0
 20
456.5
 30
0.0
 11
864.0
 21
450.0
 31
0.0
  0
CIRCLE
  5
14E99
330
14995
100
AcDbEntity
  8
1
  6
Continuous
100
AcDbCircle
 10
864.0
 20
319.5
 30
0.0
 40
2.399999999999999
  0
LINE
  5
14E9A
330
14995
100
AcDbEntity
  8
4
  6
CENTER
100
AcDbLine
 10
858.2499999999999
 20
319.5
 30
0.0
 11
869.7499999999999
 21
319.5
 31
0.0
  0
LINE
  5
14E9B
330
14995
100
AcDbEntity
  8
4
  6
CENTER
100
AcDbLine
 10
864.0
 20
325.2499999999999
 30
0.0
 11
864.0
 21
313.75
 31
0.0
  0
LINE
  5
14E9C
330
14995
100
AcDbEntity
  8
4
  6
CENTER
100
AcDbLine
 10
864.0
 20
236.5
 30
0.0
 11
864.0
 21
230.0
 31
0.0
  0
CIRCLE
  5
14E9D
330
14995
100
AcDbEntity
  8
1
  6
Continuous
100
AcDbCircle
 10
864.0
 20
135.0
 30
0.0
 40
3.75
  0
CIRCLE
  5
14E9E
330
14995
100
AcDbEntity
  8
1
  6
Continuous
100
AcDbCircle
 10
864.0
 20
135.0
 30
0.0
 40
2.399999999999999
  0
LINE
  5
14E9F
330
14995
100
AcDbEntity
  8
4
  6
CENTER
100
AcDbLine
 10
864.0
 20
129.2499999999998
 30
0.0
 11
864.0
 21
140.7499999999998
 31
0.0
  0
LINE
  5
14EA0
330
14995
100
AcDbEntity
  8
4
  6
CENTER
100
AcDbLine
 10
869.7499999999999
 20
135.0
 30
0.0
 11
858.2499999999999
 21
135.0
 31
0.0
  0
LINE
  5
14EA1
330
14995
100
AcDbEntity
  8
4
  6
CENTER
100
AcDbLine
 10
864.0
 20
38.0
 30
0.0
 11
864.0
 21
44.5
 31
0.0
  0
LINE
  5
14EA2
330
14995
100
AcDbEntity
  8
4
  6
CENTER
100
AcDbLine
 10
555.0
 20
725.9
 30
0.0
 11
555.0
 21
713.2550150000001
 31
0.0
  0
LINE
  5
14EA3
330
14995
100
AcDbEntity
  8
4
  6
CENTER
100
AcDbLine
 10
565.0
 20
531.0999999999998
 30
0.0
 11
565.0
 21
543.9
 31
0.0
  0
LINE
  5
14EA4
330
14995
100
AcDbEntity
  8
4
  6
CENTER
100
AcDbLine
 10
565.0
 20
323.3999999999999
 30
0.0
 11
565.0
 21
310.6
 31
0.0
  0
LINE
  5
14EA5
330
14995
100
AcDbEntity
  8
4
  6
CENTER
100
AcDbLine
 10
555.0
 20
128.6
 30
0.0
 11
555.0
 21
141.4
 31
0.0
  0
LINE
  5
14EA6
330
14995
100
AcDbEntity
  8
4
  6
CENTER
100
AcDbLine
 10
623.7499999999998
 20
135.0
 30
0.0
 11
612.25
 21
135.0
 31
0.0
  0
CIRCLE
  5
14EA7
330
14995
100
AcDbEntity
  8
5
  6
PHANTOM
100
AcDbCircle
 10
618.0
 20
135.0
 30
0.0
 40
2.399999999999999
  0
LINE
  5
14EA8
330
14995
100
AcDbEntity
  8
4
  6
CENTER
100
AcDbLine
 10
618.0
 20
129.2499999999998
 30
0.0
 11
618.0
 21
140.7499999999998
 31
0.0
  0
LINE
  5
14EA9
330
14995
100
AcDbEntity
  8
4
  6
CENTER
100
AcDbLine
 10
835.0
 20
129.2499999999998
 30
0.0
 11
835.0
 21
140.7499999999998
 31
0.0
  0
LINE
  5
14EAA
330
14995
100
AcDbEntity
  8
4
  6
CENTER
100
AcDbLine
 10
835.0
 20
529.25
 30
0.0
 11
835.0
 21
540.7499999999998
 31
0.0
  0
LINE
  5
14EAB
330
14995
100
AcDbEntity
  8
4
  6
CENTER
100
AcDbLine
 10
763.25
 20
535.0
 30
0.0
 11
751.75
 21
535.0
 31
0.0
  0
LINE
  5
14EAC
330
14995
100
AcDbEntity
  8
4
  6
CENTER
100
AcDbLine
 10
763.25
 20
135.0
 30
0.0
 11
751.75
 21
135.0
 31
0.0
  0
LINE
  5
14EAD
330
14995
100
AcDbEntity
  8
4
  6
CENTER
100
AcDbLine
 10
732.0
 20
529.25
 30
0.0
 11
732.0
 21
540.7499999999998
 31
0.0
  0
CIRCLE
  5
14EAE
330
14995
100
AcDbEntity
  8
5
  6
PHANTOM
100
AcDbCircle
 10
732.0
 20
535.0
 30
0.0
 40
3.75
  0
CIRCLE
  5
14EAF
330
14995
100
AcDbEntity
  8
5
  6
PHANTOM
100
AcDbCircle
 10
732.0
 20
535.0
 30
0.0
 40
2.399999999999999
  0
LINE
  5
14EB0
330
14995
100
AcDbEntity
  8
4
  6
CENTER
100
AcDbLine
 10
737.75
 20
535.0
 30
0.0
 11
726.25
 21
535.0
 31
0.0
  0
ENDSEC
  0
SECTION
  2
OBJECTS
  0
DICTIONARY
  5
14983
330
0
100
AcDbDictionary
281
     1
  3
ACAD_CIP_PREVIOUS_PRODUCT_INFO
350
14F10
  3
ACAD_COLOR
350
14EF2
  3
ACAD_DETAILVIEWSTYLE
350
14F0B
  3
ACAD_GROUP
350
14984
  3
ACAD_LAYOUT
350
14990
  3
ACAD_MATERIAL
350
14EC0
  3
ACAD_MLEADERSTYLE
350
14F07
  3
ACAD_MLINESTYLE
350
1498D
  3
ACAD_PLOTSETTINGS
350
1498F
  3
ACAD_PLOTSTYLENAME
350
14EBE
  3
ACAD_SCALELIST
350
14EF5
  3
ACAD_SECTIONVIEWSTYLE
350
14F09
  3
ACAD_TABLESTYLE
350
14EF3
  3
ACAD_VISUALSTYLE
350
14ED9
  3
ACDB_RECOMPOSE_DATA
350
14F2E
  3
AcDbVariableDictionary
350
14F21
  3
DWGPROPS
350
14F2F
  0
DICTIONARY
  5
14F11
330
14987
100
AcDbDictionary
280
     1
281
     1
  3
ADSK_XREC_LAYER_RECONCILED
360
14F12
  0
DICTIONARY
  5
14F13
330
1499D
100
AcDbDictionary
280
     1
281
     1
  3
ADSK_XREC_LAYER_RECONCILED
360
14F14
  0
DICTIONARY
  5
14F15
330
1499E
100
AcDbDictionary
280
     1
281
     1
  3
ADSK_XREC_LAYER_RECONCILED
360
14F16
  0
DICTIONARY
  5
14F17
330
1499F
100
AcDbDictionary
280
     1
281
     1
  3
ADSK_XREC_LAYER_RECONCILED
360
14F18
  0
DICTIONARY
  5
14F19
330
149A0
100
AcDbDictionary
280
     1
281
     1
  3
ADSK_XREC_LAYER_RECONCILED
360
14F1A
  0
DICTIONARY
  5
14F1B
330
149A1
100
AcDbDictionary
280
     1
281
     1
  3
ADSK_XREC_LAYER_RECONCILED
360
14F1C
  0
DICTIONARY
  5
14F1D
330
149A2
100
AcDbDictionary
280
     1
281
     1
  3
ADSK_XREC_LAYER_RECONCILED
360
14F1E
  0
DICTIONARY
  5
14F1F
330
149A3
100
AcDbDictionary
280
     1
281
     1
  3
ADSK_XREC_LAYER_RECONCILED
360
14F20
  0
DICTIONARY
  5
14EB9
330
14995
100
AcDbDictionary
281
     1
  3
ACAD_LAYOUTSELFREF
350
14EBA
  0
DICTIONARY
  5
14EB7
330
14991
100
AcDbDictionary
281
     1
  3
ACAD_LAYOUTSELFREF
350
14EB8
  0
XRECORD
  5
14F10
102
{ACAD_REACTORS
330
14983
102
}
330
14983
100
AcDbXrecord
280
     1
300
ACDLT
300
2014
300
ACDLT_F_S
  0
DICTIONARY
  5
14EF2
102
{ACAD_REACTORS
330
14983
102
}
330
14983
100
AcDbDictionary
281
     1
  0
DICTIONARY
  5
14F0B
102
{ACAD_REACTORS
330
14983
102
}
330
14983
100
AcDbDictionary
281
     1
  3
Imperial24
350
14F0C
  0
DICTIONARY
  5
14984
102
{ACAD_REACTORS
330
14983
102
}
330
14983
100
AcDbDictionary
281
     1
  0
DICTIONARY
  5
14990
102
{ACAD_REACTORS
330
14983
102
}
330
14983
100
AcDbDictionary
281
     1
  3
Model
350
14F0D
  3
レイアウト1
350
14F0E
  0
DICTIONARY
  5
14EC0
102
{ACAD_REACTORS
330
14983
102
}
330
14983
100
AcDbDictionary
281
     1
  3
ByBlock
350
14EC9
  3
ByLayer
350
14EC1
  3
Global
350
14ED1
  0
DICTIONARY
  5
14F07
102
{ACAD_REACTORS
330
14983
102
}
330
14983
100
AcDbDictionary
281
     1
  3
Standard
350
14F08
  0
DICTIONARY
  5
1498D
102
{ACAD_REACTORS
330
14983
102
}
330
14983
100
AcDbDictionary
281
     1
  3
STANDARD
350
1498E
  0
DICTIONARY
  5
1498F
102
{ACAD_REACTORS
330
14983
102
}
330
14983
100
AcDbDictionary
281
     1
  0
ACDBDICTIONARYWDFLT
  5
14EBE
102
{ACAD_REACTORS
330
14983
102
}
330
14983
100
AcDbDictionary
281
     1
  3
Normal
350
14EBF
100
AcDbDictionaryWithDefault
340
14EBF
  0
DICTIONARY
  5
14EF5
102
{ACAD_REACTORS
330
14983
102
}
330
14983
100
AcDbDictionary
281
     1
  3
A0
350
14EF6
  3
A1
350
14EF7
  3
A2
350
14EF8
  3
A3
350
14EF9
  3
A4
350
14EFA
  3
A5
350
14EFB
  3
A6
350
14EFC
  3
A7
350
14EFD
  3
A8
350
14EFE
  3
A9
350
14EFF
  3
B0
350
14F00
  3
B1
350
14F01
  3
B2
350
14F02
  3
B3
350
14F03
  3
B4
350
14F04
  3
B5
350
14F05
  3
B6
350
14F06
  0
DICTIONARY
  5
14F09
102
{ACAD_REACTORS
330
14983
102
}
330
14983
100
AcDbDictionary
281
     1
  3
Imperial24
350
14F0A
  0
DICTIONARY
  5
14EF3
102
{ACAD_REACTORS
330
14983
102
}
330
14983
100
AcDbDictionary
281
     1
  3
Standard
350
14EF4
  0
DICTIONARY
  5
14ED9
102
{ACAD_REACTORS
330
14983
102
}
330
14983
100
AcDbDictionary
281
     1
  3
2dWireframe
350
14EDF
  3
Basic
350
14EDE
  3
Brighten
350
14EE5
  3
ColorChange
350
14EE9
  3
Conceptual
350
14EE2
  3
Dim
350
14EE4
  3
EdgeColorOff
350
14EF1
  3
Facepattern
350
14EE8
  3
Flat
350
14EDA
  3
FlatWithEdges
350
14EDB
  3
Gouraud
350
14EDC
  3
GouraudWithEdges
350
14EDD
  3
Hidden
350
14EE1
  3
JitterOff
350
14EEF
  3
Linepattern
350
14EE7
  3
OverhangOff
350
14EF0
  3
Realistic
350
14EE3
  3
Shaded
350
14EEE
  3
Shaded with edges
350
14EED
  3
Shades of Gray
350
14EEA
  3
Sketchy
350
14EEB
  3
Thicken
350
14EE6
  3
Wireframe
350
14EE0
  3
X-Ray
350
14EEC
  0
XRECORD
  5
14F2E
102
{ACAD_REACTORS
330
14983
102
}
330
14983
100
AcDbXrecord
280
     1
 90
        1
330
14EF4
  0
DICTIONARY
  5
14F21
102
{ACAD_REACTORS
330
14983
102
}
330
14983
100
AcDbDictionary
281
     1
  3
CANNOSCALE
350
14F26
  3
CMLEADERSTYLE
350
14F23
  3
CTABLESTYLE
350
14F22
  3
CVIEWDETAILSTYLE
350
14F24
  3
CVIEWSECTIONSTYLE
350
14F25
  3
DIMASSOC
350
14F29
  3
INDEXCTL
350
14F28
  3
SORTENTS
350
14F27
  3
XCLIPFRAME
350
14F2A
  0
XRECORD
  5
14F2F
102
{ACAD_REACTORS
330
14983
102
}
330
14983
100
AcDbXrecord
280
     1
  1
DWGPROPS COOKIE
  2

  3

  4

  6

  7

  8
Yoshitsune
  9

300
=
301
=
302
=
303
=
304
=
305
=
306
=
307
=
308
=
309
=
 40
0.0000136921296296
 41
2451263.698476158
 42
2457192.661609144
  1

 90
        0
  0
XRECORD
  5
14F12
102
{ACAD_REACTORS
330
14F11
102
}
330
14F11
100
AcDbXrecord
280
     1
290
     1
  0
XRECORD
  5
14F14
102
{ACAD_REACTORS
330
14F13
102
}
330
14F13
100
AcDbXrecord
280
     1
290
     1
  0
XRECORD
  5
14F16
102
{ACAD_REACTORS
330
14F15
102
}
330
14F15
100
AcDbXrecord
280
     1
290
     1
  0
XRECORD
  5
14F18
102
{ACAD_REACTORS
330
14F17
102
}
330
14F17
100
AcDbXrecord
280
     1
290
     1
  0
XRECORD
  5
14F1A
102
{ACAD_REACTORS
330
14F19
102
}
330
14F19
100
AcDbXrecord
280
     1
290
     1
  0
XRECORD
  5
14F1C
102
{ACAD_REACTORS
330
14F1B
102
}
330
14F1B
100
AcDbXrecord
280
     1
290
     1
  0
XRECORD
  5
14F1E
102
{ACAD_REACTORS
330
14F1D
102
}
330
14F1D
100
AcDbXrecord
280
     1
290
     1
  0
XRECORD
  5
14F20
102
{ACAD_REACTORS
330
14F1F
102
}
330
14F1F
100
AcDbXrecord
280
     1
290
     1
  0
XRECORD
  5
14EBA
102
{ACAD_REACTORS
330
14EB9
102
}
330
14EB9
100
AcDbXrecord
280
     1
340
14995
  0
XRECORD
  5
14EB8
102
{ACAD_REACTORS
330
14EB7
102
}
330
14EB7
100
AcDbXrecord
280
     1
340
14991
  0
ACDBDETAILVIEWSTYLE
  5
14F0C
102
{ACAD_XDICTIONARY
360
14F67
102
}
102
{ACAD_REACTORS
330
14F0B
102
}
330
14F0B
100
AcDbModelDocViewStyle
 70
     0
  3
Imperial24
290
     0
100
AcDbDetailViewStyle
 70
     0
 71
     0
 90
        3
 71
     1
340
14988
 40
0.24
340
0
 40
0.24
300

 40
0.36
280
     3
 71
     2
340
1498C
 90
       25
 71
     3
340
14988
 40
0.24
 90
        1
 40
0.75
 90
        1
300
%<\AcVar ViewType \f "%tc1">% %<\AcVar ViewDetailId>%\PSCALE %<\AcVar ViewScale \f "%sn">%
 71
     4
340
1498C
 90
       25
340
1498C
 90
       25
280
     0
  0
LAYOUT
  5
14F0D
102
{ACAD_XDICTIONARY
360
14F69
102
}
102
{ACAD_REACTORS
330
14990
102
}
330
14990
100
AcDbPlotSettings
  1

  2
Canon LBP9100C
  4

  6

 40
0.0
 41
0.0
 42
0.0
 43
0.0
 44
0.0
 45
0.0
 46
0.0
 47
0.0
 48
0.0
 49
0.0
140
0.0
141
0.0
142
1.0
143
1.0
 70
  1712
 72
     0
 73
     0
 74
     0
  7

 75
     0
147
1.0
148
0.0
149
0.0
100
AcDbLayout
  1
Model
 70
     1
 71
     0
 10
0.0
 20
0.0
 11
12.0
 21
9.0
 12
0.0
 22
0.0
 32
0.0
 14
0.0
 24
0.0
 34
0.0
 15
0.0
 25
0.0
 35
0.0
146
0.0
 13
0.0
 23
0.0
 33
0.0
 16
1.0
 26
0.0
 36
0.0
 17
0.0
 27
1.0
 37
0.0
 76
     0
330
14995
331
14EB6
  0
LAYOUT
  5
14F0E
102
{ACAD_XDICTIONARY
360
14F6B
102
}
102
{ACAD_REACTORS
330
14990
102
}
330
14990
100
AcDbPlotSettings
  1

  2
Canon LBP9100C
  4

  6

 40
0.0
 41
0.0
 42
0.0
 43
0.0
 44
0.0
 45
0.0
 46
0.0
 47
0.0
 48
0.0
 49
0.0
140
0.0
141
0.0
142
1.0
143
1.0
 70
   688
 72
     0
 73
     0
 74
     5
  7

 75
    16
147
1.0
148
0.0
149
0.0
100
AcDbLayout
  1
レイアウト1
 70
     0
 71
     1
 10
0.0
 20
0.0
 11
420.0
 21
297.0
 12
0.0
 22
0.0
 32
0.0
 14
1.000000000000000E+20
 24
1.000000000000000E+20
 34
1.000000000000000E+20
 15
-1.000000000000000E+20
 25
-1.000000000000000E+20
 35
-1.000000000000000E+20
146
0.0
 13
0.0
 23
0.0
 33
0.0
 16
1.0
 26
0.0
 36
0.0
 17
0.0
 27
1.0
 37
0.0
 76
     0
330
14991
  0
MATERIAL
  5
14EC9
102
{ACAD_XDICTIONARY
360
14ECA
102
}
102
{ACAD_REACTORS
330
14EC0
102
}
330
14EC0
100
AcDbMaterial
  1
ByBlock
 72
     0
 43
0.0208333333333333
 43
0.0
 43
0.0
 43
0.0
 43
0.0
 43
0.0208333333333333
 43
0.0
 43
0.0
 43
0.0
 43
0.0
 43
1.0
 43
0.0
 43
0.0
 43
0.0
 43
0.0
 43
1.0
 77
     0
 47
0.0208333333333333
 47
0.0
 47
0.0
 47
0.0
 47
0.0
 47
0.0208333333333333
 47
0.0
 47
0.0
 47
0.0
 47
0.0
 47
1.0
 47
0.0
 47
0.0
 47
0.0
 47
0.0
 47
1.0
171
     0
 49
0.0208333333333333
 49
0.0
 49
0.0
 49
0.0
 49
0.0
 49
0.0208333333333333
 49
0.0
 49
0.0
 49
0.0
 49
0.0
 49
1.0
 49
0.0
 49
0.0
 49
0.0
 49
0.0
 49
1.0
175
     0
142
0.0208333333333333
142
0.0
142
0.0
142
0.0
142
0.0
142
0.0208333333333333
142
0.0
142
0.0
142
0.0
142
0.0
142
1.0
142
0.0
142
0.0
142
0.0
142
0.0
142
1.0
179
     0
144
0.0208333333333333
144
0.0
144
0.0
144
0.0
144
0.0
144
0.0208333333333333
144
0.0
144
0.0
144
0.0
144
0.0
144
1.0
144
0.0
144
0.0
144
0.0
144
0.0
144
1.0
147
0.0208333333333333
147
0.0
147
0.0
147
0.0
147
0.0
147
0.0208333333333333
147
0.0
147
0.0
147
0.0
147
0.0
147
1.0
147
0.0
147
0.0
147
0.0
147
0.0
147
1.0
  0
MATERIAL
  5
14EC1
102
{ACAD_XDICTIONARY
360
14EC2
102
}
102
{ACAD_REACTORS
330
14EC0
102
}
330
14EC0
100
AcDbMaterial
  1
ByLayer
 72
     0
 43
0.0208333333333333
 43
0.0
 43
0.0
 43
0.0
 43
0.0
 43
0.0208333333333333
 43
0.0
 43
0.0
 43
0.0
 43
0.0
 43
1.0
 43
0.0
 43
0.0
 43
0.0
 43
0.0
 43
1.0
 77
     0
 47
0.0208333333333333
 47
0.0
 47
0.0
 47
0.0
 47
0.0
 47
0.0208333333333333
 47
0.0
 47
0.0
 47
0.0
 47
0.0
 47
1.0
 47
0.0
 47
0.0
 47
0.0
 47
0.0
 47
1.0
171
     0
 49
0.0208333333333333
 49
0.0
 49
0.0
 49
0.0
 49
0.0
 49
0.0208333333333333
 49
0.0
 49
0.0
 49
0.0
 49
0.0
 49
1.0
 49
0.0
 49
0.0
 49
0.0
 49
0.0
 49
1.0
175
     0
142
0.0208333333333333
142
0.0
142
0.0
142
0.0
142
0.0
142
0.0208333333333333
142
0.0
142
0.0
142
0.0
142
0.0
142
1.0
142
0.0
142
0.0
142
0.0
142
0.0
142
1.0
179
     0
144
0.0208333333333333
144
0.0
144
0.0
144
0.0
144
0.0
144
0.0208333333333333
144
0.0
144
0.0
144
0.0
144
0.0
144
1.0
144
0.0
144
0.0
144
0.0
144
0.0
144
1.0
147
0.0208333333333333
147
0.0
147
0.0
147
0.0
147
0.0
147
0.0208333333333333
147
0.0
147
0.0
147
0.0
147
0.0
147
1.0
147
0.0
147
0.0
147
0.0
147
0.0
147
1.0
  0
MATERIAL
  5
14ED1
102
{ACAD_XDICTIONARY
360
14ED2
102
}
102
{ACAD_REACTORS
330
14EC0
102
}
330
14EC0
100
AcDbMaterial
  1
Global
 72
     0
 43
0.0208333333333333
 43
0.0
 43
0.0
 43
0.0
 43
0.0
 43
0.0208333333333333
 43
0.0
 43
0.0
 43
0.0
 43
0.0
 43
1.0
 43
0.0
 43
0.0
 43
0.0
 43
0.0
 43
1.0
 77
     0
 47
0.0208333333333333
 47
0.0
 47
0.0
 47
0.0
 47
0.0
 47
0.0208333333333333
 47
0.0
 47
0.0
 47
0.0
 47
0.0
 47
1.0
 47
0.0
 47
0.0
 47
0.0
 47
0.0
 47
1.0
171
     0
 49
0.0208333333333333
 49
0.0
 49
0.0
 49
0.0
 49
0.0
 49
0.0208333333333333
 49
0.0
 49
0.0
 49
0.0
 49
0.0
 49
1.0
 49
0.0
 49
0.0
 49
0.0
 49
0.0
 49
1.0
175
     0
142
0.0208333333333333
142
0.0
142
0.0
142
0.0
142
0.0
142
0.0208333333333333
142
0.0
142
0.0
142
0.0
142
0.0
142
1.0
142
0.0
142
0.0
142
0.0
142
0.0
142
1.0
179
     0
144
0.0208333333333333
144
0.0
144
0.0
144
0.0
144
0.0
144
0.0208333333333333
144
0.0
144
0.0
144
0.0
144
0.0
144
1.0
144
0.0
144
0.0
144
0.0
144
0.0
144
1.0
147
0.0208333333333333
147
0.0
147
0.0
147
0.0
147
0.0
147
0.0208333333333333
147
0.0
147
0.0
147
0.0
147
0.0
147
1.0
147
0.0
147
0.0
147
0.0
147
0.0
147
1.0
  0
MLEADERSTYLE
  5
14F08
102
{ACAD_REACTORS
330
14F07
102
}
330
14F07
100
AcDbMLeaderStyle
170
     2
171
     1
172
     0
 90
        2
 40
0.0
 41
0.0
173
     1
 91
-1056964608
340
1498A
 92
       -2
290
     1
 42
0.09
291
     1
 43
0.36
  3
Standard
 44
0.18
300

342
14988
174
     1
178
     6
175
     1
176
     0
 93
-1056964608
 45
0.18
292
     0
297
     0
 46
0.18
 94
-1056964608
 47
1.0
 49
1.0
140
1.0
293
     1
141
0.0
294
     1
177
     0
142
1.0
295
     0
296
     0
143
0.125
1001
ACAD_MLEADERVER
1070
     2
  0
MLINESTYLE
  5
1498E
102
{ACAD_REACTORS
330
1498D
102
}
330
1498D
100
AcDbMlineStyle
  2
STANDARD
 70
     0
  3

 62
   256
 51
90.0
 52
90.0
 71
     2
 49
0.5
 62
   256
  6
BYLAYER
 49
-0.5
 62
   256
  6
BYLAYER
  0
ACDBPLACEHOLDER
  5
14EBF
102
{ACAD_REACTORS
330
14EBE
102
}
330
14EBE
  0
SCALE
  5
14EF6
102
{ACAD_REACTORS
330
14EF5
102
}
330
14EF5
100
AcDbScale
 70
     0
300
1:1
140
1.0
141
1.0
290
     1
  0
SCALE
  5
14EF7
102
{ACAD_REACTORS
330
14EF5
102
}
330
14EF5
100
AcDbScale
 70
     0
300
1/128" = 1'-0"
140
0.0078125
141
12.0
290
     0
  0
SCALE
  5
14EF8
102
{ACAD_REACTORS
330
14EF5
102
}
330
14EF5
100
AcDbScale
 70
     0
300
1/64" = 1'-0"
140
0.015625
141
12.0
290
     0
  0
SCALE
  5
14EF9
102
{ACAD_REACTORS
330
14EF5
102
}
330
14EF5
100
AcDbScale
 70
     0
300
1/32" = 1'-0"
140
0.03125
141
12.0
290
     0
  0
SCALE
  5
14EFA
102
{ACAD_REACTORS
330
14EF5
102
}
330
14EF5
100
AcDbScale
 70
     0
300
1/16" = 1'-0"
140
0.0625
141
12.0
290
     0
  0
SCALE
  5
14EFB
102
{ACAD_REACTORS
330
14EF5
102
}
330
14EF5
100
AcDbScale
 70
     0
300
3/32" = 1'-0"
140
0.09375
141
12.0
290
     0
  0
SCALE
  5
14EFC
102
{ACAD_REACTORS
330
14EF5
102
}
330
14EF5
100
AcDbScale
 70
     0
300
1/8" = 1'-0"
140
0.125
141
12.0
290
     0
  0
SCALE
  5
14EFD
102
{ACAD_REACTORS
330
14EF5
102
}
330
14EF5
100
AcDbScale
 70
     0
300
3/16" = 1'-0"
140
0.1875
141
12.0
290
     0
  0
SCALE
  5
14EFE
102
{ACAD_REACTORS
330
14EF5
102
}
330
14EF5
100
AcDbScale
 70
     0
300
1/4" = 1'-0"
140
0.25
141
12.0
290
     0
  0
SCALE
  5
14EFF
102
{ACAD_REACTORS
330
14EF5
102
}
330
14EF5
100
AcDbScale
 70
     0
300
3/8" = 1'-0"
140
0.375
141
12.0
290
     0
  0
SCALE
  5
14F00
102
{ACAD_REACTORS
330
14EF5
102
}
330
14EF5
100
AcDbScale
 70
     0
300
1/2" = 1'-0"
140
0.5
141
12.0
290
     0
  0
SCALE
  5
14F01
102
{ACAD_REACTORS
330
14EF5
102
}
330
14EF5
100
AcDbScale
 70
     0
300
3/4" = 1'-0"
140
0.75
141
12.0
290
     0
  0
SCALE
  5
14F02
102
{ACAD_REACTORS
330
14EF5
102
}
330
14EF5
100
AcDbScale
 70
     0
300
1" = 1'-0"
140
1.0
141
12.0
290
     0
  0
SCALE
  5
14F03
102
{ACAD_REACTORS
330
14EF5
102
}
330
14EF5
100
AcDbScale
 70
     0
300
1-1/2" = 1'-0"
140
1.5
141
12.0
290
     0
  0
SCALE
  5
14F04
102
{ACAD_REACTORS
330
14EF5
102
}
330
14EF5
100
AcDbScale
 70
     0
300
3" = 1'-0"
140
3.0
141
12.0
290
     0
  0
SCALE
  5
14F05
102
{ACAD_REACTORS
330
14EF5
102
}
330
14EF5
100
AcDbScale
 70
     0
300
6" = 1'-0"
140
6.0
141
12.0
290
     0
  0
SCALE
  5
14F06
102
{ACAD_REACTORS
330
14EF5
102
}
330
14EF5
100
AcDbScale
 70
     0
300
1'-0" = 1'-0"
140
12.0
141
12.0
290
     0
  0
ACDBSECTIONVIEWSTYLE
  5
14F0A
102
{ACAD_XDICTIONARY
360
14F65
102
}
102
{ACAD_REACTORS
330
14F09
102
}
330
14F09
100
AcDbModelDocViewStyle
 70
     0
  3
Imperial24
290
     0
100
AcDbSectionViewStyle
 70
     0
 71
     0
 90
       78
 71
     1
340
14988
 40
0.24
340
0
340
0
 40
0.24
300
I, O, Q, S, X, Z
 40
0.48
 90
        3
 40
0.18
 90
        1
 71
     2
340
1498C
 90
       25
340
1498C
 90
       50
 40
0.24
 40
0.0
 40
0.24
 71
     3
340
14988
 40
0.24
 90
        1
 40
0.75
 90
        1
300
%<\AcVar ViewType \f "%tc1">% %<\AcVar ViewSectionStartId>%-%<\AcVar ViewSectionEndId>%\PSCALE %<\AcVar ViewScale \f "%sn">%
 71
     4
300
ANSI31
 40
1.0
 90
        0
290
     0
290
     0
 90
        6
 40
0.0
 40
1.570796326794896
 40
0.2617993877991494
 40
1.308996938995747
 40
-0.2617993877991494
 40
1.832595714594046
  0
TABLESTYLE
  5
14EF4
102
{ACAD_XDICTIONARY
360
14F2C
102
}
102
{ACAD_REACTORS
330
14EF3
102
}
330
14EF3
100
AcDbTableStyle
  3
Standard
 70
     0
 71
     0
 40
0.06
 41
0.06
280
     0
281
     0
  7
STANDARD
140
0.18
170
     2
 62
     0
 63
     7
283
     0
274
    -2
284
     1
 64
     0
275
    -2
285
     1
 65
     0
276
    -2
286
     1
 66
     0
277
    -2
287
     1
 67
     0
278
    -2
288
     1
 68
     0
279
    -2
289
     1
 69
     0
  7
STANDARD
140
0.25
170
     5
 62
     0
 63
     7
283
     0
274
    -2
284
     1
 64
     0
275
    -2
285
     1
 65
     0
276
    -2
286
     1
 66
     0
277
    -2
287
     1
 67
     0
278
    -2
288
     1
 68
     0
279
    -2
289
     1
 69
     0
  7
STANDARD
140
0.18
170
     5
 62
     0
 63
     7
283
     0
274
    -2
284
     1
 64
     0
275
    -2
285
     1
 65
     0
276
    -2
286
     1
 66
     0
277
    -2
287
     1
 67
     0
278
    -2
288
     1
 68
     0
279
    -2
289
     1
 69
     0
  0
VISUALSTYLE
  5
14EDF
102
{ACAD_XDICTIONARY
360
14F3D
102
}
102
{ACAD_REACTORS
330
14ED9
102
}
330
14ED9
100
AcDbVisualStyle
  2
2dWireframe
 70
     4
 71
     0
 72
     2
 73
     0
 90
        0
 40
-0.6
 41
-30.0
 62
     5
 63
     7
 74
     1
 91
        4
 64
     7
 65
   257
 75
     1
175
     1
 42
1.0
 92
        0
 66
   257
 43
1.0
 76
     1
 77
     6
 78
     2
 67
     7
 79
     5
170
     0
171
     0
290
     0
174
     0
 93
        1
 44
0.0
173
     0
291
     0
 45
0.0
1001
ACAD
1000
AcDbSavedByObjectVersion
1070
     0
  0
VISUALSTYLE
  5
14EDE
102
{ACAD_XDICTIONARY
360
14F3B
102
}
102
{ACAD_REACTORS
330
14ED9
102
}
330
14ED9
100
AcDbVisualStyle
  2
Basic
 70
     7
 71
     1
 72
     0
 73
     1
 90
        0
 40
-0.6
 41
-30.0
 62
     5
 63
     7
 74
     0
 91
        4
 64
     7
 65
   257
 75
     1
175
     1
 42
1.0
 92
        8
 66
     7
 43
1.0
 76
     1
 77
     6
 78
     2
 67
     7
 79
     5
170
     0
171
     0
290
     0
174
     0
 93
        1
 44
0.0
173
     0
291
     1
 45
0.0
1001
ACAD
1000
AcDbSavedByObjectVersion
1070
     0
  0
VISUALSTYLE
  5
14EE5
102
{ACAD_XDICTIONARY
360
14F49
102
}
102
{ACAD_REACTORS
330
14ED9
102
}
330
14ED9
100
AcDbVisualStyle
  2
Brighten
 70
    12
 71
     2
 72
     2
 73
     0
 90
        0
 40
-0.6
 41
-30.0
 62
     5
 63
     7
 74
     1
 91
        4
 64
     7
 65
   257
 75
     1
175
     1
 42
1.0
 92
        8
 66
     7
 43
1.0
 76
     1
 77
     6
 78
     2
 67
     7
 79
     5
170
     0
171
     0
290
     0
174
     0
 93
        1
 44
50.0
173
     0
291
     1
 45
0.0
1001
ACAD
1000
AcDbSavedByObjectVersion
1070
     0
  0
VISUALSTYLE
  5
14EE9
102
{ACAD_XDICTIONARY
360
14F51
102
}
102
{ACAD_REACTORS
330
14ED9
102
}
330
14ED9
100
AcDbVisualStyle
  2
ColorChange
 70
    16
 71
     2
 72
     2
 73
     3
 90
        0
 40
-0.6
 41
-30.0
 62
     5
 63
     8
 74
     1
 91
        4
 64
     7
 65
   257
 75
     1
175
     1
 42
1.0
 92
        8
 66
     8
 43
1.0
 76
     1
 77
     6
 78
     2
 67
     7
 79
     5
170
     0
171
     0
290
     0
174
     0
 93
        1
 44
0.0
173
     0
291
     1
 45
0.0
1001
ACAD
1000
AcDbSavedByObjectVersion
1070
     0
  0
VISUALSTYLE
  5
14EE2
102
{ACAD_XDICTIONARY
360
14F43
102
}
102
{ACAD_REACTORS
330
14ED9
102
}
330
14ED9
100
AcDbVisualStyle
  2
Conceptual
 70
     9
 71
     3
 72
     2
 73
     0
 90
        0
 40
-0.6
 41
-30.0
 62
     5
 63
     7
 74
     2
 91
        2
 64
     7
 65
   257
 75
     1
175
     1
 42
179.0
 92
        8
 66
     7
 43
1.0
 76
     1
 77
     6
 78
     2
 67
     7
 79
     3
170
     0
171
     0
290
     0
174
     0
 93
        1
 44
0.0
173
     0
291
     0
 45
0.0
1001
ACAD
1000
AcDbSavedByObjectVersion
1070
     0
  0
VISUALSTYLE
  5
14EE4
102
{ACAD_XDICTIONARY
360
14F47
102
}
102
{ACAD_REACTORS
330
14ED9
102
}
330
14ED9
100
AcDbVisualStyle
  2
Dim
 70
    11
 71
     2
 72
     2
 73
     0
 90
        0
 40
-0.6
 41
-30.0
 62
     5
 63
     7
 74
     1
 91
        4
 64
     7
 65
   257
 75
     1
175
     1
 42
1.0
 92
        8
 66
     7
 43
1.0
 76
     1
 77
     6
 78
     2
 67
     7
 79
     5
170
     0
171
     0
290
     0
174
     0
 93
        1
 44
-50.0
173
     0
291
     1
 45
0.0
1001
ACAD
1000
AcDbSavedByObjectVersion
1070
     0
  0
VISUALSTYLE
  5
14EF1
102
{ACAD_XDICTIONARY
360
14F61
102
}
102
{ACAD_REACTORS
330
14ED9
102
}
330
14ED9
100
AcDbVisualStyle
  2
EdgeColorOff
 70
    22
 71
     2
 72
     2
 73
     0
 90
        0
 40
-0.6
 41
-30.0
 62
     5
 63
     7
 74
     1
 91
        4
 64
     7
 65
   257
 75
     1
175
     1
 42
1.0
 92
        8
 66
     7
 43
1.0
 76
     1
 77
     6
 78
     2
 67
     7
 79
     5
170
     0
171
     0
290
     0
174
     0
 93
        1
 44
0.0
173
     0
291
     1
 45
0.0
1001
ACAD
1000
AcDbSavedByObjectVersion
1070
     0
  0
VISUALSTYLE
  5
14EE8
102
{ACAD_XDICTIONARY
360
14F4F
102
}
102
{ACAD_REACTORS
330
14ED9
102
}
330
14ED9
100
AcDbVisualStyle
  2
Facepattern
 70
    15
 71
     2
 72
     2
 73
     0
 90
        0
 40
-0.6
 41
-30.0
 62
     5
 63
     7
 74
     1
 91
        4
 64
     7
 65
   257
 75
     1
175
     1
 42
1.0
 92
        8
 66
     7
 43
1.0
 76
     1
 77
     6
 78
     2
 67
     7
 79
     5
170
     0
171
     0
290
     0
174
     0
 93
        1
 44
0.0
173
     0
291
     1
 45
0.0
1001
ACAD
1000
AcDbSavedByObjectVersion
1070
     0
  0
VISUALSTYLE
  5
14EDA
102
{ACAD_XDICTIONARY
360
14F33
102
}
102
{ACAD_REACTORS
330
14ED9
102
}
330
14ED9
100
AcDbVisualStyle
  2
Flat
 70
     0
 71
     2
 72
     1
 73
     1
 90
        2
 40
-0.6
 41
30.0
 62
     5
 63
     7
 74
     0
 91
        0
 64
     7
 65
   257
 75
     1
175
     1
 42
1.0
 92
        8
 66
     7
 43
1.0
 76
     1
 77
     6
 78
     2
 67
     7
 79
     5
170
     0
171
     0
290
     0
174
     0
 93
       13
 44
0.0
173
     0
291
     1
 45
0.0
1001
ACAD
1000
AcDbSavedByObjectVersion
1070
     0
  0
VISUALSTYLE
  5
14EDB
102
{ACAD_XDICTIONARY
360
14F35
102
}
102
{ACAD_REACTORS
330
14ED9
102
}
330
14ED9
100
AcDbVisualStyle
  2
FlatWithEdges
 70
     1
 71
     2
 72
     1
 73
     1
 90
        2
 40
-0.6
 41
30.0
 62
     5
 63
     7
 74
     1
 91
        0
 64
     7
 65
   257
 75
     1
175
     1
 42
1.0
 92
        0
 66
   257
 43
1.0
 76
     1
 77
     6
 78
     2
 67
     7
 79
     5
170
     0
171
     0
290
     0
174
     0
 93
       13
 44
0.0
173
     0
291
     1
 45
0.0
1001
ACAD
1000
AcDbSavedByObjectVersion
1070
     0
  0
VISUALSTYLE
  5
14EDC
102
{ACAD_XDICTIONARY
360
14F37
102
}
102
{ACAD_REACTORS
330
14ED9
102
}
330
14ED9
100
AcDbVisualStyle
  2
Gouraud
 70
     2
 71
     2
 72
     2
 73
     1
 90
        2
 40
-0.6
 41
30.0
 62
     5
 63
     7
 74
     0
 91
        0
 64
     7
 65
   257
 75
     1
175
     1
 42
1.0
 92
        0
 66
     7
 43
1.0
 76
     1
 77
     6
 78
     2
 67
     7
 79
     5
170
     0
171
     0
290
     0
174
     0
 93
       13
 44
0.0
173
     0
291
     1
 45
0.0
1001
ACAD
1000
AcDbSavedByObjectVersion
1070
     0
  0
VISUALSTYLE
  5
14EDD
102
{ACAD_XDICTIONARY
360
14F39
102
}
102
{ACAD_REACTORS
330
14ED9
102
}
330
14ED9
100
AcDbVisualStyle
  2
GouraudWithEdges
 70
     3
 71
     2
 72
     2
 73
     1
 90
        2
 40
-0.6
 41
30.0
 62
     5
 63
     7
 74
     1
 91
        0
 64
     7
 65
   257
 75
     1
175
     1
 42
1.0
 92
        0
 66
   257
 43
1.0
 76
     1
 77
     6
 78
     2
 67
     7
 79
     5
170
     0
171
     0
290
     0
174
     0
 93
       13
 44
0.0
173
     0
291
     1
 45
0.0
1001
ACAD
1000
AcDbSavedByObjectVersion
1070
     0
  0
VISUALSTYLE
  5
14EE1
102
{ACAD_XDICTIONARY
360
14F41
102
}
102
{ACAD_REACTORS
330
14ED9
102
}
330
14ED9
100
AcDbVisualStyle
  2
Hidden
 70
     6
 71
     1
 72
     2
 73
     2
 90
        0
 40
-0.6
 41
-30.0
 62
     5
 63
     7
 74
     2
 91
        2
 64
     7
 65
   257
 75
     2
175
     1
 42
40.0
 92
        0
 66
   257
 43
1.0
 76
     1
 77
     6
 78
     2
 67
     7
 79
     3
170
     0
171
     0
290
     0
174
     0
 93
        1
 44
0.0
173
     0
291
     0
 45
0.0
1001
ACAD
1000
AcDbSavedByObjectVersion
1070
     0
  0
VISUALSTYLE
  5
14EEF
102
{ACAD_XDICTIONARY
360
14F5D
102
}
102
{ACAD_REACTORS
330
14ED9
102
}
330
14ED9
100
AcDbVisualStyle
  2
JitterOff
 70
    20
 71
     2
 72
     2
 73
     0
 90
        0
 40
-0.6
 41
-30.0
 62
     5
 63
     7
 74
     1
 91
        4
 64
     7
 65
   257
 75
     1
175
     1
 42
1.0
 92
       10
 66
     7
 43
1.0
 76
     1
 77
     6
 78
     2
 67
     7
 79
     5
170
     0
171
     0
290
     0
174
     0
 93
        1
 44
0.0
173
     0
291
     1
 45
0.0
1001
ACAD
1000
AcDbSavedByObjectVersion
1070
     0
  0
VISUALSTYLE
  5
14EE7
102
{ACAD_XDICTIONARY
360
14F4D
102
}
102
{ACAD_REACTORS
330
14ED9
102
}
330
14ED9
100
AcDbVisualStyle
  2
Linepattern
 70
    14
 71
     2
 72
     2
 73
     0
 90
        0
 40
-0.6
 41
-30.0
 62
     5
 63
     7
 74
     1
 91
        4
 64
     7
 65
   257
 75
     7
175
     7
 42
1.0
 92
        8
 66
     7
 43
1.0
 76
     1
 77
     6
 78
     2
 67
     7
 79
     5
170
     0
171
     0
290
     0
174
     0
 93
        1
 44
0.0
173
     0
291
     1
 45
0.0
1001
ACAD
1000
AcDbSavedByObjectVersion
1070
     0
  0
VISUALSTYLE
  5
14EF0
102
{ACAD_XDICTIONARY
360
14F5F
102
}
102
{ACAD_REACTORS
330
14ED9
102
}
330
14ED9
100
AcDbVisualStyle
  2
OverhangOff
 70
    21
 71
     2
 72
     2
 73
     0
 90
        0
 40
-0.6
 41
-30.0
 62
     5
 63
     7
 74
     1
 91
        4
 64
     7
 65
   257
 75
     1
175
     1
 42
1.0
 92
        9
 66
     7
 43
1.0
 76
     1
 77
     6
 78
     2
 67
     7
 79
     5
170
     0
171
     0
290
     0
174
     0
 93
        1
 44
0.0
173
     0
291
     1
 45
0.0
1001
ACAD
1000
AcDbSavedByObjectVersion
1070
     0
  0
VISUALSTYLE
  5
14EE3
102
{ACAD_XDICTIONARY
360
14F45
102
}
102
{ACAD_REACTORS
330
14ED9
102
}
330
14ED9
100
AcDbVisualStyle
  2
Realistic
 70
     8
 71
     2
 72
     3
 73
     0
 90
        2
 40
-0.6
 41
30.0
 62
     5
 63
     7
 74
     0
 91
        0
 64
     7
 65
   257
 75
     1
175
     1
 42
1.0
 92
        8
 66
   257
 43
1.0
 76
     1
 77
     6
 78
     2
 67
     7
 79
     3
170
     0
171
     0
290
     0
174
     0
 93
       13
 44
0.0
173
     0
291
     0
 45
0.0
1001
ACAD
1000
AcDbSavedByObjectVersion
1070
     0
  0
VISUALSTYLE
  5
14EEE
102
{ACAD_XDICTIONARY
360
14F5B
102
}
102
{ACAD_REACTORS
330
14ED9
102
}
330
14ED9
100
AcDbVisualStyle
  2
Shaded
 70
    27
 71
     2
 72
     2
 73
     1
 90
        2
 40
-0.6
 41
30.0
 62
     5
 63
     7
 74
     0
 91
        4
 64
     7
 65
   257
 75
     1
175
     1
 42
1.0
 92
        8
 66
   257
 43
1.0
 76
     1
 77
     6
 78
     2
 67
     8
 79
     3
170
     0
171
     0
290
     0
174
     0
 93
        5
 44
0.0
173
     0
291
     0
 45
0.0
1001
ACAD
1000
AcDbSavedByObjectVersion
1070
     0
  0
VISUALSTYLE
  5
14EED
102
{ACAD_XDICTIONARY
360
14F59
102
}
102
{ACAD_REACTORS
330
14ED9
102
}
330
14ED9
100
AcDbVisualStyle
  2
Shaded with edges
 70
    26
 71
     2
 72
     2
 73
     1
 90
        2
 40
-0.6
 41
30.0
 62
     5
 63
     7
 74
     1
 91
       10
 64
     7
 65
   257
 75
     2
175
     1
 42
1.0
 92
        8
 66
   257
 43
1.0
 76
     1
 77
     6
 78
     2
 67
     7
 79
     3
170
     0
171
     0
290
     0
174
     0
 93
        5
 44
0.0
173
     0
291
     0
 45
0.0
1001
ACAD
1000
AcDbSavedByObjectVersion
1070
     0
  0
VISUALSTYLE
  5
14EEA
102
{ACAD_XDICTIONARY
360
14F53
102
}
102
{ACAD_REACTORS
330
14ED9
102
}
330
14ED9
100
AcDbVisualStyle
  2
Shades of Gray
 70
    23
 71
     2
 72
     2
 73
     3
 90
        0
 40
-0.6
 41
-30.0
 62
     5
 63
     7
 74
     2
 91
        2
 64
     7
 65
     7
 75
     1
175
     1
 42
40.0
 92
        8
 66
     7
 43
1.0
 76
     1
 77
     6
 78
     2
 67
     7
 79
     3
170
     0
171
     0
290
     0
174
     0
 93
        1
 44
0.0
173
     0
291
     0
 45
0.0
1001
ACAD
1000
AcDbSavedByObjectVersion
1070
     0
  0
VISUALSTYLE
  5
14EEB
102
{ACAD_XDICTIONARY
360
14F55
102
}
102
{ACAD_REACTORS
330
14ED9
102
}
330
14ED9
100
AcDbVisualStyle
  2
Sketchy
 70
    24
 71
     1
 72
     2
 73
     2
 90
        0
 40
-0.6
 41
-30.0
 62
     5
 63
     7
 74
     2
 91
        2
 64
     7
 65
     7
 75
     1
175
     1
 42
40.0
 92
       11
 66
     7
 43
1.0
 76
     1
 77
     6
 78
     2
 67
     7
 79
     6
170
     0
171
     0
290
     0
174
     0
 93
        1
 44
0.0
173
     0
291
     0
 45
0.0
1001
ACAD
1000
AcDbSavedByObjectVersion
1070
     0
  0
VISUALSTYLE
  5
14EE6
102
{ACAD_XDICTIONARY
360
14F4B
102
}
102
{ACAD_REACTORS
330
14ED9
102
}
330
14ED9
100
AcDbVisualStyle
  2
Thicken
 70
    13
 71
     2
 72
     2
 73
     0
 90
        0
 40
-0.6
 41
-30.0
 62
     5
 63
     7
 74
     1
 91
        4
 64
     7
 65
   257
 75
     1
175
     1
 42
1.0
 92
       12
 66
     7
 43
1.0
 76
     1
 77
     6
 78
     2
 67
     7
 79
     5
170
     0
171
     0
290
     0
174
     0
 93
        1
 44
0.0
173
     0
291
     1
 45
0.0
1001
ACAD
1000
AcDbSavedByObjectVersion
1070
     0
  0
VISUALSTYLE
  5
14EE0
102
{ACAD_XDICTIONARY
360
14F3F
102
}
102
{ACAD_REACTORS
330
14ED9
102
}
330
14ED9
100
AcDbVisualStyle
  2
Wireframe
 70
     5
 71
     0
 72
     2
 73
     0
 90
        0
 40
-0.6
 41
-30.0
 62
     5
 63
     7
 74
     1
 91
        4
 64
     7
 65
   257
 75
     1
175
     1
 42
1.0
 92
        0
 66
   257
 43
1.0
 76
     1
 77
     6
 78
     2
 67
     7
 79
     3
170
     0
171
     0
290
     0
174
     0
 93
        1
 44
0.0
173
     0
291
     0
 45
0.0
1001
ACAD
1000
AcDbSavedByObjectVersion
1070
     0
  0
VISUALSTYLE
  5
14EEC
102
{ACAD_XDICTIONARY
360
14F57
102
}
102
{ACAD_REACTORS
330
14ED9
102
}
330
14ED9
100
AcDbVisualStyle
  2
X-Ray
 70
    25
 71
     2
 72
     2
 73
     1
 90
        1
 40
0.5
 41
-30.0
 62
     5
 63
     7
 74
     1
 91
        0
 64
     7
 65
   257
 75
     1
175
     1
 42
1.0
 92
        8
 66
     7
 43
1.0
 76
     1
 77
     6
 78
     2
 67
     7
 79
     3
170
     0
171
     0
290
     0
174
     0
 93
       13
 44
0.0
173
     0
291
     0
 45
0.0
1001
ACAD
1000
AcDbSavedByObjectVersion
1070
     0
  0
DICTIONARYVAR
  5
14F26
102
{ACAD_REACTORS
330
14F21
102
}
330
14F21
100
DictionaryVariables
280
     0
  1
1:1
  0
DICTIONARYVAR
  5
14F23
102
{ACAD_REACTORS
330
14F21
102
}
330
14F21
100
DictionaryVariables
280
     0
  1
STANDARD
  0
DICTIONARYVAR
  5
14F22
102
{ACAD_REACTORS
330
14F21
102
}
330
14F21
100
DictionaryVariables
280
     0
  1
STANDARD
  0
DICTIONARYVAR
  5
14F24
102
{ACAD_REACTORS
330
14F21
102
}
330
14F21
100
DictionaryVariables
280
     0
  1
Imperial24
  0
DICTIONARYVAR
  5
14F25
102
{ACAD_REACTORS
330
14F21
102
}
330
14F21
100
DictionaryVariables
280
     0
  1
Imperial24
  0
DICTIONARYVAR
  5
14F29
102
{ACAD_REACTORS
330
14F21
102
}
330
14F21
100
DictionaryVariables
280
     0
  1
1
  0
DICTIONARYVAR
  5
14F28
102
{ACAD_REACTORS
330
14F21
102
}
330
14F21
100
DictionaryVariables
280
     0
  1
0
  0
DICTIONARYVAR
  5
14F27
102
{ACAD_REACTORS
330
14F21
102
}
330
14F21
100
DictionaryVariables
280
     0
  1
127
  0
DICTIONARYVAR
  5
14F2A
102
{ACAD_REACTORS
330
14F21
102
}
330
14F21
100
DictionaryVariables
280
     0
  1
2
  0
DICTIONARY
  5
14F67
330
14F0C
100
AcDbDictionary
280
     1
281
     1
  3
ACAD_XREC_ROUNDTRIP
360
14F68
  0
DICTIONARY
  5
14F69
330
14F0D
100
AcDbDictionary
280
     1
281
     1
  3
ACAD_XREC_ROUNDTRIP
360
14F6A
  0
DICTIONARY
  5
14F6B
330
14F0E
100
AcDbDictionary
280
     1
281
     1
  3
ACAD_XREC_ROUNDTRIP
360
14F6C
  0
DICTIONARY
  5
14ECA
330
14EC9
100
AcDbDictionary
280
     1
281
     1
  3
ACAD_XREC_ROUNDTRIP
360
14F31
  3
BUMPTILE
360
14ECC
  3
DIFFUSETILE
360
14ECB
  3
OPACITYTILE
360
14ECF
  3
REFLECTIONTILE
360
14ECE
  3
REFRACTIONTILE
360
14ED0
  3
SPECULARTILE
360
14ECD
  0
DICTIONARY
  5
14EC2
330
14EC1
100
AcDbDictionary
280
     1
281
     1
  3
ACAD_XREC_ROUNDTRIP
360
14F30
  3
BUMPTILE
360
14EC4
  3
DIFFUSETILE
360
14EC3
  3
OPACITYTILE
360
14EC7
  3
REFLECTIONTILE
360
14EC6
  3
REFRACTIONTILE
360
14EC8
  3
SPECULARTILE
360
14EC5
  0
DICTIONARY
  5
14ED2
330
14ED1
100
AcDbDictionary
280
     1
281
     1
  3
ACAD_XREC_ROUNDTRIP
360
14F32
  3
BUMPTILE
360
14ED4
  3
DIFFUSETILE
360
14ED3
  3
OPACITYTILE
360
14ED7
  3
REFLECTIONTILE
360
14ED6
  3
REFRACTIONTILE
360
14ED8
  3
SPECULARTILE
360
14ED5
  0
DICTIONARY
  5
14F65
330
14F0A
100
AcDbDictionary
280
     1
281
     1
  3
ACAD_XREC_ROUNDTRIP
360
14F66
  0
DICTIONARY
  5
14F2C
330
14EF4
100
AcDbDictionary
280
     1
281
     1
  3
ACAD_ROUNDTRIP_2008_TABLESTYLE_CELLSTYLEMAP
360
14F2D
  3
ACAD_XREC_ROUNDTRIP
360
14F63
  0
DICTIONARY
  5
14F3D
330
14EDF
100
AcDbDictionary
280
     1
281
     1
  3
ACAD_XREC_ROUNDTRIP
360
14F3E
  0
DICTIONARY
  5
14F3B
330
14EDE
100
AcDbDictionary
280
     1
281
     1
  3
ACAD_XREC_ROUNDTRIP
360
14F3C
  0
DICTIONARY
  5
14F49
330
14EE5
100
AcDbDictionary
280
     1
281
     1
  3
ACAD_XREC_ROUNDTRIP
360
14F4A
  0
DICTIONARY
  5
14F51
330
14EE9
100
AcDbDictionary
280
     1
281
     1
  3
ACAD_XREC_ROUNDTRIP
360
14F52
  0
DICTIONARY
  5
14F43
330
14EE2
100
AcDbDictionary
280
     1
281
     1
  3
ACAD_XREC_ROUNDTRIP
360
14F44
  0
DICTIONARY
  5
14F47
330
14EE4
100
AcDbDictionary
280
     1
281
     1
  3
ACAD_XREC_ROUNDTRIP
360
14F48
  0
DICTIONARY
  5
14F61
330
14EF1
100
AcDbDictionary
280
     1
281
     1
  3
ACAD_XREC_ROUNDTRIP
360
14F62
  0
DICTIONARY
  5
14F4F
330
14EE8
100
AcDbDictionary
280
     1
281
     1
  3
ACAD_XREC_ROUNDTRIP
360
14F50
  0
DICTIONARY
  5
14F33
330
14EDA
100
AcDbDictionary
280
     1
281
     1
  3
ACAD_XREC_ROUNDTRIP
360
14F34
  0
DICTIONARY
  5
14F35
330
14EDB
100
AcDbDictionary
280
     1
281
     1
  3
ACAD_XREC_ROUNDTRIP
360
14F36
  0
DICTIONARY
  5
14F37
330
14EDC
100
AcDbDictionary
280
     1
281
     1
  3
ACAD_XREC_ROUNDTRIP
360
14F38
  0
DICTIONARY
  5
14F39
330
14EDD
100
AcDbDictionary
280
     1
281
     1
  3
ACAD_XREC_ROUNDTRIP
360
14F3A
  0
DICTIONARY
  5
14F41
330
14EE1
100
AcDbDictionary
280
     1
281
     1
  3
ACAD_XREC_ROUNDTRIP
360
14F42
  0
DICTIONARY
  5
14F5D
330
14EEF
100
AcDbDictionary
280
     1
281
     1
  3
ACAD_XREC_ROUNDTRIP
360
14F5E
  0
DICTIONARY
  5
14F4D
330
14EE7
100
AcDbDictionary
280
     1
281
     1
  3
ACAD_XREC_ROUNDTRIP
360
14F4E
  0
DICTIONARY
  5
14F5F
330
14EF0
100
AcDbDictionary
280
     1
281
     1
  3
ACAD_XREC_ROUNDTRIP
360
14F60
  0
DICTIONARY
  5
14F45
330
14EE3
100
AcDbDictionary
280
     1
281
     1
  3
ACAD_XREC_ROUNDTRIP
360
14F46
  0
DICTIONARY
  5
14F5B
330
14EEE
100
AcDbDictionary
280
     1
281
     1
  3
ACAD_XREC_ROUNDTRIP
360
14F5C
  0
DICTIONARY
  5
14F59
330
14EED
100
AcDbDictionary
280
     1
281
     1
  3
ACAD_XREC_ROUNDTRIP
360
14F5A
  0
DICTIONARY
  5
14F53
330
14EEA
100
AcDbDictionary
280
     1
281
     1
  3
ACAD_XREC_ROUNDTRIP
360
14F54
  0
DICTIONARY
  5
14F55
330
14EEB
100
AcDbDictionary
280
     1
281
     1
  3
ACAD_XREC_ROUNDTRIP
360
14F56
  0
DICTIONARY
  5
14F4B
330
14EE6
100
AcDbDictionary
280
     1
281
     1
  3
ACAD_XREC_ROUNDTRIP
360
14F4C
  0
DICTIONARY
  5
14F3F
330
14EE0
100
AcDbDictionary
280
     1
281
     1
  3
ACAD_XREC_ROUNDTRIP
360
14F40
  0
DICTIONARY
  5
14F57
330
14EEC
100
AcDbDictionary
280
     1
281
     1
  3
ACAD_XREC_ROUNDTRIP
360
14F58
  0
XRECORD
  5
14F68
102
{ACAD_REACTORS
330
14F67
102
}
330
14F67
100
AcDbXrecord
280
     1
102
DISPLAYNAME
  1
Imperial24
102
FLAGS
 90
        0
  0
XRECORD
  5
14F6A
102
{ACAD_REACTORS
330
14F69
102
}
330
14F69
100
AcDbXrecord
280
     1
102
SHADEPLOT
 70
     0
102
SHADEPLOTRESLEVEL
 70
     2
102
SHADEPLOTCUSTOMDPI
 70
   300
  0
XRECORD
  5
14F6C
102
{ACAD_REACTORS
330
14F6B
102
}
330
14F6B
100
AcDbXrecord
280
     1
102
SHADEPLOT
 70
     0
102
SHADEPLOTRESLEVEL
 70
     2
102
SHADEPLOTCUSTOMDPI
 70
   300
  0
XRECORD
  5
14F31
102
{ACAD_REACTORS
330
14ECA
102
}
330
14ECA
100
AcDbXrecord
280
     1
102
MATERIAL
148
0.0
149
0.0
149
0.0
 93
        0
 94
      127
282
     0
 72
     0
 77
     0
171
     0
175
     0
179
     0
273
     0
  0
XRECORD
  5
14ECC
102
{ACAD_REACTORS
330
14ECA
102
}
330
14ECA
100
AcDbXrecord
280
     1
270
     1
271
     1
  0
XRECORD
  5
14ECB
102
{ACAD_REACTORS
330
14ECA
102
}
330
14ECA
100
AcDbXrecord
280
     1
270
     1
271
     1
  0
XRECORD
  5
14ECF
102
{ACAD_REACTORS
330
14ECA
102
}
330
14ECA
100
AcDbXrecord
280
     1
270
     1
271
     1
  0
XRECORD
  5
14ECE
102
{ACAD_REACTORS
330
14ECA
102
}
330
14ECA
100
AcDbXrecord
280
     1
270
     1
271
     1
  0
XRECORD
  5
14ED0
102
{ACAD_REACTORS
330
14ECA
102
}
330
14ECA
100
AcDbXrecord
280
     1
270
     1
271
     1
  0
XRECORD
  5
14ECD
102
{ACAD_REACTORS
330
14ECA
102
}
330
14ECA
100
AcDbXrecord
280
     1
270
     1
271
     1
  0
XRECORD
  5
14F30
102
{ACAD_REACTORS
330
14EC2
102
}
330
14EC2
100
AcDbXrecord
280
     1
102
MATERIAL
148
0.0
149
0.0
149
0.0
 93
        0
 94
      127
282
     0
 72
     0
 77
     0
171
     0
175
     0
179
     0
273
     0
  0
XRECORD
  5
14EC4
102
{ACAD_REACTORS
330
14EC2
102
}
330
14EC2
100
AcDbXrecord
280
     1
270
     1
271
     1
  0
XRECORD
  5
14EC3
102
{ACAD_REACTORS
330
14EC2
102
}
330
14EC2
100
AcDbXrecord
280
     1
270
     1
271
     1
  0
XRECORD
  5
14EC7
102
{ACAD_REACTORS
330
14EC2
102
}
330
14EC2
100
AcDbXrecord
280
     1
270
     1
271
     1
  0
XRECORD
  5
14EC6
102
{ACAD_REACTORS
330
14EC2
102
}
330
14EC2
100
AcDbXrecord
280
     1
270
     1
271
     1
  0
XRECORD
  5
14EC8
102
{ACAD_REACTORS
330
14EC2
102
}
330
14EC2
100
AcDbXrecord
280
     1
270
     1
271
     1
  0
XRECORD
  5
14EC5
102
{ACAD_REACTORS
330
14EC2
102
}
330
14EC2
100
AcDbXrecord
280
     1
270
     1
271
     1
  0
XRECORD
  5
14F32
102
{ACAD_REACTORS
330
14ED2
102
}
330
14ED2
100
AcDbXrecord
280
     1
102
MATERIAL
148
0.0
149
0.0
149
0.0
 93
        0
 94
      127
282
     0
 72
     0
 77
     0
171
     0
175
     0
179
     0
273
     0
  0
XRECORD
  5
14ED4
102
{ACAD_REACTORS
330
14ED2
102
}
330
14ED2
100
AcDbXrecord
280
     1
270
     1
271
     1
  0
XRECORD
  5
14ED3
102
{ACAD_REACTORS
330
14ED2
102
}
330
14ED2
100
AcDbXrecord
280
     1
270
     1
271
     1
  0
XRECORD
  5
14ED7
102
{ACAD_REACTORS
330
14ED2
102
}
330
14ED2
100
AcDbXrecord
280
     1
270
     1
271
     1
  0
XRECORD
  5
14ED6
102
{ACAD_REACTORS
330
14ED2
102
}
330
14ED2
100
AcDbXrecord
280
     1
270
     1
271
     1
  0
XRECORD
  5
14ED8
102
{ACAD_REACTORS
330
14ED2
102
}
330
14ED2
100
AcDbXrecord
280
     1
270
     1
271
     1
  0
XRECORD
  5
14ED5
102
{ACAD_REACTORS
330
14ED2
102
}
330
14ED2
100
AcDbXrecord
280
     1
270
     1
271
     1
  0
XRECORD
  5
14F66
102
{ACAD_REACTORS
330
14F65
102
}
330
14F65
100
AcDbXrecord
280
     1
102
DISPLAYNAME
  1
Imperial24
102
FLAGS
 90
        0
  0
CELLSTYLEMAP
  5
14F2D
102
{ACAD_REACTORS
330
14F2C
102
}
330
14F2C
100
AcDbCellStyleMap
 90
        3
300
CELLSTYLE
  1
TABLEFORMAT_BEGIN
 90
        5
170
     1
 91
        0
 92
    32768
 62
   257
 93
        1
300
CONTENTFORMAT
  1
CONTENTFORMAT_BEGIN
 90
        0
 91
        0
 92
      512
 93
        0
300

 40
0.0
140
1.0
 94
        5
 62
     0
340
14988
144
0.25
309
CONTENTFORMAT_END
171
     0
 94
        0
309
TABLEFORMAT_END
  1
CELLSTYLE_BEGIN
 90
        1
 91
        1
300
_TITLE
309
CELLSTYLE_END
300
CELLSTYLE
  1
TABLEFORMAT_BEGIN
 90
        5
170
     1
 91
        0
 92
        0
 62
   257
 93
        1
300
CONTENTFORMAT
  1
CONTENTFORMAT_BEGIN
 90
        0
 91
        0
 92
      512
 93
        0
300

 40
0.0
140
1.0
 94
        5
 62
     0
340
14988
144
0.18
309
CONTENTFORMAT_END
171
     0
 94
        0
309
TABLEFORMAT_END
  1
CELLSTYLE_BEGIN
 90
        2
 91
        1
300
_HEADER
309
CELLSTYLE_END
300
CELLSTYLE
  1
TABLEFORMAT_BEGIN
 90
        5
170
     1
 91
        0
 92
        0
 62
   257
 93
        1
300
CONTENTFORMAT
  1
CONTENTFORMAT_BEGIN
 90
        0
 91
        0
 92
      512
 93
        0
300

 40
0.0
140
1.0
 94
        2
 62
     0
340
14988
144
0.18
309
CONTENTFORMAT_END
171
     0
 94
        0
309
TABLEFORMAT_END
  1
CELLSTYLE_BEGIN
 90
        3
 91
        2
300
_DATA
309
CELLSTYLE_END
  0
XRECORD
  5
14F63
102
{ACAD_REACTORS
330
14F2C
102
}
330
14F2C
100
AcDbXrecord
280
     1
102
ACAD_ROUNDTRIP_PRE2007_TABLESTYLE
 90
      512
 91
        0
  1

 92
      512
 93
        0
  2

 94
      512
 95
        0
  3

  0
XRECORD
  5
14F3E
102
{ACAD_REACTORS
330
14F3D
102
}
330
14F3D
100
AcDbXrecord
280
     1
102
RTVSPost2010Prop28
280
     1
102
RTVSPost2010PropOp28
 70
     1
102
RTVSPost2010Prop29
280
     1
102
RTVSPost2010PropOp29
 70
     1
102
RTVSPost2010Prop30
280
     0
102
RTVSPost2010PropOp30
 70
     1
102
RTVSPost2010Prop31
280
     0
102
RTVSPost2010PropOp31
 70
     1
102
RTVSPost2010Prop32
280
     0
102
RTVSPost2010PropOp32
 70
     1
102
RTVSPost2010Prop33
280
     0
102
RTVSPost2010PropOp33
 70
     1
102
RTVSPost2010Prop34
280
     0
102
RTVSPost2010PropOp34
 70
     1
102
RTVSPost2010Prop35
280
     0
102
RTVSPost2010PropOp35
 70
     1
102
RTVSPost2010Prop36
280
     0
102
RTVSPost2010PropOp36
 70
     1
102
RTVSPost2010Prop37
 90
       50
102
RTVSPost2010PropOp37
 70
     1
102
RTVSPost2010Prop38
140
0.0
102
RTVSPost2010PropOp38
 70
     1
102
RTVSPost2010Prop39
140
1.0
102
RTVSPost2010PropOp39
 70
     1
102
RTVSPost2010Prop40
 90
        0
102
RTVSPost2010PropOp40
 70
     1
102
RTVSPost2010Prop41ColorIndex
 90
       18
102
RTVSPost2010Prop41ColorRGB
 90
        0
102
RTVSPost2010PropOp41
 70
     1
102
RTVSPost2010Prop42
 90
       50
102
RTVSPost2010PropOp42
 70
     1
102
RTVSPost2010Prop43
 90
        3
102
RTVSPost2010PropOp43
 70
     1
102
RTVSPost2010Prop44ColorIndex
 90
        5
102
RTVSPost2010Prop44ColorRGB
 90
      255
102
RTVSPost2010PropOp44
 70
     1
102
RTVSPost2010Prop45
280
     0
102
RTVSPost2010PropOp45
 70
     1
102
RTVSPost2010Prop46
 90
       50
102
RTVSPost2010PropOp46
 70
     1
102
RTVSPost2010Prop47
 90
       50
102
RTVSPost2010PropOp47
 70
     1
102
RTVSPost2010Prop48
 90
       50
102
RTVSPost2010PropOp48
 70
     1
102
RTVSPost2010Prop49
280
     0
102
RTVSPost2010PropOp49
 70
     1
102
RTVSPost2010Prop50
 90
       50
102
RTVSPost2010PropOp50
 70
     1
102
RTVSPost2010Prop51ColorIndex
 90
      256
102
RTVSPost2010Prop51ColorRGB
 90
-16777216
102
RTVSPost2010PropOp51
 70
     0
102
RTVSPost2010Prop52
140
1.0
102
RTVSPost2010PropOp52
 70
     0
102
RTVSPost2010Prop53
 90
        2
102
RTVSPost2010PropOp53
 70
     1
102
RTVSPost2010Prop54
  1
strokes_ogs.tif
102
RTVSPost2010PropOp54
 70
     1
102
RTVSPost2010Prop55
280
     0
102
RTVSPost2010PropOp55
 70
     1
102
RTVSPost2010Prop56
140
1.0
102
RTVSPost2010PropOp56
 70
     1
102
RTVSPost2010Prop57
140
1.0
102
RTVSPost2010PropOp57
 70
     1
102
RTVSPropertyOp0
 70
     1
102
RTVSPropertyOp1
 70
     1
102
RTVSPropertyOp2
 70
     1
102
RTVSPropertyOp3
 70
     1
102
RTVSPropertyOp4
 70
     1
102
RTVSPropertyOp5
 70
     1
102
RTVSPropertyOp6
 70
     1
102
RTVSPropertyOp7
 70
     1
102
RTVSPropertyOp8
 70
     1
102
RTVSPropertyOp9
 70
     1
102
RTVSPropertyOp10
 70
     1
102
RTVSPropertyOp11
 70
     1
102
RTVSPropertyOp12
 70
     1
102
RTVSPropertyOp13
 70
     1
102
RTVSPropertyOp14
 70
     1
102
RTVSPropertyOp15
 70
     1
102
RTVSPropertyOp16
 70
     1
102
RTVSPropertyOp17
 70
     1
102
RTVSPropertyOp18
 70
     1
102
RTVSPropertyOp19
 70
     1
102
RTVSPropertyOp20
 70
     1
102
RTVSPropertyOp21
 70
     1
102
RTVSPropertyOp22
 70
     1
102
RTVSPropertyOp23
 70
     1
102
RTVSPropertyOp24
 70
     1
102
RTVSPropertyOp25
 70
     1
102
RTVSPropertyOp26
 70
     1
102
RTVSPropertyOp27
 70
     1
102
RTVSPropertyOp28
 70
     1
102
RTVSPropertyOp29
 70
     1
102
RTVSPropertyOp30
 70
     1
102
RTVSPropertyOp31
 70
     1
102
RTVSPropertyOp32
 70
     1
102
RTVSPropertyOp33
 70
     1
102
RTVSPropertyOp34
 70
     1
102
RTVSPropertyOp35
 70
     1
102
RTVSPropertyOp36
 70
     1
102
RTVSPropertyOp37
 70
     1
102
RTVSPropertyOp38
 70
     1
102
RTVSPropertyOp39
 70
     1
102
RTVSPropertyOp40
 70
     1
102
RTVSPropertyOp41
 70
     1
102
RTVSPropertyOp42
 70
     1
102
RTVSPropertyOp43
 70
     1
102
RTVSPropertyOp44
 70
     1
102
RTVSPropertyOp45
 70
     1
102
RTVSPropertyOp46
 70
     1
102
RTVSPropertyOp47
 70
     1
102
RTVSPropertyOp48
 70
     1
102
RTVSPropertyOp49
 70
     1
102
RTVSPropertyOp50
 70
     1
102
RTVSPropertyOp51
 70
     0
102
RTVSPropertyOp52
 70
     0
102
RTVSPropertyOp53
 70
     1
102
RTVSPropertyOp54
 70
     1
102
RTVSPropertyOp55
 70
     1
102
RTVSPropertyOp56
 70
     1
102
RTVSPropertyOp57
 70
     1
102
RTVSPropertyOp58
 70
     1
102
RTVSPropertyOp59
 70
     1
102
RTVSPropertyOp60
 70
     1
102
RTVSPropertyOp61
 70
     1
102
RTVSPropertyOp62
 70
     1
  0
XRECORD
  5
14F3C
102
{ACAD_REACTORS
330
14F3B
102
}
330
14F3B
100
AcDbXrecord
280
     1
102
RTVSPost2010Prop28
280
     0
102
RTVSPost2010PropOp28
 70
     1
102
RTVSPost2010Prop29
280
     1
102
RTVSPost2010PropOp29
 70
     1
102
RTVSPost2010Prop30
280
     1
102
RTVSPost2010PropOp30
 70
     1
102
RTVSPost2010Prop31
280
     0
102
RTVSPost2010PropOp31
 70
     1
102
RTVSPost2010Prop32
280
     0
102
RTVSPost2010PropOp32
 70
     1
102
RTVSPost2010Prop33
280
     0
102
RTVSPost2010PropOp33
 70
     1
102
RTVSPost2010Prop34
280
     0
102
RTVSPost2010PropOp34
 70
     1
102
RTVSPost2010Prop35
280
     0
102
RTVSPost2010PropOp35
 70
     1
102
RTVSPost2010Prop36
280
     0
102
RTVSPost2010PropOp36
 70
     1
102
RTVSPost2010Prop37
 90
       50
102
RTVSPost2010PropOp37
 70
     1
102
RTVSPost2010Prop38
140
0.0
102
RTVSPost2010PropOp38
 70
     1
102
RTVSPost2010Prop39
140
1.0
102
RTVSPost2010PropOp39
 70
     1
102
RTVSPost2010Prop40
 90
        0
102
RTVSPost2010PropOp40
 70
     1
102
RTVSPost2010Prop41ColorIndex
 90
       18
102
RTVSPost2010Prop41ColorRGB
 90
        0
102
RTVSPost2010PropOp41
 70
     1
102
RTVSPost2010Prop42
 90
       50
102
RTVSPost2010PropOp42
 70
     1
102
RTVSPost2010Prop43
 90
        3
102
RTVSPost2010PropOp43
 70
     1
102
RTVSPost2010Prop44ColorIndex
 90
        5
102
RTVSPost2010Prop44ColorRGB
 90
      255
102
RTVSPost2010PropOp44
 70
     1
102
RTVSPost2010Prop45
280
     0
102
RTVSPost2010PropOp45
 70
     1
102
RTVSPost2010Prop46
 90
       50
102
RTVSPost2010PropOp46
 70
     1
102
RTVSPost2010Prop47
 90
       50
102
RTVSPost2010PropOp47
 70
     1
102
RTVSPost2010Prop48
 90
       50
102
RTVSPost2010PropOp48
 70
     1
102
RTVSPost2010Prop49
280
     0
102
RTVSPost2010PropOp49
 70
     1
102
RTVSPost2010Prop50
 90
       50
102
RTVSPost2010PropOp50
 70
     1
102
RTVSPost2010Prop51ColorIndex
 90
      256
102
RTVSPost2010Prop51ColorRGB
 90
-16777216
102
RTVSPost2010PropOp51
 70
     0
102
RTVSPost2010Prop52
140
1.0
102
RTVSPost2010PropOp52
 70
     0
102
RTVSPost2010Prop53
 90
        2
102
RTVSPost2010PropOp53
 70
     1
102
RTVSPost2010Prop54
  1
strokes_ogs.tif
102
RTVSPost2010PropOp54
 70
     1
102
RTVSPost2010Prop55
280
     0
102
RTVSPost2010PropOp55
 70
     1
102
RTVSPost2010Prop56
140
1.0
102
RTVSPost2010PropOp56
 70
     1
102
RTVSPost2010Prop57
140
1.0
102
RTVSPost2010PropOp57
 70
     1
102
RTVSPropertyOp0
 70
     1
102
RTVSPropertyOp1
 70
     1
102
RTVSPropertyOp2
 70
     1
102
RTVSPropertyOp3
 70
     1
102
RTVSPropertyOp4
 70
     1
102
RTVSPropertyOp5
 70
     1
102
RTVSPropertyOp6
 70
     1
102
RTVSPropertyOp7
 70
     1
102
RTVSPropertyOp8
 70
     1
102
RTVSPropertyOp9
 70
     1
102
RTVSPropertyOp10
 70
     1
102
RTVSPropertyOp11
 70
     1
102
RTVSPropertyOp12
 70
     1
102
RTVSPropertyOp13
 70
     1
102
RTVSPropertyOp14
 70
     1
102
RTVSPropertyOp15
 70
     1
102
RTVSPropertyOp16
 70
     1
102
RTVSPropertyOp17
 70
     1
102
RTVSPropertyOp18
 70
     1
102
RTVSPropertyOp19
 70
     1
102
RTVSPropertyOp20
 70
     1
102
RTVSPropertyOp21
 70
     1
102
RTVSPropertyOp22
 70
     1
102
RTVSPropertyOp23
 70
     1
102
RTVSPropertyOp24
 70
     1
102
RTVSPropertyOp25
 70
     1
102
RTVSPropertyOp26
 70
     1
102
RTVSPropertyOp27
 70
     1
102
RTVSPropertyOp28
 70
     1
102
RTVSPropertyOp29
 70
     1
102
RTVSPropertyOp30
 70
     1
102
RTVSPropertyOp31
 70
     1
102
RTVSPropertyOp32
 70
     1
102
RTVSPropertyOp33
 70
     1
102
RTVSPropertyOp34
 70
     1
102
RTVSPropertyOp35
 70
     1
102
RTVSPropertyOp36
 70
     1
102
RTVSPropertyOp37
 70
     1
102
RTVSPropertyOp38
 70
     1
102
RTVSPropertyOp39
 70
     1
102
RTVSPropertyOp40
 70
     1
102
RTVSPropertyOp41
 70
     1
102
RTVSPropertyOp42
 70
     1
102
RTVSPropertyOp43
 70
     1
102
RTVSPropertyOp44
 70
     1
102
RTVSPropertyOp45
 70
     1
102
RTVSPropertyOp46
 70
     1
102
RTVSPropertyOp47
 70
     1
102
RTVSPropertyOp48
 70
     1
102
RTVSPropertyOp49
 70
     1
102
RTVSPropertyOp50
 70
     1
102
RTVSPropertyOp51
 70
     0
102
RTVSPropertyOp52
 70
     0
102
RTVSPropertyOp53
 70
     1
102
RTVSPropertyOp54
 70
     1
102
RTVSPropertyOp55
 70
     1
102
RTVSPropertyOp56
 70
     1
102
RTVSPropertyOp57
 70
     1
102
RTVSPropertyOp58
 70
     1
102
RTVSPropertyOp59
 70
     1
102
RTVSPropertyOp60
 70
     1
102
RTVSPropertyOp61
 70
     1
102
RTVSPropertyOp62
 70
     1
  0
XRECORD
  5
14F4A
102
{ACAD_REACTORS
330
14F49
102
}
330
14F49
100
AcDbXrecord
280
     1
102
RTVSPost2010Prop28
280
     0
102
RTVSPost2010PropOp28
 70
     1
102
RTVSPost2010Prop29
280
     1
102
RTVSPost2010PropOp29
 70
     1
102
RTVSPost2010Prop30
280
     1
102
RTVSPost2010PropOp30
 70
     1
102
RTVSPost2010Prop31
280
     0
102
RTVSPost2010PropOp31
 70
     1
102
RTVSPost2010Prop32
280
     0
102
RTVSPost2010PropOp32
 70
     1
102
RTVSPost2010Prop33
280
     0
102
RTVSPost2010PropOp33
 70
     1
102
RTVSPost2010Prop34
280
     0
102
RTVSPost2010PropOp34
 70
     1
102
RTVSPost2010Prop35
280
     0
102
RTVSPost2010PropOp35
 70
     1
102
RTVSPost2010Prop36
280
     0
102
RTVSPost2010PropOp36
 70
     1
102
RTVSPost2010Prop37
 90
       50
102
RTVSPost2010PropOp37
 70
     1
102
RTVSPost2010Prop38
140
0.0
102
RTVSPost2010PropOp38
 70
     1
102
RTVSPost2010Prop39
140
1.0
102
RTVSPost2010PropOp39
 70
     1
102
RTVSPost2010Prop40
 90
        0
102
RTVSPost2010PropOp40
 70
     1
102
RTVSPost2010Prop41ColorIndex
 90
       18
102
RTVSPost2010Prop41ColorRGB
 90
        0
102
RTVSPost2010PropOp41
 70
     1
102
RTVSPost2010Prop42
 90
       50
102
RTVSPost2010PropOp42
 70
     1
102
RTVSPost2010Prop43
 90
        3
102
RTVSPost2010PropOp43
 70
     1
102
RTVSPost2010Prop44ColorIndex
 90
        5
102
RTVSPost2010Prop44ColorRGB
 90
      255
102
RTVSPost2010PropOp44
 70
     1
102
RTVSPost2010Prop45
280
     0
102
RTVSPost2010PropOp45
 70
     1
102
RTVSPost2010Prop46
 90
       50
102
RTVSPost2010PropOp46
 70
     1
102
RTVSPost2010Prop47
 90
       50
102
RTVSPost2010PropOp47
 70
     1
102
RTVSPost2010Prop48
 90
       50
102
RTVSPost2010PropOp48
 70
     1
102
RTVSPost2010Prop49
280
     0
102
RTVSPost2010PropOp49
 70
     1
102
RTVSPost2010Prop50
 90
       50
102
RTVSPost2010PropOp50
 70
     1
102
RTVSPost2010Prop51ColorIndex
 90
      256
102
RTVSPost2010Prop51ColorRGB
 90
-16777216
102
RTVSPost2010PropOp51
 70
     0
102
RTVSPost2010Prop52
140
1.0
102
RTVSPost2010PropOp52
 70
     0
102
RTVSPost2010Prop53
 90
        2
102
RTVSPost2010PropOp53
 70
     1
102
RTVSPost2010Prop54
  1
strokes_ogs.tif
102
RTVSPost2010PropOp54
 70
     1
102
RTVSPost2010Prop55
280
     0
102
RTVSPost2010PropOp55
 70
     1
102
RTVSPost2010Prop56
140
1.0
102
RTVSPost2010PropOp56
 70
     1
102
RTVSPost2010Prop57
140
1.0
102
RTVSPost2010PropOp57
 70
     1
102
RTVSPropertyOp0
 70
     1
102
RTVSPropertyOp1
 70
     1
102
RTVSPropertyOp2
 70
     1
102
RTVSPropertyOp3
 70
     1
102
RTVSPropertyOp4
 70
     1
102
RTVSPropertyOp5
 70
     1
102
RTVSPropertyOp6
 70
     1
102
RTVSPropertyOp7
 70
     1
102
RTVSPropertyOp8
 70
     1
102
RTVSPropertyOp9
 70
     1
102
RTVSPropertyOp10
 70
     1
102
RTVSPropertyOp11
 70
     1
102
RTVSPropertyOp12
 70
     1
102
RTVSPropertyOp13
 70
     1
102
RTVSPropertyOp14
 70
     1
102
RTVSPropertyOp15
 70
     1
102
RTVSPropertyOp16
 70
     1
102
RTVSPropertyOp17
 70
     1
102
RTVSPropertyOp18
 70
     1
102
RTVSPropertyOp19
 70
     1
102
RTVSPropertyOp20
 70
     1
102
RTVSPropertyOp21
 70
     1
102
RTVSPropertyOp22
 70
     1
102
RTVSPropertyOp23
 70
     1
102
RTVSPropertyOp24
 70
     1
102
RTVSPropertyOp25
 70
     1
102
RTVSPropertyOp26
 70
     1
102
RTVSPropertyOp27
 70
     1
102
RTVSPropertyOp28
 70
     1
102
RTVSPropertyOp29
 70
     1
102
RTVSPropertyOp30
 70
     1
102
RTVSPropertyOp31
 70
     1
102
RTVSPropertyOp32
 70
     1
102
RTVSPropertyOp33
 70
     1
102
RTVSPropertyOp34
 70
     1
102
RTVSPropertyOp35
 70
     1
102
RTVSPropertyOp36
 70
     1
102
RTVSPropertyOp37
 70
     1
102
RTVSPropertyOp38
 70
     1
102
RTVSPropertyOp39
 70
     1
102
RTVSPropertyOp40
 70
     1
102
RTVSPropertyOp41
 70
     1
102
RTVSPropertyOp42
 70
     1
102
RTVSPropertyOp43
 70
     1
102
RTVSPropertyOp44
 70
     1
102
RTVSPropertyOp45
 70
     1
102
RTVSPropertyOp46
 70
     1
102
RTVSPropertyOp47
 70
     1
102
RTVSPropertyOp48
 70
     1
102
RTVSPropertyOp49
 70
     1
102
RTVSPropertyOp50
 70
     1
102
RTVSPropertyOp51
 70
     0
102
RTVSPropertyOp52
 70
     0
102
RTVSPropertyOp53
 70
     1
102
RTVSPropertyOp54
 70
     1
102
RTVSPropertyOp55
 70
     1
102
RTVSPropertyOp56
 70
     1
102
RTVSPropertyOp57
 70
     1
102
RTVSPropertyOp58
 70
     1
102
RTVSPropertyOp59
 70
     1
102
RTVSPropertyOp60
 70
     1
102
RTVSPropertyOp61
 70
     1
102
RTVSPropertyOp62
 70
     1
  0
XRECORD
  5
14F52
102
{ACAD_REACTORS
330
14F51
102
}
330
14F51
100
AcDbXrecord
280
     1
102
RTVSPost2010Prop28
280
     0
102
RTVSPost2010PropOp28
 70
     1
102
RTVSPost2010Prop29
280
     1
102
RTVSPost2010PropOp29
 70
     1
102
RTVSPost2010Prop30
280
     1
102
RTVSPost2010PropOp30
 70
     1
102
RTVSPost2010Prop31
280
     0
102
RTVSPost2010PropOp31
 70
     1
102
RTVSPost2010Prop32
280
     0
102
RTVSPost2010PropOp32
 70
     1
102
RTVSPost2010Prop33
280
     0
102
RTVSPost2010PropOp33
 70
     1
102
RTVSPost2010Prop34
280
     0
102
RTVSPost2010PropOp34
 70
     1
102
RTVSPost2010Prop35
280
     0
102
RTVSPost2010PropOp35
 70
     1
102
RTVSPost2010Prop36
280
     0
102
RTVSPost2010PropOp36
 70
     1
102
RTVSPost2010Prop37
 90
       50
102
RTVSPost2010PropOp37
 70
     1
102
RTVSPost2010Prop38
140
0.0
102
RTVSPost2010PropOp38
 70
     1
102
RTVSPost2010Prop39
140
1.0
102
RTVSPost2010PropOp39
 70
     1
102
RTVSPost2010Prop40
 90
        0
102
RTVSPost2010PropOp40
 70
     1
102
RTVSPost2010Prop41ColorIndex
 90
       18
102
RTVSPost2010Prop41ColorRGB
 90
        0
102
RTVSPost2010PropOp41
 70
     1
102
RTVSPost2010Prop42
 90
       50
102
RTVSPost2010PropOp42
 70
     1
102
RTVSPost2010Prop43
 90
        3
102
RTVSPost2010PropOp43
 70
     1
102
RTVSPost2010Prop44ColorIndex
 90
        5
102
RTVSPost2010Prop44ColorRGB
 90
      255
102
RTVSPost2010PropOp44
 70
     1
102
RTVSPost2010Prop45
280
     0
102
RTVSPost2010PropOp45
 70
     1
102
RTVSPost2010Prop46
 90
       50
102
RTVSPost2010PropOp46
 70
     1
102
RTVSPost2010Prop47
 90
       50
102
RTVSPost2010PropOp47
 70
     1
102
RTVSPost2010Prop48
 90
       50
102
RTVSPost2010PropOp48
 70
     1
102
RTVSPost2010Prop49
280
     0
102
RTVSPost2010PropOp49
 70
     1
102
RTVSPost2010Prop50
 90
       50
102
RTVSPost2010PropOp50
 70
     1
102
RTVSPost2010Prop51ColorIndex
 90
      256
102
RTVSPost2010Prop51ColorRGB
 90
-16777216
102
RTVSPost2010PropOp51
 70
     0
102
RTVSPost2010Prop52
140
1.0
102
RTVSPost2010PropOp52
 70
     0
102
RTVSPost2010Prop53
 90
        2
102
RTVSPost2010PropOp53
 70
     1
102
RTVSPost2010Prop54
  1
strokes_ogs.tif
102
RTVSPost2010PropOp54
 70
     1
102
RTVSPost2010Prop55
280
     0
102
RTVSPost2010PropOp55
 70
     1
102
RTVSPost2010Prop56
140
1.0
102
RTVSPost2010PropOp56
 70
     1
102
RTVSPost2010Prop57
140
1.0
102
RTVSPost2010PropOp57
 70
     1
102
RTVSPropertyOp0
 70
     1
102
RTVSPropertyOp1
 70
     1
102
RTVSPropertyOp2
 70
     1
102
RTVSPropertyOp3
 70
     1
102
RTVSPropertyOp4
 70
     1
102
RTVSPropertyOp5
 70
     1
102
RTVSPropertyOp6
 70
     1
102
RTVSPropertyOp7
 70
     1
102
RTVSPropertyOp8
 70
     1
102
RTVSPropertyOp9
 70
     1
102
RTVSPropertyOp10
 70
     1
102
RTVSPropertyOp11
 70
     1
102
RTVSPropertyOp12
 70
     1
102
RTVSPropertyOp13
 70
     1
102
RTVSPropertyOp14
 70
     1
102
RTVSPropertyOp15
 70
     1
102
RTVSPropertyOp16
 70
     1
102
RTVSPropertyOp17
 70
     1
102
RTVSPropertyOp18
 70
     1
102
RTVSPropertyOp19
 70
     1
102
RTVSPropertyOp20
 70
     1
102
RTVSPropertyOp21
 70
     1
102
RTVSPropertyOp22
 70
     1
102
RTVSPropertyOp23
 70
     1
102
RTVSPropertyOp24
 70
     1
102
RTVSPropertyOp25
 70
     1
102
RTVSPropertyOp26
 70
     1
102
RTVSPropertyOp27
 70
     1
102
RTVSPropertyOp28
 70
     1
102
RTVSPropertyOp29
 70
     1
102
RTVSPropertyOp30
 70
     1
102
RTVSPropertyOp31
 70
     1
102
RTVSPropertyOp32
 70
     1
102
RTVSPropertyOp33
 70
     1
102
RTVSPropertyOp34
 70
     1
102
RTVSPropertyOp35
 70
     1
102
RTVSPropertyOp36
 70
     1
102
RTVSPropertyOp37
 70
     1
102
RTVSPropertyOp38
 70
     1
102
RTVSPropertyOp39
 70
     1
102
RTVSPropertyOp40
 70
     1
102
RTVSPropertyOp41
 70
     1
102
RTVSPropertyOp42
 70
     1
102
RTVSPropertyOp43
 70
     1
102
RTVSPropertyOp44
 70
     1
102
RTVSPropertyOp45
 70
     1
102
RTVSPropertyOp46
 70
     1
102
RTVSPropertyOp47
 70
     1
102
RTVSPropertyOp48
 70
     1
102
RTVSPropertyOp49
 70
     1
102
RTVSPropertyOp50
 70
     1
102
RTVSPropertyOp51
 70
     0
102
RTVSPropertyOp52
 70
     0
102
RTVSPropertyOp53
 70
     1
102
RTVSPropertyOp54
 70
     1
102
RTVSPropertyOp55
 70
     1
102
RTVSPropertyOp56
 70
     1
102
RTVSPropertyOp57
 70
     1
102
RTVSPropertyOp58
 70
     1
102
RTVSPropertyOp59
 70
     1
102
RTVSPropertyOp60
 70
     1
102
RTVSPropertyOp61
 70
     1
102
RTVSPropertyOp62
 70
     1
  0
XRECORD
  5
14F44
102
{ACAD_REACTORS
330
14F43
102
}
330
14F43
100
AcDbXrecord
280
     1
102
RTVSPost2010Prop28
280
     0
102
RTVSPost2010PropOp28
 70
     1
102
RTVSPost2010Prop29
280
     1
102
RTVSPost2010PropOp29
 70
     1
102
RTVSPost2010Prop30
280
     1
102
RTVSPost2010PropOp30
 70
     1
102
RTVSPost2010Prop31
280
     0
102
RTVSPost2010PropOp31
 70
     1
102
RTVSPost2010Prop32
280
     0
102
RTVSPost2010PropOp32
 70
     1
102
RTVSPost2010Prop33
280
     0
102
RTVSPost2010PropOp33
 70
     1
102
RTVSPost2010Prop34
280
     0
102
RTVSPost2010PropOp34
 70
     1
102
RTVSPost2010Prop35
280
     0
102
RTVSPost2010PropOp35
 70
     1
102
RTVSPost2010Prop36
280
     0
102
RTVSPost2010PropOp36
 70
     1
102
RTVSPost2010Prop37
 90
       50
102
RTVSPost2010PropOp37
 70
     1
102
RTVSPost2010Prop38
140
0.0
102
RTVSPost2010PropOp38
 70
     1
102
RTVSPost2010Prop39
140
1.0
102
RTVSPost2010PropOp39
 70
     1
102
RTVSPost2010Prop40
 90
        0
102
RTVSPost2010PropOp40
 70
     1
102
RTVSPost2010Prop41ColorIndex
 90
       18
102
RTVSPost2010Prop41ColorRGB
 90
        0
102
RTVSPost2010PropOp41
 70
     1
102
RTVSPost2010Prop42
 90
       50
102
RTVSPost2010PropOp42
 70
     1
102
RTVSPost2010Prop43
 90
        3
102
RTVSPost2010PropOp43
 70
     1
102
RTVSPost2010Prop44ColorIndex
 90
        5
102
RTVSPost2010Prop44ColorRGB
 90
      255
102
RTVSPost2010PropOp44
 70
     1
102
RTVSPost2010Prop45
280
     0
102
RTVSPost2010PropOp45
 70
     1
102
RTVSPost2010Prop46
 90
       50
102
RTVSPost2010PropOp46
 70
     1
102
RTVSPost2010Prop47
 90
       50
102
RTVSPost2010PropOp47
 70
     1
102
RTVSPost2010Prop48
 90
       50
102
RTVSPost2010PropOp48
 70
     1
102
RTVSPost2010Prop49
280
     0
102
RTVSPost2010PropOp49
 70
     1
102
RTVSPost2010Prop50
 90
       50
102
RTVSPost2010PropOp50
 70
     1
102
RTVSPost2010Prop51ColorIndex
 90
      256
102
RTVSPost2010Prop51ColorRGB
 90
-16777216
102
RTVSPost2010PropOp51
 70
     0
102
RTVSPost2010Prop52
140
1.0
102
RTVSPost2010PropOp52
 70
     0
102
RTVSPost2010Prop53
 90
        2
102
RTVSPost2010PropOp53
 70
     1
102
RTVSPost2010Prop54
  1
strokes_ogs.tif
102
RTVSPost2010PropOp54
 70
     1
102
RTVSPost2010Prop55
280
     0
102
RTVSPost2010PropOp55
 70
     1
102
RTVSPost2010Prop56
140
1.0
102
RTVSPost2010PropOp56
 70
     1
102
RTVSPost2010Prop57
140
1.0
102
RTVSPost2010PropOp57
 70
     1
102
RTVSPropertyOp0
 70
     1
102
RTVSPropertyOp1
 70
     1
102
RTVSPropertyOp2
 70
     1
102
RTVSPropertyOp3
 70
     1
102
RTVSPropertyOp4
 70
     1
102
RTVSPropertyOp5
 70
     1
102
RTVSPropertyOp6
 70
     1
102
RTVSPropertyOp7
 70
     1
102
RTVSPropertyOp8
 70
     1
102
RTVSPropertyOp9
 70
     1
102
RTVSPropertyOp10
 70
     1
102
RTVSPropertyOp11
 70
     1
102
RTVSPropertyOp12
 70
     1
102
RTVSPropertyOp13
 70
     1
102
RTVSPropertyOp14
 70
     1
102
RTVSPropertyOp15
 70
     1
102
RTVSPropertyOp16
 70
     1
102
RTVSPropertyOp17
 70
     1
102
RTVSPropertyOp18
 70
     1
102
RTVSPropertyOp19
 70
     1
102
RTVSPropertyOp20
 70
     1
102
RTVSPropertyOp21
 70
     1
102
RTVSPropertyOp22
 70
     1
102
RTVSPropertyOp23
 70
     1
102
RTVSPropertyOp24
 70
     1
102
RTVSPropertyOp25
 70
     1
102
RTVSPropertyOp26
 70
     1
102
RTVSPropertyOp27
 70
     1
102
RTVSPropertyOp28
 70
     1
102
RTVSPropertyOp29
 70
     1
102
RTVSPropertyOp30
 70
     1
102
RTVSPropertyOp31
 70
     1
102
RTVSPropertyOp32
 70
     1
102
RTVSPropertyOp33
 70
     1
102
RTVSPropertyOp34
 70
     1
102
RTVSPropertyOp35
 70
     1
102
RTVSPropertyOp36
 70
     1
102
RTVSPropertyOp37
 70
     1
102
RTVSPropertyOp38
 70
     1
102
RTVSPropertyOp39
 70
     1
102
RTVSPropertyOp40
 70
     1
102
RTVSPropertyOp41
 70
     1
102
RTVSPropertyOp42
 70
     1
102
RTVSPropertyOp43
 70
     1
102
RTVSPropertyOp44
 70
     1
102
RTVSPropertyOp45
 70
     1
102
RTVSPropertyOp46
 70
     1
102
RTVSPropertyOp47
 70
     1
102
RTVSPropertyOp48
 70
     1
102
RTVSPropertyOp49
 70
     1
102
RTVSPropertyOp50
 70
     1
102
RTVSPropertyOp51
 70
     0
102
RTVSPropertyOp52
 70
     0
102
RTVSPropertyOp53
 70
     1
102
RTVSPropertyOp54
 70
     1
102
RTVSPropertyOp55
 70
     1
102
RTVSPropertyOp56
 70
     1
102
RTVSPropertyOp57
 70
     1
102
RTVSPropertyOp58
 70
     1
102
RTVSPropertyOp59
 70
     1
102
RTVSPropertyOp60
 70
     1
102
RTVSPropertyOp61
 70
     1
102
RTVSPropertyOp62
 70
     1
  0
XRECORD
  5
14F48
102
{ACAD_REACTORS
330
14F47
102
}
330
14F47
100
AcDbXrecord
280
     1
102
RTVSPost2010Prop28
280
     0
102
RTVSPost2010PropOp28
 70
     1
102
RTVSPost2010Prop29
280
     1
102
RTVSPost2010PropOp29
 70
     1
102
RTVSPost2010Prop30
280
     1
102
RTVSPost2010PropOp30
 70
     1
102
RTVSPost2010Prop31
280
     0
102
RTVSPost2010PropOp31
 70
     1
102
RTVSPost2010Prop32
280
     0
102
RTVSPost2010PropOp32
 70
     1
102
RTVSPost2010Prop33
280
     0
102
RTVSPost2010PropOp33
 70
     1
102
RTVSPost2010Prop34
280
     0
102
RTVSPost2010PropOp34
 70
     1
102
RTVSPost2010Prop35
280
     0
102
RTVSPost2010PropOp35
 70
     1
102
RTVSPost2010Prop36
280
     0
102
RTVSPost2010PropOp36
 70
     1
102
RTVSPost2010Prop37
 90
       50
102
RTVSPost2010PropOp37
 70
     1
102
RTVSPost2010Prop38
140
0.0
102
RTVSPost2010PropOp38
 70
     1
102
RTVSPost2010Prop39
140
1.0
102
RTVSPost2010PropOp39
 70
     1
102
RTVSPost2010Prop40
 90
        0
102
RTVSPost2010PropOp40
 70
     1
102
RTVSPost2010Prop41ColorIndex
 90
       18
102
RTVSPost2010Prop41ColorRGB
 90
        0
102
RTVSPost2010PropOp41
 70
     1
102
RTVSPost2010Prop42
 90
       50
102
RTVSPost2010PropOp42
 70
     1
102
RTVSPost2010Prop43
 90
        3
102
RTVSPost2010PropOp43
 70
     1
102
RTVSPost2010Prop44ColorIndex
 90
        5
102
RTVSPost2010Prop44ColorRGB
 90
      255
102
RTVSPost2010PropOp44
 70
     1
102
RTVSPost2010Prop45
280
     0
102
RTVSPost2010PropOp45
 70
     1
102
RTVSPost2010Prop46
 90
       50
102
RTVSPost2010PropOp46
 70
     1
102
RTVSPost2010Prop47
 90
       50
102
RTVSPost2010PropOp47
 70
     1
102
RTVSPost2010Prop48
 90
       50
102
RTVSPost2010PropOp48
 70
     1
102
RTVSPost2010Prop49
280
     0
102
RTVSPost2010PropOp49
 70
     1
102
RTVSPost2010Prop50
 90
       50
102
RTVSPost2010PropOp50
 70
     1
102
RTVSPost2010Prop51ColorIndex
 90
      256
102
RTVSPost2010Prop51ColorRGB
 90
-16777216
102
RTVSPost2010PropOp51
 70
     0
102
RTVSPost2010Prop52
140
1.0
102
RTVSPost2010PropOp52
 70
     0
102
RTVSPost2010Prop53
 90
        2
102
RTVSPost2010PropOp53
 70
     1
102
RTVSPost2010Prop54
  1
strokes_ogs.tif
102
RTVSPost2010PropOp54
 70
     1
102
RTVSPost2010Prop55
280
     0
102
RTVSPost2010PropOp55
 70
     1
102
RTVSPost2010Prop56
140
1.0
102
RTVSPost2010PropOp56
 70
     1
102
RTVSPost2010Prop57
140
1.0
102
RTVSPost2010PropOp57
 70
     1
102
RTVSPropertyOp0
 70
     1
102
RTVSPropertyOp1
 70
     1
102
RTVSPropertyOp2
 70
     1
102
RTVSPropertyOp3
 70
     1
102
RTVSPropertyOp4
 70
     1
102
RTVSPropertyOp5
 70
     1
102
RTVSPropertyOp6
 70
     1
102
RTVSPropertyOp7
 70
     1
102
RTVSPropertyOp8
 70
     1
102
RTVSPropertyOp9
 70
     1
102
RTVSPropertyOp10
 70
     1
102
RTVSPropertyOp11
 70
     1
102
RTVSPropertyOp12
 70
     1
102
RTVSPropertyOp13
 70
     1
102
RTVSPropertyOp14
 70
     1
102
RTVSPropertyOp15
 70
     1
102
RTVSPropertyOp16
 70
     1
102
RTVSPropertyOp17
 70
     1
102
RTVSPropertyOp18
 70
     1
102
RTVSPropertyOp19
 70
     1
102
RTVSPropertyOp20
 70
     1
102
RTVSPropertyOp21
 70
     1
102
RTVSPropertyOp22
 70
     1
102
RTVSPropertyOp23
 70
     1
102
RTVSPropertyOp24
 70
     1
102
RTVSPropertyOp25
 70
     1
102
RTVSPropertyOp26
 70
     1
102
RTVSPropertyOp27
 70
     1
102
RTVSPropertyOp28
 70
     1
102
RTVSPropertyOp29
 70
     1
102
RTVSPropertyOp30
 70
     1
102
RTVSPropertyOp31
 70
     1
102
RTVSPropertyOp32
 70
     1
102
RTVSPropertyOp33
 70
     1
102
RTVSPropertyOp34
 70
     1
102
RTVSPropertyOp35
 70
     1
102
RTVSPropertyOp36
 70
     1
102
RTVSPropertyOp37
 70
     1
102
RTVSPropertyOp38
 70
     1
102
RTVSPropertyOp39
 70
     1
102
RTVSPropertyOp40
 70
     1
102
RTVSPropertyOp41
 70
     1
102
RTVSPropertyOp42
 70
     1
102
RTVSPropertyOp43
 70
     1
102
RTVSPropertyOp44
 70
     1
102
RTVSPropertyOp45
 70
     1
102
RTVSPropertyOp46
 70
     1
102
RTVSPropertyOp47
 70
     1
102
RTVSPropertyOp48
 70
     1
102
RTVSPropertyOp49
 70
     1
102
RTVSPropertyOp50
 70
     1
102
RTVSPropertyOp51
 70
     0
102
RTVSPropertyOp52
 70
     0
102
RTVSPropertyOp53
 70
     1
102
RTVSPropertyOp54
 70
     1
102
RTVSPropertyOp55
 70
     1
102
RTVSPropertyOp56
 70
     1
102
RTVSPropertyOp57
 70
     1
102
RTVSPropertyOp58
 70
     1
102
RTVSPropertyOp59
 70
     1
102
RTVSPropertyOp60
 70
     1
102
RTVSPropertyOp61
 70
     1
102
RTVSPropertyOp62
 70
     1
  0
XRECORD
  5
14F62
102
{ACAD_REACTORS
330
14F61
102
}
330
14F61
100
AcDbXrecord
280
     1
102
RTVSPost2010Prop28
280
     0
102
RTVSPost2010PropOp28
 70
     1
102
RTVSPost2010Prop29
280
     1
102
RTVSPost2010PropOp29
 70
     1
102
RTVSPost2010Prop30
280
     1
102
RTVSPost2010PropOp30
 70
     1
102
RTVSPost2010Prop31
280
     0
102
RTVSPost2010PropOp31
 70
     1
102
RTVSPost2010Prop32
280
     0
102
RTVSPost2010PropOp32
 70
     1
102
RTVSPost2010Prop33
280
     0
102
RTVSPost2010PropOp33
 70
     1
102
RTVSPost2010Prop34
280
     0
102
RTVSPost2010PropOp34
 70
     1
102
RTVSPost2010Prop35
280
     0
102
RTVSPost2010PropOp35
 70
     1
102
RTVSPost2010Prop36
280
     0
102
RTVSPost2010PropOp36
 70
     1
102
RTVSPost2010Prop37
 90
       50
102
RTVSPost2010PropOp37
 70
     0
102
RTVSPost2010Prop38
140
0.0
102
RTVSPost2010PropOp38
 70
     0
102
RTVSPost2010Prop39
140
1.0
102
RTVSPost2010PropOp39
 70
     0
102
RTVSPost2010Prop40
 90
        0
102
RTVSPost2010PropOp40
 70
     0
102
RTVSPost2010Prop41ColorIndex
 90
       18
102
RTVSPost2010Prop41ColorRGB
 90
        0
102
RTVSPost2010PropOp41
 70
     0
102
RTVSPost2010Prop42
 90
       50
102
RTVSPost2010PropOp42
 70
     0
102
RTVSPost2010Prop43
 90
        3
102
RTVSPost2010PropOp43
 70
     0
102
RTVSPost2010Prop44ColorIndex
 90
        5
102
RTVSPost2010Prop44ColorRGB
 90
      255
102
RTVSPost2010PropOp44
 70
     0
102
RTVSPost2010Prop45
280
     0
102
RTVSPost2010PropOp45
 70
     1
102
RTVSPost2010Prop46
 90
       50
102
RTVSPost2010PropOp46
 70
     0
102
RTVSPost2010Prop47
 90
       50
102
RTVSPost2010PropOp47
 70
     0
102
RTVSPost2010Prop48
 90
       50
102
RTVSPost2010PropOp48
 70
     0
102
RTVSPost2010Prop49
280
     0
102
RTVSPost2010PropOp49
 70
     1
102
RTVSPost2010Prop50
 90
       50
102
RTVSPost2010PropOp50
 70
     0
102
RTVSPost2010Prop51ColorIndex
 90
      256
102
RTVSPost2010Prop51ColorRGB
 90
-16777216
102
RTVSPost2010PropOp51
 70
     0
102
RTVSPost2010Prop52
140
1.0
102
RTVSPost2010PropOp52
 70
     0
102
RTVSPost2010Prop53
 90
        2
102
RTVSPost2010PropOp53
 70
     0
102
RTVSPost2010Prop54
  1
strokes_ogs.tif
102
RTVSPost2010PropOp54
 70
     0
102
RTVSPost2010Prop55
280
     0
102
RTVSPost2010PropOp55
 70
     1
102
RTVSPost2010Prop56
140
1.0
102
RTVSPost2010PropOp56
 70
     0
102
RTVSPost2010Prop57
140
1.0
102
RTVSPost2010PropOp57
 70
     0
102
RTVSPropertyOp0
 70
     0
102
RTVSPropertyOp1
 70
     0
102
RTVSPropertyOp2
 70
     0
102
RTVSPropertyOp3
 70
     0
102
RTVSPropertyOp4
 70
     0
102
RTVSPropertyOp5
 70
     0
102
RTVSPropertyOp6
 70
     0
102
RTVSPropertyOp7
 70
     0
102
RTVSPropertyOp8
 70
     0
102
RTVSPropertyOp9
 70
     0
102
RTVSPropertyOp10
 70
     0
102
RTVSPropertyOp11
 70
     0
102
RTVSPropertyOp12
 70
     0
102
RTVSPropertyOp13
 70
     0
102
RTVSPropertyOp14
 70
     2
102
RTVSPropertyOp15
 70
     0
102
RTVSPropertyOp16
 70
     0
102
RTVSPropertyOp17
 70
     0
102
RTVSPropertyOp18
 70
     0
102
RTVSPropertyOp19
 70
     0
102
RTVSPropertyOp20
 70
     0
102
RTVSPropertyOp21
 70
     0
102
RTVSPropertyOp22
 70
     0
102
RTVSPropertyOp23
 70
     0
102
RTVSPropertyOp24
 70
     0
102
RTVSPropertyOp25
 70
     0
102
RTVSPropertyOp26
 70
     0
102
RTVSPropertyOp27
 70
     0
102
RTVSPropertyOp28
 70
     1
102
RTVSPropertyOp29
 70
     1
102
RTVSPropertyOp30
 70
     1
102
RTVSPropertyOp31
 70
     1
102
RTVSPropertyOp32
 70
     1
102
RTVSPropertyOp33
 70
     1
102
RTVSPropertyOp34
 70
     1
102
RTVSPropertyOp35
 70
     1
102
RTVSPropertyOp36
 70
     1
102
RTVSPropertyOp37
 70
     0
102
RTVSPropertyOp38
 70
     0
102
RTVSPropertyOp39
 70
     0
102
RTVSPropertyOp40
 70
     0
102
RTVSPropertyOp41
 70
     0
102
RTVSPropertyOp42
 70
     0
102
RTVSPropertyOp43
 70
     0
102
RTVSPropertyOp44
 70
     0
102
RTVSPropertyOp45
 70
     1
102
RTVSPropertyOp46
 70
     0
102
RTVSPropertyOp47
 70
     0
102
RTVSPropertyOp48
 70
     0
102
RTVSPropertyOp49
 70
     1
102
RTVSPropertyOp50
 70
     0
102
RTVSPropertyOp51
 70
     0
102
RTVSPropertyOp52
 70
     0
102
RTVSPropertyOp53
 70
     0
102
RTVSPropertyOp54
 70
     0
102
RTVSPropertyOp55
 70
     1
102
RTVSPropertyOp56
 70
     0
102
RTVSPropertyOp57
 70
     0
102
RTVSPropertyOp58
 70
     0
102
RTVSPropertyOp59
 70
     0
102
RTVSPropertyOp60
 70
     0
102
RTVSPropertyOp61
 70
     0
102
RTVSPropertyOp62
 70
     0
  0
XRECORD
  5
14F50
102
{ACAD_REACTORS
330
14F4F
102
}
330
14F4F
100
AcDbXrecord
280
     1
102
RTVSPost2010Prop28
280
     0
102
RTVSPost2010PropOp28
 70
     1
102
RTVSPost2010Prop29
280
     1
102
RTVSPost2010PropOp29
 70
     1
102
RTVSPost2010Prop30
280
     1
102
RTVSPost2010PropOp30
 70
     1
102
RTVSPost2010Prop31
280
     0
102
RTVSPost2010PropOp31
 70
     1
102
RTVSPost2010Prop32
280
     0
102
RTVSPost2010PropOp32
 70
     1
102
RTVSPost2010Prop33
280
     0
102
RTVSPost2010PropOp33
 70
     1
102
RTVSPost2010Prop34
280
     0
102
RTVSPost2010PropOp34
 70
     1
102
RTVSPost2010Prop35
280
     0
102
RTVSPost2010PropOp35
 70
     1
102
RTVSPost2010Prop36
280
     0
102
RTVSPost2010PropOp36
 70
     1
102
RTVSPost2010Prop37
 90
       50
102
RTVSPost2010PropOp37
 70
     1
102
RTVSPost2010Prop38
140
0.0
102
RTVSPost2010PropOp38
 70
     1
102
RTVSPost2010Prop39
140
1.0
102
RTVSPost2010PropOp39
 70
     1
102
RTVSPost2010Prop40
 90
        0
102
RTVSPost2010PropOp40
 70
     1
102
RTVSPost2010Prop41ColorIndex
 90
       18
102
RTVSPost2010Prop41ColorRGB
 90
        0
102
RTVSPost2010PropOp41
 70
     1
102
RTVSPost2010Prop42
 90
       50
102
RTVSPost2010PropOp42
 70
     1
102
RTVSPost2010Prop43
 90
        3
102
RTVSPost2010PropOp43
 70
     1
102
RTVSPost2010Prop44ColorIndex
 90
        5
102
RTVSPost2010Prop44ColorRGB
 90
      255
102
RTVSPost2010PropOp44
 70
     1
102
RTVSPost2010Prop45
280
     0
102
RTVSPost2010PropOp45
 70
     1
102
RTVSPost2010Prop46
 90
       50
102
RTVSPost2010PropOp46
 70
     1
102
RTVSPost2010Prop47
 90
       50
102
RTVSPost2010PropOp47
 70
     1
102
RTVSPost2010Prop48
 90
       50
102
RTVSPost2010PropOp48
 70
     1
102
RTVSPost2010Prop49
280
     0
102
RTVSPost2010PropOp49
 70
     1
102
RTVSPost2010Prop50
 90
       50
102
RTVSPost2010PropOp50
 70
     1
102
RTVSPost2010Prop51ColorIndex
 90
      256
102
RTVSPost2010Prop51ColorRGB
 90
-16777216
102
RTVSPost2010PropOp51
 70
     0
102
RTVSPost2010Prop52
140
1.0
102
RTVSPost2010PropOp52
 70
     0
102
RTVSPost2010Prop53
 90
        2
102
RTVSPost2010PropOp53
 70
     1
102
RTVSPost2010Prop54
  1
strokes_ogs.tif
102
RTVSPost2010PropOp54
 70
     1
102
RTVSPost2010Prop55
280
     0
102
RTVSPost2010PropOp55
 70
     1
102
RTVSPost2010Prop56
140
1.0
102
RTVSPost2010PropOp56
 70
     1
102
RTVSPost2010Prop57
140
1.0
102
RTVSPost2010PropOp57
 70
     1
102
RTVSPropertyOp0
 70
     1
102
RTVSPropertyOp1
 70
     1
102
RTVSPropertyOp2
 70
     1
102
RTVSPropertyOp3
 70
     1
102
RTVSPropertyOp4
 70
     1
102
RTVSPropertyOp5
 70
     1
102
RTVSPropertyOp6
 70
     1
102
RTVSPropertyOp7
 70
     1
102
RTVSPropertyOp8
 70
     1
102
RTVSPropertyOp9
 70
     1
102
RTVSPropertyOp10
 70
     1
102
RTVSPropertyOp11
 70
     1
102
RTVSPropertyOp12
 70
     1
102
RTVSPropertyOp13
 70
     1
102
RTVSPropertyOp14
 70
     1
102
RTVSPropertyOp15
 70
     1
102
RTVSPropertyOp16
 70
     1
102
RTVSPropertyOp17
 70
     1
102
RTVSPropertyOp18
 70
     1
102
RTVSPropertyOp19
 70
     1
102
RTVSPropertyOp20
 70
     1
102
RTVSPropertyOp21
 70
     1
102
RTVSPropertyOp22
 70
     1
102
RTVSPropertyOp23
 70
     1
102
RTVSPropertyOp24
 70
     1
102
RTVSPropertyOp25
 70
     1
102
RTVSPropertyOp26
 70
     1
102
RTVSPropertyOp27
 70
     1
102
RTVSPropertyOp28
 70
     1
102
RTVSPropertyOp29
 70
     1
102
RTVSPropertyOp30
 70
     1
102
RTVSPropertyOp31
 70
     1
102
RTVSPropertyOp32
 70
     1
102
RTVSPropertyOp33
 70
     1
102
RTVSPropertyOp34
 70
     1
102
RTVSPropertyOp35
 70
     1
102
RTVSPropertyOp36
 70
     1
102
RTVSPropertyOp37
 70
     1
102
RTVSPropertyOp38
 70
     1
102
RTVSPropertyOp39
 70
     1
102
RTVSPropertyOp40
 70
     1
102
RTVSPropertyOp41
 70
     1
102
RTVSPropertyOp42
 70
     1
102
RTVSPropertyOp43
 70
     1
102
RTVSPropertyOp44
 70
     1
102
RTVSPropertyOp45
 70
     1
102
RTVSPropertyOp46
 70
     1
102
RTVSPropertyOp47
 70
     1
102
RTVSPropertyOp48
 70
     1
102
RTVSPropertyOp49
 70
     1
102
RTVSPropertyOp50
 70
     1
102
RTVSPropertyOp51
 70
     0
102
RTVSPropertyOp52
 70
     0
102
RTVSPropertyOp53
 70
     1
102
RTVSPropertyOp54
 70
     1
102
RTVSPropertyOp55
 70
     1
102
RTVSPropertyOp56
 70
     1
102
RTVSPropertyOp57
 70
     1
102
RTVSPropertyOp58
 70
     1
102
RTVSPropertyOp59
 70
     1
102
RTVSPropertyOp60
 70
     1
102
RTVSPropertyOp61
 70
     1
102
RTVSPropertyOp62
 70
     1
  0
XRECORD
  5
14F34
102
{ACAD_REACTORS
330
14F33
102
}
330
14F33
100
AcDbXrecord
280
     1
102
RTVSPost2010Prop28
280
     0
102
RTVSPost2010PropOp28
 70
     1
102
RTVSPost2010Prop29
280
     1
102
RTVSPost2010PropOp29
 70
     1
102
RTVSPost2010Prop30
280
     1
102
RTVSPost2010PropOp30
 70
     1
102
RTVSPost2010Prop31
280
     0
102
RTVSPost2010PropOp31
 70
     1
102
RTVSPost2010Prop32
280
     0
102
RTVSPost2010PropOp32
 70
     1
102
RTVSPost2010Prop33
280
     0
102
RTVSPost2010PropOp33
 70
     1
102
RTVSPost2010Prop34
280
     0
102
RTVSPost2010PropOp34
 70
     1
102
RTVSPost2010Prop35
280
     0
102
RTVSPost2010PropOp35
 70
     1
102
RTVSPost2010Prop36
280
     0
102
RTVSPost2010PropOp36
 70
     1
102
RTVSPost2010Prop37
 90
       50
102
RTVSPost2010PropOp37
 70
     1
102
RTVSPost2010Prop38
140
0.0
102
RTVSPost2010PropOp38
 70
     1
102
RTVSPost2010Prop39
140
1.0
102
RTVSPost2010PropOp39
 70
     1
102
RTVSPost2010Prop40
 90
        0
102
RTVSPost2010PropOp40
 70
     1
102
RTVSPost2010Prop41ColorIndex
 90
       18
102
RTVSPost2010Prop41ColorRGB
 90
        0
102
RTVSPost2010PropOp41
 70
     1
102
RTVSPost2010Prop42
 90
       50
102
RTVSPost2010PropOp42
 70
     1
102
RTVSPost2010Prop43
 90
        3
102
RTVSPost2010PropOp43
 70
     1
102
RTVSPost2010Prop44ColorIndex
 90
        5
102
RTVSPost2010Prop44ColorRGB
 90
      255
102
RTVSPost2010PropOp44
 70
     1
102
RTVSPost2010Prop45
280
     0
102
RTVSPost2010PropOp45
 70
     1
102
RTVSPost2010Prop46
 90
       50
102
RTVSPost2010PropOp46
 70
     1
102
RTVSPost2010Prop47
 90
       50
102
RTVSPost2010PropOp47
 70
     1
102
RTVSPost2010Prop48
 90
       50
102
RTVSPost2010PropOp48
 70
     1
102
RTVSPost2010Prop49
280
     0
102
RTVSPost2010PropOp49
 70
     1
102
RTVSPost2010Prop50
 90
       50
102
RTVSPost2010PropOp50
 70
     1
102
RTVSPost2010Prop51ColorIndex
 90
      256
102
RTVSPost2010Prop51ColorRGB
 90
-16777216
102
RTVSPost2010PropOp51
 70
     0
102
RTVSPost2010Prop52
140
1.0
102
RTVSPost2010PropOp52
 70
     0
102
RTVSPost2010Prop53
 90
        2
102
RTVSPost2010PropOp53
 70
     1
102
RTVSPost2010Prop54
  1
strokes_ogs.tif
102
RTVSPost2010PropOp54
 70
     1
102
RTVSPost2010Prop55
280
     0
102
RTVSPost2010PropOp55
 70
     1
102
RTVSPost2010Prop56
140
1.0
102
RTVSPost2010PropOp56
 70
     1
102
RTVSPost2010Prop57
140
1.0
102
RTVSPost2010PropOp57
 70
     1
102
RTVSPropertyOp0
 70
     1
102
RTVSPropertyOp1
 70
     1
102
RTVSPropertyOp2
 70
     1
102
RTVSPropertyOp3
 70
     1
102
RTVSPropertyOp4
 70
     1
102
RTVSPropertyOp5
 70
     1
102
RTVSPropertyOp6
 70
     1
102
RTVSPropertyOp7
 70
     1
102
RTVSPropertyOp8
 70
     1
102
RTVSPropertyOp9
 70
     1
102
RTVSPropertyOp10
 70
     1
102
RTVSPropertyOp11
 70
     1
102
RTVSPropertyOp12
 70
     1
102
RTVSPropertyOp13
 70
     1
102
RTVSPropertyOp14
 70
     1
102
RTVSPropertyOp15
 70
     1
102
RTVSPropertyOp16
 70
     1
102
RTVSPropertyOp17
 70
     1
102
RTVSPropertyOp18
 70
     1
102
RTVSPropertyOp19
 70
     1
102
RTVSPropertyOp20
 70
     1
102
RTVSPropertyOp21
 70
     1
102
RTVSPropertyOp22
 70
     1
102
RTVSPropertyOp23
 70
     1
102
RTVSPropertyOp24
 70
     1
102
RTVSPropertyOp25
 70
     1
102
RTVSPropertyOp26
 70
     1
102
RTVSPropertyOp27
 70
     1
102
RTVSPropertyOp28
 70
     1
102
RTVSPropertyOp29
 70
     1
102
RTVSPropertyOp30
 70
     1
102
RTVSPropertyOp31
 70
     1
102
RTVSPropertyOp32
 70
     1
102
RTVSPropertyOp33
 70
     1
102
RTVSPropertyOp34
 70
     1
102
RTVSPropertyOp35
 70
     1
102
RTVSPropertyOp36
 70
     1
102
RTVSPropertyOp37
 70
     1
102
RTVSPropertyOp38
 70
     1
102
RTVSPropertyOp39
 70
     1
102
RTVSPropertyOp40
 70
     1
102
RTVSPropertyOp41
 70
     1
102
RTVSPropertyOp42
 70
     1
102
RTVSPropertyOp43
 70
     1
102
RTVSPropertyOp44
 70
     1
102
RTVSPropertyOp45
 70
     1
102
RTVSPropertyOp46
 70
     1
102
RTVSPropertyOp47
 70
     1
102
RTVSPropertyOp48
 70
     1
102
RTVSPropertyOp49
 70
     1
102
RTVSPropertyOp50
 70
     1
102
RTVSPropertyOp51
 70
     0
102
RTVSPropertyOp52
 70
     0
102
RTVSPropertyOp53
 70
     1
102
RTVSPropertyOp54
 70
     1
102
RTVSPropertyOp55
 70
     1
102
RTVSPropertyOp56
 70
     1
102
RTVSPropertyOp57
 70
     1
102
RTVSPropertyOp58
 70
     1
102
RTVSPropertyOp59
 70
     1
102
RTVSPropertyOp60
 70
     1
102
RTVSPropertyOp61
 70
     1
102
RTVSPropertyOp62
 70
     1
  0
XRECORD
  5
14F36
102
{ACAD_REACTORS
330
14F35
102
}
330
14F35
100
AcDbXrecord
280
     1
102
RTVSPost2010Prop28
280
     0
102
RTVSPost2010PropOp28
 70
     1
102
RTVSPost2010Prop29
280
     1
102
RTVSPost2010PropOp29
 70
     1
102
RTVSPost2010Prop30
280
     1
102
RTVSPost2010PropOp30
 70
     1
102
RTVSPost2010Prop31
280
     0
102
RTVSPost2010PropOp31
 70
     1
102
RTVSPost2010Prop32
280
     0
102
RTVSPost2010PropOp32
 70
     1
102
RTVSPost2010Prop33
280
     0
102
RTVSPost2010PropOp33
 70
     1
102
RTVSPost2010Prop34
280
     0
102
RTVSPost2010PropOp34
 70
     1
102
RTVSPost2010Prop35
280
     0
102
RTVSPost2010PropOp35
 70
     1
102
RTVSPost2010Prop36
280
     0
102
RTVSPost2010PropOp36
 70
     1
102
RTVSPost2010Prop37
 90
       50
102
RTVSPost2010PropOp37
 70
     1
102
RTVSPost2010Prop38
140
0.0
102
RTVSPost2010PropOp38
 70
     1
102
RTVSPost2010Prop39
140
1.0
102
RTVSPost2010PropOp39
 70
     1
102
RTVSPost2010Prop40
 90
        0
102
RTVSPost2010PropOp40
 70
     1
102
RTVSPost2010Prop41ColorIndex
 90
       18
102
RTVSPost2010Prop41ColorRGB
 90
        0
102
RTVSPost2010PropOp41
 70
     1
102
RTVSPost2010Prop42
 90
       50
102
RTVSPost2010PropOp42
 70
     1
102
RTVSPost2010Prop43
 90
        3
102
RTVSPost2010PropOp43
 70
     1
102
RTVSPost2010Prop44ColorIndex
 90
        5
102
RTVSPost2010Prop44ColorRGB
 90
      255
102
RTVSPost2010PropOp44
 70
     1
102
RTVSPost2010Prop45
280
     0
102
RTVSPost2010PropOp45
 70
     1
102
RTVSPost2010Prop46
 90
       50
102
RTVSPost2010PropOp46
 70
     1
102
RTVSPost2010Prop47
 90
       50
102
RTVSPost2010PropOp47
 70
     1
102
RTVSPost2010Prop48
 90
       50
102
RTVSPost2010PropOp48
 70
     1
102
RTVSPost2010Prop49
280
     0
102
RTVSPost2010PropOp49
 70
     1
102
RTVSPost2010Prop50
 90
       50
102
RTVSPost2010PropOp50
 70
     1
102
RTVSPost2010Prop51ColorIndex
 90
      256
102
RTVSPost2010Prop51ColorRGB
 90
-16777216
102
RTVSPost2010PropOp51
 70
     0
102
RTVSPost2010Prop52
140
1.0
102
RTVSPost2010PropOp52
 70
     0
102
RTVSPost2010Prop53
 90
        2
102
RTVSPost2010PropOp53
 70
     1
102
RTVSPost2010Prop54
  1
strokes_ogs.tif
102
RTVSPost2010PropOp54
 70
     1
102
RTVSPost2010Prop55
280
     0
102
RTVSPost2010PropOp55
 70
     1
102
RTVSPost2010Prop56
140
1.0
102
RTVSPost2010PropOp56
 70
     1
102
RTVSPost2010Prop57
140
1.0
102
RTVSPost2010PropOp57
 70
     1
102
RTVSPropertyOp0
 70
     1
102
RTVSPropertyOp1
 70
     1
102
RTVSPropertyOp2
 70
     1
102
RTVSPropertyOp3
 70
     1
102
RTVSPropertyOp4
 70
     1
102
RTVSPropertyOp5
 70
     1
102
RTVSPropertyOp6
 70
     1
102
RTVSPropertyOp7
 70
     1
102
RTVSPropertyOp8
 70
     1
102
RTVSPropertyOp9
 70
     1
102
RTVSPropertyOp10
 70
     1
102
RTVSPropertyOp11
 70
     1
102
RTVSPropertyOp12
 70
     1
102
RTVSPropertyOp13
 70
     1
102
RTVSPropertyOp14
 70
     1
102
RTVSPropertyOp15
 70
     1
102
RTVSPropertyOp16
 70
     1
102
RTVSPropertyOp17
 70
     1
102
RTVSPropertyOp18
 70
     1
102
RTVSPropertyOp19
 70
     1
102
RTVSPropertyOp20
 70
     1
102
RTVSPropertyOp21
 70
     1
102
RTVSPropertyOp22
 70
     1
102
RTVSPropertyOp23
 70
     1
102
RTVSPropertyOp24
 70
     1
102
RTVSPropertyOp25
 70
     1
102
RTVSPropertyOp26
 70
     1
102
RTVSPropertyOp27
 70
     1
102
RTVSPropertyOp28
 70
     1
102
RTVSPropertyOp29
 70
     1
102
RTVSPropertyOp30
 70
     1
102
RTVSPropertyOp31
 70
     1
102
RTVSPropertyOp32
 70
     1
102
RTVSPropertyOp33
 70
     1
102
RTVSPropertyOp34
 70
     1
102
RTVSPropertyOp35
 70
     1
102
RTVSPropertyOp36
 70
     1
102
RTVSPropertyOp37
 70
     1
102
RTVSPropertyOp38
 70
     1
102
RTVSPropertyOp39
 70
     1
102
RTVSPropertyOp40
 70
     1
102
RTVSPropertyOp41
 70
     1
102
RTVSPropertyOp42
 70
     1
102
RTVSPropertyOp43
 70
     1
102
RTVSPropertyOp44
 70
     1
102
RTVSPropertyOp45
 70
     1
102
RTVSPropertyOp46
 70
     1
102
RTVSPropertyOp47
 70
     1
102
RTVSPropertyOp48
 70
     1
102
RTVSPropertyOp49
 70
     1
102
RTVSPropertyOp50
 70
     1
102
RTVSPropertyOp51
 70
     0
102
RTVSPropertyOp52
 70
     0
102
RTVSPropertyOp53
 70
     1
102
RTVSPropertyOp54
 70
     1
102
RTVSPropertyOp55
 70
     1
102
RTVSPropertyOp56
 70
     1
102
RTVSPropertyOp57
 70
     1
102
RTVSPropertyOp58
 70
     1
102
RTVSPropertyOp59
 70
     1
102
RTVSPropertyOp60
 70
     1
102
RTVSPropertyOp61
 70
     1
102
RTVSPropertyOp62
 70
     1
  0
XRECORD
  5
14F38
102
{ACAD_REACTORS
330
14F37
102
}
330
14F37
100
AcDbXrecord
280
     1
102
RTVSPost2010Prop28
280
     0
102
RTVSPost2010PropOp28
 70
     1
102
RTVSPost2010Prop29
280
     1
102
RTVSPost2010PropOp29
 70
     1
102
RTVSPost2010Prop30
280
     1
102
RTVSPost2010PropOp30
 70
     1
102
RTVSPost2010Prop31
280
     0
102
RTVSPost2010PropOp31
 70
     1
102
RTVSPost2010Prop32
280
     0
102
RTVSPost2010PropOp32
 70
     1
102
RTVSPost2010Prop33
280
     0
102
RTVSPost2010PropOp33
 70
     1
102
RTVSPost2010Prop34
280
     0
102
RTVSPost2010PropOp34
 70
     1
102
RTVSPost2010Prop35
280
     0
102
RTVSPost2010PropOp35
 70
     1
102
RTVSPost2010Prop36
280
     0
102
RTVSPost2010PropOp36
 70
     1
102
RTVSPost2010Prop37
 90
       50
102
RTVSPost2010PropOp37
 70
     1
102
RTVSPost2010Prop38
140
0.0
102
RTVSPost2010PropOp38
 70
     1
102
RTVSPost2010Prop39
140
1.0
102
RTVSPost2010PropOp39
 70
     1
102
RTVSPost2010Prop40
 90
        0
102
RTVSPost2010PropOp40
 70
     1
102
RTVSPost2010Prop41ColorIndex
 90
       18
102
RTVSPost2010Prop41ColorRGB
 90
        0
102
RTVSPost2010PropOp41
 70
     1
102
RTVSPost2010Prop42
 90
       50
102
RTVSPost2010PropOp42
 70
     1
102
RTVSPost2010Prop43
 90
        3
102
RTVSPost2010PropOp43
 70
     1
102
RTVSPost2010Prop44ColorIndex
 90
        5
102
RTVSPost2010Prop44ColorRGB
 90
      255
102
RTVSPost2010PropOp44
 70
     1
102
RTVSPost2010Prop45
280
     0
102
RTVSPost2010PropOp45
 70
     1
102
RTVSPost2010Prop46
 90
       50
102
RTVSPost2010PropOp46
 70
     1
102
RTVSPost2010Prop47
 90
       50
102
RTVSPost2010PropOp47
 70
     1
102
RTVSPost2010Prop48
 90
       50
102
RTVSPost2010PropOp48
 70
     1
102
RTVSPost2010Prop49
280
     0
102
RTVSPost2010PropOp49
 70
     1
102
RTVSPost2010Prop50
 90
       50
102
RTVSPost2010PropOp50
 70
     1
102
RTVSPost2010Prop51ColorIndex
 90
      256
102
RTVSPost2010Prop51ColorRGB
 90
-16777216
102
RTVSPost2010PropOp51
 70
     0
102
RTVSPost2010Prop52
140
1.0
102
RTVSPost2010PropOp52
 70
     0
102
RTVSPost2010Prop53
 90
        2
102
RTVSPost2010PropOp53
 70
     1
102
RTVSPost2010Prop54
  1
strokes_ogs.tif
102
RTVSPost2010PropOp54
 70
     1
102
RTVSPost2010Prop55
280
     0
102
RTVSPost2010PropOp55
 70
     1
102
RTVSPost2010Prop56
140
1.0
102
RTVSPost2010PropOp56
 70
     1
102
RTVSPost2010Prop57
140
1.0
102
RTVSPost2010PropOp57
 70
     1
102
RTVSPropertyOp0
 70
     1
102
RTVSPropertyOp1
 70
     1
102
RTVSPropertyOp2
 70
     1
102
RTVSPropertyOp3
 70
     1
102
RTVSPropertyOp4
 70
     1
102
RTVSPropertyOp5
 70
     1
102
RTVSPropertyOp6
 70
     1
102
RTVSPropertyOp7
 70
     1
102
RTVSPropertyOp8
 70
     1
102
RTVSPropertyOp9
 70
     1
102
RTVSPropertyOp10
 70
     1
102
RTVSPropertyOp11
 70
     1
102
RTVSPropertyOp12
 70
     1
102
RTVSPropertyOp13
 70
     1
102
RTVSPropertyOp14
 70
     1
102
RTVSPropertyOp15
 70
     1
102
RTVSPropertyOp16
 70
     1
102
RTVSPropertyOp17
 70
     1
102
RTVSPropertyOp18
 70
     1
102
RTVSPropertyOp19
 70
     1
102
RTVSPropertyOp20
 70
     1
102
RTVSPropertyOp21
 70
     1
102
RTVSPropertyOp22
 70
     1
102
RTVSPropertyOp23
 70
     1
102
RTVSPropertyOp24
 70
     1
102
RTVSPropertyOp25
 70
     1
102
RTVSPropertyOp26
 70
     1
102
RTVSPropertyOp27
 70
     1
102
RTVSPropertyOp28
 70
     1
102
RTVSPropertyOp29
 70
     1
102
RTVSPropertyOp30
 70
     1
102
RTVSPropertyOp31
 70
     1
102
RTVSPropertyOp32
 70
     1
102
RTVSPropertyOp33
 70
     1
102
RTVSPropertyOp34
 70
     1
102
RTVSPropertyOp35
 70
     1
102
RTVSPropertyOp36
 70
     1
102
RTVSPropertyOp37
 70
     1
102
RTVSPropertyOp38
 70
     1
102
RTVSPropertyOp39
 70
     1
102
RTVSPropertyOp40
 70
     1
102
RTVSPropertyOp41
 70
     1
102
RTVSPropertyOp42
 70
     1
102
RTVSPropertyOp43
 70
     1
102
RTVSPropertyOp44
 70
     1
102
RTVSPropertyOp45
 70
     1
102
RTVSPropertyOp46
 70
     1
102
RTVSPropertyOp47
 70
     1
102
RTVSPropertyOp48
 70
     1
102
RTVSPropertyOp49
 70
     1
102
RTVSPropertyOp50
 70
     1
102
RTVSPropertyOp51
 70
     0
102
RTVSPropertyOp52
 70
     0
102
RTVSPropertyOp53
 70
     1
102
RTVSPropertyOp54
 70
     1
102
RTVSPropertyOp55
 70
     1
102
RTVSPropertyOp56
 70
     1
102
RTVSPropertyOp57
 70
     1
102
RTVSPropertyOp58
 70
     1
102
RTVSPropertyOp59
 70
     1
102
RTVSPropertyOp60
 70
     1
102
RTVSPropertyOp61
 70
     1
102
RTVSPropertyOp62
 70
     1
  0
XRECORD
  5
14F3A
102
{ACAD_REACTORS
330
14F39
102
}
330
14F39
100
AcDbXrecord
280
     1
102
RTVSPost2010Prop28
280
     0
102
RTVSPost2010PropOp28
 70
     1
102
RTVSPost2010Prop29
280
     1
102
RTVSPost2010PropOp29
 70
     1
102
RTVSPost2010Prop30
280
     1
102
RTVSPost2010PropOp30
 70
     1
102
RTVSPost2010Prop31
280
     0
102
RTVSPost2010PropOp31
 70
     1
102
RTVSPost2010Prop32
280
     0
102
RTVSPost2010PropOp32
 70
     1
102
RTVSPost2010Prop33
280
     0
102
RTVSPost2010PropOp33
 70
     1
102
RTVSPost2010Prop34
280
     0
102
RTVSPost2010PropOp34
 70
     1
102
RTVSPost2010Prop35
280
     0
102
RTVSPost2010PropOp35
 70
     1
102
RTVSPost2010Prop36
280
     0
102
RTVSPost2010PropOp36
 70
     1
102
RTVSPost2010Prop37
 90
       50
102
RTVSPost2010PropOp37
 70
     1
102
RTVSPost2010Prop38
140
0.0
102
RTVSPost2010PropOp38
 70
     1
102
RTVSPost2010Prop39
140
1.0
102
RTVSPost2010PropOp39
 70
     1
102
RTVSPost2010Prop40
 90
        0
102
RTVSPost2010PropOp40
 70
     1
102
RTVSPost2010Prop41ColorIndex
 90
       18
102
RTVSPost2010Prop41ColorRGB
 90
        0
102
RTVSPost2010PropOp41
 70
     1
102
RTVSPost2010Prop42
 90
       50
102
RTVSPost2010PropOp42
 70
     1
102
RTVSPost2010Prop43
 90
        3
102
RTVSPost2010PropOp43
 70
     1
102
RTVSPost2010Prop44ColorIndex
 90
        5
102
RTVSPost2010Prop44ColorRGB
 90
      255
102
RTVSPost2010PropOp44
 70
     1
102
RTVSPost2010Prop45
280
     0
102
RTVSPost2010PropOp45
 70
     1
102
RTVSPost2010Prop46
 90
       50
102
RTVSPost2010PropOp46
 70
     1
102
RTVSPost2010Prop47
 90
       50
102
RTVSPost2010PropOp47
 70
     1
102
RTVSPost2010Prop48
 90
       50
102
RTVSPost2010PropOp48
 70
     1
102
RTVSPost2010Prop49
280
     0
102
RTVSPost2010PropOp49
 70
     1
102
RTVSPost2010Prop50
 90
       50
102
RTVSPost2010PropOp50
 70
     1
102
RTVSPost2010Prop51ColorIndex
 90
      256
102
RTVSPost2010Prop51ColorRGB
 90
-16777216
102
RTVSPost2010PropOp51
 70
     0
102
RTVSPost2010Prop52
140
1.0
102
RTVSPost2010PropOp52
 70
     0
102
RTVSPost2010Prop53
 90
        2
102
RTVSPost2010PropOp53
 70
     1
102
RTVSPost2010Prop54
  1
strokes_ogs.tif
102
RTVSPost2010PropOp54
 70
     1
102
RTVSPost2010Prop55
280
     0
102
RTVSPost2010PropOp55
 70
     1
102
RTVSPost2010Prop56
140
1.0
102
RTVSPost2010PropOp56
 70
     1
102
RTVSPost2010Prop57
140
1.0
102
RTVSPost2010PropOp57
 70
     1
102
RTVSPropertyOp0
 70
     1
102
RTVSPropertyOp1
 70
     1
102
RTVSPropertyOp2
 70
     1
102
RTVSPropertyOp3
 70
     1
102
RTVSPropertyOp4
 70
     1
102
RTVSPropertyOp5
 70
     1
102
RTVSPropertyOp6
 70
     1
102
RTVSPropertyOp7
 70
     1
102
RTVSPropertyOp8
 70
     1
102
RTVSPropertyOp9
 70
     1
102
RTVSPropertyOp10
 70
     1
102
RTVSPropertyOp11
 70
     1
102
RTVSPropertyOp12
 70
     1
102
RTVSPropertyOp13
 70
     1
102
RTVSPropertyOp14
 70
     1
102
RTVSPropertyOp15
 70
     1
102
RTVSPropertyOp16
 70
     1
102
RTVSPropertyOp17
 70
     1
102
RTVSPropertyOp18
 70
     1
102
RTVSPropertyOp19
 70
     1
102
RTVSPropertyOp20
 70
     1
102
RTVSPropertyOp21
 70
     1
102
RTVSPropertyOp22
 70
     1
102
RTVSPropertyOp23
 70
     1
102
RTVSPropertyOp24
 70
     1
102
RTVSPropertyOp25
 70
     1
102
RTVSPropertyOp26
 70
     1
102
RTVSPropertyOp27
 70
     1
102
RTVSPropertyOp28
 70
     1
102
RTVSPropertyOp29
 70
     1
102
RTVSPropertyOp30
 70
     1
102
RTVSPropertyOp31
 70
     1
102
RTVSPropertyOp32
 70
     1
102
RTVSPropertyOp33
 70
     1
102
RTVSPropertyOp34
 70
     1
102
RTVSPropertyOp35
 70
     1
102
RTVSPropertyOp36
 70
     1
102
RTVSPropertyOp37
 70
     1
102
RTVSPropertyOp38
 70
     1
102
RTVSPropertyOp39
 70
     1
102
RTVSPropertyOp40
 70
     1
102
RTVSPropertyOp41
 70
     1
102
RTVSPropertyOp42
 70
     1
102
RTVSPropertyOp43
 70
     1
102
RTVSPropertyOp44
 70
     1
102
RTVSPropertyOp45
 70
     1
102
RTVSPropertyOp46
 70
     1
102
RTVSPropertyOp47
 70
     1
102
RTVSPropertyOp48
 70
     1
102
RTVSPropertyOp49
 70
     1
102
RTVSPropertyOp50
 70
     1
102
RTVSPropertyOp51
 70
     0
102
RTVSPropertyOp52
 70
     0
102
RTVSPropertyOp53
 70
     1
102
RTVSPropertyOp54
 70
     1
102
RTVSPropertyOp55
 70
     1
102
RTVSPropertyOp56
 70
     1
102
RTVSPropertyOp57
 70
     1
102
RTVSPropertyOp58
 70
     1
102
RTVSPropertyOp59
 70
     1
102
RTVSPropertyOp60
 70
     1
102
RTVSPropertyOp61
 70
     1
102
RTVSPropertyOp62
 70
     1
  0
XRECORD
  5
14F42
102
{ACAD_REACTORS
330
14F41
102
}
330
14F41
100
AcDbXrecord
280
     1
102
RTVSPost2010Prop28
280
     0
102
RTVSPost2010PropOp28
 70
     1
102
RTVSPost2010Prop29
280
     1
102
RTVSPost2010PropOp29
 70
     1
102
RTVSPost2010Prop30
280
     1
102
RTVSPost2010PropOp30
 70
     1
102
RTVSPost2010Prop31
280
     0
102
RTVSPost2010PropOp31
 70
     1
102
RTVSPost2010Prop32
280
     0
102
RTVSPost2010PropOp32
 70
     1
102
RTVSPost2010Prop33
280
     0
102
RTVSPost2010PropOp33
 70
     1
102
RTVSPost2010Prop34
280
     0
102
RTVSPost2010PropOp34
 70
     1
102
RTVSPost2010Prop35
280
     0
102
RTVSPost2010PropOp35
 70
     1
102
RTVSPost2010Prop36
280
     0
102
RTVSPost2010PropOp36
 70
     1
102
RTVSPost2010Prop37
 90
       50
102
RTVSPost2010PropOp37
 70
     1
102
RTVSPost2010Prop38
140
0.0
102
RTVSPost2010PropOp38
 70
     1
102
RTVSPost2010Prop39
140
1.0
102
RTVSPost2010PropOp39
 70
     1
102
RTVSPost2010Prop40
 90
        0
102
RTVSPost2010PropOp40
 70
     1
102
RTVSPost2010Prop41ColorIndex
 90
       18
102
RTVSPost2010Prop41ColorRGB
 90
        0
102
RTVSPost2010PropOp41
 70
     1
102
RTVSPost2010Prop42
 90
       50
102
RTVSPost2010PropOp42
 70
     1
102
RTVSPost2010Prop43
 90
        3
102
RTVSPost2010PropOp43
 70
     1
102
RTVSPost2010Prop44ColorIndex
 90
        5
102
RTVSPost2010Prop44ColorRGB
 90
      255
102
RTVSPost2010PropOp44
 70
     1
102
RTVSPost2010Prop45
280
     0
102
RTVSPost2010PropOp45
 70
     1
102
RTVSPost2010Prop46
 90
       50
102
RTVSPost2010PropOp46
 70
     1
102
RTVSPost2010Prop47
 90
       50
102
RTVSPost2010PropOp47
 70
     1
102
RTVSPost2010Prop48
 90
       50
102
RTVSPost2010PropOp48
 70
     1
102
RTVSPost2010Prop49
280
     0
102
RTVSPost2010PropOp49
 70
     1
102
RTVSPost2010Prop50
 90
       50
102
RTVSPost2010PropOp50
 70
     1
102
RTVSPost2010Prop51ColorIndex
 90
      256
102
RTVSPost2010Prop51ColorRGB
 90
-16777216
102
RTVSPost2010PropOp51
 70
     0
102
RTVSPost2010Prop52
140
1.0
102
RTVSPost2010PropOp52
 70
     0
102
RTVSPost2010Prop53
 90
        2
102
RTVSPost2010PropOp53
 70
     1
102
RTVSPost2010Prop54
  1
strokes_ogs.tif
102
RTVSPost2010PropOp54
 70
     1
102
RTVSPost2010Prop55
280
     0
102
RTVSPost2010PropOp55
 70
     1
102
RTVSPost2010Prop56
140
1.0
102
RTVSPost2010PropOp56
 70
     1
102
RTVSPost2010Prop57
140
1.0
102
RTVSPost2010PropOp57
 70
     1
102
RTVSPropertyOp0
 70
     1
102
RTVSPropertyOp1
 70
     1
102
RTVSPropertyOp2
 70
     1
102
RTVSPropertyOp3
 70
     1
102
RTVSPropertyOp4
 70
     1
102
RTVSPropertyOp5
 70
     1
102
RTVSPropertyOp6
 70
     1
102
RTVSPropertyOp7
 70
     1
102
RTVSPropertyOp8
 70
     1
102
RTVSPropertyOp9
 70
     1
102
RTVSPropertyOp10
 70
     1
102
RTVSPropertyOp11
 70
     1
102
RTVSPropertyOp12
 70
     1
102
RTVSPropertyOp13
 70
     1
102
RTVSPropertyOp14
 70
     1
102
RTVSPropertyOp15
 70
     1
102
RTVSPropertyOp16
 70
     1
102
RTVSPropertyOp17
 70
     1
102
RTVSPropertyOp18
 70
     1
102
RTVSPropertyOp19
 70
     1
102
RTVSPropertyOp20
 70
     1
102
RTVSPropertyOp21
 70
     1
102
RTVSPropertyOp22
 70
     1
102
RTVSPropertyOp23
 70
     1
102
RTVSPropertyOp24
 70
     1
102
RTVSPropertyOp25
 70
     1
102
RTVSPropertyOp26
 70
     1
102
RTVSPropertyOp27
 70
     1
102
RTVSPropertyOp28
 70
     1
102
RTVSPropertyOp29
 70
     1
102
RTVSPropertyOp30
 70
     1
102
RTVSPropertyOp31
 70
     1
102
RTVSPropertyOp32
 70
     1
102
RTVSPropertyOp33
 70
     1
102
RTVSPropertyOp34
 70
     1
102
RTVSPropertyOp35
 70
     1
102
RTVSPropertyOp36
 70
     1
102
RTVSPropertyOp37
 70
     1
102
RTVSPropertyOp38
 70
     1
102
RTVSPropertyOp39
 70
     1
102
RTVSPropertyOp40
 70
     1
102
RTVSPropertyOp41
 70
     1
102
RTVSPropertyOp42
 70
     1
102
RTVSPropertyOp43
 70
     1
102
RTVSPropertyOp44
 70
     1
102
RTVSPropertyOp45
 70
     1
102
RTVSPropertyOp46
 70
     1
102
RTVSPropertyOp47
 70
     1
102
RTVSPropertyOp48
 70
     1
102
RTVSPropertyOp49
 70
     1
102
RTVSPropertyOp50
 70
     1
102
RTVSPropertyOp51
 70
     0
102
RTVSPropertyOp52
 70
     0
102
RTVSPropertyOp53
 70
     1
102
RTVSPropertyOp54
 70
     1
102
RTVSPropertyOp55
 70
     1
102
RTVSPropertyOp56
 70
     1
102
RTVSPropertyOp57
 70
     1
102
RTVSPropertyOp58
 70
     1
102
RTVSPropertyOp59
 70
     1
102
RTVSPropertyOp60
 70
     1
102
RTVSPropertyOp61
 70
     1
102
RTVSPropertyOp62
 70
     1
  0
XRECORD
  5
14F5E
102
{ACAD_REACTORS
330
14F5D
102
}
330
14F5D
100
AcDbXrecord
280
     1
102
RTVSPost2010Prop28
280
     0
102
RTVSPost2010PropOp28
 70
     1
102
RTVSPost2010Prop29
280
     1
102
RTVSPost2010PropOp29
 70
     1
102
RTVSPost2010Prop30
280
     1
102
RTVSPost2010PropOp30
 70
     1
102
RTVSPost2010Prop31
280
     0
102
RTVSPost2010PropOp31
 70
     1
102
RTVSPost2010Prop32
280
     0
102
RTVSPost2010PropOp32
 70
     1
102
RTVSPost2010Prop33
280
     0
102
RTVSPost2010PropOp33
 70
     1
102
RTVSPost2010Prop34
280
     0
102
RTVSPost2010PropOp34
 70
     1
102
RTVSPost2010Prop35
280
     0
102
RTVSPost2010PropOp35
 70
     1
102
RTVSPost2010Prop36
280
     0
102
RTVSPost2010PropOp36
 70
     1
102
RTVSPost2010Prop37
 90
       50
102
RTVSPost2010PropOp37
 70
     0
102
RTVSPost2010Prop38
140
0.0
102
RTVSPost2010PropOp38
 70
     0
102
RTVSPost2010Prop39
140
1.0
102
RTVSPost2010PropOp39
 70
     0
102
RTVSPost2010Prop40
 90
        0
102
RTVSPost2010PropOp40
 70
     0
102
RTVSPost2010Prop41ColorIndex
 90
       18
102
RTVSPost2010Prop41ColorRGB
 90
        0
102
RTVSPost2010PropOp41
 70
     0
102
RTVSPost2010Prop42
 90
       50
102
RTVSPost2010PropOp42
 70
     0
102
RTVSPost2010Prop43
 90
        3
102
RTVSPost2010PropOp43
 70
     0
102
RTVSPost2010Prop44ColorIndex
 90
        5
102
RTVSPost2010Prop44ColorRGB
 90
      255
102
RTVSPost2010PropOp44
 70
     0
102
RTVSPost2010Prop45
280
     0
102
RTVSPost2010PropOp45
 70
     1
102
RTVSPost2010Prop46
 90
       50
102
RTVSPost2010PropOp46
 70
     0
102
RTVSPost2010Prop47
 90
       50
102
RTVSPost2010PropOp47
 70
     0
102
RTVSPost2010Prop48
 90
       50
102
RTVSPost2010PropOp48
 70
     0
102
RTVSPost2010Prop49
280
     0
102
RTVSPost2010PropOp49
 70
     1
102
RTVSPost2010Prop50
 90
       50
102
RTVSPost2010PropOp50
 70
     0
102
RTVSPost2010Prop51ColorIndex
 90
      256
102
RTVSPost2010Prop51ColorRGB
 90
-16777216
102
RTVSPost2010PropOp51
 70
     0
102
RTVSPost2010Prop52
140
1.0
102
RTVSPost2010PropOp52
 70
     0
102
RTVSPost2010Prop53
 90
        2
102
RTVSPost2010PropOp53
 70
     0
102
RTVSPost2010Prop54
  1
strokes_ogs.tif
102
RTVSPost2010PropOp54
 70
     0
102
RTVSPost2010Prop55
280
     0
102
RTVSPost2010PropOp55
 70
     1
102
RTVSPost2010Prop56
140
1.0
102
RTVSPost2010PropOp56
 70
     0
102
RTVSPost2010Prop57
140
1.0
102
RTVSPost2010PropOp57
 70
     0
102
RTVSPropertyOp0
 70
     0
102
RTVSPropertyOp1
 70
     0
102
RTVSPropertyOp2
 70
     0
102
RTVSPropertyOp3
 70
     0
102
RTVSPropertyOp4
 70
     0
102
RTVSPropertyOp5
 70
     0
102
RTVSPropertyOp6
 70
     0
102
RTVSPropertyOp7
 70
     0
102
RTVSPropertyOp8
 70
     0
102
RTVSPropertyOp9
 70
     0
102
RTVSPropertyOp10
 70
     0
102
RTVSPropertyOp11
 70
     0
102
RTVSPropertyOp12
 70
     0
102
RTVSPropertyOp13
 70
     0
102
RTVSPropertyOp14
 70
     2
102
RTVSPropertyOp15
 70
     0
102
RTVSPropertyOp16
 70
     0
102
RTVSPropertyOp17
 70
     0
102
RTVSPropertyOp18
 70
     0
102
RTVSPropertyOp19
 70
     0
102
RTVSPropertyOp20
 70
     0
102
RTVSPropertyOp21
 70
     0
102
RTVSPropertyOp22
 70
     0
102
RTVSPropertyOp23
 70
     0
102
RTVSPropertyOp24
 70
     0
102
RTVSPropertyOp25
 70
     0
102
RTVSPropertyOp26
 70
     0
102
RTVSPropertyOp27
 70
     0
102
RTVSPropertyOp28
 70
     1
102
RTVSPropertyOp29
 70
     1
102
RTVSPropertyOp30
 70
     1
102
RTVSPropertyOp31
 70
     1
102
RTVSPropertyOp32
 70
     1
102
RTVSPropertyOp33
 70
     1
102
RTVSPropertyOp34
 70
     1
102
RTVSPropertyOp35
 70
     1
102
RTVSPropertyOp36
 70
     1
102
RTVSPropertyOp37
 70
     0
102
RTVSPropertyOp38
 70
     0
102
RTVSPropertyOp39
 70
     0
102
RTVSPropertyOp40
 70
     0
102
RTVSPropertyOp41
 70
     0
102
RTVSPropertyOp42
 70
     0
102
RTVSPropertyOp43
 70
     0
102
RTVSPropertyOp44
 70
     0
102
RTVSPropertyOp45
 70
     1
102
RTVSPropertyOp46
 70
     0
102
RTVSPropertyOp47
 70
     0
102
RTVSPropertyOp48
 70
     0
102
RTVSPropertyOp49
 70
     1
102
RTVSPropertyOp50
 70
     0
102
RTVSPropertyOp51
 70
     0
102
RTVSPropertyOp52
 70
     0
102
RTVSPropertyOp53
 70
     0
102
RTVSPropertyOp54
 70
     0
102
RTVSPropertyOp55
 70
     1
102
RTVSPropertyOp56
 70
     0
102
RTVSPropertyOp57
 70
     0
102
RTVSPropertyOp58
 70
     0
102
RTVSPropertyOp59
 70
     0
102
RTVSPropertyOp60
 70
     0
102
RTVSPropertyOp61
 70
     0
102
RTVSPropertyOp62
 70
     0
  0
XRECORD
  5
14F4E
102
{ACAD_REACTORS
330
14F4D
102
}
330
14F4D
100
AcDbXrecord
280
     1
102
RTVSPost2010Prop28
280
     0
102
RTVSPost2010PropOp28
 70
     1
102
RTVSPost2010Prop29
280
     1
102
RTVSPost2010PropOp29
 70
     1
102
RTVSPost2010Prop30
280
     1
102
RTVSPost2010PropOp30
 70
     1
102
RTVSPost2010Prop31
280
     0
102
RTVSPost2010PropOp31
 70
     1
102
RTVSPost2010Prop32
280
     0
102
RTVSPost2010PropOp32
 70
     1
102
RTVSPost2010Prop33
280
     0
102
RTVSPost2010PropOp33
 70
     1
102
RTVSPost2010Prop34
280
     0
102
RTVSPost2010PropOp34
 70
     1
102
RTVSPost2010Prop35
280
     0
102
RTVSPost2010PropOp35
 70
     1
102
RTVSPost2010Prop36
280
     0
102
RTVSPost2010PropOp36
 70
     1
102
RTVSPost2010Prop37
 90
       50
102
RTVSPost2010PropOp37
 70
     1
102
RTVSPost2010Prop38
140
0.0
102
RTVSPost2010PropOp38
 70
     1
102
RTVSPost2010Prop39
140
1.0
102
RTVSPost2010PropOp39
 70
     1
102
RTVSPost2010Prop40
 90
        0
102
RTVSPost2010PropOp40
 70
     1
102
RTVSPost2010Prop41ColorIndex
 90
       18
102
RTVSPost2010Prop41ColorRGB
 90
        0
102
RTVSPost2010PropOp41
 70
     1
102
RTVSPost2010Prop42
 90
       50
102
RTVSPost2010PropOp42
 70
     1
102
RTVSPost2010Prop43
 90
        3
102
RTVSPost2010PropOp43
 70
     1
102
RTVSPost2010Prop44ColorIndex
 90
        5
102
RTVSPost2010Prop44ColorRGB
 90
      255
102
RTVSPost2010PropOp44
 70
     1
102
RTVSPost2010Prop45
280
     0
102
RTVSPost2010PropOp45
 70
     1
102
RTVSPost2010Prop46
 90
       50
102
RTVSPost2010PropOp46
 70
     1
102
RTVSPost2010Prop47
 90
       50
102
RTVSPost2010PropOp47
 70
     1
102
RTVSPost2010Prop48
 90
       50
102
RTVSPost2010PropOp48
 70
     1
102
RTVSPost2010Prop49
280
     0
102
RTVSPost2010PropOp49
 70
     1
102
RTVSPost2010Prop50
 90
       50
102
RTVSPost2010PropOp50
 70
     1
102
RTVSPost2010Prop51ColorIndex
 90
      256
102
RTVSPost2010Prop51ColorRGB
 90
-16777216
102
RTVSPost2010PropOp51
 70
     0
102
RTVSPost2010Prop52
140
1.0
102
RTVSPost2010PropOp52
 70
     0
102
RTVSPost2010Prop53
 90
        2
102
RTVSPost2010PropOp53
 70
     1
102
RTVSPost2010Prop54
  1
strokes_ogs.tif
102
RTVSPost2010PropOp54
 70
     1
102
RTVSPost2010Prop55
280
     0
102
RTVSPost2010PropOp55
 70
     1
102
RTVSPost2010Prop56
140
1.0
102
RTVSPost2010PropOp56
 70
     1
102
RTVSPost2010Prop57
140
1.0
102
RTVSPost2010PropOp57
 70
     1
102
RTVSPropertyOp0
 70
     1
102
RTVSPropertyOp1
 70
     1
102
RTVSPropertyOp2
 70
     1
102
RTVSPropertyOp3
 70
     1
102
RTVSPropertyOp4
 70
     1
102
RTVSPropertyOp5
 70
     1
102
RTVSPropertyOp6
 70
     1
102
RTVSPropertyOp7
 70
     1
102
RTVSPropertyOp8
 70
     1
102
RTVSPropertyOp9
 70
     1
102
RTVSPropertyOp10
 70
     1
102
RTVSPropertyOp11
 70
     1
102
RTVSPropertyOp12
 70
     1
102
RTVSPropertyOp13
 70
     1
102
RTVSPropertyOp14
 70
     1
102
RTVSPropertyOp15
 70
     1
102
RTVSPropertyOp16
 70
     1
102
RTVSPropertyOp17
 70
     1
102
RTVSPropertyOp18
 70
     1
102
RTVSPropertyOp19
 70
     1
102
RTVSPropertyOp20
 70
     1
102
RTVSPropertyOp21
 70
     1
102
RTVSPropertyOp22
 70
     1
102
RTVSPropertyOp23
 70
     1
102
RTVSPropertyOp24
 70
     1
102
RTVSPropertyOp25
 70
     1
102
RTVSPropertyOp26
 70
     1
102
RTVSPropertyOp27
 70
     1
102
RTVSPropertyOp28
 70
     1
102
RTVSPropertyOp29
 70
     1
102
RTVSPropertyOp30
 70
     1
102
RTVSPropertyOp31
 70
     1
102
RTVSPropertyOp32
 70
     1
102
RTVSPropertyOp33
 70
     1
102
RTVSPropertyOp34
 70
     1
102
RTVSPropertyOp35
 70
     1
102
RTVSPropertyOp36
 70
     1
102
RTVSPropertyOp37
 70
     1
102
RTVSPropertyOp38
 70
     1
102
RTVSPropertyOp39
 70
     1
102
RTVSPropertyOp40
 70
     1
102
RTVSPropertyOp41
 70
     1
102
RTVSPropertyOp42
 70
     1
102
RTVSPropertyOp43
 70
     1
102
RTVSPropertyOp44
 70
     1
102
RTVSPropertyOp45
 70
     1
102
RTVSPropertyOp46
 70
     1
102
RTVSPropertyOp47
 70
     1
102
RTVSPropertyOp48
 70
     1
102
RTVSPropertyOp49
 70
     1
102
RTVSPropertyOp50
 70
     1
102
RTVSPropertyOp51
 70
     0
102
RTVSPropertyOp52
 70
     0
102
RTVSPropertyOp53
 70
     1
102
RTVSPropertyOp54
 70
     1
102
RTVSPropertyOp55
 70
     1
102
RTVSPropertyOp56
 70
     1
102
RTVSPropertyOp57
 70
     1
102
RTVSPropertyOp58
 70
     1
102
RTVSPropertyOp59
 70
     1
102
RTVSPropertyOp60
 70
     1
102
RTVSPropertyOp61
 70
     1
102
RTVSPropertyOp62
 70
     1
  0
XRECORD
  5
14F60
102
{ACAD_REACTORS
330
14F5F
102
}
330
14F5F
100
AcDbXrecord
280
     1
102
RTVSPost2010Prop28
280
     0
102
RTVSPost2010PropOp28
 70
     1
102
RTVSPost2010Prop29
280
     1
102
RTVSPost2010PropOp29
 70
     1
102
RTVSPost2010Prop30
280
     1
102
RTVSPost2010PropOp30
 70
     1
102
RTVSPost2010Prop31
280
     0
102
RTVSPost2010PropOp31
 70
     1
102
RTVSPost2010Prop32
280
     0
102
RTVSPost2010PropOp32
 70
     1
102
RTVSPost2010Prop33
280
     0
102
RTVSPost2010PropOp33
 70
     1
102
RTVSPost2010Prop34
280
     0
102
RTVSPost2010PropOp34
 70
     1
102
RTVSPost2010Prop35
280
     0
102
RTVSPost2010PropOp35
 70
     1
102
RTVSPost2010Prop36
280
     0
102
RTVSPost2010PropOp36
 70
     1
102
RTVSPost2010Prop37
 90
       50
102
RTVSPost2010PropOp37
 70
     0
102
RTVSPost2010Prop38
140
0.0
102
RTVSPost2010PropOp38
 70
     0
102
RTVSPost2010Prop39
140
1.0
102
RTVSPost2010PropOp39
 70
     0
102
RTVSPost2010Prop40
 90
        0
102
RTVSPost2010PropOp40
 70
     0
102
RTVSPost2010Prop41ColorIndex
 90
       18
102
RTVSPost2010Prop41ColorRGB
 90
        0
102
RTVSPost2010PropOp41
 70
     0
102
RTVSPost2010Prop42
 90
       50
102
RTVSPost2010PropOp42
 70
     0
102
RTVSPost2010Prop43
 90
        3
102
RTVSPost2010PropOp43
 70
     0
102
RTVSPost2010Prop44ColorIndex
 90
        5
102
RTVSPost2010Prop44ColorRGB
 90
      255
102
RTVSPost2010PropOp44
 70
     0
102
RTVSPost2010Prop45
280
     0
102
RTVSPost2010PropOp45
 70
     1
102
RTVSPost2010Prop46
 90
       50
102
RTVSPost2010PropOp46
 70
     0
102
RTVSPost2010Prop47
 90
       50
102
RTVSPost2010PropOp47
 70
     0
102
RTVSPost2010Prop48
 90
       50
102
RTVSPost2010PropOp48
 70
     0
102
RTVSPost2010Prop49
280
     0
102
RTVSPost2010PropOp49
 70
     1
102
RTVSPost2010Prop50
 90
       50
102
RTVSPost2010PropOp50
 70
     0
102
RTVSPost2010Prop51ColorIndex
 90
      256
102
RTVSPost2010Prop51ColorRGB
 90
-16777216
102
RTVSPost2010PropOp51
 70
     0
102
RTVSPost2010Prop52
140
1.0
102
RTVSPost2010PropOp52
 70
     0
102
RTVSPost2010Prop53
 90
        2
102
RTVSPost2010PropOp53
 70
     0
102
RTVSPost2010Prop54
  1
strokes_ogs.tif
102
RTVSPost2010PropOp54
 70
     0
102
RTVSPost2010Prop55
280
     0
102
RTVSPost2010PropOp55
 70
     1
102
RTVSPost2010Prop56
140
1.0
102
RTVSPost2010PropOp56
 70
     0
102
RTVSPost2010Prop57
140
1.0
102
RTVSPost2010PropOp57
 70
     0
102
RTVSPropertyOp0
 70
     0
102
RTVSPropertyOp1
 70
     0
102
RTVSPropertyOp2
 70
     0
102
RTVSPropertyOp3
 70
     0
102
RTVSPropertyOp4
 70
     0
102
RTVSPropertyOp5
 70
     0
102
RTVSPropertyOp6
 70
     0
102
RTVSPropertyOp7
 70
     0
102
RTVSPropertyOp8
 70
     0
102
RTVSPropertyOp9
 70
     0
102
RTVSPropertyOp10
 70
     0
102
RTVSPropertyOp11
 70
     0
102
RTVSPropertyOp12
 70
     0
102
RTVSPropertyOp13
 70
     0
102
RTVSPropertyOp14
 70
     2
102
RTVSPropertyOp15
 70
     0
102
RTVSPropertyOp16
 70
     0
102
RTVSPropertyOp17
 70
     0
102
RTVSPropertyOp18
 70
     0
102
RTVSPropertyOp19
 70
     0
102
RTVSPropertyOp20
 70
     0
102
RTVSPropertyOp21
 70
     0
102
RTVSPropertyOp22
 70
     0
102
RTVSPropertyOp23
 70
     0
102
RTVSPropertyOp24
 70
     0
102
RTVSPropertyOp25
 70
     0
102
RTVSPropertyOp26
 70
     0
102
RTVSPropertyOp27
 70
     0
102
RTVSPropertyOp28
 70
     1
102
RTVSPropertyOp29
 70
     1
102
RTVSPropertyOp30
 70
     1
102
RTVSPropertyOp31
 70
     1
102
RTVSPropertyOp32
 70
     1
102
RTVSPropertyOp33
 70
     1
102
RTVSPropertyOp34
 70
     1
102
RTVSPropertyOp35
 70
     1
102
RTVSPropertyOp36
 70
     1
102
RTVSPropertyOp37
 70
     0
102
RTVSPropertyOp38
 70
     0
102
RTVSPropertyOp39
 70
     0
102
RTVSPropertyOp40
 70
     0
102
RTVSPropertyOp41
 70
     0
102
RTVSPropertyOp42
 70
     0
102
RTVSPropertyOp43
 70
     0
102
RTVSPropertyOp44
 70
     0
102
RTVSPropertyOp45
 70
     1
102
RTVSPropertyOp46
 70
     0
102
RTVSPropertyOp47
 70
     0
102
RTVSPropertyOp48
 70
     0
102
RTVSPropertyOp49
 70
     1
102
RTVSPropertyOp50
 70
     0
102
RTVSPropertyOp51
 70
     0
102
RTVSPropertyOp52
 70
     0
102
RTVSPropertyOp53
 70
     0
102
RTVSPropertyOp54
 70
     0
102
RTVSPropertyOp55
 70
     1
102
RTVSPropertyOp56
 70
     0
102
RTVSPropertyOp57
 70
     0
102
RTVSPropertyOp58
 70
     0
102
RTVSPropertyOp59
 70
     0
102
RTVSPropertyOp60
 70
     0
102
RTVSPropertyOp61
 70
     0
102
RTVSPropertyOp62
 70
     0
  0
XRECORD
  5
14F46
102
{ACAD_REACTORS
330
14F45
102
}
330
14F45
100
AcDbXrecord
280
     1
102
RTVSPost2010Prop28
280
     0
102
RTVSPost2010PropOp28
 70
     1
102
RTVSPost2010Prop29
280
     1
102
RTVSPost2010PropOp29
 70
     1
102
RTVSPost2010Prop30
280
     1
102
RTVSPost2010PropOp30
 70
     1
102
RTVSPost2010Prop31
280
     0
102
RTVSPost2010PropOp31
 70
     1
102
RTVSPost2010Prop32
280
     0
102
RTVSPost2010PropOp32
 70
     1
102
RTVSPost2010Prop33
280
     0
102
RTVSPost2010PropOp33
 70
     1
102
RTVSPost2010Prop34
280
     0
102
RTVSPost2010PropOp34
 70
     1
102
RTVSPost2010Prop35
280
     0
102
RTVSPost2010PropOp35
 70
     1
102
RTVSPost2010Prop36
280
     0
102
RTVSPost2010PropOp36
 70
     1
102
RTVSPost2010Prop37
 90
       50
102
RTVSPost2010PropOp37
 70
     1
102
RTVSPost2010Prop38
140
0.0
102
RTVSPost2010PropOp38
 70
     1
102
RTVSPost2010Prop39
140
1.0
102
RTVSPost2010PropOp39
 70
     1
102
RTVSPost2010Prop40
 90
        0
102
RTVSPost2010PropOp40
 70
     1
102
RTVSPost2010Prop41ColorIndex
 90
       18
102
RTVSPost2010Prop41ColorRGB
 90
        0
102
RTVSPost2010PropOp41
 70
     1
102
RTVSPost2010Prop42
 90
       50
102
RTVSPost2010PropOp42
 70
     1
102
RTVSPost2010Prop43
 90
        3
102
RTVSPost2010PropOp43
 70
     1
102
RTVSPost2010Prop44ColorIndex
 90
        5
102
RTVSPost2010Prop44ColorRGB
 90
      255
102
RTVSPost2010PropOp44
 70
     1
102
RTVSPost2010Prop45
280
     0
102
RTVSPost2010PropOp45
 70
     1
102
RTVSPost2010Prop46
 90
       50
102
RTVSPost2010PropOp46
 70
     1
102
RTVSPost2010Prop47
 90
       50
102
RTVSPost2010PropOp47
 70
     1
102
RTVSPost2010Prop48
 90
       50
102
RTVSPost2010PropOp48
 70
     1
102
RTVSPost2010Prop49
280
     0
102
RTVSPost2010PropOp49
 70
     1
102
RTVSPost2010Prop50
 90
       50
102
RTVSPost2010PropOp50
 70
     1
102
RTVSPost2010Prop51ColorIndex
 90
      256
102
RTVSPost2010Prop51ColorRGB
 90
-16777216
102
RTVSPost2010PropOp51
 70
     0
102
RTVSPost2010Prop52
140
1.0
102
RTVSPost2010PropOp52
 70
     0
102
RTVSPost2010Prop53
 90
        2
102
RTVSPost2010PropOp53
 70
     1
102
RTVSPost2010Prop54
  1
strokes_ogs.tif
102
RTVSPost2010PropOp54
 70
     1
102
RTVSPost2010Prop55
280
     0
102
RTVSPost2010PropOp55
 70
     1
102
RTVSPost2010Prop56
140
1.0
102
RTVSPost2010PropOp56
 70
     1
102
RTVSPost2010Prop57
140
1.0
102
RTVSPost2010PropOp57
 70
     1
102
RTVSPropertyOp0
 70
     1
102
RTVSPropertyOp1
 70
     1
102
RTVSPropertyOp2
 70
     1
102
RTVSPropertyOp3
 70
     1
102
RTVSPropertyOp4
 70
     1
102
RTVSPropertyOp5
 70
     1
102
RTVSPropertyOp6
 70
     1
102
RTVSPropertyOp7
 70
     1
102
RTVSPropertyOp8
 70
     1
102
RTVSPropertyOp9
 70
     1
102
RTVSPropertyOp10
 70
     1
102
RTVSPropertyOp11
 70
     1
102
RTVSPropertyOp12
 70
     1
102
RTVSPropertyOp13
 70
     1
102
RTVSPropertyOp14
 70
     1
102
RTVSPropertyOp15
 70
     1
102
RTVSPropertyOp16
 70
     1
102
RTVSPropertyOp17
 70
     1
102
RTVSPropertyOp18
 70
     1
102
RTVSPropertyOp19
 70
     1
102
RTVSPropertyOp20
 70
     1
102
RTVSPropertyOp21
 70
     1
102
RTVSPropertyOp22
 70
     1
102
RTVSPropertyOp23
 70
     1
102
RTVSPropertyOp24
 70
     1
102
RTVSPropertyOp25
 70
     1
102
RTVSPropertyOp26
 70
     1
102
RTVSPropertyOp27
 70
     1
102
RTVSPropertyOp28
 70
     1
102
RTVSPropertyOp29
 70
     1
102
RTVSPropertyOp30
 70
     1
102
RTVSPropertyOp31
 70
     1
102
RTVSPropertyOp32
 70
     1
102
RTVSPropertyOp33
 70
     1
102
RTVSPropertyOp34
 70
     1
102
RTVSPropertyOp35
 70
     1
102
RTVSPropertyOp36
 70
     1
102
RTVSPropertyOp37
 70
     1
102
RTVSPropertyOp38
 70
     1
102
RTVSPropertyOp39
 70
     1
102
RTVSPropertyOp40
 70
     1
102
RTVSPropertyOp41
 70
     1
102
RTVSPropertyOp42
 70
     1
102
RTVSPropertyOp43
 70
     1
102
RTVSPropertyOp44
 70
     1
102
RTVSPropertyOp45
 70
     1
102
RTVSPropertyOp46
 70
     1
102
RTVSPropertyOp47
 70
     1
102
RTVSPropertyOp48
 70
     1
102
RTVSPropertyOp49
 70
     1
102
RTVSPropertyOp50
 70
     1
102
RTVSPropertyOp51
 70
     0
102
RTVSPropertyOp52
 70
     0
102
RTVSPropertyOp53
 70
     1
102
RTVSPropertyOp54
 70
     1
102
RTVSPropertyOp55
 70
     1
102
RTVSPropertyOp56
 70
     1
102
RTVSPropertyOp57
 70
     1
102
RTVSPropertyOp58
 70
     1
102
RTVSPropertyOp59
 70
     1
102
RTVSPropertyOp60
 70
     1
102
RTVSPropertyOp61
 70
     1
102
RTVSPropertyOp62
 70
     1
  0
XRECORD
  5
14F5C
102
{ACAD_REACTORS
330
14F5B
102
}
330
14F5B
100
AcDbXrecord
280
     1
102
RTVSPost2010Prop28
280
     0
102
RTVSPost2010PropOp28
 70
     1
102
RTVSPost2010Prop29
280
     1
102
RTVSPost2010PropOp29
 70
     1
102
RTVSPost2010Prop30
280
     1
102
RTVSPost2010PropOp30
 70
     1
102
RTVSPost2010Prop31
280
     0
102
RTVSPost2010PropOp31
 70
     1
102
RTVSPost2010Prop32
280
     0
102
RTVSPost2010PropOp32
 70
     1
102
RTVSPost2010Prop33
280
     0
102
RTVSPost2010PropOp33
 70
     1
102
RTVSPost2010Prop34
280
     0
102
RTVSPost2010PropOp34
 70
     1
102
RTVSPost2010Prop35
280
     0
102
RTVSPost2010PropOp35
 70
     1
102
RTVSPost2010Prop36
280
     0
102
RTVSPost2010PropOp36
 70
     1
102
RTVSPost2010Prop37
 90
       50
102
RTVSPost2010PropOp37
 70
     1
102
RTVSPost2010Prop38
140
0.0
102
RTVSPost2010PropOp38
 70
     1
102
RTVSPost2010Prop39
140
1.0
102
RTVSPost2010PropOp39
 70
     1
102
RTVSPost2010Prop40
 90
        0
102
RTVSPost2010PropOp40
 70
     1
102
RTVSPost2010Prop41ColorIndex
 90
       18
102
RTVSPost2010Prop41ColorRGB
 90
        0
102
RTVSPost2010PropOp41
 70
     1
102
RTVSPost2010Prop42
 90
       50
102
RTVSPost2010PropOp42
 70
     1
102
RTVSPost2010Prop43
 90
        3
102
RTVSPost2010PropOp43
 70
     1
102
RTVSPost2010Prop44ColorIndex
 90
        5
102
RTVSPost2010Prop44ColorRGB
 90
      255
102
RTVSPost2010PropOp44
 70
     1
102
RTVSPost2010Prop45
280
     0
102
RTVSPost2010PropOp45
 70
     1
102
RTVSPost2010Prop46
 90
       50
102
RTVSPost2010PropOp46
 70
     1
102
RTVSPost2010Prop47
 90
       50
102
RTVSPost2010PropOp47
 70
     1
102
RTVSPost2010Prop48
 90
       50
102
RTVSPost2010PropOp48
 70
     1
102
RTVSPost2010Prop49
280
     0
102
RTVSPost2010PropOp49
 70
     1
102
RTVSPost2010Prop50
 90
       50
102
RTVSPost2010PropOp50
 70
     1
102
RTVSPost2010Prop51ColorIndex
 90
      256
102
RTVSPost2010Prop51ColorRGB
 90
-16777216
102
RTVSPost2010PropOp51
 70
     0
102
RTVSPost2010Prop52
140
1.0
102
RTVSPost2010PropOp52
 70
     0
102
RTVSPost2010Prop53
 90
        2
102
RTVSPost2010PropOp53
 70
     1
102
RTVSPost2010Prop54
  1
strokes_ogs.tif
102
RTVSPost2010PropOp54
 70
     1
102
RTVSPost2010Prop55
280
     0
102
RTVSPost2010PropOp55
 70
     1
102
RTVSPost2010Prop56
140
1.0
102
RTVSPost2010PropOp56
 70
     1
102
RTVSPost2010Prop57
140
1.0
102
RTVSPost2010PropOp57
 70
     1
102
RTVSPropertyOp0
 70
     1
102
RTVSPropertyOp1
 70
     1
102
RTVSPropertyOp2
 70
     1
102
RTVSPropertyOp3
 70
     1
102
RTVSPropertyOp4
 70
     1
102
RTVSPropertyOp5
 70
     1
102
RTVSPropertyOp6
 70
     1
102
RTVSPropertyOp7
 70
     1
102
RTVSPropertyOp8
 70
     1
102
RTVSPropertyOp9
 70
     1
102
RTVSPropertyOp10
 70
     1
102
RTVSPropertyOp11
 70
     1
102
RTVSPropertyOp12
 70
     1
102
RTVSPropertyOp13
 70
     1
102
RTVSPropertyOp14
 70
     1
102
RTVSPropertyOp15
 70
     1
102
RTVSPropertyOp16
 70
     1
102
RTVSPropertyOp17
 70
     1
102
RTVSPropertyOp18
 70
     1
102
RTVSPropertyOp19
 70
     1
102
RTVSPropertyOp20
 70
     1
102
RTVSPropertyOp21
 70
     1
102
RTVSPropertyOp22
 70
     1
102
RTVSPropertyOp23
 70
     1
102
RTVSPropertyOp24
 70
     1
102
RTVSPropertyOp25
 70
     1
102
RTVSPropertyOp26
 70
     1
102
RTVSPropertyOp27
 70
     1
102
RTVSPropertyOp28
 70
     1
102
RTVSPropertyOp29
 70
     1
102
RTVSPropertyOp30
 70
     1
102
RTVSPropertyOp31
 70
     1
102
RTVSPropertyOp32
 70
     1
102
RTVSPropertyOp33
 70
     1
102
RTVSPropertyOp34
 70
     1
102
RTVSPropertyOp35
 70
     1
102
RTVSPropertyOp36
 70
     1
102
RTVSPropertyOp37
 70
     1
102
RTVSPropertyOp38
 70
     1
102
RTVSPropertyOp39
 70
     1
102
RTVSPropertyOp40
 70
     1
102
RTVSPropertyOp41
 70
     1
102
RTVSPropertyOp42
 70
     1
102
RTVSPropertyOp43
 70
     1
102
RTVSPropertyOp44
 70
     1
102
RTVSPropertyOp45
 70
     1
102
RTVSPropertyOp46
 70
     1
102
RTVSPropertyOp47
 70
     1
102
RTVSPropertyOp48
 70
     1
102
RTVSPropertyOp49
 70
     1
102
RTVSPropertyOp50
 70
     1
102
RTVSPropertyOp51
 70
     0
102
RTVSPropertyOp52
 70
     0
102
RTVSPropertyOp53
 70
     1
102
RTVSPropertyOp54
 70
     1
102
RTVSPropertyOp55
 70
     1
102
RTVSPropertyOp56
 70
     1
102
RTVSPropertyOp57
 70
     1
102
RTVSPropertyOp58
 70
     1
102
RTVSPropertyOp59
 70
     1
102
RTVSPropertyOp60
 70
     1
102
RTVSPropertyOp61
 70
     1
102
RTVSPropertyOp62
 70
     1
  0
XRECORD
  5
14F5A
102
{ACAD_REACTORS
330
14F59
102
}
330
14F59
100
AcDbXrecord
280
     1
102
RTVSPost2010Prop28
280
     0
102
RTVSPost2010PropOp28
 70
     1
102
RTVSPost2010Prop29
280
     1
102
RTVSPost2010PropOp29
 70
     1
102
RTVSPost2010Prop30
280
     1
102
RTVSPost2010PropOp30
 70
     1
102
RTVSPost2010Prop31
280
     0
102
RTVSPost2010PropOp31
 70
     1
102
RTVSPost2010Prop32
280
     0
102
RTVSPost2010PropOp32
 70
     1
102
RTVSPost2010Prop33
280
     0
102
RTVSPost2010PropOp33
 70
     1
102
RTVSPost2010Prop34
280
     0
102
RTVSPost2010PropOp34
 70
     1
102
RTVSPost2010Prop35
280
     0
102
RTVSPost2010PropOp35
 70
     1
102
RTVSPost2010Prop36
280
     0
102
RTVSPost2010PropOp36
 70
     1
102
RTVSPost2010Prop37
 90
       50
102
RTVSPost2010PropOp37
 70
     1
102
RTVSPost2010Prop38
140
0.0
102
RTVSPost2010PropOp38
 70
     1
102
RTVSPost2010Prop39
140
1.0
102
RTVSPost2010PropOp39
 70
     1
102
RTVSPost2010Prop40
 90
        0
102
RTVSPost2010PropOp40
 70
     1
102
RTVSPost2010Prop41ColorIndex
 90
       18
102
RTVSPost2010Prop41ColorRGB
 90
        0
102
RTVSPost2010PropOp41
 70
     1
102
RTVSPost2010Prop42
 90
       50
102
RTVSPost2010PropOp42
 70
     1
102
RTVSPost2010Prop43
 90
        3
102
RTVSPost2010PropOp43
 70
     1
102
RTVSPost2010Prop44ColorIndex
 90
        5
102
RTVSPost2010Prop44ColorRGB
 90
      255
102
RTVSPost2010PropOp44
 70
     1
102
RTVSPost2010Prop45
280
     0
102
RTVSPost2010PropOp45
 70
     1
102
RTVSPost2010Prop46
 90
       50
102
RTVSPost2010PropOp46
 70
     1
102
RTVSPost2010Prop47
 90
       50
102
RTVSPost2010PropOp47
 70
     1
102
RTVSPost2010Prop48
 90
       50
102
RTVSPost2010PropOp48
 70
     1
102
RTVSPost2010Prop49
280
     0
102
RTVSPost2010PropOp49
 70
     1
102
RTVSPost2010Prop50
 90
       50
102
RTVSPost2010PropOp50
 70
     1
102
RTVSPost2010Prop51ColorIndex
 90
      256
102
RTVSPost2010Prop51ColorRGB
 90
-16777216
102
RTVSPost2010PropOp51
 70
     0
102
RTVSPost2010Prop52
140
1.0
102
RTVSPost2010PropOp52
 70
     0
102
RTVSPost2010Prop53
 90
        2
102
RTVSPost2010PropOp53
 70
     1
102
RTVSPost2010Prop54
  1
strokes_ogs.tif
102
RTVSPost2010PropOp54
 70
     1
102
RTVSPost2010Prop55
280
     0
102
RTVSPost2010PropOp55
 70
     1
102
RTVSPost2010Prop56
140
1.0
102
RTVSPost2010PropOp56
 70
     1
102
RTVSPost2010Prop57
140
1.0
102
RTVSPost2010PropOp57
 70
     1
102
RTVSPropertyOp0
 70
     1
102
RTVSPropertyOp1
 70
     1
102
RTVSPropertyOp2
 70
     1
102
RTVSPropertyOp3
 70
     1
102
RTVSPropertyOp4
 70
     1
102
RTVSPropertyOp5
 70
     1
102
RTVSPropertyOp6
 70
     1
102
RTVSPropertyOp7
 70
     1
102
RTVSPropertyOp8
 70
     1
102
RTVSPropertyOp9
 70
     1
102
RTVSPropertyOp10
 70
     1
102
RTVSPropertyOp11
 70
     1
102
RTVSPropertyOp12
 70
     1
102
RTVSPropertyOp13
 70
     1
102
RTVSPropertyOp14
 70
     1
102
RTVSPropertyOp15
 70
     1
102
RTVSPropertyOp16
 70
     1
102
RTVSPropertyOp17
 70
     1
102
RTVSPropertyOp18
 70
     1
102
RTVSPropertyOp19
 70
     1
102
RTVSPropertyOp20
 70
     1
102
RTVSPropertyOp21
 70
     1
102
RTVSPropertyOp22
 70
     1
102
RTVSPropertyOp23
 70
     1
102
RTVSPropertyOp24
 70
     1
102
RTVSPropertyOp25
 70
     1
102
RTVSPropertyOp26
 70
     1
102
RTVSPropertyOp27
 70
     1
102
RTVSPropertyOp28
 70
     1
102
RTVSPropertyOp29
 70
     1
102
RTVSPropertyOp30
 70
     1
102
RTVSPropertyOp31
 70
     1
102
RTVSPropertyOp32
 70
     1
102
RTVSPropertyOp33
 70
     1
102
RTVSPropertyOp34
 70
     1
102
RTVSPropertyOp35
 70
     1
102
RTVSPropertyOp36
 70
     1
102
RTVSPropertyOp37
 70
     1
102
RTVSPropertyOp38
 70
     1
102
RTVSPropertyOp39
 70
     1
102
RTVSPropertyOp40
 70
     1
102
RTVSPropertyOp41
 70
     1
102
RTVSPropertyOp42
 70
     1
102
RTVSPropertyOp43
 70
     1
102
RTVSPropertyOp44
 70
     1
102
RTVSPropertyOp45
 70
     1
102
RTVSPropertyOp46
 70
     1
102
RTVSPropertyOp47
 70
     1
102
RTVSPropertyOp48
 70
     1
102
RTVSPropertyOp49
 70
     1
102
RTVSPropertyOp50
 70
     1
102
RTVSPropertyOp51
 70
     0
102
RTVSPropertyOp52
 70
     0
102
RTVSPropertyOp53
 70
     1
102
RTVSPropertyOp54
 70
     1
102
RTVSPropertyOp55
 70
     1
102
RTVSPropertyOp56
 70
     1
102
RTVSPropertyOp57
 70
     1
102
RTVSPropertyOp58
 70
     1
102
RTVSPropertyOp59
 70
     1
102
RTVSPropertyOp60
 70
     1
102
RTVSPropertyOp61
 70
     1
102
RTVSPropertyOp62
 70
     1
  0
XRECORD
  5
14F54
102
{ACAD_REACTORS
330
14F53
102
}
330
14F53
100
AcDbXrecord
280
     1
102
RTVSPost2010Prop28
280
     0
102
RTVSPost2010PropOp28
 70
     1
102
RTVSPost2010Prop29
280
     1
102
RTVSPost2010PropOp29
 70
     1
102
RTVSPost2010Prop30
280
     1
102
RTVSPost2010PropOp30
 70
     1
102
RTVSPost2010Prop31
280
     0
102
RTVSPost2010PropOp31
 70
     1
102
RTVSPost2010Prop32
280
     0
102
RTVSPost2010PropOp32
 70
     1
102
RTVSPost2010Prop33
280
     0
102
RTVSPost2010PropOp33
 70
     1
102
RTVSPost2010Prop34
280
     0
102
RTVSPost2010PropOp34
 70
     1
102
RTVSPost2010Prop35
280
     0
102
RTVSPost2010PropOp35
 70
     1
102
RTVSPost2010Prop36
280
     0
102
RTVSPost2010PropOp36
 70
     1
102
RTVSPost2010Prop37
 90
       50
102
RTVSPost2010PropOp37
 70
     1
102
RTVSPost2010Prop38
140
0.0
102
RTVSPost2010PropOp38
 70
     1
102
RTVSPost2010Prop39
140
1.0
102
RTVSPost2010PropOp39
 70
     1
102
RTVSPost2010Prop40
 90
        0
102
RTVSPost2010PropOp40
 70
     1
102
RTVSPost2010Prop41ColorIndex
 90
       18
102
RTVSPost2010Prop41ColorRGB
 90
        0
102
RTVSPost2010PropOp41
 70
     1
102
RTVSPost2010Prop42
 90
       50
102
RTVSPost2010PropOp42
 70
     1
102
RTVSPost2010Prop43
 90
        3
102
RTVSPost2010PropOp43
 70
     1
102
RTVSPost2010Prop44ColorIndex
 90
        5
102
RTVSPost2010Prop44ColorRGB
 90
      255
102
RTVSPost2010PropOp44
 70
     1
102
RTVSPost2010Prop45
280
     0
102
RTVSPost2010PropOp45
 70
     1
102
RTVSPost2010Prop46
 90
       50
102
RTVSPost2010PropOp46
 70
     1
102
RTVSPost2010Prop47
 90
       50
102
RTVSPost2010PropOp47
 70
     1
102
RTVSPost2010Prop48
 90
       50
102
RTVSPost2010PropOp48
 70
     1
102
RTVSPost2010Prop49
280
     0
102
RTVSPost2010PropOp49
 70
     1
102
RTVSPost2010Prop50
 90
       50
102
RTVSPost2010PropOp50
 70
     1
102
RTVSPost2010Prop51ColorIndex
 90
      256
102
RTVSPost2010Prop51ColorRGB
 90
-16777216
102
RTVSPost2010PropOp51
 70
     0
102
RTVSPost2010Prop52
140
1.0
102
RTVSPost2010PropOp52
 70
     0
102
RTVSPost2010Prop53
 90
        2
102
RTVSPost2010PropOp53
 70
     1
102
RTVSPost2010Prop54
  1
strokes_ogs.tif
102
RTVSPost2010PropOp54
 70
     1
102
RTVSPost2010Prop55
280
     0
102
RTVSPost2010PropOp55
 70
     1
102
RTVSPost2010Prop56
140
1.0
102
RTVSPost2010PropOp56
 70
     1
102
RTVSPost2010Prop57
140
1.0
102
RTVSPost2010PropOp57
 70
     1
102
RTVSPropertyOp0
 70
     1
102
RTVSPropertyOp1
 70
     1
102
RTVSPropertyOp2
 70
     1
102
RTVSPropertyOp3
 70
     1
102
RTVSPropertyOp4
 70
     1
102
RTVSPropertyOp5
 70
     1
102
RTVSPropertyOp6
 70
     1
102
RTVSPropertyOp7
 70
     1
102
RTVSPropertyOp8
 70
     1
102
RTVSPropertyOp9
 70
     1
102
RTVSPropertyOp10
 70
     1
102
RTVSPropertyOp11
 70
     1
102
RTVSPropertyOp12
 70
     1
102
RTVSPropertyOp13
 70
     1
102
RTVSPropertyOp14
 70
     1
102
RTVSPropertyOp15
 70
     1
102
RTVSPropertyOp16
 70
     1
102
RTVSPropertyOp17
 70
     1
102
RTVSPropertyOp18
 70
     1
102
RTVSPropertyOp19
 70
     1
102
RTVSPropertyOp20
 70
     1
102
RTVSPropertyOp21
 70
     1
102
RTVSPropertyOp22
 70
     1
102
RTVSPropertyOp23
 70
     1
102
RTVSPropertyOp24
 70
     1
102
RTVSPropertyOp25
 70
     1
102
RTVSPropertyOp26
 70
     1
102
RTVSPropertyOp27
 70
     1
102
RTVSPropertyOp28
 70
     1
102
RTVSPropertyOp29
 70
     1
102
RTVSPropertyOp30
 70
     1
102
RTVSPropertyOp31
 70
     1
102
RTVSPropertyOp32
 70
     1
102
RTVSPropertyOp33
 70
     1
102
RTVSPropertyOp34
 70
     1
102
RTVSPropertyOp35
 70
     1
102
RTVSPropertyOp36
 70
     1
102
RTVSPropertyOp37
 70
     1
102
RTVSPropertyOp38
 70
     1
102
RTVSPropertyOp39
 70
     1
102
RTVSPropertyOp40
 70
     1
102
RTVSPropertyOp41
 70
     1
102
RTVSPropertyOp42
 70
     1
102
RTVSPropertyOp43
 70
     1
102
RTVSPropertyOp44
 70
     1
102
RTVSPropertyOp45
 70
     1
102
RTVSPropertyOp46
 70
     1
102
RTVSPropertyOp47
 70
     1
102
RTVSPropertyOp48
 70
     1
102
RTVSPropertyOp49
 70
     1
102
RTVSPropertyOp50
 70
     1
102
RTVSPropertyOp51
 70
     0
102
RTVSPropertyOp52
 70
     0
102
RTVSPropertyOp53
 70
     1
102
RTVSPropertyOp54
 70
     1
102
RTVSPropertyOp55
 70
     1
102
RTVSPropertyOp56
 70
     1
102
RTVSPropertyOp57
 70
     1
102
RTVSPropertyOp58
 70
     1
102
RTVSPropertyOp59
 70
     1
102
RTVSPropertyOp60
 70
     1
102
RTVSPropertyOp61
 70
     1
102
RTVSPropertyOp62
 70
     1
  0
XRECORD
  5
14F56
102
{ACAD_REACTORS
330
14F55
102
}
330
14F55
100
AcDbXrecord
280
     1
102
RTVSPost2010Prop28
280
     0
102
RTVSPost2010PropOp28
 70
     1
102
RTVSPost2010Prop29
280
     1
102
RTVSPost2010PropOp29
 70
     1
102
RTVSPost2010Prop30
280
     1
102
RTVSPost2010PropOp30
 70
     1
102
RTVSPost2010Prop31
280
     0
102
RTVSPost2010PropOp31
 70
     1
102
RTVSPost2010Prop32
280
     0
102
RTVSPost2010PropOp32
 70
     1
102
RTVSPost2010Prop33
280
     0
102
RTVSPost2010PropOp33
 70
     1
102
RTVSPost2010Prop34
280
     0
102
RTVSPost2010PropOp34
 70
     1
102
RTVSPost2010Prop35
280
     0
102
RTVSPost2010PropOp35
 70
     1
102
RTVSPost2010Prop36
280
     0
102
RTVSPost2010PropOp36
 70
     1
102
RTVSPost2010Prop37
 90
       50
102
RTVSPost2010PropOp37
 70
     1
102
RTVSPost2010Prop38
140
0.0
102
RTVSPost2010PropOp38
 70
     1
102
RTVSPost2010Prop39
140
1.0
102
RTVSPost2010PropOp39
 70
     1
102
RTVSPost2010Prop40
 90
        0
102
RTVSPost2010PropOp40
 70
     1
102
RTVSPost2010Prop41ColorIndex
 90
       18
102
RTVSPost2010Prop41ColorRGB
 90
        0
102
RTVSPost2010PropOp41
 70
     1
102
RTVSPost2010Prop42
 90
       50
102
RTVSPost2010PropOp42
 70
     1
102
RTVSPost2010Prop43
 90
        3
102
RTVSPost2010PropOp43
 70
     1
102
RTVSPost2010Prop44ColorIndex
 90
        5
102
RTVSPost2010Prop44ColorRGB
 90
      255
102
RTVSPost2010PropOp44
 70
     1
102
RTVSPost2010Prop45
280
     0
102
RTVSPost2010PropOp45
 70
     1
102
RTVSPost2010Prop46
 90
       50
102
RTVSPost2010PropOp46
 70
     1
102
RTVSPost2010Prop47
 90
       50
102
RTVSPost2010PropOp47
 70
     1
102
RTVSPost2010Prop48
 90
       50
102
RTVSPost2010PropOp48
 70
     1
102
RTVSPost2010Prop49
280
     0
102
RTVSPost2010PropOp49
 70
     1
102
RTVSPost2010Prop50
 90
       50
102
RTVSPost2010PropOp50
 70
     1
102
RTVSPost2010Prop51ColorIndex
 90
      256
102
RTVSPost2010Prop51ColorRGB
 90
-16777216
102
RTVSPost2010PropOp51
 70
     0
102
RTVSPost2010Prop52
140
1.0
102
RTVSPost2010PropOp52
 70
     0
102
RTVSPost2010Prop53
 90
        2
102
RTVSPost2010PropOp53
 70
     1
102
RTVSPost2010Prop54
  1
strokes_ogs.tif
102
RTVSPost2010PropOp54
 70
     1
102
RTVSPost2010Prop55
280
     0
102
RTVSPost2010PropOp55
 70
     1
102
RTVSPost2010Prop56
140
1.0
102
RTVSPost2010PropOp56
 70
     1
102
RTVSPost2010Prop57
140
1.0
102
RTVSPost2010PropOp57
 70
     1
102
RTVSPropertyOp0
 70
     1
102
RTVSPropertyOp1
 70
     1
102
RTVSPropertyOp2
 70
     1
102
RTVSPropertyOp3
 70
     1
102
RTVSPropertyOp4
 70
     1
102
RTVSPropertyOp5
 70
     1
102
RTVSPropertyOp6
 70
     1
102
RTVSPropertyOp7
 70
     1
102
RTVSPropertyOp8
 70
     1
102
RTVSPropertyOp9
 70
     1
102
RTVSPropertyOp10
 70
     1
102
RTVSPropertyOp11
 70
     1
102
RTVSPropertyOp12
 70
     1
102
RTVSPropertyOp13
 70
     1
102
RTVSPropertyOp14
 70
     1
102
RTVSPropertyOp15
 70
     1
102
RTVSPropertyOp16
 70
     1
102
RTVSPropertyOp17
 70
     1
102
RTVSPropertyOp18
 70
     1
102
RTVSPropertyOp19
 70
     1
102
RTVSPropertyOp20
 70
     1
102
RTVSPropertyOp21
 70
     1
102
RTVSPropertyOp22
 70
     1
102
RTVSPropertyOp23
 70
     1
102
RTVSPropertyOp24
 70
     1
102
RTVSPropertyOp25
 70
     1
102
RTVSPropertyOp26
 70
     1
102
RTVSPropertyOp27
 70
     1
102
RTVSPropertyOp28
 70
     1
102
RTVSPropertyOp29
 70
     1
102
RTVSPropertyOp30
 70
     1
102
RTVSPropertyOp31
 70
     1
102
RTVSPropertyOp32
 70
     1
102
RTVSPropertyOp33
 70
     1
102
RTVSPropertyOp34
 70
     1
102
RTVSPropertyOp35
 70
     1
102
RTVSPropertyOp36
 70
     1
102
RTVSPropertyOp37
 70
     1
102
RTVSPropertyOp38
 70
     1
102
RTVSPropertyOp39
 70
     1
102
RTVSPropertyOp40
 70
     1
102
RTVSPropertyOp41
 70
     1
102
RTVSPropertyOp42
 70
     1
102
RTVSPropertyOp43
 70
     1
102
RTVSPropertyOp44
 70
     1
102
RTVSPropertyOp45
 70
     1
102
RTVSPropertyOp46
 70
     1
102
RTVSPropertyOp47
 70
     1
102
RTVSPropertyOp48
 70
     1
102
RTVSPropertyOp49
 70
     1
102
RTVSPropertyOp50
 70
     1
102
RTVSPropertyOp51
 70
     0
102
RTVSPropertyOp52
 70
     0
102
RTVSPropertyOp53
 70
     1
102
RTVSPropertyOp54
 70
     1
102
RTVSPropertyOp55
 70
     1
102
RTVSPropertyOp56
 70
     1
102
RTVSPropertyOp57
 70
     1
102
RTVSPropertyOp58
 70
     1
102
RTVSPropertyOp59
 70
     1
102
RTVSPropertyOp60
 70
     1
102
RTVSPropertyOp61
 70
     1
102
RTVSPropertyOp62
 70
     1
  0
XRECORD
  5
14F4C
102
{ACAD_REACTORS
330
14F4B
102
}
330
14F4B
100
AcDbXrecord
280
     1
102
RTVSPost2010Prop28
280
     0
102
RTVSPost2010PropOp28
 70
     1
102
RTVSPost2010Prop29
280
     1
102
RTVSPost2010PropOp29
 70
     1
102
RTVSPost2010Prop30
280
     1
102
RTVSPost2010PropOp30
 70
     1
102
RTVSPost2010Prop31
280
     0
102
RTVSPost2010PropOp31
 70
     1
102
RTVSPost2010Prop32
280
     0
102
RTVSPost2010PropOp32
 70
     1
102
RTVSPost2010Prop33
280
     0
102
RTVSPost2010PropOp33
 70
     1
102
RTVSPost2010Prop34
280
     0
102
RTVSPost2010PropOp34
 70
     1
102
RTVSPost2010Prop35
280
     0
102
RTVSPost2010PropOp35
 70
     1
102
RTVSPost2010Prop36
280
     0
102
RTVSPost2010PropOp36
 70
     1
102
RTVSPost2010Prop37
 90
       50
102
RTVSPost2010PropOp37
 70
     1
102
RTVSPost2010Prop38
140
0.0
102
RTVSPost2010PropOp38
 70
     1
102
RTVSPost2010Prop39
140
1.0
102
RTVSPost2010PropOp39
 70
     1
102
RTVSPost2010Prop40
 90
        0
102
RTVSPost2010PropOp40
 70
     1
102
RTVSPost2010Prop41ColorIndex
 90
       18
102
RTVSPost2010Prop41ColorRGB
 90
        0
102
RTVSPost2010PropOp41
 70
     1
102
RTVSPost2010Prop42
 90
       50
102
RTVSPost2010PropOp42
 70
     1
102
RTVSPost2010Prop43
 90
        3
102
RTVSPost2010PropOp43
 70
     1
102
RTVSPost2010Prop44ColorIndex
 90
        5
102
RTVSPost2010Prop44ColorRGB
 90
      255
102
RTVSPost2010PropOp44
 70
     1
102
RTVSPost2010Prop45
280
     0
102
RTVSPost2010PropOp45
 70
     1
102
RTVSPost2010Prop46
 90
       50
102
RTVSPost2010PropOp46
 70
     1
102
RTVSPost2010Prop47
 90
       50
102
RTVSPost2010PropOp47
 70
     1
102
RTVSPost2010Prop48
 90
       50
102
RTVSPost2010PropOp48
 70
     1
102
RTVSPost2010Prop49
280
     0
102
RTVSPost2010PropOp49
 70
     1
102
RTVSPost2010Prop50
 90
       50
102
RTVSPost2010PropOp50
 70
     1
102
RTVSPost2010Prop51ColorIndex
 90
      256
102
RTVSPost2010Prop51ColorRGB
 90
-16777216
102
RTVSPost2010PropOp51
 70
     0
102
RTVSPost2010Prop52
140
1.0
102
RTVSPost2010PropOp52
 70
     0
102
RTVSPost2010Prop53
 90
        2
102
RTVSPost2010PropOp53
 70
     1
102
RTVSPost2010Prop54
  1
strokes_ogs.tif
102
RTVSPost2010PropOp54
 70
     1
102
RTVSPost2010Prop55
280
     0
102
RTVSPost2010PropOp55
 70
     1
102
RTVSPost2010Prop56
140
1.0
102
RTVSPost2010PropOp56
 70
     1
102
RTVSPost2010Prop57
140
1.0
102
RTVSPost2010PropOp57
 70
     1
102
RTVSPropertyOp0
 70
     1
102
RTVSPropertyOp1
 70
     1
102
RTVSPropertyOp2
 70
     1
102
RTVSPropertyOp3
 70
     1
102
RTVSPropertyOp4
 70
     1
102
RTVSPropertyOp5
 70
     1
102
RTVSPropertyOp6
 70
     1
102
RTVSPropertyOp7
 70
     1
102
RTVSPropertyOp8
 70
     1
102
RTVSPropertyOp9
 70
     1
102
RTVSPropertyOp10
 70
     1
102
RTVSPropertyOp11
 70
     1
102
RTVSPropertyOp12
 70
     1
102
RTVSPropertyOp13
 70
     1
102
RTVSPropertyOp14
 70
     1
102
RTVSPropertyOp15
 70
     1
102
RTVSPropertyOp16
 70
     1
102
RTVSPropertyOp17
 70
     1
102
RTVSPropertyOp18
 70
     1
102
RTVSPropertyOp19
 70
     1
102
RTVSPropertyOp20
 70
     1
102
RTVSPropertyOp21
 70
     1
102
RTVSPropertyOp22
 70
     1
102
RTVSPropertyOp23
 70
     1
102
RTVSPropertyOp24
 70
     1
102
RTVSPropertyOp25
 70
     1
102
RTVSPropertyOp26
 70
     1
102
RTVSPropertyOp27
 70
     1
102
RTVSPropertyOp28
 70
     1
102
RTVSPropertyOp29
 70
     1
102
RTVSPropertyOp30
 70
     1
102
RTVSPropertyOp31
 70
     1
102
RTVSPropertyOp32
 70
     1
102
RTVSPropertyOp33
 70
     1
102
RTVSPropertyOp34
 70
     1
102
RTVSPropertyOp35
 70
     1
102
RTVSPropertyOp36
 70
     1
102
RTVSPropertyOp37
 70
     1
102
RTVSPropertyOp38
 70
     1
102
RTVSPropertyOp39
 70
     1
102
RTVSPropertyOp40
 70
     1
102
RTVSPropertyOp41
 70
     1
102
RTVSPropertyOp42
 70
     1
102
RTVSPropertyOp43
 70
     1
102
RTVSPropertyOp44
 70
     1
102
RTVSPropertyOp45
 70
     1
102
RTVSPropertyOp46
 70
     1
102
RTVSPropertyOp47
 70
     1
102
RTVSPropertyOp48
 70
     1
102
RTVSPropertyOp49
 70
     1
102
RTVSPropertyOp50
 70
     1
102
RTVSPropertyOp51
 70
     0
102
RTVSPropertyOp52
 70
     0
102
RTVSPropertyOp53
 70
     1
102
RTVSPropertyOp54
 70
     1
102
RTVSPropertyOp55
 70
     1
102
RTVSPropertyOp56
 70
     1
102
RTVSPropertyOp57
 70
     1
102
RTVSPropertyOp58
 70
     1
102
RTVSPropertyOp59
 70
     1
102
RTVSPropertyOp60
 70
     1
102
RTVSPropertyOp61
 70
     1
102
RTVSPropertyOp62
 70
     1
  0
XRECORD
  5
14F40
102
{ACAD_REACTORS
330
14F3F
102
}
330
14F3F
100
AcDbXrecord
280
     1
102
RTVSPost2010Prop28
280
     0
102
RTVSPost2010PropOp28
 70
     1
102
RTVSPost2010Prop29
280
     1
102
RTVSPost2010PropOp29
 70
     1
102
RTVSPost2010Prop30
280
     1
102
RTVSPost2010PropOp30
 70
     1
102
RTVSPost2010Prop31
280
     0
102
RTVSPost2010PropOp31
 70
     1
102
RTVSPost2010Prop32
280
     0
102
RTVSPost2010PropOp32
 70
     1
102
RTVSPost2010Prop33
280
     0
102
RTVSPost2010PropOp33
 70
     1
102
RTVSPost2010Prop34
280
     0
102
RTVSPost2010PropOp34
 70
     1
102
RTVSPost2010Prop35
280
     0
102
RTVSPost2010PropOp35
 70
     1
102
RTVSPost2010Prop36
280
     0
102
RTVSPost2010PropOp36
 70
     1
102
RTVSPost2010Prop37
 90
       50
102
RTVSPost2010PropOp37
 70
     1
102
RTVSPost2010Prop38
140
0.0
102
RTVSPost2010PropOp38
 70
     1
102
RTVSPost2010Prop39
140
1.0
102
RTVSPost2010PropOp39
 70
     1
102
RTVSPost2010Prop40
 90
        0
102
RTVSPost2010PropOp40
 70
     1
102
RTVSPost2010Prop41ColorIndex
 90
       18
102
RTVSPost2010Prop41ColorRGB
 90
        0
102
RTVSPost2010PropOp41
 70
     1
102
RTVSPost2010Prop42
 90
       50
102
RTVSPost2010PropOp42
 70
     1
102
RTVSPost2010Prop43
 90
        3
102
RTVSPost2010PropOp43
 70
     1
102
RTVSPost2010Prop44ColorIndex
 90
        5
102
RTVSPost2010Prop44ColorRGB
 90
      255
102
RTVSPost2010PropOp44
 70
     1
102
RTVSPost2010Prop45
280
     0
102
RTVSPost2010PropOp45
 70
     1
102
RTVSPost2010Prop46
 90
       50
102
RTVSPost2010PropOp46
 70
     1
102
RTVSPost2010Prop47
 90
       50
102
RTVSPost2010PropOp47
 70
     1
102
RTVSPost2010Prop48
 90
       50
102
RTVSPost2010PropOp48
 70
     1
102
RTVSPost2010Prop49
280
     0
102
RTVSPost2010PropOp49
 70
     1
102
RTVSPost2010Prop50
 90
       50
102
RTVSPost2010PropOp50
 70
     1
102
RTVSPost2010Prop51ColorIndex
 90
      256
102
RTVSPost2010Prop51ColorRGB
 90
-16777216
102
RTVSPost2010PropOp51
 70
     0
102
RTVSPost2010Prop52
140
1.0
102
RTVSPost2010PropOp52
 70
     0
102
RTVSPost2010Prop53
 90
        2
102
RTVSPost2010PropOp53
 70
     1
102
RTVSPost2010Prop54
  1
strokes_ogs.tif
102
RTVSPost2010PropOp54
 70
     1
102
RTVSPost2010Prop55
280
     0
102
RTVSPost2010PropOp55
 70
     1
102
RTVSPost2010Prop56
140
1.0
102
RTVSPost2010PropOp56
 70
     1
102
RTVSPost2010Prop57
140
1.0
102
RTVSPost2010PropOp57
 70
     1
102
RTVSPropertyOp0
 70
     1
102
RTVSPropertyOp1
 70
     1
102
RTVSPropertyOp2
 70
     1
102
RTVSPropertyOp3
 70
     1
102
RTVSPropertyOp4
 70
     1
102
RTVSPropertyOp5
 70
     1
102
RTVSPropertyOp6
 70
     1
102
RTVSPropertyOp7
 70
     1
102
RTVSPropertyOp8
 70
     1
102
RTVSPropertyOp9
 70
     1
102
RTVSPropertyOp10
 70
     1
102
RTVSPropertyOp11
 70
     1
102
RTVSPropertyOp12
 70
     1
102
RTVSPropertyOp13
 70
     1
102
RTVSPropertyOp14
 70
     1
102
RTVSPropertyOp15
 70
     1
102
RTVSPropertyOp16
 70
     1
102
RTVSPropertyOp17
 70
     1
102
RTVSPropertyOp18
 70
     1
102
RTVSPropertyOp19
 70
     1
102
RTVSPropertyOp20
 70
     1
102
RTVSPropertyOp21
 70
     1
102
RTVSPropertyOp22
 70
     1
102
RTVSPropertyOp23
 70
     1
102
RTVSPropertyOp24
 70
     1
102
RTVSPropertyOp25
 70
     1
102
RTVSPropertyOp26
 70
     1
102
RTVSPropertyOp27
 70
     1
102
RTVSPropertyOp28
 70
     1
102
RTVSPropertyOp29
 70
     1
102
RTVSPropertyOp30
 70
     1
102
RTVSPropertyOp31
 70
     1
102
RTVSPropertyOp32
 70
     1
102
RTVSPropertyOp33
 70
     1
102
RTVSPropertyOp34
 70
     1
102
RTVSPropertyOp35
 70
     1
102
RTVSPropertyOp36
 70
     1
102
RTVSPropertyOp37
 70
     1
102
RTVSPropertyOp38
 70
     1
102
RTVSPropertyOp39
 70
     1
102
RTVSPropertyOp40
 70
     1
102
RTVSPropertyOp41
 70
     1
102
RTVSPropertyOp42
 70
     1
102
RTVSPropertyOp43
 70
     1
102
RTVSPropertyOp44
 70
     1
102
RTVSPropertyOp45
 70
     1
102
RTVSPropertyOp46
 70
     1
102
RTVSPropertyOp47
 70
     1
102
RTVSPropertyOp48
 70
     1
102
RTVSPropertyOp49
 70
     1
102
RTVSPropertyOp50
 70
     1
102
RTVSPropertyOp51
 70
     0
102
RTVSPropertyOp52
 70
     0
102
RTVSPropertyOp53
 70
     1
102
RTVSPropertyOp54
 70
     1
102
RTVSPropertyOp55
 70
     1
102
RTVSPropertyOp56
 70
     1
102
RTVSPropertyOp57
 70
     1
102
RTVSPropertyOp58
 70
     1
102
RTVSPropertyOp59
 70
     1
102
RTVSPropertyOp60
 70
     1
102
RTVSPropertyOp61
 70
     1
102
RTVSPropertyOp62
 70
     1
  0
XRECORD
  5
14F58
102
{ACAD_REACTORS
330
14F57
102
}
330
14F57
100
AcDbXrecord
280
     1
102
RTVSPost2010Prop28
280
     0
102
RTVSPost2010PropOp28
 70
     1
102
RTVSPost2010Prop29
280
     1
102
RTVSPost2010PropOp29
 70
     1
102
RTVSPost2010Prop30
280
     1
102
RTVSPost2010PropOp30
 70
     1
102
RTVSPost2010Prop31
280
     0
102
RTVSPost2010PropOp31
 70
     1
102
RTVSPost2010Prop32
280
     0
102
RTVSPost2010PropOp32
 70
     1
102
RTVSPost2010Prop33
280
     0
102
RTVSPost2010PropOp33
 70
     1
102
RTVSPost2010Prop34
280
     0
102
RTVSPost2010PropOp34
 70
     1
102
RTVSPost2010Prop35
280
     0
102
RTVSPost2010PropOp35
 70
     1
102
RTVSPost2010Prop36
280
     0
102
RTVSPost2010PropOp36
 70
     1
102
RTVSPost2010Prop37
 90
       50
102
RTVSPost2010PropOp37
 70
     1
102
RTVSPost2010Prop38
140
0.0
102
RTVSPost2010PropOp38
 70
     1
102
RTVSPost2010Prop39
140
1.0
102
RTVSPost2010PropOp39
 70
     1
102
RTVSPost2010Prop40
 90
        0
102
RTVSPost2010PropOp40
 70
     1
102
RTVSPost2010Prop41ColorIndex
 90
       18
102
RTVSPost2010Prop41ColorRGB
 90
        0
102
RTVSPost2010PropOp41
 70
     1
102
RTVSPost2010Prop42
 90
       50
102
RTVSPost2010PropOp42
 70
     1
102
RTVSPost2010Prop43
 90
        3
102
RTVSPost2010PropOp43
 70
     1
102
RTVSPost2010Prop44ColorIndex
 90
        5
102
RTVSPost2010Prop44ColorRGB
 90
      255
102
RTVSPost2010PropOp44
 70
     1
102
RTVSPost2010Prop45
280
     0
102
RTVSPost2010PropOp45
 70
     1
102
RTVSPost2010Prop46
 90
       50
102
RTVSPost2010PropOp46
 70
     1
102
RTVSPost2010Prop47
 90
       50
102
RTVSPost2010PropOp47
 70
     1
102
RTVSPost2010Prop48
 90
       50
102
RTVSPost2010PropOp48
 70
     1
102
RTVSPost2010Prop49
280
     0
102
RTVSPost2010PropOp49
 70
     1
102
RTVSPost2010Prop50
 90
       50
102
RTVSPost2010PropOp50
 70
     1
102
RTVSPost2010Prop51ColorIndex
 90
      256
102
RTVSPost2010Prop51ColorRGB
 90
-16777216
102
RTVSPost2010PropOp51
 70
     0
102
RTVSPost2010Prop52
140
1.0
102
RTVSPost2010PropOp52
 70
     0
102
RTVSPost2010Prop53
 90
        2
102
RTVSPost2010PropOp53
 70
     1
102
RTVSPost2010Prop54
  1
strokes_ogs.tif
102
RTVSPost2010PropOp54
 70
     1
102
RTVSPost2010Prop55
280
     0
102
RTVSPost2010PropOp55
 70
     1
102
RTVSPost2010Prop56
140
1.0
102
RTVSPost2010PropOp56
 70
     1
102
RTVSPost2010Prop57
140
1.0
102
RTVSPost2010PropOp57
 70
     1
102
RTVSPropertyOp0
 70
     1
102
RTVSPropertyOp1
 70
     1
102
RTVSPropertyOp2
 70
     1
102
RTVSPropertyOp3
 70
     1
102
RTVSPropertyOp4
 70
     1
102
RTVSPropertyOp5
 70
     1
102
RTVSPropertyOp6
 70
     1
102
RTVSPropertyOp7
 70
     1
102
RTVSPropertyOp8
 70
     1
102
RTVSPropertyOp9
 70
     1
102
RTVSPropertyOp10
 70
     1
102
RTVSPropertyOp11
 70
     1
102
RTVSPropertyOp12
 70
     1
102
RTVSPropertyOp13
 70
     1
102
RTVSPropertyOp14
 70
     1
102
RTVSPropertyOp15
 70
     1
102
RTVSPropertyOp16
 70
     1
102
RTVSPropertyOp17
 70
     1
102
RTVSPropertyOp18
 70
     1
102
RTVSPropertyOp19
 70
     1
102
RTVSPropertyOp20
 70
     1
102
RTVSPropertyOp21
 70
     1
102
RTVSPropertyOp22
 70
     1
102
RTVSPropertyOp23
 70
     1
102
RTVSPropertyOp24
 70
     1
102
RTVSPropertyOp25
 70
     1
102
RTVSPropertyOp26
 70
     1
102
RTVSPropertyOp27
 70
     1
102
RTVSPropertyOp28
 70
     1
102
RTVSPropertyOp29
 70
     1
102
RTVSPropertyOp30
 70
     1
102
RTVSPropertyOp31
 70
     1
102
RTVSPropertyOp32
 70
     1
102
RTVSPropertyOp33
 70
     1
102
RTVSPropertyOp34
 70
     1
102
RTVSPropertyOp35
 70
     1
102
RTVSPropertyOp36
 70
     1
102
RTVSPropertyOp37
 70
     1
102
RTVSPropertyOp38
 70
     1
102
RTVSPropertyOp39
 70
     1
102
RTVSPropertyOp40
 70
     1
102
RTVSPropertyOp41
 70
     1
102
RTVSPropertyOp42
 70
     1
102
RTVSPropertyOp43
 70
     1
102
RTVSPropertyOp44
 70
     1
102
RTVSPropertyOp45
 70
     1
102
RTVSPropertyOp46
 70
     1
102
RTVSPropertyOp47
 70
     1
102
RTVSPropertyOp48
 70
     1
102
RTVSPropertyOp49
 70
     1
102
RTVSPropertyOp50
 70
     1
102
RTVSPropertyOp51
 70
     0
102
RTVSPropertyOp52
 70
     0
102
RTVSPropertyOp53
 70
     1
102
RTVSPropertyOp54
 70
     1
102
RTVSPropertyOp55
 70
     1
102
RTVSPropertyOp56
 70
     1
102
RTVSPropertyOp57
 70
     1
102
RTVSPropertyOp58
 70
     1
102
RTVSPropertyOp59
 70
     1
102
RTVSPropertyOp60
 70
     1
102
RTVSPropertyOp61
 70
     1
102
RTVSPropertyOp62
 70
     1
  0
ENDSEC
  0
EOF
