  0
SECTION
  2
HEADER
  9
$ACADVER
  1
AC1015
  9
$ACADMAINTVER
 70
    20
  9
$DWGCODEPAGE
  3
ANSI_932
  9
$INSBASE
 10
0.0
 20
0.0
 30
0.0
  9
$EXTMIN
 10
10.0
 20
9.999999999999998
 30
0.0
  9
$EXTMAX
 10
1252.5
 20
734.4999999999998
 30
0.0
  9
$LIMMIN
 10
0.0
 20
0.0
  9
$LIMMAX
 10
1306.799999999999
 20
900.9
  9
$ORTHOMODE
 70
     0
  9
$REGENMODE
 70
     1
  9
$FILLMODE
 70
     1
  9
$QTEXTMODE
 70
     0
  9
$MIRRTEXT
 70
     1
  9
$LTSCALE
 40
20.0
  9
$ATTMODE
 70
     1
  9
$TEXTSIZE
 40
5.0
  9
$TRACEWID
 40
1.0
  9
$TEXTSTYLE
  7
STANDARD
  9
$CLAYER
  8
0
  9
$CELTYPE
  6
BYLAYER
  9
$CECOLOR
 62
   256
  9
$CELTSCALE
 40
1.0
  9
$DISPSILH
 70
     0
  9
$DIMSCALE
 40
1.0
  9
$DIMASZ
 40
2.5
  9
$DIMEXO
 40
1.0
  9
$DIMDLI
 40
10.0
  9
$DIMRND
 40
0.0
  9
$DIMDLE
 40
0.0
  9
$DIMEXE
 40
1.0
  9
$DIMTP
 40
0.0
  9
$DIMTM
 40
0.0
  9
$DIMTXT
 40
2.5
  9
$DIMCEN
 40
0.0
  9
$DIMTSZ
 40
0.0
  9
$DIMTOL
 70
     0
  9
$DIMLIM
 70
     0
  9
$DIMTIH
 70
     0
  9
$DIMTOH
 70
     0
  9
$DIMSE1
 70
     0
  9
$DIMSE2
 70
     0
  9
$DIMTAD
 70
     3
  9
$DIMZIN
 70
     8
  9
$DIMBLK
  1

  9
$DIMASO
 70
     1
  9
$DIMSHO
 70
     1
  9
$DIMPOST
  1

  9
$DIMAPOST
  1

  9
$DIMALT
 70
     0
  9
$DIMALTD
 70
     2
  9
$DIMALTF
 40
25.4
  9
$DIMLFAC
 40
1.0
  9
$DIMTOFL
 70
     1
  9
$DIMTVP
 40
0.0
  9
$DIMTIX
 70
     0
  9
$DIMSOXD
 70
     0
  9
$DIMSAH
 70
     1
  9
$DIMBLK1
  1

  9
$DIMBLK2
  1

  9
$DIMSTYLE
  2
STANDARD
  9
$DIMCLRD
 70
     0
  9
$DIMCLRE
 70
     0
  9
$DIMCLRT
 70
     0
  9
$DIMTFAC
 40
1.0
  9
$DIMGAP
 40
1.0
  9
$DIMJUST
 70
     0
  9
$DIMSD1
 70
     0
  9
$DIMSD2
 70
     0
  9
$DIMTOLJ
 70
     1
  9
$DIMTZIN
 70
     0
  9
$DIMALTZ
 70
     0
  9
$DIMALTTZ
 70
     0
  9
$DIMUPT
 70
     0
  9
$DIMDEC
 70
     4
  9
$DIMTDEC
 70
     4
  9
$DIMALTU
 70
     2
  9
$DIMALTTD
 70
     2
  9
$DIMTXSTY
  7
STANDARD
  9
$DIMAUNIT
 70
     0
  9
$DIMADEC
 70
     0
  9
$DIMALTRND
 40
0.0
  9
$DIMAZIN
 70
     0
  9
$DIMDSEP
 70
    46
  9
$DIMATFIT
 70
     3
  9
$DIMFRAC
 70
     0
  9
$DIMLDRBLK
  1

  9
$DIMLUNIT
 70
     2
  9
$DIMLWD
 70
    -2
  9
$DIMLWE
 70
    -2
  9
$DIMTMOVE
 70
     0
  9
$LUNITS
 70
     2
  9
$LUPREC
 70
     4
  9
$SKETCHINC
 40
1.0
  9
$FILLETRAD
 40
0.0
  9
$AUNITS
 70
     0
  9
$AUPREC
 70
     2
  9
$MENU
  1
.
  9
$ELEVATION
 40
0.0
  9
$PELEVATION
 40
0.0
  9
$THICKNESS
 40
0.0
  9
$LIMCHECK
 70
     0
  9
$CHAMFERA
 40
10.0
  9
$CHAMFERB
 40
10.0
  9
$CHAMFERC
 40
0.0
  9
$CHAMFERD
 40
0.0
  9
$SKPOLY
 70
     0
  9
$TDCREATE
 40
2451263.699533912
  9
$TDUCREATE
 40
2451263.324533912
  9
$TDUPDATE
 40
2457192.661633137
  9
$TDUUPDATE
 40
2457192.286633137
  9
$TDINDWG
 40
0.0000151736
  9
$TDUSRTIMER
 40
0.0000146759
  9
$USRTIMER
 70
     1
  9
$ANGBASE
 50
0.0
  9
$ANGDIR
 70
     0
  9
$PDMODE
 70
     0
  9
$PDSIZE
 40
0.0
  9
$PLINEWID
 40
0.0
  9
$SPLFRAME
 70
     0
  9
$SPLINETYPE
 70
     6
  9
$SPLINESEGS
 70
     8
  9
$HANDSEED
  5
16B5F
  9
$SURFTAB1
 70
     6
  9
$SURFTAB2
 70
     6
  9
$SURFTYPE
 70
     6
  9
$SURFU
 70
     6
  9
$SURFV
 70
     6
  9
$UCSBASE
  2

  9
$UCSNAME
  2

  9
$UCSORG
 10
0.0
 20
0.0
 30
0.0
  9
$UCSXDIR
 10
1.0
 20
0.0
 30
0.0
  9
$UCSYDIR
 10
0.0
 20
1.0
 30
0.0
  9
$UCSORTHOREF
  2

  9
$UCSORTHOVIEW
 70
     0
  9
$UCSORGTOP
 10
0.0
 20
0.0
 30
0.0
  9
$UCSORGBOTTOM
 10
0.0
 20
0.0
 30
0.0
  9
$UCSORGLEFT
 10
0.0
 20
0.0
 30
0.0
  9
$UCSORGRIGHT
 10
0.0
 20
0.0
 30
0.0
  9
$UCSORGFRONT
 10
0.0
 20
0.0
 30
0.0
  9
$UCSORGBACK
 10
0.0
 20
0.0
 30
0.0
  9
$PUCSBASE
  2

  9
$PUCSNAME
  2

  9
$PUCSORG
 10
0.0
 20
0.0
 30
0.0
  9
$PUCSXDIR
 10
1.0
 20
0.0
 30
0.0
  9
$PUCSYDIR
 10
0.0
 20
1.0
 30
0.0
  9
$PUCSORTHOREF
  2

  9
$PUCSORTHOVIEW
 70
     0
  9
$PUCSORGTOP
 10
0.0
 20
0.0
 30
0.0
  9
$PUCSORGBOTTOM
 10
0.0
 20
0.0
 30
0.0
  9
$PUCSORGLEFT
 10
0.0
 20
0.0
 30
0.0
  9
$PUCSORGRIGHT
 10
0.0
 20
0.0
 30
0.0
  9
$PUCSORGFRONT
 10
0.0
 20
0.0
 30
0.0
  9
$PUCSORGBACK
 10
0.0
 20
0.0
 30
0.0
  9
$USERI1
 70
     0
  9
$USERI2
 70
     0
  9
$USERI3
 70
     0
  9
$USERI4
 70
     0
  9
$USERI5
 70
     0
  9
$USERR1
 40
0.0
  9
$USERR2
 40
0.0
  9
$USERR3
 40
0.0
  9
$USERR4
 40
0.0
  9
$USERR5
 40
0.0
  9
$WORLDVIEW
 70
     1
  9
$SHADEDGE
 70
     3
  9
$SHADEDIF
 70
    70
  9
$TILEMODE
 70
     1
  9
$MAXACTVP
 70
    16
  9
$PINSBASE
 10
0.0
 20
0.0
 30
0.0
  9
$PLIMCHECK
 70
     0
  9
$PEXTMIN
 10
1.000000000000000E+20
 20
1.000000000000000E+20
 30
1.000000000000000E+20
  9
$PEXTMAX
 10
-1.000000000000000E+20
 20
-1.000000000000000E+20
 30
-1.000000000000000E+20
  9
$PLIMMIN
 10
0.0
 20
0.0
  9
$PLIMMAX
 10
420.0
 20
297.0
  9
$UNITMODE
 70
     0
  9
$VISRETAIN
 70
     0
  9
$PLINEGEN
 70
     0
  9
$PSLTSCALE
 70
     0
  9
$TREEDEPTH
 70
  3020
  9
$CMLSTYLE
  2
STANDARD
  9
$CMLJUST
 70
     0
  9
$CMLSCALE
 40
1.0
  9
$PROXYGRAPHICS
 70
     1
  9
$MEASUREMENT
 70
     0
  9
$CELWEIGHT
370
    -1
  9
$ENDCAPS
280
     0
  9
$JOINSTYLE
280
     0
  9
$LWDISPLAY
290
     0
  9
$INSUNITS
 70
     0
  9
$HYPERLINKBASE
  1

  9
$STYLESHEET
  1

  9
$XEDIT
290
     1
  9
$CEPSNTYPE
380
     0
  9
$PSTYLEMODE
290
     1
  9
$FINGERPRINTGUID
  2
{379EB021-A3DF-4571-A7B1-5802BB42D5C3}
  9
$VERSIONGUID
  2
{12DC090F-D585-4626-82B5-16EF2FA76A9D}
  9
$EXTNAMES
290
     1
  9
$PSVPSCALE
 40
0.0
  9
$OLESTARTUP
290
     0
  0
ENDSEC
  0
SECTION
  2
CLASSES
  0
CLASS
  1
ACDBDICTIONARYWDFLT
  2
AcDbDictionaryWithDefault
  3
ObjectDBX Classes
 90
        0
280
     0
281
     0
  0
CLASS
  1
ACDBPLACEHOLDER
  2
AcDbPlaceHolder
  3
ObjectDBX Classes
 90
        0
280
     0
281
     0
  0
CLASS
  1
LAYOUT
  2
AcDbLayout
  3
ObjectDBX Classes
 90
        0
280
     0
281
     0
  0
CLASS
  1
DICTIONARYVAR
  2
AcDbDictionaryVar
  3
ObjectDBX Classes
 90
        0
280
     0
281
     0
  0
CLASS
  1
MATERIAL
  2
AcDbMaterial
  3
ObjectDBX Classes
 90
     1153
280
     0
281
     0
  0
CLASS
  1
VISUALSTYLE
  2
AcDbVisualStyle
  3
ObjectDBX Classes
 90
     4095
280
     0
281
     0
  0
CLASS
  1
TABLESTYLE
  2
AcDbTableStyle
  3
ObjectDBX Classes
 90
     4095
280
     0
281
     0
  0
CLASS
  1
SCALE
  2
AcDbScale
  3
ObjectDBX Classes
 90
     1153
280
     0
281
     0
  0
CLASS
  1
MLEADERSTYLE
  2
AcDbMLeaderStyle
  3
ACDB_MLEADERSTYLE_CLASS
 90
     4095
280
     0
281
     0
  0
CLASS
  1
ACDBSECTIONVIEWSTYLE
  2
AcDbSectionViewStyle
  3
ObjectDBX Classes
 90
     1025
280
     0
281
     0
  0
CLASS
  1
ACDBDETAILVIEWSTYLE
  2
AcDbDetailViewStyle
  3
ObjectDBX Classes
 90
     1025
280
     0
281
     0
  0
CLASS
  1
CELLSTYLEMAP
  2
AcDbCellStyleMap
  3
ObjectDBX Classes
 90
     1152
280
     0
281
     0
  0
ENDSEC
  0
SECTION
  2
TABLES
  0
TABLE
  2
VPORT
  5
16558
330
0
100
AcDbSymbolTable
 70
     1
  0
VPORT
  5
16AA8
330
16558
100
AcDbSymbolTableRecord
100
AcDbViewportTableRecord
  2
*ACTIVE
 70
     0
 10
0.0
 20
0.0
 11
1.0
 21
1.0
 12
850.6804368855553
 22
372.2316029586614
 13
0.0
 23
0.0
 14
10.0
 24
10.0
 15
10.0
 25
10.0
 16
0.0
 26
0.0
 36
1.0
 17
0.0
 27
0.0
 37
0.0
 40
732.6896233269637
 41
1.899603698811096
 42
50.0
 43
0.0
 44
0.0
 50
0.0
 51
0.0
 71
     0
 72
   100
 73
     1
 74
     0
 75
     0
 76
     0
 77
     0
 78
     0
281
     0
 65
     1
110
0.0
120
0.0
130
0.0
111
1.0
121
0.0
131
0.0
112
0.0
122
1.0
132
0.0
 79
     0
146
0.0
1001
ACAD_NAV_VCDISPLAY
1070
     3
  0
ENDTAB
  0
TABLE
  2
LTYPE
  5
16555
330
0
100
AcDbSymbolTable
 70
     4
  0
LTYPE
  5
16563
330
16555
100
AcDbSymbolTableRecord
100
AcDbLinetypeTableRecord
  2
BYBLOCK
 70
     0
  3

 72
    65
 73
     0
 40
0.0
  0
LTYPE
  5
16564
330
16555
100
AcDbSymbolTableRecord
100
AcDbLinetypeTableRecord
  2
BYLAYER
 70
     0
  3

 72
    65
 73
     0
 40
0.0
  0
LTYPE
  5
16565
330
16555
100
AcDbSymbolTableRecord
100
AcDbLinetypeTableRecord
  2
CONTINUOUS
 70
     0
  3
Solid line
 72
    65
 73
     0
 40
0.0
  0
LTYPE
  5
16573
330
16555
100
AcDbSymbolTableRecord
100
AcDbLinetypeTableRecord
  2
DASHED
 70
     0
  3
__ __ __ __ __ __ __ __ __ __ __ __ __ __ __ __
 72
    65
 73
     2
 40
0.75
 49
0.5
 74
     0
 49
-0.25
 74
     0
  0
LTYPE
  5
16574
330
16555
100
AcDbSymbolTableRecord
100
AcDbLinetypeTableRecord
  2
CENTER
 70
     0
  3
____ _ ____ _ ____ _ ____ _ ____ _ ____ _ ____ 
 72
    65
 73
     4
 40
2.0
 49
1.25
 74
     0
 49
-0.25
 74
     0
 49
0.25
 74
     0
 49
-0.25
 74
     0
  0
LTYPE
  5
16575
330
16555
100
AcDbSymbolTableRecord
100
AcDbLinetypeTableRecord
  2
PHANTOM
 70
     0
  3
______  __  __  ______  __  __  ______  __  __ 
 72
    65
 73
     6
 40
2.5
 49
1.25
 74
     0
 49
-0.25
 74
     0
 49
0.25
 74
     0
 49
-0.25
 74
     0
 49
0.25
 74
     0
 49
-0.25
 74
     0
  0
ENDTAB
  0
TABLE
  2
LAYER
  5
16552
330
0
100
AcDbSymbolTable
 70
     8
  0
LAYER
  5
16560
102
{ACAD_XDICTIONARY
360
16B03
102
}
330
16552
100
AcDbSymbolTableRecord
100
AcDbLayerTableRecord
  2
0
 70
     0
 62
     7
  6
CONTINUOUS
370
    -3
390
16AB1
  0
LAYER
  5
16576
102
{ACAD_XDICTIONARY
360
16B05
102
}
330
16552
100
AcDbSymbolTableRecord
100
AcDbLayerTableRecord
  2
4
 70
     0
 62
     1
  6
CENTER
370
    -3
390
16AB1
  0
LAYER
  5
16577
102
{ACAD_XDICTIONARY
360
16B07
102
}
330
16552
100
AcDbSymbolTableRecord
100
AcDbLayerTableRecord
  2
5
 70
     0
 62
     6
  6
PHANTOM
370
    -3
390
16AB1
  0
LAYER
  5
16578
102
{ACAD_XDICTIONARY
360
16B09
102
}
330
16552
100
AcDbSymbolTableRecord
100
AcDbLayerTableRecord
  2
1
 70
     0
 62
     7
  6
CONTINUOUS
370
    -3
390
16AB1
  0
LAYER
  5
16579
102
{ACAD_XDICTIONARY
360
16B0B
102
}
330
16552
100
AcDbSymbolTableRecord
100
AcDbLayerTableRecord
  2
2
 70
     0
 62
     4
  6
CONTINUOUS
370
    -3
390
16AB1
  0
LAYER
  5
1657A
102
{ACAD_XDICTIONARY
360
16B0D
102
}
330
16552
100
AcDbSymbolTableRecord
100
AcDbLayerTableRecord
  2
3
 70
     0
 62
     2
  6
DASHED
370
    -3
390
16AB1
  0
LAYER
  5
1657B
102
{ACAD_XDICTIONARY
360
16B0F
102
}
330
16552
100
AcDbSymbolTableRecord
100
AcDbLayerTableRecord
  2
6
 70
     0
 62
     5
  6
CONTINUOUS
370
    -3
390
16AB1
  0
LAYER
  5
1657C
102
{ACAD_XDICTIONARY
360
16B11
102
}
330
16552
100
AcDbSymbolTableRecord
100
AcDbLayerTableRecord
  2
7
 70
     0
 62
     3
  6
CONTINUOUS
370
    -3
390
16AB1
  0
ENDTAB
  0
TABLE
  2
STYLE
  5
16553
330
0
100
AcDbSymbolTable
 70
     1
  0
STYLE
  5
16561
330
16553
100
AcDbSymbolTableRecord
100
AcDbTextStyleTableRecord
  2
STANDARD
 70
     0
 40
0.0
 41
1.0
 50
0.0
 71
     0
 42
5.0
  3
txt
  4

  0
ENDTAB
  0
TABLE
  2
VIEW
  5
16556
330
0
100
AcDbSymbolTable
 70
     0
  0
ENDTAB
  0
TABLE
  2
UCS
  5
16557
330
0
100
AcDbSymbolTable
 70
     0
  0
ENDTAB
  0
TABLE
  2
APPID
  5
16559
330
0
100
AcDbSymbolTable
 70
     3
  0
APPID
  5
16562
330
16559
100
AcDbSymbolTableRecord
100
AcDbRegAppTableRecord
  2
ACAD
 70
     0
  0
APPID
  5
16B1D
330
16559
100
AcDbSymbolTableRecord
100
AcDbRegAppTableRecord
  2
ACAD_NAV_VCDISPLAY
 70
     0
  0
APPID
  5
16B56
330
16559
100
AcDbSymbolTableRecord
100
AcDbRegAppTableRecord
  2
ACAD_MLEADERVER
 70
     0
  0
ENDTAB
  0
TABLE
  2
DIMSTYLE
  5
1655A
330
0
100
AcDbSymbolTable
 70
     1
100
AcDbDimStyleTable
 71
     0
  0
DIMSTYLE
105
1657E
330
1655A
100
AcDbSymbolTableRecord
100
AcDbDimStyleTableRecord
  2
STANDARD
 70
     0
 41
2.5
 42
1.0
 43
10.0
 44
1.0
 73
     0
 74
     0
 77
     3
 78
     8
140
2.5
141
0.0
147
1.0
172
     1
173
     1
284
     8
285
     8
286
     8
340
16561
  0
ENDTAB
  0
TABLE
  2
BLOCK_RECORD
  5
16551
330
0
100
AcDbSymbolTable
 70
     0
  0
BLOCK_RECORD
  5
1656E
102
{ACAD_XDICTIONARY
360
16AAB
102
}
330
16551
100
AcDbSymbolTableRecord
100
AcDbBlockTableRecord
  2
*MODEL_SPACE
340
16AFF
  0
BLOCK_RECORD
  5
1656A
102
{ACAD_XDICTIONARY
360
16AA9
102
}
330
16551
100
AcDbSymbolTableRecord
100
AcDbBlockTableRecord
  2
*PAPER_SPACE
340
16B00
  0
ENDTAB
  0
ENDSEC
  0
SECTION
  2
BLOCKS
  0
BLOCK
  5
1656F
330
1656E
100
AcDbEntity
  8
0
100
AcDbBlockBegin
  2
*MODEL_SPACE
 70
     0
 10
0.0
 20
0.0
 30
0.0
  3
*MODEL_SPACE
  1

  0
ENDBLK
  5
16570
330
1656E
100
AcDbEntity
  8
0
100
AcDbBlockEnd
  0
BLOCK
  5
1656B
330
1656A
100
AcDbEntity
 67
     1
  8
0
100
AcDbBlockBegin
  2
*PAPER_SPACE
 70
     0
 10
0.0
 20
0.0
 30
0.0
  3
*PAPER_SPACE
  1

  0
ENDBLK
  5
1656C
330
1656A
100
AcDbEntity
 67
     1
  8
0
100
AcDbBlockEnd
  0
ENDSEC
  0
SECTION
  2
ENTITIES
  0
TEXT
  5
16586
330
1656E
100
AcDbEntity
  8
7
  6
Continuous
100
AcDbText
 10
10.0
 20
18.0
 30
0.0
 40
3.0
  1
TYPE No.TM-211-7
100
AcDbText
  0
TEXT
  5
16587
330
1656E
100
AcDbEntity
  8
7
  6
Continuous
100
AcDbText
 10
10.0
 20
26.0
 30
0.0
 40
3.0
  1
CODE No.5797
100
AcDbText
  0
TEXT
  5
16588
330
1656E
100
AcDbEntity
  8
1
  6
Continuous
100
AcDbText
 10
10.0
 20
10.0
 30
0.0
 40
1.399999999999999
  1
LAYER
100
AcDbText
  0
TEXT
  5
16589
330
1656E
100
AcDbEntity
  8
1
  6
Continuous
100
AcDbText
 10
17.97951099999998
 20
10.04873699999998
 30
0.0
 40
1.399999999999999
  1
1
100
AcDbText
  0
TEXT
  5
1658A
330
1656E
100
AcDbEntity
  8
7
  6
Continuous
100
AcDbText
 10
29.97951099999999
 20
10.04873699999998
 30
0.0
 40
1.399999999999999
  1
7
100
AcDbText
  0
TEXT
  5
1658B
330
1656E
100
AcDbEntity
  8
4
  6
CENTER
100
AcDbText
 10
23.97951099999999
 20
10.04873699999998
 30
0.0
 40
1.399999999999999
  1
4
100
AcDbText
  0
TEXT
  5
1658C
330
1656E
100
AcDbEntity
  8
3
  6
DASHED
100
AcDbText
 10
21.979511
 20
10.04873699999998
 30
0.0
 40
1.399999999999999
  1
3
100
AcDbText
  0
TEXT
  5
1658D
330
1656E
100
AcDbEntity
  8
2
  6
Continuous
100
AcDbText
 10
19.97951099999999
 20
10.04873699999998
 30
0.0
 40
1.399999999999999
  1
2
100
AcDbText
  0
TEXT
  5
1658E
330
1656E
100
AcDbEntity
  8
6
  6
Continuous
100
AcDbText
 10
27.979511
 20
10.04873699999998
 30
0.0
 40
1.399999999999999
  1
6
100
AcDbText
  0
TEXT
  5
1658F
330
1656E
100
AcDbEntity
  8
5
  6
PHANTOM
100
AcDbText
 10
25.97951099999999
 20
10.04873699999998
 30
0.0
 40
1.399999999999999
  1
5
100
AcDbText
  0
CIRCLE
  5
16590
330
1656E
100
AcDbEntity
  8
1
  6
Continuous
100
AcDbCircle
 10
586.0
 20
319.5
 30
0.0
 40
5.0
  0
CIRCLE
  5
16591
330
1656E
100
AcDbEntity
  8
1
  6
Continuous
100
AcDbCircle
 10
586.0
 20
319.5
 30
0.0
 40
3.0
  0
LINE
  5
16592
330
1656E
100
AcDbEntity
  8
3
  6
DASHED
100
AcDbLine
 10
703.0
 20
307.0
 30
0.0
 11
685.5
 21
307.0
 31
0.0
  0
LINE
  5
16593
330
1656E
100
AcDbEntity
  8
4
  6
CENTER
100
AcDbLine
 10
706.0
 20
317.0
 30
0.0
 11
659.25
 21
317.0
 31
0.0
  0
LINE
  5
16594
330
1656E
100
AcDbEntity
  8
1
  6
Continuous
100
AcDbLine
 10
697.7639319999998
 20
331.0
 30
0.0
 11
111.0
 21
331.0
 31
0.0
  0
LINE
  5
16595
330
1656E
100
AcDbEntity
  8
1
  6
Continuous
100
AcDbLine
 10
1122.0
 20
329.4999999999999
 30
0.0
 11
654.5781950000002
 21
329.4999999999999
 31
0.0
  0
LINE
  5
16596
330
1656E
100
AcDbEntity
  8
1
  6
Continuous
100
AcDbLine
 10
1165.0
 20
303.5
 30
0.0
 11
639.0
 21
303.5
 31
0.0
  0
LINE
  5
16597
330
1656E
100
AcDbEntity
  8
1
  6
Continuous
100
AcDbLine
 10
1150.0
 20
332.0
 30
0.0
 11
1122.0
 21
329.4999999999999
 31
0.0
  0
ARC
  5
16598
330
1656E
100
AcDbEntity
  8
1
  6
Continuous
100
AcDbCircle
 10
1163.499999999999
 20
327.1145589999998
 30
0.0
 40
1.5
100
AcDbArc
 50
286.772393
 51
0.0
  0
LINE
  5
16599
330
1656E
100
AcDbEntity
  8
1
  6
Continuous
100
AcDbLine
 10
1165.0
 20
332.0
 30
0.0
 11
1150.0
 21
332.0
 31
0.0
  0
LINE
  5
1659A
330
1656E
100
AcDbEntity
  8
1
  6
Continuous
100
AcDbLine
 10
1165.0
 20
332.0
 30
0.0
 11
1165.0
 21
327.1145589999998
 31
0.0
  0
LINE
  5
1659B
330
1656E
100
AcDbEntity
  8
1
  6
Continuous
100
AcDbLine
 10
1163.932855999999
 20
325.6783709999999
 30
0.0
 11
1156.422859
 21
323.414917
 31
0.0
  0
LINE
  5
1659C
330
1656E
100
AcDbEntity
  8
1
  6
Continuous
100
AcDbLine
 10
1163.499999999999
 20
319.5
 30
0.0
 11
1157.0
 21
319.5
 31
0.0
  0
LINE
  5
1659D
330
1656E
100
AcDbEntity
  8
1
  6
Continuous
100
AcDbLine
 10
1160.858195
 20
314.619837
 30
0.0
 11
1157.273396999999
 21
316.3944419999999
 31
0.0
  0
ARC
  5
1659E
330
1656E
100
AcDbEntity
  8
1
  6
Continuous
100
AcDbCircle
 10
1151.0
 20
319.5
 30
0.0
 40
11.0
100
AcDbArc
 50
296.3370750000001
 51
333.6629249999999
  0
LINE
  5
1659F
330
1656E
100
AcDbEntity
  8
1
  6
Continuous
100
AcDbLine
 10
1165.0
 20
318.0
 30
0.0
 11
1165.0
 21
303.5
 31
0.0
  0
ARC
  5
165A0
330
1656E
100
AcDbEntity
  8
1
  6
Continuous
100
AcDbCircle
 10
1163.499999999999
 20
318.0
 30
0.0
 40
1.5
100
AcDbArc
 50
0.0
 51
90.0
  0
LINE
  5
165A1
330
1656E
100
AcDbEntity
  8
4
  6
CENTER
100
AcDbLine
 10
1155.75
 20
319.5
 30
0.0
 11
1134.249999999999
 21
319.5
 31
0.0
  0
ARC
  5
165A2
330
1656E
100
AcDbEntity
  8
1
  6
Continuous
100
AcDbCircle
 10
1157.0
 20
321.4999999999998
 30
0.0
 40
2.0
100
AcDbArc
 50
106.7723929999998
 51
270.0
  0
ARC
  5
165A3
330
1656E
100
AcDbEntity
  8
1
  6
Continuous
100
AcDbCircle
 10
1151.0
 20
319.5
 30
0.0
 40
7.0
100
AcDbArc
 50
296.3370750000001
 51
333.6629249999999
  0
LINE
  5
165A4
330
1656E
100
AcDbEntity
  8
1
  6
Continuous
100
AcDbLine
 10
1155.880163
 20
309.641805
 30
0.0
 11
1154.105558
 21
313.2266029999998
 31
0.0
  0
CIRCLE
  5
165A5
330
1656E
100
AcDbEntity
  8
1
  6
Continuous
100
AcDbCircle
 10
1150.0
 20
319.5
 30
0.0
 40
2.399999999999999
  0
LINE
  5
165A6
330
1656E
100
AcDbEntity
  8
4
  6
CENTER
100
AcDbLine
 10
1150.0
 20
325.2499999999999
 30
0.0
 11
1150.0
 21
313.75
 31
0.0
  0
LINE
  5
165A7
330
1656E
100
AcDbEntity
  8
1
  6
Continuous
100
AcDbLine
 10
1142.4
 20
320.5
 30
0.0
 11
1142.4
 21
318.5
 31
0.0
  0
ARC
  5
165A8
330
1656E
100
AcDbEntity
  8
1
  6
Continuous
100
AcDbCircle
 10
1140.0
 20
320.5
 30
0.0
 40
2.399999999999999
100
AcDbArc
 50
0.0
 51
180.0
  0
LINE
  5
165A9
330
1656E
100
AcDbEntity
  8
1
  6
Continuous
100
AcDbLine
 10
1137.599999999999
 20
320.5
 30
0.0
 11
1137.599999999999
 21
318.5
 31
0.0
  0
ARC
  5
165AA
330
1656E
100
AcDbEntity
  8
1
  6
Continuous
100
AcDbCircle
 10
1140.0
 20
318.5
 30
0.0
 40
2.399999999999999
100
AcDbArc
 50
180.0
 51
0.0
  0
LINE
  5
165AB
330
1656E
100
AcDbEntity
  8
4
  6
CENTER
100
AcDbLine
 10
1140.0
 20
326.25
 30
0.0
 11
1140.0
 21
312.7499999999999
 31
0.0
  0
LINE
  5
165AC
330
1656E
100
AcDbEntity
  8
4
  6
CENTER
100
AcDbLine
 10
619.2499999999999
 20
319.5
 30
0.0
 11
640.7499999999997
 21
319.5
 31
0.0
  0
LINE
  5
165AD
330
1656E
100
AcDbEntity
  8
1
  6
Continuous
100
AcDbLine
 10
634.0
 20
303.5
 30
0.0
 11
571.0
 21
303.5
 31
0.0
  0
LINE
  5
165AE
330
1656E
100
AcDbEntity
  8
4
  6
CENTER
100
AcDbLine
 10
750.75
 20
319.5
 30
0.0
 11
762.25
 21
319.5
 31
0.0
  0
LINE
  5
165AF
330
1656E
100
AcDbEntity
  8
4
  6
CENTER
100
AcDbLine
 10
756.5
 20
325.2499999999999
 30
0.0
 11
756.5
 21
313.75
 31
0.0
  0
CIRCLE
  5
165B0
330
1656E
100
AcDbEntity
  8
1
  6
Continuous
100
AcDbCircle
 10
756.5
 20
319.5
 30
0.0
 40
2.399999999999999
  0
LINE
  5
165B1
330
1656E
100
AcDbEntity
  8
1
  6
Continuous
100
AcDbLine
 10
638.0
 20
305.0
 30
0.0
 11
634.0
 21
303.5
 31
0.0
  0
LINE
  5
165B2
330
1656E
100
AcDbEntity
  8
1
  6
Continuous
100
AcDbLine
 10
639.0
 20
305.0
 30
0.0
 11
639.0
 21
303.5
 31
0.0
  0
LINE
  5
165B3
330
1656E
100
AcDbEntity
  8
4
  6
CENTER
100
AcDbLine
 10
586.0
 20
334.5
 30
0.0
 11
586.0
 21
304.4999999999999
 31
0.0
  0
LINE
  5
165B4
330
1656E
100
AcDbEntity
  8
1
  6
Continuous
100
AcDbLine
 10
569.0
 20
327.4999999999999
 30
0.0
 11
569.0
 21
305.5
 31
0.0
  0
LINE
  5
165B5
330
1656E
100
AcDbEntity
  8
1
  6
Continuous
100
AcDbLine
 10
654.5781950000002
 20
329.4999999999999
 30
0.0
 11
619.5
 21
329.4999999999999
 31
0.0
  0
LINE
  5
165B6
330
1656E
100
AcDbEntity
  8
4
  6
CENTER
100
AcDbLine
 10
601.0
 20
319.5
 30
0.0
 11
571.0
 21
319.5
 31
0.0
  0
LINE
  5
165B7
330
1656E
100
AcDbEntity
  8
4
  6
CENTER
100
AcDbLine
 10
594.2499999999999
 20
311.5
 30
0.0
 11
605.75
 21
311.5
 31
0.0
  0
LINE
  5
165B8
330
1656E
100
AcDbEntity
  8
4
  6
CENTER
100
AcDbLine
 10
625.0
 20
324.8999999999999
 30
0.0
 11
625.0
 21
314.1
 31
0.0
  0
LINE
  5
165B9
330
1656E
100
AcDbEntity
  8
4
  6
CENTER
100
AcDbLine
 10
574.5499999999998
 20
311.2999999999999
 30
0.0
 11
574.5499999999998
 21
303.8
 31
0.0
  0
LINE
  5
165BA
330
1656E
100
AcDbEntity
  8
4
  6
CENTER
100
AcDbLine
 10
600.0
 20
317.2499999999998
 30
0.0
 11
600.0
 21
305.75
 31
0.0
  0
LINE
  5
165BB
330
1656E
100
AcDbEntity
  8
4
  6
CENTER
100
AcDbLine
 10
570.7999999999998
 20
307.55
 30
0.0
 11
578.2999999999998
 21
307.55
 31
0.0
  0
LINE
  5
165BC
330
1656E
100
AcDbEntity
  8
1
  6
Continuous
100
AcDbLine
 10
156.0
 20
307.0
 30
0.0
 11
127.0
 21
304.4999999999999
 31
0.0
  0
LINE
  5
165BD
330
1656E
100
AcDbEntity
  8
4
  6
CENTER
100
AcDbLine
 10
119.25
 20
317.0
 30
0.0
 11
140.7499999999998
 21
317.0
 31
0.0
  0
LINE
  5
165BE
330
1656E
100
AcDbEntity
  8
3
  6
DASHED
100
AcDbLine
 10
680.0
 20
307.0
 30
0.0
 11
569.0
 21
307.0
 31
0.0
  0
LINE
  5
165BF
330
1656E
100
AcDbEntity
  8
4
  6
CENTER
100
AcDbLine
 10
691.0
 20
332.0
 30
0.0
 11
691.0
 21
302.0
 31
0.0
  0
CIRCLE
  5
165C0
330
1656E
100
AcDbEntity
  8
1
  6
Continuous
100
AcDbCircle
 10
625.0
 20
319.5
 30
0.0
 40
2.399999999999999
  0
LINE
  5
165C1
330
1656E
100
AcDbEntity
  8
3
  6
DASHED
100
AcDbLine
 10
680.0
 20
308.4999999999999
 30
0.0
 11
680.0
 21
307.0
 31
0.0
  0
LINE
  5
165C2
330
1656E
100
AcDbEntity
  8
3
  6
DASHED
100
AcDbLine
 10
681.5
 20
308.4999999999999
 30
0.0
 11
685.5
 21
307.0
 31
0.0
  0
LINE
  5
165C3
330
1656E
100
AcDbEntity
  8
1
  6
Continuous
100
AcDbLine
 10
632.6
 20
320.5
 30
0.0
 11
632.6
 21
318.5
 31
0.0
  0
ARC
  5
165C4
330
1656E
100
AcDbEntity
  8
1
  6
Continuous
100
AcDbCircle
 10
635.0
 20
320.5
 30
0.0
 40
2.399999999999999
100
AcDbArc
 50
0.0
 51
180.0
  0
LINE
  5
165C5
330
1656E
100
AcDbEntity
  8
1
  6
Continuous
100
AcDbLine
 10
637.3999999999997
 20
320.5
 30
0.0
 11
637.3999999999997
 21
318.5
 31
0.0
  0
ARC
  5
165C6
330
1656E
100
AcDbEntity
  8
1
  6
Continuous
100
AcDbCircle
 10
635.0
 20
318.5
 30
0.0
 40
2.399999999999999
100
AcDbArc
 50
180.0
 51
0.0
  0
LINE
  5
165C7
330
1656E
100
AcDbEntity
  8
4
  6
CENTER
100
AcDbLine
 10
550.75
 20
317.0
 30
0.0
 11
529.25
 21
317.0
 31
0.0
  0
ARC
  5
165C8
330
1656E
100
AcDbEntity
  8
1
  6
Continuous
100
AcDbCircle
 10
535.0
 20
316.0
 30
0.0
 40
2.399999999999999
100
AcDbArc
 50
180.0
 51
0.0
  0
ARC
  5
165C9
330
1656E
100
AcDbEntity
  8
1
  6
Continuous
100
AcDbCircle
 10
535.0
 20
318.0
 30
0.0
 40
2.399999999999999
100
AcDbArc
 50
0.0
 51
180.0
  0
LINE
  5
165CA
330
1656E
100
AcDbEntity
  8
1
  6
Continuous
100
AcDbLine
 10
537.3999999999998
 20
318.0
 30
0.0
 11
537.3999999999998
 21
316.0
 31
0.0
  0
LINE
  5
165CB
330
1656E
100
AcDbEntity
  8
4
  6
CENTER
100
AcDbLine
 10
535.0
 20
323.75
 30
0.0
 11
535.0
 21
310.25
 31
0.0
  0
CIRCLE
  5
165CC
330
1656E
100
AcDbEntity
  8
1
  6
Continuous
100
AcDbCircle
 10
545.0
 20
317.0
 30
0.0
 40
2.399999999999999
  0
LINE
  5
165CD
330
1656E
100
AcDbEntity
  8
4
  6
CENTER
100
AcDbLine
 10
545.0
 20
322.75
 30
0.0
 11
545.0
 21
311.25
 31
0.0
  0
LINE
  5
165CE
330
1656E
100
AcDbEntity
  8
1
  6
Continuous
100
AcDbLine
 10
532.6
 20
318.0
 30
0.0
 11
532.6
 21
316.0
 31
0.0
  0
LINE
  5
165CF
330
1656E
100
AcDbEntity
  8
4
  6
CENTER
100
AcDbLine
 10
135.0
 20
323.75
 30
0.0
 11
135.0
 21
310.25
 31
0.0
  0
LINE
  5
165D0
330
1656E
100
AcDbEntity
  8
1
  6
Continuous
100
AcDbLine
 10
137.4
 20
318.0
 30
0.0
 11
137.4
 21
316.0
 31
0.0
  0
ARC
  5
165D1
330
1656E
100
AcDbEntity
  8
1
  6
Continuous
100
AcDbCircle
 10
135.0
 20
318.0
 30
0.0
 40
2.399999999999999
100
AcDbArc
 50
0.0
 51
180.0
  0
LINE
  5
165D2
330
1656E
100
AcDbEntity
  8
1
  6
Continuous
100
AcDbLine
 10
132.6
 20
318.0
 30
0.0
 11
132.6
 21
316.0
 31
0.0
  0
ARC
  5
165D3
330
1656E
100
AcDbEntity
  8
1
  6
Continuous
100
AcDbCircle
 10
135.0
 20
316.0
 30
0.0
 40
2.399999999999999
100
AcDbArc
 50
180.0
 51
0.0
  0
LINE
  5
165D4
330
1656E
100
AcDbEntity
  8
1
  6
Continuous
100
AcDbLine
 10
109.0
 20
318.5
 30
0.0
 11
109.0
 21
329.0
 31
0.0
  0
ARC
  5
165D5
330
1656E
100
AcDbEntity
  8
1
  6
Continuous
100
AcDbCircle
 10
111.0
 20
329.0
 30
0.0
 40
2.0
100
AcDbArc
 50
90.0
 51
180.0
  0
LINE
  5
165D6
330
1656E
100
AcDbEntity
  8
1
  6
Continuous
100
AcDbLine
 10
109.0
 20
304.4999999999999
 30
0.0
 11
109.0
 21
309.385441
 31
0.0
  0
LINE
  5
165D7
330
1656E
100
AcDbEntity
  8
1
  6
Continuous
100
AcDbLine
 10
110.4999999999999
 20
317.0
 30
0.0
 11
117.0
 21
317.0
 31
0.0
  0
LINE
  5
165D8
330
1656E
100
AcDbEntity
  8
1
  6
Continuous
100
AcDbLine
 10
110.0671439999999
 20
310.8216289999999
 30
0.0
 11
117.577141
 21
313.0850829999999
 31
0.0
  0
ARC
  5
165D9
330
1656E
100
AcDbEntity
  8
1
  6
Continuous
100
AcDbCircle
 10
117.0
 20
315.0
 30
0.0
 40
2.0
100
AcDbArc
 50
286.772393
 51
90.0
  0
LINE
  5
165DA
330
1656E
100
AcDbEntity
  8
4
  6
CENTER
100
AcDbLine
 10
125.0
 20
322.75
 30
0.0
 11
125.0
 21
311.25
 31
0.0
  0
CIRCLE
  5
165DB
330
1656E
100
AcDbEntity
  8
1
  6
Continuous
100
AcDbCircle
 10
125.0
 20
317.0
 30
0.0
 40
2.399999999999999
  0
ARC
  5
165DC
330
1656E
100
AcDbEntity
  8
1
  6
Continuous
100
AcDbCircle
 10
110.4999999999999
 20
318.5
 30
0.0
 40
1.5
100
AcDbArc
 50
180.0
 51
270.0
  0
ARC
  5
165DD
330
1656E
100
AcDbEntity
  8
1
  6
Continuous
100
AcDbCircle
 10
110.4999999999999
 20
309.385441
 30
0.0
 40
1.5
100
AcDbArc
 50
106.7723929999998
 51
180.0
  0
LINE
  5
165DE
330
1656E
100
AcDbEntity
  8
1
  6
Continuous
100
AcDbLine
 10
109.0
 20
304.4999999999999
 30
0.0
 11
127.0
 21
304.4999999999999
 31
0.0
  0
ARC
  5
165DF
330
1656E
100
AcDbEntity
  8
1
  6
Continuous
100
AcDbCircle
 10
586.0
 20
319.5
 30
0.0
 40
11.0
100
AcDbArc
 50
65.38002299999999
 51
114.619977
  0
LINE
  5
165E0
330
1656E
100
AcDbEntity
  8
1
  6
Continuous
100
AcDbLine
 10
1165.0
 20
233.4999999999999
 30
0.0
 11
569.0
 21
233.4999999999999
 31
0.0
  0
LINE
  5
165E1
330
1656E
100
AcDbEntity
  8
1
  6
Continuous
100
AcDbLine
 10
705.0
 20
221.0
 30
0.0
 11
109.0
 21
221.0
 31
0.0
  0
LINE
  5
165E2
330
1656E
100
AcDbEntity
  8
1
  6
Continuous
100
AcDbLine
 10
1165.0
 20
151.0
 30
0.0
 11
639.0
 21
151.0
 31
0.0
  0
LINE
  5
165E3
330
1656E
100
AcDbEntity
  8
1
  6
Continuous
100
AcDbLine
 10
1165.0
 20
149.5
 30
0.0
 11
638.0
 21
149.5
 31
0.0
  0
LINE
  5
165E4
330
1656E
100
AcDbEntity
  8
1
  6
Continuous
100
AcDbLine
 10
1122.0
 20
125.0
 30
0.0
 11
699.75
 21
125.0
 31
0.0
  0
LINE
  5
165E5
330
1656E
100
AcDbEntity
  8
1
  6
Continuous
100
AcDbLine
 10
680.0
 20
147.5
 30
0.0
 11
156.0
 21
147.5
 31
0.0
  0
LINE
  5
165E6
330
1656E
100
AcDbEntity
  8
1
  6
Continuous
100
AcDbLine
 10
697.7639319999998
 20
123.5
 30
0.0
 11
111.0
 21
123.5
 31
0.0
  0
LINE
  5
165E7
330
1656E
100
AcDbEntity
  8
1
  6
Continuous
100
AcDbLine
 10
156.0
 20
147.5
 30
0.0
 11
127.0
 21
150.0
 31
0.0
  0
LINE
  5
165E8
330
1656E
100
AcDbEntity
  8
1
  6
Continuous
100
AcDbLine
 10
109.0
 20
150.0
 30
0.0
 11
109.0
 21
145.114559
 31
0.0
  0
LINE
  5
165E9
330
1656E
100
AcDbEntity
  8
1
  6
Continuous
100
AcDbLine
 10
114.0
 20
150.0
 30
0.0
 11
114.0
 21
148.0
 31
0.0
  0
ARC
  5
165EA
330
1656E
100
AcDbEntity
  8
1
  6
Continuous
100
AcDbCircle
 10
115.5
 20
148.0
 30
0.0
 40
1.5
100
AcDbArc
 50
180.0
 51
270.0
  0
LINE
  5
165EB
330
1656E
100
AcDbEntity
  8
1
  6
Continuous
100
AcDbLine
 10
110.0671439999999
 20
143.678371
 30
0.0
 11
117.577141
 21
141.4149169999998
 31
0.0
  0
LINE
  5
165EC
330
1656E
100
AcDbEntity
  8
1
  6
Continuous
100
AcDbLine
 10
110.4999999999999
 20
137.5
 30
0.0
 11
117.0
 21
137.5
 31
0.0
  0
LINE
  5
165ED
330
1656E
100
AcDbEntity
  8
1
  6
Continuous
100
AcDbLine
 10
114.0
 20
148.5
 30
0.0
 11
126.9354649999998
 21
148.5
 31
0.0
  0
LINE
  5
165EE
330
1656E
100
AcDbEntity
  8
1
  6
Continuous
100
AcDbLine
 10
109.0
 20
136.0
 30
0.0
 11
109.0
 21
125.5
 31
0.0
  0
ARC
  5
165EF
330
1656E
100
AcDbEntity
  8
1
  6
Continuous
100
AcDbCircle
 10
111.0
 20
125.5
 30
0.0
 40
2.0
100
AcDbArc
 50
180.0
 51
270.0
  0
ARC
  5
165F0
330
1656E
100
AcDbEntity
  8
1
  6
Continuous
100
AcDbCircle
 10
110.4999999999999
 20
145.114559
 30
0.0
 40
1.5
100
AcDbArc
 50
180.0
 51
253.2276069999999
  0
ARC
  5
165F1
330
1656E
100
AcDbEntity
  8
1
  6
Continuous
100
AcDbCircle
 10
110.4999999999999
 20
136.0
 30
0.0
 40
1.5
100
AcDbArc
 50
90.0
 51
180.0
  0
LINE
  5
165F2
330
1656E
100
AcDbEntity
  8
4
  6
CENTER
100
AcDbLine
 10
119.25
 20
137.5
 30
0.0
 11
140.7499999999998
 21
137.5
 31
0.0
  0
LINE
  5
165F3
330
1656E
100
AcDbEntity
  8
1
  6
Continuous
100
AcDbLine
 10
142.0
 20
146.5
 30
0.0
 11
115.5
 21
146.5
 31
0.0
  0
LINE
  5
165F4
330
1656E
100
AcDbEntity
  8
1
  6
Continuous
100
AcDbLine
 10
143.198508
 20
147.0980139999998
 30
0.0
 11
126.9354649999998
 21
148.5
 31
0.0
  0
CIRCLE
  5
165F5
330
1656E
100
AcDbEntity
  8
1
  6
Continuous
100
AcDbCircle
 10
125.0
 20
137.5
 30
0.0
 40
2.399999999999999
  0
LINE
  5
165F6
330
1656E
100
AcDbEntity
  8
4
  6
CENTER
100
AcDbLine
 10
125.0
 20
131.75
 30
0.0
 11
125.0
 21
143.25
 31
0.0
  0
ARC
  5
165F7
330
1656E
100
AcDbEntity
  8
1
  6
Continuous
100
AcDbCircle
 10
117.0
 20
139.5
 30
0.0
 40
2.0
100
AcDbArc
 50
270.0
 51
73.22760699999998
  0
ARC
  5
165F8
330
1656E
100
AcDbEntity
  8
1
  6
Continuous
100
AcDbCircle
 10
135.0
 20
138.5
 30
0.0
 40
2.399999999999999
100
AcDbArc
 50
0.0
 51
180.0
  0
LINE
  5
165F9
330
1656E
100
AcDbEntity
  8
1
  6
Continuous
100
AcDbLine
 10
132.6
 20
136.4999999999998
 30
0.0
 11
132.6
 21
138.5
 31
0.0
  0
ARC
  5
165FA
330
1656E
100
AcDbEntity
  8
1
  6
Continuous
100
AcDbCircle
 10
135.0
 20
136.4999999999998
 30
0.0
 40
2.399999999999999
100
AcDbArc
 50
180.0
 51
0.0
  0
LINE
  5
165FB
330
1656E
100
AcDbEntity
  8
1
  6
Continuous
100
AcDbLine
 10
137.4
 20
136.4999999999998
 30
0.0
 11
137.4
 21
138.5
 31
0.0
  0
LINE
  5
165FC
330
1656E
100
AcDbEntity
  8
4
  6
CENTER
100
AcDbLine
 10
135.0
 20
130.75
 30
0.0
 11
135.0
 21
144.25
 31
0.0
  0
LINE
  5
165FD
330
1656E
100
AcDbEntity
  8
1
  6
Continuous
100
AcDbLine
 10
143.5
 20
148.5775859999999
 30
0.0
 11
143.5
 21
148.0
 31
0.0
  0
ARC
  5
165FE
330
1656E
100
AcDbEntity
  8
1
  6
Continuous
100
AcDbCircle
 10
142.0
 20
148.0
 30
0.0
 40
1.5
100
AcDbArc
 50
270.0
 51
0.0
  0
LINE
  5
165FF
330
1656E
100
AcDbEntity
  8
1
  6
Continuous
100
AcDbLine
 10
109.0
 20
150.0
 30
0.0
 11
127.0
 21
150.0
 31
0.0
  0
LINE
  5
16600
330
1656E
100
AcDbEntity
  8
4
  6
CENTER
100
AcDbLine
 10
594.2499999999999
 20
143.0
 30
0.0
 11
605.75
 21
143.0
 31
0.0
  0
LINE
  5
16601
330
1656E
100
AcDbEntity
  8
4
  6
CENTER
100
AcDbLine
 10
601.0
 20
135.0
 30
0.0
 11
571.0
 21
135.0
 31
0.0
  0
LINE
  5
16602
330
1656E
100
AcDbEntity
  8
3
  6
DASHED
100
AcDbLine
 10
699.75
 20
125.0
 30
0.0
 11
619.5
 21
125.0
 31
0.0
  0
LINE
  5
16603
330
1656E
100
AcDbEntity
  8
1
  6
Continuous
100
AcDbLine
 10
634.0
 20
151.0
 30
0.0
 11
571.0
 21
151.0
 31
0.0
  0
ARC
  5
16604
330
1656E
100
AcDbEntity
  8
1
  6
Continuous
100
AcDbCircle
 10
535.0
 20
136.4999999999998
 30
0.0
 40
2.399999999999999
100
AcDbArc
 50
180.0
 51
0.0
  0
ARC
  5
16605
330
1656E
100
AcDbEntity
  8
1
  6
Continuous
100
AcDbCircle
 10
535.0
 20
138.5
 30
0.0
 40
2.399999999999999
100
AcDbArc
 50
0.0
 51
180.0
  0
LINE
  5
16606
330
1656E
100
AcDbEntity
  8
4
  6
CENTER
100
AcDbLine
 10
550.75
 20
137.5
 30
0.0
 11
529.25
 21
137.5
 31
0.0
  0
LINE
  5
16607
330
1656E
100
AcDbEntity
  8
1
  6
Continuous
100
AcDbLine
 10
532.6
 20
136.4999999999998
 30
0.0
 11
532.6
 21
138.5
 31
0.0
  0
LINE
  5
16608
330
1656E
100
AcDbEntity
  8
4
  6
CENTER
100
AcDbLine
 10
574.5499999999998
 20
143.1999999999999
 30
0.0
 11
574.5499999999998
 21
150.6999999999998
 31
0.0
  0
LINE
  5
16609
330
1656E
100
AcDbEntity
  8
4
  6
CENTER
100
AcDbLine
 10
586.0
 20
120.0
 30
0.0
 11
586.0
 21
150.0
 31
0.0
  0
LINE
  5
1660A
330
1656E
100
AcDbEntity
  8
4
  6
CENTER
100
AcDbLine
 10
545.0
 20
131.75
 30
0.0
 11
545.0
 21
143.25
 31
0.0
  0
CIRCLE
  5
1660B
330
1656E
100
AcDbEntity
  8
1
  6
Continuous
100
AcDbCircle
 10
545.0
 20
137.5
 30
0.0
 40
2.399999999999999
  0
LINE
  5
1660C
330
1656E
100
AcDbEntity
  8
4
  6
CENTER
100
AcDbLine
 10
535.0
 20
130.75
 30
0.0
 11
535.0
 21
144.25
 31
0.0
  0
LINE
  5
1660D
330
1656E
100
AcDbEntity
  8
1
  6
Continuous
100
AcDbLine
 10
537.3999999999998
 20
136.4999999999998
 30
0.0
 11
537.3999999999998
 21
138.5
 31
0.0
  0
CIRCLE
  5
1660E
330
1656E
100
AcDbEntity
  8
3
  6
DASHED
100
AcDbCircle
 10
586.0
 20
135.0
 30
0.0
 40
11.0
  0
LINE
  5
1660F
330
1656E
100
AcDbEntity
  8
3
  6
DASHED
100
AcDbLine
 10
569.0
 20
127.0
 30
0.0
 11
569.0
 21
147.5
 31
0.0
  0
LINE
  5
16610
330
1656E
100
AcDbEntity
  8
1
  6
Continuous
100
AcDbLine
 10
569.0
 20
149.0
 30
0.0
 11
569.0
 21
147.5
 31
0.0
  0
ARC
  5
16611
330
1656E
100
AcDbEntity
  8
1
  6
Continuous
100
AcDbCircle
 10
574.5499999999998
 20
146.9499999999999
 30
0.0
 40
1.75
100
AcDbArc
 50
18.317698
 51
161.6823019999999
  0
LINE
  5
16612
330
1656E
100
AcDbEntity
  8
4
  6
CENTER
100
AcDbLine
 10
570.7999999999998
 20
146.9499999999999
 30
0.0
 11
578.2999999999998
 21
146.9499999999999
 31
0.0
  0
LINE
  5
16613
330
1656E
100
AcDbEntity
  8
4
  6
CENTER
100
AcDbLine
 10
691.0
 20
122.5
 30
0.0
 11
691.0
 21
152.5
 31
0.0
  0
CIRCLE
  5
16614
330
1656E
100
AcDbEntity
  8
1
  6
Continuous
100
AcDbCircle
 10
675.0
 20
137.5
 30
0.0
 40
2.399999999999999
  0
LINE
  5
16615
330
1656E
100
AcDbEntity
  8
4
  6
CENTER
100
AcDbLine
 10
619.2499999999999
 20
135.0
 30
0.0
 11
640.7499999999997
 21
135.0
 31
0.0
  0
LINE
  5
16616
330
1656E
100
AcDbEntity
  8
4
  6
CENTER
100
AcDbLine
 10
706.0
 20
137.5
 30
0.0
 11
659.25
 21
137.5
 31
0.0
  0
LINE
  5
16617
330
1656E
100
AcDbEntity
  8
4
  6
CENTER
100
AcDbLine
 10
600.0
 20
137.25
 30
0.0
 11
600.0
 21
148.75
 31
0.0
  0
ARC
  5
16618
330
1656E
100
AcDbEntity
  8
1
  6
Continuous
100
AcDbCircle
 10
665.0
 20
138.5
 30
0.0
 40
2.399999999999999
100
AcDbArc
 50
0.0
 51
180.0
  0
LINE
  5
16619
330
1656E
100
AcDbEntity
  8
1
  6
Continuous
100
AcDbLine
 10
667.3999999999997
 20
136.4999999999998
 30
0.0
 11
667.3999999999997
 21
138.5
 31
0.0
  0
ARC
  5
1661A
330
1656E
100
AcDbEntity
  8
1
  6
Continuous
100
AcDbCircle
 10
665.0
 20
136.4999999999998
 30
0.0
 40
2.399999999999999
100
AcDbArc
 50
180.0
 51
0.0
  0
LINE
  5
1661B
330
1656E
100
AcDbEntity
  8
1
  6
Continuous
100
AcDbLine
 10
662.6
 20
136.4999999999998
 30
0.0
 11
662.6
 21
138.5
 31
0.0
  0
LINE
  5
1661C
330
1656E
100
AcDbEntity
  8
4
  6
CENTER
100
AcDbLine
 10
675.0
 20
132.0999999999999
 30
0.0
 11
675.0
 21
142.9
 31
0.0
  0
LINE
  5
1661D
330
1656E
100
AcDbEntity
  8
1
  6
Continuous
100
AcDbLine
 10
699.5527860000001
 20
124.6055729999998
 30
0.0
 11
705.0
 21
135.4999999999998
 31
0.0
  0
ARC
  5
1661E
330
1656E
100
AcDbEntity
  8
3
  6
DASHED
100
AcDbCircle
 10
691.0
 20
137.5
 30
0.0
 40
11.0
100
AcDbArc
 50
114.619977
 51
65.38002299999999
  0
LINE
  5
1661F
330
1656E
100
AcDbEntity
  8
1
  6
Continuous
100
AcDbLine
 10
703.0
 20
147.5
 30
0.0
 11
685.0
 21
147.5
 31
0.0
  0
ARC
  5
16620
330
1656E
100
AcDbEntity
  8
1
  6
Continuous
100
AcDbCircle
 10
691.0
 20
137.5
 30
0.0
 40
11.0
100
AcDbArc
 50
65.38002299999999
 51
114.619977
  0
CIRCLE
  5
16621
330
1656E
100
AcDbEntity
  8
1
  6
Continuous
100
AcDbCircle
 10
691.0
 20
137.5
 30
0.0
 40
3.0
  0
CIRCLE
  5
16622
330
1656E
100
AcDbEntity
  8
1
  6
Continuous
100
AcDbCircle
 10
691.0
 20
137.5
 30
0.0
 40
5.0
  0
LINE
  5
16623
330
1656E
100
AcDbEntity
  8
1
  6
Continuous
100
AcDbLine
 10
681.0
 20
146.0
 30
0.0
 11
685.0
 21
147.5
 31
0.0
  0
LINE
  5
16624
330
1656E
100
AcDbEntity
  8
1
  6
Continuous
100
AcDbLine
 10
680.0
 20
146.0
 30
0.0
 11
680.0
 21
147.5
 31
0.0
  0
LINE
  5
16625
330
1656E
100
AcDbEntity
  8
1
  6
Continuous
100
AcDbLine
 10
681.0
 20
146.0
 30
0.0
 11
680.0
 21
146.0
 31
0.0
  0
LINE
  5
16626
330
1656E
100
AcDbEntity
  8
1
  6
Continuous
100
AcDbLine
 10
639.0
 20
149.5
 30
0.0
 11
639.0
 21
151.0
 31
0.0
  0
LINE
  5
16627
330
1656E
100
AcDbEntity
  8
1
  6
Continuous
100
AcDbLine
 10
638.0
 20
149.5
 30
0.0
 11
634.0
 21
151.0
 31
0.0
  0
ARC
  5
16628
330
1656E
100
AcDbEntity
  8
1
  6
Continuous
100
AcDbCircle
 10
1151.0
 20
135.0
 30
0.0
 40
11.0
100
AcDbArc
 50
26.33707499999999
 51
63.662925
  0
ARC
  5
16629
330
1656E
100
AcDbEntity
  8
1
  6
Continuous
100
AcDbCircle
 10
1151.0
 20
135.0
 30
0.0
 40
12.5
100
AcDbArc
 50
26.33707499999999
 51
63.662925
  0
LINE
  5
1662A
330
1656E
100
AcDbEntity
  8
1
  6
Continuous
100
AcDbLine
 10
1162.202493999999
 20
140.54564
 30
0.0
 11
1157.273396999999
 21
138.1055579999998
 31
0.0
  0
LINE
  5
1662B
330
1656E
100
AcDbEntity
  8
1
  6
Continuous
100
AcDbLine
 10
1163.499999999999
 20
135.0
 30
0.0
 11
1157.0
 21
135.0
 31
0.0
  0
LINE
  5
1662C
330
1656E
100
AcDbEntity
  8
1
  6
Continuous
100
AcDbLine
 10
1163.932855999999
 20
128.821629
 30
0.0
 11
1156.422859
 21
131.0850829999999
 31
0.0
  0
LINE
  5
1662D
330
1656E
100
AcDbEntity
  8
1
  6
Continuous
100
AcDbLine
 10
1165.0
 20
122.5
 30
0.0
 11
1150.0
 21
122.5
 31
0.0
  0
CIRCLE
  5
1662E
330
1656E
100
AcDbEntity
  8
1
  6
Continuous
100
AcDbCircle
 10
756.5
 20
135.0
 30
0.0
 40
2.399999999999999
  0
CIRCLE
  5
1662F
330
1656E
100
AcDbEntity
  8
1
  6
Continuous
100
AcDbCircle
 10
756.5
 20
135.0
 30
0.0
 40
3.75
  0
LINE
  5
16630
330
1656E
100
AcDbEntity
  8
4
  6
CENTER
100
AcDbLine
 10
756.5
 20
129.2499999999998
 30
0.0
 11
756.5
 21
140.7499999999998
 31
0.0
  0
LINE
  5
16631
330
1656E
100
AcDbEntity
  8
1
  6
Continuous
100
AcDbLine
 10
1150.0
 20
122.5
 30
0.0
 11
1122.0
 21
125.0
 31
0.0
  0
ARC
  5
16632
330
1656E
100
AcDbEntity
  8
1
  6
Continuous
100
AcDbCircle
 10
1140.0
 20
134.0
 30
0.0
 40
3.75
100
AcDbArc
 50
180.0
 51
0.0
  0
ARC
  5
16633
330
1656E
100
AcDbEntity
  8
1
  6
Continuous
100
AcDbCircle
 10
1140.0
 20
136.0
 30
0.0
 40
3.75
100
AcDbArc
 50
0.0
 51
180.0
  0
ARC
  5
16634
330
1656E
100
AcDbEntity
  8
1
  6
Continuous
100
AcDbCircle
 10
1140.0
 20
136.0
 30
0.0
 40
2.399999999999999
100
AcDbArc
 50
0.0
 51
180.0
  0
ARC
  5
16635
330
1656E
100
AcDbEntity
  8
1
  6
Continuous
100
AcDbCircle
 10
1140.0
 20
134.0
 30
0.0
 40
2.399999999999999
100
AcDbArc
 50
180.0
 51
0.0
  0
LINE
  5
16636
330
1656E
100
AcDbEntity
  8
4
  6
CENTER
100
AcDbLine
 10
1140.0
 20
128.2499999999998
 30
0.0
 11
1140.0
 21
141.7499999999998
 31
0.0
  0
LINE
  5
16637
330
1656E
100
AcDbEntity
  8
1
  6
Continuous
100
AcDbLine
 10
1136.25
 20
134.0
 30
0.0
 11
1136.25
 21
136.0
 31
0.0
  0
LINE
  5
16638
330
1656E
100
AcDbEntity
  8
1
  6
Continuous
100
AcDbLine
 10
1137.599999999999
 20
134.0
 30
0.0
 11
1137.599999999999
 21
136.0
 31
0.0
  0
LINE
  5
16639
330
1656E
100
AcDbEntity
  8
1
  6
Continuous
100
AcDbLine
 10
1143.75
 20
134.0
 30
0.0
 11
1143.75
 21
136.0
 31
0.0
  0
LINE
  5
1663A
330
1656E
100
AcDbEntity
  8
1
  6
Continuous
100
AcDbLine
 10
1142.4
 20
134.0
 30
0.0
 11
1142.4
 21
136.0
 31
0.0
  0
LINE
  5
1663B
330
1656E
100
AcDbEntity
  8
4
  6
CENTER
100
AcDbLine
 10
1150.0
 20
129.2499999999998
 30
0.0
 11
1150.0
 21
140.7499999999998
 31
0.0
  0
CIRCLE
  5
1663C
330
1656E
100
AcDbEntity
  8
1
  6
Continuous
100
AcDbCircle
 10
1150.0
 20
135.0
 30
0.0
 40
3.75
  0
CIRCLE
  5
1663D
330
1656E
100
AcDbEntity
  8
1
  6
Continuous
100
AcDbCircle
 10
1150.0
 20
135.0
 30
0.0
 40
2.399999999999999
  0
LINE
  5
1663E
330
1656E
100
AcDbEntity
  8
1
  6
Continuous
100
AcDbLine
 10
1156.54564
 20
146.202494
 30
0.0
 11
1154.105558
 21
141.2733969999998
 31
0.0
  0
ARC
  5
1663F
330
1656E
100
AcDbEntity
  8
1
  6
Continuous
100
AcDbCircle
 10
1151.0
 20
135.0
 30
0.0
 40
7.0
100
AcDbArc
 50
26.33707499999999
 51
63.662925
  0
ARC
  5
16640
330
1656E
100
AcDbEntity
  8
1
  6
Continuous
100
AcDbCircle
 10
1157.0
 20
133.0
 30
0.0
 40
2.0
100
AcDbArc
 50
90.0
 51
253.2276069999999
  0
LINE
  5
16641
330
1656E
100
AcDbEntity
  8
1
  6
Continuous
100
AcDbLine
 10
1165.0
 20
136.4999999999998
 30
0.0
 11
1165.0
 21
151.0
 31
0.0
  0
ARC
  5
16642
330
1656E
100
AcDbEntity
  8
1
  6
Continuous
100
AcDbCircle
 10
1163.499999999999
 20
127.3854409999999
 30
0.0
 40
1.5
100
AcDbArc
 50
0.0
 51
73.22760699999998
  0
LINE
  5
16643
330
1656E
100
AcDbEntity
  8
1
  6
Continuous
100
AcDbLine
 10
1165.0
 20
122.5
 30
0.0
 11
1165.0
 21
127.3854409999999
 31
0.0
  0
ARC
  5
16644
330
1656E
100
AcDbEntity
  8
1
  6
Continuous
100
AcDbCircle
 10
1163.499999999999
 20
136.4999999999998
 30
0.0
 40
1.5
100
AcDbArc
 50
270.0
 51
0.0
  0
ARC
  5
16645
330
1656E
100
AcDbEntity
  8
3
  6
DASHED
100
AcDbCircle
 10
586.0
 20
319.5
 30
0.0
 40
11.0
100
AcDbArc
 50
114.619977
 51
65.38002299999999
  0
LINE
  5
16646
330
1656E
100
AcDbEntity
  8
1
  6
Continuous
100
AcDbLine
 10
569.0
 20
307.0
 30
0.0
 11
156.0
 21
307.0
 31
0.0
  0
CIRCLE
  5
16647
330
1656E
100
AcDbEntity
  8
1
  6
Continuous
100
AcDbCircle
 10
574.5499999999998
 20
307.55
 30
0.0
 40
1.75
  0
CIRCLE
  5
16648
330
1656E
100
AcDbEntity
  8
1
  6
Continuous
100
AcDbCircle
 10
600.0
 20
311.5
 30
0.0
 40
2.399999999999999
  0
LINE
  5
16649
330
1656E
100
AcDbEntity
  8
1
  6
Continuous
100
AcDbLine
 10
705.0
 20
135.4999999999998
 30
0.0
 11
705.0
 21
145.5
 31
0.0
  0
LINE
  5
1664A
330
1656E
100
AcDbEntity
  8
1
  6
Continuous
100
AcDbLine
 10
618.5
 20
328.0
 30
0.0
 11
614.5
 21
329.4999999999999
 31
0.0
  0
LINE
  5
1664B
330
1656E
100
AcDbEntity
  8
1
  6
Continuous
100
AcDbLine
 10
619.5
 20
329.4999999999999
 30
0.0
 11
619.5
 21
328.0
 31
0.0
  0
LINE
  5
1664C
330
1656E
100
AcDbEntity
  8
1
  6
Continuous
100
AcDbLine
 10
638.0
 20
305.0
 30
0.0
 11
639.0
 21
305.0
 31
0.0
  0
LINE
  5
1664D
330
1656E
100
AcDbEntity
  8
1
  6
Continuous
100
AcDbLine
 10
619.5
 20
328.0
 30
0.0
 11
618.5
 21
328.0
 31
0.0
  0
LINE
  5
1664E
330
1656E
100
AcDbEntity
  8
1
  6
Continuous
100
AcDbLine
 10
614.5
 20
329.4999999999999
 30
0.0
 11
571.0
 21
329.4999999999999
 31
0.0
  0
LINE
  5
1664F
330
1656E
100
AcDbEntity
  8
1
  6
Continuous
100
AcDbLine
 10
538.75
 20
318.0
 30
0.0
 11
538.75
 21
316.0
 31
0.0
  0
LINE
  5
16650
330
1656E
100
AcDbEntity
  8
1
  6
Continuous
100
AcDbLine
 10
531.25
 20
318.0
 30
0.0
 11
531.25
 21
316.0
 31
0.0
  0
ARC
  5
16651
330
1656E
100
AcDbEntity
  8
1
  6
Continuous
100
AcDbCircle
 10
535.0
 20
316.0
 30
0.0
 40
3.75
100
AcDbArc
 50
180.0
 51
0.0
  0
CIRCLE
  5
16652
330
1656E
100
AcDbEntity
  8
1
  6
Continuous
100
AcDbCircle
 10
545.0
 20
317.0
 30
0.0
 40
3.75
  0
ARC
  5
16653
330
1656E
100
AcDbEntity
  8
1
  6
Continuous
100
AcDbCircle
 10
535.0
 20
318.0
 30
0.0
 40
3.75
100
AcDbArc
 50
0.0
 51
180.0
  0
CIRCLE
  5
16654
330
1656E
100
AcDbEntity
  8
1
  6
Continuous
100
AcDbCircle
 10
125.0
 20
317.0
 30
0.0
 40
3.75
  0
ARC
  5
16655
330
1656E
100
AcDbEntity
  8
1
  6
Continuous
100
AcDbCircle
 10
135.0
 20
318.0
 30
0.0
 40
3.75
100
AcDbArc
 50
0.0
 51
180.0
  0
LINE
  5
16656
330
1656E
100
AcDbEntity
  8
1
  6
Continuous
100
AcDbLine
 10
131.25
 20
318.0
 30
0.0
 11
131.25
 21
316.0
 31
0.0
  0
LINE
  5
16657
330
1656E
100
AcDbEntity
  8
1
  6
Continuous
100
AcDbLine
 10
138.7499999999998
 20
318.0
 30
0.0
 11
138.7499999999998
 21
316.0
 31
0.0
  0
ARC
  5
16658
330
1656E
100
AcDbEntity
  8
1
  6
Continuous
100
AcDbCircle
 10
135.0
 20
316.0
 30
0.0
 40
3.75
100
AcDbArc
 50
180.0
 51
0.0
  0
LINE
  5
16659
330
1656E
100
AcDbEntity
  8
3
  6
DASHED
100
AcDbLine
 10
618.5
 20
126.5
 30
0.0
 11
619.5
 21
126.5
 31
0.0
  0
LINE
  5
1665A
330
1656E
100
AcDbEntity
  8
3
  6
DASHED
100
AcDbLine
 10
619.5
 20
126.5
 30
0.0
 11
700.4999999999999
 21
126.5
 31
0.0
  0
LINE
  5
1665B
330
1656E
100
AcDbEntity
  8
3
  6
DASHED
100
AcDbLine
 10
619.5
 20
125.0
 30
0.0
 11
619.5
 21
126.5
 31
0.0
  0
LINE
  5
1665C
330
1656E
100
AcDbEntity
  8
3
  6
DASHED
100
AcDbLine
 10
618.5
 20
126.5
 30
0.0
 11
614.5
 21
125.0
 31
0.0
  0
LINE
  5
1665D
330
1656E
100
AcDbEntity
  8
3
  6
DASHED
100
AcDbLine
 10
614.5
 20
125.0
 30
0.0
 11
571.0
 21
125.0
 31
0.0
  0
LINE
  5
1665E
330
1656E
100
AcDbEntity
  8
3
  6
DASHED
100
AcDbLine
 10
681.5
 20
308.4999999999999
 30
0.0
 11
596.0201060000001
 21
308.4999999999999
 31
0.0
  0
LINE
  5
1665F
330
1656E
100
AcDbEntity
  8
3
  6
DASHED
100
AcDbLine
 10
592.78233
 20
309.0
 30
0.0
 11
595.5323299999998
 21
307.0
 31
0.0
  0
LINE
  5
16660
330
1656E
100
AcDbEntity
  8
3
  6
DASHED
100
AcDbLine
 10
592.78233
 20
309.0
 30
0.0
 11
590.03233
 21
307.0
 31
0.0
  0
LINE
  5
16661
330
1656E
100
AcDbEntity
  8
3
  6
DASHED
100
AcDbLine
 10
593.6645879999997
 20
310.2131039999998
 30
0.0
 11
596.0201060000001
 21
308.4999999999999
 31
0.0
  0
LINE
  5
16662
330
1656E
100
AcDbEntity
  8
3
  6
DASHED
100
AcDbLine
 10
591.900072
 20
310.2131039999998
 30
0.0
 11
589.5445539999998
 21
308.4999999999999
 31
0.0
  0
ARC
  5
16663
330
1656E
100
AcDbEntity
  8
3
  6
DASHED
100
AcDbCircle
 10
592.78233
 20
309.0
 30
0.0
 40
1.5
100
AcDbArc
 50
53.972627
 51
126.0273729999997
  0
LINE
  5
16664
330
1656E
100
AcDbEntity
  8
1
  6
Continuous
100
AcDbLine
 10
1163.499999999999
 20
225.4999999999999
 30
0.0
 11
640.5
 21
225.4999999999999
 31
0.0
  0
LINE
  5
16665
330
1656E
100
AcDbEntity
  8
1
  6
Continuous
100
AcDbLine
 10
109.0
 20
221.0
 30
0.0
 11
109.0
 21
229.0
 31
0.0
  0
LINE
  5
16666
330
1656E
100
AcDbEntity
  8
1
  6
Continuous
100
AcDbLine
 10
569.0
 20
233.4999999999999
 30
0.0
 11
569.0
 21
232.0
 31
0.0
  0
LINE
  5
16667
330
1656E
100
AcDbEntity
  8
1
  6
Continuous
100
AcDbLine
 10
680.0
 20
221.0
 30
0.0
 11
680.0
 21
225.4999999999999
 31
0.0
  0
LINE
  5
16668
330
1656E
100
AcDbEntity
  8
1
  6
Continuous
100
AcDbLine
 10
639.0
 20
232.0
 30
0.0
 11
569.0
 21
232.0
 31
0.0
  0
LINE
  5
16669
330
1656E
100
AcDbEntity
  8
1
  6
Continuous
100
AcDbLine
 10
156.0
 20
222.0
 30
0.0
 11
156.0
 21
228.0
 31
0.0
  0
LINE
  5
1666A
330
1656E
100
AcDbEntity
  8
1
  6
Continuous
100
AcDbLine
 10
143.5
 20
221.0
 30
0.0
 11
143.5
 21
224.0
 31
0.0
  0
LINE
  5
1666B
330
1656E
100
AcDbEntity
  8
1
  6
Continuous
100
AcDbLine
 10
143.5
 20
222.5
 30
0.0
 11
114.0
 21
222.5
 31
0.0
  0
LINE
  5
1666C
330
1656E
100
AcDbEntity
  8
1
  6
Continuous
100
AcDbLine
 10
142.0
 20
225.4999999999999
 30
0.0
 11
115.5
 21
225.4999999999999
 31
0.0
  0
LINE
  5
1666D
330
1656E
100
AcDbEntity
  8
1
  6
Continuous
100
AcDbLine
 10
114.0
 20
224.0
 30
0.0
 11
114.0
 21
221.0
 31
0.0
  0
ARC
  5
1666E
330
1656E
100
AcDbEntity
  8
1
  6
Continuous
100
AcDbCircle
 10
115.5
 20
224.0
 30
0.0
 40
1.5
100
AcDbArc
 50
90.0
 51
180.0
  0
ARC
  5
1666F
330
1656E
100
AcDbEntity
  8
1
  6
Continuous
100
AcDbCircle
 10
142.0
 20
224.0
 30
0.0
 40
1.5
100
AcDbArc
 50
0.0
 51
90.0
  0
LINE
  5
16670
330
1656E
100
AcDbEntity
  8
1
  6
Continuous
100
AcDbLine
 10
705.0
 20
222.5
 30
0.0
 11
705.0
 21
221.0
 31
0.0
  0
LINE
  5
16671
330
1656E
100
AcDbEntity
  8
1
  6
Continuous
100
AcDbLine
 10
705.0
 20
222.5
 30
0.0
 11
680.0
 21
222.5
 31
0.0
  0
LINE
  5
16672
330
1656E
100
AcDbEntity
  8
4
  6
CENTER
100
AcDbLine
 10
691.0
 20
237.6235419999999
 30
0.0
 11
691.0
 21
217.1560739999999
 31
0.0
  0
LINE
  5
16673
330
1656E
100
AcDbEntity
  8
4
  6
CENTER
100
AcDbLine
 10
675.0
 20
218.0
 30
0.0
 11
675.0
 21
224.5
 31
0.0
  0
LINE
  5
16674
330
1656E
100
AcDbEntity
  8
4
  6
CENTER
100
AcDbLine
 10
665.0
 20
218.0
 30
0.0
 11
665.0
 21
224.5
 31
0.0
  0
LINE
  5
16675
330
1656E
100
AcDbEntity
  8
4
  6
CENTER
100
AcDbLine
 10
545.0
 20
218.0
 30
0.0
 11
545.0
 21
224.5
 31
0.0
  0
LINE
  5
16676
330
1656E
100
AcDbEntity
  8
4
  6
CENTER
100
AcDbLine
 10
535.0
 20
218.0
 30
0.0
 11
535.0
 21
224.5
 31
0.0
  0
LINE
  5
16677
330
1656E
100
AcDbEntity
  8
4
  6
CENTER
100
AcDbLine
 10
135.0
 20
218.0
 30
0.0
 11
135.0
 21
224.5
 31
0.0
  0
LINE
  5
16678
330
1656E
100
AcDbEntity
  8
4
  6
CENTER
100
AcDbLine
 10
125.0
 20
218.0
 30
0.0
 11
125.0
 21
224.5
 31
0.0
  0
LINE
  5
16679
330
1656E
100
AcDbEntity
  8
1
  6
Continuous
100
AcDbLine
 10
639.0
 20
227.0
 30
0.0
 11
639.0
 21
233.4999999999999
 31
0.0
  0
LINE
  5
1667A
330
1656E
100
AcDbEntity
  8
1
  6
Continuous
100
AcDbLine
 10
619.5
 20
229.0
 30
0.0
 11
619.5
 21
232.0
 31
0.0
  0
LINE
  5
1667B
330
1656E
100
AcDbEntity
  8
1
  6
Continuous
100
AcDbLine
 10
638.0
 20
232.0
 30
0.0
 11
638.0
 21
233.4999999999999
 31
0.0
  0
LINE
  5
1667C
330
1656E
100
AcDbEntity
  8
1
  6
Continuous
100
AcDbLine
 10
634.0
 20
232.0
 30
0.0
 11
634.0
 21
233.4999999999999
 31
0.0
  0
ARC
  5
1667D
330
1656E
100
AcDbEntity
  8
1
  6
Continuous
100
AcDbCircle
 10
640.5
 20
227.0
 30
0.0
 40
1.5
100
AcDbArc
 50
180.0
 51
270.0
  0
LINE
  5
1667E
330
1656E
100
AcDbEntity
  8
1
  6
Continuous
100
AcDbLine
 10
697.0
 20
225.4999999999999
 30
0.0
 11
697.0
 21
223.4999999999998
 31
0.0
  0
LINE
  5
1667F
330
1656E
100
AcDbEntity
  8
1
  6
Continuous
100
AcDbLine
 10
685.0
 20
225.4999999999999
 30
0.0
 11
685.0
 21
223.4999999999998
 31
0.0
  0
LINE
  5
16680
330
1656E
100
AcDbEntity
  8
1
  6
Continuous
100
AcDbLine
 10
697.0
 20
225.0
 30
0.0
 11
685.0
 21
225.0
 31
0.0
  0
LINE
  5
16681
330
1656E
100
AcDbEntity
  8
1
  6
Continuous
100
AcDbLine
 10
697.0
 20
223.4999999999998
 30
0.0
 11
685.0
 21
223.4999999999998
 31
0.0
  0
LINE
  5
16682
330
1656E
100
AcDbEntity
  8
1
  6
Continuous
100
AcDbLine
 10
696.7928929999999
 20
223.2071069999999
 30
0.0
 11
697.5
 21
222.5
 31
0.0
  0
LINE
  5
16683
330
1656E
100
AcDbEntity
  8
1
  6
Continuous
100
AcDbLine
 10
685.207107
 20
223.2071069999999
 30
0.0
 11
684.4999999999997
 21
222.5
 31
0.0
  0
ARC
  5
16684
330
1656E
100
AcDbEntity
  8
1
  6
Continuous
100
AcDbCircle
 10
685.914214
 20
222.5
 30
0.0
 40
1.0
100
AcDbArc
 50
90.0
 51
135.0
  0
ARC
  5
16685
330
1656E
100
AcDbEntity
  8
1
  6
Continuous
100
AcDbCircle
 10
696.0857859999999
 20
222.5
 30
0.0
 40
1.0
100
AcDbArc
 50
45.0
 51
90.0
  0
LINE
  5
16686
330
1656E
100
AcDbEntity
  8
4
  6
CENTER
100
AcDbLine
 10
625.0
 20
236.5
 30
0.0
 11
625.0
 21
230.0
 31
0.0
  0
LINE
  5
16687
330
1656E
100
AcDbEntity
  8
4
  6
CENTER
100
AcDbLine
 10
635.0
 20
236.5
 30
0.0
 11
635.0
 21
230.0
 31
0.0
  0
LINE
  5
16688
330
1656E
100
AcDbEntity
  8
4
  6
CENTER
100
AcDbLine
 10
756.5
 20
236.5
 30
0.0
 11
756.5
 21
230.0
 31
0.0
  0
LINE
  5
16689
330
1656E
100
AcDbEntity
  8
4
  6
CENTER
100
AcDbLine
 10
1140.0
 20
236.5
 30
0.0
 11
1140.0
 21
230.0
 31
0.0
  0
LINE
  5
1668A
330
1656E
100
AcDbEntity
  8
4
  6
CENTER
100
AcDbLine
 10
1150.0
 20
236.5
 30
0.0
 11
1150.0
 21
230.0
 31
0.0
  0
LINE
  5
1668B
330
1656E
100
AcDbEntity
  8
1
  6
Continuous
100
AcDbLine
 10
1165.0
 20
233.4999999999999
 30
0.0
 11
1165.0
 21
227.0
 31
0.0
  0
LINE
  5
1668C
330
1656E
100
AcDbEntity
  8
4
  6
CENTER
100
AcDbLine
 10
586.0
 20
237.768529
 30
0.0
 11
586.0
 21
217.385748
 31
0.0
  0
LINE
  5
1668D
330
1656E
100
AcDbEntity
  8
1
  6
Continuous
100
AcDbLine
 10
592.0
 20
229.0
 30
0.0
 11
592.0
 21
231.0
 31
0.0
  0
LINE
  5
1668E
330
1656E
100
AcDbEntity
  8
1
  6
Continuous
100
AcDbLine
 10
592.0
 20
231.0
 30
0.0
 11
580.0
 21
231.0
 31
0.0
  0
LINE
  5
1668F
330
1656E
100
AcDbEntity
  8
1
  6
Continuous
100
AcDbLine
 10
580.0
 20
229.0
 30
0.0
 11
580.0
 21
231.0
 31
0.0
  0
ARC
  5
16690
330
1656E
100
AcDbEntity
  8
1
  6
Continuous
100
AcDbCircle
 10
591.085786
 20
232.0
 30
0.0
 40
1.0
100
AcDbArc
 50
270.0
 51
315.0
  0
LINE
  5
16691
330
1656E
100
AcDbEntity
  8
1
  6
Continuous
100
AcDbLine
 10
591.7928929999999
 20
231.2928929999999
 30
0.0
 11
592.4999999999998
 21
232.0
 31
0.0
  0
ARC
  5
16692
330
1656E
100
AcDbEntity
  8
1
  6
Continuous
100
AcDbCircle
 10
580.914214
 20
232.0
 30
0.0
 40
1.0
100
AcDbArc
 50
225.0
 51
270.0
  0
LINE
  5
16693
330
1656E
100
AcDbEntity
  8
1
  6
Continuous
100
AcDbLine
 10
580.2071070000001
 20
231.2928929999999
 30
0.0
 11
579.4999999999999
 21
232.0
 31
0.0
  0
LINE
  5
16694
330
1656E
100
AcDbEntity
  8
3
  6
DASHED
100
AcDbLine
 10
702.0
 20
226.5
 30
0.0
 11
702.0
 21
231.4999999999999
 31
0.0
  0
LINE
  5
16695
330
1656E
100
AcDbEntity
  8
3
  6
DASHED
100
AcDbLine
 10
702.0
 20
226.5
 30
0.0
 11
680.0
 21
226.5
 31
0.0
  0
LINE
  5
16696
330
1656E
100
AcDbEntity
  8
3
  6
DASHED
100
AcDbLine
 10
702.0
 20
231.4999999999999
 30
0.0
 11
680.0
 21
231.4999999999999
 31
0.0
  0
LINE
  5
16697
330
1656E
100
AcDbEntity
  8
3
  6
DASHED
100
AcDbLine
 10
697.0
 20
226.5
 30
0.0
 11
697.0
 21
225.4999999999999
 31
0.0
  0
LINE
  5
16698
330
1656E
100
AcDbEntity
  8
3
  6
DASHED
100
AcDbLine
 10
685.0
 20
226.5
 30
0.0
 11
685.0
 21
225.4999999999999
 31
0.0
  0
LINE
  5
16699
330
1656E
100
AcDbEntity
  8
3
  6
DASHED
100
AcDbLine
 10
597.0
 20
228.0
 30
0.0
 11
597.0
 21
223.0
 31
0.0
  0
LINE
  5
1669A
330
1656E
100
AcDbEntity
  8
3
  6
DASHED
100
AcDbLine
 10
590.03233
 20
223.0
 30
0.0
 11
575.0
 21
223.0
 31
0.0
  0
LINE
  5
1669B
330
1656E
100
AcDbEntity
  8
3
  6
DASHED
100
AcDbLine
 10
597.0
 20
228.0
 30
0.0
 11
575.0
 21
228.0
 31
0.0
  0
LINE
  5
1669C
330
1656E
100
AcDbEntity
  8
1
  6
Continuous
100
AcDbLine
 10
592.0
 20
229.4999999999999
 30
0.0
 11
580.0
 21
229.4999999999999
 31
0.0
  0
LINE
  5
1669D
330
1656E
100
AcDbEntity
  8
3
  6
DASHED
100
AcDbLine
 10
592.0
 20
228.0
 30
0.0
 11
592.0
 21
229.0
 31
0.0
  0
LINE
  5
1669E
330
1656E
100
AcDbEntity
  8
3
  6
DASHED
100
AcDbLine
 10
580.0
 20
228.0
 30
0.0
 11
580.0
 21
229.0
 31
0.0
  0
LINE
  5
1669F
330
1656E
100
AcDbEntity
  8
3
  6
DASHED
100
AcDbLine
 10
575.0
 20
228.0
 30
0.0
 11
575.0
 21
223.0
 31
0.0
  0
LINE
  5
166A0
330
1656E
100
AcDbEntity
  8
4
  6
CENTER
100
AcDbLine
 10
574.5499999999998
 20
236.5
 30
0.0
 11
574.5499999999998
 21
230.0
 31
0.0
  0
LINE
  5
166A1
330
1656E
100
AcDbEntity
  8
4
  6
CENTER
100
AcDbLine
 10
600.0
 20
236.5
 30
0.0
 11
600.0
 21
230.0
 31
0.0
  0
LINE
  5
166A2
330
1656E
100
AcDbEntity
  8
1
  6
Continuous
100
AcDbLine
 10
109.0
 20
229.0
 30
0.0
 11
639.0
 21
229.0
 31
0.0
  0
LINE
  5
166A3
330
1656E
100
AcDbEntity
  8
1
  6
Continuous
100
AcDbLine
 10
595.5323299999998
 20
228.5
 30
0.0
 11
595.5323299999998
 21
223.0
 31
0.0
  0
LINE
  5
166A4
330
1656E
100
AcDbEntity
  8
1
  6
Continuous
100
AcDbLine
 10
592.78233
 20
228.5
 30
0.0
 11
592.78233
 21
223.0
 31
0.0
  0
LINE
  5
166A5
330
1656E
100
AcDbEntity
  8
1
  6
Continuous
100
AcDbLine
 10
590.03233
 20
228.5
 30
0.0
 11
590.03233
 21
223.0
 31
0.0
  0
LINE
  5
166A6
330
1656E
100
AcDbEntity
  8
1
  6
Continuous
100
AcDbLine
 10
595.5323299999998
 20
223.0
 30
0.0
 11
590.03233
 21
223.0
 31
0.0
  0
LINE
  5
166A7
330
1656E
100
AcDbEntity
  8
1
  6
Continuous
100
AcDbLine
 10
595.5323299999998
 20
228.5
 30
0.0
 11
590.03233
 21
228.5
 31
0.0
  0
LINE
  5
166A8
330
1656E
100
AcDbEntity
  8
3
  6
DASHED
100
AcDbLine
 10
597.0
 20
223.0
 30
0.0
 11
595.5323299999998
 21
223.0
 31
0.0
  0
LINE
  5
166A9
330
1656E
100
AcDbEntity
  8
1
  6
Continuous
100
AcDbLine
 10
1165.0
 20
41.0
 30
0.0
 11
569.0
 21
41.0
 31
0.0
  0
LINE
  5
166AA
330
1656E
100
AcDbEntity
  8
1
  6
Continuous
100
AcDbLine
 10
1163.499999999999
 20
49.0
 30
0.0
 11
621.4999999999998
 21
49.0
 31
0.0
  0
LINE
  5
166AB
330
1656E
100
AcDbEntity
  8
1
  6
Continuous
100
AcDbLine
 10
705.0
 20
53.5
 30
0.0
 11
109.0
 21
53.5
 31
0.0
  0
LINE
  5
166AC
330
1656E
100
AcDbEntity
  8
1
  6
Continuous
100
AcDbLine
 10
142.0
 20
49.0
 30
0.0
 11
115.5
 21
49.0
 31
0.0
  0
LINE
  5
166AD
330
1656E
100
AcDbEntity
  8
1
  6
Continuous
100
AcDbLine
 10
705.0
 20
52.0
 30
0.0
 11
109.0
 21
52.0
 31
0.0
  0
LINE
  5
166AE
330
1656E
100
AcDbEntity
  8
1
  6
Continuous
100
AcDbLine
 10
109.0
 20
53.5
 30
0.0
 11
109.0
 21
45.49999999999999
 31
0.0
  0
ARC
  5
166AF
330
1656E
100
AcDbEntity
  8
1
  6
Continuous
100
AcDbCircle
 10
115.5
 20
50.5
 30
0.0
 40
1.5
100
AcDbArc
 50
180.0
 51
270.0
  0
LINE
  5
166B0
330
1656E
100
AcDbEntity
  8
1
  6
Continuous
100
AcDbLine
 10
114.0
 20
50.5
 30
0.0
 11
114.0
 21
52.0
 31
0.0
  0
LINE
  5
166B1
330
1656E
100
AcDbEntity
  8
4
  6
CENTER
100
AcDbLine
 10
125.0
 20
56.5
 30
0.0
 11
125.0
 21
50.0
 31
0.0
  0
ARC
  5
166B2
330
1656E
100
AcDbEntity
  8
1
  6
Continuous
100
AcDbCircle
 10
142.0
 20
50.5
 30
0.0
 40
1.5
100
AcDbArc
 50
270.0
 51
0.0
  0
LINE
  5
166B3
330
1656E
100
AcDbEntity
  8
4
  6
CENTER
100
AcDbLine
 10
135.0
 20
56.5
 30
0.0
 11
135.0
 21
50.0
 31
0.0
  0
LINE
  5
166B4
330
1656E
100
AcDbEntity
  8
1
  6
Continuous
100
AcDbLine
 10
143.5
 20
52.0
 30
0.0
 11
143.5
 21
50.5
 31
0.0
  0
LINE
  5
166B5
330
1656E
100
AcDbEntity
  8
1
  6
Continuous
100
AcDbLine
 10
156.0
 20
51.0
 30
0.0
 11
156.0
 21
46.5
 31
0.0
  0
LINE
  5
166B6
330
1656E
100
AcDbEntity
  8
1
  6
Continuous
100
AcDbLine
 10
619.5
 20
42.5
 30
0.0
 11
569.0
 21
42.5
 31
0.0
  0
LINE
  5
166B7
330
1656E
100
AcDbEntity
  8
4
  6
CENTER
100
AcDbLine
 10
535.0
 20
56.5
 30
0.0
 11
535.0
 21
50.0
 31
0.0
  0
LINE
  5
166B8
330
1656E
100
AcDbEntity
  8
4
  6
CENTER
100
AcDbLine
 10
545.0
 20
56.5
 30
0.0
 11
545.0
 21
50.0
 31
0.0
  0
LINE
  5
166B9
330
1656E
100
AcDbEntity
  8
1
  6
Continuous
100
AcDbLine
 10
569.0
 20
41.0
 30
0.0
 11
569.0
 21
42.5
 31
0.0
  0
LINE
  5
166BA
330
1656E
100
AcDbEntity
  8
1
  6
Continuous
100
AcDbLine
 10
597.0
 20
51.5
 30
0.0
 11
575.0
 21
51.5
 31
0.0
  0
LINE
  5
166BB
330
1656E
100
AcDbEntity
  8
1
  6
Continuous
100
AcDbLine
 10
592.0
 20
43.5
 30
0.0
 11
580.0
 21
43.5
 31
0.0
  0
LINE
  5
166BC
330
1656E
100
AcDbEntity
  8
1
  6
Continuous
100
AcDbLine
 10
597.0
 20
46.5
 30
0.0
 11
575.0
 21
46.5
 31
0.0
  0
LINE
  5
166BD
330
1656E
100
AcDbEntity
  8
1
  6
Continuous
100
AcDbLine
 10
592.0
 20
45.0
 30
0.0
 11
580.0
 21
45.0
 31
0.0
  0
ARC
  5
166BE
330
1656E
100
AcDbEntity
  8
1
  6
Continuous
100
AcDbCircle
 10
580.914214
 20
42.5
 30
0.0
 40
1.0
100
AcDbArc
 50
90.0
 51
135.0
  0
LINE
  5
166BF
330
1656E
100
AcDbEntity
  8
1
  6
Continuous
100
AcDbLine
 10
580.2071070000001
 20
43.207107
 30
0.0
 11
579.4999999999999
 21
42.5
 31
0.0
  0
LINE
  5
166C0
330
1656E
100
AcDbEntity
  8
1
  6
Continuous
100
AcDbLine
 10
580.0
 20
46.5
 30
0.0
 11
580.0
 21
43.5
 31
0.0
  0
LINE
  5
166C1
330
1656E
100
AcDbEntity
  8
4
  6
CENTER
100
AcDbLine
 10
574.5499999999998
 20
38.0
 30
0.0
 11
574.5499999999998
 21
44.5
 31
0.0
  0
LINE
  5
166C2
330
1656E
100
AcDbEntity
  8
4
  6
CENTER
100
AcDbLine
 10
586.0
 20
36.73147099999999
 30
0.0
 11
586.0
 21
57.114252
 31
0.0
  0
LINE
  5
166C3
330
1656E
100
AcDbEntity
  8
1
  6
Continuous
100
AcDbLine
 10
575.0
 20
46.5
 30
0.0
 11
575.0
 21
51.5
 31
0.0
  0
ARC
  5
166C4
330
1656E
100
AcDbEntity
  8
1
  6
Continuous
100
AcDbCircle
 10
591.085786
 20
42.5
 30
0.0
 40
1.0
100
AcDbArc
 50
45.0
 51
90.0
  0
LINE
  5
166C5
330
1656E
100
AcDbEntity
  8
1
  6
Continuous
100
AcDbLine
 10
591.7928929999999
 20
43.207107
 30
0.0
 11
592.4999999999998
 21
42.5
 31
0.0
  0
LINE
  5
166C6
330
1656E
100
AcDbEntity
  8
1
  6
Continuous
100
AcDbLine
 10
592.0
 20
46.5
 30
0.0
 11
592.0
 21
43.5
 31
0.0
  0
LINE
  5
166C7
330
1656E
100
AcDbEntity
  8
4
  6
CENTER
100
AcDbLine
 10
600.0
 20
38.0
 30
0.0
 11
600.0
 21
44.5
 31
0.0
  0
LINE
  5
166C8
330
1656E
100
AcDbEntity
  8
1
  6
Continuous
100
AcDbLine
 10
596.0201060000001
 20
46.0
 30
0.0
 11
592.0
 21
46.0
 31
0.0
  0
LINE
  5
166C9
330
1656E
100
AcDbEntity
  8
1
  6
Continuous
100
AcDbLine
 10
597.0
 20
46.5
 30
0.0
 11
597.0
 21
51.5
 31
0.0
  0
LINE
  5
166CA
330
1656E
100
AcDbEntity
  8
1
  6
Continuous
100
AcDbLine
 10
592.78233
 20
46.0
 30
0.0
 11
592.78233
 21
46.5
 31
0.0
  0
LINE
  5
166CB
330
1656E
100
AcDbEntity
  8
4
  6
CENTER
100
AcDbLine
 10
665.0
 20
56.5
 30
0.0
 11
665.0
 21
50.0
 31
0.0
  0
LINE
  5
166CC
330
1656E
100
AcDbEntity
  8
1
  6
Continuous
100
AcDbLine
 10
619.5
 20
47.0
 30
0.0
 11
619.5
 21
41.0
 31
0.0
  0
LINE
  5
166CD
330
1656E
100
AcDbEntity
  8
4
  6
CENTER
100
AcDbLine
 10
675.0
 20
56.5
 30
0.0
 11
675.0
 21
50.0
 31
0.0
  0
LINE
  5
166CE
330
1656E
100
AcDbEntity
  8
4
  6
CENTER
100
AcDbLine
 10
635.0
 20
38.0
 30
0.0
 11
635.0
 21
44.5
 31
0.0
  0
LINE
  5
166CF
330
1656E
100
AcDbEntity
  8
4
  6
CENTER
100
AcDbLine
 10
625.0
 20
38.0
 30
0.0
 11
625.0
 21
44.5
 31
0.0
  0
LINE
  5
166D0
330
1656E
100
AcDbEntity
  8
3
  6
DASHED
100
AcDbLine
 10
680.0
 20
49.0
 30
0.0
 11
680.0
 21
43.0
 31
0.0
  0
LINE
  5
166D1
330
1656E
100
AcDbEntity
  8
3
  6
DASHED
100
AcDbLine
 10
702.0
 20
48.0
 30
0.0
 11
680.0
 21
48.0
 31
0.0
  0
LINE
  5
166D2
330
1656E
100
AcDbEntity
  8
3
  6
DASHED
100
AcDbLine
 10
702.0
 20
43.0
 30
0.0
 11
680.0
 21
43.0
 31
0.0
  0
LINE
  5
166D3
330
1656E
100
AcDbEntity
  8
1
  6
Continuous
100
AcDbLine
 10
697.0
 20
49.5
 30
0.0
 11
685.0
 21
49.5
 31
0.0
  0
LINE
  5
166D4
330
1656E
100
AcDbEntity
  8
1
  6
Continuous
100
AcDbLine
 10
685.207107
 20
51.29289299999999
 30
0.0
 11
684.4999999999997
 21
52.0
 31
0.0
  0
ARC
  5
166D5
330
1656E
100
AcDbEntity
  8
1
  6
Continuous
100
AcDbCircle
 10
685.914214
 20
52.0
 30
0.0
 40
1.0
100
AcDbArc
 50
225.0
 51
270.0
  0
LINE
  5
166D6
330
1656E
100
AcDbEntity
  8
1
  6
Continuous
100
AcDbLine
 10
696.7928929999999
 20
51.29289299999999
 30
0.0
 11
697.5
 21
52.0
 31
0.0
  0
ARC
  5
166D7
330
1656E
100
AcDbEntity
  8
1
  6
Continuous
100
AcDbCircle
 10
696.0857859999999
 20
52.0
 30
0.0
 40
1.0
100
AcDbArc
 50
270.0
 51
315.0
  0
LINE
  5
166D8
330
1656E
100
AcDbEntity
  8
1
  6
Continuous
100
AcDbLine
 10
685.0
 20
49.0
 30
0.0
 11
685.0
 21
51.0
 31
0.0
  0
LINE
  5
166D9
330
1656E
100
AcDbEntity
  8
1
  6
Continuous
100
AcDbLine
 10
697.0
 20
51.0
 30
0.0
 11
685.0
 21
51.0
 31
0.0
  0
LINE
  5
166DA
330
1656E
100
AcDbEntity
  8
1
  6
Continuous
100
AcDbLine
 10
697.0
 20
49.0
 30
0.0
 11
697.0
 21
51.0
 31
0.0
  0
LINE
  5
166DB
330
1656E
100
AcDbEntity
  8
3
  6
DASHED
100
AcDbLine
 10
685.0
 20
48.0
 30
0.0
 11
685.0
 21
49.0
 31
0.0
  0
LINE
  5
166DC
330
1656E
100
AcDbEntity
  8
3
  6
DASHED
100
AcDbLine
 10
697.0
 20
48.0
 30
0.0
 11
697.0
 21
49.0
 31
0.0
  0
LINE
  5
166DD
330
1656E
100
AcDbEntity
  8
4
  6
CENTER
100
AcDbLine
 10
691.0
 20
36.876458
 30
0.0
 11
691.0
 21
57.343926
 31
0.0
  0
LINE
  5
166DE
330
1656E
100
AcDbEntity
  8
1
  6
Continuous
100
AcDbLine
 10
705.0
 20
52.0
 30
0.0
 11
705.0
 21
53.5
 31
0.0
  0
LINE
  5
166DF
330
1656E
100
AcDbEntity
  8
3
  6
DASHED
100
AcDbLine
 10
702.0
 20
48.0
 30
0.0
 11
702.0
 21
43.0
 31
0.0
  0
LINE
  5
166E0
330
1656E
100
AcDbEntity
  8
4
  6
CENTER
100
AcDbLine
 10
756.5
 20
38.0
 30
0.0
 11
756.5
 21
44.5
 31
0.0
  0
LINE
  5
166E1
330
1656E
100
AcDbEntity
  8
4
  6
CENTER
100
AcDbLine
 10
1140.0
 20
38.0
 30
0.0
 11
1140.0
 21
44.5
 31
0.0
  0
LINE
  5
166E2
330
1656E
100
AcDbEntity
  8
4
  6
CENTER
100
AcDbLine
 10
1150.0
 20
38.0
 30
0.0
 11
1150.0
 21
44.5
 31
0.0
  0
LINE
  5
166E3
330
1656E
100
AcDbEntity
  8
1
  6
Continuous
100
AcDbLine
 10
1165.0
 20
41.0
 30
0.0
 11
1165.0
 21
47.5
 31
0.0
  0
LINE
  5
166E4
330
1656E
100
AcDbEntity
  8
1
  6
Continuous
100
AcDbLine
 10
109.0
 20
45.49999999999999
 30
0.0
 11
580.0
 21
45.49999999999999
 31
0.0
  0
LINE
  5
166E5
330
1656E
100
AcDbEntity
  8
1
  6
Continuous
100
AcDbLine
 10
596.0201060000001
 20
46.0
 30
0.0
 11
596.0201060000001
 21
46.5
 31
0.0
  0
LINE
  5
166E6
330
1656E
100
AcDbEntity
  8
1
  6
Continuous
100
AcDbLine
 10
592.0
 20
45.49999999999999
 30
0.0
 11
619.5
 21
45.49999999999999
 31
0.0
  0
LINE
  5
166E7
330
1656E
100
AcDbEntity
  8
1
  6
Continuous
100
AcDbLine
 10
680.0
 20
52.0
 30
0.0
 11
680.0
 21
49.0
 31
0.0
  0
LINE
  5
166E8
330
1656E
100
AcDbEntity
  8
3
  6
DASHED
100
AcDbLine
 10
619.5
 20
45.49999999999999
 30
0.0
 11
678.0
 21
45.49999999999999
 31
0.0
  0
ARC
  5
166E9
330
1656E
100
AcDbEntity
  8
1
  6
Continuous
100
AcDbCircle
 10
36.0
 20
148.5
 30
0.0
 40
1.5
100
AcDbArc
 50
0.0
 51
90.0
  0
LINE
  5
166EA
330
1656E
100
AcDbEntity
  8
1
  6
Continuous
100
AcDbLine
 10
25.0
 20
124.0
 30
0.0
 11
25.0
 21
151.0
 31
0.0
  0
LINE
  5
166EB
330
1656E
100
AcDbEntity
  8
1
  6
Continuous
100
AcDbLine
 10
26.5
 20
122.5
 30
0.0
 11
26.5
 21
151.0
 31
0.0
  0
LINE
  5
166EC
330
1656E
100
AcDbEntity
  8
1
  6
Continuous
100
AcDbLine
 10
37.5
 20
123.5
 30
0.0
 11
37.5
 21
148.5
 31
0.0
  0
ARC
  5
166ED
330
1656E
100
AcDbEntity
  8
1
  6
Continuous
100
AcDbCircle
 10
26.5
 20
124.0
 30
0.0
 40
1.5
100
AcDbArc
 50
180.0
 51
270.0
  0
LINE
  5
166EE
330
1656E
100
AcDbEntity
  8
1
  6
Continuous
100
AcDbLine
 10
37.5
 20
123.5
 30
0.0
 11
36.0
 21
123.5
 31
0.0
  0
LINE
  5
166EF
330
1656E
100
AcDbEntity
  8
1
  6
Continuous
100
AcDbLine
 10
36.0
 20
148.5
 30
0.0
 11
27.0
 21
148.5
 31
0.0
  0
LINE
  5
166F0
330
1656E
100
AcDbEntity
  8
4
  6
CENTER
100
AcDbLine
 10
41.643621
 20
137.5
 30
0.0
 11
23.84947599999999
 21
137.5
 31
0.0
  0
LINE
  5
166F1
330
1656E
100
AcDbEntity
  8
4
  6
CENTER
100
AcDbLine
 10
38.19373800000001
 20
135.0
 30
0.0
 11
20.0
 21
135.0
 31
0.0
  0
LINE
  5
166F2
330
1656E
100
AcDbEntity
  8
1
  6
Continuous
100
AcDbLine
 10
36.0
 20
123.5
 30
0.0
 11
36.0
 21
148.5
 31
0.0
  0
LINE
  5
166F3
330
1656E
100
AcDbEntity
  8
1
  6
Continuous
100
AcDbLine
 10
33.0
 20
151.0
 30
0.0
 11
25.0
 21
151.0
 31
0.0
  0
LINE
  5
166F4
330
1656E
100
AcDbEntity
  8
1
  6
Continuous
100
AcDbLine
 10
29.5
 20
149.5
 30
0.0
 11
26.5
 21
149.5
 31
0.0
  0
LINE
  5
166F5
330
1656E
100
AcDbEntity
  8
1
  6
Continuous
100
AcDbLine
 10
29.5
 20
150.0
 30
0.0
 11
36.0
 21
150.0
 31
0.0
  0
LINE
  5
166F6
330
1656E
100
AcDbEntity
  8
1
  6
Continuous
100
AcDbLine
 10
33.0
 20
150.0
 30
0.0
 11
33.0
 21
151.0
 31
0.0
  0
LINE
  5
166F7
330
1656E
100
AcDbEntity
  8
1
  6
Continuous
100
AcDbLine
 10
29.5
 20
146.0
 30
0.0
 11
29.5
 21
150.0
 31
0.0
  0
LINE
  5
166F8
330
1656E
100
AcDbEntity
  8
1
  6
Continuous
100
AcDbLine
 10
37.5
 20
137.5
 30
0.0
 11
36.0
 21
137.5
 31
0.0
  0
LINE
  5
166F9
330
1656E
100
AcDbEntity
  8
1
  6
Continuous
100
AcDbLine
 10
36.0
 20
144.0
 30
0.0
 11
37.5
 21
144.0
 31
0.0
  0
LINE
  5
166FA
330
1656E
100
AcDbEntity
  8
1
  6
Continuous
100
AcDbLine
 10
25.0
 20
125.0
 30
0.0
 11
30.5
 21
125.0
 31
0.0
  0
LINE
  5
166FB
330
1656E
100
AcDbEntity
  8
1
  6
Continuous
100
AcDbLine
 10
36.0
 20
146.0
 30
0.0
 11
29.5
 21
146.0
 31
0.0
  0
LINE
  5
166FC
330
1656E
100
AcDbEntity
  8
1
  6
Continuous
100
AcDbLine
 10
127.0
 20
48.58615799999999
 30
0.0
 11
127.0
 21
45.98131
 31
0.0
  0
LINE
  5
166FD
330
1656E
100
AcDbEntity
  8
1
  6
Continuous
100
AcDbLine
 10
127.0
 20
226.4156869999999
 30
0.0
 11
127.0
 21
228.200516
 31
0.0
  0
LINE
  5
166FE
330
1656E
100
AcDbEntity
  8
1
  6
Continuous
100
AcDbLine
 10
1150.0
 20
46.103955
 30
0.0
 11
1150.0
 21
48.203194
 31
0.0
  0
LINE
  5
166FF
330
1656E
100
AcDbEntity
  8
1
  6
Continuous
100
AcDbLine
 10
1122.0
 20
42.5
 30
0.0
 11
1122.0
 21
47.71568
 31
0.0
  0
ARC
  5
16700
330
1656E
100
AcDbEntity
  8
1
  6
Continuous
100
AcDbCircle
 10
1163.499999999999
 20
227.0
 30
0.0
 40
1.5
100
AcDbArc
 50
270.0
 51
0.0
  0
LINE
  5
16701
330
1656E
100
AcDbEntity
  8
1
  6
Continuous
100
AcDbLine
 10
1165.0
 20
630.4999999999997
 30
0.0
 11
705.0
 21
630.4999999999997
 31
0.0
  0
LINE
  5
16702
330
1656E
100
AcDbEntity
  8
1
  6
Continuous
100
AcDbLine
 10
1163.499999999999
 20
629.0
 30
0.0
 11
640.5
 21
629.0
 31
0.0
  0
LINE
  5
16703
330
1656E
100
AcDbEntity
  8
1
  6
Continuous
100
AcDbLine
 10
1122.0
 20
525.0
 30
0.0
 11
654.5781950000002
 21
525.0
 31
0.0
  0
LINE
  5
16704
330
1656E
100
AcDbEntity
  8
1
  6
Continuous
100
AcDbLine
 10
1165.0
 20
551.0
 30
0.0
 11
639.0
 21
551.0
 31
0.0
  0
LINE
  5
16705
330
1656E
100
AcDbEntity
  8
1
  6
Continuous
100
AcDbLine
 10
1165.0
 20
621.0
 30
0.0
 11
570.5
 21
621.0
 31
0.0
  0
LINE
  5
16706
330
1656E
100
AcDbEntity
  8
1
  6
Continuous
100
AcDbLine
 10
1165.0
 20
703.5
 30
0.0
 11
639.0
 21
703.5
 31
0.0
  0
LINE
  5
16707
330
1656E
100
AcDbEntity
  8
1
  6
Continuous
100
AcDbLine
 10
1165.0
 20
705.0
 30
0.0
 11
638.0
 21
705.0
 31
0.0
  0
LINE
  5
16708
330
1656E
100
AcDbEntity
  8
1
  6
Continuous
100
AcDbLine
 10
1122.0
 20
729.4999999999999
 30
0.0
 11
699.5781950000001
 21
729.4999999999999
 31
0.0
  0
LINE
  5
16709
330
1656E
100
AcDbEntity
  8
1
  6
Continuous
100
AcDbLine
 10
1122.245048
 20
724.0
 30
0.0
 11
701.698246
 21
724.0
 31
0.0
  0
LINE
  5
1670A
330
1656E
100
AcDbEntity
  8
1
  6
Continuous
100
AcDbLine
 10
703.5
 20
633.4999999999999
 30
0.0
 11
109.0
 21
633.4999999999999
 31
0.0
  0
LINE
  5
1670B
330
1656E
100
AcDbEntity
  8
1
  6
Continuous
100
AcDbLine
 10
680.0
 20
707.0
 30
0.0
 11
156.0
 21
707.0
 31
0.0
  0
LINE
  5
1670C
330
1656E
100
AcDbEntity
  8
1
  6
Continuous
100
AcDbLine
 10
697.627489
 20
731.0
 30
0.0
 11
111.0
 21
731.0
 31
0.0
  0
LINE
  5
1670D
330
1656E
100
AcDbEntity
  8
1
  6
Continuous
100
AcDbLine
 10
109.0
 20
624.0
 30
0.0
 11
639.0
 21
624.0
 31
0.0
  0
LINE
  5
1670E
330
1656E
100
AcDbEntity
  8
1
  6
Continuous
100
AcDbLine
 10
697.627489
 20
523.5
 30
0.0
 11
111.0
 21
523.5
 31
0.0
  0
LINE
  5
1670F
330
1656E
100
AcDbEntity
  8
1
  6
Continuous
100
AcDbLine
 10
570.5
 20
547.5
 30
0.0
 11
156.0
 21
547.5
 31
0.0
  0
LINE
  5
16710
330
1656E
100
AcDbEntity
  8
1
  6
Continuous
100
AcDbLine
 10
568.0
 20
542.4999999999998
 30
0.0
 11
155.784882
 21
542.4999999999998
 31
0.0
  0
LINE
  5
16711
330
1656E
100
AcDbEntity
  8
1
  6
Continuous
100
AcDbLine
 10
156.0
 20
547.5
 30
0.0
 11
127.0
 21
550.0
 31
0.0
  0
LINE
  5
16712
330
1656E
100
AcDbEntity
  8
4
  6
CENTER
100
AcDbLine
 10
119.25
 20
537.5
 30
0.0
 11
140.7499999999998
 21
537.5
 31
0.0
  0
LINE
  5
16713
330
1656E
100
AcDbEntity
  8
1
  6
Continuous
100
AcDbLine
 10
155.784882
 20
542.4999999999998
 30
0.0
 11
126.784882
 21
545.0
 31
0.0
  0
CIRCLE
  5
16714
330
1656E
100
AcDbEntity
  8
1
  6
Continuous
100
AcDbCircle
 10
125.0
 20
537.5
 30
0.0
 40
3.75
  0
LINE
  5
16715
330
1656E
100
AcDbEntity
  8
1
  6
Continuous
100
AcDbLine
 10
25.0
 20
523.5
 30
0.0
 11
25.0
 21
548.5
 31
0.0
  0
LINE
  5
16716
330
1656E
100
AcDbEntity
  8
1
  6
Continuous
100
AcDbLine
 10
26.5
 20
523.5
 30
0.0
 11
26.5
 21
548.5
 31
0.0
  0
LINE
  5
16717
330
1656E
100
AcDbEntity
  8
1
  6
Continuous
100
AcDbLine
 10
27.0
 20
524.0
 30
0.0
 11
27.0
 21
541.0
 31
0.0
  0
LINE
  5
16718
330
1656E
100
AcDbEntity
  8
1
  6
Continuous
100
AcDbLine
 10
28.0
 20
524.0
 30
0.0
 11
28.0
 21
541.0
 31
0.0
  0
LINE
  5
16719
330
1656E
100
AcDbEntity
  8
1
  6
Continuous
100
AcDbLine
 10
37.5
 20
524.0
 30
0.0
 11
37.5
 21
551.0
 31
0.0
  0
LINE
  5
1671A
330
1656E
100
AcDbEntity
  8
1
  6
Continuous
100
AcDbLine
 10
29.5
 20
522.5
 30
0.0
 11
36.0
 21
522.5
 31
0.0
  0
LINE
  5
1671B
330
1656E
100
AcDbEntity
  8
1
  6
Continuous
100
AcDbLine
 10
37.5
 20
525.0
 30
0.0
 11
29.5
 21
525.0
 31
0.0
  0
LINE
  5
1671C
330
1656E
100
AcDbEntity
  8
1
  6
Continuous
100
AcDbLine
 10
25.0
 20
523.5
 30
0.0
 11
26.5
 21
523.5
 31
0.0
  0
ARC
  5
1671D
330
1656E
100
AcDbEntity
  8
1
  6
Continuous
100
AcDbCircle
 10
29.5
 20
524.0
 30
0.0
 40
1.5
100
AcDbArc
 50
180.0
 51
270.0
  0
LINE
  5
1671E
330
1656E
100
AcDbEntity
  8
1
  6
Continuous
100
AcDbLine
 10
27.0
 20
524.0
 30
0.0
 11
28.0
 21
524.0
 31
0.0
  0
ARC
  5
1671F
330
1656E
100
AcDbEntity
  8
1
  6
Continuous
100
AcDbCircle
 10
29.5
 20
526.4999999999998
 30
0.0
 40
1.5
100
AcDbArc
 50
180.0
 51
270.0
  0
ARC
  5
16720
330
1656E
100
AcDbEntity
  8
1
  6
Continuous
100
AcDbCircle
 10
36.0
 20
524.0
 30
0.0
 40
1.5
100
AcDbArc
 50
270.0
 51
0.0
  0
LINE
  5
16721
330
1656E
100
AcDbEntity
  8
1
  6
Continuous
100
AcDbLine
 10
29.5
 20
551.0
 30
0.0
 11
37.5
 21
551.0
 31
0.0
  0
LINE
  5
16722
330
1656E
100
AcDbEntity
  8
1
  6
Continuous
100
AcDbLine
 10
33.0
 20
550.0
 30
0.0
 11
26.5
 21
550.0
 31
0.0
  0
LINE
  5
16723
330
1656E
100
AcDbEntity
  8
4
  6
CENTER
100
AcDbLine
 10
20.856379
 20
537.5
 30
0.0
 11
38.65052399999999
 21
537.5
 31
0.0
  0
LINE
  5
16724
330
1656E
100
AcDbEntity
  8
4
  6
CENTER
100
AcDbLine
 10
24.306262
 20
535.0
 30
0.0
 11
42.5
 21
535.0
 31
0.0
  0
LINE
  5
16725
330
1656E
100
AcDbEntity
  8
1
  6
Continuous
100
AcDbLine
 10
26.5
 20
548.5
 30
0.0
 11
33.0
 21
548.5
 31
0.0
  0
LINE
  5
16726
330
1656E
100
AcDbEntity
  8
1
  6
Continuous
100
AcDbLine
 10
37.5
 20
541.0
 30
0.0
 11
26.5
 21
541.0
 31
0.0
  0
LINE
  5
16727
330
1656E
100
AcDbEntity
  8
1
  6
Continuous
100
AcDbLine
 10
33.0
 20
544.5
 30
0.0
 11
26.5
 21
544.5
 31
0.0
  0
LINE
  5
16728
330
1656E
100
AcDbEntity
  8
1
  6
Continuous
100
AcDbLine
 10
26.5
 20
546.0
 30
0.0
 11
33.0
 21
546.0
 31
0.0
  0
LINE
  5
16729
330
1656E
100
AcDbEntity
  8
1
  6
Continuous
100
AcDbLine
 10
29.5
 20
550.0
 30
0.0
 11
29.5
 21
551.0
 31
0.0
  0
LINE
  5
1672A
330
1656E
100
AcDbEntity
  8
1
  6
Continuous
100
AcDbLine
 10
25.0
 20
537.5
 30
0.0
 11
26.5
 21
537.5
 31
0.0
  0
LINE
  5
1672B
330
1656E
100
AcDbEntity
  8
1
  6
Continuous
100
AcDbLine
 10
26.5
 20
544.0
 30
0.0
 11
25.0
 21
544.0
 31
0.0
  0
LINE
  5
1672C
330
1656E
100
AcDbEntity
  8
1
  6
Continuous
100
AcDbLine
 10
27.0
 20
544.5
 30
0.0
 11
27.0
 21
546.0
 31
0.0
  0
ARC
  5
1672D
330
1656E
100
AcDbEntity
  8
1
  6
Continuous
100
AcDbCircle
 10
26.5
 20
548.5
 30
0.0
 40
1.5
100
AcDbArc
 50
90.0
 51
180.0
  0
LINE
  5
1672E
330
1656E
100
AcDbEntity
  8
1
  6
Continuous
100
AcDbLine
 10
34.118034
 20
549.5
 30
0.0
 11
36.0
 21
549.5
 31
0.0
  0
LINE
  5
1672F
330
1656E
100
AcDbEntity
  8
1
  6
Continuous
100
AcDbLine
 10
34.5
 20
545.0
 30
0.0
 11
33.0
 21
545.0
 31
0.0
  0
LINE
  5
16730
330
1656E
100
AcDbEntity
  8
1
  6
Continuous
100
AcDbLine
 10
33.0
 20
541.0
 30
0.0
 11
33.0
 21
548.5
 31
0.0
  0
LINE
  5
16731
330
1656E
100
AcDbEntity
  8
1
  6
Continuous
100
AcDbLine
 10
33.0
 20
542.4999999999998
 30
0.0
 11
34.5
 21
542.4999999999998
 31
0.0
  0
LINE
  5
16732
330
1656E
100
AcDbEntity
  8
1
  6
Continuous
100
AcDbLine
 10
34.5
 20
542.4999999999998
 30
0.0
 11
34.5
 21
548.5
 31
0.0
  0
LINE
  5
16733
330
1656E
100
AcDbEntity
  8
1
  6
Continuous
100
AcDbLine
 10
32.0
 20
544.5
 30
0.0
 11
32.0
 21
546.0
 31
0.0
  0
LINE
  5
16734
330
1656E
100
AcDbEntity
  8
1
  6
Continuous
100
AcDbLine
 10
36.0
 20
541.0
 30
0.0
 11
36.0
 21
551.0
 31
0.0
  0
ARC
  5
16735
330
1656E
100
AcDbEntity
  8
1
  6
Continuous
100
AcDbCircle
 10
33.0
 20
548.5
 30
0.0
 40
1.5
100
AcDbArc
 50
0.0
 51
90.0
  0
LINE
  5
16736
330
1656E
100
AcDbEntity
  8
4
  6
CENTER
100
AcDbLine
 10
125.0
 20
531.7499999999999
 30
0.0
 11
125.0
 21
543.25
 31
0.0
  0
LINE
  5
16737
330
1656E
100
AcDbEntity
  8
1
  6
Continuous
100
AcDbLine
 10
109.0
 20
536.0
 30
0.0
 11
109.0
 21
525.4999999999999
 31
0.0
  0
ARC
  5
16738
330
1656E
100
AcDbEntity
  8
1
  6
Continuous
100
AcDbCircle
 10
111.0
 20
525.4999999999999
 30
0.0
 40
2.0
100
AcDbArc
 50
180.0
 51
270.0
  0
LINE
  5
16739
330
1656E
100
AcDbEntity
  8
1
  6
Continuous
100
AcDbLine
 10
109.0
 20
550.0
 30
0.0
 11
127.0
 21
550.0
 31
0.0
  0
LINE
  5
1673A
330
1656E
100
AcDbEntity
  8
1
  6
Continuous
100
AcDbLine
 10
110.4999999999999
 20
537.5
 30
0.0
 11
117.0
 21
537.5
 31
0.0
  0
LINE
  5
1673B
330
1656E
100
AcDbEntity
  8
1
  6
Continuous
100
AcDbLine
 10
110.0671439999999
 20
543.6783709999998
 30
0.0
 11
117.577141
 21
541.4149169999998
 31
0.0
  0
LINE
  5
1673C
330
1656E
100
AcDbEntity
  8
1
  6
Continuous
100
AcDbLine
 10
110.4999999999999
 20
545.0
 30
0.0
 11
126.784882
 21
545.0
 31
0.0
  0
ARC
  5
1673D
330
1656E
100
AcDbEntity
  8
1
  6
Continuous
100
AcDbCircle
 10
110.4999999999999
 20
536.0
 30
0.0
 40
1.5
100
AcDbArc
 50
90.0
 51
180.0
  0
ARC
  5
1673E
330
1656E
100
AcDbEntity
  8
1
  6
Continuous
100
AcDbCircle
 10
110.4999999999999
 20
545.114559
 30
0.0
 40
1.5
100
AcDbArc
 50
180.0
 51
253.2276069999999
  0
ARC
  5
1673F
330
1656E
100
AcDbEntity
  8
1
  6
Continuous
100
AcDbCircle
 10
110.4999999999999
 20
546.4999999999998
 30
0.0
 40
1.5
100
AcDbArc
 50
180.0
 51
270.0
  0
LINE
  5
16740
330
1656E
100
AcDbEntity
  8
1
  6
Continuous
100
AcDbLine
 10
109.0
 20
550.0
 30
0.0
 11
109.0
 21
545.114559
 31
0.0
  0
ARC
  5
16741
330
1656E
100
AcDbEntity
  8
1
  6
Continuous
100
AcDbCircle
 10
117.0
 20
539.5
 30
0.0
 40
2.0
100
AcDbArc
 50
270.0
 51
73.22760699999998
  0
CIRCLE
  5
16742
330
1656E
100
AcDbEntity
  8
1
  6
Continuous
100
AcDbCircle
 10
125.0
 20
537.5
 30
0.0
 40
2.399999999999999
  0
LINE
  5
16743
330
1656E
100
AcDbEntity
  8
4
  6
CENTER
100
AcDbLine
 10
135.0
 20
530.75
 30
0.0
 11
135.0
 21
544.2499999999999
 31
0.0
  0
ARC
  5
16744
330
1656E
100
AcDbEntity
  8
1
  6
Continuous
100
AcDbCircle
 10
135.0
 20
536.5
 30
0.0
 40
3.75
100
AcDbArc
 50
180.0
 51
0.0
  0
ARC
  5
16745
330
1656E
100
AcDbEntity
  8
1
  6
Continuous
100
AcDbCircle
 10
135.0
 20
538.4999999999998
 30
0.0
 40
3.75
100
AcDbArc
 50
0.0
 51
180.0
  0
LINE
  5
16746
330
1656E
100
AcDbEntity
  8
1
  6
Continuous
100
AcDbLine
 10
131.25
 20
536.5
 30
0.0
 11
131.25
 21
538.4999999999998
 31
0.0
  0
LINE
  5
16747
330
1656E
100
AcDbEntity
  8
1
  6
Continuous
100
AcDbLine
 10
137.4
 20
536.5
 30
0.0
 11
137.4
 21
538.4999999999998
 31
0.0
  0
ARC
  5
16748
330
1656E
100
AcDbEntity
  8
1
  6
Continuous
100
AcDbCircle
 10
135.0
 20
536.5
 30
0.0
 40
2.399999999999999
100
AcDbArc
 50
180.0
 51
0.0
  0
LINE
  5
16749
330
1656E
100
AcDbEntity
  8
1
  6
Continuous
100
AcDbLine
 10
132.6
 20
536.5
 30
0.0
 11
132.6
 21
538.4999999999998
 31
0.0
  0
ARC
  5
1674A
330
1656E
100
AcDbEntity
  8
1
  6
Continuous
100
AcDbCircle
 10
135.0
 20
538.4999999999998
 30
0.0
 40
2.399999999999999
100
AcDbArc
 50
0.0
 51
180.0
  0
LINE
  5
1674B
330
1656E
100
AcDbEntity
  8
1
  6
Continuous
100
AcDbLine
 10
138.7499999999998
 20
536.5
 30
0.0
 11
138.7499999999998
 21
538.4999999999998
 31
0.0
  0
LINE
  5
1674C
330
1656E
100
AcDbEntity
  8
1
  6
Continuous
100
AcDbLine
 10
156.0
 20
707.0
 30
0.0
 11
127.0
 21
704.4999999999999
 31
0.0
  0
LINE
  5
1674D
330
1656E
100
AcDbEntity
  8
4
  6
CENTER
100
AcDbLine
 10
119.25
 20
717.0
 30
0.0
 11
140.7499999999998
 21
717.0
 31
0.0
  0
LINE
  5
1674E
330
1656E
100
AcDbEntity
  8
1
  6
Continuous
100
AcDbLine
 10
142.0
 20
708.0
 30
0.0
 11
115.5
 21
708.0
 31
0.0
  0
LINE
  5
1674F
330
1656E
100
AcDbEntity
  8
1
  6
Continuous
100
AcDbLine
 10
143.198508
 20
707.4019859999999
 30
0.0
 11
126.9354649999998
 21
706.0
 31
0.0
  0
LINE
  5
16750
330
1656E
100
AcDbEntity
  8
1
  6
Continuous
100
AcDbLine
 10
143.5
 20
632.0
 30
0.0
 11
114.0
 21
632.0
 31
0.0
  0
LINE
  5
16751
330
1656E
100
AcDbEntity
  8
1
  6
Continuous
100
AcDbLine
 10
142.0
 20
629.0
 30
0.0
 11
115.5
 21
629.0
 31
0.0
  0
LINE
  5
16752
330
1656E
100
AcDbEntity
  8
1
  6
Continuous
100
AcDbLine
 10
109.0
 20
633.4999999999999
 30
0.0
 11
109.0
 21
624.0
 31
0.0
  0
LINE
  5
16753
330
1656E
100
AcDbEntity
  8
1
  6
Continuous
100
AcDbLine
 10
127.0
 20
628.084313
 30
0.0
 11
127.0
 21
624.799484
 31
0.0
  0
LINE
  5
16754
330
1656E
100
AcDbEntity
  8
1
  6
Continuous
100
AcDbLine
 10
114.0
 20
630.4999999999997
 30
0.0
 11
114.0
 21
633.4999999999999
 31
0.0
  0
ARC
  5
16755
330
1656E
100
AcDbEntity
  8
1
  6
Continuous
100
AcDbCircle
 10
115.5
 20
630.4999999999997
 30
0.0
 40
1.5
100
AcDbArc
 50
180.0
 51
270.0
  0
LINE
  5
16756
330
1656E
100
AcDbEntity
  8
4
  6
CENTER
100
AcDbLine
 10
125.0
 20
636.5
 30
0.0
 11
125.0
 21
630.0
 31
0.0
  0
ARC
  5
16757
330
1656E
100
AcDbEntity
  8
1
  6
Continuous
100
AcDbCircle
 10
115.5
 20
706.5
 30
0.0
 40
1.5
100
AcDbArc
 50
90.0
 51
180.0
  0
LINE
  5
16758
330
1656E
100
AcDbEntity
  8
1
  6
Continuous
100
AcDbLine
 10
109.0
 20
704.4999999999999
 30
0.0
 11
109.0
 21
709.385441
 31
0.0
  0
LINE
  5
16759
330
1656E
100
AcDbEntity
  8
1
  6
Continuous
100
AcDbLine
 10
109.0
 20
704.4999999999999
 30
0.0
 11
127.0
 21
704.4999999999999
 31
0.0
  0
LINE
  5
1675A
330
1656E
100
AcDbEntity
  8
1
  6
Continuous
100
AcDbLine
 10
114.0
 20
706.0
 30
0.0
 11
126.9354649999998
 21
706.0
 31
0.0
  0
LINE
  5
1675B
330
1656E
100
AcDbEntity
  8
1
  6
Continuous
100
AcDbLine
 10
114.0
 20
704.4999999999999
 30
0.0
 11
114.0
 21
706.5
 31
0.0
  0
ARC
  5
1675C
330
1656E
100
AcDbEntity
  8
1
  6
Continuous
100
AcDbCircle
 10
111.0
 20
729.0
 30
0.0
 40
2.0
100
AcDbArc
 50
90.0
 51
180.0
  0
LINE
  5
1675D
330
1656E
100
AcDbEntity
  8
1
  6
Continuous
100
AcDbLine
 10
110.0671439999999
 20
710.821629
 30
0.0
 11
117.577141
 21
713.0850830000001
 31
0.0
  0
LINE
  5
1675E
330
1656E
100
AcDbEntity
  8
1
  6
Continuous
100
AcDbLine
 10
110.4999999999999
 20
717.0
 30
0.0
 11
117.0
 21
717.0
 31
0.0
  0
ARC
  5
1675F
330
1656E
100
AcDbEntity
  8
1
  6
Continuous
100
AcDbCircle
 10
110.4999999999999
 20
709.385441
 30
0.0
 40
1.5
100
AcDbArc
 50
106.7723929999998
 51
180.0
  0
ARC
  5
16760
330
1656E
100
AcDbEntity
  8
1
  6
Continuous
100
AcDbCircle
 10
110.4999999999999
 20
718.5
 30
0.0
 40
1.5
100
AcDbArc
 50
180.0
 51
270.0
  0
LINE
  5
16761
330
1656E
100
AcDbEntity
  8
1
  6
Continuous
100
AcDbLine
 10
109.0
 20
718.5
 30
0.0
 11
109.0
 21
729.0
 31
0.0
  0
CIRCLE
  5
16762
330
1656E
100
AcDbEntity
  8
1
  6
Continuous
100
AcDbCircle
 10
125.0
 20
717.0
 30
0.0
 40
2.399999999999999
  0
LINE
  5
16763
330
1656E
100
AcDbEntity
  8
4
  6
CENTER
100
AcDbLine
 10
125.0
 20
722.75
 30
0.0
 11
125.0
 21
711.2499999999997
 31
0.0
  0
ARC
  5
16764
330
1656E
100
AcDbEntity
  8
1
  6
Continuous
100
AcDbCircle
 10
117.0
 20
715.0
 30
0.0
 40
2.0
100
AcDbArc
 50
286.772393
 51
90.0
  0
ARC
  5
16765
330
1656E
100
AcDbEntity
  8
1
  6
Continuous
100
AcDbCircle
 10
142.0
 20
630.4999999999997
 30
0.0
 40
1.5
100
AcDbArc
 50
270.0
 51
0.0
  0
LINE
  5
16766
330
1656E
100
AcDbEntity
  8
1
  6
Continuous
100
AcDbLine
 10
143.5
 20
633.4999999999999
 30
0.0
 11
143.5
 21
630.4999999999997
 31
0.0
  0
LINE
  5
16767
330
1656E
100
AcDbEntity
  8
4
  6
CENTER
100
AcDbLine
 10
135.0
 20
636.5
 30
0.0
 11
135.0
 21
630.0
 31
0.0
  0
LINE
  5
16768
330
1656E
100
AcDbEntity
  8
1
  6
Continuous
100
AcDbLine
 10
156.0
 20
632.5
 30
0.0
 11
156.0
 21
625.0
 31
0.0
  0
ARC
  5
16769
330
1656E
100
AcDbEntity
  8
1
  6
Continuous
100
AcDbCircle
 10
142.0
 20
706.5
 30
0.0
 40
1.5
100
AcDbArc
 50
0.0
 51
90.0
  0
LINE
  5
1676A
330
1656E
100
AcDbEntity
  8
1
  6
Continuous
100
AcDbLine
 10
143.5
 20
705.922414
 30
0.0
 11
143.5
 21
706.5
 31
0.0
  0
ARC
  5
1676B
330
1656E
100
AcDbEntity
  8
1
  6
Continuous
100
AcDbCircle
 10
135.0
 20
716.0
 30
0.0
 40
2.399999999999999
100
AcDbArc
 50
180.0
 51
0.0
  0
LINE
  5
1676C
330
1656E
100
AcDbEntity
  8
1
  6
Continuous
100
AcDbLine
 10
132.6
 20
718.0
 30
0.0
 11
132.6
 21
716.0
 31
0.0
  0
ARC
  5
1676D
330
1656E
100
AcDbEntity
  8
1
  6
Continuous
100
AcDbCircle
 10
135.0
 20
718.0
 30
0.0
 40
2.399999999999999
100
AcDbArc
 50
0.0
 51
180.0
  0
LINE
  5
1676E
330
1656E
100
AcDbEntity
  8
1
  6
Continuous
100
AcDbLine
 10
137.4
 20
718.0
 30
0.0
 11
137.4
 21
716.0
 31
0.0
  0
LINE
  5
1676F
330
1656E
100
AcDbEntity
  8
4
  6
CENTER
100
AcDbLine
 10
135.0
 20
723.7499999999998
 30
0.0
 11
135.0
 21
710.25
 31
0.0
  0
LINE
  5
16770
330
1656E
100
AcDbEntity
  8
4
  6
CENTER
100
AcDbLine
 10
706.0
 20
537.5
 30
0.0
 11
659.25
 21
537.5
 31
0.0
  0
LINE
  5
16771
330
1656E
100
AcDbEntity
  8
1
  6
Continuous
100
AcDbLine
 10
654.5781950000002
 20
525.0
 30
0.0
 11
619.5
 21
525.0
 31
0.0
  0
LINE
  5
16772
330
1656E
100
AcDbEntity
  8
4
  6
CENTER
100
AcDbLine
 10
619.2499999999999
 20
535.0
 30
0.0
 11
640.7499999999997
 21
535.0
 31
0.0
  0
LINE
  5
16773
330
1656E
100
AcDbEntity
  8
3
  6
DASHED
100
AcDbLine
 10
681.5
 20
546.0
 30
0.0
 11
685.5
 21
547.5
 31
0.0
  0
LINE
  5
16774
330
1656E
100
AcDbEntity
  8
1
  6
Continuous
100
AcDbLine
 10
638.0
 20
549.5
 30
0.0
 11
634.0
 21
551.0
 31
0.0
  0
LINE
  5
16775
330
1656E
100
AcDbEntity
  8
1
  6
Continuous
100
AcDbLine
 10
634.0
 20
551.0
 30
0.0
 11
572.5
 21
551.0
 31
0.0
  0
LINE
  5
16776
330
1656E
100
AcDbEntity
  8
4
  6
CENTER
100
AcDbLine
 10
601.0
 20
535.0
 30
0.0
 11
571.0
 21
535.0
 31
0.0
  0
LINE
  5
16777
330
1656E
100
AcDbEntity
  8
3
  6
DASHED
100
AcDbLine
 10
680.0
 20
547.5
 30
0.0
 11
570.5
 21
547.5
 31
0.0
  0
LINE
  5
16778
330
1656E
100
AcDbEntity
  8
1
  6
Continuous
100
AcDbLine
 10
614.5
 20
525.0
 30
0.0
 11
569.0
 21
525.0
 31
0.0
  0
LINE
  5
16779
330
1656E
100
AcDbEntity
  8
3
  6
DASHED
100
AcDbLine
 10
678.5
 20
542.4999999999998
 30
0.0
 11
568.0
 21
542.4999999999998
 31
0.0
  0
LINE
  5
1677A
330
1656E
100
AcDbEntity
  8
4
  6
CENTER
100
AcDbLine
 10
570.7999999999998
 20
546.95
 30
0.0
 11
578.2999999999998
 21
546.95
 31
0.0
  0
CIRCLE
  5
1677B
330
1656E
100
AcDbEntity
  8
1
  6
Continuous
100
AcDbCircle
 10
574.5499999999998
 20
546.95
 30
0.0
 40
1.75
  0
LINE
  5
1677C
330
1656E
100
AcDbEntity
  8
4
  6
CENTER
100
AcDbLine
 10
545.0
 20
531.7499999999999
 30
0.0
 11
545.0
 21
543.25
 31
0.0
  0
LINE
  5
1677D
330
1656E
100
AcDbEntity
  8
1
  6
Continuous
100
AcDbLine
 10
569.0
 20
525.0
 30
0.0
 11
569.0
 21
541.0
 31
0.0
  0
LINE
  5
1677E
330
1656E
100
AcDbEntity
  8
4
  6
CENTER
100
AcDbLine
 10
535.0
 20
530.75
 30
0.0
 11
535.0
 21
544.2499999999999
 31
0.0
  0
LINE
  5
1677F
330
1656E
100
AcDbEntity
  8
4
  6
CENTER
100
AcDbLine
 10
550.75
 20
537.5
 30
0.0
 11
529.25
 21
537.5
 31
0.0
  0
CIRCLE
  5
16780
330
1656E
100
AcDbEntity
  8
1
  6
Continuous
100
AcDbCircle
 10
545.0
 20
537.5
 30
0.0
 40
3.75
  0
ARC
  5
16781
330
1656E
100
AcDbEntity
  8
1
  6
Continuous
100
AcDbCircle
 10
535.0
 20
538.4999999999998
 30
0.0
 40
3.75
100
AcDbArc
 50
0.0
 51
180.0
  0
ARC
  5
16782
330
1656E
100
AcDbEntity
  8
1
  6
Continuous
100
AcDbCircle
 10
535.0
 20
536.5
 30
0.0
 40
3.75
100
AcDbArc
 50
180.0
 51
0.0
  0
LINE
  5
16783
330
1656E
100
AcDbEntity
  8
1
  6
Continuous
100
AcDbLine
 10
531.25
 20
536.5
 30
0.0
 11
531.25
 21
538.4999999999998
 31
0.0
  0
ARC
  5
16784
330
1656E
100
AcDbEntity
  8
1
  6
Continuous
100
AcDbCircle
 10
535.0
 20
538.4999999999998
 30
0.0
 40
2.399999999999999
100
AcDbArc
 50
0.0
 51
180.0
  0
ARC
  5
16785
330
1656E
100
AcDbEntity
  8
1
  6
Continuous
100
AcDbCircle
 10
535.0
 20
536.5
 30
0.0
 40
2.399999999999999
100
AcDbArc
 50
180.0
 51
0.0
  0
LINE
  5
16786
330
1656E
100
AcDbEntity
  8
1
  6
Continuous
100
AcDbLine
 10
537.3999999999998
 20
536.5
 30
0.0
 11
537.3999999999998
 21
538.4999999999998
 31
0.0
  0
LINE
  5
16787
330
1656E
100
AcDbEntity
  8
1
  6
Continuous
100
AcDbLine
 10
532.6
 20
536.5
 30
0.0
 11
532.6
 21
538.4999999999998
 31
0.0
  0
LINE
  5
16788
330
1656E
100
AcDbEntity
  8
1
  6
Continuous
100
AcDbLine
 10
538.75
 20
536.5
 30
0.0
 11
538.75
 21
538.4999999999998
 31
0.0
  0
CIRCLE
  5
16789
330
1656E
100
AcDbEntity
  8
1
  6
Continuous
100
AcDbCircle
 10
545.0
 20
537.5
 30
0.0
 40
2.399999999999999
  0
LINE
  5
1678A
330
1656E
100
AcDbEntity
  8
1
  6
Continuous
100
AcDbLine
 10
568.0
 20
544.5
 30
0.0
 11
568.0
 21
541.0
 31
0.0
  0
LINE
  5
1678B
330
1656E
100
AcDbEntity
  8
1
  6
Continuous
100
AcDbLine
 10
570.5
 20
544.5
 30
0.0
 11
568.0
 21
544.5
 31
0.0
  0
LINE
  5
1678C
330
1656E
100
AcDbEntity
  8
1
  6
Continuous
100
AcDbLine
 10
570.5
 20
541.0
 30
0.0
 11
568.0
 21
541.0
 31
0.0
  0
LINE
  5
1678D
330
1656E
100
AcDbEntity
  8
1
  6
Continuous
100
AcDbLine
 10
570.5
 20
549.0
 30
0.0
 11
570.5
 21
541.0
 31
0.0
  0
LINE
  5
1678E
330
1656E
100
AcDbEntity
  8
4
  6
CENTER
100
AcDbLine
 10
625.0
 20
529.6
 30
0.0
 11
625.0
 21
540.3999999999999
 31
0.0
  0
LINE
  5
1678F
330
1656E
100
AcDbEntity
  8
4
  6
CENTER
100
AcDbLine
 10
635.0
 20
528.6
 30
0.0
 11
635.0
 21
541.3999999999998
 31
0.0
  0
ARC
  5
16790
330
1656E
100
AcDbEntity
  8
1
  6
Continuous
100
AcDbCircle
 10
635.0
 20
534.0
 30
0.0
 40
2.399999999999999
100
AcDbArc
 50
180.0
 51
0.0
  0
CIRCLE
  5
16791
330
1656E
100
AcDbEntity
  8
1
  6
Continuous
100
AcDbCircle
 10
586.0
 20
535.0
 30
0.0
 40
3.0
  0
CIRCLE
  5
16792
330
1656E
100
AcDbEntity
  8
1
  6
Continuous
100
AcDbCircle
 10
586.0
 20
535.0
 30
0.0
 40
5.0
  0
ARC
  5
16793
330
1656E
100
AcDbEntity
  8
3
  6
DASHED
100
AcDbCircle
 10
586.0
 20
535.0
 30
0.0
 40
11.0
100
AcDbArc
 50
294.619977
 51
245.380023
  0
LINE
  5
16794
330
1656E
100
AcDbEntity
  8
4
  6
CENTER
100
AcDbLine
 10
586.0
 20
520.0
 30
0.0
 11
586.0
 21
550.0
 31
0.0
  0
ARC
  5
16795
330
1656E
100
AcDbEntity
  8
1
  6
Continuous
100
AcDbCircle
 10
586.0
 20
535.0
 30
0.0
 40
11.0
100
AcDbArc
 50
245.380023
 51
294.619977
  0
LINE
  5
16796
330
1656E
100
AcDbEntity
  8
1
  6
Continuous
100
AcDbLine
 10
618.5
 20
526.4999999999998
 30
0.0
 11
614.5
 21
525.0
 31
0.0
  0
LINE
  5
16797
330
1656E
100
AcDbEntity
  8
1
  6
Continuous
100
AcDbLine
 10
619.5
 20
525.0
 30
0.0
 11
619.5
 21
526.4999999999998
 31
0.0
  0
LINE
  5
16798
330
1656E
100
AcDbEntity
  8
1
  6
Continuous
100
AcDbLine
 10
619.5
 20
526.4999999999998
 30
0.0
 11
618.5
 21
526.4999999999998
 31
0.0
  0
LINE
  5
16799
330
1656E
100
AcDbEntity
  8
3
  6
DASHED
100
AcDbLine
 10
591.900072
 20
544.2868959999998
 30
0.0
 11
589.5445539999998
 21
546.0
 31
0.0
  0
LINE
  5
1679A
330
1656E
100
AcDbEntity
  8
4
  6
CENTER
100
AcDbLine
 10
574.5499999999998
 20
543.2
 30
0.0
 11
574.5499999999998
 21
550.7
 31
0.0
  0
LINE
  5
1679B
330
1656E
100
AcDbEntity
  8
4
  6
CENTER
100
AcDbLine
 10
594.2499999999999
 20
543.0
 30
0.0
 11
605.75
 21
543.0
 31
0.0
  0
LINE
  5
1679C
330
1656E
100
AcDbEntity
  8
3
  6
DASHED
100
AcDbLine
 10
593.6645879999997
 20
544.2868959999998
 30
0.0
 11
596.0201060000001
 21
546.0
 31
0.0
  0
ARC
  5
1679D
330
1656E
100
AcDbEntity
  8
3
  6
DASHED
100
AcDbCircle
 10
592.78233
 20
545.5
 30
0.0
 40
1.5
100
AcDbArc
 50
233.9726269999999
 51
306.027373
  0
LINE
  5
1679E
330
1656E
100
AcDbEntity
  8
4
  6
CENTER
100
AcDbLine
 10
600.0
 20
537.25
 30
0.0
 11
600.0
 21
548.7499999999998
 31
0.0
  0
CIRCLE
  5
1679F
330
1656E
100
AcDbEntity
  8
1
  6
Continuous
100
AcDbCircle
 10
600.0
 20
543.0
 30
0.0
 40
2.399999999999999
  0
CIRCLE
  5
167A0
330
1656E
100
AcDbEntity
  8
1
  6
Continuous
100
AcDbCircle
 10
625.0
 20
535.0
 30
0.0
 40
2.399999999999999
  0
LINE
  5
167A1
330
1656E
100
AcDbEntity
  8
3
  6
DASHED
100
AcDbLine
 10
681.5
 20
546.0
 30
0.0
 11
680.0
 21
546.0
 31
0.0
  0
LINE
  5
167A2
330
1656E
100
AcDbEntity
  8
3
  6
DASHED
100
AcDbLine
 10
680.0
 20
544.0
 30
0.0
 11
680.0
 21
547.5
 31
0.0
  0
LINE
  5
167A3
330
1656E
100
AcDbEntity
  8
1
  6
Continuous
100
AcDbLine
 10
632.6
 20
534.0
 30
0.0
 11
632.6
 21
536.0
 31
0.0
  0
LINE
  5
167A4
330
1656E
100
AcDbEntity
  8
1
  6
Continuous
100
AcDbLine
 10
637.3999999999997
 20
534.0
 30
0.0
 11
637.3999999999997
 21
536.0
 31
0.0
  0
ARC
  5
167A5
330
1656E
100
AcDbEntity
  8
1
  6
Continuous
100
AcDbCircle
 10
635.0
 20
536.0
 30
0.0
 40
2.399999999999999
100
AcDbArc
 50
0.0
 51
180.0
  0
ARC
  5
167A6
330
1656E
100
AcDbEntity
  8
3
  6
DASHED
100
AcDbCircle
 10
678.5
 20
544.0
 30
0.0
 40
1.5
100
AcDbArc
 50
270.0
 51
0.0
  0
LINE
  5
167A7
330
1656E
100
AcDbEntity
  8
3
  6
DASHED
100
AcDbLine
 10
703.691288
 20
531.5
 30
0.0
 11
704.063122
 21
532.464641
 31
0.0
  0
LINE
  5
167A8
330
1656E
100
AcDbEntity
  8
3
  6
DASHED
100
AcDbLine
 10
702.083709
 20
531.5
 30
0.0
 11
702.663502
 21
533.004144
 31
0.0
  0
LINE
  5
167A9
330
1656E
100
AcDbEntity
  8
4
  6
CENTER
100
AcDbLine
 10
691.0
 20
522.5
 30
0.0
 11
691.0
 21
552.5
 31
0.0
  0
ARC
  5
167AA
330
1656E
100
AcDbEntity
  8
1
  6
Continuous
100
AcDbCircle
 10
697.627489
 20
525.4999999999999
 30
0.0
 40
2.0
100
AcDbArc
 50
270.0
 51
338.920162
  0
LINE
  5
167AB
330
1656E
100
AcDbEntity
  8
3
  6
DASHED
100
AcDbLine
 10
703.335541
 20
527.7967559999998
 30
0.0
 11
701.06924
 21
528.8681839999997
 31
0.0
  0
LINE
  5
167AC
330
1656E
100
AcDbEntity
  8
3
  6
DASHED
100
AcDbLine
 10
704.597809
 20
531.0714289999999
 30
0.0
 11
703.691288
 21
531.5
 31
0.0
  0
LINE
  5
167AD
330
1656E
100
AcDbEntity
  8
3
  6
DASHED
100
AcDbLine
 10
703.335541
 20
527.7967559999998
 30
0.0
 11
704.597809
 21
531.0714289999999
 31
0.0
  0
LINE
  5
167AE
330
1656E
100
AcDbEntity
  8
3
  6
DASHED
100
AcDbLine
 10
703.691288
 20
531.5
 30
0.0
 11
702.083709
 21
531.5
 31
0.0
  0
LINE
  5
167AF
330
1656E
100
AcDbEntity
  8
1
  6
Continuous
100
AcDbLine
 10
699.493649
 20
524.780663
 30
0.0
 11
699.5781950000001
 21
525.0
 31
0.0
  0
LINE
  5
167B0
330
1656E
100
AcDbEntity
  8
3
  6
DASHED
100
AcDbLine
 10
699.5781950000001
 20
525.0
 30
0.0
 11
702.083709
 21
531.5
 31
0.0
  0
LINE
  5
167B1
330
1656E
100
AcDbEntity
  8
3
  6
DASHED
100
AcDbLine
 10
701.5
 20
547.5
 30
0.0
 11
685.5
 21
547.5
 31
0.0
  0
LINE
  5
167B2
330
1656E
100
AcDbEntity
  8
1
  6
Continuous
100
AcDbLine
 10
639.0
 20
549.5
 30
0.0
 11
639.0
 21
551.0
 31
0.0
  0
LINE
  5
167B3
330
1656E
100
AcDbEntity
  8
1
  6
Continuous
100
AcDbLine
 10
638.0
 20
549.5
 30
0.0
 11
639.0
 21
549.5
 31
0.0
  0
LINE
  5
167B4
330
1656E
100
AcDbEntity
  8
3
  6
DASHED
100
AcDbLine
 10
705.0
 20
541.5
 30
0.0
 11
703.5
 21
541.5
 31
0.0
  0
ARC
  5
167B5
330
1656E
100
AcDbEntity
  8
3
  6
DASHED
100
AcDbCircle
 10
691.0
 20
537.5
 30
0.0
 40
14.0
100
AcDbArc
 50
338.920162
 51
0.0
  0
ARC
  5
167B6
330
1656E
100
AcDbEntity
  8
3
  6
DASHED
100
AcDbCircle
 10
701.5
 20
545.5
 30
0.0
 40
2.0
100
AcDbArc
 50
0.0
 51
90.0
  0
LINE
  5
167B7
330
1656E
100
AcDbEntity
  8
3
  6
DASHED
100
AcDbLine
 10
703.5
 20
537.5
 30
0.0
 11
703.5
 21
545.5
 31
0.0
  0
ARC
  5
167B8
330
1656E
100
AcDbEntity
  8
3
  6
DASHED
100
AcDbCircle
 10
691.0
 20
537.5
 30
0.0
 40
12.5
100
AcDbArc
 50
338.920162
 51
0.0
  0
LINE
  5
167B9
330
1656E
100
AcDbEntity
  8
3
  6
DASHED
100
AcDbLine
 10
705.0
 20
537.5
 30
0.0
 11
705.0
 21
541.5
 31
0.0
  0
LINE
  5
167BA
330
1656E
100
AcDbEntity
  8
4
  6
CENTER
100
AcDbLine
 10
756.5
 20
529.25
 30
0.0
 11
756.5
 21
540.7499999999998
 31
0.0
  0
CIRCLE
  5
167BB
330
1656E
100
AcDbEntity
  8
1
  6
Continuous
100
AcDbCircle
 10
756.5
 20
535.0
 30
0.0
 40
2.399999999999999
  0
LINE
  5
167BC
330
1656E
100
AcDbEntity
  8
3
  6
DASHED
100
AcDbLine
 10
699.5781950000001
 20
729.4999999999999
 30
0.0
 11
619.5
 21
729.4999999999999
 31
0.0
  0
LINE
  5
167BD
330
1656E
100
AcDbEntity
  8
4
  6
CENTER
100
AcDbLine
 10
706.0
 20
717.0
 30
0.0
 11
659.25
 21
717.0
 31
0.0
  0
ARC
  5
167BE
330
1656E
100
AcDbEntity
  8
3
  6
DASHED
100
AcDbCircle
 10
691.0
 20
717.0
 30
0.0
 40
11.0
100
AcDbArc
 50
294.619977
 51
245.380023
  0
LINE
  5
167BF
330
1656E
100
AcDbEntity
  8
3
  6
DASHED
100
AcDbLine
 10
701.698246
 20
724.0
 30
0.0
 11
620.5
 21
724.0
 31
0.0
  0
LINE
  5
167C0
330
1656E
100
AcDbEntity
  8
4
  6
CENTER
100
AcDbLine
 10
619.2499999999999
 20
719.5
 30
0.0
 11
640.7499999999997
 21
719.5
 31
0.0
  0
LINE
  5
167C1
330
1656E
100
AcDbEntity
  8
1
  6
Continuous
100
AcDbLine
 10
681.0
 20
708.4999999999999
 30
0.0
 11
685.0
 21
707.0
 31
0.0
  0
LINE
  5
167C2
330
1656E
100
AcDbEntity
  8
1
  6
Continuous
100
AcDbLine
 10
638.0
 20
705.0
 30
0.0
 11
634.0
 21
703.5
 31
0.0
  0
LINE
  5
167C3
330
1656E
100
AcDbEntity
  8
1
  6
Continuous
100
AcDbLine
 10
703.5
 20
632.0
 30
0.0
 11
680.0
 21
632.0
 31
0.0
  0
LINE
  5
167C4
330
1656E
100
AcDbEntity
  8
1
  6
Continuous
100
AcDbLine
 10
639.0
 20
622.5
 30
0.0
 11
570.5
 21
622.5
 31
0.0
  0
LINE
  5
167C5
330
1656E
100
AcDbEntity
  8
4
  6
CENTER
100
AcDbLine
 10
535.0
 20
636.5
 30
0.0
 11
535.0
 21
630.0
 31
0.0
  0
LINE
  5
167C6
330
1656E
100
AcDbEntity
  8
4
  6
CENTER
100
AcDbLine
 10
545.0
 20
636.5
 30
0.0
 11
545.0
 21
630.0
 31
0.0
  0
LINE
  5
167C7
330
1656E
100
AcDbEntity
  8
1
  6
Continuous
100
AcDbLine
 10
569.0
 20
622.5
 30
0.0
 11
569.0
 21
624.0
 31
0.0
  0
LINE
  5
167C8
330
1656E
100
AcDbEntity
  8
1
  6
Continuous
100
AcDbLine
 10
570.5
 20
624.0
 30
0.0
 11
570.5
 21
621.0
 31
0.0
  0
ARC
  5
167C9
330
1656E
100
AcDbEntity
  8
1
  6
Continuous
100
AcDbCircle
 10
570.5
 20
622.5
 30
0.0
 40
1.5
100
AcDbArc
 50
180.0
 51
270.0
  0
LINE
  5
167CA
330
1656E
100
AcDbEntity
  8
3
  6
DASHED
100
AcDbLine
 10
570.5
 20
630.4999999999997
 30
0.0
 11
569.0
 21
630.4999999999997
 31
0.0
  0
LINE
  5
167CB
330
1656E
100
AcDbEntity
  8
3
  6
DASHED
100
AcDbLine
 10
570.5
 20
630.4999999999997
 30
0.0
 11
570.5
 21
624.0
 31
0.0
  0
LINE
  5
167CC
330
1656E
100
AcDbEntity
  8
3
  6
DASHED
100
AcDbLine
 10
569.0
 20
624.0
 30
0.0
 11
569.0
 21
630.4999999999997
 31
0.0
  0
LINE
  5
167CD
330
1656E
100
AcDbEntity
  8
4
  6
CENTER
100
AcDbLine
 10
625.0
 20
618.0
 30
0.0
 11
625.0
 21
624.5
 31
0.0
  0
LINE
  5
167CE
330
1656E
100
AcDbEntity
  8
4
  6
CENTER
100
AcDbLine
 10
635.0
 20
618.0
 30
0.0
 11
635.0
 21
624.5
 31
0.0
  0
LINE
  5
167CF
330
1656E
100
AcDbEntity
  8
4
  6
CENTER
100
AcDbLine
 10
600.0
 20
618.0
 30
0.0
 11
600.0
 21
624.5
 31
0.0
  0
LINE
  5
167D0
330
1656E
100
AcDbEntity
  8
4
  6
CENTER
100
AcDbLine
 10
574.5499999999998
 20
618.0
 30
0.0
 11
574.5499999999998
 21
624.5
 31
0.0
  0
LINE
  5
167D1
330
1656E
100
AcDbEntity
  8
4
  6
CENTER
100
AcDbLine
 10
586.0
 20
616.7314709999999
 30
0.0
 11
586.0
 21
637.1142519999997
 31
0.0
  0
LINE
  5
167D2
330
1656E
100
AcDbEntity
  8
1
  6
Continuous
100
AcDbLine
 10
595.5323299999998
 20
631.5
 30
0.0
 11
590.03233
 21
631.5
 31
0.0
  0
LINE
  5
167D3
330
1656E
100
AcDbEntity
  8
1
  6
Continuous
100
AcDbLine
 10
595.5323299999998
 20
626.0
 30
0.0
 11
590.03233
 21
626.0
 31
0.0
  0
LINE
  5
167D4
330
1656E
100
AcDbEntity
  8
3
  6
DASHED
100
AcDbLine
 10
597.0
 20
626.5
 30
0.0
 11
575.0
 21
626.5
 31
0.0
  0
LINE
  5
167D5
330
1656E
100
AcDbEntity
  8
1
  6
Continuous
100
AcDbLine
 10
592.0
 20
623.5
 30
0.0
 11
580.0
 21
623.5
 31
0.0
  0
LINE
  5
167D6
330
1656E
100
AcDbEntity
  8
3
  6
DASHED
100
AcDbLine
 10
592.0
 20
625.0
 30
0.0
 11
580.0
 21
625.0
 31
0.0
  0
LINE
  5
167D7
330
1656E
100
AcDbEntity
  8
1
  6
Continuous
100
AcDbLine
 10
590.03233
 20
626.0
 30
0.0
 11
590.03233
 21
631.5
 31
0.0
  0
LINE
  5
167D8
330
1656E
100
AcDbEntity
  8
1
  6
Continuous
100
AcDbLine
 10
580.2071070000001
 20
623.2071069999998
 30
0.0
 11
579.4999999999999
 21
622.5
 31
0.0
  0
LINE
  5
167D9
330
1656E
100
AcDbEntity
  8
3
  6
DASHED
100
AcDbLine
 10
575.0
 20
626.5
 30
0.0
 11
575.0
 21
631.5
 31
0.0
  0
LINE
  5
167DA
330
1656E
100
AcDbEntity
  8
1
  6
Continuous
100
AcDbLine
 10
580.0
 20
624.0
 30
0.0
 11
580.0
 21
623.5
 31
0.0
  0
ARC
  5
167DB
330
1656E
100
AcDbEntity
  8
1
  6
Continuous
100
AcDbCircle
 10
580.914214
 20
622.5
 30
0.0
 40
1.0
100
AcDbArc
 50
90.0
 51
135.0
  0
LINE
  5
167DC
330
1656E
100
AcDbEntity
  8
3
  6
DASHED
100
AcDbLine
 10
580.0
 20
626.5
 30
0.0
 11
580.0
 21
624.0
 31
0.0
  0
LINE
  5
167DD
330
1656E
100
AcDbEntity
  8
3
  6
DASHED
100
AcDbLine
 10
590.03233
 20
631.5
 30
0.0
 11
575.0
 21
631.5
 31
0.0
  0
LINE
  5
167DE
330
1656E
100
AcDbEntity
  8
3
  6
DASHED
100
AcDbLine
 10
597.0
 20
631.5
 30
0.0
 11
595.5323299999998
 21
631.5
 31
0.0
  0
LINE
  5
167DF
330
1656E
100
AcDbEntity
  8
1
  6
Continuous
100
AcDbLine
 10
592.0
 20
624.0
 30
0.0
 11
592.0
 21
623.5
 31
0.0
  0
ARC
  5
167E0
330
1656E
100
AcDbEntity
  8
1
  6
Continuous
100
AcDbCircle
 10
591.085786
 20
622.5
 30
0.0
 40
1.0
100
AcDbArc
 50
45.0
 51
90.0
  0
LINE
  5
167E1
330
1656E
100
AcDbEntity
  8
1
  6
Continuous
100
AcDbLine
 10
591.7928929999999
 20
623.2071069999998
 30
0.0
 11
592.4999999999998
 21
622.5
 31
0.0
  0
LINE
  5
167E2
330
1656E
100
AcDbEntity
  8
3
  6
DASHED
100
AcDbLine
 10
592.0
 20
626.5
 30
0.0
 11
592.0
 21
624.0
 31
0.0
  0
LINE
  5
167E3
330
1656E
100
AcDbEntity
  8
1
  6
Continuous
100
AcDbLine
 10
595.5323299999998
 20
626.0
 30
0.0
 11
595.5323299999998
 21
631.5
 31
0.0
  0
LINE
  5
167E4
330
1656E
100
AcDbEntity
  8
1
  6
Continuous
100
AcDbLine
 10
592.78233
 20
626.0
 30
0.0
 11
592.78233
 21
631.5
 31
0.0
  0
LINE
  5
167E5
330
1656E
100
AcDbEntity
  8
3
  6
DASHED
100
AcDbLine
 10
597.0
 20
626.5
 30
0.0
 11
597.0
 21
631.5
 31
0.0
  0
LINE
  5
167E6
330
1656E
100
AcDbEntity
  8
4
  6
CENTER
100
AcDbLine
 10
665.0
 20
636.5
 30
0.0
 11
665.0
 21
630.0
 31
0.0
  0
LINE
  5
167E7
330
1656E
100
AcDbEntity
  8
1
  6
Continuous
100
AcDbLine
 10
619.5
 20
624.0
 30
0.0
 11
619.5
 21
622.5
 31
0.0
  0
LINE
  5
167E8
330
1656E
100
AcDbEntity
  8
1
  6
Continuous
100
AcDbLine
 10
680.0
 20
633.4999999999999
 30
0.0
 11
680.0
 21
629.0
 31
0.0
  0
LINE
  5
167E9
330
1656E
100
AcDbEntity
  8
4
  6
CENTER
100
AcDbLine
 10
675.0
 20
636.5
 30
0.0
 11
675.0
 21
630.0
 31
0.0
  0
LINE
  5
167EA
330
1656E
100
AcDbEntity
  8
1
  6
Continuous
100
AcDbLine
 10
634.0
 20
622.5
 30
0.0
 11
634.0
 21
621.0
 31
0.0
  0
LINE
  5
167EB
330
1656E
100
AcDbEntity
  8
4
  6
CENTER
100
AcDbLine
 10
601.0
 20
719.5
 30
0.0
 11
571.0
 21
719.5
 31
0.0
  0
LINE
  5
167EC
330
1656E
100
AcDbEntity
  8
1
  6
Continuous
100
AcDbLine
 10
634.0
 20
703.5
 30
0.0
 11
572.5
 21
703.5
 31
0.0
  0
LINE
  5
167ED
330
1656E
100
AcDbEntity
  8
3
  6
DASHED
100
AcDbLine
 10
614.5
 20
729.4999999999999
 30
0.0
 11
569.0
 21
729.4999999999999
 31
0.0
  0
ARC
  5
167EE
330
1656E
100
AcDbEntity
  8
1
  6
Continuous
100
AcDbCircle
 10
574.5499999999998
 20
707.5499999999998
 30
0.0
 40
1.75
100
AcDbArc
 50
198.317698
 51
341.6823019999999
  0
LINE
  5
167EF
330
1656E
100
AcDbEntity
  8
4
  6
CENTER
100
AcDbLine
 10
570.7999999999998
 20
707.5499999999998
 30
0.0
 11
578.2999999999998
 21
707.5499999999998
 31
0.0
  0
LINE
  5
167F0
330
1656E
100
AcDbEntity
  8
3
  6
DASHED
100
AcDbLine
 10
570.5
 20
710.0
 30
0.0
 11
570.5
 21
707.0
 31
0.0
  0
LINE
  5
167F1
330
1656E
100
AcDbEntity
  8
1
  6
Continuous
100
AcDbLine
 10
570.5
 20
705.4999999999997
 30
0.0
 11
570.5
 21
707.0
 31
0.0
  0
LINE
  5
167F2
330
1656E
100
AcDbEntity
  8
4
  6
CENTER
100
AcDbLine
 10
550.75
 20
717.0
 30
0.0
 11
529.25
 21
717.0
 31
0.0
  0
ARC
  5
167F3
330
1656E
100
AcDbEntity
  8
1
  6
Continuous
100
AcDbCircle
 10
535.0
 20
718.0
 30
0.0
 40
2.399999999999999
100
AcDbArc
 50
0.0
 51
180.0
  0
ARC
  5
167F4
330
1656E
100
AcDbEntity
  8
1
  6
Continuous
100
AcDbCircle
 10
535.0
 20
716.0
 30
0.0
 40
2.399999999999999
100
AcDbArc
 50
180.0
 51
0.0
  0
LINE
  5
167F5
330
1656E
100
AcDbEntity
  8
1
  6
Continuous
100
AcDbLine
 10
532.6
 20
718.0
 30
0.0
 11
532.6
 21
716.0
 31
0.0
  0
LINE
  5
167F6
330
1656E
100
AcDbEntity
  8
4
  6
CENTER
100
AcDbLine
 10
535.0
 20
723.7499999999998
 30
0.0
 11
535.0
 21
710.25
 31
0.0
  0
LINE
  5
167F7
330
1656E
100
AcDbEntity
  8
1
  6
Continuous
100
AcDbLine
 10
537.3999999999998
 20
718.0
 30
0.0
 11
537.3999999999998
 21
716.0
 31
0.0
  0
LINE
  5
167F8
330
1656E
100
AcDbEntity
  8
4
  6
CENTER
100
AcDbLine
 10
545.0
 20
722.75
 30
0.0
 11
545.0
 21
711.2499999999997
 31
0.0
  0
CIRCLE
  5
167F9
330
1656E
100
AcDbEntity
  8
1
  6
Continuous
100
AcDbCircle
 10
545.0
 20
717.0
 30
0.0
 40
2.399999999999999
  0
LINE
  5
167FA
330
1656E
100
AcDbEntity
  8
3
  6
DASHED
100
AcDbLine
 10
571.4999999999998
 20
713.4999999999997
 30
0.0
 11
568.0
 21
713.4999999999997
 31
0.0
  0
LINE
  5
167FB
330
1656E
100
AcDbEntity
  8
3
  6
DASHED
100
AcDbLine
 10
571.4999999999998
 20
710.0
 30
0.0
 11
568.0
 21
710.0
 31
0.0
  0
LINE
  5
167FC
330
1656E
100
AcDbEntity
  8
3
  6
DASHED
100
AcDbLine
 10
568.0
 20
710.0
 30
0.0
 11
568.0
 21
713.4999999999997
 31
0.0
  0
LINE
  5
167FD
330
1656E
100
AcDbEntity
  8
3
  6
DASHED
100
AcDbLine
 10
571.4999999999998
 20
710.0
 30
0.0
 11
571.4999999999998
 21
713.4999999999997
 31
0.0
  0
LINE
  5
167FE
330
1656E
100
AcDbEntity
  8
3
  6
DASHED
100
AcDbLine
 10
569.0
 20
729.4999999999999
 30
0.0
 11
569.0
 21
713.4999999999997
 31
0.0
  0
LINE
  5
167FF
330
1656E
100
AcDbEntity
  8
3
  6
DASHED
100
AcDbLine
 10
570.5
 20
729.4999999999999
 30
0.0
 11
570.5
 21
713.4999999999997
 31
0.0
  0
LINE
  5
16800
330
1656E
100
AcDbEntity
  8
1
  6
Continuous
100
AcDbLine
 10
680.0
 20
708.4999999999999
 30
0.0
 11
680.0
 21
707.0
 31
0.0
  0
LINE
  5
16801
330
1656E
100
AcDbEntity
  8
4
  6
CENTER
100
AcDbLine
 10
600.0
 20
717.25
 30
0.0
 11
600.0
 21
705.75
 31
0.0
  0
LINE
  5
16802
330
1656E
100
AcDbEntity
  8
4
  6
CENTER
100
AcDbLine
 10
574.5499999999998
 20
711.2999999999998
 30
0.0
 11
574.5499999999998
 21
703.7999999999998
 31
0.0
  0
LINE
  5
16803
330
1656E
100
AcDbEntity
  8
4
  6
CENTER
100
AcDbLine
 10
586.0
 20
734.4999999999998
 30
0.0
 11
586.0
 21
704.4999999999999
 31
0.0
  0
CIRCLE
  5
16804
330
1656E
100
AcDbEntity
  8
3
  6
DASHED
100
AcDbCircle
 10
586.0
 20
719.5
 30
0.0
 40
11.0
  0
LINE
  5
16805
330
1656E
100
AcDbEntity
  8
4
  6
CENTER
100
AcDbLine
 10
594.2499999999999
 20
711.5
 30
0.0
 11
605.75
 21
711.5
 31
0.0
  0
ARC
  5
16806
330
1656E
100
AcDbEntity
  8
1
  6
Continuous
100
AcDbCircle
 10
665.0
 20
716.0
 30
0.0
 40
2.399999999999999
100
AcDbArc
 50
180.0
 51
0.0
  0
ARC
  5
16807
330
1656E
100
AcDbEntity
  8
1
  6
Continuous
100
AcDbCircle
 10
665.0
 20
718.0
 30
0.0
 40
2.399999999999999
100
AcDbArc
 50
0.0
 51
180.0
  0
ARC
  5
16808
330
1656E
100
AcDbEntity
  8
3
  6
DASHED
100
AcDbCircle
 10
620.723607
 20
727.5
 30
0.0
 40
0.5
100
AcDbArc
 50
318.189685
 51
90.0
  0
ARC
  5
16809
330
1656E
100
AcDbEntity
  8
3
  6
DASHED
100
AcDbCircle
 10
620.5
 20
728.0
 30
0.0
 40
1.0
100
AcDbArc
 50
318.189685
 51
67.380135
  0
LINE
  5
1680A
330
1656E
100
AcDbEntity
  8
3
  6
DASHED
100
AcDbLine
 10
618.5
 20
728.0
 30
0.0
 11
619.5
 21
728.0
 31
0.0
  0
LINE
  5
1680B
330
1656E
100
AcDbEntity
  8
3
  6
DASHED
100
AcDbLine
 10
619.5
 20
728.0
 30
0.0
 11
620.723607
 21
728.0
 31
0.0
  0
LINE
  5
1680C
330
1656E
100
AcDbEntity
  8
3
  6
DASHED
100
AcDbLine
 10
619.5
 20
729.4999999999999
 30
0.0
 11
620.8846150000002
 21
728.9230769999996
 31
0.0
  0
LINE
  5
1680D
330
1656E
100
AcDbEntity
  8
3
  6
DASHED
100
AcDbLine
 10
619.5
 20
729.4999999999999
 30
0.0
 11
619.5
 21
728.0
 31
0.0
  0
LINE
  5
1680E
330
1656E
100
AcDbEntity
  8
3
  6
DASHED
100
AcDbLine
 10
618.5
 20
728.0
 30
0.0
 11
614.5
 21
729.4999999999999
 31
0.0
  0
LINE
  5
1680F
330
1656E
100
AcDbEntity
  8
3
  6
DASHED
100
AcDbLine
 10
619.7546439999999
 20
725.6666669999997
 30
0.0
 11
621.245356
 21
727.333333
 31
0.0
  0
LINE
  5
16810
330
1656E
100
AcDbEntity
  8
1
  6
Continuous
100
AcDbLine
 10
662.6
 20
718.0
 30
0.0
 11
662.6
 21
716.0
 31
0.0
  0
ARC
  5
16811
330
1656E
100
AcDbEntity
  8
3
  6
DASHED
100
AcDbCircle
 10
620.5
 20
725.0
 30
0.0
 40
1.0
100
AcDbArc
 50
138.1896849999999
 51
270.0
  0
CIRCLE
  5
16812
330
1656E
100
AcDbEntity
  8
1
  6
Continuous
100
AcDbCircle
 10
675.0
 20
717.0
 30
0.0
 40
2.399999999999999
  0
LINE
  5
16813
330
1656E
100
AcDbEntity
  8
1
  6
Continuous
100
AcDbLine
 10
667.3999999999997
 20
718.0
 30
0.0
 11
667.3999999999997
 21
716.0
 31
0.0
  0
LINE
  5
16814
330
1656E
100
AcDbEntity
  8
1
  6
Continuous
100
AcDbLine
 10
681.0
 20
708.4999999999999
 30
0.0
 11
680.0
 21
708.4999999999999
 31
0.0
  0
LINE
  5
16815
330
1656E
100
AcDbEntity
  8
4
  6
CENTER
100
AcDbLine
 10
691.0
 20
616.8764579999997
 30
0.0
 11
691.0
 21
637.343926
 31
0.0
  0
LINE
  5
16816
330
1656E
100
AcDbEntity
  8
3
  6
DASHED
100
AcDbLine
 10
702.0
 20
628.0
 30
0.0
 11
680.0
 21
628.0
 31
0.0
  0
LINE
  5
16817
330
1656E
100
AcDbEntity
  8
3
  6
DASHED
100
AcDbLine
 10
702.0
 20
623.0
 30
0.0
 11
680.0
 21
623.0
 31
0.0
  0
LINE
  5
16818
330
1656E
100
AcDbEntity
  8
1
  6
Continuous
100
AcDbLine
 10
697.0
 20
629.4999999999999
 30
0.0
 11
685.0
 21
629.4999999999999
 31
0.0
  0
LINE
  5
16819
330
1656E
100
AcDbEntity
  8
1
  6
Continuous
100
AcDbLine
 10
697.0
 20
631.0
 30
0.0
 11
685.0
 21
631.0
 31
0.0
  0
LINE
  5
1681A
330
1656E
100
AcDbEntity
  8
1
  6
Continuous
100
AcDbLine
 10
639.0
 20
627.5
 30
0.0
 11
639.0
 21
621.0
 31
0.0
  0
LINE
  5
1681B
330
1656E
100
AcDbEntity
  8
1
  6
Continuous
100
AcDbLine
 10
638.0
 20
622.5
 30
0.0
 11
638.0
 21
621.0
 31
0.0
  0
ARC
  5
1681C
330
1656E
100
AcDbEntity
  8
1
  6
Continuous
100
AcDbCircle
 10
640.5
 20
627.5
 30
0.0
 40
1.5
100
AcDbArc
 50
90.0
 51
180.0
  0
LINE
  5
1681D
330
1656E
100
AcDbEntity
  8
1
  6
Continuous
100
AcDbLine
 10
685.0
 20
629.0
 30
0.0
 11
685.0
 21
631.0
 31
0.0
  0
LINE
  5
1681E
330
1656E
100
AcDbEntity
  8
1
  6
Continuous
100
AcDbLine
 10
685.207107
 20
631.2928929999999
 30
0.0
 11
684.4999999999997
 21
632.0
 31
0.0
  0
ARC
  5
1681F
330
1656E
100
AcDbEntity
  8
1
  6
Continuous
100
AcDbCircle
 10
685.914214
 20
632.0
 30
0.0
 40
1.0
100
AcDbArc
 50
225.0
 51
270.0
  0
LINE
  5
16820
330
1656E
100
AcDbEntity
  8
3
  6
DASHED
100
AcDbLine
 10
685.0
 20
628.0
 30
0.0
 11
685.0
 21
629.0
 31
0.0
  0
LINE
  5
16821
330
1656E
100
AcDbEntity
  8
1
  6
Continuous
100
AcDbLine
 10
697.0
 20
629.0
 30
0.0
 11
697.0
 21
631.0
 31
0.0
  0
LINE
  5
16822
330
1656E
100
AcDbEntity
  8
1
  6
Continuous
100
AcDbLine
 10
696.7928929999999
 20
631.2928929999999
 30
0.0
 11
697.5
 21
632.0
 31
0.0
  0
ARC
  5
16823
330
1656E
100
AcDbEntity
  8
1
  6
Continuous
100
AcDbCircle
 10
696.0857859999999
 20
632.0
 30
0.0
 40
1.0
100
AcDbArc
 50
270.0
 51
315.0
  0
LINE
  5
16824
330
1656E
100
AcDbEntity
  8
3
  6
DASHED
100
AcDbLine
 10
697.0
 20
628.0
 30
0.0
 11
697.0
 21
629.0
 31
0.0
  0
ARC
  5
16825
330
1656E
100
AcDbEntity
  8
1
  6
Continuous
100
AcDbCircle
 10
703.5
 20
632.0
 30
0.0
 40
1.5
100
AcDbArc
 50
0.0
 51
90.0
  0
LINE
  5
16826
330
1656E
100
AcDbEntity
  8
3
  6
DASHED
100
AcDbLine
 10
705.0
 20
624.0
 30
0.0
 11
703.5
 21
624.0
 31
0.0
  0
LINE
  5
16827
330
1656E
100
AcDbEntity
  8
1
  6
Continuous
100
AcDbLine
 10
703.5
 20
629.0
 30
0.0
 11
703.5
 21
633.4999999999999
 31
0.0
  0
LINE
  5
16828
330
1656E
100
AcDbEntity
  8
3
  6
DASHED
100
AcDbLine
 10
702.0
 20
628.0
 30
0.0
 11
702.0
 21
623.0
 31
0.0
  0
LINE
  5
16829
330
1656E
100
AcDbEntity
  8
3
  6
DASHED
100
AcDbLine
 10
703.5
 20
624.0
 30
0.0
 11
703.5
 21
629.0
 31
0.0
  0
LINE
  5
1682A
330
1656E
100
AcDbEntity
  8
1
  6
Continuous
100
AcDbLine
 10
705.0
 20
629.0
 30
0.0
 11
705.0
 21
632.0
 31
0.0
  0
LINE
  5
1682B
330
1656E
100
AcDbEntity
  8
3
  6
DASHED
100
AcDbLine
 10
705.0
 20
624.0
 30
0.0
 11
705.0
 21
629.0
 31
0.0
  0
LINE
  5
1682C
330
1656E
100
AcDbEntity
  8
4
  6
CENTER
100
AcDbLine
 10
756.5
 20
618.0
 30
0.0
 11
756.5
 21
624.5
 31
0.0
  0
ARC
  5
1682D
330
1656E
100
AcDbEntity
  8
1
  6
Continuous
100
AcDbCircle
 10
701.5
 20
709.0
 30
0.0
 40
2.0
100
AcDbArc
 50
270.0
 51
0.0
  0
LINE
  5
1682E
330
1656E
100
AcDbEntity
  8
4
  6
CENTER
100
AcDbLine
 10
691.0
 20
732.0
 30
0.0
 11
691.0
 21
702.0
 31
0.0
  0
LINE
  5
1682F
330
1656E
100
AcDbEntity
  8
1
  6
Continuous
100
AcDbLine
 10
701.5
 20
707.0
 30
0.0
 11
685.0
 21
707.0
 31
0.0
  0
ARC
  5
16830
330
1656E
100
AcDbEntity
  8
1
  6
Continuous
100
AcDbCircle
 10
691.0
 20
717.0
 30
0.0
 40
11.0
100
AcDbArc
 50
245.380023
 51
294.619977
  0
LINE
  5
16831
330
1656E
100
AcDbEntity
  8
1
  6
Continuous
100
AcDbLine
 10
639.0
 20
705.0
 30
0.0
 11
639.0
 21
703.5
 31
0.0
  0
ARC
  5
16832
330
1656E
100
AcDbEntity
  8
1
  6
Continuous
100
AcDbCircle
 10
697.627489
 20
729.0
 30
0.0
 40
2.0
100
AcDbArc
 50
21.07983799999999
 51
90.0
  0
CIRCLE
  5
16833
330
1656E
100
AcDbEntity
  8
1
  6
Continuous
100
AcDbCircle
 10
691.0
 20
717.0
 30
0.0
 40
3.0
  0
CIRCLE
  5
16834
330
1656E
100
AcDbEntity
  8
1
  6
Continuous
100
AcDbCircle
 10
691.0
 20
717.0
 30
0.0
 40
5.0
  0
ARC
  5
16835
330
1656E
100
AcDbEntity
  8
1
  6
Continuous
100
AcDbCircle
 10
691.0
 20
717.0
 30
0.0
 40
14.0
100
AcDbArc
 50
0.0
 51
21.07983799999999
  0
LINE
  5
16836
330
1656E
100
AcDbEntity
  8
1
  6
Continuous
100
AcDbLine
 10
705.0
 20
713.0
 30
0.0
 11
703.5
 21
713.0
 31
0.0
  0
LINE
  5
16837
330
1656E
100
AcDbEntity
  8
1
  6
Continuous
100
AcDbLine
 10
703.5
 20
713.0
 30
0.0
 11
703.5
 21
709.0
 31
0.0
  0
LINE
  5
16838
330
1656E
100
AcDbEntity
  8
1
  6
Continuous
100
AcDbLine
 10
703.691288
 20
723.0
 30
0.0
 11
702.083709
 21
723.0
 31
0.0
  0
LINE
  5
16839
330
1656E
100
AcDbEntity
  8
1
  6
Continuous
100
AcDbLine
 10
703.691288
 20
723.0
 30
0.0
 11
704.063122
 21
722.0353589999997
 31
0.0
  0
LINE
  5
1683A
330
1656E
100
AcDbEntity
  8
1
  6
Continuous
100
AcDbLine
 10
704.3775439999998
 20
724.0
 30
0.0
 11
704.597809
 21
723.428571
 31
0.0
  0
LINE
  5
1683B
330
1656E
100
AcDbEntity
  8
1
  6
Continuous
100
AcDbLine
 10
704.597809
 20
723.428571
 30
0.0
 11
703.691288
 21
723.0
 31
0.0
  0
LINE
  5
1683C
330
1656E
100
AcDbEntity
  8
1
  6
Continuous
100
AcDbLine
 10
705.0
 20
717.0
 30
0.0
 11
705.0
 21
713.0
 31
0.0
  0
LINE
  5
1683D
330
1656E
100
AcDbEntity
  8
1
  6
Continuous
100
AcDbLine
 10
699.493649
 20
729.719337
 30
0.0
 11
702.083709
 21
723.0
 31
0.0
  0
LINE
  5
1683E
330
1656E
100
AcDbEntity
  8
4
  6
CENTER
100
AcDbLine
 10
750.75
 20
719.5
 30
0.0
 11
762.25
 21
719.5
 31
0.0
  0
CIRCLE
  5
1683F
330
1656E
100
AcDbEntity
  8
1
  6
Continuous
100
AcDbCircle
 10
756.5
 20
719.5
 30
0.0
 40
3.75
  0
CIRCLE
  5
16840
330
1656E
100
AcDbEntity
  8
1
  6
Continuous
100
AcDbCircle
 10
756.5
 20
719.5
 30
0.0
 40
2.399999999999999
  0
LINE
  5
16841
330
1656E
100
AcDbEntity
  8
4
  6
CENTER
100
AcDbLine
 10
756.5
 20
725.25
 30
0.0
 11
756.5
 21
713.75
 31
0.0
  0
LINE
  5
16842
330
1656E
100
AcDbEntity
  8
1
  6
Continuous
100
AcDbLine
 10
1150.0
 20
522.5
 30
0.0
 11
1122.0
 21
525.0
 31
0.0
  0
LINE
  5
16843
330
1656E
100
AcDbEntity
  8
4
  6
CENTER
100
AcDbLine
 10
1150.0
 20
529.25
 30
0.0
 11
1150.0
 21
540.7499999999998
 31
0.0
  0
ARC
  5
16844
330
1656E
100
AcDbEntity
  8
1
  6
Continuous
100
AcDbCircle
 10
1157.0
 20
533.0
 30
0.0
 40
2.0
100
AcDbArc
 50
90.0
 51
253.2276069999999
  0
ARC
  5
16845
330
1656E
100
AcDbEntity
  8
1
  6
Continuous
100
AcDbCircle
 10
1140.0
 20
534.0
 30
0.0
 40
2.399999999999999
100
AcDbArc
 50
180.0
 51
0.0
  0
LINE
  5
16846
330
1656E
100
AcDbEntity
  8
4
  6
CENTER
100
AcDbLine
 10
1140.0
 20
528.2499999999998
 30
0.0
 11
1140.0
 21
541.75
 31
0.0
  0
LINE
  5
16847
330
1656E
100
AcDbEntity
  8
1
  6
Continuous
100
AcDbLine
 10
1165.0
 20
522.5
 30
0.0
 11
1150.0
 21
522.5
 31
0.0
  0
LINE
  5
16848
330
1656E
100
AcDbEntity
  8
1
  6
Continuous
100
AcDbLine
 10
1163.932855999999
 20
528.821629
 30
0.0
 11
1156.422859
 21
531.085083
 31
0.0
  0
LINE
  5
16849
330
1656E
100
AcDbEntity
  8
1
  6
Continuous
100
AcDbLine
 10
1165.0
 20
522.5
 30
0.0
 11
1165.0
 21
527.385441
 31
0.0
  0
ARC
  5
1684A
330
1656E
100
AcDbEntity
  8
1
  6
Continuous
100
AcDbCircle
 10
1163.499999999999
 20
527.385441
 30
0.0
 40
1.5
100
AcDbArc
 50
0.0
 51
73.22760699999998
  0
LINE
  5
1684B
330
1656E
100
AcDbEntity
  8
1
  6
Continuous
100
AcDbLine
 10
1163.499999999999
 20
535.0
 30
0.0
 11
1157.0
 21
535.0
 31
0.0
  0
LINE
  5
1684C
330
1656E
100
AcDbEntity
  8
1
  6
Continuous
100
AcDbLine
 10
1142.4
 20
534.0
 30
0.0
 11
1142.4
 21
536.0
 31
0.0
  0
LINE
  5
1684D
330
1656E
100
AcDbEntity
  8
1
  6
Continuous
100
AcDbLine
 10
1137.599999999999
 20
534.0
 30
0.0
 11
1137.599999999999
 21
536.0
 31
0.0
  0
ARC
  5
1684E
330
1656E
100
AcDbEntity
  8
1
  6
Continuous
100
AcDbCircle
 10
1140.0
 20
536.0
 30
0.0
 40
2.399999999999999
100
AcDbArc
 50
0.0
 51
180.0
  0
CIRCLE
  5
1684F
330
1656E
100
AcDbEntity
  8
1
  6
Continuous
100
AcDbCircle
 10
1150.0
 20
535.0
 30
0.0
 40
2.399999999999999
  0
ARC
  5
16850
330
1656E
100
AcDbEntity
  8
1
  6
Continuous
100
AcDbCircle
 10
1151.0
 20
535.0
 30
0.0
 40
7.0
100
AcDbArc
 50
26.33707499999999
 51
63.662925
  0
LINE
  5
16851
330
1656E
100
AcDbEntity
  8
1
  6
Continuous
100
AcDbLine
 10
1160.858195
 20
539.880163
 30
0.0
 11
1157.273396999999
 21
538.1055579999999
 31
0.0
  0
LINE
  5
16852
330
1656E
100
AcDbEntity
  8
1
  6
Continuous
100
AcDbLine
 10
1155.880163
 20
544.858195
 30
0.0
 11
1154.105558
 21
541.2733969999997
 31
0.0
  0
ARC
  5
16853
330
1656E
100
AcDbEntity
  8
1
  6
Continuous
100
AcDbCircle
 10
1151.0
 20
535.0
 30
0.0
 40
11.0
100
AcDbArc
 50
26.33707499999999
 51
63.662925
  0
ARC
  5
16854
330
1656E
100
AcDbEntity
  8
1
  6
Continuous
100
AcDbCircle
 10
1163.499999999999
 20
536.5
 30
0.0
 40
1.5
100
AcDbArc
 50
270.0
 51
0.0
  0
LINE
  5
16855
330
1656E
100
AcDbEntity
  8
1
  6
Continuous
100
AcDbLine
 10
1165.0
 20
536.5
 30
0.0
 11
1165.0
 21
551.0
 31
0.0
  0
LINE
  5
16856
330
1656E
100
AcDbEntity
  8
1
  6
Continuous
100
AcDbLine
 10
1238.0
 20
531.5
 30
0.0
 11
1238.0
 21
539.880163
 31
0.0
  0
LINE
  5
16857
330
1656E
100
AcDbEntity
  8
1
  6
Continuous
100
AcDbLine
 10
1237.0
 20
531.5
 30
0.0
 11
1237.0
 21
539.880163
 31
0.0
  0
LINE
  5
16858
330
1656E
100
AcDbEntity
  8
1
  6
Continuous
100
AcDbLine
 10
1247.5
 20
523.5
 30
0.0
 11
1247.5
 21
548.5
 31
0.0
  0
LINE
  5
16859
330
1656E
100
AcDbEntity
  8
1
  6
Continuous
100
AcDbLine
 10
1236.5
 20
524.0
 30
0.0
 11
1236.5
 21
549.5
 31
0.0
  0
LINE
  5
1685A
330
1656E
100
AcDbEntity
  8
1
  6
Continuous
100
AcDbLine
 10
1235.0
 20
524.0
 30
0.0
 11
1235.0
 21
551.0
 31
0.0
  0
LINE
  5
1685B
330
1656E
100
AcDbEntity
  8
1
  6
Continuous
100
AcDbLine
 10
1247.5
 20
531.5
 30
0.0
 11
1236.5
 21
531.5
 31
0.0
  0
LINE
  5
1685C
330
1656E
100
AcDbEntity
  8
1
  6
Continuous
100
AcDbLine
 10
1243.0
 20
527.7967559999998
 30
0.0
 11
1236.5
 21
527.7967559999998
 31
0.0
  0
LINE
  5
1685D
330
1656E
100
AcDbEntity
  8
1
  6
Continuous
100
AcDbLine
 10
1243.0
 20
524.0
 30
0.0
 11
1236.5
 21
524.0
 31
0.0
  0
LINE
  5
1685E
330
1656E
100
AcDbEntity
  8
1
  6
Continuous
100
AcDbLine
 10
1243.0
 20
522.5
 30
0.0
 11
1236.5
 21
522.5
 31
0.0
  0
LINE
  5
1685F
330
1656E
100
AcDbEntity
  8
1
  6
Continuous
100
AcDbLine
 10
1236.5
 20
526.4999999999998
 30
0.0
 11
1243.0
 21
526.4999999999998
 31
0.0
  0
LINE
  5
16860
330
1656E
100
AcDbEntity
  8
1
  6
Continuous
100
AcDbLine
 10
1235.0
 20
528.5
 30
0.0
 11
1236.5
 21
528.5
 31
0.0
  0
ARC
  5
16861
330
1656E
100
AcDbEntity
  8
1
  6
Continuous
100
AcDbCircle
 10
1236.5
 20
524.0
 30
0.0
 40
1.5
100
AcDbArc
 50
180.0
 51
270.0
  0
LINE
  5
16862
330
1656E
100
AcDbEntity
  8
1
  6
Continuous
100
AcDbLine
 10
1237.0
 20
526.4999999999998
 30
0.0
 11
1237.0
 21
527.7967559999998
 31
0.0
  0
LINE
  5
16863
330
1656E
100
AcDbEntity
  8
1
  6
Continuous
100
AcDbLine
 10
1244.5
 20
528.0
 30
0.0
 11
1243.0
 21
528.0
 31
0.0
  0
LINE
  5
16864
330
1656E
100
AcDbEntity
  8
1
  6
Continuous
100
AcDbLine
 10
1245.5
 20
531.5
 30
0.0
 11
1246.0
 21
531.0
 31
0.0
  0
LINE
  5
16865
330
1656E
100
AcDbEntity
  8
1
  6
Continuous
100
AcDbLine
 10
1243.0
 20
530.4999999999998
 30
0.0
 11
1244.5
 21
530.4999999999998
 31
0.0
  0
ARC
  5
16866
330
1656E
100
AcDbEntity
  8
1
  6
Continuous
100
AcDbCircle
 10
1243.0
 20
524.0
 30
0.0
 40
1.5
100
AcDbArc
 50
270.0
 51
0.0
  0
LINE
  5
16867
330
1656E
100
AcDbEntity
  8
1
  6
Continuous
100
AcDbLine
 10
1247.5
 20
523.5
 30
0.0
 11
1246.0
 21
523.5
 31
0.0
  0
LINE
  5
16868
330
1656E
100
AcDbEntity
  8
1
  6
Continuous
100
AcDbLine
 10
1246.0
 20
523.5
 30
0.0
 11
1246.0
 21
531.5
 31
0.0
  0
LINE
  5
16869
330
1656E
100
AcDbEntity
  8
1
  6
Continuous
100
AcDbLine
 10
1243.0
 20
524.0
 30
0.0
 11
1243.0
 21
531.5
 31
0.0
  0
LINE
  5
1686A
330
1656E
100
AcDbEntity
  8
1
  6
Continuous
100
AcDbLine
 10
1242.0
 20
526.4999999999998
 30
0.0
 11
1242.0
 21
527.7967559999998
 31
0.0
  0
LINE
  5
1686B
330
1656E
100
AcDbEntity
  8
1
  6
Continuous
100
AcDbLine
 10
1244.5
 20
524.0
 30
0.0
 11
1244.5
 21
530.4999999999998
 31
0.0
  0
LINE
  5
1686C
330
1656E
100
AcDbEntity
  8
1
  6
Continuous
100
AcDbLine
 10
1243.0
 20
549.5
 30
0.0
 11
1236.5
 21
549.5
 31
0.0
  0
LINE
  5
1686D
330
1656E
100
AcDbEntity
  8
1
  6
Continuous
100
AcDbLine
 10
1243.0
 20
551.0
 30
0.0
 11
1235.0
 21
551.0
 31
0.0
  0
LINE
  5
1686E
330
1656E
100
AcDbEntity
  8
1
  6
Continuous
100
AcDbLine
 10
1236.5
 20
546.202494
 30
0.0
 11
1242.0
 21
546.202494
 31
0.0
  0
LINE
  5
1686F
330
1656E
100
AcDbEntity
  8
1
  6
Continuous
100
AcDbLine
 10
1236.5
 20
540.54564
 30
0.0
 11
1242.0
 21
540.54564
 31
0.0
  0
LINE
  5
16870
330
1656E
100
AcDbEntity
  8
1
  6
Continuous
100
AcDbLine
 10
1236.5
 20
539.880163
 30
0.0
 11
1242.0
 21
539.880163
 31
0.0
  0
LINE
  5
16871
330
1656E
100
AcDbEntity
  8
4
  6
CENTER
100
AcDbLine
 10
1248.193738
 20
535.0
 30
0.0
 11
1230.0
 21
535.0
 31
0.0
  0
LINE
  5
16872
330
1656E
100
AcDbEntity
  8
4
  6
CENTER
100
AcDbLine
 10
1251.643621
 20
537.5
 30
0.0
 11
1233.849476
 21
537.5
 31
0.0
  0
LINE
  5
16873
330
1656E
100
AcDbEntity
  8
1
  6
Continuous
100
AcDbLine
 10
1242.0
 20
548.5
 30
0.0
 11
1237.0
 21
548.5
 31
0.0
  0
ARC
  5
16874
330
1656E
100
AcDbEntity
  8
1
  6
Continuous
100
AcDbCircle
 10
1236.5
 20
549.5
 30
0.0
 40
1.5
100
AcDbArc
 50
90.0
 51
180.0
  0
LINE
  5
16875
330
1656E
100
AcDbEntity
  8
1
  6
Continuous
100
AcDbLine
 10
1236.5
 20
535.0
 30
0.0
 11
1235.0
 21
535.0
 31
0.0
  0
LINE
  5
16876
330
1656E
100
AcDbEntity
  8
1
  6
Continuous
100
AcDbLine
 10
1237.0
 20
548.5
 30
0.0
 11
1237.0
 21
546.202494
 31
0.0
  0
LINE
  5
16877
330
1656E
100
AcDbEntity
  8
1
  6
Continuous
100
AcDbLine
 10
1238.0
 20
548.5
 30
0.0
 11
1238.0
 21
549.5
 31
0.0
  0
LINE
  5
16878
330
1656E
100
AcDbEntity
  8
1
  6
Continuous
100
AcDbLine
 10
1243.0
 20
549.5
 30
0.0
 11
1243.0
 21
551.0
 31
0.0
  0
LINE
  5
16879
330
1656E
100
AcDbEntity
  8
1
  6
Continuous
100
AcDbLine
 10
1243.0
 20
550.0
 30
0.0
 11
1246.0
 21
550.0
 31
0.0
  0
LINE
  5
1687A
330
1656E
100
AcDbEntity
  8
1
  6
Continuous
100
AcDbLine
 10
1246.0
 20
546.0
 30
0.0
 11
1242.0
 21
546.0
 31
0.0
  0
LINE
  5
1687B
330
1656E
100
AcDbEntity
  8
1
  6
Continuous
100
AcDbLine
 10
1246.0
 20
541.5
 30
0.0
 11
1246.0
 21
547.5
 31
0.0
  0
LINE
  5
1687C
330
1656E
100
AcDbEntity
  8
1
  6
Continuous
100
AcDbLine
 10
1247.5
 20
541.5
 30
0.0
 11
1242.0
 21
541.5
 31
0.0
  0
LINE
  5
1687D
330
1656E
100
AcDbEntity
  8
1
  6
Continuous
100
AcDbLine
 10
1242.0
 20
539.880163
 30
0.0
 11
1242.0
 21
548.5
 31
0.0
  0
LINE
  5
1687E
330
1656E
100
AcDbEntity
  8
1
  6
Continuous
100
AcDbLine
 10
1247.5
 20
547.5
 30
0.0
 11
1242.0
 21
547.5
 31
0.0
  0
ARC
  5
1687F
330
1656E
100
AcDbEntity
  8
1
  6
Continuous
100
AcDbCircle
 10
1246.0
 20
542.5857859999998
 30
0.0
 40
1.0
100
AcDbArc
 50
135.0
 51
180.0
  0
LINE
  5
16880
330
1656E
100
AcDbEntity
  8
1
  6
Continuous
100
AcDbLine
 10
1245.292893
 20
543.2928929999999
 30
0.0
 11
1246.0
 21
544.0
 31
0.0
  0
LINE
  5
16881
330
1656E
100
AcDbEntity
  8
1
  6
Continuous
100
AcDbLine
 10
1245.0
 20
541.5
 30
0.0
 11
1245.0
 21
543.5
 31
0.0
  0
LINE
  5
16882
330
1656E
100
AcDbEntity
  8
1
  6
Continuous
100
AcDbLine
 10
1243.5
 20
541.5
 30
0.0
 11
1243.5
 21
543.5
 31
0.0
  0
LINE
  5
16883
330
1656E
100
AcDbEntity
  8
1
  6
Continuous
100
AcDbLine
 10
1242.0
 20
543.5
 30
0.0
 11
1245.0
 21
543.5
 31
0.0
  0
ARC
  5
16884
330
1656E
100
AcDbEntity
  8
1
  6
Continuous
100
AcDbCircle
 10
1246.0
 20
548.5
 30
0.0
 40
1.5
100
AcDbArc
 50
0.0
 51
90.0
  0
LINE
  5
16885
330
1656E
100
AcDbEntity
  8
4
  6
CENTER
100
AcDbLine
 10
1150.0
 20
618.0
 30
0.0
 11
1150.0
 21
624.5
 31
0.0
  0
LINE
  5
16886
330
1656E
100
AcDbEntity
  8
4
  6
CENTER
100
AcDbLine
 10
1140.0
 20
618.0
 30
0.0
 11
1140.0
 21
624.5
 31
0.0
  0
LINE
  5
16887
330
1656E
100
AcDbEntity
  8
1
  6
Continuous
100
AcDbLine
 10
1165.0
 20
621.0
 30
0.0
 11
1165.0
 21
630.4999999999997
 31
0.0
  0
ARC
  5
16888
330
1656E
100
AcDbEntity
  8
1
  6
Continuous
100
AcDbCircle
 10
1163.499999999999
 20
627.5
 30
0.0
 40
1.5
100
AcDbArc
 50
0.0
 51
90.0
  0
LINE
  5
16889
330
1656E
100
AcDbEntity
  8
1
  6
Continuous
100
AcDbLine
 10
1150.0
 20
732.0
 30
0.0
 11
1122.0
 21
729.4999999999999
 31
0.0
  0
LINE
  5
1688A
330
1656E
100
AcDbEntity
  8
1
  6
Continuous
100
AcDbLine
 10
1150.245048
 20
726.5
 30
0.0
 11
1122.245048
 21
724.0
 31
0.0
  0
LINE
  5
1688B
330
1656E
100
AcDbEntity
  8
1
  6
Continuous
100
AcDbLine
 10
1165.0
 20
718.0
 30
0.0
 11
1165.0
 21
703.5
 31
0.0
  0
ARC
  5
1688C
330
1656E
100
AcDbEntity
  8
1
  6
Continuous
100
AcDbCircle
 10
1151.0
 20
719.5
 30
0.0
 40
12.5
100
AcDbArc
 50
296.3370750000001
 51
333.6629249999999
  0
LINE
  5
1688D
330
1656E
100
AcDbEntity
  8
1
  6
Continuous
100
AcDbLine
 10
1164.0
 20
726.5
 30
0.0
 11
1150.245048
 21
726.5
 31
0.0
  0
LINE
  5
1688E
330
1656E
100
AcDbEntity
  8
1
  6
Continuous
100
AcDbLine
 10
1165.0
 20
732.0
 30
0.0
 11
1150.0
 21
732.0
 31
0.0
  0
LINE
  5
1688F
330
1656E
100
AcDbEntity
  8
1
  6
Continuous
100
AcDbLine
 10
1162.202493999999
 20
713.9543599999998
 30
0.0
 11
1157.273396999999
 21
716.3944419999997
 31
0.0
  0
LINE
  5
16890
330
1656E
100
AcDbEntity
  8
1
  6
Continuous
100
AcDbLine
 10
1163.499999999999
 20
719.5
 30
0.0
 11
1157.0
 21
719.5
 31
0.0
  0
LINE
  5
16891
330
1656E
100
AcDbEntity
  8
1
  6
Continuous
100
AcDbLine
 10
1163.932855999999
 20
725.6783709999997
 30
0.0
 11
1156.422859
 21
723.4149169999997
 31
0.0
  0
LINE
  5
16892
330
1656E
100
AcDbEntity
  8
4
  6
CENTER
100
AcDbLine
 10
1155.75
 20
719.5
 30
0.0
 11
1134.249999999999
 21
719.5
 31
0.0
  0
ARC
  5
16893
330
1656E
100
AcDbEntity
  8
1
  6
Continuous
100
AcDbCircle
 10
1140.0
 20
720.5
 30
0.0
 40
3.75
100
AcDbArc
 50
0.0
 51
180.0
  0
ARC
  5
16894
330
1656E
100
AcDbEntity
  8
1
  6
Continuous
100
AcDbCircle
 10
1140.0
 20
718.5
 30
0.0
 40
3.75
100
AcDbArc
 50
180.0
 51
0.0
  0
ARC
  5
16895
330
1656E
100
AcDbEntity
  8
1
  6
Continuous
100
AcDbCircle
 10
1140.0
 20
718.5
 30
0.0
 40
2.399999999999999
100
AcDbArc
 50
180.0
 51
0.0
  0
ARC
  5
16896
330
1656E
100
AcDbEntity
  8
1
  6
Continuous
100
AcDbCircle
 10
1140.0
 20
720.5
 30
0.0
 40
2.399999999999999
100
AcDbArc
 50
0.0
 51
180.0
  0
LINE
  5
16897
330
1656E
100
AcDbEntity
  8
1
  6
Continuous
100
AcDbLine
 10
1136.25
 20
720.5
 30
0.0
 11
1136.25
 21
718.5
 31
0.0
  0
LINE
  5
16898
330
1656E
100
AcDbEntity
  8
1
  6
Continuous
100
AcDbLine
 10
1137.599999999999
 20
720.5
 30
0.0
 11
1137.599999999999
 21
718.5
 31
0.0
  0
LINE
  5
16899
330
1656E
100
AcDbEntity
  8
1
  6
Continuous
100
AcDbLine
 10
1143.75
 20
720.5
 30
0.0
 11
1143.75
 21
718.5
 31
0.0
  0
LINE
  5
1689A
330
1656E
100
AcDbEntity
  8
1
  6
Continuous
100
AcDbLine
 10
1142.4
 20
720.5
 30
0.0
 11
1142.4
 21
718.5
 31
0.0
  0
LINE
  5
1689B
330
1656E
100
AcDbEntity
  8
4
  6
CENTER
100
AcDbLine
 10
1140.0
 20
726.25
 30
0.0
 11
1140.0
 21
712.75
 31
0.0
  0
CIRCLE
  5
1689C
330
1656E
100
AcDbEntity
  8
1
  6
Continuous
100
AcDbCircle
 10
1150.0
 20
719.5
 30
0.0
 40
3.75
  0
CIRCLE
  5
1689D
330
1656E
100
AcDbEntity
  8
1
  6
Continuous
100
AcDbCircle
 10
1150.0
 20
719.5
 30
0.0
 40
2.399999999999999
  0
LINE
  5
1689E
330
1656E
100
AcDbEntity
  8
4
  6
CENTER
100
AcDbLine
 10
1150.0
 20
725.25
 30
0.0
 11
1150.0
 21
713.75
 31
0.0
  0
LINE
  5
1689F
330
1656E
100
AcDbEntity
  8
1
  6
Continuous
100
AcDbLine
 10
1156.54564
 20
708.2975059999996
 30
0.0
 11
1154.105558
 21
713.2266030000002
 31
0.0
  0
ARC
  5
168A0
330
1656E
100
AcDbEntity
  8
1
  6
Continuous
100
AcDbCircle
 10
1151.0
 20
719.5
 30
0.0
 40
7.0
100
AcDbArc
 50
296.3370750000001
 51
333.6629249999999
  0
ARC
  5
168A1
330
1656E
100
AcDbEntity
  8
1
  6
Continuous
100
AcDbCircle
 10
1157.0
 20
721.4999999999998
 30
0.0
 40
2.0
100
AcDbArc
 50
106.7723929999998
 51
270.0
  0
ARC
  5
168A2
330
1656E
100
AcDbEntity
  8
1
  6
Continuous
100
AcDbCircle
 10
1151.0
 20
719.5
 30
0.0
 40
11.0
100
AcDbArc
 50
296.3370750000001
 51
333.6629249999999
  0
LINE
  5
168A3
330
1656E
100
AcDbEntity
  8
1
  6
Continuous
100
AcDbLine
 10
1165.0
 20
732.0
 30
0.0
 11
1165.0
 21
727.1145589999996
 31
0.0
  0
ARC
  5
168A4
330
1656E
100
AcDbEntity
  8
1
  6
Continuous
100
AcDbCircle
 10
1164.0
 20
730.4999999999998
 30
0.0
 40
1.0
100
AcDbArc
 50
112.6198649999998
 51
221.810315
  0
ARC
  5
168A5
330
1656E
100
AcDbEntity
  8
1
  6
Continuous
100
AcDbCircle
 10
1163.776392999998
 20
730.0
 30
0.0
 40
0.5
100
AcDbArc
 50
90.0
 51
221.810315
  0
ARC
  5
168A6
330
1656E
100
AcDbEntity
  8
1
  6
Continuous
100
AcDbCircle
 10
1163.499999999999
 20
727.1145589999996
 30
0.0
 40
1.5
100
AcDbArc
 50
286.772393
 51
0.0
  0
ARC
  5
168A7
330
1656E
100
AcDbEntity
  8
1
  6
Continuous
100
AcDbCircle
 10
1164.0
 20
727.5
 30
0.0
 40
1.0
100
AcDbArc
 50
270.0
 51
41.810315
  0
LINE
  5
168A8
330
1656E
100
AcDbEntity
  8
1
  6
Continuous
100
AcDbLine
 10
1164.745355999999
 20
728.1666669999999
 30
0.0
 11
1163.254644
 21
729.833333
 31
0.0
  0
ARC
  5
168A9
330
1656E
100
AcDbEntity
  8
1
  6
Continuous
100
AcDbCircle
 10
1163.499999999999
 20
718.0
 30
0.0
 40
1.5
100
AcDbArc
 50
0.0
 51
90.0
  0
LINE
  5
168AA
330
1656E
100
AcDbEntity
  8
1
  6
Continuous
100
AcDbLine
 10
1165.0
 20
730.4999999999998
 30
0.0
 11
1163.776392999998
 21
730.4999999999998
 31
0.0
  0
LINE
  5
168AB
330
1656E
100
AcDbEntity
  8
1
  6
Continuous
100
AcDbLine
 10
1165.0
 20
732.0
 30
0.0
 11
1163.615385
 21
731.4230769999997
 31
0.0
  0
LINE
  5
168AC
330
1656E
100
AcDbEntity
  8
1
  6
Continuous
100
AcDbLine
 10
1165.0
 20
444.0
 30
0.0
 11
619.5
 21
444.0
 31
0.0
  0
LINE
  5
168AD
330
1656E
100
AcDbEntity
  8
1
  6
Continuous
100
AcDbLine
 10
1165.0
 20
453.5
 30
0.0
 11
570.5
 21
453.5
 31
0.0
  0
LINE
  5
168AE
330
1656E
100
AcDbEntity
  8
1
  6
Continuous
100
AcDbLine
 10
703.5
 20
441.0
 30
0.0
 11
109.0
 21
441.0
 31
0.0
  0
LINE
  5
168AF
330
1656E
100
AcDbEntity
  8
1
  6
Continuous
100
AcDbLine
 10
109.0
 20
450.4999999999998
 30
0.0
 11
569.0
 21
450.4999999999998
 31
0.0
  0
LINE
  5
168B0
330
1656E
100
AcDbEntity
  8
1
  6
Continuous
100
AcDbLine
 10
703.5
 20
442.4999999999998
 30
0.0
 11
109.0
 21
442.4999999999998
 31
0.0
  0
LINE
  5
168B1
330
1656E
100
AcDbEntity
  8
1
  6
Continuous
100
AcDbLine
 10
109.0
 20
449.0
 30
0.0
 11
569.0
 21
449.0
 31
0.0
  0
LINE
  5
168B2
330
1656E
100
AcDbEntity
  8
1
  6
Continuous
100
AcDbLine
 10
142.0
 20
445.5
 30
0.0
 11
115.5
 21
445.5
 31
0.0
  0
ARC
  5
168B3
330
1656E
100
AcDbEntity
  8
1
  6
Continuous
100
AcDbCircle
 10
115.5
 20
444.0
 30
0.0
 40
1.5
100
AcDbArc
 50
90.0
 51
180.0
  0
LINE
  5
168B4
330
1656E
100
AcDbEntity
  8
1
  6
Continuous
100
AcDbLine
 10
109.0
 20
441.0
 30
0.0
 11
109.0
 21
450.4999999999998
 31
0.0
  0
LINE
  5
168B5
330
1656E
100
AcDbEntity
  8
4
  6
CENTER
100
AcDbLine
 10
125.0
 20
438.0
 30
0.0
 11
125.0
 21
444.5
 31
0.0
  0
LINE
  5
168B6
330
1656E
100
AcDbEntity
  8
1
  6
Continuous
100
AcDbLine
 10
114.0
 20
444.0
 30
0.0
 11
114.0
 21
442.4999999999998
 31
0.0
  0
LINE
  5
168B7
330
1656E
100
AcDbEntity
  8
1
  6
Continuous
100
AcDbLine
 10
127.0
 20
445.913842
 30
0.0
 11
127.0
 21
448.51869
 31
0.0
  0
LINE
  5
168B8
330
1656E
100
AcDbEntity
  8
1
  6
Continuous
100
AcDbLine
 10
156.0
 20
443.5
 30
0.0
 11
156.0
 21
448.0
 31
0.0
  0
ARC
  5
168B9
330
1656E
100
AcDbEntity
  8
1
  6
Continuous
100
AcDbCircle
 10
142.0
 20
444.0
 30
0.0
 40
1.5
100
AcDbArc
 50
0.0
 51
90.0
  0
LINE
  5
168BA
330
1656E
100
AcDbEntity
  8
4
  6
CENTER
100
AcDbLine
 10
135.0
 20
438.0
 30
0.0
 11
135.0
 21
444.5
 31
0.0
  0
LINE
  5
168BB
330
1656E
100
AcDbEntity
  8
1
  6
Continuous
100
AcDbLine
 10
143.5
 20
442.4999999999998
 30
0.0
 11
143.5
 21
444.0
 31
0.0
  0
LINE
  5
168BC
330
1656E
100
AcDbEntity
  8
3
  6
DASHED
100
AcDbLine
 10
702.0
 20
451.4999999999998
 30
0.0
 11
680.0
 21
451.4999999999998
 31
0.0
  0
LINE
  5
168BD
330
1656E
100
AcDbEntity
  8
3
  6
DASHED
100
AcDbLine
 10
702.0
 20
446.4999999999998
 30
0.0
 11
680.0
 21
446.4999999999998
 31
0.0
  0
LINE
  5
168BE
330
1656E
100
AcDbEntity
  8
1
  6
Continuous
100
AcDbLine
 10
570.5
 20
449.0
 30
0.0
 11
580.0
 21
449.0
 31
0.0
  0
LINE
  5
168BF
330
1656E
100
AcDbEntity
  8
1
  6
Continuous
100
AcDbLine
 10
570.5
 20
450.4999999999998
 30
0.0
 11
580.0
 21
450.4999999999998
 31
0.0
  0
LINE
  5
168C0
330
1656E
100
AcDbEntity
  8
1
  6
Continuous
100
AcDbLine
 10
619.5
 20
452.0
 30
0.0
 11
570.5
 21
452.0
 31
0.0
  0
LINE
  5
168C1
330
1656E
100
AcDbEntity
  8
1
  6
Continuous
100
AcDbLine
 10
569.0
 20
452.0
 30
0.0
 11
569.0
 21
444.0
 31
0.0
  0
LINE
  5
168C2
330
1656E
100
AcDbEntity
  8
1
  6
Continuous
100
AcDbLine
 10
570.5
 20
444.0
 30
0.0
 11
570.5
 21
452.0
 31
0.0
  0
LINE
  5
168C3
330
1656E
100
AcDbEntity
  8
1
  6
Continuous
100
AcDbLine
 10
571.4999999999998
 20
442.4999999999998
 30
0.0
 11
571.4999999999998
 21
448.1
 31
0.0
  0
LINE
  5
168C4
330
1656E
100
AcDbEntity
  8
1
  6
Continuous
100
AcDbLine
 10
568.0
 20
442.4999999999998
 30
0.0
 11
568.0
 21
448.1
 31
0.0
  0
LINE
  5
168C5
330
1656E
100
AcDbEntity
  8
4
  6
CENTER
100
AcDbLine
 10
545.0
 20
438.0
 30
0.0
 11
545.0
 21
444.5
 31
0.0
  0
LINE
  5
168C6
330
1656E
100
AcDbEntity
  8
4
  6
CENTER
100
AcDbLine
 10
535.0
 20
438.0
 30
0.0
 11
535.0
 21
444.5
 31
0.0
  0
LINE
  5
168C7
330
1656E
100
AcDbEntity
  8
1
  6
Continuous
100
AcDbLine
 10
570.5
 20
444.0
 30
0.0
 11
569.0
 21
444.0
 31
0.0
  0
ARC
  5
168C8
330
1656E
100
AcDbEntity
  8
1
  6
Continuous
100
AcDbCircle
 10
570.5
 20
452.0
 30
0.0
 40
1.5
100
AcDbArc
 50
90.0
 51
180.0
  0
LINE
  5
168C9
330
1656E
100
AcDbEntity
  8
1
  6
Continuous
100
AcDbLine
 10
571.4999999999998
 20
448.1
 30
0.0
 11
570.5
 21
448.1
 31
0.0
  0
LINE
  5
168CA
330
1656E
100
AcDbEntity
  8
1
  6
Continuous
100
AcDbLine
 10
569.0
 20
448.1
 30
0.0
 11
568.0
 21
448.1
 31
0.0
  0
LINE
  5
168CB
330
1656E
100
AcDbEntity
  8
1
  6
Continuous
100
AcDbLine
 10
619.5
 20
444.0
 30
0.0
 11
619.5
 21
453.5
 31
0.0
  0
LINE
  5
168CC
330
1656E
100
AcDbEntity
  8
3
  6
DASHED
100
AcDbLine
 10
680.0
 20
444.0
 30
0.0
 11
680.0
 21
451.4999999999998
 31
0.0
  0
LINE
  5
168CD
330
1656E
100
AcDbEntity
  8
4
  6
CENTER
100
AcDbLine
 10
665.0
 20
438.0
 30
0.0
 11
665.0
 21
444.5
 31
0.0
  0
LINE
  5
168CE
330
1656E
100
AcDbEntity
  8
4
  6
CENTER
100
AcDbLine
 10
675.0
 20
438.0
 30
0.0
 11
675.0
 21
444.5
 31
0.0
  0
LINE
  5
168CF
330
1656E
100
AcDbEntity
  8
1
  6
Continuous
100
AcDbLine
 10
597.0
 20
448.0
 30
0.0
 11
597.0
 21
443.0
 31
0.0
  0
LINE
  5
168D0
330
1656E
100
AcDbEntity
  8
1
  6
Continuous
100
AcDbLine
 10
575.0
 20
448.0
 30
0.0
 11
575.0
 21
443.0
 31
0.0
  0
LINE
  5
168D1
330
1656E
100
AcDbEntity
  8
4
  6
CENTER
100
AcDbLine
 10
586.0
 20
457.7685289999998
 30
0.0
 11
586.0
 21
437.3857479999998
 31
0.0
  0
LINE
  5
168D2
330
1656E
100
AcDbEntity
  8
1
  6
Continuous
100
AcDbLine
 10
597.0
 20
443.0
 30
0.0
 11
575.0
 21
443.0
 31
0.0
  0
LINE
  5
168D3
330
1656E
100
AcDbEntity
  8
1
  6
Continuous
100
AcDbLine
 10
680.0
 20
442.4999999999998
 30
0.0
 11
680.0
 21
444.0
 31
0.0
  0
LINE
  5
168D4
330
1656E
100
AcDbEntity
  8
1
  6
Continuous
100
AcDbLine
 10
592.0
 20
449.0
 30
0.0
 11
619.5
 21
449.0
 31
0.0
  0
LINE
  5
168D5
330
1656E
100
AcDbEntity
  8
1
  6
Continuous
100
AcDbLine
 10
592.0
 20
450.4999999999998
 30
0.0
 11
619.5
 21
450.4999999999998
 31
0.0
  0
LINE
  5
168D6
330
1656E
100
AcDbEntity
  8
1
  6
Continuous
100
AcDbLine
 10
597.0
 20
448.0
 30
0.0
 11
575.0
 21
448.0
 31
0.0
  0
LINE
  5
168D7
330
1656E
100
AcDbEntity
  8
1
  6
Continuous
100
AcDbLine
 10
592.0
 20
451.0
 30
0.0
 11
580.0
 21
451.0
 31
0.0
  0
LINE
  5
168D8
330
1656E
100
AcDbEntity
  8
1
  6
Continuous
100
AcDbLine
 10
592.0
 20
449.5
 30
0.0
 11
580.0
 21
449.5
 31
0.0
  0
LINE
  5
168D9
330
1656E
100
AcDbEntity
  8
1
  6
Continuous
100
AcDbLine
 10
580.2071070000001
 20
451.292893
 30
0.0
 11
579.4999999999999
 21
452.0
 31
0.0
  0
LINE
  5
168DA
330
1656E
100
AcDbEntity
  8
4
  6
CENTER
100
AcDbLine
 10
574.5499999999998
 20
456.5
 30
0.0
 11
574.5499999999998
 21
450.0
 31
0.0
  0
ARC
  5
168DB
330
1656E
100
AcDbEntity
  8
1
  6
Continuous
100
AcDbCircle
 10
580.914214
 20
452.0
 30
0.0
 40
1.0
100
AcDbArc
 50
225.0
 51
270.0
  0
LINE
  5
168DC
330
1656E
100
AcDbEntity
  8
1
  6
Continuous
100
AcDbLine
 10
580.0
 20
448.0
 30
0.0
 11
580.0
 21
451.0
 31
0.0
  0
LINE
  5
168DD
330
1656E
100
AcDbEntity
  8
1
  6
Continuous
100
AcDbLine
 10
596.0201060000001
 20
448.5
 30
0.0
 11
592.0
 21
448.5
 31
0.0
  0
ARC
  5
168DE
330
1656E
100
AcDbEntity
  8
1
  6
Continuous
100
AcDbCircle
 10
591.085786
 20
452.0
 30
0.0
 40
1.0
100
AcDbArc
 50
270.0
 51
315.0
  0
LINE
  5
168DF
330
1656E
100
AcDbEntity
  8
1
  6
Continuous
100
AcDbLine
 10
591.7928929999999
 20
451.292893
 30
0.0
 11
592.4999999999998
 21
452.0
 31
0.0
  0
LINE
  5
168E0
330
1656E
100
AcDbEntity
  8
1
  6
Continuous
100
AcDbLine
 10
592.0
 20
448.0
 30
0.0
 11
592.0
 21
451.0
 31
0.0
  0
LINE
  5
168E1
330
1656E
100
AcDbEntity
  8
1
  6
Continuous
100
AcDbLine
 10
592.78233
 20
448.5
 30
0.0
 11
592.78233
 21
448.0
 31
0.0
  0
LINE
  5
168E2
330
1656E
100
AcDbEntity
  8
4
  6
CENTER
100
AcDbLine
 10
600.0
 20
456.5
 30
0.0
 11
600.0
 21
450.0
 31
0.0
  0
LINE
  5
168E3
330
1656E
100
AcDbEntity
  8
1
  6
Continuous
100
AcDbLine
 10
596.0201060000001
 20
448.5
 30
0.0
 11
596.0201060000001
 21
448.0
 31
0.0
  0
LINE
  5
168E4
330
1656E
100
AcDbEntity
  8
3
  6
DASHED
100
AcDbLine
 10
619.5
 20
449.0
 30
0.0
 11
680.0
 21
449.0
 31
0.0
  0
LINE
  5
168E5
330
1656E
100
AcDbEntity
  8
4
  6
CENTER
100
AcDbLine
 10
625.0
 20
456.5
 30
0.0
 11
625.0
 21
450.0
 31
0.0
  0
LINE
  5
168E6
330
1656E
100
AcDbEntity
  8
4
  6
CENTER
100
AcDbLine
 10
635.0
 20
456.5
 30
0.0
 11
635.0
 21
450.0
 31
0.0
  0
LINE
  5
168E7
330
1656E
100
AcDbEntity
  8
3
  6
DASHED
100
AcDbLine
 10
703.5
 20
450.4999999999998
 30
0.0
 11
703.5
 21
444.0
 31
0.0
  0
LINE
  5
168E8
330
1656E
100
AcDbEntity
  8
3
  6
DASHED
100
AcDbLine
 10
705.0
 20
450.4999999999998
 30
0.0
 11
705.0
 21
444.0
 31
0.0
  0
LINE
  5
168E9
330
1656E
100
AcDbEntity
  8
1
  6
Continuous
100
AcDbLine
 10
685.0
 20
444.0
 30
0.0
 11
685.0
 21
443.5
 31
0.0
  0
LINE
  5
168EA
330
1656E
100
AcDbEntity
  8
1
  6
Continuous
100
AcDbLine
 10
697.0
 20
444.0
 30
0.0
 11
697.0
 21
443.5
 31
0.0
  0
LINE
  5
168EB
330
1656E
100
AcDbEntity
  8
4
  6
CENTER
100
AcDbLine
 10
691.0
 20
457.6235419999998
 30
0.0
 11
691.0
 21
437.1560739999998
 31
0.0
  0
LINE
  5
168EC
330
1656E
100
AcDbEntity
  8
1
  6
Continuous
100
AcDbLine
 10
697.0
 20
443.5
 30
0.0
 11
685.0
 21
443.5
 31
0.0
  0
LINE
  5
168ED
330
1656E
100
AcDbEntity
  8
1
  6
Continuous
100
AcDbLine
 10
685.207107
 20
443.207107
 30
0.0
 11
684.4999999999997
 21
442.4999999999998
 31
0.0
  0
ARC
  5
168EE
330
1656E
100
AcDbEntity
  8
1
  6
Continuous
100
AcDbCircle
 10
685.914214
 20
442.4999999999998
 30
0.0
 40
1.0
100
AcDbArc
 50
90.0
 51
135.0
  0
LINE
  5
168EF
330
1656E
100
AcDbEntity
  8
1
  6
Continuous
100
AcDbLine
 10
696.7928929999999
 20
443.207107
 30
0.0
 11
697.5
 21
442.4999999999998
 31
0.0
  0
ARC
  5
168F0
330
1656E
100
AcDbEntity
  8
1
  6
Continuous
100
AcDbCircle
 10
696.0857859999999
 20
442.4999999999998
 30
0.0
 40
1.0
100
AcDbArc
 50
45.0
 51
90.0
  0
ARC
  5
168F1
330
1656E
100
AcDbEntity
  8
1
  6
Continuous
100
AcDbCircle
 10
703.5
 20
442.4999999999998
 30
0.0
 40
1.5
100
AcDbArc
 50
270.0
 51
0.0
  0
LINE
  5
168F2
330
1656E
100
AcDbEntity
  8
1
  6
Continuous
100
AcDbLine
 10
703.5
 20
444.0
 30
0.0
 11
703.5
 21
442.4999999999998
 31
0.0
  0
LINE
  5
168F3
330
1656E
100
AcDbEntity
  8
1
  6
Continuous
100
AcDbLine
 10
705.0
 20
444.0
 30
0.0
 11
705.0
 21
442.4999999999998
 31
0.0
  0
LINE
  5
168F4
330
1656E
100
AcDbEntity
  8
3
  6
DASHED
100
AcDbLine
 10
697.0
 20
445.0
 30
0.0
 11
685.0
 21
445.0
 31
0.0
  0
LINE
  5
168F5
330
1656E
100
AcDbEntity
  8
3
  6
DASHED
100
AcDbLine
 10
685.0
 20
446.4999999999998
 30
0.0
 11
685.0
 21
444.0
 31
0.0
  0
LINE
  5
168F6
330
1656E
100
AcDbEntity
  8
3
  6
DASHED
100
AcDbLine
 10
697.0
 20
446.4999999999998
 30
0.0
 11
697.0
 21
444.0
 31
0.0
  0
LINE
  5
168F7
330
1656E
100
AcDbEntity
  8
3
  6
DASHED
100
AcDbLine
 10
705.0
 20
450.4999999999998
 30
0.0
 11
703.5
 21
450.4999999999998
 31
0.0
  0
LINE
  5
168F8
330
1656E
100
AcDbEntity
  8
3
  6
DASHED
100
AcDbLine
 10
702.0
 20
446.4999999999998
 30
0.0
 11
702.0
 21
451.4999999999998
 31
0.0
  0
LINE
  5
168F9
330
1656E
100
AcDbEntity
  8
4
  6
CENTER
100
AcDbLine
 10
756.5
 20
456.5
 30
0.0
 11
756.5
 21
450.0
 31
0.0
  0
LINE
  5
168FA
330
1656E
100
AcDbEntity
  8
1
  6
Continuous
100
AcDbLine
 10
1122.0
 20
452.0
 30
0.0
 11
1122.0
 21
445.5
 31
0.0
  0
LINE
  5
168FB
330
1656E
100
AcDbEntity
  8
1
  6
Continuous
100
AcDbLine
 10
1165.0
 20
453.5
 30
0.0
 11
1165.0
 21
444.0
 31
0.0
  0
LINE
  5
168FC
330
1656E
100
AcDbEntity
  8
4
  6
CENTER
100
AcDbLine
 10
1140.0
 20
456.5
 30
0.0
 11
1140.0
 21
450.0
 31
0.0
  0
LINE
  5
168FD
330
1656E
100
AcDbEntity
  8
1
  6
Continuous
100
AcDbLine
 10
1150.0
 20
448.4392169999998
 30
0.0
 11
1150.0
 21
444.80161
 31
0.0
  0
LINE
  5
168FE
330
1656E
100
AcDbEntity
  8
4
  6
CENTER
100
AcDbLine
 10
1150.0
 20
456.5
 30
0.0
 11
1150.0
 21
450.0
 31
0.0
  0
ARC
  5
168FF
330
1656E
100
AcDbEntity
  8
1
  6
Continuous
100
AcDbCircle
 10
703.0
 20
145.5
 30
0.0
 40
2.0
100
AcDbArc
 50
0.0
 51
90.0
  0
ARC
  5
16900
330
1656E
100
AcDbEntity
  8
1
  6
Continuous
100
AcDbCircle
 10
697.7639319999998
 20
125.5
 30
0.0
 40
2.0
100
AcDbArc
 50
270.0
 51
333.434949
  0
ARC
  5
16901
330
1656E
100
AcDbEntity
  8
1
  6
Continuous
100
AcDbCircle
 10
571.0
 20
149.0
 30
0.0
 40
2.0
100
AcDbArc
 50
90.0
 51
180.0
  0
ARC
  5
16902
330
1656E
100
AcDbEntity
  8
1
  6
Continuous
100
AcDbCircle
 10
572.5
 20
549.0
 30
0.0
 40
2.0
100
AcDbArc
 50
90.0
 51
180.0
  0
ARC
  5
16903
330
1656E
100
AcDbEntity
  8
1
  6
Continuous
100
AcDbCircle
 10
572.5
 20
705.4999999999997
 30
0.0
 40
2.0
100
AcDbArc
 50
180.0
 51
270.0
  0
LINE
  5
16904
330
1656E
100
AcDbEntity
  8
1
  6
Continuous
100
AcDbLine
 10
1122.066831
 20
126.5
 30
0.0
 11
700.4999999999999
 21
126.5
 31
0.0
  0
LINE
  5
16905
330
1656E
100
AcDbEntity
  8
1
  6
Continuous
100
AcDbLine
 10
1150.066831
 20
124.0
 30
0.0
 11
1122.066831
 21
126.5
 31
0.0
  0
LINE
  5
16906
330
1656E
100
AcDbEntity
  8
1
  6
Continuous
100
AcDbLine
 10
1165.0
 20
124.0
 30
0.0
 11
1150.066831
 21
124.0
 31
0.0
  0
ARC
  5
16907
330
1656E
100
AcDbEntity
  8
3
  6
DASHED
100
AcDbCircle
 10
571.0
 20
127.0
 30
0.0
 40
2.0
100
AcDbArc
 50
180.0
 51
270.0
  0
LINE
  5
16908
330
1656E
100
AcDbEntity
  8
1
  6
Continuous
100
AcDbLine
 10
109.0
 20
306.0
 30
0.0
 11
126.9354649999998
 21
306.0
 31
0.0
  0
LINE
  5
16909
330
1656E
100
AcDbEntity
  8
1
  6
Continuous
100
AcDbLine
 10
155.9354649999999
 20
308.4999999999999
 30
0.0
 11
126.9354649999998
 21
306.0
 31
0.0
  0
LINE
  5
1690A
330
1656E
100
AcDbEntity
  8
1
  6
Continuous
100
AcDbLine
 10
569.0
 20
308.4999999999999
 30
0.0
 11
155.9354649999999
 21
308.4999999999999
 31
0.0
  0
LINE
  5
1690B
330
1656E
100
AcDbEntity
  8
3
  6
DASHED
100
AcDbLine
 10
589.5445539999998
 20
308.4999999999999
 30
0.0
 11
569.0
 21
308.4999999999999
 31
0.0
  0
LINE
  5
1690C
330
1656E
100
AcDbEntity
  8
3
  6
DASHED
100
AcDbLine
 10
593.4698299999999
 20
308.4999999999999
 30
0.0
 11
592.09483
 21
308.4999999999999
 31
0.0
  0
ARC
  5
1690D
330
1656E
100
AcDbEntity
  8
1
  6
Continuous
100
AcDbCircle
 10
571.0
 20
305.5
 30
0.0
 40
2.0
100
AcDbArc
 50
180.0
 51
270.0
  0
ARC
  5
1690E
330
1656E
100
AcDbEntity
  8
1
  6
Continuous
100
AcDbCircle
 10
571.0
 20
327.4999999999999
 30
0.0
 40
2.0
100
AcDbArc
 50
90.0
 51
180.0
  0
LINE
  5
1690F
330
1656E
100
AcDbEntity
  8
1
  6
Continuous
100
AcDbLine
 10
699.5527860000001
 20
329.894427
 30
0.0
 11
699.75
 21
329.4999999999999
 31
0.0
  0
ARC
  5
16910
330
1656E
100
AcDbEntity
  8
1
  6
Continuous
100
AcDbCircle
 10
697.7639319999998
 20
329.0
 30
0.0
 40
2.0
100
AcDbArc
 50
26.565051
 51
90.0
  0
LINE
  5
16911
330
1656E
100
AcDbEntity
  8
3
  6
DASHED
100
AcDbLine
 10
705.0
 20
319.0
 30
0.0
 11
705.0
 21
309.0
 31
0.0
  0
ARC
  5
16912
330
1656E
100
AcDbEntity
  8
3
  6
DASHED
100
AcDbCircle
 10
703.0
 20
309.0
 30
0.0
 40
2.0
100
AcDbArc
 50
270.0
 51
0.0
  0
ARC
  5
16913
330
1656E
100
AcDbEntity
  8
1
  6
Continuous
100
AcDbCircle
 10
621.4999999999998
 20
47.0
 30
0.0
 40
2.0
100
AcDbArc
 50
90.0
 51
180.0
  0
ARC
  5
16914
330
1656E
100
AcDbEntity
  8
3
  6
DASHED
100
AcDbCircle
 10
678.0
 20
47.5
 30
0.0
 40
2.0
100
AcDbArc
 50
270.0
 51
0.0
  0
LINE
  5
16915
330
1656E
100
AcDbEntity
  8
1
  6
Continuous
100
AcDbLine
 10
33.0
 20
122.5
 30
0.0
 11
33.0
 21
124.0
 31
0.0
  0
LINE
  5
16916
330
1656E
100
AcDbEntity
  8
1
  6
Continuous
100
AcDbLine
 10
26.5
 20
122.5
 30
0.0
 11
33.0
 21
122.5
 31
0.0
  0
LINE
  5
16917
330
1656E
100
AcDbEntity
  8
1
  6
Continuous
100
AcDbLine
 10
26.5
 20
126.5
 30
0.0
 11
30.5
 21
126.5
 31
0.0
  0
LINE
  5
16918
330
1656E
100
AcDbEntity
  8
1
  6
Continuous
100
AcDbLine
 10
35.5
 20
124.0
 30
0.0
 11
30.5
 21
124.0
 31
0.0
  0
LINE
  5
16919
330
1656E
100
AcDbEntity
  8
1
  6
Continuous
100
AcDbLine
 10
35.5
 20
124.0
 30
0.0
 11
35.5
 21
146.0
 31
0.0
  0
LINE
  5
1691A
330
1656E
100
AcDbEntity
  8
1
  6
Continuous
100
AcDbLine
 10
30.5
 20
124.0
 30
0.0
 11
30.5
 21
146.0
 31
0.0
  0
LINE
  5
1691B
330
1656E
100
AcDbEntity
  8
1
  6
Continuous
100
AcDbLine
 10
29.0
 20
129.0
 30
0.0
 11
29.0
 21
141.0
 31
0.0
  0
LINE
  5
1691C
330
1656E
100
AcDbEntity
  8
1
  6
Continuous
100
AcDbLine
 10
27.5
 20
129.0
 30
0.0
 11
27.5
 21
141.0
 31
0.0
  0
LINE
  5
1691D
330
1656E
100
AcDbEntity
  8
1
  6
Continuous
100
AcDbLine
 10
30.5
 20
141.0
 30
0.0
 11
27.5
 21
141.0
 31
0.0
  0
ARC
  5
1691E
330
1656E
100
AcDbEntity
  8
1
  6
Continuous
100
AcDbCircle
 10
26.5
 20
140.085786
 30
0.0
 40
1.0
100
AcDbArc
 50
0.0
 51
45.0
  0
LINE
  5
1691F
330
1656E
100
AcDbEntity
  8
1
  6
Continuous
100
AcDbLine
 10
27.207107
 20
140.7928929999999
 30
0.0
 11
26.5
 21
141.5
 31
0.0
  0
LINE
  5
16920
330
1656E
100
AcDbEntity
  8
1
  6
Continuous
100
AcDbLine
 10
30.5
 20
129.0
 30
0.0
 11
27.5
 21
129.0
 31
0.0
  0
LINE
  5
16921
330
1656E
100
AcDbEntity
  8
1
  6
Continuous
100
AcDbLine
 10
27.207107
 20
129.207107
 30
0.0
 11
26.5
 21
128.4999999999998
 31
0.0
  0
ARC
  5
16922
330
1656E
100
AcDbEntity
  8
1
  6
Continuous
100
AcDbCircle
 10
26.5
 20
129.9142139999998
 30
0.0
 40
1.0
100
AcDbArc
 50
315.0
 51
0.0
  0
LINE
  5
16923
330
1656E
100
AcDbEntity
  8
1
  6
Continuous
100
AcDbLine
 10
27.0
 20
141.0
 30
0.0
 11
27.0
 21
148.5
 31
0.0
  0
LINE
  5
16924
330
1656E
100
AcDbEntity
  8
1
  6
Continuous
100
AcDbLine
 10
1239.5
 20
122.5
 30
0.0
 11
1239.5
 21
126.5
 31
0.0
  0
LINE
  5
16925
330
1656E
100
AcDbEntity
  8
1
  6
Continuous
100
AcDbLine
 10
1246.0
 20
124.0
 30
0.0
 11
1246.0
 21
149.5
 31
0.0
  0
ARC
  5
16926
330
1656E
100
AcDbEntity
  8
1
  6
Continuous
100
AcDbCircle
 10
1246.0
 20
124.0
 30
0.0
 40
1.5
100
AcDbArc
 50
270.0
 51
0.0
  0
LINE
  5
16927
330
1656E
100
AcDbEntity
  8
1
  6
Continuous
100
AcDbLine
 10
1246.0
 20
122.5
 30
0.0
 11
1239.5
 21
122.5
 31
0.0
  0
LINE
  5
16928
330
1656E
100
AcDbEntity
  8
4
  6
CENTER
100
AcDbLine
 10
1233.446672
 20
135.0
 30
0.0
 11
1252.5
 21
135.0
 31
0.0
  0
LINE
  5
16929
330
1656E
100
AcDbEntity
  8
1
  6
Continuous
100
AcDbLine
 10
1243.0
 20
148.5
 30
0.0
 11
1243.0
 21
150.0
 31
0.0
  0
LINE
  5
1692A
330
1656E
100
AcDbEntity
  8
1
  6
Continuous
100
AcDbLine
 10
1237.0
 20
124.0
 30
0.0
 11
1242.0
 21
124.0
 31
0.0
  0
LINE
  5
1692B
330
1656E
100
AcDbEntity
  8
1
  6
Continuous
100
AcDbLine
 10
1243.0
 20
149.5
 30
0.0
 11
1246.0
 21
149.5
 31
0.0
  0
LINE
  5
1692C
330
1656E
100
AcDbEntity
  8
1
  6
Continuous
100
AcDbLine
 10
1247.5
 20
124.0
 30
0.0
 11
1247.5
 21
151.0
 31
0.0
  0
LINE
  5
1692D
330
1656E
100
AcDbEntity
  8
1
  6
Continuous
100
AcDbLine
 10
1236.5
 20
123.5
 30
0.0
 11
1236.5
 21
147.5
 31
0.0
  0
LINE
  5
1692E
330
1656E
100
AcDbEntity
  8
1
  6
Continuous
100
AcDbLine
 10
1235.0
 20
123.5
 30
0.0
 11
1235.0
 21
148.5
 31
0.0
  0
LINE
  5
1692F
330
1656E
100
AcDbEntity
  8
1
  6
Continuous
100
AcDbLine
 10
1235.0
 20
123.5
 30
0.0
 11
1236.5
 21
123.5
 31
0.0
  0
LINE
  5
16930
330
1656E
100
AcDbEntity
  8
1
  6
Continuous
100
AcDbLine
 10
1236.5
 20
146.0
 30
0.0
 11
1240.5
 21
146.0
 31
0.0
  0
LINE
  5
16931
330
1656E
100
AcDbEntity
  8
1
  6
Continuous
100
AcDbLine
 10
1243.0
 20
150.0
 30
0.0
 11
1236.5
 21
150.0
 31
0.0
  0
LINE
  5
16932
330
1656E
100
AcDbEntity
  8
1
  6
Continuous
100
AcDbLine
 10
1239.5
 20
151.0
 30
0.0
 11
1247.5
 21
151.0
 31
0.0
  0
ARC
  5
16933
330
1656E
100
AcDbEntity
  8
1
  6
Continuous
100
AcDbCircle
 10
1236.5
 20
148.5
 30
0.0
 40
1.5
100
AcDbArc
 50
90.0
 51
180.0
  0
LINE
  5
16934
330
1656E
100
AcDbEntity
  8
1
  6
Continuous
100
AcDbLine
 10
1239.5
 20
150.0
 30
0.0
 11
1239.5
 21
151.0
 31
0.0
  0
LINE
  5
16935
330
1656E
100
AcDbEntity
  8
4
  6
CENTER
100
AcDbLine
 10
1230.856379
 20
137.5
 30
0.0
 11
1248.650524
 21
137.5
 31
0.0
  0
LINE
  5
16936
330
1656E
100
AcDbEntity
  8
1
  6
Continuous
100
AcDbLine
 10
1246.0
 20
124.0
 30
0.0
 11
1239.5
 21
124.0
 31
0.0
  0
ARC
  5
16937
330
1656E
100
AcDbEntity
  8
1
  6
Continuous
100
AcDbCircle
 10
1246.0
 20
149.5
 30
0.0
 40
1.5
100
AcDbArc
 50
0.0
 51
90.0
  0
LINE
  5
16938
330
1656E
100
AcDbEntity
  8
1
  6
Continuous
100
AcDbLine
 10
1235.0
 20
147.5
 30
0.0
 11
1240.5
 21
147.5
 31
0.0
  0
LINE
  5
16939
330
1656E
100
AcDbEntity
  8
1
  6
Continuous
100
AcDbLine
 10
1239.0
 20
143.5
 30
0.0
 11
1239.0
 21
131.4999999999998
 31
0.0
  0
ARC
  5
1693A
330
1656E
100
AcDbEntity
  8
1
  6
Continuous
100
AcDbCircle
 10
1236.5
 20
142.585786
 30
0.0
 40
1.0
100
AcDbArc
 50
0.0
 51
45.0
  0
LINE
  5
1693B
330
1656E
100
AcDbEntity
  8
1
  6
Continuous
100
AcDbLine
 10
1237.207107
 20
143.2928929999999
 30
0.0
 11
1236.5
 21
144.0
 31
0.0
  0
LINE
  5
1693C
330
1656E
100
AcDbEntity
  8
1
  6
Continuous
100
AcDbLine
 10
1237.207107
 20
131.707107
 30
0.0
 11
1236.5
 21
131.0
 31
0.0
  0
ARC
  5
1693D
330
1656E
100
AcDbEntity
  8
1
  6
Continuous
100
AcDbCircle
 10
1236.5
 20
132.4142139999999
 30
0.0
 40
1.0
100
AcDbArc
 50
315.0
 51
0.0
  0
LINE
  5
1693E
330
1656E
100
AcDbEntity
  8
1
  6
Continuous
100
AcDbLine
 10
1237.5
 20
143.5
 30
0.0
 11
1237.5
 21
131.4999999999998
 31
0.0
  0
LINE
  5
1693F
330
1656E
100
AcDbEntity
  8
1
  6
Continuous
100
AcDbLine
 10
1240.5
 20
143.5
 30
0.0
 11
1237.5
 21
143.5
 31
0.0
  0
LINE
  5
16940
330
1656E
100
AcDbEntity
  8
1
  6
Continuous
100
AcDbLine
 10
1240.5
 20
131.4999999999998
 30
0.0
 11
1237.5
 21
131.4999999999998
 31
0.0
  0
LINE
  5
16941
330
1656E
100
AcDbEntity
  8
1
  6
Continuous
100
AcDbLine
 10
1240.5
 20
148.5
 30
0.0
 11
1240.5
 21
126.5
 31
0.0
  0
LINE
  5
16942
330
1656E
100
AcDbEntity
  8
1
  6
Continuous
100
AcDbLine
 10
1245.5
 20
148.5
 30
0.0
 11
1240.5
 21
148.5
 31
0.0
  0
LINE
  5
16943
330
1656E
100
AcDbEntity
  8
1
  6
Continuous
100
AcDbLine
 10
1245.5
 20
148.5
 30
0.0
 11
1245.5
 21
146.202494
 31
0.0
  0
LINE
  5
16944
330
1656E
100
AcDbEntity
  8
1
  6
Continuous
100
AcDbLine
 10
1246.0
 20
126.5
 30
0.0
 11
1239.5
 21
126.5
 31
0.0
  0
LINE
  5
16945
330
1656E
100
AcDbEntity
  8
1
  6
Continuous
100
AcDbLine
 10
1246.0
 20
146.202494
 30
0.0
 11
1240.5
 21
146.202494
 31
0.0
  0
LINE
  5
16946
330
1656E
100
AcDbEntity
  8
1
  6
Continuous
100
AcDbLine
 10
1246.0
 20
140.54564
 30
0.0
 11
1240.5
 21
140.54564
 31
0.0
  0
LINE
  5
16947
330
1656E
100
AcDbEntity
  8
1
  6
Continuous
100
AcDbLine
 10
1246.0
 20
139.8801629999999
 30
0.0
 11
1240.5
 21
139.8801629999999
 31
0.0
  0
LINE
  5
16948
330
1656E
100
AcDbEntity
  8
1
  6
Continuous
100
AcDbLine
 10
1245.5
 20
139.8801629999999
 30
0.0
 11
1245.5
 21
126.5
 31
0.0
  0
LINE
  5
16949
330
1656E
100
AcDbEntity
  8
1
  6
Continuous
100
AcDbLine
 10
1246.0
 20
135.0
 30
0.0
 11
1247.5
 21
135.0
 31
0.0
  0
LINE
  5
1694A
330
1656E
100
AcDbEntity
  8
1
  6
Continuous
100
AcDbLine
 10
1247.5
 20
128.4999999999998
 30
0.0
 11
1246.0
 21
128.4999999999998
 31
0.0
  0
LINE
  5
1694B
330
1656E
100
AcDbEntity
  8
1
  6
Continuous
100
AcDbLine
 10
1237.0
 20
143.5
 30
0.0
 11
1237.0
 21
146.0
 31
0.0
  0
LINE
  5
1694C
330
1656E
100
AcDbEntity
  8
1
  6
Continuous
100
AcDbLine
 10
1237.0
 20
124.0
 30
0.0
 11
1237.0
 21
131.4999999999998
 31
0.0
  0
LINE
  5
1694D
330
1656E
100
AcDbEntity
  8
1
  6
Continuous
100
AcDbLine
 10
1160.0
 20
522.5
 30
0.0
 11
1160.0
 21
525.4999999999999
 31
0.0
  0
LINE
  5
1694E
330
1656E
100
AcDbEntity
  8
1
  6
Continuous
100
AcDbLine
 10
1133.5
 20
523.973214
 30
0.0
 11
1133.5
 21
525.4999999999999
 31
0.0
  0
LINE
  5
1694F
330
1656E
100
AcDbEntity
  8
1
  6
Continuous
100
AcDbLine
 10
1160.0
 20
524.0
 30
0.0
 11
1150.0
 21
524.0
 31
0.0
  0
LINE
  5
16950
330
1656E
100
AcDbEntity
  8
1
  6
Continuous
100
AcDbLine
 10
1150.133398
 20
523.9940569999999
 30
0.0
 11
1133.5
 21
525.4791809999998
 31
0.0
  0
LINE
  5
16951
330
1656E
100
AcDbEntity
  8
1
  6
Continuous
100
AcDbLine
 10
1158.5
 20
527.0
 30
0.0
 11
1135.0
 21
527.0
 31
0.0
  0
ARC
  5
16952
330
1656E
100
AcDbEntity
  8
1
  6
Continuous
100
AcDbCircle
 10
1158.5
 20
525.4999999999999
 30
0.0
 40
1.5
100
AcDbArc
 50
0.0
 51
90.0
  0
ARC
  5
16953
330
1656E
100
AcDbEntity
  8
1
  6
Continuous
100
AcDbCircle
 10
1135.0
 20
525.4999999999999
 30
0.0
 40
1.5
100
AcDbArc
 50
90.0
 51
180.0
  0
LINE
  5
16954
330
1656E
100
AcDbEntity
  8
1
  6
Continuous
100
AcDbLine
 10
1133.5
 20
450.4999999999998
 30
0.0
 11
1133.5
 21
453.5
 31
0.0
  0
LINE
  5
16955
330
1656E
100
AcDbEntity
  8
1
  6
Continuous
100
AcDbLine
 10
1160.0
 20
450.4999999999998
 30
0.0
 11
1160.0
 21
453.5
 31
0.0
  0
LINE
  5
16956
330
1656E
100
AcDbEntity
  8
1
  6
Continuous
100
AcDbLine
 10
1160.0
 20
452.0
 30
0.0
 11
1133.5
 21
452.0
 31
0.0
  0
LINE
  5
16957
330
1656E
100
AcDbEntity
  8
1
  6
Continuous
100
AcDbLine
 10
1158.5
 20
449.0
 30
0.0
 11
1135.0
 21
449.0
 31
0.0
  0
ARC
  5
16958
330
1656E
100
AcDbEntity
  8
1
  6
Continuous
100
AcDbCircle
 10
1158.5
 20
450.4999999999998
 30
0.0
 40
1.5
100
AcDbArc
 50
270.0
 51
0.0
  0
ARC
  5
16959
330
1656E
100
AcDbEntity
  8
1
  6
Continuous
100
AcDbCircle
 10
1135.0
 20
450.4999999999998
 30
0.0
 40
1.5
100
AcDbArc
 50
180.0
 51
270.0
  0
LINE
  5
1695A
330
1656E
100
AcDbEntity
  8
1
  6
Continuous
100
AcDbLine
 10
1150.133398
 20
330.505943
 30
0.0
 11
1133.5
 21
329.020819
 31
0.0
  0
LINE
  5
1695B
330
1656E
100
AcDbEntity
  8
1
  6
Continuous
100
AcDbLine
 10
1158.5
 20
327.4999999999999
 30
0.0
 11
1135.0
 21
327.4999999999999
 31
0.0
  0
LINE
  5
1695C
330
1656E
100
AcDbEntity
  8
1
  6
Continuous
100
AcDbLine
 10
1133.5
 20
330.5267859999998
 30
0.0
 11
1133.5
 21
329.0
 31
0.0
  0
ARC
  5
1695D
330
1656E
100
AcDbEntity
  8
1
  6
Continuous
100
AcDbCircle
 10
1135.0
 20
329.0
 30
0.0
 40
1.5
100
AcDbArc
 50
180.0
 51
270.0
  0
LINE
  5
1695E
330
1656E
100
AcDbEntity
  8
1
  6
Continuous
100
AcDbLine
 10
1160.0
 20
332.0
 30
0.0
 11
1160.0
 21
329.0
 31
0.0
  0
LINE
  5
1695F
330
1656E
100
AcDbEntity
  8
1
  6
Continuous
100
AcDbLine
 10
1160.0
 20
330.5
 30
0.0
 11
1150.0
 21
330.5
 31
0.0
  0
ARC
  5
16960
330
1656E
100
AcDbEntity
  8
1
  6
Continuous
100
AcDbCircle
 10
1158.5
 20
329.0
 30
0.0
 40
1.5
100
AcDbArc
 50
270.0
 51
0.0
  0
LINE
  5
16961
330
1656E
100
AcDbEntity
  8
1
  6
Continuous
100
AcDbLine
 10
1158.5
 20
127.0
 30
0.0
 11
1135.0
 21
127.0
 31
0.0
  0
ARC
  5
16962
330
1656E
100
AcDbEntity
  8
1
  6
Continuous
100
AcDbCircle
 10
1135.0
 20
125.5
 30
0.0
 40
1.5
100
AcDbArc
 50
90.0
 51
180.0
  0
LINE
  5
16963
330
1656E
100
AcDbEntity
  8
1
  6
Continuous
100
AcDbLine
 10
1133.5
 20
125.479181
 30
0.0
 11
1133.5
 21
125.5
 31
0.0
  0
ARC
  5
16964
330
1656E
100
AcDbEntity
  8
1
  6
Continuous
100
AcDbCircle
 10
1158.5
 20
125.5
 30
0.0
 40
1.5
100
AcDbArc
 50
0.0
 51
90.0
  0
LINE
  5
16965
330
1656E
100
AcDbEntity
  8
1
  6
Continuous
100
AcDbLine
 10
1160.0
 20
124.0
 30
0.0
 11
1160.0
 21
125.5
 31
0.0
  0
LINE
  5
16966
330
1656E
100
AcDbEntity
  8
1
  6
Continuous
100
AcDbLine
 10
1160.0
 20
42.5
 30
0.0
 11
1133.5
 21
42.5
 31
0.0
  0
LINE
  5
16967
330
1656E
100
AcDbEntity
  8
1
  6
Continuous
100
AcDbLine
 10
1158.5
 20
45.49999999999999
 30
0.0
 11
1135.0
 21
45.49999999999999
 31
0.0
  0
LINE
  5
16968
330
1656E
100
AcDbEntity
  8
1
  6
Continuous
100
AcDbLine
 10
1133.5
 20
44.0
 30
0.0
 11
1133.5
 21
41.0
 31
0.0
  0
ARC
  5
16969
330
1656E
100
AcDbEntity
  8
1
  6
Continuous
100
AcDbCircle
 10
1135.0
 20
44.0
 30
0.0
 40
1.5
100
AcDbArc
 50
90.0
 51
180.0
  0
LINE
  5
1696A
330
1656E
100
AcDbEntity
  8
1
  6
Continuous
100
AcDbLine
 10
1160.0
 20
44.0
 30
0.0
 11
1160.0
 21
41.0
 31
0.0
  0
ARC
  5
1696B
330
1656E
100
AcDbEntity
  8
1
  6
Continuous
100
AcDbCircle
 10
1158.5
 20
44.0
 30
0.0
 40
1.5
100
AcDbArc
 50
0.0
 51
90.0
  0
ARC
  5
1696C
330
1656E
100
AcDbEntity
  8
1
  6
Continuous
100
AcDbCircle
 10
1163.499999999999
 20
47.5
 30
0.0
 40
1.5
100
AcDbArc
 50
0.0
 51
90.0
  0
LINE
  5
1696D
330
1656E
100
AcDbEntity
  8
1
  6
Continuous
100
AcDbLine
 10
142.0
 20
308.0
 30
0.0
 11
115.5
 21
308.0
 31
0.0
  0
LINE
  5
1696E
330
1656E
100
AcDbEntity
  8
1
  6
Continuous
100
AcDbLine
 10
114.0
 20
306.0
 30
0.0
 11
114.0
 21
306.4999999999999
 31
0.0
  0
ARC
  5
1696F
330
1656E
100
AcDbEntity
  8
1
  6
Continuous
100
AcDbCircle
 10
115.5
 20
306.4999999999999
 30
0.0
 40
1.5
100
AcDbArc
 50
90.0
 51
180.0
  0
ARC
  5
16970
330
1656E
100
AcDbEntity
  8
1
  6
Continuous
100
AcDbCircle
 10
142.0
 20
306.4999999999999
 30
0.0
 40
1.5
100
AcDbArc
 50
36.964804
 51
90.0
  0
LINE
  5
16971
330
1656E
100
AcDbEntity
  8
5
  6
PHANTOM
100
AcDbLine
 10
1157.627489
 20
521.0
 30
0.0
 11
571.0
 21
521.0
 31
0.0
  0
LINE
  5
16972
330
1656E
100
AcDbEntity
  8
5
  6
PHANTOM
100
AcDbLine
 10
1138.5
 20
540.0
 30
0.0
 11
615.784882
 21
540.0
 31
0.0
  0
LINE
  5
16973
330
1656E
100
AcDbEntity
  8
5
  6
PHANTOM
100
AcDbLine
 10
1140.0
 20
545.0
 30
0.0
 11
616.0
 21
545.0
 31
0.0
  0
ARC
  5
16974
330
1656E
100
AcDbEntity
  8
5
  6
PHANTOM
100
AcDbCircle
 10
595.0
 20
536.0
 30
0.0
 40
2.399999999999999
100
AcDbArc
 50
0.0
 51
180.0
  0
ARC
  5
16975
330
1656E
100
AcDbEntity
  8
5
  6
PHANTOM
100
AcDbCircle
 10
595.0
 20
534.0
 30
0.0
 40
2.399999999999999
100
AcDbArc
 50
180.0
 51
0.0
  0
ARC
  5
16976
330
1656E
100
AcDbEntity
  8
5
  6
PHANTOM
100
AcDbCircle
 10
595.0
 20
536.0
 30
0.0
 40
3.75
100
AcDbArc
 50
0.0
 51
180.0
  0
ARC
  5
16977
330
1656E
100
AcDbEntity
  8
5
  6
PHANTOM
100
AcDbCircle
 10
595.0
 20
534.0
 30
0.0
 40
3.75
100
AcDbArc
 50
180.0
 51
0.0
  0
LINE
  5
16978
330
1656E
100
AcDbEntity
  8
5
  6
PHANTOM
100
AcDbLine
 10
615.784882
 20
540.0
 30
0.0
 11
586.784882
 21
542.4999999999998
 31
0.0
  0
LINE
  5
16979
330
1656E
100
AcDbEntity
  8
5
  6
PHANTOM
100
AcDbLine
 10
616.0
 20
545.0
 30
0.0
 11
587.0
 21
547.5
 31
0.0
  0
ARC
  5
1697A
330
1656E
100
AcDbEntity
  8
5
  6
PHANTOM
100
AcDbCircle
 10
571.0
 20
523.0
 30
0.0
 40
2.0
100
AcDbArc
 50
180.0
 51
270.0
  0
LINE
  5
1697B
330
1656E
100
AcDbEntity
  8
5
  6
PHANTOM
100
AcDbLine
 10
570.0671439999998
 20
541.1783709999999
 30
0.0
 11
577.5771409999999
 21
538.9149169999998
 31
0.0
  0
LINE
  5
1697C
330
1656E
100
AcDbEntity
  8
5
  6
PHANTOM
100
AcDbLine
 10
570.5
 20
535.0
 30
0.0
 11
577.0
 21
535.0
 31
0.0
  0
LINE
  5
1697D
330
1656E
100
AcDbEntity
  8
5
  6
PHANTOM
100
AcDbLine
 10
569.0
 20
547.5
 30
0.0
 11
569.0
 21
542.6145589999999
 31
0.0
  0
ARC
  5
1697E
330
1656E
100
AcDbEntity
  8
5
  6
PHANTOM
100
AcDbCircle
 10
570.5
 20
544.0
 30
0.0
 40
1.5
100
AcDbArc
 50
180.0
 51
270.0
  0
ARC
  5
1697F
330
1656E
100
AcDbEntity
  8
5
  6
PHANTOM
100
AcDbCircle
 10
570.5
 20
542.6145589999999
 30
0.0
 40
1.5
100
AcDbArc
 50
180.0
 51
253.2276069999999
  0
ARC
  5
16980
330
1656E
100
AcDbEntity
  8
5
  6
PHANTOM
100
AcDbCircle
 10
570.5
 20
533.4999999999999
 30
0.0
 40
1.5
100
AcDbArc
 50
90.0
 51
180.0
  0
LINE
  5
16981
330
1656E
100
AcDbEntity
  8
5
  6
PHANTOM
100
AcDbLine
 10
569.0
 20
525.0
 30
0.0
 11
569.0
 21
523.0
 31
0.0
  0
LINE
  5
16982
330
1656E
100
AcDbEntity
  8
5
  6
PHANTOM
100
AcDbLine
 10
592.6
 20
534.0
 30
0.0
 11
592.6
 21
536.0
 31
0.0
  0
LINE
  5
16983
330
1656E
100
AcDbEntity
  8
5
  6
PHANTOM
100
AcDbLine
 10
591.25
 20
534.0
 30
0.0
 11
591.25
 21
536.0
 31
0.0
  0
CIRCLE
  5
16984
330
1656E
100
AcDbEntity
  8
5
  6
PHANTOM
100
AcDbCircle
 10
585.0
 20
535.0
 30
0.0
 40
2.399999999999999
  0
ARC
  5
16985
330
1656E
100
AcDbEntity
  8
5
  6
PHANTOM
100
AcDbCircle
 10
577.0
 20
537.0
 30
0.0
 40
2.0
100
AcDbArc
 50
270.0
 51
73.22760699999998
  0
LINE
  5
16986
330
1656E
100
AcDbEntity
  8
4
  6
CENTER
100
AcDbLine
 10
585.0
 20
529.25
 30
0.0
 11
585.0
 21
540.7499999999998
 31
0.0
  0
CIRCLE
  5
16987
330
1656E
100
AcDbEntity
  8
5
  6
PHANTOM
100
AcDbCircle
 10
585.0
 20
535.0
 30
0.0
 40
3.75
  0
LINE
  5
16988
330
1656E
100
AcDbEntity
  8
5
  6
PHANTOM
100
AcDbLine
 10
598.7499999999998
 20
534.0
 30
0.0
 11
598.7499999999998
 21
536.0
 31
0.0
  0
LINE
  5
16989
330
1656E
100
AcDbEntity
  8
5
  6
PHANTOM
100
AcDbLine
 10
597.4
 20
534.0
 30
0.0
 11
597.4
 21
536.0
 31
0.0
  0
LINE
  5
1698A
330
1656E
100
AcDbEntity
  8
4
  6
CENTER
100
AcDbLine
 10
595.0
 20
528.2499999999998
 30
0.0
 11
595.0
 21
541.75
 31
0.0
  0
ARC
  5
1698B
330
1656E
100
AcDbEntity
  8
5
  6
PHANTOM
100
AcDbCircle
 10
1161.499999999999
 20
543.0
 30
0.0
 40
2.0
100
AcDbArc
 50
0.0
 51
90.0
  0
LINE
  5
1698C
330
1656E
100
AcDbEntity
  8
5
  6
PHANTOM
100
AcDbLine
 10
1163.691288
 20
529.0
 30
0.0
 11
1162.083709
 21
529.0
 31
0.0
  0
LINE
  5
1698D
330
1656E
100
AcDbEntity
  8
5
  6
PHANTOM
100
AcDbLine
 10
1163.335541
 20
525.296756
 30
0.0
 11
1161.06924
 21
526.3681839999998
 31
0.0
  0
LINE
  5
1698E
330
1656E
100
AcDbEntity
  8
5
  6
PHANTOM
100
AcDbLine
 10
1162.083709
 20
529.0
 30
0.0
 11
1162.663501999998
 21
530.504144
 31
0.0
  0
LINE
  5
1698F
330
1656E
100
AcDbEntity
  8
4
  6
CENTER
100
AcDbLine
 10
1166.0
 20
535.0
 30
0.0
 11
1119.25
 21
535.0
 31
0.0
  0
ARC
  5
16990
330
1656E
100
AcDbEntity
  8
5
  6
PHANTOM
100
AcDbCircle
 10
1157.627489
 20
523.0
 30
0.0
 40
2.0
100
AcDbArc
 50
270.0
 51
338.920162
  0
LINE
  5
16991
330
1656E
100
AcDbEntity
  8
4
  6
CENTER
100
AcDbLine
 10
1151.0
 20
520.0
 30
0.0
 11
1151.0
 21
550.0
 31
0.0
  0
ARC
  5
16992
330
1656E
100
AcDbEntity
  8
5
  6
PHANTOM
100
AcDbCircle
 10
1138.5
 20
541.5
 30
0.0
 40
1.5
100
AcDbArc
 50
270.0
 51
0.0
  0
LINE
  5
16993
330
1656E
100
AcDbEntity
  8
5
  6
PHANTOM
100
AcDbLine
 10
1161.499999999999
 20
545.0
 30
0.0
 11
1145.499999999999
 21
545.0
 31
0.0
  0
LINE
  5
16994
330
1656E
100
AcDbEntity
  8
5
  6
PHANTOM
100
AcDbLine
 10
1159.578194999998
 20
522.5
 30
0.0
 11
1162.083709
 21
529.0
 31
0.0
  0
LINE
  5
16995
330
1656E
100
AcDbEntity
  8
5
  6
PHANTOM
100
AcDbLine
 10
1159.493649
 20
522.280663
 30
0.0
 11
1159.578194999998
 21
522.5
 31
0.0
  0
LINE
  5
16996
330
1656E
100
AcDbEntity
  8
5
  6
PHANTOM
100
AcDbLine
 10
1140.0
 20
541.5
 30
0.0
 11
1140.0
 21
545.0
 31
0.0
  0
LINE
  5
16997
330
1656E
100
AcDbEntity
  8
5
  6
PHANTOM
100
AcDbLine
 10
1141.5
 20
543.5
 30
0.0
 11
1140.5
 21
543.5
 31
0.0
  0
LINE
  5
16998
330
1656E
100
AcDbEntity
  8
5
  6
PHANTOM
100
AcDbLine
 10
1141.5
 20
543.5
 30
0.0
 11
1145.499999999999
 21
545.0
 31
0.0
  0
LINE
  5
16999
330
1656E
100
AcDbEntity
  8
5
  6
PHANTOM
100
AcDbLine
 10
1165.0
 20
535.0
 30
0.0
 11
1165.0
 21
536.5
 31
0.0
  0
ARC
  5
1699A
330
1656E
100
AcDbEntity
  8
5
  6
PHANTOM
100
AcDbCircle
 10
1151.0
 20
535.0
 30
0.0
 40
12.5
100
AcDbArc
 50
338.920162
 51
0.0
  0
LINE
  5
1699B
330
1656E
100
AcDbEntity
  8
5
  6
PHANTOM
100
AcDbLine
 10
1163.499999999999
 20
535.0
 30
0.0
 11
1163.499999999999
 21
543.0
 31
0.0
  0
ARC
  5
1699C
330
1656E
100
AcDbEntity
  8
5
  6
PHANTOM
100
AcDbCircle
 10
1151.0
 20
535.0
 30
0.0
 40
14.0
100
AcDbArc
 50
338.920162
 51
0.0
  0
LINE
  5
1699D
330
1656E
100
AcDbEntity
  8
5
  6
PHANTOM
100
AcDbLine
 10
1165.0
 20
539.0
 30
0.0
 11
1163.499999999999
 21
539.0
 31
0.0
  0
LINE
  5
1699E
330
1656E
100
AcDbEntity
  8
5
  6
PHANTOM
100
AcDbLine
 10
1163.335541
 20
525.296756
 30
0.0
 11
1164.597809
 21
528.5714289999998
 31
0.0
  0
LINE
  5
1699F
330
1656E
100
AcDbEntity
  8
5
  6
PHANTOM
100
AcDbLine
 10
1164.597809
 20
528.5714289999998
 30
0.0
 11
1163.691288
 21
529.0
 31
0.0
  0
LINE
  5
169A0
330
1656E
100
AcDbEntity
  8
5
  6
PHANTOM
100
AcDbLine
 10
1163.691288
 20
529.0
 30
0.0
 11
1164.063122
 21
529.964641
 31
0.0
  0
LINE
  5
169A1
330
1656E
100
AcDbEntity
  8
5
  6
PHANTOM
100
AcDbLine
 10
1157.763932
 20
121.0
 30
0.0
 11
571.0
 21
121.0
 31
0.0
  0
LINE
  5
169A2
330
1656E
100
AcDbEntity
  8
5
  6
PHANTOM
100
AcDbLine
 10
1140.0
 20
145.0
 30
0.0
 11
616.0
 21
145.0
 31
0.0
  0
ARC
  5
169A3
330
1656E
100
AcDbEntity
  8
5
  6
PHANTOM
100
AcDbCircle
 10
571.0
 20
123.0
 30
0.0
 40
2.0
100
AcDbArc
 50
180.0
 51
270.0
  0
ARC
  5
169A4
330
1656E
100
AcDbEntity
  8
5
  6
PHANTOM
100
AcDbCircle
 10
595.0
 20
134.0
 30
0.0
 40
2.399999999999999
100
AcDbArc
 50
180.0
 51
0.0
  0
ARC
  5
169A5
330
1656E
100
AcDbEntity
  8
5
  6
PHANTOM
100
AcDbCircle
 10
595.0
 20
136.0
 30
0.0
 40
2.399999999999999
100
AcDbArc
 50
0.0
 51
180.0
  0
LINE
  5
169A6
330
1656E
100
AcDbEntity
  8
5
  6
PHANTOM
100
AcDbLine
 10
603.1985079999998
 20
144.5980139999998
 30
0.0
 11
586.935465
 21
146.0
 31
0.0
  0
LINE
  5
169A7
330
1656E
100
AcDbEntity
  8
5
  6
PHANTOM
100
AcDbLine
 10
602.0
 20
144.0
 30
0.0
 11
575.4999999999999
 21
144.0
 31
0.0
  0
LINE
  5
169A8
330
1656E
100
AcDbEntity
  8
5
  6
PHANTOM
100
AcDbLine
 10
616.0
 20
145.0
 30
0.0
 11
587.0
 21
147.5
 31
0.0
  0
LINE
  5
169A9
330
1656E
100
AcDbEntity
  8
5
  6
PHANTOM
100
AcDbLine
 10
570.5
 20
135.0
 30
0.0
 11
577.0
 21
135.0
 31
0.0
  0
LINE
  5
169AA
330
1656E
100
AcDbEntity
  8
5
  6
PHANTOM
100
AcDbLine
 10
570.0671439999998
 20
141.1783709999999
 30
0.0
 11
577.5771409999999
 21
138.914917
 31
0.0
  0
ARC
  5
169AB
330
1656E
100
AcDbEntity
  8
5
  6
PHANTOM
100
AcDbCircle
 10
570.5
 20
133.4999999999998
 30
0.0
 40
1.5
100
AcDbArc
 50
90.0
 51
180.0
  0
ARC
  5
169AC
330
1656E
100
AcDbEntity
  8
5
  6
PHANTOM
100
AcDbCircle
 10
570.5
 20
142.614559
 30
0.0
 40
1.5
100
AcDbArc
 50
180.0
 51
253.2276069999999
  0
LINE
  5
169AD
330
1656E
100
AcDbEntity
  8
5
  6
PHANTOM
100
AcDbLine
 10
569.0
 20
127.0
 30
0.0
 11
569.0
 21
123.0
 31
0.0
  0
LINE
  5
169AE
330
1656E
100
AcDbEntity
  8
5
  6
PHANTOM
100
AcDbLine
 10
592.6
 20
134.0
 30
0.0
 11
592.6
 21
136.0
 31
0.0
  0
ARC
  5
169AF
330
1656E
100
AcDbEntity
  8
5
  6
PHANTOM
100
AcDbCircle
 10
577.0
 20
137.0
 30
0.0
 40
2.0
100
AcDbArc
 50
270.0
 51
73.22760699999998
  0
LINE
  5
169B0
330
1656E
100
AcDbEntity
  8
4
  6
CENTER
100
AcDbLine
 10
585.0
 20
129.2499999999998
 30
0.0
 11
585.0
 21
140.7499999999998
 31
0.0
  0
CIRCLE
  5
169B1
330
1656E
100
AcDbEntity
  8
5
  6
PHANTOM
100
AcDbCircle
 10
585.0
 20
135.0
 30
0.0
 40
2.399999999999999
  0
LINE
  5
169B2
330
1656E
100
AcDbEntity
  8
5
  6
PHANTOM
100
AcDbLine
 10
574.0
 20
146.0
 30
0.0
 11
586.935465
 21
146.0
 31
0.0
  0
ARC
  5
169B3
330
1656E
100
AcDbEntity
  8
5
  6
PHANTOM
100
AcDbCircle
 10
575.4999999999999
 20
145.5
 30
0.0
 40
1.5
100
AcDbArc
 50
180.0
 51
270.0
  0
LINE
  5
169B4
330
1656E
100
AcDbEntity
  8
5
  6
PHANTOM
100
AcDbLine
 10
574.0
 20
147.5
 30
0.0
 11
574.0
 21
145.5
 31
0.0
  0
ARC
  5
169B5
330
1656E
100
AcDbEntity
  8
5
  6
PHANTOM
100
AcDbCircle
 10
602.0
 20
145.5
 30
0.0
 40
1.5
100
AcDbArc
 50
270.0
 51
0.0
  0
LINE
  5
169B6
330
1656E
100
AcDbEntity
  8
5
  6
PHANTOM
100
AcDbLine
 10
603.5
 20
146.077586
 30
0.0
 11
603.5
 21
145.5
 31
0.0
  0
LINE
  5
169B7
330
1656E
100
AcDbEntity
  8
4
  6
CENTER
100
AcDbLine
 10
595.0
 20
128.2499999999998
 30
0.0
 11
595.0
 21
141.7499999999998
 31
0.0
  0
LINE
  5
169B8
330
1656E
100
AcDbEntity
  8
5
  6
PHANTOM
100
AcDbLine
 10
597.4
 20
134.0
 30
0.0
 11
597.4
 21
136.0
 31
0.0
  0
LINE
  5
169B9
330
1656E
100
AcDbEntity
  8
4
  6
CENTER
100
AcDbLine
 10
1151.0
 20
120.0
 30
0.0
 11
1151.0
 21
150.0
 31
0.0
  0
LINE
  5
169BA
330
1656E
100
AcDbEntity
  8
5
  6
PHANTOM
100
AcDbLine
 10
1163.0
 20
145.0
 30
0.0
 11
1145.0
 21
145.0
 31
0.0
  0
LINE
  5
169BB
330
1656E
100
AcDbEntity
  8
5
  6
PHANTOM
100
AcDbLine
 10
1159.552786
 20
122.105573
 30
0.0
 11
1165.0
 21
133.0
 31
0.0
  0
LINE
  5
169BC
330
1656E
100
AcDbEntity
  8
4
  6
CENTER
100
AcDbLine
 10
1166.0
 20
135.0
 30
0.0
 11
1119.25
 21
135.0
 31
0.0
  0
LINE
  5
169BD
330
1656E
100
AcDbEntity
  8
4
  6
CENTER
100
AcDbLine
 10
1125.0
 20
128.2499999999998
 30
0.0
 11
1125.0
 21
141.7499999999998
 31
0.0
  0
LINE
  5
169BE
330
1656E
100
AcDbEntity
  8
4
  6
CENTER
100
AcDbLine
 10
1135.0
 20
129.2499999999998
 30
0.0
 11
1135.0
 21
140.7499999999998
 31
0.0
  0
LINE
  5
169BF
330
1656E
100
AcDbEntity
  8
5
  6
PHANTOM
100
AcDbLine
 10
1122.6
 20
134.0
 30
0.0
 11
1122.6
 21
136.0
 31
0.0
  0
ARC
  5
169C0
330
1656E
100
AcDbEntity
  8
5
  6
PHANTOM
100
AcDbCircle
 10
1125.0
 20
134.0
 30
0.0
 40
2.399999999999999
100
AcDbArc
 50
180.0
 51
0.0
  0
LINE
  5
169C1
330
1656E
100
AcDbEntity
  8
5
  6
PHANTOM
100
AcDbLine
 10
1127.4
 20
134.0
 30
0.0
 11
1127.4
 21
136.0
 31
0.0
  0
ARC
  5
169C2
330
1656E
100
AcDbEntity
  8
5
  6
PHANTOM
100
AcDbCircle
 10
1125.0
 20
136.0
 30
0.0
 40
2.399999999999999
100
AcDbArc
 50
0.0
 51
180.0
  0
CIRCLE
  5
169C3
330
1656E
100
AcDbEntity
  8
5
  6
PHANTOM
100
AcDbCircle
 10
1135.0
 20
135.0
 30
0.0
 40
2.399999999999999
  0
ARC
  5
169C4
330
1656E
100
AcDbEntity
  8
5
  6
PHANTOM
100
AcDbCircle
 10
1157.763932
 20
123.0
 30
0.0
 40
2.0
100
AcDbArc
 50
270.0
 51
333.434949
  0
LINE
  5
169C5
330
1656E
100
AcDbEntity
  8
5
  6
PHANTOM
100
AcDbLine
 10
1141.0
 20
143.5
 30
0.0
 11
1140.0
 21
143.5
 31
0.0
  0
LINE
  5
169C6
330
1656E
100
AcDbEntity
  8
5
  6
PHANTOM
100
AcDbLine
 10
1140.0
 20
143.5
 30
0.0
 11
1140.0
 21
145.0
 31
0.0
  0
LINE
  5
169C7
330
1656E
100
AcDbEntity
  8
5
  6
PHANTOM
100
AcDbLine
 10
1141.0
 20
143.5
 30
0.0
 11
1145.0
 21
145.0
 31
0.0
  0
CIRCLE
  5
169C8
330
1656E
100
AcDbEntity
  8
5
  6
PHANTOM
100
AcDbCircle
 10
1151.0
 20
135.0
 30
0.0
 40
5.0
  0
CIRCLE
  5
169C9
330
1656E
100
AcDbEntity
  8
5
  6
PHANTOM
100
AcDbCircle
 10
1151.0
 20
135.0
 30
0.0
 40
3.0
  0
ARC
  5
169CA
330
1656E
100
AcDbEntity
  8
5
  6
PHANTOM
100
AcDbCircle
 10
1151.0
 20
135.0
 30
0.0
 40
11.0
100
AcDbArc
 50
65.38002299999999
 51
114.619977
  0
ARC
  5
169CB
330
1656E
100
AcDbEntity
  8
5
  6
PHANTOM
100
AcDbCircle
 10
1151.0
 20
135.0
 30
0.0
 40
11.0
100
AcDbArc
 50
114.619977
 51
65.38002299999999
  0
ARC
  5
169CC
330
1656E
100
AcDbEntity
  8
5
  6
PHANTOM
100
AcDbCircle
 10
1163.0
 20
143.0
 30
0.0
 40
2.0
100
AcDbArc
 50
0.0
 51
90.0
  0
LINE
  5
169CD
330
1656E
100
AcDbEntity
  8
5
  6
PHANTOM
100
AcDbLine
 10
1165.0
 20
133.0
 30
0.0
 11
1165.0
 21
136.4999999999998
 31
0.0
  0
CIRCLE
  5
169CE
330
1656E
100
AcDbEntity
  8
5
  6
PHANTOM
100
AcDbCircle
 10
1151.0
 20
535.0
 30
0.0
 40
11.0
  0
LINE
  5
169CF
330
1656E
100
AcDbEntity
  8
4
  6
CENTER
100
AcDbLine
 10
1135.0
 20
529.25
 30
0.0
 11
1135.0
 21
540.7499999999998
 31
0.0
  0
LINE
  5
169D0
330
1656E
100
AcDbEntity
  8
4
  6
CENTER
100
AcDbLine
 10
1125.0
 20
528.2499999999998
 30
0.0
 11
1125.0
 21
541.75
 31
0.0
  0
LINE
  5
169D1
330
1656E
100
AcDbEntity
  8
5
  6
PHANTOM
100
AcDbLine
 10
1235.0
 20
145.0
 30
0.0
 11
1243.0
 21
145.0
 31
0.0
  0
ARC
  5
169D2
330
1656E
100
AcDbEntity
  8
5
  6
PHANTOM
100
AcDbCircle
 10
1236.5
 20
146.0
 30
0.0
 40
1.5
100
AcDbArc
 50
90.0
 51
180.0
  0
LINE
  5
169D3
330
1656E
100
AcDbEntity
  8
5
  6
PHANTOM
100
AcDbLine
 10
1243.0
 20
147.5
 30
0.0
 11
1240.5
 21
147.5
 31
0.0
  0
LINE
  5
169D4
330
1656E
100
AcDbEntity
  8
5
  6
PHANTOM
100
AcDbLine
 10
1235.0
 20
121.0
 30
0.0
 11
1235.0
 21
123.5
 31
0.0
  0
LINE
  5
169D5
330
1656E
100
AcDbEntity
  8
5
  6
PHANTOM
100
AcDbLine
 10
1236.5
 20
121.0
 30
0.0
 11
1236.5
 21
123.5
 31
0.0
  0
LINE
  5
169D6
330
1656E
100
AcDbEntity
  8
5
  6
PHANTOM
100
AcDbLine
 10
1243.0
 20
145.0
 30
0.0
 11
1243.0
 21
147.5
 31
0.0
  0
LINE
  5
169D7
330
1656E
100
AcDbEntity
  8
5
  6
PHANTOM
100
AcDbLine
 10
1235.0
 20
121.0
 30
0.0
 11
1236.5
 21
121.0
 31
0.0
  0
LINE
  5
169D8
330
1656E
100
AcDbEntity
  8
5
  6
PHANTOM
100
AcDbLine
 10
29.5
 20
147.5
 30
0.0
 11
36.0
 21
147.5
 31
0.0
  0
LINE
  5
169D9
330
1656E
100
AcDbEntity
  8
5
  6
PHANTOM
100
AcDbLine
 10
36.0
 20
121.0
 30
0.0
 11
36.0
 21
123.5
 31
0.0
  0
LINE
  5
169DA
330
1656E
100
AcDbEntity
  8
5
  6
PHANTOM
100
AcDbLine
 10
37.5
 20
121.0
 30
0.0
 11
37.5
 21
123.5
 31
0.0
  0
ARC
  5
169DB
330
1656E
100
AcDbEntity
  8
5
  6
PHANTOM
100
AcDbCircle
 10
36.0
 20
146.0
 30
0.0
 40
1.5
100
AcDbArc
 50
0.0
 51
90.0
  0
LINE
  5
169DC
330
1656E
100
AcDbEntity
  8
5
  6
PHANTOM
100
AcDbLine
 10
29.5
 20
143.5
 30
0.0
 11
29.5
 21
146.0
 31
0.0
  0
LINE
  5
169DD
330
1656E
100
AcDbEntity
  8
5
  6
PHANTOM
100
AcDbLine
 10
36.0
 20
143.5
 30
0.0
 11
29.5
 21
143.5
 31
0.0
  0
LINE
  5
169DE
330
1656E
100
AcDbEntity
  8
5
  6
PHANTOM
100
AcDbLine
 10
37.5
 20
121.0
 30
0.0
 11
36.0
 21
121.0
 31
0.0
  0
LINE
  5
169DF
330
1656E
100
AcDbEntity
  8
1
  6
Continuous
100
AcDbLine
 10
27.0
 20
126.5
 30
0.0
 11
27.0
 21
129.0
 31
0.0
  0
LINE
  5
169E0
330
1656E
100
AcDbEntity
  8
5
  6
PHANTOM
100
AcDbLine
 10
1247.5
 20
521.0
 30
0.0
 11
1247.5
 21
523.5
 31
0.0
  0
ARC
  5
169E1
330
1656E
100
AcDbEntity
  8
5
  6
PHANTOM
100
AcDbCircle
 10
1246.0
 20
546.0
 30
0.0
 40
1.5
100
AcDbArc
 50
0.0
 51
90.0
  0
LINE
  5
169E2
330
1656E
100
AcDbEntity
  8
5
  6
PHANTOM
100
AcDbLine
 10
1247.5
 20
545.0
 30
0.0
 11
1238.0
 21
545.0
 31
0.0
  0
LINE
  5
169E3
330
1656E
100
AcDbEntity
  8
5
  6
PHANTOM
100
AcDbLine
 10
1246.0
 20
539.0
 30
0.0
 11
1246.0
 21
541.5
 31
0.0
  0
LINE
  5
169E4
330
1656E
100
AcDbEntity
  8
5
  6
PHANTOM
100
AcDbLine
 10
1238.0
 20
547.5
 30
0.0
 11
1242.0
 21
547.5
 31
0.0
  0
LINE
  5
169E5
330
1656E
100
AcDbEntity
  8
5
  6
PHANTOM
100
AcDbLine
 10
1247.5
 20
539.0
 30
0.0
 11
1238.0
 21
539.0
 31
0.0
  0
LINE
  5
169E6
330
1656E
100
AcDbEntity
  8
5
  6
PHANTOM
100
AcDbLine
 10
1238.0
 20
529.0
 30
0.0
 11
1238.0
 21
531.5
 31
0.0
  0
LINE
  5
169E7
330
1656E
100
AcDbEntity
  8
5
  6
PHANTOM
100
AcDbLine
 10
1246.0
 20
521.0
 30
0.0
 11
1246.0
 21
523.5
 31
0.0
  0
LINE
  5
169E8
330
1656E
100
AcDbEntity
  8
5
  6
PHANTOM
100
AcDbLine
 10
1247.5
 20
529.0
 30
0.0
 11
1238.0
 21
529.0
 31
0.0
  0
LINE
  5
169E9
330
1656E
100
AcDbEntity
  8
5
  6
PHANTOM
100
AcDbLine
 10
1247.5
 20
521.0
 30
0.0
 11
1246.0
 21
521.0
 31
0.0
  0
LINE
  5
169EA
330
1656E
100
AcDbEntity
  8
5
  6
PHANTOM
100
AcDbLine
 10
1238.0
 20
545.0
 30
0.0
 11
1238.0
 21
547.5
 31
0.0
  0
LINE
  5
169EB
330
1656E
100
AcDbEntity
  8
5
  6
PHANTOM
100
AcDbLine
 10
34.5
 20
540.0
 30
0.0
 11
34.5
 21
542.4999999999998
 31
0.0
  0
LINE
  5
169EC
330
1656E
100
AcDbEntity
  8
5
  6
PHANTOM
100
AcDbLine
 10
33.0
 20
540.0
 30
0.0
 11
34.5
 21
540.0
 31
0.0
  0
ARC
  5
169ED
330
1656E
100
AcDbEntity
  8
5
  6
PHANTOM
100
AcDbCircle
 10
33.0
 20
546.0
 30
0.0
 40
1.5
100
AcDbArc
 50
0.0
 51
90.0
  0
LINE
  5
169EE
330
1656E
100
AcDbEntity
  8
5
  6
PHANTOM
100
AcDbLine
 10
33.0
 20
547.5
 30
0.0
 11
26.5
 21
547.5
 31
0.0
  0
LINE
  5
169EF
330
1656E
100
AcDbEntity
  8
5
  6
PHANTOM
100
AcDbLine
 10
33.0
 20
540.0
 30
0.0
 11
33.0
 21
541.0
 31
0.0
  0
LINE
  5
169F0
330
1656E
100
AcDbEntity
  8
5
  6
PHANTOM
100
AcDbLine
 10
26.5
 20
543.5
 30
0.0
 11
33.0
 21
543.5
 31
0.0
  0
LINE
  5
169F1
330
1656E
100
AcDbEntity
  8
5
  6
PHANTOM
100
AcDbLine
 10
26.5
 20
521.0
 30
0.0
 11
26.5
 21
523.5
 31
0.0
  0
LINE
  5
169F2
330
1656E
100
AcDbEntity
  8
5
  6
PHANTOM
100
AcDbLine
 10
25.0
 20
521.0
 30
0.0
 11
25.0
 21
523.5
 31
0.0
  0
ARC
  5
169F3
330
1656E
100
AcDbEntity
  8
5
  6
PHANTOM
100
AcDbCircle
 10
26.5
 20
546.0
 30
0.0
 40
1.5
100
AcDbArc
 50
90.0
 51
180.0
  0
LINE
  5
169F4
330
1656E
100
AcDbEntity
  8
5
  6
PHANTOM
100
AcDbLine
 10
25.0
 20
521.0
 30
0.0
 11
26.5
 21
521.0
 31
0.0
  0
LINE
  5
169F5
330
1656E
100
AcDbEntity
  8
4
  6
CENTER
100
AcDbLine
 10
230.0
 20
722.75
 30
0.0
 11
230.0
 21
711.2499999999997
 31
0.0
  0
CIRCLE
  5
169F6
330
1656E
100
AcDbEntity
  8
1
  6
Continuous
100
AcDbCircle
 10
230.0
 20
717.0
 30
0.0
 40
2.399999999999999
  0
LINE
  5
169F7
330
1656E
100
AcDbEntity
  8
4
  6
CENTER
100
AcDbLine
 10
224.25
 20
717.0
 30
0.0
 11
235.7499999999999
 21
717.0
 31
0.0
  0
LINE
  5
169F8
330
1656E
100
AcDbEntity
  8
4
  6
CENTER
100
AcDbLine
 10
230.0
 20
636.5
 30
0.0
 11
230.0
 21
630.0
 31
0.0
  0
LINE
  5
169F9
330
1656E
100
AcDbEntity
  8
4
  6
CENTER
100
AcDbLine
 10
230.0
 20
438.0
 30
0.0
 11
230.0
 21
444.5
 31
0.0
  0
CIRCLE
  5
169FA
330
1656E
100
AcDbEntity
  8
1
  6
Continuous
100
AcDbCircle
 10
230.0
 20
537.5
 30
0.0
 40
2.399999999999999
  0
CIRCLE
  5
169FB
330
1656E
100
AcDbEntity
  8
1
  6
Continuous
100
AcDbCircle
 10
230.0
 20
537.5
 30
0.0
 40
3.75
  0
LINE
  5
169FC
330
1656E
100
AcDbEntity
  8
4
  6
CENTER
100
AcDbLine
 10
230.0
 20
531.7499999999999
 30
0.0
 11
230.0
 21
543.25
 31
0.0
  0
LINE
  5
169FD
330
1656E
100
AcDbEntity
  8
4
  6
CENTER
100
AcDbLine
 10
235.7499999999999
 20
537.5
 30
0.0
 11
224.25
 21
537.5
 31
0.0
  0
LINE
  5
169FE
330
1656E
100
AcDbEntity
  8
4
  6
CENTER
100
AcDbLine
 10
887.5
 20
725.25
 30
0.0
 11
887.5
 21
713.75
 31
0.0
  0
CIRCLE
  5
169FF
330
1656E
100
AcDbEntity
  8
1
  6
Continuous
100
AcDbCircle
 10
887.5
 20
719.5
 30
0.0
 40
2.399999999999999
  0
CIRCLE
  5
16A00
330
1656E
100
AcDbEntity
  8
1
  6
Continuous
100
AcDbCircle
 10
887.5
 20
719.5
 30
0.0
 40
3.75
  0
LINE
  5
16A01
330
1656E
100
AcDbEntity
  8
4
  6
CENTER
100
AcDbLine
 10
881.75
 20
719.5
 30
0.0
 11
893.25
 21
719.5
 31
0.0
  0
LINE
  5
16A02
330
1656E
100
AcDbEntity
  8
4
  6
CENTER
100
AcDbLine
 10
887.5
 20
618.0
 30
0.0
 11
887.5
 21
624.5
 31
0.0
  0
LINE
  5
16A03
330
1656E
100
AcDbEntity
  8
4
  6
CENTER
100
AcDbLine
 10
887.5
 20
456.5
 30
0.0
 11
887.5
 21
450.0
 31
0.0
  0
CIRCLE
  5
16A04
330
1656E
100
AcDbEntity
  8
1
  6
Continuous
100
AcDbCircle
 10
887.5
 20
535.0
 30
0.0
 40
2.399999999999999
  0
LINE
  5
16A05
330
1656E
100
AcDbEntity
  8
4
  6
CENTER
100
AcDbLine
 10
887.5
 20
529.25
 30
0.0
 11
887.5
 21
540.7499999999998
 31
0.0
  0
CIRCLE
  5
16A06
330
1656E
100
AcDbEntity
  8
3
  6
DASHED
100
AcDbCircle
 10
691.0
 20
537.5
 30
0.0
 40
11.0
  0
LINE
  5
16A07
330
1656E
100
AcDbEntity
  8
3
  6
DASHED
100
AcDbLine
 10
607.9167019999998
 20
546.0
 30
0.0
 11
596.0201060000001
 21
546.0
 31
0.0
  0
LINE
  5
16A08
330
1656E
100
AcDbEntity
  8
3
  6
DASHED
100
AcDbLine
 10
592.78233
 20
545.5
 30
0.0
 11
590.03233
 21
547.5
 31
0.0
  0
LINE
  5
16A09
330
1656E
100
AcDbEntity
  8
3
  6
DASHED
100
AcDbLine
 10
592.78233
 20
545.5
 30
0.0
 11
595.5323299999998
 21
547.5
 31
0.0
  0
LINE
  5
16A0A
330
1656E
100
AcDbEntity
  8
3
  6
DASHED
100
AcDbLine
 10
589.5445539999998
 20
546.0
 30
0.0
 11
570.5
 21
546.0
 31
0.0
  0
LINE
  5
16A0B
330
1656E
100
AcDbEntity
  8
3
  6
DASHED
100
AcDbLine
 10
680.0
 20
629.0
 30
0.0
 11
680.0
 21
623.0
 31
0.0
  0
LINE
  5
16A0C
330
1656E
100
AcDbEntity
  8
3
  6
DASHED
100
AcDbLine
 10
639.0
 20
624.0
 30
0.0
 11
680.0
 21
624.0
 31
0.0
  0
LINE
  5
16A0D
330
1656E
100
AcDbEntity
  8
1
  6
Continuous
100
AcDbLine
 10
703.5
 20
630.4999999999997
 30
0.0
 11
697.0
 21
630.4999999999997
 31
0.0
  0
LINE
  5
16A0E
330
1656E
100
AcDbEntity
  8
1
  6
Continuous
100
AcDbLine
 10
685.0
 20
630.4999999999997
 30
0.0
 11
680.0
 21
630.4999999999997
 31
0.0
  0
LINE
  5
16A0F
330
1656E
100
AcDbEntity
  8
4
  6
CENTER
100
AcDbLine
 10
762.25
 20
535.0
 30
0.0
 11
750.75
 21
535.0
 31
0.0
  0
CIRCLE
  5
16A10
330
1656E
100
AcDbEntity
  8
5
  6
PHANTOM
100
AcDbCircle
 10
1005.0
 20
535.0
 30
0.0
 40
2.399999999999999
  0
CIRCLE
  5
16A11
330
1656E
100
AcDbEntity
  8
5
  6
PHANTOM
100
AcDbCircle
 10
1005.0
 20
535.0
 30
0.0
 40
3.75
  0
LINE
  5
16A12
330
1656E
100
AcDbEntity
  8
4
  6
CENTER
100
AcDbLine
 10
1010.75
 20
535.0
 30
0.0
 11
989.25
 21
535.0
 31
0.0
  0
LINE
  5
16A13
330
1656E
100
AcDbEntity
  8
5
  6
PHANTOM
100
AcDbLine
 10
998.75
 20
534.0
 30
0.0
 11
998.75
 21
536.0
 31
0.0
  0
LINE
  5
16A14
330
1656E
100
AcDbEntity
  8
5
  6
PHANTOM
100
AcDbLine
 10
992.6
 20
534.0
 30
0.0
 11
992.6
 21
536.0
 31
0.0
  0
LINE
  5
16A15
330
1656E
100
AcDbEntity
  8
5
  6
PHANTOM
100
AcDbLine
 10
997.4
 20
534.0
 30
0.0
 11
997.4
 21
536.0
 31
0.0
  0
ARC
  5
16A16
330
1656E
100
AcDbEntity
  8
5
  6
PHANTOM
100
AcDbCircle
 10
995.0
 20
534.0
 30
0.0
 40
2.399999999999999
100
AcDbArc
 50
180.0
 51
0.0
  0
ARC
  5
16A17
330
1656E
100
AcDbEntity
  8
5
  6
PHANTOM
100
AcDbCircle
 10
995.0
 20
536.0
 30
0.0
 40
2.399999999999999
100
AcDbArc
 50
0.0
 51
180.0
  0
LINE
  5
16A18
330
1656E
100
AcDbEntity
  8
5
  6
PHANTOM
100
AcDbLine
 10
991.2499999999999
 20
534.0
 30
0.0
 11
991.2499999999999
 21
536.0
 31
0.0
  0
ARC
  5
16A19
330
1656E
100
AcDbEntity
  8
5
  6
PHANTOM
100
AcDbCircle
 10
995.0
 20
534.0
 30
0.0
 40
3.75
100
AcDbArc
 50
180.0
 51
0.0
  0
ARC
  5
16A1A
330
1656E
100
AcDbEntity
  8
5
  6
PHANTOM
100
AcDbCircle
 10
995.0
 20
536.0
 30
0.0
 40
3.75
100
AcDbArc
 50
0.0
 51
180.0
  0
LINE
  5
16A1B
330
1656E
100
AcDbEntity
  8
4
  6
CENTER
100
AcDbLine
 10
1005.0
 20
529.25
 30
0.0
 11
1005.0
 21
540.7499999999998
 31
0.0
  0
ARC
  5
16A1C
330
1656E
100
AcDbEntity
  8
5
  6
PHANTOM
100
AcDbCircle
 10
1125.0
 20
536.0
 30
0.0
 40
3.75
100
AcDbArc
 50
0.0
 51
180.0
  0
ARC
  5
16A1D
330
1656E
100
AcDbEntity
  8
5
  6
PHANTOM
100
AcDbCircle
 10
1125.0
 20
534.0
 30
0.0
 40
3.75
100
AcDbArc
 50
180.0
 51
0.0
  0
LINE
  5
16A1E
330
1656E
100
AcDbEntity
  8
5
  6
PHANTOM
100
AcDbLine
 10
1121.25
 20
534.0
 30
0.0
 11
1121.25
 21
536.0
 31
0.0
  0
ARC
  5
16A1F
330
1656E
100
AcDbEntity
  8
5
  6
PHANTOM
100
AcDbCircle
 10
1125.0
 20
536.0
 30
0.0
 40
2.399999999999999
100
AcDbArc
 50
0.0
 51
180.0
  0
ARC
  5
16A20
330
1656E
100
AcDbEntity
  8
5
  6
PHANTOM
100
AcDbCircle
 10
1125.0
 20
534.0
 30
0.0
 40
2.399999999999999
100
AcDbArc
 50
180.0
 51
0.0
  0
LINE
  5
16A21
330
1656E
100
AcDbEntity
  8
5
  6
PHANTOM
100
AcDbLine
 10
1127.4
 20
534.0
 30
0.0
 11
1127.4
 21
536.0
 31
0.0
  0
LINE
  5
16A22
330
1656E
100
AcDbEntity
  8
5
  6
PHANTOM
100
AcDbLine
 10
1122.6
 20
534.0
 30
0.0
 11
1122.6
 21
536.0
 31
0.0
  0
LINE
  5
16A23
330
1656E
100
AcDbEntity
  8
5
  6
PHANTOM
100
AcDbLine
 10
1128.749999999999
 20
534.0
 30
0.0
 11
1128.749999999999
 21
536.0
 31
0.0
  0
CIRCLE
  5
16A24
330
1656E
100
AcDbEntity
  8
5
  6
PHANTOM
100
AcDbCircle
 10
1135.0
 20
535.0
 30
0.0
 40
3.75
  0
CIRCLE
  5
16A25
330
1656E
100
AcDbEntity
  8
5
  6
PHANTOM
100
AcDbCircle
 10
1135.0
 20
535.0
 30
0.0
 40
2.399999999999999
  0
LINE
  5
16A26
330
1656E
100
AcDbEntity
  8
4
  6
CENTER
100
AcDbLine
 10
887.5
 20
236.5
 30
0.0
 11
887.5
 21
230.0
 31
0.0
  0
CIRCLE
  5
16A27
330
1656E
100
AcDbEntity
  8
1
  6
Continuous
100
AcDbCircle
 10
887.5
 20
319.5
 30
0.0
 40
2.399999999999999
  0
LINE
  5
16A28
330
1656E
100
AcDbEntity
  8
4
  6
CENTER
100
AcDbLine
 10
887.5
 20
325.2499999999999
 30
0.0
 11
887.5
 21
313.75
 31
0.0
  0
LINE
  5
16A29
330
1656E
100
AcDbEntity
  8
4
  6
CENTER
100
AcDbLine
 10
881.75
 20
319.5
 30
0.0
 11
893.25
 21
319.5
 31
0.0
  0
LINE
  5
16A2A
330
1656E
100
AcDbEntity
  8
4
  6
CENTER
100
AcDbLine
 10
887.5
 20
129.2499999999998
 30
0.0
 11
887.5
 21
140.7499999999998
 31
0.0
  0
CIRCLE
  5
16A2B
330
1656E
100
AcDbEntity
  8
1
  6
Continuous
100
AcDbCircle
 10
887.5
 20
135.0
 30
0.0
 40
3.75
  0
CIRCLE
  5
16A2C
330
1656E
100
AcDbEntity
  8
1
  6
Continuous
100
AcDbCircle
 10
887.5
 20
135.0
 30
0.0
 40
2.399999999999999
  0
LINE
  5
16A2D
330
1656E
100
AcDbEntity
  8
4
  6
CENTER
100
AcDbLine
 10
230.0
 20
218.0
 30
0.0
 11
230.0
 21
224.5
 31
0.0
  0
LINE
  5
16A2E
330
1656E
100
AcDbEntity
  8
4
  6
CENTER
100
AcDbLine
 10
230.0
 20
322.75
 30
0.0
 11
230.0
 21
311.25
 31
0.0
  0
CIRCLE
  5
16A2F
330
1656E
100
AcDbEntity
  8
1
  6
Continuous
100
AcDbCircle
 10
230.0
 20
317.0
 30
0.0
 40
3.75
  0
CIRCLE
  5
16A30
330
1656E
100
AcDbEntity
  8
1
  6
Continuous
100
AcDbCircle
 10
230.0
 20
317.0
 30
0.0
 40
2.399999999999999
  0
LINE
  5
16A31
330
1656E
100
AcDbEntity
  8
4
  6
CENTER
100
AcDbLine
 10
224.25
 20
317.0
 30
0.0
 11
235.7499999999999
 21
317.0
 31
0.0
  0
LINE
  5
16A32
330
1656E
100
AcDbEntity
  8
4
  6
CENTER
100
AcDbLine
 10
230.0
 20
56.5
 30
0.0
 11
230.0
 21
50.0
 31
0.0
  0
LINE
  5
16A33
330
1656E
100
AcDbEntity
  8
4
  6
CENTER
100
AcDbLine
 10
230.0
 20
131.75
 30
0.0
 11
230.0
 21
143.25
 31
0.0
  0
CIRCLE
  5
16A34
330
1656E
100
AcDbEntity
  8
1
  6
Continuous
100
AcDbCircle
 10
230.0
 20
137.5
 30
0.0
 40
2.399999999999999
  0
LINE
  5
16A35
330
1656E
100
AcDbEntity
  8
4
  6
CENTER
100
AcDbLine
 10
235.7499999999999
 20
137.5
 30
0.0
 11
224.25
 21
137.5
 31
0.0
  0
CIRCLE
  5
16A36
330
1656E
100
AcDbEntity
  8
3
  6
DASHED
100
AcDbCircle
 10
691.0
 20
317.0
 30
0.0
 40
11.0
  0
LINE
  5
16A37
330
1656E
100
AcDbEntity
  8
3
  6
DASHED
100
AcDbLine
 10
699.75
 20
329.4999999999999
 30
0.0
 11
705.0
 21
319.0
 31
0.0
  0
LINE
  5
16A38
330
1656E
100
AcDbEntity
  8
4
  6
CENTER
100
AcDbLine
 10
887.5
 20
38.0
 30
0.0
 11
887.5
 21
44.5
 31
0.0
  0
LINE
  5
16A39
330
1656E
100
AcDbEntity
  8
3
  6
DASHED
100
AcDbLine
 10
680.0
 20
225.4999999999999
 30
0.0
 11
680.0
 21
231.4999999999999
 31
0.0
  0
ARC
  5
16A3A
330
1656E
100
AcDbEntity
  8
3
  6
DASHED
100
AcDbCircle
 10
678.0
 20
227.0
 30
0.0
 40
2.0
100
AcDbArc
 50
0.0
 51
90.0
  0
LINE
  5
16A3B
330
1656E
100
AcDbEntity
  8
4
  6
CENTER
100
AcDbLine
 10
762.25
 20
135.0
 30
0.0
 11
750.75
 21
135.0
 31
0.0
  0
CIRCLE
  5
16A3C
330
1656E
100
AcDbEntity
  8
5
  6
PHANTOM
100
AcDbCircle
 10
1005.0
 20
135.0
 30
0.0
 40
2.399999999999999
  0
LINE
  5
16A3D
330
1656E
100
AcDbEntity
  8
4
  6
CENTER
100
AcDbLine
 10
1010.75
 20
135.0
 30
0.0
 11
989.25
 21
135.0
 31
0.0
  0
LINE
  5
16A3E
330
1656E
100
AcDbEntity
  8
5
  6
PHANTOM
100
AcDbLine
 10
997.4
 20
134.0
 30
0.0
 11
997.4
 21
136.0
 31
0.0
  0
LINE
  5
16A3F
330
1656E
100
AcDbEntity
  8
4
  6
CENTER
100
AcDbLine
 10
1005.0
 20
129.2499999999998
 30
0.0
 11
1005.0
 21
140.7499999999998
 31
0.0
  0
LINE
  5
16A40
330
1656E
100
AcDbEntity
  8
5
  6
PHANTOM
100
AcDbLine
 10
992.6
 20
134.0
 30
0.0
 11
992.6
 21
136.0
 31
0.0
  0
ARC
  5
16A41
330
1656E
100
AcDbEntity
  8
5
  6
PHANTOM
100
AcDbCircle
 10
995.0
 20
136.0
 30
0.0
 40
2.399999999999999
100
AcDbArc
 50
0.0
 51
180.0
  0
ARC
  5
16A42
330
1656E
100
AcDbEntity
  8
5
  6
PHANTOM
100
AcDbCircle
 10
995.0
 20
134.0
 30
0.0
 40
2.399999999999999
100
AcDbArc
 50
180.0
 51
0.0
  0
LINE
  5
16A43
330
1656E
100
AcDbEntity
  8
4
  6
CENTER
100
AcDbLine
 10
675.0
 20
722.4
 30
0.0
 11
675.0
 21
711.6
 31
0.0
  0
LINE
  5
16A44
330
1656E
100
AcDbEntity
  8
4
  6
CENTER
100
AcDbLine
 10
665.0
 20
723.3999999999999
 30
0.0
 11
665.0
 21
710.7550149999998
 31
0.0
  0
LINE
  5
16A45
330
1656E
100
AcDbEntity
  8
4
  6
CENTER
100
AcDbLine
 10
625.0
 20
724.8999999999997
 30
0.0
 11
625.0
 21
714.1
 31
0.0
  0
LINE
  5
16A46
330
1656E
100
AcDbEntity
  8
4
  6
CENTER
100
AcDbLine
 10
675.0
 20
532.1
 30
0.0
 11
675.0
 21
542.9
 31
0.0
  0
LINE
  5
16A47
330
1656E
100
AcDbEntity
  8
4
  6
CENTER
100
AcDbLine
 10
635.0
 20
325.8999999999999
 30
0.0
 11
635.0
 21
313.1
 31
0.0
  0
LINE
  5
16A48
330
1656E
100
AcDbEntity
  8
4
  6
CENTER
100
AcDbLine
 10
675.0
 20
322.3999999999999
 30
0.0
 11
675.0
 21
311.6
 31
0.0
  0
LINE
  5
16A49
330
1656E
100
AcDbEntity
  8
3
  6
DASHED
100
AcDbLine
 10
639.0
 20
229.0
 30
0.0
 11
678.0
 21
229.0
 31
0.0
  0
LINE
  5
16A4A
330
1656E
100
AcDbEntity
  8
4
  6
CENTER
100
AcDbLine
 10
625.0
 20
129.6
 30
0.0
 11
625.0
 21
140.4
 31
0.0
  0
LINE
  5
16A4B
330
1656E
100
AcDbEntity
  8
4
  6
CENTER
100
AcDbLine
 10
665.0
 20
131.0999999999999
 30
0.0
 11
665.0
 21
143.9
 31
0.0
  0
CIRCLE
  5
16A4C
330
1656E
100
AcDbEntity
  8
1
  6
Continuous
100
AcDbCircle
 10
335.0
 20
717.0
 30
0.0
 40
2.399999999999999
  0
LINE
  5
16A4D
330
1656E
100
AcDbEntity
  8
4
  6
CENTER
100
AcDbLine
 10
329.2499999999999
 20
717.0
 30
0.0
 11
340.75
 21
717.0
 31
0.0
  0
LINE
  5
16A4E
330
1656E
100
AcDbEntity
  8
4
  6
CENTER
100
AcDbLine
 10
335.0
 20
722.75
 30
0.0
 11
335.0
 21
711.2499999999997
 31
0.0
  0
LINE
  5
16A4F
330
1656E
100
AcDbEntity
  8
4
  6
CENTER
100
AcDbLine
 10
335.0
 20
636.5
 30
0.0
 11
335.0
 21
630.0
 31
0.0
  0
LINE
  5
16A50
330
1656E
100
AcDbEntity
  8
4
  6
CENTER
100
AcDbLine
 10
335.0
 20
438.0
 30
0.0
 11
335.0
 21
444.5
 31
0.0
  0
CIRCLE
  5
16A51
330
1656E
100
AcDbEntity
  8
1
  6
Continuous
100
AcDbCircle
 10
335.0
 20
537.5
 30
0.0
 40
2.399999999999999
  0
CIRCLE
  5
16A52
330
1656E
100
AcDbEntity
  8
1
  6
Continuous
100
AcDbCircle
 10
335.0
 20
537.5
 30
0.0
 40
3.75
  0
LINE
  5
16A53
330
1656E
100
AcDbEntity
  8
4
  6
CENTER
100
AcDbLine
 10
340.75
 20
537.5
 30
0.0
 11
329.2499999999999
 21
537.5
 31
0.0
  0
LINE
  5
16A54
330
1656E
100
AcDbEntity
  8
4
  6
CENTER
100
AcDbLine
 10
335.0
 20
531.7499999999999
 30
0.0
 11
335.0
 21
543.25
 31
0.0
  0
CIRCLE
  5
16A55
330
1656E
100
AcDbEntity
  8
1
  6
Continuous
100
AcDbCircle
 10
335.0
 20
317.0
 30
0.0
 40
3.75
  0
CIRCLE
  5
16A56
330
1656E
100
AcDbEntity
  8
1
  6
Continuous
100
AcDbCircle
 10
335.0
 20
317.0
 30
0.0
 40
2.399999999999999
  0
LINE
  5
16A57
330
1656E
100
AcDbEntity
  8
4
  6
CENTER
100
AcDbLine
 10
329.2499999999999
 20
317.0
 30
0.0
 11
340.75
 21
317.0
 31
0.0
  0
LINE
  5
16A58
330
1656E
100
AcDbEntity
  8
4
  6
CENTER
100
AcDbLine
 10
335.0
 20
322.75
 30
0.0
 11
335.0
 21
311.25
 31
0.0
  0
LINE
  5
16A59
330
1656E
100
AcDbEntity
  8
4
  6
CENTER
100
AcDbLine
 10
335.0
 20
218.0
 30
0.0
 11
335.0
 21
224.5
 31
0.0
  0
LINE
  5
16A5A
330
1656E
100
AcDbEntity
  8
4
  6
CENTER
100
AcDbLine
 10
335.0
 20
56.5
 30
0.0
 11
335.0
 21
50.0
 31
0.0
  0
CIRCLE
  5
16A5B
330
1656E
100
AcDbEntity
  8
1
  6
Continuous
100
AcDbCircle
 10
335.0
 20
137.5
 30
0.0
 40
2.399999999999999
  0
LINE
  5
16A5C
330
1656E
100
AcDbEntity
  8
4
  6
CENTER
100
AcDbLine
 10
340.75
 20
137.5
 30
0.0
 11
329.2499999999999
 21
137.5
 31
0.0
  0
LINE
  5
16A5D
330
1656E
100
AcDbEntity
  8
4
  6
CENTER
100
AcDbLine
 10
335.0
 20
131.75
 30
0.0
 11
335.0
 21
143.25
 31
0.0
  0
LINE
  5
16A5E
330
1656E
100
AcDbEntity
  8
4
  6
CENTER
100
AcDbLine
 10
905.75
 20
135.0
 30
0.0
 11
894.25
 21
135.0
 31
0.0
  0
CIRCLE
  5
16A5F
330
1656E
100
AcDbEntity
  8
5
  6
PHANTOM
100
AcDbCircle
 10
900.0
 20
135.0
 30
0.0
 40
2.399999999999999
  0
LINE
  5
16A60
330
1656E
100
AcDbEntity
  8
4
  6
CENTER
100
AcDbLine
 10
900.0
 20
129.2499999999998
 30
0.0
 11
900.0
 21
140.7499999999998
 31
0.0
  0
LINE
  5
16A61
330
1656E
100
AcDbEntity
  8
1
  6
Continuous
100
AcDbLine
 10
614.5
 20
453.5
 30
0.0
 11
614.5
 21
452.0
 31
0.0
  0
LINE
  5
16A62
330
1656E
100
AcDbEntity
  8
1
  6
Continuous
100
AcDbLine
 10
618.5
 20
453.5
 30
0.0
 11
618.5
 21
452.0
 31
0.0
  0
LINE
  5
16A63
330
1656E
100
AcDbEntity
  8
1
  6
Continuous
100
AcDbLine
 10
614.5
 20
42.5
 30
0.0
 11
614.5
 21
41.0
 31
0.0
  0
LINE
  5
16A64
330
1656E
100
AcDbEntity
  8
1
  6
Continuous
100
AcDbLine
 10
618.5
 20
42.5
 30
0.0
 11
618.5
 21
41.0
 31
0.0
  0
CIRCLE
  5
16A65
330
1656E
100
AcDbEntity
  8
1
  6
Continuous
100
AcDbCircle
 10
1018.5
 20
719.5
 30
0.0
 40
2.399999999999999
  0
CIRCLE
  5
16A66
330
1656E
100
AcDbEntity
  8
1
  6
Continuous
100
AcDbCircle
 10
1018.5
 20
719.5
 30
0.0
 40
3.75
  0
LINE
  5
16A67
330
1656E
100
AcDbEntity
  8
4
  6
CENTER
100
AcDbLine
 10
1012.75
 20
719.5
 30
0.0
 11
1024.25
 21
719.5
 31
0.0
  0
LINE
  5
16A68
330
1656E
100
AcDbEntity
  8
4
  6
CENTER
100
AcDbLine
 10
1018.5
 20
725.25
 30
0.0
 11
1018.5
 21
713.75
 31
0.0
  0
LINE
  5
16A69
330
1656E
100
AcDbEntity
  8
4
  6
CENTER
100
AcDbLine
 10
1018.5
 20
618.0
 30
0.0
 11
1018.5
 21
624.5
 31
0.0
  0
LINE
  5
16A6A
330
1656E
100
AcDbEntity
  8
4
  6
CENTER
100
AcDbLine
 10
1018.5
 20
529.25
 30
0.0
 11
1018.5
 21
540.7499999999998
 31
0.0
  0
CIRCLE
  5
16A6B
330
1656E
100
AcDbEntity
  8
1
  6
Continuous
100
AcDbCircle
 10
1018.5
 20
535.0
 30
0.0
 40
2.399999999999999
  0
LINE
  5
16A6C
330
1656E
100
AcDbEntity
  8
4
  6
CENTER
100
AcDbLine
 10
1024.25
 20
535.0
 30
0.0
 11
1012.75
 21
535.0
 31
0.0
  0
LINE
  5
16A6D
330
1656E
100
AcDbEntity
  8
4
  6
CENTER
100
AcDbLine
 10
1018.5
 20
456.5
 30
0.0
 11
1018.5
 21
450.0
 31
0.0
  0
CIRCLE
  5
16A6E
330
1656E
100
AcDbEntity
  8
1
  6
Continuous
100
AcDbCircle
 10
1018.5
 20
319.5
 30
0.0
 40
2.399999999999999
  0
LINE
  5
16A6F
330
1656E
100
AcDbEntity
  8
4
  6
CENTER
100
AcDbLine
 10
1012.75
 20
319.5
 30
0.0
 11
1024.25
 21
319.5
 31
0.0
  0
LINE
  5
16A70
330
1656E
100
AcDbEntity
  8
4
  6
CENTER
100
AcDbLine
 10
1018.5
 20
325.2499999999999
 30
0.0
 11
1018.5
 21
313.75
 31
0.0
  0
LINE
  5
16A71
330
1656E
100
AcDbEntity
  8
4
  6
CENTER
100
AcDbLine
 10
1018.5
 20
236.5
 30
0.0
 11
1018.5
 21
230.0
 31
0.0
  0
CIRCLE
  5
16A72
330
1656E
100
AcDbEntity
  8
1
  6
Continuous
100
AcDbCircle
 10
1018.5
 20
135.0
 30
0.0
 40
3.75
  0
CIRCLE
  5
16A73
330
1656E
100
AcDbEntity
  8
1
  6
Continuous
100
AcDbCircle
 10
1018.5
 20
135.0
 30
0.0
 40
2.399999999999999
  0
LINE
  5
16A74
330
1656E
100
AcDbEntity
  8
4
  6
CENTER
100
AcDbLine
 10
1018.5
 20
129.2499999999998
 30
0.0
 11
1018.5
 21
140.7499999999998
 31
0.0
  0
LINE
  5
16A75
330
1656E
100
AcDbEntity
  8
4
  6
CENTER
100
AcDbLine
 10
1024.25
 20
135.0
 30
0.0
 11
1012.75
 21
135.0
 31
0.0
  0
LINE
  5
16A76
330
1656E
100
AcDbEntity
  8
4
  6
CENTER
100
AcDbLine
 10
1018.5
 20
38.0
 30
0.0
 11
1018.5
 21
44.5
 31
0.0
  0
LINE
  5
16A77
330
1656E
100
AcDbEntity
  8
4
  6
CENTER
100
AcDbLine
 10
635.0
 20
725.9
 30
0.0
 11
635.0
 21
713.2550150000001
 31
0.0
  0
LINE
  5
16A78
330
1656E
100
AcDbEntity
  8
4
  6
CENTER
100
AcDbLine
 10
665.0
 20
531.0999999999998
 30
0.0
 11
665.0
 21
543.9
 31
0.0
  0
LINE
  5
16A79
330
1656E
100
AcDbEntity
  8
4
  6
CENTER
100
AcDbLine
 10
665.0
 20
323.3999999999999
 30
0.0
 11
665.0
 21
310.6
 31
0.0
  0
LINE
  5
16A7A
330
1656E
100
AcDbEntity
  8
4
  6
CENTER
100
AcDbLine
 10
635.0
 20
128.6
 30
0.0
 11
635.0
 21
141.4
 31
0.0
  0
LINE
  5
16A7B
330
1656E
100
AcDbEntity
  8
4
  6
CENTER
100
AcDbLine
 10
995.0
 20
129.2499999999998
 30
0.0
 11
995.0
 21
140.7499999999998
 31
0.0
  0
LINE
  5
16A7C
330
1656E
100
AcDbEntity
  8
4
  6
CENTER
100
AcDbLine
 10
995.0
 20
529.25
 30
0.0
 11
995.0
 21
540.7499999999998
 31
0.0
  0
LINE
  5
16A7D
330
1656E
100
AcDbEntity
  8
4
  6
CENTER
100
AcDbLine
 10
893.25
 20
535.0
 30
0.0
 11
881.75
 21
535.0
 31
0.0
  0
LINE
  5
16A7E
330
1656E
100
AcDbEntity
  8
4
  6
CENTER
100
AcDbLine
 10
893.25
 20
135.0
 30
0.0
 11
881.75
 21
135.0
 31
0.0
  0
LINE
  5
16A7F
330
1656E
100
AcDbEntity
  8
4
  6
CENTER
100
AcDbLine
 10
690.0
 20
529.25
 30
0.0
 11
690.0
 21
540.7499999999998
 31
0.0
  0
CIRCLE
  5
16A80
330
1656E
100
AcDbEntity
  8
5
  6
PHANTOM
100
AcDbCircle
 10
690.0
 20
535.0
 30
0.0
 40
3.75
  0
CIRCLE
  5
16A81
330
1656E
100
AcDbEntity
  8
5
  6
PHANTOM
100
AcDbCircle
 10
690.0
 20
535.0
 30
0.0
 40
2.399999999999999
  0
LINE
  5
16A82
330
1656E
100
AcDbEntity
  8
4
  6
CENTER
100
AcDbLine
 10
695.75
 20
535.0
 30
0.0
 11
684.25
 21
535.0
 31
0.0
  0
LINE
  5
16A83
330
1656E
100
AcDbEntity
  8
4
  6
CENTER
100
AcDbLine
 10
440.0
 20
636.5
 30
0.0
 11
440.0
 21
630.0
 31
0.0
  0
LINE
  5
16A84
330
1656E
100
AcDbEntity
  8
4
  6
CENTER
100
AcDbLine
 10
440.0
 20
722.75
 30
0.0
 11
440.0
 21
711.2499999999997
 31
0.0
  0
LINE
  5
16A85
330
1656E
100
AcDbEntity
  8
4
  6
CENTER
100
AcDbLine
 10
434.25
 20
717.0
 30
0.0
 11
445.75
 21
717.0
 31
0.0
  0
CIRCLE
  5
16A86
330
1656E
100
AcDbEntity
  8
1
  6
Continuous
100
AcDbCircle
 10
440.0
 20
717.0
 30
0.0
 40
2.399999999999999
  0
LINE
  5
16A87
330
1656E
100
AcDbEntity
  8
4
  6
CENTER
100
AcDbLine
 10
440.0
 20
531.7499999999999
 30
0.0
 11
440.0
 21
543.25
 31
0.0
  0
LINE
  5
16A88
330
1656E
100
AcDbEntity
  8
4
  6
CENTER
100
AcDbLine
 10
445.75
 20
537.5
 30
0.0
 11
434.25
 21
537.5
 31
0.0
  0
CIRCLE
  5
16A89
330
1656E
100
AcDbEntity
  8
1
  6
Continuous
100
AcDbCircle
 10
440.0
 20
537.5
 30
0.0
 40
3.75
  0
CIRCLE
  5
16A8A
330
1656E
100
AcDbEntity
  8
1
  6
Continuous
100
AcDbCircle
 10
440.0
 20
537.5
 30
0.0
 40
2.399999999999999
  0
LINE
  5
16A8B
330
1656E
100
AcDbEntity
  8
4
  6
CENTER
100
AcDbLine
 10
440.0
 20
438.0
 30
0.0
 11
440.0
 21
444.5
 31
0.0
  0
LINE
  5
16A8C
330
1656E
100
AcDbEntity
  8
4
  6
CENTER
100
AcDbLine
 10
440.0
 20
218.0
 30
0.0
 11
440.0
 21
224.5
 31
0.0
  0
LINE
  5
16A8D
330
1656E
100
AcDbEntity
  8
4
  6
CENTER
100
AcDbLine
 10
440.0
 20
322.75
 30
0.0
 11
440.0
 21
311.25
 31
0.0
  0
LINE
  5
16A8E
330
1656E
100
AcDbEntity
  8
4
  6
CENTER
100
AcDbLine
 10
434.25
 20
317.0
 30
0.0
 11
445.75
 21
317.0
 31
0.0
  0
CIRCLE
  5
16A8F
330
1656E
100
AcDbEntity
  8
1
  6
Continuous
100
AcDbCircle
 10
440.0
 20
317.0
 30
0.0
 40
2.399999999999999
  0
CIRCLE
  5
16A90
330
1656E
100
AcDbEntity
  8
1
  6
Continuous
100
AcDbCircle
 10
440.0
 20
317.0
 30
0.0
 40
3.75
  0
LINE
  5
16A91
330
1656E
100
AcDbEntity
  8
4
  6
CENTER
100
AcDbLine
 10
440.0
 20
56.5
 30
0.0
 11
440.0
 21
50.0
 31
0.0
  0
LINE
  5
16A92
330
1656E
100
AcDbEntity
  8
4
  6
CENTER
100
AcDbLine
 10
440.0
 20
131.75
 30
0.0
 11
440.0
 21
143.25
 31
0.0
  0
CIRCLE
  5
16A93
330
1656E
100
AcDbEntity
  8
1
  6
Continuous
100
AcDbCircle
 10
440.0
 20
137.5
 30
0.0
 40
2.399999999999999
  0
LINE
  5
16A94
330
1656E
100
AcDbEntity
  8
4
  6
CENTER
100
AcDbLine
 10
445.75
 20
137.5
 30
0.0
 11
434.25
 21
137.5
 31
0.0
  0
LINE
  5
16A95
330
1656E
100
AcDbEntity
  8
4
  6
CENTER
100
AcDbLine
 10
800.75
 20
535.0
 30
0.0
 11
789.25
 21
535.0
 31
0.0
  0
CIRCLE
  5
16A96
330
1656E
100
AcDbEntity
  8
5
  6
PHANTOM
100
AcDbCircle
 10
795.0
 20
535.0
 30
0.0
 40
2.399999999999999
  0
LINE
  5
16A97
330
1656E
100
AcDbEntity
  8
4
  6
CENTER
100
AcDbLine
 10
795.0
 20
529.25
 30
0.0
 11
795.0
 21
540.7499999999998
 31
0.0
  0
CIRCLE
  5
16A98
330
1656E
100
AcDbEntity
  8
5
  6
PHANTOM
100
AcDbCircle
 10
795.0
 20
535.0
 30
0.0
 40
3.75
  0
LINE
  5
16A99
330
1656E
100
AcDbEntity
  8
4
  6
CENTER
100
AcDbLine
 10
905.75
 20
535.0
 30
0.0
 11
894.25
 21
535.0
 31
0.0
  0
CIRCLE
  5
16A9A
330
1656E
100
AcDbEntity
  8
5
  6
PHANTOM
100
AcDbCircle
 10
900.0
 20
535.0
 30
0.0
 40
3.75
  0
LINE
  5
16A9B
330
1656E
100
AcDbEntity
  8
4
  6
CENTER
100
AcDbLine
 10
900.0
 20
529.25
 30
0.0
 11
900.0
 21
540.7499999999998
 31
0.0
  0
CIRCLE
  5
16A9C
330
1656E
100
AcDbEntity
  8
5
  6
PHANTOM
100
AcDbCircle
 10
900.0
 20
535.0
 30
0.0
 40
2.399999999999999
  0
LINE
  5
16A9D
330
1656E
100
AcDbEntity
  8
4
  6
CENTER
100
AcDbLine
 10
800.75
 20
135.0
 30
0.0
 11
789.25
 21
135.0
 31
0.0
  0
CIRCLE
  5
16A9E
330
1656E
100
AcDbEntity
  8
5
  6
PHANTOM
100
AcDbCircle
 10
795.0
 20
135.0
 30
0.0
 40
2.399999999999999
  0
LINE
  5
16A9F
330
1656E
100
AcDbEntity
  8
4
  6
CENTER
100
AcDbLine
 10
795.0
 20
129.2499999999998
 30
0.0
 11
795.0
 21
140.7499999999998
 31
0.0
  0
LINE
  5
16AA0
330
1656E
100
AcDbEntity
  8
4
  6
CENTER
100
AcDbLine
 10
695.75
 20
135.0
 30
0.0
 11
684.25
 21
135.0
 31
0.0
  0
LINE
  5
16AA1
330
1656E
100
AcDbEntity
  8
4
  6
CENTER
100
AcDbLine
 10
690.0
 20
129.2499999999998
 30
0.0
 11
690.0
 21
140.7499999999998
 31
0.0
  0
CIRCLE
  5
16AA2
330
1656E
100
AcDbEntity
  8
5
  6
PHANTOM
100
AcDbCircle
 10
690.0
 20
135.0
 30
0.0
 40
2.399999999999999
  0
ENDSEC
  0
SECTION
  2
OBJECTS
  0
DICTIONARY
  5
1655C
330
0
100
AcDbDictionary
281
     1
  3
ACAD_CIP_PREVIOUS_PRODUCT_INFO
350
16B02
  3
ACAD_COLOR
350
16AE4
  3
ACAD_DETAILVIEWSTYLE
350
16AFD
  3
ACAD_GROUP
350
1655D
  3
ACAD_LAYOUT
350
16569
  3
ACAD_MATERIAL
350
16AB2
  3
ACAD_MLEADERSTYLE
350
16AF9
  3
ACAD_MLINESTYLE
350
16566
  3
ACAD_PLOTSETTINGS
350
16568
  3
ACAD_PLOTSTYLENAME
350
16AB0
  3
ACAD_SCALELIST
350
16AE7
  3
ACAD_SECTIONVIEWSTYLE
350
16AFB
  3
ACAD_TABLESTYLE
350
16AE5
  3
ACAD_VISUALSTYLE
350
16ACB
  3
ACDB_RECOMPOSE_DATA
350
16B20
  3
AcDbVariableDictionary
350
16B13
  3
DWGPROPS
350
16B21
  0
DICTIONARY
  5
16B03
330
16560
100
AcDbDictionary
280
     1
281
     1
  3
ADSK_XREC_LAYER_RECONCILED
360
16B04
  0
DICTIONARY
  5
16B05
330
16576
100
AcDbDictionary
280
     1
281
     1
  3
ADSK_XREC_LAYER_RECONCILED
360
16B06
  0
DICTIONARY
  5
16B07
330
16577
100
AcDbDictionary
280
     1
281
     1
  3
ADSK_XREC_LAYER_RECONCILED
360
16B08
  0
DICTIONARY
  5
16B09
330
16578
100
AcDbDictionary
280
     1
281
     1
  3
ADSK_XREC_LAYER_RECONCILED
360
16B0A
  0
DICTIONARY
  5
16B0B
330
16579
100
AcDbDictionary
280
     1
281
     1
  3
ADSK_XREC_LAYER_RECONCILED
360
16B0C
  0
DICTIONARY
  5
16B0D
330
1657A
100
AcDbDictionary
280
     1
281
     1
  3
ADSK_XREC_LAYER_RECONCILED
360
16B0E
  0
DICTIONARY
  5
16B0F
330
1657B
100
AcDbDictionary
280
     1
281
     1
  3
ADSK_XREC_LAYER_RECONCILED
360
16B10
  0
DICTIONARY
  5
16B11
330
1657C
100
AcDbDictionary
280
     1
281
     1
  3
ADSK_XREC_LAYER_RECONCILED
360
16B12
  0
DICTIONARY
  5
16AAB
330
1656E
100
AcDbDictionary
281
     1
  3
ACAD_LAYOUTSELFREF
350
16AAC
  0
DICTIONARY
  5
16AA9
330
1656A
100
AcDbDictionary
281
     1
  3
ACAD_LAYOUTSELFREF
350
16AAA
  0
XRECORD
  5
16B02
102
{ACAD_REACTORS
330
1655C
102
}
330
1655C
100
AcDbXrecord
280
     1
300
ACDLT
300
2014
300
ACDLT_F_S
  0
DICTIONARY
  5
16AE4
102
{ACAD_REACTORS
330
1655C
102
}
330
1655C
100
AcDbDictionary
281
     1
  0
DICTIONARY
  5
16AFD
102
{ACAD_REACTORS
330
1655C
102
}
330
1655C
100
AcDbDictionary
281
     1
  3
Imperial24
350
16AFE
  0
DICTIONARY
  5
1655D
102
{ACAD_REACTORS
330
1655C
102
}
330
1655C
100
AcDbDictionary
281
     1
  0
DICTIONARY
  5
16569
102
{ACAD_REACTORS
330
1655C
102
}
330
1655C
100
AcDbDictionary
281
     1
  3
Model
350
16AFF
  3
レイアウト1
350
16B00
  0
DICTIONARY
  5
16AB2
102
{ACAD_REACTORS
330
1655C
102
}
330
1655C
100
AcDbDictionary
281
     1
  3
ByBlock
350
16ABB
  3
ByLayer
350
16AB3
  3
Global
350
16AC3
  0
DICTIONARY
  5
16AF9
102
{ACAD_REACTORS
330
1655C
102
}
330
1655C
100
AcDbDictionary
281
     1
  3
Standard
350
16AFA
  0
DICTIONARY
  5
16566
102
{ACAD_REACTORS
330
1655C
102
}
330
1655C
100
AcDbDictionary
281
     1
  3
STANDARD
350
16567
  0
DICTIONARY
  5
16568
102
{ACAD_REACTORS
330
1655C
102
}
330
1655C
100
AcDbDictionary
281
     1
  0
ACDBDICTIONARYWDFLT
  5
16AB0
102
{ACAD_REACTORS
330
1655C
102
}
330
1655C
100
AcDbDictionary
281
     1
  3
Normal
350
16AB1
100
AcDbDictionaryWithDefault
340
16AB1
  0
DICTIONARY
  5
16AE7
102
{ACAD_REACTORS
330
1655C
102
}
330
1655C
100
AcDbDictionary
281
     1
  3
A0
350
16AE8
  3
A1
350
16AE9
  3
A2
350
16AEA
  3
A3
350
16AEB
  3
A4
350
16AEC
  3
A5
350
16AED
  3
A6
350
16AEE
  3
A7
350
16AEF
  3
A8
350
16AF0
  3
A9
350
16AF1
  3
B0
350
16AF2
  3
B1
350
16AF3
  3
B2
350
16AF4
  3
B3
350
16AF5
  3
B4
350
16AF6
  3
B5
350
16AF7
  3
B6
350
16AF8
  0
DICTIONARY
  5
16AFB
102
{ACAD_REACTORS
330
1655C
102
}
330
1655C
100
AcDbDictionary
281
     1
  3
Imperial24
350
16AFC
  0
DICTIONARY
  5
16AE5
102
{ACAD_REACTORS
330
1655C
102
}
330
1655C
100
AcDbDictionary
281
     1
  3
Standard
350
16AE6
  0
DICTIONARY
  5
16ACB
102
{ACAD_REACTORS
330
1655C
102
}
330
1655C
100
AcDbDictionary
281
     1
  3
2dWireframe
350
16AD1
  3
Basic
350
16AD0
  3
Brighten
350
16AD7
  3
ColorChange
350
16ADB
  3
Conceptual
350
16AD4
  3
Dim
350
16AD6
  3
EdgeColorOff
350
16AE3
  3
Facepattern
350
16ADA
  3
Flat
350
16ACC
  3
FlatWithEdges
350
16ACD
  3
Gouraud
350
16ACE
  3
GouraudWithEdges
350
16ACF
  3
Hidden
350
16AD3
  3
JitterOff
350
16AE1
  3
Linepattern
350
16AD9
  3
OverhangOff
350
16AE2
  3
Realistic
350
16AD5
  3
Shaded
350
16AE0
  3
Shaded with edges
350
16ADF
  3
Shades of Gray
350
16ADC
  3
Sketchy
350
16ADD
  3
Thicken
350
16AD8
  3
Wireframe
350
16AD2
  3
X-Ray
350
16ADE
  0
XRECORD
  5
16B20
102
{ACAD_REACTORS
330
1655C
102
}
330
1655C
100
AcDbXrecord
280
     1
 90
        1
330
16AE6
  0
DICTIONARY
  5
16B13
102
{ACAD_REACTORS
330
1655C
102
}
330
1655C
100
AcDbDictionary
281
     1
  3
CANNOSCALE
350
16B18
  3
CMLEADERSTYLE
350
16B15
  3
CTABLESTYLE
350
16B14
  3
CVIEWDETAILSTYLE
350
16B16
  3
CVIEWSECTIONSTYLE
350
16B17
  3
DIMASSOC
350
16B1B
  3
INDEXCTL
350
16B1A
  3
SORTENTS
350
16B19
  3
XCLIPFRAME
350
16B1C
  0
XRECORD
  5
16B21
102
{ACAD_REACTORS
330
1655C
102
}
330
1655C
100
AcDbXrecord
280
     1
  1
DWGPROPS COOKIE
  2

  3

  4

  6

  7

  8
Yoshitsune
  9

300
=
301
=
302
=
303
=
304
=
305
=
306
=
307
=
308
=
309
=
 40
0.0000144675925926
 41
2451263.699533912
 42
2457192.661633137
  1

 90
        0
  0
XRECORD
  5
16B04
102
{ACAD_REACTORS
330
16B03
102
}
330
16B03
100
AcDbXrecord
280
     1
290
     1
  0
XRECORD
  5
16B06
102
{ACAD_REACTORS
330
16B05
102
}
330
16B05
100
AcDbXrecord
280
     1
290
     1
  0
XRECORD
  5
16B08
102
{ACAD_REACTORS
330
16B07
102
}
330
16B07
100
AcDbXrecord
280
     1
290
     1
  0
XRECORD
  5
16B0A
102
{ACAD_REACTORS
330
16B09
102
}
330
16B09
100
AcDbXrecord
280
     1
290
     1
  0
XRECORD
  5
16B0C
102
{ACAD_REACTORS
330
16B0B
102
}
330
16B0B
100
AcDbXrecord
280
     1
290
     1
  0
XRECORD
  5
16B0E
102
{ACAD_REACTORS
330
16B0D
102
}
330
16B0D
100
AcDbXrecord
280
     1
290
     1
  0
XRECORD
  5
16B10
102
{ACAD_REACTORS
330
16B0F
102
}
330
16B0F
100
AcDbXrecord
280
     1
290
     1
  0
XRECORD
  5
16B12
102
{ACAD_REACTORS
330
16B11
102
}
330
16B11
100
AcDbXrecord
280
     1
290
     1
  0
XRECORD
  5
16AAC
102
{ACAD_REACTORS
330
16AAB
102
}
330
16AAB
100
AcDbXrecord
280
     1
340
1656E
  0
XRECORD
  5
16AAA
102
{ACAD_REACTORS
330
16AA9
102
}
330
16AA9
100
AcDbXrecord
280
     1
340
1656A
  0
ACDBDETAILVIEWSTYLE
  5
16AFE
102
{ACAD_XDICTIONARY
360
16B59
102
}
102
{ACAD_REACTORS
330
16AFD
102
}
330
16AFD
100
AcDbModelDocViewStyle
 70
     0
  3
Imperial24
290
     0
100
AcDbDetailViewStyle
 70
     0
 71
     0
 90
        3
 71
     1
340
16561
 40
0.24
340
0
 40
0.24
300

 40
0.36
280
     3
 71
     2
340
16565
 90
       25
 71
     3
340
16561
 40
0.24
 90
        1
 40
0.75
 90
        1
300
%<\AcVar ViewType \f "%tc1">% %<\AcVar ViewDetailId>%\PSCALE %<\AcVar ViewScale \f "%sn">%
 71
     4
340
16565
 90
       25
340
16565
 90
       25
280
     0
  0
LAYOUT
  5
16AFF
102
{ACAD_XDICTIONARY
360
16B5B
102
}
102
{ACAD_REACTORS
330
16569
102
}
330
16569
100
AcDbPlotSettings
  1

  2
Canon LBP9100C
  4

  6

 40
0.0
 41
0.0
 42
0.0
 43
0.0
 44
0.0
 45
0.0
 46
0.0
 47
0.0
 48
0.0
 49
0.0
140
0.0
141
0.0
142
1.0
143
1.0
 70
  1712
 72
     0
 73
     0
 74
     0
  7

 75
     0
147
1.0
148
0.0
149
0.0
100
AcDbLayout
  1
Model
 70
     1
 71
     0
 10
0.0
 20
0.0
 11
12.0
 21
9.0
 12
0.0
 22
0.0
 32
0.0
 14
0.0
 24
0.0
 34
0.0
 15
0.0
 25
0.0
 35
0.0
146
0.0
 13
0.0
 23
0.0
 33
0.0
 16
1.0
 26
0.0
 36
0.0
 17
0.0
 27
1.0
 37
0.0
 76
     0
330
1656E
331
16AA8
  0
LAYOUT
  5
16B00
102
{ACAD_XDICTIONARY
360
16B5D
102
}
102
{ACAD_REACTORS
330
16569
102
}
330
16569
100
AcDbPlotSettings
  1

  2
Canon LBP9100C
  4

  6

 40
0.0
 41
0.0
 42
0.0
 43
0.0
 44
0.0
 45
0.0
 46
0.0
 47
0.0
 48
0.0
 49
0.0
140
0.0
141
0.0
142
1.0
143
1.0
 70
   688
 72
     0
 73
     0
 74
     5
  7

 75
    16
147
1.0
148
0.0
149
0.0
100
AcDbLayout
  1
レイアウト1
 70
     0
 71
     1
 10
0.0
 20
0.0
 11
420.0
 21
297.0
 12
0.0
 22
0.0
 32
0.0
 14
1.000000000000000E+20
 24
1.000000000000000E+20
 34
1.000000000000000E+20
 15
-1.000000000000000E+20
 25
-1.000000000000000E+20
 35
-1.000000000000000E+20
146
0.0
 13
0.0
 23
0.0
 33
0.0
 16
1.0
 26
0.0
 36
0.0
 17
0.0
 27
1.0
 37
0.0
 76
     0
330
1656A
  0
MATERIAL
  5
16ABB
102
{ACAD_XDICTIONARY
360
16ABC
102
}
102
{ACAD_REACTORS
330
16AB2
102
}
330
16AB2
100
AcDbMaterial
  1
ByBlock
 72
     0
 43
0.0208333333333333
 43
0.0
 43
0.0
 43
0.0
 43
0.0
 43
0.0208333333333333
 43
0.0
 43
0.0
 43
0.0
 43
0.0
 43
1.0
 43
0.0
 43
0.0
 43
0.0
 43
0.0
 43
1.0
 77
     0
 47
0.0208333333333333
 47
0.0
 47
0.0
 47
0.0
 47
0.0
 47
0.0208333333333333
 47
0.0
 47
0.0
 47
0.0
 47
0.0
 47
1.0
 47
0.0
 47
0.0
 47
0.0
 47
0.0
 47
1.0
171
     0
 49
0.0208333333333333
 49
0.0
 49
0.0
 49
0.0
 49
0.0
 49
0.0208333333333333
 49
0.0
 49
0.0
 49
0.0
 49
0.0
 49
1.0
 49
0.0
 49
0.0
 49
0.0
 49
0.0
 49
1.0
175
     0
142
0.0208333333333333
142
0.0
142
0.0
142
0.0
142
0.0
142
0.0208333333333333
142
0.0
142
0.0
142
0.0
142
0.0
142
1.0
142
0.0
142
0.0
142
0.0
142
0.0
142
1.0
179
     0
144
0.0208333333333333
144
0.0
144
0.0
144
0.0
144
0.0
144
0.0208333333333333
144
0.0
144
0.0
144
0.0
144
0.0
144
1.0
144
0.0
144
0.0
144
0.0
144
0.0
144
1.0
147
0.0208333333333333
147
0.0
147
0.0
147
0.0
147
0.0
147
0.0208333333333333
147
0.0
147
0.0
147
0.0
147
0.0
147
1.0
147
0.0
147
0.0
147
0.0
147
0.0
147
1.0
  0
MATERIAL
  5
16AB3
102
{ACAD_XDICTIONARY
360
16AB4
102
}
102
{ACAD_REACTORS
330
16AB2
102
}
330
16AB2
100
AcDbMaterial
  1
ByLayer
 72
     0
 43
0.0208333333333333
 43
0.0
 43
0.0
 43
0.0
 43
0.0
 43
0.0208333333333333
 43
0.0
 43
0.0
 43
0.0
 43
0.0
 43
1.0
 43
0.0
 43
0.0
 43
0.0
 43
0.0
 43
1.0
 77
     0
 47
0.0208333333333333
 47
0.0
 47
0.0
 47
0.0
 47
0.0
 47
0.0208333333333333
 47
0.0
 47
0.0
 47
0.0
 47
0.0
 47
1.0
 47
0.0
 47
0.0
 47
0.0
 47
0.0
 47
1.0
171
     0
 49
0.0208333333333333
 49
0.0
 49
0.0
 49
0.0
 49
0.0
 49
0.0208333333333333
 49
0.0
 49
0.0
 49
0.0
 49
0.0
 49
1.0
 49
0.0
 49
0.0
 49
0.0
 49
0.0
 49
1.0
175
     0
142
0.0208333333333333
142
0.0
142
0.0
142
0.0
142
0.0
142
0.0208333333333333
142
0.0
142
0.0
142
0.0
142
0.0
142
1.0
142
0.0
142
0.0
142
0.0
142
0.0
142
1.0
179
     0
144
0.0208333333333333
144
0.0
144
0.0
144
0.0
144
0.0
144
0.0208333333333333
144
0.0
144
0.0
144
0.0
144
0.0
144
1.0
144
0.0
144
0.0
144
0.0
144
0.0
144
1.0
147
0.0208333333333333
147
0.0
147
0.0
147
0.0
147
0.0
147
0.0208333333333333
147
0.0
147
0.0
147
0.0
147
0.0
147
1.0
147
0.0
147
0.0
147
0.0
147
0.0
147
1.0
  0
MATERIAL
  5
16AC3
102
{ACAD_XDICTIONARY
360
16AC4
102
}
102
{ACAD_REACTORS
330
16AB2
102
}
330
16AB2
100
AcDbMaterial
  1
Global
 72
     0
 43
0.0208333333333333
 43
0.0
 43
0.0
 43
0.0
 43
0.0
 43
0.0208333333333333
 43
0.0
 43
0.0
 43
0.0
 43
0.0
 43
1.0
 43
0.0
 43
0.0
 43
0.0
 43
0.0
 43
1.0
 77
     0
 47
0.0208333333333333
 47
0.0
 47
0.0
 47
0.0
 47
0.0
 47
0.0208333333333333
 47
0.0
 47
0.0
 47
0.0
 47
0.0
 47
1.0
 47
0.0
 47
0.0
 47
0.0
 47
0.0
 47
1.0
171
     0
 49
0.0208333333333333
 49
0.0
 49
0.0
 49
0.0
 49
0.0
 49
0.0208333333333333
 49
0.0
 49
0.0
 49
0.0
 49
0.0
 49
1.0
 49
0.0
 49
0.0
 49
0.0
 49
0.0
 49
1.0
175
     0
142
0.0208333333333333
142
0.0
142
0.0
142
0.0
142
0.0
142
0.0208333333333333
142
0.0
142
0.0
142
0.0
142
0.0
142
1.0
142
0.0
142
0.0
142
0.0
142
0.0
142
1.0
179
     0
144
0.0208333333333333
144
0.0
144
0.0
144
0.0
144
0.0
144
0.0208333333333333
144
0.0
144
0.0
144
0.0
144
0.0
144
1.0
144
0.0
144
0.0
144
0.0
144
0.0
144
1.0
147
0.0208333333333333
147
0.0
147
0.0
147
0.0
147
0.0
147
0.0208333333333333
147
0.0
147
0.0
147
0.0
147
0.0
147
1.0
147
0.0
147
0.0
147
0.0
147
0.0
147
1.0
  0
MLEADERSTYLE
  5
16AFA
102
{ACAD_REACTORS
330
16AF9
102
}
330
16AF9
100
AcDbMLeaderStyle
170
     2
171
     1
172
     0
 90
        2
 40
0.0
 41
0.0
173
     1
 91
-1056964608
340
16563
 92
       -2
290
     1
 42
0.09
291
     1
 43
0.36
  3
Standard
 44
0.18
300

342
16561
174
     1
178
     6
175
     1
176
     0
 93
-1056964608
 45
0.18
292
     0
297
     0
 46
0.18
 94
-1056964608
 47
1.0
 49
1.0
140
1.0
293
     1
141
0.0
294
     1
177
     0
142
1.0
295
     0
296
     0
143
0.125
1001
ACAD_MLEADERVER
1070
     2
  0
MLINESTYLE
  5
16567
102
{ACAD_REACTORS
330
16566
102
}
330
16566
100
AcDbMlineStyle
  2
STANDARD
 70
     0
  3

 62
   256
 51
90.0
 52
90.0
 71
     2
 49
0.5
 62
   256
  6
BYLAYER
 49
-0.5
 62
   256
  6
BYLAYER
  0
ACDBPLACEHOLDER
  5
16AB1
102
{ACAD_REACTORS
330
16AB0
102
}
330
16AB0
  0
SCALE
  5
16AE8
102
{ACAD_REACTORS
330
16AE7
102
}
330
16AE7
100
AcDbScale
 70
     0
300
1:1
140
1.0
141
1.0
290
     1
  0
SCALE
  5
16AE9
102
{ACAD_REACTORS
330
16AE7
102
}
330
16AE7
100
AcDbScale
 70
     0
300
1/128" = 1'-0"
140
0.0078125
141
12.0
290
     0
  0
SCALE
  5
16AEA
102
{ACAD_REACTORS
330
16AE7
102
}
330
16AE7
100
AcDbScale
 70
     0
300
1/64" = 1'-0"
140
0.015625
141
12.0
290
     0
  0
SCALE
  5
16AEB
102
{ACAD_REACTORS
330
16AE7
102
}
330
16AE7
100
AcDbScale
 70
     0
300
1/32" = 1'-0"
140
0.03125
141
12.0
290
     0
  0
SCALE
  5
16AEC
102
{ACAD_REACTORS
330
16AE7
102
}
330
16AE7
100
AcDbScale
 70
     0
300
1/16" = 1'-0"
140
0.0625
141
12.0
290
     0
  0
SCALE
  5
16AED
102
{ACAD_REACTORS
330
16AE7
102
}
330
16AE7
100
AcDbScale
 70
     0
300
3/32" = 1'-0"
140
0.09375
141
12.0
290
     0
  0
SCALE
  5
16AEE
102
{ACAD_REACTORS
330
16AE7
102
}
330
16AE7
100
AcDbScale
 70
     0
300
1/8" = 1'-0"
140
0.125
141
12.0
290
     0
  0
SCALE
  5
16AEF
102
{ACAD_REACTORS
330
16AE7
102
}
330
16AE7
100
AcDbScale
 70
     0
300
3/16" = 1'-0"
140
0.1875
141
12.0
290
     0
  0
SCALE
  5
16AF0
102
{ACAD_REACTORS
330
16AE7
102
}
330
16AE7
100
AcDbScale
 70
     0
300
1/4" = 1'-0"
140
0.25
141
12.0
290
     0
  0
SCALE
  5
16AF1
102
{ACAD_REACTORS
330
16AE7
102
}
330
16AE7
100
AcDbScale
 70
     0
300
3/8" = 1'-0"
140
0.375
141
12.0
290
     0
  0
SCALE
  5
16AF2
102
{ACAD_REACTORS
330
16AE7
102
}
330
16AE7
100
AcDbScale
 70
     0
300
1/2" = 1'-0"
140
0.5
141
12.0
290
     0
  0
SCALE
  5
16AF3
102
{ACAD_REACTORS
330
16AE7
102
}
330
16AE7
100
AcDbScale
 70
     0
300
3/4" = 1'-0"
140
0.75
141
12.0
290
     0
  0
SCALE
  5
16AF4
102
{ACAD_REACTORS
330
16AE7
102
}
330
16AE7
100
AcDbScale
 70
     0
300
1" = 1'-0"
140
1.0
141
12.0
290
     0
  0
SCALE
  5
16AF5
102
{ACAD_REACTORS
330
16AE7
102
}
330
16AE7
100
AcDbScale
 70
     0
300
1-1/2" = 1'-0"
140
1.5
141
12.0
290
     0
  0
SCALE
  5
16AF6
102
{ACAD_REACTORS
330
16AE7
102
}
330
16AE7
100
AcDbScale
 70
     0
300
3" = 1'-0"
140
3.0
141
12.0
290
     0
  0
SCALE
  5
16AF7
102
{ACAD_REACTORS
330
16AE7
102
}
330
16AE7
100
AcDbScale
 70
     0
300
6" = 1'-0"
140
6.0
141
12.0
290
     0
  0
SCALE
  5
16AF8
102
{ACAD_REACTORS
330
16AE7
102
}
330
16AE7
100
AcDbScale
 70
     0
300
1'-0" = 1'-0"
140
12.0
141
12.0
290
     0
  0
ACDBSECTIONVIEWSTYLE
  5
16AFC
102
{ACAD_XDICTIONARY
360
16B57
102
}
102
{ACAD_REACTORS
330
16AFB
102
}
330
16AFB
100
AcDbModelDocViewStyle
 70
     0
  3
Imperial24
290
     0
100
AcDbSectionViewStyle
 70
     0
 71
     0
 90
       78
 71
     1
340
16561
 40
0.24
340
0
340
0
 40
0.24
300
I, O, Q, S, X, Z
 40
0.48
 90
        3
 40
0.18
 90
        1
 71
     2
340
16565
 90
       25
340
16565
 90
       50
 40
0.24
 40
0.0
 40
0.24
 71
     3
340
16561
 40
0.24
 90
        1
 40
0.75
 90
        1
300
%<\AcVar ViewType \f "%tc1">% %<\AcVar ViewSectionStartId>%-%<\AcVar ViewSectionEndId>%\PSCALE %<\AcVar ViewScale \f "%sn">%
 71
     4
300
ANSI31
 40
1.0
 90
        0
290
     0
290
     0
 90
        6
 40
0.0
 40
1.570796326794896
 40
0.2617993877991494
 40
1.308996938995747
 40
-0.2617993877991494
 40
1.832595714594046
  0
TABLESTYLE
  5
16AE6
102
{ACAD_XDICTIONARY
360
16B1E
102
}
102
{ACAD_REACTORS
330
16AE5
102
}
330
16AE5
100
AcDbTableStyle
  3
Standard
 70
     0
 71
     0
 40
0.06
 41
0.06
280
     0
281
     0
  7
STANDARD
140
0.18
170
     2
 62
     0
 63
     7
283
     0
274
    -2
284
     1
 64
     0
275
    -2
285
     1
 65
     0
276
    -2
286
     1
 66
     0
277
    -2
287
     1
 67
     0
278
    -2
288
     1
 68
     0
279
    -2
289
     1
 69
     0
  7
STANDARD
140
0.25
170
     5
 62
     0
 63
     7
283
     0
274
    -2
284
     1
 64
     0
275
    -2
285
     1
 65
     0
276
    -2
286
     1
 66
     0
277
    -2
287
     1
 67
     0
278
    -2
288
     1
 68
     0
279
    -2
289
     1
 69
     0
  7
STANDARD
140
0.18
170
     5
 62
     0
 63
     7
283
     0
274
    -2
284
     1
 64
     0
275
    -2
285
     1
 65
     0
276
    -2
286
     1
 66
     0
277
    -2
287
     1
 67
     0
278
    -2
288
     1
 68
     0
279
    -2
289
     1
 69
     0
  0
VISUALSTYLE
  5
16AD1
102
{ACAD_XDICTIONARY
360
16B2F
102
}
102
{ACAD_REACTORS
330
16ACB
102
}
330
16ACB
100
AcDbVisualStyle
  2
2dWireframe
 70
     4
 71
     0
 72
     2
 73
     0
 90
        0
 40
-0.6
 41
-30.0
 62
     5
 63
     7
 74
     1
 91
        4
 64
     7
 65
   257
 75
     1
175
     1
 42
1.0
 92
        0
 66
   257
 43
1.0
 76
     1
 77
     6
 78
     2
 67
     7
 79
     5
170
     0
171
     0
290
     0
174
     0
 93
        1
 44
0.0
173
     0
291
     0
 45
0.0
1001
ACAD
1000
AcDbSavedByObjectVersion
1070
     0
  0
VISUALSTYLE
  5
16AD0
102
{ACAD_XDICTIONARY
360
16B2D
102
}
102
{ACAD_REACTORS
330
16ACB
102
}
330
16ACB
100
AcDbVisualStyle
  2
Basic
 70
     7
 71
     1
 72
     0
 73
     1
 90
        0
 40
-0.6
 41
-30.0
 62
     5
 63
     7
 74
     0
 91
        4
 64
     7
 65
   257
 75
     1
175
     1
 42
1.0
 92
        8
 66
     7
 43
1.0
 76
     1
 77
     6
 78
     2
 67
     7
 79
     5
170
     0
171
     0
290
     0
174
     0
 93
        1
 44
0.0
173
     0
291
     1
 45
0.0
1001
ACAD
1000
AcDbSavedByObjectVersion
1070
     0
  0
VISUALSTYLE
  5
16AD7
102
{ACAD_XDICTIONARY
360
16B3B
102
}
102
{ACAD_REACTORS
330
16ACB
102
}
330
16ACB
100
AcDbVisualStyle
  2
Brighten
 70
    12
 71
     2
 72
     2
 73
     0
 90
        0
 40
-0.6
 41
-30.0
 62
     5
 63
     7
 74
     1
 91
        4
 64
     7
 65
   257
 75
     1
175
     1
 42
1.0
 92
        8
 66
     7
 43
1.0
 76
     1
 77
     6
 78
     2
 67
     7
 79
     5
170
     0
171
     0
290
     0
174
     0
 93
        1
 44
50.0
173
     0
291
     1
 45
0.0
1001
ACAD
1000
AcDbSavedByObjectVersion
1070
     0
  0
VISUALSTYLE
  5
16ADB
102
{ACAD_XDICTIONARY
360
16B43
102
}
102
{ACAD_REACTORS
330
16ACB
102
}
330
16ACB
100
AcDbVisualStyle
  2
ColorChange
 70
    16
 71
     2
 72
     2
 73
     3
 90
        0
 40
-0.6
 41
-30.0
 62
     5
 63
     8
 74
     1
 91
        4
 64
     7
 65
   257
 75
     1
175
     1
 42
1.0
 92
        8
 66
     8
 43
1.0
 76
     1
 77
     6
 78
     2
 67
     7
 79
     5
170
     0
171
     0
290
     0
174
     0
 93
        1
 44
0.0
173
     0
291
     1
 45
0.0
1001
ACAD
1000
AcDbSavedByObjectVersion
1070
     0
  0
VISUALSTYLE
  5
16AD4
102
{ACAD_XDICTIONARY
360
16B35
102
}
102
{ACAD_REACTORS
330
16ACB
102
}
330
16ACB
100
AcDbVisualStyle
  2
Conceptual
 70
     9
 71
     3
 72
     2
 73
     0
 90
        0
 40
-0.6
 41
-30.0
 62
     5
 63
     7
 74
     2
 91
        2
 64
     7
 65
   257
 75
     1
175
     1
 42
179.0
 92
        8
 66
     7
 43
1.0
 76
     1
 77
     6
 78
     2
 67
     7
 79
     3
170
     0
171
     0
290
     0
174
     0
 93
        1
 44
0.0
173
     0
291
     0
 45
0.0
1001
ACAD
1000
AcDbSavedByObjectVersion
1070
     0
  0
VISUALSTYLE
  5
16AD6
102
{ACAD_XDICTIONARY
360
16B39
102
}
102
{ACAD_REACTORS
330
16ACB
102
}
330
16ACB
100
AcDbVisualStyle
  2
Dim
 70
    11
 71
     2
 72
     2
 73
     0
 90
        0
 40
-0.6
 41
-30.0
 62
     5
 63
     7
 74
     1
 91
        4
 64
     7
 65
   257
 75
     1
175
     1
 42
1.0
 92
        8
 66
     7
 43
1.0
 76
     1
 77
     6
 78
     2
 67
     7
 79
     5
170
     0
171
     0
290
     0
174
     0
 93
        1
 44
-50.0
173
     0
291
     1
 45
0.0
1001
ACAD
1000
AcDbSavedByObjectVersion
1070
     0
  0
VISUALSTYLE
  5
16AE3
102
{ACAD_XDICTIONARY
360
16B53
102
}
102
{ACAD_REACTORS
330
16ACB
102
}
330
16ACB
100
AcDbVisualStyle
  2
EdgeColorOff
 70
    22
 71
     2
 72
     2
 73
     0
 90
        0
 40
-0.6
 41
-30.0
 62
     5
 63
     7
 74
     1
 91
        4
 64
     7
 65
   257
 75
     1
175
     1
 42
1.0
 92
        8
 66
     7
 43
1.0
 76
     1
 77
     6
 78
     2
 67
     7
 79
     5
170
     0
171
     0
290
     0
174
     0
 93
        1
 44
0.0
173
     0
291
     1
 45
0.0
1001
ACAD
1000
AcDbSavedByObjectVersion
1070
     0
  0
VISUALSTYLE
  5
16ADA
102
{ACAD_XDICTIONARY
360
16B41
102
}
102
{ACAD_REACTORS
330
16ACB
102
}
330
16ACB
100
AcDbVisualStyle
  2
Facepattern
 70
    15
 71
     2
 72
     2
 73
     0
 90
        0
 40
-0.6
 41
-30.0
 62
     5
 63
     7
 74
     1
 91
        4
 64
     7
 65
   257
 75
     1
175
     1
 42
1.0
 92
        8
 66
     7
 43
1.0
 76
     1
 77
     6
 78
     2
 67
     7
 79
     5
170
     0
171
     0
290
     0
174
     0
 93
        1
 44
0.0
173
     0
291
     1
 45
0.0
1001
ACAD
1000
AcDbSavedByObjectVersion
1070
     0
  0
VISUALSTYLE
  5
16ACC
102
{ACAD_XDICTIONARY
360
16B25
102
}
102
{ACAD_REACTORS
330
16ACB
102
}
330
16ACB
100
AcDbVisualStyle
  2
Flat
 70
     0
 71
     2
 72
     1
 73
     1
 90
        2
 40
-0.6
 41
30.0
 62
     5
 63
     7
 74
     0
 91
        0
 64
     7
 65
   257
 75
     1
175
     1
 42
1.0
 92
        8
 66
     7
 43
1.0
 76
     1
 77
     6
 78
     2
 67
     7
 79
     5
170
     0
171
     0
290
     0
174
     0
 93
       13
 44
0.0
173
     0
291
     1
 45
0.0
1001
ACAD
1000
AcDbSavedByObjectVersion
1070
     0
  0
VISUALSTYLE
  5
16ACD
102
{ACAD_XDICTIONARY
360
16B27
102
}
102
{ACAD_REACTORS
330
16ACB
102
}
330
16ACB
100
AcDbVisualStyle
  2
FlatWithEdges
 70
     1
 71
     2
 72
     1
 73
     1
 90
        2
 40
-0.6
 41
30.0
 62
     5
 63
     7
 74
     1
 91
        0
 64
     7
 65
   257
 75
     1
175
     1
 42
1.0
 92
        0
 66
   257
 43
1.0
 76
     1
 77
     6
 78
     2
 67
     7
 79
     5
170
     0
171
     0
290
     0
174
     0
 93
       13
 44
0.0
173
     0
291
     1
 45
0.0
1001
ACAD
1000
AcDbSavedByObjectVersion
1070
     0
  0
VISUALSTYLE
  5
16ACE
102
{ACAD_XDICTIONARY
360
16B29
102
}
102
{ACAD_REACTORS
330
16ACB
102
}
330
16ACB
100
AcDbVisualStyle
  2
Gouraud
 70
     2
 71
     2
 72
     2
 73
     1
 90
        2
 40
-0.6
 41
30.0
 62
     5
 63
     7
 74
     0
 91
        0
 64
     7
 65
   257
 75
     1
175
     1
 42
1.0
 92
        0
 66
     7
 43
1.0
 76
     1
 77
     6
 78
     2
 67
     7
 79
     5
170
     0
171
     0
290
     0
174
     0
 93
       13
 44
0.0
173
     0
291
     1
 45
0.0
1001
ACAD
1000
AcDbSavedByObjectVersion
1070
     0
  0
VISUALSTYLE
  5
16ACF
102
{ACAD_XDICTIONARY
360
16B2B
102
}
102
{ACAD_REACTORS
330
16ACB
102
}
330
16ACB
100
AcDbVisualStyle
  2
GouraudWithEdges
 70
     3
 71
     2
 72
     2
 73
     1
 90
        2
 40
-0.6
 41
30.0
 62
     5
 63
     7
 74
     1
 91
        0
 64
     7
 65
   257
 75
     1
175
     1
 42
1.0
 92
        0
 66
   257
 43
1.0
 76
     1
 77
     6
 78
     2
 67
     7
 79
     5
170
     0
171
     0
290
     0
174
     0
 93
       13
 44
0.0
173
     0
291
     1
 45
0.0
1001
ACAD
1000
AcDbSavedByObjectVersion
1070
     0
  0
VISUALSTYLE
  5
16AD3
102
{ACAD_XDICTIONARY
360
16B33
102
}
102
{ACAD_REACTORS
330
16ACB
102
}
330
16ACB
100
AcDbVisualStyle
  2
Hidden
 70
     6
 71
     1
 72
     2
 73
     2
 90
        0
 40
-0.6
 41
-30.0
 62
     5
 63
     7
 74
     2
 91
        2
 64
     7
 65
   257
 75
     2
175
     1
 42
40.0
 92
        0
 66
   257
 43
1.0
 76
     1
 77
     6
 78
     2
 67
     7
 79
     3
170
     0
171
     0
290
     0
174
     0
 93
        1
 44
0.0
173
     0
291
     0
 45
0.0
1001
ACAD
1000
AcDbSavedByObjectVersion
1070
     0
  0
VISUALSTYLE
  5
16AE1
102
{ACAD_XDICTIONARY
360
16B4F
102
}
102
{ACAD_REACTORS
330
16ACB
102
}
330
16ACB
100
AcDbVisualStyle
  2
JitterOff
 70
    20
 71
     2
 72
     2
 73
     0
 90
        0
 40
-0.6
 41
-30.0
 62
     5
 63
     7
 74
     1
 91
        4
 64
     7
 65
   257
 75
     1
175
     1
 42
1.0
 92
       10
 66
     7
 43
1.0
 76
     1
 77
     6
 78
     2
 67
     7
 79
     5
170
     0
171
     0
290
     0
174
     0
 93
        1
 44
0.0
173
     0
291
     1
 45
0.0
1001
ACAD
1000
AcDbSavedByObjectVersion
1070
     0
  0
VISUALSTYLE
  5
16AD9
102
{ACAD_XDICTIONARY
360
16B3F
102
}
102
{ACAD_REACTORS
330
16ACB
102
}
330
16ACB
100
AcDbVisualStyle
  2
Linepattern
 70
    14
 71
     2
 72
     2
 73
     0
 90
        0
 40
-0.6
 41
-30.0
 62
     5
 63
     7
 74
     1
 91
        4
 64
     7
 65
   257
 75
     7
175
     7
 42
1.0
 92
        8
 66
     7
 43
1.0
 76
     1
 77
     6
 78
     2
 67
     7
 79
     5
170
     0
171
     0
290
     0
174
     0
 93
        1
 44
0.0
173
     0
291
     1
 45
0.0
1001
ACAD
1000
AcDbSavedByObjectVersion
1070
     0
  0
VISUALSTYLE
  5
16AE2
102
{ACAD_XDICTIONARY
360
16B51
102
}
102
{ACAD_REACTORS
330
16ACB
102
}
330
16ACB
100
AcDbVisualStyle
  2
OverhangOff
 70
    21
 71
     2
 72
     2
 73
     0
 90
        0
 40
-0.6
 41
-30.0
 62
     5
 63
     7
 74
     1
 91
        4
 64
     7
 65
   257
 75
     1
175
     1
 42
1.0
 92
        9
 66
     7
 43
1.0
 76
     1
 77
     6
 78
     2
 67
     7
 79
     5
170
     0
171
     0
290
     0
174
     0
 93
        1
 44
0.0
173
     0
291
     1
 45
0.0
1001
ACAD
1000
AcDbSavedByObjectVersion
1070
     0
  0
VISUALSTYLE
  5
16AD5
102
{ACAD_XDICTIONARY
360
16B37
102
}
102
{ACAD_REACTORS
330
16ACB
102
}
330
16ACB
100
AcDbVisualStyle
  2
Realistic
 70
     8
 71
     2
 72
     3
 73
     0
 90
        2
 40
-0.6
 41
30.0
 62
     5
 63
     7
 74
     0
 91
        0
 64
     7
 65
   257
 75
     1
175
     1
 42
1.0
 92
        8
 66
   257
 43
1.0
 76
     1
 77
     6
 78
     2
 67
     7
 79
     3
170
     0
171
     0
290
     0
174
     0
 93
       13
 44
0.0
173
     0
291
     0
 45
0.0
1001
ACAD
1000
AcDbSavedByObjectVersion
1070
     0
  0
VISUALSTYLE
  5
16AE0
102
{ACAD_XDICTIONARY
360
16B4D
102
}
102
{ACAD_REACTORS
330
16ACB
102
}
330
16ACB
100
AcDbVisualStyle
  2
Shaded
 70
    27
 71
     2
 72
     2
 73
     1
 90
        2
 40
-0.6
 41
30.0
 62
     5
 63
     7
 74
     0
 91
        4
 64
     7
 65
   257
 75
     1
175
     1
 42
1.0
 92
        8
 66
   257
 43
1.0
 76
     1
 77
     6
 78
     2
 67
     8
 79
     3
170
     0
171
     0
290
     0
174
     0
 93
        5
 44
0.0
173
     0
291
     0
 45
0.0
1001
ACAD
1000
AcDbSavedByObjectVersion
1070
     0
  0
VISUALSTYLE
  5
16ADF
102
{ACAD_XDICTIONARY
360
16B4B
102
}
102
{ACAD_REACTORS
330
16ACB
102
}
330
16ACB
100
AcDbVisualStyle
  2
Shaded with edges
 70
    26
 71
     2
 72
     2
 73
     1
 90
        2
 40
-0.6
 41
30.0
 62
     5
 63
     7
 74
     1
 91
       10
 64
     7
 65
   257
 75
     2
175
     1
 42
1.0
 92
        8
 66
   257
 43
1.0
 76
     1
 77
     6
 78
     2
 67
     7
 79
     3
170
     0
171
     0
290
     0
174
     0
 93
        5
 44
0.0
173
     0
291
     0
 45
0.0
1001
ACAD
1000
AcDbSavedByObjectVersion
1070
     0
  0
VISUALSTYLE
  5
16ADC
102
{ACAD_XDICTIONARY
360
16B45
102
}
102
{ACAD_REACTORS
330
16ACB
102
}
330
16ACB
100
AcDbVisualStyle
  2
Shades of Gray
 70
    23
 71
     2
 72
     2
 73
     3
 90
        0
 40
-0.6
 41
-30.0
 62
     5
 63
     7
 74
     2
 91
        2
 64
     7
 65
     7
 75
     1
175
     1
 42
40.0
 92
        8
 66
     7
 43
1.0
 76
     1
 77
     6
 78
     2
 67
     7
 79
     3
170
     0
171
     0
290
     0
174
     0
 93
        1
 44
0.0
173
     0
291
     0
 45
0.0
1001
ACAD
1000
AcDbSavedByObjectVersion
1070
     0
  0
VISUALSTYLE
  5
16ADD
102
{ACAD_XDICTIONARY
360
16B47
102
}
102
{ACAD_REACTORS
330
16ACB
102
}
330
16ACB
100
AcDbVisualStyle
  2
Sketchy
 70
    24
 71
     1
 72
     2
 73
     2
 90
        0
 40
-0.6
 41
-30.0
 62
     5
 63
     7
 74
     2
 91
        2
 64
     7
 65
     7
 75
     1
175
     1
 42
40.0
 92
       11
 66
     7
 43
1.0
 76
     1
 77
     6
 78
     2
 67
     7
 79
     6
170
     0
171
     0
290
     0
174
     0
 93
        1
 44
0.0
173
     0
291
     0
 45
0.0
1001
ACAD
1000
AcDbSavedByObjectVersion
1070
     0
  0
VISUALSTYLE
  5
16AD8
102
{ACAD_XDICTIONARY
360
16B3D
102
}
102
{ACAD_REACTORS
330
16ACB
102
}
330
16ACB
100
AcDbVisualStyle
  2
Thicken
 70
    13
 71
     2
 72
     2
 73
     0
 90
        0
 40
-0.6
 41
-30.0
 62
     5
 63
     7
 74
     1
 91
        4
 64
     7
 65
   257
 75
     1
175
     1
 42
1.0
 92
       12
 66
     7
 43
1.0
 76
     1
 77
     6
 78
     2
 67
     7
 79
     5
170
     0
171
     0
290
     0
174
     0
 93
        1
 44
0.0
173
     0
291
     1
 45
0.0
1001
ACAD
1000
AcDbSavedByObjectVersion
1070
     0
  0
VISUALSTYLE
  5
16AD2
102
{ACAD_XDICTIONARY
360
16B31
102
}
102
{ACAD_REACTORS
330
16ACB
102
}
330
16ACB
100
AcDbVisualStyle
  2
Wireframe
 70
     5
 71
     0
 72
     2
 73
     0
 90
        0
 40
-0.6
 41
-30.0
 62
     5
 63
     7
 74
     1
 91
        4
 64
     7
 65
   257
 75
     1
175
     1
 42
1.0
 92
        0
 66
   257
 43
1.0
 76
     1
 77
     6
 78
     2
 67
     7
 79
     3
170
     0
171
     0
290
     0
174
     0
 93
        1
 44
0.0
173
     0
291
     0
 45
0.0
1001
ACAD
1000
AcDbSavedByObjectVersion
1070
     0
  0
VISUALSTYLE
  5
16ADE
102
{ACAD_XDICTIONARY
360
16B49
102
}
102
{ACAD_REACTORS
330
16ACB
102
}
330
16ACB
100
AcDbVisualStyle
  2
X-Ray
 70
    25
 71
     2
 72
     2
 73
     1
 90
        1
 40
0.5
 41
-30.0
 62
     5
 63
     7
 74
     1
 91
        0
 64
     7
 65
   257
 75
     1
175
     1
 42
1.0
 92
        8
 66
     7
 43
1.0
 76
     1
 77
     6
 78
     2
 67
     7
 79
     3
170
     0
171
     0
290
     0
174
     0
 93
       13
 44
0.0
173
     0
291
     0
 45
0.0
1001
ACAD
1000
AcDbSavedByObjectVersion
1070
     0
  0
DICTIONARYVAR
  5
16B18
102
{ACAD_REACTORS
330
16B13
102
}
330
16B13
100
DictionaryVariables
280
     0
  1
1:1
  0
DICTIONARYVAR
  5
16B15
102
{ACAD_REACTORS
330
16B13
102
}
330
16B13
100
DictionaryVariables
280
     0
  1
STANDARD
  0
DICTIONARYVAR
  5
16B14
102
{ACAD_REACTORS
330
16B13
102
}
330
16B13
100
DictionaryVariables
280
     0
  1
STANDARD
  0
DICTIONARYVAR
  5
16B16
102
{ACAD_REACTORS
330
16B13
102
}
330
16B13
100
DictionaryVariables
280
     0
  1
Imperial24
  0
DICTIONARYVAR
  5
16B17
102
{ACAD_REACTORS
330
16B13
102
}
330
16B13
100
DictionaryVariables
280
     0
  1
Imperial24
  0
DICTIONARYVAR
  5
16B1B
102
{ACAD_REACTORS
330
16B13
102
}
330
16B13
100
DictionaryVariables
280
     0
  1
1
  0
DICTIONARYVAR
  5
16B1A
102
{ACAD_REACTORS
330
16B13
102
}
330
16B13
100
DictionaryVariables
280
     0
  1
0
  0
DICTIONARYVAR
  5
16B19
102
{ACAD_REACTORS
330
16B13
102
}
330
16B13
100
DictionaryVariables
280
     0
  1
127
  0
DICTIONARYVAR
  5
16B1C
102
{ACAD_REACTORS
330
16B13
102
}
330
16B13
100
DictionaryVariables
280
     0
  1
2
  0
DICTIONARY
  5
16B59
330
16AFE
100
AcDbDictionary
280
     1
281
     1
  3
ACAD_XREC_ROUNDTRIP
360
16B5A
  0
DICTIONARY
  5
16B5B
330
16AFF
100
AcDbDictionary
280
     1
281
     1
  3
ACAD_XREC_ROUNDTRIP
360
16B5C
  0
DICTIONARY
  5
16B5D
330
16B00
100
AcDbDictionary
280
     1
281
     1
  3
ACAD_XREC_ROUNDTRIP
360
16B5E
  0
DICTIONARY
  5
16ABC
330
16ABB
100
AcDbDictionary
280
     1
281
     1
  3
ACAD_XREC_ROUNDTRIP
360
16B23
  3
BUMPTILE
360
16ABE
  3
DIFFUSETILE
360
16ABD
  3
OPACITYTILE
360
16AC1
  3
REFLECTIONTILE
360
16AC0
  3
REFRACTIONTILE
360
16AC2
  3
SPECULARTILE
360
16ABF
  0
DICTIONARY
  5
16AB4
330
16AB3
100
AcDbDictionary
280
     1
281
     1
  3
ACAD_XREC_ROUNDTRIP
360
16B22
  3
BUMPTILE
360
16AB6
  3
DIFFUSETILE
360
16AB5
  3
OPACITYTILE
360
16AB9
  3
REFLECTIONTILE
360
16AB8
  3
REFRACTIONTILE
360
16ABA
  3
SPECULARTILE
360
16AB7
  0
DICTIONARY
  5
16AC4
330
16AC3
100
AcDbDictionary
280
     1
281
     1
  3
ACAD_XREC_ROUNDTRIP
360
16B24
  3
BUMPTILE
360
16AC6
  3
DIFFUSETILE
360
16AC5
  3
OPACITYTILE
360
16AC9
  3
REFLECTIONTILE
360
16AC8
  3
REFRACTIONTILE
360
16ACA
  3
SPECULARTILE
360
16AC7
  0
DICTIONARY
  5
16B57
330
16AFC
100
AcDbDictionary
280
     1
281
     1
  3
ACAD_XREC_ROUNDTRIP
360
16B58
  0
DICTIONARY
  5
16B1E
330
16AE6
100
AcDbDictionary
280
     1
281
     1
  3
ACAD_ROUNDTRIP_2008_TABLESTYLE_CELLSTYLEMAP
360
16B1F
  3
ACAD_XREC_ROUNDTRIP
360
16B55
  0
DICTIONARY
  5
16B2F
330
16AD1
100
AcDbDictionary
280
     1
281
     1
  3
ACAD_XREC_ROUNDTRIP
360
16B30
  0
DICTIONARY
  5
16B2D
330
16AD0
100
AcDbDictionary
280
     1
281
     1
  3
ACAD_XREC_ROUNDTRIP
360
16B2E
  0
DICTIONARY
  5
16B3B
330
16AD7
100
AcDbDictionary
280
     1
281
     1
  3
ACAD_XREC_ROUNDTRIP
360
16B3C
  0
DICTIONARY
  5
16B43
330
16ADB
100
AcDbDictionary
280
     1
281
     1
  3
ACAD_XREC_ROUNDTRIP
360
16B44
  0
DICTIONARY
  5
16B35
330
16AD4
100
AcDbDictionary
280
     1
281
     1
  3
ACAD_XREC_ROUNDTRIP
360
16B36
  0
DICTIONARY
  5
16B39
330
16AD6
100
AcDbDictionary
280
     1
281
     1
  3
ACAD_XREC_ROUNDTRIP
360
16B3A
  0
DICTIONARY
  5
16B53
330
16AE3
100
AcDbDictionary
280
     1
281
     1
  3
ACAD_XREC_ROUNDTRIP
360
16B54
  0
DICTIONARY
  5
16B41
330
16ADA
100
AcDbDictionary
280
     1
281
     1
  3
ACAD_XREC_ROUNDTRIP
360
16B42
  0
DICTIONARY
  5
16B25
330
16ACC
100
AcDbDictionary
280
     1
281
     1
  3
ACAD_XREC_ROUNDTRIP
360
16B26
  0
DICTIONARY
  5
16B27
330
16ACD
100
AcDbDictionary
280
     1
281
     1
  3
ACAD_XREC_ROUNDTRIP
360
16B28
  0
DICTIONARY
  5
16B29
330
16ACE
100
AcDbDictionary
280
     1
281
     1
  3
ACAD_XREC_ROUNDTRIP
360
16B2A
  0
DICTIONARY
  5
16B2B
330
16ACF
100
AcDbDictionary
280
     1
281
     1
  3
ACAD_XREC_ROUNDTRIP
360
16B2C
  0
DICTIONARY
  5
16B33
330
16AD3
100
AcDbDictionary
280
     1
281
     1
  3
ACAD_XREC_ROUNDTRIP
360
16B34
  0
DICTIONARY
  5
16B4F
330
16AE1
100
AcDbDictionary
280
     1
281
     1
  3
ACAD_XREC_ROUNDTRIP
360
16B50
  0
DICTIONARY
  5
16B3F
330
16AD9
100
AcDbDictionary
280
     1
281
     1
  3
ACAD_XREC_ROUNDTRIP
360
16B40
  0
DICTIONARY
  5
16B51
330
16AE2
100
AcDbDictionary
280
     1
281
     1
  3
ACAD_XREC_ROUNDTRIP
360
16B52
  0
DICTIONARY
  5
16B37
330
16AD5
100
AcDbDictionary
280
     1
281
     1
  3
ACAD_XREC_ROUNDTRIP
360
16B38
  0
DICTIONARY
  5
16B4D
330
16AE0
100
AcDbDictionary
280
     1
281
     1
  3
ACAD_XREC_ROUNDTRIP
360
16B4E
  0
DICTIONARY
  5
16B4B
330
16ADF
100
AcDbDictionary
280
     1
281
     1
  3
ACAD_XREC_ROUNDTRIP
360
16B4C
  0
DICTIONARY
  5
16B45
330
16ADC
100
AcDbDictionary
280
     1
281
     1
  3
ACAD_XREC_ROUNDTRIP
360
16B46
  0
DICTIONARY
  5
16B47
330
16ADD
100
AcDbDictionary
280
     1
281
     1
  3
ACAD_XREC_ROUNDTRIP
360
16B48
  0
DICTIONARY
  5
16B3D
330
16AD8
100
AcDbDictionary
280
     1
281
     1
  3
ACAD_XREC_ROUNDTRIP
360
16B3E
  0
DICTIONARY
  5
16B31
330
16AD2
100
AcDbDictionary
280
     1
281
     1
  3
ACAD_XREC_ROUNDTRIP
360
16B32
  0
DICTIONARY
  5
16B49
330
16ADE
100
AcDbDictionary
280
     1
281
     1
  3
ACAD_XREC_ROUNDTRIP
360
16B4A
  0
XRECORD
  5
16B5A
102
{ACAD_REACTORS
330
16B59
102
}
330
16B59
100
AcDbXrecord
280
     1
102
DISPLAYNAME
  1
Imperial24
102
FLAGS
 90
        0
  0
XRECORD
  5
16B5C
102
{ACAD_REACTORS
330
16B5B
102
}
330
16B5B
100
AcDbXrecord
280
     1
102
SHADEPLOT
 70
     0
102
SHADEPLOTRESLEVEL
 70
     2
102
SHADEPLOTCUSTOMDPI
 70
   300
  0
XRECORD
  5
16B5E
102
{ACAD_REACTORS
330
16B5D
102
}
330
16B5D
100
AcDbXrecord
280
     1
102
SHADEPLOT
 70
     0
102
SHADEPLOTRESLEVEL
 70
     2
102
SHADEPLOTCUSTOMDPI
 70
   300
  0
XRECORD
  5
16B23
102
{ACAD_REACTORS
330
16ABC
102
}
330
16ABC
100
AcDbXrecord
280
     1
102
MATERIAL
148
0.0
149
0.0
149
0.0
 93
        0
 94
      127
282
     0
 72
     0
 77
     0
171
     0
175
     0
179
     0
273
     0
  0
XRECORD
  5
16ABE
102
{ACAD_REACTORS
330
16ABC
102
}
330
16ABC
100
AcDbXrecord
280
     1
270
     1
271
     1
  0
XRECORD
  5
16ABD
102
{ACAD_REACTORS
330
16ABC
102
}
330
16ABC
100
AcDbXrecord
280
     1
270
     1
271
     1
  0
XRECORD
  5
16AC1
102
{ACAD_REACTORS
330
16ABC
102
}
330
16ABC
100
AcDbXrecord
280
     1
270
     1
271
     1
  0
XRECORD
  5
16AC0
102
{ACAD_REACTORS
330
16ABC
102
}
330
16ABC
100
AcDbXrecord
280
     1
270
     1
271
     1
  0
XRECORD
  5
16AC2
102
{ACAD_REACTORS
330
16ABC
102
}
330
16ABC
100
AcDbXrecord
280
     1
270
     1
271
     1
  0
XRECORD
  5
16ABF
102
{ACAD_REACTORS
330
16ABC
102
}
330
16ABC
100
AcDbXrecord
280
     1
270
     1
271
     1
  0
XRECORD
  5
16B22
102
{ACAD_REACTORS
330
16AB4
102
}
330
16AB4
100
AcDbXrecord
280
     1
102
MATERIAL
148
0.0
149
0.0
149
0.0
 93
        0
 94
      127
282
     0
 72
     0
 77
     0
171
     0
175
     0
179
     0
273
     0
  0
XRECORD
  5
16AB6
102
{ACAD_REACTORS
330
16AB4
102
}
330
16AB4
100
AcDbXrecord
280
     1
270
     1
271
     1
  0
XRECORD
  5
16AB5
102
{ACAD_REACTORS
330
16AB4
102
}
330
16AB4
100
AcDbXrecord
280
     1
270
     1
271
     1
  0
XRECORD
  5
16AB9
102
{ACAD_REACTORS
330
16AB4
102
}
330
16AB4
100
AcDbXrecord
280
     1
270
     1
271
     1
  0
XRECORD
  5
16AB8
102
{ACAD_REACTORS
330
16AB4
102
}
330
16AB4
100
AcDbXrecord
280
     1
270
     1
271
     1
  0
XRECORD
  5
16ABA
102
{ACAD_REACTORS
330
16AB4
102
}
330
16AB4
100
AcDbXrecord
280
     1
270
     1
271
     1
  0
XRECORD
  5
16AB7
102
{ACAD_REACTORS
330
16AB4
102
}
330
16AB4
100
AcDbXrecord
280
     1
270
     1
271
     1
  0
XRECORD
  5
16B24
102
{ACAD_REACTORS
330
16AC4
102
}
330
16AC4
100
AcDbXrecord
280
     1
102
MATERIAL
148
0.0
149
0.0
149
0.0
 93
        0
 94
      127
282
     0
 72
     0
 77
     0
171
     0
175
     0
179
     0
273
     0
  0
XRECORD
  5
16AC6
102
{ACAD_REACTORS
330
16AC4
102
}
330
16AC4
100
AcDbXrecord
280
     1
270
     1
271
     1
  0
XRECORD
  5
16AC5
102
{ACAD_REACTORS
330
16AC4
102
}
330
16AC4
100
AcDbXrecord
280
     1
270
     1
271
     1
  0
XRECORD
  5
16AC9
102
{ACAD_REACTORS
330
16AC4
102
}
330
16AC4
100
AcDbXrecord
280
     1
270
     1
271
     1
  0
XRECORD
  5
16AC8
102
{ACAD_REACTORS
330
16AC4
102
}
330
16AC4
100
AcDbXrecord
280
     1
270
     1
271
     1
  0
XRECORD
  5
16ACA
102
{ACAD_REACTORS
330
16AC4
102
}
330
16AC4
100
AcDbXrecord
280
     1
270
     1
271
     1
  0
XRECORD
  5
16AC7
102
{ACAD_REACTORS
330
16AC4
102
}
330
16AC4
100
AcDbXrecord
280
     1
270
     1
271
     1
  0
XRECORD
  5
16B58
102
{ACAD_REACTORS
330
16B57
102
}
330
16B57
100
AcDbXrecord
280
     1
102
DISPLAYNAME
  1
Imperial24
102
FLAGS
 90
        0
  0
CELLSTYLEMAP
  5
16B1F
102
{ACAD_REACTORS
330
16B1E
102
}
330
16B1E
100
AcDbCellStyleMap
 90
        3
300
CELLSTYLE
  1
TABLEFORMAT_BEGIN
 90
        5
170
     1
 91
        0
 92
    32768
 62
   257
 93
        1
300
CONTENTFORMAT
  1
CONTENTFORMAT_BEGIN
 90
        0
 91
        0
 92
      512
 93
        0
300

 40
0.0
140
1.0
 94
        5
 62
     0
340
16561
144
0.25
309
CONTENTFORMAT_END
171
     0
 94
        0
309
TABLEFORMAT_END
  1
CELLSTYLE_BEGIN
 90
        1
 91
        1
300
_TITLE
309
CELLSTYLE_END
300
CELLSTYLE
  1
TABLEFORMAT_BEGIN
 90
        5
170
     1
 91
        0
 92
        0
 62
   257
 93
        1
300
CONTENTFORMAT
  1
CONTENTFORMAT_BEGIN
 90
        0
 91
        0
 92
      512
 93
        0
300

 40
0.0
140
1.0
 94
        5
 62
     0
340
16561
144
0.18
309
CONTENTFORMAT_END
171
     0
 94
        0
309
TABLEFORMAT_END
  1
CELLSTYLE_BEGIN
 90
        2
 91
        1
300
_HEADER
309
CELLSTYLE_END
300
CELLSTYLE
  1
TABLEFORMAT_BEGIN
 90
        5
170
     1
 91
        0
 92
        0
 62
   257
 93
        1
300
CONTENTFORMAT
  1
CONTENTFORMAT_BEGIN
 90
        0
 91
        0
 92
      512
 93
        0
300

 40
0.0
140
1.0
 94
        2
 62
     0
340
16561
144
0.18
309
CONTENTFORMAT_END
171
     0
 94
        0
309
TABLEFORMAT_END
  1
CELLSTYLE_BEGIN
 90
        3
 91
        2
300
_DATA
309
CELLSTYLE_END
  0
XRECORD
  5
16B55
102
{ACAD_REACTORS
330
16B1E
102
}
330
16B1E
100
AcDbXrecord
280
     1
102
ACAD_ROUNDTRIP_PRE2007_TABLESTYLE
 90
      512
 91
        0
  1

 92
      512
 93
        0
  2

 94
      512
 95
        0
  3

  0
XRECORD
  5
16B30
102
{ACAD_REACTORS
330
16B2F
102
}
330
16B2F
100
AcDbXrecord
280
     1
102
RTVSPost2010Prop28
280
     1
102
RTVSPost2010PropOp28
 70
     1
102
RTVSPost2010Prop29
280
     1
102
RTVSPost2010PropOp29
 70
     1
102
RTVSPost2010Prop30
280
     0
102
RTVSPost2010PropOp30
 70
     1
102
RTVSPost2010Prop31
280
     0
102
RTVSPost2010PropOp31
 70
     1
102
RTVSPost2010Prop32
280
     0
102
RTVSPost2010PropOp32
 70
     1
102
RTVSPost2010Prop33
280
     0
102
RTVSPost2010PropOp33
 70
     1
102
RTVSPost2010Prop34
280
     0
102
RTVSPost2010PropOp34
 70
     1
102
RTVSPost2010Prop35
280
     0
102
RTVSPost2010PropOp35
 70
     1
102
RTVSPost2010Prop36
280
     0
102
RTVSPost2010PropOp36
 70
     1
102
RTVSPost2010Prop37
 90
       50
102
RTVSPost2010PropOp37
 70
     1
102
RTVSPost2010Prop38
140
0.0
102
RTVSPost2010PropOp38
 70
     1
102
RTVSPost2010Prop39
140
1.0
102
RTVSPost2010PropOp39
 70
     1
102
RTVSPost2010Prop40
 90
        0
102
RTVSPost2010PropOp40
 70
     1
102
RTVSPost2010Prop41ColorIndex
 90
       18
102
RTVSPost2010Prop41ColorRGB
 90
        0
102
RTVSPost2010PropOp41
 70
     1
102
RTVSPost2010Prop42
 90
       50
102
RTVSPost2010PropOp42
 70
     1
102
RTVSPost2010Prop43
 90
        3
102
RTVSPost2010PropOp43
 70
     1
102
RTVSPost2010Prop44ColorIndex
 90
        5
102
RTVSPost2010Prop44ColorRGB
 90
      255
102
RTVSPost2010PropOp44
 70
     1
102
RTVSPost2010Prop45
280
     0
102
RTVSPost2010PropOp45
 70
     1
102
RTVSPost2010Prop46
 90
       50
102
RTVSPost2010PropOp46
 70
     1
102
RTVSPost2010Prop47
 90
       50
102
RTVSPost2010PropOp47
 70
     1
102
RTVSPost2010Prop48
 90
       50
102
RTVSPost2010PropOp48
 70
     1
102
RTVSPost2010Prop49
280
     0
102
RTVSPost2010PropOp49
 70
     1
102
RTVSPost2010Prop50
 90
       50
102
RTVSPost2010PropOp50
 70
     1
102
RTVSPost2010Prop51ColorIndex
 90
      256
102
RTVSPost2010Prop51ColorRGB
 90
-16777216
102
RTVSPost2010PropOp51
 70
     0
102
RTVSPost2010Prop52
140
1.0
102
RTVSPost2010PropOp52
 70
     0
102
RTVSPost2010Prop53
 90
        2
102
RTVSPost2010PropOp53
 70
     1
102
RTVSPost2010Prop54
  1
strokes_ogs.tif
102
RTVSPost2010PropOp54
 70
     1
102
RTVSPost2010Prop55
280
     0
102
RTVSPost2010PropOp55
 70
     1
102
RTVSPost2010Prop56
140
1.0
102
RTVSPost2010PropOp56
 70
     1
102
RTVSPost2010Prop57
140
1.0
102
RTVSPost2010PropOp57
 70
     1
102
RTVSPropertyOp0
 70
     1
102
RTVSPropertyOp1
 70
     1
102
RTVSPropertyOp2
 70
     1
102
RTVSPropertyOp3
 70
     1
102
RTVSPropertyOp4
 70
     1
102
RTVSPropertyOp5
 70
     1
102
RTVSPropertyOp6
 70
     1
102
RTVSPropertyOp7
 70
     1
102
RTVSPropertyOp8
 70
     1
102
RTVSPropertyOp9
 70
     1
102
RTVSPropertyOp10
 70
     1
102
RTVSPropertyOp11
 70
     1
102
RTVSPropertyOp12
 70
     1
102
RTVSPropertyOp13
 70
     1
102
RTVSPropertyOp14
 70
     1
102
RTVSPropertyOp15
 70
     1
102
RTVSPropertyOp16
 70
     1
102
RTVSPropertyOp17
 70
     1
102
RTVSPropertyOp18
 70
     1
102
RTVSPropertyOp19
 70
     1
102
RTVSPropertyOp20
 70
     1
102
RTVSPropertyOp21
 70
     1
102
RTVSPropertyOp22
 70
     1
102
RTVSPropertyOp23
 70
     1
102
RTVSPropertyOp24
 70
     1
102
RTVSPropertyOp25
 70
     1
102
RTVSPropertyOp26
 70
     1
102
RTVSPropertyOp27
 70
     1
102
RTVSPropertyOp28
 70
     1
102
RTVSPropertyOp29
 70
     1
102
RTVSPropertyOp30
 70
     1
102
RTVSPropertyOp31
 70
     1
102
RTVSPropertyOp32
 70
     1
102
RTVSPropertyOp33
 70
     1
102
RTVSPropertyOp34
 70
     1
102
RTVSPropertyOp35
 70
     1
102
RTVSPropertyOp36
 70
     1
102
RTVSPropertyOp37
 70
     1
102
RTVSPropertyOp38
 70
     1
102
RTVSPropertyOp39
 70
     1
102
RTVSPropertyOp40
 70
     1
102
RTVSPropertyOp41
 70
     1
102
RTVSPropertyOp42
 70
     1
102
RTVSPropertyOp43
 70
     1
102
RTVSPropertyOp44
 70
     1
102
RTVSPropertyOp45
 70
     1
102
RTVSPropertyOp46
 70
     1
102
RTVSPropertyOp47
 70
     1
102
RTVSPropertyOp48
 70
     1
102
RTVSPropertyOp49
 70
     1
102
RTVSPropertyOp50
 70
     1
102
RTVSPropertyOp51
 70
     0
102
RTVSPropertyOp52
 70
     0
102
RTVSPropertyOp53
 70
     1
102
RTVSPropertyOp54
 70
     1
102
RTVSPropertyOp55
 70
     1
102
RTVSPropertyOp56
 70
     1
102
RTVSPropertyOp57
 70
     1
102
RTVSPropertyOp58
 70
     1
102
RTVSPropertyOp59
 70
     1
102
RTVSPropertyOp60
 70
     1
102
RTVSPropertyOp61
 70
     1
102
RTVSPropertyOp62
 70
     1
  0
XRECORD
  5
16B2E
102
{ACAD_REACTORS
330
16B2D
102
}
330
16B2D
100
AcDbXrecord
280
     1
102
RTVSPost2010Prop28
280
     0
102
RTVSPost2010PropOp28
 70
     1
102
RTVSPost2010Prop29
280
     1
102
RTVSPost2010PropOp29
 70
     1
102
RTVSPost2010Prop30
280
     1
102
RTVSPost2010PropOp30
 70
     1
102
RTVSPost2010Prop31
280
     0
102
RTVSPost2010PropOp31
 70
     1
102
RTVSPost2010Prop32
280
     0
102
RTVSPost2010PropOp32
 70
     1
102
RTVSPost2010Prop33
280
     0
102
RTVSPost2010PropOp33
 70
     1
102
RTVSPost2010Prop34
280
     0
102
RTVSPost2010PropOp34
 70
     1
102
RTVSPost2010Prop35
280
     0
102
RTVSPost2010PropOp35
 70
     1
102
RTVSPost2010Prop36
280
     0
102
RTVSPost2010PropOp36
 70
     1
102
RTVSPost2010Prop37
 90
       50
102
RTVSPost2010PropOp37
 70
     1
102
RTVSPost2010Prop38
140
0.0
102
RTVSPost2010PropOp38
 70
     1
102
RTVSPost2010Prop39
140
1.0
102
RTVSPost2010PropOp39
 70
     1
102
RTVSPost2010Prop40
 90
        0
102
RTVSPost2010PropOp40
 70
     1
102
RTVSPost2010Prop41ColorIndex
 90
       18
102
RTVSPost2010Prop41ColorRGB
 90
        0
102
RTVSPost2010PropOp41
 70
     1
102
RTVSPost2010Prop42
 90
       50
102
RTVSPost2010PropOp42
 70
     1
102
RTVSPost2010Prop43
 90
        3
102
RTVSPost2010PropOp43
 70
     1
102
RTVSPost2010Prop44ColorIndex
 90
        5
102
RTVSPost2010Prop44ColorRGB
 90
      255
102
RTVSPost2010PropOp44
 70
     1
102
RTVSPost2010Prop45
280
     0
102
RTVSPost2010PropOp45
 70
     1
102
RTVSPost2010Prop46
 90
       50
102
RTVSPost2010PropOp46
 70
     1
102
RTVSPost2010Prop47
 90
       50
102
RTVSPost2010PropOp47
 70
     1
102
RTVSPost2010Prop48
 90
       50
102
RTVSPost2010PropOp48
 70
     1
102
RTVSPost2010Prop49
280
     0
102
RTVSPost2010PropOp49
 70
     1
102
RTVSPost2010Prop50
 90
       50
102
RTVSPost2010PropOp50
 70
     1
102
RTVSPost2010Prop51ColorIndex
 90
      256
102
RTVSPost2010Prop51ColorRGB
 90
-16777216
102
RTVSPost2010PropOp51
 70
     0
102
RTVSPost2010Prop52
140
1.0
102
RTVSPost2010PropOp52
 70
     0
102
RTVSPost2010Prop53
 90
        2
102
RTVSPost2010PropOp53
 70
     1
102
RTVSPost2010Prop54
  1
strokes_ogs.tif
102
RTVSPost2010PropOp54
 70
     1
102
RTVSPost2010Prop55
280
     0
102
RTVSPost2010PropOp55
 70
     1
102
RTVSPost2010Prop56
140
1.0
102
RTVSPost2010PropOp56
 70
     1
102
RTVSPost2010Prop57
140
1.0
102
RTVSPost2010PropOp57
 70
     1
102
RTVSPropertyOp0
 70
     1
102
RTVSPropertyOp1
 70
     1
102
RTVSPropertyOp2
 70
     1
102
RTVSPropertyOp3
 70
     1
102
RTVSPropertyOp4
 70
     1
102
RTVSPropertyOp5
 70
     1
102
RTVSPropertyOp6
 70
     1
102
RTVSPropertyOp7
 70
     1
102
RTVSPropertyOp8
 70
     1
102
RTVSPropertyOp9
 70
     1
102
RTVSPropertyOp10
 70
     1
102
RTVSPropertyOp11
 70
     1
102
RTVSPropertyOp12
 70
     1
102
RTVSPropertyOp13
 70
     1
102
RTVSPropertyOp14
 70
     1
102
RTVSPropertyOp15
 70
     1
102
RTVSPropertyOp16
 70
     1
102
RTVSPropertyOp17
 70
     1
102
RTVSPropertyOp18
 70
     1
102
RTVSPropertyOp19
 70
     1
102
RTVSPropertyOp20
 70
     1
102
RTVSPropertyOp21
 70
     1
102
RTVSPropertyOp22
 70
     1
102
RTVSPropertyOp23
 70
     1
102
RTVSPropertyOp24
 70
     1
102
RTVSPropertyOp25
 70
     1
102
RTVSPropertyOp26
 70
     1
102
RTVSPropertyOp27
 70
     1
102
RTVSPropertyOp28
 70
     1
102
RTVSPropertyOp29
 70
     1
102
RTVSPropertyOp30
 70
     1
102
RTVSPropertyOp31
 70
     1
102
RTVSPropertyOp32
 70
     1
102
RTVSPropertyOp33
 70
     1
102
RTVSPropertyOp34
 70
     1
102
RTVSPropertyOp35
 70
     1
102
RTVSPropertyOp36
 70
     1
102
RTVSPropertyOp37
 70
     1
102
RTVSPropertyOp38
 70
     1
102
RTVSPropertyOp39
 70
     1
102
RTVSPropertyOp40
 70
     1
102
RTVSPropertyOp41
 70
     1
102
RTVSPropertyOp42
 70
     1
102
RTVSPropertyOp43
 70
     1
102
RTVSPropertyOp44
 70
     1
102
RTVSPropertyOp45
 70
     1
102
RTVSPropertyOp46
 70
     1
102
RTVSPropertyOp47
 70
     1
102
RTVSPropertyOp48
 70
     1
102
RTVSPropertyOp49
 70
     1
102
RTVSPropertyOp50
 70
     1
102
RTVSPropertyOp51
 70
     0
102
RTVSPropertyOp52
 70
     0
102
RTVSPropertyOp53
 70
     1
102
RTVSPropertyOp54
 70
     1
102
RTVSPropertyOp55
 70
     1
102
RTVSPropertyOp56
 70
     1
102
RTVSPropertyOp57
 70
     1
102
RTVSPropertyOp58
 70
     1
102
RTVSPropertyOp59
 70
     1
102
RTVSPropertyOp60
 70
     1
102
RTVSPropertyOp61
 70
     1
102
RTVSPropertyOp62
 70
     1
  0
XRECORD
  5
16B3C
102
{ACAD_REACTORS
330
16B3B
102
}
330
16B3B
100
AcDbXrecord
280
     1
102
RTVSPost2010Prop28
280
     0
102
RTVSPost2010PropOp28
 70
     1
102
RTVSPost2010Prop29
280
     1
102
RTVSPost2010PropOp29
 70
     1
102
RTVSPost2010Prop30
280
     1
102
RTVSPost2010PropOp30
 70
     1
102
RTVSPost2010Prop31
280
     0
102
RTVSPost2010PropOp31
 70
     1
102
RTVSPost2010Prop32
280
     0
102
RTVSPost2010PropOp32
 70
     1
102
RTVSPost2010Prop33
280
     0
102
RTVSPost2010PropOp33
 70
     1
102
RTVSPost2010Prop34
280
     0
102
RTVSPost2010PropOp34
 70
     1
102
RTVSPost2010Prop35
280
     0
102
RTVSPost2010PropOp35
 70
     1
102
RTVSPost2010Prop36
280
     0
102
RTVSPost2010PropOp36
 70
     1
102
RTVSPost2010Prop37
 90
       50
102
RTVSPost2010PropOp37
 70
     1
102
RTVSPost2010Prop38
140
0.0
102
RTVSPost2010PropOp38
 70
     1
102
RTVSPost2010Prop39
140
1.0
102
RTVSPost2010PropOp39
 70
     1
102
RTVSPost2010Prop40
 90
        0
102
RTVSPost2010PropOp40
 70
     1
102
RTVSPost2010Prop41ColorIndex
 90
       18
102
RTVSPost2010Prop41ColorRGB
 90
        0
102
RTVSPost2010PropOp41
 70
     1
102
RTVSPost2010Prop42
 90
       50
102
RTVSPost2010PropOp42
 70
     1
102
RTVSPost2010Prop43
 90
        3
102
RTVSPost2010PropOp43
 70
     1
102
RTVSPost2010Prop44ColorIndex
 90
        5
102
RTVSPost2010Prop44ColorRGB
 90
      255
102
RTVSPost2010PropOp44
 70
     1
102
RTVSPost2010Prop45
280
     0
102
RTVSPost2010PropOp45
 70
     1
102
RTVSPost2010Prop46
 90
       50
102
RTVSPost2010PropOp46
 70
     1
102
RTVSPost2010Prop47
 90
       50
102
RTVSPost2010PropOp47
 70
     1
102
RTVSPost2010Prop48
 90
       50
102
RTVSPost2010PropOp48
 70
     1
102
RTVSPost2010Prop49
280
     0
102
RTVSPost2010PropOp49
 70
     1
102
RTVSPost2010Prop50
 90
       50
102
RTVSPost2010PropOp50
 70
     1
102
RTVSPost2010Prop51ColorIndex
 90
      256
102
RTVSPost2010Prop51ColorRGB
 90
-16777216
102
RTVSPost2010PropOp51
 70
     0
102
RTVSPost2010Prop52
140
1.0
102
RTVSPost2010PropOp52
 70
     0
102
RTVSPost2010Prop53
 90
        2
102
RTVSPost2010PropOp53
 70
     1
102
RTVSPost2010Prop54
  1
strokes_ogs.tif
102
RTVSPost2010PropOp54
 70
     1
102
RTVSPost2010Prop55
280
     0
102
RTVSPost2010PropOp55
 70
     1
102
RTVSPost2010Prop56
140
1.0
102
RTVSPost2010PropOp56
 70
     1
102
RTVSPost2010Prop57
140
1.0
102
RTVSPost2010PropOp57
 70
     1
102
RTVSPropertyOp0
 70
     1
102
RTVSPropertyOp1
 70
     1
102
RTVSPropertyOp2
 70
     1
102
RTVSPropertyOp3
 70
     1
102
RTVSPropertyOp4
 70
     1
102
RTVSPropertyOp5
 70
     1
102
RTVSPropertyOp6
 70
     1
102
RTVSPropertyOp7
 70
     1
102
RTVSPropertyOp8
 70
     1
102
RTVSPropertyOp9
 70
     1
102
RTVSPropertyOp10
 70
     1
102
RTVSPropertyOp11
 70
     1
102
RTVSPropertyOp12
 70
     1
102
RTVSPropertyOp13
 70
     1
102
RTVSPropertyOp14
 70
     1
102
RTVSPropertyOp15
 70
     1
102
RTVSPropertyOp16
 70
     1
102
RTVSPropertyOp17
 70
     1
102
RTVSPropertyOp18
 70
     1
102
RTVSPropertyOp19
 70
     1
102
RTVSPropertyOp20
 70
     1
102
RTVSPropertyOp21
 70
     1
102
RTVSPropertyOp22
 70
     1
102
RTVSPropertyOp23
 70
     1
102
RTVSPropertyOp24
 70
     1
102
RTVSPropertyOp25
 70
     1
102
RTVSPropertyOp26
 70
     1
102
RTVSPropertyOp27
 70
     1
102
RTVSPropertyOp28
 70
     1
102
RTVSPropertyOp29
 70
     1
102
RTVSPropertyOp30
 70
     1
102
RTVSPropertyOp31
 70
     1
102
RTVSPropertyOp32
 70
     1
102
RTVSPropertyOp33
 70
     1
102
RTVSPropertyOp34
 70
     1
102
RTVSPropertyOp35
 70
     1
102
RTVSPropertyOp36
 70
     1
102
RTVSPropertyOp37
 70
     1
102
RTVSPropertyOp38
 70
     1
102
RTVSPropertyOp39
 70
     1
102
RTVSPropertyOp40
 70
     1
102
RTVSPropertyOp41
 70
     1
102
RTVSPropertyOp42
 70
     1
102
RTVSPropertyOp43
 70
     1
102
RTVSPropertyOp44
 70
     1
102
RTVSPropertyOp45
 70
     1
102
RTVSPropertyOp46
 70
     1
102
RTVSPropertyOp47
 70
     1
102
RTVSPropertyOp48
 70
     1
102
RTVSPropertyOp49
 70
     1
102
RTVSPropertyOp50
 70
     1
102
RTVSPropertyOp51
 70
     0
102
RTVSPropertyOp52
 70
     0
102
RTVSPropertyOp53
 70
     1
102
RTVSPropertyOp54
 70
     1
102
RTVSPropertyOp55
 70
     1
102
RTVSPropertyOp56
 70
     1
102
RTVSPropertyOp57
 70
     1
102
RTVSPropertyOp58
 70
     1
102
RTVSPropertyOp59
 70
     1
102
RTVSPropertyOp60
 70
     1
102
RTVSPropertyOp61
 70
     1
102
RTVSPropertyOp62
 70
     1
  0
XRECORD
  5
16B44
102
{ACAD_REACTORS
330
16B43
102
}
330
16B43
100
AcDbXrecord
280
     1
102
RTVSPost2010Prop28
280
     0
102
RTVSPost2010PropOp28
 70
     1
102
RTVSPost2010Prop29
280
     1
102
RTVSPost2010PropOp29
 70
     1
102
RTVSPost2010Prop30
280
     1
102
RTVSPost2010PropOp30
 70
     1
102
RTVSPost2010Prop31
280
     0
102
RTVSPost2010PropOp31
 70
     1
102
RTVSPost2010Prop32
280
     0
102
RTVSPost2010PropOp32
 70
     1
102
RTVSPost2010Prop33
280
     0
102
RTVSPost2010PropOp33
 70
     1
102
RTVSPost2010Prop34
280
     0
102
RTVSPost2010PropOp34
 70
     1
102
RTVSPost2010Prop35
280
     0
102
RTVSPost2010PropOp35
 70
     1
102
RTVSPost2010Prop36
280
     0
102
RTVSPost2010PropOp36
 70
     1
102
RTVSPost2010Prop37
 90
       50
102
RTVSPost2010PropOp37
 70
     1
102
RTVSPost2010Prop38
140
0.0
102
RTVSPost2010PropOp38
 70
     1
102
RTVSPost2010Prop39
140
1.0
102
RTVSPost2010PropOp39
 70
     1
102
RTVSPost2010Prop40
 90
        0
102
RTVSPost2010PropOp40
 70
     1
102
RTVSPost2010Prop41ColorIndex
 90
       18
102
RTVSPost2010Prop41ColorRGB
 90
        0
102
RTVSPost2010PropOp41
 70
     1
102
RTVSPost2010Prop42
 90
       50
102
RTVSPost2010PropOp42
 70
     1
102
RTVSPost2010Prop43
 90
        3
102
RTVSPost2010PropOp43
 70
     1
102
RTVSPost2010Prop44ColorIndex
 90
        5
102
RTVSPost2010Prop44ColorRGB
 90
      255
102
RTVSPost2010PropOp44
 70
     1
102
RTVSPost2010Prop45
280
     0
102
RTVSPost2010PropOp45
 70
     1
102
RTVSPost2010Prop46
 90
       50
102
RTVSPost2010PropOp46
 70
     1
102
RTVSPost2010Prop47
 90
       50
102
RTVSPost2010PropOp47
 70
     1
102
RTVSPost2010Prop48
 90
       50
102
RTVSPost2010PropOp48
 70
     1
102
RTVSPost2010Prop49
280
     0
102
RTVSPost2010PropOp49
 70
     1
102
RTVSPost2010Prop50
 90
       50
102
RTVSPost2010PropOp50
 70
     1
102
RTVSPost2010Prop51ColorIndex
 90
      256
102
RTVSPost2010Prop51ColorRGB
 90
-16777216
102
RTVSPost2010PropOp51
 70
     0
102
RTVSPost2010Prop52
140
1.0
102
RTVSPost2010PropOp52
 70
     0
102
RTVSPost2010Prop53
 90
        2
102
RTVSPost2010PropOp53
 70
     1
102
RTVSPost2010Prop54
  1
strokes_ogs.tif
102
RTVSPost2010PropOp54
 70
     1
102
RTVSPost2010Prop55
280
     0
102
RTVSPost2010PropOp55
 70
     1
102
RTVSPost2010Prop56
140
1.0
102
RTVSPost2010PropOp56
 70
     1
102
RTVSPost2010Prop57
140
1.0
102
RTVSPost2010PropOp57
 70
     1
102
RTVSPropertyOp0
 70
     1
102
RTVSPropertyOp1
 70
     1
102
RTVSPropertyOp2
 70
     1
102
RTVSPropertyOp3
 70
     1
102
RTVSPropertyOp4
 70
     1
102
RTVSPropertyOp5
 70
     1
102
RTVSPropertyOp6
 70
     1
102
RTVSPropertyOp7
 70
     1
102
RTVSPropertyOp8
 70
     1
102
RTVSPropertyOp9
 70
     1
102
RTVSPropertyOp10
 70
     1
102
RTVSPropertyOp11
 70
     1
102
RTVSPropertyOp12
 70
     1
102
RTVSPropertyOp13
 70
     1
102
RTVSPropertyOp14
 70
     1
102
RTVSPropertyOp15
 70
     1
102
RTVSPropertyOp16
 70
     1
102
RTVSPropertyOp17
 70
     1
102
RTVSPropertyOp18
 70
     1
102
RTVSPropertyOp19
 70
     1
102
RTVSPropertyOp20
 70
     1
102
RTVSPropertyOp21
 70
     1
102
RTVSPropertyOp22
 70
     1
102
RTVSPropertyOp23
 70
     1
102
RTVSPropertyOp24
 70
     1
102
RTVSPropertyOp25
 70
     1
102
RTVSPropertyOp26
 70
     1
102
RTVSPropertyOp27
 70
     1
102
RTVSPropertyOp28
 70
     1
102
RTVSPropertyOp29
 70
     1
102
RTVSPropertyOp30
 70
     1
102
RTVSPropertyOp31
 70
     1
102
RTVSPropertyOp32
 70
     1
102
RTVSPropertyOp33
 70
     1
102
RTVSPropertyOp34
 70
     1
102
RTVSPropertyOp35
 70
     1
102
RTVSPropertyOp36
 70
     1
102
RTVSPropertyOp37
 70
     1
102
RTVSPropertyOp38
 70
     1
102
RTVSPropertyOp39
 70
     1
102
RTVSPropertyOp40
 70
     1
102
RTVSPropertyOp41
 70
     1
102
RTVSPropertyOp42
 70
     1
102
RTVSPropertyOp43
 70
     1
102
RTVSPropertyOp44
 70
     1
102
RTVSPropertyOp45
 70
     1
102
RTVSPropertyOp46
 70
     1
102
RTVSPropertyOp47
 70
     1
102
RTVSPropertyOp48
 70
     1
102
RTVSPropertyOp49
 70
     1
102
RTVSPropertyOp50
 70
     1
102
RTVSPropertyOp51
 70
     0
102
RTVSPropertyOp52
 70
     0
102
RTVSPropertyOp53
 70
     1
102
RTVSPropertyOp54
 70
     1
102
RTVSPropertyOp55
 70
     1
102
RTVSPropertyOp56
 70
     1
102
RTVSPropertyOp57
 70
     1
102
RTVSPropertyOp58
 70
     1
102
RTVSPropertyOp59
 70
     1
102
RTVSPropertyOp60
 70
     1
102
RTVSPropertyOp61
 70
     1
102
RTVSPropertyOp62
 70
     1
  0
XRECORD
  5
16B36
102
{ACAD_REACTORS
330
16B35
102
}
330
16B35
100
AcDbXrecord
280
     1
102
RTVSPost2010Prop28
280
     0
102
RTVSPost2010PropOp28
 70
     1
102
RTVSPost2010Prop29
280
     1
102
RTVSPost2010PropOp29
 70
     1
102
RTVSPost2010Prop30
280
     1
102
RTVSPost2010PropOp30
 70
     1
102
RTVSPost2010Prop31
280
     0
102
RTVSPost2010PropOp31
 70
     1
102
RTVSPost2010Prop32
280
     0
102
RTVSPost2010PropOp32
 70
     1
102
RTVSPost2010Prop33
280
     0
102
RTVSPost2010PropOp33
 70
     1
102
RTVSPost2010Prop34
280
     0
102
RTVSPost2010PropOp34
 70
     1
102
RTVSPost2010Prop35
280
     0
102
RTVSPost2010PropOp35
 70
     1
102
RTVSPost2010Prop36
280
     0
102
RTVSPost2010PropOp36
 70
     1
102
RTVSPost2010Prop37
 90
       50
102
RTVSPost2010PropOp37
 70
     1
102
RTVSPost2010Prop38
140
0.0
102
RTVSPost2010PropOp38
 70
     1
102
RTVSPost2010Prop39
140
1.0
102
RTVSPost2010PropOp39
 70
     1
102
RTVSPost2010Prop40
 90
        0
102
RTVSPost2010PropOp40
 70
     1
102
RTVSPost2010Prop41ColorIndex
 90
       18
102
RTVSPost2010Prop41ColorRGB
 90
        0
102
RTVSPost2010PropOp41
 70
     1
102
RTVSPost2010Prop42
 90
       50
102
RTVSPost2010PropOp42
 70
     1
102
RTVSPost2010Prop43
 90
        3
102
RTVSPost2010PropOp43
 70
     1
102
RTVSPost2010Prop44ColorIndex
 90
        5
102
RTVSPost2010Prop44ColorRGB
 90
      255
102
RTVSPost2010PropOp44
 70
     1
102
RTVSPost2010Prop45
280
     0
102
RTVSPost2010PropOp45
 70
     1
102
RTVSPost2010Prop46
 90
       50
102
RTVSPost2010PropOp46
 70
     1
102
RTVSPost2010Prop47
 90
       50
102
RTVSPost2010PropOp47
 70
     1
102
RTVSPost2010Prop48
 90
       50
102
RTVSPost2010PropOp48
 70
     1
102
RTVSPost2010Prop49
280
     0
102
RTVSPost2010PropOp49
 70
     1
102
RTVSPost2010Prop50
 90
       50
102
RTVSPost2010PropOp50
 70
     1
102
RTVSPost2010Prop51ColorIndex
 90
      256
102
RTVSPost2010Prop51ColorRGB
 90
-16777216
102
RTVSPost2010PropOp51
 70
     0
102
RTVSPost2010Prop52
140
1.0
102
RTVSPost2010PropOp52
 70
     0
102
RTVSPost2010Prop53
 90
        2
102
RTVSPost2010PropOp53
 70
     1
102
RTVSPost2010Prop54
  1
strokes_ogs.tif
102
RTVSPost2010PropOp54
 70
     1
102
RTVSPost2010Prop55
280
     0
102
RTVSPost2010PropOp55
 70
     1
102
RTVSPost2010Prop56
140
1.0
102
RTVSPost2010PropOp56
 70
     1
102
RTVSPost2010Prop57
140
1.0
102
RTVSPost2010PropOp57
 70
     1
102
RTVSPropertyOp0
 70
     1
102
RTVSPropertyOp1
 70
     1
102
RTVSPropertyOp2
 70
     1
102
RTVSPropertyOp3
 70
     1
102
RTVSPropertyOp4
 70
     1
102
RTVSPropertyOp5
 70
     1
102
RTVSPropertyOp6
 70
     1
102
RTVSPropertyOp7
 70
     1
102
RTVSPropertyOp8
 70
     1
102
RTVSPropertyOp9
 70
     1
102
RTVSPropertyOp10
 70
     1
102
RTVSPropertyOp11
 70
     1
102
RTVSPropertyOp12
 70
     1
102
RTVSPropertyOp13
 70
     1
102
RTVSPropertyOp14
 70
     1
102
RTVSPropertyOp15
 70
     1
102
RTVSPropertyOp16
 70
     1
102
RTVSPropertyOp17
 70
     1
102
RTVSPropertyOp18
 70
     1
102
RTVSPropertyOp19
 70
     1
102
RTVSPropertyOp20
 70
     1
102
RTVSPropertyOp21
 70
     1
102
RTVSPropertyOp22
 70
     1
102
RTVSPropertyOp23
 70
     1
102
RTVSPropertyOp24
 70
     1
102
RTVSPropertyOp25
 70
     1
102
RTVSPropertyOp26
 70
     1
102
RTVSPropertyOp27
 70
     1
102
RTVSPropertyOp28
 70
     1
102
RTVSPropertyOp29
 70
     1
102
RTVSPropertyOp30
 70
     1
102
RTVSPropertyOp31
 70
     1
102
RTVSPropertyOp32
 70
     1
102
RTVSPropertyOp33
 70
     1
102
RTVSPropertyOp34
 70
     1
102
RTVSPropertyOp35
 70
     1
102
RTVSPropertyOp36
 70
     1
102
RTVSPropertyOp37
 70
     1
102
RTVSPropertyOp38
 70
     1
102
RTVSPropertyOp39
 70
     1
102
RTVSPropertyOp40
 70
     1
102
RTVSPropertyOp41
 70
     1
102
RTVSPropertyOp42
 70
     1
102
RTVSPropertyOp43
 70
     1
102
RTVSPropertyOp44
 70
     1
102
RTVSPropertyOp45
 70
     1
102
RTVSPropertyOp46
 70
     1
102
RTVSPropertyOp47
 70
     1
102
RTVSPropertyOp48
 70
     1
102
RTVSPropertyOp49
 70
     1
102
RTVSPropertyOp50
 70
     1
102
RTVSPropertyOp51
 70
     0
102
RTVSPropertyOp52
 70
     0
102
RTVSPropertyOp53
 70
     1
102
RTVSPropertyOp54
 70
     1
102
RTVSPropertyOp55
 70
     1
102
RTVSPropertyOp56
 70
     1
102
RTVSPropertyOp57
 70
     1
102
RTVSPropertyOp58
 70
     1
102
RTVSPropertyOp59
 70
     1
102
RTVSPropertyOp60
 70
     1
102
RTVSPropertyOp61
 70
     1
102
RTVSPropertyOp62
 70
     1
  0
XRECORD
  5
16B3A
102
{ACAD_REACTORS
330
16B39
102
}
330
16B39
100
AcDbXrecord
280
     1
102
RTVSPost2010Prop28
280
     0
102
RTVSPost2010PropOp28
 70
     1
102
RTVSPost2010Prop29
280
     1
102
RTVSPost2010PropOp29
 70
     1
102
RTVSPost2010Prop30
280
     1
102
RTVSPost2010PropOp30
 70
     1
102
RTVSPost2010Prop31
280
     0
102
RTVSPost2010PropOp31
 70
     1
102
RTVSPost2010Prop32
280
     0
102
RTVSPost2010PropOp32
 70
     1
102
RTVSPost2010Prop33
280
     0
102
RTVSPost2010PropOp33
 70
     1
102
RTVSPost2010Prop34
280
     0
102
RTVSPost2010PropOp34
 70
     1
102
RTVSPost2010Prop35
280
     0
102
RTVSPost2010PropOp35
 70
     1
102
RTVSPost2010Prop36
280
     0
102
RTVSPost2010PropOp36
 70
     1
102
RTVSPost2010Prop37
 90
       50
102
RTVSPost2010PropOp37
 70
     1
102
RTVSPost2010Prop38
140
0.0
102
RTVSPost2010PropOp38
 70
     1
102
RTVSPost2010Prop39
140
1.0
102
RTVSPost2010PropOp39
 70
     1
102
RTVSPost2010Prop40
 90
        0
102
RTVSPost2010PropOp40
 70
     1
102
RTVSPost2010Prop41ColorIndex
 90
       18
102
RTVSPost2010Prop41ColorRGB
 90
        0
102
RTVSPost2010PropOp41
 70
     1
102
RTVSPost2010Prop42
 90
       50
102
RTVSPost2010PropOp42
 70
     1
102
RTVSPost2010Prop43
 90
        3
102
RTVSPost2010PropOp43
 70
     1
102
RTVSPost2010Prop44ColorIndex
 90
        5
102
RTVSPost2010Prop44ColorRGB
 90
      255
102
RTVSPost2010PropOp44
 70
     1
102
RTVSPost2010Prop45
280
     0
102
RTVSPost2010PropOp45
 70
     1
102
RTVSPost2010Prop46
 90
       50
102
RTVSPost2010PropOp46
 70
     1
102
RTVSPost2010Prop47
 90
       50
102
RTVSPost2010PropOp47
 70
     1
102
RTVSPost2010Prop48
 90
       50
102
RTVSPost2010PropOp48
 70
     1
102
RTVSPost2010Prop49
280
     0
102
RTVSPost2010PropOp49
 70
     1
102
RTVSPost2010Prop50
 90
       50
102
RTVSPost2010PropOp50
 70
     1
102
RTVSPost2010Prop51ColorIndex
 90
      256
102
RTVSPost2010Prop51ColorRGB
 90
-16777216
102
RTVSPost2010PropOp51
 70
     0
102
RTVSPost2010Prop52
140
1.0
102
RTVSPost2010PropOp52
 70
     0
102
RTVSPost2010Prop53
 90
        2
102
RTVSPost2010PropOp53
 70
     1
102
RTVSPost2010Prop54
  1
strokes_ogs.tif
102
RTVSPost2010PropOp54
 70
     1
102
RTVSPost2010Prop55
280
     0
102
RTVSPost2010PropOp55
 70
     1
102
RTVSPost2010Prop56
140
1.0
102
RTVSPost2010PropOp56
 70
     1
102
RTVSPost2010Prop57
140
1.0
102
RTVSPost2010PropOp57
 70
     1
102
RTVSPropertyOp0
 70
     1
102
RTVSPropertyOp1
 70
     1
102
RTVSPropertyOp2
 70
     1
102
RTVSPropertyOp3
 70
     1
102
RTVSPropertyOp4
 70
     1
102
RTVSPropertyOp5
 70
     1
102
RTVSPropertyOp6
 70
     1
102
RTVSPropertyOp7
 70
     1
102
RTVSPropertyOp8
 70
     1
102
RTVSPropertyOp9
 70
     1
102
RTVSPropertyOp10
 70
     1
102
RTVSPropertyOp11
 70
     1
102
RTVSPropertyOp12
 70
     1
102
RTVSPropertyOp13
 70
     1
102
RTVSPropertyOp14
 70
     1
102
RTVSPropertyOp15
 70
     1
102
RTVSPropertyOp16
 70
     1
102
RTVSPropertyOp17
 70
     1
102
RTVSPropertyOp18
 70
     1
102
RTVSPropertyOp19
 70
     1
102
RTVSPropertyOp20
 70
     1
102
RTVSPropertyOp21
 70
     1
102
RTVSPropertyOp22
 70
     1
102
RTVSPropertyOp23
 70
     1
102
RTVSPropertyOp24
 70
     1
102
RTVSPropertyOp25
 70
     1
102
RTVSPropertyOp26
 70
     1
102
RTVSPropertyOp27
 70
     1
102
RTVSPropertyOp28
 70
     1
102
RTVSPropertyOp29
 70
     1
102
RTVSPropertyOp30
 70
     1
102
RTVSPropertyOp31
 70
     1
102
RTVSPropertyOp32
 70
     1
102
RTVSPropertyOp33
 70
     1
102
RTVSPropertyOp34
 70
     1
102
RTVSPropertyOp35
 70
     1
102
RTVSPropertyOp36
 70
     1
102
RTVSPropertyOp37
 70
     1
102
RTVSPropertyOp38
 70
     1
102
RTVSPropertyOp39
 70
     1
102
RTVSPropertyOp40
 70
     1
102
RTVSPropertyOp41
 70
     1
102
RTVSPropertyOp42
 70
     1
102
RTVSPropertyOp43
 70
     1
102
RTVSPropertyOp44
 70
     1
102
RTVSPropertyOp45
 70
     1
102
RTVSPropertyOp46
 70
     1
102
RTVSPropertyOp47
 70
     1
102
RTVSPropertyOp48
 70
     1
102
RTVSPropertyOp49
 70
     1
102
RTVSPropertyOp50
 70
     1
102
RTVSPropertyOp51
 70
     0
102
RTVSPropertyOp52
 70
     0
102
RTVSPropertyOp53
 70
     1
102
RTVSPropertyOp54
 70
     1
102
RTVSPropertyOp55
 70
     1
102
RTVSPropertyOp56
 70
     1
102
RTVSPropertyOp57
 70
     1
102
RTVSPropertyOp58
 70
     1
102
RTVSPropertyOp59
 70
     1
102
RTVSPropertyOp60
 70
     1
102
RTVSPropertyOp61
 70
     1
102
RTVSPropertyOp62
 70
     1
  0
XRECORD
  5
16B54
102
{ACAD_REACTORS
330
16B53
102
}
330
16B53
100
AcDbXrecord
280
     1
102
RTVSPost2010Prop28
280
     0
102
RTVSPost2010PropOp28
 70
     1
102
RTVSPost2010Prop29
280
     1
102
RTVSPost2010PropOp29
 70
     1
102
RTVSPost2010Prop30
280
     1
102
RTVSPost2010PropOp30
 70
     1
102
RTVSPost2010Prop31
280
     0
102
RTVSPost2010PropOp31
 70
     1
102
RTVSPost2010Prop32
280
     0
102
RTVSPost2010PropOp32
 70
     1
102
RTVSPost2010Prop33
280
     0
102
RTVSPost2010PropOp33
 70
     1
102
RTVSPost2010Prop34
280
     0
102
RTVSPost2010PropOp34
 70
     1
102
RTVSPost2010Prop35
280
     0
102
RTVSPost2010PropOp35
 70
     1
102
RTVSPost2010Prop36
280
     0
102
RTVSPost2010PropOp36
 70
     1
102
RTVSPost2010Prop37
 90
       50
102
RTVSPost2010PropOp37
 70
     0
102
RTVSPost2010Prop38
140
0.0
102
RTVSPost2010PropOp38
 70
     0
102
RTVSPost2010Prop39
140
1.0
102
RTVSPost2010PropOp39
 70
     0
102
RTVSPost2010Prop40
 90
        0
102
RTVSPost2010PropOp40
 70
     0
102
RTVSPost2010Prop41ColorIndex
 90
       18
102
RTVSPost2010Prop41ColorRGB
 90
        0
102
RTVSPost2010PropOp41
 70
     0
102
RTVSPost2010Prop42
 90
       50
102
RTVSPost2010PropOp42
 70
     0
102
RTVSPost2010Prop43
 90
        3
102
RTVSPost2010PropOp43
 70
     0
102
RTVSPost2010Prop44ColorIndex
 90
        5
102
RTVSPost2010Prop44ColorRGB
 90
      255
102
RTVSPost2010PropOp44
 70
     0
102
RTVSPost2010Prop45
280
     0
102
RTVSPost2010PropOp45
 70
     1
102
RTVSPost2010Prop46
 90
       50
102
RTVSPost2010PropOp46
 70
     0
102
RTVSPost2010Prop47
 90
       50
102
RTVSPost2010PropOp47
 70
     0
102
RTVSPost2010Prop48
 90
       50
102
RTVSPost2010PropOp48
 70
     0
102
RTVSPost2010Prop49
280
     0
102
RTVSPost2010PropOp49
 70
     1
102
RTVSPost2010Prop50
 90
       50
102
RTVSPost2010PropOp50
 70
     0
102
RTVSPost2010Prop51ColorIndex
 90
      256
102
RTVSPost2010Prop51ColorRGB
 90
-16777216
102
RTVSPost2010PropOp51
 70
     0
102
RTVSPost2010Prop52
140
1.0
102
RTVSPost2010PropOp52
 70
     0
102
RTVSPost2010Prop53
 90
        2
102
RTVSPost2010PropOp53
 70
     0
102
RTVSPost2010Prop54
  1
strokes_ogs.tif
102
RTVSPost2010PropOp54
 70
     0
102
RTVSPost2010Prop55
280
     0
102
RTVSPost2010PropOp55
 70
     1
102
RTVSPost2010Prop56
140
1.0
102
RTVSPost2010PropOp56
 70
     0
102
RTVSPost2010Prop57
140
1.0
102
RTVSPost2010PropOp57
 70
     0
102
RTVSPropertyOp0
 70
     0
102
RTVSPropertyOp1
 70
     0
102
RTVSPropertyOp2
 70
     0
102
RTVSPropertyOp3
 70
     0
102
RTVSPropertyOp4
 70
     0
102
RTVSPropertyOp5
 70
     0
102
RTVSPropertyOp6
 70
     0
102
RTVSPropertyOp7
 70
     0
102
RTVSPropertyOp8
 70
     0
102
RTVSPropertyOp9
 70
     0
102
RTVSPropertyOp10
 70
     0
102
RTVSPropertyOp11
 70
     0
102
RTVSPropertyOp12
 70
     0
102
RTVSPropertyOp13
 70
     0
102
RTVSPropertyOp14
 70
     2
102
RTVSPropertyOp15
 70
     0
102
RTVSPropertyOp16
 70
     0
102
RTVSPropertyOp17
 70
     0
102
RTVSPropertyOp18
 70
     0
102
RTVSPropertyOp19
 70
     0
102
RTVSPropertyOp20
 70
     0
102
RTVSPropertyOp21
 70
     0
102
RTVSPropertyOp22
 70
     0
102
RTVSPropertyOp23
 70
     0
102
RTVSPropertyOp24
 70
     0
102
RTVSPropertyOp25
 70
     0
102
RTVSPropertyOp26
 70
     0
102
RTVSPropertyOp27
 70
     0
102
RTVSPropertyOp28
 70
     1
102
RTVSPropertyOp29
 70
     1
102
RTVSPropertyOp30
 70
     1
102
RTVSPropertyOp31
 70
     1
102
RTVSPropertyOp32
 70
     1
102
RTVSPropertyOp33
 70
     1
102
RTVSPropertyOp34
 70
     1
102
RTVSPropertyOp35
 70
     1
102
RTVSPropertyOp36
 70
     1
102
RTVSPropertyOp37
 70
     0
102
RTVSPropertyOp38
 70
     0
102
RTVSPropertyOp39
 70
     0
102
RTVSPropertyOp40
 70
     0
102
RTVSPropertyOp41
 70
     0
102
RTVSPropertyOp42
 70
     0
102
RTVSPropertyOp43
 70
     0
102
RTVSPropertyOp44
 70
     0
102
RTVSPropertyOp45
 70
     1
102
RTVSPropertyOp46
 70
     0
102
RTVSPropertyOp47
 70
     0
102
RTVSPropertyOp48
 70
     0
102
RTVSPropertyOp49
 70
     1
102
RTVSPropertyOp50
 70
     0
102
RTVSPropertyOp51
 70
     0
102
RTVSPropertyOp52
 70
     0
102
RTVSPropertyOp53
 70
     0
102
RTVSPropertyOp54
 70
     0
102
RTVSPropertyOp55
 70
     1
102
RTVSPropertyOp56
 70
     0
102
RTVSPropertyOp57
 70
     0
102
RTVSPropertyOp58
 70
     0
102
RTVSPropertyOp59
 70
     0
102
RTVSPropertyOp60
 70
     0
102
RTVSPropertyOp61
 70
     0
102
RTVSPropertyOp62
 70
     0
  0
XRECORD
  5
16B42
102
{ACAD_REACTORS
330
16B41
102
}
330
16B41
100
AcDbXrecord
280
     1
102
RTVSPost2010Prop28
280
     0
102
RTVSPost2010PropOp28
 70
     1
102
RTVSPost2010Prop29
280
     1
102
RTVSPost2010PropOp29
 70
     1
102
RTVSPost2010Prop30
280
     1
102
RTVSPost2010PropOp30
 70
     1
102
RTVSPost2010Prop31
280
     0
102
RTVSPost2010PropOp31
 70
     1
102
RTVSPost2010Prop32
280
     0
102
RTVSPost2010PropOp32
 70
     1
102
RTVSPost2010Prop33
280
     0
102
RTVSPost2010PropOp33
 70
     1
102
RTVSPost2010Prop34
280
     0
102
RTVSPost2010PropOp34
 70
     1
102
RTVSPost2010Prop35
280
     0
102
RTVSPost2010PropOp35
 70
     1
102
RTVSPost2010Prop36
280
     0
102
RTVSPost2010PropOp36
 70
     1
102
RTVSPost2010Prop37
 90
       50
102
RTVSPost2010PropOp37
 70
     1
102
RTVSPost2010Prop38
140
0.0
102
RTVSPost2010PropOp38
 70
     1
102
RTVSPost2010Prop39
140
1.0
102
RTVSPost2010PropOp39
 70
     1
102
RTVSPost2010Prop40
 90
        0
102
RTVSPost2010PropOp40
 70
     1
102
RTVSPost2010Prop41ColorIndex
 90
       18
102
RTVSPost2010Prop41ColorRGB
 90
        0
102
RTVSPost2010PropOp41
 70
     1
102
RTVSPost2010Prop42
 90
       50
102
RTVSPost2010PropOp42
 70
     1
102
RTVSPost2010Prop43
 90
        3
102
RTVSPost2010PropOp43
 70
     1
102
RTVSPost2010Prop44ColorIndex
 90
        5
102
RTVSPost2010Prop44ColorRGB
 90
      255
102
RTVSPost2010PropOp44
 70
     1
102
RTVSPost2010Prop45
280
     0
102
RTVSPost2010PropOp45
 70
     1
102
RTVSPost2010Prop46
 90
       50
102
RTVSPost2010PropOp46
 70
     1
102
RTVSPost2010Prop47
 90
       50
102
RTVSPost2010PropOp47
 70
     1
102
RTVSPost2010Prop48
 90
       50
102
RTVSPost2010PropOp48
 70
     1
102
RTVSPost2010Prop49
280
     0
102
RTVSPost2010PropOp49
 70
     1
102
RTVSPost2010Prop50
 90
       50
102
RTVSPost2010PropOp50
 70
     1
102
RTVSPost2010Prop51ColorIndex
 90
      256
102
RTVSPost2010Prop51ColorRGB
 90
-16777216
102
RTVSPost2010PropOp51
 70
     0
102
RTVSPost2010Prop52
140
1.0
102
RTVSPost2010PropOp52
 70
     0
102
RTVSPost2010Prop53
 90
        2
102
RTVSPost2010PropOp53
 70
     1
102
RTVSPost2010Prop54
  1
strokes_ogs.tif
102
RTVSPost2010PropOp54
 70
     1
102
RTVSPost2010Prop55
280
     0
102
RTVSPost2010PropOp55
 70
     1
102
RTVSPost2010Prop56
140
1.0
102
RTVSPost2010PropOp56
 70
     1
102
RTVSPost2010Prop57
140
1.0
102
RTVSPost2010PropOp57
 70
     1
102
RTVSPropertyOp0
 70
     1
102
RTVSPropertyOp1
 70
     1
102
RTVSPropertyOp2
 70
     1
102
RTVSPropertyOp3
 70
     1
102
RTVSPropertyOp4
 70
     1
102
RTVSPropertyOp5
 70
     1
102
RTVSPropertyOp6
 70
     1
102
RTVSPropertyOp7
 70
     1
102
RTVSPropertyOp8
 70
     1
102
RTVSPropertyOp9
 70
     1
102
RTVSPropertyOp10
 70
     1
102
RTVSPropertyOp11
 70
     1
102
RTVSPropertyOp12
 70
     1
102
RTVSPropertyOp13
 70
     1
102
RTVSPropertyOp14
 70
     1
102
RTVSPropertyOp15
 70
     1
102
RTVSPropertyOp16
 70
     1
102
RTVSPropertyOp17
 70
     1
102
RTVSPropertyOp18
 70
     1
102
RTVSPropertyOp19
 70
     1
102
RTVSPropertyOp20
 70
     1
102
RTVSPropertyOp21
 70
     1
102
RTVSPropertyOp22
 70
     1
102
RTVSPropertyOp23
 70
     1
102
RTVSPropertyOp24
 70
     1
102
RTVSPropertyOp25
 70
     1
102
RTVSPropertyOp26
 70
     1
102
RTVSPropertyOp27
 70
     1
102
RTVSPropertyOp28
 70
     1
102
RTVSPropertyOp29
 70
     1
102
RTVSPropertyOp30
 70
     1
102
RTVSPropertyOp31
 70
     1
102
RTVSPropertyOp32
 70
     1
102
RTVSPropertyOp33
 70
     1
102
RTVSPropertyOp34
 70
     1
102
RTVSPropertyOp35
 70
     1
102
RTVSPropertyOp36
 70
     1
102
RTVSPropertyOp37
 70
     1
102
RTVSPropertyOp38
 70
     1
102
RTVSPropertyOp39
 70
     1
102
RTVSPropertyOp40
 70
     1
102
RTVSPropertyOp41
 70
     1
102
RTVSPropertyOp42
 70
     1
102
RTVSPropertyOp43
 70
     1
102
RTVSPropertyOp44
 70
     1
102
RTVSPropertyOp45
 70
     1
102
RTVSPropertyOp46
 70
     1
102
RTVSPropertyOp47
 70
     1
102
RTVSPropertyOp48
 70
     1
102
RTVSPropertyOp49
 70
     1
102
RTVSPropertyOp50
 70
     1
102
RTVSPropertyOp51
 70
     0
102
RTVSPropertyOp52
 70
     0
102
RTVSPropertyOp53
 70
     1
102
RTVSPropertyOp54
 70
     1
102
RTVSPropertyOp55
 70
     1
102
RTVSPropertyOp56
 70
     1
102
RTVSPropertyOp57
 70
     1
102
RTVSPropertyOp58
 70
     1
102
RTVSPropertyOp59
 70
     1
102
RTVSPropertyOp60
 70
     1
102
RTVSPropertyOp61
 70
     1
102
RTVSPropertyOp62
 70
     1
  0
XRECORD
  5
16B26
102
{ACAD_REACTORS
330
16B25
102
}
330
16B25
100
AcDbXrecord
280
     1
102
RTVSPost2010Prop28
280
     0
102
RTVSPost2010PropOp28
 70
     1
102
RTVSPost2010Prop29
280
     1
102
RTVSPost2010PropOp29
 70
     1
102
RTVSPost2010Prop30
280
     1
102
RTVSPost2010PropOp30
 70
     1
102
RTVSPost2010Prop31
280
     0
102
RTVSPost2010PropOp31
 70
     1
102
RTVSPost2010Prop32
280
     0
102
RTVSPost2010PropOp32
 70
     1
102
RTVSPost2010Prop33
280
     0
102
RTVSPost2010PropOp33
 70
     1
102
RTVSPost2010Prop34
280
     0
102
RTVSPost2010PropOp34
 70
     1
102
RTVSPost2010Prop35
280
     0
102
RTVSPost2010PropOp35
 70
     1
102
RTVSPost2010Prop36
280
     0
102
RTVSPost2010PropOp36
 70
     1
102
RTVSPost2010Prop37
 90
       50
102
RTVSPost2010PropOp37
 70
     1
102
RTVSPost2010Prop38
140
0.0
102
RTVSPost2010PropOp38
 70
     1
102
RTVSPost2010Prop39
140
1.0
102
RTVSPost2010PropOp39
 70
     1
102
RTVSPost2010Prop40
 90
        0
102
RTVSPost2010PropOp40
 70
     1
102
RTVSPost2010Prop41ColorIndex
 90
       18
102
RTVSPost2010Prop41ColorRGB
 90
        0
102
RTVSPost2010PropOp41
 70
     1
102
RTVSPost2010Prop42
 90
       50
102
RTVSPost2010PropOp42
 70
     1
102
RTVSPost2010Prop43
 90
        3
102
RTVSPost2010PropOp43
 70
     1
102
RTVSPost2010Prop44ColorIndex
 90
        5
102
RTVSPost2010Prop44ColorRGB
 90
      255
102
RTVSPost2010PropOp44
 70
     1
102
RTVSPost2010Prop45
280
     0
102
RTVSPost2010PropOp45
 70
     1
102
RTVSPost2010Prop46
 90
       50
102
RTVSPost2010PropOp46
 70
     1
102
RTVSPost2010Prop47
 90
       50
102
RTVSPost2010PropOp47
 70
     1
102
RTVSPost2010Prop48
 90
       50
102
RTVSPost2010PropOp48
 70
     1
102
RTVSPost2010Prop49
280
     0
102
RTVSPost2010PropOp49
 70
     1
102
RTVSPost2010Prop50
 90
       50
102
RTVSPost2010PropOp50
 70
     1
102
RTVSPost2010Prop51ColorIndex
 90
      256
102
RTVSPost2010Prop51ColorRGB
 90
-16777216
102
RTVSPost2010PropOp51
 70
     0
102
RTVSPost2010Prop52
140
1.0
102
RTVSPost2010PropOp52
 70
     0
102
RTVSPost2010Prop53
 90
        2
102
RTVSPost2010PropOp53
 70
     1
102
RTVSPost2010Prop54
  1
strokes_ogs.tif
102
RTVSPost2010PropOp54
 70
     1
102
RTVSPost2010Prop55
280
     0
102
RTVSPost2010PropOp55
 70
     1
102
RTVSPost2010Prop56
140
1.0
102
RTVSPost2010PropOp56
 70
     1
102
RTVSPost2010Prop57
140
1.0
102
RTVSPost2010PropOp57
 70
     1
102
RTVSPropertyOp0
 70
     1
102
RTVSPropertyOp1
 70
     1
102
RTVSPropertyOp2
 70
     1
102
RTVSPropertyOp3
 70
     1
102
RTVSPropertyOp4
 70
     1
102
RTVSPropertyOp5
 70
     1
102
RTVSPropertyOp6
 70
     1
102
RTVSPropertyOp7
 70
     1
102
RTVSPropertyOp8
 70
     1
102
RTVSPropertyOp9
 70
     1
102
RTVSPropertyOp10
 70
     1
102
RTVSPropertyOp11
 70
     1
102
RTVSPropertyOp12
 70
     1
102
RTVSPropertyOp13
 70
     1
102
RTVSPropertyOp14
 70
     1
102
RTVSPropertyOp15
 70
     1
102
RTVSPropertyOp16
 70
     1
102
RTVSPropertyOp17
 70
     1
102
RTVSPropertyOp18
 70
     1
102
RTVSPropertyOp19
 70
     1
102
RTVSPropertyOp20
 70
     1
102
RTVSPropertyOp21
 70
     1
102
RTVSPropertyOp22
 70
     1
102
RTVSPropertyOp23
 70
     1
102
RTVSPropertyOp24
 70
     1
102
RTVSPropertyOp25
 70
     1
102
RTVSPropertyOp26
 70
     1
102
RTVSPropertyOp27
 70
     1
102
RTVSPropertyOp28
 70
     1
102
RTVSPropertyOp29
 70
     1
102
RTVSPropertyOp30
 70
     1
102
RTVSPropertyOp31
 70
     1
102
RTVSPropertyOp32
 70
     1
102
RTVSPropertyOp33
 70
     1
102
RTVSPropertyOp34
 70
     1
102
RTVSPropertyOp35
 70
     1
102
RTVSPropertyOp36
 70
     1
102
RTVSPropertyOp37
 70
     1
102
RTVSPropertyOp38
 70
     1
102
RTVSPropertyOp39
 70
     1
102
RTVSPropertyOp40
 70
     1
102
RTVSPropertyOp41
 70
     1
102
RTVSPropertyOp42
 70
     1
102
RTVSPropertyOp43
 70
     1
102
RTVSPropertyOp44
 70
     1
102
RTVSPropertyOp45
 70
     1
102
RTVSPropertyOp46
 70
     1
102
RTVSPropertyOp47
 70
     1
102
RTVSPropertyOp48
 70
     1
102
RTVSPropertyOp49
 70
     1
102
RTVSPropertyOp50
 70
     1
102
RTVSPropertyOp51
 70
     0
102
RTVSPropertyOp52
 70
     0
102
RTVSPropertyOp53
 70
     1
102
RTVSPropertyOp54
 70
     1
102
RTVSPropertyOp55
 70
     1
102
RTVSPropertyOp56
 70
     1
102
RTVSPropertyOp57
 70
     1
102
RTVSPropertyOp58
 70
     1
102
RTVSPropertyOp59
 70
     1
102
RTVSPropertyOp60
 70
     1
102
RTVSPropertyOp61
 70
     1
102
RTVSPropertyOp62
 70
     1
  0
XRECORD
  5
16B28
102
{ACAD_REACTORS
330
16B27
102
}
330
16B27
100
AcDbXrecord
280
     1
102
RTVSPost2010Prop28
280
     0
102
RTVSPost2010PropOp28
 70
     1
102
RTVSPost2010Prop29
280
     1
102
RTVSPost2010PropOp29
 70
     1
102
RTVSPost2010Prop30
280
     1
102
RTVSPost2010PropOp30
 70
     1
102
RTVSPost2010Prop31
280
     0
102
RTVSPost2010PropOp31
 70
     1
102
RTVSPost2010Prop32
280
     0
102
RTVSPost2010PropOp32
 70
     1
102
RTVSPost2010Prop33
280
     0
102
RTVSPost2010PropOp33
 70
     1
102
RTVSPost2010Prop34
280
     0
102
RTVSPost2010PropOp34
 70
     1
102
RTVSPost2010Prop35
280
     0
102
RTVSPost2010PropOp35
 70
     1
102
RTVSPost2010Prop36
280
     0
102
RTVSPost2010PropOp36
 70
     1
102
RTVSPost2010Prop37
 90
       50
102
RTVSPost2010PropOp37
 70
     1
102
RTVSPost2010Prop38
140
0.0
102
RTVSPost2010PropOp38
 70
     1
102
RTVSPost2010Prop39
140
1.0
102
RTVSPost2010PropOp39
 70
     1
102
RTVSPost2010Prop40
 90
        0
102
RTVSPost2010PropOp40
 70
     1
102
RTVSPost2010Prop41ColorIndex
 90
       18
102
RTVSPost2010Prop41ColorRGB
 90
        0
102
RTVSPost2010PropOp41
 70
     1
102
RTVSPost2010Prop42
 90
       50
102
RTVSPost2010PropOp42
 70
     1
102
RTVSPost2010Prop43
 90
        3
102
RTVSPost2010PropOp43
 70
     1
102
RTVSPost2010Prop44ColorIndex
 90
        5
102
RTVSPost2010Prop44ColorRGB
 90
      255
102
RTVSPost2010PropOp44
 70
     1
102
RTVSPost2010Prop45
280
     0
102
RTVSPost2010PropOp45
 70
     1
102
RTVSPost2010Prop46
 90
       50
102
RTVSPost2010PropOp46
 70
     1
102
RTVSPost2010Prop47
 90
       50
102
RTVSPost2010PropOp47
 70
     1
102
RTVSPost2010Prop48
 90
       50
102
RTVSPost2010PropOp48
 70
     1
102
RTVSPost2010Prop49
280
     0
102
RTVSPost2010PropOp49
 70
     1
102
RTVSPost2010Prop50
 90
       50
102
RTVSPost2010PropOp50
 70
     1
102
RTVSPost2010Prop51ColorIndex
 90
      256
102
RTVSPost2010Prop51ColorRGB
 90
-16777216
102
RTVSPost2010PropOp51
 70
     0
102
RTVSPost2010Prop52
140
1.0
102
RTVSPost2010PropOp52
 70
     0
102
RTVSPost2010Prop53
 90
        2
102
RTVSPost2010PropOp53
 70
     1
102
RTVSPost2010Prop54
  1
strokes_ogs.tif
102
RTVSPost2010PropOp54
 70
     1
102
RTVSPost2010Prop55
280
     0
102
RTVSPost2010PropOp55
 70
     1
102
RTVSPost2010Prop56
140
1.0
102
RTVSPost2010PropOp56
 70
     1
102
RTVSPost2010Prop57
140
1.0
102
RTVSPost2010PropOp57
 70
     1
102
RTVSPropertyOp0
 70
     1
102
RTVSPropertyOp1
 70
     1
102
RTVSPropertyOp2
 70
     1
102
RTVSPropertyOp3
 70
     1
102
RTVSPropertyOp4
 70
     1
102
RTVSPropertyOp5
 70
     1
102
RTVSPropertyOp6
 70
     1
102
RTVSPropertyOp7
 70
     1
102
RTVSPropertyOp8
 70
     1
102
RTVSPropertyOp9
 70
     1
102
RTVSPropertyOp10
 70
     1
102
RTVSPropertyOp11
 70
     1
102
RTVSPropertyOp12
 70
     1
102
RTVSPropertyOp13
 70
     1
102
RTVSPropertyOp14
 70
     1
102
RTVSPropertyOp15
 70
     1
102
RTVSPropertyOp16
 70
     1
102
RTVSPropertyOp17
 70
     1
102
RTVSPropertyOp18
 70
     1
102
RTVSPropertyOp19
 70
     1
102
RTVSPropertyOp20
 70
     1
102
RTVSPropertyOp21
 70
     1
102
RTVSPropertyOp22
 70
     1
102
RTVSPropertyOp23
 70
     1
102
RTVSPropertyOp24
 70
     1
102
RTVSPropertyOp25
 70
     1
102
RTVSPropertyOp26
 70
     1
102
RTVSPropertyOp27
 70
     1
102
RTVSPropertyOp28
 70
     1
102
RTVSPropertyOp29
 70
     1
102
RTVSPropertyOp30
 70
     1
102
RTVSPropertyOp31
 70
     1
102
RTVSPropertyOp32
 70
     1
102
RTVSPropertyOp33
 70
     1
102
RTVSPropertyOp34
 70
     1
102
RTVSPropertyOp35
 70
     1
102
RTVSPropertyOp36
 70
     1
102
RTVSPropertyOp37
 70
     1
102
RTVSPropertyOp38
 70
     1
102
RTVSPropertyOp39
 70
     1
102
RTVSPropertyOp40
 70
     1
102
RTVSPropertyOp41
 70
     1
102
RTVSPropertyOp42
 70
     1
102
RTVSPropertyOp43
 70
     1
102
RTVSPropertyOp44
 70
     1
102
RTVSPropertyOp45
 70
     1
102
RTVSPropertyOp46
 70
     1
102
RTVSPropertyOp47
 70
     1
102
RTVSPropertyOp48
 70
     1
102
RTVSPropertyOp49
 70
     1
102
RTVSPropertyOp50
 70
     1
102
RTVSPropertyOp51
 70
     0
102
RTVSPropertyOp52
 70
     0
102
RTVSPropertyOp53
 70
     1
102
RTVSPropertyOp54
 70
     1
102
RTVSPropertyOp55
 70
     1
102
RTVSPropertyOp56
 70
     1
102
RTVSPropertyOp57
 70
     1
102
RTVSPropertyOp58
 70
     1
102
RTVSPropertyOp59
 70
     1
102
RTVSPropertyOp60
 70
     1
102
RTVSPropertyOp61
 70
     1
102
RTVSPropertyOp62
 70
     1
  0
XRECORD
  5
16B2A
102
{ACAD_REACTORS
330
16B29
102
}
330
16B29
100
AcDbXrecord
280
     1
102
RTVSPost2010Prop28
280
     0
102
RTVSPost2010PropOp28
 70
     1
102
RTVSPost2010Prop29
280
     1
102
RTVSPost2010PropOp29
 70
     1
102
RTVSPost2010Prop30
280
     1
102
RTVSPost2010PropOp30
 70
     1
102
RTVSPost2010Prop31
280
     0
102
RTVSPost2010PropOp31
 70
     1
102
RTVSPost2010Prop32
280
     0
102
RTVSPost2010PropOp32
 70
     1
102
RTVSPost2010Prop33
280
     0
102
RTVSPost2010PropOp33
 70
     1
102
RTVSPost2010Prop34
280
     0
102
RTVSPost2010PropOp34
 70
     1
102
RTVSPost2010Prop35
280
     0
102
RTVSPost2010PropOp35
 70
     1
102
RTVSPost2010Prop36
280
     0
102
RTVSPost2010PropOp36
 70
     1
102
RTVSPost2010Prop37
 90
       50
102
RTVSPost2010PropOp37
 70
     1
102
RTVSPost2010Prop38
140
0.0
102
RTVSPost2010PropOp38
 70
     1
102
RTVSPost2010Prop39
140
1.0
102
RTVSPost2010PropOp39
 70
     1
102
RTVSPost2010Prop40
 90
        0
102
RTVSPost2010PropOp40
 70
     1
102
RTVSPost2010Prop41ColorIndex
 90
       18
102
RTVSPost2010Prop41ColorRGB
 90
        0
102
RTVSPost2010PropOp41
 70
     1
102
RTVSPost2010Prop42
 90
       50
102
RTVSPost2010PropOp42
 70
     1
102
RTVSPost2010Prop43
 90
        3
102
RTVSPost2010PropOp43
 70
     1
102
RTVSPost2010Prop44ColorIndex
 90
        5
102
RTVSPost2010Prop44ColorRGB
 90
      255
102
RTVSPost2010PropOp44
 70
     1
102
RTVSPost2010Prop45
280
     0
102
RTVSPost2010PropOp45
 70
     1
102
RTVSPost2010Prop46
 90
       50
102
RTVSPost2010PropOp46
 70
     1
102
RTVSPost2010Prop47
 90
       50
102
RTVSPost2010PropOp47
 70
     1
102
RTVSPost2010Prop48
 90
       50
102
RTVSPost2010PropOp48
 70
     1
102
RTVSPost2010Prop49
280
     0
102
RTVSPost2010PropOp49
 70
     1
102
RTVSPost2010Prop50
 90
       50
102
RTVSPost2010PropOp50
 70
     1
102
RTVSPost2010Prop51ColorIndex
 90
      256
102
RTVSPost2010Prop51ColorRGB
 90
-16777216
102
RTVSPost2010PropOp51
 70
     0
102
RTVSPost2010Prop52
140
1.0
102
RTVSPost2010PropOp52
 70
     0
102
RTVSPost2010Prop53
 90
        2
102
RTVSPost2010PropOp53
 70
     1
102
RTVSPost2010Prop54
  1
strokes_ogs.tif
102
RTVSPost2010PropOp54
 70
     1
102
RTVSPost2010Prop55
280
     0
102
RTVSPost2010PropOp55
 70
     1
102
RTVSPost2010Prop56
140
1.0
102
RTVSPost2010PropOp56
 70
     1
102
RTVSPost2010Prop57
140
1.0
102
RTVSPost2010PropOp57
 70
     1
102
RTVSPropertyOp0
 70
     1
102
RTVSPropertyOp1
 70
     1
102
RTVSPropertyOp2
 70
     1
102
RTVSPropertyOp3
 70
     1
102
RTVSPropertyOp4
 70
     1
102
RTVSPropertyOp5
 70
     1
102
RTVSPropertyOp6
 70
     1
102
RTVSPropertyOp7
 70
     1
102
RTVSPropertyOp8
 70
     1
102
RTVSPropertyOp9
 70
     1
102
RTVSPropertyOp10
 70
     1
102
RTVSPropertyOp11
 70
     1
102
RTVSPropertyOp12
 70
     1
102
RTVSPropertyOp13
 70
     1
102
RTVSPropertyOp14
 70
     1
102
RTVSPropertyOp15
 70
     1
102
RTVSPropertyOp16
 70
     1
102
RTVSPropertyOp17
 70
     1
102
RTVSPropertyOp18
 70
     1
102
RTVSPropertyOp19
 70
     1
102
RTVSPropertyOp20
 70
     1
102
RTVSPropertyOp21
 70
     1
102
RTVSPropertyOp22
 70
     1
102
RTVSPropertyOp23
 70
     1
102
RTVSPropertyOp24
 70
     1
102
RTVSPropertyOp25
 70
     1
102
RTVSPropertyOp26
 70
     1
102
RTVSPropertyOp27
 70
     1
102
RTVSPropertyOp28
 70
     1
102
RTVSPropertyOp29
 70
     1
102
RTVSPropertyOp30
 70
     1
102
RTVSPropertyOp31
 70
     1
102
RTVSPropertyOp32
 70
     1
102
RTVSPropertyOp33
 70
     1
102
RTVSPropertyOp34
 70
     1
102
RTVSPropertyOp35
 70
     1
102
RTVSPropertyOp36
 70
     1
102
RTVSPropertyOp37
 70
     1
102
RTVSPropertyOp38
 70
     1
102
RTVSPropertyOp39
 70
     1
102
RTVSPropertyOp40
 70
     1
102
RTVSPropertyOp41
 70
     1
102
RTVSPropertyOp42
 70
     1
102
RTVSPropertyOp43
 70
     1
102
RTVSPropertyOp44
 70
     1
102
RTVSPropertyOp45
 70
     1
102
RTVSPropertyOp46
 70
     1
102
RTVSPropertyOp47
 70
     1
102
RTVSPropertyOp48
 70
     1
102
RTVSPropertyOp49
 70
     1
102
RTVSPropertyOp50
 70
     1
102
RTVSPropertyOp51
 70
     0
102
RTVSPropertyOp52
 70
     0
102
RTVSPropertyOp53
 70
     1
102
RTVSPropertyOp54
 70
     1
102
RTVSPropertyOp55
 70
     1
102
RTVSPropertyOp56
 70
     1
102
RTVSPropertyOp57
 70
     1
102
RTVSPropertyOp58
 70
     1
102
RTVSPropertyOp59
 70
     1
102
RTVSPropertyOp60
 70
     1
102
RTVSPropertyOp61
 70
     1
102
RTVSPropertyOp62
 70
     1
  0
XRECORD
  5
16B2C
102
{ACAD_REACTORS
330
16B2B
102
}
330
16B2B
100
AcDbXrecord
280
     1
102
RTVSPost2010Prop28
280
     0
102
RTVSPost2010PropOp28
 70
     1
102
RTVSPost2010Prop29
280
     1
102
RTVSPost2010PropOp29
 70
     1
102
RTVSPost2010Prop30
280
     1
102
RTVSPost2010PropOp30
 70
     1
102
RTVSPost2010Prop31
280
     0
102
RTVSPost2010PropOp31
 70
     1
102
RTVSPost2010Prop32
280
     0
102
RTVSPost2010PropOp32
 70
     1
102
RTVSPost2010Prop33
280
     0
102
RTVSPost2010PropOp33
 70
     1
102
RTVSPost2010Prop34
280
     0
102
RTVSPost2010PropOp34
 70
     1
102
RTVSPost2010Prop35
280
     0
102
RTVSPost2010PropOp35
 70
     1
102
RTVSPost2010Prop36
280
     0
102
RTVSPost2010PropOp36
 70
     1
102
RTVSPost2010Prop37
 90
       50
102
RTVSPost2010PropOp37
 70
     1
102
RTVSPost2010Prop38
140
0.0
102
RTVSPost2010PropOp38
 70
     1
102
RTVSPost2010Prop39
140
1.0
102
RTVSPost2010PropOp39
 70
     1
102
RTVSPost2010Prop40
 90
        0
102
RTVSPost2010PropOp40
 70
     1
102
RTVSPost2010Prop41ColorIndex
 90
       18
102
RTVSPost2010Prop41ColorRGB
 90
        0
102
RTVSPost2010PropOp41
 70
     1
102
RTVSPost2010Prop42
 90
       50
102
RTVSPost2010PropOp42
 70
     1
102
RTVSPost2010Prop43
 90
        3
102
RTVSPost2010PropOp43
 70
     1
102
RTVSPost2010Prop44ColorIndex
 90
        5
102
RTVSPost2010Prop44ColorRGB
 90
      255
102
RTVSPost2010PropOp44
 70
     1
102
RTVSPost2010Prop45
280
     0
102
RTVSPost2010PropOp45
 70
     1
102
RTVSPost2010Prop46
 90
       50
102
RTVSPost2010PropOp46
 70
     1
102
RTVSPost2010Prop47
 90
       50
102
RTVSPost2010PropOp47
 70
     1
102
RTVSPost2010Prop48
 90
       50
102
RTVSPost2010PropOp48
 70
     1
102
RTVSPost2010Prop49
280
     0
102
RTVSPost2010PropOp49
 70
     1
102
RTVSPost2010Prop50
 90
       50
102
RTVSPost2010PropOp50
 70
     1
102
RTVSPost2010Prop51ColorIndex
 90
      256
102
RTVSPost2010Prop51ColorRGB
 90
-16777216
102
RTVSPost2010PropOp51
 70
     0
102
RTVSPost2010Prop52
140
1.0
102
RTVSPost2010PropOp52
 70
     0
102
RTVSPost2010Prop53
 90
        2
102
RTVSPost2010PropOp53
 70
     1
102
RTVSPost2010Prop54
  1
strokes_ogs.tif
102
RTVSPost2010PropOp54
 70
     1
102
RTVSPost2010Prop55
280
     0
102
RTVSPost2010PropOp55
 70
     1
102
RTVSPost2010Prop56
140
1.0
102
RTVSPost2010PropOp56
 70
     1
102
RTVSPost2010Prop57
140
1.0
102
RTVSPost2010PropOp57
 70
     1
102
RTVSPropertyOp0
 70
     1
102
RTVSPropertyOp1
 70
     1
102
RTVSPropertyOp2
 70
     1
102
RTVSPropertyOp3
 70
     1
102
RTVSPropertyOp4
 70
     1
102
RTVSPropertyOp5
 70
     1
102
RTVSPropertyOp6
 70
     1
102
RTVSPropertyOp7
 70
     1
102
RTVSPropertyOp8
 70
     1
102
RTVSPropertyOp9
 70
     1
102
RTVSPropertyOp10
 70
     1
102
RTVSPropertyOp11
 70
     1
102
RTVSPropertyOp12
 70
     1
102
RTVSPropertyOp13
 70
     1
102
RTVSPropertyOp14
 70
     1
102
RTVSPropertyOp15
 70
     1
102
RTVSPropertyOp16
 70
     1
102
RTVSPropertyOp17
 70
     1
102
RTVSPropertyOp18
 70
     1
102
RTVSPropertyOp19
 70
     1
102
RTVSPropertyOp20
 70
     1
102
RTVSPropertyOp21
 70
     1
102
RTVSPropertyOp22
 70
     1
102
RTVSPropertyOp23
 70
     1
102
RTVSPropertyOp24
 70
     1
102
RTVSPropertyOp25
 70
     1
102
RTVSPropertyOp26
 70
     1
102
RTVSPropertyOp27
 70
     1
102
RTVSPropertyOp28
 70
     1
102
RTVSPropertyOp29
 70
     1
102
RTVSPropertyOp30
 70
     1
102
RTVSPropertyOp31
 70
     1
102
RTVSPropertyOp32
 70
     1
102
RTVSPropertyOp33
 70
     1
102
RTVSPropertyOp34
 70
     1
102
RTVSPropertyOp35
 70
     1
102
RTVSPropertyOp36
 70
     1
102
RTVSPropertyOp37
 70
     1
102
RTVSPropertyOp38
 70
     1
102
RTVSPropertyOp39
 70
     1
102
RTVSPropertyOp40
 70
     1
102
RTVSPropertyOp41
 70
     1
102
RTVSPropertyOp42
 70
     1
102
RTVSPropertyOp43
 70
     1
102
RTVSPropertyOp44
 70
     1
102
RTVSPropertyOp45
 70
     1
102
RTVSPropertyOp46
 70
     1
102
RTVSPropertyOp47
 70
     1
102
RTVSPropertyOp48
 70
     1
102
RTVSPropertyOp49
 70
     1
102
RTVSPropertyOp50
 70
     1
102
RTVSPropertyOp51
 70
     0
102
RTVSPropertyOp52
 70
     0
102
RTVSPropertyOp53
 70
     1
102
RTVSPropertyOp54
 70
     1
102
RTVSPropertyOp55
 70
     1
102
RTVSPropertyOp56
 70
     1
102
RTVSPropertyOp57
 70
     1
102
RTVSPropertyOp58
 70
     1
102
RTVSPropertyOp59
 70
     1
102
RTVSPropertyOp60
 70
     1
102
RTVSPropertyOp61
 70
     1
102
RTVSPropertyOp62
 70
     1
  0
XRECORD
  5
16B34
102
{ACAD_REACTORS
330
16B33
102
}
330
16B33
100
AcDbXrecord
280
     1
102
RTVSPost2010Prop28
280
     0
102
RTVSPost2010PropOp28
 70
     1
102
RTVSPost2010Prop29
280
     1
102
RTVSPost2010PropOp29
 70
     1
102
RTVSPost2010Prop30
280
     1
102
RTVSPost2010PropOp30
 70
     1
102
RTVSPost2010Prop31
280
     0
102
RTVSPost2010PropOp31
 70
     1
102
RTVSPost2010Prop32
280
     0
102
RTVSPost2010PropOp32
 70
     1
102
RTVSPost2010Prop33
280
     0
102
RTVSPost2010PropOp33
 70
     1
102
RTVSPost2010Prop34
280
     0
102
RTVSPost2010PropOp34
 70
     1
102
RTVSPost2010Prop35
280
     0
102
RTVSPost2010PropOp35
 70
     1
102
RTVSPost2010Prop36
280
     0
102
RTVSPost2010PropOp36
 70
     1
102
RTVSPost2010Prop37
 90
       50
102
RTVSPost2010PropOp37
 70
     1
102
RTVSPost2010Prop38
140
0.0
102
RTVSPost2010PropOp38
 70
     1
102
RTVSPost2010Prop39
140
1.0
102
RTVSPost2010PropOp39
 70
     1
102
RTVSPost2010Prop40
 90
        0
102
RTVSPost2010PropOp40
 70
     1
102
RTVSPost2010Prop41ColorIndex
 90
       18
102
RTVSPost2010Prop41ColorRGB
 90
        0
102
RTVSPost2010PropOp41
 70
     1
102
RTVSPost2010Prop42
 90
       50
102
RTVSPost2010PropOp42
 70
     1
102
RTVSPost2010Prop43
 90
        3
102
RTVSPost2010PropOp43
 70
     1
102
RTVSPost2010Prop44ColorIndex
 90
        5
102
RTVSPost2010Prop44ColorRGB
 90
      255
102
RTVSPost2010PropOp44
 70
     1
102
RTVSPost2010Prop45
280
     0
102
RTVSPost2010PropOp45
 70
     1
102
RTVSPost2010Prop46
 90
       50
102
RTVSPost2010PropOp46
 70
     1
102
RTVSPost2010Prop47
 90
       50
102
RTVSPost2010PropOp47
 70
     1
102
RTVSPost2010Prop48
 90
       50
102
RTVSPost2010PropOp48
 70
     1
102
RTVSPost2010Prop49
280
     0
102
RTVSPost2010PropOp49
 70
     1
102
RTVSPost2010Prop50
 90
       50
102
RTVSPost2010PropOp50
 70
     1
102
RTVSPost2010Prop51ColorIndex
 90
      256
102
RTVSPost2010Prop51ColorRGB
 90
-16777216
102
RTVSPost2010PropOp51
 70
     0
102
RTVSPost2010Prop52
140
1.0
102
RTVSPost2010PropOp52
 70
     0
102
RTVSPost2010Prop53
 90
        2
102
RTVSPost2010PropOp53
 70
     1
102
RTVSPost2010Prop54
  1
strokes_ogs.tif
102
RTVSPost2010PropOp54
 70
     1
102
RTVSPost2010Prop55
280
     0
102
RTVSPost2010PropOp55
 70
     1
102
RTVSPost2010Prop56
140
1.0
102
RTVSPost2010PropOp56
 70
     1
102
RTVSPost2010Prop57
140
1.0
102
RTVSPost2010PropOp57
 70
     1
102
RTVSPropertyOp0
 70
     1
102
RTVSPropertyOp1
 70
     1
102
RTVSPropertyOp2
 70
     1
102
RTVSPropertyOp3
 70
     1
102
RTVSPropertyOp4
 70
     1
102
RTVSPropertyOp5
 70
     1
102
RTVSPropertyOp6
 70
     1
102
RTVSPropertyOp7
 70
     1
102
RTVSPropertyOp8
 70
     1
102
RTVSPropertyOp9
 70
     1
102
RTVSPropertyOp10
 70
     1
102
RTVSPropertyOp11
 70
     1
102
RTVSPropertyOp12
 70
     1
102
RTVSPropertyOp13
 70
     1
102
RTVSPropertyOp14
 70
     1
102
RTVSPropertyOp15
 70
     1
102
RTVSPropertyOp16
 70
     1
102
RTVSPropertyOp17
 70
     1
102
RTVSPropertyOp18
 70
     1
102
RTVSPropertyOp19
 70
     1
102
RTVSPropertyOp20
 70
     1
102
RTVSPropertyOp21
 70
     1
102
RTVSPropertyOp22
 70
     1
102
RTVSPropertyOp23
 70
     1
102
RTVSPropertyOp24
 70
     1
102
RTVSPropertyOp25
 70
     1
102
RTVSPropertyOp26
 70
     1
102
RTVSPropertyOp27
 70
     1
102
RTVSPropertyOp28
 70
     1
102
RTVSPropertyOp29
 70
     1
102
RTVSPropertyOp30
 70
     1
102
RTVSPropertyOp31
 70
     1
102
RTVSPropertyOp32
 70
     1
102
RTVSPropertyOp33
 70
     1
102
RTVSPropertyOp34
 70
     1
102
RTVSPropertyOp35
 70
     1
102
RTVSPropertyOp36
 70
     1
102
RTVSPropertyOp37
 70
     1
102
RTVSPropertyOp38
 70
     1
102
RTVSPropertyOp39
 70
     1
102
RTVSPropertyOp40
 70
     1
102
RTVSPropertyOp41
 70
     1
102
RTVSPropertyOp42
 70
     1
102
RTVSPropertyOp43
 70
     1
102
RTVSPropertyOp44
 70
     1
102
RTVSPropertyOp45
 70
     1
102
RTVSPropertyOp46
 70
     1
102
RTVSPropertyOp47
 70
     1
102
RTVSPropertyOp48
 70
     1
102
RTVSPropertyOp49
 70
     1
102
RTVSPropertyOp50
 70
     1
102
RTVSPropertyOp51
 70
     0
102
RTVSPropertyOp52
 70
     0
102
RTVSPropertyOp53
 70
     1
102
RTVSPropertyOp54
 70
     1
102
RTVSPropertyOp55
 70
     1
102
RTVSPropertyOp56
 70
     1
102
RTVSPropertyOp57
 70
     1
102
RTVSPropertyOp58
 70
     1
102
RTVSPropertyOp59
 70
     1
102
RTVSPropertyOp60
 70
     1
102
RTVSPropertyOp61
 70
     1
102
RTVSPropertyOp62
 70
     1
  0
XRECORD
  5
16B50
102
{ACAD_REACTORS
330
16B4F
102
}
330
16B4F
100
AcDbXrecord
280
     1
102
RTVSPost2010Prop28
280
     0
102
RTVSPost2010PropOp28
 70
     1
102
RTVSPost2010Prop29
280
     1
102
RTVSPost2010PropOp29
 70
     1
102
RTVSPost2010Prop30
280
     1
102
RTVSPost2010PropOp30
 70
     1
102
RTVSPost2010Prop31
280
     0
102
RTVSPost2010PropOp31
 70
     1
102
RTVSPost2010Prop32
280
     0
102
RTVSPost2010PropOp32
 70
     1
102
RTVSPost2010Prop33
280
     0
102
RTVSPost2010PropOp33
 70
     1
102
RTVSPost2010Prop34
280
     0
102
RTVSPost2010PropOp34
 70
     1
102
RTVSPost2010Prop35
280
     0
102
RTVSPost2010PropOp35
 70
     1
102
RTVSPost2010Prop36
280
     0
102
RTVSPost2010PropOp36
 70
     1
102
RTVSPost2010Prop37
 90
       50
102
RTVSPost2010PropOp37
 70
     0
102
RTVSPost2010Prop38
140
0.0
102
RTVSPost2010PropOp38
 70
     0
102
RTVSPost2010Prop39
140
1.0
102
RTVSPost2010PropOp39
 70
     0
102
RTVSPost2010Prop40
 90
        0
102
RTVSPost2010PropOp40
 70
     0
102
RTVSPost2010Prop41ColorIndex
 90
       18
102
RTVSPost2010Prop41ColorRGB
 90
        0
102
RTVSPost2010PropOp41
 70
     0
102
RTVSPost2010Prop42
 90
       50
102
RTVSPost2010PropOp42
 70
     0
102
RTVSPost2010Prop43
 90
        3
102
RTVSPost2010PropOp43
 70
     0
102
RTVSPost2010Prop44ColorIndex
 90
        5
102
RTVSPost2010Prop44ColorRGB
 90
      255
102
RTVSPost2010PropOp44
 70
     0
102
RTVSPost2010Prop45
280
     0
102
RTVSPost2010PropOp45
 70
     1
102
RTVSPost2010Prop46
 90
       50
102
RTVSPost2010PropOp46
 70
     0
102
RTVSPost2010Prop47
 90
       50
102
RTVSPost2010PropOp47
 70
     0
102
RTVSPost2010Prop48
 90
       50
102
RTVSPost2010PropOp48
 70
     0
102
RTVSPost2010Prop49
280
     0
102
RTVSPost2010PropOp49
 70
     1
102
RTVSPost2010Prop50
 90
       50
102
RTVSPost2010PropOp50
 70
     0
102
RTVSPost2010Prop51ColorIndex
 90
      256
102
RTVSPost2010Prop51ColorRGB
 90
-16777216
102
RTVSPost2010PropOp51
 70
     0
102
RTVSPost2010Prop52
140
1.0
102
RTVSPost2010PropOp52
 70
     0
102
RTVSPost2010Prop53
 90
        2
102
RTVSPost2010PropOp53
 70
     0
102
RTVSPost2010Prop54
  1
strokes_ogs.tif
102
RTVSPost2010PropOp54
 70
     0
102
RTVSPost2010Prop55
280
     0
102
RTVSPost2010PropOp55
 70
     1
102
RTVSPost2010Prop56
140
1.0
102
RTVSPost2010PropOp56
 70
     0
102
RTVSPost2010Prop57
140
1.0
102
RTVSPost2010PropOp57
 70
     0
102
RTVSPropertyOp0
 70
     0
102
RTVSPropertyOp1
 70
     0
102
RTVSPropertyOp2
 70
     0
102
RTVSPropertyOp3
 70
     0
102
RTVSPropertyOp4
 70
     0
102
RTVSPropertyOp5
 70
     0
102
RTVSPropertyOp6
 70
     0
102
RTVSPropertyOp7
 70
     0
102
RTVSPropertyOp8
 70
     0
102
RTVSPropertyOp9
 70
     0
102
RTVSPropertyOp10
 70
     0
102
RTVSPropertyOp11
 70
     0
102
RTVSPropertyOp12
 70
     0
102
RTVSPropertyOp13
 70
     0
102
RTVSPropertyOp14
 70
     2
102
RTVSPropertyOp15
 70
     0
102
RTVSPropertyOp16
 70
     0
102
RTVSPropertyOp17
 70
     0
102
RTVSPropertyOp18
 70
     0
102
RTVSPropertyOp19
 70
     0
102
RTVSPropertyOp20
 70
     0
102
RTVSPropertyOp21
 70
     0
102
RTVSPropertyOp22
 70
     0
102
RTVSPropertyOp23
 70
     0
102
RTVSPropertyOp24
 70
     0
102
RTVSPropertyOp25
 70
     0
102
RTVSPropertyOp26
 70
     0
102
RTVSPropertyOp27
 70
     0
102
RTVSPropertyOp28
 70
     1
102
RTVSPropertyOp29
 70
     1
102
RTVSPropertyOp30
 70
     1
102
RTVSPropertyOp31
 70
     1
102
RTVSPropertyOp32
 70
     1
102
RTVSPropertyOp33
 70
     1
102
RTVSPropertyOp34
 70
     1
102
RTVSPropertyOp35
 70
     1
102
RTVSPropertyOp36
 70
     1
102
RTVSPropertyOp37
 70
     0
102
RTVSPropertyOp38
 70
     0
102
RTVSPropertyOp39
 70
     0
102
RTVSPropertyOp40
 70
     0
102
RTVSPropertyOp41
 70
     0
102
RTVSPropertyOp42
 70
     0
102
RTVSPropertyOp43
 70
     0
102
RTVSPropertyOp44
 70
     0
102
RTVSPropertyOp45
 70
     1
102
RTVSPropertyOp46
 70
     0
102
RTVSPropertyOp47
 70
     0
102
RTVSPropertyOp48
 70
     0
102
RTVSPropertyOp49
 70
     1
102
RTVSPropertyOp50
 70
     0
102
RTVSPropertyOp51
 70
     0
102
RTVSPropertyOp52
 70
     0
102
RTVSPropertyOp53
 70
     0
102
RTVSPropertyOp54
 70
     0
102
RTVSPropertyOp55
 70
     1
102
RTVSPropertyOp56
 70
     0
102
RTVSPropertyOp57
 70
     0
102
RTVSPropertyOp58
 70
     0
102
RTVSPropertyOp59
 70
     0
102
RTVSPropertyOp60
 70
     0
102
RTVSPropertyOp61
 70
     0
102
RTVSPropertyOp62
 70
     0
  0
XRECORD
  5
16B40
102
{ACAD_REACTORS
330
16B3F
102
}
330
16B3F
100
AcDbXrecord
280
     1
102
RTVSPost2010Prop28
280
     0
102
RTVSPost2010PropOp28
 70
     1
102
RTVSPost2010Prop29
280
     1
102
RTVSPost2010PropOp29
 70
     1
102
RTVSPost2010Prop30
280
     1
102
RTVSPost2010PropOp30
 70
     1
102
RTVSPost2010Prop31
280
     0
102
RTVSPost2010PropOp31
 70
     1
102
RTVSPost2010Prop32
280
     0
102
RTVSPost2010PropOp32
 70
     1
102
RTVSPost2010Prop33
280
     0
102
RTVSPost2010PropOp33
 70
     1
102
RTVSPost2010Prop34
280
     0
102
RTVSPost2010PropOp34
 70
     1
102
RTVSPost2010Prop35
280
     0
102
RTVSPost2010PropOp35
 70
     1
102
RTVSPost2010Prop36
280
     0
102
RTVSPost2010PropOp36
 70
     1
102
RTVSPost2010Prop37
 90
       50
102
RTVSPost2010PropOp37
 70
     1
102
RTVSPost2010Prop38
140
0.0
102
RTVSPost2010PropOp38
 70
     1
102
RTVSPost2010Prop39
140
1.0
102
RTVSPost2010PropOp39
 70
     1
102
RTVSPost2010Prop40
 90
        0
102
RTVSPost2010PropOp40
 70
     1
102
RTVSPost2010Prop41ColorIndex
 90
       18
102
RTVSPost2010Prop41ColorRGB
 90
        0
102
RTVSPost2010PropOp41
 70
     1
102
RTVSPost2010Prop42
 90
       50
102
RTVSPost2010PropOp42
 70
     1
102
RTVSPost2010Prop43
 90
        3
102
RTVSPost2010PropOp43
 70
     1
102
RTVSPost2010Prop44ColorIndex
 90
        5
102
RTVSPost2010Prop44ColorRGB
 90
      255
102
RTVSPost2010PropOp44
 70
     1
102
RTVSPost2010Prop45
280
     0
102
RTVSPost2010PropOp45
 70
     1
102
RTVSPost2010Prop46
 90
       50
102
RTVSPost2010PropOp46
 70
     1
102
RTVSPost2010Prop47
 90
       50
102
RTVSPost2010PropOp47
 70
     1
102
RTVSPost2010Prop48
 90
       50
102
RTVSPost2010PropOp48
 70
     1
102
RTVSPost2010Prop49
280
     0
102
RTVSPost2010PropOp49
 70
     1
102
RTVSPost2010Prop50
 90
       50
102
RTVSPost2010PropOp50
 70
     1
102
RTVSPost2010Prop51ColorIndex
 90
      256
102
RTVSPost2010Prop51ColorRGB
 90
-16777216
102
RTVSPost2010PropOp51
 70
     0
102
RTVSPost2010Prop52
140
1.0
102
RTVSPost2010PropOp52
 70
     0
102
RTVSPost2010Prop53
 90
        2
102
RTVSPost2010PropOp53
 70
     1
102
RTVSPost2010Prop54
  1
strokes_ogs.tif
102
RTVSPost2010PropOp54
 70
     1
102
RTVSPost2010Prop55
280
     0
102
RTVSPost2010PropOp55
 70
     1
102
RTVSPost2010Prop56
140
1.0
102
RTVSPost2010PropOp56
 70
     1
102
RTVSPost2010Prop57
140
1.0
102
RTVSPost2010PropOp57
 70
     1
102
RTVSPropertyOp0
 70
     1
102
RTVSPropertyOp1
 70
     1
102
RTVSPropertyOp2
 70
     1
102
RTVSPropertyOp3
 70
     1
102
RTVSPropertyOp4
 70
     1
102
RTVSPropertyOp5
 70
     1
102
RTVSPropertyOp6
 70
     1
102
RTVSPropertyOp7
 70
     1
102
RTVSPropertyOp8
 70
     1
102
RTVSPropertyOp9
 70
     1
102
RTVSPropertyOp10
 70
     1
102
RTVSPropertyOp11
 70
     1
102
RTVSPropertyOp12
 70
     1
102
RTVSPropertyOp13
 70
     1
102
RTVSPropertyOp14
 70
     1
102
RTVSPropertyOp15
 70
     1
102
RTVSPropertyOp16
 70
     1
102
RTVSPropertyOp17
 70
     1
102
RTVSPropertyOp18
 70
     1
102
RTVSPropertyOp19
 70
     1
102
RTVSPropertyOp20
 70
     1
102
RTVSPropertyOp21
 70
     1
102
RTVSPropertyOp22
 70
     1
102
RTVSPropertyOp23
 70
     1
102
RTVSPropertyOp24
 70
     1
102
RTVSPropertyOp25
 70
     1
102
RTVSPropertyOp26
 70
     1
102
RTVSPropertyOp27
 70
     1
102
RTVSPropertyOp28
 70
     1
102
RTVSPropertyOp29
 70
     1
102
RTVSPropertyOp30
 70
     1
102
RTVSPropertyOp31
 70
     1
102
RTVSPropertyOp32
 70
     1
102
RTVSPropertyOp33
 70
     1
102
RTVSPropertyOp34
 70
     1
102
RTVSPropertyOp35
 70
     1
102
RTVSPropertyOp36
 70
     1
102
RTVSPropertyOp37
 70
     1
102
RTVSPropertyOp38
 70
     1
102
RTVSPropertyOp39
 70
     1
102
RTVSPropertyOp40
 70
     1
102
RTVSPropertyOp41
 70
     1
102
RTVSPropertyOp42
 70
     1
102
RTVSPropertyOp43
 70
     1
102
RTVSPropertyOp44
 70
     1
102
RTVSPropertyOp45
 70
     1
102
RTVSPropertyOp46
 70
     1
102
RTVSPropertyOp47
 70
     1
102
RTVSPropertyOp48
 70
     1
102
RTVSPropertyOp49
 70
     1
102
RTVSPropertyOp50
 70
     1
102
RTVSPropertyOp51
 70
     0
102
RTVSPropertyOp52
 70
     0
102
RTVSPropertyOp53
 70
     1
102
RTVSPropertyOp54
 70
     1
102
RTVSPropertyOp55
 70
     1
102
RTVSPropertyOp56
 70
     1
102
RTVSPropertyOp57
 70
     1
102
RTVSPropertyOp58
 70
     1
102
RTVSPropertyOp59
 70
     1
102
RTVSPropertyOp60
 70
     1
102
RTVSPropertyOp61
 70
     1
102
RTVSPropertyOp62
 70
     1
  0
XRECORD
  5
16B52
102
{ACAD_REACTORS
330
16B51
102
}
330
16B51
100
AcDbXrecord
280
     1
102
RTVSPost2010Prop28
280
     0
102
RTVSPost2010PropOp28
 70
     1
102
RTVSPost2010Prop29
280
     1
102
RTVSPost2010PropOp29
 70
     1
102
RTVSPost2010Prop30
280
     1
102
RTVSPost2010PropOp30
 70
     1
102
RTVSPost2010Prop31
280
     0
102
RTVSPost2010PropOp31
 70
     1
102
RTVSPost2010Prop32
280
     0
102
RTVSPost2010PropOp32
 70
     1
102
RTVSPost2010Prop33
280
     0
102
RTVSPost2010PropOp33
 70
     1
102
RTVSPost2010Prop34
280
     0
102
RTVSPost2010PropOp34
 70
     1
102
RTVSPost2010Prop35
280
     0
102
RTVSPost2010PropOp35
 70
     1
102
RTVSPost2010Prop36
280
     0
102
RTVSPost2010PropOp36
 70
     1
102
RTVSPost2010Prop37
 90
       50
102
RTVSPost2010PropOp37
 70
     0
102
RTVSPost2010Prop38
140
0.0
102
RTVSPost2010PropOp38
 70
     0
102
RTVSPost2010Prop39
140
1.0
102
RTVSPost2010PropOp39
 70
     0
102
RTVSPost2010Prop40
 90
        0
102
RTVSPost2010PropOp40
 70
     0
102
RTVSPost2010Prop41ColorIndex
 90
       18
102
RTVSPost2010Prop41ColorRGB
 90
        0
102
RTVSPost2010PropOp41
 70
     0
102
RTVSPost2010Prop42
 90
       50
102
RTVSPost2010PropOp42
 70
     0
102
RTVSPost2010Prop43
 90
        3
102
RTVSPost2010PropOp43
 70
     0
102
RTVSPost2010Prop44ColorIndex
 90
        5
102
RTVSPost2010Prop44ColorRGB
 90
      255
102
RTVSPost2010PropOp44
 70
     0
102
RTVSPost2010Prop45
280
     0
102
RTVSPost2010PropOp45
 70
     1
102
RTVSPost2010Prop46
 90
       50
102
RTVSPost2010PropOp46
 70
     0
102
RTVSPost2010Prop47
 90
       50
102
RTVSPost2010PropOp47
 70
     0
102
RTVSPost2010Prop48
 90
       50
102
RTVSPost2010PropOp48
 70
     0
102
RTVSPost2010Prop49
280
     0
102
RTVSPost2010PropOp49
 70
     1
102
RTVSPost2010Prop50
 90
       50
102
RTVSPost2010PropOp50
 70
     0
102
RTVSPost2010Prop51ColorIndex
 90
      256
102
RTVSPost2010Prop51ColorRGB
 90
-16777216
102
RTVSPost2010PropOp51
 70
     0
102
RTVSPost2010Prop52
140
1.0
102
RTVSPost2010PropOp52
 70
     0
102
RTVSPost2010Prop53
 90
        2
102
RTVSPost2010PropOp53
 70
     0
102
RTVSPost2010Prop54
  1
strokes_ogs.tif
102
RTVSPost2010PropOp54
 70
     0
102
RTVSPost2010Prop55
280
     0
102
RTVSPost2010PropOp55
 70
     1
102
RTVSPost2010Prop56
140
1.0
102
RTVSPost2010PropOp56
 70
     0
102
RTVSPost2010Prop57
140
1.0
102
RTVSPost2010PropOp57
 70
     0
102
RTVSPropertyOp0
 70
     0
102
RTVSPropertyOp1
 70
     0
102
RTVSPropertyOp2
 70
     0
102
RTVSPropertyOp3
 70
     0
102
RTVSPropertyOp4
 70
     0
102
RTVSPropertyOp5
 70
     0
102
RTVSPropertyOp6
 70
     0
102
RTVSPropertyOp7
 70
     0
102
RTVSPropertyOp8
 70
     0
102
RTVSPropertyOp9
 70
     0
102
RTVSPropertyOp10
 70
     0
102
RTVSPropertyOp11
 70
     0
102
RTVSPropertyOp12
 70
     0
102
RTVSPropertyOp13
 70
     0
102
RTVSPropertyOp14
 70
     2
102
RTVSPropertyOp15
 70
     0
102
RTVSPropertyOp16
 70
     0
102
RTVSPropertyOp17
 70
     0
102
RTVSPropertyOp18
 70
     0
102
RTVSPropertyOp19
 70
     0
102
RTVSPropertyOp20
 70
     0
102
RTVSPropertyOp21
 70
     0
102
RTVSPropertyOp22
 70
     0
102
RTVSPropertyOp23
 70
     0
102
RTVSPropertyOp24
 70
     0
102
RTVSPropertyOp25
 70
     0
102
RTVSPropertyOp26
 70
     0
102
RTVSPropertyOp27
 70
     0
102
RTVSPropertyOp28
 70
     1
102
RTVSPropertyOp29
 70
     1
102
RTVSPropertyOp30
 70
     1
102
RTVSPropertyOp31
 70
     1
102
RTVSPropertyOp32
 70
     1
102
RTVSPropertyOp33
 70
     1
102
RTVSPropertyOp34
 70
     1
102
RTVSPropertyOp35
 70
     1
102
RTVSPropertyOp36
 70
     1
102
RTVSPropertyOp37
 70
     0
102
RTVSPropertyOp38
 70
     0
102
RTVSPropertyOp39
 70
     0
102
RTVSPropertyOp40
 70
     0
102
RTVSPropertyOp41
 70
     0
102
RTVSPropertyOp42
 70
     0
102
RTVSPropertyOp43
 70
     0
102
RTVSPropertyOp44
 70
     0
102
RTVSPropertyOp45
 70
     1
102
RTVSPropertyOp46
 70
     0
102
RTVSPropertyOp47
 70
     0
102
RTVSPropertyOp48
 70
     0
102
RTVSPropertyOp49
 70
     1
102
RTVSPropertyOp50
 70
     0
102
RTVSPropertyOp51
 70
     0
102
RTVSPropertyOp52
 70
     0
102
RTVSPropertyOp53
 70
     0
102
RTVSPropertyOp54
 70
     0
102
RTVSPropertyOp55
 70
     1
102
RTVSPropertyOp56
 70
     0
102
RTVSPropertyOp57
 70
     0
102
RTVSPropertyOp58
 70
     0
102
RTVSPropertyOp59
 70
     0
102
RTVSPropertyOp60
 70
     0
102
RTVSPropertyOp61
 70
     0
102
RTVSPropertyOp62
 70
     0
  0
XRECORD
  5
16B38
102
{ACAD_REACTORS
330
16B37
102
}
330
16B37
100
AcDbXrecord
280
     1
102
RTVSPost2010Prop28
280
     0
102
RTVSPost2010PropOp28
 70
     1
102
RTVSPost2010Prop29
280
     1
102
RTVSPost2010PropOp29
 70
     1
102
RTVSPost2010Prop30
280
     1
102
RTVSPost2010PropOp30
 70
     1
102
RTVSPost2010Prop31
280
     0
102
RTVSPost2010PropOp31
 70
     1
102
RTVSPost2010Prop32
280
     0
102
RTVSPost2010PropOp32
 70
     1
102
RTVSPost2010Prop33
280
     0
102
RTVSPost2010PropOp33
 70
     1
102
RTVSPost2010Prop34
280
     0
102
RTVSPost2010PropOp34
 70
     1
102
RTVSPost2010Prop35
280
     0
102
RTVSPost2010PropOp35
 70
     1
102
RTVSPost2010Prop36
280
     0
102
RTVSPost2010PropOp36
 70
     1
102
RTVSPost2010Prop37
 90
       50
102
RTVSPost2010PropOp37
 70
     1
102
RTVSPost2010Prop38
140
0.0
102
RTVSPost2010PropOp38
 70
     1
102
RTVSPost2010Prop39
140
1.0
102
RTVSPost2010PropOp39
 70
     1
102
RTVSPost2010Prop40
 90
        0
102
RTVSPost2010PropOp40
 70
     1
102
RTVSPost2010Prop41ColorIndex
 90
       18
102
RTVSPost2010Prop41ColorRGB
 90
        0
102
RTVSPost2010PropOp41
 70
     1
102
RTVSPost2010Prop42
 90
       50
102
RTVSPost2010PropOp42
 70
     1
102
RTVSPost2010Prop43
 90
        3
102
RTVSPost2010PropOp43
 70
     1
102
RTVSPost2010Prop44ColorIndex
 90
        5
102
RTVSPost2010Prop44ColorRGB
 90
      255
102
RTVSPost2010PropOp44
 70
     1
102
RTVSPost2010Prop45
280
     0
102
RTVSPost2010PropOp45
 70
     1
102
RTVSPost2010Prop46
 90
       50
102
RTVSPost2010PropOp46
 70
     1
102
RTVSPost2010Prop47
 90
       50
102
RTVSPost2010PropOp47
 70
     1
102
RTVSPost2010Prop48
 90
       50
102
RTVSPost2010PropOp48
 70
     1
102
RTVSPost2010Prop49
280
     0
102
RTVSPost2010PropOp49
 70
     1
102
RTVSPost2010Prop50
 90
       50
102
RTVSPost2010PropOp50
 70
     1
102
RTVSPost2010Prop51ColorIndex
 90
      256
102
RTVSPost2010Prop51ColorRGB
 90
-16777216
102
RTVSPost2010PropOp51
 70
     0
102
RTVSPost2010Prop52
140
1.0
102
RTVSPost2010PropOp52
 70
     0
102
RTVSPost2010Prop53
 90
        2
102
RTVSPost2010PropOp53
 70
     1
102
RTVSPost2010Prop54
  1
strokes_ogs.tif
102
RTVSPost2010PropOp54
 70
     1
102
RTVSPost2010Prop55
280
     0
102
RTVSPost2010PropOp55
 70
     1
102
RTVSPost2010Prop56
140
1.0
102
RTVSPost2010PropOp56
 70
     1
102
RTVSPost2010Prop57
140
1.0
102
RTVSPost2010PropOp57
 70
     1
102
RTVSPropertyOp0
 70
     1
102
RTVSPropertyOp1
 70
     1
102
RTVSPropertyOp2
 70
     1
102
RTVSPropertyOp3
 70
     1
102
RTVSPropertyOp4
 70
     1
102
RTVSPropertyOp5
 70
     1
102
RTVSPropertyOp6
 70
     1
102
RTVSPropertyOp7
 70
     1
102
RTVSPropertyOp8
 70
     1
102
RTVSPropertyOp9
 70
     1
102
RTVSPropertyOp10
 70
     1
102
RTVSPropertyOp11
 70
     1
102
RTVSPropertyOp12
 70
     1
102
RTVSPropertyOp13
 70
     1
102
RTVSPropertyOp14
 70
     1
102
RTVSPropertyOp15
 70
     1
102
RTVSPropertyOp16
 70
     1
102
RTVSPropertyOp17
 70
     1
102
RTVSPropertyOp18
 70
     1
102
RTVSPropertyOp19
 70
     1
102
RTVSPropertyOp20
 70
     1
102
RTVSPropertyOp21
 70
     1
102
RTVSPropertyOp22
 70
     1
102
RTVSPropertyOp23
 70
     1
102
RTVSPropertyOp24
 70
     1
102
RTVSPropertyOp25
 70
     1
102
RTVSPropertyOp26
 70
     1
102
RTVSPropertyOp27
 70
     1
102
RTVSPropertyOp28
 70
     1
102
RTVSPropertyOp29
 70
     1
102
RTVSPropertyOp30
 70
     1
102
RTVSPropertyOp31
 70
     1
102
RTVSPropertyOp32
 70
     1
102
RTVSPropertyOp33
 70
     1
102
RTVSPropertyOp34
 70
     1
102
RTVSPropertyOp35
 70
     1
102
RTVSPropertyOp36
 70
     1
102
RTVSPropertyOp37
 70
     1
102
RTVSPropertyOp38
 70
     1
102
RTVSPropertyOp39
 70
     1
102
RTVSPropertyOp40
 70
     1
102
RTVSPropertyOp41
 70
     1
102
RTVSPropertyOp42
 70
     1
102
RTVSPropertyOp43
 70
     1
102
RTVSPropertyOp44
 70
     1
102
RTVSPropertyOp45
 70
     1
102
RTVSPropertyOp46
 70
     1
102
RTVSPropertyOp47
 70
     1
102
RTVSPropertyOp48
 70
     1
102
RTVSPropertyOp49
 70
     1
102
RTVSPropertyOp50
 70
     1
102
RTVSPropertyOp51
 70
     0
102
RTVSPropertyOp52
 70
     0
102
RTVSPropertyOp53
 70
     1
102
RTVSPropertyOp54
 70
     1
102
RTVSPropertyOp55
 70
     1
102
RTVSPropertyOp56
 70
     1
102
RTVSPropertyOp57
 70
     1
102
RTVSPropertyOp58
 70
     1
102
RTVSPropertyOp59
 70
     1
102
RTVSPropertyOp60
 70
     1
102
RTVSPropertyOp61
 70
     1
102
RTVSPropertyOp62
 70
     1
  0
XRECORD
  5
16B4E
102
{ACAD_REACTORS
330
16B4D
102
}
330
16B4D
100
AcDbXrecord
280
     1
102
RTVSPost2010Prop28
280
     0
102
RTVSPost2010PropOp28
 70
     1
102
RTVSPost2010Prop29
280
     1
102
RTVSPost2010PropOp29
 70
     1
102
RTVSPost2010Prop30
280
     1
102
RTVSPost2010PropOp30
 70
     1
102
RTVSPost2010Prop31
280
     0
102
RTVSPost2010PropOp31
 70
     1
102
RTVSPost2010Prop32
280
     0
102
RTVSPost2010PropOp32
 70
     1
102
RTVSPost2010Prop33
280
     0
102
RTVSPost2010PropOp33
 70
     1
102
RTVSPost2010Prop34
280
     0
102
RTVSPost2010PropOp34
 70
     1
102
RTVSPost2010Prop35
280
     0
102
RTVSPost2010PropOp35
 70
     1
102
RTVSPost2010Prop36
280
     0
102
RTVSPost2010PropOp36
 70
     1
102
RTVSPost2010Prop37
 90
       50
102
RTVSPost2010PropOp37
 70
     1
102
RTVSPost2010Prop38
140
0.0
102
RTVSPost2010PropOp38
 70
     1
102
RTVSPost2010Prop39
140
1.0
102
RTVSPost2010PropOp39
 70
     1
102
RTVSPost2010Prop40
 90
        0
102
RTVSPost2010PropOp40
 70
     1
102
RTVSPost2010Prop41ColorIndex
 90
       18
102
RTVSPost2010Prop41ColorRGB
 90
        0
102
RTVSPost2010PropOp41
 70
     1
102
RTVSPost2010Prop42
 90
       50
102
RTVSPost2010PropOp42
 70
     1
102
RTVSPost2010Prop43
 90
        3
102
RTVSPost2010PropOp43
 70
     1
102
RTVSPost2010Prop44ColorIndex
 90
        5
102
RTVSPost2010Prop44ColorRGB
 90
      255
102
RTVSPost2010PropOp44
 70
     1
102
RTVSPost2010Prop45
280
     0
102
RTVSPost2010PropOp45
 70
     1
102
RTVSPost2010Prop46
 90
       50
102
RTVSPost2010PropOp46
 70
     1
102
RTVSPost2010Prop47
 90
       50
102
RTVSPost2010PropOp47
 70
     1
102
RTVSPost2010Prop48
 90
       50
102
RTVSPost2010PropOp48
 70
     1
102
RTVSPost2010Prop49
280
     0
102
RTVSPost2010PropOp49
 70
     1
102
RTVSPost2010Prop50
 90
       50
102
RTVSPost2010PropOp50
 70
     1
102
RTVSPost2010Prop51ColorIndex
 90
      256
102
RTVSPost2010Prop51ColorRGB
 90
-16777216
102
RTVSPost2010PropOp51
 70
     0
102
RTVSPost2010Prop52
140
1.0
102
RTVSPost2010PropOp52
 70
     0
102
RTVSPost2010Prop53
 90
        2
102
RTVSPost2010PropOp53
 70
     1
102
RTVSPost2010Prop54
  1
strokes_ogs.tif
102
RTVSPost2010PropOp54
 70
     1
102
RTVSPost2010Prop55
280
     0
102
RTVSPost2010PropOp55
 70
     1
102
RTVSPost2010Prop56
140
1.0
102
RTVSPost2010PropOp56
 70
     1
102
RTVSPost2010Prop57
140
1.0
102
RTVSPost2010PropOp57
 70
     1
102
RTVSPropertyOp0
 70
     1
102
RTVSPropertyOp1
 70
     1
102
RTVSPropertyOp2
 70
     1
102
RTVSPropertyOp3
 70
     1
102
RTVSPropertyOp4
 70
     1
102
RTVSPropertyOp5
 70
     1
102
RTVSPropertyOp6
 70
     1
102
RTVSPropertyOp7
 70
     1
102
RTVSPropertyOp8
 70
     1
102
RTVSPropertyOp9
 70
     1
102
RTVSPropertyOp10
 70
     1
102
RTVSPropertyOp11
 70
     1
102
RTVSPropertyOp12
 70
     1
102
RTVSPropertyOp13
 70
     1
102
RTVSPropertyOp14
 70
     1
102
RTVSPropertyOp15
 70
     1
102
RTVSPropertyOp16
 70
     1
102
RTVSPropertyOp17
 70
     1
102
RTVSPropertyOp18
 70
     1
102
RTVSPropertyOp19
 70
     1
102
RTVSPropertyOp20
 70
     1
102
RTVSPropertyOp21
 70
     1
102
RTVSPropertyOp22
 70
     1
102
RTVSPropertyOp23
 70
     1
102
RTVSPropertyOp24
 70
     1
102
RTVSPropertyOp25
 70
     1
102
RTVSPropertyOp26
 70
     1
102
RTVSPropertyOp27
 70
     1
102
RTVSPropertyOp28
 70
     1
102
RTVSPropertyOp29
 70
     1
102
RTVSPropertyOp30
 70
     1
102
RTVSPropertyOp31
 70
     1
102
RTVSPropertyOp32
 70
     1
102
RTVSPropertyOp33
 70
     1
102
RTVSPropertyOp34
 70
     1
102
RTVSPropertyOp35
 70
     1
102
RTVSPropertyOp36
 70
     1
102
RTVSPropertyOp37
 70
     1
102
RTVSPropertyOp38
 70
     1
102
RTVSPropertyOp39
 70
     1
102
RTVSPropertyOp40
 70
     1
102
RTVSPropertyOp41
 70
     1
102
RTVSPropertyOp42
 70
     1
102
RTVSPropertyOp43
 70
     1
102
RTVSPropertyOp44
 70
     1
102
RTVSPropertyOp45
 70
     1
102
RTVSPropertyOp46
 70
     1
102
RTVSPropertyOp47
 70
     1
102
RTVSPropertyOp48
 70
     1
102
RTVSPropertyOp49
 70
     1
102
RTVSPropertyOp50
 70
     1
102
RTVSPropertyOp51
 70
     0
102
RTVSPropertyOp52
 70
     0
102
RTVSPropertyOp53
 70
     1
102
RTVSPropertyOp54
 70
     1
102
RTVSPropertyOp55
 70
     1
102
RTVSPropertyOp56
 70
     1
102
RTVSPropertyOp57
 70
     1
102
RTVSPropertyOp58
 70
     1
102
RTVSPropertyOp59
 70
     1
102
RTVSPropertyOp60
 70
     1
102
RTVSPropertyOp61
 70
     1
102
RTVSPropertyOp62
 70
     1
  0
XRECORD
  5
16B4C
102
{ACAD_REACTORS
330
16B4B
102
}
330
16B4B
100
AcDbXrecord
280
     1
102
RTVSPost2010Prop28
280
     0
102
RTVSPost2010PropOp28
 70
     1
102
RTVSPost2010Prop29
280
     1
102
RTVSPost2010PropOp29
 70
     1
102
RTVSPost2010Prop30
280
     1
102
RTVSPost2010PropOp30
 70
     1
102
RTVSPost2010Prop31
280
     0
102
RTVSPost2010PropOp31
 70
     1
102
RTVSPost2010Prop32
280
     0
102
RTVSPost2010PropOp32
 70
     1
102
RTVSPost2010Prop33
280
     0
102
RTVSPost2010PropOp33
 70
     1
102
RTVSPost2010Prop34
280
     0
102
RTVSPost2010PropOp34
 70
     1
102
RTVSPost2010Prop35
280
     0
102
RTVSPost2010PropOp35
 70
     1
102
RTVSPost2010Prop36
280
     0
102
RTVSPost2010PropOp36
 70
     1
102
RTVSPost2010Prop37
 90
       50
102
RTVSPost2010PropOp37
 70
     1
102
RTVSPost2010Prop38
140
0.0
102
RTVSPost2010PropOp38
 70
     1
102
RTVSPost2010Prop39
140
1.0
102
RTVSPost2010PropOp39
 70
     1
102
RTVSPost2010Prop40
 90
        0
102
RTVSPost2010PropOp40
 70
     1
102
RTVSPost2010Prop41ColorIndex
 90
       18
102
RTVSPost2010Prop41ColorRGB
 90
        0
102
RTVSPost2010PropOp41
 70
     1
102
RTVSPost2010Prop42
 90
       50
102
RTVSPost2010PropOp42
 70
     1
102
RTVSPost2010Prop43
 90
        3
102
RTVSPost2010PropOp43
 70
     1
102
RTVSPost2010Prop44ColorIndex
 90
        5
102
RTVSPost2010Prop44ColorRGB
 90
      255
102
RTVSPost2010PropOp44
 70
     1
102
RTVSPost2010Prop45
280
     0
102
RTVSPost2010PropOp45
 70
     1
102
RTVSPost2010Prop46
 90
       50
102
RTVSPost2010PropOp46
 70
     1
102
RTVSPost2010Prop47
 90
       50
102
RTVSPost2010PropOp47
 70
     1
102
RTVSPost2010Prop48
 90
       50
102
RTVSPost2010PropOp48
 70
     1
102
RTVSPost2010Prop49
280
     0
102
RTVSPost2010PropOp49
 70
     1
102
RTVSPost2010Prop50
 90
       50
102
RTVSPost2010PropOp50
 70
     1
102
RTVSPost2010Prop51ColorIndex
 90
      256
102
RTVSPost2010Prop51ColorRGB
 90
-16777216
102
RTVSPost2010PropOp51
 70
     0
102
RTVSPost2010Prop52
140
1.0
102
RTVSPost2010PropOp52
 70
     0
102
RTVSPost2010Prop53
 90
        2
102
RTVSPost2010PropOp53
 70
     1
102
RTVSPost2010Prop54
  1
strokes_ogs.tif
102
RTVSPost2010PropOp54
 70
     1
102
RTVSPost2010Prop55
280
     0
102
RTVSPost2010PropOp55
 70
     1
102
RTVSPost2010Prop56
140
1.0
102
RTVSPost2010PropOp56
 70
     1
102
RTVSPost2010Prop57
140
1.0
102
RTVSPost2010PropOp57
 70
     1
102
RTVSPropertyOp0
 70
     1
102
RTVSPropertyOp1
 70
     1
102
RTVSPropertyOp2
 70
     1
102
RTVSPropertyOp3
 70
     1
102
RTVSPropertyOp4
 70
     1
102
RTVSPropertyOp5
 70
     1
102
RTVSPropertyOp6
 70
     1
102
RTVSPropertyOp7
 70
     1
102
RTVSPropertyOp8
 70
     1
102
RTVSPropertyOp9
 70
     1
102
RTVSPropertyOp10
 70
     1
102
RTVSPropertyOp11
 70
     1
102
RTVSPropertyOp12
 70
     1
102
RTVSPropertyOp13
 70
     1
102
RTVSPropertyOp14
 70
     1
102
RTVSPropertyOp15
 70
     1
102
RTVSPropertyOp16
 70
     1
102
RTVSPropertyOp17
 70
     1
102
RTVSPropertyOp18
 70
     1
102
RTVSPropertyOp19
 70
     1
102
RTVSPropertyOp20
 70
     1
102
RTVSPropertyOp21
 70
     1
102
RTVSPropertyOp22
 70
     1
102
RTVSPropertyOp23
 70
     1
102
RTVSPropertyOp24
 70
     1
102
RTVSPropertyOp25
 70
     1
102
RTVSPropertyOp26
 70
     1
102
RTVSPropertyOp27
 70
     1
102
RTVSPropertyOp28
 70
     1
102
RTVSPropertyOp29
 70
     1
102
RTVSPropertyOp30
 70
     1
102
RTVSPropertyOp31
 70
     1
102
RTVSPropertyOp32
 70
     1
102
RTVSPropertyOp33
 70
     1
102
RTVSPropertyOp34
 70
     1
102
RTVSPropertyOp35
 70
     1
102
RTVSPropertyOp36
 70
     1
102
RTVSPropertyOp37
 70
     1
102
RTVSPropertyOp38
 70
     1
102
RTVSPropertyOp39
 70
     1
102
RTVSPropertyOp40
 70
     1
102
RTVSPropertyOp41
 70
     1
102
RTVSPropertyOp42
 70
     1
102
RTVSPropertyOp43
 70
     1
102
RTVSPropertyOp44
 70
     1
102
RTVSPropertyOp45
 70
     1
102
RTVSPropertyOp46
 70
     1
102
RTVSPropertyOp47
 70
     1
102
RTVSPropertyOp48
 70
     1
102
RTVSPropertyOp49
 70
     1
102
RTVSPropertyOp50
 70
     1
102
RTVSPropertyOp51
 70
     0
102
RTVSPropertyOp52
 70
     0
102
RTVSPropertyOp53
 70
     1
102
RTVSPropertyOp54
 70
     1
102
RTVSPropertyOp55
 70
     1
102
RTVSPropertyOp56
 70
     1
102
RTVSPropertyOp57
 70
     1
102
RTVSPropertyOp58
 70
     1
102
RTVSPropertyOp59
 70
     1
102
RTVSPropertyOp60
 70
     1
102
RTVSPropertyOp61
 70
     1
102
RTVSPropertyOp62
 70
     1
  0
XRECORD
  5
16B46
102
{ACAD_REACTORS
330
16B45
102
}
330
16B45
100
AcDbXrecord
280
     1
102
RTVSPost2010Prop28
280
     0
102
RTVSPost2010PropOp28
 70
     1
102
RTVSPost2010Prop29
280
     1
102
RTVSPost2010PropOp29
 70
     1
102
RTVSPost2010Prop30
280
     1
102
RTVSPost2010PropOp30
 70
     1
102
RTVSPost2010Prop31
280
     0
102
RTVSPost2010PropOp31
 70
     1
102
RTVSPost2010Prop32
280
     0
102
RTVSPost2010PropOp32
 70
     1
102
RTVSPost2010Prop33
280
     0
102
RTVSPost2010PropOp33
 70
     1
102
RTVSPost2010Prop34
280
     0
102
RTVSPost2010PropOp34
 70
     1
102
RTVSPost2010Prop35
280
     0
102
RTVSPost2010PropOp35
 70
     1
102
RTVSPost2010Prop36
280
     0
102
RTVSPost2010PropOp36
 70
     1
102
RTVSPost2010Prop37
 90
       50
102
RTVSPost2010PropOp37
 70
     1
102
RTVSPost2010Prop38
140
0.0
102
RTVSPost2010PropOp38
 70
     1
102
RTVSPost2010Prop39
140
1.0
102
RTVSPost2010PropOp39
 70
     1
102
RTVSPost2010Prop40
 90
        0
102
RTVSPost2010PropOp40
 70
     1
102
RTVSPost2010Prop41ColorIndex
 90
       18
102
RTVSPost2010Prop41ColorRGB
 90
        0
102
RTVSPost2010PropOp41
 70
     1
102
RTVSPost2010Prop42
 90
       50
102
RTVSPost2010PropOp42
 70
     1
102
RTVSPost2010Prop43
 90
        3
102
RTVSPost2010PropOp43
 70
     1
102
RTVSPost2010Prop44ColorIndex
 90
        5
102
RTVSPost2010Prop44ColorRGB
 90
      255
102
RTVSPost2010PropOp44
 70
     1
102
RTVSPost2010Prop45
280
     0
102
RTVSPost2010PropOp45
 70
     1
102
RTVSPost2010Prop46
 90
       50
102
RTVSPost2010PropOp46
 70
     1
102
RTVSPost2010Prop47
 90
       50
102
RTVSPost2010PropOp47
 70
     1
102
RTVSPost2010Prop48
 90
       50
102
RTVSPost2010PropOp48
 70
     1
102
RTVSPost2010Prop49
280
     0
102
RTVSPost2010PropOp49
 70
     1
102
RTVSPost2010Prop50
 90
       50
102
RTVSPost2010PropOp50
 70
     1
102
RTVSPost2010Prop51ColorIndex
 90
      256
102
RTVSPost2010Prop51ColorRGB
 90
-16777216
102
RTVSPost2010PropOp51
 70
     0
102
RTVSPost2010Prop52
140
1.0
102
RTVSPost2010PropOp52
 70
     0
102
RTVSPost2010Prop53
 90
        2
102
RTVSPost2010PropOp53
 70
     1
102
RTVSPost2010Prop54
  1
strokes_ogs.tif
102
RTVSPost2010PropOp54
 70
     1
102
RTVSPost2010Prop55
280
     0
102
RTVSPost2010PropOp55
 70
     1
102
RTVSPost2010Prop56
140
1.0
102
RTVSPost2010PropOp56
 70
     1
102
RTVSPost2010Prop57
140
1.0
102
RTVSPost2010PropOp57
 70
     1
102
RTVSPropertyOp0
 70
     1
102
RTVSPropertyOp1
 70
     1
102
RTVSPropertyOp2
 70
     1
102
RTVSPropertyOp3
 70
     1
102
RTVSPropertyOp4
 70
     1
102
RTVSPropertyOp5
 70
     1
102
RTVSPropertyOp6
 70
     1
102
RTVSPropertyOp7
 70
     1
102
RTVSPropertyOp8
 70
     1
102
RTVSPropertyOp9
 70
     1
102
RTVSPropertyOp10
 70
     1
102
RTVSPropertyOp11
 70
     1
102
RTVSPropertyOp12
 70
     1
102
RTVSPropertyOp13
 70
     1
102
RTVSPropertyOp14
 70
     1
102
RTVSPropertyOp15
 70
     1
102
RTVSPropertyOp16
 70
     1
102
RTVSPropertyOp17
 70
     1
102
RTVSPropertyOp18
 70
     1
102
RTVSPropertyOp19
 70
     1
102
RTVSPropertyOp20
 70
     1
102
RTVSPropertyOp21
 70
     1
102
RTVSPropertyOp22
 70
     1
102
RTVSPropertyOp23
 70
     1
102
RTVSPropertyOp24
 70
     1
102
RTVSPropertyOp25
 70
     1
102
RTVSPropertyOp26
 70
     1
102
RTVSPropertyOp27
 70
     1
102
RTVSPropertyOp28
 70
     1
102
RTVSPropertyOp29
 70
     1
102
RTVSPropertyOp30
 70
     1
102
RTVSPropertyOp31
 70
     1
102
RTVSPropertyOp32
 70
     1
102
RTVSPropertyOp33
 70
     1
102
RTVSPropertyOp34
 70
     1
102
RTVSPropertyOp35
 70
     1
102
RTVSPropertyOp36
 70
     1
102
RTVSPropertyOp37
 70
     1
102
RTVSPropertyOp38
 70
     1
102
RTVSPropertyOp39
 70
     1
102
RTVSPropertyOp40
 70
     1
102
RTVSPropertyOp41
 70
     1
102
RTVSPropertyOp42
 70
     1
102
RTVSPropertyOp43
 70
     1
102
RTVSPropertyOp44
 70
     1
102
RTVSPropertyOp45
 70
     1
102
RTVSPropertyOp46
 70
     1
102
RTVSPropertyOp47
 70
     1
102
RTVSPropertyOp48
 70
     1
102
RTVSPropertyOp49
 70
     1
102
RTVSPropertyOp50
 70
     1
102
RTVSPropertyOp51
 70
     0
102
RTVSPropertyOp52
 70
     0
102
RTVSPropertyOp53
 70
     1
102
RTVSPropertyOp54
 70
     1
102
RTVSPropertyOp55
 70
     1
102
RTVSPropertyOp56
 70
     1
102
RTVSPropertyOp57
 70
     1
102
RTVSPropertyOp58
 70
     1
102
RTVSPropertyOp59
 70
     1
102
RTVSPropertyOp60
 70
     1
102
RTVSPropertyOp61
 70
     1
102
RTVSPropertyOp62
 70
     1
  0
XRECORD
  5
16B48
102
{ACAD_REACTORS
330
16B47
102
}
330
16B47
100
AcDbXrecord
280
     1
102
RTVSPost2010Prop28
280
     0
102
RTVSPost2010PropOp28
 70
     1
102
RTVSPost2010Prop29
280
     1
102
RTVSPost2010PropOp29
 70
     1
102
RTVSPost2010Prop30
280
     1
102
RTVSPost2010PropOp30
 70
     1
102
RTVSPost2010Prop31
280
     0
102
RTVSPost2010PropOp31
 70
     1
102
RTVSPost2010Prop32
280
     0
102
RTVSPost2010PropOp32
 70
     1
102
RTVSPost2010Prop33
280
     0
102
RTVSPost2010PropOp33
 70
     1
102
RTVSPost2010Prop34
280
     0
102
RTVSPost2010PropOp34
 70
     1
102
RTVSPost2010Prop35
280
     0
102
RTVSPost2010PropOp35
 70
     1
102
RTVSPost2010Prop36
280
     0
102
RTVSPost2010PropOp36
 70
     1
102
RTVSPost2010Prop37
 90
       50
102
RTVSPost2010PropOp37
 70
     1
102
RTVSPost2010Prop38
140
0.0
102
RTVSPost2010PropOp38
 70
     1
102
RTVSPost2010Prop39
140
1.0
102
RTVSPost2010PropOp39
 70
     1
102
RTVSPost2010Prop40
 90
        0
102
RTVSPost2010PropOp40
 70
     1
102
RTVSPost2010Prop41ColorIndex
 90
       18
102
RTVSPost2010Prop41ColorRGB
 90
        0
102
RTVSPost2010PropOp41
 70
     1
102
RTVSPost2010Prop42
 90
       50
102
RTVSPost2010PropOp42
 70
     1
102
RTVSPost2010Prop43
 90
        3
102
RTVSPost2010PropOp43
 70
     1
102
RTVSPost2010Prop44ColorIndex
 90
        5
102
RTVSPost2010Prop44ColorRGB
 90
      255
102
RTVSPost2010PropOp44
 70
     1
102
RTVSPost2010Prop45
280
     0
102
RTVSPost2010PropOp45
 70
     1
102
RTVSPost2010Prop46
 90
       50
102
RTVSPost2010PropOp46
 70
     1
102
RTVSPost2010Prop47
 90
       50
102
RTVSPost2010PropOp47
 70
     1
102
RTVSPost2010Prop48
 90
       50
102
RTVSPost2010PropOp48
 70
     1
102
RTVSPost2010Prop49
280
     0
102
RTVSPost2010PropOp49
 70
     1
102
RTVSPost2010Prop50
 90
       50
102
RTVSPost2010PropOp50
 70
     1
102
RTVSPost2010Prop51ColorIndex
 90
      256
102
RTVSPost2010Prop51ColorRGB
 90
-16777216
102
RTVSPost2010PropOp51
 70
     0
102
RTVSPost2010Prop52
140
1.0
102
RTVSPost2010PropOp52
 70
     0
102
RTVSPost2010Prop53
 90
        2
102
RTVSPost2010PropOp53
 70
     1
102
RTVSPost2010Prop54
  1
strokes_ogs.tif
102
RTVSPost2010PropOp54
 70
     1
102
RTVSPost2010Prop55
280
     0
102
RTVSPost2010PropOp55
 70
     1
102
RTVSPost2010Prop56
140
1.0
102
RTVSPost2010PropOp56
 70
     1
102
RTVSPost2010Prop57
140
1.0
102
RTVSPost2010PropOp57
 70
     1
102
RTVSPropertyOp0
 70
     1
102
RTVSPropertyOp1
 70
     1
102
RTVSPropertyOp2
 70
     1
102
RTVSPropertyOp3
 70
     1
102
RTVSPropertyOp4
 70
     1
102
RTVSPropertyOp5
 70
     1
102
RTVSPropertyOp6
 70
     1
102
RTVSPropertyOp7
 70
     1
102
RTVSPropertyOp8
 70
     1
102
RTVSPropertyOp9
 70
     1
102
RTVSPropertyOp10
 70
     1
102
RTVSPropertyOp11
 70
     1
102
RTVSPropertyOp12
 70
     1
102
RTVSPropertyOp13
 70
     1
102
RTVSPropertyOp14
 70
     1
102
RTVSPropertyOp15
 70
     1
102
RTVSPropertyOp16
 70
     1
102
RTVSPropertyOp17
 70
     1
102
RTVSPropertyOp18
 70
     1
102
RTVSPropertyOp19
 70
     1
102
RTVSPropertyOp20
 70
     1
102
RTVSPropertyOp21
 70
     1
102
RTVSPropertyOp22
 70
     1
102
RTVSPropertyOp23
 70
     1
102
RTVSPropertyOp24
 70
     1
102
RTVSPropertyOp25
 70
     1
102
RTVSPropertyOp26
 70
     1
102
RTVSPropertyOp27
 70
     1
102
RTVSPropertyOp28
 70
     1
102
RTVSPropertyOp29
 70
     1
102
RTVSPropertyOp30
 70
     1
102
RTVSPropertyOp31
 70
     1
102
RTVSPropertyOp32
 70
     1
102
RTVSPropertyOp33
 70
     1
102
RTVSPropertyOp34
 70
     1
102
RTVSPropertyOp35
 70
     1
102
RTVSPropertyOp36
 70
     1
102
RTVSPropertyOp37
 70
     1
102
RTVSPropertyOp38
 70
     1
102
RTVSPropertyOp39
 70
     1
102
RTVSPropertyOp40
 70
     1
102
RTVSPropertyOp41
 70
     1
102
RTVSPropertyOp42
 70
     1
102
RTVSPropertyOp43
 70
     1
102
RTVSPropertyOp44
 70
     1
102
RTVSPropertyOp45
 70
     1
102
RTVSPropertyOp46
 70
     1
102
RTVSPropertyOp47
 70
     1
102
RTVSPropertyOp48
 70
     1
102
RTVSPropertyOp49
 70
     1
102
RTVSPropertyOp50
 70
     1
102
RTVSPropertyOp51
 70
     0
102
RTVSPropertyOp52
 70
     0
102
RTVSPropertyOp53
 70
     1
102
RTVSPropertyOp54
 70
     1
102
RTVSPropertyOp55
 70
     1
102
RTVSPropertyOp56
 70
     1
102
RTVSPropertyOp57
 70
     1
102
RTVSPropertyOp58
 70
     1
102
RTVSPropertyOp59
 70
     1
102
RTVSPropertyOp60
 70
     1
102
RTVSPropertyOp61
 70
     1
102
RTVSPropertyOp62
 70
     1
  0
XRECORD
  5
16B3E
102
{ACAD_REACTORS
330
16B3D
102
}
330
16B3D
100
AcDbXrecord
280
     1
102
RTVSPost2010Prop28
280
     0
102
RTVSPost2010PropOp28
 70
     1
102
RTVSPost2010Prop29
280
     1
102
RTVSPost2010PropOp29
 70
     1
102
RTVSPost2010Prop30
280
     1
102
RTVSPost2010PropOp30
 70
     1
102
RTVSPost2010Prop31
280
     0
102
RTVSPost2010PropOp31
 70
     1
102
RTVSPost2010Prop32
280
     0
102
RTVSPost2010PropOp32
 70
     1
102
RTVSPost2010Prop33
280
     0
102
RTVSPost2010PropOp33
 70
     1
102
RTVSPost2010Prop34
280
     0
102
RTVSPost2010PropOp34
 70
     1
102
RTVSPost2010Prop35
280
     0
102
RTVSPost2010PropOp35
 70
     1
102
RTVSPost2010Prop36
280
     0
102
RTVSPost2010PropOp36
 70
     1
102
RTVSPost2010Prop37
 90
       50
102
RTVSPost2010PropOp37
 70
     1
102
RTVSPost2010Prop38
140
0.0
102
RTVSPost2010PropOp38
 70
     1
102
RTVSPost2010Prop39
140
1.0
102
RTVSPost2010PropOp39
 70
     1
102
RTVSPost2010Prop40
 90
        0
102
RTVSPost2010PropOp40
 70
     1
102
RTVSPost2010Prop41ColorIndex
 90
       18
102
RTVSPost2010Prop41ColorRGB
 90
        0
102
RTVSPost2010PropOp41
 70
     1
102
RTVSPost2010Prop42
 90
       50
102
RTVSPost2010PropOp42
 70
     1
102
RTVSPost2010Prop43
 90
        3
102
RTVSPost2010PropOp43
 70
     1
102
RTVSPost2010Prop44ColorIndex
 90
        5
102
RTVSPost2010Prop44ColorRGB
 90
      255
102
RTVSPost2010PropOp44
 70
     1
102
RTVSPost2010Prop45
280
     0
102
RTVSPost2010PropOp45
 70
     1
102
RTVSPost2010Prop46
 90
       50
102
RTVSPost2010PropOp46
 70
     1
102
RTVSPost2010Prop47
 90
       50
102
RTVSPost2010PropOp47
 70
     1
102
RTVSPost2010Prop48
 90
       50
102
RTVSPost2010PropOp48
 70
     1
102
RTVSPost2010Prop49
280
     0
102
RTVSPost2010PropOp49
 70
     1
102
RTVSPost2010Prop50
 90
       50
102
RTVSPost2010PropOp50
 70
     1
102
RTVSPost2010Prop51ColorIndex
 90
      256
102
RTVSPost2010Prop51ColorRGB
 90
-16777216
102
RTVSPost2010PropOp51
 70
     0
102
RTVSPost2010Prop52
140
1.0
102
RTVSPost2010PropOp52
 70
     0
102
RTVSPost2010Prop53
 90
        2
102
RTVSPost2010PropOp53
 70
     1
102
RTVSPost2010Prop54
  1
strokes_ogs.tif
102
RTVSPost2010PropOp54
 70
     1
102
RTVSPost2010Prop55
280
     0
102
RTVSPost2010PropOp55
 70
     1
102
RTVSPost2010Prop56
140
1.0
102
RTVSPost2010PropOp56
 70
     1
102
RTVSPost2010Prop57
140
1.0
102
RTVSPost2010PropOp57
 70
     1
102
RTVSPropertyOp0
 70
     1
102
RTVSPropertyOp1
 70
     1
102
RTVSPropertyOp2
 70
     1
102
RTVSPropertyOp3
 70
     1
102
RTVSPropertyOp4
 70
     1
102
RTVSPropertyOp5
 70
     1
102
RTVSPropertyOp6
 70
     1
102
RTVSPropertyOp7
 70
     1
102
RTVSPropertyOp8
 70
     1
102
RTVSPropertyOp9
 70
     1
102
RTVSPropertyOp10
 70
     1
102
RTVSPropertyOp11
 70
     1
102
RTVSPropertyOp12
 70
     1
102
RTVSPropertyOp13
 70
     1
102
RTVSPropertyOp14
 70
     1
102
RTVSPropertyOp15
 70
     1
102
RTVSPropertyOp16
 70
     1
102
RTVSPropertyOp17
 70
     1
102
RTVSPropertyOp18
 70
     1
102
RTVSPropertyOp19
 70
     1
102
RTVSPropertyOp20
 70
     1
102
RTVSPropertyOp21
 70
     1
102
RTVSPropertyOp22
 70
     1
102
RTVSPropertyOp23
 70
     1
102
RTVSPropertyOp24
 70
     1
102
RTVSPropertyOp25
 70
     1
102
RTVSPropertyOp26
 70
     1
102
RTVSPropertyOp27
 70
     1
102
RTVSPropertyOp28
 70
     1
102
RTVSPropertyOp29
 70
     1
102
RTVSPropertyOp30
 70
     1
102
RTVSPropertyOp31
 70
     1
102
RTVSPropertyOp32
 70
     1
102
RTVSPropertyOp33
 70
     1
102
RTVSPropertyOp34
 70
     1
102
RTVSPropertyOp35
 70
     1
102
RTVSPropertyOp36
 70
     1
102
RTVSPropertyOp37
 70
     1
102
RTVSPropertyOp38
 70
     1
102
RTVSPropertyOp39
 70
     1
102
RTVSPropertyOp40
 70
     1
102
RTVSPropertyOp41
 70
     1
102
RTVSPropertyOp42
 70
     1
102
RTVSPropertyOp43
 70
     1
102
RTVSPropertyOp44
 70
     1
102
RTVSPropertyOp45
 70
     1
102
RTVSPropertyOp46
 70
     1
102
RTVSPropertyOp47
 70
     1
102
RTVSPropertyOp48
 70
     1
102
RTVSPropertyOp49
 70
     1
102
RTVSPropertyOp50
 70
     1
102
RTVSPropertyOp51
 70
     0
102
RTVSPropertyOp52
 70
     0
102
RTVSPropertyOp53
 70
     1
102
RTVSPropertyOp54
 70
     1
102
RTVSPropertyOp55
 70
     1
102
RTVSPropertyOp56
 70
     1
102
RTVSPropertyOp57
 70
     1
102
RTVSPropertyOp58
 70
     1
102
RTVSPropertyOp59
 70
     1
102
RTVSPropertyOp60
 70
     1
102
RTVSPropertyOp61
 70
     1
102
RTVSPropertyOp62
 70
     1
  0
XRECORD
  5
16B32
102
{ACAD_REACTORS
330
16B31
102
}
330
16B31
100
AcDbXrecord
280
     1
102
RTVSPost2010Prop28
280
     0
102
RTVSPost2010PropOp28
 70
     1
102
RTVSPost2010Prop29
280
     1
102
RTVSPost2010PropOp29
 70
     1
102
RTVSPost2010Prop30
280
     1
102
RTVSPost2010PropOp30
 70
     1
102
RTVSPost2010Prop31
280
     0
102
RTVSPost2010PropOp31
 70
     1
102
RTVSPost2010Prop32
280
     0
102
RTVSPost2010PropOp32
 70
     1
102
RTVSPost2010Prop33
280
     0
102
RTVSPost2010PropOp33
 70
     1
102
RTVSPost2010Prop34
280
     0
102
RTVSPost2010PropOp34
 70
     1
102
RTVSPost2010Prop35
280
     0
102
RTVSPost2010PropOp35
 70
     1
102
RTVSPost2010Prop36
280
     0
102
RTVSPost2010PropOp36
 70
     1
102
RTVSPost2010Prop37
 90
       50
102
RTVSPost2010PropOp37
 70
     1
102
RTVSPost2010Prop38
140
0.0
102
RTVSPost2010PropOp38
 70
     1
102
RTVSPost2010Prop39
140
1.0
102
RTVSPost2010PropOp39
 70
     1
102
RTVSPost2010Prop40
 90
        0
102
RTVSPost2010PropOp40
 70
     1
102
RTVSPost2010Prop41ColorIndex
 90
       18
102
RTVSPost2010Prop41ColorRGB
 90
        0
102
RTVSPost2010PropOp41
 70
     1
102
RTVSPost2010Prop42
 90
       50
102
RTVSPost2010PropOp42
 70
     1
102
RTVSPost2010Prop43
 90
        3
102
RTVSPost2010PropOp43
 70
     1
102
RTVSPost2010Prop44ColorIndex
 90
        5
102
RTVSPost2010Prop44ColorRGB
 90
      255
102
RTVSPost2010PropOp44
 70
     1
102
RTVSPost2010Prop45
280
     0
102
RTVSPost2010PropOp45
 70
     1
102
RTVSPost2010Prop46
 90
       50
102
RTVSPost2010PropOp46
 70
     1
102
RTVSPost2010Prop47
 90
       50
102
RTVSPost2010PropOp47
 70
     1
102
RTVSPost2010Prop48
 90
       50
102
RTVSPost2010PropOp48
 70
     1
102
RTVSPost2010Prop49
280
     0
102
RTVSPost2010PropOp49
 70
     1
102
RTVSPost2010Prop50
 90
       50
102
RTVSPost2010PropOp50
 70
     1
102
RTVSPost2010Prop51ColorIndex
 90
      256
102
RTVSPost2010Prop51ColorRGB
 90
-16777216
102
RTVSPost2010PropOp51
 70
     0
102
RTVSPost2010Prop52
140
1.0
102
RTVSPost2010PropOp52
 70
     0
102
RTVSPost2010Prop53
 90
        2
102
RTVSPost2010PropOp53
 70
     1
102
RTVSPost2010Prop54
  1
strokes_ogs.tif
102
RTVSPost2010PropOp54
 70
     1
102
RTVSPost2010Prop55
280
     0
102
RTVSPost2010PropOp55
 70
     1
102
RTVSPost2010Prop56
140
1.0
102
RTVSPost2010PropOp56
 70
     1
102
RTVSPost2010Prop57
140
1.0
102
RTVSPost2010PropOp57
 70
     1
102
RTVSPropertyOp0
 70
     1
102
RTVSPropertyOp1
 70
     1
102
RTVSPropertyOp2
 70
     1
102
RTVSPropertyOp3
 70
     1
102
RTVSPropertyOp4
 70
     1
102
RTVSPropertyOp5
 70
     1
102
RTVSPropertyOp6
 70
     1
102
RTVSPropertyOp7
 70
     1
102
RTVSPropertyOp8
 70
     1
102
RTVSPropertyOp9
 70
     1
102
RTVSPropertyOp10
 70
     1
102
RTVSPropertyOp11
 70
     1
102
RTVSPropertyOp12
 70
     1
102
RTVSPropertyOp13
 70
     1
102
RTVSPropertyOp14
 70
     1
102
RTVSPropertyOp15
 70
     1
102
RTVSPropertyOp16
 70
     1
102
RTVSPropertyOp17
 70
     1
102
RTVSPropertyOp18
 70
     1
102
RTVSPropertyOp19
 70
     1
102
RTVSPropertyOp20
 70
     1
102
RTVSPropertyOp21
 70
     1
102
RTVSPropertyOp22
 70
     1
102
RTVSPropertyOp23
 70
     1
102
RTVSPropertyOp24
 70
     1
102
RTVSPropertyOp25
 70
     1
102
RTVSPropertyOp26
 70
     1
102
RTVSPropertyOp27
 70
     1
102
RTVSPropertyOp28
 70
     1
102
RTVSPropertyOp29
 70
     1
102
RTVSPropertyOp30
 70
     1
102
RTVSPropertyOp31
 70
     1
102
RTVSPropertyOp32
 70
     1
102
RTVSPropertyOp33
 70
     1
102
RTVSPropertyOp34
 70
     1
102
RTVSPropertyOp35
 70
     1
102
RTVSPropertyOp36
 70
     1
102
RTVSPropertyOp37
 70
     1
102
RTVSPropertyOp38
 70
     1
102
RTVSPropertyOp39
 70
     1
102
RTVSPropertyOp40
 70
     1
102
RTVSPropertyOp41
 70
     1
102
RTVSPropertyOp42
 70
     1
102
RTVSPropertyOp43
 70
     1
102
RTVSPropertyOp44
 70
     1
102
RTVSPropertyOp45
 70
     1
102
RTVSPropertyOp46
 70
     1
102
RTVSPropertyOp47
 70
     1
102
RTVSPropertyOp48
 70
     1
102
RTVSPropertyOp49
 70
     1
102
RTVSPropertyOp50
 70
     1
102
RTVSPropertyOp51
 70
     0
102
RTVSPropertyOp52
 70
     0
102
RTVSPropertyOp53
 70
     1
102
RTVSPropertyOp54
 70
     1
102
RTVSPropertyOp55
 70
     1
102
RTVSPropertyOp56
 70
     1
102
RTVSPropertyOp57
 70
     1
102
RTVSPropertyOp58
 70
     1
102
RTVSPropertyOp59
 70
     1
102
RTVSPropertyOp60
 70
     1
102
RTVSPropertyOp61
 70
     1
102
RTVSPropertyOp62
 70
     1
  0
XRECORD
  5
16B4A
102
{ACAD_REACTORS
330
16B49
102
}
330
16B49
100
AcDbXrecord
280
     1
102
RTVSPost2010Prop28
280
     0
102
RTVSPost2010PropOp28
 70
     1
102
RTVSPost2010Prop29
280
     1
102
RTVSPost2010PropOp29
 70
     1
102
RTVSPost2010Prop30
280
     1
102
RTVSPost2010PropOp30
 70
     1
102
RTVSPost2010Prop31
280
     0
102
RTVSPost2010PropOp31
 70
     1
102
RTVSPost2010Prop32
280
     0
102
RTVSPost2010PropOp32
 70
     1
102
RTVSPost2010Prop33
280
     0
102
RTVSPost2010PropOp33
 70
     1
102
RTVSPost2010Prop34
280
     0
102
RTVSPost2010PropOp34
 70
     1
102
RTVSPost2010Prop35
280
     0
102
RTVSPost2010PropOp35
 70
     1
102
RTVSPost2010Prop36
280
     0
102
RTVSPost2010PropOp36
 70
     1
102
RTVSPost2010Prop37
 90
       50
102
RTVSPost2010PropOp37
 70
     1
102
RTVSPost2010Prop38
140
0.0
102
RTVSPost2010PropOp38
 70
     1
102
RTVSPost2010Prop39
140
1.0
102
RTVSPost2010PropOp39
 70
     1
102
RTVSPost2010Prop40
 90
        0
102
RTVSPost2010PropOp40
 70
     1
102
RTVSPost2010Prop41ColorIndex
 90
       18
102
RTVSPost2010Prop41ColorRGB
 90
        0
102
RTVSPost2010PropOp41
 70
     1
102
RTVSPost2010Prop42
 90
       50
102
RTVSPost2010PropOp42
 70
     1
102
RTVSPost2010Prop43
 90
        3
102
RTVSPost2010PropOp43
 70
     1
102
RTVSPost2010Prop44ColorIndex
 90
        5
102
RTVSPost2010Prop44ColorRGB
 90
      255
102
RTVSPost2010PropOp44
 70
     1
102
RTVSPost2010Prop45
280
     0
102
RTVSPost2010PropOp45
 70
     1
102
RTVSPost2010Prop46
 90
       50
102
RTVSPost2010PropOp46
 70
     1
102
RTVSPost2010Prop47
 90
       50
102
RTVSPost2010PropOp47
 70
     1
102
RTVSPost2010Prop48
 90
       50
102
RTVSPost2010PropOp48
 70
     1
102
RTVSPost2010Prop49
280
     0
102
RTVSPost2010PropOp49
 70
     1
102
RTVSPost2010Prop50
 90
       50
102
RTVSPost2010PropOp50
 70
     1
102
RTVSPost2010Prop51ColorIndex
 90
      256
102
RTVSPost2010Prop51ColorRGB
 90
-16777216
102
RTVSPost2010PropOp51
 70
     0
102
RTVSPost2010Prop52
140
1.0
102
RTVSPost2010PropOp52
 70
     0
102
RTVSPost2010Prop53
 90
        2
102
RTVSPost2010PropOp53
 70
     1
102
RTVSPost2010Prop54
  1
strokes_ogs.tif
102
RTVSPost2010PropOp54
 70
     1
102
RTVSPost2010Prop55
280
     0
102
RTVSPost2010PropOp55
 70
     1
102
RTVSPost2010Prop56
140
1.0
102
RTVSPost2010PropOp56
 70
     1
102
RTVSPost2010Prop57
140
1.0
102
RTVSPost2010PropOp57
 70
     1
102
RTVSPropertyOp0
 70
     1
102
RTVSPropertyOp1
 70
     1
102
RTVSPropertyOp2
 70
     1
102
RTVSPropertyOp3
 70
     1
102
RTVSPropertyOp4
 70
     1
102
RTVSPropertyOp5
 70
     1
102
RTVSPropertyOp6
 70
     1
102
RTVSPropertyOp7
 70
     1
102
RTVSPropertyOp8
 70
     1
102
RTVSPropertyOp9
 70
     1
102
RTVSPropertyOp10
 70
     1
102
RTVSPropertyOp11
 70
     1
102
RTVSPropertyOp12
 70
     1
102
RTVSPropertyOp13
 70
     1
102
RTVSPropertyOp14
 70
     1
102
RTVSPropertyOp15
 70
     1
102
RTVSPropertyOp16
 70
     1
102
RTVSPropertyOp17
 70
     1
102
RTVSPropertyOp18
 70
     1
102
RTVSPropertyOp19
 70
     1
102
RTVSPropertyOp20
 70
     1
102
RTVSPropertyOp21
 70
     1
102
RTVSPropertyOp22
 70
     1
102
RTVSPropertyOp23
 70
     1
102
RTVSPropertyOp24
 70
     1
102
RTVSPropertyOp25
 70
     1
102
RTVSPropertyOp26
 70
     1
102
RTVSPropertyOp27
 70
     1
102
RTVSPropertyOp28
 70
     1
102
RTVSPropertyOp29
 70
     1
102
RTVSPropertyOp30
 70
     1
102
RTVSPropertyOp31
 70
     1
102
RTVSPropertyOp32
 70
     1
102
RTVSPropertyOp33
 70
     1
102
RTVSPropertyOp34
 70
     1
102
RTVSPropertyOp35
 70
     1
102
RTVSPropertyOp36
 70
     1
102
RTVSPropertyOp37
 70
     1
102
RTVSPropertyOp38
 70
     1
102
RTVSPropertyOp39
 70
     1
102
RTVSPropertyOp40
 70
     1
102
RTVSPropertyOp41
 70
     1
102
RTVSPropertyOp42
 70
     1
102
RTVSPropertyOp43
 70
     1
102
RTVSPropertyOp44
 70
     1
102
RTVSPropertyOp45
 70
     1
102
RTVSPropertyOp46
 70
     1
102
RTVSPropertyOp47
 70
     1
102
RTVSPropertyOp48
 70
     1
102
RTVSPropertyOp49
 70
     1
102
RTVSPropertyOp50
 70
     1
102
RTVSPropertyOp51
 70
     0
102
RTVSPropertyOp52
 70
     0
102
RTVSPropertyOp53
 70
     1
102
RTVSPropertyOp54
 70
     1
102
RTVSPropertyOp55
 70
     1
102
RTVSPropertyOp56
 70
     1
102
RTVSPropertyOp57
 70
     1
102
RTVSPropertyOp58
 70
     1
102
RTVSPropertyOp59
 70
     1
102
RTVSPropertyOp60
 70
     1
102
RTVSPropertyOp61
 70
     1
102
RTVSPropertyOp62
 70
     1
  0
ENDSEC
  0
EOF
