  0
SECTION
  2
HEADER
  9
$ACADVER
  1
AC1015
  9
$ACADMAINTVER
 70
    20
  9
$DWGCODEPAGE
  3
ANSI_932
  9
$INSBASE
 10
0.0
 20
0.0
 30
0.0
  9
$EXTMIN
 10
9.99995
 20
9.999999999999998
 30
0.0
  9
$EXTMAX
 10
327.2799989999999
 20
162.0
 30
0.0
  9
$LIMMIN
 10
0.0
 20
0.0
  9
$LIMMAX
 10
396.0
 20
273.0
  9
$ORTHOMODE
 70
     1
  9
$REGENMODE
 70
     1
  9
$FILLMODE
 70
     1
  9
$QTEXTMODE
 70
     0
  9
$MIRRTEXT
 70
     1
  9
$LTSCALE
 40
20.0
  9
$ATTMODE
 70
     1
  9
$TEXTSIZE
 40
5.0
  9
$TRACEWID
 40
1.0
  9
$TEXTSTYLE
  7
STANDARD
  9
$CLAYER
  8
0
  9
$CELTYPE
  6
BYLAYER
  9
$CECOLOR
 62
   256
  9
$CELTSCALE
 40
1.0
  9
$DISPSILH
 70
     0
  9
$DIMSCALE
 40
1.0
  9
$DIMASZ
 40
3.0
  9
$DIMEXO
 40
1.0
  9
$DIMDLI
 40
10.0
  9
$DIMRND
 40
0.0
  9
$DIMDLE
 40
0.0
  9
$DIMEXE
 40
1.0
  9
$DIMTP
 40
0.0
  9
$DIMTM
 40
0.0
  9
$DIMTXT
 40
3.2
  9
$DIMCEN
 40
0.0
  9
$DIMTSZ
 40
0.0
  9
$DIMTOL
 70
     0
  9
$DIMLIM
 70
     0
  9
$DIMTIH
 70
     0
  9
$DIMTOH
 70
     0
  9
$DIMSE1
 70
     0
  9
$DIMSE2
 70
     0
  9
$DIMTAD
 70
     3
  9
$DIMZIN
 70
     8
  9
$DIMBLK
  1

  9
$DIMASO
 70
     1
  9
$DIMSHO
 70
     1
  9
$DIMPOST
  1

  9
$DIMAPOST
  1

  9
$DIMALT
 70
     0
  9
$DIMALTD
 70
     2
  9
$DIMALTF
 40
25.4
  9
$DIMLFAC
 40
1.0
  9
$DIMTOFL
 70
     1
  9
$DIMTVP
 40
0.0
  9
$DIMTIX
 70
     0
  9
$DIMSOXD
 70
     0
  9
$DIMSAH
 70
     1
  9
$DIMBLK1
  1

  9
$DIMBLK2
  1

  9
$DIMSTYLE
  2
STANDARD
  9
$DIMCLRD
 70
     0
  9
$DIMCLRE
 70
     0
  9
$DIMCLRT
 70
     0
  9
$DIMTFAC
 40
1.0
  9
$DIMGAP
 40
1.0
  9
$DIMJUST
 70
     0
  9
$DIMSD1
 70
     0
  9
$DIMSD2
 70
     0
  9
$DIMTOLJ
 70
     1
  9
$DIMTZIN
 70
     0
  9
$DIMALTZ
 70
     0
  9
$DIMALTTZ
 70
     0
  9
$DIMUPT
 70
     0
  9
$DIMDEC
 70
     4
  9
$DIMTDEC
 70
     4
  9
$DIMALTU
 70
     2
  9
$DIMALTTD
 70
     2
  9
$DIMTXSTY
  7
STANDARD
  9
$DIMAUNIT
 70
     0
  9
$DIMADEC
 70
     0
  9
$DIMALTRND
 40
0.0
  9
$DIMAZIN
 70
     0
  9
$DIMDSEP
 70
    46
  9
$DIMATFIT
 70
     3
  9
$DIMFRAC
 70
     0
  9
$DIMLDRBLK
  1

  9
$DIMLUNIT
 70
     2
  9
$DIMLWD
 70
    -2
  9
$DIMLWE
 70
    -2
  9
$DIMTMOVE
 70
     0
  9
$LUNITS
 70
     2
  9
$LUPREC
 70
     4
  9
$SKETCHINC
 40
1.0
  9
$FILLETRAD
 40
2.5
  9
$AUNITS
 70
     0
  9
$AUPREC
 70
     2
  9
$MENU
  1
.
  9
$ELEVATION
 40
0.0
  9
$PELEVATION
 40
0.0
  9
$THICKNESS
 40
0.0
  9
$LIMCHECK
 70
     0
  9
$CHAMFERA
 40
10.0
  9
$CHAMFERB
 40
10.0
  9
$CHAMFERC
 40
0.0
  9
$CHAMFERD
 40
0.0
  9
$SKPOLY
 70
     0
  9
$TDCREATE
 40
2451054.635459954
  9
$TDUCREATE
 40
2451054.260459954
  9
$TDUPDATE
 40
2457192.621215382
  9
$TDUUPDATE
 40
2457192.246215382
  9
$TDINDWG
 40
0.0000166782
  9
$TDUSRTIMER
 40
0.0000163657
  9
$USRTIMER
 70
     1
  9
$ANGBASE
 50
0.0
  9
$ANGDIR
 70
     0
  9
$PDMODE
 70
     0
  9
$PDSIZE
 40
0.0
  9
$PLINEWID
 40
0.0
  9
$SPLFRAME
 70
     0
  9
$SPLINETYPE
 70
     6
  9
$SPLINESEGS
 70
     8
  9
$HANDSEED
  5
9677
  9
$SURFTAB1
 70
     6
  9
$SURFTAB2
 70
     6
  9
$SURFTYPE
 70
     6
  9
$SURFU
 70
     6
  9
$SURFV
 70
     6
  9
$UCSBASE
  2

  9
$UCSNAME
  2

  9
$UCSORG
 10
0.0
 20
0.0
 30
0.0
  9
$UCSXDIR
 10
1.0
 20
0.0
 30
0.0
  9
$UCSYDIR
 10
0.0
 20
1.0
 30
0.0
  9
$UCSORTHOREF
  2

  9
$UCSORTHOVIEW
 70
     0
  9
$UCSORGTOP
 10
0.0
 20
0.0
 30
0.0
  9
$UCSORGBOTTOM
 10
0.0
 20
0.0
 30
0.0
  9
$UCSORGLEFT
 10
0.0
 20
0.0
 30
0.0
  9
$UCSORGRIGHT
 10
0.0
 20
0.0
 30
0.0
  9
$UCSORGFRONT
 10
0.0
 20
0.0
 30
0.0
  9
$UCSORGBACK
 10
0.0
 20
0.0
 30
0.0
  9
$PUCSBASE
  2

  9
$PUCSNAME
  2

  9
$PUCSORG
 10
0.0
 20
0.0
 30
0.0
  9
$PUCSXDIR
 10
1.0
 20
0.0
 30
0.0
  9
$PUCSYDIR
 10
0.0
 20
1.0
 30
0.0
  9
$PUCSORTHOREF
  2

  9
$PUCSORTHOVIEW
 70
     0
  9
$PUCSORGTOP
 10
0.0
 20
0.0
 30
0.0
  9
$PUCSORGBOTTOM
 10
0.0
 20
0.0
 30
0.0
  9
$PUCSORGLEFT
 10
0.0
 20
0.0
 30
0.0
  9
$PUCSORGRIGHT
 10
0.0
 20
0.0
 30
0.0
  9
$PUCSORGFRONT
 10
0.0
 20
0.0
 30
0.0
  9
$PUCSORGBACK
 10
0.0
 20
0.0
 30
0.0
  9
$USERI1
 70
     0
  9
$USERI2
 70
     0
  9
$USERI3
 70
     0
  9
$USERI4
 70
     0
  9
$USERI5
 70
     0
  9
$USERR1
 40
0.0
  9
$USERR2
 40
0.0
  9
$USERR3
 40
0.0
  9
$USERR4
 40
0.0
  9
$USERR5
 40
0.0
  9
$WORLDVIEW
 70
     1
  9
$SHADEDGE
 70
     3
  9
$SHADEDIF
 70
    70
  9
$TILEMODE
 70
     1
  9
$MAXACTVP
 70
    16
  9
$PINSBASE
 10
0.0
 20
0.0
 30
0.0
  9
$PLIMCHECK
 70
     0
  9
$PEXTMIN
 10
1.000000000000000E+20
 20
1.000000000000000E+20
 30
1.000000000000000E+20
  9
$PEXTMAX
 10
-1.000000000000000E+20
 20
-1.000000000000000E+20
 30
-1.000000000000000E+20
  9
$PLIMMIN
 10
0.0
 20
0.0
  9
$PLIMMAX
 10
420.0
 20
297.0
  9
$UNITMODE
 70
     0
  9
$VISRETAIN
 70
     0
  9
$PLINEGEN
 70
     0
  9
$PSLTSCALE
 70
     0
  9
$TREEDEPTH
 70
  3020
  9
$CMLSTYLE
  2
STANDARD
  9
$CMLJUST
 70
     0
  9
$CMLSCALE
 40
1.0
  9
$PROXYGRAPHICS
 70
     1
  9
$MEASUREMENT
 70
     0
  9
$CELWEIGHT
370
    -1
  9
$ENDCAPS
280
     0
  9
$JOINSTYLE
280
     0
  9
$LWDISPLAY
290
     0
  9
$INSUNITS
 70
     0
  9
$HYPERLINKBASE
  1

  9
$STYLESHEET
  1

  9
$XEDIT
290
     1
  9
$CEPSNTYPE
380
     0
  9
$PSTYLEMODE
290
     1
  9
$FINGERPRINTGUID
  2
{81C2C7A4-821A-4E7C-BC2B-3F7D399AD9C3}
  9
$VERSIONGUID
  2
{1C2EAEE0-D7CC-4645-8D35-650B6B0324F9}
  9
$EXTNAMES
290
     1
  9
$PSVPSCALE
 40
0.0
  9
$OLESTARTUP
290
     0
  0
ENDSEC
  0
SECTION
  2
CLASSES
  0
CLASS
  1
ACDBDICTIONARYWDFLT
  2
AcDbDictionaryWithDefault
  3
ObjectDBX Classes
 90
        0
280
     0
281
     0
  0
CLASS
  1
ACDBPLACEHOLDER
  2
AcDbPlaceHolder
  3
ObjectDBX Classes
 90
        0
280
     0
281
     0
  0
CLASS
  1
LAYOUT
  2
AcDbLayout
  3
ObjectDBX Classes
 90
        0
280
     0
281
     0
  0
CLASS
  1
DICTIONARYVAR
  2
AcDbDictionaryVar
  3
ObjectDBX Classes
 90
        0
280
     0
281
     0
  0
CLASS
  1
MATERIAL
  2
AcDbMaterial
  3
ObjectDBX Classes
 90
     1153
280
     0
281
     0
  0
CLASS
  1
VISUALSTYLE
  2
AcDbVisualStyle
  3
ObjectDBX Classes
 90
     4095
280
     0
281
     0
  0
CLASS
  1
TABLESTYLE
  2
AcDbTableStyle
  3
ObjectDBX Classes
 90
     4095
280
     0
281
     0
  0
CLASS
  1
SCALE
  2
AcDbScale
  3
ObjectDBX Classes
 90
     1153
280
     0
281
     0
  0
CLASS
  1
MLEADERSTYLE
  2
AcDbMLeaderStyle
  3
ACDB_MLEADERSTYLE_CLASS
 90
     4095
280
     0
281
     0
  0
CLASS
  1
ACDBSECTIONVIEWSTYLE
  2
AcDbSectionViewStyle
  3
ObjectDBX Classes
 90
     1025
280
     0
281
     0
  0
CLASS
  1
ACDBDETAILVIEWSTYLE
  2
AcDbDetailViewStyle
  3
ObjectDBX Classes
 90
     1025
280
     0
281
     0
  0
CLASS
  1
CELLSTYLEMAP
  2
AcDbCellStyleMap
  3
ObjectDBX Classes
 90
     1152
280
     0
281
     0
  0
ENDSEC
  0
SECTION
  2
TABLES
  0
TABLE
  2
VPORT
  5
9370
330
0
100
AcDbSymbolTable
 70
     1
  0
VPORT
  5
95C0
330
9370
100
AcDbSymbolTableRecord
100
AcDbViewportTableRecord
  2
*ACTIVE
 70
     0
 10
0.0
 20
0.0
 11
1.0
 21
1.0
 12
223.2828685229815
 22
86.00191555486743
 13
0.0
 23
0.0
 14
10.0
 24
10.0
 15
10.0
 25
10.0
 16
0.0
 26
0.0
 36
1.0
 17
0.0
 27
0.0
 37
0.0
 40
182.3986782708489
 41
1.899603698811096
 42
50.0
 43
0.0
 44
0.0
 50
0.0
 51
0.0
 71
     0
 72
   100
 73
     1
 74
     0
 75
     0
 76
     0
 77
     0
 78
     0
281
     0
 65
     1
110
0.0
120
0.0
130
0.0
111
1.0
121
0.0
131
0.0
112
0.0
122
1.0
132
0.0
 79
     0
146
0.0
1001
ACAD_NAV_VCDISPLAY
1070
     3
  0
ENDTAB
  0
TABLE
  2
LTYPE
  5
936D
330
0
100
AcDbSymbolTable
 70
     4
  0
LTYPE
  5
937B
330
936D
100
AcDbSymbolTableRecord
100
AcDbLinetypeTableRecord
  2
BYBLOCK
 70
     0
  3

 72
    65
 73
     0
 40
0.0
  0
LTYPE
  5
937C
330
936D
100
AcDbSymbolTableRecord
100
AcDbLinetypeTableRecord
  2
BYLAYER
 70
     0
  3

 72
    65
 73
     0
 40
0.0
  0
LTYPE
  5
937D
330
936D
100
AcDbSymbolTableRecord
100
AcDbLinetypeTableRecord
  2
CONTINUOUS
 70
     0
  3
Solid line
 72
    65
 73
     0
 40
0.0
  0
LTYPE
  5
938B
330
936D
100
AcDbSymbolTableRecord
100
AcDbLinetypeTableRecord
  2
DASHED
 70
     0
  3
__ __ __ __ __ __ __ __ __ __ __ __ __ __ __ __
 72
    65
 73
     2
 40
0.75
 49
0.5
 74
     0
 49
-0.25
 74
     0
  0
LTYPE
  5
938C
330
936D
100
AcDbSymbolTableRecord
100
AcDbLinetypeTableRecord
  2
CENTER
 70
     0
  3
____ _ ____ _ ____ _ ____ _ ____ _ ____ _ ____ 
 72
    65
 73
     4
 40
2.0
 49
1.25
 74
     0
 49
-0.25
 74
     0
 49
0.25
 74
     0
 49
-0.25
 74
     0
  0
LTYPE
  5
938D
330
936D
100
AcDbSymbolTableRecord
100
AcDbLinetypeTableRecord
  2
PHANTOM
 70
     0
  3
______  __  __  ______  __  __  ______  __  __ 
 72
    65
 73
     6
 40
2.5
 49
1.25
 74
     0
 49
-0.25
 74
     0
 49
0.25
 74
     0
 49
-0.25
 74
     0
 49
0.25
 74
     0
 49
-0.25
 74
     0
  0
ENDTAB
  0
TABLE
  2
LAYER
  5
936A
330
0
100
AcDbSymbolTable
 70
     8
  0
LAYER
  5
9378
102
{ACAD_XDICTIONARY
360
961B
102
}
330
936A
100
AcDbSymbolTableRecord
100
AcDbLayerTableRecord
  2
0
 70
     0
 62
     7
  6
CONTINUOUS
370
    -3
390
95C9
  0
LAYER
  5
938E
102
{ACAD_XDICTIONARY
360
961D
102
}
330
936A
100
AcDbSymbolTableRecord
100
AcDbLayerTableRecord
  2
4
 70
     0
 62
     1
  6
CENTER
370
    -3
390
95C9
  0
LAYER
  5
938F
102
{ACAD_XDICTIONARY
360
961F
102
}
330
936A
100
AcDbSymbolTableRecord
100
AcDbLayerTableRecord
  2
5
 70
     0
 62
     6
  6
PHANTOM
370
    -3
390
95C9
  0
LAYER
  5
9390
102
{ACAD_XDICTIONARY
360
9621
102
}
330
936A
100
AcDbSymbolTableRecord
100
AcDbLayerTableRecord
  2
1
 70
     0
 62
     7
  6
CONTINUOUS
370
    -3
390
95C9
  0
LAYER
  5
9391
102
{ACAD_XDICTIONARY
360
9623
102
}
330
936A
100
AcDbSymbolTableRecord
100
AcDbLayerTableRecord
  2
2
 70
     0
 62
     4
  6
CONTINUOUS
370
    -3
390
95C9
  0
LAYER
  5
9392
102
{ACAD_XDICTIONARY
360
9625
102
}
330
936A
100
AcDbSymbolTableRecord
100
AcDbLayerTableRecord
  2
3
 70
     0
 62
     2
  6
DASHED
370
    -3
390
95C9
  0
LAYER
  5
9393
102
{ACAD_XDICTIONARY
360
9627
102
}
330
936A
100
AcDbSymbolTableRecord
100
AcDbLayerTableRecord
  2
6
 70
     0
 62
     5
  6
CONTINUOUS
370
    -3
390
95C9
  0
LAYER
  5
9394
102
{ACAD_XDICTIONARY
360
9629
102
}
330
936A
100
AcDbSymbolTableRecord
100
AcDbLayerTableRecord
  2
7
 70
     0
 62
     3
  6
CONTINUOUS
370
    -3
390
95C9
  0
ENDTAB
  0
TABLE
  2
STYLE
  5
936B
330
0
100
AcDbSymbolTable
 70
     1
  0
STYLE
  5
9379
330
936B
100
AcDbSymbolTableRecord
100
AcDbTextStyleTableRecord
  2
STANDARD
 70
     0
 40
0.0
 41
1.0
 50
0.0
 71
     0
 42
5.0
  3
txt
  4

  0
ENDTAB
  0
TABLE
  2
VIEW
  5
936E
330
0
100
AcDbSymbolTable
 70
     0
  0
ENDTAB
  0
TABLE
  2
UCS
  5
936F
330
0
100
AcDbSymbolTable
 70
     0
  0
ENDTAB
  0
TABLE
  2
APPID
  5
9371
330
0
100
AcDbSymbolTable
 70
     3
  0
APPID
  5
937A
330
9371
100
AcDbSymbolTableRecord
100
AcDbRegAppTableRecord
  2
ACAD
 70
     0
  0
APPID
  5
9635
330
9371
100
AcDbSymbolTableRecord
100
AcDbRegAppTableRecord
  2
ACAD_NAV_VCDISPLAY
 70
     0
  0
APPID
  5
966E
330
9371
100
AcDbSymbolTableRecord
100
AcDbRegAppTableRecord
  2
ACAD_MLEADERVER
 70
     0
  0
ENDTAB
  0
TABLE
  2
DIMSTYLE
  5
9372
330
0
100
AcDbSymbolTable
 70
     1
100
AcDbDimStyleTable
 71
     0
  0
DIMSTYLE
105
9396
330
9372
100
AcDbSymbolTableRecord
100
AcDbDimStyleTableRecord
  2
STANDARD
 70
     0
 41
3.0
 42
1.0
 43
10.0
 44
1.0
 73
     0
 74
     0
 77
     3
 78
     8
140
3.2
141
0.0
147
1.0
172
     1
173
     1
284
     8
285
     8
286
     8
340
9379
  0
ENDTAB
  0
TABLE
  2
BLOCK_RECORD
  5
9369
330
0
100
AcDbSymbolTable
 70
     0
  0
BLOCK_RECORD
  5
9386
102
{ACAD_XDICTIONARY
360
95C3
102
}
330
9369
100
AcDbSymbolTableRecord
100
AcDbBlockTableRecord
  2
*MODEL_SPACE
340
9617
  0
BLOCK_RECORD
  5
9382
102
{ACAD_XDICTIONARY
360
95C1
102
}
330
9369
100
AcDbSymbolTableRecord
100
AcDbBlockTableRecord
  2
*PAPER_SPACE
340
9618
  0
ENDTAB
  0
ENDSEC
  0
SECTION
  2
BLOCKS
  0
BLOCK
  5
9387
330
9386
100
AcDbEntity
  8
0
100
AcDbBlockBegin
  2
*MODEL_SPACE
 70
     0
 10
0.0
 20
0.0
 30
0.0
  3
*MODEL_SPACE
  1

  0
ENDBLK
  5
9388
330
9386
100
AcDbEntity
  8
0
100
AcDbBlockEnd
  0
BLOCK
  5
9383
330
9382
100
AcDbEntity
 67
     1
  8
0
100
AcDbBlockBegin
  2
*PAPER_SPACE
 70
     0
 10
0.0
 20
0.0
 30
0.0
  3
*PAPER_SPACE
  1

  0
ENDBLK
  5
9384
330
9382
100
AcDbEntity
 67
     1
  8
0
100
AcDbBlockEnd
  0
ENDSEC
  0
SECTION
  2
ENTITIES
  0
LINE
  5
939E
330
9386
100
AcDbEntity
  8
1
  6
Continuous
100
AcDbLine
 10
72.99999200000002
 20
41.0
 30
0.0
 11
153.6399989999999
 21
41.0
 31
0.0
  0
LINE
  5
939F
330
9386
100
AcDbEntity
  8
1
  6
Continuous
100
AcDbLine
 10
153.6399989999999
 20
44.0
 30
0.0
 11
153.6399989999999
 21
41.0
 31
0.0
  0
LINE
  5
93A0
330
9386
100
AcDbEntity
  8
1
  6
Continuous
100
AcDbLine
 10
72.99999200000002
 20
44.0
 30
0.0
 11
153.6399989999999
 21
44.0
 31
0.0
  0
LINE
  5
93A1
330
9386
100
AcDbEntity
  8
1
  6
Continuous
100
AcDbLine
 10
153.6399989999999
 20
160.0
 30
0.0
 11
153.6399989999999
 21
157.0
 31
0.0
  0
LINE
  5
93A2
330
9386
100
AcDbEntity
  8
1
  6
Continuous
100
AcDbLine
 10
72.99999200000002
 20
160.0
 30
0.0
 11
153.6399989999999
 21
160.0
 31
0.0
  0
LINE
  5
93A3
330
9386
100
AcDbEntity
  8
1
  6
Continuous
100
AcDbLine
 10
72.99999200000002
 20
157.0
 30
0.0
 11
153.6399989999999
 21
157.0
 31
0.0
  0
LINE
  5
93A4
330
9386
100
AcDbEntity
  8
1
  6
Continuous
100
AcDbLine
 10
153.6399989999999
 20
94.0
 30
0.0
 11
153.6399989999999
 21
100.5
 31
0.0
  0
LINE
  5
93A5
330
9386
100
AcDbEntity
  8
1
  6
Continuous
100
AcDbLine
 10
72.99999200000002
 20
94.0
 30
0.0
 11
153.6399989999999
 21
94.0
 31
0.0
  0
LINE
  5
93A6
330
9386
100
AcDbEntity
  8
1
  6
Continuous
100
AcDbLine
 10
72.99999200000002
 20
44.0
 30
0.0
 11
72.99999200000002
 21
41.0
 31
0.0
  0
LINE
  5
93A7
330
9386
100
AcDbEntity
  8
1
  6
Continuous
100
AcDbLine
 10
72.99999200000002
 20
100.400002
 30
0.0
 11
72.99999200000002
 21
94.0
 31
0.0
  0
LINE
  5
93A8
330
9386
100
AcDbEntity
  8
1
  6
Continuous
100
AcDbLine
 10
72.99999200000002
 20
160.0
 30
0.0
 11
72.99999200000002
 21
157.0
 31
0.0
  0
LINE
  5
93A9
330
9386
100
AcDbEntity
  8
1
  6
Continuous
100
AcDbLine
 10
153.3249969999999
 20
160.0
 30
0.0
 11
153.3249969999999
 21
157.0
 31
0.0
  0
LINE
  5
93AA
330
9386
100
AcDbEntity
  8
1
  6
Continuous
100
AcDbLine
 10
152.6949919999998
 20
160.0
 30
0.0
 11
152.6949919999998
 21
157.0
 31
0.0
  0
LINE
  5
93AB
330
9386
100
AcDbEntity
  8
1
  6
Continuous
100
AcDbLine
 10
152.0650019999999
 20
160.0
 30
0.0
 11
152.0650019999999
 21
157.0
 31
0.0
  0
LINE
  5
93AC
330
9386
100
AcDbEntity
  8
1
  6
Continuous
100
AcDbLine
 10
151.434998
 20
160.0
 30
0.0
 11
151.434998
 21
157.0
 31
0.0
  0
LINE
  5
93AD
330
9386
100
AcDbEntity
  8
1
  6
Continuous
100
AcDbLine
 10
150.804993
 20
160.0
 30
0.0
 11
150.804993
 21
157.0
 31
0.0
  0
LINE
  5
93AE
330
9386
100
AcDbEntity
  8
1
  6
Continuous
100
AcDbLine
 10
150.174988
 20
160.0
 30
0.0
 11
150.174988
 21
157.0
 31
0.0
  0
LINE
  5
93AF
330
9386
100
AcDbEntity
  8
1
  6
Continuous
100
AcDbLine
 10
149.544998
 20
160.0
 30
0.0
 11
149.544998
 21
157.0
 31
0.0
  0
LINE
  5
93B0
330
9386
100
AcDbEntity
  8
1
  6
Continuous
100
AcDbLine
 10
148.9149929999999
 20
160.0
 30
0.0
 11
148.9149929999999
 21
157.0
 31
0.0
  0
LINE
  5
93B1
330
9386
100
AcDbEntity
  8
1
  6
Continuous
100
AcDbLine
 10
148.284988
 20
160.0
 30
0.0
 11
148.284988
 21
157.0
 31
0.0
  0
LINE
  5
93B2
330
9386
100
AcDbEntity
  8
1
  6
Continuous
100
AcDbLine
 10
147.654999
 20
160.0
 30
0.0
 11
147.654999
 21
157.0
 31
0.0
  0
LINE
  5
93B3
330
9386
100
AcDbEntity
  8
1
  6
Continuous
100
AcDbLine
 10
147.0249939999999
 20
160.0
 30
0.0
 11
147.0249939999999
 21
157.0
 31
0.0
  0
LINE
  5
93B4
330
9386
100
AcDbEntity
  8
1
  6
Continuous
100
AcDbLine
 10
146.3949889999998
 20
160.0
 30
0.0
 11
146.3949889999998
 21
157.0
 31
0.0
  0
LINE
  5
93B5
330
9386
100
AcDbEntity
  8
1
  6
Continuous
100
AcDbLine
 10
145.7649989999999
 20
160.0
 30
0.0
 11
145.7649989999999
 21
157.0
 31
0.0
  0
LINE
  5
93B6
330
9386
100
AcDbEntity
  8
1
  6
Continuous
100
AcDbLine
 10
145.1349949999998
 20
160.0
 30
0.0
 11
145.1349949999998
 21
157.0
 31
0.0
  0
LINE
  5
93B7
330
9386
100
AcDbEntity
  8
1
  6
Continuous
100
AcDbLine
 10
144.5049899999998
 20
160.0
 30
0.0
 11
144.5049899999998
 21
157.0
 31
0.0
  0
LINE
  5
93B8
330
9386
100
AcDbEntity
  8
1
  6
Continuous
100
AcDbLine
 10
143.8749999999998
 20
160.0
 30
0.0
 11
143.8749999999998
 21
157.0
 31
0.0
  0
LINE
  5
93B9
330
9386
100
AcDbEntity
  8
1
  6
Continuous
100
AcDbLine
 10
143.2449949999998
 20
160.0
 30
0.0
 11
143.2449949999998
 21
157.0
 31
0.0
  0
LINE
  5
93BA
330
9386
100
AcDbEntity
  8
1
  6
Continuous
100
AcDbLine
 10
142.6149899999998
 20
160.0
 30
0.0
 11
142.6149899999998
 21
157.0
 31
0.0
  0
LINE
  5
93BB
330
9386
100
AcDbEntity
  8
1
  6
Continuous
100
AcDbLine
 10
141.985001
 20
160.0
 30
0.0
 11
141.985001
 21
157.0
 31
0.0
  0
LINE
  5
93BC
330
9386
100
AcDbEntity
  8
1
  6
Continuous
100
AcDbLine
 10
141.354996
 20
160.0
 30
0.0
 11
141.354996
 21
157.0
 31
0.0
  0
LINE
  5
93BD
330
9386
100
AcDbEntity
  8
1
  6
Continuous
100
AcDbLine
 10
140.7249909999999
 20
160.0
 30
0.0
 11
140.7249909999999
 21
157.0
 31
0.0
  0
LINE
  5
93BE
330
9386
100
AcDbEntity
  8
1
  6
Continuous
100
AcDbLine
 10
140.095001
 20
160.0
 30
0.0
 11
140.095001
 21
157.0
 31
0.0
  0
LINE
  5
93BF
330
9386
100
AcDbEntity
  8
1
  6
Continuous
100
AcDbLine
 10
139.4649959999999
 20
160.0
 30
0.0
 11
139.4649959999999
 21
157.0
 31
0.0
  0
LINE
  5
93C0
330
9386
100
AcDbEntity
  8
1
  6
Continuous
100
AcDbLine
 10
138.834991
 20
160.0
 30
0.0
 11
138.834991
 21
157.0
 31
0.0
  0
LINE
  5
93C1
330
9386
100
AcDbEntity
  8
1
  6
Continuous
100
AcDbLine
 10
138.205002
 20
160.0
 30
0.0
 11
138.205002
 21
157.0
 31
0.0
  0
LINE
  5
93C2
330
9386
100
AcDbEntity
  8
1
  6
Continuous
100
AcDbLine
 10
137.5749969999999
 20
160.0
 30
0.0
 11
137.5749969999999
 21
157.0
 31
0.0
  0
LINE
  5
93C3
330
9386
100
AcDbEntity
  8
1
  6
Continuous
100
AcDbLine
 10
136.9449919999998
 20
160.0
 30
0.0
 11
136.9449919999998
 21
157.0
 31
0.0
  0
LINE
  5
93C4
330
9386
100
AcDbEntity
  8
1
  6
Continuous
100
AcDbLine
 10
136.3150019999999
 20
160.0
 30
0.0
 11
136.3150019999999
 21
157.0
 31
0.0
  0
LINE
  5
93C5
330
9386
100
AcDbEntity
  8
1
  6
Continuous
100
AcDbLine
 10
135.684998
 20
160.0
 30
0.0
 11
135.684998
 21
157.0
 31
0.0
  0
LINE
  5
93C6
330
9386
100
AcDbEntity
  8
1
  6
Continuous
100
AcDbLine
 10
135.0549929999999
 20
160.0
 30
0.0
 11
135.0549929999999
 21
157.0
 31
0.0
  0
LINE
  5
93C7
330
9386
100
AcDbEntity
  8
1
  6
Continuous
100
AcDbLine
 10
134.4249879999999
 20
160.0
 30
0.0
 11
134.4249879999999
 21
157.0
 31
0.0
  0
LINE
  5
93C8
330
9386
100
AcDbEntity
  8
1
  6
Continuous
100
AcDbLine
 10
133.7949979999999
 20
160.0
 30
0.0
 11
133.7949979999999
 21
157.0
 31
0.0
  0
LINE
  5
93C9
330
9386
100
AcDbEntity
  8
1
  6
Continuous
100
AcDbLine
 10
133.1649929999999
 20
160.0
 30
0.0
 11
133.1649929999999
 21
157.0
 31
0.0
  0
LINE
  5
93CA
330
9386
100
AcDbEntity
  8
1
  6
Continuous
100
AcDbLine
 10
132.534988
 20
160.0
 30
0.0
 11
132.534988
 21
157.0
 31
0.0
  0
LINE
  5
93CB
330
9386
100
AcDbEntity
  8
1
  6
Continuous
100
AcDbLine
 10
131.904999
 20
160.0
 30
0.0
 11
131.904999
 21
157.0
 31
0.0
  0
LINE
  5
93CC
330
9386
100
AcDbEntity
  8
1
  6
Continuous
100
AcDbLine
 10
131.274994
 20
160.0
 30
0.0
 11
131.274994
 21
157.0
 31
0.0
  0
LINE
  5
93CD
330
9386
100
AcDbEntity
  8
1
  6
Continuous
100
AcDbLine
 10
130.6449889999999
 20
160.0
 30
0.0
 11
130.6449889999999
 21
157.0
 31
0.0
  0
LINE
  5
93CE
330
9386
100
AcDbEntity
  8
1
  6
Continuous
100
AcDbLine
 10
130.0149989999999
 20
160.0
 30
0.0
 11
130.0149989999999
 21
157.0
 31
0.0
  0
LINE
  5
93CF
330
9386
100
AcDbEntity
  8
1
  6
Continuous
100
AcDbLine
 10
129.384995
 20
160.0
 30
0.0
 11
129.384995
 21
157.0
 31
0.0
  0
LINE
  5
93D0
330
9386
100
AcDbEntity
  8
1
  6
Continuous
100
AcDbLine
 10
128.7549899999999
 20
160.0
 30
0.0
 11
128.7549899999999
 21
157.0
 31
0.0
  0
LINE
  5
93D1
330
9386
100
AcDbEntity
  8
1
  6
Continuous
100
AcDbLine
 10
128.125
 20
160.0
 30
0.0
 11
128.125
 21
157.0
 31
0.0
  0
LINE
  5
93D2
330
9386
100
AcDbEntity
  8
1
  6
Continuous
100
AcDbLine
 10
127.4949949999998
 20
160.0
 30
0.0
 11
127.4949949999998
 21
157.0
 31
0.0
  0
LINE
  5
93D3
330
9386
100
AcDbEntity
  8
1
  6
Continuous
100
AcDbLine
 10
126.8649979999999
 20
160.0
 30
0.0
 11
126.8649979999999
 21
157.0
 31
0.0
  0
LINE
  5
93D4
330
9386
100
AcDbEntity
  8
1
  6
Continuous
100
AcDbLine
 10
126.2349929999998
 20
160.0
 30
0.0
 11
126.2349929999998
 21
157.0
 31
0.0
  0
LINE
  5
93D5
330
9386
100
AcDbEntity
  8
1
  6
Continuous
100
AcDbLine
 10
125.604996
 20
160.0
 30
0.0
 11
125.604996
 21
157.0
 31
0.0
  0
LINE
  5
93D6
330
9386
100
AcDbEntity
  8
1
  6
Continuous
100
AcDbLine
 10
124.974998
 20
160.0
 30
0.0
 11
124.974998
 21
157.0
 31
0.0
  0
LINE
  5
93D7
330
9386
100
AcDbEntity
  8
1
  6
Continuous
100
AcDbLine
 10
124.344994
 20
160.0
 30
0.0
 11
124.344994
 21
157.0
 31
0.0
  0
LINE
  5
93D8
330
9386
100
AcDbEntity
  8
1
  6
Continuous
100
AcDbLine
 10
123.7149959999999
 20
160.0
 30
0.0
 11
123.7149959999999
 21
157.0
 31
0.0
  0
LINE
  5
93D9
330
9386
100
AcDbEntity
  8
1
  6
Continuous
100
AcDbLine
 10
123.0849909999998
 20
160.0
 30
0.0
 11
123.0849909999998
 21
157.0
 31
0.0
  0
LINE
  5
93DA
330
9386
100
AcDbEntity
  8
1
  6
Continuous
100
AcDbLine
 10
122.4549939999999
 20
160.0
 30
0.0
 11
122.4549939999999
 21
157.0
 31
0.0
  0
LINE
  5
93DB
330
9386
100
AcDbEntity
  8
1
  6
Continuous
100
AcDbLine
 10
121.824997
 20
160.0
 30
0.0
 11
121.824997
 21
157.0
 31
0.0
  0
LINE
  5
93DC
330
9386
100
AcDbEntity
  8
1
  6
Continuous
100
AcDbLine
 10
121.194992
 20
160.0
 30
0.0
 11
121.194992
 21
157.0
 31
0.0
  0
LINE
  5
93DD
330
9386
100
AcDbEntity
  8
1
  6
Continuous
100
AcDbLine
 10
120.5649949999999
 20
160.0
 30
0.0
 11
120.5649949999999
 21
157.0
 31
0.0
  0
LINE
  5
93DE
330
9386
100
AcDbEntity
  8
1
  6
Continuous
100
AcDbLine
 10
119.934998
 20
160.0
 30
0.0
 11
119.934998
 21
157.0
 31
0.0
  0
LINE
  5
93DF
330
9386
100
AcDbEntity
  8
1
  6
Continuous
100
AcDbLine
 10
119.3049929999999
 20
160.0
 30
0.0
 11
119.3049929999999
 21
157.0
 31
0.0
  0
LINE
  5
93E0
330
9386
100
AcDbEntity
  8
1
  6
Continuous
100
AcDbLine
 10
118.674995
 20
160.0
 30
0.0
 11
118.674995
 21
157.0
 31
0.0
  0
LINE
  5
93E1
330
9386
100
AcDbEntity
  8
1
  6
Continuous
100
AcDbLine
 10
118.0449979999998
 20
160.0
 30
0.0
 11
118.0449979999998
 21
157.0
 31
0.0
  0
LINE
  5
93E2
330
9386
100
AcDbEntity
  8
1
  6
Continuous
100
AcDbLine
 10
117.414993
 20
160.0
 30
0.0
 11
117.414993
 21
157.0
 31
0.0
  0
LINE
  5
93E3
330
9386
100
AcDbEntity
  8
1
  6
Continuous
100
AcDbLine
 10
116.7849959999998
 20
160.0
 30
0.0
 11
116.7849959999998
 21
157.0
 31
0.0
  0
LINE
  5
93E4
330
9386
100
AcDbEntity
  8
1
  6
Continuous
100
AcDbLine
 10
116.154999
 20
160.0
 30
0.0
 11
116.154999
 21
157.0
 31
0.0
  0
LINE
  5
93E5
330
9386
100
AcDbEntity
  8
1
  6
Continuous
100
AcDbLine
 10
115.524994
 20
160.0
 30
0.0
 11
115.524994
 21
157.0
 31
0.0
  0
LINE
  5
93E6
330
9386
100
AcDbEntity
  8
1
  6
Continuous
100
AcDbLine
 10
114.894997
 20
160.0
 30
0.0
 11
114.894997
 21
157.0
 31
0.0
  0
LINE
  5
93E7
330
9386
100
AcDbEntity
  8
1
  6
Continuous
100
AcDbLine
 10
114.2649919999999
 20
160.0
 30
0.0
 11
114.2649919999999
 21
157.0
 31
0.0
  0
LINE
  5
93E8
330
9386
100
AcDbEntity
  8
1
  6
Continuous
100
AcDbLine
 10
113.6349949999999
 20
160.0
 30
0.0
 11
113.6349949999999
 21
157.0
 31
0.0
  0
LINE
  5
93E9
330
9386
100
AcDbEntity
  8
1
  6
Continuous
100
AcDbLine
 10
113.0049969999999
 20
160.0
 30
0.0
 11
113.0049969999999
 21
157.0
 31
0.0
  0
LINE
  5
93EA
330
9386
100
AcDbEntity
  8
1
  6
Continuous
100
AcDbLine
 10
112.3749919999999
 20
160.0
 30
0.0
 11
112.3749919999999
 21
157.0
 31
0.0
  0
LINE
  5
93EB
330
9386
100
AcDbEntity
  8
1
  6
Continuous
100
AcDbLine
 10
111.7449949999999
 20
160.0
 30
0.0
 11
111.7449949999999
 21
157.0
 31
0.0
  0
LINE
  5
93EC
330
9386
100
AcDbEntity
  8
1
  6
Continuous
100
AcDbLine
 10
111.1149979999999
 20
160.0
 30
0.0
 11
111.1149979999999
 21
157.0
 31
0.0
  0
LINE
  5
93ED
330
9386
100
AcDbEntity
  8
1
  6
Continuous
100
AcDbLine
 10
110.4849929999998
 20
160.0
 30
0.0
 11
110.4849929999998
 21
157.0
 31
0.0
  0
LINE
  5
93EE
330
9386
100
AcDbEntity
  8
1
  6
Continuous
100
AcDbLine
 10
109.8549959999999
 20
160.0
 30
0.0
 11
109.8549959999999
 21
157.0
 31
0.0
  0
LINE
  5
93EF
330
9386
100
AcDbEntity
  8
1
  6
Continuous
100
AcDbLine
 10
109.224998
 20
160.0
 30
0.0
 11
109.224998
 21
157.0
 31
0.0
  0
LINE
  5
93F0
330
9386
100
AcDbEntity
  8
1
  6
Continuous
100
AcDbLine
 10
108.594994
 20
160.0
 30
0.0
 11
108.594994
 21
157.0
 31
0.0
  0
LINE
  5
93F1
330
9386
100
AcDbEntity
  8
1
  6
Continuous
100
AcDbLine
 10
107.964996
 20
160.0
 30
0.0
 11
107.964996
 21
157.0
 31
0.0
  0
LINE
  5
93F2
330
9386
100
AcDbEntity
  8
1
  6
Continuous
100
AcDbLine
 10
107.3349909999999
 20
160.0
 30
0.0
 11
107.3349909999999
 21
157.0
 31
0.0
  0
LINE
  5
93F3
330
9386
100
AcDbEntity
  8
1
  6
Continuous
100
AcDbLine
 10
106.7049939999999
 20
160.0
 30
0.0
 11
106.7049939999999
 21
157.0
 31
0.0
  0
LINE
  5
93F4
330
9386
100
AcDbEntity
  8
1
  6
Continuous
100
AcDbLine
 10
106.074997
 20
160.0
 30
0.0
 11
106.074997
 21
157.0
 31
0.0
  0
LINE
  5
93F5
330
9386
100
AcDbEntity
  8
1
  6
Continuous
100
AcDbLine
 10
105.4449919999999
 20
160.0
 30
0.0
 11
105.4449919999999
 21
157.0
 31
0.0
  0
LINE
  5
93F6
330
9386
100
AcDbEntity
  8
1
  6
Continuous
100
AcDbLine
 10
104.8149949999999
 20
160.0
 30
0.0
 11
104.8149949999999
 21
157.0
 31
0.0
  0
LINE
  5
93F7
330
9386
100
AcDbEntity
  8
1
  6
Continuous
100
AcDbLine
 10
104.1849979999998
 20
160.0
 30
0.0
 11
104.1849979999998
 21
157.0
 31
0.0
  0
LINE
  5
93F8
330
9386
100
AcDbEntity
  8
1
  6
Continuous
100
AcDbLine
 10
103.554993
 20
160.0
 30
0.0
 11
103.554993
 21
157.0
 31
0.0
  0
LINE
  5
93F9
330
9386
100
AcDbEntity
  8
1
  6
Continuous
100
AcDbLine
 10
102.924995
 20
160.0
 30
0.0
 11
102.924995
 21
157.0
 31
0.0
  0
LINE
  5
93FA
330
9386
100
AcDbEntity
  8
1
  6
Continuous
100
AcDbLine
 10
102.2949979999998
 20
160.0
 30
0.0
 11
102.2949979999998
 21
157.0
 31
0.0
  0
LINE
  5
93FB
330
9386
100
AcDbEntity
  8
1
  6
Continuous
100
AcDbLine
 10
101.664993
 20
160.0
 30
0.0
 11
101.664993
 21
157.0
 31
0.0
  0
LINE
  5
93FC
330
9386
100
AcDbEntity
  8
1
  6
Continuous
100
AcDbLine
 10
101.0349959999998
 20
160.0
 30
0.0
 11
101.0349959999998
 21
157.0
 31
0.0
  0
LINE
  5
93FD
330
9386
100
AcDbEntity
  8
1
  6
Continuous
100
AcDbLine
 10
100.4049989999999
 20
160.0
 30
0.0
 11
100.4049989999999
 21
157.0
 31
0.0
  0
LINE
  5
93FE
330
9386
100
AcDbEntity
  8
1
  6
Continuous
100
AcDbLine
 10
99.77499400000001
 20
160.0
 30
0.0
 11
99.77499400000001
 21
157.0
 31
0.0
  0
LINE
  5
93FF
330
9386
100
AcDbEntity
  8
1
  6
Continuous
100
AcDbLine
 10
99.144997
 20
160.0
 30
0.0
 11
99.144997
 21
157.0
 31
0.0
  0
LINE
  5
9400
330
9386
100
AcDbEntity
  8
1
  6
Continuous
100
AcDbLine
 10
98.51499200000001
 20
160.0
 30
0.0
 11
98.51499200000001
 21
157.0
 31
0.0
  0
LINE
  5
9401
330
9386
100
AcDbEntity
  8
1
  6
Continuous
100
AcDbLine
 10
97.884995
 20
160.0
 30
0.0
 11
97.884995
 21
157.0
 31
0.0
  0
LINE
  5
9402
330
9386
100
AcDbEntity
  8
1
  6
Continuous
100
AcDbLine
 10
97.254997
 20
160.0
 30
0.0
 11
97.254997
 21
157.0
 31
0.0
  0
LINE
  5
9403
330
9386
100
AcDbEntity
  8
1
  6
Continuous
100
AcDbLine
 10
96.624992
 20
160.0
 30
0.0
 11
96.624992
 21
157.0
 31
0.0
  0
LINE
  5
9404
330
9386
100
AcDbEntity
  8
1
  6
Continuous
100
AcDbLine
 10
95.99499499999996
 20
160.0
 30
0.0
 11
95.99499499999996
 21
157.0
 31
0.0
  0
LINE
  5
9405
330
9386
100
AcDbEntity
  8
1
  6
Continuous
100
AcDbLine
 10
95.36499799999999
 20
160.0
 30
0.0
 11
95.36499799999999
 21
157.0
 31
0.0
  0
LINE
  5
9406
330
9386
100
AcDbEntity
  8
1
  6
Continuous
100
AcDbLine
 10
94.734993
 20
160.0
 30
0.0
 11
94.734993
 21
157.0
 31
0.0
  0
LINE
  5
9407
330
9386
100
AcDbEntity
  8
1
  6
Continuous
100
AcDbLine
 10
94.10499599999999
 20
160.0
 30
0.0
 11
94.10499599999999
 21
157.0
 31
0.0
  0
LINE
  5
9408
330
9386
100
AcDbEntity
  8
1
  6
Continuous
100
AcDbLine
 10
93.47499799999999
 20
160.0
 30
0.0
 11
93.47499799999999
 21
157.0
 31
0.0
  0
LINE
  5
9409
330
9386
100
AcDbEntity
  8
1
  6
Continuous
100
AcDbLine
 10
92.84499399999999
 20
160.0
 30
0.0
 11
92.84499399999999
 21
157.0
 31
0.0
  0
LINE
  5
940A
330
9386
100
AcDbEntity
  8
1
  6
Continuous
100
AcDbLine
 10
92.21499599999999
 20
160.0
 30
0.0
 11
92.21499599999999
 21
157.0
 31
0.0
  0
LINE
  5
940B
330
9386
100
AcDbEntity
  8
1
  6
Continuous
100
AcDbLine
 10
91.584991
 20
160.0
 30
0.0
 11
91.584991
 21
157.0
 31
0.0
  0
LINE
  5
940C
330
9386
100
AcDbEntity
  8
1
  6
Continuous
100
AcDbLine
 10
90.95499399999999
 20
160.0
 30
0.0
 11
90.95499399999999
 21
157.0
 31
0.0
  0
LINE
  5
940D
330
9386
100
AcDbEntity
  8
1
  6
Continuous
100
AcDbLine
 10
90.324997
 20
160.0
 30
0.0
 11
90.324997
 21
157.0
 31
0.0
  0
LINE
  5
940E
330
9386
100
AcDbEntity
  8
1
  6
Continuous
100
AcDbLine
 10
89.69499199999999
 20
160.0
 30
0.0
 11
89.69499199999999
 21
157.0
 31
0.0
  0
LINE
  5
940F
330
9386
100
AcDbEntity
  8
1
  6
Continuous
100
AcDbLine
 10
89.06499499999998
 20
160.0
 30
0.0
 11
89.06499499999998
 21
157.0
 31
0.0
  0
LINE
  5
9410
330
9386
100
AcDbEntity
  8
1
  6
Continuous
100
AcDbLine
 10
88.43499799999998
 20
160.0
 30
0.0
 11
88.43499799999998
 21
157.0
 31
0.0
  0
LINE
  5
9411
330
9386
100
AcDbEntity
  8
1
  6
Continuous
100
AcDbLine
 10
87.80499299999998
 20
160.0
 30
0.0
 11
87.80499299999998
 21
157.0
 31
0.0
  0
LINE
  5
9412
330
9386
100
AcDbEntity
  8
1
  6
Continuous
100
AcDbLine
 10
87.17499499999998
 20
160.0
 30
0.0
 11
87.17499499999998
 21
157.0
 31
0.0
  0
LINE
  5
9413
330
9386
100
AcDbEntity
  8
1
  6
Continuous
100
AcDbLine
 10
86.54499799999998
 20
160.0
 30
0.0
 11
86.54499799999998
 21
157.0
 31
0.0
  0
LINE
  5
9414
330
9386
100
AcDbEntity
  8
1
  6
Continuous
100
AcDbLine
 10
85.91499299999998
 20
160.0
 30
0.0
 11
85.91499299999998
 21
157.0
 31
0.0
  0
LINE
  5
9415
330
9386
100
AcDbEntity
  8
1
  6
Continuous
100
AcDbLine
 10
85.28499599999998
 20
160.0
 30
0.0
 11
85.28499599999998
 21
157.0
 31
0.0
  0
LINE
  5
9416
330
9386
100
AcDbEntity
  8
1
  6
Continuous
100
AcDbLine
 10
84.65499900000002
 20
160.0
 30
0.0
 11
84.65499900000002
 21
157.0
 31
0.0
  0
LINE
  5
9417
330
9386
100
AcDbEntity
  8
1
  6
Continuous
100
AcDbLine
 10
84.02499399999998
 20
160.0
 30
0.0
 11
84.02499399999998
 21
157.0
 31
0.0
  0
LINE
  5
9418
330
9386
100
AcDbEntity
  8
1
  6
Continuous
100
AcDbLine
 10
83.39499700000002
 20
160.0
 30
0.0
 11
83.39499700000002
 21
157.0
 31
0.0
  0
LINE
  5
9419
330
9386
100
AcDbEntity
  8
1
  6
Continuous
100
AcDbLine
 10
82.76499200000001
 20
160.0
 30
0.0
 11
82.76499200000001
 21
157.0
 31
0.0
  0
LINE
  5
941A
330
9386
100
AcDbEntity
  8
1
  6
Continuous
100
AcDbLine
 10
82.13499500000002
 20
160.0
 30
0.0
 11
82.13499500000002
 21
157.0
 31
0.0
  0
LINE
  5
941B
330
9386
100
AcDbEntity
  8
1
  6
Continuous
100
AcDbLine
 10
81.50499700000002
 20
160.0
 30
0.0
 11
81.50499700000002
 21
157.0
 31
0.0
  0
LINE
  5
941C
330
9386
100
AcDbEntity
  8
1
  6
Continuous
100
AcDbLine
 10
80.87499200000001
 20
160.0
 30
0.0
 11
80.87499200000001
 21
157.0
 31
0.0
  0
LINE
  5
941D
330
9386
100
AcDbEntity
  8
1
  6
Continuous
100
AcDbLine
 10
80.24499500000002
 20
160.0
 30
0.0
 11
80.24499500000002
 21
157.0
 31
0.0
  0
LINE
  5
941E
330
9386
100
AcDbEntity
  8
1
  6
Continuous
100
AcDbLine
 10
79.614998
 20
160.0
 30
0.0
 11
79.614998
 21
157.0
 31
0.0
  0
LINE
  5
941F
330
9386
100
AcDbEntity
  8
1
  6
Continuous
100
AcDbLine
 10
78.984993
 20
160.0
 30
0.0
 11
78.984993
 21
157.0
 31
0.0
  0
LINE
  5
9420
330
9386
100
AcDbEntity
  8
1
  6
Continuous
100
AcDbLine
 10
78.354996
 20
160.0
 30
0.0
 11
78.354996
 21
157.0
 31
0.0
  0
LINE
  5
9421
330
9386
100
AcDbEntity
  8
1
  6
Continuous
100
AcDbLine
 10
77.724998
 20
160.0
 30
0.0
 11
77.724998
 21
157.0
 31
0.0
  0
LINE
  5
9422
330
9386
100
AcDbEntity
  8
1
  6
Continuous
100
AcDbLine
 10
77.094994
 20
160.0
 30
0.0
 11
77.094994
 21
157.0
 31
0.0
  0
LINE
  5
9423
330
9386
100
AcDbEntity
  8
1
  6
Continuous
100
AcDbLine
 10
76.464996
 20
160.0
 30
0.0
 11
76.464996
 21
157.0
 31
0.0
  0
LINE
  5
9424
330
9386
100
AcDbEntity
  8
1
  6
Continuous
100
AcDbLine
 10
75.834991
 20
160.0
 30
0.0
 11
75.834991
 21
157.0
 31
0.0
  0
LINE
  5
9425
330
9386
100
AcDbEntity
  8
1
  6
Continuous
100
AcDbLine
 10
75.204994
 20
160.0
 30
0.0
 11
75.204994
 21
157.0
 31
0.0
  0
LINE
  5
9426
330
9386
100
AcDbEntity
  8
1
  6
Continuous
100
AcDbLine
 10
74.57499699999998
 20
160.0
 30
0.0
 11
74.57499699999998
 21
157.0
 31
0.0
  0
LINE
  5
9427
330
9386
100
AcDbEntity
  8
1
  6
Continuous
100
AcDbLine
 10
73.944992
 20
160.0
 30
0.0
 11
73.944992
 21
157.0
 31
0.0
  0
LINE
  5
9428
330
9386
100
AcDbEntity
  8
1
  6
Continuous
100
AcDbLine
 10
73.31499499999998
 20
160.0
 30
0.0
 11
73.31499499999998
 21
157.0
 31
0.0
  0
LINE
  5
9429
330
9386
100
AcDbEntity
  8
4
  6
CENTER
100
AcDbLine
 10
143.4299929999999
 20
45.0
 30
0.0
 11
143.4299929999999
 21
40.0
 31
0.0
  0
LINE
  5
942A
330
9386
100
AcDbEntity
  8
4
  6
CENTER
100
AcDbLine
 10
128.4299929999999
 20
45.0
 30
0.0
 11
128.4299929999999
 21
40.0
 31
0.0
  0
LINE
  5
942B
330
9386
100
AcDbEntity
  8
4
  6
CENTER
100
AcDbLine
 10
113.429993
 20
45.0
 30
0.0
 11
113.429993
 21
40.0
 31
0.0
  0
LINE
  5
942C
330
9386
100
AcDbEntity
  8
4
  6
CENTER
100
AcDbLine
 10
98.42999300000002
 20
45.0
 30
0.0
 11
98.42999300000002
 21
40.0
 31
0.0
  0
LINE
  5
942D
330
9386
100
AcDbEntity
  8
4
  6
CENTER
100
AcDbLine
 10
83.42999299999998
 20
45.0
 30
0.0
 11
83.42999299999998
 21
40.0
 31
0.0
  0
LINE
  5
942E
330
9386
100
AcDbEntity
  8
4
  6
CENTER
100
AcDbLine
 10
147.830002
 20
97.0
 30
0.0
 11
139.029999
 21
97.0
 31
0.0
  0
LINE
  5
942F
330
9386
100
AcDbEntity
  8
4
  6
CENTER
100
AcDbLine
 10
143.4299929999999
 20
101.400002
 30
0.0
 11
143.4299929999999
 21
92.60000599999999
 31
0.0
  0
LINE
  5
9430
330
9386
100
AcDbEntity
  8
4
  6
CENTER
100
AcDbLine
 10
132.830002
 20
97.0
 30
0.0
 11
124.029999
 21
97.0
 31
0.0
  0
LINE
  5
9431
330
9386
100
AcDbEntity
  8
4
  6
CENTER
100
AcDbLine
 10
128.4299929999999
 20
101.400002
 30
0.0
 11
128.4299929999999
 21
92.60000599999999
 31
0.0
  0
LINE
  5
9432
330
9386
100
AcDbEntity
  8
4
  6
CENTER
100
AcDbLine
 10
113.429993
 20
101.400002
 30
0.0
 11
113.429993
 21
92.60000599999999
 31
0.0
  0
LINE
  5
9433
330
9386
100
AcDbEntity
  8
4
  6
CENTER
100
AcDbLine
 10
117.829994
 20
97.0
 30
0.0
 11
109.029999
 21
97.0
 31
0.0
  0
LINE
  5
9434
330
9386
100
AcDbEntity
  8
4
  6
CENTER
100
AcDbLine
 10
102.8299939999999
 20
97.0
 30
0.0
 11
94.02999900000001
 21
97.0
 31
0.0
  0
LINE
  5
9435
330
9386
100
AcDbEntity
  8
4
  6
CENTER
100
AcDbLine
 10
98.42999300000002
 20
101.400002
 30
0.0
 11
98.42999300000002
 21
92.60000599999999
 31
0.0
  0
LINE
  5
9436
330
9386
100
AcDbEntity
  8
4
  6
CENTER
100
AcDbLine
 10
83.42999299999998
 20
101.400002
 30
0.0
 11
83.42999299999998
 21
92.60000599999999
 31
0.0
  0
LINE
  5
9437
330
9386
100
AcDbEntity
  8
4
  6
CENTER
100
AcDbLine
 10
87.82999399999999
 20
97.0
 30
0.0
 11
79.02999900000001
 21
97.0
 31
0.0
  0
LINE
  5
9438
330
9386
100
AcDbEntity
  8
1
  6
Continuous
100
AcDbLine
 10
153.3249969999999
 20
100.5
 30
0.0
 11
153.6399989999999
 21
100.5
 31
0.0
  0
LINE
  5
9439
330
9386
100
AcDbEntity
  8
1
  6
Continuous
100
AcDbLine
 10
193.6399839999999
 20
102.0
 30
0.0
 11
196.639984
 21
102.0
 31
0.0
  0
LINE
  5
943A
330
9386
100
AcDbEntity
  8
1
  6
Continuous
100
AcDbLine
 10
193.6399839999999
 20
94.0
 30
0.0
 11
196.639984
 21
94.0
 31
0.0
  0
LINE
  5
943B
330
9386
100
AcDbEntity
  8
1
  6
Continuous
100
AcDbLine
 10
193.6399839999999
 20
102.0
 30
0.0
 11
193.6399839999999
 21
94.0
 31
0.0
  0
LINE
  5
943C
330
9386
100
AcDbEntity
  8
1
  6
Continuous
100
AcDbLine
 10
196.639984
 20
102.0
 30
0.0
 11
196.639984
 21
94.0
 31
0.0
  0
LINE
  5
943D
330
9386
100
AcDbEntity
  8
1
  6
Continuous
100
AcDbLine
 10
193.6399839999999
 20
100.5
 30
0.0
 11
196.639984
 21
100.5
 31
0.0
  0
LINE
  5
943E
330
9386
100
AcDbEntity
  8
4
  6
CENTER
100
AcDbLine
 10
191.639984
 20
101.200005
 30
0.0
 11
198.6399839999999
 21
101.200005
 31
0.0
  0
LINE
  5
943F
330
9386
100
AcDbEntity
  8
4
  6
CENTER
100
AcDbLine
 10
143.4299929999999
 20
162.0
 30
0.0
 11
143.4299929999999
 21
155.0
 31
0.0
  0
LINE
  5
9440
330
9386
100
AcDbEntity
  8
4
  6
CENTER
100
AcDbLine
 10
128.4299929999999
 20
162.0
 30
0.0
 11
128.4299929999999
 21
155.0
 31
0.0
  0
LINE
  5
9441
330
9386
100
AcDbEntity
  8
4
  6
CENTER
100
AcDbLine
 10
113.429993
 20
162.0
 30
0.0
 11
113.429993
 21
155.0
 31
0.0
  0
LINE
  5
9442
330
9386
100
AcDbEntity
  8
4
  6
CENTER
100
AcDbLine
 10
98.42999300000002
 20
162.0
 30
0.0
 11
98.42999300000002
 21
155.0
 31
0.0
  0
LINE
  5
9443
330
9386
100
AcDbEntity
  8
4
  6
CENTER
100
AcDbLine
 10
83.42999299999998
 20
162.0
 30
0.0
 11
83.42999299999998
 21
155.0
 31
0.0
  0
LINE
  5
9444
330
9386
100
AcDbEntity
  8
4
  6
CENTER
100
AcDbLine
 10
191.639984
 20
97.0
 30
0.0
 11
198.6399839999999
 21
97.0
 31
0.0
  0
LINE
  5
9445
330
9386
100
AcDbEntity
  8
1
  6
Continuous
100
AcDbLine
 10
150.175003
 20
102.0000079999998
 30
0.0
 11
150.804993
 21
100.5
 31
0.0
  0
LINE
  5
9446
330
9386
100
AcDbEntity
  8
1
  6
Continuous
100
AcDbLine
 10
74.57499699999998
 20
102.0
 30
0.0
 11
73.944992
 21
102.0
 31
0.0
  0
LINE
  5
9447
330
9386
100
AcDbEntity
  8
4
  6
CENTER
100
AcDbLine
 10
153.4199979999999
 20
101.200005
 30
0.0
 11
72.99999200000002
 21
101.200005
 31
0.0
  0
LINE
  5
9448
330
9386
100
AcDbEntity
  8
1
  6
Continuous
100
AcDbLine
 10
149.544998
 20
102.0
 30
0.0
 11
148.9149929999999
 21
100.5
 31
0.0
  0
LINE
  5
9449
330
9386
100
AcDbEntity
  8
1
  6
Continuous
100
AcDbLine
 10
73.31499499999998
 20
100.5
 30
0.0
 11
72.99999200000002
 21
100.5
 31
0.0
  0
LINE
  5
944A
330
9386
100
AcDbEntity
  8
1
  6
Continuous
100
AcDbLine
 10
78.984993
 20
102.0
 30
0.0
 11
78.354996
 21
100.5
 31
0.0
  0
LINE
  5
944B
330
9386
100
AcDbEntity
  8
1
  6
Continuous
100
AcDbLine
 10
73.944992
 20
102.0
 30
0.0
 11
73.31499499999998
 21
100.5
 31
0.0
  0
LINE
  5
944C
330
9386
100
AcDbEntity
  8
1
  6
Continuous
100
AcDbLine
 10
74.57499699999998
 20
102.0
 30
0.0
 11
75.204994
 21
100.5
 31
0.0
  0
LINE
  5
944D
330
9386
100
AcDbEntity
  8
1
  6
Continuous
100
AcDbLine
 10
147.654999
 20
102.0000079999998
 30
0.0
 11
148.2850039999999
 21
100.5
 31
0.0
  0
LINE
  5
944E
330
9386
100
AcDbEntity
  8
1
  6
Continuous
100
AcDbLine
 10
147.654999
 20
102.0
 30
0.0
 11
147.0249939999999
 21
102.0
 31
0.0
  0
LINE
  5
944F
330
9386
100
AcDbEntity
  8
1
  6
Continuous
100
AcDbLine
 10
146.3949889999998
 20
100.5
 30
0.0
 11
145.7649989999999
 21
100.5
 31
0.0
  0
LINE
  5
9450
330
9386
100
AcDbEntity
  8
1
  6
Continuous
100
AcDbLine
 10
147.0249939999999
 20
102.0000079999998
 30
0.0
 11
146.3949889999998
 21
100.5
 31
0.0
  0
LINE
  5
9451
330
9386
100
AcDbEntity
  8
4
  6
CENTER
100
AcDbLine
 10
147.3399959999998
 20
103.0
 30
0.0
 11
147.3399959999998
 21
98.50000000000001
 31
0.0
  0
LINE
  5
9452
330
9386
100
AcDbEntity
  8
4
  6
CENTER
100
AcDbLine
 10
144.8199919999999
 20
103.0
 30
0.0
 11
144.8199919999999
 21
98.50000000000001
 31
0.0
  0
LINE
  5
9453
330
9386
100
AcDbEntity
  8
1
  6
Continuous
100
AcDbLine
 10
144.5049899999998
 20
102.0
 30
0.0
 11
143.8749999999998
 21
100.499992
 31
0.0
  0
LINE
  5
9454
330
9386
100
AcDbEntity
  8
1
  6
Continuous
100
AcDbLine
 10
143.8749999999998
 20
100.5
 30
0.0
 11
143.2449949999998
 21
100.5
 31
0.0
  0
LINE
  5
9455
330
9386
100
AcDbEntity
  8
1
  6
Continuous
100
AcDbLine
 10
145.1349949999998
 20
102.0
 30
0.0
 11
144.5049899999998
 21
102.0
 31
0.0
  0
LINE
  5
9456
330
9386
100
AcDbEntity
  8
1
  6
Continuous
100
AcDbLine
 10
145.1349949999998
 20
102.0000079999998
 30
0.0
 11
145.7649989999999
 21
100.5000079999998
 31
0.0
  0
LINE
  5
9457
330
9386
100
AcDbEntity
  8
1
  6
Continuous
100
AcDbLine
 10
142.6150049999999
 20
102.0
 30
0.0
 11
143.2449949999998
 21
100.5000079999998
 31
0.0
  0
LINE
  5
9458
330
9386
100
AcDbEntity
  8
1
  6
Continuous
100
AcDbLine
 10
142.6149899999998
 20
102.0
 30
0.0
 11
141.985001
 21
102.0
 31
0.0
  0
LINE
  5
9459
330
9386
100
AcDbEntity
  8
1
  6
Continuous
100
AcDbLine
 10
141.354996
 20
100.5
 30
0.0
 11
140.7249909999999
 21
100.5
 31
0.0
  0
LINE
  5
945A
330
9386
100
AcDbEntity
  8
1
  6
Continuous
100
AcDbLine
 10
141.985001
 20
102.0
 30
0.0
 11
141.354996
 21
100.5000079999998
 31
0.0
  0
LINE
  5
945B
330
9386
100
AcDbEntity
  8
4
  6
CENTER
100
AcDbLine
 10
142.2999879999998
 20
103.0
 30
0.0
 11
142.2999879999998
 21
98.50000000000001
 31
0.0
  0
LINE
  5
945C
330
9386
100
AcDbEntity
  8
4
  6
CENTER
100
AcDbLine
 10
139.779999
 20
103.0
 30
0.0
 11
139.779999
 21
98.50000000000001
 31
0.0
  0
LINE
  5
945D
330
9386
100
AcDbEntity
  8
1
  6
Continuous
100
AcDbLine
 10
139.4649959999999
 20
101.999992
 30
0.0
 11
138.834991
 21
100.5
 31
0.0
  0
LINE
  5
945E
330
9386
100
AcDbEntity
  8
1
  6
Continuous
100
AcDbLine
 10
138.834991
 20
100.5
 30
0.0
 11
138.205002
 21
100.5
 31
0.0
  0
LINE
  5
945F
330
9386
100
AcDbEntity
  8
1
  6
Continuous
100
AcDbLine
 10
140.095001
 20
102.0
 30
0.0
 11
139.4649959999999
 21
102.0
 31
0.0
  0
LINE
  5
9460
330
9386
100
AcDbEntity
  8
1
  6
Continuous
100
AcDbLine
 10
140.095001
 20
102.0
 30
0.0
 11
140.7249909999999
 21
100.5000079999998
 31
0.0
  0
LINE
  5
9461
330
9386
100
AcDbEntity
  8
1
  6
Continuous
100
AcDbLine
 10
137.5749969999999
 20
102.0
 30
0.0
 11
138.205002
 21
100.5
 31
0.0
  0
LINE
  5
9462
330
9386
100
AcDbEntity
  8
1
  6
Continuous
100
AcDbLine
 10
137.5749969999999
 20
102.0
 30
0.0
 11
136.9449919999998
 21
102.0
 31
0.0
  0
LINE
  5
9463
330
9386
100
AcDbEntity
  8
1
  6
Continuous
100
AcDbLine
 10
136.3150019999999
 20
100.5
 30
0.0
 11
135.684998
 21
100.5
 31
0.0
  0
LINE
  5
9464
330
9386
100
AcDbEntity
  8
1
  6
Continuous
100
AcDbLine
 10
136.9449919999998
 20
102.0000079999998
 30
0.0
 11
136.3150019999999
 21
100.5
 31
0.0
  0
LINE
  5
9465
330
9386
100
AcDbEntity
  8
4
  6
CENTER
100
AcDbLine
 10
137.259995
 20
103.0
 30
0.0
 11
137.259995
 21
98.50000000000001
 31
0.0
  0
LINE
  5
9466
330
9386
100
AcDbEntity
  8
4
  6
CENTER
100
AcDbLine
 10
134.7399899999998
 20
103.0
 30
0.0
 11
134.7399899999998
 21
98.50000000000001
 31
0.0
  0
LINE
  5
9467
330
9386
100
AcDbEntity
  8
1
  6
Continuous
100
AcDbLine
 10
134.4250029999997
 20
102.0
 30
0.0
 11
133.7949979999999
 21
100.5000079999998
 31
0.0
  0
LINE
  5
9468
330
9386
100
AcDbEntity
  8
1
  6
Continuous
100
AcDbLine
 10
133.7949979999999
 20
100.5
 30
0.0
 11
133.1649929999999
 21
100.5
 31
0.0
  0
LINE
  5
9469
330
9386
100
AcDbEntity
  8
1
  6
Continuous
100
AcDbLine
 10
135.0549929999999
 20
102.0
 30
0.0
 11
134.4249879999999
 21
102.0
 31
0.0
  0
LINE
  5
946A
330
9386
100
AcDbEntity
  8
1
  6
Continuous
100
AcDbLine
 10
135.0549929999999
 20
102.0
 30
0.0
 11
135.684998
 21
100.5
 31
0.0
  0
LINE
  5
946B
330
9386
100
AcDbEntity
  8
1
  6
Continuous
100
AcDbLine
 10
132.5350039999999
 20
102.0
 30
0.0
 11
133.1649929999999
 21
100.5
 31
0.0
  0
LINE
  5
946C
330
9386
100
AcDbEntity
  8
1
  6
Continuous
100
AcDbLine
 10
132.534988
 20
102.0
 30
0.0
 11
131.904999
 21
102.0
 31
0.0
  0
LINE
  5
946D
330
9386
100
AcDbEntity
  8
1
  6
Continuous
100
AcDbLine
 10
131.274994
 20
100.5
 30
0.0
 11
130.6449889999999
 21
100.5
 31
0.0
  0
LINE
  5
946E
330
9386
100
AcDbEntity
  8
1
  6
Continuous
100
AcDbLine
 10
131.904999
 20
102.0
 30
0.0
 11
131.274994
 21
100.5000079999998
 31
0.0
  0
LINE
  5
946F
330
9386
100
AcDbEntity
  8
4
  6
CENTER
100
AcDbLine
 10
132.2200009999999
 20
103.0
 30
0.0
 11
132.2200009999999
 21
98.50000000000001
 31
0.0
  0
LINE
  5
9470
330
9386
100
AcDbEntity
  8
4
  6
CENTER
100
AcDbLine
 10
129.6999969999999
 20
103.0
 30
0.0
 11
129.6999969999999
 21
98.50000000000001
 31
0.0
  0
LINE
  5
9471
330
9386
100
AcDbEntity
  8
1
  6
Continuous
100
AcDbLine
 10
129.384995
 20
102.0000079999998
 30
0.0
 11
128.7549899999999
 21
100.5
 31
0.0
  0
LINE
  5
9472
330
9386
100
AcDbEntity
  8
1
  6
Continuous
100
AcDbLine
 10
128.7549899999999
 20
100.5
 30
0.0
 11
128.125
 21
100.5
 31
0.0
  0
LINE
  5
9473
330
9386
100
AcDbEntity
  8
1
  6
Continuous
100
AcDbLine
 10
130.0149989999999
 20
102.0
 30
0.0
 11
129.384995
 21
102.0
 31
0.0
  0
LINE
  5
9474
330
9386
100
AcDbEntity
  8
1
  6
Continuous
100
AcDbLine
 10
130.0149989999999
 20
102.0000079999998
 30
0.0
 11
130.645004
 21
100.5
 31
0.0
  0
LINE
  5
9475
330
9386
100
AcDbEntity
  8
1
  6
Continuous
100
AcDbLine
 10
127.4949949999998
 20
102.0000079999998
 30
0.0
 11
128.125
 21
100.5
 31
0.0
  0
LINE
  5
9476
330
9386
100
AcDbEntity
  8
1
  6
Continuous
100
AcDbLine
 10
127.4949949999998
 20
102.0
 30
0.0
 11
126.8649979999999
 21
102.0
 31
0.0
  0
LINE
  5
9477
330
9386
100
AcDbEntity
  8
1
  6
Continuous
100
AcDbLine
 10
126.2349929999998
 20
100.5
 30
0.0
 11
125.604996
 21
100.5
 31
0.0
  0
LINE
  5
9478
330
9386
100
AcDbEntity
  8
1
  6
Continuous
100
AcDbLine
 10
126.8649979999999
 20
102.0000079999998
 30
0.0
 11
126.2349929999998
 21
100.5
 31
0.0
  0
LINE
  5
9479
330
9386
100
AcDbEntity
  8
4
  6
CENTER
100
AcDbLine
 10
127.179993
 20
103.0
 30
0.0
 11
127.179993
 21
98.50000000000001
 31
0.0
  0
LINE
  5
947A
330
9386
100
AcDbEntity
  8
4
  6
CENTER
100
AcDbLine
 10
124.6599959999998
 20
103.0
 30
0.0
 11
124.6599959999998
 21
98.50000000000001
 31
0.0
  0
LINE
  5
947B
330
9386
100
AcDbEntity
  8
1
  6
Continuous
100
AcDbLine
 10
124.344994
 20
102.0
 30
0.0
 11
123.7149959999999
 21
100.5000079999998
 31
0.0
  0
LINE
  5
947C
330
9386
100
AcDbEntity
  8
1
  6
Continuous
100
AcDbLine
 10
123.7149959999999
 20
100.5
 30
0.0
 11
123.0849909999998
 21
100.5
 31
0.0
  0
LINE
  5
947D
330
9386
100
AcDbEntity
  8
1
  6
Continuous
100
AcDbLine
 10
124.974998
 20
102.0
 30
0.0
 11
124.344994
 21
102.0
 31
0.0
  0
LINE
  5
947E
330
9386
100
AcDbEntity
  8
1
  6
Continuous
100
AcDbLine
 10
124.974998
 20
102.0000079999998
 30
0.0
 11
125.604996
 21
100.5000079999998
 31
0.0
  0
LINE
  5
947F
330
9386
100
AcDbEntity
  8
1
  6
Continuous
100
AcDbLine
 10
122.4550019999999
 20
102.0000079999998
 30
0.0
 11
123.084999
 21
100.5000079999998
 31
0.0
  0
LINE
  5
9480
330
9386
100
AcDbEntity
  8
1
  6
Continuous
100
AcDbLine
 10
122.4549939999999
 20
102.0
 30
0.0
 11
121.824997
 21
102.0
 31
0.0
  0
LINE
  5
9481
330
9386
100
AcDbEntity
  8
1
  6
Continuous
100
AcDbLine
 10
121.194992
 20
100.5
 30
0.0
 11
120.5649949999999
 21
100.5
 31
0.0
  0
LINE
  5
9482
330
9386
100
AcDbEntity
  8
1
  6
Continuous
100
AcDbLine
 10
121.824997
 20
101.999992
 30
0.0
 11
121.1949999999998
 21
100.5
 31
0.0
  0
LINE
  5
9483
330
9386
100
AcDbEntity
  8
4
  6
CENTER
100
AcDbLine
 10
122.1399919999999
 20
103.0
 30
0.0
 11
122.1399919999999
 21
98.50000000000001
 31
0.0
  0
LINE
  5
9484
330
9386
100
AcDbEntity
  8
4
  6
CENTER
100
AcDbLine
 10
119.619995
 20
103.0
 30
0.0
 11
119.619995
 21
98.50000000000001
 31
0.0
  0
LINE
  5
9485
330
9386
100
AcDbEntity
  8
1
  6
Continuous
100
AcDbLine
 10
119.305
 20
102.0000079999998
 30
0.0
 11
118.674995
 21
100.5
 31
0.0
  0
LINE
  5
9486
330
9386
100
AcDbEntity
  8
1
  6
Continuous
100
AcDbLine
 10
118.674995
 20
100.5
 30
0.0
 11
118.0449979999998
 21
100.5
 31
0.0
  0
LINE
  5
9487
330
9386
100
AcDbEntity
  8
1
  6
Continuous
100
AcDbLine
 10
119.934998
 20
102.0
 30
0.0
 11
119.3049929999999
 21
102.0
 31
0.0
  0
LINE
  5
9488
330
9386
100
AcDbEntity
  8
1
  6
Continuous
100
AcDbLine
 10
119.934998
 20
102.0000079999998
 30
0.0
 11
120.5650019999998
 21
100.5000079999998
 31
0.0
  0
LINE
  5
9489
330
9386
100
AcDbEntity
  8
1
  6
Continuous
100
AcDbLine
 10
117.4150009999999
 20
102.0
 30
0.0
 11
118.0449979999998
 21
100.5000079999998
 31
0.0
  0
LINE
  5
948A
330
9386
100
AcDbEntity
  8
1
  6
Continuous
100
AcDbLine
 10
117.414993
 20
102.0
 30
0.0
 11
116.7849959999998
 21
102.0
 31
0.0
  0
LINE
  5
948B
330
9386
100
AcDbEntity
  8
1
  6
Continuous
100
AcDbLine
 10
116.154999
 20
100.5
 30
0.0
 11
115.524994
 21
100.5
 31
0.0
  0
LINE
  5
948C
330
9386
100
AcDbEntity
  8
1
  6
Continuous
100
AcDbLine
 10
116.7849959999998
 20
102.0
 30
0.0
 11
116.154999
 21
100.5000079999998
 31
0.0
  0
LINE
  5
948D
330
9386
100
AcDbEntity
  8
4
  6
CENTER
100
AcDbLine
 10
117.0999979999999
 20
103.0
 30
0.0
 11
117.0999979999999
 21
98.50000000000001
 31
0.0
  0
LINE
  5
948E
330
9386
100
AcDbEntity
  8
4
  6
CENTER
100
AcDbLine
 10
114.579994
 20
103.0
 30
0.0
 11
114.579994
 21
98.50000000000001
 31
0.0
  0
LINE
  5
948F
330
9386
100
AcDbEntity
  8
1
  6
Continuous
100
AcDbLine
 10
114.264999
 20
102.0
 30
0.0
 11
113.635002
 21
100.5000079999998
 31
0.0
  0
LINE
  5
9490
330
9386
100
AcDbEntity
  8
1
  6
Continuous
100
AcDbLine
 10
113.6349949999999
 20
100.5
 30
0.0
 11
113.0049969999999
 21
100.5
 31
0.0
  0
LINE
  5
9491
330
9386
100
AcDbEntity
  8
1
  6
Continuous
100
AcDbLine
 10
114.894997
 20
102.0
 30
0.0
 11
114.2649919999999
 21
102.0
 31
0.0
  0
LINE
  5
9492
330
9386
100
AcDbEntity
  8
1
  6
Continuous
100
AcDbLine
 10
114.894997
 20
102.0
 30
0.0
 11
115.5250019999999
 21
100.5
 31
0.0
  0
LINE
  5
9493
330
9386
100
AcDbEntity
  8
1
  6
Continuous
100
AcDbLine
 10
112.375
 20
102.0
 30
0.0
 11
113.0049969999999
 21
100.5
 31
0.0
  0
LINE
  5
9494
330
9386
100
AcDbEntity
  8
1
  6
Continuous
100
AcDbLine
 10
112.3749919999999
 20
102.0
 30
0.0
 11
111.7449949999999
 21
102.0
 31
0.0
  0
LINE
  5
9495
330
9386
100
AcDbEntity
  8
1
  6
Continuous
100
AcDbLine
 10
111.1149979999999
 20
100.5
 30
0.0
 11
110.4849929999998
 21
100.5
 31
0.0
  0
LINE
  5
9496
330
9386
100
AcDbEntity
  8
1
  6
Continuous
100
AcDbLine
 10
111.7449949999999
 20
102.0000079999998
 30
0.0
 11
111.11499
 21
100.5
 31
0.0
  0
LINE
  5
9497
330
9386
100
AcDbEntity
  8
4
  6
CENTER
100
AcDbLine
 10
112.0599979999998
 20
103.0
 30
0.0
 11
112.0599979999998
 21
98.50000000000001
 31
0.0
  0
LINE
  5
9498
330
9386
100
AcDbEntity
  8
4
  6
CENTER
100
AcDbLine
 10
109.5399929999999
 20
103.0
 30
0.0
 11
109.5399929999999
 21
98.50000000000001
 31
0.0
  0
LINE
  5
9499
330
9386
100
AcDbEntity
  8
1
  6
Continuous
100
AcDbLine
 10
109.224998
 20
102.0000079999998
 30
0.0
 11
108.594994
 21
100.5
 31
0.0
  0
LINE
  5
949A
330
9386
100
AcDbEntity
  8
1
  6
Continuous
100
AcDbLine
 10
108.594994
 20
100.5
 30
0.0
 11
107.964996
 21
100.5
 31
0.0
  0
LINE
  5
949B
330
9386
100
AcDbEntity
  8
1
  6
Continuous
100
AcDbLine
 10
109.8549959999999
 20
102.0
 30
0.0
 11
109.224998
 21
102.0
 31
0.0
  0
LINE
  5
949C
330
9386
100
AcDbEntity
  8
1
  6
Continuous
100
AcDbLine
 10
109.8550029999999
 20
102.0
 30
0.0
 11
110.485001
 21
100.5
 31
0.0
  0
LINE
  5
949D
330
9386
100
AcDbEntity
  8
1
  6
Continuous
100
AcDbLine
 10
107.334999
 20
102.0000079999998
 30
0.0
 11
107.964996
 21
100.5
 31
0.0
  0
LINE
  5
949E
330
9386
100
AcDbEntity
  8
1
  6
Continuous
100
AcDbLine
 10
107.3349909999999
 20
102.0
 30
0.0
 11
106.7049939999999
 21
102.0
 31
0.0
  0
LINE
  5
949F
330
9386
100
AcDbEntity
  8
1
  6
Continuous
100
AcDbLine
 10
106.074997
 20
100.5
 30
0.0
 11
105.4449919999999
 21
100.5
 31
0.0
  0
LINE
  5
94A0
330
9386
100
AcDbEntity
  8
1
  6
Continuous
100
AcDbLine
 10
150.174988
 20
102.0
 30
0.0
 11
149.544998
 21
102.0
 31
0.0
  0
LINE
  5
94A1
330
9386
100
AcDbEntity
  8
1
  6
Continuous
100
AcDbLine
 10
76.464996
 20
102.0000079999998
 30
0.0
 11
75.834991
 21
100.5000079999998
 31
0.0
  0
LINE
  5
94A2
330
9386
100
AcDbEntity
  8
1
  6
Continuous
100
AcDbLine
 10
77.094994
 20
102.0
 30
0.0
 11
77.724991
 21
100.5
 31
0.0
  0
LINE
  5
94A3
330
9386
100
AcDbEntity
  8
1
  6
Continuous
100
AcDbLine
 10
148.9149929999999
 20
100.5
 30
0.0
 11
148.284988
 21
100.5
 31
0.0
  0
LINE
  5
94A4
330
9386
100
AcDbEntity
  8
1
  6
Continuous
100
AcDbLine
 10
106.7049939999999
 20
102.0
 30
0.0
 11
106.074997
 21
100.5000079999998
 31
0.0
  0
LINE
  5
94A5
330
9386
100
AcDbEntity
  8
4
  6
CENTER
100
AcDbLine
 10
107.019997
 20
103.0
 30
0.0
 11
107.019997
 21
98.50000000000001
 31
0.0
  0
LINE
  5
94A6
330
9386
100
AcDbEntity
  8
4
  6
CENTER
100
AcDbLine
 10
104.4999919999999
 20
103.0
 30
0.0
 11
104.4999919999999
 21
98.50000000000001
 31
0.0
  0
LINE
  5
94A7
330
9386
100
AcDbEntity
  8
1
  6
Continuous
100
AcDbLine
 10
104.18499
 20
102.0
 30
0.0
 11
103.554993
 21
100.5000079999998
 31
0.0
  0
LINE
  5
94A8
330
9386
100
AcDbEntity
  8
1
  6
Continuous
100
AcDbLine
 10
103.554993
 20
100.5
 30
0.0
 11
102.924995
 21
100.5
 31
0.0
  0
LINE
  5
94A9
330
9386
100
AcDbEntity
  8
1
  6
Continuous
100
AcDbLine
 10
104.8149949999999
 20
102.0
 30
0.0
 11
104.1849979999998
 21
102.0
 31
0.0
  0
LINE
  5
94AA
330
9386
100
AcDbEntity
  8
1
  6
Continuous
100
AcDbLine
 10
104.815002
 20
102.0000079999998
 30
0.0
 11
105.4449999999998
 21
100.5000079999998
 31
0.0
  0
LINE
  5
94AB
330
9386
100
AcDbEntity
  8
1
  6
Continuous
100
AcDbLine
 10
102.2949979999998
 20
102.0000079999998
 30
0.0
 11
102.925003
 21
100.5000079999998
 31
0.0
  0
LINE
  5
94AC
330
9386
100
AcDbEntity
  8
1
  6
Continuous
100
AcDbLine
 10
102.2949979999998
 20
102.0
 30
0.0
 11
101.664993
 21
102.0
 31
0.0
  0
LINE
  5
94AD
330
9386
100
AcDbEntity
  8
1
  6
Continuous
100
AcDbLine
 10
101.0349959999998
 20
100.5
 30
0.0
 11
100.4049989999999
 21
100.5
 31
0.0
  0
LINE
  5
94AE
330
9386
100
AcDbEntity
  8
1
  6
Continuous
100
AcDbLine
 10
101.664993
 20
102.0000079999998
 30
0.0
 11
101.0349959999998
 21
100.5
 31
0.0
  0
LINE
  5
94AF
330
9386
100
AcDbEntity
  8
4
  6
CENTER
100
AcDbLine
 10
101.979996
 20
103.0
 30
0.0
 11
101.979996
 21
98.50000000000001
 31
0.0
  0
LINE
  5
94B0
330
9386
100
AcDbEntity
  8
4
  6
CENTER
100
AcDbLine
 10
99.45999100000001
 20
103.0
 30
0.0
 11
99.45999100000001
 21
98.50000000000001
 31
0.0
  0
LINE
  5
94B1
330
9386
100
AcDbEntity
  8
1
  6
Continuous
100
AcDbLine
 10
99.144997
 20
102.0000079999998
 30
0.0
 11
98.51499200000001
 21
100.5
 31
0.0
  0
LINE
  5
94B2
330
9386
100
AcDbEntity
  8
1
  6
Continuous
100
AcDbLine
 10
98.51499200000001
 20
100.5
 30
0.0
 11
97.884995
 21
100.5
 31
0.0
  0
LINE
  5
94B3
330
9386
100
AcDbEntity
  8
1
  6
Continuous
100
AcDbLine
 10
99.77499400000001
 20
102.0
 30
0.0
 11
99.144997
 21
102.0
 31
0.0
  0
LINE
  5
94B4
330
9386
100
AcDbEntity
  8
1
  6
Continuous
100
AcDbLine
 10
99.77500200000001
 20
102.0000079999998
 30
0.0
 11
100.4049989999999
 21
100.5000079999998
 31
0.0
  0
LINE
  5
94B5
330
9386
100
AcDbEntity
  8
1
  6
Continuous
100
AcDbLine
 10
97.254997
 20
102.0000079999998
 30
0.0
 11
97.88500200000001
 21
100.5000079999998
 31
0.0
  0
LINE
  5
94B6
330
9386
100
AcDbEntity
  8
1
  6
Continuous
100
AcDbLine
 10
97.254997
 20
102.0
 30
0.0
 11
96.624992
 21
102.0
 31
0.0
  0
LINE
  5
94B7
330
9386
100
AcDbEntity
  8
1
  6
Continuous
100
AcDbLine
 10
95.99499499999996
 20
100.5
 30
0.0
 11
95.36499799999999
 21
100.5
 31
0.0
  0
LINE
  5
94B8
330
9386
100
AcDbEntity
  8
1
  6
Continuous
100
AcDbLine
 10
96.624992
 20
102.0
 30
0.0
 11
95.99499499999996
 21
100.5000079999998
 31
0.0
  0
LINE
  5
94B9
330
9386
100
AcDbEntity
  8
4
  6
CENTER
100
AcDbLine
 10
96.939995
 20
103.0
 30
0.0
 11
96.939995
 21
98.50000000000001
 31
0.0
  0
LINE
  5
94BA
330
9386
100
AcDbEntity
  8
4
  6
CENTER
100
AcDbLine
 10
94.41999800000001
 20
103.0
 30
0.0
 11
94.41999800000001
 21
98.50000000000001
 31
0.0
  0
LINE
  5
94BB
330
9386
100
AcDbEntity
  8
1
  6
Continuous
100
AcDbLine
 10
94.10499599999999
 20
102.0
 30
0.0
 11
93.47499799999999
 21
100.5
 31
0.0
  0
LINE
  5
94BC
330
9386
100
AcDbEntity
  8
1
  6
Continuous
100
AcDbLine
 10
93.47499799999999
 20
100.5
 30
0.0
 11
92.84499399999999
 21
100.5
 31
0.0
  0
LINE
  5
94BD
330
9386
100
AcDbEntity
  8
1
  6
Continuous
100
AcDbLine
 10
94.734993
 20
102.0
 30
0.0
 11
94.10499599999999
 21
102.0
 31
0.0
  0
LINE
  5
94BE
330
9386
100
AcDbEntity
  8
1
  6
Continuous
100
AcDbLine
 10
94.734993
 20
102.0
 30
0.0
 11
95.36499
 21
100.5
 31
0.0
  0
LINE
  5
94BF
330
9386
100
AcDbEntity
  8
1
  6
Continuous
100
AcDbLine
 10
92.21499599999999
 20
102.0
 30
0.0
 11
92.84499399999999
 21
100.5
 31
0.0
  0
LINE
  5
94C0
330
9386
100
AcDbEntity
  8
1
  6
Continuous
100
AcDbLine
 10
92.21499599999999
 20
102.0
 30
0.0
 11
91.584991
 21
102.0
 31
0.0
  0
LINE
  5
94C1
330
9386
100
AcDbEntity
  8
1
  6
Continuous
100
AcDbLine
 10
90.95499399999999
 20
100.5
 30
0.0
 11
90.324997
 21
100.5
 31
0.0
  0
LINE
  5
94C2
330
9386
100
AcDbEntity
  8
1
  6
Continuous
100
AcDbLine
 10
77.094994
 20
102.0
 30
0.0
 11
76.464996
 21
102.0
 31
0.0
  0
LINE
  5
94C3
330
9386
100
AcDbEntity
  8
4
  6
CENTER
100
AcDbLine
 10
76.779999
 20
103.0
 30
0.0
 11
76.779999
 21
98.50000000000001
 31
0.0
  0
LINE
  5
94C4
330
9386
100
AcDbEntity
  8
1
  6
Continuous
100
AcDbLine
 10
91.584999
 20
102.0000079999998
 30
0.0
 11
90.95499399999999
 21
100.5000079999998
 31
0.0
  0
LINE
  5
94C5
330
9386
100
AcDbEntity
  8
4
  6
CENTER
100
AcDbLine
 10
91.89999400000001
 20
103.0
 30
0.0
 11
91.89999400000001
 21
98.50000000000001
 31
0.0
  0
LINE
  5
94C6
330
9386
100
AcDbEntity
  8
4
  6
CENTER
100
AcDbLine
 10
89.379997
 20
103.0
 30
0.0
 11
89.379997
 21
98.50000000000001
 31
0.0
  0
LINE
  5
94C7
330
9386
100
AcDbEntity
  8
4
  6
CENTER
100
AcDbLine
 10
86.859993
 20
103.0
 30
0.0
 11
86.859993
 21
98.50000000000001
 31
0.0
  0
LINE
  5
94C8
330
9386
100
AcDbEntity
  8
4
  6
CENTER
100
AcDbLine
 10
84.33999599999998
 20
103.0
 30
0.0
 11
84.33999599999998
 21
98.50000000000001
 31
0.0
  0
LINE
  5
94C9
330
9386
100
AcDbEntity
  8
4
  6
CENTER
100
AcDbLine
 10
81.81999199999998
 20
103.0
 30
0.0
 11
81.81999199999998
 21
98.50000000000001
 31
0.0
  0
LINE
  5
94CA
330
9386
100
AcDbEntity
  8
4
  6
CENTER
100
AcDbLine
 10
79.29999499999998
 20
103.0
 30
0.0
 11
79.29999499999998
 21
98.50000000000001
 31
0.0
  0
LINE
  5
94CB
330
9386
100
AcDbEntity
  8
1
  6
Continuous
100
AcDbLine
 10
89.06499499999998
 20
102.0
 30
0.0
 11
88.43499799999998
 21
100.5
 31
0.0
  0
LINE
  5
94CC
330
9386
100
AcDbEntity
  8
1
  6
Continuous
100
AcDbLine
 10
88.43499799999998
 20
100.5
 30
0.0
 11
87.80499299999998
 21
100.5
 31
0.0
  0
LINE
  5
94CD
330
9386
100
AcDbEntity
  8
1
  6
Continuous
100
AcDbLine
 10
89.69499199999999
 20
102.0
 30
0.0
 11
89.06499499999998
 21
102.0
 31
0.0
  0
LINE
  5
94CE
330
9386
100
AcDbEntity
  8
1
  6
Continuous
100
AcDbLine
 10
89.69499199999999
 20
102.0
 30
0.0
 11
90.324997
 21
100.5
 31
0.0
  0
LINE
  5
94CF
330
9386
100
AcDbEntity
  8
1
  6
Continuous
100
AcDbLine
 10
87.17499499999998
 20
102.0
 30
0.0
 11
87.80499299999998
 21
100.5
 31
0.0
  0
LINE
  5
94D0
330
9386
100
AcDbEntity
  8
1
  6
Continuous
100
AcDbLine
 10
87.17499499999998
 20
102.0
 30
0.0
 11
86.54499799999998
 21
102.0
 31
0.0
  0
LINE
  5
94D1
330
9386
100
AcDbEntity
  8
1
  6
Continuous
100
AcDbLine
 10
85.91499299999998
 20
100.5
 30
0.0
 11
85.28499599999998
 21
100.5
 31
0.0
  0
LINE
  5
94D2
330
9386
100
AcDbEntity
  8
1
  6
Continuous
100
AcDbLine
 10
86.54499799999998
 20
102.0000079999998
 30
0.0
 11
85.91499299999998
 21
100.5000079999998
 31
0.0
  0
LINE
  5
94D3
330
9386
100
AcDbEntity
  8
1
  6
Continuous
100
AcDbLine
 10
84.02499399999998
 20
102.0
 30
0.0
 11
83.39499700000002
 21
100.5
 31
0.0
  0
LINE
  5
94D4
330
9386
100
AcDbEntity
  8
1
  6
Continuous
100
AcDbLine
 10
83.39499700000002
 20
100.5
 30
0.0
 11
82.76499200000001
 21
100.5
 31
0.0
  0
LINE
  5
94D5
330
9386
100
AcDbEntity
  8
1
  6
Continuous
100
AcDbLine
 10
84.65499900000002
 20
102.0
 30
0.0
 11
84.02499399999998
 21
102.0
 31
0.0
  0
LINE
  5
94D6
330
9386
100
AcDbEntity
  8
1
  6
Continuous
100
AcDbLine
 10
84.65499099999998
 20
102.0
 30
0.0
 11
85.28499599999998
 21
100.5
 31
0.0
  0
LINE
  5
94D7
330
9386
100
AcDbEntity
  8
1
  6
Continuous
100
AcDbLine
 10
82.13499500000002
 20
102.0
 30
0.0
 11
82.76499200000001
 21
100.5
 31
0.0
  0
LINE
  5
94D8
330
9386
100
AcDbEntity
  8
1
  6
Continuous
100
AcDbLine
 10
82.13499500000002
 20
102.0
 30
0.0
 11
81.50499700000002
 21
102.0
 31
0.0
  0
LINE
  5
94D9
330
9386
100
AcDbEntity
  8
1
  6
Continuous
100
AcDbLine
 10
80.87499200000001
 20
100.5
 30
0.0
 11
80.24499500000002
 21
100.5
 31
0.0
  0
LINE
  5
94DA
330
9386
100
AcDbEntity
  8
1
  6
Continuous
100
AcDbLine
 10
81.50499700000002
 20
102.0000079999998
 30
0.0
 11
80.875
 21
100.5000079999998
 31
0.0
  0
LINE
  5
94DB
330
9386
100
AcDbEntity
  8
1
  6
Continuous
100
AcDbLine
 10
78.354996
 20
100.5
 30
0.0
 11
77.724998
 21
100.5
 31
0.0
  0
LINE
  5
94DC
330
9386
100
AcDbEntity
  8
4
  6
CENTER
100
AcDbLine
 10
74.25999499999999
 20
103.0
 30
0.0
 11
74.25999499999999
 21
98.50000000000001
 31
0.0
  0
LINE
  5
94DD
330
9386
100
AcDbEntity
  8
1
  6
Continuous
100
AcDbLine
 10
79.614998
 20
102.0
 30
0.0
 11
78.984993
 21
102.0
 31
0.0
  0
LINE
  5
94DE
330
9386
100
AcDbEntity
  8
1
  6
Continuous
100
AcDbLine
 10
79.61499
 20
102.0
 30
0.0
 11
80.24499500000002
 21
100.5
 31
0.0
  0
LINE
  5
94DF
330
9386
100
AcDbEntity
  8
1
  6
Continuous
100
AcDbLine
 10
75.834991
 20
100.5
 30
0.0
 11
75.204994
 21
100.5
 31
0.0
  0
LINE
  5
94E0
330
9386
100
AcDbEntity
  8
4
  6
CENTER
100
AcDbLine
 10
149.860001
 20
103.0
 30
0.0
 11
149.860001
 21
98.50000000000001
 31
0.0
  0
LINE
  5
94E1
330
9386
100
AcDbEntity
  8
1
  6
Continuous
100
AcDbLine
 10
151.434998
 20
100.5
 30
0.0
 11
150.804993
 21
100.5
 31
0.0
  0
LINE
  5
94E2
330
9386
100
AcDbEntity
  8
4
  6
CENTER
100
AcDbLine
 10
152.37999
 20
103.0
 30
0.0
 11
152.37999
 21
98.50000000000001
 31
0.0
  0
LINE
  5
94E3
330
9386
100
AcDbEntity
  8
1
  6
Continuous
100
AcDbLine
 10
152.0650019999999
 20
102.0
 30
0.0
 11
151.434998
 21
100.5000079999998
 31
0.0
  0
LINE
  5
94E4
330
9386
100
AcDbEntity
  8
1
  6
Continuous
100
AcDbLine
 10
152.6949919999998
 20
102.0
 30
0.0
 11
153.3249969999999
 21
100.5
 31
0.0
  0
LINE
  5
94E5
330
9386
100
AcDbEntity
  8
1
  6
Continuous
100
AcDbLine
 10
152.6949919999998
 20
102.0
 30
0.0
 11
152.0650019999999
 21
102.0
 31
0.0
  0
LINE
  5
94E6
330
9386
100
AcDbEntity
  8
1
  6
Continuous
100
AcDbLine
 10
28.0
 20
100.5
 30
0.0
 11
25.0
 21
100.5
 31
0.0
  0
LINE
  5
94E7
330
9386
100
AcDbEntity
  8
1
  6
Continuous
100
AcDbLine
 10
28.0
 20
102.0
 30
0.0
 11
25.0
 21
102.0
 31
0.0
  0
LINE
  5
94E8
330
9386
100
AcDbEntity
  8
4
  6
CENTER
100
AcDbLine
 10
30.0
 20
97.0
 30
0.0
 11
23.0
 21
97.0
 31
0.0
  0
LINE
  5
94E9
330
9386
100
AcDbEntity
  8
1
  6
Continuous
100
AcDbLine
 10
25.0
 20
102.0
 30
0.0
 11
25.0
 21
94.0
 31
0.0
  0
LINE
  5
94EA
330
9386
100
AcDbEntity
  8
1
  6
Continuous
100
AcDbLine
 10
28.0
 20
94.0
 30
0.0
 11
25.0
 21
94.0
 31
0.0
  0
LINE
  5
94EB
330
9386
100
AcDbEntity
  8
1
  6
Continuous
100
AcDbLine
 10
28.0
 20
102.0
 30
0.0
 11
28.0
 21
94.0
 31
0.0
  0
LINE
  5
94EC
330
9386
100
AcDbEntity
  8
4
  6
CENTER
100
AcDbLine
 10
30.0
 20
101.200005
 30
0.0
 11
23.0
 21
101.200005
 31
0.0
  0
LINE
  5
94ED
330
9386
100
AcDbEntity
  8
1
  6
Continuous
100
AcDbLine
 10
246.9549869999999
 20
100.5
 30
0.0
 11
246.639984
 21
100.5
 31
0.0
  0
LINE
  5
94EE
330
9386
100
AcDbEntity
  8
1
  6
Continuous
100
AcDbLine
 10
246.639984
 20
94.0
 30
0.0
 11
246.639984
 21
100.5
 31
0.0
  0
LINE
  5
94EF
330
9386
100
AcDbEntity
  8
1
  6
Continuous
100
AcDbLine
 10
327.2799989999999
 20
100.400002
 30
0.0
 11
327.2799989999999
 21
94.0
 31
0.0
  0
LINE
  5
94F0
330
9386
100
AcDbEntity
  8
1
  6
Continuous
100
AcDbLine
 10
327.2799989999999
 20
94.0
 30
0.0
 11
246.639984
 21
94.0
 31
0.0
  0
LINE
  5
94F1
330
9386
100
AcDbEntity
  8
1
  6
Continuous
100
AcDbLine
 10
250.10498
 20
102.0
 30
0.0
 11
249.4749909999999
 21
100.5000079999998
 31
0.0
  0
LINE
  5
94F2
330
9386
100
AcDbEntity
  8
1
  6
Continuous
100
AcDbLine
 10
325.704987
 20
102.0
 30
0.0
 11
326.334991
 21
102.0
 31
0.0
  0
LINE
  5
94F3
330
9386
100
AcDbEntity
  8
4
  6
CENTER
100
AcDbLine
 10
246.8599849999999
 20
101.200005
 30
0.0
 11
327.2799989999999
 21
101.200005
 31
0.0
  0
LINE
  5
94F4
330
9386
100
AcDbEntity
  8
1
  6
Continuous
100
AcDbLine
 10
250.7350009999999
 20
102.0000079999998
 30
0.0
 11
251.3650049999998
 21
100.5000079999998
 31
0.0
  0
LINE
  5
94F5
330
9386
100
AcDbEntity
  8
1
  6
Continuous
100
AcDbLine
 10
326.9649959999999
 20
100.5
 30
0.0
 11
327.2799989999999
 21
100.5
 31
0.0
  0
LINE
  5
94F6
330
9386
100
AcDbEntity
  8
1
  6
Continuous
100
AcDbLine
 10
321.2949829999999
 20
102.0000079999998
 30
0.0
 11
321.924988
 21
100.5000079999998
 31
0.0
  0
LINE
  5
94F7
330
9386
100
AcDbEntity
  8
1
  6
Continuous
100
AcDbLine
 10
326.334991
 20
102.0000079999998
 30
0.0
 11
326.9649959999999
 21
100.5000079999998
 31
0.0
  0
LINE
  5
94F8
330
9386
100
AcDbEntity
  8
1
  6
Continuous
100
AcDbLine
 10
325.704987
 20
102.0000079999998
 30
0.0
 11
325.0749819999999
 21
100.5000079999998
 31
0.0
  0
LINE
  5
94F9
330
9386
100
AcDbEntity
  8
1
  6
Continuous
100
AcDbLine
 10
252.624985
 20
102.0
 30
0.0
 11
251.9949799999999
 21
100.5000079999998
 31
0.0
  0
LINE
  5
94FA
330
9386
100
AcDbEntity
  8
1
  6
Continuous
100
AcDbLine
 10
252.624985
 20
102.0
 30
0.0
 11
253.2549899999999
 21
102.0
 31
0.0
  0
LINE
  5
94FB
330
9386
100
AcDbEntity
  8
1
  6
Continuous
100
AcDbLine
 10
253.8849789999999
 20
100.5
 30
0.0
 11
254.514984
 21
100.5
 31
0.0
  0
LINE
  5
94FC
330
9386
100
AcDbEntity
  8
1
  6
Continuous
100
AcDbLine
 10
253.2550049999999
 20
102.0000079999998
 30
0.0
 11
253.884995
 21
100.5000079999998
 31
0.0
  0
LINE
  5
94FD
330
9386
100
AcDbEntity
  8
4
  6
CENTER
100
AcDbLine
 10
252.939987
 20
103.0
 30
0.0
 11
252.939987
 21
98.50000000000001
 31
0.0
  0
LINE
  5
94FE
330
9386
100
AcDbEntity
  8
4
  6
CENTER
100
AcDbLine
 10
255.4599909999998
 20
103.0
 30
0.0
 11
255.4599909999998
 21
98.50000000000001
 31
0.0
  0
LINE
  5
94FF
330
9386
100
AcDbEntity
  8
1
  6
Continuous
100
AcDbLine
 10
255.7749939999999
 20
102.0000079999998
 30
0.0
 11
256.404999
 21
100.5000079999998
 31
0.0
  0
LINE
  5
9500
330
9386
100
AcDbEntity
  8
1
  6
Continuous
100
AcDbLine
 10
256.404999
 20
100.5
 30
0.0
 11
257.0349729999999
 21
100.5
 31
0.0
  0
LINE
  5
9501
330
9386
100
AcDbEntity
  8
1
  6
Continuous
100
AcDbLine
 10
255.144989
 20
102.0
 30
0.0
 11
255.7749789999999
 21
102.0
 31
0.0
  0
LINE
  5
9502
330
9386
100
AcDbEntity
  8
1
  6
Continuous
100
AcDbLine
 10
255.144989
 20
102.0000079999998
 30
0.0
 11
254.514984
 21
100.5
 31
0.0
  0
LINE
  5
9503
330
9386
100
AcDbEntity
  8
1
  6
Continuous
100
AcDbLine
 10
257.6649779999999
 20
102.0000079999998
 30
0.0
 11
257.0349729999999
 21
100.5
 31
0.0
  0
LINE
  5
9504
330
9386
100
AcDbEntity
  8
1
  6
Continuous
100
AcDbLine
 10
257.6649779999999
 20
102.0
 30
0.0
 11
258.294983
 21
102.0
 31
0.0
  0
LINE
  5
9505
330
9386
100
AcDbEntity
  8
1
  6
Continuous
100
AcDbLine
 10
258.924988
 20
100.5
 30
0.0
 11
259.554993
 21
100.5
 31
0.0
  0
LINE
  5
9506
330
9386
100
AcDbEntity
  8
1
  6
Continuous
100
AcDbLine
 10
258.2950129999999
 20
102.0000079999998
 30
0.0
 11
258.924988
 21
100.5000079999998
 31
0.0
  0
LINE
  5
9507
330
9386
100
AcDbEntity
  8
4
  6
CENTER
100
AcDbLine
 10
257.9799799999999
 20
103.0
 30
0.0
 11
257.9799799999999
 21
98.50000000000001
 31
0.0
  0
LINE
  5
9508
330
9386
100
AcDbEntity
  8
4
  6
CENTER
100
AcDbLine
 10
260.4999999999999
 20
103.0
 30
0.0
 11
260.4999999999999
 21
98.50000000000001
 31
0.0
  0
LINE
  5
9509
330
9386
100
AcDbEntity
  8
1
  6
Continuous
100
AcDbLine
 10
260.815002
 20
102.0000079999998
 30
0.0
 11
261.4450069999999
 21
100.5000079999998
 31
0.0
  0
LINE
  5
950A
330
9386
100
AcDbEntity
  8
1
  6
Continuous
100
AcDbLine
 10
261.4449769999998
 20
100.5
 30
0.0
 11
262.0749819999999
 21
100.5
 31
0.0
  0
LINE
  5
950B
330
9386
100
AcDbEntity
  8
1
  6
Continuous
100
AcDbLine
 10
260.184998
 20
102.0
 30
0.0
 11
260.814972
 21
102.0
 31
0.0
  0
LINE
  5
950C
330
9386
100
AcDbEntity
  8
1
  6
Continuous
100
AcDbLine
 10
260.1849669999999
 20
102.0
 30
0.0
 11
259.554993
 21
100.5000079999998
 31
0.0
  0
LINE
  5
950D
330
9386
100
AcDbEntity
  8
1
  6
Continuous
100
AcDbLine
 10
262.704987
 20
102.0000079999998
 30
0.0
 11
262.0749819999999
 21
100.5000079999998
 31
0.0
  0
LINE
  5
950E
330
9386
100
AcDbEntity
  8
1
  6
Continuous
100
AcDbLine
 10
262.704987
 20
102.0
 30
0.0
 11
263.334991
 21
102.0
 31
0.0
  0
LINE
  5
950F
330
9386
100
AcDbEntity
  8
1
  6
Continuous
100
AcDbLine
 10
263.9649959999999
 20
100.5
 30
0.0
 11
264.594971
 21
100.5
 31
0.0
  0
LINE
  5
9510
330
9386
100
AcDbEntity
  8
1
  6
Continuous
100
AcDbLine
 10
263.334991
 20
102.0000079999998
 30
0.0
 11
263.9649959999999
 21
100.5000079999998
 31
0.0
  0
LINE
  5
9511
330
9386
100
AcDbEntity
  8
4
  6
CENTER
100
AcDbLine
 10
263.019989
 20
103.0
 30
0.0
 11
263.019989
 21
98.50000000000001
 31
0.0
  0
LINE
  5
9512
330
9386
100
AcDbEntity
  8
4
  6
CENTER
100
AcDbLine
 10
265.5399779999999
 20
103.0
 30
0.0
 11
265.5399779999999
 21
98.50000000000001
 31
0.0
  0
LINE
  5
9513
330
9386
100
AcDbEntity
  8
1
  6
Continuous
100
AcDbLine
 10
265.8550109999998
 20
102.0000079999998
 30
0.0
 11
266.4849849999999
 21
100.5000079999998
 31
0.0
  0
LINE
  5
9514
330
9386
100
AcDbEntity
  8
1
  6
Continuous
100
AcDbLine
 10
266.4849849999999
 20
100.5
 30
0.0
 11
267.1149899999999
 21
100.5
 31
0.0
  0
LINE
  5
9515
330
9386
100
AcDbEntity
  8
1
  6
Continuous
100
AcDbLine
 10
265.2249759999999
 20
102.0
 30
0.0
 11
265.8549799999998
 21
102.0
 31
0.0
  0
LINE
  5
9516
330
9386
100
AcDbEntity
  8
1
  6
Continuous
100
AcDbLine
 10
265.2249759999999
 20
102.0000079999998
 30
0.0
 11
264.594971
 21
100.5
 31
0.0
  0
LINE
  5
9517
330
9386
100
AcDbEntity
  8
1
  6
Continuous
100
AcDbLine
 10
267.7449649999999
 20
102.0
 30
0.0
 11
267.1149899999999
 21
100.5000079999998
 31
0.0
  0
LINE
  5
9518
330
9386
100
AcDbEntity
  8
1
  6
Continuous
100
AcDbLine
 10
267.744995
 20
102.0
 30
0.0
 11
268.3749999999998
 21
102.0
 31
0.0
  0
LINE
  5
9519
330
9386
100
AcDbEntity
  8
1
  6
Continuous
100
AcDbLine
 10
269.004974
 20
100.5
 30
0.0
 11
269.6349789999998
 21
100.5
 31
0.0
  0
LINE
  5
951A
330
9386
100
AcDbEntity
  8
1
  6
Continuous
100
AcDbLine
 10
268.3749999999998
 20
102.0000079999998
 30
0.0
 11
269.0050049999999
 21
100.5000079999998
 31
0.0
  0
LINE
  5
951B
330
9386
100
AcDbEntity
  8
4
  6
CENTER
100
AcDbLine
 10
268.059998
 20
103.0
 30
0.0
 11
268.059998
 21
98.50000000000001
 31
0.0
  0
LINE
  5
951C
330
9386
100
AcDbEntity
  8
4
  6
CENTER
100
AcDbLine
 10
270.579987
 20
103.0
 30
0.0
 11
270.579987
 21
98.50000000000001
 31
0.0
  0
LINE
  5
951D
330
9386
100
AcDbEntity
  8
1
  6
Continuous
100
AcDbLine
 10
270.8949889999999
 20
102.0000079999998
 30
0.0
 11
271.524994
 21
100.5000079999998
 31
0.0
  0
LINE
  5
951E
330
9386
100
AcDbEntity
  8
1
  6
Continuous
100
AcDbLine
 10
271.524994
 20
100.5
 30
0.0
 11
272.1549989999999
 21
100.5
 31
0.0
  0
LINE
  5
951F
330
9386
100
AcDbEntity
  8
1
  6
Continuous
100
AcDbLine
 10
270.2649839999998
 20
102.0
 30
0.0
 11
270.8949889999999
 21
102.0
 31
0.0
  0
LINE
  5
9520
330
9386
100
AcDbEntity
  8
1
  6
Continuous
100
AcDbLine
 10
270.2649839999998
 20
102.0
 30
0.0
 11
269.6349789999998
 21
100.5000079999998
 31
0.0
  0
LINE
  5
9521
330
9386
100
AcDbEntity
  8
1
  6
Continuous
100
AcDbLine
 10
272.7849729999999
 20
102.0000079999998
 30
0.0
 11
272.1549679999998
 21
100.5
 31
0.0
  0
LINE
  5
9522
330
9386
100
AcDbEntity
  8
1
  6
Continuous
100
AcDbLine
 10
272.7849729999999
 20
102.0
 30
0.0
 11
273.4149779999999
 21
102.0
 31
0.0
  0
LINE
  5
9523
330
9386
100
AcDbEntity
  8
1
  6
Continuous
100
AcDbLine
 10
274.044983
 20
100.5
 30
0.0
 11
274.6749879999999
 21
100.5
 31
0.0
  0
LINE
  5
9524
330
9386
100
AcDbEntity
  8
1
  6
Continuous
100
AcDbLine
 10
273.4150089999999
 20
102.0000079999998
 30
0.0
 11
274.044983
 21
100.5000079999998
 31
0.0
  0
LINE
  5
9525
330
9386
100
AcDbEntity
  8
4
  6
CENTER
100
AcDbLine
 10
273.0999759999999
 20
103.0
 30
0.0
 11
273.0999759999999
 21
98.50000000000001
 31
0.0
  0
LINE
  5
9526
330
9386
100
AcDbEntity
  8
4
  6
CENTER
100
AcDbLine
 10
275.619995
 20
103.0
 30
0.0
 11
275.619995
 21
98.50000000000001
 31
0.0
  0
LINE
  5
9527
330
9386
100
AcDbEntity
  8
1
  6
Continuous
100
AcDbLine
 10
275.934998
 20
102.0000079999998
 30
0.0
 11
276.5650019999998
 21
100.5000079999998
 31
0.0
  0
LINE
  5
9528
330
9386
100
AcDbEntity
  8
1
  6
Continuous
100
AcDbLine
 10
276.564972
 20
100.5
 30
0.0
 11
277.1949769999998
 21
100.5
 31
0.0
  0
LINE
  5
9529
330
9386
100
AcDbEntity
  8
1
  6
Continuous
100
AcDbLine
 10
275.304993
 20
102.0
 30
0.0
 11
275.934998
 21
102.0
 31
0.0
  0
LINE
  5
952A
330
9386
100
AcDbEntity
  8
1
  6
Continuous
100
AcDbLine
 10
275.304993
 20
102.0000079999998
 30
0.0
 11
274.6749879999999
 21
100.5
 31
0.0
  0
LINE
  5
952B
330
9386
100
AcDbEntity
  8
1
  6
Continuous
100
AcDbLine
 10
277.8249819999999
 20
102.0
 30
0.0
 11
277.1949769999998
 21
100.5000079999998
 31
0.0
  0
LINE
  5
952C
330
9386
100
AcDbEntity
  8
1
  6
Continuous
100
AcDbLine
 10
277.8249819999999
 20
102.0
 30
0.0
 11
278.454987
 21
102.0
 31
0.0
  0
LINE
  5
952D
330
9386
100
AcDbEntity
  8
1
  6
Continuous
100
AcDbLine
 10
279.0849909999999
 20
100.5
 30
0.0
 11
279.714996
 21
100.5
 31
0.0
  0
LINE
  5
952E
330
9386
100
AcDbEntity
  8
1
  6
Continuous
100
AcDbLine
 10
278.454987
 20
102.0000079999998
 30
0.0
 11
279.0849909999999
 21
100.5000079999998
 31
0.0
  0
LINE
  5
952F
330
9386
100
AcDbEntity
  8
4
  6
CENTER
100
AcDbLine
 10
278.1399839999999
 20
103.0
 30
0.0
 11
278.1399839999999
 21
98.50000000000001
 31
0.0
  0
LINE
  5
9530
330
9386
100
AcDbEntity
  8
4
  6
CENTER
100
AcDbLine
 10
280.6599729999999
 20
103.0
 30
0.0
 11
280.6599729999999
 21
98.50000000000001
 31
0.0
  0
LINE
  5
9531
330
9386
100
AcDbEntity
  8
1
  6
Continuous
100
AcDbLine
 10
280.975006
 20
102.0000079999998
 30
0.0
 11
281.6050109999998
 21
100.5000079999998
 31
0.0
  0
LINE
  5
9532
330
9386
100
AcDbEntity
  8
1
  6
Continuous
100
AcDbLine
 10
281.6049799999999
 20
100.5
 30
0.0
 11
282.234985
 21
100.5
 31
0.0
  0
LINE
  5
9533
330
9386
100
AcDbEntity
  8
1
  6
Continuous
100
AcDbLine
 10
280.3449709999998
 20
102.0
 30
0.0
 11
280.9749759999998
 21
102.0
 31
0.0
  0
LINE
  5
9534
330
9386
100
AcDbEntity
  8
1
  6
Continuous
100
AcDbLine
 10
280.3449709999998
 20
102.0
 30
0.0
 11
279.714996
 21
100.5000079999998
 31
0.0
  0
LINE
  5
9535
330
9386
100
AcDbEntity
  8
1
  6
Continuous
100
AcDbLine
 10
282.8649899999998
 20
102.0000079999998
 30
0.0
 11
282.234985
 21
100.5
 31
0.0
  0
LINE
  5
9536
330
9386
100
AcDbEntity
  8
1
  6
Continuous
100
AcDbLine
 10
282.8649899999998
 20
102.0
 30
0.0
 11
283.494995
 21
102.0
 31
0.0
  0
LINE
  5
9537
330
9386
100
AcDbEntity
  8
1
  6
Continuous
100
AcDbLine
 10
284.125
 20
100.5
 30
0.0
 11
284.754974
 21
100.5
 31
0.0
  0
LINE
  5
9538
330
9386
100
AcDbEntity
  8
1
  6
Continuous
100
AcDbLine
 10
283.494995
 20
102.0000079999998
 30
0.0
 11
284.125
 21
100.5000079999998
 31
0.0
  0
LINE
  5
9539
330
9386
100
AcDbEntity
  8
4
  6
CENTER
100
AcDbLine
 10
283.179993
 20
103.0
 30
0.0
 11
283.179993
 21
98.50000000000001
 31
0.0
  0
LINE
  5
953A
330
9386
100
AcDbEntity
  8
4
  6
CENTER
100
AcDbLine
 10
285.699982
 20
103.0
 30
0.0
 11
285.699982
 21
98.50000000000001
 31
0.0
  0
LINE
  5
953B
330
9386
100
AcDbEntity
  8
1
  6
Continuous
100
AcDbLine
 10
286.0149839999999
 20
102.0000079999998
 30
0.0
 11
286.644989
 21
100.5000079999998
 31
0.0
  0
LINE
  5
953C
330
9386
100
AcDbEntity
  8
1
  6
Continuous
100
AcDbLine
 10
286.644989
 20
100.5
 30
0.0
 11
287.2749939999998
 21
100.5
 31
0.0
  0
LINE
  5
953D
330
9386
100
AcDbEntity
  8
1
  6
Continuous
100
AcDbLine
 10
285.3849789999998
 20
102.0
 30
0.0
 11
286.0149839999999
 21
102.0
 31
0.0
  0
LINE
  5
953E
330
9386
100
AcDbEntity
  8
1
  6
Continuous
100
AcDbLine
 10
285.3849789999998
 20
102.0000079999998
 30
0.0
 11
284.754974
 21
100.5
 31
0.0
  0
LINE
  5
953F
330
9386
100
AcDbEntity
  8
1
  6
Continuous
100
AcDbLine
 10
287.9049679999998
 20
102.0
 30
0.0
 11
287.2749939999998
 21
100.5000079999998
 31
0.0
  0
LINE
  5
9540
330
9386
100
AcDbEntity
  8
1
  6
Continuous
100
AcDbLine
 10
287.904999
 20
102.0
 30
0.0
 11
288.5349729999999
 21
102.0
 31
0.0
  0
LINE
  5
9541
330
9386
100
AcDbEntity
  8
1
  6
Continuous
100
AcDbLine
 10
289.1649779999998
 20
100.5
 30
0.0
 11
289.7949829999999
 21
100.5
 31
0.0
  0
LINE
  5
9542
330
9386
100
AcDbEntity
  8
1
  6
Continuous
100
AcDbLine
 10
288.535004
 20
102.0000079999998
 30
0.0
 11
289.165009
 21
100.5000079999998
 31
0.0
  0
LINE
  5
9543
330
9386
100
AcDbEntity
  8
4
  6
CENTER
100
AcDbLine
 10
288.219971
 20
103.0
 30
0.0
 11
288.219971
 21
98.50000000000001
 31
0.0
  0
LINE
  5
9544
330
9386
100
AcDbEntity
  8
4
  6
CENTER
100
AcDbLine
 10
290.7399899999999
 20
103.0
 30
0.0
 11
290.7399899999999
 21
98.50000000000001
 31
0.0
  0
LINE
  5
9545
330
9386
100
AcDbEntity
  8
1
  6
Continuous
100
AcDbLine
 10
291.054993
 20
102.0000079999998
 30
0.0
 11
291.684998
 21
100.5000079999998
 31
0.0
  0
LINE
  5
9546
330
9386
100
AcDbEntity
  8
1
  6
Continuous
100
AcDbLine
 10
291.684998
 20
100.5
 30
0.0
 11
292.3149719999999
 21
100.5
 31
0.0
  0
LINE
  5
9547
330
9386
100
AcDbEntity
  8
1
  6
Continuous
100
AcDbLine
 10
290.424988
 20
102.0
 30
0.0
 11
291.054993
 21
102.0
 31
0.0
  0
LINE
  5
9548
330
9386
100
AcDbEntity
  8
1
  6
Continuous
100
AcDbLine
 10
290.424988
 20
102.0000079999998
 30
0.0
 11
289.7949829999999
 21
100.500015
 31
0.0
  0
LINE
  5
9549
330
9386
100
AcDbEntity
  8
1
  6
Continuous
100
AcDbLine
 10
292.944977
 20
102.0000079999998
 30
0.0
 11
292.3149719999999
 21
100.5
 31
0.0
  0
LINE
  5
954A
330
9386
100
AcDbEntity
  8
1
  6
Continuous
100
AcDbLine
 10
292.944977
 20
102.0
 30
0.0
 11
293.5749819999998
 21
102.0
 31
0.0
  0
LINE
  5
954B
330
9386
100
AcDbEntity
  8
1
  6
Continuous
100
AcDbLine
 10
294.204987
 20
100.5
 30
0.0
 11
294.834991
 21
100.5
 31
0.0
  0
LINE
  5
954C
330
9386
100
AcDbEntity
  8
1
  6
Continuous
100
AcDbLine
 10
250.10498
 20
102.0
 30
0.0
 11
250.734985
 21
102.0
 31
0.0
  0
LINE
  5
954D
330
9386
100
AcDbEntity
  8
1
  6
Continuous
100
AcDbLine
 10
323.8150019999999
 20
102.0000079999998
 30
0.0
 11
324.4450069999999
 21
100.5000079999998
 31
0.0
  0
LINE
  5
954E
330
9386
100
AcDbEntity
  8
1
  6
Continuous
100
AcDbLine
 10
323.1849669999999
 20
102.0
 30
0.0
 11
322.554993
 21
100.5000079999998
 31
0.0
  0
LINE
  5
954F
330
9386
100
AcDbEntity
  8
1
  6
Continuous
100
AcDbLine
 10
251.3649899999998
 20
100.5
 30
0.0
 11
251.9949799999999
 21
100.5
 31
0.0
  0
LINE
  5
9550
330
9386
100
AcDbEntity
  8
1
  6
Continuous
100
AcDbLine
 10
293.5749819999998
 20
102.0000079999998
 30
0.0
 11
294.204987
 21
100.5000079999998
 31
0.0
  0
LINE
  5
9551
330
9386
100
AcDbEntity
  8
4
  6
CENTER
100
AcDbLine
 10
293.2599789999999
 20
103.0
 30
0.0
 11
293.2599789999999
 21
98.50000000000001
 31
0.0
  0
LINE
  5
9552
330
9386
100
AcDbEntity
  8
4
  6
CENTER
100
AcDbLine
 10
295.7799989999998
 20
103.0
 30
0.0
 11
295.7799989999998
 21
98.50000000000001
 31
0.0
  0
LINE
  5
9553
330
9386
100
AcDbEntity
  8
1
  6
Continuous
100
AcDbLine
 10
296.0950009999999
 20
102.0000079999998
 30
0.0
 11
296.7250059999999
 21
100.5000079999998
 31
0.0
  0
LINE
  5
9554
330
9386
100
AcDbEntity
  8
1
  6
Continuous
100
AcDbLine
 10
296.7249759999999
 20
100.5
 30
0.0
 11
297.3549799999998
 21
100.5
 31
0.0
  0
LINE
  5
9555
330
9386
100
AcDbEntity
  8
1
  6
Continuous
100
AcDbLine
 10
295.4649959999999
 20
102.0
 30
0.0
 11
296.0949709999998
 21
102.0
 31
0.0
  0
LINE
  5
9556
330
9386
100
AcDbEntity
  8
1
  6
Continuous
100
AcDbLine
 10
295.464966
 20
102.0
 30
0.0
 11
294.834991
 21
100.5000079999998
 31
0.0
  0
LINE
  5
9557
330
9386
100
AcDbEntity
  8
1
  6
Continuous
100
AcDbLine
 10
297.9849849999999
 20
102.0
 30
0.0
 11
297.3549799999998
 21
100.5000079999998
 31
0.0
  0
LINE
  5
9558
330
9386
100
AcDbEntity
  8
1
  6
Continuous
100
AcDbLine
 10
297.9849849999999
 20
102.0
 30
0.0
 11
298.61499
 21
102.0
 31
0.0
  0
LINE
  5
9559
330
9386
100
AcDbEntity
  8
1
  6
Continuous
100
AcDbLine
 10
299.244995
 20
100.5
 30
0.0
 11
299.875
 21
100.5
 31
0.0
  0
LINE
  5
955A
330
9386
100
AcDbEntity
  8
1
  6
Continuous
100
AcDbLine
 10
298.61499
 20
102.0000079999998
 30
0.0
 11
299.244995
 21
100.5000079999998
 31
0.0
  0
LINE
  5
955B
330
9386
100
AcDbEntity
  8
4
  6
CENTER
100
AcDbLine
 10
298.2999879999999
 20
103.0
 30
0.0
 11
298.2999879999999
 21
98.50000000000001
 31
0.0
  0
LINE
  5
955C
330
9386
100
AcDbEntity
  8
4
  6
CENTER
100
AcDbLine
 10
300.819977
 20
103.0
 30
0.0
 11
300.819977
 21
98.50000000000001
 31
0.0
  0
LINE
  5
955D
330
9386
100
AcDbEntity
  8
1
  6
Continuous
100
AcDbLine
 10
301.13501
 20
102.0000079999998
 30
0.0
 11
301.7649839999999
 21
100.5000079999998
 31
0.0
  0
LINE
  5
955E
330
9386
100
AcDbEntity
  8
1
  6
Continuous
100
AcDbLine
 10
301.7649839999999
 20
100.5
 30
0.0
 11
302.394989
 21
100.5
 31
0.0
  0
LINE
  5
955F
330
9386
100
AcDbEntity
  8
1
  6
Continuous
100
AcDbLine
 10
300.504974
 20
102.0
 30
0.0
 11
301.134979
 21
102.0
 31
0.0
  0
LINE
  5
9560
330
9386
100
AcDbEntity
  8
1
  6
Continuous
100
AcDbLine
 10
300.504974
 20
102.0000079999998
 30
0.0
 11
299.874969
 21
100.5
 31
0.0
  0
LINE
  5
9561
330
9386
100
AcDbEntity
  8
1
  6
Continuous
100
AcDbLine
 10
303.024994
 20
102.0000079999998
 30
0.0
 11
302.394989
 21
100.5
 31
0.0
  0
LINE
  5
9562
330
9386
100
AcDbEntity
  8
1
  6
Continuous
100
AcDbLine
 10
303.024994
 20
102.0
 30
0.0
 11
303.6549989999999
 21
102.0
 31
0.0
  0
LINE
  5
9563
330
9386
100
AcDbEntity
  8
1
  6
Continuous
100
AcDbLine
 10
304.2849729999999
 20
100.5
 30
0.0
 11
304.9149779999999
 21
100.5
 31
0.0
  0
LINE
  5
9564
330
9386
100
AcDbEntity
  8
1
  6
Continuous
100
AcDbLine
 10
303.6549989999999
 20
102.0000079999998
 30
0.0
 11
304.285004
 21
100.5000079999998
 31
0.0
  0
LINE
  5
9565
330
9386
100
AcDbEntity
  8
4
  6
CENTER
100
AcDbLine
 10
303.339996
 20
103.0
 30
0.0
 11
303.339996
 21
98.50000000000001
 31
0.0
  0
LINE
  5
9566
330
9386
100
AcDbEntity
  8
4
  6
CENTER
100
AcDbLine
 10
305.859985
 20
103.0
 30
0.0
 11
305.859985
 21
98.50000000000001
 31
0.0
  0
LINE
  5
9567
330
9386
100
AcDbEntity
  8
1
  6
Continuous
100
AcDbLine
 10
306.1749879999999
 20
102.0000079999998
 30
0.0
 11
306.804993
 21
100.5000079999998
 31
0.0
  0
LINE
  5
9568
330
9386
100
AcDbEntity
  8
1
  6
Continuous
100
AcDbLine
 10
306.804993
 20
100.5
 30
0.0
 11
307.434998
 21
100.5
 31
0.0
  0
LINE
  5
9569
330
9386
100
AcDbEntity
  8
1
  6
Continuous
100
AcDbLine
 10
305.544983
 20
102.0
 30
0.0
 11
306.1749879999999
 21
102.0
 31
0.0
  0
LINE
  5
956A
330
9386
100
AcDbEntity
  8
1
  6
Continuous
100
AcDbLine
 10
305.544983
 20
102.0
 30
0.0
 11
304.9149779999999
 21
100.5000079999998
 31
0.0
  0
LINE
  5
956B
330
9386
100
AcDbEntity
  8
1
  6
Continuous
100
AcDbLine
 10
308.064972
 20
102.0000079999998
 30
0.0
 11
307.434998
 21
100.5000079999998
 31
0.0
  0
LINE
  5
956C
330
9386
100
AcDbEntity
  8
1
  6
Continuous
100
AcDbLine
 10
308.064972
 20
102.0
 30
0.0
 11
308.6949769999999
 21
102.0
 31
0.0
  0
LINE
  5
956D
330
9386
100
AcDbEntity
  8
1
  6
Continuous
100
AcDbLine
 10
309.324982
 20
100.5
 30
0.0
 11
309.954987
 21
100.5
 31
0.0
  0
LINE
  5
956E
330
9386
100
AcDbEntity
  8
1
  6
Continuous
100
AcDbLine
 10
323.184998
 20
102.0
 30
0.0
 11
323.814972
 21
102.0
 31
0.0
  0
LINE
  5
956F
330
9386
100
AcDbEntity
  8
4
  6
CENTER
100
AcDbLine
 10
323.4999999999998
 20
103.0
 30
0.0
 11
323.4999999999998
 21
98.50000000000001
 31
0.0
  0
LINE
  5
9570
330
9386
100
AcDbEntity
  8
1
  6
Continuous
100
AcDbLine
 10
308.6950069999998
 20
102.0000079999998
 30
0.0
 11
309.324982
 21
100.5000079999998
 31
0.0
  0
LINE
  5
9571
330
9386
100
AcDbEntity
  8
4
  6
CENTER
100
AcDbLine
 10
308.3799739999999
 20
103.0
 30
0.0
 11
308.3799739999999
 21
98.50000000000001
 31
0.0
  0
LINE
  5
9572
330
9386
100
AcDbEntity
  8
4
  6
CENTER
100
AcDbLine
 10
310.8999939999999
 20
103.0
 30
0.0
 11
310.8999939999999
 21
98.50000000000001
 31
0.0
  0
LINE
  5
9573
330
9386
100
AcDbEntity
  8
4
  6
CENTER
100
AcDbLine
 10
313.419983
 20
103.0
 30
0.0
 11
313.419983
 21
98.50000000000001
 31
0.0
  0
LINE
  5
9574
330
9386
100
AcDbEntity
  8
4
  6
CENTER
100
AcDbLine
 10
315.939972
 20
103.0
 30
0.0
 11
315.939972
 21
98.50000000000001
 31
0.0
  0
LINE
  5
9575
330
9386
100
AcDbEntity
  8
4
  6
CENTER
100
AcDbLine
 10
320.9799799999998
 20
103.0
 30
0.0
 11
320.9799799999998
 21
98.50000000000001
 31
0.0
  0
LINE
  5
9576
330
9386
100
AcDbEntity
  8
1
  6
Continuous
100
AcDbLine
 10
311.2149959999999
 20
102.0000079999998
 30
0.0
 11
311.8450009999999
 21
100.5000079999998
 31
0.0
  0
LINE
  5
9577
330
9386
100
AcDbEntity
  8
1
  6
Continuous
100
AcDbLine
 10
311.844971
 20
100.5
 30
0.0
 11
312.4749759999999
 21
100.5
 31
0.0
  0
LINE
  5
9578
330
9386
100
AcDbEntity
  8
1
  6
Continuous
100
AcDbLine
 10
310.5849909999998
 20
102.0
 30
0.0
 11
311.2149959999999
 21
102.0
 31
0.0
  0
LINE
  5
9579
330
9386
100
AcDbEntity
  8
1
  6
Continuous
100
AcDbLine
 10
310.5849909999998
 20
102.0000079999998
 30
0.0
 11
309.954987
 21
100.5
 31
0.0
  0
LINE
  5
957A
330
9386
100
AcDbEntity
  8
1
  6
Continuous
100
AcDbLine
 10
313.1049799999999
 20
102.0000149999999
 30
0.0
 11
312.4749759999999
 21
100.5000079999998
 31
0.0
  0
LINE
  5
957B
330
9386
100
AcDbEntity
  8
1
  6
Continuous
100
AcDbLine
 10
313.1049799999999
 20
102.0
 30
0.0
 11
313.734985
 21
102.0
 31
0.0
  0
LINE
  5
957C
330
9386
100
AcDbEntity
  8
1
  6
Continuous
100
AcDbLine
 10
314.3649899999999
 20
100.5
 30
0.0
 11
314.994995
 21
100.5
 31
0.0
  0
LINE
  5
957D
330
9386
100
AcDbEntity
  8
1
  6
Continuous
100
AcDbLine
 10
313.734985
 20
102.0000079999998
 30
0.0
 11
314.3649899999999
 21
100.5000079999998
 31
0.0
  0
LINE
  5
957E
330
9386
100
AcDbEntity
  8
1
  6
Continuous
100
AcDbLine
 10
316.255005
 20
102.0000079999998
 30
0.0
 11
316.88501
 21
100.5000079999998
 31
0.0
  0
LINE
  5
957F
330
9386
100
AcDbEntity
  8
1
  6
Continuous
100
AcDbLine
 10
316.8849789999999
 20
100.5
 30
0.0
 11
317.5149839999999
 21
100.5
 31
0.0
  0
LINE
  5
9580
330
9386
100
AcDbEntity
  8
1
  6
Continuous
100
AcDbLine
 10
315.625
 20
102.0
 30
0.0
 11
316.254974
 21
102.0
 31
0.0
  0
LINE
  5
9581
330
9386
100
AcDbEntity
  8
1
  6
Continuous
100
AcDbLine
 10
315.624969
 20
102.0
 30
0.0
 11
314.994995
 21
100.5000079999998
 31
0.0
  0
LINE
  5
9582
330
9386
100
AcDbEntity
  8
1
  6
Continuous
100
AcDbLine
 10
318.144989
 20
102.0000079999998
 30
0.0
 11
317.5149839999999
 21
100.500015
 31
0.0
  0
LINE
  5
9583
330
9386
100
AcDbEntity
  8
1
  6
Continuous
100
AcDbLine
 10
318.144989
 20
102.0
 30
0.0
 11
318.7749939999998
 21
102.0
 31
0.0
  0
LINE
  5
9584
330
9386
100
AcDbEntity
  8
1
  6
Continuous
100
AcDbLine
 10
319.4049989999999
 20
100.5
 30
0.0
 11
320.0349729999999
 21
100.5
 31
0.0
  0
LINE
  5
9585
330
9386
100
AcDbEntity
  8
1
  6
Continuous
100
AcDbLine
 10
318.7749939999998
 20
102.0000079999998
 30
0.0
 11
319.4049989999999
 21
100.5000079999998
 31
0.0
  0
LINE
  5
9586
330
9386
100
AcDbEntity
  8
1
  6
Continuous
100
AcDbLine
 10
321.924988
 20
100.5
 30
0.0
 11
322.554993
 21
100.5
 31
0.0
  0
LINE
  5
9587
330
9386
100
AcDbEntity
  8
4
  6
CENTER
100
AcDbLine
 10
326.0199889999999
 20
103.0
 30
0.0
 11
326.0199889999999
 21
98.50000000000001
 31
0.0
  0
LINE
  5
9588
330
9386
100
AcDbEntity
  8
1
  6
Continuous
100
AcDbLine
 10
320.6649779999999
 20
102.0
 30
0.0
 11
321.2949829999999
 21
102.0
 31
0.0
  0
LINE
  5
9589
330
9386
100
AcDbEntity
  8
1
  6
Continuous
100
AcDbLine
 10
320.6649779999999
 20
102.0000079999998
 30
0.0
 11
320.0349729999999
 21
100.5
 31
0.0
  0
LINE
  5
958A
330
9386
100
AcDbEntity
  8
1
  6
Continuous
100
AcDbLine
 10
324.444977
 20
100.5
 30
0.0
 11
325.0749819999999
 21
100.5
 31
0.0
  0
LINE
  5
958B
330
9386
100
AcDbEntity
  8
4
  6
CENTER
100
AcDbLine
 10
250.419983
 20
103.0
 30
0.0
 11
250.419983
 21
98.50000000000001
 31
0.0
  0
LINE
  5
958C
330
9386
100
AcDbEntity
  8
1
  6
Continuous
100
AcDbLine
 10
248.8449859999998
 20
100.5
 30
0.0
 11
249.4749909999999
 21
100.5
 31
0.0
  0
LINE
  5
958D
330
9386
100
AcDbEntity
  8
4
  6
CENTER
100
AcDbLine
 10
247.899979
 20
103.0
 30
0.0
 11
247.899979
 21
98.50000000000001
 31
0.0
  0
LINE
  5
958E
330
9386
100
AcDbEntity
  8
1
  6
Continuous
100
AcDbLine
 10
248.214996
 20
102.0000079999998
 30
0.0
 11
248.8450009999999
 21
100.5000079999998
 31
0.0
  0
LINE
  5
958F
330
9386
100
AcDbEntity
  8
1
  6
Continuous
100
AcDbLine
 10
247.5849909999999
 20
102.0000079999998
 30
0.0
 11
246.9549869999999
 21
100.5
 31
0.0
  0
LINE
  5
9590
330
9386
100
AcDbEntity
  8
1
  6
Continuous
100
AcDbLine
 10
247.5849909999999
 20
102.0
 30
0.0
 11
248.214981
 21
102.0
 31
0.0
  0
LINE
  5
9591
330
9386
100
AcDbEntity
  8
4
  6
CENTER
100
AcDbLine
 10
256.8499759999999
 20
99.200005
 30
0.0
 11
256.8499759999999
 21
94.800003
 31
0.0
  0
LINE
  5
9592
330
9386
100
AcDbEntity
  8
4
  6
CENTER
100
AcDbLine
 10
254.6499789999999
 20
97.0
 30
0.0
 11
259.0499879999999
 21
97.0
 31
0.0
  0
LINE
  5
9593
330
9386
100
AcDbEntity
  8
4
  6
CENTER
100
AcDbLine
 10
269.6499939999998
 20
97.0
 30
0.0
 11
274.0499879999999
 21
97.0
 31
0.0
  0
LINE
  5
9594
330
9386
100
AcDbEntity
  8
4
  6
CENTER
100
AcDbLine
 10
271.8499759999999
 20
99.200005
 30
0.0
 11
271.8499759999999
 21
94.800003
 31
0.0
  0
LINE
  5
9595
330
9386
100
AcDbEntity
  8
4
  6
CENTER
100
AcDbLine
 10
286.8499759999999
 20
99.200005
 30
0.0
 11
286.8499759999999
 21
94.800003
 31
0.0
  0
LINE
  5
9596
330
9386
100
AcDbEntity
  8
4
  6
CENTER
100
AcDbLine
 10
284.649994
 20
97.0
 30
0.0
 11
289.0499879999999
 21
97.0
 31
0.0
  0
LINE
  5
9597
330
9386
100
AcDbEntity
  8
4
  6
CENTER
100
AcDbLine
 10
301.8499759999999
 20
99.200005
 30
0.0
 11
301.8499759999999
 21
94.800003
 31
0.0
  0
LINE
  5
9598
330
9386
100
AcDbEntity
  8
4
  6
CENTER
100
AcDbLine
 10
299.6499939999998
 20
97.0
 30
0.0
 11
304.049988
 21
97.0
 31
0.0
  0
LINE
  5
9599
330
9386
100
AcDbEntity
  8
4
  6
CENTER
100
AcDbLine
 10
316.8499759999999
 20
99.200005
 30
0.0
 11
316.8499759999999
 21
94.800003
 31
0.0
  0
LINE
  5
959A
330
9386
100
AcDbEntity
  8
4
  6
CENTER
100
AcDbLine
 10
314.6499939999998
 20
97.0
 30
0.0
 11
319.0499879999999
 21
97.0
 31
0.0
  0
LINE
  5
959B
330
9386
100
AcDbEntity
  8
4
  6
CENTER
100
AcDbLine
 10
318.459991
 20
103.0
 30
0.0
 11
318.459991
 21
98.50000000000001
 31
0.0
  0
CIRCLE
  5
959C
330
9386
100
AcDbEntity
  8
1
  6
Continuous
100
AcDbCircle
 10
143.4299929999999
 20
97.0
 30
0.0
 40
1.1
  0
CIRCLE
  5
959D
330
9386
100
AcDbEntity
  8
1
  6
Continuous
100
AcDbCircle
 10
143.4299929999999
 20
97.0
 30
0.0
 40
2.2
  0
CIRCLE
  5
959E
330
9386
100
AcDbEntity
  8
1
  6
Continuous
100
AcDbCircle
 10
128.4299929999999
 20
97.0
 30
0.0
 40
1.1
  0
CIRCLE
  5
959F
330
9386
100
AcDbEntity
  8
1
  6
Continuous
100
AcDbCircle
 10
128.4299929999999
 20
97.0
 30
0.0
 40
2.2
  0
CIRCLE
  5
95A0
330
9386
100
AcDbEntity
  8
1
  6
Continuous
100
AcDbCircle
 10
113.429993
 20
97.0
 30
0.0
 40
2.2
  0
CIRCLE
  5
95A1
330
9386
100
AcDbEntity
  8
1
  6
Continuous
100
AcDbCircle
 10
113.429993
 20
97.0
 30
0.0
 40
1.1
  0
CIRCLE
  5
95A2
330
9386
100
AcDbEntity
  8
1
  6
Continuous
100
AcDbCircle
 10
98.42999300000002
 20
97.0
 30
0.0
 40
2.2
  0
CIRCLE
  5
95A3
330
9386
100
AcDbEntity
  8
1
  6
Continuous
100
AcDbCircle
 10
98.42999300000002
 20
97.0
 30
0.0
 40
1.1
  0
CIRCLE
  5
95A4
330
9386
100
AcDbEntity
  8
1
  6
Continuous
100
AcDbCircle
 10
83.42999299999998
 20
97.0
 30
0.0
 40
2.2
  0
CIRCLE
  5
95A5
330
9386
100
AcDbEntity
  8
1
  6
Continuous
100
AcDbCircle
 10
83.42999299999998
 20
97.0
 30
0.0
 40
1.1
  0
CIRCLE
  5
95A6
330
9386
100
AcDbEntity
  8
1
  6
Continuous
100
AcDbCircle
 10
256.8499759999999
 20
97.0
 30
0.0
 40
1.1
  0
CIRCLE
  5
95A7
330
9386
100
AcDbEntity
  8
1
  6
Continuous
100
AcDbCircle
 10
271.8499759999999
 20
97.0
 30
0.0
 40
1.1
  0
CIRCLE
  5
95A8
330
9386
100
AcDbEntity
  8
1
  6
Continuous
100
AcDbCircle
 10
286.8499759999999
 20
97.0
 30
0.0
 40
1.1
  0
CIRCLE
  5
95A9
330
9386
100
AcDbEntity
  8
1
  6
Continuous
100
AcDbCircle
 10
301.8499759999999
 20
97.0
 30
0.0
 40
1.1
  0
CIRCLE
  5
95AA
330
9386
100
AcDbEntity
  8
1
  6
Continuous
100
AcDbCircle
 10
316.8499759999999
 20
97.0
 30
0.0
 40
1.1
  0
TEXT
  5
95AB
330
9386
100
AcDbEntity
  8
6
  6
Continuous
100
AcDbText
 10
27.97945
 20
10.0487
 30
0.0
 40
1.399999999999999
  1
6
 41
1.069393
100
AcDbText
  0
TEXT
  5
95AC
330
9386
100
AcDbEntity
  8
1
  6
Continuous
100
AcDbText
 10
17.97945
 20
10.0487
 30
0.0
 40
1.399999999999999
  1
1
 41
1.069393
100
AcDbText
  0
TEXT
  5
95AD
330
9386
100
AcDbEntity
  8
1
  6
Continuous
100
AcDbText
 10
9.99995
 20
10.0
 30
0.0
 40
1.399999999999999
  1
LAYER
 41
1.009912999999997
100
AcDbText
  0
TEXT
  5
95AE
330
9386
100
AcDbEntity
  8
2
  6
Continuous
100
AcDbText
 10
19.97944999999998
 20
10.0487
 30
0.0
 40
1.399999999999999
  1
2
 41
1.069393
100
AcDbText
  0
TEXT
  5
95AF
330
9386
100
AcDbEntity
  8
3
  6
DASHED
100
AcDbText
 10
21.97945
 20
10.0487
 30
0.0
 40
1.399999999999999
  1
3
 41
1.069393
100
AcDbText
  0
TEXT
  5
95B0
330
9386
100
AcDbEntity
  8
4
  6
CENTER
100
AcDbText
 10
23.97944999999999
 20
10.0487
 30
0.0
 40
1.399999999999999
  1
4
 41
1.069393
100
AcDbText
  0
TEXT
  5
95B1
330
9386
100
AcDbEntity
  8
5
  6
PHANTOM
100
AcDbText
 10
25.97945
 20
10.0487
 30
0.0
 40
1.399999999999999
  1
5
 41
1.069393
100
AcDbText
  0
TEXT
  5
95B2
330
9386
100
AcDbEntity
  8
7
  6
Continuous
100
AcDbText
 10
10.00005
 20
26.0
 30
0.0
 40
3.0
  1
CODE No.5499
 41
1.003962999999999
100
AcDbText
  0
TEXT
  5
95B3
330
9386
100
AcDbEntity
  8
7
  6
Continuous
100
AcDbText
 10
10.00005
 20
18.0
 30
0.0
 40
3.0
  1
TYPE No.TM-216-2
 41
1.002950999999999
100
AcDbText
  0
TEXT
  5
95B4
330
9386
100
AcDbEntity
  8
7
  6
Continuous
100
AcDbText
 10
29.97944999999999
 20
10.0487
 30
0.0
 40
1.399999999999999
  1
7
 41
1.069393
100
AcDbText
  0
ENDSEC
  0
SECTION
  2
OBJECTS
  0
DICTIONARY
  5
9374
330
0
100
AcDbDictionary
281
     1
  3
ACAD_CIP_PREVIOUS_PRODUCT_INFO
350
961A
  3
ACAD_COLOR
350
95FC
  3
ACAD_DETAILVIEWSTYLE
350
9615
  3
ACAD_GROUP
350
9375
  3
ACAD_LAYOUT
350
9381
  3
ACAD_MATERIAL
350
95CA
  3
ACAD_MLEADERSTYLE
350
9611
  3
ACAD_MLINESTYLE
350
937E
  3
ACAD_PLOTSETTINGS
350
9380
  3
ACAD_PLOTSTYLENAME
350
95C8
  3
ACAD_SCALELIST
350
95FF
  3
ACAD_SECTIONVIEWSTYLE
350
9613
  3
ACAD_TABLESTYLE
350
95FD
  3
ACAD_VISUALSTYLE
350
95E3
  3
ACDB_RECOMPOSE_DATA
350
9638
  3
AcDbVariableDictionary
350
962B
  3
DWGPROPS
350
9639
  0
DICTIONARY
  5
961B
330
9378
100
AcDbDictionary
280
     1
281
     1
  3
ADSK_XREC_LAYER_RECONCILED
360
961C
  0
DICTIONARY
  5
961D
330
938E
100
AcDbDictionary
280
     1
281
     1
  3
ADSK_XREC_LAYER_RECONCILED
360
961E
  0
DICTIONARY
  5
961F
330
938F
100
AcDbDictionary
280
     1
281
     1
  3
ADSK_XREC_LAYER_RECONCILED
360
9620
  0
DICTIONARY
  5
9621
330
9390
100
AcDbDictionary
280
     1
281
     1
  3
ADSK_XREC_LAYER_RECONCILED
360
9622
  0
DICTIONARY
  5
9623
330
9391
100
AcDbDictionary
280
     1
281
     1
  3
ADSK_XREC_LAYER_RECONCILED
360
9624
  0
DICTIONARY
  5
9625
330
9392
100
AcDbDictionary
280
     1
281
     1
  3
ADSK_XREC_LAYER_RECONCILED
360
9626
  0
DICTIONARY
  5
9627
330
9393
100
AcDbDictionary
280
     1
281
     1
  3
ADSK_XREC_LAYER_RECONCILED
360
9628
  0
DICTIONARY
  5
9629
330
9394
100
AcDbDictionary
280
     1
281
     1
  3
ADSK_XREC_LAYER_RECONCILED
360
962A
  0
DICTIONARY
  5
95C3
330
9386
100
AcDbDictionary
281
     1
  3
ACAD_LAYOUTSELFREF
350
95C4
  0
DICTIONARY
  5
95C1
330
9382
100
AcDbDictionary
281
     1
  3
ACAD_LAYOUTSELFREF
350
95C2
  0
XRECORD
  5
961A
102
{ACAD_REACTORS
330
9374
102
}
330
9374
100
AcDbXrecord
280
     1
300
ACDLT
300
2014
300
ACDLT_F_S
  0
DICTIONARY
  5
95FC
102
{ACAD_REACTORS
330
9374
102
}
330
9374
100
AcDbDictionary
281
     1
  0
DICTIONARY
  5
9615
102
{ACAD_REACTORS
330
9374
102
}
330
9374
100
AcDbDictionary
281
     1
  3
Imperial24
350
9616
  0
DICTIONARY
  5
9375
102
{ACAD_REACTORS
330
9374
102
}
330
9374
100
AcDbDictionary
281
     1
  0
DICTIONARY
  5
9381
102
{ACAD_REACTORS
330
9374
102
}
330
9374
100
AcDbDictionary
281
     1
  3
Model
350
9617
  3
レイアウト1
350
9618
  0
DICTIONARY
  5
95CA
102
{ACAD_REACTORS
330
9374
102
}
330
9374
100
AcDbDictionary
281
     1
  3
ByBlock
350
95D3
  3
ByLayer
350
95CB
  3
Global
350
95DB
  0
DICTIONARY
  5
9611
102
{ACAD_REACTORS
330
9374
102
}
330
9374
100
AcDbDictionary
281
     1
  3
Standard
350
9612
  0
DICTIONARY
  5
937E
102
{ACAD_REACTORS
330
9374
102
}
330
9374
100
AcDbDictionary
281
     1
  3
STANDARD
350
937F
  0
DICTIONARY
  5
9380
102
{ACAD_REACTORS
330
9374
102
}
330
9374
100
AcDbDictionary
281
     1
  0
ACDBDICTIONARYWDFLT
  5
95C8
102
{ACAD_REACTORS
330
9374
102
}
330
9374
100
AcDbDictionary
281
     1
  3
Normal
350
95C9
100
AcDbDictionaryWithDefault
340
95C9
  0
DICTIONARY
  5
95FF
102
{ACAD_REACTORS
330
9374
102
}
330
9374
100
AcDbDictionary
281
     1
  3
A0
350
9600
  3
A1
350
9601
  3
A2
350
9602
  3
A3
350
9603
  3
A4
350
9604
  3
A5
350
9605
  3
A6
350
9606
  3
A7
350
9607
  3
A8
350
9608
  3
A9
350
9609
  3
B0
350
960A
  3
B1
350
960B
  3
B2
350
960C
  3
B3
350
960D
  3
B4
350
960E
  3
B5
350
960F
  3
B6
350
9610
  0
DICTIONARY
  5
9613
102
{ACAD_REACTORS
330
9374
102
}
330
9374
100
AcDbDictionary
281
     1
  3
Imperial24
350
9614
  0
DICTIONARY
  5
95FD
102
{ACAD_REACTORS
330
9374
102
}
330
9374
100
AcDbDictionary
281
     1
  3
Standard
350
95FE
  0
DICTIONARY
  5
95E3
102
{ACAD_REACTORS
330
9374
102
}
330
9374
100
AcDbDictionary
281
     1
  3
2dWireframe
350
95E9
  3
Basic
350
95E8
  3
Brighten
350
95EF
  3
ColorChange
350
95F3
  3
Conceptual
350
95EC
  3
Dim
350
95EE
  3
EdgeColorOff
350
95FB
  3
Facepattern
350
95F2
  3
Flat
350
95E4
  3
FlatWithEdges
350
95E5
  3
Gouraud
350
95E6
  3
GouraudWithEdges
350
95E7
  3
Hidden
350
95EB
  3
JitterOff
350
95F9
  3
Linepattern
350
95F1
  3
OverhangOff
350
95FA
  3
Realistic
350
95ED
  3
Shaded
350
95F8
  3
Shaded with edges
350
95F7
  3
Shades of Gray
350
95F4
  3
Sketchy
350
95F5
  3
Thicken
350
95F0
  3
Wireframe
350
95EA
  3
X-Ray
350
95F6
  0
XRECORD
  5
9638
102
{ACAD_REACTORS
330
9374
102
}
330
9374
100
AcDbXrecord
280
     1
 90
        1
330
95FE
  0
DICTIONARY
  5
962B
102
{ACAD_REACTORS
330
9374
102
}
330
9374
100
AcDbDictionary
281
     1
  3
CANNOSCALE
350
9630
  3
CMLEADERSTYLE
350
962D
  3
CTABLESTYLE
350
962C
  3
CVIEWDETAILSTYLE
350
962E
  3
CVIEWSECTIONSTYLE
350
962F
  3
DIMASSOC
350
9633
  3
INDEXCTL
350
9632
  3
SORTENTS
350
9631
  3
XCLIPFRAME
350
9634
  0
XRECORD
  5
9639
102
{ACAD_REACTORS
330
9374
102
}
330
9374
100
AcDbXrecord
280
     1
  1
DWGPROPS COOKIE
  2

  3

  4

  6

  7

  8
Yoshitsune
  9

300
=
301
=
302
=
303
=
304
=
305
=
306
=
307
=
308
=
309
=
 40
0.0000159837962963
 41
2451054.635459954
 42
2457192.621215382
  1

 90
        0
  0
XRECORD
  5
961C
102
{ACAD_REACTORS
330
961B
102
}
330
961B
100
AcDbXrecord
280
     1
290
     1
  0
XRECORD
  5
961E
102
{ACAD_REACTORS
330
961D
102
}
330
961D
100
AcDbXrecord
280
     1
290
     1
  0
XRECORD
  5
9620
102
{ACAD_REACTORS
330
961F
102
}
330
961F
100
AcDbXrecord
280
     1
290
     1
  0
XRECORD
  5
9622
102
{ACAD_REACTORS
330
9621
102
}
330
9621
100
AcDbXrecord
280
     1
290
     1
  0
XRECORD
  5
9624
102
{ACAD_REACTORS
330
9623
102
}
330
9623
100
AcDbXrecord
280
     1
290
     1
  0
XRECORD
  5
9626
102
{ACAD_REACTORS
330
9625
102
}
330
9625
100
AcDbXrecord
280
     1
290
     1
  0
XRECORD
  5
9628
102
{ACAD_REACTORS
330
9627
102
}
330
9627
100
AcDbXrecord
280
     1
290
     1
  0
XRECORD
  5
962A
102
{ACAD_REACTORS
330
9629
102
}
330
9629
100
AcDbXrecord
280
     1
290
     1
  0
XRECORD
  5
95C4
102
{ACAD_REACTORS
330
95C3
102
}
330
95C3
100
AcDbXrecord
280
     1
340
9386
  0
XRECORD
  5
95C2
102
{ACAD_REACTORS
330
95C1
102
}
330
95C1
100
AcDbXrecord
280
     1
340
9382
  0
ACDBDETAILVIEWSTYLE
  5
9616
102
{ACAD_XDICTIONARY
360
9671
102
}
102
{ACAD_REACTORS
330
9615
102
}
330
9615
100
AcDbModelDocViewStyle
 70
     0
  3
Imperial24
290
     0
100
AcDbDetailViewStyle
 70
     0
 71
     0
 90
        3
 71
     1
340
9379
 40
0.24
340
0
 40
0.24
300

 40
0.36
280
     3
 71
     2
340
937D
 90
       25
 71
     3
340
9379
 40
0.24
 90
        1
 40
0.75
 90
        1
300
%<\AcVar ViewType \f "%tc1">% %<\AcVar ViewDetailId>%\PSCALE %<\AcVar ViewScale \f "%sn">%
 71
     4
340
937D
 90
       25
340
937D
 90
       25
280
     0
  0
LAYOUT
  5
9617
102
{ACAD_XDICTIONARY
360
9673
102
}
102
{ACAD_REACTORS
330
9381
102
}
330
9381
100
AcDbPlotSettings
  1

  2
Canon LBP9100C
  4

  6

 40
0.0
 41
0.0
 42
0.0
 43
0.0
 44
0.0
 45
0.0
 46
0.0
 47
0.0
 48
0.0
 49
0.0
140
0.0
141
0.0
142
1.0
143
1.0
 70
  1712
 72
     0
 73
     0
 74
     0
  7

 75
     0
147
1.0
148
0.0
149
0.0
100
AcDbLayout
  1
Model
 70
     1
 71
     0
 10
0.0
 20
0.0
 11
12.0
 21
9.0
 12
0.0
 22
0.0
 32
0.0
 14
0.0
 24
0.0
 34
0.0
 15
0.0
 25
0.0
 35
0.0
146
0.0
 13
0.0
 23
0.0
 33
0.0
 16
1.0
 26
0.0
 36
0.0
 17
0.0
 27
1.0
 37
0.0
 76
     0
330
9386
331
95C0
  0
LAYOUT
  5
9618
102
{ACAD_XDICTIONARY
360
9675
102
}
102
{ACAD_REACTORS
330
9381
102
}
330
9381
100
AcDbPlotSettings
  1

  2
Canon LBP9100C
  4

  6

 40
0.0
 41
0.0
 42
0.0
 43
0.0
 44
0.0
 45
0.0
 46
0.0
 47
0.0
 48
0.0
 49
0.0
140
0.0
141
0.0
142
1.0
143
1.0
 70
   688
 72
     0
 73
     0
 74
     5
  7

 75
    16
147
1.0
148
0.0
149
0.0
100
AcDbLayout
  1
レイアウト1
 70
     0
 71
     1
 10
0.0
 20
0.0
 11
420.0
 21
297.0
 12
0.0
 22
0.0
 32
0.0
 14
1.000000000000000E+20
 24
1.000000000000000E+20
 34
1.000000000000000E+20
 15
-1.000000000000000E+20
 25
-1.000000000000000E+20
 35
-1.000000000000000E+20
146
0.0
 13
0.0
 23
0.0
 33
0.0
 16
1.0
 26
0.0
 36
0.0
 17
0.0
 27
1.0
 37
0.0
 76
     0
330
9382
  0
MATERIAL
  5
95D3
102
{ACAD_XDICTIONARY
360
95D4
102
}
102
{ACAD_REACTORS
330
95CA
102
}
330
95CA
100
AcDbMaterial
  1
ByBlock
 72
     0
 43
0.0208333333333333
 43
0.0
 43
0.0
 43
0.0
 43
0.0
 43
0.0208333333333333
 43
0.0
 43
0.0
 43
0.0
 43
0.0
 43
1.0
 43
0.0
 43
0.0
 43
0.0
 43
0.0
 43
1.0
 77
     0
 47
0.0208333333333333
 47
0.0
 47
0.0
 47
0.0
 47
0.0
 47
0.0208333333333333
 47
0.0
 47
0.0
 47
0.0
 47
0.0
 47
1.0
 47
0.0
 47
0.0
 47
0.0
 47
0.0
 47
1.0
171
     0
 49
0.0208333333333333
 49
0.0
 49
0.0
 49
0.0
 49
0.0
 49
0.0208333333333333
 49
0.0
 49
0.0
 49
0.0
 49
0.0
 49
1.0
 49
0.0
 49
0.0
 49
0.0
 49
0.0
 49
1.0
175
     0
142
0.0208333333333333
142
0.0
142
0.0
142
0.0
142
0.0
142
0.0208333333333333
142
0.0
142
0.0
142
0.0
142
0.0
142
1.0
142
0.0
142
0.0
142
0.0
142
0.0
142
1.0
179
     0
144
0.0208333333333333
144
0.0
144
0.0
144
0.0
144
0.0
144
0.0208333333333333
144
0.0
144
0.0
144
0.0
144
0.0
144
1.0
144
0.0
144
0.0
144
0.0
144
0.0
144
1.0
147
0.0208333333333333
147
0.0
147
0.0
147
0.0
147
0.0
147
0.0208333333333333
147
0.0
147
0.0
147
0.0
147
0.0
147
1.0
147
0.0
147
0.0
147
0.0
147
0.0
147
1.0
  0
MATERIAL
  5
95CB
102
{ACAD_XDICTIONARY
360
95CC
102
}
102
{ACAD_REACTORS
330
95CA
102
}
330
95CA
100
AcDbMaterial
  1
ByLayer
 72
     0
 43
0.0208333333333333
 43
0.0
 43
0.0
 43
0.0
 43
0.0
 43
0.0208333333333333
 43
0.0
 43
0.0
 43
0.0
 43
0.0
 43
1.0
 43
0.0
 43
0.0
 43
0.0
 43
0.0
 43
1.0
 77
     0
 47
0.0208333333333333
 47
0.0
 47
0.0
 47
0.0
 47
0.0
 47
0.0208333333333333
 47
0.0
 47
0.0
 47
0.0
 47
0.0
 47
1.0
 47
0.0
 47
0.0
 47
0.0
 47
0.0
 47
1.0
171
     0
 49
0.0208333333333333
 49
0.0
 49
0.0
 49
0.0
 49
0.0
 49
0.0208333333333333
 49
0.0
 49
0.0
 49
0.0
 49
0.0
 49
1.0
 49
0.0
 49
0.0
 49
0.0
 49
0.0
 49
1.0
175
     0
142
0.0208333333333333
142
0.0
142
0.0
142
0.0
142
0.0
142
0.0208333333333333
142
0.0
142
0.0
142
0.0
142
0.0
142
1.0
142
0.0
142
0.0
142
0.0
142
0.0
142
1.0
179
     0
144
0.0208333333333333
144
0.0
144
0.0
144
0.0
144
0.0
144
0.0208333333333333
144
0.0
144
0.0
144
0.0
144
0.0
144
1.0
144
0.0
144
0.0
144
0.0
144
0.0
144
1.0
147
0.0208333333333333
147
0.0
147
0.0
147
0.0
147
0.0
147
0.0208333333333333
147
0.0
147
0.0
147
0.0
147
0.0
147
1.0
147
0.0
147
0.0
147
0.0
147
0.0
147
1.0
  0
MATERIAL
  5
95DB
102
{ACAD_XDICTIONARY
360
95DC
102
}
102
{ACAD_REACTORS
330
95CA
102
}
330
95CA
100
AcDbMaterial
  1
Global
 72
     0
 43
0.0208333333333333
 43
0.0
 43
0.0
 43
0.0
 43
0.0
 43
0.0208333333333333
 43
0.0
 43
0.0
 43
0.0
 43
0.0
 43
1.0
 43
0.0
 43
0.0
 43
0.0
 43
0.0
 43
1.0
 77
     0
 47
0.0208333333333333
 47
0.0
 47
0.0
 47
0.0
 47
0.0
 47
0.0208333333333333
 47
0.0
 47
0.0
 47
0.0
 47
0.0
 47
1.0
 47
0.0
 47
0.0
 47
0.0
 47
0.0
 47
1.0
171
     0
 49
0.0208333333333333
 49
0.0
 49
0.0
 49
0.0
 49
0.0
 49
0.0208333333333333
 49
0.0
 49
0.0
 49
0.0
 49
0.0
 49
1.0
 49
0.0
 49
0.0
 49
0.0
 49
0.0
 49
1.0
175
     0
142
0.0208333333333333
142
0.0
142
0.0
142
0.0
142
0.0
142
0.0208333333333333
142
0.0
142
0.0
142
0.0
142
0.0
142
1.0
142
0.0
142
0.0
142
0.0
142
0.0
142
1.0
179
     0
144
0.0208333333333333
144
0.0
144
0.0
144
0.0
144
0.0
144
0.0208333333333333
144
0.0
144
0.0
144
0.0
144
0.0
144
1.0
144
0.0
144
0.0
144
0.0
144
0.0
144
1.0
147
0.0208333333333333
147
0.0
147
0.0
147
0.0
147
0.0
147
0.0208333333333333
147
0.0
147
0.0
147
0.0
147
0.0
147
1.0
147
0.0
147
0.0
147
0.0
147
0.0
147
1.0
  0
MLEADERSTYLE
  5
9612
102
{ACAD_REACTORS
330
9611
102
}
330
9611
100
AcDbMLeaderStyle
170
     2
171
     1
172
     0
 90
        2
 40
0.0
 41
0.0
173
     1
 91
-1056964608
340
937B
 92
       -2
290
     1
 42
0.09
291
     1
 43
0.36
  3
Standard
 44
0.18
300

342
9379
174
     1
178
     6
175
     1
176
     0
 93
-1056964608
 45
0.18
292
     0
297
     0
 46
0.18
 94
-1056964608
 47
1.0
 49
1.0
140
1.0
293
     1
141
0.0
294
     1
177
     0
142
1.0
295
     0
296
     0
143
0.125
1001
ACAD_MLEADERVER
1070
     2
  0
MLINESTYLE
  5
937F
102
{ACAD_REACTORS
330
937E
102
}
330
937E
100
AcDbMlineStyle
  2
STANDARD
 70
     0
  3

 62
   256
 51
90.0
 52
90.0
 71
     2
 49
0.5
 62
   256
  6
BYLAYER
 49
-0.5
 62
   256
  6
BYLAYER
  0
ACDBPLACEHOLDER
  5
95C9
102
{ACAD_REACTORS
330
95C8
102
}
330
95C8
  0
SCALE
  5
9600
102
{ACAD_REACTORS
330
95FF
102
}
330
95FF
100
AcDbScale
 70
     0
300
1:1
140
1.0
141
1.0
290
     1
  0
SCALE
  5
9601
102
{ACAD_REACTORS
330
95FF
102
}
330
95FF
100
AcDbScale
 70
     0
300
1/128" = 1'-0"
140
0.0078125
141
12.0
290
     0
  0
SCALE
  5
9602
102
{ACAD_REACTORS
330
95FF
102
}
330
95FF
100
AcDbScale
 70
     0
300
1/64" = 1'-0"
140
0.015625
141
12.0
290
     0
  0
SCALE
  5
9603
102
{ACAD_REACTORS
330
95FF
102
}
330
95FF
100
AcDbScale
 70
     0
300
1/32" = 1'-0"
140
0.03125
141
12.0
290
     0
  0
SCALE
  5
9604
102
{ACAD_REACTORS
330
95FF
102
}
330
95FF
100
AcDbScale
 70
     0
300
1/16" = 1'-0"
140
0.0625
141
12.0
290
     0
  0
SCALE
  5
9605
102
{ACAD_REACTORS
330
95FF
102
}
330
95FF
100
AcDbScale
 70
     0
300
3/32" = 1'-0"
140
0.09375
141
12.0
290
     0
  0
SCALE
  5
9606
102
{ACAD_REACTORS
330
95FF
102
}
330
95FF
100
AcDbScale
 70
     0
300
1/8" = 1'-0"
140
0.125
141
12.0
290
     0
  0
SCALE
  5
9607
102
{ACAD_REACTORS
330
95FF
102
}
330
95FF
100
AcDbScale
 70
     0
300
3/16" = 1'-0"
140
0.1875
141
12.0
290
     0
  0
SCALE
  5
9608
102
{ACAD_REACTORS
330
95FF
102
}
330
95FF
100
AcDbScale
 70
     0
300
1/4" = 1'-0"
140
0.25
141
12.0
290
     0
  0
SCALE
  5
9609
102
{ACAD_REACTORS
330
95FF
102
}
330
95FF
100
AcDbScale
 70
     0
300
3/8" = 1'-0"
140
0.375
141
12.0
290
     0
  0
SCALE
  5
960A
102
{ACAD_REACTORS
330
95FF
102
}
330
95FF
100
AcDbScale
 70
     0
300
1/2" = 1'-0"
140
0.5
141
12.0
290
     0
  0
SCALE
  5
960B
102
{ACAD_REACTORS
330
95FF
102
}
330
95FF
100
AcDbScale
 70
     0
300
3/4" = 1'-0"
140
0.75
141
12.0
290
     0
  0
SCALE
  5
960C
102
{ACAD_REACTORS
330
95FF
102
}
330
95FF
100
AcDbScale
 70
     0
300
1" = 1'-0"
140
1.0
141
12.0
290
     0
  0
SCALE
  5
960D
102
{ACAD_REACTORS
330
95FF
102
}
330
95FF
100
AcDbScale
 70
     0
300
1-1/2" = 1'-0"
140
1.5
141
12.0
290
     0
  0
SCALE
  5
960E
102
{ACAD_REACTORS
330
95FF
102
}
330
95FF
100
AcDbScale
 70
     0
300
3" = 1'-0"
140
3.0
141
12.0
290
     0
  0
SCALE
  5
960F
102
{ACAD_REACTORS
330
95FF
102
}
330
95FF
100
AcDbScale
 70
     0
300
6" = 1'-0"
140
6.0
141
12.0
290
     0
  0
SCALE
  5
9610
102
{ACAD_REACTORS
330
95FF
102
}
330
95FF
100
AcDbScale
 70
     0
300
1'-0" = 1'-0"
140
12.0
141
12.0
290
     0
  0
ACDBSECTIONVIEWSTYLE
  5
9614
102
{ACAD_XDICTIONARY
360
966F
102
}
102
{ACAD_REACTORS
330
9613
102
}
330
9613
100
AcDbModelDocViewStyle
 70
     0
  3
Imperial24
290
     0
100
AcDbSectionViewStyle
 70
     0
 71
     0
 90
       78
 71
     1
340
9379
 40
0.24
340
0
340
0
 40
0.24
300
I, O, Q, S, X, Z
 40
0.48
 90
        3
 40
0.18
 90
        1
 71
     2
340
937D
 90
       25
340
937D
 90
       50
 40
0.24
 40
0.0
 40
0.24
 71
     3
340
9379
 40
0.24
 90
        1
 40
0.75
 90
        1
300
%<\AcVar ViewType \f "%tc1">% %<\AcVar ViewSectionStartId>%-%<\AcVar ViewSectionEndId>%\PSCALE %<\AcVar ViewScale \f "%sn">%
 71
     4
300
ANSI31
 40
1.0
 90
        0
290
     0
290
     0
 90
        6
 40
0.0
 40
1.570796326794896
 40
0.2617993877991494
 40
1.308996938995747
 40
-0.2617993877991494
 40
1.832595714594046
  0
TABLESTYLE
  5
95FE
102
{ACAD_XDICTIONARY
360
9636
102
}
102
{ACAD_REACTORS
330
95FD
102
}
330
95FD
100
AcDbTableStyle
  3
Standard
 70
     0
 71
     0
 40
0.06
 41
0.06
280
     0
281
     0
  7
STANDARD
140
0.18
170
     2
 62
     0
 63
     7
283
     0
274
    -2
284
     1
 64
     0
275
    -2
285
     1
 65
     0
276
    -2
286
     1
 66
     0
277
    -2
287
     1
 67
     0
278
    -2
288
     1
 68
     0
279
    -2
289
     1
 69
     0
  7
STANDARD
140
0.25
170
     5
 62
     0
 63
     7
283
     0
274
    -2
284
     1
 64
     0
275
    -2
285
     1
 65
     0
276
    -2
286
     1
 66
     0
277
    -2
287
     1
 67
     0
278
    -2
288
     1
 68
     0
279
    -2
289
     1
 69
     0
  7
STANDARD
140
0.18
170
     5
 62
     0
 63
     7
283
     0
274
    -2
284
     1
 64
     0
275
    -2
285
     1
 65
     0
276
    -2
286
     1
 66
     0
277
    -2
287
     1
 67
     0
278
    -2
288
     1
 68
     0
279
    -2
289
     1
 69
     0
  0
VISUALSTYLE
  5
95E9
102
{ACAD_XDICTIONARY
360
9647
102
}
102
{ACAD_REACTORS
330
95E3
102
}
330
95E3
100
AcDbVisualStyle
  2
2dWireframe
 70
     4
 71
     0
 72
     2
 73
     0
 90
        0
 40
-0.6
 41
-30.0
 62
     5
 63
     7
 74
     1
 91
        4
 64
     7
 65
   257
 75
     1
175
     1
 42
1.0
 92
        0
 66
   257
 43
1.0
 76
     1
 77
     6
 78
     2
 67
     7
 79
     5
170
     0
171
     0
290
     0
174
     0
 93
        1
 44
0.0
173
     0
291
     0
 45
0.0
1001
ACAD
1000
AcDbSavedByObjectVersion
1070
     0
  0
VISUALSTYLE
  5
95E8
102
{ACAD_XDICTIONARY
360
9645
102
}
102
{ACAD_REACTORS
330
95E3
102
}
330
95E3
100
AcDbVisualStyle
  2
Basic
 70
     7
 71
     1
 72
     0
 73
     1
 90
        0
 40
-0.6
 41
-30.0
 62
     5
 63
     7
 74
     0
 91
        4
 64
     7
 65
   257
 75
     1
175
     1
 42
1.0
 92
        8
 66
     7
 43
1.0
 76
     1
 77
     6
 78
     2
 67
     7
 79
     5
170
     0
171
     0
290
     0
174
     0
 93
        1
 44
0.0
173
     0
291
     1
 45
0.0
1001
ACAD
1000
AcDbSavedByObjectVersion
1070
     0
  0
VISUALSTYLE
  5
95EF
102
{ACAD_XDICTIONARY
360
9653
102
}
102
{ACAD_REACTORS
330
95E3
102
}
330
95E3
100
AcDbVisualStyle
  2
Brighten
 70
    12
 71
     2
 72
     2
 73
     0
 90
        0
 40
-0.6
 41
-30.0
 62
     5
 63
     7
 74
     1
 91
        4
 64
     7
 65
   257
 75
     1
175
     1
 42
1.0
 92
        8
 66
     7
 43
1.0
 76
     1
 77
     6
 78
     2
 67
     7
 79
     5
170
     0
171
     0
290
     0
174
     0
 93
        1
 44
50.0
173
     0
291
     1
 45
0.0
1001
ACAD
1000
AcDbSavedByObjectVersion
1070
     0
  0
VISUALSTYLE
  5
95F3
102
{ACAD_XDICTIONARY
360
965B
102
}
102
{ACAD_REACTORS
330
95E3
102
}
330
95E3
100
AcDbVisualStyle
  2
ColorChange
 70
    16
 71
     2
 72
     2
 73
     3
 90
        0
 40
-0.6
 41
-30.0
 62
     5
 63
     8
 74
     1
 91
        4
 64
     7
 65
   257
 75
     1
175
     1
 42
1.0
 92
        8
 66
     8
 43
1.0
 76
     1
 77
     6
 78
     2
 67
     7
 79
     5
170
     0
171
     0
290
     0
174
     0
 93
        1
 44
0.0
173
     0
291
     1
 45
0.0
1001
ACAD
1000
AcDbSavedByObjectVersion
1070
     0
  0
VISUALSTYLE
  5
95EC
102
{ACAD_XDICTIONARY
360
964D
102
}
102
{ACAD_REACTORS
330
95E3
102
}
330
95E3
100
AcDbVisualStyle
  2
Conceptual
 70
     9
 71
     3
 72
     2
 73
     0
 90
        0
 40
-0.6
 41
-30.0
 62
     5
 63
     7
 74
     2
 91
        2
 64
     7
 65
   257
 75
     1
175
     1
 42
179.0
 92
        8
 66
     7
 43
1.0
 76
     1
 77
     6
 78
     2
 67
     7
 79
     3
170
     0
171
     0
290
     0
174
     0
 93
        1
 44
0.0
173
     0
291
     0
 45
0.0
1001
ACAD
1000
AcDbSavedByObjectVersion
1070
     0
  0
VISUALSTYLE
  5
95EE
102
{ACAD_XDICTIONARY
360
9651
102
}
102
{ACAD_REACTORS
330
95E3
102
}
330
95E3
100
AcDbVisualStyle
  2
Dim
 70
    11
 71
     2
 72
     2
 73
     0
 90
        0
 40
-0.6
 41
-30.0
 62
     5
 63
     7
 74
     1
 91
        4
 64
     7
 65
   257
 75
     1
175
     1
 42
1.0
 92
        8
 66
     7
 43
1.0
 76
     1
 77
     6
 78
     2
 67
     7
 79
     5
170
     0
171
     0
290
     0
174
     0
 93
        1
 44
-50.0
173
     0
291
     1
 45
0.0
1001
ACAD
1000
AcDbSavedByObjectVersion
1070
     0
  0
VISUALSTYLE
  5
95FB
102
{ACAD_XDICTIONARY
360
966B
102
}
102
{ACAD_REACTORS
330
95E3
102
}
330
95E3
100
AcDbVisualStyle
  2
EdgeColorOff
 70
    22
 71
     2
 72
     2
 73
     0
 90
        0
 40
-0.6
 41
-30.0
 62
     5
 63
     7
 74
     1
 91
        4
 64
     7
 65
   257
 75
     1
175
     1
 42
1.0
 92
        8
 66
     7
 43
1.0
 76
     1
 77
     6
 78
     2
 67
     7
 79
     5
170
     0
171
     0
290
     0
174
     0
 93
        1
 44
0.0
173
     0
291
     1
 45
0.0
1001
ACAD
1000
AcDbSavedByObjectVersion
1070
     0
  0
VISUALSTYLE
  5
95F2
102
{ACAD_XDICTIONARY
360
9659
102
}
102
{ACAD_REACTORS
330
95E3
102
}
330
95E3
100
AcDbVisualStyle
  2
Facepattern
 70
    15
 71
     2
 72
     2
 73
     0
 90
        0
 40
-0.6
 41
-30.0
 62
     5
 63
     7
 74
     1
 91
        4
 64
     7
 65
   257
 75
     1
175
     1
 42
1.0
 92
        8
 66
     7
 43
1.0
 76
     1
 77
     6
 78
     2
 67
     7
 79
     5
170
     0
171
     0
290
     0
174
     0
 93
        1
 44
0.0
173
     0
291
     1
 45
0.0
1001
ACAD
1000
AcDbSavedByObjectVersion
1070
     0
  0
VISUALSTYLE
  5
95E4
102
{ACAD_XDICTIONARY
360
963D
102
}
102
{ACAD_REACTORS
330
95E3
102
}
330
95E3
100
AcDbVisualStyle
  2
Flat
 70
     0
 71
     2
 72
     1
 73
     1
 90
        2
 40
-0.6
 41
30.0
 62
     5
 63
     7
 74
     0
 91
        0
 64
     7
 65
   257
 75
     1
175
     1
 42
1.0
 92
        8
 66
     7
 43
1.0
 76
     1
 77
     6
 78
     2
 67
     7
 79
     5
170
     0
171
     0
290
     0
174
     0
 93
       13
 44
0.0
173
     0
291
     1
 45
0.0
1001
ACAD
1000
AcDbSavedByObjectVersion
1070
     0
  0
VISUALSTYLE
  5
95E5
102
{ACAD_XDICTIONARY
360
963F
102
}
102
{ACAD_REACTORS
330
95E3
102
}
330
95E3
100
AcDbVisualStyle
  2
FlatWithEdges
 70
     1
 71
     2
 72
     1
 73
     1
 90
        2
 40
-0.6
 41
30.0
 62
     5
 63
     7
 74
     1
 91
        0
 64
     7
 65
   257
 75
     1
175
     1
 42
1.0
 92
        0
 66
   257
 43
1.0
 76
     1
 77
     6
 78
     2
 67
     7
 79
     5
170
     0
171
     0
290
     0
174
     0
 93
       13
 44
0.0
173
     0
291
     1
 45
0.0
1001
ACAD
1000
AcDbSavedByObjectVersion
1070
     0
  0
VISUALSTYLE
  5
95E6
102
{ACAD_XDICTIONARY
360
9641
102
}
102
{ACAD_REACTORS
330
95E3
102
}
330
95E3
100
AcDbVisualStyle
  2
Gouraud
 70
     2
 71
     2
 72
     2
 73
     1
 90
        2
 40
-0.6
 41
30.0
 62
     5
 63
     7
 74
     0
 91
        0
 64
     7
 65
   257
 75
     1
175
     1
 42
1.0
 92
        0
 66
     7
 43
1.0
 76
     1
 77
     6
 78
     2
 67
     7
 79
     5
170
     0
171
     0
290
     0
174
     0
 93
       13
 44
0.0
173
     0
291
     1
 45
0.0
1001
ACAD
1000
AcDbSavedByObjectVersion
1070
     0
  0
VISUALSTYLE
  5
95E7
102
{ACAD_XDICTIONARY
360
9643
102
}
102
{ACAD_REACTORS
330
95E3
102
}
330
95E3
100
AcDbVisualStyle
  2
GouraudWithEdges
 70
     3
 71
     2
 72
     2
 73
     1
 90
        2
 40
-0.6
 41
30.0
 62
     5
 63
     7
 74
     1
 91
        0
 64
     7
 65
   257
 75
     1
175
     1
 42
1.0
 92
        0
 66
   257
 43
1.0
 76
     1
 77
     6
 78
     2
 67
     7
 79
     5
170
     0
171
     0
290
     0
174
     0
 93
       13
 44
0.0
173
     0
291
     1
 45
0.0
1001
ACAD
1000
AcDbSavedByObjectVersion
1070
     0
  0
VISUALSTYLE
  5
95EB
102
{ACAD_XDICTIONARY
360
964B
102
}
102
{ACAD_REACTORS
330
95E3
102
}
330
95E3
100
AcDbVisualStyle
  2
Hidden
 70
     6
 71
     1
 72
     2
 73
     2
 90
        0
 40
-0.6
 41
-30.0
 62
     5
 63
     7
 74
     2
 91
        2
 64
     7
 65
   257
 75
     2
175
     1
 42
40.0
 92
        0
 66
   257
 43
1.0
 76
     1
 77
     6
 78
     2
 67
     7
 79
     3
170
     0
171
     0
290
     0
174
     0
 93
        1
 44
0.0
173
     0
291
     0
 45
0.0
1001
ACAD
1000
AcDbSavedByObjectVersion
1070
     0
  0
VISUALSTYLE
  5
95F9
102
{ACAD_XDICTIONARY
360
9667
102
}
102
{ACAD_REACTORS
330
95E3
102
}
330
95E3
100
AcDbVisualStyle
  2
JitterOff
 70
    20
 71
     2
 72
     2
 73
     0
 90
        0
 40
-0.6
 41
-30.0
 62
     5
 63
     7
 74
     1
 91
        4
 64
     7
 65
   257
 75
     1
175
     1
 42
1.0
 92
       10
 66
     7
 43
1.0
 76
     1
 77
     6
 78
     2
 67
     7
 79
     5
170
     0
171
     0
290
     0
174
     0
 93
        1
 44
0.0
173
     0
291
     1
 45
0.0
1001
ACAD
1000
AcDbSavedByObjectVersion
1070
     0
  0
VISUALSTYLE
  5
95F1
102
{ACAD_XDICTIONARY
360
9657
102
}
102
{ACAD_REACTORS
330
95E3
102
}
330
95E3
100
AcDbVisualStyle
  2
Linepattern
 70
    14
 71
     2
 72
     2
 73
     0
 90
        0
 40
-0.6
 41
-30.0
 62
     5
 63
     7
 74
     1
 91
        4
 64
     7
 65
   257
 75
     7
175
     7
 42
1.0
 92
        8
 66
     7
 43
1.0
 76
     1
 77
     6
 78
     2
 67
     7
 79
     5
170
     0
171
     0
290
     0
174
     0
 93
        1
 44
0.0
173
     0
291
     1
 45
0.0
1001
ACAD
1000
AcDbSavedByObjectVersion
1070
     0
  0
VISUALSTYLE
  5
95FA
102
{ACAD_XDICTIONARY
360
9669
102
}
102
{ACAD_REACTORS
330
95E3
102
}
330
95E3
100
AcDbVisualStyle
  2
OverhangOff
 70
    21
 71
     2
 72
     2
 73
     0
 90
        0
 40
-0.6
 41
-30.0
 62
     5
 63
     7
 74
     1
 91
        4
 64
     7
 65
   257
 75
     1
175
     1
 42
1.0
 92
        9
 66
     7
 43
1.0
 76
     1
 77
     6
 78
     2
 67
     7
 79
     5
170
     0
171
     0
290
     0
174
     0
 93
        1
 44
0.0
173
     0
291
     1
 45
0.0
1001
ACAD
1000
AcDbSavedByObjectVersion
1070
     0
  0
VISUALSTYLE
  5
95ED
102
{ACAD_XDICTIONARY
360
964F
102
}
102
{ACAD_REACTORS
330
95E3
102
}
330
95E3
100
AcDbVisualStyle
  2
Realistic
 70
     8
 71
     2
 72
     3
 73
     0
 90
        2
 40
-0.6
 41
30.0
 62
     5
 63
     7
 74
     0
 91
        0
 64
     7
 65
   257
 75
     1
175
     1
 42
1.0
 92
        8
 66
   257
 43
1.0
 76
     1
 77
     6
 78
     2
 67
     7
 79
     3
170
     0
171
     0
290
     0
174
     0
 93
       13
 44
0.0
173
     0
291
     0
 45
0.0
1001
ACAD
1000
AcDbSavedByObjectVersion
1070
     0
  0
VISUALSTYLE
  5
95F8
102
{ACAD_XDICTIONARY
360
9665
102
}
102
{ACAD_REACTORS
330
95E3
102
}
330
95E3
100
AcDbVisualStyle
  2
Shaded
 70
    27
 71
     2
 72
     2
 73
     1
 90
        2
 40
-0.6
 41
30.0
 62
     5
 63
     7
 74
     0
 91
        4
 64
     7
 65
   257
 75
     1
175
     1
 42
1.0
 92
        8
 66
   257
 43
1.0
 76
     1
 77
     6
 78
     2
 67
     8
 79
     3
170
     0
171
     0
290
     0
174
     0
 93
        5
 44
0.0
173
     0
291
     0
 45
0.0
1001
ACAD
1000
AcDbSavedByObjectVersion
1070
     0
  0
VISUALSTYLE
  5
95F7
102
{ACAD_XDICTIONARY
360
9663
102
}
102
{ACAD_REACTORS
330
95E3
102
}
330
95E3
100
AcDbVisualStyle
  2
Shaded with edges
 70
    26
 71
     2
 72
     2
 73
     1
 90
        2
 40
-0.6
 41
30.0
 62
     5
 63
     7
 74
     1
 91
       10
 64
     7
 65
   257
 75
     2
175
     1
 42
1.0
 92
        8
 66
   257
 43
1.0
 76
     1
 77
     6
 78
     2
 67
     7
 79
     3
170
     0
171
     0
290
     0
174
     0
 93
        5
 44
0.0
173
     0
291
     0
 45
0.0
1001
ACAD
1000
AcDbSavedByObjectVersion
1070
     0
  0
VISUALSTYLE
  5
95F4
102
{ACAD_XDICTIONARY
360
965D
102
}
102
{ACAD_REACTORS
330
95E3
102
}
330
95E3
100
AcDbVisualStyle
  2
Shades of Gray
 70
    23
 71
     2
 72
     2
 73
     3
 90
        0
 40
-0.6
 41
-30.0
 62
     5
 63
     7
 74
     2
 91
        2
 64
     7
 65
     7
 75
     1
175
     1
 42
40.0
 92
        8
 66
     7
 43
1.0
 76
     1
 77
     6
 78
     2
 67
     7
 79
     3
170
     0
171
     0
290
     0
174
     0
 93
        1
 44
0.0
173
     0
291
     0
 45
0.0
1001
ACAD
1000
AcDbSavedByObjectVersion
1070
     0
  0
VISUALSTYLE
  5
95F5
102
{ACAD_XDICTIONARY
360
965F
102
}
102
{ACAD_REACTORS
330
95E3
102
}
330
95E3
100
AcDbVisualStyle
  2
Sketchy
 70
    24
 71
     1
 72
     2
 73
     2
 90
        0
 40
-0.6
 41
-30.0
 62
     5
 63
     7
 74
     2
 91
        2
 64
     7
 65
     7
 75
     1
175
     1
 42
40.0
 92
       11
 66
     7
 43
1.0
 76
     1
 77
     6
 78
     2
 67
     7
 79
     6
170
     0
171
     0
290
     0
174
     0
 93
        1
 44
0.0
173
     0
291
     0
 45
0.0
1001
ACAD
1000
AcDbSavedByObjectVersion
1070
     0
  0
VISUALSTYLE
  5
95F0
102
{ACAD_XDICTIONARY
360
9655
102
}
102
{ACAD_REACTORS
330
95E3
102
}
330
95E3
100
AcDbVisualStyle
  2
Thicken
 70
    13
 71
     2
 72
     2
 73
     0
 90
        0
 40
-0.6
 41
-30.0
 62
     5
 63
     7
 74
     1
 91
        4
 64
     7
 65
   257
 75
     1
175
     1
 42
1.0
 92
       12
 66
     7
 43
1.0
 76
     1
 77
     6
 78
     2
 67
     7
 79
     5
170
     0
171
     0
290
     0
174
     0
 93
        1
 44
0.0
173
     0
291
     1
 45
0.0
1001
ACAD
1000
AcDbSavedByObjectVersion
1070
     0
  0
VISUALSTYLE
  5
95EA
102
{ACAD_XDICTIONARY
360
9649
102
}
102
{ACAD_REACTORS
330
95E3
102
}
330
95E3
100
AcDbVisualStyle
  2
Wireframe
 70
     5
 71
     0
 72
     2
 73
     0
 90
        0
 40
-0.6
 41
-30.0
 62
     5
 63
     7
 74
     1
 91
        4
 64
     7
 65
   257
 75
     1
175
     1
 42
1.0
 92
        0
 66
   257
 43
1.0
 76
     1
 77
     6
 78
     2
 67
     7
 79
     3
170
     0
171
     0
290
     0
174
     0
 93
        1
 44
0.0
173
     0
291
     0
 45
0.0
1001
ACAD
1000
AcDbSavedByObjectVersion
1070
     0
  0
VISUALSTYLE
  5
95F6
102
{ACAD_XDICTIONARY
360
9661
102
}
102
{ACAD_REACTORS
330
95E3
102
}
330
95E3
100
AcDbVisualStyle
  2
X-Ray
 70
    25
 71
     2
 72
     2
 73
     1
 90
        1
 40
0.5
 41
-30.0
 62
     5
 63
     7
 74
     1
 91
        0
 64
     7
 65
   257
 75
     1
175
     1
 42
1.0
 92
        8
 66
     7
 43
1.0
 76
     1
 77
     6
 78
     2
 67
     7
 79
     3
170
     0
171
     0
290
     0
174
     0
 93
       13
 44
0.0
173
     0
291
     0
 45
0.0
1001
ACAD
1000
AcDbSavedByObjectVersion
1070
     0
  0
DICTIONARYVAR
  5
9630
102
{ACAD_REACTORS
330
962B
102
}
330
962B
100
DictionaryVariables
280
     0
  1
1:1
  0
DICTIONARYVAR
  5
962D
102
{ACAD_REACTORS
330
962B
102
}
330
962B
100
DictionaryVariables
280
     0
  1
STANDARD
  0
DICTIONARYVAR
  5
962C
102
{ACAD_REACTORS
330
962B
102
}
330
962B
100
DictionaryVariables
280
     0
  1
STANDARD
  0
DICTIONARYVAR
  5
962E
102
{ACAD_REACTORS
330
962B
102
}
330
962B
100
DictionaryVariables
280
     0
  1
Imperial24
  0
DICTIONARYVAR
  5
962F
102
{ACAD_REACTORS
330
962B
102
}
330
962B
100
DictionaryVariables
280
     0
  1
Imperial24
  0
DICTIONARYVAR
  5
9633
102
{ACAD_REACTORS
330
962B
102
}
330
962B
100
DictionaryVariables
280
     0
  1
1
  0
DICTIONARYVAR
  5
9632
102
{ACAD_REACTORS
330
962B
102
}
330
962B
100
DictionaryVariables
280
     0
  1
0
  0
DICTIONARYVAR
  5
9631
102
{ACAD_REACTORS
330
962B
102
}
330
962B
100
DictionaryVariables
280
     0
  1
127
  0
DICTIONARYVAR
  5
9634
102
{ACAD_REACTORS
330
962B
102
}
330
962B
100
DictionaryVariables
280
     0
  1
2
  0
DICTIONARY
  5
9671
330
9616
100
AcDbDictionary
280
     1
281
     1
  3
ACAD_XREC_ROUNDTRIP
360
9672
  0
DICTIONARY
  5
9673
330
9617
100
AcDbDictionary
280
     1
281
     1
  3
ACAD_XREC_ROUNDTRIP
360
9674
  0
DICTIONARY
  5
9675
330
9618
100
AcDbDictionary
280
     1
281
     1
  3
ACAD_XREC_ROUNDTRIP
360
9676
  0
DICTIONARY
  5
95D4
330
95D3
100
AcDbDictionary
280
     1
281
     1
  3
ACAD_XREC_ROUNDTRIP
360
963B
  3
BUMPTILE
360
95D6
  3
DIFFUSETILE
360
95D5
  3
OPACITYTILE
360
95D9
  3
REFLECTIONTILE
360
95D8
  3
REFRACTIONTILE
360
95DA
  3
SPECULARTILE
360
95D7
  0
DICTIONARY
  5
95CC
330
95CB
100
AcDbDictionary
280
     1
281
     1
  3
ACAD_XREC_ROUNDTRIP
360
963A
  3
BUMPTILE
360
95CE
  3
DIFFUSETILE
360
95CD
  3
OPACITYTILE
360
95D1
  3
REFLECTIONTILE
360
95D0
  3
REFRACTIONTILE
360
95D2
  3
SPECULARTILE
360
95CF
  0
DICTIONARY
  5
95DC
330
95DB
100
AcDbDictionary
280
     1
281
     1
  3
ACAD_XREC_ROUNDTRIP
360
963C
  3
BUMPTILE
360
95DE
  3
DIFFUSETILE
360
95DD
  3
OPACITYTILE
360
95E1
  3
REFLECTIONTILE
360
95E0
  3
REFRACTIONTILE
360
95E2
  3
SPECULARTILE
360
95DF
  0
DICTIONARY
  5
966F
330
9614
100
AcDbDictionary
280
     1
281
     1
  3
ACAD_XREC_ROUNDTRIP
360
9670
  0
DICTIONARY
  5
9636
330
95FE
100
AcDbDictionary
280
     1
281
     1
  3
ACAD_ROUNDTRIP_2008_TABLESTYLE_CELLSTYLEMAP
360
9637
  3
ACAD_XREC_ROUNDTRIP
360
966D
  0
DICTIONARY
  5
9647
330
95E9
100
AcDbDictionary
280
     1
281
     1
  3
ACAD_XREC_ROUNDTRIP
360
9648
  0
DICTIONARY
  5
9645
330
95E8
100
AcDbDictionary
280
     1
281
     1
  3
ACAD_XREC_ROUNDTRIP
360
9646
  0
DICTIONARY
  5
9653
330
95EF
100
AcDbDictionary
280
     1
281
     1
  3
ACAD_XREC_ROUNDTRIP
360
9654
  0
DICTIONARY
  5
965B
330
95F3
100
AcDbDictionary
280
     1
281
     1
  3
ACAD_XREC_ROUNDTRIP
360
965C
  0
DICTIONARY
  5
964D
330
95EC
100
AcDbDictionary
280
     1
281
     1
  3
ACAD_XREC_ROUNDTRIP
360
964E
  0
DICTIONARY
  5
9651
330
95EE
100
AcDbDictionary
280
     1
281
     1
  3
ACAD_XREC_ROUNDTRIP
360
9652
  0
DICTIONARY
  5
966B
330
95FB
100
AcDbDictionary
280
     1
281
     1
  3
ACAD_XREC_ROUNDTRIP
360
966C
  0
DICTIONARY
  5
9659
330
95F2
100
AcDbDictionary
280
     1
281
     1
  3
ACAD_XREC_ROUNDTRIP
360
965A
  0
DICTIONARY
  5
963D
330
95E4
100
AcDbDictionary
280
     1
281
     1
  3
ACAD_XREC_ROUNDTRIP
360
963E
  0
DICTIONARY
  5
963F
330
95E5
100
AcDbDictionary
280
     1
281
     1
  3
ACAD_XREC_ROUNDTRIP
360
9640
  0
DICTIONARY
  5
9641
330
95E6
100
AcDbDictionary
280
     1
281
     1
  3
ACAD_XREC_ROUNDTRIP
360
9642
  0
DICTIONARY
  5
9643
330
95E7
100
AcDbDictionary
280
     1
281
     1
  3
ACAD_XREC_ROUNDTRIP
360
9644
  0
DICTIONARY
  5
964B
330
95EB
100
AcDbDictionary
280
     1
281
     1
  3
ACAD_XREC_ROUNDTRIP
360
964C
  0
DICTIONARY
  5
9667
330
95F9
100
AcDbDictionary
280
     1
281
     1
  3
ACAD_XREC_ROUNDTRIP
360
9668
  0
DICTIONARY
  5
9657
330
95F1
100
AcDbDictionary
280
     1
281
     1
  3
ACAD_XREC_ROUNDTRIP
360
9658
  0
DICTIONARY
  5
9669
330
95FA
100
AcDbDictionary
280
     1
281
     1
  3
ACAD_XREC_ROUNDTRIP
360
966A
  0
DICTIONARY
  5
964F
330
95ED
100
AcDbDictionary
280
     1
281
     1
  3
ACAD_XREC_ROUNDTRIP
360
9650
  0
DICTIONARY
  5
9665
330
95F8
100
AcDbDictionary
280
     1
281
     1
  3
ACAD_XREC_ROUNDTRIP
360
9666
  0
DICTIONARY
  5
9663
330
95F7
100
AcDbDictionary
280
     1
281
     1
  3
ACAD_XREC_ROUNDTRIP
360
9664
  0
DICTIONARY
  5
965D
330
95F4
100
AcDbDictionary
280
     1
281
     1
  3
ACAD_XREC_ROUNDTRIP
360
965E
  0
DICTIONARY
  5
965F
330
95F5
100
AcDbDictionary
280
     1
281
     1
  3
ACAD_XREC_ROUNDTRIP
360
9660
  0
DICTIONARY
  5
9655
330
95F0
100
AcDbDictionary
280
     1
281
     1
  3
ACAD_XREC_ROUNDTRIP
360
9656
  0
DICTIONARY
  5
9649
330
95EA
100
AcDbDictionary
280
     1
281
     1
  3
ACAD_XREC_ROUNDTRIP
360
964A
  0
DICTIONARY
  5
9661
330
95F6
100
AcDbDictionary
280
     1
281
     1
  3
ACAD_XREC_ROUNDTRIP
360
9662
  0
XRECORD
  5
9672
102
{ACAD_REACTORS
330
9671
102
}
330
9671
100
AcDbXrecord
280
     1
102
DISPLAYNAME
  1
Imperial24
102
FLAGS
 90
        0
  0
XRECORD
  5
9674
102
{ACAD_REACTORS
330
9673
102
}
330
9673
100
AcDbXrecord
280
     1
102
SHADEPLOT
 70
     0
102
SHADEPLOTRESLEVEL
 70
     2
102
SHADEPLOTCUSTOMDPI
 70
   300
  0
XRECORD
  5
9676
102
{ACAD_REACTORS
330
9675
102
}
330
9675
100
AcDbXrecord
280
     1
102
SHADEPLOT
 70
     0
102
SHADEPLOTRESLEVEL
 70
     2
102
SHADEPLOTCUSTOMDPI
 70
   300
  0
XRECORD
  5
963B
102
{ACAD_REACTORS
330
95D4
102
}
330
95D4
100
AcDbXrecord
280
     1
102
MATERIAL
148
0.0
149
0.0
149
0.0
 93
        0
 94
      127
282
     0
 72
     0
 77
     0
171
     0
175
     0
179
     0
273
     0
  0
XRECORD
  5
95D6
102
{ACAD_REACTORS
330
95D4
102
}
330
95D4
100
AcDbXrecord
280
     1
270
     1
271
     1
  0
XRECORD
  5
95D5
102
{ACAD_REACTORS
330
95D4
102
}
330
95D4
100
AcDbXrecord
280
     1
270
     1
271
     1
  0
XRECORD
  5
95D9
102
{ACAD_REACTORS
330
95D4
102
}
330
95D4
100
AcDbXrecord
280
     1
270
     1
271
     1
  0
XRECORD
  5
95D8
102
{ACAD_REACTORS
330
95D4
102
}
330
95D4
100
AcDbXrecord
280
     1
270
     1
271
     1
  0
XRECORD
  5
95DA
102
{ACAD_REACTORS
330
95D4
102
}
330
95D4
100
AcDbXrecord
280
     1
270
     1
271
     1
  0
XRECORD
  5
95D7
102
{ACAD_REACTORS
330
95D4
102
}
330
95D4
100
AcDbXrecord
280
     1
270
     1
271
     1
  0
XRECORD
  5
963A
102
{ACAD_REACTORS
330
95CC
102
}
330
95CC
100
AcDbXrecord
280
     1
102
MATERIAL
148
0.0
149
0.0
149
0.0
 93
        0
 94
      127
282
     0
 72
     0
 77
     0
171
     0
175
     0
179
     0
273
     0
  0
XRECORD
  5
95CE
102
{ACAD_REACTORS
330
95CC
102
}
330
95CC
100
AcDbXrecord
280
     1
270
     1
271
     1
  0
XRECORD
  5
95CD
102
{ACAD_REACTORS
330
95CC
102
}
330
95CC
100
AcDbXrecord
280
     1
270
     1
271
     1
  0
XRECORD
  5
95D1
102
{ACAD_REACTORS
330
95CC
102
}
330
95CC
100
AcDbXrecord
280
     1
270
     1
271
     1
  0
XRECORD
  5
95D0
102
{ACAD_REACTORS
330
95CC
102
}
330
95CC
100
AcDbXrecord
280
     1
270
     1
271
     1
  0
XRECORD
  5
95D2
102
{ACAD_REACTORS
330
95CC
102
}
330
95CC
100
AcDbXrecord
280
     1
270
     1
271
     1
  0
XRECORD
  5
95CF
102
{ACAD_REACTORS
330
95CC
102
}
330
95CC
100
AcDbXrecord
280
     1
270
     1
271
     1
  0
XRECORD
  5
963C
102
{ACAD_REACTORS
330
95DC
102
}
330
95DC
100
AcDbXrecord
280
     1
102
MATERIAL
148
0.0
149
0.0
149
0.0
 93
        0
 94
      127
282
     0
 72
     0
 77
     0
171
     0
175
     0
179
     0
273
     0
  0
XRECORD
  5
95DE
102
{ACAD_REACTORS
330
95DC
102
}
330
95DC
100
AcDbXrecord
280
     1
270
     1
271
     1
  0
XRECORD
  5
95DD
102
{ACAD_REACTORS
330
95DC
102
}
330
95DC
100
AcDbXrecord
280
     1
270
     1
271
     1
  0
XRECORD
  5
95E1
102
{ACAD_REACTORS
330
95DC
102
}
330
95DC
100
AcDbXrecord
280
     1
270
     1
271
     1
  0
XRECORD
  5
95E0
102
{ACAD_REACTORS
330
95DC
102
}
330
95DC
100
AcDbXrecord
280
     1
270
     1
271
     1
  0
XRECORD
  5
95E2
102
{ACAD_REACTORS
330
95DC
102
}
330
95DC
100
AcDbXrecord
280
     1
270
     1
271
     1
  0
XRECORD
  5
95DF
102
{ACAD_REACTORS
330
95DC
102
}
330
95DC
100
AcDbXrecord
280
     1
270
     1
271
     1
  0
XRECORD
  5
9670
102
{ACAD_REACTORS
330
966F
102
}
330
966F
100
AcDbXrecord
280
     1
102
DISPLAYNAME
  1
Imperial24
102
FLAGS
 90
        0
  0
CELLSTYLEMAP
  5
9637
102
{ACAD_REACTORS
330
9636
102
}
330
9636
100
AcDbCellStyleMap
 90
        3
300
CELLSTYLE
  1
TABLEFORMAT_BEGIN
 90
        5
170
     1
 91
        0
 92
    32768
 62
   257
 93
        1
300
CONTENTFORMAT
  1
CONTENTFORMAT_BEGIN
 90
        0
 91
        0
 92
      512
 93
        0
300

 40
0.0
140
1.0
 94
        5
 62
     0
340
9379
144
0.25
309
CONTENTFORMAT_END
171
     0
 94
        0
309
TABLEFORMAT_END
  1
CELLSTYLE_BEGIN
 90
        1
 91
        1
300
_TITLE
309
CELLSTYLE_END
300
CELLSTYLE
  1
TABLEFORMAT_BEGIN
 90
        5
170
     1
 91
        0
 92
        0
 62
   257
 93
        1
300
CONTENTFORMAT
  1
CONTENTFORMAT_BEGIN
 90
        0
 91
        0
 92
      512
 93
        0
300

 40
0.0
140
1.0
 94
        5
 62
     0
340
9379
144
0.18
309
CONTENTFORMAT_END
171
     0
 94
        0
309
TABLEFORMAT_END
  1
CELLSTYLE_BEGIN
 90
        2
 91
        1
300
_HEADER
309
CELLSTYLE_END
300
CELLSTYLE
  1
TABLEFORMAT_BEGIN
 90
        5
170
     1
 91
        0
 92
        0
 62
   257
 93
        1
300
CONTENTFORMAT
  1
CONTENTFORMAT_BEGIN
 90
        0
 91
        0
 92
      512
 93
        0
300

 40
0.0
140
1.0
 94
        2
 62
     0
340
9379
144
0.18
309
CONTENTFORMAT_END
171
     0
 94
        0
309
TABLEFORMAT_END
  1
CELLSTYLE_BEGIN
 90
        3
 91
        2
300
_DATA
309
CELLSTYLE_END
  0
XRECORD
  5
966D
102
{ACAD_REACTORS
330
9636
102
}
330
9636
100
AcDbXrecord
280
     1
102
ACAD_ROUNDTRIP_PRE2007_TABLESTYLE
 90
      512
 91
        0
  1

 92
      512
 93
        0
  2

 94
      512
 95
        0
  3

  0
XRECORD
  5
9648
102
{ACAD_REACTORS
330
9647
102
}
330
9647
100
AcDbXrecord
280
     1
102
RTVSPost2010Prop28
280
     1
102
RTVSPost2010PropOp28
 70
     1
102
RTVSPost2010Prop29
280
     1
102
RTVSPost2010PropOp29
 70
     1
102
RTVSPost2010Prop30
280
     0
102
RTVSPost2010PropOp30
 70
     1
102
RTVSPost2010Prop31
280
     0
102
RTVSPost2010PropOp31
 70
     1
102
RTVSPost2010Prop32
280
     0
102
RTVSPost2010PropOp32
 70
     1
102
RTVSPost2010Prop33
280
     0
102
RTVSPost2010PropOp33
 70
     1
102
RTVSPost2010Prop34
280
     0
102
RTVSPost2010PropOp34
 70
     1
102
RTVSPost2010Prop35
280
     0
102
RTVSPost2010PropOp35
 70
     1
102
RTVSPost2010Prop36
280
     0
102
RTVSPost2010PropOp36
 70
     1
102
RTVSPost2010Prop37
 90
       50
102
RTVSPost2010PropOp37
 70
     1
102
RTVSPost2010Prop38
140
0.0
102
RTVSPost2010PropOp38
 70
     1
102
RTVSPost2010Prop39
140
1.0
102
RTVSPost2010PropOp39
 70
     1
102
RTVSPost2010Prop40
 90
        0
102
RTVSPost2010PropOp40
 70
     1
102
RTVSPost2010Prop41ColorIndex
 90
       18
102
RTVSPost2010Prop41ColorRGB
 90
        0
102
RTVSPost2010PropOp41
 70
     1
102
RTVSPost2010Prop42
 90
       50
102
RTVSPost2010PropOp42
 70
     1
102
RTVSPost2010Prop43
 90
        3
102
RTVSPost2010PropOp43
 70
     1
102
RTVSPost2010Prop44ColorIndex
 90
        5
102
RTVSPost2010Prop44ColorRGB
 90
      255
102
RTVSPost2010PropOp44
 70
     1
102
RTVSPost2010Prop45
280
     0
102
RTVSPost2010PropOp45
 70
     1
102
RTVSPost2010Prop46
 90
       50
102
RTVSPost2010PropOp46
 70
     1
102
RTVSPost2010Prop47
 90
       50
102
RTVSPost2010PropOp47
 70
     1
102
RTVSPost2010Prop48
 90
       50
102
RTVSPost2010PropOp48
 70
     1
102
RTVSPost2010Prop49
280
     0
102
RTVSPost2010PropOp49
 70
     1
102
RTVSPost2010Prop50
 90
       50
102
RTVSPost2010PropOp50
 70
     1
102
RTVSPost2010Prop51ColorIndex
 90
      256
102
RTVSPost2010Prop51ColorRGB
 90
-16777216
102
RTVSPost2010PropOp51
 70
     0
102
RTVSPost2010Prop52
140
1.0
102
RTVSPost2010PropOp52
 70
     0
102
RTVSPost2010Prop53
 90
        2
102
RTVSPost2010PropOp53
 70
     1
102
RTVSPost2010Prop54
  1
strokes_ogs.tif
102
RTVSPost2010PropOp54
 70
     1
102
RTVSPost2010Prop55
280
     0
102
RTVSPost2010PropOp55
 70
     1
102
RTVSPost2010Prop56
140
1.0
102
RTVSPost2010PropOp56
 70
     1
102
RTVSPost2010Prop57
140
1.0
102
RTVSPost2010PropOp57
 70
     1
102
RTVSPropertyOp0
 70
     1
102
RTVSPropertyOp1
 70
     1
102
RTVSPropertyOp2
 70
     1
102
RTVSPropertyOp3
 70
     1
102
RTVSPropertyOp4
 70
     1
102
RTVSPropertyOp5
 70
     1
102
RTVSPropertyOp6
 70
     1
102
RTVSPropertyOp7
 70
     1
102
RTVSPropertyOp8
 70
     1
102
RTVSPropertyOp9
 70
     1
102
RTVSPropertyOp10
 70
     1
102
RTVSPropertyOp11
 70
     1
102
RTVSPropertyOp12
 70
     1
102
RTVSPropertyOp13
 70
     1
102
RTVSPropertyOp14
 70
     1
102
RTVSPropertyOp15
 70
     1
102
RTVSPropertyOp16
 70
     1
102
RTVSPropertyOp17
 70
     1
102
RTVSPropertyOp18
 70
     1
102
RTVSPropertyOp19
 70
     1
102
RTVSPropertyOp20
 70
     1
102
RTVSPropertyOp21
 70
     1
102
RTVSPropertyOp22
 70
     1
102
RTVSPropertyOp23
 70
     1
102
RTVSPropertyOp24
 70
     1
102
RTVSPropertyOp25
 70
     1
102
RTVSPropertyOp26
 70
     1
102
RTVSPropertyOp27
 70
     1
102
RTVSPropertyOp28
 70
     1
102
RTVSPropertyOp29
 70
     1
102
RTVSPropertyOp30
 70
     1
102
RTVSPropertyOp31
 70
     1
102
RTVSPropertyOp32
 70
     1
102
RTVSPropertyOp33
 70
     1
102
RTVSPropertyOp34
 70
     1
102
RTVSPropertyOp35
 70
     1
102
RTVSPropertyOp36
 70
     1
102
RTVSPropertyOp37
 70
     1
102
RTVSPropertyOp38
 70
     1
102
RTVSPropertyOp39
 70
     1
102
RTVSPropertyOp40
 70
     1
102
RTVSPropertyOp41
 70
     1
102
RTVSPropertyOp42
 70
     1
102
RTVSPropertyOp43
 70
     1
102
RTVSPropertyOp44
 70
     1
102
RTVSPropertyOp45
 70
     1
102
RTVSPropertyOp46
 70
     1
102
RTVSPropertyOp47
 70
     1
102
RTVSPropertyOp48
 70
     1
102
RTVSPropertyOp49
 70
     1
102
RTVSPropertyOp50
 70
     1
102
RTVSPropertyOp51
 70
     0
102
RTVSPropertyOp52
 70
     0
102
RTVSPropertyOp53
 70
     1
102
RTVSPropertyOp54
 70
     1
102
RTVSPropertyOp55
 70
     1
102
RTVSPropertyOp56
 70
     1
102
RTVSPropertyOp57
 70
     1
102
RTVSPropertyOp58
 70
     1
102
RTVSPropertyOp59
 70
     1
102
RTVSPropertyOp60
 70
     1
102
RTVSPropertyOp61
 70
     1
102
RTVSPropertyOp62
 70
     1
  0
XRECORD
  5
9646
102
{ACAD_REACTORS
330
9645
102
}
330
9645
100
AcDbXrecord
280
     1
102
RTVSPost2010Prop28
280
     0
102
RTVSPost2010PropOp28
 70
     1
102
RTVSPost2010Prop29
280
     1
102
RTVSPost2010PropOp29
 70
     1
102
RTVSPost2010Prop30
280
     1
102
RTVSPost2010PropOp30
 70
     1
102
RTVSPost2010Prop31
280
     0
102
RTVSPost2010PropOp31
 70
     1
102
RTVSPost2010Prop32
280
     0
102
RTVSPost2010PropOp32
 70
     1
102
RTVSPost2010Prop33
280
     0
102
RTVSPost2010PropOp33
 70
     1
102
RTVSPost2010Prop34
280
     0
102
RTVSPost2010PropOp34
 70
     1
102
RTVSPost2010Prop35
280
     0
102
RTVSPost2010PropOp35
 70
     1
102
RTVSPost2010Prop36
280
     0
102
RTVSPost2010PropOp36
 70
     1
102
RTVSPost2010Prop37
 90
       50
102
RTVSPost2010PropOp37
 70
     1
102
RTVSPost2010Prop38
140
0.0
102
RTVSPost2010PropOp38
 70
     1
102
RTVSPost2010Prop39
140
1.0
102
RTVSPost2010PropOp39
 70
     1
102
RTVSPost2010Prop40
 90
        0
102
RTVSPost2010PropOp40
 70
     1
102
RTVSPost2010Prop41ColorIndex
 90
       18
102
RTVSPost2010Prop41ColorRGB
 90
        0
102
RTVSPost2010PropOp41
 70
     1
102
RTVSPost2010Prop42
 90
       50
102
RTVSPost2010PropOp42
 70
     1
102
RTVSPost2010Prop43
 90
        3
102
RTVSPost2010PropOp43
 70
     1
102
RTVSPost2010Prop44ColorIndex
 90
        5
102
RTVSPost2010Prop44ColorRGB
 90
      255
102
RTVSPost2010PropOp44
 70
     1
102
RTVSPost2010Prop45
280
     0
102
RTVSPost2010PropOp45
 70
     1
102
RTVSPost2010Prop46
 90
       50
102
RTVSPost2010PropOp46
 70
     1
102
RTVSPost2010Prop47
 90
       50
102
RTVSPost2010PropOp47
 70
     1
102
RTVSPost2010Prop48
 90
       50
102
RTVSPost2010PropOp48
 70
     1
102
RTVSPost2010Prop49
280
     0
102
RTVSPost2010PropOp49
 70
     1
102
RTVSPost2010Prop50
 90
       50
102
RTVSPost2010PropOp50
 70
     1
102
RTVSPost2010Prop51ColorIndex
 90
      256
102
RTVSPost2010Prop51ColorRGB
 90
-16777216
102
RTVSPost2010PropOp51
 70
     0
102
RTVSPost2010Prop52
140
1.0
102
RTVSPost2010PropOp52
 70
     0
102
RTVSPost2010Prop53
 90
        2
102
RTVSPost2010PropOp53
 70
     1
102
RTVSPost2010Prop54
  1
strokes_ogs.tif
102
RTVSPost2010PropOp54
 70
     1
102
RTVSPost2010Prop55
280
     0
102
RTVSPost2010PropOp55
 70
     1
102
RTVSPost2010Prop56
140
1.0
102
RTVSPost2010PropOp56
 70
     1
102
RTVSPost2010Prop57
140
1.0
102
RTVSPost2010PropOp57
 70
     1
102
RTVSPropertyOp0
 70
     1
102
RTVSPropertyOp1
 70
     1
102
RTVSPropertyOp2
 70
     1
102
RTVSPropertyOp3
 70
     1
102
RTVSPropertyOp4
 70
     1
102
RTVSPropertyOp5
 70
     1
102
RTVSPropertyOp6
 70
     1
102
RTVSPropertyOp7
 70
     1
102
RTVSPropertyOp8
 70
     1
102
RTVSPropertyOp9
 70
     1
102
RTVSPropertyOp10
 70
     1
102
RTVSPropertyOp11
 70
     1
102
RTVSPropertyOp12
 70
     1
102
RTVSPropertyOp13
 70
     1
102
RTVSPropertyOp14
 70
     1
102
RTVSPropertyOp15
 70
     1
102
RTVSPropertyOp16
 70
     1
102
RTVSPropertyOp17
 70
     1
102
RTVSPropertyOp18
 70
     1
102
RTVSPropertyOp19
 70
     1
102
RTVSPropertyOp20
 70
     1
102
RTVSPropertyOp21
 70
     1
102
RTVSPropertyOp22
 70
     1
102
RTVSPropertyOp23
 70
     1
102
RTVSPropertyOp24
 70
     1
102
RTVSPropertyOp25
 70
     1
102
RTVSPropertyOp26
 70
     1
102
RTVSPropertyOp27
 70
     1
102
RTVSPropertyOp28
 70
     1
102
RTVSPropertyOp29
 70
     1
102
RTVSPropertyOp30
 70
     1
102
RTVSPropertyOp31
 70
     1
102
RTVSPropertyOp32
 70
     1
102
RTVSPropertyOp33
 70
     1
102
RTVSPropertyOp34
 70
     1
102
RTVSPropertyOp35
 70
     1
102
RTVSPropertyOp36
 70
     1
102
RTVSPropertyOp37
 70
     1
102
RTVSPropertyOp38
 70
     1
102
RTVSPropertyOp39
 70
     1
102
RTVSPropertyOp40
 70
     1
102
RTVSPropertyOp41
 70
     1
102
RTVSPropertyOp42
 70
     1
102
RTVSPropertyOp43
 70
     1
102
RTVSPropertyOp44
 70
     1
102
RTVSPropertyOp45
 70
     1
102
RTVSPropertyOp46
 70
     1
102
RTVSPropertyOp47
 70
     1
102
RTVSPropertyOp48
 70
     1
102
RTVSPropertyOp49
 70
     1
102
RTVSPropertyOp50
 70
     1
102
RTVSPropertyOp51
 70
     0
102
RTVSPropertyOp52
 70
     0
102
RTVSPropertyOp53
 70
     1
102
RTVSPropertyOp54
 70
     1
102
RTVSPropertyOp55
 70
     1
102
RTVSPropertyOp56
 70
     1
102
RTVSPropertyOp57
 70
     1
102
RTVSPropertyOp58
 70
     1
102
RTVSPropertyOp59
 70
     1
102
RTVSPropertyOp60
 70
     1
102
RTVSPropertyOp61
 70
     1
102
RTVSPropertyOp62
 70
     1
  0
XRECORD
  5
9654
102
{ACAD_REACTORS
330
9653
102
}
330
9653
100
AcDbXrecord
280
     1
102
RTVSPost2010Prop28
280
     0
102
RTVSPost2010PropOp28
 70
     1
102
RTVSPost2010Prop29
280
     1
102
RTVSPost2010PropOp29
 70
     1
102
RTVSPost2010Prop30
280
     1
102
RTVSPost2010PropOp30
 70
     1
102
RTVSPost2010Prop31
280
     0
102
RTVSPost2010PropOp31
 70
     1
102
RTVSPost2010Prop32
280
     0
102
RTVSPost2010PropOp32
 70
     1
102
RTVSPost2010Prop33
280
     0
102
RTVSPost2010PropOp33
 70
     1
102
RTVSPost2010Prop34
280
     0
102
RTVSPost2010PropOp34
 70
     1
102
RTVSPost2010Prop35
280
     0
102
RTVSPost2010PropOp35
 70
     1
102
RTVSPost2010Prop36
280
     0
102
RTVSPost2010PropOp36
 70
     1
102
RTVSPost2010Prop37
 90
       50
102
RTVSPost2010PropOp37
 70
     1
102
RTVSPost2010Prop38
140
0.0
102
RTVSPost2010PropOp38
 70
     1
102
RTVSPost2010Prop39
140
1.0
102
RTVSPost2010PropOp39
 70
     1
102
RTVSPost2010Prop40
 90
        0
102
RTVSPost2010PropOp40
 70
     1
102
RTVSPost2010Prop41ColorIndex
 90
       18
102
RTVSPost2010Prop41ColorRGB
 90
        0
102
RTVSPost2010PropOp41
 70
     1
102
RTVSPost2010Prop42
 90
       50
102
RTVSPost2010PropOp42
 70
     1
102
RTVSPost2010Prop43
 90
        3
102
RTVSPost2010PropOp43
 70
     1
102
RTVSPost2010Prop44ColorIndex
 90
        5
102
RTVSPost2010Prop44ColorRGB
 90
      255
102
RTVSPost2010PropOp44
 70
     1
102
RTVSPost2010Prop45
280
     0
102
RTVSPost2010PropOp45
 70
     1
102
RTVSPost2010Prop46
 90
       50
102
RTVSPost2010PropOp46
 70
     1
102
RTVSPost2010Prop47
 90
       50
102
RTVSPost2010PropOp47
 70
     1
102
RTVSPost2010Prop48
 90
       50
102
RTVSPost2010PropOp48
 70
     1
102
RTVSPost2010Prop49
280
     0
102
RTVSPost2010PropOp49
 70
     1
102
RTVSPost2010Prop50
 90
       50
102
RTVSPost2010PropOp50
 70
     1
102
RTVSPost2010Prop51ColorIndex
 90
      256
102
RTVSPost2010Prop51ColorRGB
 90
-16777216
102
RTVSPost2010PropOp51
 70
     0
102
RTVSPost2010Prop52
140
1.0
102
RTVSPost2010PropOp52
 70
     0
102
RTVSPost2010Prop53
 90
        2
102
RTVSPost2010PropOp53
 70
     1
102
RTVSPost2010Prop54
  1
strokes_ogs.tif
102
RTVSPost2010PropOp54
 70
     1
102
RTVSPost2010Prop55
280
     0
102
RTVSPost2010PropOp55
 70
     1
102
RTVSPost2010Prop56
140
1.0
102
RTVSPost2010PropOp56
 70
     1
102
RTVSPost2010Prop57
140
1.0
102
RTVSPost2010PropOp57
 70
     1
102
RTVSPropertyOp0
 70
     1
102
RTVSPropertyOp1
 70
     1
102
RTVSPropertyOp2
 70
     1
102
RTVSPropertyOp3
 70
     1
102
RTVSPropertyOp4
 70
     1
102
RTVSPropertyOp5
 70
     1
102
RTVSPropertyOp6
 70
     1
102
RTVSPropertyOp7
 70
     1
102
RTVSPropertyOp8
 70
     1
102
RTVSPropertyOp9
 70
     1
102
RTVSPropertyOp10
 70
     1
102
RTVSPropertyOp11
 70
     1
102
RTVSPropertyOp12
 70
     1
102
RTVSPropertyOp13
 70
     1
102
RTVSPropertyOp14
 70
     1
102
RTVSPropertyOp15
 70
     1
102
RTVSPropertyOp16
 70
     1
102
RTVSPropertyOp17
 70
     1
102
RTVSPropertyOp18
 70
     1
102
RTVSPropertyOp19
 70
     1
102
RTVSPropertyOp20
 70
     1
102
RTVSPropertyOp21
 70
     1
102
RTVSPropertyOp22
 70
     1
102
RTVSPropertyOp23
 70
     1
102
RTVSPropertyOp24
 70
     1
102
RTVSPropertyOp25
 70
     1
102
RTVSPropertyOp26
 70
     1
102
RTVSPropertyOp27
 70
     1
102
RTVSPropertyOp28
 70
     1
102
RTVSPropertyOp29
 70
     1
102
RTVSPropertyOp30
 70
     1
102
RTVSPropertyOp31
 70
     1
102
RTVSPropertyOp32
 70
     1
102
RTVSPropertyOp33
 70
     1
102
RTVSPropertyOp34
 70
     1
102
RTVSPropertyOp35
 70
     1
102
RTVSPropertyOp36
 70
     1
102
RTVSPropertyOp37
 70
     1
102
RTVSPropertyOp38
 70
     1
102
RTVSPropertyOp39
 70
     1
102
RTVSPropertyOp40
 70
     1
102
RTVSPropertyOp41
 70
     1
102
RTVSPropertyOp42
 70
     1
102
RTVSPropertyOp43
 70
     1
102
RTVSPropertyOp44
 70
     1
102
RTVSPropertyOp45
 70
     1
102
RTVSPropertyOp46
 70
     1
102
RTVSPropertyOp47
 70
     1
102
RTVSPropertyOp48
 70
     1
102
RTVSPropertyOp49
 70
     1
102
RTVSPropertyOp50
 70
     1
102
RTVSPropertyOp51
 70
     0
102
RTVSPropertyOp52
 70
     0
102
RTVSPropertyOp53
 70
     1
102
RTVSPropertyOp54
 70
     1
102
RTVSPropertyOp55
 70
     1
102
RTVSPropertyOp56
 70
     1
102
RTVSPropertyOp57
 70
     1
102
RTVSPropertyOp58
 70
     1
102
RTVSPropertyOp59
 70
     1
102
RTVSPropertyOp60
 70
     1
102
RTVSPropertyOp61
 70
     1
102
RTVSPropertyOp62
 70
     1
  0
XRECORD
  5
965C
102
{ACAD_REACTORS
330
965B
102
}
330
965B
100
AcDbXrecord
280
     1
102
RTVSPost2010Prop28
280
     0
102
RTVSPost2010PropOp28
 70
     1
102
RTVSPost2010Prop29
280
     1
102
RTVSPost2010PropOp29
 70
     1
102
RTVSPost2010Prop30
280
     1
102
RTVSPost2010PropOp30
 70
     1
102
RTVSPost2010Prop31
280
     0
102
RTVSPost2010PropOp31
 70
     1
102
RTVSPost2010Prop32
280
     0
102
RTVSPost2010PropOp32
 70
     1
102
RTVSPost2010Prop33
280
     0
102
RTVSPost2010PropOp33
 70
     1
102
RTVSPost2010Prop34
280
     0
102
RTVSPost2010PropOp34
 70
     1
102
RTVSPost2010Prop35
280
     0
102
RTVSPost2010PropOp35
 70
     1
102
RTVSPost2010Prop36
280
     0
102
RTVSPost2010PropOp36
 70
     1
102
RTVSPost2010Prop37
 90
       50
102
RTVSPost2010PropOp37
 70
     1
102
RTVSPost2010Prop38
140
0.0
102
RTVSPost2010PropOp38
 70
     1
102
RTVSPost2010Prop39
140
1.0
102
RTVSPost2010PropOp39
 70
     1
102
RTVSPost2010Prop40
 90
        0
102
RTVSPost2010PropOp40
 70
     1
102
RTVSPost2010Prop41ColorIndex
 90
       18
102
RTVSPost2010Prop41ColorRGB
 90
        0
102
RTVSPost2010PropOp41
 70
     1
102
RTVSPost2010Prop42
 90
       50
102
RTVSPost2010PropOp42
 70
     1
102
RTVSPost2010Prop43
 90
        3
102
RTVSPost2010PropOp43
 70
     1
102
RTVSPost2010Prop44ColorIndex
 90
        5
102
RTVSPost2010Prop44ColorRGB
 90
      255
102
RTVSPost2010PropOp44
 70
     1
102
RTVSPost2010Prop45
280
     0
102
RTVSPost2010PropOp45
 70
     1
102
RTVSPost2010Prop46
 90
       50
102
RTVSPost2010PropOp46
 70
     1
102
RTVSPost2010Prop47
 90
       50
102
RTVSPost2010PropOp47
 70
     1
102
RTVSPost2010Prop48
 90
       50
102
RTVSPost2010PropOp48
 70
     1
102
RTVSPost2010Prop49
280
     0
102
RTVSPost2010PropOp49
 70
     1
102
RTVSPost2010Prop50
 90
       50
102
RTVSPost2010PropOp50
 70
     1
102
RTVSPost2010Prop51ColorIndex
 90
      256
102
RTVSPost2010Prop51ColorRGB
 90
-16777216
102
RTVSPost2010PropOp51
 70
     0
102
RTVSPost2010Prop52
140
1.0
102
RTVSPost2010PropOp52
 70
     0
102
RTVSPost2010Prop53
 90
        2
102
RTVSPost2010PropOp53
 70
     1
102
RTVSPost2010Prop54
  1
strokes_ogs.tif
102
RTVSPost2010PropOp54
 70
     1
102
RTVSPost2010Prop55
280
     0
102
RTVSPost2010PropOp55
 70
     1
102
RTVSPost2010Prop56
140
1.0
102
RTVSPost2010PropOp56
 70
     1
102
RTVSPost2010Prop57
140
1.0
102
RTVSPost2010PropOp57
 70
     1
102
RTVSPropertyOp0
 70
     1
102
RTVSPropertyOp1
 70
     1
102
RTVSPropertyOp2
 70
     1
102
RTVSPropertyOp3
 70
     1
102
RTVSPropertyOp4
 70
     1
102
RTVSPropertyOp5
 70
     1
102
RTVSPropertyOp6
 70
     1
102
RTVSPropertyOp7
 70
     1
102
RTVSPropertyOp8
 70
     1
102
RTVSPropertyOp9
 70
     1
102
RTVSPropertyOp10
 70
     1
102
RTVSPropertyOp11
 70
     1
102
RTVSPropertyOp12
 70
     1
102
RTVSPropertyOp13
 70
     1
102
RTVSPropertyOp14
 70
     1
102
RTVSPropertyOp15
 70
     1
102
RTVSPropertyOp16
 70
     1
102
RTVSPropertyOp17
 70
     1
102
RTVSPropertyOp18
 70
     1
102
RTVSPropertyOp19
 70
     1
102
RTVSPropertyOp20
 70
     1
102
RTVSPropertyOp21
 70
     1
102
RTVSPropertyOp22
 70
     1
102
RTVSPropertyOp23
 70
     1
102
RTVSPropertyOp24
 70
     1
102
RTVSPropertyOp25
 70
     1
102
RTVSPropertyOp26
 70
     1
102
RTVSPropertyOp27
 70
     1
102
RTVSPropertyOp28
 70
     1
102
RTVSPropertyOp29
 70
     1
102
RTVSPropertyOp30
 70
     1
102
RTVSPropertyOp31
 70
     1
102
RTVSPropertyOp32
 70
     1
102
RTVSPropertyOp33
 70
     1
102
RTVSPropertyOp34
 70
     1
102
RTVSPropertyOp35
 70
     1
102
RTVSPropertyOp36
 70
     1
102
RTVSPropertyOp37
 70
     1
102
RTVSPropertyOp38
 70
     1
102
RTVSPropertyOp39
 70
     1
102
RTVSPropertyOp40
 70
     1
102
RTVSPropertyOp41
 70
     1
102
RTVSPropertyOp42
 70
     1
102
RTVSPropertyOp43
 70
     1
102
RTVSPropertyOp44
 70
     1
102
RTVSPropertyOp45
 70
     1
102
RTVSPropertyOp46
 70
     1
102
RTVSPropertyOp47
 70
     1
102
RTVSPropertyOp48
 70
     1
102
RTVSPropertyOp49
 70
     1
102
RTVSPropertyOp50
 70
     1
102
RTVSPropertyOp51
 70
     0
102
RTVSPropertyOp52
 70
     0
102
RTVSPropertyOp53
 70
     1
102
RTVSPropertyOp54
 70
     1
102
RTVSPropertyOp55
 70
     1
102
RTVSPropertyOp56
 70
     1
102
RTVSPropertyOp57
 70
     1
102
RTVSPropertyOp58
 70
     1
102
RTVSPropertyOp59
 70
     1
102
RTVSPropertyOp60
 70
     1
102
RTVSPropertyOp61
 70
     1
102
RTVSPropertyOp62
 70
     1
  0
XRECORD
  5
964E
102
{ACAD_REACTORS
330
964D
102
}
330
964D
100
AcDbXrecord
280
     1
102
RTVSPost2010Prop28
280
     0
102
RTVSPost2010PropOp28
 70
     1
102
RTVSPost2010Prop29
280
     1
102
RTVSPost2010PropOp29
 70
     1
102
RTVSPost2010Prop30
280
     1
102
RTVSPost2010PropOp30
 70
     1
102
RTVSPost2010Prop31
280
     0
102
RTVSPost2010PropOp31
 70
     1
102
RTVSPost2010Prop32
280
     0
102
RTVSPost2010PropOp32
 70
     1
102
RTVSPost2010Prop33
280
     0
102
RTVSPost2010PropOp33
 70
     1
102
RTVSPost2010Prop34
280
     0
102
RTVSPost2010PropOp34
 70
     1
102
RTVSPost2010Prop35
280
     0
102
RTVSPost2010PropOp35
 70
     1
102
RTVSPost2010Prop36
280
     0
102
RTVSPost2010PropOp36
 70
     1
102
RTVSPost2010Prop37
 90
       50
102
RTVSPost2010PropOp37
 70
     1
102
RTVSPost2010Prop38
140
0.0
102
RTVSPost2010PropOp38
 70
     1
102
RTVSPost2010Prop39
140
1.0
102
RTVSPost2010PropOp39
 70
     1
102
RTVSPost2010Prop40
 90
        0
102
RTVSPost2010PropOp40
 70
     1
102
RTVSPost2010Prop41ColorIndex
 90
       18
102
RTVSPost2010Prop41ColorRGB
 90
        0
102
RTVSPost2010PropOp41
 70
     1
102
RTVSPost2010Prop42
 90
       50
102
RTVSPost2010PropOp42
 70
     1
102
RTVSPost2010Prop43
 90
        3
102
RTVSPost2010PropOp43
 70
     1
102
RTVSPost2010Prop44ColorIndex
 90
        5
102
RTVSPost2010Prop44ColorRGB
 90
      255
102
RTVSPost2010PropOp44
 70
     1
102
RTVSPost2010Prop45
280
     0
102
RTVSPost2010PropOp45
 70
     1
102
RTVSPost2010Prop46
 90
       50
102
RTVSPost2010PropOp46
 70
     1
102
RTVSPost2010Prop47
 90
       50
102
RTVSPost2010PropOp47
 70
     1
102
RTVSPost2010Prop48
 90
       50
102
RTVSPost2010PropOp48
 70
     1
102
RTVSPost2010Prop49
280
     0
102
RTVSPost2010PropOp49
 70
     1
102
RTVSPost2010Prop50
 90
       50
102
RTVSPost2010PropOp50
 70
     1
102
RTVSPost2010Prop51ColorIndex
 90
      256
102
RTVSPost2010Prop51ColorRGB
 90
-16777216
102
RTVSPost2010PropOp51
 70
     0
102
RTVSPost2010Prop52
140
1.0
102
RTVSPost2010PropOp52
 70
     0
102
RTVSPost2010Prop53
 90
        2
102
RTVSPost2010PropOp53
 70
     1
102
RTVSPost2010Prop54
  1
strokes_ogs.tif
102
RTVSPost2010PropOp54
 70
     1
102
RTVSPost2010Prop55
280
     0
102
RTVSPost2010PropOp55
 70
     1
102
RTVSPost2010Prop56
140
1.0
102
RTVSPost2010PropOp56
 70
     1
102
RTVSPost2010Prop57
140
1.0
102
RTVSPost2010PropOp57
 70
     1
102
RTVSPropertyOp0
 70
     1
102
RTVSPropertyOp1
 70
     1
102
RTVSPropertyOp2
 70
     1
102
RTVSPropertyOp3
 70
     1
102
RTVSPropertyOp4
 70
     1
102
RTVSPropertyOp5
 70
     1
102
RTVSPropertyOp6
 70
     1
102
RTVSPropertyOp7
 70
     1
102
RTVSPropertyOp8
 70
     1
102
RTVSPropertyOp9
 70
     1
102
RTVSPropertyOp10
 70
     1
102
RTVSPropertyOp11
 70
     1
102
RTVSPropertyOp12
 70
     1
102
RTVSPropertyOp13
 70
     1
102
RTVSPropertyOp14
 70
     1
102
RTVSPropertyOp15
 70
     1
102
RTVSPropertyOp16
 70
     1
102
RTVSPropertyOp17
 70
     1
102
RTVSPropertyOp18
 70
     1
102
RTVSPropertyOp19
 70
     1
102
RTVSPropertyOp20
 70
     1
102
RTVSPropertyOp21
 70
     1
102
RTVSPropertyOp22
 70
     1
102
RTVSPropertyOp23
 70
     1
102
RTVSPropertyOp24
 70
     1
102
RTVSPropertyOp25
 70
     1
102
RTVSPropertyOp26
 70
     1
102
RTVSPropertyOp27
 70
     1
102
RTVSPropertyOp28
 70
     1
102
RTVSPropertyOp29
 70
     1
102
RTVSPropertyOp30
 70
     1
102
RTVSPropertyOp31
 70
     1
102
RTVSPropertyOp32
 70
     1
102
RTVSPropertyOp33
 70
     1
102
RTVSPropertyOp34
 70
     1
102
RTVSPropertyOp35
 70
     1
102
RTVSPropertyOp36
 70
     1
102
RTVSPropertyOp37
 70
     1
102
RTVSPropertyOp38
 70
     1
102
RTVSPropertyOp39
 70
     1
102
RTVSPropertyOp40
 70
     1
102
RTVSPropertyOp41
 70
     1
102
RTVSPropertyOp42
 70
     1
102
RTVSPropertyOp43
 70
     1
102
RTVSPropertyOp44
 70
     1
102
RTVSPropertyOp45
 70
     1
102
RTVSPropertyOp46
 70
     1
102
RTVSPropertyOp47
 70
     1
102
RTVSPropertyOp48
 70
     1
102
RTVSPropertyOp49
 70
     1
102
RTVSPropertyOp50
 70
     1
102
RTVSPropertyOp51
 70
     0
102
RTVSPropertyOp52
 70
     0
102
RTVSPropertyOp53
 70
     1
102
RTVSPropertyOp54
 70
     1
102
RTVSPropertyOp55
 70
     1
102
RTVSPropertyOp56
 70
     1
102
RTVSPropertyOp57
 70
     1
102
RTVSPropertyOp58
 70
     1
102
RTVSPropertyOp59
 70
     1
102
RTVSPropertyOp60
 70
     1
102
RTVSPropertyOp61
 70
     1
102
RTVSPropertyOp62
 70
     1
  0
XRECORD
  5
9652
102
{ACAD_REACTORS
330
9651
102
}
330
9651
100
AcDbXrecord
280
     1
102
RTVSPost2010Prop28
280
     0
102
RTVSPost2010PropOp28
 70
     1
102
RTVSPost2010Prop29
280
     1
102
RTVSPost2010PropOp29
 70
     1
102
RTVSPost2010Prop30
280
     1
102
RTVSPost2010PropOp30
 70
     1
102
RTVSPost2010Prop31
280
     0
102
RTVSPost2010PropOp31
 70
     1
102
RTVSPost2010Prop32
280
     0
102
RTVSPost2010PropOp32
 70
     1
102
RTVSPost2010Prop33
280
     0
102
RTVSPost2010PropOp33
 70
     1
102
RTVSPost2010Prop34
280
     0
102
RTVSPost2010PropOp34
 70
     1
102
RTVSPost2010Prop35
280
     0
102
RTVSPost2010PropOp35
 70
     1
102
RTVSPost2010Prop36
280
     0
102
RTVSPost2010PropOp36
 70
     1
102
RTVSPost2010Prop37
 90
       50
102
RTVSPost2010PropOp37
 70
     1
102
RTVSPost2010Prop38
140
0.0
102
RTVSPost2010PropOp38
 70
     1
102
RTVSPost2010Prop39
140
1.0
102
RTVSPost2010PropOp39
 70
     1
102
RTVSPost2010Prop40
 90
        0
102
RTVSPost2010PropOp40
 70
     1
102
RTVSPost2010Prop41ColorIndex
 90
       18
102
RTVSPost2010Prop41ColorRGB
 90
        0
102
RTVSPost2010PropOp41
 70
     1
102
RTVSPost2010Prop42
 90
       50
102
RTVSPost2010PropOp42
 70
     1
102
RTVSPost2010Prop43
 90
        3
102
RTVSPost2010PropOp43
 70
     1
102
RTVSPost2010Prop44ColorIndex
 90
        5
102
RTVSPost2010Prop44ColorRGB
 90
      255
102
RTVSPost2010PropOp44
 70
     1
102
RTVSPost2010Prop45
280
     0
102
RTVSPost2010PropOp45
 70
     1
102
RTVSPost2010Prop46
 90
       50
102
RTVSPost2010PropOp46
 70
     1
102
RTVSPost2010Prop47
 90
       50
102
RTVSPost2010PropOp47
 70
     1
102
RTVSPost2010Prop48
 90
       50
102
RTVSPost2010PropOp48
 70
     1
102
RTVSPost2010Prop49
280
     0
102
RTVSPost2010PropOp49
 70
     1
102
RTVSPost2010Prop50
 90
       50
102
RTVSPost2010PropOp50
 70
     1
102
RTVSPost2010Prop51ColorIndex
 90
      256
102
RTVSPost2010Prop51ColorRGB
 90
-16777216
102
RTVSPost2010PropOp51
 70
     0
102
RTVSPost2010Prop52
140
1.0
102
RTVSPost2010PropOp52
 70
     0
102
RTVSPost2010Prop53
 90
        2
102
RTVSPost2010PropOp53
 70
     1
102
RTVSPost2010Prop54
  1
strokes_ogs.tif
102
RTVSPost2010PropOp54
 70
     1
102
RTVSPost2010Prop55
280
     0
102
RTVSPost2010PropOp55
 70
     1
102
RTVSPost2010Prop56
140
1.0
102
RTVSPost2010PropOp56
 70
     1
102
RTVSPost2010Prop57
140
1.0
102
RTVSPost2010PropOp57
 70
     1
102
RTVSPropertyOp0
 70
     1
102
RTVSPropertyOp1
 70
     1
102
RTVSPropertyOp2
 70
     1
102
RTVSPropertyOp3
 70
     1
102
RTVSPropertyOp4
 70
     1
102
RTVSPropertyOp5
 70
     1
102
RTVSPropertyOp6
 70
     1
102
RTVSPropertyOp7
 70
     1
102
RTVSPropertyOp8
 70
     1
102
RTVSPropertyOp9
 70
     1
102
RTVSPropertyOp10
 70
     1
102
RTVSPropertyOp11
 70
     1
102
RTVSPropertyOp12
 70
     1
102
RTVSPropertyOp13
 70
     1
102
RTVSPropertyOp14
 70
     1
102
RTVSPropertyOp15
 70
     1
102
RTVSPropertyOp16
 70
     1
102
RTVSPropertyOp17
 70
     1
102
RTVSPropertyOp18
 70
     1
102
RTVSPropertyOp19
 70
     1
102
RTVSPropertyOp20
 70
     1
102
RTVSPropertyOp21
 70
     1
102
RTVSPropertyOp22
 70
     1
102
RTVSPropertyOp23
 70
     1
102
RTVSPropertyOp24
 70
     1
102
RTVSPropertyOp25
 70
     1
102
RTVSPropertyOp26
 70
     1
102
RTVSPropertyOp27
 70
     1
102
RTVSPropertyOp28
 70
     1
102
RTVSPropertyOp29
 70
     1
102
RTVSPropertyOp30
 70
     1
102
RTVSPropertyOp31
 70
     1
102
RTVSPropertyOp32
 70
     1
102
RTVSPropertyOp33
 70
     1
102
RTVSPropertyOp34
 70
     1
102
RTVSPropertyOp35
 70
     1
102
RTVSPropertyOp36
 70
     1
102
RTVSPropertyOp37
 70
     1
102
RTVSPropertyOp38
 70
     1
102
RTVSPropertyOp39
 70
     1
102
RTVSPropertyOp40
 70
     1
102
RTVSPropertyOp41
 70
     1
102
RTVSPropertyOp42
 70
     1
102
RTVSPropertyOp43
 70
     1
102
RTVSPropertyOp44
 70
     1
102
RTVSPropertyOp45
 70
     1
102
RTVSPropertyOp46
 70
     1
102
RTVSPropertyOp47
 70
     1
102
RTVSPropertyOp48
 70
     1
102
RTVSPropertyOp49
 70
     1
102
RTVSPropertyOp50
 70
     1
102
RTVSPropertyOp51
 70
     0
102
RTVSPropertyOp52
 70
     0
102
RTVSPropertyOp53
 70
     1
102
RTVSPropertyOp54
 70
     1
102
RTVSPropertyOp55
 70
     1
102
RTVSPropertyOp56
 70
     1
102
RTVSPropertyOp57
 70
     1
102
RTVSPropertyOp58
 70
     1
102
RTVSPropertyOp59
 70
     1
102
RTVSPropertyOp60
 70
     1
102
RTVSPropertyOp61
 70
     1
102
RTVSPropertyOp62
 70
     1
  0
XRECORD
  5
966C
102
{ACAD_REACTORS
330
966B
102
}
330
966B
100
AcDbXrecord
280
     1
102
RTVSPost2010Prop28
280
     0
102
RTVSPost2010PropOp28
 70
     1
102
RTVSPost2010Prop29
280
     1
102
RTVSPost2010PropOp29
 70
     1
102
RTVSPost2010Prop30
280
     1
102
RTVSPost2010PropOp30
 70
     1
102
RTVSPost2010Prop31
280
     0
102
RTVSPost2010PropOp31
 70
     1
102
RTVSPost2010Prop32
280
     0
102
RTVSPost2010PropOp32
 70
     1
102
RTVSPost2010Prop33
280
     0
102
RTVSPost2010PropOp33
 70
     1
102
RTVSPost2010Prop34
280
     0
102
RTVSPost2010PropOp34
 70
     1
102
RTVSPost2010Prop35
280
     0
102
RTVSPost2010PropOp35
 70
     1
102
RTVSPost2010Prop36
280
     0
102
RTVSPost2010PropOp36
 70
     1
102
RTVSPost2010Prop37
 90
       50
102
RTVSPost2010PropOp37
 70
     0
102
RTVSPost2010Prop38
140
0.0
102
RTVSPost2010PropOp38
 70
     0
102
RTVSPost2010Prop39
140
1.0
102
RTVSPost2010PropOp39
 70
     0
102
RTVSPost2010Prop40
 90
        0
102
RTVSPost2010PropOp40
 70
     0
102
RTVSPost2010Prop41ColorIndex
 90
       18
102
RTVSPost2010Prop41ColorRGB
 90
        0
102
RTVSPost2010PropOp41
 70
     0
102
RTVSPost2010Prop42
 90
       50
102
RTVSPost2010PropOp42
 70
     0
102
RTVSPost2010Prop43
 90
        3
102
RTVSPost2010PropOp43
 70
     0
102
RTVSPost2010Prop44ColorIndex
 90
        5
102
RTVSPost2010Prop44ColorRGB
 90
      255
102
RTVSPost2010PropOp44
 70
     0
102
RTVSPost2010Prop45
280
     0
102
RTVSPost2010PropOp45
 70
     1
102
RTVSPost2010Prop46
 90
       50
102
RTVSPost2010PropOp46
 70
     0
102
RTVSPost2010Prop47
 90
       50
102
RTVSPost2010PropOp47
 70
     0
102
RTVSPost2010Prop48
 90
       50
102
RTVSPost2010PropOp48
 70
     0
102
RTVSPost2010Prop49
280
     0
102
RTVSPost2010PropOp49
 70
     1
102
RTVSPost2010Prop50
 90
       50
102
RTVSPost2010PropOp50
 70
     0
102
RTVSPost2010Prop51ColorIndex
 90
      256
102
RTVSPost2010Prop51ColorRGB
 90
-16777216
102
RTVSPost2010PropOp51
 70
     0
102
RTVSPost2010Prop52
140
1.0
102
RTVSPost2010PropOp52
 70
     0
102
RTVSPost2010Prop53
 90
        2
102
RTVSPost2010PropOp53
 70
     0
102
RTVSPost2010Prop54
  1
strokes_ogs.tif
102
RTVSPost2010PropOp54
 70
     0
102
RTVSPost2010Prop55
280
     0
102
RTVSPost2010PropOp55
 70
     1
102
RTVSPost2010Prop56
140
1.0
102
RTVSPost2010PropOp56
 70
     0
102
RTVSPost2010Prop57
140
1.0
102
RTVSPost2010PropOp57
 70
     0
102
RTVSPropertyOp0
 70
     0
102
RTVSPropertyOp1
 70
     0
102
RTVSPropertyOp2
 70
     0
102
RTVSPropertyOp3
 70
     0
102
RTVSPropertyOp4
 70
     0
102
RTVSPropertyOp5
 70
     0
102
RTVSPropertyOp6
 70
     0
102
RTVSPropertyOp7
 70
     0
102
RTVSPropertyOp8
 70
     0
102
RTVSPropertyOp9
 70
     0
102
RTVSPropertyOp10
 70
     0
102
RTVSPropertyOp11
 70
     0
102
RTVSPropertyOp12
 70
     0
102
RTVSPropertyOp13
 70
     0
102
RTVSPropertyOp14
 70
     2
102
RTVSPropertyOp15
 70
     0
102
RTVSPropertyOp16
 70
     0
102
RTVSPropertyOp17
 70
     0
102
RTVSPropertyOp18
 70
     0
102
RTVSPropertyOp19
 70
     0
102
RTVSPropertyOp20
 70
     0
102
RTVSPropertyOp21
 70
     0
102
RTVSPropertyOp22
 70
     0
102
RTVSPropertyOp23
 70
     0
102
RTVSPropertyOp24
 70
     0
102
RTVSPropertyOp25
 70
     0
102
RTVSPropertyOp26
 70
     0
102
RTVSPropertyOp27
 70
     0
102
RTVSPropertyOp28
 70
     1
102
RTVSPropertyOp29
 70
     1
102
RTVSPropertyOp30
 70
     1
102
RTVSPropertyOp31
 70
     1
102
RTVSPropertyOp32
 70
     1
102
RTVSPropertyOp33
 70
     1
102
RTVSPropertyOp34
 70
     1
102
RTVSPropertyOp35
 70
     1
102
RTVSPropertyOp36
 70
     1
102
RTVSPropertyOp37
 70
     0
102
RTVSPropertyOp38
 70
     0
102
RTVSPropertyOp39
 70
     0
102
RTVSPropertyOp40
 70
     0
102
RTVSPropertyOp41
 70
     0
102
RTVSPropertyOp42
 70
     0
102
RTVSPropertyOp43
 70
     0
102
RTVSPropertyOp44
 70
     0
102
RTVSPropertyOp45
 70
     1
102
RTVSPropertyOp46
 70
     0
102
RTVSPropertyOp47
 70
     0
102
RTVSPropertyOp48
 70
     0
102
RTVSPropertyOp49
 70
     1
102
RTVSPropertyOp50
 70
     0
102
RTVSPropertyOp51
 70
     0
102
RTVSPropertyOp52
 70
     0
102
RTVSPropertyOp53
 70
     0
102
RTVSPropertyOp54
 70
     0
102
RTVSPropertyOp55
 70
     1
102
RTVSPropertyOp56
 70
     0
102
RTVSPropertyOp57
 70
     0
102
RTVSPropertyOp58
 70
     0
102
RTVSPropertyOp59
 70
     0
102
RTVSPropertyOp60
 70
     0
102
RTVSPropertyOp61
 70
     0
102
RTVSPropertyOp62
 70
     0
  0
XRECORD
  5
965A
102
{ACAD_REACTORS
330
9659
102
}
330
9659
100
AcDbXrecord
280
     1
102
RTVSPost2010Prop28
280
     0
102
RTVSPost2010PropOp28
 70
     1
102
RTVSPost2010Prop29
280
     1
102
RTVSPost2010PropOp29
 70
     1
102
RTVSPost2010Prop30
280
     1
102
RTVSPost2010PropOp30
 70
     1
102
RTVSPost2010Prop31
280
     0
102
RTVSPost2010PropOp31
 70
     1
102
RTVSPost2010Prop32
280
     0
102
RTVSPost2010PropOp32
 70
     1
102
RTVSPost2010Prop33
280
     0
102
RTVSPost2010PropOp33
 70
     1
102
RTVSPost2010Prop34
280
     0
102
RTVSPost2010PropOp34
 70
     1
102
RTVSPost2010Prop35
280
     0
102
RTVSPost2010PropOp35
 70
     1
102
RTVSPost2010Prop36
280
     0
102
RTVSPost2010PropOp36
 70
     1
102
RTVSPost2010Prop37
 90
       50
102
RTVSPost2010PropOp37
 70
     1
102
RTVSPost2010Prop38
140
0.0
102
RTVSPost2010PropOp38
 70
     1
102
RTVSPost2010Prop39
140
1.0
102
RTVSPost2010PropOp39
 70
     1
102
RTVSPost2010Prop40
 90
        0
102
RTVSPost2010PropOp40
 70
     1
102
RTVSPost2010Prop41ColorIndex
 90
       18
102
RTVSPost2010Prop41ColorRGB
 90
        0
102
RTVSPost2010PropOp41
 70
     1
102
RTVSPost2010Prop42
 90
       50
102
RTVSPost2010PropOp42
 70
     1
102
RTVSPost2010Prop43
 90
        3
102
RTVSPost2010PropOp43
 70
     1
102
RTVSPost2010Prop44ColorIndex
 90
        5
102
RTVSPost2010Prop44ColorRGB
 90
      255
102
RTVSPost2010PropOp44
 70
     1
102
RTVSPost2010Prop45
280
     0
102
RTVSPost2010PropOp45
 70
     1
102
RTVSPost2010Prop46
 90
       50
102
RTVSPost2010PropOp46
 70
     1
102
RTVSPost2010Prop47
 90
       50
102
RTVSPost2010PropOp47
 70
     1
102
RTVSPost2010Prop48
 90
       50
102
RTVSPost2010PropOp48
 70
     1
102
RTVSPost2010Prop49
280
     0
102
RTVSPost2010PropOp49
 70
     1
102
RTVSPost2010Prop50
 90
       50
102
RTVSPost2010PropOp50
 70
     1
102
RTVSPost2010Prop51ColorIndex
 90
      256
102
RTVSPost2010Prop51ColorRGB
 90
-16777216
102
RTVSPost2010PropOp51
 70
     0
102
RTVSPost2010Prop52
140
1.0
102
RTVSPost2010PropOp52
 70
     0
102
RTVSPost2010Prop53
 90
        2
102
RTVSPost2010PropOp53
 70
     1
102
RTVSPost2010Prop54
  1
strokes_ogs.tif
102
RTVSPost2010PropOp54
 70
     1
102
RTVSPost2010Prop55
280
     0
102
RTVSPost2010PropOp55
 70
     1
102
RTVSPost2010Prop56
140
1.0
102
RTVSPost2010PropOp56
 70
     1
102
RTVSPost2010Prop57
140
1.0
102
RTVSPost2010PropOp57
 70
     1
102
RTVSPropertyOp0
 70
     1
102
RTVSPropertyOp1
 70
     1
102
RTVSPropertyOp2
 70
     1
102
RTVSPropertyOp3
 70
     1
102
RTVSPropertyOp4
 70
     1
102
RTVSPropertyOp5
 70
     1
102
RTVSPropertyOp6
 70
     1
102
RTVSPropertyOp7
 70
     1
102
RTVSPropertyOp8
 70
     1
102
RTVSPropertyOp9
 70
     1
102
RTVSPropertyOp10
 70
     1
102
RTVSPropertyOp11
 70
     1
102
RTVSPropertyOp12
 70
     1
102
RTVSPropertyOp13
 70
     1
102
RTVSPropertyOp14
 70
     1
102
RTVSPropertyOp15
 70
     1
102
RTVSPropertyOp16
 70
     1
102
RTVSPropertyOp17
 70
     1
102
RTVSPropertyOp18
 70
     1
102
RTVSPropertyOp19
 70
     1
102
RTVSPropertyOp20
 70
     1
102
RTVSPropertyOp21
 70
     1
102
RTVSPropertyOp22
 70
     1
102
RTVSPropertyOp23
 70
     1
102
RTVSPropertyOp24
 70
     1
102
RTVSPropertyOp25
 70
     1
102
RTVSPropertyOp26
 70
     1
102
RTVSPropertyOp27
 70
     1
102
RTVSPropertyOp28
 70
     1
102
RTVSPropertyOp29
 70
     1
102
RTVSPropertyOp30
 70
     1
102
RTVSPropertyOp31
 70
     1
102
RTVSPropertyOp32
 70
     1
102
RTVSPropertyOp33
 70
     1
102
RTVSPropertyOp34
 70
     1
102
RTVSPropertyOp35
 70
     1
102
RTVSPropertyOp36
 70
     1
102
RTVSPropertyOp37
 70
     1
102
RTVSPropertyOp38
 70
     1
102
RTVSPropertyOp39
 70
     1
102
RTVSPropertyOp40
 70
     1
102
RTVSPropertyOp41
 70
     1
102
RTVSPropertyOp42
 70
     1
102
RTVSPropertyOp43
 70
     1
102
RTVSPropertyOp44
 70
     1
102
RTVSPropertyOp45
 70
     1
102
RTVSPropertyOp46
 70
     1
102
RTVSPropertyOp47
 70
     1
102
RTVSPropertyOp48
 70
     1
102
RTVSPropertyOp49
 70
     1
102
RTVSPropertyOp50
 70
     1
102
RTVSPropertyOp51
 70
     0
102
RTVSPropertyOp52
 70
     0
102
RTVSPropertyOp53
 70
     1
102
RTVSPropertyOp54
 70
     1
102
RTVSPropertyOp55
 70
     1
102
RTVSPropertyOp56
 70
     1
102
RTVSPropertyOp57
 70
     1
102
RTVSPropertyOp58
 70
     1
102
RTVSPropertyOp59
 70
     1
102
RTVSPropertyOp60
 70
     1
102
RTVSPropertyOp61
 70
     1
102
RTVSPropertyOp62
 70
     1
  0
XRECORD
  5
963E
102
{ACAD_REACTORS
330
963D
102
}
330
963D
100
AcDbXrecord
280
     1
102
RTVSPost2010Prop28
280
     0
102
RTVSPost2010PropOp28
 70
     1
102
RTVSPost2010Prop29
280
     1
102
RTVSPost2010PropOp29
 70
     1
102
RTVSPost2010Prop30
280
     1
102
RTVSPost2010PropOp30
 70
     1
102
RTVSPost2010Prop31
280
     0
102
RTVSPost2010PropOp31
 70
     1
102
RTVSPost2010Prop32
280
     0
102
RTVSPost2010PropOp32
 70
     1
102
RTVSPost2010Prop33
280
     0
102
RTVSPost2010PropOp33
 70
     1
102
RTVSPost2010Prop34
280
     0
102
RTVSPost2010PropOp34
 70
     1
102
RTVSPost2010Prop35
280
     0
102
RTVSPost2010PropOp35
 70
     1
102
RTVSPost2010Prop36
280
     0
102
RTVSPost2010PropOp36
 70
     1
102
RTVSPost2010Prop37
 90
       50
102
RTVSPost2010PropOp37
 70
     1
102
RTVSPost2010Prop38
140
0.0
102
RTVSPost2010PropOp38
 70
     1
102
RTVSPost2010Prop39
140
1.0
102
RTVSPost2010PropOp39
 70
     1
102
RTVSPost2010Prop40
 90
        0
102
RTVSPost2010PropOp40
 70
     1
102
RTVSPost2010Prop41ColorIndex
 90
       18
102
RTVSPost2010Prop41ColorRGB
 90
        0
102
RTVSPost2010PropOp41
 70
     1
102
RTVSPost2010Prop42
 90
       50
102
RTVSPost2010PropOp42
 70
     1
102
RTVSPost2010Prop43
 90
        3
102
RTVSPost2010PropOp43
 70
     1
102
RTVSPost2010Prop44ColorIndex
 90
        5
102
RTVSPost2010Prop44ColorRGB
 90
      255
102
RTVSPost2010PropOp44
 70
     1
102
RTVSPost2010Prop45
280
     0
102
RTVSPost2010PropOp45
 70
     1
102
RTVSPost2010Prop46
 90
       50
102
RTVSPost2010PropOp46
 70
     1
102
RTVSPost2010Prop47
 90
       50
102
RTVSPost2010PropOp47
 70
     1
102
RTVSPost2010Prop48
 90
       50
102
RTVSPost2010PropOp48
 70
     1
102
RTVSPost2010Prop49
280
     0
102
RTVSPost2010PropOp49
 70
     1
102
RTVSPost2010Prop50
 90
       50
102
RTVSPost2010PropOp50
 70
     1
102
RTVSPost2010Prop51ColorIndex
 90
      256
102
RTVSPost2010Prop51ColorRGB
 90
-16777216
102
RTVSPost2010PropOp51
 70
     0
102
RTVSPost2010Prop52
140
1.0
102
RTVSPost2010PropOp52
 70
     0
102
RTVSPost2010Prop53
 90
        2
102
RTVSPost2010PropOp53
 70
     1
102
RTVSPost2010Prop54
  1
strokes_ogs.tif
102
RTVSPost2010PropOp54
 70
     1
102
RTVSPost2010Prop55
280
     0
102
RTVSPost2010PropOp55
 70
     1
102
RTVSPost2010Prop56
140
1.0
102
RTVSPost2010PropOp56
 70
     1
102
RTVSPost2010Prop57
140
1.0
102
RTVSPost2010PropOp57
 70
     1
102
RTVSPropertyOp0
 70
     1
102
RTVSPropertyOp1
 70
     1
102
RTVSPropertyOp2
 70
     1
102
RTVSPropertyOp3
 70
     1
102
RTVSPropertyOp4
 70
     1
102
RTVSPropertyOp5
 70
     1
102
RTVSPropertyOp6
 70
     1
102
RTVSPropertyOp7
 70
     1
102
RTVSPropertyOp8
 70
     1
102
RTVSPropertyOp9
 70
     1
102
RTVSPropertyOp10
 70
     1
102
RTVSPropertyOp11
 70
     1
102
RTVSPropertyOp12
 70
     1
102
RTVSPropertyOp13
 70
     1
102
RTVSPropertyOp14
 70
     1
102
RTVSPropertyOp15
 70
     1
102
RTVSPropertyOp16
 70
     1
102
RTVSPropertyOp17
 70
     1
102
RTVSPropertyOp18
 70
     1
102
RTVSPropertyOp19
 70
     1
102
RTVSPropertyOp20
 70
     1
102
RTVSPropertyOp21
 70
     1
102
RTVSPropertyOp22
 70
     1
102
RTVSPropertyOp23
 70
     1
102
RTVSPropertyOp24
 70
     1
102
RTVSPropertyOp25
 70
     1
102
RTVSPropertyOp26
 70
     1
102
RTVSPropertyOp27
 70
     1
102
RTVSPropertyOp28
 70
     1
102
RTVSPropertyOp29
 70
     1
102
RTVSPropertyOp30
 70
     1
102
RTVSPropertyOp31
 70
     1
102
RTVSPropertyOp32
 70
     1
102
RTVSPropertyOp33
 70
     1
102
RTVSPropertyOp34
 70
     1
102
RTVSPropertyOp35
 70
     1
102
RTVSPropertyOp36
 70
     1
102
RTVSPropertyOp37
 70
     1
102
RTVSPropertyOp38
 70
     1
102
RTVSPropertyOp39
 70
     1
102
RTVSPropertyOp40
 70
     1
102
RTVSPropertyOp41
 70
     1
102
RTVSPropertyOp42
 70
     1
102
RTVSPropertyOp43
 70
     1
102
RTVSPropertyOp44
 70
     1
102
RTVSPropertyOp45
 70
     1
102
RTVSPropertyOp46
 70
     1
102
RTVSPropertyOp47
 70
     1
102
RTVSPropertyOp48
 70
     1
102
RTVSPropertyOp49
 70
     1
102
RTVSPropertyOp50
 70
     1
102
RTVSPropertyOp51
 70
     0
102
RTVSPropertyOp52
 70
     0
102
RTVSPropertyOp53
 70
     1
102
RTVSPropertyOp54
 70
     1
102
RTVSPropertyOp55
 70
     1
102
RTVSPropertyOp56
 70
     1
102
RTVSPropertyOp57
 70
     1
102
RTVSPropertyOp58
 70
     1
102
RTVSPropertyOp59
 70
     1
102
RTVSPropertyOp60
 70
     1
102
RTVSPropertyOp61
 70
     1
102
RTVSPropertyOp62
 70
     1
  0
XRECORD
  5
9640
102
{ACAD_REACTORS
330
963F
102
}
330
963F
100
AcDbXrecord
280
     1
102
RTVSPost2010Prop28
280
     0
102
RTVSPost2010PropOp28
 70
     1
102
RTVSPost2010Prop29
280
     1
102
RTVSPost2010PropOp29
 70
     1
102
RTVSPost2010Prop30
280
     1
102
RTVSPost2010PropOp30
 70
     1
102
RTVSPost2010Prop31
280
     0
102
RTVSPost2010PropOp31
 70
     1
102
RTVSPost2010Prop32
280
     0
102
RTVSPost2010PropOp32
 70
     1
102
RTVSPost2010Prop33
280
     0
102
RTVSPost2010PropOp33
 70
     1
102
RTVSPost2010Prop34
280
     0
102
RTVSPost2010PropOp34
 70
     1
102
RTVSPost2010Prop35
280
     0
102
RTVSPost2010PropOp35
 70
     1
102
RTVSPost2010Prop36
280
     0
102
RTVSPost2010PropOp36
 70
     1
102
RTVSPost2010Prop37
 90
       50
102
RTVSPost2010PropOp37
 70
     1
102
RTVSPost2010Prop38
140
0.0
102
RTVSPost2010PropOp38
 70
     1
102
RTVSPost2010Prop39
140
1.0
102
RTVSPost2010PropOp39
 70
     1
102
RTVSPost2010Prop40
 90
        0
102
RTVSPost2010PropOp40
 70
     1
102
RTVSPost2010Prop41ColorIndex
 90
       18
102
RTVSPost2010Prop41ColorRGB
 90
        0
102
RTVSPost2010PropOp41
 70
     1
102
RTVSPost2010Prop42
 90
       50
102
RTVSPost2010PropOp42
 70
     1
102
RTVSPost2010Prop43
 90
        3
102
RTVSPost2010PropOp43
 70
     1
102
RTVSPost2010Prop44ColorIndex
 90
        5
102
RTVSPost2010Prop44ColorRGB
 90
      255
102
RTVSPost2010PropOp44
 70
     1
102
RTVSPost2010Prop45
280
     0
102
RTVSPost2010PropOp45
 70
     1
102
RTVSPost2010Prop46
 90
       50
102
RTVSPost2010PropOp46
 70
     1
102
RTVSPost2010Prop47
 90
       50
102
RTVSPost2010PropOp47
 70
     1
102
RTVSPost2010Prop48
 90
       50
102
RTVSPost2010PropOp48
 70
     1
102
RTVSPost2010Prop49
280
     0
102
RTVSPost2010PropOp49
 70
     1
102
RTVSPost2010Prop50
 90
       50
102
RTVSPost2010PropOp50
 70
     1
102
RTVSPost2010Prop51ColorIndex
 90
      256
102
RTVSPost2010Prop51ColorRGB
 90
-16777216
102
RTVSPost2010PropOp51
 70
     0
102
RTVSPost2010Prop52
140
1.0
102
RTVSPost2010PropOp52
 70
     0
102
RTVSPost2010Prop53
 90
        2
102
RTVSPost2010PropOp53
 70
     1
102
RTVSPost2010Prop54
  1
strokes_ogs.tif
102
RTVSPost2010PropOp54
 70
     1
102
RTVSPost2010Prop55
280
     0
102
RTVSPost2010PropOp55
 70
     1
102
RTVSPost2010Prop56
140
1.0
102
RTVSPost2010PropOp56
 70
     1
102
RTVSPost2010Prop57
140
1.0
102
RTVSPost2010PropOp57
 70
     1
102
RTVSPropertyOp0
 70
     1
102
RTVSPropertyOp1
 70
     1
102
RTVSPropertyOp2
 70
     1
102
RTVSPropertyOp3
 70
     1
102
RTVSPropertyOp4
 70
     1
102
RTVSPropertyOp5
 70
     1
102
RTVSPropertyOp6
 70
     1
102
RTVSPropertyOp7
 70
     1
102
RTVSPropertyOp8
 70
     1
102
RTVSPropertyOp9
 70
     1
102
RTVSPropertyOp10
 70
     1
102
RTVSPropertyOp11
 70
     1
102
RTVSPropertyOp12
 70
     1
102
RTVSPropertyOp13
 70
     1
102
RTVSPropertyOp14
 70
     1
102
RTVSPropertyOp15
 70
     1
102
RTVSPropertyOp16
 70
     1
102
RTVSPropertyOp17
 70
     1
102
RTVSPropertyOp18
 70
     1
102
RTVSPropertyOp19
 70
     1
102
RTVSPropertyOp20
 70
     1
102
RTVSPropertyOp21
 70
     1
102
RTVSPropertyOp22
 70
     1
102
RTVSPropertyOp23
 70
     1
102
RTVSPropertyOp24
 70
     1
102
RTVSPropertyOp25
 70
     1
102
RTVSPropertyOp26
 70
     1
102
RTVSPropertyOp27
 70
     1
102
RTVSPropertyOp28
 70
     1
102
RTVSPropertyOp29
 70
     1
102
RTVSPropertyOp30
 70
     1
102
RTVSPropertyOp31
 70
     1
102
RTVSPropertyOp32
 70
     1
102
RTVSPropertyOp33
 70
     1
102
RTVSPropertyOp34
 70
     1
102
RTVSPropertyOp35
 70
     1
102
RTVSPropertyOp36
 70
     1
102
RTVSPropertyOp37
 70
     1
102
RTVSPropertyOp38
 70
     1
102
RTVSPropertyOp39
 70
     1
102
RTVSPropertyOp40
 70
     1
102
RTVSPropertyOp41
 70
     1
102
RTVSPropertyOp42
 70
     1
102
RTVSPropertyOp43
 70
     1
102
RTVSPropertyOp44
 70
     1
102
RTVSPropertyOp45
 70
     1
102
RTVSPropertyOp46
 70
     1
102
RTVSPropertyOp47
 70
     1
102
RTVSPropertyOp48
 70
     1
102
RTVSPropertyOp49
 70
     1
102
RTVSPropertyOp50
 70
     1
102
RTVSPropertyOp51
 70
     0
102
RTVSPropertyOp52
 70
     0
102
RTVSPropertyOp53
 70
     1
102
RTVSPropertyOp54
 70
     1
102
RTVSPropertyOp55
 70
     1
102
RTVSPropertyOp56
 70
     1
102
RTVSPropertyOp57
 70
     1
102
RTVSPropertyOp58
 70
     1
102
RTVSPropertyOp59
 70
     1
102
RTVSPropertyOp60
 70
     1
102
RTVSPropertyOp61
 70
     1
102
RTVSPropertyOp62
 70
     1
  0
XRECORD
  5
9642
102
{ACAD_REACTORS
330
9641
102
}
330
9641
100
AcDbXrecord
280
     1
102
RTVSPost2010Prop28
280
     0
102
RTVSPost2010PropOp28
 70
     1
102
RTVSPost2010Prop29
280
     1
102
RTVSPost2010PropOp29
 70
     1
102
RTVSPost2010Prop30
280
     1
102
RTVSPost2010PropOp30
 70
     1
102
RTVSPost2010Prop31
280
     0
102
RTVSPost2010PropOp31
 70
     1
102
RTVSPost2010Prop32
280
     0
102
RTVSPost2010PropOp32
 70
     1
102
RTVSPost2010Prop33
280
     0
102
RTVSPost2010PropOp33
 70
     1
102
RTVSPost2010Prop34
280
     0
102
RTVSPost2010PropOp34
 70
     1
102
RTVSPost2010Prop35
280
     0
102
RTVSPost2010PropOp35
 70
     1
102
RTVSPost2010Prop36
280
     0
102
RTVSPost2010PropOp36
 70
     1
102
RTVSPost2010Prop37
 90
       50
102
RTVSPost2010PropOp37
 70
     1
102
RTVSPost2010Prop38
140
0.0
102
RTVSPost2010PropOp38
 70
     1
102
RTVSPost2010Prop39
140
1.0
102
RTVSPost2010PropOp39
 70
     1
102
RTVSPost2010Prop40
 90
        0
102
RTVSPost2010PropOp40
 70
     1
102
RTVSPost2010Prop41ColorIndex
 90
       18
102
RTVSPost2010Prop41ColorRGB
 90
        0
102
RTVSPost2010PropOp41
 70
     1
102
RTVSPost2010Prop42
 90
       50
102
RTVSPost2010PropOp42
 70
     1
102
RTVSPost2010Prop43
 90
        3
102
RTVSPost2010PropOp43
 70
     1
102
RTVSPost2010Prop44ColorIndex
 90
        5
102
RTVSPost2010Prop44ColorRGB
 90
      255
102
RTVSPost2010PropOp44
 70
     1
102
RTVSPost2010Prop45
280
     0
102
RTVSPost2010PropOp45
 70
     1
102
RTVSPost2010Prop46
 90
       50
102
RTVSPost2010PropOp46
 70
     1
102
RTVSPost2010Prop47
 90
       50
102
RTVSPost2010PropOp47
 70
     1
102
RTVSPost2010Prop48
 90
       50
102
RTVSPost2010PropOp48
 70
     1
102
RTVSPost2010Prop49
280
     0
102
RTVSPost2010PropOp49
 70
     1
102
RTVSPost2010Prop50
 90
       50
102
RTVSPost2010PropOp50
 70
     1
102
RTVSPost2010Prop51ColorIndex
 90
      256
102
RTVSPost2010Prop51ColorRGB
 90
-16777216
102
RTVSPost2010PropOp51
 70
     0
102
RTVSPost2010Prop52
140
1.0
102
RTVSPost2010PropOp52
 70
     0
102
RTVSPost2010Prop53
 90
        2
102
RTVSPost2010PropOp53
 70
     1
102
RTVSPost2010Prop54
  1
strokes_ogs.tif
102
RTVSPost2010PropOp54
 70
     1
102
RTVSPost2010Prop55
280
     0
102
RTVSPost2010PropOp55
 70
     1
102
RTVSPost2010Prop56
140
1.0
102
RTVSPost2010PropOp56
 70
     1
102
RTVSPost2010Prop57
140
1.0
102
RTVSPost2010PropOp57
 70
     1
102
RTVSPropertyOp0
 70
     1
102
RTVSPropertyOp1
 70
     1
102
RTVSPropertyOp2
 70
     1
102
RTVSPropertyOp3
 70
     1
102
RTVSPropertyOp4
 70
     1
102
RTVSPropertyOp5
 70
     1
102
RTVSPropertyOp6
 70
     1
102
RTVSPropertyOp7
 70
     1
102
RTVSPropertyOp8
 70
     1
102
RTVSPropertyOp9
 70
     1
102
RTVSPropertyOp10
 70
     1
102
RTVSPropertyOp11
 70
     1
102
RTVSPropertyOp12
 70
     1
102
RTVSPropertyOp13
 70
     1
102
RTVSPropertyOp14
 70
     1
102
RTVSPropertyOp15
 70
     1
102
RTVSPropertyOp16
 70
     1
102
RTVSPropertyOp17
 70
     1
102
RTVSPropertyOp18
 70
     1
102
RTVSPropertyOp19
 70
     1
102
RTVSPropertyOp20
 70
     1
102
RTVSPropertyOp21
 70
     1
102
RTVSPropertyOp22
 70
     1
102
RTVSPropertyOp23
 70
     1
102
RTVSPropertyOp24
 70
     1
102
RTVSPropertyOp25
 70
     1
102
RTVSPropertyOp26
 70
     1
102
RTVSPropertyOp27
 70
     1
102
RTVSPropertyOp28
 70
     1
102
RTVSPropertyOp29
 70
     1
102
RTVSPropertyOp30
 70
     1
102
RTVSPropertyOp31
 70
     1
102
RTVSPropertyOp32
 70
     1
102
RTVSPropertyOp33
 70
     1
102
RTVSPropertyOp34
 70
     1
102
RTVSPropertyOp35
 70
     1
102
RTVSPropertyOp36
 70
     1
102
RTVSPropertyOp37
 70
     1
102
RTVSPropertyOp38
 70
     1
102
RTVSPropertyOp39
 70
     1
102
RTVSPropertyOp40
 70
     1
102
RTVSPropertyOp41
 70
     1
102
RTVSPropertyOp42
 70
     1
102
RTVSPropertyOp43
 70
     1
102
RTVSPropertyOp44
 70
     1
102
RTVSPropertyOp45
 70
     1
102
RTVSPropertyOp46
 70
     1
102
RTVSPropertyOp47
 70
     1
102
RTVSPropertyOp48
 70
     1
102
RTVSPropertyOp49
 70
     1
102
RTVSPropertyOp50
 70
     1
102
RTVSPropertyOp51
 70
     0
102
RTVSPropertyOp52
 70
     0
102
RTVSPropertyOp53
 70
     1
102
RTVSPropertyOp54
 70
     1
102
RTVSPropertyOp55
 70
     1
102
RTVSPropertyOp56
 70
     1
102
RTVSPropertyOp57
 70
     1
102
RTVSPropertyOp58
 70
     1
102
RTVSPropertyOp59
 70
     1
102
RTVSPropertyOp60
 70
     1
102
RTVSPropertyOp61
 70
     1
102
RTVSPropertyOp62
 70
     1
  0
XRECORD
  5
9644
102
{ACAD_REACTORS
330
9643
102
}
330
9643
100
AcDbXrecord
280
     1
102
RTVSPost2010Prop28
280
     0
102
RTVSPost2010PropOp28
 70
     1
102
RTVSPost2010Prop29
280
     1
102
RTVSPost2010PropOp29
 70
     1
102
RTVSPost2010Prop30
280
     1
102
RTVSPost2010PropOp30
 70
     1
102
RTVSPost2010Prop31
280
     0
102
RTVSPost2010PropOp31
 70
     1
102
RTVSPost2010Prop32
280
     0
102
RTVSPost2010PropOp32
 70
     1
102
RTVSPost2010Prop33
280
     0
102
RTVSPost2010PropOp33
 70
     1
102
RTVSPost2010Prop34
280
     0
102
RTVSPost2010PropOp34
 70
     1
102
RTVSPost2010Prop35
280
     0
102
RTVSPost2010PropOp35
 70
     1
102
RTVSPost2010Prop36
280
     0
102
RTVSPost2010PropOp36
 70
     1
102
RTVSPost2010Prop37
 90
       50
102
RTVSPost2010PropOp37
 70
     1
102
RTVSPost2010Prop38
140
0.0
102
RTVSPost2010PropOp38
 70
     1
102
RTVSPost2010Prop39
140
1.0
102
RTVSPost2010PropOp39
 70
     1
102
RTVSPost2010Prop40
 90
        0
102
RTVSPost2010PropOp40
 70
     1
102
RTVSPost2010Prop41ColorIndex
 90
       18
102
RTVSPost2010Prop41ColorRGB
 90
        0
102
RTVSPost2010PropOp41
 70
     1
102
RTVSPost2010Prop42
 90
       50
102
RTVSPost2010PropOp42
 70
     1
102
RTVSPost2010Prop43
 90
        3
102
RTVSPost2010PropOp43
 70
     1
102
RTVSPost2010Prop44ColorIndex
 90
        5
102
RTVSPost2010Prop44ColorRGB
 90
      255
102
RTVSPost2010PropOp44
 70
     1
102
RTVSPost2010Prop45
280
     0
102
RTVSPost2010PropOp45
 70
     1
102
RTVSPost2010Prop46
 90
       50
102
RTVSPost2010PropOp46
 70
     1
102
RTVSPost2010Prop47
 90
       50
102
RTVSPost2010PropOp47
 70
     1
102
RTVSPost2010Prop48
 90
       50
102
RTVSPost2010PropOp48
 70
     1
102
RTVSPost2010Prop49
280
     0
102
RTVSPost2010PropOp49
 70
     1
102
RTVSPost2010Prop50
 90
       50
102
RTVSPost2010PropOp50
 70
     1
102
RTVSPost2010Prop51ColorIndex
 90
      256
102
RTVSPost2010Prop51ColorRGB
 90
-16777216
102
RTVSPost2010PropOp51
 70
     0
102
RTVSPost2010Prop52
140
1.0
102
RTVSPost2010PropOp52
 70
     0
102
RTVSPost2010Prop53
 90
        2
102
RTVSPost2010PropOp53
 70
     1
102
RTVSPost2010Prop54
  1
strokes_ogs.tif
102
RTVSPost2010PropOp54
 70
     1
102
RTVSPost2010Prop55
280
     0
102
RTVSPost2010PropOp55
 70
     1
102
RTVSPost2010Prop56
140
1.0
102
RTVSPost2010PropOp56
 70
     1
102
RTVSPost2010Prop57
140
1.0
102
RTVSPost2010PropOp57
 70
     1
102
RTVSPropertyOp0
 70
     1
102
RTVSPropertyOp1
 70
     1
102
RTVSPropertyOp2
 70
     1
102
RTVSPropertyOp3
 70
     1
102
RTVSPropertyOp4
 70
     1
102
RTVSPropertyOp5
 70
     1
102
RTVSPropertyOp6
 70
     1
102
RTVSPropertyOp7
 70
     1
102
RTVSPropertyOp8
 70
     1
102
RTVSPropertyOp9
 70
     1
102
RTVSPropertyOp10
 70
     1
102
RTVSPropertyOp11
 70
     1
102
RTVSPropertyOp12
 70
     1
102
RTVSPropertyOp13
 70
     1
102
RTVSPropertyOp14
 70
     1
102
RTVSPropertyOp15
 70
     1
102
RTVSPropertyOp16
 70
     1
102
RTVSPropertyOp17
 70
     1
102
RTVSPropertyOp18
 70
     1
102
RTVSPropertyOp19
 70
     1
102
RTVSPropertyOp20
 70
     1
102
RTVSPropertyOp21
 70
     1
102
RTVSPropertyOp22
 70
     1
102
RTVSPropertyOp23
 70
     1
102
RTVSPropertyOp24
 70
     1
102
RTVSPropertyOp25
 70
     1
102
RTVSPropertyOp26
 70
     1
102
RTVSPropertyOp27
 70
     1
102
RTVSPropertyOp28
 70
     1
102
RTVSPropertyOp29
 70
     1
102
RTVSPropertyOp30
 70
     1
102
RTVSPropertyOp31
 70
     1
102
RTVSPropertyOp32
 70
     1
102
RTVSPropertyOp33
 70
     1
102
RTVSPropertyOp34
 70
     1
102
RTVSPropertyOp35
 70
     1
102
RTVSPropertyOp36
 70
     1
102
RTVSPropertyOp37
 70
     1
102
RTVSPropertyOp38
 70
     1
102
RTVSPropertyOp39
 70
     1
102
RTVSPropertyOp40
 70
     1
102
RTVSPropertyOp41
 70
     1
102
RTVSPropertyOp42
 70
     1
102
RTVSPropertyOp43
 70
     1
102
RTVSPropertyOp44
 70
     1
102
RTVSPropertyOp45
 70
     1
102
RTVSPropertyOp46
 70
     1
102
RTVSPropertyOp47
 70
     1
102
RTVSPropertyOp48
 70
     1
102
RTVSPropertyOp49
 70
     1
102
RTVSPropertyOp50
 70
     1
102
RTVSPropertyOp51
 70
     0
102
RTVSPropertyOp52
 70
     0
102
RTVSPropertyOp53
 70
     1
102
RTVSPropertyOp54
 70
     1
102
RTVSPropertyOp55
 70
     1
102
RTVSPropertyOp56
 70
     1
102
RTVSPropertyOp57
 70
     1
102
RTVSPropertyOp58
 70
     1
102
RTVSPropertyOp59
 70
     1
102
RTVSPropertyOp60
 70
     1
102
RTVSPropertyOp61
 70
     1
102
RTVSPropertyOp62
 70
     1
  0
XRECORD
  5
964C
102
{ACAD_REACTORS
330
964B
102
}
330
964B
100
AcDbXrecord
280
     1
102
RTVSPost2010Prop28
280
     0
102
RTVSPost2010PropOp28
 70
     1
102
RTVSPost2010Prop29
280
     1
102
RTVSPost2010PropOp29
 70
     1
102
RTVSPost2010Prop30
280
     1
102
RTVSPost2010PropOp30
 70
     1
102
RTVSPost2010Prop31
280
     0
102
RTVSPost2010PropOp31
 70
     1
102
RTVSPost2010Prop32
280
     0
102
RTVSPost2010PropOp32
 70
     1
102
RTVSPost2010Prop33
280
     0
102
RTVSPost2010PropOp33
 70
     1
102
RTVSPost2010Prop34
280
     0
102
RTVSPost2010PropOp34
 70
     1
102
RTVSPost2010Prop35
280
     0
102
RTVSPost2010PropOp35
 70
     1
102
RTVSPost2010Prop36
280
     0
102
RTVSPost2010PropOp36
 70
     1
102
RTVSPost2010Prop37
 90
       50
102
RTVSPost2010PropOp37
 70
     1
102
RTVSPost2010Prop38
140
0.0
102
RTVSPost2010PropOp38
 70
     1
102
RTVSPost2010Prop39
140
1.0
102
RTVSPost2010PropOp39
 70
     1
102
RTVSPost2010Prop40
 90
        0
102
RTVSPost2010PropOp40
 70
     1
102
RTVSPost2010Prop41ColorIndex
 90
       18
102
RTVSPost2010Prop41ColorRGB
 90
        0
102
RTVSPost2010PropOp41
 70
     1
102
RTVSPost2010Prop42
 90
       50
102
RTVSPost2010PropOp42
 70
     1
102
RTVSPost2010Prop43
 90
        3
102
RTVSPost2010PropOp43
 70
     1
102
RTVSPost2010Prop44ColorIndex
 90
        5
102
RTVSPost2010Prop44ColorRGB
 90
      255
102
RTVSPost2010PropOp44
 70
     1
102
RTVSPost2010Prop45
280
     0
102
RTVSPost2010PropOp45
 70
     1
102
RTVSPost2010Prop46
 90
       50
102
RTVSPost2010PropOp46
 70
     1
102
RTVSPost2010Prop47
 90
       50
102
RTVSPost2010PropOp47
 70
     1
102
RTVSPost2010Prop48
 90
       50
102
RTVSPost2010PropOp48
 70
     1
102
RTVSPost2010Prop49
280
     0
102
RTVSPost2010PropOp49
 70
     1
102
RTVSPost2010Prop50
 90
       50
102
RTVSPost2010PropOp50
 70
     1
102
RTVSPost2010Prop51ColorIndex
 90
      256
102
RTVSPost2010Prop51ColorRGB
 90
-16777216
102
RTVSPost2010PropOp51
 70
     0
102
RTVSPost2010Prop52
140
1.0
102
RTVSPost2010PropOp52
 70
     0
102
RTVSPost2010Prop53
 90
        2
102
RTVSPost2010PropOp53
 70
     1
102
RTVSPost2010Prop54
  1
strokes_ogs.tif
102
RTVSPost2010PropOp54
 70
     1
102
RTVSPost2010Prop55
280
     0
102
RTVSPost2010PropOp55
 70
     1
102
RTVSPost2010Prop56
140
1.0
102
RTVSPost2010PropOp56
 70
     1
102
RTVSPost2010Prop57
140
1.0
102
RTVSPost2010PropOp57
 70
     1
102
RTVSPropertyOp0
 70
     1
102
RTVSPropertyOp1
 70
     1
102
RTVSPropertyOp2
 70
     1
102
RTVSPropertyOp3
 70
     1
102
RTVSPropertyOp4
 70
     1
102
RTVSPropertyOp5
 70
     1
102
RTVSPropertyOp6
 70
     1
102
RTVSPropertyOp7
 70
     1
102
RTVSPropertyOp8
 70
     1
102
RTVSPropertyOp9
 70
     1
102
RTVSPropertyOp10
 70
     1
102
RTVSPropertyOp11
 70
     1
102
RTVSPropertyOp12
 70
     1
102
RTVSPropertyOp13
 70
     1
102
RTVSPropertyOp14
 70
     1
102
RTVSPropertyOp15
 70
     1
102
RTVSPropertyOp16
 70
     1
102
RTVSPropertyOp17
 70
     1
102
RTVSPropertyOp18
 70
     1
102
RTVSPropertyOp19
 70
     1
102
RTVSPropertyOp20
 70
     1
102
RTVSPropertyOp21
 70
     1
102
RTVSPropertyOp22
 70
     1
102
RTVSPropertyOp23
 70
     1
102
RTVSPropertyOp24
 70
     1
102
RTVSPropertyOp25
 70
     1
102
RTVSPropertyOp26
 70
     1
102
RTVSPropertyOp27
 70
     1
102
RTVSPropertyOp28
 70
     1
102
RTVSPropertyOp29
 70
     1
102
RTVSPropertyOp30
 70
     1
102
RTVSPropertyOp31
 70
     1
102
RTVSPropertyOp32
 70
     1
102
RTVSPropertyOp33
 70
     1
102
RTVSPropertyOp34
 70
     1
102
RTVSPropertyOp35
 70
     1
102
RTVSPropertyOp36
 70
     1
102
RTVSPropertyOp37
 70
     1
102
RTVSPropertyOp38
 70
     1
102
RTVSPropertyOp39
 70
     1
102
RTVSPropertyOp40
 70
     1
102
RTVSPropertyOp41
 70
     1
102
RTVSPropertyOp42
 70
     1
102
RTVSPropertyOp43
 70
     1
102
RTVSPropertyOp44
 70
     1
102
RTVSPropertyOp45
 70
     1
102
RTVSPropertyOp46
 70
     1
102
RTVSPropertyOp47
 70
     1
102
RTVSPropertyOp48
 70
     1
102
RTVSPropertyOp49
 70
     1
102
RTVSPropertyOp50
 70
     1
102
RTVSPropertyOp51
 70
     0
102
RTVSPropertyOp52
 70
     0
102
RTVSPropertyOp53
 70
     1
102
RTVSPropertyOp54
 70
     1
102
RTVSPropertyOp55
 70
     1
102
RTVSPropertyOp56
 70
     1
102
RTVSPropertyOp57
 70
     1
102
RTVSPropertyOp58
 70
     1
102
RTVSPropertyOp59
 70
     1
102
RTVSPropertyOp60
 70
     1
102
RTVSPropertyOp61
 70
     1
102
RTVSPropertyOp62
 70
     1
  0
XRECORD
  5
9668
102
{ACAD_REACTORS
330
9667
102
}
330
9667
100
AcDbXrecord
280
     1
102
RTVSPost2010Prop28
280
     0
102
RTVSPost2010PropOp28
 70
     1
102
RTVSPost2010Prop29
280
     1
102
RTVSPost2010PropOp29
 70
     1
102
RTVSPost2010Prop30
280
     1
102
RTVSPost2010PropOp30
 70
     1
102
RTVSPost2010Prop31
280
     0
102
RTVSPost2010PropOp31
 70
     1
102
RTVSPost2010Prop32
280
     0
102
RTVSPost2010PropOp32
 70
     1
102
RTVSPost2010Prop33
280
     0
102
RTVSPost2010PropOp33
 70
     1
102
RTVSPost2010Prop34
280
     0
102
RTVSPost2010PropOp34
 70
     1
102
RTVSPost2010Prop35
280
     0
102
RTVSPost2010PropOp35
 70
     1
102
RTVSPost2010Prop36
280
     0
102
RTVSPost2010PropOp36
 70
     1
102
RTVSPost2010Prop37
 90
       50
102
RTVSPost2010PropOp37
 70
     0
102
RTVSPost2010Prop38
140
0.0
102
RTVSPost2010PropOp38
 70
     0
102
RTVSPost2010Prop39
140
1.0
102
RTVSPost2010PropOp39
 70
     0
102
RTVSPost2010Prop40
 90
        0
102
RTVSPost2010PropOp40
 70
     0
102
RTVSPost2010Prop41ColorIndex
 90
       18
102
RTVSPost2010Prop41ColorRGB
 90
        0
102
RTVSPost2010PropOp41
 70
     0
102
RTVSPost2010Prop42
 90
       50
102
RTVSPost2010PropOp42
 70
     0
102
RTVSPost2010Prop43
 90
        3
102
RTVSPost2010PropOp43
 70
     0
102
RTVSPost2010Prop44ColorIndex
 90
        5
102
RTVSPost2010Prop44ColorRGB
 90
      255
102
RTVSPost2010PropOp44
 70
     0
102
RTVSPost2010Prop45
280
     0
102
RTVSPost2010PropOp45
 70
     1
102
RTVSPost2010Prop46
 90
       50
102
RTVSPost2010PropOp46
 70
     0
102
RTVSPost2010Prop47
 90
       50
102
RTVSPost2010PropOp47
 70
     0
102
RTVSPost2010Prop48
 90
       50
102
RTVSPost2010PropOp48
 70
     0
102
RTVSPost2010Prop49
280
     0
102
RTVSPost2010PropOp49
 70
     1
102
RTVSPost2010Prop50
 90
       50
102
RTVSPost2010PropOp50
 70
     0
102
RTVSPost2010Prop51ColorIndex
 90
      256
102
RTVSPost2010Prop51ColorRGB
 90
-16777216
102
RTVSPost2010PropOp51
 70
     0
102
RTVSPost2010Prop52
140
1.0
102
RTVSPost2010PropOp52
 70
     0
102
RTVSPost2010Prop53
 90
        2
102
RTVSPost2010PropOp53
 70
     0
102
RTVSPost2010Prop54
  1
strokes_ogs.tif
102
RTVSPost2010PropOp54
 70
     0
102
RTVSPost2010Prop55
280
     0
102
RTVSPost2010PropOp55
 70
     1
102
RTVSPost2010Prop56
140
1.0
102
RTVSPost2010PropOp56
 70
     0
102
RTVSPost2010Prop57
140
1.0
102
RTVSPost2010PropOp57
 70
     0
102
RTVSPropertyOp0
 70
     0
102
RTVSPropertyOp1
 70
     0
102
RTVSPropertyOp2
 70
     0
102
RTVSPropertyOp3
 70
     0
102
RTVSPropertyOp4
 70
     0
102
RTVSPropertyOp5
 70
     0
102
RTVSPropertyOp6
 70
     0
102
RTVSPropertyOp7
 70
     0
102
RTVSPropertyOp8
 70
     0
102
RTVSPropertyOp9
 70
     0
102
RTVSPropertyOp10
 70
     0
102
RTVSPropertyOp11
 70
     0
102
RTVSPropertyOp12
 70
     0
102
RTVSPropertyOp13
 70
     0
102
RTVSPropertyOp14
 70
     2
102
RTVSPropertyOp15
 70
     0
102
RTVSPropertyOp16
 70
     0
102
RTVSPropertyOp17
 70
     0
102
RTVSPropertyOp18
 70
     0
102
RTVSPropertyOp19
 70
     0
102
RTVSPropertyOp20
 70
     0
102
RTVSPropertyOp21
 70
     0
102
RTVSPropertyOp22
 70
     0
102
RTVSPropertyOp23
 70
     0
102
RTVSPropertyOp24
 70
     0
102
RTVSPropertyOp25
 70
     0
102
RTVSPropertyOp26
 70
     0
102
RTVSPropertyOp27
 70
     0
102
RTVSPropertyOp28
 70
     1
102
RTVSPropertyOp29
 70
     1
102
RTVSPropertyOp30
 70
     1
102
RTVSPropertyOp31
 70
     1
102
RTVSPropertyOp32
 70
     1
102
RTVSPropertyOp33
 70
     1
102
RTVSPropertyOp34
 70
     1
102
RTVSPropertyOp35
 70
     1
102
RTVSPropertyOp36
 70
     1
102
RTVSPropertyOp37
 70
     0
102
RTVSPropertyOp38
 70
     0
102
RTVSPropertyOp39
 70
     0
102
RTVSPropertyOp40
 70
     0
102
RTVSPropertyOp41
 70
     0
102
RTVSPropertyOp42
 70
     0
102
RTVSPropertyOp43
 70
     0
102
RTVSPropertyOp44
 70
     0
102
RTVSPropertyOp45
 70
     1
102
RTVSPropertyOp46
 70
     0
102
RTVSPropertyOp47
 70
     0
102
RTVSPropertyOp48
 70
     0
102
RTVSPropertyOp49
 70
     1
102
RTVSPropertyOp50
 70
     0
102
RTVSPropertyOp51
 70
     0
102
RTVSPropertyOp52
 70
     0
102
RTVSPropertyOp53
 70
     0
102
RTVSPropertyOp54
 70
     0
102
RTVSPropertyOp55
 70
     1
102
RTVSPropertyOp56
 70
     0
102
RTVSPropertyOp57
 70
     0
102
RTVSPropertyOp58
 70
     0
102
RTVSPropertyOp59
 70
     0
102
RTVSPropertyOp60
 70
     0
102
RTVSPropertyOp61
 70
     0
102
RTVSPropertyOp62
 70
     0
  0
XRECORD
  5
9658
102
{ACAD_REACTORS
330
9657
102
}
330
9657
100
AcDbXrecord
280
     1
102
RTVSPost2010Prop28
280
     0
102
RTVSPost2010PropOp28
 70
     1
102
RTVSPost2010Prop29
280
     1
102
RTVSPost2010PropOp29
 70
     1
102
RTVSPost2010Prop30
280
     1
102
RTVSPost2010PropOp30
 70
     1
102
RTVSPost2010Prop31
280
     0
102
RTVSPost2010PropOp31
 70
     1
102
RTVSPost2010Prop32
280
     0
102
RTVSPost2010PropOp32
 70
     1
102
RTVSPost2010Prop33
280
     0
102
RTVSPost2010PropOp33
 70
     1
102
RTVSPost2010Prop34
280
     0
102
RTVSPost2010PropOp34
 70
     1
102
RTVSPost2010Prop35
280
     0
102
RTVSPost2010PropOp35
 70
     1
102
RTVSPost2010Prop36
280
     0
102
RTVSPost2010PropOp36
 70
     1
102
RTVSPost2010Prop37
 90
       50
102
RTVSPost2010PropOp37
 70
     1
102
RTVSPost2010Prop38
140
0.0
102
RTVSPost2010PropOp38
 70
     1
102
RTVSPost2010Prop39
140
1.0
102
RTVSPost2010PropOp39
 70
     1
102
RTVSPost2010Prop40
 90
        0
102
RTVSPost2010PropOp40
 70
     1
102
RTVSPost2010Prop41ColorIndex
 90
       18
102
RTVSPost2010Prop41ColorRGB
 90
        0
102
RTVSPost2010PropOp41
 70
     1
102
RTVSPost2010Prop42
 90
       50
102
RTVSPost2010PropOp42
 70
     1
102
RTVSPost2010Prop43
 90
        3
102
RTVSPost2010PropOp43
 70
     1
102
RTVSPost2010Prop44ColorIndex
 90
        5
102
RTVSPost2010Prop44ColorRGB
 90
      255
102
RTVSPost2010PropOp44
 70
     1
102
RTVSPost2010Prop45
280
     0
102
RTVSPost2010PropOp45
 70
     1
102
RTVSPost2010Prop46
 90
       50
102
RTVSPost2010PropOp46
 70
     1
102
RTVSPost2010Prop47
 90
       50
102
RTVSPost2010PropOp47
 70
     1
102
RTVSPost2010Prop48
 90
       50
102
RTVSPost2010PropOp48
 70
     1
102
RTVSPost2010Prop49
280
     0
102
RTVSPost2010PropOp49
 70
     1
102
RTVSPost2010Prop50
 90
       50
102
RTVSPost2010PropOp50
 70
     1
102
RTVSPost2010Prop51ColorIndex
 90
      256
102
RTVSPost2010Prop51ColorRGB
 90
-16777216
102
RTVSPost2010PropOp51
 70
     0
102
RTVSPost2010Prop52
140
1.0
102
RTVSPost2010PropOp52
 70
     0
102
RTVSPost2010Prop53
 90
        2
102
RTVSPost2010PropOp53
 70
     1
102
RTVSPost2010Prop54
  1
strokes_ogs.tif
102
RTVSPost2010PropOp54
 70
     1
102
RTVSPost2010Prop55
280
     0
102
RTVSPost2010PropOp55
 70
     1
102
RTVSPost2010Prop56
140
1.0
102
RTVSPost2010PropOp56
 70
     1
102
RTVSPost2010Prop57
140
1.0
102
RTVSPost2010PropOp57
 70
     1
102
RTVSPropertyOp0
 70
     1
102
RTVSPropertyOp1
 70
     1
102
RTVSPropertyOp2
 70
     1
102
RTVSPropertyOp3
 70
     1
102
RTVSPropertyOp4
 70
     1
102
RTVSPropertyOp5
 70
     1
102
RTVSPropertyOp6
 70
     1
102
RTVSPropertyOp7
 70
     1
102
RTVSPropertyOp8
 70
     1
102
RTVSPropertyOp9
 70
     1
102
RTVSPropertyOp10
 70
     1
102
RTVSPropertyOp11
 70
     1
102
RTVSPropertyOp12
 70
     1
102
RTVSPropertyOp13
 70
     1
102
RTVSPropertyOp14
 70
     1
102
RTVSPropertyOp15
 70
     1
102
RTVSPropertyOp16
 70
     1
102
RTVSPropertyOp17
 70
     1
102
RTVSPropertyOp18
 70
     1
102
RTVSPropertyOp19
 70
     1
102
RTVSPropertyOp20
 70
     1
102
RTVSPropertyOp21
 70
     1
102
RTVSPropertyOp22
 70
     1
102
RTVSPropertyOp23
 70
     1
102
RTVSPropertyOp24
 70
     1
102
RTVSPropertyOp25
 70
     1
102
RTVSPropertyOp26
 70
     1
102
RTVSPropertyOp27
 70
     1
102
RTVSPropertyOp28
 70
     1
102
RTVSPropertyOp29
 70
     1
102
RTVSPropertyOp30
 70
     1
102
RTVSPropertyOp31
 70
     1
102
RTVSPropertyOp32
 70
     1
102
RTVSPropertyOp33
 70
     1
102
RTVSPropertyOp34
 70
     1
102
RTVSPropertyOp35
 70
     1
102
RTVSPropertyOp36
 70
     1
102
RTVSPropertyOp37
 70
     1
102
RTVSPropertyOp38
 70
     1
102
RTVSPropertyOp39
 70
     1
102
RTVSPropertyOp40
 70
     1
102
RTVSPropertyOp41
 70
     1
102
RTVSPropertyOp42
 70
     1
102
RTVSPropertyOp43
 70
     1
102
RTVSPropertyOp44
 70
     1
102
RTVSPropertyOp45
 70
     1
102
RTVSPropertyOp46
 70
     1
102
RTVSPropertyOp47
 70
     1
102
RTVSPropertyOp48
 70
     1
102
RTVSPropertyOp49
 70
     1
102
RTVSPropertyOp50
 70
     1
102
RTVSPropertyOp51
 70
     0
102
RTVSPropertyOp52
 70
     0
102
RTVSPropertyOp53
 70
     1
102
RTVSPropertyOp54
 70
     1
102
RTVSPropertyOp55
 70
     1
102
RTVSPropertyOp56
 70
     1
102
RTVSPropertyOp57
 70
     1
102
RTVSPropertyOp58
 70
     1
102
RTVSPropertyOp59
 70
     1
102
RTVSPropertyOp60
 70
     1
102
RTVSPropertyOp61
 70
     1
102
RTVSPropertyOp62
 70
     1
  0
XRECORD
  5
966A
102
{ACAD_REACTORS
330
9669
102
}
330
9669
100
AcDbXrecord
280
     1
102
RTVSPost2010Prop28
280
     0
102
RTVSPost2010PropOp28
 70
     1
102
RTVSPost2010Prop29
280
     1
102
RTVSPost2010PropOp29
 70
     1
102
RTVSPost2010Prop30
280
     1
102
RTVSPost2010PropOp30
 70
     1
102
RTVSPost2010Prop31
280
     0
102
RTVSPost2010PropOp31
 70
     1
102
RTVSPost2010Prop32
280
     0
102
RTVSPost2010PropOp32
 70
     1
102
RTVSPost2010Prop33
280
     0
102
RTVSPost2010PropOp33
 70
     1
102
RTVSPost2010Prop34
280
     0
102
RTVSPost2010PropOp34
 70
     1
102
RTVSPost2010Prop35
280
     0
102
RTVSPost2010PropOp35
 70
     1
102
RTVSPost2010Prop36
280
     0
102
RTVSPost2010PropOp36
 70
     1
102
RTVSPost2010Prop37
 90
       50
102
RTVSPost2010PropOp37
 70
     0
102
RTVSPost2010Prop38
140
0.0
102
RTVSPost2010PropOp38
 70
     0
102
RTVSPost2010Prop39
140
1.0
102
RTVSPost2010PropOp39
 70
     0
102
RTVSPost2010Prop40
 90
        0
102
RTVSPost2010PropOp40
 70
     0
102
RTVSPost2010Prop41ColorIndex
 90
       18
102
RTVSPost2010Prop41ColorRGB
 90
        0
102
RTVSPost2010PropOp41
 70
     0
102
RTVSPost2010Prop42
 90
       50
102
RTVSPost2010PropOp42
 70
     0
102
RTVSPost2010Prop43
 90
        3
102
RTVSPost2010PropOp43
 70
     0
102
RTVSPost2010Prop44ColorIndex
 90
        5
102
RTVSPost2010Prop44ColorRGB
 90
      255
102
RTVSPost2010PropOp44
 70
     0
102
RTVSPost2010Prop45
280
     0
102
RTVSPost2010PropOp45
 70
     1
102
RTVSPost2010Prop46
 90
       50
102
RTVSPost2010PropOp46
 70
     0
102
RTVSPost2010Prop47
 90
       50
102
RTVSPost2010PropOp47
 70
     0
102
RTVSPost2010Prop48
 90
       50
102
RTVSPost2010PropOp48
 70
     0
102
RTVSPost2010Prop49
280
     0
102
RTVSPost2010PropOp49
 70
     1
102
RTVSPost2010Prop50
 90
       50
102
RTVSPost2010PropOp50
 70
     0
102
RTVSPost2010Prop51ColorIndex
 90
      256
102
RTVSPost2010Prop51ColorRGB
 90
-16777216
102
RTVSPost2010PropOp51
 70
     0
102
RTVSPost2010Prop52
140
1.0
102
RTVSPost2010PropOp52
 70
     0
102
RTVSPost2010Prop53
 90
        2
102
RTVSPost2010PropOp53
 70
     0
102
RTVSPost2010Prop54
  1
strokes_ogs.tif
102
RTVSPost2010PropOp54
 70
     0
102
RTVSPost2010Prop55
280
     0
102
RTVSPost2010PropOp55
 70
     1
102
RTVSPost2010Prop56
140
1.0
102
RTVSPost2010PropOp56
 70
     0
102
RTVSPost2010Prop57
140
1.0
102
RTVSPost2010PropOp57
 70
     0
102
RTVSPropertyOp0
 70
     0
102
RTVSPropertyOp1
 70
     0
102
RTVSPropertyOp2
 70
     0
102
RTVSPropertyOp3
 70
     0
102
RTVSPropertyOp4
 70
     0
102
RTVSPropertyOp5
 70
     0
102
RTVSPropertyOp6
 70
     0
102
RTVSPropertyOp7
 70
     0
102
RTVSPropertyOp8
 70
     0
102
RTVSPropertyOp9
 70
     0
102
RTVSPropertyOp10
 70
     0
102
RTVSPropertyOp11
 70
     0
102
RTVSPropertyOp12
 70
     0
102
RTVSPropertyOp13
 70
     0
102
RTVSPropertyOp14
 70
     2
102
RTVSPropertyOp15
 70
     0
102
RTVSPropertyOp16
 70
     0
102
RTVSPropertyOp17
 70
     0
102
RTVSPropertyOp18
 70
     0
102
RTVSPropertyOp19
 70
     0
102
RTVSPropertyOp20
 70
     0
102
RTVSPropertyOp21
 70
     0
102
RTVSPropertyOp22
 70
     0
102
RTVSPropertyOp23
 70
     0
102
RTVSPropertyOp24
 70
     0
102
RTVSPropertyOp25
 70
     0
102
RTVSPropertyOp26
 70
     0
102
RTVSPropertyOp27
 70
     0
102
RTVSPropertyOp28
 70
     1
102
RTVSPropertyOp29
 70
     1
102
RTVSPropertyOp30
 70
     1
102
RTVSPropertyOp31
 70
     1
102
RTVSPropertyOp32
 70
     1
102
RTVSPropertyOp33
 70
     1
102
RTVSPropertyOp34
 70
     1
102
RTVSPropertyOp35
 70
     1
102
RTVSPropertyOp36
 70
     1
102
RTVSPropertyOp37
 70
     0
102
RTVSPropertyOp38
 70
     0
102
RTVSPropertyOp39
 70
     0
102
RTVSPropertyOp40
 70
     0
102
RTVSPropertyOp41
 70
     0
102
RTVSPropertyOp42
 70
     0
102
RTVSPropertyOp43
 70
     0
102
RTVSPropertyOp44
 70
     0
102
RTVSPropertyOp45
 70
     1
102
RTVSPropertyOp46
 70
     0
102
RTVSPropertyOp47
 70
     0
102
RTVSPropertyOp48
 70
     0
102
RTVSPropertyOp49
 70
     1
102
RTVSPropertyOp50
 70
     0
102
RTVSPropertyOp51
 70
     0
102
RTVSPropertyOp52
 70
     0
102
RTVSPropertyOp53
 70
     0
102
RTVSPropertyOp54
 70
     0
102
RTVSPropertyOp55
 70
     1
102
RTVSPropertyOp56
 70
     0
102
RTVSPropertyOp57
 70
     0
102
RTVSPropertyOp58
 70
     0
102
RTVSPropertyOp59
 70
     0
102
RTVSPropertyOp60
 70
     0
102
RTVSPropertyOp61
 70
     0
102
RTVSPropertyOp62
 70
     0
  0
XRECORD
  5
9650
102
{ACAD_REACTORS
330
964F
102
}
330
964F
100
AcDbXrecord
280
     1
102
RTVSPost2010Prop28
280
     0
102
RTVSPost2010PropOp28
 70
     1
102
RTVSPost2010Prop29
280
     1
102
RTVSPost2010PropOp29
 70
     1
102
RTVSPost2010Prop30
280
     1
102
RTVSPost2010PropOp30
 70
     1
102
RTVSPost2010Prop31
280
     0
102
RTVSPost2010PropOp31
 70
     1
102
RTVSPost2010Prop32
280
     0
102
RTVSPost2010PropOp32
 70
     1
102
RTVSPost2010Prop33
280
     0
102
RTVSPost2010PropOp33
 70
     1
102
RTVSPost2010Prop34
280
     0
102
RTVSPost2010PropOp34
 70
     1
102
RTVSPost2010Prop35
280
     0
102
RTVSPost2010PropOp35
 70
     1
102
RTVSPost2010Prop36
280
     0
102
RTVSPost2010PropOp36
 70
     1
102
RTVSPost2010Prop37
 90
       50
102
RTVSPost2010PropOp37
 70
     1
102
RTVSPost2010Prop38
140
0.0
102
RTVSPost2010PropOp38
 70
     1
102
RTVSPost2010Prop39
140
1.0
102
RTVSPost2010PropOp39
 70
     1
102
RTVSPost2010Prop40
 90
        0
102
RTVSPost2010PropOp40
 70
     1
102
RTVSPost2010Prop41ColorIndex
 90
       18
102
RTVSPost2010Prop41ColorRGB
 90
        0
102
RTVSPost2010PropOp41
 70
     1
102
RTVSPost2010Prop42
 90
       50
102
RTVSPost2010PropOp42
 70
     1
102
RTVSPost2010Prop43
 90
        3
102
RTVSPost2010PropOp43
 70
     1
102
RTVSPost2010Prop44ColorIndex
 90
        5
102
RTVSPost2010Prop44ColorRGB
 90
      255
102
RTVSPost2010PropOp44
 70
     1
102
RTVSPost2010Prop45
280
     0
102
RTVSPost2010PropOp45
 70
     1
102
RTVSPost2010Prop46
 90
       50
102
RTVSPost2010PropOp46
 70
     1
102
RTVSPost2010Prop47
 90
       50
102
RTVSPost2010PropOp47
 70
     1
102
RTVSPost2010Prop48
 90
       50
102
RTVSPost2010PropOp48
 70
     1
102
RTVSPost2010Prop49
280
     0
102
RTVSPost2010PropOp49
 70
     1
102
RTVSPost2010Prop50
 90
       50
102
RTVSPost2010PropOp50
 70
     1
102
RTVSPost2010Prop51ColorIndex
 90
      256
102
RTVSPost2010Prop51ColorRGB
 90
-16777216
102
RTVSPost2010PropOp51
 70
     0
102
RTVSPost2010Prop52
140
1.0
102
RTVSPost2010PropOp52
 70
     0
102
RTVSPost2010Prop53
 90
        2
102
RTVSPost2010PropOp53
 70
     1
102
RTVSPost2010Prop54
  1
strokes_ogs.tif
102
RTVSPost2010PropOp54
 70
     1
102
RTVSPost2010Prop55
280
     0
102
RTVSPost2010PropOp55
 70
     1
102
RTVSPost2010Prop56
140
1.0
102
RTVSPost2010PropOp56
 70
     1
102
RTVSPost2010Prop57
140
1.0
102
RTVSPost2010PropOp57
 70
     1
102
RTVSPropertyOp0
 70
     1
102
RTVSPropertyOp1
 70
     1
102
RTVSPropertyOp2
 70
     1
102
RTVSPropertyOp3
 70
     1
102
RTVSPropertyOp4
 70
     1
102
RTVSPropertyOp5
 70
     1
102
RTVSPropertyOp6
 70
     1
102
RTVSPropertyOp7
 70
     1
102
RTVSPropertyOp8
 70
     1
102
RTVSPropertyOp9
 70
     1
102
RTVSPropertyOp10
 70
     1
102
RTVSPropertyOp11
 70
     1
102
RTVSPropertyOp12
 70
     1
102
RTVSPropertyOp13
 70
     1
102
RTVSPropertyOp14
 70
     1
102
RTVSPropertyOp15
 70
     1
102
RTVSPropertyOp16
 70
     1
102
RTVSPropertyOp17
 70
     1
102
RTVSPropertyOp18
 70
     1
102
RTVSPropertyOp19
 70
     1
102
RTVSPropertyOp20
 70
     1
102
RTVSPropertyOp21
 70
     1
102
RTVSPropertyOp22
 70
     1
102
RTVSPropertyOp23
 70
     1
102
RTVSPropertyOp24
 70
     1
102
RTVSPropertyOp25
 70
     1
102
RTVSPropertyOp26
 70
     1
102
RTVSPropertyOp27
 70
     1
102
RTVSPropertyOp28
 70
     1
102
RTVSPropertyOp29
 70
     1
102
RTVSPropertyOp30
 70
     1
102
RTVSPropertyOp31
 70
     1
102
RTVSPropertyOp32
 70
     1
102
RTVSPropertyOp33
 70
     1
102
RTVSPropertyOp34
 70
     1
102
RTVSPropertyOp35
 70
     1
102
RTVSPropertyOp36
 70
     1
102
RTVSPropertyOp37
 70
     1
102
RTVSPropertyOp38
 70
     1
102
RTVSPropertyOp39
 70
     1
102
RTVSPropertyOp40
 70
     1
102
RTVSPropertyOp41
 70
     1
102
RTVSPropertyOp42
 70
     1
102
RTVSPropertyOp43
 70
     1
102
RTVSPropertyOp44
 70
     1
102
RTVSPropertyOp45
 70
     1
102
RTVSPropertyOp46
 70
     1
102
RTVSPropertyOp47
 70
     1
102
RTVSPropertyOp48
 70
     1
102
RTVSPropertyOp49
 70
     1
102
RTVSPropertyOp50
 70
     1
102
RTVSPropertyOp51
 70
     0
102
RTVSPropertyOp52
 70
     0
102
RTVSPropertyOp53
 70
     1
102
RTVSPropertyOp54
 70
     1
102
RTVSPropertyOp55
 70
     1
102
RTVSPropertyOp56
 70
     1
102
RTVSPropertyOp57
 70
     1
102
RTVSPropertyOp58
 70
     1
102
RTVSPropertyOp59
 70
     1
102
RTVSPropertyOp60
 70
     1
102
RTVSPropertyOp61
 70
     1
102
RTVSPropertyOp62
 70
     1
  0
XRECORD
  5
9666
102
{ACAD_REACTORS
330
9665
102
}
330
9665
100
AcDbXrecord
280
     1
102
RTVSPost2010Prop28
280
     0
102
RTVSPost2010PropOp28
 70
     1
102
RTVSPost2010Prop29
280
     1
102
RTVSPost2010PropOp29
 70
     1
102
RTVSPost2010Prop30
280
     1
102
RTVSPost2010PropOp30
 70
     1
102
RTVSPost2010Prop31
280
     0
102
RTVSPost2010PropOp31
 70
     1
102
RTVSPost2010Prop32
280
     0
102
RTVSPost2010PropOp32
 70
     1
102
RTVSPost2010Prop33
280
     0
102
RTVSPost2010PropOp33
 70
     1
102
RTVSPost2010Prop34
280
     0
102
RTVSPost2010PropOp34
 70
     1
102
RTVSPost2010Prop35
280
     0
102
RTVSPost2010PropOp35
 70
     1
102
RTVSPost2010Prop36
280
     0
102
RTVSPost2010PropOp36
 70
     1
102
RTVSPost2010Prop37
 90
       50
102
RTVSPost2010PropOp37
 70
     1
102
RTVSPost2010Prop38
140
0.0
102
RTVSPost2010PropOp38
 70
     1
102
RTVSPost2010Prop39
140
1.0
102
RTVSPost2010PropOp39
 70
     1
102
RTVSPost2010Prop40
 90
        0
102
RTVSPost2010PropOp40
 70
     1
102
RTVSPost2010Prop41ColorIndex
 90
       18
102
RTVSPost2010Prop41ColorRGB
 90
        0
102
RTVSPost2010PropOp41
 70
     1
102
RTVSPost2010Prop42
 90
       50
102
RTVSPost2010PropOp42
 70
     1
102
RTVSPost2010Prop43
 90
        3
102
RTVSPost2010PropOp43
 70
     1
102
RTVSPost2010Prop44ColorIndex
 90
        5
102
RTVSPost2010Prop44ColorRGB
 90
      255
102
RTVSPost2010PropOp44
 70
     1
102
RTVSPost2010Prop45
280
     0
102
RTVSPost2010PropOp45
 70
     1
102
RTVSPost2010Prop46
 90
       50
102
RTVSPost2010PropOp46
 70
     1
102
RTVSPost2010Prop47
 90
       50
102
RTVSPost2010PropOp47
 70
     1
102
RTVSPost2010Prop48
 90
       50
102
RTVSPost2010PropOp48
 70
     1
102
RTVSPost2010Prop49
280
     0
102
RTVSPost2010PropOp49
 70
     1
102
RTVSPost2010Prop50
 90
       50
102
RTVSPost2010PropOp50
 70
     1
102
RTVSPost2010Prop51ColorIndex
 90
      256
102
RTVSPost2010Prop51ColorRGB
 90
-16777216
102
RTVSPost2010PropOp51
 70
     0
102
RTVSPost2010Prop52
140
1.0
102
RTVSPost2010PropOp52
 70
     0
102
RTVSPost2010Prop53
 90
        2
102
RTVSPost2010PropOp53
 70
     1
102
RTVSPost2010Prop54
  1
strokes_ogs.tif
102
RTVSPost2010PropOp54
 70
     1
102
RTVSPost2010Prop55
280
     0
102
RTVSPost2010PropOp55
 70
     1
102
RTVSPost2010Prop56
140
1.0
102
RTVSPost2010PropOp56
 70
     1
102
RTVSPost2010Prop57
140
1.0
102
RTVSPost2010PropOp57
 70
     1
102
RTVSPropertyOp0
 70
     1
102
RTVSPropertyOp1
 70
     1
102
RTVSPropertyOp2
 70
     1
102
RTVSPropertyOp3
 70
     1
102
RTVSPropertyOp4
 70
     1
102
RTVSPropertyOp5
 70
     1
102
RTVSPropertyOp6
 70
     1
102
RTVSPropertyOp7
 70
     1
102
RTVSPropertyOp8
 70
     1
102
RTVSPropertyOp9
 70
     1
102
RTVSPropertyOp10
 70
     1
102
RTVSPropertyOp11
 70
     1
102
RTVSPropertyOp12
 70
     1
102
RTVSPropertyOp13
 70
     1
102
RTVSPropertyOp14
 70
     1
102
RTVSPropertyOp15
 70
     1
102
RTVSPropertyOp16
 70
     1
102
RTVSPropertyOp17
 70
     1
102
RTVSPropertyOp18
 70
     1
102
RTVSPropertyOp19
 70
     1
102
RTVSPropertyOp20
 70
     1
102
RTVSPropertyOp21
 70
     1
102
RTVSPropertyOp22
 70
     1
102
RTVSPropertyOp23
 70
     1
102
RTVSPropertyOp24
 70
     1
102
RTVSPropertyOp25
 70
     1
102
RTVSPropertyOp26
 70
     1
102
RTVSPropertyOp27
 70
     1
102
RTVSPropertyOp28
 70
     1
102
RTVSPropertyOp29
 70
     1
102
RTVSPropertyOp30
 70
     1
102
RTVSPropertyOp31
 70
     1
102
RTVSPropertyOp32
 70
     1
102
RTVSPropertyOp33
 70
     1
102
RTVSPropertyOp34
 70
     1
102
RTVSPropertyOp35
 70
     1
102
RTVSPropertyOp36
 70
     1
102
RTVSPropertyOp37
 70
     1
102
RTVSPropertyOp38
 70
     1
102
RTVSPropertyOp39
 70
     1
102
RTVSPropertyOp40
 70
     1
102
RTVSPropertyOp41
 70
     1
102
RTVSPropertyOp42
 70
     1
102
RTVSPropertyOp43
 70
     1
102
RTVSPropertyOp44
 70
     1
102
RTVSPropertyOp45
 70
     1
102
RTVSPropertyOp46
 70
     1
102
RTVSPropertyOp47
 70
     1
102
RTVSPropertyOp48
 70
     1
102
RTVSPropertyOp49
 70
     1
102
RTVSPropertyOp50
 70
     1
102
RTVSPropertyOp51
 70
     0
102
RTVSPropertyOp52
 70
     0
102
RTVSPropertyOp53
 70
     1
102
RTVSPropertyOp54
 70
     1
102
RTVSPropertyOp55
 70
     1
102
RTVSPropertyOp56
 70
     1
102
RTVSPropertyOp57
 70
     1
102
RTVSPropertyOp58
 70
     1
102
RTVSPropertyOp59
 70
     1
102
RTVSPropertyOp60
 70
     1
102
RTVSPropertyOp61
 70
     1
102
RTVSPropertyOp62
 70
     1
  0
XRECORD
  5
9664
102
{ACAD_REACTORS
330
9663
102
}
330
9663
100
AcDbXrecord
280
     1
102
RTVSPost2010Prop28
280
     0
102
RTVSPost2010PropOp28
 70
     1
102
RTVSPost2010Prop29
280
     1
102
RTVSPost2010PropOp29
 70
     1
102
RTVSPost2010Prop30
280
     1
102
RTVSPost2010PropOp30
 70
     1
102
RTVSPost2010Prop31
280
     0
102
RTVSPost2010PropOp31
 70
     1
102
RTVSPost2010Prop32
280
     0
102
RTVSPost2010PropOp32
 70
     1
102
RTVSPost2010Prop33
280
     0
102
RTVSPost2010PropOp33
 70
     1
102
RTVSPost2010Prop34
280
     0
102
RTVSPost2010PropOp34
 70
     1
102
RTVSPost2010Prop35
280
     0
102
RTVSPost2010PropOp35
 70
     1
102
RTVSPost2010Prop36
280
     0
102
RTVSPost2010PropOp36
 70
     1
102
RTVSPost2010Prop37
 90
       50
102
RTVSPost2010PropOp37
 70
     1
102
RTVSPost2010Prop38
140
0.0
102
RTVSPost2010PropOp38
 70
     1
102
RTVSPost2010Prop39
140
1.0
102
RTVSPost2010PropOp39
 70
     1
102
RTVSPost2010Prop40
 90
        0
102
RTVSPost2010PropOp40
 70
     1
102
RTVSPost2010Prop41ColorIndex
 90
       18
102
RTVSPost2010Prop41ColorRGB
 90
        0
102
RTVSPost2010PropOp41
 70
     1
102
RTVSPost2010Prop42
 90
       50
102
RTVSPost2010PropOp42
 70
     1
102
RTVSPost2010Prop43
 90
        3
102
RTVSPost2010PropOp43
 70
     1
102
RTVSPost2010Prop44ColorIndex
 90
        5
102
RTVSPost2010Prop44ColorRGB
 90
      255
102
RTVSPost2010PropOp44
 70
     1
102
RTVSPost2010Prop45
280
     0
102
RTVSPost2010PropOp45
 70
     1
102
RTVSPost2010Prop46
 90
       50
102
RTVSPost2010PropOp46
 70
     1
102
RTVSPost2010Prop47
 90
       50
102
RTVSPost2010PropOp47
 70
     1
102
RTVSPost2010Prop48
 90
       50
102
RTVSPost2010PropOp48
 70
     1
102
RTVSPost2010Prop49
280
     0
102
RTVSPost2010PropOp49
 70
     1
102
RTVSPost2010Prop50
 90
       50
102
RTVSPost2010PropOp50
 70
     1
102
RTVSPost2010Prop51ColorIndex
 90
      256
102
RTVSPost2010Prop51ColorRGB
 90
-16777216
102
RTVSPost2010PropOp51
 70
     0
102
RTVSPost2010Prop52
140
1.0
102
RTVSPost2010PropOp52
 70
     0
102
RTVSPost2010Prop53
 90
        2
102
RTVSPost2010PropOp53
 70
     1
102
RTVSPost2010Prop54
  1
strokes_ogs.tif
102
RTVSPost2010PropOp54
 70
     1
102
RTVSPost2010Prop55
280
     0
102
RTVSPost2010PropOp55
 70
     1
102
RTVSPost2010Prop56
140
1.0
102
RTVSPost2010PropOp56
 70
     1
102
RTVSPost2010Prop57
140
1.0
102
RTVSPost2010PropOp57
 70
     1
102
RTVSPropertyOp0
 70
     1
102
RTVSPropertyOp1
 70
     1
102
RTVSPropertyOp2
 70
     1
102
RTVSPropertyOp3
 70
     1
102
RTVSPropertyOp4
 70
     1
102
RTVSPropertyOp5
 70
     1
102
RTVSPropertyOp6
 70
     1
102
RTVSPropertyOp7
 70
     1
102
RTVSPropertyOp8
 70
     1
102
RTVSPropertyOp9
 70
     1
102
RTVSPropertyOp10
 70
     1
102
RTVSPropertyOp11
 70
     1
102
RTVSPropertyOp12
 70
     1
102
RTVSPropertyOp13
 70
     1
102
RTVSPropertyOp14
 70
     1
102
RTVSPropertyOp15
 70
     1
102
RTVSPropertyOp16
 70
     1
102
RTVSPropertyOp17
 70
     1
102
RTVSPropertyOp18
 70
     1
102
RTVSPropertyOp19
 70
     1
102
RTVSPropertyOp20
 70
     1
102
RTVSPropertyOp21
 70
     1
102
RTVSPropertyOp22
 70
     1
102
RTVSPropertyOp23
 70
     1
102
RTVSPropertyOp24
 70
     1
102
RTVSPropertyOp25
 70
     1
102
RTVSPropertyOp26
 70
     1
102
RTVSPropertyOp27
 70
     1
102
RTVSPropertyOp28
 70
     1
102
RTVSPropertyOp29
 70
     1
102
RTVSPropertyOp30
 70
     1
102
RTVSPropertyOp31
 70
     1
102
RTVSPropertyOp32
 70
     1
102
RTVSPropertyOp33
 70
     1
102
RTVSPropertyOp34
 70
     1
102
RTVSPropertyOp35
 70
     1
102
RTVSPropertyOp36
 70
     1
102
RTVSPropertyOp37
 70
     1
102
RTVSPropertyOp38
 70
     1
102
RTVSPropertyOp39
 70
     1
102
RTVSPropertyOp40
 70
     1
102
RTVSPropertyOp41
 70
     1
102
RTVSPropertyOp42
 70
     1
102
RTVSPropertyOp43
 70
     1
102
RTVSPropertyOp44
 70
     1
102
RTVSPropertyOp45
 70
     1
102
RTVSPropertyOp46
 70
     1
102
RTVSPropertyOp47
 70
     1
102
RTVSPropertyOp48
 70
     1
102
RTVSPropertyOp49
 70
     1
102
RTVSPropertyOp50
 70
     1
102
RTVSPropertyOp51
 70
     0
102
RTVSPropertyOp52
 70
     0
102
RTVSPropertyOp53
 70
     1
102
RTVSPropertyOp54
 70
     1
102
RTVSPropertyOp55
 70
     1
102
RTVSPropertyOp56
 70
     1
102
RTVSPropertyOp57
 70
     1
102
RTVSPropertyOp58
 70
     1
102
RTVSPropertyOp59
 70
     1
102
RTVSPropertyOp60
 70
     1
102
RTVSPropertyOp61
 70
     1
102
RTVSPropertyOp62
 70
     1
  0
XRECORD
  5
965E
102
{ACAD_REACTORS
330
965D
102
}
330
965D
100
AcDbXrecord
280
     1
102
RTVSPost2010Prop28
280
     0
102
RTVSPost2010PropOp28
 70
     1
102
RTVSPost2010Prop29
280
     1
102
RTVSPost2010PropOp29
 70
     1
102
RTVSPost2010Prop30
280
     1
102
RTVSPost2010PropOp30
 70
     1
102
RTVSPost2010Prop31
280
     0
102
RTVSPost2010PropOp31
 70
     1
102
RTVSPost2010Prop32
280
     0
102
RTVSPost2010PropOp32
 70
     1
102
RTVSPost2010Prop33
280
     0
102
RTVSPost2010PropOp33
 70
     1
102
RTVSPost2010Prop34
280
     0
102
RTVSPost2010PropOp34
 70
     1
102
RTVSPost2010Prop35
280
     0
102
RTVSPost2010PropOp35
 70
     1
102
RTVSPost2010Prop36
280
     0
102
RTVSPost2010PropOp36
 70
     1
102
RTVSPost2010Prop37
 90
       50
102
RTVSPost2010PropOp37
 70
     1
102
RTVSPost2010Prop38
140
0.0
102
RTVSPost2010PropOp38
 70
     1
102
RTVSPost2010Prop39
140
1.0
102
RTVSPost2010PropOp39
 70
     1
102
RTVSPost2010Prop40
 90
        0
102
RTVSPost2010PropOp40
 70
     1
102
RTVSPost2010Prop41ColorIndex
 90
       18
102
RTVSPost2010Prop41ColorRGB
 90
        0
102
RTVSPost2010PropOp41
 70
     1
102
RTVSPost2010Prop42
 90
       50
102
RTVSPost2010PropOp42
 70
     1
102
RTVSPost2010Prop43
 90
        3
102
RTVSPost2010PropOp43
 70
     1
102
RTVSPost2010Prop44ColorIndex
 90
        5
102
RTVSPost2010Prop44ColorRGB
 90
      255
102
RTVSPost2010PropOp44
 70
     1
102
RTVSPost2010Prop45
280
     0
102
RTVSPost2010PropOp45
 70
     1
102
RTVSPost2010Prop46
 90
       50
102
RTVSPost2010PropOp46
 70
     1
102
RTVSPost2010Prop47
 90
       50
102
RTVSPost2010PropOp47
 70
     1
102
RTVSPost2010Prop48
 90
       50
102
RTVSPost2010PropOp48
 70
     1
102
RTVSPost2010Prop49
280
     0
102
RTVSPost2010PropOp49
 70
     1
102
RTVSPost2010Prop50
 90
       50
102
RTVSPost2010PropOp50
 70
     1
102
RTVSPost2010Prop51ColorIndex
 90
      256
102
RTVSPost2010Prop51ColorRGB
 90
-16777216
102
RTVSPost2010PropOp51
 70
     0
102
RTVSPost2010Prop52
140
1.0
102
RTVSPost2010PropOp52
 70
     0
102
RTVSPost2010Prop53
 90
        2
102
RTVSPost2010PropOp53
 70
     1
102
RTVSPost2010Prop54
  1
strokes_ogs.tif
102
RTVSPost2010PropOp54
 70
     1
102
RTVSPost2010Prop55
280
     0
102
RTVSPost2010PropOp55
 70
     1
102
RTVSPost2010Prop56
140
1.0
102
RTVSPost2010PropOp56
 70
     1
102
RTVSPost2010Prop57
140
1.0
102
RTVSPost2010PropOp57
 70
     1
102
RTVSPropertyOp0
 70
     1
102
RTVSPropertyOp1
 70
     1
102
RTVSPropertyOp2
 70
     1
102
RTVSPropertyOp3
 70
     1
102
RTVSPropertyOp4
 70
     1
102
RTVSPropertyOp5
 70
     1
102
RTVSPropertyOp6
 70
     1
102
RTVSPropertyOp7
 70
     1
102
RTVSPropertyOp8
 70
     1
102
RTVSPropertyOp9
 70
     1
102
RTVSPropertyOp10
 70
     1
102
RTVSPropertyOp11
 70
     1
102
RTVSPropertyOp12
 70
     1
102
RTVSPropertyOp13
 70
     1
102
RTVSPropertyOp14
 70
     1
102
RTVSPropertyOp15
 70
     1
102
RTVSPropertyOp16
 70
     1
102
RTVSPropertyOp17
 70
     1
102
RTVSPropertyOp18
 70
     1
102
RTVSPropertyOp19
 70
     1
102
RTVSPropertyOp20
 70
     1
102
RTVSPropertyOp21
 70
     1
102
RTVSPropertyOp22
 70
     1
102
RTVSPropertyOp23
 70
     1
102
RTVSPropertyOp24
 70
     1
102
RTVSPropertyOp25
 70
     1
102
RTVSPropertyOp26
 70
     1
102
RTVSPropertyOp27
 70
     1
102
RTVSPropertyOp28
 70
     1
102
RTVSPropertyOp29
 70
     1
102
RTVSPropertyOp30
 70
     1
102
RTVSPropertyOp31
 70
     1
102
RTVSPropertyOp32
 70
     1
102
RTVSPropertyOp33
 70
     1
102
RTVSPropertyOp34
 70
     1
102
RTVSPropertyOp35
 70
     1
102
RTVSPropertyOp36
 70
     1
102
RTVSPropertyOp37
 70
     1
102
RTVSPropertyOp38
 70
     1
102
RTVSPropertyOp39
 70
     1
102
RTVSPropertyOp40
 70
     1
102
RTVSPropertyOp41
 70
     1
102
RTVSPropertyOp42
 70
     1
102
RTVSPropertyOp43
 70
     1
102
RTVSPropertyOp44
 70
     1
102
RTVSPropertyOp45
 70
     1
102
RTVSPropertyOp46
 70
     1
102
RTVSPropertyOp47
 70
     1
102
RTVSPropertyOp48
 70
     1
102
RTVSPropertyOp49
 70
     1
102
RTVSPropertyOp50
 70
     1
102
RTVSPropertyOp51
 70
     0
102
RTVSPropertyOp52
 70
     0
102
RTVSPropertyOp53
 70
     1
102
RTVSPropertyOp54
 70
     1
102
RTVSPropertyOp55
 70
     1
102
RTVSPropertyOp56
 70
     1
102
RTVSPropertyOp57
 70
     1
102
RTVSPropertyOp58
 70
     1
102
RTVSPropertyOp59
 70
     1
102
RTVSPropertyOp60
 70
     1
102
RTVSPropertyOp61
 70
     1
102
RTVSPropertyOp62
 70
     1
  0
XRECORD
  5
9660
102
{ACAD_REACTORS
330
965F
102
}
330
965F
100
AcDbXrecord
280
     1
102
RTVSPost2010Prop28
280
     0
102
RTVSPost2010PropOp28
 70
     1
102
RTVSPost2010Prop29
280
     1
102
RTVSPost2010PropOp29
 70
     1
102
RTVSPost2010Prop30
280
     1
102
RTVSPost2010PropOp30
 70
     1
102
RTVSPost2010Prop31
280
     0
102
RTVSPost2010PropOp31
 70
     1
102
RTVSPost2010Prop32
280
     0
102
RTVSPost2010PropOp32
 70
     1
102
RTVSPost2010Prop33
280
     0
102
RTVSPost2010PropOp33
 70
     1
102
RTVSPost2010Prop34
280
     0
102
RTVSPost2010PropOp34
 70
     1
102
RTVSPost2010Prop35
280
     0
102
RTVSPost2010PropOp35
 70
     1
102
RTVSPost2010Prop36
280
     0
102
RTVSPost2010PropOp36
 70
     1
102
RTVSPost2010Prop37
 90
       50
102
RTVSPost2010PropOp37
 70
     1
102
RTVSPost2010Prop38
140
0.0
102
RTVSPost2010PropOp38
 70
     1
102
RTVSPost2010Prop39
140
1.0
102
RTVSPost2010PropOp39
 70
     1
102
RTVSPost2010Prop40
 90
        0
102
RTVSPost2010PropOp40
 70
     1
102
RTVSPost2010Prop41ColorIndex
 90
       18
102
RTVSPost2010Prop41ColorRGB
 90
        0
102
RTVSPost2010PropOp41
 70
     1
102
RTVSPost2010Prop42
 90
       50
102
RTVSPost2010PropOp42
 70
     1
102
RTVSPost2010Prop43
 90
        3
102
RTVSPost2010PropOp43
 70
     1
102
RTVSPost2010Prop44ColorIndex
 90
        5
102
RTVSPost2010Prop44ColorRGB
 90
      255
102
RTVSPost2010PropOp44
 70
     1
102
RTVSPost2010Prop45
280
     0
102
RTVSPost2010PropOp45
 70
     1
102
RTVSPost2010Prop46
 90
       50
102
RTVSPost2010PropOp46
 70
     1
102
RTVSPost2010Prop47
 90
       50
102
RTVSPost2010PropOp47
 70
     1
102
RTVSPost2010Prop48
 90
       50
102
RTVSPost2010PropOp48
 70
     1
102
RTVSPost2010Prop49
280
     0
102
RTVSPost2010PropOp49
 70
     1
102
RTVSPost2010Prop50
 90
       50
102
RTVSPost2010PropOp50
 70
     1
102
RTVSPost2010Prop51ColorIndex
 90
      256
102
RTVSPost2010Prop51ColorRGB
 90
-16777216
102
RTVSPost2010PropOp51
 70
     0
102
RTVSPost2010Prop52
140
1.0
102
RTVSPost2010PropOp52
 70
     0
102
RTVSPost2010Prop53
 90
        2
102
RTVSPost2010PropOp53
 70
     1
102
RTVSPost2010Prop54
  1
strokes_ogs.tif
102
RTVSPost2010PropOp54
 70
     1
102
RTVSPost2010Prop55
280
     0
102
RTVSPost2010PropOp55
 70
     1
102
RTVSPost2010Prop56
140
1.0
102
RTVSPost2010PropOp56
 70
     1
102
RTVSPost2010Prop57
140
1.0
102
RTVSPost2010PropOp57
 70
     1
102
RTVSPropertyOp0
 70
     1
102
RTVSPropertyOp1
 70
     1
102
RTVSPropertyOp2
 70
     1
102
RTVSPropertyOp3
 70
     1
102
RTVSPropertyOp4
 70
     1
102
RTVSPropertyOp5
 70
     1
102
RTVSPropertyOp6
 70
     1
102
RTVSPropertyOp7
 70
     1
102
RTVSPropertyOp8
 70
     1
102
RTVSPropertyOp9
 70
     1
102
RTVSPropertyOp10
 70
     1
102
RTVSPropertyOp11
 70
     1
102
RTVSPropertyOp12
 70
     1
102
RTVSPropertyOp13
 70
     1
102
RTVSPropertyOp14
 70
     1
102
RTVSPropertyOp15
 70
     1
102
RTVSPropertyOp16
 70
     1
102
RTVSPropertyOp17
 70
     1
102
RTVSPropertyOp18
 70
     1
102
RTVSPropertyOp19
 70
     1
102
RTVSPropertyOp20
 70
     1
102
RTVSPropertyOp21
 70
     1
102
RTVSPropertyOp22
 70
     1
102
RTVSPropertyOp23
 70
     1
102
RTVSPropertyOp24
 70
     1
102
RTVSPropertyOp25
 70
     1
102
RTVSPropertyOp26
 70
     1
102
RTVSPropertyOp27
 70
     1
102
RTVSPropertyOp28
 70
     1
102
RTVSPropertyOp29
 70
     1
102
RTVSPropertyOp30
 70
     1
102
RTVSPropertyOp31
 70
     1
102
RTVSPropertyOp32
 70
     1
102
RTVSPropertyOp33
 70
     1
102
RTVSPropertyOp34
 70
     1
102
RTVSPropertyOp35
 70
     1
102
RTVSPropertyOp36
 70
     1
102
RTVSPropertyOp37
 70
     1
102
RTVSPropertyOp38
 70
     1
102
RTVSPropertyOp39
 70
     1
102
RTVSPropertyOp40
 70
     1
102
RTVSPropertyOp41
 70
     1
102
RTVSPropertyOp42
 70
     1
102
RTVSPropertyOp43
 70
     1
102
RTVSPropertyOp44
 70
     1
102
RTVSPropertyOp45
 70
     1
102
RTVSPropertyOp46
 70
     1
102
RTVSPropertyOp47
 70
     1
102
RTVSPropertyOp48
 70
     1
102
RTVSPropertyOp49
 70
     1
102
RTVSPropertyOp50
 70
     1
102
RTVSPropertyOp51
 70
     0
102
RTVSPropertyOp52
 70
     0
102
RTVSPropertyOp53
 70
     1
102
RTVSPropertyOp54
 70
     1
102
RTVSPropertyOp55
 70
     1
102
RTVSPropertyOp56
 70
     1
102
RTVSPropertyOp57
 70
     1
102
RTVSPropertyOp58
 70
     1
102
RTVSPropertyOp59
 70
     1
102
RTVSPropertyOp60
 70
     1
102
RTVSPropertyOp61
 70
     1
102
RTVSPropertyOp62
 70
     1
  0
XRECORD
  5
9656
102
{ACAD_REACTORS
330
9655
102
}
330
9655
100
AcDbXrecord
280
     1
102
RTVSPost2010Prop28
280
     0
102
RTVSPost2010PropOp28
 70
     1
102
RTVSPost2010Prop29
280
     1
102
RTVSPost2010PropOp29
 70
     1
102
RTVSPost2010Prop30
280
     1
102
RTVSPost2010PropOp30
 70
     1
102
RTVSPost2010Prop31
280
     0
102
RTVSPost2010PropOp31
 70
     1
102
RTVSPost2010Prop32
280
     0
102
RTVSPost2010PropOp32
 70
     1
102
RTVSPost2010Prop33
280
     0
102
RTVSPost2010PropOp33
 70
     1
102
RTVSPost2010Prop34
280
     0
102
RTVSPost2010PropOp34
 70
     1
102
RTVSPost2010Prop35
280
     0
102
RTVSPost2010PropOp35
 70
     1
102
RTVSPost2010Prop36
280
     0
102
RTVSPost2010PropOp36
 70
     1
102
RTVSPost2010Prop37
 90
       50
102
RTVSPost2010PropOp37
 70
     1
102
RTVSPost2010Prop38
140
0.0
102
RTVSPost2010PropOp38
 70
     1
102
RTVSPost2010Prop39
140
1.0
102
RTVSPost2010PropOp39
 70
     1
102
RTVSPost2010Prop40
 90
        0
102
RTVSPost2010PropOp40
 70
     1
102
RTVSPost2010Prop41ColorIndex
 90
       18
102
RTVSPost2010Prop41ColorRGB
 90
        0
102
RTVSPost2010PropOp41
 70
     1
102
RTVSPost2010Prop42
 90
       50
102
RTVSPost2010PropOp42
 70
     1
102
RTVSPost2010Prop43
 90
        3
102
RTVSPost2010PropOp43
 70
     1
102
RTVSPost2010Prop44ColorIndex
 90
        5
102
RTVSPost2010Prop44ColorRGB
 90
      255
102
RTVSPost2010PropOp44
 70
     1
102
RTVSPost2010Prop45
280
     0
102
RTVSPost2010PropOp45
 70
     1
102
RTVSPost2010Prop46
 90
       50
102
RTVSPost2010PropOp46
 70
     1
102
RTVSPost2010Prop47
 90
       50
102
RTVSPost2010PropOp47
 70
     1
102
RTVSPost2010Prop48
 90
       50
102
RTVSPost2010PropOp48
 70
     1
102
RTVSPost2010Prop49
280
     0
102
RTVSPost2010PropOp49
 70
     1
102
RTVSPost2010Prop50
 90
       50
102
RTVSPost2010PropOp50
 70
     1
102
RTVSPost2010Prop51ColorIndex
 90
      256
102
RTVSPost2010Prop51ColorRGB
 90
-16777216
102
RTVSPost2010PropOp51
 70
     0
102
RTVSPost2010Prop52
140
1.0
102
RTVSPost2010PropOp52
 70
     0
102
RTVSPost2010Prop53
 90
        2
102
RTVSPost2010PropOp53
 70
     1
102
RTVSPost2010Prop54
  1
strokes_ogs.tif
102
RTVSPost2010PropOp54
 70
     1
102
RTVSPost2010Prop55
280
     0
102
RTVSPost2010PropOp55
 70
     1
102
RTVSPost2010Prop56
140
1.0
102
RTVSPost2010PropOp56
 70
     1
102
RTVSPost2010Prop57
140
1.0
102
RTVSPost2010PropOp57
 70
     1
102
RTVSPropertyOp0
 70
     1
102
RTVSPropertyOp1
 70
     1
102
RTVSPropertyOp2
 70
     1
102
RTVSPropertyOp3
 70
     1
102
RTVSPropertyOp4
 70
     1
102
RTVSPropertyOp5
 70
     1
102
RTVSPropertyOp6
 70
     1
102
RTVSPropertyOp7
 70
     1
102
RTVSPropertyOp8
 70
     1
102
RTVSPropertyOp9
 70
     1
102
RTVSPropertyOp10
 70
     1
102
RTVSPropertyOp11
 70
     1
102
RTVSPropertyOp12
 70
     1
102
RTVSPropertyOp13
 70
     1
102
RTVSPropertyOp14
 70
     1
102
RTVSPropertyOp15
 70
     1
102
RTVSPropertyOp16
 70
     1
102
RTVSPropertyOp17
 70
     1
102
RTVSPropertyOp18
 70
     1
102
RTVSPropertyOp19
 70
     1
102
RTVSPropertyOp20
 70
     1
102
RTVSPropertyOp21
 70
     1
102
RTVSPropertyOp22
 70
     1
102
RTVSPropertyOp23
 70
     1
102
RTVSPropertyOp24
 70
     1
102
RTVSPropertyOp25
 70
     1
102
RTVSPropertyOp26
 70
     1
102
RTVSPropertyOp27
 70
     1
102
RTVSPropertyOp28
 70
     1
102
RTVSPropertyOp29
 70
     1
102
RTVSPropertyOp30
 70
     1
102
RTVSPropertyOp31
 70
     1
102
RTVSPropertyOp32
 70
     1
102
RTVSPropertyOp33
 70
     1
102
RTVSPropertyOp34
 70
     1
102
RTVSPropertyOp35
 70
     1
102
RTVSPropertyOp36
 70
     1
102
RTVSPropertyOp37
 70
     1
102
RTVSPropertyOp38
 70
     1
102
RTVSPropertyOp39
 70
     1
102
RTVSPropertyOp40
 70
     1
102
RTVSPropertyOp41
 70
     1
102
RTVSPropertyOp42
 70
     1
102
RTVSPropertyOp43
 70
     1
102
RTVSPropertyOp44
 70
     1
102
RTVSPropertyOp45
 70
     1
102
RTVSPropertyOp46
 70
     1
102
RTVSPropertyOp47
 70
     1
102
RTVSPropertyOp48
 70
     1
102
RTVSPropertyOp49
 70
     1
102
RTVSPropertyOp50
 70
     1
102
RTVSPropertyOp51
 70
     0
102
RTVSPropertyOp52
 70
     0
102
RTVSPropertyOp53
 70
     1
102
RTVSPropertyOp54
 70
     1
102
RTVSPropertyOp55
 70
     1
102
RTVSPropertyOp56
 70
     1
102
RTVSPropertyOp57
 70
     1
102
RTVSPropertyOp58
 70
     1
102
RTVSPropertyOp59
 70
     1
102
RTVSPropertyOp60
 70
     1
102
RTVSPropertyOp61
 70
     1
102
RTVSPropertyOp62
 70
     1
  0
XRECORD
  5
964A
102
{ACAD_REACTORS
330
9649
102
}
330
9649
100
AcDbXrecord
280
     1
102
RTVSPost2010Prop28
280
     0
102
RTVSPost2010PropOp28
 70
     1
102
RTVSPost2010Prop29
280
     1
102
RTVSPost2010PropOp29
 70
     1
102
RTVSPost2010Prop30
280
     1
102
RTVSPost2010PropOp30
 70
     1
102
RTVSPost2010Prop31
280
     0
102
RTVSPost2010PropOp31
 70
     1
102
RTVSPost2010Prop32
280
     0
102
RTVSPost2010PropOp32
 70
     1
102
RTVSPost2010Prop33
280
     0
102
RTVSPost2010PropOp33
 70
     1
102
RTVSPost2010Prop34
280
     0
102
RTVSPost2010PropOp34
 70
     1
102
RTVSPost2010Prop35
280
     0
102
RTVSPost2010PropOp35
 70
     1
102
RTVSPost2010Prop36
280
     0
102
RTVSPost2010PropOp36
 70
     1
102
RTVSPost2010Prop37
 90
       50
102
RTVSPost2010PropOp37
 70
     1
102
RTVSPost2010Prop38
140
0.0
102
RTVSPost2010PropOp38
 70
     1
102
RTVSPost2010Prop39
140
1.0
102
RTVSPost2010PropOp39
 70
     1
102
RTVSPost2010Prop40
 90
        0
102
RTVSPost2010PropOp40
 70
     1
102
RTVSPost2010Prop41ColorIndex
 90
       18
102
RTVSPost2010Prop41ColorRGB
 90
        0
102
RTVSPost2010PropOp41
 70
     1
102
RTVSPost2010Prop42
 90
       50
102
RTVSPost2010PropOp42
 70
     1
102
RTVSPost2010Prop43
 90
        3
102
RTVSPost2010PropOp43
 70
     1
102
RTVSPost2010Prop44ColorIndex
 90
        5
102
RTVSPost2010Prop44ColorRGB
 90
      255
102
RTVSPost2010PropOp44
 70
     1
102
RTVSPost2010Prop45
280
     0
102
RTVSPost2010PropOp45
 70
     1
102
RTVSPost2010Prop46
 90
       50
102
RTVSPost2010PropOp46
 70
     1
102
RTVSPost2010Prop47
 90
       50
102
RTVSPost2010PropOp47
 70
     1
102
RTVSPost2010Prop48
 90
       50
102
RTVSPost2010PropOp48
 70
     1
102
RTVSPost2010Prop49
280
     0
102
RTVSPost2010PropOp49
 70
     1
102
RTVSPost2010Prop50
 90
       50
102
RTVSPost2010PropOp50
 70
     1
102
RTVSPost2010Prop51ColorIndex
 90
      256
102
RTVSPost2010Prop51ColorRGB
 90
-16777216
102
RTVSPost2010PropOp51
 70
     0
102
RTVSPost2010Prop52
140
1.0
102
RTVSPost2010PropOp52
 70
     0
102
RTVSPost2010Prop53
 90
        2
102
RTVSPost2010PropOp53
 70
     1
102
RTVSPost2010Prop54
  1
strokes_ogs.tif
102
RTVSPost2010PropOp54
 70
     1
102
RTVSPost2010Prop55
280
     0
102
RTVSPost2010PropOp55
 70
     1
102
RTVSPost2010Prop56
140
1.0
102
RTVSPost2010PropOp56
 70
     1
102
RTVSPost2010Prop57
140
1.0
102
RTVSPost2010PropOp57
 70
     1
102
RTVSPropertyOp0
 70
     1
102
RTVSPropertyOp1
 70
     1
102
RTVSPropertyOp2
 70
     1
102
RTVSPropertyOp3
 70
     1
102
RTVSPropertyOp4
 70
     1
102
RTVSPropertyOp5
 70
     1
102
RTVSPropertyOp6
 70
     1
102
RTVSPropertyOp7
 70
     1
102
RTVSPropertyOp8
 70
     1
102
RTVSPropertyOp9
 70
     1
102
RTVSPropertyOp10
 70
     1
102
RTVSPropertyOp11
 70
     1
102
RTVSPropertyOp12
 70
     1
102
RTVSPropertyOp13
 70
     1
102
RTVSPropertyOp14
 70
     1
102
RTVSPropertyOp15
 70
     1
102
RTVSPropertyOp16
 70
     1
102
RTVSPropertyOp17
 70
     1
102
RTVSPropertyOp18
 70
     1
102
RTVSPropertyOp19
 70
     1
102
RTVSPropertyOp20
 70
     1
102
RTVSPropertyOp21
 70
     1
102
RTVSPropertyOp22
 70
     1
102
RTVSPropertyOp23
 70
     1
102
RTVSPropertyOp24
 70
     1
102
RTVSPropertyOp25
 70
     1
102
RTVSPropertyOp26
 70
     1
102
RTVSPropertyOp27
 70
     1
102
RTVSPropertyOp28
 70
     1
102
RTVSPropertyOp29
 70
     1
102
RTVSPropertyOp30
 70
     1
102
RTVSPropertyOp31
 70
     1
102
RTVSPropertyOp32
 70
     1
102
RTVSPropertyOp33
 70
     1
102
RTVSPropertyOp34
 70
     1
102
RTVSPropertyOp35
 70
     1
102
RTVSPropertyOp36
 70
     1
102
RTVSPropertyOp37
 70
     1
102
RTVSPropertyOp38
 70
     1
102
RTVSPropertyOp39
 70
     1
102
RTVSPropertyOp40
 70
     1
102
RTVSPropertyOp41
 70
     1
102
RTVSPropertyOp42
 70
     1
102
RTVSPropertyOp43
 70
     1
102
RTVSPropertyOp44
 70
     1
102
RTVSPropertyOp45
 70
     1
102
RTVSPropertyOp46
 70
     1
102
RTVSPropertyOp47
 70
     1
102
RTVSPropertyOp48
 70
     1
102
RTVSPropertyOp49
 70
     1
102
RTVSPropertyOp50
 70
     1
102
RTVSPropertyOp51
 70
     0
102
RTVSPropertyOp52
 70
     0
102
RTVSPropertyOp53
 70
     1
102
RTVSPropertyOp54
 70
     1
102
RTVSPropertyOp55
 70
     1
102
RTVSPropertyOp56
 70
     1
102
RTVSPropertyOp57
 70
     1
102
RTVSPropertyOp58
 70
     1
102
RTVSPropertyOp59
 70
     1
102
RTVSPropertyOp60
 70
     1
102
RTVSPropertyOp61
 70
     1
102
RTVSPropertyOp62
 70
     1
  0
XRECORD
  5
9662
102
{ACAD_REACTORS
330
9661
102
}
330
9661
100
AcDbXrecord
280
     1
102
RTVSPost2010Prop28
280
     0
102
RTVSPost2010PropOp28
 70
     1
102
RTVSPost2010Prop29
280
     1
102
RTVSPost2010PropOp29
 70
     1
102
RTVSPost2010Prop30
280
     1
102
RTVSPost2010PropOp30
 70
     1
102
RTVSPost2010Prop31
280
     0
102
RTVSPost2010PropOp31
 70
     1
102
RTVSPost2010Prop32
280
     0
102
RTVSPost2010PropOp32
 70
     1
102
RTVSPost2010Prop33
280
     0
102
RTVSPost2010PropOp33
 70
     1
102
RTVSPost2010Prop34
280
     0
102
RTVSPost2010PropOp34
 70
     1
102
RTVSPost2010Prop35
280
     0
102
RTVSPost2010PropOp35
 70
     1
102
RTVSPost2010Prop36
280
     0
102
RTVSPost2010PropOp36
 70
     1
102
RTVSPost2010Prop37
 90
       50
102
RTVSPost2010PropOp37
 70
     1
102
RTVSPost2010Prop38
140
0.0
102
RTVSPost2010PropOp38
 70
     1
102
RTVSPost2010Prop39
140
1.0
102
RTVSPost2010PropOp39
 70
     1
102
RTVSPost2010Prop40
 90
        0
102
RTVSPost2010PropOp40
 70
     1
102
RTVSPost2010Prop41ColorIndex
 90
       18
102
RTVSPost2010Prop41ColorRGB
 90
        0
102
RTVSPost2010PropOp41
 70
     1
102
RTVSPost2010Prop42
 90
       50
102
RTVSPost2010PropOp42
 70
     1
102
RTVSPost2010Prop43
 90
        3
102
RTVSPost2010PropOp43
 70
     1
102
RTVSPost2010Prop44ColorIndex
 90
        5
102
RTVSPost2010Prop44ColorRGB
 90
      255
102
RTVSPost2010PropOp44
 70
     1
102
RTVSPost2010Prop45
280
     0
102
RTVSPost2010PropOp45
 70
     1
102
RTVSPost2010Prop46
 90
       50
102
RTVSPost2010PropOp46
 70
     1
102
RTVSPost2010Prop47
 90
       50
102
RTVSPost2010PropOp47
 70
     1
102
RTVSPost2010Prop48
 90
       50
102
RTVSPost2010PropOp48
 70
     1
102
RTVSPost2010Prop49
280
     0
102
RTVSPost2010PropOp49
 70
     1
102
RTVSPost2010Prop50
 90
       50
102
RTVSPost2010PropOp50
 70
     1
102
RTVSPost2010Prop51ColorIndex
 90
      256
102
RTVSPost2010Prop51ColorRGB
 90
-16777216
102
RTVSPost2010PropOp51
 70
     0
102
RTVSPost2010Prop52
140
1.0
102
RTVSPost2010PropOp52
 70
     0
102
RTVSPost2010Prop53
 90
        2
102
RTVSPost2010PropOp53
 70
     1
102
RTVSPost2010Prop54
  1
strokes_ogs.tif
102
RTVSPost2010PropOp54
 70
     1
102
RTVSPost2010Prop55
280
     0
102
RTVSPost2010PropOp55
 70
     1
102
RTVSPost2010Prop56
140
1.0
102
RTVSPost2010PropOp56
 70
     1
102
RTVSPost2010Prop57
140
1.0
102
RTVSPost2010PropOp57
 70
     1
102
RTVSPropertyOp0
 70
     1
102
RTVSPropertyOp1
 70
     1
102
RTVSPropertyOp2
 70
     1
102
RTVSPropertyOp3
 70
     1
102
RTVSPropertyOp4
 70
     1
102
RTVSPropertyOp5
 70
     1
102
RTVSPropertyOp6
 70
     1
102
RTVSPropertyOp7
 70
     1
102
RTVSPropertyOp8
 70
     1
102
RTVSPropertyOp9
 70
     1
102
RTVSPropertyOp10
 70
     1
102
RTVSPropertyOp11
 70
     1
102
RTVSPropertyOp12
 70
     1
102
RTVSPropertyOp13
 70
     1
102
RTVSPropertyOp14
 70
     1
102
RTVSPropertyOp15
 70
     1
102
RTVSPropertyOp16
 70
     1
102
RTVSPropertyOp17
 70
     1
102
RTVSPropertyOp18
 70
     1
102
RTVSPropertyOp19
 70
     1
102
RTVSPropertyOp20
 70
     1
102
RTVSPropertyOp21
 70
     1
102
RTVSPropertyOp22
 70
     1
102
RTVSPropertyOp23
 70
     1
102
RTVSPropertyOp24
 70
     1
102
RTVSPropertyOp25
 70
     1
102
RTVSPropertyOp26
 70
     1
102
RTVSPropertyOp27
 70
     1
102
RTVSPropertyOp28
 70
     1
102
RTVSPropertyOp29
 70
     1
102
RTVSPropertyOp30
 70
     1
102
RTVSPropertyOp31
 70
     1
102
RTVSPropertyOp32
 70
     1
102
RTVSPropertyOp33
 70
     1
102
RTVSPropertyOp34
 70
     1
102
RTVSPropertyOp35
 70
     1
102
RTVSPropertyOp36
 70
     1
102
RTVSPropertyOp37
 70
     1
102
RTVSPropertyOp38
 70
     1
102
RTVSPropertyOp39
 70
     1
102
RTVSPropertyOp40
 70
     1
102
RTVSPropertyOp41
 70
     1
102
RTVSPropertyOp42
 70
     1
102
RTVSPropertyOp43
 70
     1
102
RTVSPropertyOp44
 70
     1
102
RTVSPropertyOp45
 70
     1
102
RTVSPropertyOp46
 70
     1
102
RTVSPropertyOp47
 70
     1
102
RTVSPropertyOp48
 70
     1
102
RTVSPropertyOp49
 70
     1
102
RTVSPropertyOp50
 70
     1
102
RTVSPropertyOp51
 70
     0
102
RTVSPropertyOp52
 70
     0
102
RTVSPropertyOp53
 70
     1
102
RTVSPropertyOp54
 70
     1
102
RTVSPropertyOp55
 70
     1
102
RTVSPropertyOp56
 70
     1
102
RTVSPropertyOp57
 70
     1
102
RTVSPropertyOp58
 70
     1
102
RTVSPropertyOp59
 70
     1
102
RTVSPropertyOp60
 70
     1
102
RTVSPropertyOp61
 70
     1
102
RTVSPropertyOp62
 70
     1
  0
ENDSEC
  0
EOF
