  0
SECTION
  2
HEADER
  9
$ACADVER
  1
AC1015
  9
$ACADMAINTVER
 70
    20
  9
$DWGCODEPAGE
  3
ANSI_932
  9
$INSBASE
 10
0.0
 20
0.0
 30
0.0
  9
$EXTMIN
 10
9.99995
 20
9.999999999999998
 30
0.0
  9
$EXTMAX
 10
899.6583859999999
 20
705.329163
 30
0.0
  9
$LIMMIN
 10
0.0
 20
0.0
  9
$LIMMAX
 10
1029.6
 20
709.7999999999998
  9
$ORTHOMODE
 70
     1
  9
$REGENMODE
 70
     1
  9
$FILLMODE
 70
     1
  9
$QTEXTMODE
 70
     0
  9
$MIRRTEXT
 70
     1
  9
$LTSCALE
 40
20.0
  9
$ATTMODE
 70
     1
  9
$TEXTSIZE
 40
5.0
  9
$TRACEWID
 40
1.0
  9
$TEXTSTYLE
  7
STANDARD
  9
$CLAYER
  8
0
  9
$CELTYPE
  6
BYLAYER
  9
$CECOLOR
 62
   256
  9
$CELTSCALE
 40
1.0
  9
$DISPSILH
 70
     0
  9
$DIMSCALE
 40
1.0
  9
$DIMASZ
 40
3.0
  9
$DIMEXO
 40
1.0
  9
$DIMDLI
 40
10.0
  9
$DIMRND
 40
0.0
  9
$DIMDLE
 40
0.0
  9
$DIMEXE
 40
1.0
  9
$DIMTP
 40
0.0
  9
$DIMTM
 40
0.0
  9
$DIMTXT
 40
3.2
  9
$DIMCEN
 40
0.0
  9
$DIMTSZ
 40
0.0
  9
$DIMTOL
 70
     0
  9
$DIMLIM
 70
     0
  9
$DIMTIH
 70
     0
  9
$DIMTOH
 70
     0
  9
$DIMSE1
 70
     0
  9
$DIMSE2
 70
     0
  9
$DIMTAD
 70
     3
  9
$DIMZIN
 70
     8
  9
$DIMBLK
  1

  9
$DIMASO
 70
     1
  9
$DIMSHO
 70
     1
  9
$DIMPOST
  1

  9
$DIMAPOST
  1

  9
$DIMALT
 70
     0
  9
$DIMALTD
 70
     2
  9
$DIMALTF
 40
25.4
  9
$DIMLFAC
 40
1.0
  9
$DIMTOFL
 70
     1
  9
$DIMTVP
 40
0.0
  9
$DIMTIX
 70
     0
  9
$DIMSOXD
 70
     0
  9
$DIMSAH
 70
     1
  9
$DIMBLK1
  1

  9
$DIMBLK2
  1

  9
$DIMSTYLE
  2
STANDARD
  9
$DIMCLRD
 70
     0
  9
$DIMCLRE
 70
     0
  9
$DIMCLRT
 70
     0
  9
$DIMTFAC
 40
1.0
  9
$DIMGAP
 40
1.0
  9
$DIMJUST
 70
     0
  9
$DIMSD1
 70
     0
  9
$DIMSD2
 70
     0
  9
$DIMTOLJ
 70
     1
  9
$DIMTZIN
 70
     0
  9
$DIMALTZ
 70
     0
  9
$DIMALTTZ
 70
     0
  9
$DIMUPT
 70
     0
  9
$DIMDEC
 70
     4
  9
$DIMTDEC
 70
     4
  9
$DIMALTU
 70
     2
  9
$DIMALTTD
 70
     2
  9
$DIMTXSTY
  7
STANDARD
  9
$DIMAUNIT
 70
     0
  9
$DIMADEC
 70
     0
  9
$DIMALTRND
 40
0.0
  9
$DIMAZIN
 70
     0
  9
$DIMDSEP
 70
    46
  9
$DIMATFIT
 70
     3
  9
$DIMFRAC
 70
     0
  9
$DIMLDRBLK
  1

  9
$DIMLUNIT
 70
     2
  9
$DIMLWD
 70
    -2
  9
$DIMLWE
 70
    -2
  9
$DIMTMOVE
 70
     0
  9
$LUNITS
 70
     2
  9
$LUPREC
 70
     4
  9
$SKETCHINC
 40
1.0
  9
$FILLETRAD
 40
0.0
  9
$AUNITS
 70
     0
  9
$AUPREC
 70
     2
  9
$MENU
  1
.
  9
$ELEVATION
 40
0.0
  9
$PELEVATION
 40
0.0
  9
$THICKNESS
 40
0.0
  9
$LIMCHECK
 70
     0
  9
$CHAMFERA
 40
10.0
  9
$CHAMFERB
 40
10.0
  9
$CHAMFERC
 40
0.0
  9
$CHAMFERD
 40
0.0
  9
$SKPOLY
 70
     0
  9
$TDCREATE
 40
2451069.656068403
  9
$TDUCREATE
 40
2451069.281068403
  9
$TDUPDATE
 40
2457192.621249942
  9
$TDUUPDATE
 40
2457192.246249942
  9
$TDINDWG
 40
0.0001779861
  9
$TDUSRTIMER
 40
0.0001778588
  9
$USRTIMER
 70
     1
  9
$ANGBASE
 50
0.0
  9
$ANGDIR
 70
     0
  9
$PDMODE
 70
     0
  9
$PDSIZE
 40
0.0
  9
$PLINEWID
 40
0.0
  9
$SPLFRAME
 70
     0
  9
$SPLINETYPE
 70
     6
  9
$SPLINESEGS
 70
     8
  9
$HANDSEED
  5
84F
  9
$SURFTAB1
 70
     6
  9
$SURFTAB2
 70
     6
  9
$SURFTYPE
 70
     6
  9
$SURFU
 70
     6
  9
$SURFV
 70
     6
  9
$UCSBASE
  2

  9
$UCSNAME
  2

  9
$UCSORG
 10
0.0
 20
0.0
 30
0.0
  9
$UCSXDIR
 10
1.0
 20
0.0
 30
0.0
  9
$UCSYDIR
 10
0.0
 20
1.0
 30
0.0
  9
$UCSORTHOREF
  2

  9
$UCSORTHOVIEW
 70
     0
  9
$UCSORGTOP
 10
0.0
 20
0.0
 30
0.0
  9
$UCSORGBOTTOM
 10
0.0
 20
0.0
 30
0.0
  9
$UCSORGLEFT
 10
0.0
 20
0.0
 30
0.0
  9
$UCSORGRIGHT
 10
0.0
 20
0.0
 30
0.0
  9
$UCSORGFRONT
 10
0.0
 20
0.0
 30
0.0
  9
$UCSORGBACK
 10
0.0
 20
0.0
 30
0.0
  9
$PUCSBASE
  2

  9
$PUCSNAME
  2

  9
$PUCSORG
 10
0.0
 20
0.0
 30
0.0
  9
$PUCSXDIR
 10
1.0
 20
0.0
 30
0.0
  9
$PUCSYDIR
 10
0.0
 20
1.0
 30
0.0
  9
$PUCSORTHOREF
  2

  9
$PUCSORTHOVIEW
 70
     0
  9
$PUCSORGTOP
 10
0.0
 20
0.0
 30
0.0
  9
$PUCSORGBOTTOM
 10
0.0
 20
0.0
 30
0.0
  9
$PUCSORGLEFT
 10
0.0
 20
0.0
 30
0.0
  9
$PUCSORGRIGHT
 10
0.0
 20
0.0
 30
0.0
  9
$PUCSORGFRONT
 10
0.0
 20
0.0
 30
0.0
  9
$PUCSORGBACK
 10
0.0
 20
0.0
 30
0.0
  9
$USERI1
 70
     0
  9
$USERI2
 70
     0
  9
$USERI3
 70
     0
  9
$USERI4
 70
     0
  9
$USERI5
 70
     0
  9
$USERR1
 40
0.0
  9
$USERR2
 40
0.0
  9
$USERR3
 40
0.0
  9
$USERR4
 40
0.0
  9
$USERR5
 40
0.0
  9
$WORLDVIEW
 70
     1
  9
$SHADEDGE
 70
     3
  9
$SHADEDIF
 70
    70
  9
$TILEMODE
 70
     1
  9
$MAXACTVP
 70
    16
  9
$PINSBASE
 10
0.0
 20
0.0
 30
0.0
  9
$PLIMCHECK
 70
     0
  9
$PEXTMIN
 10
1.000000000000000E+20
 20
1.000000000000000E+20
 30
1.000000000000000E+20
  9
$PEXTMAX
 10
-1.000000000000000E+20
 20
-1.000000000000000E+20
 30
-1.000000000000000E+20
  9
$PLIMMIN
 10
0.0
 20
0.0
  9
$PLIMMAX
 10
420.0
 20
297.0
  9
$UNITMODE
 70
     0
  9
$VISRETAIN
 70
     0
  9
$PLINEGEN
 70
     0
  9
$PSLTSCALE
 70
     0
  9
$TREEDEPTH
 70
  3020
  9
$CMLSTYLE
  2
STANDARD
  9
$CMLJUST
 70
     0
  9
$CMLSCALE
 40
1.0
  9
$PROXYGRAPHICS
 70
     1
  9
$MEASUREMENT
 70
     0
  9
$CELWEIGHT
370
    -1
  9
$ENDCAPS
280
     0
  9
$JOINSTYLE
280
     0
  9
$LWDISPLAY
290
     0
  9
$INSUNITS
 70
     0
  9
$HYPERLINKBASE
  1

  9
$STYLESHEET
  1

  9
$XEDIT
290
     1
  9
$CEPSNTYPE
380
     0
  9
$PSTYLEMODE
290
     1
  9
$FINGERPRINTGUID
  2
{50EC87E7-B697-47B2-962C-817D3A93C815}
  9
$VERSIONGUID
  2
{C1578A1A-0614-4355-A822-37F8DE44A7AC}
  9
$EXTNAMES
290
     1
  9
$PSVPSCALE
 40
0.0
  9
$OLESTARTUP
290
     0
  0
ENDSEC
  0
SECTION
  2
CLASSES
  0
CLASS
  1
ACDBDICTIONARYWDFLT
  2
AcDbDictionaryWithDefault
  3
ObjectDBX Classes
 90
        0
280
     0
281
     0
  0
CLASS
  1
ACDBPLACEHOLDER
  2
AcDbPlaceHolder
  3
ObjectDBX Classes
 90
        0
280
     0
281
     0
  0
CLASS
  1
LAYOUT
  2
AcDbLayout
  3
ObjectDBX Classes
 90
        0
280
     0
281
     0
  0
CLASS
  1
DICTIONARYVAR
  2
AcDbDictionaryVar
  3
ObjectDBX Classes
 90
        0
280
     0
281
     0
  0
CLASS
  1
MATERIAL
  2
AcDbMaterial
  3
ObjectDBX Classes
 90
     1153
280
     0
281
     0
  0
CLASS
  1
VISUALSTYLE
  2
AcDbVisualStyle
  3
ObjectDBX Classes
 90
     4095
280
     0
281
     0
  0
CLASS
  1
TABLESTYLE
  2
AcDbTableStyle
  3
ObjectDBX Classes
 90
     4095
280
     0
281
     0
  0
CLASS
  1
SCALE
  2
AcDbScale
  3
ObjectDBX Classes
 90
     1153
280
     0
281
     0
  0
CLASS
  1
MLEADERSTYLE
  2
AcDbMLeaderStyle
  3
ACDB_MLEADERSTYLE_CLASS
 90
     4095
280
     0
281
     0
  0
CLASS
  1
ACDBSECTIONVIEWSTYLE
  2
AcDbSectionViewStyle
  3
ObjectDBX Classes
 90
     1025
280
     0
281
     0
  0
CLASS
  1
ACDBDETAILVIEWSTYLE
  2
AcDbDetailViewStyle
  3
ObjectDBX Classes
 90
     1025
280
     0
281
     0
  0
CLASS
  1
CELLSTYLEMAP
  2
AcDbCellStyleMap
  3
ObjectDBX Classes
 90
     1152
280
     0
281
     0
  0
ENDSEC
  0
SECTION
  2
TABLES
  0
TABLE
  2
VPORT
  5
3C8
330
0
100
AcDbSymbolTable
 70
     1
  0
VPORT
  5
798
330
3C8
100
AcDbSymbolTableRecord
100
AcDbViewportTableRecord
  2
*ACTIVE
 70
     0
 10
0.0
 20
0.0
 11
1.0
 21
1.0
 12
665.444735489308
 22
357.6889039385936
 13
0.0
 23
0.0
 14
10.0
 24
10.0
 15
10.0
 25
10.0
 16
0.0
 26
0.0
 36
1.0
 17
0.0
 27
0.0
 37
0.0
 40
703.161822680624
 41
1.899603698811096
 42
50.0
 43
0.0
 44
0.0
 50
0.0
 51
0.0
 71
     0
 72
   100
 73
     1
 74
     0
 75
     0
 76
     0
 77
     0
 78
     0
281
     0
 65
     1
110
0.0
120
0.0
130
0.0
111
1.0
121
0.0
131
0.0
112
0.0
122
1.0
132
0.0
 79
     0
146
0.0
1001
ACAD_NAV_VCDISPLAY
1070
     3
  0
ENDTAB
  0
TABLE
  2
LTYPE
  5
3C5
330
0
100
AcDbSymbolTable
 70
     4
  0
LTYPE
  5
3D3
330
3C5
100
AcDbSymbolTableRecord
100
AcDbLinetypeTableRecord
  2
BYBLOCK
 70
     0
  3

 72
    65
 73
     0
 40
0.0
  0
LTYPE
  5
3D4
330
3C5
100
AcDbSymbolTableRecord
100
AcDbLinetypeTableRecord
  2
BYLAYER
 70
     0
  3

 72
    65
 73
     0
 40
0.0
  0
LTYPE
  5
3D5
330
3C5
100
AcDbSymbolTableRecord
100
AcDbLinetypeTableRecord
  2
CONTINUOUS
 70
     0
  3
Solid line
 72
    65
 73
     0
 40
0.0
  0
LTYPE
  5
3E3
330
3C5
100
AcDbSymbolTableRecord
100
AcDbLinetypeTableRecord
  2
DASHED
 70
     0
  3
__ __ __ __ __ __ __ __ __ __ __ __ __ __ __ __
 72
    65
 73
     2
 40
0.75
 49
0.5
 74
     0
 49
-0.25
 74
     0
  0
LTYPE
  5
3E4
330
3C5
100
AcDbSymbolTableRecord
100
AcDbLinetypeTableRecord
  2
CENTER
 70
     0
  3
____ _ ____ _ ____ _ ____ _ ____ _ ____ _ ____ 
 72
    65
 73
     4
 40
2.0
 49
1.25
 74
     0
 49
-0.25
 74
     0
 49
0.25
 74
     0
 49
-0.25
 74
     0
  0
LTYPE
  5
3E5
330
3C5
100
AcDbSymbolTableRecord
100
AcDbLinetypeTableRecord
  2
PHANTOM
 70
     0
  3
______  __  __  ______  __  __  ______  __  __ 
 72
    65
 73
     6
 40
2.5
 49
1.25
 74
     0
 49
-0.25
 74
     0
 49
0.25
 74
     0
 49
-0.25
 74
     0
 49
0.25
 74
     0
 49
-0.25
 74
     0
  0
ENDTAB
  0
TABLE
  2
LAYER
  5
3C2
330
0
100
AcDbSymbolTable
 70
     8
  0
LAYER
  5
3D0
102
{ACAD_XDICTIONARY
360
7F3
102
}
330
3C2
100
AcDbSymbolTableRecord
100
AcDbLayerTableRecord
  2
0
 70
     0
 62
     7
  6
CONTINUOUS
370
    -3
390
7A1
  0
LAYER
  5
3E6
102
{ACAD_XDICTIONARY
360
7F5
102
}
330
3C2
100
AcDbSymbolTableRecord
100
AcDbLayerTableRecord
  2
4
 70
     0
 62
     1
  6
CENTER
370
    -3
390
7A1
  0
LAYER
  5
3E7
102
{ACAD_XDICTIONARY
360
7F7
102
}
330
3C2
100
AcDbSymbolTableRecord
100
AcDbLayerTableRecord
  2
5
 70
     0
 62
     6
  6
PHANTOM
370
    -3
390
7A1
  0
LAYER
  5
3E8
102
{ACAD_XDICTIONARY
360
7F9
102
}
330
3C2
100
AcDbSymbolTableRecord
100
AcDbLayerTableRecord
  2
1
 70
     0
 62
     7
  6
CONTINUOUS
370
    -3
390
7A1
  0
LAYER
  5
3E9
102
{ACAD_XDICTIONARY
360
7FB
102
}
330
3C2
100
AcDbSymbolTableRecord
100
AcDbLayerTableRecord
  2
2
 70
     0
 62
     4
  6
CONTINUOUS
370
    -3
390
7A1
  0
LAYER
  5
3EA
102
{ACAD_XDICTIONARY
360
7FD
102
}
330
3C2
100
AcDbSymbolTableRecord
100
AcDbLayerTableRecord
  2
3
 70
     0
 62
     2
  6
DASHED
370
    -3
390
7A1
  0
LAYER
  5
3EB
102
{ACAD_XDICTIONARY
360
7FF
102
}
330
3C2
100
AcDbSymbolTableRecord
100
AcDbLayerTableRecord
  2
6
 70
     0
 62
     5
  6
CONTINUOUS
370
    -3
390
7A1
  0
LAYER
  5
3EC
102
{ACAD_XDICTIONARY
360
801
102
}
330
3C2
100
AcDbSymbolTableRecord
100
AcDbLayerTableRecord
  2
7
 70
     0
 62
     3
  6
CONTINUOUS
370
    -3
390
7A1
  0
ENDTAB
  0
TABLE
  2
STYLE
  5
3C3
330
0
100
AcDbSymbolTable
 70
     1
  0
STYLE
  5
3D1
330
3C3
100
AcDbSymbolTableRecord
100
AcDbTextStyleTableRecord
  2
STANDARD
 70
     0
 40
0.0
 41
1.0
 50
0.0
 71
     0
 42
5.0
  3
txt
  4

  0
ENDTAB
  0
TABLE
  2
VIEW
  5
3C6
330
0
100
AcDbSymbolTable
 70
     0
  0
ENDTAB
  0
TABLE
  2
UCS
  5
3C7
330
0
100
AcDbSymbolTable
 70
     0
  0
ENDTAB
  0
TABLE
  2
APPID
  5
3C9
330
0
100
AcDbSymbolTable
 70
     3
  0
APPID
  5
3D2
330
3C9
100
AcDbSymbolTableRecord
100
AcDbRegAppTableRecord
  2
ACAD
 70
     0
  0
APPID
  5
80D
330
3C9
100
AcDbSymbolTableRecord
100
AcDbRegAppTableRecord
  2
ACAD_NAV_VCDISPLAY
 70
     0
  0
APPID
  5
846
330
3C9
100
AcDbSymbolTableRecord
100
AcDbRegAppTableRecord
  2
ACAD_MLEADERVER
 70
     0
  0
ENDTAB
  0
TABLE
  2
DIMSTYLE
  5
3CA
330
0
100
AcDbSymbolTable
 70
     1
100
AcDbDimStyleTable
 71
     0
  0
DIMSTYLE
105
3EE
330
3CA
100
AcDbSymbolTableRecord
100
AcDbDimStyleTableRecord
  2
STANDARD
 70
     0
 41
3.0
 42
1.0
 43
10.0
 44
1.0
 73
     0
 74
     0
 77
     3
 78
     8
140
3.2
141
0.0
147
1.0
172
     1
173
     1
284
     8
285
     8
286
     8
340
3D1
  0
ENDTAB
  0
TABLE
  2
BLOCK_RECORD
  5
3C1
330
0
100
AcDbSymbolTable
 70
     0
  0
BLOCK_RECORD
  5
3DE
102
{ACAD_XDICTIONARY
360
79B
102
}
330
3C1
100
AcDbSymbolTableRecord
100
AcDbBlockTableRecord
  2
*MODEL_SPACE
340
7EF
  0
BLOCK_RECORD
  5
3DA
102
{ACAD_XDICTIONARY
360
799
102
}
330
3C1
100
AcDbSymbolTableRecord
100
AcDbBlockTableRecord
  2
*PAPER_SPACE
340
7F0
  0
ENDTAB
  0
ENDSEC
  0
SECTION
  2
BLOCKS
  0
BLOCK
  5
3DF
330
3DE
100
AcDbEntity
  8
0
100
AcDbBlockBegin
  2
*MODEL_SPACE
 70
     0
 10
0.0
 20
0.0
 30
0.0
  3
*MODEL_SPACE
  1

  0
ENDBLK
  5
3E0
330
3DE
100
AcDbEntity
  8
0
100
AcDbBlockEnd
  0
BLOCK
  5
3DB
330
3DA
100
AcDbEntity
 67
     1
  8
0
100
AcDbBlockBegin
  2
*PAPER_SPACE
 70
     0
 10
0.0
 20
0.0
 30
0.0
  3
*PAPER_SPACE
  1

  0
ENDBLK
  5
3DC
330
3DA
100
AcDbEntity
 67
     1
  8
0
100
AcDbBlockEnd
  0
ENDSEC
  0
SECTION
  2
ENTITIES
  0
LINE
  5
3F6
330
3DE
100
AcDbEntity
  8
1
  6
Continuous
100
AcDbLine
 10
517.329163
 20
248.4999999999998
 30
0.0
 11
457.2081299999998
 21
248.4999999999998
 31
0.0
  0
LINE
  5
3F7
330
3DE
100
AcDbEntity
  8
1
  6
Continuous
100
AcDbLine
 10
656.114014
 20
228.5
 30
0.0
 11
456.6458439999998
 21
228.5
 31
0.0
  0
LINE
  5
3F8
330
3DE
100
AcDbEntity
  8
4
  6
CENTER
100
AcDbLine
 10
687.3291629999997
 20
238.5
 30
0.0
 11
456.6458439999998
 21
238.5
 31
0.0
  0
LINE
  5
3F9
330
3DE
100
AcDbEntity
  8
4
  6
CENTER
100
AcDbLine
 10
457.3291929999999
 20
396.5
 30
0.0
 11
457.3291929999999
 21
436.5
 31
0.0
  0
LINE
  5
3FA
330
3DE
100
AcDbEntity
  8
4
  6
CENTER
100
AcDbLine
 10
657.3291629999999
 20
392.5
 30
0.0
 11
657.3291629999999
 21
442.4999999999998
 31
0.0
  0
LINE
  5
3FB
330
3DE
100
AcDbEntity
  8
1
  6
Continuous
100
AcDbLine
 10
517.329163
 20
248.4999999999998
 30
0.0
 11
517.329163
 21
251.5
 31
0.0
  0
LINE
  5
3FC
330
3DE
100
AcDbEntity
  8
1
  6
Continuous
100
AcDbLine
 10
647.329163
 20
248.4999999999998
 30
0.0
 11
647.329163
 21
251.5
 31
0.0
  0
LINE
  5
3FD
330
3DE
100
AcDbEntity
  8
1
  6
Continuous
100
AcDbLine
 10
647.329163
 20
251.5
 30
0.0
 11
537.3291629999998
 21
251.5
 31
0.0
  0
LINE
  5
3FE
330
3DE
100
AcDbEntity
  8
1
  6
Continuous
100
AcDbLine
 10
656.114014
 20
248.4999999999998
 30
0.0
 11
647.329163
 21
248.4999999999998
 31
0.0
  0
LINE
  5
3FF
330
3DE
100
AcDbEntity
  8
1
  6
Continuous
100
AcDbLine
 10
499.791565
 20
236.3999939999999
 30
0.0
 11
495.3291929999998
 21
236.3999939999999
 31
0.0
  0
LINE
  5
400
330
3DE
100
AcDbEntity
  8
1
  6
Continuous
100
AcDbLine
 10
495.3291929999998
 20
240.600006
 30
0.0
 11
499.791565
 21
240.600006
 31
0.0
  0
LINE
  5
401
330
3DE
100
AcDbEntity
  8
1
  6
Continuous
100
AcDbLine
 10
677.329163
 20
201.0
 30
0.0
 11
677.329163
 21
276.0
 31
0.0
  0
LINE
  5
402
330
3DE
100
AcDbEntity
  8
1
  6
Continuous
100
AcDbLine
 10
674.3291629999998
 20
201.0
 30
0.0
 11
674.3291629999998
 21
224.5
 31
0.0
  0
LINE
  5
403
330
3DE
100
AcDbEntity
  8
1
  6
Continuous
100
AcDbLine
 10
677.329163
 20
201.0
 30
0.0
 11
674.3291629999998
 21
201.0
 31
0.0
  0
LINE
  5
404
330
3DE
100
AcDbEntity
  8
1
  6
Continuous
100
AcDbLine
 10
677.329163
 20
276.0
 30
0.0
 11
674.3291629999998
 21
276.0
 31
0.0
  0
LINE
  5
405
330
3DE
100
AcDbEntity
  8
4
  6
CENTER
100
AcDbLine
 10
681.829163
 20
208.4999999999999
 30
0.0
 11
669.8291629999999
 21
208.4999999999999
 31
0.0
  0
LINE
  5
406
330
3DE
100
AcDbEntity
  8
4
  6
CENTER
100
AcDbLine
 10
681.829163
 20
268.5
 30
0.0
 11
669.8291629999999
 21
268.5
 31
0.0
  0
LINE
  5
407
330
3DE
100
AcDbEntity
  8
1
  6
Continuous
100
AcDbLine
 10
677.329163
 20
252.4999999999999
 30
0.0
 11
672.329163
 21
252.4999999999999
 31
0.0
  0
LINE
  5
408
330
3DE
100
AcDbEntity
  8
1
  6
Continuous
100
AcDbLine
 10
677.329163
 20
224.5
 30
0.0
 11
672.329163
 21
224.5
 31
0.0
  0
LINE
  5
409
330
3DE
100
AcDbEntity
  8
1
  6
Continuous
100
AcDbLine
 10
674.3291629999998
 20
252.4999999999999
 30
0.0
 11
674.3291629999998
 21
276.0
 31
0.0
  0
LINE
  5
40A
330
3DE
100
AcDbEntity
  8
1
  6
Continuous
100
AcDbLine
 10
525.3291629999998
 20
243.5
 30
0.0
 11
504.3291929999998
 21
243.5
 31
0.0
  0
LINE
  5
40B
330
3DE
100
AcDbEntity
  8
1
  6
Continuous
100
AcDbLine
 10
532.3291629999999
 20
233.4999999999999
 30
0.0
 11
504.3291929999998
 21
233.4999999999999
 31
0.0
  0
LINE
  5
40C
330
3DE
100
AcDbEntity
  8
1
  6
Continuous
100
AcDbLine
 10
537.3291629999998
 20
238.5
 30
0.0
 11
537.3291629999998
 21
253.8000029999998
 31
0.0
  0
LINE
  5
40D
330
3DE
100
AcDbEntity
  8
1
  6
Continuous
100
AcDbLine
 10
537.3291629999998
 20
253.8000029999998
 30
0.0
 11
527.329163
 21
253.8000029999998
 31
0.0
  0
LINE
  5
40E
330
3DE
100
AcDbEntity
  8
1
  6
Continuous
100
AcDbLine
 10
527.329163
 20
251.5
 30
0.0
 11
517.329163
 21
251.5
 31
0.0
  0
LINE
  5
40F
330
3DE
100
AcDbEntity
  8
4
  6
CENTER
100
AcDbLine
 10
532.3291629999999
 20
396.6499939999998
 30
0.0
 11
532.3291629999999
 21
438.649994
 31
0.0
  0
LINE
  5
410
330
3DE
100
AcDbEntity
  8
4
  6
CENTER
100
AcDbLine
 10
504.3291929999998
 20
396.6499939999998
 30
0.0
 11
504.3291929999998
 21
438.649994
 31
0.0
  0
LINE
  5
411
330
3DE
100
AcDbEntity
  8
4
  6
CENTER
100
AcDbLine
 10
324.7895199999998
 20
176.1708219999999
 30
0.0
 11
209.7895199999999
 21
176.1708219999999
 31
0.0
  0
LINE
  5
412
330
3DE
100
AcDbEntity
  8
1
  6
Continuous
100
AcDbLine
 10
304.7895199999999
 20
186.1708219999999
 30
0.0
 11
300.565247
 21
186.1708219999999
 31
0.0
  0
LINE
  5
413
330
3DE
100
AcDbEntity
  8
1
  6
Continuous
100
AcDbLine
 10
304.7895199999999
 20
166.1708219999999
 30
0.0
 11
229.78952
 21
166.1708219999999
 31
0.0
  0
LINE
  5
414
330
3DE
100
AcDbEntity
  8
4
  6
CENTER
100
AcDbLine
 10
267.2895199999999
 20
401.4999999999998
 30
0.0
 11
267.2895199999999
 21
438.4999999999998
 31
0.0
  0
LINE
  5
415
330
3DE
100
AcDbEntity
  8
4
  6
CENTER
100
AcDbLine
 10
289.7895199999999
 20
431.0
 30
0.0
 11
289.7895199999999
 21
443.0
 31
0.0
  0
LINE
  5
416
330
3DE
100
AcDbEntity
  8
4
  6
CENTER
100
AcDbLine
 10
244.78952
 20
431.0
 30
0.0
 11
244.78952
 21
443.0
 31
0.0
  0
LINE
  5
417
330
3DE
100
AcDbEntity
  8
4
  6
CENTER
100
AcDbLine
 10
229.78952
 20
431.0
 30
0.0
 11
229.78952
 21
443.0
 31
0.0
  0
LINE
  5
418
330
3DE
100
AcDbEntity
  8
4
  6
CENTER
100
AcDbLine
 10
304.7895199999999
 20
431.0
 30
0.0
 11
304.7895199999999
 21
443.0
 31
0.0
  0
LINE
  5
419
330
3DE
100
AcDbEntity
  8
1
  6
Continuous
100
AcDbLine
 10
314.7895199999999
 20
435.5
 30
0.0
 11
314.7895199999999
 21
438.4999999999998
 31
0.0
  0
LINE
  5
41A
330
3DE
100
AcDbEntity
  8
1
  6
Continuous
100
AcDbLine
 10
251.5395199999999
 20
166.1708219999999
 30
0.0
 11
251.5395199999999
 21
186.1708219999999
 31
0.0
  0
LINE
  5
41B
330
3DE
100
AcDbEntity
  8
1
  6
Continuous
100
AcDbLine
 10
283.0395199999999
 20
166.1708219999999
 30
0.0
 11
283.0395199999999
 21
175.15538
 31
0.0
  0
LINE
  5
41C
330
3DE
100
AcDbEntity
  8
1
  6
Continuous
100
AcDbLine
 10
677.329163
 20
401.0
 30
0.0
 11
677.329163
 21
436.0
 31
0.0
  0
LINE
  5
41D
330
3DE
100
AcDbEntity
  8
4
  6
CENTER
100
AcDbLine
 10
687.3291629999997
 20
418.5
 30
0.0
 11
247.234741
 21
418.5
 31
0.0
  0
LINE
  5
41E
330
3DE
100
AcDbEntity
  8
1
  6
Continuous
100
AcDbLine
 10
517.329163
 20
421.0
 30
0.0
 11
257.2347409999999
 21
421.0
 31
0.0
  0
LINE
  5
41F
330
3DE
100
AcDbEntity
  8
1
  6
Continuous
100
AcDbLine
 10
517.329163
 20
416.0
 30
0.0
 11
257.2347409999999
 21
416.0
 31
0.0
  0
LINE
  5
420
330
3DE
100
AcDbEntity
  8
1
  6
Continuous
100
AcDbLine
 10
517.329163
 20
411.5
 30
0.0
 11
517.329163
 21
425.4999999999998
 31
0.0
  0
LINE
  5
421
330
3DE
100
AcDbEntity
  8
1
  6
Continuous
100
AcDbLine
 10
257.2347409999999
 20
416.0
 30
0.0
 11
257.2347409999999
 21
421.0
 31
0.0
  0
LINE
  5
422
330
3DE
100
AcDbEntity
  8
1
  6
Continuous
100
AcDbLine
 10
219.78952
 20
435.5
 30
0.0
 11
219.78952
 21
438.4999999999998
 31
0.0
  0
LINE
  5
423
330
3DE
100
AcDbEntity
  8
1
  6
Continuous
100
AcDbLine
 10
314.7895199999999
 20
438.4999999999998
 30
0.0
 11
283.0395199999999
 21
438.4999999999998
 31
0.0
  0
LINE
  5
424
330
3DE
100
AcDbEntity
  8
1
  6
Continuous
100
AcDbLine
 10
314.7895199999999
 20
435.5
 30
0.0
 11
283.0395199999999
 21
435.5
 31
0.0
  0
LINE
  5
425
330
3DE
100
AcDbEntity
  8
1
  6
Continuous
100
AcDbLine
 10
251.5395199999999
 20
425.4999999999998
 30
0.0
 11
251.5395199999999
 21
435.5
 31
0.0
  0
LINE
  5
426
330
3DE
100
AcDbEntity
  8
1
  6
Continuous
100
AcDbLine
 10
283.0395199999999
 20
425.4999999999998
 30
0.0
 11
283.0395199999999
 21
435.5
 31
0.0
  0
LINE
  5
427
330
3DE
100
AcDbEntity
  8
1
  6
Continuous
100
AcDbLine
 10
280.03952
 20
422.4999999999998
 30
0.0
 11
254.53952
 21
422.4999999999998
 31
0.0
  0
LINE
  5
428
330
3DE
100
AcDbEntity
  8
1
  6
Continuous
100
AcDbLine
 10
280.03952
 20
425.4999999999998
 30
0.0
 11
254.53952
 21
425.4999999999998
 31
0.0
  0
LINE
  5
429
330
3DE
100
AcDbEntity
  8
1
  6
Continuous
100
AcDbLine
 10
254.53952
 20
425.4999999999998
 30
0.0
 11
254.53952
 21
435.5
 31
0.0
  0
LINE
  5
42A
330
3DE
100
AcDbEntity
  8
1
  6
Continuous
100
AcDbLine
 10
280.03952
 20
425.4999999999998
 30
0.0
 11
280.03952
 21
435.5
 31
0.0
  0
LINE
  5
42B
330
3DE
100
AcDbEntity
  8
1
  6
Continuous
100
AcDbLine
 10
251.5395199999999
 20
435.5
 30
0.0
 11
219.78952
 21
435.5
 31
0.0
  0
LINE
  5
42C
330
3DE
100
AcDbEntity
  8
1
  6
Continuous
100
AcDbLine
 10
251.5395199999999
 20
438.4999999999998
 30
0.0
 11
219.78952
 21
438.4999999999998
 31
0.0
  0
LINE
  5
42D
330
3DE
100
AcDbEntity
  8
1
  6
Continuous
100
AcDbLine
 10
257.28952
 20
421.4999999999998
 30
0.0
 11
257.28952
 21
422.4999999999998
 31
0.0
  0
LINE
  5
42E
330
3DE
100
AcDbEntity
  8
1
  6
Continuous
100
AcDbLine
 10
277.2895199999999
 20
421.4999999999998
 30
0.0
 11
277.2895199999999
 21
422.4999999999998
 31
0.0
  0
LINE
  5
42F
330
3DE
100
AcDbEntity
  8
1
  6
Continuous
100
AcDbLine
 10
277.2895199999999
 20
421.4999999999998
 30
0.0
 11
257.28952
 21
421.4999999999998
 31
0.0
  0
LINE
  5
430
330
3DE
100
AcDbEntity
  8
1
  6
Continuous
100
AcDbLine
 10
272.2895199999999
 20
428.5
 30
0.0
 11
262.2895199999999
 21
428.5
 31
0.0
  0
LINE
  5
431
330
3DE
100
AcDbEntity
  8
1
  6
Continuous
100
AcDbLine
 10
262.2895199999999
 20
421.0
 30
0.0
 11
262.2895199999999
 21
421.4999999999998
 31
0.0
  0
LINE
  5
432
330
3DE
100
AcDbEntity
  8
1
  6
Continuous
100
AcDbLine
 10
272.2895199999999
 20
421.0
 30
0.0
 11
272.2895199999999
 21
421.4999999999998
 31
0.0
  0
LINE
  5
433
330
3DE
100
AcDbEntity
  8
1
  6
Continuous
100
AcDbLine
 10
273.2895199999999
 20
411.5
 30
0.0
 11
261.28952
 21
411.5
 31
0.0
  0
LINE
  5
434
330
3DE
100
AcDbEntity
  8
1
  6
Continuous
100
AcDbLine
 10
274.2895199999999
 20
414.5
 30
0.0
 11
260.2895199999999
 21
414.5
 31
0.0
  0
LINE
  5
435
330
3DE
100
AcDbEntity
  8
1
  6
Continuous
100
AcDbLine
 10
260.2895199999999
 20
412.5
 30
0.0
 11
260.2895199999999
 21
414.5
 31
0.0
  0
LINE
  5
436
330
3DE
100
AcDbEntity
  8
1
  6
Continuous
100
AcDbLine
 10
274.2895199999999
 20
412.5
 30
0.0
 11
274.2895199999999
 21
414.5
 31
0.0
  0
LINE
  5
437
330
3DE
100
AcDbEntity
  8
1
  6
Continuous
100
AcDbLine
 10
274.2895199999999
 20
412.5
 30
0.0
 11
260.2895199999999
 21
412.5
 31
0.0
  0
LINE
  5
438
330
3DE
100
AcDbEntity
  8
1
  6
Continuous
100
AcDbLine
 10
273.2895199999999
 20
411.5
 30
0.0
 11
274.2895199999999
 21
412.5
 31
0.0
  0
LINE
  5
439
330
3DE
100
AcDbEntity
  8
1
  6
Continuous
100
AcDbLine
 10
261.28952
 20
411.5
 30
0.0
 11
260.2895199999999
 21
412.5
 31
0.0
  0
LINE
  5
43A
330
3DE
100
AcDbEntity
  8
1
  6
Continuous
100
AcDbLine
 10
262.2895199999999
 20
414.5
 30
0.0
 11
262.2895199999999
 21
416.0
 31
0.0
  0
LINE
  5
43B
330
3DE
100
AcDbEntity
  8
1
  6
Continuous
100
AcDbLine
 10
272.2895199999999
 20
414.5
 30
0.0
 11
272.2895199999999
 21
416.0
 31
0.0
  0
LINE
  5
43C
330
3DE
100
AcDbEntity
  8
1
  6
Continuous
100
AcDbLine
 10
667.329163
 20
410.5
 30
0.0
 11
667.329163
 21
413.4999999999998
 31
0.0
  0
LINE
  5
43D
330
3DE
100
AcDbEntity
  8
1
  6
Continuous
100
AcDbLine
 10
447.329193
 20
411.5
 30
0.0
 11
447.329193
 21
416.0
 31
0.0
  0
LINE
  5
43E
330
3DE
100
AcDbEntity
  8
1
  6
Continuous
100
AcDbLine
 10
517.329163
 20
423.5
 30
0.0
 11
447.329193
 21
423.5
 31
0.0
  0
LINE
  5
43F
330
3DE
100
AcDbEntity
  8
1
  6
Continuous
100
AcDbLine
 10
517.329163
 20
413.4999999999998
 30
0.0
 11
447.329193
 21
413.4999999999998
 31
0.0
  0
LINE
  5
440
330
3DE
100
AcDbEntity
  8
1
  6
Continuous
100
AcDbLine
 10
447.329193
 20
421.0
 30
0.0
 11
447.329193
 21
425.4999999999998
 31
0.0
  0
LINE
  5
441
330
3DE
100
AcDbEntity
  8
1
  6
Continuous
100
AcDbLine
 10
667.329163
 20
425.4999999999998
 30
0.0
 11
537.3291629999998
 21
425.4999999999998
 31
0.0
  0
LINE
  5
442
330
3DE
100
AcDbEntity
  8
1
  6
Continuous
100
AcDbLine
 10
667.329163
 20
411.5
 30
0.0
 11
537.3291629999998
 21
411.5
 31
0.0
  0
LINE
  5
443
330
3DE
100
AcDbEntity
  8
1
  6
Continuous
100
AcDbLine
 10
467.3291929999998
 20
413.4999999999998
 30
0.0
 11
467.3291929999998
 21
416.0
 31
0.0
  0
LINE
  5
444
330
3DE
100
AcDbEntity
  8
1
  6
Continuous
100
AcDbLine
 10
467.3291929999998
 20
421.0
 30
0.0
 11
467.3291929999998
 21
423.5
 31
0.0
  0
LINE
  5
445
330
3DE
100
AcDbEntity
  8
1
  6
Continuous
100
AcDbLine
 10
500.3291929999998
 20
414.25
 30
0.0
 11
500.3291929999998
 21
416.0
 31
0.0
  0
LINE
  5
446
330
3DE
100
AcDbEntity
  8
1
  6
Continuous
100
AcDbLine
 10
508.3291929999998
 20
414.25
 30
0.0
 11
508.3291929999998
 21
416.0
 31
0.0
  0
LINE
  5
447
330
3DE
100
AcDbEntity
  8
1
  6
Continuous
100
AcDbLine
 10
502.329193
 20
413.4999999999998
 30
0.0
 11
502.329193
 21
414.25
 31
0.0
  0
LINE
  5
448
330
3DE
100
AcDbEntity
  8
1
  6
Continuous
100
AcDbLine
 10
506.329193
 20
413.4999999999998
 30
0.0
 11
506.329193
 21
414.25
 31
0.0
  0
LINE
  5
449
330
3DE
100
AcDbEntity
  8
1
  6
Continuous
100
AcDbLine
 10
508.3291929999998
 20
421.0
 30
0.0
 11
508.3291929999998
 21
422.75
 31
0.0
  0
LINE
  5
44A
330
3DE
100
AcDbEntity
  8
1
  6
Continuous
100
AcDbLine
 10
500.3291929999998
 20
421.0
 30
0.0
 11
500.3291929999998
 21
422.75
 31
0.0
  0
LINE
  5
44B
330
3DE
100
AcDbEntity
  8
1
  6
Continuous
100
AcDbLine
 10
508.3291929999998
 20
414.25
 30
0.0
 11
500.3291929999998
 21
414.25
 31
0.0
  0
LINE
  5
44C
330
3DE
100
AcDbEntity
  8
1
  6
Continuous
100
AcDbLine
 10
506.329193
 20
428.6499939999997
 30
0.0
 11
502.329193
 21
428.6499939999997
 31
0.0
  0
LINE
  5
44D
330
3DE
100
AcDbEntity
  8
1
  6
Continuous
100
AcDbLine
 10
502.329193
 20
427.6499939999998
 30
0.0
 11
502.329193
 21
428.6499939999997
 31
0.0
  0
LINE
  5
44E
330
3DE
100
AcDbEntity
  8
1
  6
Continuous
100
AcDbLine
 10
506.329193
 20
427.6499939999998
 30
0.0
 11
506.329193
 21
428.6499939999997
 31
0.0
  0
LINE
  5
44F
330
3DE
100
AcDbEntity
  8
1
  6
Continuous
100
AcDbLine
 10
527.329163
 20
425.649994
 30
0.0
 11
499.3291929999998
 21
425.649994
 31
0.0
  0
LINE
  5
450
330
3DE
100
AcDbEntity
  8
1
  6
Continuous
100
AcDbLine
 10
527.329163
 20
411.3500059999998
 30
0.0
 11
499.3291929999998
 21
411.3500059999998
 31
0.0
  0
LINE
  5
451
330
3DE
100
AcDbEntity
  8
1
  6
Continuous
100
AcDbLine
 10
537.3291629999998
 20
409.350006
 30
0.0
 11
499.3291929999998
 21
409.350006
 31
0.0
  0
LINE
  5
452
330
3DE
100
AcDbEntity
  8
1
  6
Continuous
100
AcDbLine
 10
537.3291629999998
 20
427.6499939999998
 30
0.0
 11
499.3291929999998
 21
427.6499939999998
 31
0.0
  0
LINE
  5
453
330
3DE
100
AcDbEntity
  8
1
  6
Continuous
100
AcDbLine
 10
506.329193
 20
411.3500059999998
 30
0.0
 11
506.329193
 21
411.5
 31
0.0
  0
LINE
  5
454
330
3DE
100
AcDbEntity
  8
1
  6
Continuous
100
AcDbLine
 10
502.329193
 20
411.3500059999998
 30
0.0
 11
502.329193
 21
411.5
 31
0.0
  0
LINE
  5
455
330
3DE
100
AcDbEntity
  8
1
  6
Continuous
100
AcDbLine
 10
506.329193
 20
425.4999999999998
 30
0.0
 11
506.329193
 21
425.649994
 31
0.0
  0
LINE
  5
456
330
3DE
100
AcDbEntity
  8
1
  6
Continuous
100
AcDbLine
 10
502.329193
 20
425.4999999999998
 30
0.0
 11
502.329193
 21
425.649994
 31
0.0
  0
LINE
  5
457
330
3DE
100
AcDbEntity
  8
1
  6
Continuous
100
AcDbLine
 10
499.3291929999998
 20
409.350006
 30
0.0
 11
499.3291929999998
 21
411.3500059999998
 31
0.0
  0
LINE
  5
458
330
3DE
100
AcDbEntity
  8
1
  6
Continuous
100
AcDbLine
 10
499.3291929999998
 20
425.649994
 30
0.0
 11
499.3291929999998
 21
427.6499939999998
 31
0.0
  0
LINE
  5
459
330
3DE
100
AcDbEntity
  8
1
  6
Continuous
100
AcDbLine
 10
461.3291929999999
 20
426.4999999999998
 30
0.0
 11
453.3291929999998
 21
426.4999999999998
 31
0.0
  0
LINE
  5
45A
330
3DE
100
AcDbEntity
  8
1
  6
Continuous
100
AcDbLine
 10
453.3291929999998
 20
425.4999999999998
 30
0.0
 11
453.3291929999998
 21
426.4999999999998
 31
0.0
  0
LINE
  5
45B
330
3DE
100
AcDbEntity
  8
1
  6
Continuous
100
AcDbLine
 10
461.3291929999999
 20
425.4999999999998
 30
0.0
 11
461.3291929999999
 21
426.4999999999998
 31
0.0
  0
LINE
  5
45C
330
3DE
100
AcDbEntity
  8
1
  6
Continuous
100
AcDbLine
 10
534.329163
 20
428.6499939999997
 30
0.0
 11
530.329163
 21
428.6499939999997
 31
0.0
  0
LINE
  5
45D
330
3DE
100
AcDbEntity
  8
1
  6
Continuous
100
AcDbLine
 10
530.329163
 20
427.6499939999998
 30
0.0
 11
530.329163
 21
428.6499939999997
 31
0.0
  0
LINE
  5
45E
330
3DE
100
AcDbEntity
  8
1
  6
Continuous
100
AcDbLine
 10
534.329163
 20
427.6499939999998
 30
0.0
 11
534.329163
 21
428.6499939999997
 31
0.0
  0
LINE
  5
45F
330
3DE
100
AcDbEntity
  8
4
  6
CENTER
100
AcDbLine
 10
567.329163
 20
398.7999879999999
 30
0.0
 11
567.329163
 21
436.5
 31
0.0
  0
LINE
  5
460
330
3DE
100
AcDbEntity
  8
1
  6
Continuous
100
AcDbLine
 10
537.3291629999998
 20
409.350006
 30
0.0
 11
537.3291629999998
 21
427.6499939999998
 31
0.0
  0
LINE
  5
461
330
3DE
100
AcDbEntity
  8
1
  6
Continuous
100
AcDbLine
 10
569.329163
 20
426.4999999999998
 30
0.0
 11
565.329163
 21
426.4999999999998
 31
0.0
  0
LINE
  5
462
330
3DE
100
AcDbEntity
  8
1
  6
Continuous
100
AcDbLine
 10
565.329163
 20
425.4999999999998
 30
0.0
 11
565.329163
 21
426.4999999999998
 31
0.0
  0
LINE
  5
463
330
3DE
100
AcDbEntity
  8
1
  6
Continuous
100
AcDbLine
 10
569.329163
 20
425.4999999999998
 30
0.0
 11
569.329163
 21
426.4999999999998
 31
0.0
  0
LINE
  5
464
330
3DE
100
AcDbEntity
  8
1
  6
Continuous
100
AcDbLine
 10
667.329163
 20
413.4999999999998
 30
0.0
 11
647.329163
 21
413.4999999999998
 31
0.0
  0
LINE
  5
465
330
3DE
100
AcDbEntity
  8
1
  6
Continuous
100
AcDbLine
 10
667.329163
 20
423.5
 30
0.0
 11
647.329163
 21
423.5
 31
0.0
  0
LINE
  5
466
330
3DE
100
AcDbEntity
  8
1
  6
Continuous
100
AcDbLine
 10
667.329163
 20
423.5
 30
0.0
 11
667.329163
 21
426.4999999999998
 31
0.0
  0
LINE
  5
467
330
3DE
100
AcDbEntity
  8
1
  6
Continuous
100
AcDbLine
 10
674.3291629999998
 20
407.5
 30
0.0
 11
647.329163
 21
407.5
 31
0.0
  0
LINE
  5
468
330
3DE
100
AcDbEntity
  8
1
  6
Continuous
100
AcDbLine
 10
674.3291629999998
 20
429.4999999999998
 30
0.0
 11
647.329163
 21
429.4999999999998
 31
0.0
  0
LINE
  5
469
330
3DE
100
AcDbEntity
  8
1
  6
Continuous
100
AcDbLine
 10
674.3291629999998
 20
401.4999999999998
 30
0.0
 11
674.3291629999998
 21
436.5
 31
0.0
  0
LINE
  5
46A
330
3DE
100
AcDbEntity
  8
1
  6
Continuous
100
AcDbLine
 10
677.329163
 20
401.0
 30
0.0
 11
674.3291629999998
 21
401.0
 31
0.0
  0
LINE
  5
46B
330
3DE
100
AcDbEntity
  8
1
  6
Continuous
100
AcDbLine
 10
677.329163
 20
436.0
 30
0.0
 11
674.3291629999998
 21
436.0
 31
0.0
  0
LINE
  5
46C
330
3DE
100
AcDbEntity
  8
1
  6
Continuous
100
AcDbLine
 10
674.3291629999998
 20
410.5
 30
0.0
 11
647.329163
 21
410.5
 31
0.0
  0
LINE
  5
46D
330
3DE
100
AcDbEntity
  8
1
  6
Continuous
100
AcDbLine
 10
674.3291629999998
 20
426.4999999999998
 30
0.0
 11
647.329163
 21
426.4999999999998
 31
0.0
  0
LINE
  5
46E
330
3DE
100
AcDbEntity
  8
1
  6
Continuous
100
AcDbLine
 10
661.3291629999999
 20
431.5
 30
0.0
 11
653.3291629999999
 21
431.5
 31
0.0
  0
LINE
  5
46F
330
3DE
100
AcDbEntity
  8
1
  6
Continuous
100
AcDbLine
 10
653.3291629999999
 20
429.4999999999998
 30
0.0
 11
653.3291629999999
 21
431.5
 31
0.0
  0
LINE
  5
470
330
3DE
100
AcDbEntity
  8
1
  6
Continuous
100
AcDbLine
 10
661.3291629999999
 20
429.4999999999998
 30
0.0
 11
661.3291629999999
 21
431.5
 31
0.0
  0
LINE
  5
471
330
3DE
100
AcDbEntity
  8
1
  6
Continuous
100
AcDbLine
 10
647.329163
 20
410.5
 30
0.0
 11
647.329163
 21
425.4999999999998
 31
0.0
  0
LINE
  5
472
330
3DE
100
AcDbEntity
  8
1
  6
Continuous
100
AcDbLine
 10
527.329163
 20
409.350006
 30
0.0
 11
527.329163
 21
427.6499939999998
 31
0.0
  0
LINE
  5
473
330
3DE
100
AcDbEntity
  8
1
  6
Continuous
100
AcDbLine
 10
517.329163
 20
411.5
 30
0.0
 11
447.329193
 21
411.5
 31
0.0
  0
LINE
  5
474
330
3DE
100
AcDbEntity
  8
1
  6
Continuous
100
AcDbLine
 10
517.329163
 20
425.4999999999998
 30
0.0
 11
447.329193
 21
425.4999999999998
 31
0.0
  0
LINE
  5
475
330
3DE
100
AcDbEntity
  8
1
  6
Continuous
100
AcDbLine
 10
527.329163
 20
411.5
 30
0.0
 11
525.3291629999998
 21
411.5
 31
0.0
  0
LINE
  5
476
330
3DE
100
AcDbEntity
  8
1
  6
Continuous
100
AcDbLine
 10
527.329163
 20
425.4999999999998
 30
0.0
 11
525.3291629999998
 21
425.4999999999998
 31
0.0
  0
LINE
  5
477
330
3DE
100
AcDbEntity
  8
1
  6
Continuous
100
AcDbLine
 10
535.329163
 20
415.5
 30
0.0
 11
535.329163
 21
421.4999999999998
 31
0.0
  0
LINE
  5
478
330
3DE
100
AcDbEntity
  8
1
  6
Continuous
100
AcDbLine
 10
529.3292239999998
 20
418.5000309999998
 30
0.0
 11
535.329224
 21
415.500031
 31
0.0
  0
LINE
  5
479
330
3DE
100
AcDbEntity
  8
1
  6
Continuous
100
AcDbLine
 10
529.3291629999998
 20
418.5
 30
0.0
 11
535.329224
 21
421.4999999999998
 31
0.0
  0
LINE
  5
47A
330
3DE
100
AcDbEntity
  8
1
  6
Continuous
100
AcDbLine
 10
263.8768309999999
 20
186.1708219999999
 30
0.0
 11
229.78952
 21
186.1708219999999
 31
0.0
  0
LINE
  5
47B
330
3DE
100
AcDbEntity
  8
4
  6
CENTER
100
AcDbLine
 10
229.78952
 20
165.5708159999998
 30
0.0
 11
229.78952
 21
186.7708129999998
 31
0.0
  0
LINE
  5
47C
330
3DE
100
AcDbEntity
  8
4
  6
CENTER
100
AcDbLine
 10
244.78952
 20
165.5708159999998
 30
0.0
 11
244.78952
 21
186.7708129999998
 31
0.0
  0
LINE
  5
47D
330
3DE
100
AcDbEntity
  8
4
  6
CENTER
100
AcDbLine
 10
289.7895199999999
 20
165.5708159999998
 30
0.0
 11
289.7895199999999
 21
186.7708129999998
 31
0.0
  0
LINE
  5
47E
330
3DE
100
AcDbEntity
  8
4
  6
CENTER
100
AcDbLine
 10
304.7895199999999
 20
165.5708159999998
 30
0.0
 11
304.7895199999999
 21
186.7708129999998
 31
0.0
  0
LINE
  5
47F
330
3DE
100
AcDbEntity
  8
4
  6
CENTER
100
AcDbLine
 10
267.2895199999999
 20
162.1708219999999
 30
0.0
 11
267.2895199999999
 21
190.1708219999999
 31
0.0
  0
LINE
  5
480
330
3DE
100
AcDbEntity
  8
4
  6
CENTER
100
AcDbLine
 10
657.3291629999999
 20
224.5
 30
0.0
 11
657.3291629999999
 21
252.4999999999999
 31
0.0
  0
LINE
  5
481
330
3DE
100
AcDbEntity
  8
4
  6
CENTER
100
AcDbLine
 10
567.329163
 20
231.4999999999999
 30
0.0
 11
567.329163
 21
245.5
 31
0.0
  0
LINE
  5
482
330
3DE
100
AcDbEntity
  8
4
  6
CENTER
100
AcDbLine
 10
532.3291629999999
 20
231.4999999999999
 30
0.0
 11
532.3291629999999
 21
245.5
 31
0.0
  0
LINE
  5
483
330
3DE
100
AcDbEntity
  8
4
  6
CENTER
100
AcDbLine
 10
504.3291929999998
 20
231.4999999999999
 30
0.0
 11
504.3291929999998
 21
245.5
 31
0.0
  0
LINE
  5
484
330
3DE
100
AcDbEntity
  8
4
  6
CENTER
100
AcDbLine
 10
457.3291929999999
 20
224.5
 30
0.0
 11
457.3291929999999
 21
252.4999999999999
 31
0.0
  0
LINE
  5
485
330
3DE
100
AcDbEntity
  8
1
  6
Continuous
100
AcDbLine
 10
661.3291629999999
 20
413.4999999999998
 30
0.0
 11
661.3291629999999
 21
423.5
 31
0.0
  0
LINE
  5
486
330
3DE
100
AcDbEntity
  8
1
  6
Continuous
100
AcDbLine
 10
653.3291629999999
 20
413.4999999999998
 30
0.0
 11
653.3291629999999
 21
423.5
 31
0.0
  0
LINE
  5
487
330
3DE
100
AcDbEntity
  8
4
  6
CENTER
100
AcDbLine
 10
681.829163
 20
428.5
 30
0.0
 11
669.8291629999999
 21
428.5
 31
0.0
  0
LINE
  5
488
330
3DE
100
AcDbEntity
  8
4
  6
CENTER
100
AcDbLine
 10
681.829163
 20
409.0
 30
0.0
 11
669.8291629999999
 21
409.0
 31
0.0
  0
LINE
  5
489
330
3DE
100
AcDbEntity
  8
1
  6
Continuous
100
AcDbLine
 10
889.6583859999998
 20
438.4999999999998
 30
0.0
 11
869.6583859999996
 21
438.4999999999998
 31
0.0
  0
LINE
  5
48A
330
3DE
100
AcDbEntity
  8
1
  6
Continuous
100
AcDbLine
 10
779.829163
 20
408.4999999999998
 30
0.0
 11
779.829163
 21
428.5
 31
0.0
  0
LINE
  5
48B
330
3DE
100
AcDbEntity
  8
1
  6
Continuous
100
AcDbLine
 10
854.8291630000001
 20
408.4999999999998
 30
0.0
 11
854.8291630000001
 21
428.5
 31
0.0
  0
LINE
  5
48C
330
3DE
100
AcDbEntity
  8
4
  6
CENTER
100
AcDbLine
 10
817.3291629999999
 20
391.5
 30
0.0
 11
817.3291629999999
 21
441.5
 31
0.0
  0
LINE
  5
48D
330
3DE
100
AcDbEntity
  8
4
  6
CENTER
100
AcDbLine
 10
879.6583859999996
 20
401.4999999999998
 30
0.0
 11
879.6583859999996
 21
448.5
 31
0.0
  0
LINE
  5
48E
330
3DE
100
AcDbEntity
  8
1
  6
Continuous
100
AcDbLine
 10
889.6583859999998
 20
416.0
 30
0.0
 11
889.6583859999998
 21
421.0
 31
0.0
  0
LINE
  5
48F
330
3DE
100
AcDbEntity
  8
1
  6
Continuous
100
AcDbLine
 10
869.6583859999996
 20
421.4999999999998
 30
0.0
 11
869.6583859999996
 21
438.4999999999998
 31
0.0
  0
LINE
  5
490
330
3DE
100
AcDbEntity
  8
1
  6
Continuous
100
AcDbLine
 10
794.8291629999999
 20
408.4999999999998
 30
0.0
 11
794.8291629999999
 21
408.4999999999998
 31
0.0
  0
LINE
  5
491
330
3DE
100
AcDbEntity
  8
1
  6
Continuous
100
AcDbLine
 10
839.8291630000001
 20
408.4999999999998
 30
0.0
 11
839.8291630000001
 21
408.4999999999998
 31
0.0
  0
LINE
  5
492
330
3DE
100
AcDbEntity
  8
1
  6
Continuous
100
AcDbLine
 10
831.329163
 20
407.5
 30
0.0
 11
803.329163
 21
407.5
 31
0.0
  0
LINE
  5
493
330
3DE
100
AcDbEntity
  8
1
  6
Continuous
100
AcDbLine
 10
831.329163
 20
429.4999999999998
 30
0.0
 11
803.329163
 21
429.4999999999998
 31
0.0
  0
LINE
  5
494
330
3DE
100
AcDbEntity
  8
4
  6
CENTER
100
AcDbLine
 10
899.6583859999999
 20
418.5
 30
0.0
 11
769.8291629999999
 21
418.5
 31
0.0
  0
LINE
  5
495
330
3DE
100
AcDbEntity
  8
1
  6
Continuous
100
AcDbLine
 10
837.8291629999999
 20
410.5
 30
0.0
 11
833.3291629999999
 21
410.5
 31
0.0
  0
LINE
  5
496
330
3DE
100
AcDbEntity
  8
1
  6
Continuous
100
AcDbLine
 10
837.8291629999999
 20
426.4999999999998
 30
0.0
 11
833.3291629999999
 21
426.4999999999998
 31
0.0
  0
LINE
  5
497
330
3DE
100
AcDbEntity
  8
1
  6
Continuous
100
AcDbLine
 10
803.329163
 20
407.5
 30
0.0
 11
803.329163
 21
408.4999999999998
 31
0.0
  0
LINE
  5
498
330
3DE
100
AcDbEntity
  8
1
  6
Continuous
100
AcDbLine
 10
831.329163
 20
407.5
 30
0.0
 11
831.329163
 21
408.4999999999998
 31
0.0
  0
LINE
  5
499
330
3DE
100
AcDbEntity
  8
1
  6
Continuous
100
AcDbLine
 10
801.3291629999999
 20
410.5
 30
0.0
 11
796.829163
 21
410.5
 31
0.0
  0
LINE
  5
49A
330
3DE
100
AcDbEntity
  8
1
  6
Continuous
100
AcDbLine
 10
831.329163
 20
428.5
 30
0.0
 11
831.329163
 21
429.4999999999998
 31
0.0
  0
LINE
  5
49B
330
3DE
100
AcDbEntity
  8
1
  6
Continuous
100
AcDbLine
 10
803.329163
 20
428.5
 30
0.0
 11
803.329163
 21
429.4999999999998
 31
0.0
  0
LINE
  5
49C
330
3DE
100
AcDbEntity
  8
1
  6
Continuous
100
AcDbLine
 10
839.8291630000001
 20
428.5
 30
0.0
 11
839.8291630000001
 21
428.5
 31
0.0
  0
LINE
  5
49D
330
3DE
100
AcDbEntity
  8
1
  6
Continuous
100
AcDbLine
 10
794.8291629999999
 20
428.5
 30
0.0
 11
794.8291629999999
 21
428.5
 31
0.0
  0
LINE
  5
49E
330
3DE
100
AcDbEntity
  8
4
  6
CENTER
100
AcDbLine
 10
847.3291630000003
 20
403.200012
 30
0.0
 11
847.3291630000003
 21
413.7999879999998
 31
0.0
  0
LINE
  5
49F
330
3DE
100
AcDbEntity
  8
4
  6
CENTER
100
AcDbLine
 10
852.6292109999996
 20
408.4999999999998
 30
0.0
 11
842.029175
 21
408.4999999999998
 31
0.0
  0
LINE
  5
4A0
330
3DE
100
AcDbEntity
  8
4
  6
CENTER
100
AcDbLine
 10
847.3291630000003
 20
423.200012
 30
0.0
 11
847.3291630000003
 21
433.7999879999999
 31
0.0
  0
LINE
  5
4A1
330
3DE
100
AcDbEntity
  8
4
  6
CENTER
100
AcDbLine
 10
852.6292109999996
 20
428.5
 30
0.0
 11
842.029175
 21
428.5
 31
0.0
  0
LINE
  5
4A2
330
3DE
100
AcDbEntity
  8
4
  6
CENTER
100
AcDbLine
 10
787.3291629999998
 20
423.200012
 30
0.0
 11
787.3291629999998
 21
433.7999879999999
 31
0.0
  0
LINE
  5
4A3
330
3DE
100
AcDbEntity
  8
4
  6
CENTER
100
AcDbLine
 10
792.629211
 20
428.5
 30
0.0
 11
782.0291749999999
 21
428.5
 31
0.0
  0
LINE
  5
4A4
330
3DE
100
AcDbEntity
  8
4
  6
CENTER
100
AcDbLine
 10
787.3291629999998
 20
403.200012
 30
0.0
 11
787.3291629999998
 21
413.7999879999998
 31
0.0
  0
LINE
  5
4A5
330
3DE
100
AcDbEntity
  8
4
  6
CENTER
100
AcDbLine
 10
792.629211
 20
408.4999999999998
 30
0.0
 11
782.0291749999999
 21
408.4999999999998
 31
0.0
  0
LINE
  5
4A6
330
3DE
100
AcDbEntity
  8
1
  6
Continuous
100
AcDbLine
 10
821.329163
 20
429.4999999999998
 30
0.0
 11
821.329163
 21
431.5
 31
0.0
  0
LINE
  5
4A7
330
3DE
100
AcDbEntity
  8
1
  6
Continuous
100
AcDbLine
 10
813.329163
 20
429.4999999999998
 30
0.0
 11
813.329163
 21
431.5
 31
0.0
  0
LINE
  5
4A8
330
3DE
100
AcDbEntity
  8
1
  6
Continuous
100
AcDbLine
 10
821.329163
 20
431.5
 30
0.0
 11
813.329163
 21
431.5
 31
0.0
  0
LINE
  5
4A9
330
3DE
100
AcDbEntity
  8
1
  6
Continuous
100
AcDbLine
 10
889.6583859999998
 20
422.4999999999998
 30
0.0
 11
869.6583859999996
 21
422.4999999999998
 31
0.0
  0
LINE
  5
4AA
330
3DE
100
AcDbEntity
  8
1
  6
Continuous
100
AcDbLine
 10
889.6583859999998
 20
421.0
 30
0.0
 11
854.8291630000001
 21
421.0
 31
0.0
  0
LINE
  5
4AB
330
3DE
100
AcDbEntity
  8
1
  6
Continuous
100
AcDbLine
 10
889.6583859999998
 20
435.5
 30
0.0
 11
869.6583859999996
 21
435.5
 31
0.0
  0
LINE
  5
4AC
330
3DE
100
AcDbEntity
  8
1
  6
Continuous
100
AcDbLine
 10
886.6583859999996
 20
414.5
 30
0.0
 11
872.6583859999998
 21
414.5
 31
0.0
  0
LINE
  5
4AD
330
3DE
100
AcDbEntity
  8
1
  6
Continuous
100
AcDbLine
 10
889.6583859999998
 20
421.4999999999998
 30
0.0
 11
869.6583859999996
 21
421.4999999999998
 31
0.0
  0
LINE
  5
4AE
330
3DE
100
AcDbEntity
  8
1
  6
Continuous
100
AcDbLine
 10
889.6583859999998
 20
416.0
 30
0.0
 11
854.8291630000001
 21
416.0
 31
0.0
  0
LINE
  5
4AF
330
3DE
100
AcDbEntity
  8
1
  6
Continuous
100
AcDbLine
 10
884.6583859999999
 20
414.5
 30
0.0
 11
884.6583859999999
 21
416.0
 31
0.0
  0
LINE
  5
4B0
330
3DE
100
AcDbEntity
  8
1
  6
Continuous
100
AcDbLine
 10
874.6583859999999
 20
414.5
 30
0.0
 11
874.6583859999999
 21
416.0
 31
0.0
  0
LINE
  5
4B1
330
3DE
100
AcDbEntity
  8
1
  6
Continuous
100
AcDbLine
 10
872.6583859999998
 20
412.5
 30
0.0
 11
872.6583859999998
 21
414.5
 31
0.0
  0
LINE
  5
4B2
330
3DE
100
AcDbEntity
  8
1
  6
Continuous
100
AcDbLine
 10
886.6583859999996
 20
412.5
 30
0.0
 11
886.6583859999996
 21
414.5
 31
0.0
  0
LINE
  5
4B3
330
3DE
100
AcDbEntity
  8
1
  6
Continuous
100
AcDbLine
 10
885.6583859999997
 20
411.5
 30
0.0
 11
873.6583859999997
 21
411.5
 31
0.0
  0
LINE
  5
4B4
330
3DE
100
AcDbEntity
  8
1
  6
Continuous
100
AcDbLine
 10
886.6583859999996
 20
412.499969
 30
0.0
 11
885.6583859999997
 21
411.5
 31
0.0
  0
LINE
  5
4B5
330
3DE
100
AcDbEntity
  8
1
  6
Continuous
100
AcDbLine
 10
873.6583859999997
 20
411.5
 30
0.0
 11
872.6583859999998
 21
412.5
 31
0.0
  0
LINE
  5
4B6
330
3DE
100
AcDbEntity
  8
1
  6
Continuous
100
AcDbLine
 10
886.6583859999996
 20
412.5
 30
0.0
 11
872.6583859999998
 21
412.5
 31
0.0
  0
LINE
  5
4B7
330
3DE
100
AcDbEntity
  8
1
  6
Continuous
100
AcDbLine
 10
889.6583859999998
 20
421.4999999999998
 30
0.0
 11
889.6583859999998
 21
438.4999999999998
 31
0.0
  0
LINE
  5
4B8
330
3DE
100
AcDbEntity
  8
1
  6
Continuous
100
AcDbLine
 10
874.6583859999999
 20
421.0
 30
0.0
 11
874.6583859999999
 21
421.4999999999998
 31
0.0
  0
LINE
  5
4B9
330
3DE
100
AcDbEntity
  8
1
  6
Continuous
100
AcDbLine
 10
884.6583859999999
 20
421.0
 30
0.0
 11
884.6583859999999
 21
421.4999999999998
 31
0.0
  0
LINE
  5
4BA
330
3DE
100
AcDbEntity
  8
4
  6
CENTER
100
AcDbLine
 10
97.329185
 20
392.0
 30
0.0
 11
97.329185
 21
442.0
 31
0.0
  0
LINE
  5
4BB
330
3DE
100
AcDbEntity
  8
4
  6
CENTER
100
AcDbLine
 10
35.0
 20
402.5
 30
0.0
 11
35.0
 21
448.5
 31
0.0
  0
LINE
  5
4BC
330
3DE
100
AcDbEntity
  8
1
  6
Continuous
100
AcDbLine
 10
25.0
 20
438.4999999999998
 30
0.0
 11
45.0
 21
438.4999999999998
 31
0.0
  0
LINE
  5
4BD
330
3DE
100
AcDbEntity
  8
1
  6
Continuous
100
AcDbLine
 10
134.829178
 20
408.4999999999998
 30
0.0
 11
134.829178
 21
428.5
 31
0.0
  0
LINE
  5
4BE
330
3DE
100
AcDbEntity
  8
1
  6
Continuous
100
AcDbLine
 10
59.829185
 20
408.4999999999998
 30
0.0
 11
59.829185
 21
416.0
 31
0.0
  0
LINE
  5
4BF
330
3DE
100
AcDbEntity
  8
1
  6
Continuous
100
AcDbLine
 10
25.0
 20
416.0
 30
0.0
 11
25.0
 21
421.0
 31
0.0
  0
LINE
  5
4C0
330
3DE
100
AcDbEntity
  8
1
  6
Continuous
100
AcDbLine
 10
45.0
 20
421.4999999999998
 30
0.0
 11
45.0
 21
438.4999999999998
 31
0.0
  0
LINE
  5
4C1
330
3DE
100
AcDbEntity
  8
1
  6
Continuous
100
AcDbLine
 10
119.829185
 20
408.4999999999998
 30
0.0
 11
119.829185
 21
408.4999999999998
 31
0.0
  0
LINE
  5
4C2
330
3DE
100
AcDbEntity
  8
1
  6
Continuous
100
AcDbLine
 10
74.82918499999998
 20
408.4999999999998
 30
0.0
 11
74.82918499999998
 21
408.4999999999998
 31
0.0
  0
LINE
  5
4C3
330
3DE
100
AcDbEntity
  8
1
  6
Continuous
100
AcDbLine
 10
111.329185
 20
407.5
 30
0.0
 11
111.329185
 21
409.4765009999998
 31
0.0
  0
LINE
  5
4C4
330
3DE
100
AcDbEntity
  8
1
  6
Continuous
100
AcDbLine
 10
76.82918499999998
 20
426.4999999999998
 30
0.0
 11
81.32918499999998
 21
426.4999999999998
 31
0.0
  0
LINE
  5
4C5
330
3DE
100
AcDbEntity
  8
1
  6
Continuous
100
AcDbLine
 10
76.82918499999998
 20
410.5
 30
0.0
 11
81.32918499999998
 21
410.5
 31
0.0
  0
LINE
  5
4C6
330
3DE
100
AcDbEntity
  8
1
  6
Continuous
100
AcDbLine
 10
83.32918499999998
 20
429.4999999999998
 30
0.0
 11
111.329185
 21
429.4999999999998
 31
0.0
  0
LINE
  5
4C7
330
3DE
100
AcDbEntity
  8
1
  6
Continuous
100
AcDbLine
 10
83.32918499999998
 20
407.5
 30
0.0
 11
93.61434199999999
 21
407.5
 31
0.0
  0
LINE
  5
4C8
330
3DE
100
AcDbEntity
  8
1
  6
Continuous
100
AcDbLine
 10
83.32918499999998
 20
407.5
 30
0.0
 11
83.32918499999998
 21
410.5
 31
0.0
  0
LINE
  5
4C9
330
3DE
100
AcDbEntity
  8
1
  6
Continuous
100
AcDbLine
 10
113.329185
 20
410.5
 30
0.0
 11
117.829185
 21
410.5
 31
0.0
  0
LINE
  5
4CA
330
3DE
100
AcDbEntity
  8
1
  6
Continuous
100
AcDbLine
 10
113.329185
 20
426.4999999999998
 30
0.0
 11
117.829185
 21
426.4999999999998
 31
0.0
  0
LINE
  5
4CB
330
3DE
100
AcDbEntity
  8
1
  6
Continuous
100
AcDbLine
 10
83.32918499999998
 20
426.4999999999998
 30
0.0
 11
83.32918499999998
 21
429.4999999999998
 31
0.0
  0
LINE
  5
4CC
330
3DE
100
AcDbEntity
  8
1
  6
Continuous
100
AcDbLine
 10
111.329185
 20
427.523499
 30
0.0
 11
111.329185
 21
429.4999999999998
 31
0.0
  0
LINE
  5
4CD
330
3DE
100
AcDbEntity
  8
1
  6
Continuous
100
AcDbLine
 10
74.82918499999998
 20
428.5
 30
0.0
 11
74.82918499999998
 21
428.5
 31
0.0
  0
LINE
  5
4CE
330
3DE
100
AcDbEntity
  8
1
  6
Continuous
100
AcDbLine
 10
119.829185
 20
428.5
 30
0.0
 11
119.829185
 21
428.5
 31
0.0
  0
LINE
  5
4CF
330
3DE
100
AcDbEntity
  8
4
  6
CENTER
100
AcDbLine
 10
56.729183
 20
408.4999999999998
 30
0.0
 11
77.92918399999997
 21
408.4999999999998
 31
0.0
  0
LINE
  5
4D0
330
3DE
100
AcDbEntity
  8
4
  6
CENTER
100
AcDbLine
 10
56.729183
 20
428.5
 30
0.0
 11
77.92918399999997
 21
428.5
 31
0.0
  0
LINE
  5
4D1
330
3DE
100
AcDbEntity
  8
4
  6
CENTER
100
AcDbLine
 10
67.329185
 20
397.8999939999998
 30
0.0
 11
67.329185
 21
439.1000059999998
 31
0.0
  0
LINE
  5
4D2
330
3DE
100
AcDbEntity
  8
4
  6
CENTER
100
AcDbLine
 10
116.729187
 20
428.5
 30
0.0
 11
137.929184
 21
428.5
 31
0.0
  0
LINE
  5
4D3
330
3DE
100
AcDbEntity
  8
4
  6
CENTER
100
AcDbLine
 10
127.329185
 20
397.8999939999998
 30
0.0
 11
127.329185
 21
439.1000059999998
 31
0.0
  0
LINE
  5
4D4
330
3DE
100
AcDbEntity
  8
4
  6
CENTER
100
AcDbLine
 10
116.729187
 20
408.4999999999998
 30
0.0
 11
137.929184
 21
408.4999999999998
 31
0.0
  0
LINE
  5
4D5
330
3DE
100
AcDbEntity
  8
1
  6
Continuous
100
AcDbLine
 10
93.32918499999999
 20
429.4999999999998
 30
0.0
 11
93.32918499999999
 21
431.5
 31
0.0
  0
LINE
  5
4D6
330
3DE
100
AcDbEntity
  8
1
  6
Continuous
100
AcDbLine
 10
101.3291849999999
 20
429.4999999999998
 30
0.0
 11
101.3291849999999
 21
431.5
 31
0.0
  0
LINE
  5
4D7
330
3DE
100
AcDbEntity
  8
1
  6
Continuous
100
AcDbLine
 10
93.32918499999999
 20
431.5
 30
0.0
 11
101.3291849999999
 21
431.5
 31
0.0
  0
LINE
  5
4D8
330
3DE
100
AcDbEntity
  8
1
  6
Continuous
100
AcDbLine
 10
29.0
 20
411.5
 30
0.0
 11
41.0
 21
411.5
 31
0.0
  0
LINE
  5
4D9
330
3DE
100
AcDbEntity
  8
1
  6
Continuous
100
AcDbLine
 10
25.0
 20
422.4999999999998
 30
0.0
 11
45.0
 21
422.4999999999998
 31
0.0
  0
LINE
  5
4DA
330
3DE
100
AcDbEntity
  8
1
  6
Continuous
100
AcDbLine
 10
25.0
 20
421.0
 30
0.0
 11
107.329185
 21
421.0
 31
0.0
  0
LINE
  5
4DB
330
3DE
100
AcDbEntity
  8
1
  6
Continuous
100
AcDbLine
 10
28.0
 20
414.5
 30
0.0
 11
42.0
 21
414.5
 31
0.0
  0
LINE
  5
4DC
330
3DE
100
AcDbEntity
  8
1
  6
Continuous
100
AcDbLine
 10
25.0
 20
435.5
 30
0.0
 11
45.0
 21
435.5
 31
0.0
  0
LINE
  5
4DD
330
3DE
100
AcDbEntity
  8
1
  6
Continuous
100
AcDbLine
 10
25.0
 20
421.4999999999998
 30
0.0
 11
45.0
 21
421.4999999999998
 31
0.0
  0
LINE
  5
4DE
330
3DE
100
AcDbEntity
  8
1
  6
Continuous
100
AcDbLine
 10
25.0
 20
416.0
 30
0.0
 11
107.329185
 21
416.0
 31
0.0
  0
LINE
  5
4DF
330
3DE
100
AcDbEntity
  8
1
  6
Continuous
100
AcDbLine
 10
28.0
 20
412.5
 30
0.0
 11
28.0
 21
414.5
 31
0.0
  0
LINE
  5
4E0
330
3DE
100
AcDbEntity
  8
1
  6
Continuous
100
AcDbLine
 10
42.0
 20
412.5
 30
0.0
 11
42.0
 21
414.5
 31
0.0
  0
LINE
  5
4E1
330
3DE
100
AcDbEntity
  8
1
  6
Continuous
100
AcDbLine
 10
40.0
 20
414.5
 30
0.0
 11
40.0
 21
416.0
 31
0.0
  0
LINE
  5
4E2
330
3DE
100
AcDbEntity
  8
1
  6
Continuous
100
AcDbLine
 10
30.0
 20
414.5
 30
0.0
 11
30.0
 21
416.0
 31
0.0
  0
LINE
  5
4E3
330
3DE
100
AcDbEntity
  8
1
  6
Continuous
100
AcDbLine
 10
28.0
 20
412.5
 30
0.0
 11
42.0
 21
412.5
 31
0.0
  0
LINE
  5
4E4
330
3DE
100
AcDbEntity
  8
1
  6
Continuous
100
AcDbLine
 10
28.00001299999999
 20
412.5
 30
0.0
 11
29.00001299999999
 21
411.5
 31
0.0
  0
LINE
  5
4E5
330
3DE
100
AcDbEntity
  8
1
  6
Continuous
100
AcDbLine
 10
40.99998499999997
 20
411.5
 30
0.0
 11
41.99998499999997
 21
412.5
 31
0.0
  0
LINE
  5
4E6
330
3DE
100
AcDbEntity
  8
1
  6
Continuous
100
AcDbLine
 10
40.0
 20
421.0
 30
0.0
 11
40.0
 21
421.4999999999998
 31
0.0
  0
LINE
  5
4E7
330
3DE
100
AcDbEntity
  8
1
  6
Continuous
100
AcDbLine
 10
30.0
 20
421.0
 30
0.0
 11
30.0
 21
421.4999999999998
 31
0.0
  0
LINE
  5
4E8
330
3DE
100
AcDbEntity
  8
1
  6
Continuous
100
AcDbLine
 10
25.0
 20
421.4999999999998
 30
0.0
 11
25.0
 21
438.4999999999998
 31
0.0
  0
LINE
  5
4E9
330
3DE
100
AcDbEntity
  8
1
  6
Continuous
100
AcDbLine
 10
110.329185
 20
411.5
 30
0.0
 11
110.329185
 21
425.4999999999998
 31
0.0
  0
LINE
  5
4EA
330
3DE
100
AcDbEntity
  8
1
  6
Continuous
100
AcDbLine
 10
107.329185
 20
413.4999999999998
 30
0.0
 11
107.329185
 21
423.5
 31
0.0
  0
LINE
  5
4EB
330
3DE
100
AcDbEntity
  8
1
  6
Continuous
100
AcDbLine
 10
110.329185
 20
411.5
 30
0.0
 11
87.32918499999998
 21
411.5
 31
0.0
  0
LINE
  5
4EC
330
3DE
100
AcDbEntity
  8
1
  6
Continuous
100
AcDbLine
 10
110.329185
 20
425.4999999999998
 30
0.0
 11
87.32918499999998
 21
425.4999999999998
 31
0.0
  0
LINE
  5
4ED
330
3DE
100
AcDbEntity
  8
1
  6
Continuous
100
AcDbLine
 10
87.32918499999998
 20
410.5
 30
0.0
 11
87.32918499999998
 21
416.0
 31
0.0
  0
LINE
  5
4EE
330
3DE
100
AcDbEntity
  8
1
  6
Continuous
100
AcDbLine
 10
108.329185
 20
413.4999999999998
 30
0.0
 11
108.329185
 21
423.5
 31
0.0
  0
LINE
  5
4EF
330
3DE
100
AcDbEntity
  8
1
  6
Continuous
100
AcDbLine
 10
108.329185
 20
413.4999999999998
 30
0.0
 11
87.32918499999998
 21
413.4999999999998
 31
0.0
  0
LINE
  5
4F0
330
3DE
100
AcDbEntity
  8
1
  6
Continuous
100
AcDbLine
 10
108.329185
 20
423.5
 30
0.0
 11
87.32918499999998
 21
423.5
 31
0.0
  0
LINE
  5
4F1
330
3DE
100
AcDbEntity
  8
1
  6
Continuous
100
AcDbLine
 10
87.32918499999998
 20
421.0
 30
0.0
 11
87.32918499999998
 21
426.4999999999998
 31
0.0
  0
LINE
  5
4F2
330
3DE
100
AcDbEntity
  8
1
  6
Continuous
100
AcDbLine
 10
112.629189
 20
411.3500059999998
 30
0.0
 11
112.629189
 21
411.5
 31
0.0
  0
LINE
  5
4F3
330
3DE
100
AcDbEntity
  8
1
  6
Continuous
100
AcDbLine
 10
110.629189
 20
411.3500059999998
 30
0.0
 11
110.629189
 21
425.649994
 31
0.0
  0
LINE
  5
4F4
330
3DE
100
AcDbEntity
  8
1
  6
Continuous
100
AcDbLine
 10
110.629189
 20
409.350006
 30
0.0
 11
103.1650769999999
 21
409.350006
 31
0.0
  0
LINE
  5
4F5
330
3DE
100
AcDbEntity
  8
1
  6
Continuous
100
AcDbLine
 10
110.629189
 20
427.6499939999998
 30
0.0
 11
92.329185
 21
427.6499939999998
 31
0.0
  0
LINE
  5
4F6
330
3DE
100
AcDbEntity
  8
1
  6
Continuous
100
AcDbLine
 10
110.629189
 20
411.3500059999998
 30
0.0
 11
104.275955
 21
411.3500059999998
 31
0.0
  0
LINE
  5
4F7
330
3DE
100
AcDbEntity
  8
1
  6
Continuous
100
AcDbLine
 10
110.629189
 20
425.649994
 30
0.0
 11
101.3291849999999
 21
425.649994
 31
0.0
  0
LINE
  5
4F8
330
3DE
100
AcDbEntity
  8
1
  6
Continuous
100
AcDbLine
 10
102.3291849999999
 20
425.649994
 30
0.0
 11
102.3291849999999
 21
427.6499939999998
 31
0.0
  0
LINE
  5
4F9
330
3DE
100
AcDbEntity
  8
1
  6
Continuous
100
AcDbLine
 10
92.329185
 20
425.649994
 30
0.0
 11
92.329185
 21
427.6499939999998
 31
0.0
  0
LINE
  5
4FA
330
3DE
100
AcDbEntity
  8
1
  6
Continuous
100
AcDbLine
 10
101.044029
 20
407.5
 30
0.0
 11
111.329185
 21
407.5
 31
0.0
  0
LINE
  5
4FB
330
3DE
100
AcDbEntity
  8
1
  6
Continuous
100
AcDbLine
 10
115.329185
 20
411.5
 30
0.0
 11
110.629189
 21
411.5
 31
0.0
  0
LINE
  5
4FC
330
3DE
100
AcDbEntity
  8
1
  6
Continuous
100
AcDbLine
 10
115.329185
 20
425.4999999999998
 30
0.0
 11
110.629189
 21
425.4999999999998
 31
0.0
  0
LINE
  5
4FD
330
3DE
100
AcDbEntity
  8
1
  6
Continuous
100
AcDbLine
 10
101.3291849999999
 20
426.4999999999998
 30
0.0
 11
93.32918499999999
 21
426.4999999999998
 31
0.0
  0
LINE
  5
4FE
330
3DE
100
AcDbEntity
  8
1
  6
Continuous
100
AcDbLine
 10
99.32918499999999
 20
428.6499939999997
 30
0.0
 11
95.32918499999999
 21
428.6499939999997
 31
0.0
  0
LINE
  5
4FF
330
3DE
100
AcDbEntity
  8
1
  6
Continuous
100
AcDbLine
 10
101.3291849999999
 20
425.4999999999998
 30
0.0
 11
101.3291849999999
 21
426.4999999999998
 31
0.0
  0
LINE
  5
500
330
3DE
100
AcDbEntity
  8
1
  6
Continuous
100
AcDbLine
 10
93.32918499999999
 20
425.4999999999998
 30
0.0
 11
93.32918499999999
 21
426.4999999999998
 31
0.0
  0
LINE
  5
501
330
3DE
100
AcDbEntity
  8
1
  6
Continuous
100
AcDbLine
 10
93.32918499999999
 20
425.649994
 30
0.0
 11
92.329185
 21
425.649994
 31
0.0
  0
LINE
  5
502
330
3DE
100
AcDbEntity
  8
1
  6
Continuous
100
AcDbLine
 10
99.32918499999999
 20
427.6499939999998
 30
0.0
 11
99.32918499999999
 21
428.6499939999997
 31
0.0
  0
LINE
  5
503
330
3DE
100
AcDbEntity
  8
1
  6
Continuous
100
AcDbLine
 10
95.32918499999999
 20
427.6499939999998
 30
0.0
 11
95.32918499999999
 21
428.6499939999997
 31
0.0
  0
LINE
  5
504
330
3DE
100
AcDbEntity
  8
1
  6
Continuous
100
AcDbLine
 10
106.329185
 20
408.0
 30
0.0
 11
106.329185
 21
409.350006
 31
0.0
  0
LINE
  5
505
330
3DE
100
AcDbEntity
  8
1
  6
Continuous
100
AcDbLine
 10
88.32918499999998
 20
408.0
 30
0.0
 11
88.32918499999998
 21
410.0
 31
0.0
  0
LINE
  5
506
330
3DE
100
AcDbEntity
  8
1
  6
Continuous
100
AcDbLine
 10
83.32918499999998
 20
426.4999999999998
 30
0.0
 11
92.329185
 21
426.4999999999998
 31
0.0
  0
LINE
  5
507
330
3DE
100
AcDbEntity
  8
1
  6
Continuous
100
AcDbLine
 10
83.32918499999998
 20
410.5
 30
0.0
 11
90.756508
 21
410.5
 31
0.0
  0
LINE
  5
508
330
3DE
100
AcDbEntity
  8
1
  6
Continuous
100
AcDbLine
 10
88.32918499999998
 20
427.0
 30
0.0
 11
88.32918499999998
 21
429.0
 31
0.0
  0
LINE
  5
509
330
3DE
100
AcDbEntity
  8
1
  6
Continuous
100
AcDbLine
 10
106.329185
 20
427.6499939999998
 30
0.0
 11
106.329185
 21
429.0
 31
0.0
  0
LINE
  5
50A
330
3DE
100
AcDbEntity
  8
1
  6
Continuous
100
AcDbLine
 10
59.829185
 20
421.0
 30
0.0
 11
59.829185
 21
428.5
 31
0.0
  0
LINE
  5
50B
330
3DE
100
AcDbEntity
  8
4
  6
CENTER
100
AcDbLine
 10
144.829178
 20
418.5
 30
0.0
 11
15.0
 21
418.5
 31
0.0
  0
LINE
  5
50C
330
3DE
100
AcDbEntity
  8
4
  6
CENTER
100
AcDbLine
 10
657.3291629999999
 20
85.0
 30
0.0
 11
657.3291629999999
 21
35.0
 31
0.0
  0
LINE
  5
50D
330
3DE
100
AcDbEntity
  8
4
  6
CENTER
100
AcDbLine
 10
457.3291929999999
 20
80.5
 30
0.0
 11
457.3291929999999
 21
40.49999999999999
 31
0.0
  0
LINE
  5
50E
330
3DE
100
AcDbEntity
  8
4
  6
CENTER
100
AcDbLine
 10
267.2895199999999
 20
75.5
 30
0.0
 11
267.2895199999999
 21
38.5
 31
0.0
  0
LINE
  5
50F
330
3DE
100
AcDbEntity
  8
4
  6
CENTER
100
AcDbLine
 10
532.3291629999999
 20
80.34999799999999
 30
0.0
 11
532.3291629999999
 21
38.349998
 31
0.0
  0
LINE
  5
510
330
3DE
100
AcDbEntity
  8
4
  6
CENTER
100
AcDbLine
 10
504.3291929999998
 20
80.34999799999999
 30
0.0
 11
504.3291929999998
 21
38.349998
 31
0.0
  0
LINE
  5
511
330
3DE
100
AcDbEntity
  8
4
  6
CENTER
100
AcDbLine
 10
289.7895199999999
 20
46.0
 30
0.0
 11
289.7895199999999
 21
34.0
 31
0.0
  0
LINE
  5
512
330
3DE
100
AcDbEntity
  8
4
  6
CENTER
100
AcDbLine
 10
244.78952
 20
46.0
 30
0.0
 11
244.78952
 21
34.0
 31
0.0
  0
LINE
  5
513
330
3DE
100
AcDbEntity
  8
4
  6
CENTER
100
AcDbLine
 10
229.78952
 20
46.0
 30
0.0
 11
229.78952
 21
34.0
 31
0.0
  0
LINE
  5
514
330
3DE
100
AcDbEntity
  8
4
  6
CENTER
100
AcDbLine
 10
304.7895199999999
 20
46.0
 30
0.0
 11
304.7895199999999
 21
34.0
 31
0.0
  0
LINE
  5
515
330
3DE
100
AcDbEntity
  8
1
  6
Continuous
100
AcDbLine
 10
314.7895199999999
 20
41.5
 30
0.0
 11
314.7895199999999
 21
38.5
 31
0.0
  0
LINE
  5
516
330
3DE
100
AcDbEntity
  8
1
  6
Continuous
100
AcDbLine
 10
219.78952
 20
41.5
 30
0.0
 11
219.78952
 21
38.5
 31
0.0
  0
LINE
  5
517
330
3DE
100
AcDbEntity
  8
1
  6
Continuous
100
AcDbLine
 10
677.329163
 20
76.0
 30
0.0
 11
677.329163
 21
41.0
 31
0.0
  0
LINE
  5
518
330
3DE
100
AcDbEntity
  8
4
  6
CENTER
100
AcDbLine
 10
687.3291629999997
 20
58.5
 30
0.0
 11
247.234741
 21
58.5
 31
0.0
  0
LINE
  5
519
330
3DE
100
AcDbEntity
  8
1
  6
Continuous
100
AcDbLine
 10
517.329163
 20
56.0
 30
0.0
 11
505.917419
 21
56.0
 31
0.0
  0
LINE
  5
51A
330
3DE
100
AcDbEntity
  8
1
  6
Continuous
100
AcDbLine
 10
517.329163
 20
61.0
 30
0.0
 11
505.917419
 21
61.0
 31
0.0
  0
LINE
  5
51B
330
3DE
100
AcDbEntity
  8
1
  6
Continuous
100
AcDbLine
 10
517.329163
 20
63.5
 30
0.0
 11
517.329163
 21
53.5
 31
0.0
  0
LINE
  5
51C
330
3DE
100
AcDbEntity
  8
1
  6
Continuous
100
AcDbLine
 10
314.7895199999999
 20
41.5
 30
0.0
 11
283.0395199999999
 21
41.5
 31
0.0
  0
LINE
  5
51D
330
3DE
100
AcDbEntity
  8
1
  6
Continuous
100
AcDbLine
 10
257.2347409999999
 20
61.0
 30
0.0
 11
257.2347409999999
 21
56.0
 31
0.0
  0
LINE
  5
51E
330
3DE
100
AcDbEntity
  8
1
  6
Continuous
100
AcDbLine
 10
314.7895199999999
 20
38.5
 30
0.0
 11
283.0395199999999
 21
38.5
 31
0.0
  0
LINE
  5
51F
330
3DE
100
AcDbEntity
  8
1
  6
Continuous
100
AcDbLine
 10
283.0395199999999
 20
51.5
 30
0.0
 11
283.0395199999999
 21
41.5
 31
0.0
  0
LINE
  5
520
330
3DE
100
AcDbEntity
  8
1
  6
Continuous
100
AcDbLine
 10
251.5395199999999
 20
51.5
 30
0.0
 11
251.5395199999999
 21
41.5
 31
0.0
  0
LINE
  5
521
330
3DE
100
AcDbEntity
  8
1
  6
Continuous
100
AcDbLine
 10
280.03952
 20
54.5
 30
0.0
 11
254.53952
 21
54.5
 31
0.0
  0
LINE
  5
522
330
3DE
100
AcDbEntity
  8
1
  6
Continuous
100
AcDbLine
 10
280.03952
 20
51.5
 30
0.0
 11
254.53952
 21
51.5
 31
0.0
  0
LINE
  5
523
330
3DE
100
AcDbEntity
  8
1
  6
Continuous
100
AcDbLine
 10
254.53952
 20
51.5
 30
0.0
 11
254.53952
 21
41.5
 31
0.0
  0
LINE
  5
524
330
3DE
100
AcDbEntity
  8
1
  6
Continuous
100
AcDbLine
 10
280.03952
 20
51.5
 30
0.0
 11
280.03952
 21
41.5
 31
0.0
  0
LINE
  5
525
330
3DE
100
AcDbEntity
  8
1
  6
Continuous
100
AcDbLine
 10
251.5395199999999
 20
41.5
 30
0.0
 11
219.78952
 21
41.5
 31
0.0
  0
LINE
  5
526
330
3DE
100
AcDbEntity
  8
1
  6
Continuous
100
AcDbLine
 10
251.5395199999999
 20
38.5
 30
0.0
 11
219.78952
 21
38.5
 31
0.0
  0
LINE
  5
527
330
3DE
100
AcDbEntity
  8
1
  6
Continuous
100
AcDbLine
 10
277.2895199999999
 20
55.5
 30
0.0
 11
257.28952
 21
55.5
 31
0.0
  0
LINE
  5
528
330
3DE
100
AcDbEntity
  8
1
  6
Continuous
100
AcDbLine
 10
257.28952
 20
55.5
 30
0.0
 11
257.28952
 21
54.5
 31
0.0
  0
LINE
  5
529
330
3DE
100
AcDbEntity
  8
1
  6
Continuous
100
AcDbLine
 10
272.2895199999999
 20
48.5
 30
0.0
 11
262.2895199999999
 21
48.5
 31
0.0
  0
LINE
  5
52A
330
3DE
100
AcDbEntity
  8
1
  6
Continuous
100
AcDbLine
 10
277.2895199999999
 20
55.5
 30
0.0
 11
277.2895199999999
 21
54.5
 31
0.0
  0
LINE
  5
52B
330
3DE
100
AcDbEntity
  8
1
  6
Continuous
100
AcDbLine
 10
262.2895199999999
 20
56.0
 30
0.0
 11
262.2895199999999
 21
55.5
 31
0.0
  0
LINE
  5
52C
330
3DE
100
AcDbEntity
  8
1
  6
Continuous
100
AcDbLine
 10
272.2895199999999
 20
56.0
 30
0.0
 11
272.2895199999999
 21
55.5
 31
0.0
  0
LINE
  5
52D
330
3DE
100
AcDbEntity
  8
1
  6
Continuous
100
AcDbLine
 10
273.2895199999999
 20
65.5
 30
0.0
 11
261.28952
 21
65.5
 31
0.0
  0
LINE
  5
52E
330
3DE
100
AcDbEntity
  8
1
  6
Continuous
100
AcDbLine
 10
274.2895199999999
 20
62.5
 30
0.0
 11
260.2895199999999
 21
62.5
 31
0.0
  0
LINE
  5
52F
330
3DE
100
AcDbEntity
  8
1
  6
Continuous
100
AcDbLine
 10
667.329163
 20
66.5
 30
0.0
 11
667.329163
 21
63.5
 31
0.0
  0
LINE
  5
530
330
3DE
100
AcDbEntity
  8
1
  6
Continuous
100
AcDbLine
 10
262.2895199999999
 20
62.5
 30
0.0
 11
262.2895199999999
 21
61.0
 31
0.0
  0
LINE
  5
531
330
3DE
100
AcDbEntity
  8
1
  6
Continuous
100
AcDbLine
 10
272.2895199999999
 20
62.5
 30
0.0
 11
272.2895199999999
 21
61.0
 31
0.0
  0
LINE
  5
532
330
3DE
100
AcDbEntity
  8
1
  6
Continuous
100
AcDbLine
 10
274.2895199999999
 20
64.5
 30
0.0
 11
274.2895199999999
 21
62.5
 31
0.0
  0
LINE
  5
533
330
3DE
100
AcDbEntity
  8
1
  6
Continuous
100
AcDbLine
 10
260.2895199999999
 20
64.5
 30
0.0
 11
260.2895199999999
 21
62.5
 31
0.0
  0
LINE
  5
534
330
3DE
100
AcDbEntity
  8
1
  6
Continuous
100
AcDbLine
 10
274.2895199999999
 20
64.5
 30
0.0
 11
260.2895199999999
 21
64.5
 31
0.0
  0
LINE
  5
535
330
3DE
100
AcDbEntity
  8
1
  6
Continuous
100
AcDbLine
 10
667.329163
 20
53.5
 30
0.0
 11
447.329193
 21
53.5
 31
0.0
  0
LINE
  5
536
330
3DE
100
AcDbEntity
  8
1
  6
Continuous
100
AcDbLine
 10
447.329193
 20
65.5
 30
0.0
 11
447.329193
 21
61.0
 31
0.0
  0
LINE
  5
537
330
3DE
100
AcDbEntity
  8
1
  6
Continuous
100
AcDbLine
 10
447.329193
 20
56.0
 30
0.0
 11
447.329193
 21
51.5
 31
0.0
  0
LINE
  5
538
330
3DE
100
AcDbEntity
  8
1
  6
Continuous
100
AcDbLine
 10
667.329163
 20
63.5
 30
0.0
 11
447.329193
 21
63.5
 31
0.0
  0
LINE
  5
539
330
3DE
100
AcDbEntity
  8
1
  6
Continuous
100
AcDbLine
 10
273.2895199999999
 20
65.50000799999999
 30
0.0
 11
274.2895199999999
 21
64.50000799999999
 31
0.0
  0
LINE
  5
53A
330
3DE
100
AcDbEntity
  8
1
  6
Continuous
100
AcDbLine
 10
261.28952
 20
65.50000799999999
 30
0.0
 11
260.2895199999999
 21
64.50000799999999
 31
0.0
  0
LINE
  5
53B
330
3DE
100
AcDbEntity
  8
1
  6
Continuous
100
AcDbLine
 10
667.329163
 20
51.5
 30
0.0
 11
447.329193
 21
51.5
 31
0.0
  0
LINE
  5
53C
330
3DE
100
AcDbEntity
  8
1
  6
Continuous
100
AcDbLine
 10
667.329163
 20
65.5
 30
0.0
 11
447.329193
 21
65.5
 31
0.0
  0
LINE
  5
53D
330
3DE
100
AcDbEntity
  8
1
  6
Continuous
100
AcDbLine
 10
467.3291929999998
 20
63.5
 30
0.0
 11
467.3291929999998
 21
61.0
 31
0.0
  0
LINE
  5
53E
330
3DE
100
AcDbEntity
  8
1
  6
Continuous
100
AcDbLine
 10
467.3291929999998
 20
56.0
 30
0.0
 11
467.3291929999998
 21
53.5
 31
0.0
  0
LINE
  5
53F
330
3DE
100
AcDbEntity
  8
1
  6
Continuous
100
AcDbLine
 10
508.3291929999998
 20
62.75
 30
0.0
 11
508.3291929999998
 21
61.0
 31
0.0
  0
LINE
  5
540
330
3DE
100
AcDbEntity
  8
1
  6
Continuous
100
AcDbLine
 10
502.329193
 20
63.5
 30
0.0
 11
502.329193
 21
62.75
 31
0.0
  0
LINE
  5
541
330
3DE
100
AcDbEntity
  8
1
  6
Continuous
100
AcDbLine
 10
506.329193
 20
63.5
 30
0.0
 11
506.329193
 21
62.75
 31
0.0
  0
LINE
  5
542
330
3DE
100
AcDbEntity
  8
1
  6
Continuous
100
AcDbLine
 10
506.329193
 20
48.349998
 30
0.0
 11
502.329193
 21
48.349998
 31
0.0
  0
LINE
  5
543
330
3DE
100
AcDbEntity
  8
1
  6
Continuous
100
AcDbLine
 10
508.3291929999998
 20
62.75
 30
0.0
 11
500.3291929999998
 21
62.75
 31
0.0
  0
LINE
  5
544
330
3DE
100
AcDbEntity
  8
1
  6
Continuous
100
AcDbLine
 10
508.3291929999998
 20
56.0
 30
0.0
 11
508.3291929999998
 21
54.25
 31
0.0
  0
LINE
  5
545
330
3DE
100
AcDbEntity
  8
1
  6
Continuous
100
AcDbLine
 10
500.3291929999998
 20
62.75
 30
0.0
 11
500.3291929999998
 21
54.25
 31
0.0
  0
LINE
  5
546
330
3DE
100
AcDbEntity
  8
1
  6
Continuous
100
AcDbLine
 10
502.329193
 20
49.34999799999999
 30
0.0
 11
502.329193
 21
48.349998
 31
0.0
  0
LINE
  5
547
330
3DE
100
AcDbEntity
  8
1
  6
Continuous
100
AcDbLine
 10
506.329193
 20
49.34999799999999
 30
0.0
 11
506.329193
 21
48.349998
 31
0.0
  0
LINE
  5
548
330
3DE
100
AcDbEntity
  8
1
  6
Continuous
100
AcDbLine
 10
537.3291629999998
 20
51.349998
 30
0.0
 11
499.3291929999998
 21
51.349998
 31
0.0
  0
LINE
  5
549
330
3DE
100
AcDbEntity
  8
1
  6
Continuous
100
AcDbLine
 10
537.3291629999998
 20
65.650002
 30
0.0
 11
499.3291929999998
 21
65.650002
 31
0.0
  0
LINE
  5
54A
330
3DE
100
AcDbEntity
  8
1
  6
Continuous
100
AcDbLine
 10
537.3291629999998
 20
67.650002
 30
0.0
 11
499.3291929999998
 21
67.650002
 31
0.0
  0
LINE
  5
54B
330
3DE
100
AcDbEntity
  8
1
  6
Continuous
100
AcDbLine
 10
537.3291629999998
 20
49.34999799999999
 30
0.0
 11
499.3291929999998
 21
49.34999799999999
 31
0.0
  0
LINE
  5
54C
330
3DE
100
AcDbEntity
  8
1
  6
Continuous
100
AcDbLine
 10
506.329193
 20
51.5
 30
0.0
 11
506.329193
 21
51.349998
 31
0.0
  0
LINE
  5
54D
330
3DE
100
AcDbEntity
  8
1
  6
Continuous
100
AcDbLine
 10
506.329193
 20
65.650002
 30
0.0
 11
506.329193
 21
65.5
 31
0.0
  0
LINE
  5
54E
330
3DE
100
AcDbEntity
  8
1
  6
Continuous
100
AcDbLine
 10
502.329193
 20
65.650002
 30
0.0
 11
502.329193
 21
65.5
 31
0.0
  0
LINE
  5
54F
330
3DE
100
AcDbEntity
  8
1
  6
Continuous
100
AcDbLine
 10
499.3291929999998
 20
67.650002
 30
0.0
 11
499.3291929999998
 21
65.650002
 31
0.0
  0
LINE
  5
550
330
3DE
100
AcDbEntity
  8
1
  6
Continuous
100
AcDbLine
 10
502.329193
 20
51.5
 30
0.0
 11
502.329193
 21
51.349998
 31
0.0
  0
LINE
  5
551
330
3DE
100
AcDbEntity
  8
1
  6
Continuous
100
AcDbLine
 10
534.329163
 20
48.349998
 30
0.0
 11
530.329163
 21
48.349998
 31
0.0
  0
LINE
  5
552
330
3DE
100
AcDbEntity
  8
1
  6
Continuous
100
AcDbLine
 10
461.3291929999999
 20
50.5
 30
0.0
 11
453.3291929999998
 21
50.5
 31
0.0
  0
LINE
  5
553
330
3DE
100
AcDbEntity
  8
1
  6
Continuous
100
AcDbLine
 10
499.3291929999998
 20
51.349998
 30
0.0
 11
499.3291929999998
 21
49.34999799999999
 31
0.0
  0
LINE
  5
554
330
3DE
100
AcDbEntity
  8
1
  6
Continuous
100
AcDbLine
 10
453.3291929999998
 20
51.5
 30
0.0
 11
453.3291929999998
 21
50.5
 31
0.0
  0
LINE
  5
555
330
3DE
100
AcDbEntity
  8
1
  6
Continuous
100
AcDbLine
 10
461.3291929999999
 20
51.5
 30
0.0
 11
461.3291929999999
 21
50.5
 31
0.0
  0
LINE
  5
556
330
3DE
100
AcDbEntity
  8
1
  6
Continuous
100
AcDbLine
 10
530.329163
 20
49.34999799999999
 30
0.0
 11
530.329163
 21
48.349998
 31
0.0
  0
LINE
  5
557
330
3DE
100
AcDbEntity
  8
1
  6
Continuous
100
AcDbLine
 10
534.329163
 20
49.34999799999999
 30
0.0
 11
534.329163
 21
48.349998
 31
0.0
  0
LINE
  5
558
330
3DE
100
AcDbEntity
  8
4
  6
CENTER
100
AcDbLine
 10
567.329163
 20
78.19999699999998
 30
0.0
 11
567.329163
 21
40.49999999999999
 31
0.0
  0
LINE
  5
559
330
3DE
100
AcDbEntity
  8
1
  6
Continuous
100
AcDbLine
 10
537.3291629999998
 20
67.650002
 30
0.0
 11
537.3291629999998
 21
65.5
 31
0.0
  0
LINE
  5
55A
330
3DE
100
AcDbEntity
  8
1
  6
Continuous
100
AcDbLine
 10
565.329163
 20
51.5
 30
0.0
 11
565.329163
 21
50.5
 31
0.0
  0
LINE
  5
55B
330
3DE
100
AcDbEntity
  8
1
  6
Continuous
100
AcDbLine
 10
569.329163
 20
50.5
 30
0.0
 11
565.329163
 21
50.5
 31
0.0
  0
LINE
  5
55C
330
3DE
100
AcDbEntity
  8
1
  6
Continuous
100
AcDbLine
 10
569.329163
 20
51.5
 30
0.0
 11
569.329163
 21
50.5
 31
0.0
  0
LINE
  5
55D
330
3DE
100
AcDbEntity
  8
1
  6
Continuous
100
AcDbLine
 10
674.3291629999998
 20
47.5
 30
0.0
 11
647.329163
 21
47.5
 31
0.0
  0
LINE
  5
55E
330
3DE
100
AcDbEntity
  8
1
  6
Continuous
100
AcDbLine
 10
667.329163
 20
53.5
 30
0.0
 11
667.329163
 21
50.5
 31
0.0
  0
LINE
  5
55F
330
3DE
100
AcDbEntity
  8
1
  6
Continuous
100
AcDbLine
 10
674.3291629999998
 20
69.5
 30
0.0
 11
647.329163
 21
69.5
 31
0.0
  0
LINE
  5
560
330
3DE
100
AcDbEntity
  8
1
  6
Continuous
100
AcDbLine
 10
674.3291629999998
 20
76.0
 30
0.0
 11
674.3291629999998
 21
41.0
 31
0.0
  0
LINE
  5
561
330
3DE
100
AcDbEntity
  8
1
  6
Continuous
100
AcDbLine
 10
677.329163
 20
76.0
 30
0.0
 11
674.3291629999998
 21
76.0
 31
0.0
  0
LINE
  5
562
330
3DE
100
AcDbEntity
  8
1
  6
Continuous
100
AcDbLine
 10
677.329163
 20
41.0
 30
0.0
 11
674.3291629999998
 21
41.0
 31
0.0
  0
LINE
  5
563
330
3DE
100
AcDbEntity
  8
1
  6
Continuous
100
AcDbLine
 10
674.3291629999998
 20
66.5
 30
0.0
 11
647.329163
 21
66.5
 31
0.0
  0
LINE
  5
564
330
3DE
100
AcDbEntity
  8
1
  6
Continuous
100
AcDbLine
 10
674.3291629999998
 20
50.5
 30
0.0
 11
647.329163
 21
50.5
 31
0.0
  0
LINE
  5
565
330
3DE
100
AcDbEntity
  8
1
  6
Continuous
100
AcDbLine
 10
661.3291629999999
 20
47.5
 30
0.0
 11
661.3291629999999
 21
45.49999999999999
 31
0.0
  0
LINE
  5
566
330
3DE
100
AcDbEntity
  8
1
  6
Continuous
100
AcDbLine
 10
653.3291629999999
 20
47.5
 30
0.0
 11
653.3291629999999
 21
45.49999999999999
 31
0.0
  0
LINE
  5
567
330
3DE
100
AcDbEntity
  8
1
  6
Continuous
100
AcDbLine
 10
661.3291629999999
 20
45.49999999999999
 30
0.0
 11
653.3291629999999
 21
45.49999999999999
 31
0.0
  0
LINE
  5
568
330
3DE
100
AcDbEntity
  8
1
  6
Continuous
100
AcDbLine
 10
647.329163
 20
63.5
 30
0.0
 11
647.329163
 21
53.5
 31
0.0
  0
LINE
  5
569
330
3DE
100
AcDbEntity
  8
1
  6
Continuous
100
AcDbLine
 10
661.3291629999999
 20
63.5
 30
0.0
 11
661.3291629999999
 21
53.5
 31
0.0
  0
LINE
  5
56A
330
3DE
100
AcDbEntity
  8
1
  6
Continuous
100
AcDbLine
 10
653.3291629999999
 20
63.5
 30
0.0
 11
653.3291629999999
 21
53.5
 31
0.0
  0
LINE
  5
56B
330
3DE
100
AcDbEntity
  8
4
  6
CENTER
100
AcDbLine
 10
681.829163
 20
68.5
 30
0.0
 11
669.8291629999999
 21
68.5
 31
0.0
  0
LINE
  5
56C
330
3DE
100
AcDbEntity
  8
4
  6
CENTER
100
AcDbLine
 10
681.829163
 20
48.5
 30
0.0
 11
669.8291629999999
 21
48.5
 31
0.0
  0
LINE
  5
56D
330
3DE
100
AcDbEntity
  8
1
  6
Continuous
100
AcDbLine
 10
569.329163
 20
53.5
 30
0.0
 11
569.329163
 21
58.0
 31
0.0
  0
LINE
  5
56E
330
3DE
100
AcDbEntity
  8
1
  6
Continuous
100
AcDbLine
 10
565.329163
 20
53.5
 30
0.0
 11
565.329163
 21
58.0
 31
0.0
  0
LINE
  5
56F
330
3DE
100
AcDbEntity
  8
1
  6
Continuous
100
AcDbLine
 10
537.3291629999998
 20
51.5
 30
0.0
 11
537.3291629999998
 21
49.34999799999999
 31
0.0
  0
LINE
  5
570
330
3DE
100
AcDbEntity
  8
1
  6
Continuous
100
AcDbLine
 10
534.329163
 20
51.349998
 30
0.0
 11
534.329163
 21
51.5
 31
0.0
  0
LINE
  5
571
330
3DE
100
AcDbEntity
  8
1
  6
Continuous
100
AcDbLine
 10
530.329163
 20
51.349998
 30
0.0
 11
530.329163
 21
51.5
 31
0.0
  0
LINE
  5
572
330
3DE
100
AcDbEntity
  8
1
  6
Continuous
100
AcDbLine
 10
534.329163
 20
53.5
 30
0.0
 11
534.329163
 21
58.0
 31
0.0
  0
LINE
  5
573
330
3DE
100
AcDbEntity
  8
1
  6
Continuous
100
AcDbLine
 10
530.329163
 20
53.5
 30
0.0
 11
530.329163
 21
58.0
 31
0.0
  0
LINE
  5
574
330
3DE
100
AcDbEntity
  8
1
  6
Continuous
100
AcDbLine
 10
534.329163
 20
65.5
 30
0.0
 11
534.329163
 21
65.650002
 31
0.0
  0
LINE
  5
575
330
3DE
100
AcDbEntity
  8
1
  6
Continuous
100
AcDbLine
 10
530.329163
 20
65.5
 30
0.0
 11
530.329163
 21
65.650002
 31
0.0
  0
LINE
  5
576
330
3DE
100
AcDbEntity
  8
1
  6
Continuous
100
AcDbLine
 10
505.917419
 20
56.0
 30
0.0
 11
505.917419
 21
61.0
 31
0.0
  0
LINE
  5
577
330
3DE
100
AcDbEntity
  8
1
  6
Continuous
100
AcDbLine
 10
507.3291929999999
 20
56.0
 30
0.0
 11
507.3291929999999
 21
61.0
 31
0.0
  0
LINE
  5
578
330
3DE
100
AcDbEntity
  8
1
  6
Continuous
100
AcDbLine
 10
500.3291929999998
 20
56.0
 30
0.0
 11
257.2347409999999
 21
56.0
 31
0.0
  0
LINE
  5
579
330
3DE
100
AcDbEntity
  8
1
  6
Continuous
100
AcDbLine
 10
500.3291929999998
 20
61.0
 30
0.0
 11
257.2347409999999
 21
61.0
 31
0.0
  0
LINE
  5
57A
330
3DE
100
AcDbEntity
  8
1
  6
Continuous
100
AcDbLine
 10
508.3291929999998
 20
54.25
 30
0.0
 11
500.3291929999998
 21
54.25
 31
0.0
  0
LINE
  5
57B
330
3DE
100
AcDbEntity
  8
1
  6
Continuous
100
AcDbLine
 10
506.329193
 20
53.5
 30
0.0
 11
506.329193
 21
54.25
 31
0.0
  0
LINE
  5
57C
330
3DE
100
AcDbEntity
  8
1
  6
Continuous
100
AcDbLine
 10
502.329193
 20
53.5
 30
0.0
 11
502.329193
 21
54.25
 31
0.0
  0
LINE
  5
57D
330
3DE
100
AcDbEntity
  8
1
  6
Continuous
100
AcDbLine
 10
508.3291929999998
 20
422.75
 30
0.0
 11
500.3291929999998
 21
422.75
 31
0.0
  0
LINE
  5
57E
330
3DE
100
AcDbEntity
  8
1
  6
Continuous
100
AcDbLine
 10
506.329193
 20
422.75
 30
0.0
 11
506.329193
 21
423.5
 31
0.0
  0
LINE
  5
57F
330
3DE
100
AcDbEntity
  8
1
  6
Continuous
100
AcDbLine
 10
502.329193
 20
422.75
 30
0.0
 11
502.329193
 21
423.5
 31
0.0
  0
LINE
  5
580
330
3DE
100
AcDbEntity
  8
1
  6
Continuous
100
AcDbLine
 10
550.285339
 20
61.086815
 30
0.0
 11
549.3730469999998
 21
55.91317700000001
 31
0.0
  0
LINE
  5
581
330
3DE
100
AcDbEntity
  8
1
  6
Continuous
100
AcDbLine
 10
549.269897
 20
61.086826
 30
0.0
 11
548.357605
 21
55.913174
 31
0.0
  0
LINE
  5
582
330
3DE
100
AcDbEntity
  8
1
  6
Continuous
100
AcDbLine
 10
551.3007199999998
 20
61.08681899999999
 30
0.0
 11
550.3884890000001
 21
55.91316599999998
 31
0.0
  0
LINE
  5
583
330
3DE
100
AcDbEntity
  8
1
  6
Continuous
100
AcDbLine
 10
552.3161619999998
 20
61.08682299999999
 30
0.0
 11
551.4039309999998
 21
55.91317
 31
0.0
  0
LINE
  5
584
330
3DE
100
AcDbEntity
  8
1
  6
Continuous
100
AcDbLine
 10
548.254456
 20
61.08682299999999
 30
0.0
 11
547.3422239999998
 21
55.91317
 31
0.0
  0
LINE
  5
585
330
3DE
100
AcDbEntity
  8
1
  6
Continuous
100
AcDbLine
 10
553.3316039999998
 20
61.086826
 30
0.0
 11
552.4193119999998
 21
55.913174
 31
0.0
  0
LINE
  5
586
330
3DE
100
AcDbEntity
  8
1
  6
Continuous
100
AcDbLine
 10
547.2390139999999
 20
61.08681899999999
 30
0.0
 11
546.3267819999998
 21
55.91316599999998
 31
0.0
  0
LINE
  5
587
330
3DE
100
AcDbEntity
  8
1
  6
Continuous
100
AcDbLine
 10
554.3470459999999
 20
61.086815
 30
0.0
 11
553.4347529999998
 21
55.91317700000001
 31
0.0
  0
LINE
  5
588
330
3DE
100
AcDbEntity
  8
1
  6
Continuous
100
AcDbLine
 10
546.2236329999998
 20
61.086815
 30
0.0
 11
545.3113400000002
 21
55.91317700000001
 31
0.0
  0
LINE
  5
589
330
3DE
100
AcDbEntity
  8
1
  6
Continuous
100
AcDbLine
 10
555.3624269999998
 20
61.08681899999999
 30
0.0
 11
554.4501949999999
 21
55.91316599999998
 31
0.0
  0
LINE
  5
58A
330
3DE
100
AcDbEntity
  8
1
  6
Continuous
100
AcDbLine
 10
545.208191
 20
61.086826
 30
0.0
 11
544.2958980000002
 21
55.913174
 31
0.0
  0
LINE
  5
58B
330
3DE
100
AcDbEntity
  8
1
  6
Continuous
100
AcDbLine
 10
556.377869
 20
61.08682299999999
 30
0.0
 11
555.465637
 21
55.91317
 31
0.0
  0
LINE
  5
58C
330
3DE
100
AcDbEntity
  8
1
  6
Continuous
100
AcDbLine
 10
544.192749
 20
61.08682299999999
 30
0.0
 11
543.2805179999998
 21
55.913174
 31
0.0
  0
LINE
  5
58D
330
3DE
100
AcDbEntity
  8
1
  6
Continuous
100
AcDbLine
 10
557.393311
 20
61.086826
 30
0.0
 11
556.4810179999998
 21
55.913174
 31
0.0
  0
LINE
  5
58E
330
3DE
100
AcDbEntity
  8
1
  6
Continuous
100
AcDbLine
 10
543.177307
 20
61.08681899999999
 30
0.0
 11
542.265076
 21
55.91317
 31
0.0
  0
LINE
  5
58F
330
3DE
100
AcDbEntity
  8
1
  6
Continuous
100
AcDbLine
 10
558.4087519999999
 20
61.086826
 30
0.0
 11
557.4964599999998
 21
55.91317700000001
 31
0.0
  0
LINE
  5
590
330
3DE
100
AcDbEntity
  8
1
  6
Continuous
100
AcDbLine
 10
542.1619259999999
 20
61.086815
 30
0.0
 11
541.249634
 21
55.91318100000001
 31
0.0
  0
LINE
  5
591
330
3DE
100
AcDbEntity
  8
1
  6
Continuous
100
AcDbLine
 10
559.424133
 20
61.086815
 30
0.0
 11
558.5119019999998
 21
55.91318100000001
 31
0.0
  0
LINE
  5
592
330
3DE
100
AcDbEntity
  8
1
  6
Continuous
100
AcDbLine
 10
541.1464839999998
 20
61.08683
 30
0.0
 11
540.234192
 21
55.91317700000001
 31
0.0
  0
LINE
  5
593
330
3DE
100
AcDbEntity
  8
1
  6
Continuous
100
AcDbLine
 10
560.439575
 20
61.08681899999999
 30
0.0
 11
559.5273439999998
 21
55.91317
 31
0.0
  0
LINE
  5
594
330
3DE
100
AcDbEntity
  8
1
  6
Continuous
100
AcDbLine
 10
540.1310419999998
 20
61.086826
 30
0.0
 11
539.2188110000001
 21
55.913174
 31
0.0
  0
LINE
  5
595
330
3DE
100
AcDbEntity
  8
1
  6
Continuous
100
AcDbLine
 10
561.455017
 20
61.08682299999999
 30
0.0
 11
560.5427249999998
 21
55.913174
 31
0.0
  0
LINE
  5
596
330
3DE
100
AcDbEntity
  8
1
  6
Continuous
100
AcDbLine
 10
539.1156009999998
 20
61.08682299999999
 30
0.0
 11
538.2033689999998
 21
55.91317
 31
0.0
  0
LINE
  5
597
330
3DE
100
AcDbEntity
  8
1
  6
Continuous
100
AcDbLine
 10
562.439819
 20
60.913174
 30
0.0
 11
561.558167
 21
55.913174
 31
0.0
  0
LINE
  5
598
330
3DE
100
AcDbEntity
  8
1
  6
Continuous
100
AcDbLine
 10
538.10022
 20
61.08681899999999
 30
0.0
 11
537.218567
 21
56.08681899999999
 31
0.0
  0
LINE
  5
599
330
3DE
100
AcDbEntity
  8
1
  6
Continuous
100
AcDbLine
 10
562.4473879999998
 20
59.0
 30
0.0
 11
562.4473879999998
 21
61.0
 31
0.0
  0
LINE
  5
59A
330
3DE
100
AcDbEntity
  8
1
  6
Continuous
100
AcDbLine
 10
569.8291629999999
 20
59.0
 30
0.0
 11
562.1024779999998
 21
59.0
 31
0.0
  0
LINE
  5
59B
330
3DE
100
AcDbEntity
  8
1
  6
Continuous
100
AcDbLine
 10
569.8291629999999
 20
58.0
 30
0.0
 11
561.926147
 21
58.0
 31
0.0
  0
LINE
  5
59C
330
3DE
100
AcDbEntity
  8
1
  6
Continuous
100
AcDbLine
 10
569.329163
 20
59.0
 30
0.0
 11
569.329163
 21
63.5
 31
0.0
  0
LINE
  5
59D
330
3DE
100
AcDbEntity
  8
1
  6
Continuous
100
AcDbLine
 10
565.329163
 20
59.0
 30
0.0
 11
565.329163
 21
63.5
 31
0.0
  0
LINE
  5
59E
330
3DE
100
AcDbEntity
  8
1
  6
Continuous
100
AcDbLine
 10
537.7322389999999
 20
59.0
 30
0.0
 11
529.829163
 21
59.0
 31
0.0
  0
LINE
  5
59F
330
3DE
100
AcDbEntity
  8
1
  6
Continuous
100
AcDbLine
 10
537.2109379999999
 20
58.0
 30
0.0
 11
529.829163
 21
58.0
 31
0.0
  0
LINE
  5
5A0
330
3DE
100
AcDbEntity
  8
1
  6
Continuous
100
AcDbLine
 10
537.2109379999999
 20
56.04374299999999
 30
0.0
 11
537.2109379999999
 21
58.0
 31
0.0
  0
LINE
  5
5A1
330
3DE
100
AcDbEntity
  8
1
  6
Continuous
100
AcDbLine
 10
534.329163
 20
59.0
 30
0.0
 11
534.329163
 21
63.5
 31
0.0
  0
LINE
  5
5A2
330
3DE
100
AcDbEntity
  8
1
  6
Continuous
100
AcDbLine
 10
530.329163
 20
59.0
 30
0.0
 11
530.329163
 21
63.5
 31
0.0
  0
LINE
  5
5A3
330
3DE
100
AcDbEntity
  8
1
  6
Continuous
100
AcDbLine
 10
491.3291929999998
 20
56.5
 30
0.0
 11
491.3291929999998
 21
60.5
 31
0.0
  0
LINE
  5
5A4
330
3DE
100
AcDbEntity
  8
1
  6
Continuous
100
AcDbLine
 10
796.829163
 20
426.4999999999998
 30
0.0
 11
801.3291629999999
 21
426.4999999999998
 31
0.0
  0
LINE
  5
5A5
330
3DE
100
AcDbEntity
  8
1
  6
Continuous
100
AcDbLine
 10
647.329163
 20
407.5
 30
0.0
 11
647.329163
 21
410.5
 31
0.0
  0
LINE
  5
5A6
330
3DE
100
AcDbEntity
  8
1
  6
Continuous
100
AcDbLine
 10
647.329163
 20
425.4999999999998
 30
0.0
 11
647.329163
 21
429.4999999999998
 31
0.0
  0
LINE
  5
5A7
330
3DE
100
AcDbEntity
  8
1
  6
Continuous
100
AcDbLine
 10
672.329163
 20
224.500015
 30
0.0
 11
654.9342039999998
 21
228.7910459999999
 31
0.0
  0
LINE
  5
5A8
330
3DE
100
AcDbEntity
  8
1
  6
Continuous
100
AcDbLine
 10
672.3292240000001
 20
252.4999999999999
 30
0.0
 11
654.9341429999998
 21
248.208954
 31
0.0
  0
LINE
  5
5A9
330
3DE
100
AcDbEntity
  8
1
  6
Continuous
100
AcDbLine
 10
647.329163
 20
51.5
 30
0.0
 11
647.329163
 21
47.5
 31
0.0
  0
LINE
  5
5AA
330
3DE
100
AcDbEntity
  8
1
  6
Continuous
100
AcDbLine
 10
647.329163
 20
69.5
 30
0.0
 11
647.329163
 21
65.5
 31
0.0
  0
LINE
  5
5AB
330
3DE
100
AcDbEntity
  8
1
  6
Continuous
100
AcDbLine
 10
272.2895199999999
 20
425.4999999999998
 30
0.0
 11
272.2895199999999
 21
428.5
 31
0.0
  0
LINE
  5
5AC
330
3DE
100
AcDbEntity
  8
1
  6
Continuous
100
AcDbLine
 10
262.2895199999999
 20
425.4999999999998
 30
0.0
 11
262.2895199999999
 21
428.5
 31
0.0
  0
LINE
  5
5AD
330
3DE
100
AcDbEntity
  8
1
  6
Continuous
100
AcDbLine
 10
272.2895199999999
 20
48.5
 30
0.0
 11
272.2895199999999
 21
51.5
 31
0.0
  0
LINE
  5
5AE
330
3DE
100
AcDbEntity
  8
1
  6
Continuous
100
AcDbLine
 10
262.2895199999999
 20
48.5
 30
0.0
 11
262.2895199999999
 21
51.5
 31
0.0
  0
LINE
  5
5AF
330
3DE
100
AcDbEntity
  8
4
  6
CENTER
100
AcDbLine
 10
687.3291629999997
 20
588.4999999999998
 30
0.0
 11
456.6458439999998
 21
588.4999999999998
 31
0.0
  0
LINE
  5
5B0
330
3DE
100
AcDbEntity
  8
1
  6
Continuous
100
AcDbLine
 10
525.3291629999998
 20
583.4999999999999
 30
0.0
 11
504.3291929999998
 21
583.4999999999999
 31
0.0
  0
LINE
  5
5B1
330
3DE
100
AcDbEntity
  8
1
  6
Continuous
100
AcDbLine
 10
517.329163
 20
578.5
 30
0.0
 11
457.2081299999998
 21
578.5
 31
0.0
  0
LINE
  5
5B2
330
3DE
100
AcDbEntity
  8
1
  6
Continuous
100
AcDbLine
 10
647.329163
 20
575.4999999999999
 30
0.0
 11
537.3291629999998
 21
575.4999999999999
 31
0.0
  0
LINE
  5
5B3
330
3DE
100
AcDbEntity
  8
1
  6
Continuous
100
AcDbLine
 10
499.791565
 20
590.5999759999997
 30
0.0
 11
495.3291929999998
 21
590.5999759999997
 31
0.0
  0
LINE
  5
5B4
330
3DE
100
AcDbEntity
  8
1
  6
Continuous
100
AcDbLine
 10
674.3291629999998
 20
626.0
 30
0.0
 11
674.3291629999998
 21
602.5
 31
0.0
  0
LINE
  5
5B5
330
3DE
100
AcDbEntity
  8
1
  6
Continuous
100
AcDbLine
 10
677.329163
 20
626.0
 30
0.0
 11
674.3291629999998
 21
626.0
 31
0.0
  0
LINE
  5
5B6
330
3DE
100
AcDbEntity
  8
1
  6
Continuous
100
AcDbLine
 10
656.114014
 20
598.5
 30
0.0
 11
456.6458439999998
 21
598.5
 31
0.0
  0
LINE
  5
5B7
330
3DE
100
AcDbEntity
  8
1
  6
Continuous
100
AcDbLine
 10
517.329163
 20
578.5
 30
0.0
 11
517.329163
 21
575.4999999999999
 31
0.0
  0
LINE
  5
5B8
330
3DE
100
AcDbEntity
  8
1
  6
Continuous
100
AcDbLine
 10
656.114014
 20
578.5
 30
0.0
 11
647.329163
 21
578.5
 31
0.0
  0
LINE
  5
5B9
330
3DE
100
AcDbEntity
  8
4
  6
CENTER
100
AcDbLine
 10
657.3291629999999
 20
596.4999999999998
 30
0.0
 11
657.3291629999999
 21
580.4999999999997
 31
0.0
  0
LINE
  5
5BA
330
3DE
100
AcDbEntity
  8
1
  6
Continuous
100
AcDbLine
 10
647.329163
 20
578.5
 30
0.0
 11
647.329163
 21
575.4999999999999
 31
0.0
  0
LINE
  5
5BB
330
3DE
100
AcDbEntity
  8
4
  6
CENTER
100
AcDbLine
 10
324.7895199999998
 20
650.829163
 30
0.0
 11
209.7895199999999
 21
650.829163
 31
0.0
  0
LINE
  5
5BC
330
3DE
100
AcDbEntity
  8
1
  6
Continuous
100
AcDbLine
 10
677.329163
 20
626.0
 30
0.0
 11
677.329163
 21
551.0
 31
0.0
  0
LINE
  5
5BD
330
3DE
100
AcDbEntity
  8
1
  6
Continuous
100
AcDbLine
 10
495.3291929999998
 20
586.400024
 30
0.0
 11
499.791565
 21
586.400024
 31
0.0
  0
LINE
  5
5BE
330
3DE
100
AcDbEntity
  8
1
  6
Continuous
100
AcDbLine
 10
677.329163
 20
602.5
 30
0.0
 11
672.329163
 21
602.5
 31
0.0
  0
LINE
  5
5BF
330
3DE
100
AcDbEntity
  8
1
  6
Continuous
100
AcDbLine
 10
677.329163
 20
574.5
 30
0.0
 11
672.329163
 21
574.5
 31
0.0
  0
LINE
  5
5C0
330
3DE
100
AcDbEntity
  8
4
  6
CENTER
100
AcDbLine
 10
681.829163
 20
558.4999999999999
 30
0.0
 11
669.8291629999999
 21
558.4999999999999
 31
0.0
  0
LINE
  5
5C1
330
3DE
100
AcDbEntity
  8
4
  6
CENTER
100
AcDbLine
 10
681.829163
 20
618.5
 30
0.0
 11
669.8291629999999
 21
618.5
 31
0.0
  0
LINE
  5
5C2
330
3DE
100
AcDbEntity
  8
1
  6
Continuous
100
AcDbLine
 10
677.329163
 20
551.0
 30
0.0
 11
674.3291629999998
 21
551.0
 31
0.0
  0
LINE
  5
5C3
330
3DE
100
AcDbEntity
  8
1
  6
Continuous
100
AcDbLine
 10
674.3291629999998
 20
574.5
 30
0.0
 11
674.3291629999998
 21
551.0
 31
0.0
  0
LINE
  5
5C4
330
3DE
100
AcDbEntity
  8
1
  6
Continuous
100
AcDbLine
 10
672.329163
 20
574.5
 30
0.0
 11
654.9341429999998
 21
578.7910769999997
 31
0.0
  0
LINE
  5
5C5
330
3DE
100
AcDbEntity
  8
1
  6
Continuous
100
AcDbLine
 10
672.3292240000001
 20
602.5
 30
0.0
 11
654.9341429999998
 21
598.208923
 31
0.0
  0
LINE
  5
5C6
330
3DE
100
AcDbEntity
  8
1
  6
Continuous
100
AcDbLine
 10
532.3291629999999
 20
593.5
 30
0.0
 11
504.3291929999998
 21
593.5
 31
0.0
  0
LINE
  5
5C7
330
3DE
100
AcDbEntity
  8
1
  6
Continuous
100
AcDbLine
 10
304.7895199999999
 20
640.8291629999999
 30
0.0
 11
229.78952
 21
640.8291629999999
 31
0.0
  0
LINE
  5
5C8
330
3DE
100
AcDbEntity
  8
1
  6
Continuous
100
AcDbLine
 10
537.3291629999998
 20
588.4999999999998
 30
0.0
 11
537.3291629999998
 21
573.200012
 31
0.0
  0
LINE
  5
5C9
330
3DE
100
AcDbEntity
  8
1
  6
Continuous
100
AcDbLine
 10
527.329163
 20
575.4999999999999
 30
0.0
 11
517.329163
 21
575.4999999999999
 31
0.0
  0
LINE
  5
5CA
330
3DE
100
AcDbEntity
  8
1
  6
Continuous
100
AcDbLine
 10
537.3291629999998
 20
573.200012
 30
0.0
 11
527.329163
 21
573.200012
 31
0.0
  0
LINE
  5
5CB
330
3DE
100
AcDbEntity
  8
1
  6
Continuous
100
AcDbLine
 10
527.329163
 20
581.5
 30
0.0
 11
527.329163
 21
568.200012
 31
0.0
  0
LINE
  5
5CC
330
3DE
100
AcDbEntity
  8
1
  6
Continuous
100
AcDbLine
 10
304.7895199999999
 20
660.829163
 30
0.0
 11
229.78952
 21
660.829163
 31
0.0
  0
LINE
  5
5CD
330
3DE
100
AcDbEntity
  8
4
  6
CENTER
100
AcDbLine
 10
244.78952
 20
656.1292110000001
 30
0.0
 11
244.78952
 21
645.529175
 31
0.0
  0
LINE
  5
5CE
330
3DE
100
AcDbEntity
  8
4
  6
CENTER
100
AcDbLine
 10
267.2895199999999
 20
660.829163
 30
0.0
 11
267.2895199999999
 21
640.8291629999999
 31
0.0
  0
LINE
  5
5CF
330
3DE
100
AcDbEntity
  8
4
  6
CENTER
100
AcDbLine
 10
229.78952
 20
656.1292110000001
 30
0.0
 11
229.78952
 21
645.529175
 31
0.0
  0
LINE
  5
5D0
330
3DE
100
AcDbEntity
  8
4
  6
CENTER
100
AcDbLine
 10
289.7895199999999
 20
656.1292110000001
 30
0.0
 11
289.7895199999999
 21
645.529175
 31
0.0
  0
LINE
  5
5D1
330
3DE
100
AcDbEntity
  8
4
  6
CENTER
100
AcDbLine
 10
304.7895199999999
 20
656.1292110000001
 30
0.0
 11
304.7895199999999
 21
645.529175
 31
0.0
  0
LINE
  5
5D2
330
3DE
100
AcDbEntity
  8
4
  6
CENTER
100
AcDbLine
 10
532.3291629999999
 20
592.4999999999998
 30
0.0
 11
532.3291629999999
 21
584.4999999999997
 31
0.0
  0
LINE
  5
5D3
330
3DE
100
AcDbEntity
  8
4
  6
CENTER
100
AcDbLine
 10
567.329163
 20
592.4999999999998
 30
0.0
 11
567.329163
 21
584.4999999999997
 31
0.0
  0
LINE
  5
5D4
330
3DE
100
AcDbEntity
  8
4
  6
CENTER
100
AcDbLine
 10
457.3291929999999
 20
596.4999999999998
 30
0.0
 11
457.3291929999999
 21
580.4999999999997
 31
0.0
  0
LINE
  5
5D5
330
3DE
100
AcDbEntity
  8
4
  6
CENTER
100
AcDbLine
 10
504.3291929999998
 20
592.4999999999998
 30
0.0
 11
504.3291929999998
 21
584.4999999999997
 31
0.0
  0
LINE
  5
5D6
330
3DE
100
AcDbEntity
  8
1
  6
Continuous
100
AcDbLine
 10
280.03952
 20
660.829163
 30
0.0
 11
280.03952
 21
640.8291629999999
 31
0.0
  0
LINE
  5
5D7
330
3DE
100
AcDbEntity
  8
1
  6
Continuous
100
AcDbLine
 10
254.53952
 20
660.829163
 30
0.0
 11
254.53952
 21
640.8291629999999
 31
0.0
  0
LINE
  5
5D8
330
3DE
100
AcDbEntity
  8
1
  6
Continuous
100
AcDbLine
 10
575.6625979999999
 20
416.426727
 30
0.0
 11
575.6625979999999
 21
417.700195
 31
0.0
  0
LINE
  5
5D9
330
3DE
100
AcDbEntity
  8
1
  6
Continuous
100
AcDbLine
 10
573.6624149999999
 20
417.269836
 30
0.0
 11
573.6624149999999
 21
419.72879
 31
0.0
  0
LINE
  5
5DA
330
3DE
100
AcDbEntity
  8
1
  6
Continuous
100
AcDbLine
 10
574.3295900000001
 20
420.144257
 30
0.0
 11
574.3295900000001
 21
416.8557129999999
 31
0.0
  0
LINE
  5
5DB
330
3DE
100
AcDbEntity
  8
1
  6
Continuous
100
AcDbLine
 10
574.9954219999997
 20
420.2308649999998
 30
0.0
 11
574.9954219999997
 21
416.767792
 31
0.0
  0
LINE
  5
5DC
330
3DE
100
AcDbEntity
  8
1
  6
Continuous
100
AcDbLine
 10
572.995239
 20
420.328308
 30
0.0
 11
572.995239
 21
417.453888
 31
0.0
  0
LINE
  5
5DD
330
3DE
100
AcDbEntity
  8
1
  6
Continuous
100
AcDbLine
 10
575.6625979999999
 20
419.299774
 30
0.0
 11
575.6625979999999
 21
420.5718989999998
 31
0.0
  0
LINE
  5
5DE
330
3DE
100
AcDbEntity
  8
1
  6
Continuous
100
AcDbLine
 10
578.9957889999998
 20
416.617554
 30
0.0
 11
578.9957889999998
 21
418.5
 31
0.0
  0
LINE
  5
5DF
330
3DE
100
AcDbEntity
  8
1
  6
Continuous
100
AcDbLine
 10
580.661682
 20
418.5
 30
0.0
 11
580.661682
 21
416.9003909999998
 31
0.0
  0
LINE
  5
5E0
330
3DE
100
AcDbEntity
  8
1
  6
Continuous
100
AcDbLine
 10
576.9956049999998
 20
418.5
 30
0.0
 11
576.32843
 21
418.5
 31
0.0
  0
LINE
  5
5E1
330
3DE
100
AcDbEntity
  8
1
  6
Continuous
100
AcDbLine
 10
578.9957889999998
 20
418.5
 30
0.0
 11
578.6614990000003
 21
418.5
 31
0.0
  0
LINE
  5
5E2
330
3DE
100
AcDbEntity
  8
1
  6
Continuous
100
AcDbLine
 10
583.0462039999997
 20
418.5
 30
0.0
 11
581.6685179999998
 21
418.5
 31
0.0
  0
LINE
  5
5E3
330
3DE
100
AcDbEntity
  8
1
  6
Continuous
100
AcDbLine
 10
581.33429
 20
417.2522579999998
 30
0.0
 11
582.0880739999997
 21
420.0617069999998
 31
0.0
  0
LINE
  5
5E4
330
3DE
100
AcDbEntity
  8
1
  6
Continuous
100
AcDbLine
 10
576.32843
 20
420.76947
 30
0.0
 11
576.32843
 21
416.2291559999999
 31
0.0
  0
LINE
  5
5E5
330
3DE
100
AcDbEntity
  8
1
  6
Continuous
100
AcDbLine
 10
576.9956049999998
 20
420.8249509999998
 30
0.0
 11
576.9956049999998
 21
416.173676
 31
0.0
  0
LINE
  5
5E6
330
3DE
100
AcDbEntity
  8
1
  6
Continuous
100
AcDbLine
 10
577.6627809999999
 20
420.8249509999998
 30
0.0
 11
577.6627809999999
 21
416.173676
 31
0.0
  0
LINE
  5
5E7
330
3DE
100
AcDbEntity
  8
1
  6
Continuous
100
AcDbLine
 10
578.3285519999998
 20
420.693695
 30
0.0
 11
578.3285519999998
 21
416.3049319999998
 31
0.0
  0
LINE
  5
5E8
330
3DE
100
AcDbEntity
  8
1
  6
Continuous
100
AcDbLine
 10
579.6616209999997
 20
420.690979
 30
0.0
 11
579.6616209999997
 21
416.517395
 31
0.0
  0
LINE
  5
5E9
330
3DE
100
AcDbEntity
  8
1
  6
Continuous
100
AcDbLine
 10
578.9957889999998
 20
419.299774
 30
0.0
 11
578.9957889999998
 21
420.3810729999998
 31
0.0
  0
LINE
  5
5EA
330
3DE
100
AcDbEntity
  8
1
  6
Continuous
100
AcDbLine
 10
580.328796
 20
420.3770139999998
 30
0.0
 11
580.328796
 21
418.8328859999998
 31
0.0
  0
LINE
  5
5EB
330
3DE
100
AcDbEntity
  8
1
  6
Continuous
100
AcDbLine
 10
580.9945679999997
 20
418.8328859999998
 30
0.0
 11
580.9945679999997
 21
420.2565609999998
 31
0.0
  0
LINE
  5
5EC
330
3DE
100
AcDbEntity
  8
1
  6
Continuous
100
AcDbLine
 10
620.7011719999997
 20
418.5
 30
0.0
 11
621.9542849999998
 21
418.5
 31
0.0
  0
LINE
  5
5ED
330
3DE
100
AcDbEntity
  8
1
  6
Continuous
100
AcDbLine
 10
619.580688
 20
420.5299069999998
 30
0.0
 11
619.580688
 21
416.5299069999998
 31
0.0
  0
LINE
  5
5EE
330
3DE
100
AcDbEntity
  8
1
  6
Continuous
100
AcDbLine
 10
613.2597050000001
 20
420.5
 30
0.0
 11
616.409668
 21
420.5
 31
0.0
  0
LINE
  5
5EF
330
3DE
100
AcDbEntity
  8
1
  6
Continuous
100
AcDbLine
 10
614.827759
 20
420.5
 30
0.0
 11
614.827759
 21
416.5
 31
0.0
  0
LINE
  5
5F0
330
3DE
100
AcDbEntity
  8
1
  6
Continuous
100
AcDbLine
 10
617.0747679999998
 20
420.5299069999998
 30
0.0
 11
617.0747679999998
 21
416.5299069999998
 31
0.0
  0
LINE
  5
5F1
330
3DE
100
AcDbEntity
  8
1
  6
Continuous
100
AcDbLine
 10
608.7045289999998
 20
417.6882929999998
 30
0.0
 11
610.8856199999999
 21
417.6882929999998
 31
0.0
  0
LINE
  5
5F2
330
3DE
100
AcDbEntity
  8
1
  6
Continuous
100
AcDbLine
 10
609.813171
 20
420.5796809999998
 30
0.0
 11
611.327759
 21
416.485443
 31
0.0
  0
LINE
  5
5F3
330
3DE
100
AcDbEntity
  8
1
  6
Continuous
100
AcDbLine
 10
596.4437259999997
 20
418.572479
 30
0.0
 11
599.037781
 21
418.572479
 31
0.0
  0
LINE
  5
5F4
330
3DE
100
AcDbEntity
  8
1
  6
Continuous
100
AcDbLine
 10
587.3291629999997
 20
420.5
 30
0.0
 11
587.3291629999997
 21
416.5
 31
0.0
  0
LINE
  5
5F5
330
3DE
100
AcDbEntity
  8
1
  6
Continuous
100
AcDbLine
 10
585.7059329999997
 20
420.5
 30
0.0
 11
588.9667969999997
 21
420.5
 31
0.0
  0
LINE
  5
5F6
330
3DE
100
AcDbEntity
  8
1
  6
Continuous
100
AcDbLine
 10
596.4437259999997
 20
420.67392
 30
0.0
 11
596.4437259999997
 21
416.471039
 31
0.0
  0
LINE
  5
5F7
330
3DE
100
AcDbEntity
  8
1
  6
Continuous
100
AcDbLine
 10
602.6190800000001
 20
418.369598
 30
0.0
 11
604.024841
 21
418.369598
 31
0.0
  0
LINE
  5
5F8
330
3DE
100
AcDbEntity
  8
1
  6
Continuous
100
AcDbLine
 10
599.037781
 20
420.67392
 30
0.0
 11
599.037781
 21
416.471039
 31
0.0
  0
LINE
  5
5F9
330
3DE
100
AcDbEntity
  8
1
  6
Continuous
100
AcDbLine
 10
600.1437379999997
 20
420.67392
 30
0.0
 11
600.1437379999997
 21
416.471039
 31
0.0
  0
LINE
  5
5FA
330
3DE
100
AcDbEntity
  8
1
  6
Continuous
100
AcDbLine
 10
609.813171
 20
420.5724789999998
 30
0.0
 11
608.2263179999999
 21
416.4854739999998
 31
0.0
  0
LINE
  5
5FB
330
3DE
100
AcDbEntity
  8
1
  6
Continuous
100
AcDbLine
 10
606.881348
 20
418.3550419999998
 30
0.0
 11
606.881348
 21
416.471039
 31
0.0
  0
LINE
  5
5FC
330
3DE
100
AcDbEntity
  8
1
  6
Continuous
100
AcDbLine
 10
604.024841
 20
417.7734679999998
 30
0.0
 11
604.024841
 21
416.5
 31
0.0
  0
LINE
  5
5FD
330
3DE
100
AcDbEntity
  8
1
  6
Continuous
100
AcDbLine
 10
604.884216
 20
420.67392
 30
0.0
 11
604.884216
 21
416.471039
 31
0.0
  0
LINE
  5
5FE
330
3DE
100
AcDbEntity
  8
1
  6
Continuous
100
AcDbLine
 10
606.881287
 20
418.3550109999997
 30
0.0
 11
608.2385860000003
 21
420.7057189999998
 31
0.0
  0
LINE
  5
5FF
330
3DE
100
AcDbEntity
  8
1
  6
Continuous
100
AcDbLine
 10
606.881287
 20
418.3622129999998
 30
0.0
 11
605.533936
 21
420.7031859999998
 31
0.0
  0
LINE
  5
600
330
3DE
100
AcDbEntity
  8
1
  6
Continuous
100
AcDbLine
 10
622.4710690000001
 20
416.4547119999999
 30
0.0
 11
624.562134
 21
418.640961
 31
0.0
  0
LINE
  5
601
330
3DE
100
AcDbEntity
  8
1
  6
Continuous
100
AcDbLine
 10
622.47113
 20
416.4547119999999
 30
0.0
 11
624.8453980000001
 21
416.4547119999999
 31
0.0
  0
LINE
  5
602
330
3DE
100
AcDbEntity
  8
1
  6
Continuous
100
AcDbLine
 10
617.0747679999998
 20
420.5299069999998
 30
0.0
 11
618.327759
 21
418.5
 31
0.0
  0
LINE
  5
603
330
3DE
100
AcDbEntity
  8
1
  6
Continuous
100
AcDbLine
 10
619.580688
 20
420.529938
 30
0.0
 11
618.3276980000003
 21
418.5
 31
0.0
  0
LINE
  5
604
330
3DE
100
AcDbEntity
  8
1
  6
Continuous
100
AcDbLine
 10
625.6710820000002
 20
416.4547419999998
 30
0.0
 11
627.762146
 21
418.640961
 31
0.0
  0
LINE
  5
605
330
3DE
100
AcDbEntity
  8
1
  6
Continuous
100
AcDbLine
 10
625.6710820000002
 20
416.4547119999999
 30
0.0
 11
628.04541
 21
416.4547119999999
 31
0.0
  0
LINE
  5
606
330
3DE
100
AcDbEntity
  8
1
  6
Continuous
100
AcDbLine
 10
527.329163
 20
258.7999879999999
 30
0.0
 11
525.3291629999998
 21
258.7999879999999
 31
0.0
  0
LINE
  5
607
330
3DE
100
AcDbEntity
  8
1
  6
Continuous
100
AcDbLine
 10
525.3291629999998
 20
253.8000029999998
 30
0.0
 11
525.3291629999998
 21
258.7999879999999
 31
0.0
  0
LINE
  5
608
330
3DE
100
AcDbEntity
  8
1
  6
Continuous
100
AcDbLine
 10
527.329163
 20
245.5
 30
0.0
 11
527.329163
 21
258.7999879999999
 31
0.0
  0
LINE
  5
609
330
3DE
100
AcDbEntity
  8
1
  6
Continuous
100
AcDbLine
 10
525.3291629999998
 20
411.5
 30
0.0
 11
525.3291629999998
 21
425.4999999999998
 31
0.0
  0
LINE
  5
60A
330
3DE
100
AcDbEntity
  8
1
  6
Continuous
100
AcDbLine
 10
527.329163
 20
568.200012
 30
0.0
 11
525.3291629999998
 21
568.200012
 31
0.0
  0
LINE
  5
60B
330
3DE
100
AcDbEntity
  8
1
  6
Continuous
100
AcDbLine
 10
525.3291629999998
 20
573.200012
 30
0.0
 11
525.3291629999998
 21
568.200012
 31
0.0
  0
LINE
  5
60C
330
3DE
100
AcDbEntity
  8
1
  6
Continuous
100
AcDbLine
 10
677.329163
 20
566.0
 30
0.0
 11
674.3291629999998
 21
566.0
 31
0.0
  0
LINE
  5
60D
330
3DE
100
AcDbEntity
  8
1
  6
Continuous
100
AcDbLine
 10
677.329163
 20
611.0
 30
0.0
 11
674.3291629999998
 21
611.0
 31
0.0
  0
LINE
  5
60E
330
3DE
100
AcDbEntity
  8
1
  6
Continuous
100
AcDbLine
 10
677.329163
 20
216.0
 30
0.0
 11
674.3291629999998
 21
216.0
 31
0.0
  0
LINE
  5
60F
330
3DE
100
AcDbEntity
  8
1
  6
Continuous
100
AcDbLine
 10
677.329163
 20
261.0
 30
0.0
 11
674.3291629999998
 21
261.0
 31
0.0
  0
LINE
  5
610
330
3DE
100
AcDbEntity
  8
1
  6
Continuous
100
AcDbLine
 10
629.943848
 20
418.4560849999998
 30
0.0
 11
630.5292969999998
 21
418.4560849999998
 31
0.0
  0
LINE
  5
611
330
3DE
100
AcDbEntity
  8
5
  6
PHANTOM
100
AcDbLine
 10
410.787964
 20
178.8538209999999
 30
0.0
 11
468.1103209999998
 21
196.9835359999999
 31
0.0
  0
LINE
  5
612
330
3DE
100
AcDbEntity
  8
5
  6
PHANTOM
100
AcDbLine
 10
271.2739869999999
 20
155.705322
 30
0.0
 11
461.963837
 21
216.0160219999999
 31
0.0
  0
LINE
  5
613
330
3DE
100
AcDbEntity
  8
4
  6
CENTER
100
AcDbLine
 10
274.2895199999999
 20
146.170822
 30
0.0
 11
465.630859
 21
206.687576
 31
0.0
  0
LINE
  5
614
330
3DE
100
AcDbEntity
  8
5
  6
PHANTOM
100
AcDbLine
 10
410.787964
 20
178.8538209999999
 30
0.0
 11
411.692627
 21
175.9934839999999
 31
0.0
  0
LINE
  5
615
330
3DE
100
AcDbEntity
  8
5
  6
PHANTOM
100
AcDbLine
 10
286.8395689999999
 20
139.651871
 30
0.0
 11
287.744232
 21
136.7915189999999
 31
0.0
  0
LINE
  5
616
330
3DE
100
AcDbEntity
  8
5
  6
PHANTOM
100
AcDbLine
 10
287.744232
 20
136.7915189999999
 30
0.0
 11
392.623627
 21
169.9624019999999
 31
0.0
  0
LINE
  5
617
330
3DE
100
AcDbEntity
  8
5
  6
PHANTOM
100
AcDbLine
 10
286.243866
 20
139.463455
 30
0.0
 11
286.8395689999999
 21
139.651871
 31
0.0
  0
LINE
  5
618
330
3DE
100
AcDbEntity
  8
5
  6
PHANTOM
100
AcDbLine
 10
423.8603819999998
 20
195.6790919999999
 30
0.0
 11
428.1150209999998
 21
197.024734
 31
0.0
  0
LINE
  5
619
330
3DE
100
AcDbEntity
  8
5
  6
PHANTOM
100
AcDbLine
 10
429.3815309999998
 20
193.020233
 30
0.0
 11
425.126892
 21
191.6745909999999
 31
0.0
  0
LINE
  5
61A
330
3DE
100
AcDbEntity
  8
5
  6
PHANTOM
100
AcDbLine
 10
401.6525879999998
 20
181.208649
 30
0.0
 11
421.675018
 21
187.5412599999999
 31
0.0
  0
LINE
  5
61B
330
3DE
100
AcDbEntity
  8
5
  6
PHANTOM
100
AcDbLine
 10
391.962921
 20
188.632263
 30
0.0
 11
418.659485
 21
197.0757449999999
 31
0.0
  0
LINE
  5
61C
330
3DE
100
AcDbEntity
  8
5
  6
PHANTOM
100
AcDbLine
 10
388.7034299999998
 20
182.357254
 30
0.0
 11
393.3172
 21
167.7694699999999
 31
0.0
  0
LINE
  5
61D
330
3DE
100
AcDbEntity
  8
5
  6
PHANTOM
100
AcDbLine
 10
393.3172
 20
167.7694699999999
 30
0.0
 11
402.8517149999998
 21
170.7850039999999
 31
0.0
  0
LINE
  5
61E
330
3DE
100
AcDbEntity
  8
5
  6
PHANTOM
100
AcDbLine
 10
400.3488159999998
 20
178.6986389999999
 30
0.0
 11
404.359467
 21
166.017776
 31
0.0
  0
LINE
  5
61F
330
3DE
100
AcDbEntity
  8
5
  6
PHANTOM
100
AcDbLine
 10
402.158142
 20
172.977936
 30
0.0
 11
411.692627
 21
175.9934839999999
 31
0.0
  0
LINE
  5
620
330
3DE
100
AcDbEntity
  8
5
  6
PHANTOM
100
AcDbLine
 10
404.359467
 20
166.017776
 30
0.0
 11
406.2663569999998
 21
166.6208799999998
 31
0.0
  0
LINE
  5
621
330
3DE
100
AcDbEntity
  8
5
  6
PHANTOM
100
AcDbLine
 10
404.7586059999998
 20
171.388107
 30
0.0
 11
406.2663569999998
 21
166.6208799999998
 31
0.0
  0
LINE
  5
622
330
3DE
100
AcDbEntity
  8
5
  6
PHANTOM
100
AcDbLine
 10
465.7065429999998
 20
196.2232669999999
 30
0.0
 11
487.013824
 21
192.6800229999998
 31
0.0
  0
LINE
  5
623
330
3DE
100
AcDbEntity
  8
4
  6
CENTER
100
AcDbLine
 10
464.859924
 20
206.5013729999999
 30
0.0
 11
543.849182
 21
193.3660429999999
 31
0.0
  0
LINE
  5
624
330
3DE
100
AcDbEntity
  8
5
  6
PHANTOM
100
AcDbLine
 10
503.2358089999998
 20
204.276047
 30
0.0
 11
512.015259
 21
202.816101
 31
0.0
  0
LINE
  5
625
330
3DE
100
AcDbEntity
  8
5
  6
PHANTOM
100
AcDbLine
 10
508.037994
 20
194.1511379999998
 30
0.0
 11
511.1781919999998
 21
188.661652
 31
0.0
  0
LINE
  5
626
330
3DE
100
AcDbEntity
  8
5
  6
PHANTOM
100
AcDbLine
 10
466.500336
 20
216.365906
 30
0.0
 11
515.942444
 21
208.1440429999999
 31
0.0
  0
LINE
  5
627
330
3DE
100
AcDbEntity
  8
5
  6
PHANTOM
100
AcDbLine
 10
511.1782230000001
 20
188.661652
 30
0.0
 11
512.6616209999999
 21
188.4149779999999
 31
0.0
  0
LINE
  5
628
330
3DE
100
AcDbEntity
  8
5
  6
PHANTOM
100
AcDbLine
 10
508.202423
 20
195.1375269999998
 30
0.0
 11
510.6701049999998
 21
194.7271579999998
 31
0.0
  0
LINE
  5
629
330
3DE
100
AcDbEntity
  8
5
  6
PHANTOM
100
AcDbLine
 10
508.037994
 20
194.1511229999999
 30
0.0
 11
508.202423
 21
195.1375119999999
 31
0.0
  0
LINE
  5
62A
330
3DE
100
AcDbEntity
  8
5
  6
PHANTOM
100
AcDbLine
 10
260.2895199999999
 20
131.170792
 30
0.0
 11
264.5805659999999
 21
148.5658109999999
 31
0.0
  0
LINE
  5
62B
330
3DE
100
AcDbEntity
  8
5
  6
PHANTOM
100
AcDbLine
 10
296.78952
 20
126.170815
 30
0.0
 11
296.78952
 21
129.1708219999998
 31
0.0
  0
LINE
  5
62C
330
3DE
100
AcDbEntity
  8
5
  6
PHANTOM
100
AcDbLine
 10
251.78952
 20
126.170815
 30
0.0
 11
251.78952
 21
129.1708219999998
 31
0.0
  0
LINE
  5
62D
330
3DE
100
AcDbEntity
  8
5
  6
PHANTOM
100
AcDbLine
 10
288.2895199999999
 20
131.170776
 30
0.0
 11
283.9984739999999
 21
148.5658259999999
 31
0.0
  0
LINE
  5
62E
330
3DE
100
AcDbEntity
  8
5
  6
PHANTOM
100
AcDbLine
 10
236.7895199999999
 20
126.170815
 30
0.0
 11
311.7895199999999
 21
126.170815
 31
0.0
  0
LINE
  5
62F
330
3DE
100
AcDbEntity
  8
5
  6
PHANTOM
100
AcDbLine
 10
236.7895199999999
 20
129.1708219999998
 30
0.0
 11
260.2895199999999
 21
129.1708219999998
 31
0.0
  0
LINE
  5
630
330
3DE
100
AcDbEntity
  8
5
  6
PHANTOM
100
AcDbLine
 10
236.7895199999999
 20
126.170815
 30
0.0
 11
236.7895199999999
 21
129.1708219999998
 31
0.0
  0
LINE
  5
631
330
3DE
100
AcDbEntity
  8
5
  6
PHANTOM
100
AcDbLine
 10
311.7895199999999
 20
126.170815
 30
0.0
 11
311.7895199999999
 21
129.1708219999998
 31
0.0
  0
LINE
  5
632
330
3DE
100
AcDbEntity
  8
4
  6
CENTER
100
AcDbLine
 10
244.28952
 20
121.6708149999999
 30
0.0
 11
244.28952
 21
133.670822
 31
0.0
  0
LINE
  5
633
330
3DE
100
AcDbEntity
  8
4
  6
CENTER
100
AcDbLine
 10
304.2895199999999
 20
121.6708149999999
 30
0.0
 11
304.2895199999999
 21
133.670822
 31
0.0
  0
LINE
  5
634
330
3DE
100
AcDbEntity
  8
5
  6
PHANTOM
100
AcDbLine
 10
288.2895199999999
 20
126.170815
 30
0.0
 11
288.2895199999999
 21
131.1708219999998
 31
0.0
  0
LINE
  5
635
330
3DE
100
AcDbEntity
  8
5
  6
PHANTOM
100
AcDbLine
 10
260.2895199999999
 20
126.170815
 30
0.0
 11
260.2895199999999
 21
131.1708219999998
 31
0.0
  0
LINE
  5
636
330
3DE
100
AcDbEntity
  8
5
  6
PHANTOM
100
AcDbLine
 10
288.2895199999999
 20
129.1708219999998
 30
0.0
 11
311.7895199999999
 21
129.1708219999998
 31
0.0
  0
LINE
  5
637
330
3DE
100
AcDbEntity
  8
4
  6
CENTER
100
AcDbLine
 10
260.2895199999999
 20
146.170822
 30
0.0
 11
288.2895199999999
 21
146.170822
 31
0.0
  0
LINE
  5
638
330
3DE
100
AcDbEntity
  8
4
  6
CENTER
100
AcDbLine
 10
274.2895199999999
 20
161.1708219999998
 30
0.0
 11
274.2895199999999
 21
131.1708219999998
 31
0.0
  0
LINE
  5
639
330
3DE
100
AcDbEntity
  8
4
  6
CENTER
100
AcDbLine
 10
479.9793399999998
 20
206.4815059999999
 30
0.0
 11
449.9793399999998
 21
206.4815059999999
 31
0.0
  0
LINE
  5
63A
330
3DE
100
AcDbEntity
  8
4
  6
CENTER
100
AcDbLine
 10
464.97934
 20
221.4815059999998
 30
0.0
 11
464.97934
 21
191.4815219999999
 31
0.0
  0
LINE
  5
63B
330
3DE
100
AcDbEntity
  8
4
  6
CENTER
100
AcDbLine
 10
420.167236
 20
197.308502
 30
0.0
 11
420.167236
 21
187.3085019999998
 31
0.0
  0
LINE
  5
63C
330
3DE
100
AcDbEntity
  8
4
  6
CENTER
100
AcDbLine
 10
415.167236
 20
192.308502
 30
0.0
 11
425.167236
 21
192.308502
 31
0.0
  0
LINE
  5
63D
330
3DE
100
AcDbEntity
  8
4
  6
CENTER
100
AcDbLine
 10
393.4706729999999
 20
188.865005
 30
0.0
 11
393.4706729999999
 21
178.865005
 31
0.0
  0
LINE
  5
63E
330
3DE
100
AcDbEntity
  8
4
  6
CENTER
100
AcDbLine
 10
388.4706729999999
 20
183.865005
 30
0.0
 11
398.4706729999999
 21
183.865005
 31
0.0
  0
LINE
  5
63F
330
3DE
100
AcDbEntity
  8
4
  6
CENTER
100
AcDbLine
 10
360.0999449999998
 20
178.3106379999999
 30
0.0
 11
360.0999449999998
 21
168.3106379999999
 31
0.0
  0
LINE
  5
640
330
3DE
100
AcDbEntity
  8
4
  6
CENTER
100
AcDbLine
 10
355.0999449999998
 20
173.3106379999999
 30
0.0
 11
365.099945
 21
173.3106379999999
 31
0.0
  0
LINE
  5
641
330
3DE
100
AcDbEntity
  8
5
  6
PHANTOM
100
AcDbLine
 10
410.787964
 20
648.146179
 30
0.0
 11
468.1103209999998
 21
630.016479
 31
0.0
  0
LINE
  5
642
330
3DE
100
AcDbEntity
  8
5
  6
PHANTOM
100
AcDbLine
 10
271.2739869999999
 20
671.294678
 30
0.0
 11
461.963837
 21
610.9839480000001
 31
0.0
  0
LINE
  5
643
330
3DE
100
AcDbEntity
  8
4
  6
CENTER
100
AcDbLine
 10
274.2895199999999
 20
680.829163
 30
0.0
 11
465.630859
 21
620.3124389999998
 31
0.0
  0
LINE
  5
644
330
3DE
100
AcDbEntity
  8
5
  6
PHANTOM
100
AcDbLine
 10
410.787964
 20
648.146179
 30
0.0
 11
411.692627
 21
651.0065309999998
 31
0.0
  0
LINE
  5
645
330
3DE
100
AcDbEntity
  8
5
  6
PHANTOM
100
AcDbLine
 10
286.8395689999999
 20
687.3481450000001
 30
0.0
 11
287.744232
 21
690.2084959999997
 31
0.0
  0
LINE
  5
646
330
3DE
100
AcDbEntity
  8
5
  6
PHANTOM
100
AcDbLine
 10
287.744232
 20
690.2084959999997
 30
0.0
 11
392.623627
 21
657.037598
 31
0.0
  0
LINE
  5
647
330
3DE
100
AcDbEntity
  8
5
  6
PHANTOM
100
AcDbLine
 10
286.243866
 20
687.53656
 30
0.0
 11
286.8395689999999
 21
687.3481450000001
 31
0.0
  0
LINE
  5
648
330
3DE
100
AcDbEntity
  8
5
  6
PHANTOM
100
AcDbLine
 10
423.8603819999998
 20
631.320923
 30
0.0
 11
428.1150209999998
 21
629.975281
 31
0.0
  0
LINE
  5
649
330
3DE
100
AcDbEntity
  8
5
  6
PHANTOM
100
AcDbLine
 10
429.3815309999998
 20
633.979736
 30
0.0
 11
425.126892
 21
635.325378
 31
0.0
  0
LINE
  5
64A
330
3DE
100
AcDbEntity
  8
5
  6
PHANTOM
100
AcDbLine
 10
401.6525879999998
 20
645.7913819999999
 30
0.0
 11
421.675018
 21
639.45874
 31
0.0
  0
LINE
  5
64B
330
3DE
100
AcDbEntity
  8
5
  6
PHANTOM
100
AcDbLine
 10
391.962921
 20
638.367737
 30
0.0
 11
418.659485
 21
629.924255
 31
0.0
  0
LINE
  5
64C
330
3DE
100
AcDbEntity
  8
5
  6
PHANTOM
100
AcDbLine
 10
388.7034299999998
 20
644.6427609999998
 30
0.0
 11
393.3172
 21
659.2305299999998
 31
0.0
  0
LINE
  5
64D
330
3DE
100
AcDbEntity
  8
5
  6
PHANTOM
100
AcDbLine
 10
393.3172
 20
659.2305299999998
 30
0.0
 11
402.8517149999998
 21
656.214966
 31
0.0
  0
LINE
  5
64E
330
3DE
100
AcDbEntity
  8
5
  6
PHANTOM
100
AcDbLine
 10
400.3488159999998
 20
648.3013919999997
 30
0.0
 11
404.359467
 21
660.9822389999999
 31
0.0
  0
LINE
  5
64F
330
3DE
100
AcDbEntity
  8
5
  6
PHANTOM
100
AcDbLine
 10
402.158142
 20
654.0220339999997
 30
0.0
 11
411.692627
 21
651.0065309999998
 31
0.0
  0
LINE
  5
650
330
3DE
100
AcDbEntity
  8
5
  6
PHANTOM
100
AcDbLine
 10
404.359467
 20
660.9822389999999
 30
0.0
 11
406.2663569999998
 21
660.3790889999998
 31
0.0
  0
LINE
  5
651
330
3DE
100
AcDbEntity
  8
5
  6
PHANTOM
100
AcDbLine
 10
404.7586059999998
 20
655.6118769999999
 30
0.0
 11
406.2663569999998
 21
660.3790889999998
 31
0.0
  0
LINE
  5
652
330
3DE
100
AcDbEntity
  8
5
  6
PHANTOM
100
AcDbLine
 10
465.7065429999998
 20
630.776733
 30
0.0
 11
487.013824
 21
634.320007
 31
0.0
  0
LINE
  5
653
330
3DE
100
AcDbEntity
  8
4
  6
CENTER
100
AcDbLine
 10
464.859924
 20
620.498596
 30
0.0
 11
543.849182
 21
633.6339719999998
 31
0.0
  0
LINE
  5
654
330
3DE
100
AcDbEntity
  8
5
  6
PHANTOM
100
AcDbLine
 10
503.2358089999998
 20
622.723938
 30
0.0
 11
512.015259
 21
624.1838989999997
 31
0.0
  0
LINE
  5
655
330
3DE
100
AcDbEntity
  8
5
  6
PHANTOM
100
AcDbLine
 10
508.037994
 20
632.8488769999998
 30
0.0
 11
511.1781919999998
 21
638.338318
 31
0.0
  0
LINE
  5
656
330
3DE
100
AcDbEntity
  8
5
  6
PHANTOM
100
AcDbLine
 10
466.500336
 20
610.6340939999999
 30
0.0
 11
515.942444
 21
618.8559569999998
 31
0.0
  0
LINE
  5
657
330
3DE
100
AcDbEntity
  8
5
  6
PHANTOM
100
AcDbLine
 10
511.1782230000001
 20
638.338318
 30
0.0
 11
512.6616209999999
 21
638.585022
 31
0.0
  0
LINE
  5
658
330
3DE
100
AcDbEntity
  8
5
  6
PHANTOM
100
AcDbLine
 10
508.202423
 20
631.8624879999998
 30
0.0
 11
510.6701049999998
 21
632.2728269999998
 31
0.0
  0
LINE
  5
659
330
3DE
100
AcDbEntity
  8
5
  6
PHANTOM
100
AcDbLine
 10
508.037994
 20
632.8488769999998
 30
0.0
 11
508.202423
 21
631.8624879999998
 31
0.0
  0
LINE
  5
65A
330
3DE
100
AcDbEntity
  8
5
  6
PHANTOM
100
AcDbLine
 10
260.2895199999999
 20
695.8292239999998
 30
0.0
 11
264.5805659999999
 21
678.434204
 31
0.0
  0
LINE
  5
65B
330
3DE
100
AcDbEntity
  8
5
  6
PHANTOM
100
AcDbLine
 10
296.78952
 20
700.829163
 30
0.0
 11
296.78952
 21
697.829163
 31
0.0
  0
LINE
  5
65C
330
3DE
100
AcDbEntity
  8
5
  6
PHANTOM
100
AcDbLine
 10
251.78952
 20
700.829163
 30
0.0
 11
251.78952
 21
697.829163
 31
0.0
  0
LINE
  5
65D
330
3DE
100
AcDbEntity
  8
5
  6
PHANTOM
100
AcDbLine
 10
288.2895199999999
 20
695.8292239999998
 30
0.0
 11
283.9984739999999
 21
678.434204
 31
0.0
  0
LINE
  5
65E
330
3DE
100
AcDbEntity
  8
5
  6
PHANTOM
100
AcDbLine
 10
236.7895199999999
 20
700.829163
 30
0.0
 11
311.7895199999999
 21
700.829163
 31
0.0
  0
LINE
  5
65F
330
3DE
100
AcDbEntity
  8
5
  6
PHANTOM
100
AcDbLine
 10
236.7895199999999
 20
697.829163
 30
0.0
 11
260.2895199999999
 21
697.829163
 31
0.0
  0
LINE
  5
660
330
3DE
100
AcDbEntity
  8
5
  6
PHANTOM
100
AcDbLine
 10
236.7895199999999
 20
700.829163
 30
0.0
 11
236.7895199999999
 21
697.829163
 31
0.0
  0
LINE
  5
661
330
3DE
100
AcDbEntity
  8
5
  6
PHANTOM
100
AcDbLine
 10
311.7895199999999
 20
700.829163
 30
0.0
 11
311.7895199999999
 21
697.829163
 31
0.0
  0
LINE
  5
662
330
3DE
100
AcDbEntity
  8
4
  6
CENTER
100
AcDbLine
 10
244.28952
 20
705.329163
 30
0.0
 11
244.28952
 21
693.329163
 31
0.0
  0
LINE
  5
663
330
3DE
100
AcDbEntity
  8
4
  6
CENTER
100
AcDbLine
 10
304.2895199999999
 20
705.329163
 30
0.0
 11
304.2895199999999
 21
693.329163
 31
0.0
  0
LINE
  5
664
330
3DE
100
AcDbEntity
  8
5
  6
PHANTOM
100
AcDbLine
 10
288.2895199999999
 20
700.829163
 30
0.0
 11
288.2895199999999
 21
695.8291629999997
 31
0.0
  0
LINE
  5
665
330
3DE
100
AcDbEntity
  8
5
  6
PHANTOM
100
AcDbLine
 10
260.2895199999999
 20
700.829163
 30
0.0
 11
260.2895199999999
 21
695.8291629999997
 31
0.0
  0
LINE
  5
666
330
3DE
100
AcDbEntity
  8
5
  6
PHANTOM
100
AcDbLine
 10
288.2895199999999
 20
697.829163
 30
0.0
 11
311.7895199999999
 21
697.829163
 31
0.0
  0
LINE
  5
667
330
3DE
100
AcDbEntity
  8
4
  6
CENTER
100
AcDbLine
 10
260.2895199999999
 20
680.829163
 30
0.0
 11
288.2895199999999
 21
680.829163
 31
0.0
  0
LINE
  5
668
330
3DE
100
AcDbEntity
  8
4
  6
CENTER
100
AcDbLine
 10
274.2895199999999
 20
665.8291629999999
 30
0.0
 11
274.2895199999999
 21
695.8291629999997
 31
0.0
  0
LINE
  5
669
330
3DE
100
AcDbEntity
  8
4
  6
CENTER
100
AcDbLine
 10
479.9793399999998
 20
620.518494
 30
0.0
 11
449.9793399999998
 21
620.518494
 31
0.0
  0
LINE
  5
66A
330
3DE
100
AcDbEntity
  8
4
  6
CENTER
100
AcDbLine
 10
464.97934
 20
605.518494
 30
0.0
 11
464.97934
 21
635.518494
 31
0.0
  0
LINE
  5
66B
330
3DE
100
AcDbEntity
  8
4
  6
CENTER
100
AcDbLine
 10
420.167236
 20
629.6915279999998
 30
0.0
 11
420.167236
 21
639.6915279999998
 31
0.0
  0
LINE
  5
66C
330
3DE
100
AcDbEntity
  8
4
  6
CENTER
100
AcDbLine
 10
415.167236
 20
634.6915280000001
 30
0.0
 11
425.167236
 21
634.6915280000001
 31
0.0
  0
LINE
  5
66D
330
3DE
100
AcDbEntity
  8
4
  6
CENTER
100
AcDbLine
 10
393.4706729999999
 20
638.1350099999997
 30
0.0
 11
393.4706729999999
 21
648.13501
 31
0.0
  0
LINE
  5
66E
330
3DE
100
AcDbEntity
  8
4
  6
CENTER
100
AcDbLine
 10
388.4706729999999
 20
643.1350099999997
 30
0.0
 11
398.4706729999999
 21
643.1350099999997
 31
0.0
  0
LINE
  5
66F
330
3DE
100
AcDbEntity
  8
4
  6
CENTER
100
AcDbLine
 10
360.0999449999998
 20
648.6893919999999
 30
0.0
 11
360.0999449999998
 21
658.689392
 31
0.0
  0
LINE
  5
670
330
3DE
100
AcDbEntity
  8
4
  6
CENTER
100
AcDbLine
 10
355.0999449999998
 20
653.6893919999998
 30
0.0
 11
365.099945
 21
653.6893919999998
 31
0.0
  0
LINE
  5
671
330
3DE
100
AcDbEntity
  8
1
  6
Continuous
100
AcDbLine
 10
117.329185
 20
413.4999999999998
 30
0.0
 11
117.329185
 21
423.5
 31
0.0
  0
LINE
  5
672
330
3DE
100
AcDbEntity
  8
1
  6
Continuous
100
AcDbLine
 10
112.629189
 20
425.4999999999998
 30
0.0
 11
112.629189
 21
425.649994
 31
0.0
  0
ARC
  5
673
330
3DE
100
AcDbEntity
  8
4
  6
CENTER
100
AcDbCircle
 10
457.2081299999998
 20
-82.5
 30
0.0
 40
321.0
100
AcDbArc
 50
89.97839199999999
 51
129.856895
  0
ARC
  5
674
330
3DE
100
AcDbEntity
  8
1
  6
Continuous
100
AcDbCircle
 10
457.2081299999998
 20
-82.5
 30
0.0
 40
311.0
100
AcDbArc
 50
90.00000300000001
 51
126.330619
  0
ARC
  5
675
330
3DE
100
AcDbEntity
  8
1
  6
Continuous
100
AcDbCircle
 10
457.2081299999998
 20
-82.5
 30
0.0
 40
331.0
100
AcDbArc
 50
90.00000300000001
 51
126.282302
  0
ARC
  5
676
330
3DE
100
AcDbEntity
  8
1
  6
Continuous
100
AcDbCircle
 10
267.2347409999999
 20
176.2454379999998
 30
0.0
 40
10.0
100
AcDbArc
 50
125.850634
 51
307.659396
  0
ARC
  5
677
330
3DE
100
AcDbEntity
  8
1
  6
Continuous
100
AcDbCircle
 10
495.3291929999998
 20
238.5
 30
0.0
 40
2.1
100
AcDbArc
 50
90.00000300000001
 51
270.000001
  0
ARC
  5
678
330
3DE
100
AcDbEntity
  8
1
  6
Continuous
100
AcDbCircle
 10
504.3291929999998
 20
238.5
 30
0.0
 40
5.0
100
AcDbArc
 50
90.00000300000001
 51
270.000001
  0
ARC
  5
679
330
3DE
100
AcDbEntity
  8
1
  6
Continuous
100
AcDbCircle
 10
532.3291629999999
 20
238.5
 30
0.0
 40
5.0
100
AcDbArc
 50
269.9999969999999
 51
0.0
  0
ARC
  5
67A
330
3DE
100
AcDbEntity
  8
1
  6
Continuous
100
AcDbCircle
 10
525.3291629999998
 20
245.5
 30
0.0
 40
2.0
100
AcDbArc
 50
269.9999969999999
 51
0.0
  0
ARC
  5
67B
330
3DE
100
AcDbEntity
  8
1
  6
Continuous
100
AcDbCircle
 10
304.7895199999999
 20
176.1708219999999
 30
0.0
 40
10.0
100
AcDbArc
 50
269.9999969999999
 51
90.00000300000001
  0
ARC
  5
67C
330
3DE
100
AcDbEntity
  8
1
  6
Continuous
100
AcDbCircle
 10
229.78952
 20
176.1708219999999
 30
0.0
 40
10.0
100
AcDbArc
 50
90.00000300000001
 51
270.000001
  0
CIRCLE
  5
67D
330
3DE
100
AcDbEntity
  8
1
  6
Continuous
100
AcDbCircle
 10
304.7895199999999
 20
176.1708219999999
 30
0.0
 40
5.299999999999998
  0
ARC
  5
67E
330
3DE
100
AcDbEntity
  8
1
  6
Continuous
100
AcDbCircle
 10
289.7895199999999
 20
176.1708219999999
 30
0.0
 40
5.299999999999998
100
AcDbArc
 50
180.44423
 51
65.37980000000001
  0
CIRCLE
  5
67F
330
3DE
100
AcDbEntity
  8
1
  6
Continuous
100
AcDbCircle
 10
244.78952
 20
176.1708219999999
 30
0.0
 40
5.299999999999998
  0
CIRCLE
  5
680
330
3DE
100
AcDbEntity
  8
1
  6
Continuous
100
AcDbCircle
 10
229.78952
 20
176.1708219999999
 30
0.0
 40
5.299999999999998
  0
CIRCLE
  5
681
330
3DE
100
AcDbEntity
  8
1
  6
Continuous
100
AcDbCircle
 10
229.78952
 20
176.1708219999999
 30
0.0
 40
2.649999999999999
  0
CIRCLE
  5
682
330
3DE
100
AcDbEntity
  8
1
  6
Continuous
100
AcDbCircle
 10
244.78952
 20
176.1708219999999
 30
0.0
 40
2.649999999999999
  0
CIRCLE
  5
683
330
3DE
100
AcDbEntity
  8
1
  6
Continuous
100
AcDbCircle
 10
289.7895199999999
 20
176.1708219999999
 30
0.0
 40
2.649999999999999
  0
CIRCLE
  5
684
330
3DE
100
AcDbEntity
  8
1
  6
Continuous
100
AcDbCircle
 10
304.7895199999999
 20
176.1708219999999
 30
0.0
 40
2.649999999999999
  0
ARC
  5
685
330
3DE
100
AcDbEntity
  8
1
  6
Continuous
100
AcDbCircle
 10
283.0395199999999
 20
435.5
 30
0.0
 40
3.0
100
AcDbArc
 50
90.00000300000001
 51
180.000005
  0
ARC
  5
686
330
3DE
100
AcDbEntity
  8
1
  6
Continuous
100
AcDbCircle
 10
251.5395199999999
 20
435.5
 30
0.0
 40
3.0
100
AcDbArc
 50
0.0
 51
90.00000300000001
  0
ARC
  5
687
330
3DE
100
AcDbEntity
  8
1
  6
Continuous
100
AcDbCircle
 10
280.03952
 20
425.4999999999998
 30
0.0
 40
3.0
100
AcDbArc
 50
269.9999969999999
 51
0.0
  0
ARC
  5
688
330
3DE
100
AcDbEntity
  8
1
  6
Continuous
100
AcDbCircle
 10
254.53952
 20
425.4999999999998
 30
0.0
 40
3.0
100
AcDbArc
 50
179.9999909999999
 51
270.000001
  0
ARC
  5
689
330
3DE
100
AcDbEntity
  8
1
  6
Continuous
100
AcDbCircle
 10
457.3291629999998
 20
238.499985
 30
0.0
 40
9.999988999999999
100
AcDbArc
 50
90.00000300000001
 51
270.000001
  0
ARC
  5
68A
330
3DE
100
AcDbEntity
  8
1
  6
Continuous
100
AcDbCircle
 10
457.3291929999999
 20
413.8999939999997
 30
0.0
 40
7.4
100
AcDbArc
 50
198.924646
 51
341.0753559999998
  0
ARC
  5
68B
330
3DE
100
AcDbEntity
  8
1
  6
Continuous
100
AcDbCircle
 10
657.3291629999999
 20
409.3999939999998
 30
0.0
 40
7.4
100
AcDbArc
 50
194.877663
 51
345.122344
  0
CIRCLE
  5
68C
330
3DE
100
AcDbEntity
  8
1
  6
Continuous
100
AcDbCircle
 10
657.3291629999999
 20
238.5
 30
0.0
 40
7.0
  0
CIRCLE
  5
68D
330
3DE
100
AcDbEntity
  8
1
  6
Continuous
100
AcDbCircle
 10
457.3291929999999
 20
238.5
 30
0.0
 40
7.0
  0
CIRCLE
  5
68E
330
3DE
100
AcDbEntity
  8
1
  6
Continuous
100
AcDbCircle
 10
267.2895199999999
 20
176.1708219999999
 30
0.0
 40
7.0
  0
CIRCLE
  5
68F
330
3DE
100
AcDbEntity
  8
1
  6
Continuous
100
AcDbCircle
 10
267.2895199999999
 20
176.1708219999999
 30
0.0
 40
6.0
  0
ARC
  5
690
330
3DE
100
AcDbEntity
  8
1
  6
Continuous
100
AcDbCircle
 10
787.3291629999998
 20
408.4999999999998
 30
0.0
 40
7.5
100
AcDbArc
 50
179.9999909999999
 51
0.00001
  0
ARC
  5
691
330
3DE
100
AcDbEntity
  8
1
  6
Continuous
100
AcDbCircle
 10
787.3291629999998
 20
428.5
 30
0.0
 40
7.5
100
AcDbArc
 50
0.0
 51
180.000005
  0
ARC
  5
692
330
3DE
100
AcDbEntity
  8
1
  6
Continuous
100
AcDbCircle
 10
847.3291630000003
 20
408.4999999999998
 30
0.0
 40
7.5
100
AcDbArc
 50
179.9999909999999
 51
0.00001
  0
ARC
  5
693
330
3DE
100
AcDbEntity
  8
1
  6
Continuous
100
AcDbCircle
 10
847.3291630000003
 20
428.5
 30
0.0
 40
7.5
100
AcDbArc
 50
0.0
 51
180.000005
  0
ARC
  5
694
330
3DE
100
AcDbEntity
  8
1
  6
Continuous
100
AcDbCircle
 10
796.829163
 20
408.4999999999998
 30
0.0
 40
2.0
100
AcDbArc
 50
90.00000300000001
 51
180.000005
  0
ARC
  5
695
330
3DE
100
AcDbEntity
  8
1
  6
Continuous
100
AcDbCircle
 10
796.829163
 20
428.5
 30
0.0
 40
2.0
100
AcDbArc
 50
179.9999909999999
 51
270.000001
  0
ARC
  5
696
330
3DE
100
AcDbEntity
  8
1
  6
Continuous
100
AcDbCircle
 10
801.3291629999999
 20
428.5
 30
0.0
 40
2.0
100
AcDbArc
 50
269.9999969999999
 51
0.0
  0
ARC
  5
697
330
3DE
100
AcDbEntity
  8
1
  6
Continuous
100
AcDbCircle
 10
801.3291629999999
 20
408.4999999999998
 30
0.0
 40
2.0
100
AcDbArc
 50
0.0
 51
90.00000300000001
  0
ARC
  5
698
330
3DE
100
AcDbEntity
  8
1
  6
Continuous
100
AcDbCircle
 10
833.3291629999999
 20
408.4999999999998
 30
0.0
 40
2.0
100
AcDbArc
 50
90.00000300000001
 51
180.000005
  0
ARC
  5
699
330
3DE
100
AcDbEntity
  8
1
  6
Continuous
100
AcDbCircle
 10
837.8291629999999
 20
408.4999999999998
 30
0.0
 40
2.0
100
AcDbArc
 50
0.0
 51
90.00000300000001
  0
ARC
  5
69A
330
3DE
100
AcDbEntity
  8
1
  6
Continuous
100
AcDbCircle
 10
837.8291629999999
 20
428.5
 30
0.0
 40
2.0
100
AcDbArc
 50
269.9999969999999
 51
0.0
  0
ARC
  5
69B
330
3DE
100
AcDbEntity
  8
1
  6
Continuous
100
AcDbCircle
 10
833.3291629999999
 20
428.5
 30
0.0
 40
2.0
100
AcDbArc
 50
179.9999909999999
 51
270.000001
  0
ARC
  5
69C
330
3DE
100
AcDbEntity
  8
1
  6
Continuous
100
AcDbCircle
 10
817.3291629999999
 20
409.3999939999998
 30
0.0
 40
7.4
100
AcDbArc
 50
194.877663
 51
345.122344
  0
ARC
  5
69D
330
3DE
100
AcDbEntity
  8
1
  6
Continuous
100
AcDbCircle
 10
127.329185
 20
408.4999999999998
 30
0.0
 40
7.5
100
AcDbArc
 50
179.9999909999999
 51
0.00001
  0
ARC
  5
69E
330
3DE
100
AcDbEntity
  8
1
  6
Continuous
100
AcDbCircle
 10
127.329185
 20
428.5
 30
0.0
 40
7.5
100
AcDbArc
 50
0.0
 51
180.000005
  0
ARC
  5
69F
330
3DE
100
AcDbEntity
  8
1
  6
Continuous
100
AcDbCircle
 10
67.329185
 20
408.4999999999998
 30
0.0
 40
7.5
100
AcDbArc
 50
179.9999909999999
 51
0.00001
  0
ARC
  5
6A0
330
3DE
100
AcDbEntity
  8
1
  6
Continuous
100
AcDbCircle
 10
67.329185
 20
428.5
 30
0.0
 40
7.5
100
AcDbArc
 50
0.0
 51
180.000005
  0
ARC
  5
6A1
330
3DE
100
AcDbEntity
  8
1
  6
Continuous
100
AcDbCircle
 10
113.329185
 20
408.4999999999998
 30
0.0
 40
2.0
100
AcDbArc
 50
90.00000300000001
 51
122.4044209999999
  0
ARC
  5
6A2
330
3DE
100
AcDbEntity
  8
1
  6
Continuous
100
AcDbCircle
 10
117.829185
 20
428.5
 30
0.0
 40
2.0
100
AcDbArc
 50
269.9999969999999
 51
0.0
  0
ARC
  5
6A3
330
3DE
100
AcDbEntity
  8
1
  6
Continuous
100
AcDbCircle
 10
117.829185
 20
408.4999999999998
 30
0.0
 40
2.0
100
AcDbArc
 50
0.0
 51
90.00000300000001
  0
ARC
  5
6A4
330
3DE
100
AcDbEntity
  8
1
  6
Continuous
100
AcDbCircle
 10
113.329185
 20
428.5
 30
0.0
 40
2.0
100
AcDbArc
 50
179.9999909999999
 51
215.500733
  0
ARC
  5
6A5
330
3DE
100
AcDbEntity
  8
1
  6
Continuous
100
AcDbCircle
 10
81.32918499999998
 20
408.4999999999998
 30
0.0
 40
2.0
100
AcDbArc
 50
0.0
 51
90.00000300000001
  0
ARC
  5
6A6
330
3DE
100
AcDbEntity
  8
1
  6
Continuous
100
AcDbCircle
 10
76.82918499999998
 20
408.4999999999998
 30
0.0
 40
2.0
100
AcDbArc
 50
90.00000300000001
 51
180.000005
  0
ARC
  5
6A7
330
3DE
100
AcDbEntity
  8
1
  6
Continuous
100
AcDbCircle
 10
76.82918499999998
 20
428.5
 30
0.0
 40
2.0
100
AcDbArc
 50
179.9999909999999
 51
270.000001
  0
ARC
  5
6A8
330
3DE
100
AcDbEntity
  8
1
  6
Continuous
100
AcDbCircle
 10
81.32918499999998
 20
428.5
 30
0.0
 40
2.0
100
AcDbArc
 50
269.9999969999999
 51
0.0
  0
ARC
  5
6A9
330
3DE
100
AcDbEntity
  8
1
  6
Continuous
100
AcDbCircle
 10
97.329185
 20
409.3999939999998
 30
0.0
 40
7.4
100
AcDbArc
 50
194.877663
 51
345.122344
  0
ARC
  5
6AA
330
3DE
100
AcDbEntity
  8
1
  6
Continuous
100
AcDbCircle
 10
97.329185
 20
413.8999939999997
 30
0.0
 40
7.4
100
AcDbArc
 50
198.924646
 51
341.0753559999998
  0
ARC
  5
6AB
330
3DE
100
AcDbEntity
  8
1
  6
Continuous
100
AcDbCircle
 10
110.629189
 20
411.3500059999998
 30
0.0
 40
2.0
100
AcDbArc
 50
269.9999969999999
 51
0.0
  0
ARC
  5
6AC
330
3DE
100
AcDbEntity
  8
1
  6
Continuous
100
AcDbCircle
 10
110.629189
 20
425.649994
 30
0.0
 40
2.0
100
AcDbArc
 50
0.0
 51
90.00000300000001
  0
CIRCLE
  5
6AD
330
3DE
100
AcDbEntity
  8
1
  6
Continuous
100
AcDbCircle
 10
127.329185
 20
408.4999999999998
 30
0.0
 40
2.649999999999999
  0
CIRCLE
  5
6AE
330
3DE
100
AcDbEntity
  8
1
  6
Continuous
100
AcDbCircle
 10
127.329185
 20
428.5
 30
0.0
 40
2.649999999999999
  0
CIRCLE
  5
6AF
330
3DE
100
AcDbEntity
  8
1
  6
Continuous
100
AcDbCircle
 10
67.329185
 20
408.4999999999998
 30
0.0
 40
2.649999999999999
  0
CIRCLE
  5
6B0
330
3DE
100
AcDbEntity
  8
1
  6
Continuous
100
AcDbCircle
 10
67.329185
 20
428.5
 30
0.0
 40
2.649999999999999
  0
CIRCLE
  5
6B1
330
3DE
100
AcDbEntity
  8
1
  6
Continuous
100
AcDbCircle
 10
67.329185
 20
408.4999999999998
 30
0.0
 40
5.299999999999998
  0
CIRCLE
  5
6B2
330
3DE
100
AcDbEntity
  8
1
  6
Continuous
100
AcDbCircle
 10
67.329185
 20
428.5
 30
0.0
 40
5.299999999999998
  0
CIRCLE
  5
6B3
330
3DE
100
AcDbEntity
  8
1
  6
Continuous
100
AcDbCircle
 10
127.329185
 20
408.4999999999998
 30
0.0
 40
5.299999999999998
  0
CIRCLE
  5
6B4
330
3DE
100
AcDbEntity
  8
1
  6
Continuous
100
AcDbCircle
 10
127.329185
 20
428.5
 30
0.0
 40
5.299999999999998
  0
CIRCLE
  5
6B5
330
3DE
100
AcDbEntity
  8
1
  6
Continuous
100
AcDbCircle
 10
847.3291630000003
 20
408.4999999999998
 30
0.0
 40
2.649999999999999
  0
CIRCLE
  5
6B6
330
3DE
100
AcDbEntity
  8
1
  6
Continuous
100
AcDbCircle
 10
847.3291630000003
 20
428.5
 30
0.0
 40
2.649999999999999
  0
CIRCLE
  5
6B7
330
3DE
100
AcDbEntity
  8
1
  6
Continuous
100
AcDbCircle
 10
787.3291629999998
 20
408.4999999999998
 30
0.0
 40
2.649999999999999
  0
CIRCLE
  5
6B8
330
3DE
100
AcDbEntity
  8
1
  6
Continuous
100
AcDbCircle
 10
787.3291629999998
 20
428.5
 30
0.0
 40
2.649999999999999
  0
ARC
  5
6B9
330
3DE
100
AcDbEntity
  8
1
  6
Continuous
100
AcDbCircle
 10
113.329185
 20
408.4999999999998
 30
0.0
 40
2.0
100
AcDbArc
 50
144.4992639999999
 51
180.000005
  0
ARC
  5
6BA
330
3DE
100
AcDbEntity
  8
1
  6
Continuous
100
AcDbCircle
 10
113.329185
 20
428.5
 30
0.0
 40
2.0
100
AcDbArc
 50
237.5955789999999
 51
269.9999969999999
  0
ARC
  5
6BB
330
3DE
100
AcDbEntity
  8
1
  6
Continuous
100
AcDbCircle
 10
251.5395199999999
 20
41.5
 30
0.0
 40
3.0
100
AcDbArc
 50
269.9999969999999
 51
0.0
  0
ARC
  5
6BC
330
3DE
100
AcDbEntity
  8
1
  6
Continuous
100
AcDbCircle
 10
254.53952
 20
51.5
 30
0.0
 40
3.0
100
AcDbArc
 50
90.00000300000001
 51
180.000005
  0
ARC
  5
6BD
330
3DE
100
AcDbEntity
  8
1
  6
Continuous
100
AcDbCircle
 10
283.0395199999999
 20
41.5
 30
0.0
 40
3.0
100
AcDbArc
 50
179.9999909999999
 51
270.000001
  0
ARC
  5
6BE
330
3DE
100
AcDbEntity
  8
1
  6
Continuous
100
AcDbCircle
 10
280.03952
 20
51.5
 30
0.0
 40
3.0
100
AcDbArc
 50
0.0
 51
90.00000300000001
  0
ARC
  5
6BF
330
3DE
100
AcDbEntity
  8
1
  6
Continuous
100
AcDbCircle
 10
457.3291929999999
 20
63.09999799999999
 30
0.0
 40
7.4
100
AcDbArc
 50
18.924644
 51
161.075354
  0
ARC
  5
6C0
330
3DE
100
AcDbEntity
  8
1
  6
Continuous
100
AcDbCircle
 10
657.3291629999999
 20
67.599998
 30
0.0
 40
7.4
100
AcDbArc
 50
14.87771799999998
 51
165.122282
  0
ARC
  5
6C1
330
3DE
100
AcDbEntity
  8
1
  6
Continuous
100
AcDbCircle
 10
561.065796
 20
56.0
 30
0.0
 40
0.5
100
AcDbArc
 50
179.9999909999999
 51
350.0000120000001
  0
ARC
  5
6C2
330
3DE
100
AcDbEntity
  8
1
  6
Continuous
100
AcDbCircle
 10
560.050354
 20
56.0
 30
0.0
 40
0.5
100
AcDbArc
 50
179.9999909999999
 51
350.0000120000001
  0
ARC
  5
6C3
330
3DE
100
AcDbEntity
  8
1
  6
Continuous
100
AcDbCircle
 10
559.0349119999998
 20
56.0
 30
0.0
 40
0.5
100
AcDbArc
 50
179.9999909999999
 51
350.0000120000001
  0
ARC
  5
6C4
330
3DE
100
AcDbEntity
  8
1
  6
Continuous
100
AcDbCircle
 10
558.0194699999998
 20
56.0
 30
0.0
 40
0.5
100
AcDbArc
 50
179.9999909999999
 51
350.0000120000001
  0
ARC
  5
6C5
330
3DE
100
AcDbEntity
  8
1
  6
Continuous
100
AcDbCircle
 10
557.004089
 20
56.0
 30
0.0
 40
0.5
100
AcDbArc
 50
179.9999909999999
 51
350.0000120000001
  0
ARC
  5
6C6
330
3DE
100
AcDbEntity
  8
1
  6
Continuous
100
AcDbCircle
 10
555.988647
 20
56.0
 30
0.0
 40
0.5
100
AcDbArc
 50
179.9999909999999
 51
350.0000120000001
  0
ARC
  5
6C7
330
3DE
100
AcDbEntity
  8
1
  6
Continuous
100
AcDbCircle
 10
554.973206
 20
56.0
 30
0.0
 40
0.5
100
AcDbArc
 50
179.9999909999999
 51
350.0000120000001
  0
ARC
  5
6C8
330
3DE
100
AcDbEntity
  8
1
  6
Continuous
100
AcDbCircle
 10
553.957764
 20
56.0
 30
0.0
 40
0.5
100
AcDbArc
 50
179.9999909999999
 51
350.0000120000001
  0
ARC
  5
6C9
330
3DE
100
AcDbEntity
  8
1
  6
Continuous
100
AcDbCircle
 10
552.9423829999998
 20
56.0
 30
0.0
 40
0.5
100
AcDbArc
 50
179.9999909999999
 51
350.0000120000001
  0
ARC
  5
6CA
330
3DE
100
AcDbEntity
  8
1
  6
Continuous
100
AcDbCircle
 10
551.926941
 20
56.0
 30
0.0
 40
0.5
100
AcDbArc
 50
179.9999909999999
 51
350.0000120000001
  0
ARC
  5
6CB
330
3DE
100
AcDbEntity
  8
1
  6
Continuous
100
AcDbCircle
 10
550.911499
 20
56.0
 30
0.0
 40
0.5
100
AcDbArc
 50
179.9999909999999
 51
350.0000120000001
  0
ARC
  5
6CC
330
3DE
100
AcDbEntity
  8
1
  6
Continuous
100
AcDbCircle
 10
548.880676
 20
56.0
 30
0.0
 40
0.5
100
AcDbArc
 50
179.9999909999999
 51
350.0000120000001
  0
ARC
  5
6CD
330
3DE
100
AcDbEntity
  8
1
  6
Continuous
100
AcDbCircle
 10
549.896057
 20
56.0
 30
0.0
 40
0.5
100
AcDbArc
 50
179.9999909999999
 51
350.0000120000001
  0
ARC
  5
6CE
330
3DE
100
AcDbEntity
  8
1
  6
Continuous
100
AcDbCircle
 10
547.865234
 20
56.0
 30
0.0
 40
0.5
100
AcDbArc
 50
179.9999909999999
 51
350.0000120000001
  0
ARC
  5
6CF
330
3DE
100
AcDbEntity
  8
1
  6
Continuous
100
AcDbCircle
 10
546.8497919999999
 20
56.0
 30
0.0
 40
0.5
100
AcDbArc
 50
179.9999909999999
 51
350.0000120000001
  0
ARC
  5
6D0
330
3DE
100
AcDbEntity
  8
1
  6
Continuous
100
AcDbCircle
 10
545.8343509999998
 20
56.0
 30
0.0
 40
0.5
100
AcDbArc
 50
179.9999909999999
 51
350.0000120000001
  0
ARC
  5
6D1
330
3DE
100
AcDbEntity
  8
1
  6
Continuous
100
AcDbCircle
 10
544.81897
 20
56.0
 30
0.0
 40
0.5
100
AcDbArc
 50
179.9999909999999
 51
350.0000120000001
  0
ARC
  5
6D2
330
3DE
100
AcDbEntity
  8
1
  6
Continuous
100
AcDbCircle
 10
543.803528
 20
56.0
 30
0.0
 40
0.5
100
AcDbArc
 50
179.9999909999999
 51
350.0000120000001
  0
ARC
  5
6D3
330
3DE
100
AcDbEntity
  8
1
  6
Continuous
100
AcDbCircle
 10
542.788086
 20
56.0
 30
0.0
 40
0.5
100
AcDbArc
 50
179.9999909999999
 51
350.0000120000001
  0
ARC
  5
6D4
330
3DE
100
AcDbEntity
  8
1
  6
Continuous
100
AcDbCircle
 10
541.772644
 20
56.0
 30
0.0
 40
0.5
100
AcDbArc
 50
179.9999909999999
 51
350.0000120000001
  0
ARC
  5
6D5
330
3DE
100
AcDbEntity
  8
1
  6
Continuous
100
AcDbCircle
 10
540.7572629999998
 20
56.0
 30
0.0
 40
0.5
100
AcDbArc
 50
179.9999909999999
 51
350.0000120000001
  0
ARC
  5
6D6
330
3DE
100
AcDbEntity
  8
1
  6
Continuous
100
AcDbCircle
 10
539.7418209999998
 20
56.0
 30
0.0
 40
0.5
100
AcDbArc
 50
179.9999909999999
 51
350.0000120000001
  0
ARC
  5
6D7
330
3DE
100
AcDbEntity
  8
1
  6
Continuous
100
AcDbCircle
 10
538.7263789999998
 20
56.0
 30
0.0
 40
0.5
100
AcDbArc
 50
179.9999909999999
 51
350.0000120000001
  0
ARC
  5
6D8
330
3DE
100
AcDbEntity
  8
1
  6
Continuous
100
AcDbCircle
 10
537.7109379999999
 20
56.0
 30
0.0
 40
0.5
100
AcDbArc
 50
169.9999929999999
 51
350.0000120000001
  0
ARC
  5
6D9
330
3DE
100
AcDbEntity
  8
1
  6
Continuous
100
AcDbCircle
 10
561.9473879999998
 20
61.0
 30
0.0
 40
0.5
100
AcDbArc
 50
350.0
 51
169.9999929999999
  0
ARC
  5
6DA
330
3DE
100
AcDbEntity
  8
1
  6
Continuous
100
AcDbCircle
 10
560.9320069999998
 20
61.0
 30
0.0
 40
0.5
100
AcDbArc
 50
350.0
 51
169.9999929999999
  0
ARC
  5
6DB
330
3DE
100
AcDbEntity
  8
1
  6
Continuous
100
AcDbCircle
 10
559.9165649999998
 20
61.0
 30
0.0
 40
0.5
100
AcDbArc
 50
350.0
 51
169.9999929999999
  0
ARC
  5
6DC
330
3DE
100
AcDbEntity
  8
1
  6
Continuous
100
AcDbCircle
 10
558.9011230000001
 20
61.0
 30
0.0
 40
0.5
100
AcDbArc
 50
350.0
 51
169.9999929999999
  0
ARC
  5
6DD
330
3DE
100
AcDbEntity
  8
1
  6
Continuous
100
AcDbCircle
 10
557.8856809999998
 20
61.0
 30
0.0
 40
0.5
100
AcDbArc
 50
350.0
 51
169.9999929999999
  0
ARC
  5
6DE
330
3DE
100
AcDbEntity
  8
1
  6
Continuous
100
AcDbCircle
 10
556.8703
 20
61.0
 30
0.0
 40
0.5
100
AcDbArc
 50
350.0
 51
169.9999929999999
  0
ARC
  5
6DF
330
3DE
100
AcDbEntity
  8
1
  6
Continuous
100
AcDbCircle
 10
555.854858
 20
61.0
 30
0.0
 40
0.5
100
AcDbArc
 50
350.0
 51
169.9999929999999
  0
ARC
  5
6E0
330
3DE
100
AcDbEntity
  8
1
  6
Continuous
100
AcDbCircle
 10
554.839417
 20
61.0
 30
0.0
 40
0.5
100
AcDbArc
 50
350.0
 51
169.9999929999999
  0
ARC
  5
6E1
330
3DE
100
AcDbEntity
  8
1
  6
Continuous
100
AcDbCircle
 10
553.823975
 20
61.0
 30
0.0
 40
0.5
100
AcDbArc
 50
350.0
 51
169.9999929999999
  0
ARC
  5
6E2
330
3DE
100
AcDbEntity
  8
1
  6
Continuous
100
AcDbCircle
 10
552.8085940000002
 20
61.0
 30
0.0
 40
0.5
100
AcDbArc
 50
350.0
 51
169.9999929999999
  0
ARC
  5
6E3
330
3DE
100
AcDbEntity
  8
1
  6
Continuous
100
AcDbCircle
 10
551.7931519999998
 20
61.0
 30
0.0
 40
0.5
100
AcDbArc
 50
350.0
 51
169.9999929999999
  0
ARC
  5
6E4
330
3DE
100
AcDbEntity
  8
1
  6
Continuous
100
AcDbCircle
 10
550.7777099999998
 20
61.0
 30
0.0
 40
0.5
100
AcDbArc
 50
350.0
 51
169.9999929999999
  0
ARC
  5
6E5
330
3DE
100
AcDbEntity
  8
1
  6
Continuous
100
AcDbCircle
 10
549.7622679999998
 20
61.0
 30
0.0
 40
0.5
100
AcDbArc
 50
350.0
 51
169.9999929999999
  0
ARC
  5
6E6
330
3DE
100
AcDbEntity
  8
1
  6
Continuous
100
AcDbCircle
 10
548.7468869999998
 20
61.0
 30
0.0
 40
0.5
100
AcDbArc
 50
350.0
 51
169.9999929999999
  0
ARC
  5
6E7
330
3DE
100
AcDbEntity
  8
1
  6
Continuous
100
AcDbCircle
 10
547.731445
 20
61.0
 30
0.0
 40
0.5
100
AcDbArc
 50
350.0
 51
169.9999929999999
  0
ARC
  5
6E8
330
3DE
100
AcDbEntity
  8
1
  6
Continuous
100
AcDbCircle
 10
546.716003
 20
61.0
 30
0.0
 40
0.5
100
AcDbArc
 50
350.0
 51
170.000034
  0
ARC
  5
6E9
330
3DE
100
AcDbEntity
  8
1
  6
Continuous
100
AcDbCircle
 10
545.700562
 20
61.0
 30
0.0
 40
0.5
100
AcDbArc
 50
350.0
 51
169.9999929999999
  0
ARC
  5
6EA
330
3DE
100
AcDbEntity
  8
1
  6
Continuous
100
AcDbCircle
 10
544.6851809999998
 20
61.0
 30
0.0
 40
0.5
100
AcDbArc
 50
350.0
 51
169.9999929999999
  0
ARC
  5
6EB
330
3DE
100
AcDbEntity
  8
1
  6
Continuous
100
AcDbCircle
 10
543.6697389999999
 20
61.0
 30
0.0
 40
0.5
100
AcDbArc
 50
350.0
 51
169.9999929999999
  0
ARC
  5
6EC
330
3DE
100
AcDbEntity
  8
1
  6
Continuous
100
AcDbCircle
 10
542.6542969999998
 20
61.0
 30
0.0
 40
0.5
100
AcDbArc
 50
350.0
 51
169.9999929999999
  0
ARC
  5
6ED
330
3DE
100
AcDbEntity
  8
1
  6
Continuous
100
AcDbCircle
 10
541.638855
 20
61.0
 30
0.0
 40
0.5
100
AcDbArc
 50
350.0
 51
169.9999929999999
  0
ARC
  5
6EE
330
3DE
100
AcDbEntity
  8
1
  6
Continuous
100
AcDbCircle
 10
540.623474
 20
61.0
 30
0.0
 40
0.5
100
AcDbArc
 50
350.0
 51
169.9999929999999
  0
ARC
  5
6EF
330
3DE
100
AcDbEntity
  8
1
  6
Continuous
100
AcDbCircle
 10
539.608032
 20
61.0
 30
0.0
 40
0.5
100
AcDbArc
 50
350.0
 51
169.9999929999999
  0
ARC
  5
6F0
330
3DE
100
AcDbEntity
  8
1
  6
Continuous
100
AcDbCircle
 10
538.5925900000001
 20
61.0
 30
0.0
 40
0.5
100
AcDbArc
 50
350.0
 51
169.9999929999999
  0
ARC
  5
6F1
330
3DE
100
AcDbEntity
  8
1
  6
Continuous
100
AcDbCircle
 10
569.8291629999999
 20
58.5
 30
0.0
 40
0.5
100
AcDbArc
 50
269.9999969999999
 51
90.00000300000001
  0
ARC
  5
6F2
330
3DE
100
AcDbEntity
  8
1
  6
Continuous
100
AcDbCircle
 10
529.829163
 20
58.5
 30
0.0
 40
0.5
100
AcDbArc
 50
90.00000300000001
 51
270.000001
  0
ARC
  5
6F3
330
3DE
100
AcDbEntity
  8
1
  6
Continuous
100
AcDbCircle
 10
532.3291629999999
 20
410.268524
 30
0.0
 40
3.618519
100
AcDbArc
 50
194.7047639999999
 51
345.2952409999999
  0
ARC
  5
6F4
330
3DE
100
AcDbEntity
  8
1
  6
Continuous
100
AcDbCircle
 10
504.3291929999998
 20
410.268524
 30
0.0
 40
3.618519
100
AcDbArc
 50
194.7047639999999
 51
345.2952409999999
  0
ARC
  5
6F5
330
3DE
100
AcDbEntity
  8
1
  6
Continuous
100
AcDbCircle
 10
567.329163
 20
412.418518
 30
0.0
 40
3.618519
100
AcDbArc
 50
194.7047639999999
 51
345.2952409999999
  0
ARC
  5
6F6
330
3DE
100
AcDbEntity
  8
1
  6
Continuous
100
AcDbCircle
 10
657.3291629999999
 20
238.5
 30
0.0
 40
10.0
100
AcDbArc
 50
103.857186
 51
256.142804
  0
CIRCLE
  5
6F7
330
3DE
100
AcDbEntity
  8
1
  6
Continuous
100
AcDbCircle
 10
532.3291629999999
 20
238.5
 30
0.0
 40
3.5
  0
CIRCLE
  5
6F8
330
3DE
100
AcDbEntity
  8
1
  6
Continuous
100
AcDbCircle
 10
504.3291929999998
 20
238.5
 30
0.0
 40
3.5
  0
CIRCLE
  5
6F9
330
3DE
100
AcDbEntity
  8
1
  6
Continuous
100
AcDbCircle
 10
567.329163
 20
238.5
 30
0.0
 40
3.5
  0
ARC
  5
6FA
330
3DE
100
AcDbEntity
  8
4
  6
CENTER
100
AcDbCircle
 10
457.2081299999998
 20
909.5
 30
0.0
 40
321.0
100
AcDbArc
 50
230.1431049999999
 51
270.021608
  0
ARC
  5
6FB
330
3DE
100
AcDbEntity
  8
1
  6
Continuous
100
AcDbCircle
 10
457.2081299999998
 20
909.5
 30
0.0
 40
311.0
100
AcDbArc
 50
239.7565689999999
 51
269.9999969999999
  0
ARC
  5
6FC
330
3DE
100
AcDbEntity
  8
1
  6
Continuous
100
AcDbCircle
 10
457.2081299999998
 20
909.5
 30
0.0
 40
331.0
100
AcDbArc
 50
234.261804
 51
269.9999969999999
  0
ARC
  5
6FD
330
3DE
100
AcDbEntity
  8
1
  6
Continuous
100
AcDbCircle
 10
495.3291929999998
 20
588.4999999999998
 30
0.0
 40
2.1
100
AcDbArc
 50
90.00000300000001
 51
270.000001
  0
ARC
  5
6FE
330
3DE
100
AcDbEntity
  8
1
  6
Continuous
100
AcDbCircle
 10
504.3291929999998
 20
588.4999999999998
 30
0.0
 40
5.0
100
AcDbArc
 50
90.00000300000001
 51
270.000001
  0
ARC
  5
6FF
330
3DE
100
AcDbEntity
  8
1
  6
Continuous
100
AcDbCircle
 10
532.3291629999999
 20
588.4999999999998
 30
0.0
 40
5.0
100
AcDbArc
 50
0.0
 51
90.00000300000001
  0
ARC
  5
700
330
3DE
100
AcDbEntity
  8
1
  6
Continuous
100
AcDbCircle
 10
525.3291629999998
 20
581.5
 30
0.0
 40
2.0
100
AcDbArc
 50
0.0
 51
90.00000300000001
  0
ARC
  5
701
330
3DE
100
AcDbEntity
  8
1
  6
Continuous
100
AcDbCircle
 10
304.7895199999999
 20
650.829163
 30
0.0
 40
10.0
100
AcDbArc
 50
269.9999969999999
 51
90.00000300000001
  0
ARC
  5
702
330
3DE
100
AcDbEntity
  8
1
  6
Continuous
100
AcDbCircle
 10
229.78952
 20
650.829163
 30
0.0
 40
10.0
100
AcDbArc
 50
90.00000300000001
 51
270.000001
  0
CIRCLE
  5
703
330
3DE
100
AcDbEntity
  8
1
  6
Continuous
100
AcDbCircle
 10
229.78952
 20
650.829163
 30
0.0
 40
2.649999999999999
  0
CIRCLE
  5
704
330
3DE
100
AcDbEntity
  8
1
  6
Continuous
100
AcDbCircle
 10
244.78952
 20
650.829163
 30
0.0
 40
2.649999999999999
  0
CIRCLE
  5
705
330
3DE
100
AcDbEntity
  8
1
  6
Continuous
100
AcDbCircle
 10
289.7895199999999
 20
650.829163
 30
0.0
 40
2.649999999999999
  0
CIRCLE
  5
706
330
3DE
100
AcDbEntity
  8
1
  6
Continuous
100
AcDbCircle
 10
304.7895199999999
 20
650.829163
 30
0.0
 40
2.649999999999999
  0
ARC
  5
707
330
3DE
100
AcDbEntity
  8
1
  6
Continuous
100
AcDbCircle
 10
457.3291629999998
 20
588.4999999999998
 30
0.0
 40
9.999988999999999
100
AcDbArc
 50
89.99999599999998
 51
270.000001
  0
ARC
  5
708
330
3DE
100
AcDbEntity
  8
1
  6
Continuous
100
AcDbCircle
 10
657.3291629999999
 20
588.4999999999998
 30
0.0
 40
10.0
100
AcDbArc
 50
103.857186
 51
256.142804
  0
CIRCLE
  5
709
330
3DE
100
AcDbEntity
  8
1
  6
Continuous
100
AcDbCircle
 10
267.2895199999999
 20
650.829163
 30
0.0
 40
5.0
  0
CIRCLE
  5
70A
330
3DE
100
AcDbEntity
  8
1
  6
Continuous
100
AcDbCircle
 10
457.3291929999999
 20
588.4999999999998
 30
0.0
 40
4.0
  0
CIRCLE
  5
70B
330
3DE
100
AcDbEntity
  8
1
  6
Continuous
100
AcDbCircle
 10
504.3291929999998
 20
588.4999999999998
 30
0.0
 40
2.0
  0
CIRCLE
  5
70C
330
3DE
100
AcDbEntity
  8
1
  6
Continuous
100
AcDbCircle
 10
532.3291629999999
 20
588.4999999999998
 30
0.0
 40
2.0
  0
CIRCLE
  5
70D
330
3DE
100
AcDbEntity
  8
1
  6
Continuous
100
AcDbCircle
 10
567.329163
 20
588.4999999999998
 30
0.0
 40
2.0
  0
CIRCLE
  5
70E
330
3DE
100
AcDbEntity
  8
1
  6
Continuous
100
AcDbCircle
 10
657.3291629999999
 20
588.4999999999998
 30
0.0
 40
4.0
  0
ARC
  5
70F
330
3DE
100
AcDbEntity
  8
1
  6
Continuous
100
AcDbCircle
 10
532.3291629999999
 20
66.731483
 30
0.0
 40
3.618519
100
AcDbArc
 50
14.704759
 51
165.295236
  0
ARC
  5
710
330
3DE
100
AcDbEntity
  8
1
  6
Continuous
100
AcDbCircle
 10
504.3291929999998
 20
66.731483
 30
0.0
 40
3.618519
100
AcDbArc
 50
14.704759
 51
165.295236
  0
ARC
  5
711
330
3DE
100
AcDbEntity
  8
1
  6
Continuous
100
AcDbCircle
 10
567.329163
 20
64.581482
 30
0.0
 40
3.618519
100
AcDbArc
 50
14.704759
 51
165.295236
  0
ARC
  5
712
330
3DE
100
AcDbEntity
  8
1
  6
Continuous
100
AcDbCircle
 10
577.328491
 20
412.9000549999998
 30
0.0
 40
7.932636999999998
100
AcDbArc
 50
102.7288859999998
 51
103.2680889999999
  0
ARC
  5
713
330
3DE
100
AcDbEntity
  8
1
  6
Continuous
100
AcDbCircle
 10
577.328491
 20
412.9000549999998
 30
0.0
 40
7.932636999999998
100
AcDbArc
 50
103.2680889999999
 51
105.257491
  0
ARC
  5
714
330
3DE
100
AcDbEntity
  8
1
  6
Continuous
100
AcDbCircle
 10
575.329712
 20
420.2308649999998
 30
0.0
 40
0.333453
100
AcDbArc
 50
105.257491
 51
179.999978
  0
ARC
  5
715
330
3DE
100
AcDbEntity
  8
1
  6
Continuous
100
AcDbCircle
 10
575.329712
 20
416.767792
 30
0.0
 40
0.333453
100
AcDbArc
 50
179.999978
 51
254.741959
  0
ARC
  5
716
330
3DE
100
AcDbEntity
  8
1
  6
Continuous
100
AcDbCircle
 10
577.328491
 20
424.0986019999998
 30
0.0
 40
7.932636999999998
100
AcDbArc
 50
254.74197
 51
254.793968
  0
ARC
  5
717
330
3DE
100
AcDbEntity
  8
1
  6
Continuous
100
AcDbCircle
 10
577.328491
 20
424.0986019999998
 30
0.0
 40
7.932636999999998
100
AcDbArc
 50
254.793968
 51
257.2709699999999
  0
ARC
  5
718
330
3DE
100
AcDbEntity
  8
1
  6
Continuous
100
AcDbCircle
 10
573.329529
 20
418.5
 30
0.0
 40
1.717878999999999
100
AcDbArc
 50
125.5311449999998
 51
171.0859929999998
  0
ARC
  5
719
330
3DE
100
AcDbEntity
  8
1
  6
Continuous
100
AcDbCircle
 10
573.9953
 20
417.269836
 30
0.0
 40
0.333453
100
AcDbArc
 50
179.999978
 51
243.985968
  0
ARC
  5
71A
330
3DE
100
AcDbEntity
  8
1
  6
Continuous
100
AcDbCircle
 10
574.261963
 20
416.8557129999999
 30
0.0
 40
0.066718
100
AcDbArc
 50
247.055971
 51
0.0
  0
ARC
  5
71B
330
3DE
100
AcDbEntity
  8
1
  6
Continuous
100
AcDbCircle
 10
577.328491
 20
424.0986019999998
 30
0.0
 40
7.932636999999998
100
AcDbArc
 50
243.985972
 51
247.055971
  0
ARC
  5
71C
330
3DE
100
AcDbEntity
  8
1
  6
Continuous
100
AcDbCircle
 10
577.328491
 20
424.0986019999998
 30
0.0
 40
7.932636999999998
100
AcDbArc
 50
243.985972
 51
244.7719769999999
  0
ARC
  5
71D
330
3DE
100
AcDbEntity
  8
1
  6
Continuous
100
AcDbCircle
 10
573.9953
 20
419.72879
 30
0.0
 40
0.333453
100
AcDbArc
 50
116.014383
 51
179.999978
  0
ARC
  5
71E
330
3DE
100
AcDbEntity
  8
1
  6
Continuous
100
AcDbCircle
 10
574.261963
 20
420.144257
 30
0.0
 40
0.066718
100
AcDbArc
 50
0.0
 51
112.9439879999999
  0
ARC
  5
71F
330
3DE
100
AcDbEntity
  8
1
  6
Continuous
100
AcDbCircle
 10
577.328491
 20
412.9000549999998
 30
0.0
 40
7.932636999999998
100
AcDbArc
 50
112.9439879999999
 51
116.014383
  0
ARC
  5
720
330
3DE
100
AcDbEntity
  8
1
  6
Continuous
100
AcDbCircle
 10
578.6614990000003
 20
420.3810729999998
 30
0.0
 40
0.333453
100
AcDbArc
 50
0.0
 51
79.895988
  0
ARC
  5
721
330
3DE
100
AcDbEntity
  8
1
  6
Continuous
100
AcDbCircle
 10
577.328491
 20
412.9000549999998
 30
0.0
 40
7.932636999999998
100
AcDbArc
 50
79.895988
 51
82.20698899999998
  0
ARC
  5
722
330
3DE
100
AcDbEntity
  8
1
  6
Continuous
100
AcDbCircle
 10
578.3948969999999
 20
420.693695
 30
0.0
 40
0.066718
100
AcDbArc
 50
82.20698899999998
 51
179.999978
  0
ARC
  5
723
330
3DE
100
AcDbEntity
  8
1
  6
Continuous
100
AcDbCircle
 10
578.6614990000003
 20
416.617554
 30
0.0
 40
0.333453
100
AcDbArc
 50
280.103965
 51
0.0
  0
ARC
  5
724
330
3DE
100
AcDbEntity
  8
1
  6
Continuous
100
AcDbCircle
 10
578.3948969999999
 20
416.3049319999998
 30
0.0
 40
0.066718
100
AcDbArc
 50
179.999978
 51
277.792973
  0
ARC
  5
725
330
3DE
100
AcDbEntity
  8
1
  6
Continuous
100
AcDbCircle
 10
577.328491
 20
424.0986019999998
 30
0.0
 40
7.932636999999998
100
AcDbArc
 50
277.79297
 51
280.103965
  0
ARC
  5
726
330
3DE
100
AcDbEntity
  8
1
  6
Continuous
100
AcDbCircle
 10
580.661682
 20
418.8328859999998
 30
0.0
 40
0.333453
100
AcDbArc
 50
179.999978
 51
0.00001
  0
ARC
  5
727
330
3DE
100
AcDbEntity
  8
1
  6
Continuous
100
AcDbCircle
 10
581.328857
 20
418.5
 30
0.0
 40
1.718013999999999
100
AcDbArc
 50
305.546833
 51
329.8214649999998
  0
ARC
  5
728
330
3DE
100
AcDbEntity
  8
1
  6
Continuous
100
AcDbCircle
 10
577.328491
 20
424.0986019999998
 30
0.0
 40
8.599273
100
AcDbArc
 50
234.46197
 51
305.537964
  0
ARC
  5
729
330
3DE
100
AcDbEntity
  8
1
  6
Continuous
100
AcDbCircle
 10
575.5949099999997
 20
416.426727
 30
0.0
 40
0.066718
100
AcDbArc
 50
257.2709699999999
 51
0.0
  0
ARC
  5
72A
330
3DE
100
AcDbEntity
  8
1
  6
Continuous
100
AcDbCircle
 10
575.5949099999997
 20
420.5718989999998
 30
0.0
 40
0.066718
100
AcDbArc
 50
0.0
 51
102.7288859999998
  0
ARC
  5
72B
330
3DE
100
AcDbEntity
  8
1
  6
Continuous
100
AcDbCircle
 10
577.328491
 20
412.9000549999998
 30
0.0
 40
8.599273
100
AcDbArc
 50
54.461992
 51
125.5376879999998
  0
ARC
  5
72C
330
3DE
100
AcDbEntity
  8
1
  6
Continuous
100
AcDbCircle
 10
594.862244
 20
418.638733
 30
0.0
 40
2.135054999999999
100
AcDbArc
 50
138.9320989999999
 51
221.067897
  0
ARC
  5
72D
330
3DE
100
AcDbEntity
  8
1
  6
Continuous
100
AcDbCircle
 10
594.4071659999997
 20
418.2421879999997
 30
0.0
 40
1.531479
100
AcDbArc
 50
221.0679009999999
 51
289.1928019999999
  0
ARC
  5
72E
330
3DE
100
AcDbEntity
  8
1
  6
Continuous
100
AcDbCircle
 10
594.4071659999997
 20
419.035248
 30
0.0
 40
1.531479
100
AcDbArc
 50
70.807198
 51
138.9320989999999
  0
ARC
  5
72F
330
3DE
100
AcDbEntity
  8
1
  6
Continuous
100
AcDbCircle
 10
594.5732419999999
 20
419.5123599999998
 30
0.0
 40
1.026286999999999
100
AcDbArc
 50
5.659243
 51
70.807198
  0
ARC
  5
730
330
3DE
100
AcDbEntity
  8
1
  6
Continuous
100
AcDbCircle
 10
594.5732419999999
 20
417.7650759999998
 30
0.0
 40
1.026286999999999
100
AcDbArc
 50
289.1928019999999
 51
354.3407569999998
  0
ARC
  5
731
330
3DE
100
AcDbEntity
  8
1
  6
Continuous
100
AcDbCircle
 10
602.7700809999998
 20
419.4397579999998
 30
0.0
 40
1.026286999999999
100
AcDbArc
 50
5.659243
 51
70.807198
  0
ARC
  5
732
330
3DE
100
AcDbEntity
  8
1
  6
Continuous
100
AcDbCircle
 10
602.604004
 20
418.962646
 30
0.0
 40
1.531479
100
AcDbArc
 50
70.807198
 51
138.9320989999999
  0
ARC
  5
733
330
3DE
100
AcDbEntity
  8
1
  6
Continuous
100
AcDbCircle
 10
603.059082
 20
418.566101
 30
0.0
 40
2.135054999999999
100
AcDbArc
 50
138.9320989999999
 51
221.067897
  0
ARC
  5
734
330
3DE
100
AcDbEntity
  8
1
  6
Continuous
100
AcDbCircle
 10
602.604004
 20
418.1695859999998
 30
0.0
 40
1.531479
100
AcDbArc
 50
221.0679009999999
 51
276.5913959999999
  0
ARC
  5
735
330
3DE
100
AcDbEntity
  8
1
  6
Continuous
100
AcDbCircle
 10
602.6145019999999
 20
418.078735
 30
0.0
 40
1.439999999999999
100
AcDbArc
 50
269.582188
 51
11.654105
  0
ARC
  5
736
330
3DE
100
AcDbEntity
  8
1
  6
Continuous
100
AcDbCircle
 10
590.964966
 20
418.6175229999998
 30
0.0
 40
2.135054999999999
100
AcDbArc
 50
138.9320989999999
 51
221.067897
  0
ARC
  5
737
330
3DE
100
AcDbEntity
  8
1
  6
Continuous
100
AcDbCircle
 10
590.0548710000001
 20
418.6175229999998
 30
0.0
 40
2.135054999999999
100
AcDbArc
 50
318.9321049999999
 51
41.067895
  0
ARC
  5
738
330
3DE
100
AcDbEntity
  8
1
  6
Continuous
100
AcDbCircle
 10
590.5098879999997
 20
418.2210079999999
 30
0.0
 40
1.531479
100
AcDbArc
 50
221.0679009999999
 51
318.9321049999999
  0
ARC
  5
739
330
3DE
100
AcDbEntity
  8
1
  6
Continuous
100
AcDbCircle
 10
590.5098879999997
 20
419.0140379999998
 30
0.0
 40
1.531479
100
AcDbArc
 50
41.067895
 51
138.9320989999999
  0
ARC
  5
73A
330
3DE
100
AcDbEntity
  8
1
  6
Continuous
100
AcDbCircle
 10
623.6582639999998
 20
419.2039489999998
 30
0.0
 40
1.250753999999999
100
AcDbArc
 50
47.130371
 51
132.869623
  0
ARC
  5
73B
330
3DE
100
AcDbEntity
  8
1
  6
Continuous
100
AcDbCircle
 10
623.798218
 20
419.354706
 30
0.0
 40
1.04506
100
AcDbArc
 50
312.8696289999999
 51
47.130371
  0
ARC
  5
73C
330
3DE
100
AcDbEntity
  8
1
  6
Continuous
100
AcDbCircle
 10
623.518311
 20
419.354706
 30
0.0
 40
1.04506
100
AcDbArc
 50
132.869623
 51
204.2768199999999
  0
ARC
  5
73D
330
3DE
100
AcDbEntity
  8
1
  6
Continuous
100
AcDbCircle
 10
626.8582759999998
 20
419.2039489999998
 30
0.0
 40
1.250753999999999
100
AcDbArc
 50
47.130371
 51
132.869623
  0
ARC
  5
73E
330
3DE
100
AcDbEntity
  8
1
  6
Continuous
100
AcDbCircle
 10
626.9981689999998
 20
419.354706
 30
0.0
 40
1.04506
100
AcDbArc
 50
312.8696289999999
 51
47.130371
  0
ARC
  5
73F
330
3DE
100
AcDbEntity
  8
1
  6
Continuous
100
AcDbCircle
 10
626.7183230000001
 20
419.354706
 30
0.0
 40
1.04506
100
AcDbArc
 50
132.869623
 51
204.2768199999999
  0
ARC
  5
740
330
3DE
100
AcDbEntity
  8
1
  6
Continuous
100
AcDbCircle
 10
527.329163
 20
253.8000029999998
 30
0.0
 40
2.0
100
AcDbArc
 50
179.9999909999999
 51
270.000001
  0
ARC
  5
741
330
3DE
100
AcDbEntity
  8
1
  6
Continuous
100
AcDbCircle
 10
527.329163
 20
573.200012
 30
0.0
 40
2.0
100
AcDbArc
 50
90.00000300000001
 51
180.000005
  0
ARC
  5
742
330
3DE
100
AcDbEntity
  8
1
  6
Continuous
100
AcDbCircle
 10
629.8508299999999
 20
419.506836
 30
0.0
 40
1.250753999999999
100
AcDbArc
 50
302.8496999999999
 51
312.8696289999999
  0
ARC
  5
743
330
3DE
100
AcDbEntity
  8
1
  6
Continuous
100
AcDbCircle
 10
629.8508299999999
 20
419.205322
 30
0.0
 40
1.250753999999999
100
AcDbArc
 50
47.130371
 51
132.869623
  0
ARC
  5
744
330
3DE
100
AcDbEntity
  8
1
  6
Continuous
100
AcDbCircle
 10
629.9907839999997
 20
419.356079
 30
0.0
 40
1.04506
100
AcDbArc
 50
312.8696289999999
 51
47.130371
  0
ARC
  5
745
330
3DE
100
AcDbEntity
  8
1
  6
Continuous
100
AcDbCircle
 10
629.710876
 20
419.356079
 30
0.0
 40
1.04506
100
AcDbArc
 50
132.869623
 51
198.207664
  0
ARC
  5
746
330
3DE
100
AcDbEntity
  8
1
  6
Continuous
100
AcDbCircle
 10
629.8508299999999
 20
417.7068479999999
 30
0.0
 40
1.250753999999999
100
AcDbArc
 50
227.130377
 51
312.8696289999999
  0
ARC
  5
747
330
3DE
100
AcDbEntity
  8
1
  6
Continuous
100
AcDbCircle
 10
629.8508299999999
 20
417.4053339999998
 30
0.0
 40
1.250753999999999
100
AcDbArc
 50
47.130371
 51
57.1503
  0
ARC
  5
748
330
3DE
100
AcDbEntity
  8
1
  6
Continuous
100
AcDbCircle
 10
629.9907839999997
 20
417.5560909999998
 30
0.0
 40
1.04506
100
AcDbArc
 50
312.8696289999999
 51
47.130371
  0
ARC
  5
749
330
3DE
100
AcDbEntity
  8
1
  6
Continuous
100
AcDbCircle
 10
629.710876
 20
417.5560909999998
 30
0.0
 40
1.04506
100
AcDbArc
 50
193.014224
 51
227.130377
  0
ARC
  5
74A
330
3DE
100
AcDbEntity
  8
5
  6
PHANTOM
100
AcDbCircle
 10
428.7482599999998
 20
195.022476
 30
0.0
 40
2.1
100
AcDbArc
 50
287.5509399999998
 51
107.5509389999999
  0
ARC
  5
74B
330
3DE
100
AcDbEntity
  8
5
  6
PHANTOM
100
AcDbCircle
 10
420.167236
 20
192.308502
 30
0.0
 40
5.0
100
AcDbArc
 50
287.5509399999998
 51
107.5509389999999
  0
ARC
  5
74C
330
3DE
100
AcDbEntity
  8
5
  6
PHANTOM
100
AcDbCircle
 10
393.4706729999999
 20
183.865005
 30
0.0
 40
5.0
100
AcDbArc
 50
107.550932
 51
197.550941
  0
ARC
  5
74D
330
3DE
100
AcDbEntity
  8
5
  6
PHANTOM
100
AcDbCircle
 10
402.2557069999998
 20
179.3017429999999
 30
0.0
 40
2.0
100
AcDbArc
 50
107.550932
 51
197.550941
  0
ARC
  5
74E
330
3DE
100
AcDbEntity
  8
5
  6
PHANTOM
100
AcDbCircle
 10
464.97937
 20
206.481537
 30
0.0
 40
9.999988999999999
100
AcDbArc
 50
287.5509399999998
 51
107.5509389999999
  0
CIRCLE
  5
74F
330
3DE
100
AcDbEntity
  8
5
  6
PHANTOM
100
AcDbCircle
 10
464.97934
 20
206.4815059999999
 30
0.0
 40
7.0
  0
CIRCLE
  5
750
330
3DE
100
AcDbEntity
  8
5
  6
PHANTOM
100
AcDbCircle
 10
393.4706729999999
 20
183.865005
 30
0.0
 40
3.5
  0
CIRCLE
  5
751
330
3DE
100
AcDbEntity
  8
5
  6
PHANTOM
100
AcDbCircle
 10
420.167236
 20
192.308502
 30
0.0
 40
3.5
  0
CIRCLE
  5
752
330
3DE
100
AcDbEntity
  8
5
  6
PHANTOM
100
AcDbCircle
 10
360.0999449999998
 20
173.3106379999999
 30
0.0
 40
3.5
  0
ARC
  5
753
330
3DE
100
AcDbEntity
  8
5
  6
PHANTOM
100
AcDbCircle
 10
402.8516849999999
 20
170.7850039999999
 30
0.0
 40
2.0
100
AcDbArc
 50
17.550929
 51
107.550932
  0
ARC
  5
754
330
3DE
100
AcDbEntity
  8
5
  6
PHANTOM
100
AcDbCircle
 10
412.203033
 20
-110.1502379999999
 30
0.0
 40
331.0
100
AcDbArc
 50
80.55852300000003
 51
116.840822
  0
ARC
  5
755
330
3DE
100
AcDbEntity
  8
4
  6
CENTER
100
AcDbCircle
 10
412.203033
 20
-110.1502379999999
 30
0.0
 40
321.0
100
AcDbArc
 50
80.53691200000001
 51
120.415415
  0
ARC
  5
756
330
3DE
100
AcDbEntity
  8
5
  6
PHANTOM
100
AcDbCircle
 10
267.2477109999999
 20
176.2534179999999
 30
0.0
 40
10.0
100
AcDbArc
 50
116.409154
 51
298.217916
  0
ARC
  5
757
330
3DE
100
AcDbEntity
  8
5
  6
PHANTOM
100
AcDbCircle
 10
412.203033
 20
-110.1502379999999
 30
0.0
 40
311.0
100
AcDbArc
 50
89.669865
 51
116.8891389999999
  0
ARC
  5
758
330
3DE
100
AcDbEntity
  8
5
  6
PHANTOM
100
AcDbCircle
 10
488.6542359999999
 20
202.544586
 30
0.0
 40
10.0
100
AcDbArc
 50
260.5585249999999
 51
350.536914
  0
ARC
  5
759
330
3DE
100
AcDbEntity
  8
5
  6
PHANTOM
100
AcDbCircle
 10
502.563232
 20
200.231598
 30
0.0
 40
4.099999999999997
100
AcDbArc
 50
80.55852300000003
 51
170.55843
  0
ARC
  5
75A
330
3DE
100
AcDbEntity
  8
5
  6
PHANTOM
100
AcDbCircle
 10
511.342651
 20
198.771637
 30
0.0
 40
4.099999999999997
100
AcDbArc
 50
260.5585249999999
 51
80.55852300000003
  0
ARC
  5
75B
330
3DE
100
AcDbEntity
  8
5
  6
PHANTOM
100
AcDbCircle
 10
514.3020019999998
 20
198.2795409999999
 30
0.0
 40
10.0
100
AcDbArc
 50
260.5585249999999
 51
80.55852300000003
  0
CIRCLE
  5
75C
330
3DE
100
AcDbEntity
  8
5
  6
PHANTOM
100
AcDbCircle
 10
274.2895199999999
 20
146.170822
 30
0.0
 40
7.0
  0
ARC
  5
75D
330
3DE
100
AcDbEntity
  8
5
  6
PHANTOM
100
AcDbCircle
 10
274.2895199999999
 20
146.170822
 30
0.0
 40
10.0
100
AcDbArc
 50
13.85718599999999
 51
166.142808
  0
ARC
  5
75E
330
3DE
100
AcDbEntity
  8
5
  6
PHANTOM
100
AcDbCircle
 10
428.7482599999998
 20
631.977539
 30
0.0
 40
2.1
100
AcDbArc
 50
252.4490609999999
 51
72.44906
  0
ARC
  5
75F
330
3DE
100
AcDbEntity
  8
5
  6
PHANTOM
100
AcDbCircle
 10
420.167236
 20
634.6915280000001
 30
0.0
 40
5.0
100
AcDbArc
 50
252.4490609999999
 51
72.44906
  0
ARC
  5
760
330
3DE
100
AcDbEntity
  8
5
  6
PHANTOM
100
AcDbCircle
 10
393.4706729999999
 20
643.1350099999997
 30
0.0
 40
5.0
100
AcDbArc
 50
162.4490549999999
 51
252.449065
  0
ARC
  5
761
330
3DE
100
AcDbEntity
  8
5
  6
PHANTOM
100
AcDbCircle
 10
402.2557069999998
 20
647.6982419999999
 30
0.0
 40
2.0
100
AcDbArc
 50
162.4490549999999
 51
252.449065
  0
ARC
  5
762
330
3DE
100
AcDbEntity
  8
5
  6
PHANTOM
100
AcDbCircle
 10
464.97937
 20
620.518494
 30
0.0
 40
9.999988999999999
100
AcDbArc
 50
252.4490609999999
 51
72.44906
  0
CIRCLE
  5
763
330
3DE
100
AcDbEntity
  8
5
  6
PHANTOM
100
AcDbCircle
 10
464.97934
 20
620.518494
 30
0.0
 40
7.0
  0
CIRCLE
  5
764
330
3DE
100
AcDbEntity
  8
5
  6
PHANTOM
100
AcDbCircle
 10
393.4706729999999
 20
643.1350099999997
 30
0.0
 40
3.5
  0
CIRCLE
  5
765
330
3DE
100
AcDbEntity
  8
5
  6
PHANTOM
100
AcDbCircle
 10
420.167236
 20
634.6915280000001
 30
0.0
 40
3.5
  0
CIRCLE
  5
766
330
3DE
100
AcDbEntity
  8
5
  6
PHANTOM
100
AcDbCircle
 10
360.0999449999998
 20
653.6893919999998
 30
0.0
 40
3.5
  0
ARC
  5
767
330
3DE
100
AcDbEntity
  8
5
  6
PHANTOM
100
AcDbCircle
 10
402.8516849999999
 20
656.215027
 30
0.0
 40
2.0
100
AcDbArc
 50
252.4490679999999
 51
342.449071
  0
ARC
  5
768
330
3DE
100
AcDbEntity
  8
5
  6
PHANTOM
100
AcDbCircle
 10
412.203033
 20
937.150208
 30
0.0
 40
331.0
100
AcDbArc
 50
243.1591779999999
 51
279.441477
  0
ARC
  5
769
330
3DE
100
AcDbEntity
  8
4
  6
CENTER
100
AcDbCircle
 10
412.203033
 20
937.150208
 30
0.0
 40
321.0
100
AcDbArc
 50
239.584585
 51
279.4630879999999
  0
ARC
  5
76A
330
3DE
100
AcDbEntity
  8
5
  6
PHANTOM
100
AcDbCircle
 10
267.2477109999999
 20
650.746582
 30
0.0
 40
10.0
100
AcDbArc
 50
61.78208699999999
 51
243.590856
  0
CIRCLE
  5
76B
330
3DE
100
AcDbEntity
  8
5
  6
PHANTOM
100
AcDbCircle
 10
267.2895199999999
 20
650.829163
 30
0.0
 40
7.0
  0
ARC
  5
76C
330
3DE
100
AcDbEntity
  8
5
  6
PHANTOM
100
AcDbCircle
 10
412.203033
 20
937.150208
 30
0.0
 40
311.0
100
AcDbArc
 50
243.1108609999999
 51
270.3301349999999
  0
ARC
  5
76D
330
3DE
100
AcDbEntity
  8
5
  6
PHANTOM
100
AcDbCircle
 10
488.6542359999999
 20
624.4554440000001
 30
0.0
 40
10.0
100
AcDbArc
 50
9.463086
 51
99.44147499999999
  0
ARC
  5
76E
330
3DE
100
AcDbEntity
  8
5
  6
PHANTOM
100
AcDbCircle
 10
502.563232
 20
626.7684329999997
 30
0.0
 40
4.099999999999997
100
AcDbArc
 50
189.4415699999999
 51
279.441477
  0
ARC
  5
76F
330
3DE
100
AcDbEntity
  8
5
  6
PHANTOM
100
AcDbCircle
 10
511.342651
 20
628.2283940000001
 30
0.0
 40
4.099999999999997
100
AcDbArc
 50
279.441477
 51
99.44147499999999
  0
ARC
  5
770
330
3DE
100
AcDbEntity
  8
5
  6
PHANTOM
100
AcDbCircle
 10
514.3020019999998
 20
628.7204589999999
 30
0.0
 40
10.0
100
AcDbArc
 50
279.441477
 51
99.44147499999999
  0
CIRCLE
  5
771
330
3DE
100
AcDbEntity
  8
5
  6
PHANTOM
100
AcDbCircle
 10
274.2895199999999
 20
680.829163
 30
0.0
 40
7.0
  0
ARC
  5
772
330
3DE
100
AcDbEntity
  8
5
  6
PHANTOM
100
AcDbCircle
 10
274.2895199999999
 20
680.829163
 30
0.0
 40
10.0
100
AcDbArc
 50
193.857192
 51
346.1428139999999
  0
ARC
  5
773
330
3DE
100
AcDbEntity
  8
1
  6
Continuous
100
AcDbCircle
 10
581.328857
 20
418.5
 30
0.0
 40
1.718013999999999
100
AcDbArc
 50
341.3197499999998
 51
54.461992
  0
ARC
  5
774
330
3DE
100
AcDbEntity
  8
1
  6
Continuous
100
AcDbCircle
 10
573.329529
 20
418.5
 30
0.0
 40
1.717878999999999
100
AcDbArc
 50
189.220641
 51
234.4619839999999
  0
ARC
  5
775
330
3DE
100
AcDbEntity
  8
1
  6
Continuous
100
AcDbCircle
 10
115.329185
 20
413.4999999999998
 30
0.0
 40
2.0
100
AcDbArc
 50
269.9999969999999
 51
0.0
  0
ARC
  5
776
330
3DE
100
AcDbEntity
  8
1
  6
Continuous
100
AcDbCircle
 10
115.329185
 20
423.5
 30
0.0
 40
2.0
100
AcDbArc
 50
0.0
 51
90.00000300000001
  0
TEXT
  5
777
330
3DE
100
AcDbEntity
  8
6
  6
Continuous
100
AcDbText
 10
27.97945
 20
10.0487
 30
0.0
 40
1.399999999999999
  1
6
 41
1.069393
100
AcDbText
  0
TEXT
  5
778
330
3DE
100
AcDbEntity
  8
1
  6
Continuous
100
AcDbText
 10
17.97945
 20
10.0487
 30
0.0
 40
1.399999999999999
  1
1
 41
1.069393
100
AcDbText
  0
TEXT
  5
779
330
3DE
100
AcDbEntity
  8
1
  6
Continuous
100
AcDbText
 10
9.99995
 20
10.0
 30
0.0
 40
1.399999999999999
  1
LAYER
 41
1.009912999999997
100
AcDbText
  0
TEXT
  5
77A
330
3DE
100
AcDbEntity
  8
2
  6
Continuous
100
AcDbText
 10
19.97944999999998
 20
10.0487
 30
0.0
 40
1.399999999999999
  1
2
 41
1.069393
100
AcDbText
  0
TEXT
  5
77B
330
3DE
100
AcDbEntity
  8
3
  6
DASHED
100
AcDbText
 10
21.97945
 20
10.0487
 30
0.0
 40
1.399999999999999
  1
3
 41
1.069393
100
AcDbText
  0
TEXT
  5
77C
330
3DE
100
AcDbEntity
  8
4
  6
CENTER
100
AcDbText
 10
23.97944999999999
 20
10.0487
 30
0.0
 40
1.399999999999999
  1
4
 41
1.069393
100
AcDbText
  0
TEXT
  5
77D
330
3DE
100
AcDbEntity
  8
5
  6
PHANTOM
100
AcDbText
 10
25.97945
 20
10.0487
 30
0.0
 40
1.399999999999999
  1
5
 41
1.069393
100
AcDbText
  0
TEXT
  5
77E
330
3DE
100
AcDbEntity
  8
7
  6
Continuous
100
AcDbText
 10
10.00005
 20
26.0
 30
0.0
 40
3.0
  1
CODE No.5942
 41
1.003962999999999
100
AcDbText
  0
TEXT
  5
77F
330
3DE
100
AcDbEntity
  8
7
  6
Continuous
100
AcDbText
 10
10.00005
 20
18.0
 30
0.0
 40
3.0
  1
TYPE No.TM-223-1R
 41
1.002950999999999
100
AcDbText
  0
TEXT
  5
780
330
3DE
100
AcDbEntity
  8
7
  6
Continuous
100
AcDbText
 10
29.97944999999999
 20
10.0487
 30
0.0
 40
1.399999999999999
  1
7
 41
1.069393
100
AcDbText
  0
ENDSEC
  0
SECTION
  2
OBJECTS
  0
DICTIONARY
  5
3CC
330
0
100
AcDbDictionary
281
     1
  3
ACAD_CIP_PREVIOUS_PRODUCT_INFO
350
7F2
  3
ACAD_COLOR
350
7D4
  3
ACAD_DETAILVIEWSTYLE
350
7ED
  3
ACAD_GROUP
350
3CD
  3
ACAD_LAYOUT
350
3D9
  3
ACAD_MATERIAL
350
7A2
  3
ACAD_MLEADERSTYLE
350
7E9
  3
ACAD_MLINESTYLE
350
3D6
  3
ACAD_PLOTSETTINGS
350
3D8
  3
ACAD_PLOTSTYLENAME
350
7A0
  3
ACAD_SCALELIST
350
7D7
  3
ACAD_SECTIONVIEWSTYLE
350
7EB
  3
ACAD_TABLESTYLE
350
7D5
  3
ACAD_VISUALSTYLE
350
7BB
  3
ACDB_RECOMPOSE_DATA
350
810
  3
AcDbVariableDictionary
350
803
  3
DWGPROPS
350
811
  0
DICTIONARY
  5
7F3
330
3D0
100
AcDbDictionary
280
     1
281
     1
  3
ADSK_XREC_LAYER_RECONCILED
360
7F4
  0
DICTIONARY
  5
7F5
330
3E6
100
AcDbDictionary
280
     1
281
     1
  3
ADSK_XREC_LAYER_RECONCILED
360
7F6
  0
DICTIONARY
  5
7F7
330
3E7
100
AcDbDictionary
280
     1
281
     1
  3
ADSK_XREC_LAYER_RECONCILED
360
7F8
  0
DICTIONARY
  5
7F9
330
3E8
100
AcDbDictionary
280
     1
281
     1
  3
ADSK_XREC_LAYER_RECONCILED
360
7FA
  0
DICTIONARY
  5
7FB
330
3E9
100
AcDbDictionary
280
     1
281
     1
  3
ADSK_XREC_LAYER_RECONCILED
360
7FC
  0
DICTIONARY
  5
7FD
330
3EA
100
AcDbDictionary
280
     1
281
     1
  3
ADSK_XREC_LAYER_RECONCILED
360
7FE
  0
DICTIONARY
  5
7FF
330
3EB
100
AcDbDictionary
280
     1
281
     1
  3
ADSK_XREC_LAYER_RECONCILED
360
800
  0
DICTIONARY
  5
801
330
3EC
100
AcDbDictionary
280
     1
281
     1
  3
ADSK_XREC_LAYER_RECONCILED
360
802
  0
DICTIONARY
  5
79B
330
3DE
100
AcDbDictionary
281
     1
  3
ACAD_LAYOUTSELFREF
350
79C
  0
DICTIONARY
  5
799
330
3DA
100
AcDbDictionary
281
     1
  3
ACAD_LAYOUTSELFREF
350
79A
  0
XRECORD
  5
7F2
102
{ACAD_REACTORS
330
3CC
102
}
330
3CC
100
AcDbXrecord
280
     1
300
ACDLT
300
2014
300
ACDLT_F_S
  0
DICTIONARY
  5
7D4
102
{ACAD_REACTORS
330
3CC
102
}
330
3CC
100
AcDbDictionary
281
     1
  0
DICTIONARY
  5
7ED
102
{ACAD_REACTORS
330
3CC
102
}
330
3CC
100
AcDbDictionary
281
     1
  3
Imperial24
350
7EE
  0
DICTIONARY
  5
3CD
102
{ACAD_REACTORS
330
3CC
102
}
330
3CC
100
AcDbDictionary
281
     1
  0
DICTIONARY
  5
3D9
102
{ACAD_REACTORS
330
3CC
102
}
330
3CC
100
AcDbDictionary
281
     1
  3
Model
350
7EF
  3
レイアウト1
350
7F0
  0
DICTIONARY
  5
7A2
102
{ACAD_REACTORS
330
3CC
102
}
330
3CC
100
AcDbDictionary
281
     1
  3
ByBlock
350
7AB
  3
ByLayer
350
7A3
  3
Global
350
7B3
  0
DICTIONARY
  5
7E9
102
{ACAD_REACTORS
330
3CC
102
}
330
3CC
100
AcDbDictionary
281
     1
  3
Standard
350
7EA
  0
DICTIONARY
  5
3D6
102
{ACAD_REACTORS
330
3CC
102
}
330
3CC
100
AcDbDictionary
281
     1
  3
STANDARD
350
3D7
  0
DICTIONARY
  5
3D8
102
{ACAD_REACTORS
330
3CC
102
}
330
3CC
100
AcDbDictionary
281
     1
  0
ACDBDICTIONARYWDFLT
  5
7A0
102
{ACAD_REACTORS
330
3CC
102
}
330
3CC
100
AcDbDictionary
281
     1
  3
Normal
350
7A1
100
AcDbDictionaryWithDefault
340
7A1
  0
DICTIONARY
  5
7D7
102
{ACAD_REACTORS
330
3CC
102
}
330
3CC
100
AcDbDictionary
281
     1
  3
A0
350
7D8
  3
A1
350
7D9
  3
A2
350
7DA
  3
A3
350
7DB
  3
A4
350
7DC
  3
A5
350
7DD
  3
A6
350
7DE
  3
A7
350
7DF
  3
A8
350
7E0
  3
A9
350
7E1
  3
B0
350
7E2
  3
B1
350
7E3
  3
B2
350
7E4
  3
B3
350
7E5
  3
B4
350
7E6
  3
B5
350
7E7
  3
B6
350
7E8
  0
DICTIONARY
  5
7EB
102
{ACAD_REACTORS
330
3CC
102
}
330
3CC
100
AcDbDictionary
281
     1
  3
Imperial24
350
7EC
  0
DICTIONARY
  5
7D5
102
{ACAD_REACTORS
330
3CC
102
}
330
3CC
100
AcDbDictionary
281
     1
  3
Standard
350
7D6
  0
DICTIONARY
  5
7BB
102
{ACAD_REACTORS
330
3CC
102
}
330
3CC
100
AcDbDictionary
281
     1
  3
2dWireframe
350
7C1
  3
Basic
350
7C0
  3
Brighten
350
7C7
  3
ColorChange
350
7CB
  3
Conceptual
350
7C4
  3
Dim
350
7C6
  3
EdgeColorOff
350
7D3
  3
Facepattern
350
7CA
  3
Flat
350
7BC
  3
FlatWithEdges
350
7BD
  3
Gouraud
350
7BE
  3
GouraudWithEdges
350
7BF
  3
Hidden
350
7C3
  3
JitterOff
350
7D1
  3
Linepattern
350
7C9
  3
OverhangOff
350
7D2
  3
Realistic
350
7C5
  3
Shaded
350
7D0
  3
Shaded with edges
350
7CF
  3
Shades of Gray
350
7CC
  3
Sketchy
350
7CD
  3
Thicken
350
7C8
  3
Wireframe
350
7C2
  3
X-Ray
350
7CE
  0
XRECORD
  5
810
102
{ACAD_REACTORS
330
3CC
102
}
330
3CC
100
AcDbXrecord
280
     1
 90
        1
330
7D6
  0
DICTIONARY
  5
803
102
{ACAD_REACTORS
330
3CC
102
}
330
3CC
100
AcDbDictionary
281
     1
  3
CANNOSCALE
350
808
  3
CMLEADERSTYLE
350
805
  3
CTABLESTYLE
350
804
  3
CVIEWDETAILSTYLE
350
806
  3
CVIEWSECTIONSTYLE
350
807
  3
DIMASSOC
350
80B
  3
INDEXCTL
350
80A
  3
SORTENTS
350
809
  3
XCLIPFRAME
350
80C
  0
XRECORD
  5
811
102
{ACAD_REACTORS
330
3CC
102
}
330
3CC
100
AcDbXrecord
280
     1
  1
DWGPROPS COOKIE
  2

  3

  4

  6

  7

  8
Yoshitsune
  9

300
=
301
=
302
=
303
=
304
=
305
=
306
=
307
=
308
=
309
=
 40
0.0001773263888889
 41
2451069.656068403
 42
2457192.621249942
  1

 90
        0
  0
XRECORD
  5
7F4
102
{ACAD_REACTORS
330
7F3
102
}
330
7F3
100
AcDbXrecord
280
     1
290
     1
  0
XRECORD
  5
7F6
102
{ACAD_REACTORS
330
7F5
102
}
330
7F5
100
AcDbXrecord
280
     1
290
     1
  0
XRECORD
  5
7F8
102
{ACAD_REACTORS
330
7F7
102
}
330
7F7
100
AcDbXrecord
280
     1
290
     1
  0
XRECORD
  5
7FA
102
{ACAD_REACTORS
330
7F9
102
}
330
7F9
100
AcDbXrecord
280
     1
290
     1
  0
XRECORD
  5
7FC
102
{ACAD_REACTORS
330
7FB
102
}
330
7FB
100
AcDbXrecord
280
     1
290
     1
  0
XRECORD
  5
7FE
102
{ACAD_REACTORS
330
7FD
102
}
330
7FD
100
AcDbXrecord
280
     1
290
     1
  0
XRECORD
  5
800
102
{ACAD_REACTORS
330
7FF
102
}
330
7FF
100
AcDbXrecord
280
     1
290
     1
  0
XRECORD
  5
802
102
{ACAD_REACTORS
330
801
102
}
330
801
100
AcDbXrecord
280
     1
290
     1
  0
XRECORD
  5
79C
102
{ACAD_REACTORS
330
79B
102
}
330
79B
100
AcDbXrecord
280
     1
340
3DE
  0
XRECORD
  5
79A
102
{ACAD_REACTORS
330
799
102
}
330
799
100
AcDbXrecord
280
     1
340
3DA
  0
ACDBDETAILVIEWSTYLE
  5
7EE
102
{ACAD_XDICTIONARY
360
849
102
}
102
{ACAD_REACTORS
330
7ED
102
}
330
7ED
100
AcDbModelDocViewStyle
 70
     0
  3
Imperial24
290
     0
100
AcDbDetailViewStyle
 70
     0
 71
     0
 90
        3
 71
     1
340
3D1
 40
0.24
340
0
 40
0.24
300

 40
0.36
280
     3
 71
     2
340
3D5
 90
       25
 71
     3
340
3D1
 40
0.24
 90
        1
 40
0.75
 90
        1
300
%<\AcVar ViewType \f "%tc1">% %<\AcVar ViewDetailId>%\PSCALE %<\AcVar ViewScale \f "%sn">%
 71
     4
340
3D5
 90
       25
340
3D5
 90
       25
280
     0
  0
LAYOUT
  5
7EF
102
{ACAD_XDICTIONARY
360
84B
102
}
102
{ACAD_REACTORS
330
3D9
102
}
330
3D9
100
AcDbPlotSettings
  1

  2
Canon LBP9100C
  4

  6

 40
0.0
 41
0.0
 42
0.0
 43
0.0
 44
0.0
 45
0.0
 46
0.0
 47
0.0
 48
0.0
 49
0.0
140
0.0
141
0.0
142
1.0
143
1.0
 70
  1712
 72
     0
 73
     0
 74
     0
  7

 75
     0
147
1.0
148
0.0
149
0.0
100
AcDbLayout
  1
Model
 70
     1
 71
     0
 10
0.0
 20
0.0
 11
12.0
 21
9.0
 12
0.0
 22
0.0
 32
0.0
 14
0.0
 24
0.0
 34
0.0
 15
0.0
 25
0.0
 35
0.0
146
0.0
 13
0.0
 23
0.0
 33
0.0
 16
1.0
 26
0.0
 36
0.0
 17
0.0
 27
1.0
 37
0.0
 76
     0
330
3DE
331
798
  0
LAYOUT
  5
7F0
102
{ACAD_XDICTIONARY
360
84D
102
}
102
{ACAD_REACTORS
330
3D9
102
}
330
3D9
100
AcDbPlotSettings
  1

  2
Canon LBP9100C
  4

  6

 40
0.0
 41
0.0
 42
0.0
 43
0.0
 44
0.0
 45
0.0
 46
0.0
 47
0.0
 48
0.0
 49
0.0
140
0.0
141
0.0
142
1.0
143
1.0
 70
   688
 72
     0
 73
     0
 74
     5
  7

 75
    16
147
1.0
148
0.0
149
0.0
100
AcDbLayout
  1
レイアウト1
 70
     0
 71
     1
 10
0.0
 20
0.0
 11
420.0
 21
297.0
 12
0.0
 22
0.0
 32
0.0
 14
1.000000000000000E+20
 24
1.000000000000000E+20
 34
1.000000000000000E+20
 15
-1.000000000000000E+20
 25
-1.000000000000000E+20
 35
-1.000000000000000E+20
146
0.0
 13
0.0
 23
0.0
 33
0.0
 16
1.0
 26
0.0
 36
0.0
 17
0.0
 27
1.0
 37
0.0
 76
     0
330
3DA
  0
MATERIAL
  5
7AB
102
{ACAD_XDICTIONARY
360
7AC
102
}
102
{ACAD_REACTORS
330
7A2
102
}
330
7A2
100
AcDbMaterial
  1
ByBlock
 72
     0
 43
0.0208333333333333
 43
0.0
 43
0.0
 43
0.0
 43
0.0
 43
0.0208333333333333
 43
0.0
 43
0.0
 43
0.0
 43
0.0
 43
1.0
 43
0.0
 43
0.0
 43
0.0
 43
0.0
 43
1.0
 77
     0
 47
0.0208333333333333
 47
0.0
 47
0.0
 47
0.0
 47
0.0
 47
0.0208333333333333
 47
0.0
 47
0.0
 47
0.0
 47
0.0
 47
1.0
 47
0.0
 47
0.0
 47
0.0
 47
0.0
 47
1.0
171
     0
 49
0.0208333333333333
 49
0.0
 49
0.0
 49
0.0
 49
0.0
 49
0.0208333333333333
 49
0.0
 49
0.0
 49
0.0
 49
0.0
 49
1.0
 49
0.0
 49
0.0
 49
0.0
 49
0.0
 49
1.0
175
     0
142
0.0208333333333333
142
0.0
142
0.0
142
0.0
142
0.0
142
0.0208333333333333
142
0.0
142
0.0
142
0.0
142
0.0
142
1.0
142
0.0
142
0.0
142
0.0
142
0.0
142
1.0
179
     0
144
0.0208333333333333
144
0.0
144
0.0
144
0.0
144
0.0
144
0.0208333333333333
144
0.0
144
0.0
144
0.0
144
0.0
144
1.0
144
0.0
144
0.0
144
0.0
144
0.0
144
1.0
147
0.0208333333333333
147
0.0
147
0.0
147
0.0
147
0.0
147
0.0208333333333333
147
0.0
147
0.0
147
0.0
147
0.0
147
1.0
147
0.0
147
0.0
147
0.0
147
0.0
147
1.0
  0
MATERIAL
  5
7A3
102
{ACAD_XDICTIONARY
360
7A4
102
}
102
{ACAD_REACTORS
330
7A2
102
}
330
7A2
100
AcDbMaterial
  1
ByLayer
 72
     0
 43
0.0208333333333333
 43
0.0
 43
0.0
 43
0.0
 43
0.0
 43
0.0208333333333333
 43
0.0
 43
0.0
 43
0.0
 43
0.0
 43
1.0
 43
0.0
 43
0.0
 43
0.0
 43
0.0
 43
1.0
 77
     0
 47
0.0208333333333333
 47
0.0
 47
0.0
 47
0.0
 47
0.0
 47
0.0208333333333333
 47
0.0
 47
0.0
 47
0.0
 47
0.0
 47
1.0
 47
0.0
 47
0.0
 47
0.0
 47
0.0
 47
1.0
171
     0
 49
0.0208333333333333
 49
0.0
 49
0.0
 49
0.0
 49
0.0
 49
0.0208333333333333
 49
0.0
 49
0.0
 49
0.0
 49
0.0
 49
1.0
 49
0.0
 49
0.0
 49
0.0
 49
0.0
 49
1.0
175
     0
142
0.0208333333333333
142
0.0
142
0.0
142
0.0
142
0.0
142
0.0208333333333333
142
0.0
142
0.0
142
0.0
142
0.0
142
1.0
142
0.0
142
0.0
142
0.0
142
0.0
142
1.0
179
     0
144
0.0208333333333333
144
0.0
144
0.0
144
0.0
144
0.0
144
0.0208333333333333
144
0.0
144
0.0
144
0.0
144
0.0
144
1.0
144
0.0
144
0.0
144
0.0
144
0.0
144
1.0
147
0.0208333333333333
147
0.0
147
0.0
147
0.0
147
0.0
147
0.0208333333333333
147
0.0
147
0.0
147
0.0
147
0.0
147
1.0
147
0.0
147
0.0
147
0.0
147
0.0
147
1.0
  0
MATERIAL
  5
7B3
102
{ACAD_XDICTIONARY
360
7B4
102
}
102
{ACAD_REACTORS
330
7A2
102
}
330
7A2
100
AcDbMaterial
  1
Global
 72
     0
 43
0.0208333333333333
 43
0.0
 43
0.0
 43
0.0
 43
0.0
 43
0.0208333333333333
 43
0.0
 43
0.0
 43
0.0
 43
0.0
 43
1.0
 43
0.0
 43
0.0
 43
0.0
 43
0.0
 43
1.0
 77
     0
 47
0.0208333333333333
 47
0.0
 47
0.0
 47
0.0
 47
0.0
 47
0.0208333333333333
 47
0.0
 47
0.0
 47
0.0
 47
0.0
 47
1.0
 47
0.0
 47
0.0
 47
0.0
 47
0.0
 47
1.0
171
     0
 49
0.0208333333333333
 49
0.0
 49
0.0
 49
0.0
 49
0.0
 49
0.0208333333333333
 49
0.0
 49
0.0
 49
0.0
 49
0.0
 49
1.0
 49
0.0
 49
0.0
 49
0.0
 49
0.0
 49
1.0
175
     0
142
0.0208333333333333
142
0.0
142
0.0
142
0.0
142
0.0
142
0.0208333333333333
142
0.0
142
0.0
142
0.0
142
0.0
142
1.0
142
0.0
142
0.0
142
0.0
142
0.0
142
1.0
179
     0
144
0.0208333333333333
144
0.0
144
0.0
144
0.0
144
0.0
144
0.0208333333333333
144
0.0
144
0.0
144
0.0
144
0.0
144
1.0
144
0.0
144
0.0
144
0.0
144
0.0
144
1.0
147
0.0208333333333333
147
0.0
147
0.0
147
0.0
147
0.0
147
0.0208333333333333
147
0.0
147
0.0
147
0.0
147
0.0
147
1.0
147
0.0
147
0.0
147
0.0
147
0.0
147
1.0
  0
MLEADERSTYLE
  5
7EA
102
{ACAD_REACTORS
330
7E9
102
}
330
7E9
100
AcDbMLeaderStyle
170
     2
171
     1
172
     0
 90
        2
 40
0.0
 41
0.0
173
     1
 91
-1056964608
340
3D3
 92
       -2
290
     1
 42
0.09
291
     1
 43
0.36
  3
Standard
 44
0.18
300

342
3D1
174
     1
178
     6
175
     1
176
     0
 93
-1056964608
 45
0.18
292
     0
297
     0
 46
0.18
 94
-1056964608
 47
1.0
 49
1.0
140
1.0
293
     1
141
0.0
294
     1
177
     0
142
1.0
295
     0
296
     0
143
0.125
1001
ACAD_MLEADERVER
1070
     2
  0
MLINESTYLE
  5
3D7
102
{ACAD_REACTORS
330
3D6
102
}
330
3D6
100
AcDbMlineStyle
  2
STANDARD
 70
     0
  3

 62
   256
 51
90.0
 52
90.0
 71
     2
 49
0.5
 62
   256
  6
BYLAYER
 49
-0.5
 62
   256
  6
BYLAYER
  0
ACDBPLACEHOLDER
  5
7A1
102
{ACAD_REACTORS
330
7A0
102
}
330
7A0
  0
SCALE
  5
7D8
102
{ACAD_REACTORS
330
7D7
102
}
330
7D7
100
AcDbScale
 70
     0
300
1:1
140
1.0
141
1.0
290
     1
  0
SCALE
  5
7D9
102
{ACAD_REACTORS
330
7D7
102
}
330
7D7
100
AcDbScale
 70
     0
300
1/128" = 1'-0"
140
0.0078125
141
12.0
290
     0
  0
SCALE
  5
7DA
102
{ACAD_REACTORS
330
7D7
102
}
330
7D7
100
AcDbScale
 70
     0
300
1/64" = 1'-0"
140
0.015625
141
12.0
290
     0
  0
SCALE
  5
7DB
102
{ACAD_REACTORS
330
7D7
102
}
330
7D7
100
AcDbScale
 70
     0
300
1/32" = 1'-0"
140
0.03125
141
12.0
290
     0
  0
SCALE
  5
7DC
102
{ACAD_REACTORS
330
7D7
102
}
330
7D7
100
AcDbScale
 70
     0
300
1/16" = 1'-0"
140
0.0625
141
12.0
290
     0
  0
SCALE
  5
7DD
102
{ACAD_REACTORS
330
7D7
102
}
330
7D7
100
AcDbScale
 70
     0
300
3/32" = 1'-0"
140
0.09375
141
12.0
290
     0
  0
SCALE
  5
7DE
102
{ACAD_REACTORS
330
7D7
102
}
330
7D7
100
AcDbScale
 70
     0
300
1/8" = 1'-0"
140
0.125
141
12.0
290
     0
  0
SCALE
  5
7DF
102
{ACAD_REACTORS
330
7D7
102
}
330
7D7
100
AcDbScale
 70
     0
300
3/16" = 1'-0"
140
0.1875
141
12.0
290
     0
  0
SCALE
  5
7E0
102
{ACAD_REACTORS
330
7D7
102
}
330
7D7
100
AcDbScale
 70
     0
300
1/4" = 1'-0"
140
0.25
141
12.0
290
     0
  0
SCALE
  5
7E1
102
{ACAD_REACTORS
330
7D7
102
}
330
7D7
100
AcDbScale
 70
     0
300
3/8" = 1'-0"
140
0.375
141
12.0
290
     0
  0
SCALE
  5
7E2
102
{ACAD_REACTORS
330
7D7
102
}
330
7D7
100
AcDbScale
 70
     0
300
1/2" = 1'-0"
140
0.5
141
12.0
290
     0
  0
SCALE
  5
7E3
102
{ACAD_REACTORS
330
7D7
102
}
330
7D7
100
AcDbScale
 70
     0
300
3/4" = 1'-0"
140
0.75
141
12.0
290
     0
  0
SCALE
  5
7E4
102
{ACAD_REACTORS
330
7D7
102
}
330
7D7
100
AcDbScale
 70
     0
300
1" = 1'-0"
140
1.0
141
12.0
290
     0
  0
SCALE
  5
7E5
102
{ACAD_REACTORS
330
7D7
102
}
330
7D7
100
AcDbScale
 70
     0
300
1-1/2" = 1'-0"
140
1.5
141
12.0
290
     0
  0
SCALE
  5
7E6
102
{ACAD_REACTORS
330
7D7
102
}
330
7D7
100
AcDbScale
 70
     0
300
3" = 1'-0"
140
3.0
141
12.0
290
     0
  0
SCALE
  5
7E7
102
{ACAD_REACTORS
330
7D7
102
}
330
7D7
100
AcDbScale
 70
     0
300
6" = 1'-0"
140
6.0
141
12.0
290
     0
  0
SCALE
  5
7E8
102
{ACAD_REACTORS
330
7D7
102
}
330
7D7
100
AcDbScale
 70
     0
300
1'-0" = 1'-0"
140
12.0
141
12.0
290
     0
  0
ACDBSECTIONVIEWSTYLE
  5
7EC
102
{ACAD_XDICTIONARY
360
847
102
}
102
{ACAD_REACTORS
330
7EB
102
}
330
7EB
100
AcDbModelDocViewStyle
 70
     0
  3
Imperial24
290
     0
100
AcDbSectionViewStyle
 70
     0
 71
     0
 90
       78
 71
     1
340
3D1
 40
0.24
340
0
340
0
 40
0.24
300
I, O, Q, S, X, Z
 40
0.48
 90
        3
 40
0.18
 90
        1
 71
     2
340
3D5
 90
       25
340
3D5
 90
       50
 40
0.24
 40
0.0
 40
0.24
 71
     3
340
3D1
 40
0.24
 90
        1
 40
0.75
 90
        1
300
%<\AcVar ViewType \f "%tc1">% %<\AcVar ViewSectionStartId>%-%<\AcVar ViewSectionEndId>%\PSCALE %<\AcVar ViewScale \f "%sn">%
 71
     4
300
ANSI31
 40
1.0
 90
        0
290
     0
290
     0
 90
        6
 40
0.0
 40
1.570796326794896
 40
0.2617993877991494
 40
1.308996938995747
 40
-0.2617993877991494
 40
1.832595714594046
  0
TABLESTYLE
  5
7D6
102
{ACAD_XDICTIONARY
360
80E
102
}
102
{ACAD_REACTORS
330
7D5
102
}
330
7D5
100
AcDbTableStyle
  3
Standard
 70
     0
 71
     0
 40
0.06
 41
0.06
280
     0
281
     0
  7
STANDARD
140
0.18
170
     2
 62
     0
 63
     7
283
     0
274
    -2
284
     1
 64
     0
275
    -2
285
     1
 65
     0
276
    -2
286
     1
 66
     0
277
    -2
287
     1
 67
     0
278
    -2
288
     1
 68
     0
279
    -2
289
     1
 69
     0
  7
STANDARD
140
0.25
170
     5
 62
     0
 63
     7
283
     0
274
    -2
284
     1
 64
     0
275
    -2
285
     1
 65
     0
276
    -2
286
     1
 66
     0
277
    -2
287
     1
 67
     0
278
    -2
288
     1
 68
     0
279
    -2
289
     1
 69
     0
  7
STANDARD
140
0.18
170
     5
 62
     0
 63
     7
283
     0
274
    -2
284
     1
 64
     0
275
    -2
285
     1
 65
     0
276
    -2
286
     1
 66
     0
277
    -2
287
     1
 67
     0
278
    -2
288
     1
 68
     0
279
    -2
289
     1
 69
     0
  0
VISUALSTYLE
  5
7C1
102
{ACAD_XDICTIONARY
360
81F
102
}
102
{ACAD_REACTORS
330
7BB
102
}
330
7BB
100
AcDbVisualStyle
  2
2dWireframe
 70
     4
 71
     0
 72
     2
 73
     0
 90
        0
 40
-0.6
 41
-30.0
 62
     5
 63
     7
 74
     1
 91
        4
 64
     7
 65
   257
 75
     1
175
     1
 42
1.0
 92
        0
 66
   257
 43
1.0
 76
     1
 77
     6
 78
     2
 67
     7
 79
     5
170
     0
171
     0
290
     0
174
     0
 93
        1
 44
0.0
173
     0
291
     0
 45
0.0
1001
ACAD
1000
AcDbSavedByObjectVersion
1070
     0
  0
VISUALSTYLE
  5
7C0
102
{ACAD_XDICTIONARY
360
81D
102
}
102
{ACAD_REACTORS
330
7BB
102
}
330
7BB
100
AcDbVisualStyle
  2
Basic
 70
     7
 71
     1
 72
     0
 73
     1
 90
        0
 40
-0.6
 41
-30.0
 62
     5
 63
     7
 74
     0
 91
        4
 64
     7
 65
   257
 75
     1
175
     1
 42
1.0
 92
        8
 66
     7
 43
1.0
 76
     1
 77
     6
 78
     2
 67
     7
 79
     5
170
     0
171
     0
290
     0
174
     0
 93
        1
 44
0.0
173
     0
291
     1
 45
0.0
1001
ACAD
1000
AcDbSavedByObjectVersion
1070
     0
  0
VISUALSTYLE
  5
7C7
102
{ACAD_XDICTIONARY
360
82B
102
}
102
{ACAD_REACTORS
330
7BB
102
}
330
7BB
100
AcDbVisualStyle
  2
Brighten
 70
    12
 71
     2
 72
     2
 73
     0
 90
        0
 40
-0.6
 41
-30.0
 62
     5
 63
     7
 74
     1
 91
        4
 64
     7
 65
   257
 75
     1
175
     1
 42
1.0
 92
        8
 66
     7
 43
1.0
 76
     1
 77
     6
 78
     2
 67
     7
 79
     5
170
     0
171
     0
290
     0
174
     0
 93
        1
 44
50.0
173
     0
291
     1
 45
0.0
1001
ACAD
1000
AcDbSavedByObjectVersion
1070
     0
  0
VISUALSTYLE
  5
7CB
102
{ACAD_XDICTIONARY
360
833
102
}
102
{ACAD_REACTORS
330
7BB
102
}
330
7BB
100
AcDbVisualStyle
  2
ColorChange
 70
    16
 71
     2
 72
     2
 73
     3
 90
        0
 40
-0.6
 41
-30.0
 62
     5
 63
     8
 74
     1
 91
        4
 64
     7
 65
   257
 75
     1
175
     1
 42
1.0
 92
        8
 66
     8
 43
1.0
 76
     1
 77
     6
 78
     2
 67
     7
 79
     5
170
     0
171
     0
290
     0
174
     0
 93
        1
 44
0.0
173
     0
291
     1
 45
0.0
1001
ACAD
1000
AcDbSavedByObjectVersion
1070
     0
  0
VISUALSTYLE
  5
7C4
102
{ACAD_XDICTIONARY
360
825
102
}
102
{ACAD_REACTORS
330
7BB
102
}
330
7BB
100
AcDbVisualStyle
  2
Conceptual
 70
     9
 71
     3
 72
     2
 73
     0
 90
        0
 40
-0.6
 41
-30.0
 62
     5
 63
     7
 74
     2
 91
        2
 64
     7
 65
   257
 75
     1
175
     1
 42
179.0
 92
        8
 66
     7
 43
1.0
 76
     1
 77
     6
 78
     2
 67
     7
 79
     3
170
     0
171
     0
290
     0
174
     0
 93
        1
 44
0.0
173
     0
291
     0
 45
0.0
1001
ACAD
1000
AcDbSavedByObjectVersion
1070
     0
  0
VISUALSTYLE
  5
7C6
102
{ACAD_XDICTIONARY
360
829
102
}
102
{ACAD_REACTORS
330
7BB
102
}
330
7BB
100
AcDbVisualStyle
  2
Dim
 70
    11
 71
     2
 72
     2
 73
     0
 90
        0
 40
-0.6
 41
-30.0
 62
     5
 63
     7
 74
     1
 91
        4
 64
     7
 65
   257
 75
     1
175
     1
 42
1.0
 92
        8
 66
     7
 43
1.0
 76
     1
 77
     6
 78
     2
 67
     7
 79
     5
170
     0
171
     0
290
     0
174
     0
 93
        1
 44
-50.0
173
     0
291
     1
 45
0.0
1001
ACAD
1000
AcDbSavedByObjectVersion
1070
     0
  0
VISUALSTYLE
  5
7D3
102
{ACAD_XDICTIONARY
360
843
102
}
102
{ACAD_REACTORS
330
7BB
102
}
330
7BB
100
AcDbVisualStyle
  2
EdgeColorOff
 70
    22
 71
     2
 72
     2
 73
     0
 90
        0
 40
-0.6
 41
-30.0
 62
     5
 63
     7
 74
     1
 91
        4
 64
     7
 65
   257
 75
     1
175
     1
 42
1.0
 92
        8
 66
     7
 43
1.0
 76
     1
 77
     6
 78
     2
 67
     7
 79
     5
170
     0
171
     0
290
     0
174
     0
 93
        1
 44
0.0
173
     0
291
     1
 45
0.0
1001
ACAD
1000
AcDbSavedByObjectVersion
1070
     0
  0
VISUALSTYLE
  5
7CA
102
{ACAD_XDICTIONARY
360
831
102
}
102
{ACAD_REACTORS
330
7BB
102
}
330
7BB
100
AcDbVisualStyle
  2
Facepattern
 70
    15
 71
     2
 72
     2
 73
     0
 90
        0
 40
-0.6
 41
-30.0
 62
     5
 63
     7
 74
     1
 91
        4
 64
     7
 65
   257
 75
     1
175
     1
 42
1.0
 92
        8
 66
     7
 43
1.0
 76
     1
 77
     6
 78
     2
 67
     7
 79
     5
170
     0
171
     0
290
     0
174
     0
 93
        1
 44
0.0
173
     0
291
     1
 45
0.0
1001
ACAD
1000
AcDbSavedByObjectVersion
1070
     0
  0
VISUALSTYLE
  5
7BC
102
{ACAD_XDICTIONARY
360
815
102
}
102
{ACAD_REACTORS
330
7BB
102
}
330
7BB
100
AcDbVisualStyle
  2
Flat
 70
     0
 71
     2
 72
     1
 73
     1
 90
        2
 40
-0.6
 41
30.0
 62
     5
 63
     7
 74
     0
 91
        0
 64
     7
 65
   257
 75
     1
175
     1
 42
1.0
 92
        8
 66
     7
 43
1.0
 76
     1
 77
     6
 78
     2
 67
     7
 79
     5
170
     0
171
     0
290
     0
174
     0
 93
       13
 44
0.0
173
     0
291
     1
 45
0.0
1001
ACAD
1000
AcDbSavedByObjectVersion
1070
     0
  0
VISUALSTYLE
  5
7BD
102
{ACAD_XDICTIONARY
360
817
102
}
102
{ACAD_REACTORS
330
7BB
102
}
330
7BB
100
AcDbVisualStyle
  2
FlatWithEdges
 70
     1
 71
     2
 72
     1
 73
     1
 90
        2
 40
-0.6
 41
30.0
 62
     5
 63
     7
 74
     1
 91
        0
 64
     7
 65
   257
 75
     1
175
     1
 42
1.0
 92
        0
 66
   257
 43
1.0
 76
     1
 77
     6
 78
     2
 67
     7
 79
     5
170
     0
171
     0
290
     0
174
     0
 93
       13
 44
0.0
173
     0
291
     1
 45
0.0
1001
ACAD
1000
AcDbSavedByObjectVersion
1070
     0
  0
VISUALSTYLE
  5
7BE
102
{ACAD_XDICTIONARY
360
819
102
}
102
{ACAD_REACTORS
330
7BB
102
}
330
7BB
100
AcDbVisualStyle
  2
Gouraud
 70
     2
 71
     2
 72
     2
 73
     1
 90
        2
 40
-0.6
 41
30.0
 62
     5
 63
     7
 74
     0
 91
        0
 64
     7
 65
   257
 75
     1
175
     1
 42
1.0
 92
        0
 66
     7
 43
1.0
 76
     1
 77
     6
 78
     2
 67
     7
 79
     5
170
     0
171
     0
290
     0
174
     0
 93
       13
 44
0.0
173
     0
291
     1
 45
0.0
1001
ACAD
1000
AcDbSavedByObjectVersion
1070
     0
  0
VISUALSTYLE
  5
7BF
102
{ACAD_XDICTIONARY
360
81B
102
}
102
{ACAD_REACTORS
330
7BB
102
}
330
7BB
100
AcDbVisualStyle
  2
GouraudWithEdges
 70
     3
 71
     2
 72
     2
 73
     1
 90
        2
 40
-0.6
 41
30.0
 62
     5
 63
     7
 74
     1
 91
        0
 64
     7
 65
   257
 75
     1
175
     1
 42
1.0
 92
        0
 66
   257
 43
1.0
 76
     1
 77
     6
 78
     2
 67
     7
 79
     5
170
     0
171
     0
290
     0
174
     0
 93
       13
 44
0.0
173
     0
291
     1
 45
0.0
1001
ACAD
1000
AcDbSavedByObjectVersion
1070
     0
  0
VISUALSTYLE
  5
7C3
102
{ACAD_XDICTIONARY
360
823
102
}
102
{ACAD_REACTORS
330
7BB
102
}
330
7BB
100
AcDbVisualStyle
  2
Hidden
 70
     6
 71
     1
 72
     2
 73
     2
 90
        0
 40
-0.6
 41
-30.0
 62
     5
 63
     7
 74
     2
 91
        2
 64
     7
 65
   257
 75
     2
175
     1
 42
40.0
 92
        0
 66
   257
 43
1.0
 76
     1
 77
     6
 78
     2
 67
     7
 79
     3
170
     0
171
     0
290
     0
174
     0
 93
        1
 44
0.0
173
     0
291
     0
 45
0.0
1001
ACAD
1000
AcDbSavedByObjectVersion
1070
     0
  0
VISUALSTYLE
  5
7D1
102
{ACAD_XDICTIONARY
360
83F
102
}
102
{ACAD_REACTORS
330
7BB
102
}
330
7BB
100
AcDbVisualStyle
  2
JitterOff
 70
    20
 71
     2
 72
     2
 73
     0
 90
        0
 40
-0.6
 41
-30.0
 62
     5
 63
     7
 74
     1
 91
        4
 64
     7
 65
   257
 75
     1
175
     1
 42
1.0
 92
       10
 66
     7
 43
1.0
 76
     1
 77
     6
 78
     2
 67
     7
 79
     5
170
     0
171
     0
290
     0
174
     0
 93
        1
 44
0.0
173
     0
291
     1
 45
0.0
1001
ACAD
1000
AcDbSavedByObjectVersion
1070
     0
  0
VISUALSTYLE
  5
7C9
102
{ACAD_XDICTIONARY
360
82F
102
}
102
{ACAD_REACTORS
330
7BB
102
}
330
7BB
100
AcDbVisualStyle
  2
Linepattern
 70
    14
 71
     2
 72
     2
 73
     0
 90
        0
 40
-0.6
 41
-30.0
 62
     5
 63
     7
 74
     1
 91
        4
 64
     7
 65
   257
 75
     7
175
     7
 42
1.0
 92
        8
 66
     7
 43
1.0
 76
     1
 77
     6
 78
     2
 67
     7
 79
     5
170
     0
171
     0
290
     0
174
     0
 93
        1
 44
0.0
173
     0
291
     1
 45
0.0
1001
ACAD
1000
AcDbSavedByObjectVersion
1070
     0
  0
VISUALSTYLE
  5
7D2
102
{ACAD_XDICTIONARY
360
841
102
}
102
{ACAD_REACTORS
330
7BB
102
}
330
7BB
100
AcDbVisualStyle
  2
OverhangOff
 70
    21
 71
     2
 72
     2
 73
     0
 90
        0
 40
-0.6
 41
-30.0
 62
     5
 63
     7
 74
     1
 91
        4
 64
     7
 65
   257
 75
     1
175
     1
 42
1.0
 92
        9
 66
     7
 43
1.0
 76
     1
 77
     6
 78
     2
 67
     7
 79
     5
170
     0
171
     0
290
     0
174
     0
 93
        1
 44
0.0
173
     0
291
     1
 45
0.0
1001
ACAD
1000
AcDbSavedByObjectVersion
1070
     0
  0
VISUALSTYLE
  5
7C5
102
{ACAD_XDICTIONARY
360
827
102
}
102
{ACAD_REACTORS
330
7BB
102
}
330
7BB
100
AcDbVisualStyle
  2
Realistic
 70
     8
 71
     2
 72
     3
 73
     0
 90
        2
 40
-0.6
 41
30.0
 62
     5
 63
     7
 74
     0
 91
        0
 64
     7
 65
   257
 75
     1
175
     1
 42
1.0
 92
        8
 66
   257
 43
1.0
 76
     1
 77
     6
 78
     2
 67
     7
 79
     3
170
     0
171
     0
290
     0
174
     0
 93
       13
 44
0.0
173
     0
291
     0
 45
0.0
1001
ACAD
1000
AcDbSavedByObjectVersion
1070
     0
  0
VISUALSTYLE
  5
7D0
102
{ACAD_XDICTIONARY
360
83D
102
}
102
{ACAD_REACTORS
330
7BB
102
}
330
7BB
100
AcDbVisualStyle
  2
Shaded
 70
    27
 71
     2
 72
     2
 73
     1
 90
        2
 40
-0.6
 41
30.0
 62
     5
 63
     7
 74
     0
 91
        4
 64
     7
 65
   257
 75
     1
175
     1
 42
1.0
 92
        8
 66
   257
 43
1.0
 76
     1
 77
     6
 78
     2
 67
     8
 79
     3
170
     0
171
     0
290
     0
174
     0
 93
        5
 44
0.0
173
     0
291
     0
 45
0.0
1001
ACAD
1000
AcDbSavedByObjectVersion
1070
     0
  0
VISUALSTYLE
  5
7CF
102
{ACAD_XDICTIONARY
360
83B
102
}
102
{ACAD_REACTORS
330
7BB
102
}
330
7BB
100
AcDbVisualStyle
  2
Shaded with edges
 70
    26
 71
     2
 72
     2
 73
     1
 90
        2
 40
-0.6
 41
30.0
 62
     5
 63
     7
 74
     1
 91
       10
 64
     7
 65
   257
 75
     2
175
     1
 42
1.0
 92
        8
 66
   257
 43
1.0
 76
     1
 77
     6
 78
     2
 67
     7
 79
     3
170
     0
171
     0
290
     0
174
     0
 93
        5
 44
0.0
173
     0
291
     0
 45
0.0
1001
ACAD
1000
AcDbSavedByObjectVersion
1070
     0
  0
VISUALSTYLE
  5
7CC
102
{ACAD_XDICTIONARY
360
835
102
}
102
{ACAD_REACTORS
330
7BB
102
}
330
7BB
100
AcDbVisualStyle
  2
Shades of Gray
 70
    23
 71
     2
 72
     2
 73
     3
 90
        0
 40
-0.6
 41
-30.0
 62
     5
 63
     7
 74
     2
 91
        2
 64
     7
 65
     7
 75
     1
175
     1
 42
40.0
 92
        8
 66
     7
 43
1.0
 76
     1
 77
     6
 78
     2
 67
     7
 79
     3
170
     0
171
     0
290
     0
174
     0
 93
        1
 44
0.0
173
     0
291
     0
 45
0.0
1001
ACAD
1000
AcDbSavedByObjectVersion
1070
     0
  0
VISUALSTYLE
  5
7CD
102
{ACAD_XDICTIONARY
360
837
102
}
102
{ACAD_REACTORS
330
7BB
102
}
330
7BB
100
AcDbVisualStyle
  2
Sketchy
 70
    24
 71
     1
 72
     2
 73
     2
 90
        0
 40
-0.6
 41
-30.0
 62
     5
 63
     7
 74
     2
 91
        2
 64
     7
 65
     7
 75
     1
175
     1
 42
40.0
 92
       11
 66
     7
 43
1.0
 76
     1
 77
     6
 78
     2
 67
     7
 79
     6
170
     0
171
     0
290
     0
174
     0
 93
        1
 44
0.0
173
     0
291
     0
 45
0.0
1001
ACAD
1000
AcDbSavedByObjectVersion
1070
     0
  0
VISUALSTYLE
  5
7C8
102
{ACAD_XDICTIONARY
360
82D
102
}
102
{ACAD_REACTORS
330
7BB
102
}
330
7BB
100
AcDbVisualStyle
  2
Thicken
 70
    13
 71
     2
 72
     2
 73
     0
 90
        0
 40
-0.6
 41
-30.0
 62
     5
 63
     7
 74
     1
 91
        4
 64
     7
 65
   257
 75
     1
175
     1
 42
1.0
 92
       12
 66
     7
 43
1.0
 76
     1
 77
     6
 78
     2
 67
     7
 79
     5
170
     0
171
     0
290
     0
174
     0
 93
        1
 44
0.0
173
     0
291
     1
 45
0.0
1001
ACAD
1000
AcDbSavedByObjectVersion
1070
     0
  0
VISUALSTYLE
  5
7C2
102
{ACAD_XDICTIONARY
360
821
102
}
102
{ACAD_REACTORS
330
7BB
102
}
330
7BB
100
AcDbVisualStyle
  2
Wireframe
 70
     5
 71
     0
 72
     2
 73
     0
 90
        0
 40
-0.6
 41
-30.0
 62
     5
 63
     7
 74
     1
 91
        4
 64
     7
 65
   257
 75
     1
175
     1
 42
1.0
 92
        0
 66
   257
 43
1.0
 76
     1
 77
     6
 78
     2
 67
     7
 79
     3
170
     0
171
     0
290
     0
174
     0
 93
        1
 44
0.0
173
     0
291
     0
 45
0.0
1001
ACAD
1000
AcDbSavedByObjectVersion
1070
     0
  0
VISUALSTYLE
  5
7CE
102
{ACAD_XDICTIONARY
360
839
102
}
102
{ACAD_REACTORS
330
7BB
102
}
330
7BB
100
AcDbVisualStyle
  2
X-Ray
 70
    25
 71
     2
 72
     2
 73
     1
 90
        1
 40
0.5
 41
-30.0
 62
     5
 63
     7
 74
     1
 91
        0
 64
     7
 65
   257
 75
     1
175
     1
 42
1.0
 92
        8
 66
     7
 43
1.0
 76
     1
 77
     6
 78
     2
 67
     7
 79
     3
170
     0
171
     0
290
     0
174
     0
 93
       13
 44
0.0
173
     0
291
     0
 45
0.0
1001
ACAD
1000
AcDbSavedByObjectVersion
1070
     0
  0
DICTIONARYVAR
  5
808
102
{ACAD_REACTORS
330
803
102
}
330
803
100
DictionaryVariables
280
     0
  1
1:1
  0
DICTIONARYVAR
  5
805
102
{ACAD_REACTORS
330
803
102
}
330
803
100
DictionaryVariables
280
     0
  1
STANDARD
  0
DICTIONARYVAR
  5
804
102
{ACAD_REACTORS
330
803
102
}
330
803
100
DictionaryVariables
280
     0
  1
STANDARD
  0
DICTIONARYVAR
  5
806
102
{ACAD_REACTORS
330
803
102
}
330
803
100
DictionaryVariables
280
     0
  1
Imperial24
  0
DICTIONARYVAR
  5
807
102
{ACAD_REACTORS
330
803
102
}
330
803
100
DictionaryVariables
280
     0
  1
Imperial24
  0
DICTIONARYVAR
  5
80B
102
{ACAD_REACTORS
330
803
102
}
330
803
100
DictionaryVariables
280
     0
  1
1
  0
DICTIONARYVAR
  5
80A
102
{ACAD_REACTORS
330
803
102
}
330
803
100
DictionaryVariables
280
     0
  1
0
  0
DICTIONARYVAR
  5
809
102
{ACAD_REACTORS
330
803
102
}
330
803
100
DictionaryVariables
280
     0
  1
127
  0
DICTIONARYVAR
  5
80C
102
{ACAD_REACTORS
330
803
102
}
330
803
100
DictionaryVariables
280
     0
  1
2
  0
DICTIONARY
  5
849
330
7EE
100
AcDbDictionary
280
     1
281
     1
  3
ACAD_XREC_ROUNDTRIP
360
84A
  0
DICTIONARY
  5
84B
330
7EF
100
AcDbDictionary
280
     1
281
     1
  3
ACAD_XREC_ROUNDTRIP
360
84C
  0
DICTIONARY
  5
84D
330
7F0
100
AcDbDictionary
280
     1
281
     1
  3
ACAD_XREC_ROUNDTRIP
360
84E
  0
DICTIONARY
  5
7AC
330
7AB
100
AcDbDictionary
280
     1
281
     1
  3
ACAD_XREC_ROUNDTRIP
360
813
  3
BUMPTILE
360
7AE
  3
DIFFUSETILE
360
7AD
  3
OPACITYTILE
360
7B1
  3
REFLECTIONTILE
360
7B0
  3
REFRACTIONTILE
360
7B2
  3
SPECULARTILE
360
7AF
  0
DICTIONARY
  5
7A4
330
7A3
100
AcDbDictionary
280
     1
281
     1
  3
ACAD_XREC_ROUNDTRIP
360
812
  3
BUMPTILE
360
7A6
  3
DIFFUSETILE
360
7A5
  3
OPACITYTILE
360
7A9
  3
REFLECTIONTILE
360
7A8
  3
REFRACTIONTILE
360
7AA
  3
SPECULARTILE
360
7A7
  0
DICTIONARY
  5
7B4
330
7B3
100
AcDbDictionary
280
     1
281
     1
  3
ACAD_XREC_ROUNDTRIP
360
814
  3
BUMPTILE
360
7B6
  3
DIFFUSETILE
360
7B5
  3
OPACITYTILE
360
7B9
  3
REFLECTIONTILE
360
7B8
  3
REFRACTIONTILE
360
7BA
  3
SPECULARTILE
360
7B7
  0
DICTIONARY
  5
847
330
7EC
100
AcDbDictionary
280
     1
281
     1
  3
ACAD_XREC_ROUNDTRIP
360
848
  0
DICTIONARY
  5
80E
330
7D6
100
AcDbDictionary
280
     1
281
     1
  3
ACAD_ROUNDTRIP_2008_TABLESTYLE_CELLSTYLEMAP
360
80F
  3
ACAD_XREC_ROUNDTRIP
360
845
  0
DICTIONARY
  5
81F
330
7C1
100
AcDbDictionary
280
     1
281
     1
  3
ACAD_XREC_ROUNDTRIP
360
820
  0
DICTIONARY
  5
81D
330
7C0
100
AcDbDictionary
280
     1
281
     1
  3
ACAD_XREC_ROUNDTRIP
360
81E
  0
DICTIONARY
  5
82B
330
7C7
100
AcDbDictionary
280
     1
281
     1
  3
ACAD_XREC_ROUNDTRIP
360
82C
  0
DICTIONARY
  5
833
330
7CB
100
AcDbDictionary
280
     1
281
     1
  3
ACAD_XREC_ROUNDTRIP
360
834
  0
DICTIONARY
  5
825
330
7C4
100
AcDbDictionary
280
     1
281
     1
  3
ACAD_XREC_ROUNDTRIP
360
826
  0
DICTIONARY
  5
829
330
7C6
100
AcDbDictionary
280
     1
281
     1
  3
ACAD_XREC_ROUNDTRIP
360
82A
  0
DICTIONARY
  5
843
330
7D3
100
AcDbDictionary
280
     1
281
     1
  3
ACAD_XREC_ROUNDTRIP
360
844
  0
DICTIONARY
  5
831
330
7CA
100
AcDbDictionary
280
     1
281
     1
  3
ACAD_XREC_ROUNDTRIP
360
832
  0
DICTIONARY
  5
815
330
7BC
100
AcDbDictionary
280
     1
281
     1
  3
ACAD_XREC_ROUNDTRIP
360
816
  0
DICTIONARY
  5
817
330
7BD
100
AcDbDictionary
280
     1
281
     1
  3
ACAD_XREC_ROUNDTRIP
360
818
  0
DICTIONARY
  5
819
330
7BE
100
AcDbDictionary
280
     1
281
     1
  3
ACAD_XREC_ROUNDTRIP
360
81A
  0
DICTIONARY
  5
81B
330
7BF
100
AcDbDictionary
280
     1
281
     1
  3
ACAD_XREC_ROUNDTRIP
360
81C
  0
DICTIONARY
  5
823
330
7C3
100
AcDbDictionary
280
     1
281
     1
  3
ACAD_XREC_ROUNDTRIP
360
824
  0
DICTIONARY
  5
83F
330
7D1
100
AcDbDictionary
280
     1
281
     1
  3
ACAD_XREC_ROUNDTRIP
360
840
  0
DICTIONARY
  5
82F
330
7C9
100
AcDbDictionary
280
     1
281
     1
  3
ACAD_XREC_ROUNDTRIP
360
830
  0
DICTIONARY
  5
841
330
7D2
100
AcDbDictionary
280
     1
281
     1
  3
ACAD_XREC_ROUNDTRIP
360
842
  0
DICTIONARY
  5
827
330
7C5
100
AcDbDictionary
280
     1
281
     1
  3
ACAD_XREC_ROUNDTRIP
360
828
  0
DICTIONARY
  5
83D
330
7D0
100
AcDbDictionary
280
     1
281
     1
  3
ACAD_XREC_ROUNDTRIP
360
83E
  0
DICTIONARY
  5
83B
330
7CF
100
AcDbDictionary
280
     1
281
     1
  3
ACAD_XREC_ROUNDTRIP
360
83C
  0
DICTIONARY
  5
835
330
7CC
100
AcDbDictionary
280
     1
281
     1
  3
ACAD_XREC_ROUNDTRIP
360
836
  0
DICTIONARY
  5
837
330
7CD
100
AcDbDictionary
280
     1
281
     1
  3
ACAD_XREC_ROUNDTRIP
360
838
  0
DICTIONARY
  5
82D
330
7C8
100
AcDbDictionary
280
     1
281
     1
  3
ACAD_XREC_ROUNDTRIP
360
82E
  0
DICTIONARY
  5
821
330
7C2
100
AcDbDictionary
280
     1
281
     1
  3
ACAD_XREC_ROUNDTRIP
360
822
  0
DICTIONARY
  5
839
330
7CE
100
AcDbDictionary
280
     1
281
     1
  3
ACAD_XREC_ROUNDTRIP
360
83A
  0
XRECORD
  5
84A
102
{ACAD_REACTORS
330
849
102
}
330
849
100
AcDbXrecord
280
     1
102
DISPLAYNAME
  1
Imperial24
102
FLAGS
 90
        0
  0
XRECORD
  5
84C
102
{ACAD_REACTORS
330
84B
102
}
330
84B
100
AcDbXrecord
280
     1
102
SHADEPLOT
 70
     0
102
SHADEPLOTRESLEVEL
 70
     2
102
SHADEPLOTCUSTOMDPI
 70
   300
  0
XRECORD
  5
84E
102
{ACAD_REACTORS
330
84D
102
}
330
84D
100
AcDbXrecord
280
     1
102
SHADEPLOT
 70
     0
102
SHADEPLOTRESLEVEL
 70
     2
102
SHADEPLOTCUSTOMDPI
 70
   300
  0
XRECORD
  5
813
102
{ACAD_REACTORS
330
7AC
102
}
330
7AC
100
AcDbXrecord
280
     1
102
MATERIAL
148
0.0
149
0.0
149
0.0
 93
        0
 94
      127
282
     0
 72
     0
 77
     0
171
     0
175
     0
179
     0
273
     0
  0
XRECORD
  5
7AE
102
{ACAD_REACTORS
330
7AC
102
}
330
7AC
100
AcDbXrecord
280
     1
270
     1
271
     1
  0
XRECORD
  5
7AD
102
{ACAD_REACTORS
330
7AC
102
}
330
7AC
100
AcDbXrecord
280
     1
270
     1
271
     1
  0
XRECORD
  5
7B1
102
{ACAD_REACTORS
330
7AC
102
}
330
7AC
100
AcDbXrecord
280
     1
270
     1
271
     1
  0
XRECORD
  5
7B0
102
{ACAD_REACTORS
330
7AC
102
}
330
7AC
100
AcDbXrecord
280
     1
270
     1
271
     1
  0
XRECORD
  5
7B2
102
{ACAD_REACTORS
330
7AC
102
}
330
7AC
100
AcDbXrecord
280
     1
270
     1
271
     1
  0
XRECORD
  5
7AF
102
{ACAD_REACTORS
330
7AC
102
}
330
7AC
100
AcDbXrecord
280
     1
270
     1
271
     1
  0
XRECORD
  5
812
102
{ACAD_REACTORS
330
7A4
102
}
330
7A4
100
AcDbXrecord
280
     1
102
MATERIAL
148
0.0
149
0.0
149
0.0
 93
        0
 94
      127
282
     0
 72
     0
 77
     0
171
     0
175
     0
179
     0
273
     0
  0
XRECORD
  5
7A6
102
{ACAD_REACTORS
330
7A4
102
}
330
7A4
100
AcDbXrecord
280
     1
270
     1
271
     1
  0
XRECORD
  5
7A5
102
{ACAD_REACTORS
330
7A4
102
}
330
7A4
100
AcDbXrecord
280
     1
270
     1
271
     1
  0
XRECORD
  5
7A9
102
{ACAD_REACTORS
330
7A4
102
}
330
7A4
100
AcDbXrecord
280
     1
270
     1
271
     1
  0
XRECORD
  5
7A8
102
{ACAD_REACTORS
330
7A4
102
}
330
7A4
100
AcDbXrecord
280
     1
270
     1
271
     1
  0
XRECORD
  5
7AA
102
{ACAD_REACTORS
330
7A4
102
}
330
7A4
100
AcDbXrecord
280
     1
270
     1
271
     1
  0
XRECORD
  5
7A7
102
{ACAD_REACTORS
330
7A4
102
}
330
7A4
100
AcDbXrecord
280
     1
270
     1
271
     1
  0
XRECORD
  5
814
102
{ACAD_REACTORS
330
7B4
102
}
330
7B4
100
AcDbXrecord
280
     1
102
MATERIAL
148
0.0
149
0.0
149
0.0
 93
        0
 94
      127
282
     0
 72
     0
 77
     0
171
     0
175
     0
179
     0
273
     0
  0
XRECORD
  5
7B6
102
{ACAD_REACTORS
330
7B4
102
}
330
7B4
100
AcDbXrecord
280
     1
270
     1
271
     1
  0
XRECORD
  5
7B5
102
{ACAD_REACTORS
330
7B4
102
}
330
7B4
100
AcDbXrecord
280
     1
270
     1
271
     1
  0
XRECORD
  5
7B9
102
{ACAD_REACTORS
330
7B4
102
}
330
7B4
100
AcDbXrecord
280
     1
270
     1
271
     1
  0
XRECORD
  5
7B8
102
{ACAD_REACTORS
330
7B4
102
}
330
7B4
100
AcDbXrecord
280
     1
270
     1
271
     1
  0
XRECORD
  5
7BA
102
{ACAD_REACTORS
330
7B4
102
}
330
7B4
100
AcDbXrecord
280
     1
270
     1
271
     1
  0
XRECORD
  5
7B7
102
{ACAD_REACTORS
330
7B4
102
}
330
7B4
100
AcDbXrecord
280
     1
270
     1
271
     1
  0
XRECORD
  5
848
102
{ACAD_REACTORS
330
847
102
}
330
847
100
AcDbXrecord
280
     1
102
DISPLAYNAME
  1
Imperial24
102
FLAGS
 90
        0
  0
CELLSTYLEMAP
  5
80F
102
{ACAD_REACTORS
330
80E
102
}
330
80E
100
AcDbCellStyleMap
 90
        3
300
CELLSTYLE
  1
TABLEFORMAT_BEGIN
 90
        5
170
     1
 91
        0
 92
    32768
 62
   257
 93
        1
300
CONTENTFORMAT
  1
CONTENTFORMAT_BEGIN
 90
        0
 91
        0
 92
      512
 93
        0
300

 40
0.0
140
1.0
 94
        5
 62
     0
340
3D1
144
0.25
309
CONTENTFORMAT_END
171
     0
 94
        0
309
TABLEFORMAT_END
  1
CELLSTYLE_BEGIN
 90
        1
 91
        1
300
_TITLE
309
CELLSTYLE_END
300
CELLSTYLE
  1
TABLEFORMAT_BEGIN
 90
        5
170
     1
 91
        0
 92
        0
 62
   257
 93
        1
300
CONTENTFORMAT
  1
CONTENTFORMAT_BEGIN
 90
        0
 91
        0
 92
      512
 93
        0
300

 40
0.0
140
1.0
 94
        5
 62
     0
340
3D1
144
0.18
309
CONTENTFORMAT_END
171
     0
 94
        0
309
TABLEFORMAT_END
  1
CELLSTYLE_BEGIN
 90
        2
 91
        1
300
_HEADER
309
CELLSTYLE_END
300
CELLSTYLE
  1
TABLEFORMAT_BEGIN
 90
        5
170
     1
 91
        0
 92
        0
 62
   257
 93
        1
300
CONTENTFORMAT
  1
CONTENTFORMAT_BEGIN
 90
        0
 91
        0
 92
      512
 93
        0
300

 40
0.0
140
1.0
 94
        2
 62
     0
340
3D1
144
0.18
309
CONTENTFORMAT_END
171
     0
 94
        0
309
TABLEFORMAT_END
  1
CELLSTYLE_BEGIN
 90
        3
 91
        2
300
_DATA
309
CELLSTYLE_END
  0
XRECORD
  5
845
102
{ACAD_REACTORS
330
80E
102
}
330
80E
100
AcDbXrecord
280
     1
102
ACAD_ROUNDTRIP_PRE2007_TABLESTYLE
 90
      512
 91
        0
  1

 92
      512
 93
        0
  2

 94
      512
 95
        0
  3

  0
XRECORD
  5
820
102
{ACAD_REACTORS
330
81F
102
}
330
81F
100
AcDbXrecord
280
     1
102
RTVSPost2010Prop28
280
     1
102
RTVSPost2010PropOp28
 70
     1
102
RTVSPost2010Prop29
280
     1
102
RTVSPost2010PropOp29
 70
     1
102
RTVSPost2010Prop30
280
     0
102
RTVSPost2010PropOp30
 70
     1
102
RTVSPost2010Prop31
280
     0
102
RTVSPost2010PropOp31
 70
     1
102
RTVSPost2010Prop32
280
     0
102
RTVSPost2010PropOp32
 70
     1
102
RTVSPost2010Prop33
280
     0
102
RTVSPost2010PropOp33
 70
     1
102
RTVSPost2010Prop34
280
     0
102
RTVSPost2010PropOp34
 70
     1
102
RTVSPost2010Prop35
280
     0
102
RTVSPost2010PropOp35
 70
     1
102
RTVSPost2010Prop36
280
     0
102
RTVSPost2010PropOp36
 70
     1
102
RTVSPost2010Prop37
 90
       50
102
RTVSPost2010PropOp37
 70
     1
102
RTVSPost2010Prop38
140
0.0
102
RTVSPost2010PropOp38
 70
     1
102
RTVSPost2010Prop39
140
1.0
102
RTVSPost2010PropOp39
 70
     1
102
RTVSPost2010Prop40
 90
        0
102
RTVSPost2010PropOp40
 70
     1
102
RTVSPost2010Prop41ColorIndex
 90
       18
102
RTVSPost2010Prop41ColorRGB
 90
        0
102
RTVSPost2010PropOp41
 70
     1
102
RTVSPost2010Prop42
 90
       50
102
RTVSPost2010PropOp42
 70
     1
102
RTVSPost2010Prop43
 90
        3
102
RTVSPost2010PropOp43
 70
     1
102
RTVSPost2010Prop44ColorIndex
 90
        5
102
RTVSPost2010Prop44ColorRGB
 90
      255
102
RTVSPost2010PropOp44
 70
     1
102
RTVSPost2010Prop45
280
     0
102
RTVSPost2010PropOp45
 70
     1
102
RTVSPost2010Prop46
 90
       50
102
RTVSPost2010PropOp46
 70
     1
102
RTVSPost2010Prop47
 90
       50
102
RTVSPost2010PropOp47
 70
     1
102
RTVSPost2010Prop48
 90
       50
102
RTVSPost2010PropOp48
 70
     1
102
RTVSPost2010Prop49
280
     0
102
RTVSPost2010PropOp49
 70
     1
102
RTVSPost2010Prop50
 90
       50
102
RTVSPost2010PropOp50
 70
     1
102
RTVSPost2010Prop51ColorIndex
 90
      256
102
RTVSPost2010Prop51ColorRGB
 90
-16777216
102
RTVSPost2010PropOp51
 70
     0
102
RTVSPost2010Prop52
140
1.0
102
RTVSPost2010PropOp52
 70
     0
102
RTVSPost2010Prop53
 90
        2
102
RTVSPost2010PropOp53
 70
     1
102
RTVSPost2010Prop54
  1
strokes_ogs.tif
102
RTVSPost2010PropOp54
 70
     1
102
RTVSPost2010Prop55
280
     0
102
RTVSPost2010PropOp55
 70
     1
102
RTVSPost2010Prop56
140
1.0
102
RTVSPost2010PropOp56
 70
     1
102
RTVSPost2010Prop57
140
1.0
102
RTVSPost2010PropOp57
 70
     1
102
RTVSPropertyOp0
 70
     1
102
RTVSPropertyOp1
 70
     1
102
RTVSPropertyOp2
 70
     1
102
RTVSPropertyOp3
 70
     1
102
RTVSPropertyOp4
 70
     1
102
RTVSPropertyOp5
 70
     1
102
RTVSPropertyOp6
 70
     1
102
RTVSPropertyOp7
 70
     1
102
RTVSPropertyOp8
 70
     1
102
RTVSPropertyOp9
 70
     1
102
RTVSPropertyOp10
 70
     1
102
RTVSPropertyOp11
 70
     1
102
RTVSPropertyOp12
 70
     1
102
RTVSPropertyOp13
 70
     1
102
RTVSPropertyOp14
 70
     1
102
RTVSPropertyOp15
 70
     1
102
RTVSPropertyOp16
 70
     1
102
RTVSPropertyOp17
 70
     1
102
RTVSPropertyOp18
 70
     1
102
RTVSPropertyOp19
 70
     1
102
RTVSPropertyOp20
 70
     1
102
RTVSPropertyOp21
 70
     1
102
RTVSPropertyOp22
 70
     1
102
RTVSPropertyOp23
 70
     1
102
RTVSPropertyOp24
 70
     1
102
RTVSPropertyOp25
 70
     1
102
RTVSPropertyOp26
 70
     1
102
RTVSPropertyOp27
 70
     1
102
RTVSPropertyOp28
 70
     1
102
RTVSPropertyOp29
 70
     1
102
RTVSPropertyOp30
 70
     1
102
RTVSPropertyOp31
 70
     1
102
RTVSPropertyOp32
 70
     1
102
RTVSPropertyOp33
 70
     1
102
RTVSPropertyOp34
 70
     1
102
RTVSPropertyOp35
 70
     1
102
RTVSPropertyOp36
 70
     1
102
RTVSPropertyOp37
 70
     1
102
RTVSPropertyOp38
 70
     1
102
RTVSPropertyOp39
 70
     1
102
RTVSPropertyOp40
 70
     1
102
RTVSPropertyOp41
 70
     1
102
RTVSPropertyOp42
 70
     1
102
RTVSPropertyOp43
 70
     1
102
RTVSPropertyOp44
 70
     1
102
RTVSPropertyOp45
 70
     1
102
RTVSPropertyOp46
 70
     1
102
RTVSPropertyOp47
 70
     1
102
RTVSPropertyOp48
 70
     1
102
RTVSPropertyOp49
 70
     1
102
RTVSPropertyOp50
 70
     1
102
RTVSPropertyOp51
 70
     0
102
RTVSPropertyOp52
 70
     0
102
RTVSPropertyOp53
 70
     1
102
RTVSPropertyOp54
 70
     1
102
RTVSPropertyOp55
 70
     1
102
RTVSPropertyOp56
 70
     1
102
RTVSPropertyOp57
 70
     1
102
RTVSPropertyOp58
 70
     1
102
RTVSPropertyOp59
 70
     1
102
RTVSPropertyOp60
 70
     1
102
RTVSPropertyOp61
 70
     1
102
RTVSPropertyOp62
 70
     1
  0
XRECORD
  5
81E
102
{ACAD_REACTORS
330
81D
102
}
330
81D
100
AcDbXrecord
280
     1
102
RTVSPost2010Prop28
280
     0
102
RTVSPost2010PropOp28
 70
     1
102
RTVSPost2010Prop29
280
     1
102
RTVSPost2010PropOp29
 70
     1
102
RTVSPost2010Prop30
280
     1
102
RTVSPost2010PropOp30
 70
     1
102
RTVSPost2010Prop31
280
     0
102
RTVSPost2010PropOp31
 70
     1
102
RTVSPost2010Prop32
280
     0
102
RTVSPost2010PropOp32
 70
     1
102
RTVSPost2010Prop33
280
     0
102
RTVSPost2010PropOp33
 70
     1
102
RTVSPost2010Prop34
280
     0
102
RTVSPost2010PropOp34
 70
     1
102
RTVSPost2010Prop35
280
     0
102
RTVSPost2010PropOp35
 70
     1
102
RTVSPost2010Prop36
280
     0
102
RTVSPost2010PropOp36
 70
     1
102
RTVSPost2010Prop37
 90
       50
102
RTVSPost2010PropOp37
 70
     1
102
RTVSPost2010Prop38
140
0.0
102
RTVSPost2010PropOp38
 70
     1
102
RTVSPost2010Prop39
140
1.0
102
RTVSPost2010PropOp39
 70
     1
102
RTVSPost2010Prop40
 90
        0
102
RTVSPost2010PropOp40
 70
     1
102
RTVSPost2010Prop41ColorIndex
 90
       18
102
RTVSPost2010Prop41ColorRGB
 90
        0
102
RTVSPost2010PropOp41
 70
     1
102
RTVSPost2010Prop42
 90
       50
102
RTVSPost2010PropOp42
 70
     1
102
RTVSPost2010Prop43
 90
        3
102
RTVSPost2010PropOp43
 70
     1
102
RTVSPost2010Prop44ColorIndex
 90
        5
102
RTVSPost2010Prop44ColorRGB
 90
      255
102
RTVSPost2010PropOp44
 70
     1
102
RTVSPost2010Prop45
280
     0
102
RTVSPost2010PropOp45
 70
     1
102
RTVSPost2010Prop46
 90
       50
102
RTVSPost2010PropOp46
 70
     1
102
RTVSPost2010Prop47
 90
       50
102
RTVSPost2010PropOp47
 70
     1
102
RTVSPost2010Prop48
 90
       50
102
RTVSPost2010PropOp48
 70
     1
102
RTVSPost2010Prop49
280
     0
102
RTVSPost2010PropOp49
 70
     1
102
RTVSPost2010Prop50
 90
       50
102
RTVSPost2010PropOp50
 70
     1
102
RTVSPost2010Prop51ColorIndex
 90
      256
102
RTVSPost2010Prop51ColorRGB
 90
-16777216
102
RTVSPost2010PropOp51
 70
     0
102
RTVSPost2010Prop52
140
1.0
102
RTVSPost2010PropOp52
 70
     0
102
RTVSPost2010Prop53
 90
        2
102
RTVSPost2010PropOp53
 70
     1
102
RTVSPost2010Prop54
  1
strokes_ogs.tif
102
RTVSPost2010PropOp54
 70
     1
102
RTVSPost2010Prop55
280
     0
102
RTVSPost2010PropOp55
 70
     1
102
RTVSPost2010Prop56
140
1.0
102
RTVSPost2010PropOp56
 70
     1
102
RTVSPost2010Prop57
140
1.0
102
RTVSPost2010PropOp57
 70
     1
102
RTVSPropertyOp0
 70
     1
102
RTVSPropertyOp1
 70
     1
102
RTVSPropertyOp2
 70
     1
102
RTVSPropertyOp3
 70
     1
102
RTVSPropertyOp4
 70
     1
102
RTVSPropertyOp5
 70
     1
102
RTVSPropertyOp6
 70
     1
102
RTVSPropertyOp7
 70
     1
102
RTVSPropertyOp8
 70
     1
102
RTVSPropertyOp9
 70
     1
102
RTVSPropertyOp10
 70
     1
102
RTVSPropertyOp11
 70
     1
102
RTVSPropertyOp12
 70
     1
102
RTVSPropertyOp13
 70
     1
102
RTVSPropertyOp14
 70
     1
102
RTVSPropertyOp15
 70
     1
102
RTVSPropertyOp16
 70
     1
102
RTVSPropertyOp17
 70
     1
102
RTVSPropertyOp18
 70
     1
102
RTVSPropertyOp19
 70
     1
102
RTVSPropertyOp20
 70
     1
102
RTVSPropertyOp21
 70
     1
102
RTVSPropertyOp22
 70
     1
102
RTVSPropertyOp23
 70
     1
102
RTVSPropertyOp24
 70
     1
102
RTVSPropertyOp25
 70
     1
102
RTVSPropertyOp26
 70
     1
102
RTVSPropertyOp27
 70
     1
102
RTVSPropertyOp28
 70
     1
102
RTVSPropertyOp29
 70
     1
102
RTVSPropertyOp30
 70
     1
102
RTVSPropertyOp31
 70
     1
102
RTVSPropertyOp32
 70
     1
102
RTVSPropertyOp33
 70
     1
102
RTVSPropertyOp34
 70
     1
102
RTVSPropertyOp35
 70
     1
102
RTVSPropertyOp36
 70
     1
102
RTVSPropertyOp37
 70
     1
102
RTVSPropertyOp38
 70
     1
102
RTVSPropertyOp39
 70
     1
102
RTVSPropertyOp40
 70
     1
102
RTVSPropertyOp41
 70
     1
102
RTVSPropertyOp42
 70
     1
102
RTVSPropertyOp43
 70
     1
102
RTVSPropertyOp44
 70
     1
102
RTVSPropertyOp45
 70
     1
102
RTVSPropertyOp46
 70
     1
102
RTVSPropertyOp47
 70
     1
102
RTVSPropertyOp48
 70
     1
102
RTVSPropertyOp49
 70
     1
102
RTVSPropertyOp50
 70
     1
102
RTVSPropertyOp51
 70
     0
102
RTVSPropertyOp52
 70
     0
102
RTVSPropertyOp53
 70
     1
102
RTVSPropertyOp54
 70
     1
102
RTVSPropertyOp55
 70
     1
102
RTVSPropertyOp56
 70
     1
102
RTVSPropertyOp57
 70
     1
102
RTVSPropertyOp58
 70
     1
102
RTVSPropertyOp59
 70
     1
102
RTVSPropertyOp60
 70
     1
102
RTVSPropertyOp61
 70
     1
102
RTVSPropertyOp62
 70
     1
  0
XRECORD
  5
82C
102
{ACAD_REACTORS
330
82B
102
}
330
82B
100
AcDbXrecord
280
     1
102
RTVSPost2010Prop28
280
     0
102
RTVSPost2010PropOp28
 70
     1
102
RTVSPost2010Prop29
280
     1
102
RTVSPost2010PropOp29
 70
     1
102
RTVSPost2010Prop30
280
     1
102
RTVSPost2010PropOp30
 70
     1
102
RTVSPost2010Prop31
280
     0
102
RTVSPost2010PropOp31
 70
     1
102
RTVSPost2010Prop32
280
     0
102
RTVSPost2010PropOp32
 70
     1
102
RTVSPost2010Prop33
280
     0
102
RTVSPost2010PropOp33
 70
     1
102
RTVSPost2010Prop34
280
     0
102
RTVSPost2010PropOp34
 70
     1
102
RTVSPost2010Prop35
280
     0
102
RTVSPost2010PropOp35
 70
     1
102
RTVSPost2010Prop36
280
     0
102
RTVSPost2010PropOp36
 70
     1
102
RTVSPost2010Prop37
 90
       50
102
RTVSPost2010PropOp37
 70
     1
102
RTVSPost2010Prop38
140
0.0
102
RTVSPost2010PropOp38
 70
     1
102
RTVSPost2010Prop39
140
1.0
102
RTVSPost2010PropOp39
 70
     1
102
RTVSPost2010Prop40
 90
        0
102
RTVSPost2010PropOp40
 70
     1
102
RTVSPost2010Prop41ColorIndex
 90
       18
102
RTVSPost2010Prop41ColorRGB
 90
        0
102
RTVSPost2010PropOp41
 70
     1
102
RTVSPost2010Prop42
 90
       50
102
RTVSPost2010PropOp42
 70
     1
102
RTVSPost2010Prop43
 90
        3
102
RTVSPost2010PropOp43
 70
     1
102
RTVSPost2010Prop44ColorIndex
 90
        5
102
RTVSPost2010Prop44ColorRGB
 90
      255
102
RTVSPost2010PropOp44
 70
     1
102
RTVSPost2010Prop45
280
     0
102
RTVSPost2010PropOp45
 70
     1
102
RTVSPost2010Prop46
 90
       50
102
RTVSPost2010PropOp46
 70
     1
102
RTVSPost2010Prop47
 90
       50
102
RTVSPost2010PropOp47
 70
     1
102
RTVSPost2010Prop48
 90
       50
102
RTVSPost2010PropOp48
 70
     1
102
RTVSPost2010Prop49
280
     0
102
RTVSPost2010PropOp49
 70
     1
102
RTVSPost2010Prop50
 90
       50
102
RTVSPost2010PropOp50
 70
     1
102
RTVSPost2010Prop51ColorIndex
 90
      256
102
RTVSPost2010Prop51ColorRGB
 90
-16777216
102
RTVSPost2010PropOp51
 70
     0
102
RTVSPost2010Prop52
140
1.0
102
RTVSPost2010PropOp52
 70
     0
102
RTVSPost2010Prop53
 90
        2
102
RTVSPost2010PropOp53
 70
     1
102
RTVSPost2010Prop54
  1
strokes_ogs.tif
102
RTVSPost2010PropOp54
 70
     1
102
RTVSPost2010Prop55
280
     0
102
RTVSPost2010PropOp55
 70
     1
102
RTVSPost2010Prop56
140
1.0
102
RTVSPost2010PropOp56
 70
     1
102
RTVSPost2010Prop57
140
1.0
102
RTVSPost2010PropOp57
 70
     1
102
RTVSPropertyOp0
 70
     1
102
RTVSPropertyOp1
 70
     1
102
RTVSPropertyOp2
 70
     1
102
RTVSPropertyOp3
 70
     1
102
RTVSPropertyOp4
 70
     1
102
RTVSPropertyOp5
 70
     1
102
RTVSPropertyOp6
 70
     1
102
RTVSPropertyOp7
 70
     1
102
RTVSPropertyOp8
 70
     1
102
RTVSPropertyOp9
 70
     1
102
RTVSPropertyOp10
 70
     1
102
RTVSPropertyOp11
 70
     1
102
RTVSPropertyOp12
 70
     1
102
RTVSPropertyOp13
 70
     1
102
RTVSPropertyOp14
 70
     1
102
RTVSPropertyOp15
 70
     1
102
RTVSPropertyOp16
 70
     1
102
RTVSPropertyOp17
 70
     1
102
RTVSPropertyOp18
 70
     1
102
RTVSPropertyOp19
 70
     1
102
RTVSPropertyOp20
 70
     1
102
RTVSPropertyOp21
 70
     1
102
RTVSPropertyOp22
 70
     1
102
RTVSPropertyOp23
 70
     1
102
RTVSPropertyOp24
 70
     1
102
RTVSPropertyOp25
 70
     1
102
RTVSPropertyOp26
 70
     1
102
RTVSPropertyOp27
 70
     1
102
RTVSPropertyOp28
 70
     1
102
RTVSPropertyOp29
 70
     1
102
RTVSPropertyOp30
 70
     1
102
RTVSPropertyOp31
 70
     1
102
RTVSPropertyOp32
 70
     1
102
RTVSPropertyOp33
 70
     1
102
RTVSPropertyOp34
 70
     1
102
RTVSPropertyOp35
 70
     1
102
RTVSPropertyOp36
 70
     1
102
RTVSPropertyOp37
 70
     1
102
RTVSPropertyOp38
 70
     1
102
RTVSPropertyOp39
 70
     1
102
RTVSPropertyOp40
 70
     1
102
RTVSPropertyOp41
 70
     1
102
RTVSPropertyOp42
 70
     1
102
RTVSPropertyOp43
 70
     1
102
RTVSPropertyOp44
 70
     1
102
RTVSPropertyOp45
 70
     1
102
RTVSPropertyOp46
 70
     1
102
RTVSPropertyOp47
 70
     1
102
RTVSPropertyOp48
 70
     1
102
RTVSPropertyOp49
 70
     1
102
RTVSPropertyOp50
 70
     1
102
RTVSPropertyOp51
 70
     0
102
RTVSPropertyOp52
 70
     0
102
RTVSPropertyOp53
 70
     1
102
RTVSPropertyOp54
 70
     1
102
RTVSPropertyOp55
 70
     1
102
RTVSPropertyOp56
 70
     1
102
RTVSPropertyOp57
 70
     1
102
RTVSPropertyOp58
 70
     1
102
RTVSPropertyOp59
 70
     1
102
RTVSPropertyOp60
 70
     1
102
RTVSPropertyOp61
 70
     1
102
RTVSPropertyOp62
 70
     1
  0
XRECORD
  5
834
102
{ACAD_REACTORS
330
833
102
}
330
833
100
AcDbXrecord
280
     1
102
RTVSPost2010Prop28
280
     0
102
RTVSPost2010PropOp28
 70
     1
102
RTVSPost2010Prop29
280
     1
102
RTVSPost2010PropOp29
 70
     1
102
RTVSPost2010Prop30
280
     1
102
RTVSPost2010PropOp30
 70
     1
102
RTVSPost2010Prop31
280
     0
102
RTVSPost2010PropOp31
 70
     1
102
RTVSPost2010Prop32
280
     0
102
RTVSPost2010PropOp32
 70
     1
102
RTVSPost2010Prop33
280
     0
102
RTVSPost2010PropOp33
 70
     1
102
RTVSPost2010Prop34
280
     0
102
RTVSPost2010PropOp34
 70
     1
102
RTVSPost2010Prop35
280
     0
102
RTVSPost2010PropOp35
 70
     1
102
RTVSPost2010Prop36
280
     0
102
RTVSPost2010PropOp36
 70
     1
102
RTVSPost2010Prop37
 90
       50
102
RTVSPost2010PropOp37
 70
     1
102
RTVSPost2010Prop38
140
0.0
102
RTVSPost2010PropOp38
 70
     1
102
RTVSPost2010Prop39
140
1.0
102
RTVSPost2010PropOp39
 70
     1
102
RTVSPost2010Prop40
 90
        0
102
RTVSPost2010PropOp40
 70
     1
102
RTVSPost2010Prop41ColorIndex
 90
       18
102
RTVSPost2010Prop41ColorRGB
 90
        0
102
RTVSPost2010PropOp41
 70
     1
102
RTVSPost2010Prop42
 90
       50
102
RTVSPost2010PropOp42
 70
     1
102
RTVSPost2010Prop43
 90
        3
102
RTVSPost2010PropOp43
 70
     1
102
RTVSPost2010Prop44ColorIndex
 90
        5
102
RTVSPost2010Prop44ColorRGB
 90
      255
102
RTVSPost2010PropOp44
 70
     1
102
RTVSPost2010Prop45
280
     0
102
RTVSPost2010PropOp45
 70
     1
102
RTVSPost2010Prop46
 90
       50
102
RTVSPost2010PropOp46
 70
     1
102
RTVSPost2010Prop47
 90
       50
102
RTVSPost2010PropOp47
 70
     1
102
RTVSPost2010Prop48
 90
       50
102
RTVSPost2010PropOp48
 70
     1
102
RTVSPost2010Prop49
280
     0
102
RTVSPost2010PropOp49
 70
     1
102
RTVSPost2010Prop50
 90
       50
102
RTVSPost2010PropOp50
 70
     1
102
RTVSPost2010Prop51ColorIndex
 90
      256
102
RTVSPost2010Prop51ColorRGB
 90
-16777216
102
RTVSPost2010PropOp51
 70
     0
102
RTVSPost2010Prop52
140
1.0
102
RTVSPost2010PropOp52
 70
     0
102
RTVSPost2010Prop53
 90
        2
102
RTVSPost2010PropOp53
 70
     1
102
RTVSPost2010Prop54
  1
strokes_ogs.tif
102
RTVSPost2010PropOp54
 70
     1
102
RTVSPost2010Prop55
280
     0
102
RTVSPost2010PropOp55
 70
     1
102
RTVSPost2010Prop56
140
1.0
102
RTVSPost2010PropOp56
 70
     1
102
RTVSPost2010Prop57
140
1.0
102
RTVSPost2010PropOp57
 70
     1
102
RTVSPropertyOp0
 70
     1
102
RTVSPropertyOp1
 70
     1
102
RTVSPropertyOp2
 70
     1
102
RTVSPropertyOp3
 70
     1
102
RTVSPropertyOp4
 70
     1
102
RTVSPropertyOp5
 70
     1
102
RTVSPropertyOp6
 70
     1
102
RTVSPropertyOp7
 70
     1
102
RTVSPropertyOp8
 70
     1
102
RTVSPropertyOp9
 70
     1
102
RTVSPropertyOp10
 70
     1
102
RTVSPropertyOp11
 70
     1
102
RTVSPropertyOp12
 70
     1
102
RTVSPropertyOp13
 70
     1
102
RTVSPropertyOp14
 70
     1
102
RTVSPropertyOp15
 70
     1
102
RTVSPropertyOp16
 70
     1
102
RTVSPropertyOp17
 70
     1
102
RTVSPropertyOp18
 70
     1
102
RTVSPropertyOp19
 70
     1
102
RTVSPropertyOp20
 70
     1
102
RTVSPropertyOp21
 70
     1
102
RTVSPropertyOp22
 70
     1
102
RTVSPropertyOp23
 70
     1
102
RTVSPropertyOp24
 70
     1
102
RTVSPropertyOp25
 70
     1
102
RTVSPropertyOp26
 70
     1
102
RTVSPropertyOp27
 70
     1
102
RTVSPropertyOp28
 70
     1
102
RTVSPropertyOp29
 70
     1
102
RTVSPropertyOp30
 70
     1
102
RTVSPropertyOp31
 70
     1
102
RTVSPropertyOp32
 70
     1
102
RTVSPropertyOp33
 70
     1
102
RTVSPropertyOp34
 70
     1
102
RTVSPropertyOp35
 70
     1
102
RTVSPropertyOp36
 70
     1
102
RTVSPropertyOp37
 70
     1
102
RTVSPropertyOp38
 70
     1
102
RTVSPropertyOp39
 70
     1
102
RTVSPropertyOp40
 70
     1
102
RTVSPropertyOp41
 70
     1
102
RTVSPropertyOp42
 70
     1
102
RTVSPropertyOp43
 70
     1
102
RTVSPropertyOp44
 70
     1
102
RTVSPropertyOp45
 70
     1
102
RTVSPropertyOp46
 70
     1
102
RTVSPropertyOp47
 70
     1
102
RTVSPropertyOp48
 70
     1
102
RTVSPropertyOp49
 70
     1
102
RTVSPropertyOp50
 70
     1
102
RTVSPropertyOp51
 70
     0
102
RTVSPropertyOp52
 70
     0
102
RTVSPropertyOp53
 70
     1
102
RTVSPropertyOp54
 70
     1
102
RTVSPropertyOp55
 70
     1
102
RTVSPropertyOp56
 70
     1
102
RTVSPropertyOp57
 70
     1
102
RTVSPropertyOp58
 70
     1
102
RTVSPropertyOp59
 70
     1
102
RTVSPropertyOp60
 70
     1
102
RTVSPropertyOp61
 70
     1
102
RTVSPropertyOp62
 70
     1
  0
XRECORD
  5
826
102
{ACAD_REACTORS
330
825
102
}
330
825
100
AcDbXrecord
280
     1
102
RTVSPost2010Prop28
280
     0
102
RTVSPost2010PropOp28
 70
     1
102
RTVSPost2010Prop29
280
     1
102
RTVSPost2010PropOp29
 70
     1
102
RTVSPost2010Prop30
280
     1
102
RTVSPost2010PropOp30
 70
     1
102
RTVSPost2010Prop31
280
     0
102
RTVSPost2010PropOp31
 70
     1
102
RTVSPost2010Prop32
280
     0
102
RTVSPost2010PropOp32
 70
     1
102
RTVSPost2010Prop33
280
     0
102
RTVSPost2010PropOp33
 70
     1
102
RTVSPost2010Prop34
280
     0
102
RTVSPost2010PropOp34
 70
     1
102
RTVSPost2010Prop35
280
     0
102
RTVSPost2010PropOp35
 70
     1
102
RTVSPost2010Prop36
280
     0
102
RTVSPost2010PropOp36
 70
     1
102
RTVSPost2010Prop37
 90
       50
102
RTVSPost2010PropOp37
 70
     1
102
RTVSPost2010Prop38
140
0.0
102
RTVSPost2010PropOp38
 70
     1
102
RTVSPost2010Prop39
140
1.0
102
RTVSPost2010PropOp39
 70
     1
102
RTVSPost2010Prop40
 90
        0
102
RTVSPost2010PropOp40
 70
     1
102
RTVSPost2010Prop41ColorIndex
 90
       18
102
RTVSPost2010Prop41ColorRGB
 90
        0
102
RTVSPost2010PropOp41
 70
     1
102
RTVSPost2010Prop42
 90
       50
102
RTVSPost2010PropOp42
 70
     1
102
RTVSPost2010Prop43
 90
        3
102
RTVSPost2010PropOp43
 70
     1
102
RTVSPost2010Prop44ColorIndex
 90
        5
102
RTVSPost2010Prop44ColorRGB
 90
      255
102
RTVSPost2010PropOp44
 70
     1
102
RTVSPost2010Prop45
280
     0
102
RTVSPost2010PropOp45
 70
     1
102
RTVSPost2010Prop46
 90
       50
102
RTVSPost2010PropOp46
 70
     1
102
RTVSPost2010Prop47
 90
       50
102
RTVSPost2010PropOp47
 70
     1
102
RTVSPost2010Prop48
 90
       50
102
RTVSPost2010PropOp48
 70
     1
102
RTVSPost2010Prop49
280
     0
102
RTVSPost2010PropOp49
 70
     1
102
RTVSPost2010Prop50
 90
       50
102
RTVSPost2010PropOp50
 70
     1
102
RTVSPost2010Prop51ColorIndex
 90
      256
102
RTVSPost2010Prop51ColorRGB
 90
-16777216
102
RTVSPost2010PropOp51
 70
     0
102
RTVSPost2010Prop52
140
1.0
102
RTVSPost2010PropOp52
 70
     0
102
RTVSPost2010Prop53
 90
        2
102
RTVSPost2010PropOp53
 70
     1
102
RTVSPost2010Prop54
  1
strokes_ogs.tif
102
RTVSPost2010PropOp54
 70
     1
102
RTVSPost2010Prop55
280
     0
102
RTVSPost2010PropOp55
 70
     1
102
RTVSPost2010Prop56
140
1.0
102
RTVSPost2010PropOp56
 70
     1
102
RTVSPost2010Prop57
140
1.0
102
RTVSPost2010PropOp57
 70
     1
102
RTVSPropertyOp0
 70
     1
102
RTVSPropertyOp1
 70
     1
102
RTVSPropertyOp2
 70
     1
102
RTVSPropertyOp3
 70
     1
102
RTVSPropertyOp4
 70
     1
102
RTVSPropertyOp5
 70
     1
102
RTVSPropertyOp6
 70
     1
102
RTVSPropertyOp7
 70
     1
102
RTVSPropertyOp8
 70
     1
102
RTVSPropertyOp9
 70
     1
102
RTVSPropertyOp10
 70
     1
102
RTVSPropertyOp11
 70
     1
102
RTVSPropertyOp12
 70
     1
102
RTVSPropertyOp13
 70
     1
102
RTVSPropertyOp14
 70
     1
102
RTVSPropertyOp15
 70
     1
102
RTVSPropertyOp16
 70
     1
102
RTVSPropertyOp17
 70
     1
102
RTVSPropertyOp18
 70
     1
102
RTVSPropertyOp19
 70
     1
102
RTVSPropertyOp20
 70
     1
102
RTVSPropertyOp21
 70
     1
102
RTVSPropertyOp22
 70
     1
102
RTVSPropertyOp23
 70
     1
102
RTVSPropertyOp24
 70
     1
102
RTVSPropertyOp25
 70
     1
102
RTVSPropertyOp26
 70
     1
102
RTVSPropertyOp27
 70
     1
102
RTVSPropertyOp28
 70
     1
102
RTVSPropertyOp29
 70
     1
102
RTVSPropertyOp30
 70
     1
102
RTVSPropertyOp31
 70
     1
102
RTVSPropertyOp32
 70
     1
102
RTVSPropertyOp33
 70
     1
102
RTVSPropertyOp34
 70
     1
102
RTVSPropertyOp35
 70
     1
102
RTVSPropertyOp36
 70
     1
102
RTVSPropertyOp37
 70
     1
102
RTVSPropertyOp38
 70
     1
102
RTVSPropertyOp39
 70
     1
102
RTVSPropertyOp40
 70
     1
102
RTVSPropertyOp41
 70
     1
102
RTVSPropertyOp42
 70
     1
102
RTVSPropertyOp43
 70
     1
102
RTVSPropertyOp44
 70
     1
102
RTVSPropertyOp45
 70
     1
102
RTVSPropertyOp46
 70
     1
102
RTVSPropertyOp47
 70
     1
102
RTVSPropertyOp48
 70
     1
102
RTVSPropertyOp49
 70
     1
102
RTVSPropertyOp50
 70
     1
102
RTVSPropertyOp51
 70
     0
102
RTVSPropertyOp52
 70
     0
102
RTVSPropertyOp53
 70
     1
102
RTVSPropertyOp54
 70
     1
102
RTVSPropertyOp55
 70
     1
102
RTVSPropertyOp56
 70
     1
102
RTVSPropertyOp57
 70
     1
102
RTVSPropertyOp58
 70
     1
102
RTVSPropertyOp59
 70
     1
102
RTVSPropertyOp60
 70
     1
102
RTVSPropertyOp61
 70
     1
102
RTVSPropertyOp62
 70
     1
  0
XRECORD
  5
82A
102
{ACAD_REACTORS
330
829
102
}
330
829
100
AcDbXrecord
280
     1
102
RTVSPost2010Prop28
280
     0
102
RTVSPost2010PropOp28
 70
     1
102
RTVSPost2010Prop29
280
     1
102
RTVSPost2010PropOp29
 70
     1
102
RTVSPost2010Prop30
280
     1
102
RTVSPost2010PropOp30
 70
     1
102
RTVSPost2010Prop31
280
     0
102
RTVSPost2010PropOp31
 70
     1
102
RTVSPost2010Prop32
280
     0
102
RTVSPost2010PropOp32
 70
     1
102
RTVSPost2010Prop33
280
     0
102
RTVSPost2010PropOp33
 70
     1
102
RTVSPost2010Prop34
280
     0
102
RTVSPost2010PropOp34
 70
     1
102
RTVSPost2010Prop35
280
     0
102
RTVSPost2010PropOp35
 70
     1
102
RTVSPost2010Prop36
280
     0
102
RTVSPost2010PropOp36
 70
     1
102
RTVSPost2010Prop37
 90
       50
102
RTVSPost2010PropOp37
 70
     1
102
RTVSPost2010Prop38
140
0.0
102
RTVSPost2010PropOp38
 70
     1
102
RTVSPost2010Prop39
140
1.0
102
RTVSPost2010PropOp39
 70
     1
102
RTVSPost2010Prop40
 90
        0
102
RTVSPost2010PropOp40
 70
     1
102
RTVSPost2010Prop41ColorIndex
 90
       18
102
RTVSPost2010Prop41ColorRGB
 90
        0
102
RTVSPost2010PropOp41
 70
     1
102
RTVSPost2010Prop42
 90
       50
102
RTVSPost2010PropOp42
 70
     1
102
RTVSPost2010Prop43
 90
        3
102
RTVSPost2010PropOp43
 70
     1
102
RTVSPost2010Prop44ColorIndex
 90
        5
102
RTVSPost2010Prop44ColorRGB
 90
      255
102
RTVSPost2010PropOp44
 70
     1
102
RTVSPost2010Prop45
280
     0
102
RTVSPost2010PropOp45
 70
     1
102
RTVSPost2010Prop46
 90
       50
102
RTVSPost2010PropOp46
 70
     1
102
RTVSPost2010Prop47
 90
       50
102
RTVSPost2010PropOp47
 70
     1
102
RTVSPost2010Prop48
 90
       50
102
RTVSPost2010PropOp48
 70
     1
102
RTVSPost2010Prop49
280
     0
102
RTVSPost2010PropOp49
 70
     1
102
RTVSPost2010Prop50
 90
       50
102
RTVSPost2010PropOp50
 70
     1
102
RTVSPost2010Prop51ColorIndex
 90
      256
102
RTVSPost2010Prop51ColorRGB
 90
-16777216
102
RTVSPost2010PropOp51
 70
     0
102
RTVSPost2010Prop52
140
1.0
102
RTVSPost2010PropOp52
 70
     0
102
RTVSPost2010Prop53
 90
        2
102
RTVSPost2010PropOp53
 70
     1
102
RTVSPost2010Prop54
  1
strokes_ogs.tif
102
RTVSPost2010PropOp54
 70
     1
102
RTVSPost2010Prop55
280
     0
102
RTVSPost2010PropOp55
 70
     1
102
RTVSPost2010Prop56
140
1.0
102
RTVSPost2010PropOp56
 70
     1
102
RTVSPost2010Prop57
140
1.0
102
RTVSPost2010PropOp57
 70
     1
102
RTVSPropertyOp0
 70
     1
102
RTVSPropertyOp1
 70
     1
102
RTVSPropertyOp2
 70
     1
102
RTVSPropertyOp3
 70
     1
102
RTVSPropertyOp4
 70
     1
102
RTVSPropertyOp5
 70
     1
102
RTVSPropertyOp6
 70
     1
102
RTVSPropertyOp7
 70
     1
102
RTVSPropertyOp8
 70
     1
102
RTVSPropertyOp9
 70
     1
102
RTVSPropertyOp10
 70
     1
102
RTVSPropertyOp11
 70
     1
102
RTVSPropertyOp12
 70
     1
102
RTVSPropertyOp13
 70
     1
102
RTVSPropertyOp14
 70
     1
102
RTVSPropertyOp15
 70
     1
102
RTVSPropertyOp16
 70
     1
102
RTVSPropertyOp17
 70
     1
102
RTVSPropertyOp18
 70
     1
102
RTVSPropertyOp19
 70
     1
102
RTVSPropertyOp20
 70
     1
102
RTVSPropertyOp21
 70
     1
102
RTVSPropertyOp22
 70
     1
102
RTVSPropertyOp23
 70
     1
102
RTVSPropertyOp24
 70
     1
102
RTVSPropertyOp25
 70
     1
102
RTVSPropertyOp26
 70
     1
102
RTVSPropertyOp27
 70
     1
102
RTVSPropertyOp28
 70
     1
102
RTVSPropertyOp29
 70
     1
102
RTVSPropertyOp30
 70
     1
102
RTVSPropertyOp31
 70
     1
102
RTVSPropertyOp32
 70
     1
102
RTVSPropertyOp33
 70
     1
102
RTVSPropertyOp34
 70
     1
102
RTVSPropertyOp35
 70
     1
102
RTVSPropertyOp36
 70
     1
102
RTVSPropertyOp37
 70
     1
102
RTVSPropertyOp38
 70
     1
102
RTVSPropertyOp39
 70
     1
102
RTVSPropertyOp40
 70
     1
102
RTVSPropertyOp41
 70
     1
102
RTVSPropertyOp42
 70
     1
102
RTVSPropertyOp43
 70
     1
102
RTVSPropertyOp44
 70
     1
102
RTVSPropertyOp45
 70
     1
102
RTVSPropertyOp46
 70
     1
102
RTVSPropertyOp47
 70
     1
102
RTVSPropertyOp48
 70
     1
102
RTVSPropertyOp49
 70
     1
102
RTVSPropertyOp50
 70
     1
102
RTVSPropertyOp51
 70
     0
102
RTVSPropertyOp52
 70
     0
102
RTVSPropertyOp53
 70
     1
102
RTVSPropertyOp54
 70
     1
102
RTVSPropertyOp55
 70
     1
102
RTVSPropertyOp56
 70
     1
102
RTVSPropertyOp57
 70
     1
102
RTVSPropertyOp58
 70
     1
102
RTVSPropertyOp59
 70
     1
102
RTVSPropertyOp60
 70
     1
102
RTVSPropertyOp61
 70
     1
102
RTVSPropertyOp62
 70
     1
  0
XRECORD
  5
844
102
{ACAD_REACTORS
330
843
102
}
330
843
100
AcDbXrecord
280
     1
102
RTVSPost2010Prop28
280
     0
102
RTVSPost2010PropOp28
 70
     1
102
RTVSPost2010Prop29
280
     1
102
RTVSPost2010PropOp29
 70
     1
102
RTVSPost2010Prop30
280
     1
102
RTVSPost2010PropOp30
 70
     1
102
RTVSPost2010Prop31
280
     0
102
RTVSPost2010PropOp31
 70
     1
102
RTVSPost2010Prop32
280
     0
102
RTVSPost2010PropOp32
 70
     1
102
RTVSPost2010Prop33
280
     0
102
RTVSPost2010PropOp33
 70
     1
102
RTVSPost2010Prop34
280
     0
102
RTVSPost2010PropOp34
 70
     1
102
RTVSPost2010Prop35
280
     0
102
RTVSPost2010PropOp35
 70
     1
102
RTVSPost2010Prop36
280
     0
102
RTVSPost2010PropOp36
 70
     1
102
RTVSPost2010Prop37
 90
       50
102
RTVSPost2010PropOp37
 70
     0
102
RTVSPost2010Prop38
140
0.0
102
RTVSPost2010PropOp38
 70
     0
102
RTVSPost2010Prop39
140
1.0
102
RTVSPost2010PropOp39
 70
     0
102
RTVSPost2010Prop40
 90
        0
102
RTVSPost2010PropOp40
 70
     0
102
RTVSPost2010Prop41ColorIndex
 90
       18
102
RTVSPost2010Prop41ColorRGB
 90
        0
102
RTVSPost2010PropOp41
 70
     0
102
RTVSPost2010Prop42
 90
       50
102
RTVSPost2010PropOp42
 70
     0
102
RTVSPost2010Prop43
 90
        3
102
RTVSPost2010PropOp43
 70
     0
102
RTVSPost2010Prop44ColorIndex
 90
        5
102
RTVSPost2010Prop44ColorRGB
 90
      255
102
RTVSPost2010PropOp44
 70
     0
102
RTVSPost2010Prop45
280
     0
102
RTVSPost2010PropOp45
 70
     1
102
RTVSPost2010Prop46
 90
       50
102
RTVSPost2010PropOp46
 70
     0
102
RTVSPost2010Prop47
 90
       50
102
RTVSPost2010PropOp47
 70
     0
102
RTVSPost2010Prop48
 90
       50
102
RTVSPost2010PropOp48
 70
     0
102
RTVSPost2010Prop49
280
     0
102
RTVSPost2010PropOp49
 70
     1
102
RTVSPost2010Prop50
 90
       50
102
RTVSPost2010PropOp50
 70
     0
102
RTVSPost2010Prop51ColorIndex
 90
      256
102
RTVSPost2010Prop51ColorRGB
 90
-16777216
102
RTVSPost2010PropOp51
 70
     0
102
RTVSPost2010Prop52
140
1.0
102
RTVSPost2010PropOp52
 70
     0
102
RTVSPost2010Prop53
 90
        2
102
RTVSPost2010PropOp53
 70
     0
102
RTVSPost2010Prop54
  1
strokes_ogs.tif
102
RTVSPost2010PropOp54
 70
     0
102
RTVSPost2010Prop55
280
     0
102
RTVSPost2010PropOp55
 70
     1
102
RTVSPost2010Prop56
140
1.0
102
RTVSPost2010PropOp56
 70
     0
102
RTVSPost2010Prop57
140
1.0
102
RTVSPost2010PropOp57
 70
     0
102
RTVSPropertyOp0
 70
     0
102
RTVSPropertyOp1
 70
     0
102
RTVSPropertyOp2
 70
     0
102
RTVSPropertyOp3
 70
     0
102
RTVSPropertyOp4
 70
     0
102
RTVSPropertyOp5
 70
     0
102
RTVSPropertyOp6
 70
     0
102
RTVSPropertyOp7
 70
     0
102
RTVSPropertyOp8
 70
     0
102
RTVSPropertyOp9
 70
     0
102
RTVSPropertyOp10
 70
     0
102
RTVSPropertyOp11
 70
     0
102
RTVSPropertyOp12
 70
     0
102
RTVSPropertyOp13
 70
     0
102
RTVSPropertyOp14
 70
     2
102
RTVSPropertyOp15
 70
     0
102
RTVSPropertyOp16
 70
     0
102
RTVSPropertyOp17
 70
     0
102
RTVSPropertyOp18
 70
     0
102
RTVSPropertyOp19
 70
     0
102
RTVSPropertyOp20
 70
     0
102
RTVSPropertyOp21
 70
     0
102
RTVSPropertyOp22
 70
     0
102
RTVSPropertyOp23
 70
     0
102
RTVSPropertyOp24
 70
     0
102
RTVSPropertyOp25
 70
     0
102
RTVSPropertyOp26
 70
     0
102
RTVSPropertyOp27
 70
     0
102
RTVSPropertyOp28
 70
     1
102
RTVSPropertyOp29
 70
     1
102
RTVSPropertyOp30
 70
     1
102
RTVSPropertyOp31
 70
     1
102
RTVSPropertyOp32
 70
     1
102
RTVSPropertyOp33
 70
     1
102
RTVSPropertyOp34
 70
     1
102
RTVSPropertyOp35
 70
     1
102
RTVSPropertyOp36
 70
     1
102
RTVSPropertyOp37
 70
     0
102
RTVSPropertyOp38
 70
     0
102
RTVSPropertyOp39
 70
     0
102
RTVSPropertyOp40
 70
     0
102
RTVSPropertyOp41
 70
     0
102
RTVSPropertyOp42
 70
     0
102
RTVSPropertyOp43
 70
     0
102
RTVSPropertyOp44
 70
     0
102
RTVSPropertyOp45
 70
     1
102
RTVSPropertyOp46
 70
     0
102
RTVSPropertyOp47
 70
     0
102
RTVSPropertyOp48
 70
     0
102
RTVSPropertyOp49
 70
     1
102
RTVSPropertyOp50
 70
     0
102
RTVSPropertyOp51
 70
     0
102
RTVSPropertyOp52
 70
     0
102
RTVSPropertyOp53
 70
     0
102
RTVSPropertyOp54
 70
     0
102
RTVSPropertyOp55
 70
     1
102
RTVSPropertyOp56
 70
     0
102
RTVSPropertyOp57
 70
     0
102
RTVSPropertyOp58
 70
     0
102
RTVSPropertyOp59
 70
     0
102
RTVSPropertyOp60
 70
     0
102
RTVSPropertyOp61
 70
     0
102
RTVSPropertyOp62
 70
     0
  0
XRECORD
  5
832
102
{ACAD_REACTORS
330
831
102
}
330
831
100
AcDbXrecord
280
     1
102
RTVSPost2010Prop28
280
     0
102
RTVSPost2010PropOp28
 70
     1
102
RTVSPost2010Prop29
280
     1
102
RTVSPost2010PropOp29
 70
     1
102
RTVSPost2010Prop30
280
     1
102
RTVSPost2010PropOp30
 70
     1
102
RTVSPost2010Prop31
280
     0
102
RTVSPost2010PropOp31
 70
     1
102
RTVSPost2010Prop32
280
     0
102
RTVSPost2010PropOp32
 70
     1
102
RTVSPost2010Prop33
280
     0
102
RTVSPost2010PropOp33
 70
     1
102
RTVSPost2010Prop34
280
     0
102
RTVSPost2010PropOp34
 70
     1
102
RTVSPost2010Prop35
280
     0
102
RTVSPost2010PropOp35
 70
     1
102
RTVSPost2010Prop36
280
     0
102
RTVSPost2010PropOp36
 70
     1
102
RTVSPost2010Prop37
 90
       50
102
RTVSPost2010PropOp37
 70
     1
102
RTVSPost2010Prop38
140
0.0
102
RTVSPost2010PropOp38
 70
     1
102
RTVSPost2010Prop39
140
1.0
102
RTVSPost2010PropOp39
 70
     1
102
RTVSPost2010Prop40
 90
        0
102
RTVSPost2010PropOp40
 70
     1
102
RTVSPost2010Prop41ColorIndex
 90
       18
102
RTVSPost2010Prop41ColorRGB
 90
        0
102
RTVSPost2010PropOp41
 70
     1
102
RTVSPost2010Prop42
 90
       50
102
RTVSPost2010PropOp42
 70
     1
102
RTVSPost2010Prop43
 90
        3
102
RTVSPost2010PropOp43
 70
     1
102
RTVSPost2010Prop44ColorIndex
 90
        5
102
RTVSPost2010Prop44ColorRGB
 90
      255
102
RTVSPost2010PropOp44
 70
     1
102
RTVSPost2010Prop45
280
     0
102
RTVSPost2010PropOp45
 70
     1
102
RTVSPost2010Prop46
 90
       50
102
RTVSPost2010PropOp46
 70
     1
102
RTVSPost2010Prop47
 90
       50
102
RTVSPost2010PropOp47
 70
     1
102
RTVSPost2010Prop48
 90
       50
102
RTVSPost2010PropOp48
 70
     1
102
RTVSPost2010Prop49
280
     0
102
RTVSPost2010PropOp49
 70
     1
102
RTVSPost2010Prop50
 90
       50
102
RTVSPost2010PropOp50
 70
     1
102
RTVSPost2010Prop51ColorIndex
 90
      256
102
RTVSPost2010Prop51ColorRGB
 90
-16777216
102
RTVSPost2010PropOp51
 70
     0
102
RTVSPost2010Prop52
140
1.0
102
RTVSPost2010PropOp52
 70
     0
102
RTVSPost2010Prop53
 90
        2
102
RTVSPost2010PropOp53
 70
     1
102
RTVSPost2010Prop54
  1
strokes_ogs.tif
102
RTVSPost2010PropOp54
 70
     1
102
RTVSPost2010Prop55
280
     0
102
RTVSPost2010PropOp55
 70
     1
102
RTVSPost2010Prop56
140
1.0
102
RTVSPost2010PropOp56
 70
     1
102
RTVSPost2010Prop57
140
1.0
102
RTVSPost2010PropOp57
 70
     1
102
RTVSPropertyOp0
 70
     1
102
RTVSPropertyOp1
 70
     1
102
RTVSPropertyOp2
 70
     1
102
RTVSPropertyOp3
 70
     1
102
RTVSPropertyOp4
 70
     1
102
RTVSPropertyOp5
 70
     1
102
RTVSPropertyOp6
 70
     1
102
RTVSPropertyOp7
 70
     1
102
RTVSPropertyOp8
 70
     1
102
RTVSPropertyOp9
 70
     1
102
RTVSPropertyOp10
 70
     1
102
RTVSPropertyOp11
 70
     1
102
RTVSPropertyOp12
 70
     1
102
RTVSPropertyOp13
 70
     1
102
RTVSPropertyOp14
 70
     1
102
RTVSPropertyOp15
 70
     1
102
RTVSPropertyOp16
 70
     1
102
RTVSPropertyOp17
 70
     1
102
RTVSPropertyOp18
 70
     1
102
RTVSPropertyOp19
 70
     1
102
RTVSPropertyOp20
 70
     1
102
RTVSPropertyOp21
 70
     1
102
RTVSPropertyOp22
 70
     1
102
RTVSPropertyOp23
 70
     1
102
RTVSPropertyOp24
 70
     1
102
RTVSPropertyOp25
 70
     1
102
RTVSPropertyOp26
 70
     1
102
RTVSPropertyOp27
 70
     1
102
RTVSPropertyOp28
 70
     1
102
RTVSPropertyOp29
 70
     1
102
RTVSPropertyOp30
 70
     1
102
RTVSPropertyOp31
 70
     1
102
RTVSPropertyOp32
 70
     1
102
RTVSPropertyOp33
 70
     1
102
RTVSPropertyOp34
 70
     1
102
RTVSPropertyOp35
 70
     1
102
RTVSPropertyOp36
 70
     1
102
RTVSPropertyOp37
 70
     1
102
RTVSPropertyOp38
 70
     1
102
RTVSPropertyOp39
 70
     1
102
RTVSPropertyOp40
 70
     1
102
RTVSPropertyOp41
 70
     1
102
RTVSPropertyOp42
 70
     1
102
RTVSPropertyOp43
 70
     1
102
RTVSPropertyOp44
 70
     1
102
RTVSPropertyOp45
 70
     1
102
RTVSPropertyOp46
 70
     1
102
RTVSPropertyOp47
 70
     1
102
RTVSPropertyOp48
 70
     1
102
RTVSPropertyOp49
 70
     1
102
RTVSPropertyOp50
 70
     1
102
RTVSPropertyOp51
 70
     0
102
RTVSPropertyOp52
 70
     0
102
RTVSPropertyOp53
 70
     1
102
RTVSPropertyOp54
 70
     1
102
RTVSPropertyOp55
 70
     1
102
RTVSPropertyOp56
 70
     1
102
RTVSPropertyOp57
 70
     1
102
RTVSPropertyOp58
 70
     1
102
RTVSPropertyOp59
 70
     1
102
RTVSPropertyOp60
 70
     1
102
RTVSPropertyOp61
 70
     1
102
RTVSPropertyOp62
 70
     1
  0
XRECORD
  5
816
102
{ACAD_REACTORS
330
815
102
}
330
815
100
AcDbXrecord
280
     1
102
RTVSPost2010Prop28
280
     0
102
RTVSPost2010PropOp28
 70
     1
102
RTVSPost2010Prop29
280
     1
102
RTVSPost2010PropOp29
 70
     1
102
RTVSPost2010Prop30
280
     1
102
RTVSPost2010PropOp30
 70
     1
102
RTVSPost2010Prop31
280
     0
102
RTVSPost2010PropOp31
 70
     1
102
RTVSPost2010Prop32
280
     0
102
RTVSPost2010PropOp32
 70
     1
102
RTVSPost2010Prop33
280
     0
102
RTVSPost2010PropOp33
 70
     1
102
RTVSPost2010Prop34
280
     0
102
RTVSPost2010PropOp34
 70
     1
102
RTVSPost2010Prop35
280
     0
102
RTVSPost2010PropOp35
 70
     1
102
RTVSPost2010Prop36
280
     0
102
RTVSPost2010PropOp36
 70
     1
102
RTVSPost2010Prop37
 90
       50
102
RTVSPost2010PropOp37
 70
     1
102
RTVSPost2010Prop38
140
0.0
102
RTVSPost2010PropOp38
 70
     1
102
RTVSPost2010Prop39
140
1.0
102
RTVSPost2010PropOp39
 70
     1
102
RTVSPost2010Prop40
 90
        0
102
RTVSPost2010PropOp40
 70
     1
102
RTVSPost2010Prop41ColorIndex
 90
       18
102
RTVSPost2010Prop41ColorRGB
 90
        0
102
RTVSPost2010PropOp41
 70
     1
102
RTVSPost2010Prop42
 90
       50
102
RTVSPost2010PropOp42
 70
     1
102
RTVSPost2010Prop43
 90
        3
102
RTVSPost2010PropOp43
 70
     1
102
RTVSPost2010Prop44ColorIndex
 90
        5
102
RTVSPost2010Prop44ColorRGB
 90
      255
102
RTVSPost2010PropOp44
 70
     1
102
RTVSPost2010Prop45
280
     0
102
RTVSPost2010PropOp45
 70
     1
102
RTVSPost2010Prop46
 90
       50
102
RTVSPost2010PropOp46
 70
     1
102
RTVSPost2010Prop47
 90
       50
102
RTVSPost2010PropOp47
 70
     1
102
RTVSPost2010Prop48
 90
       50
102
RTVSPost2010PropOp48
 70
     1
102
RTVSPost2010Prop49
280
     0
102
RTVSPost2010PropOp49
 70
     1
102
RTVSPost2010Prop50
 90
       50
102
RTVSPost2010PropOp50
 70
     1
102
RTVSPost2010Prop51ColorIndex
 90
      256
102
RTVSPost2010Prop51ColorRGB
 90
-16777216
102
RTVSPost2010PropOp51
 70
     0
102
RTVSPost2010Prop52
140
1.0
102
RTVSPost2010PropOp52
 70
     0
102
RTVSPost2010Prop53
 90
        2
102
RTVSPost2010PropOp53
 70
     1
102
RTVSPost2010Prop54
  1
strokes_ogs.tif
102
RTVSPost2010PropOp54
 70
     1
102
RTVSPost2010Prop55
280
     0
102
RTVSPost2010PropOp55
 70
     1
102
RTVSPost2010Prop56
140
1.0
102
RTVSPost2010PropOp56
 70
     1
102
RTVSPost2010Prop57
140
1.0
102
RTVSPost2010PropOp57
 70
     1
102
RTVSPropertyOp0
 70
     1
102
RTVSPropertyOp1
 70
     1
102
RTVSPropertyOp2
 70
     1
102
RTVSPropertyOp3
 70
     1
102
RTVSPropertyOp4
 70
     1
102
RTVSPropertyOp5
 70
     1
102
RTVSPropertyOp6
 70
     1
102
RTVSPropertyOp7
 70
     1
102
RTVSPropertyOp8
 70
     1
102
RTVSPropertyOp9
 70
     1
102
RTVSPropertyOp10
 70
     1
102
RTVSPropertyOp11
 70
     1
102
RTVSPropertyOp12
 70
     1
102
RTVSPropertyOp13
 70
     1
102
RTVSPropertyOp14
 70
     1
102
RTVSPropertyOp15
 70
     1
102
RTVSPropertyOp16
 70
     1
102
RTVSPropertyOp17
 70
     1
102
RTVSPropertyOp18
 70
     1
102
RTVSPropertyOp19
 70
     1
102
RTVSPropertyOp20
 70
     1
102
RTVSPropertyOp21
 70
     1
102
RTVSPropertyOp22
 70
     1
102
RTVSPropertyOp23
 70
     1
102
RTVSPropertyOp24
 70
     1
102
RTVSPropertyOp25
 70
     1
102
RTVSPropertyOp26
 70
     1
102
RTVSPropertyOp27
 70
     1
102
RTVSPropertyOp28
 70
     1
102
RTVSPropertyOp29
 70
     1
102
RTVSPropertyOp30
 70
     1
102
RTVSPropertyOp31
 70
     1
102
RTVSPropertyOp32
 70
     1
102
RTVSPropertyOp33
 70
     1
102
RTVSPropertyOp34
 70
     1
102
RTVSPropertyOp35
 70
     1
102
RTVSPropertyOp36
 70
     1
102
RTVSPropertyOp37
 70
     1
102
RTVSPropertyOp38
 70
     1
102
RTVSPropertyOp39
 70
     1
102
RTVSPropertyOp40
 70
     1
102
RTVSPropertyOp41
 70
     1
102
RTVSPropertyOp42
 70
     1
102
RTVSPropertyOp43
 70
     1
102
RTVSPropertyOp44
 70
     1
102
RTVSPropertyOp45
 70
     1
102
RTVSPropertyOp46
 70
     1
102
RTVSPropertyOp47
 70
     1
102
RTVSPropertyOp48
 70
     1
102
RTVSPropertyOp49
 70
     1
102
RTVSPropertyOp50
 70
     1
102
RTVSPropertyOp51
 70
     0
102
RTVSPropertyOp52
 70
     0
102
RTVSPropertyOp53
 70
     1
102
RTVSPropertyOp54
 70
     1
102
RTVSPropertyOp55
 70
     1
102
RTVSPropertyOp56
 70
     1
102
RTVSPropertyOp57
 70
     1
102
RTVSPropertyOp58
 70
     1
102
RTVSPropertyOp59
 70
     1
102
RTVSPropertyOp60
 70
     1
102
RTVSPropertyOp61
 70
     1
102
RTVSPropertyOp62
 70
     1
  0
XRECORD
  5
818
102
{ACAD_REACTORS
330
817
102
}
330
817
100
AcDbXrecord
280
     1
102
RTVSPost2010Prop28
280
     0
102
RTVSPost2010PropOp28
 70
     1
102
RTVSPost2010Prop29
280
     1
102
RTVSPost2010PropOp29
 70
     1
102
RTVSPost2010Prop30
280
     1
102
RTVSPost2010PropOp30
 70
     1
102
RTVSPost2010Prop31
280
     0
102
RTVSPost2010PropOp31
 70
     1
102
RTVSPost2010Prop32
280
     0
102
RTVSPost2010PropOp32
 70
     1
102
RTVSPost2010Prop33
280
     0
102
RTVSPost2010PropOp33
 70
     1
102
RTVSPost2010Prop34
280
     0
102
RTVSPost2010PropOp34
 70
     1
102
RTVSPost2010Prop35
280
     0
102
RTVSPost2010PropOp35
 70
     1
102
RTVSPost2010Prop36
280
     0
102
RTVSPost2010PropOp36
 70
     1
102
RTVSPost2010Prop37
 90
       50
102
RTVSPost2010PropOp37
 70
     1
102
RTVSPost2010Prop38
140
0.0
102
RTVSPost2010PropOp38
 70
     1
102
RTVSPost2010Prop39
140
1.0
102
RTVSPost2010PropOp39
 70
     1
102
RTVSPost2010Prop40
 90
        0
102
RTVSPost2010PropOp40
 70
     1
102
RTVSPost2010Prop41ColorIndex
 90
       18
102
RTVSPost2010Prop41ColorRGB
 90
        0
102
RTVSPost2010PropOp41
 70
     1
102
RTVSPost2010Prop42
 90
       50
102
RTVSPost2010PropOp42
 70
     1
102
RTVSPost2010Prop43
 90
        3
102
RTVSPost2010PropOp43
 70
     1
102
RTVSPost2010Prop44ColorIndex
 90
        5
102
RTVSPost2010Prop44ColorRGB
 90
      255
102
RTVSPost2010PropOp44
 70
     1
102
RTVSPost2010Prop45
280
     0
102
RTVSPost2010PropOp45
 70
     1
102
RTVSPost2010Prop46
 90
       50
102
RTVSPost2010PropOp46
 70
     1
102
RTVSPost2010Prop47
 90
       50
102
RTVSPost2010PropOp47
 70
     1
102
RTVSPost2010Prop48
 90
       50
102
RTVSPost2010PropOp48
 70
     1
102
RTVSPost2010Prop49
280
     0
102
RTVSPost2010PropOp49
 70
     1
102
RTVSPost2010Prop50
 90
       50
102
RTVSPost2010PropOp50
 70
     1
102
RTVSPost2010Prop51ColorIndex
 90
      256
102
RTVSPost2010Prop51ColorRGB
 90
-16777216
102
RTVSPost2010PropOp51
 70
     0
102
RTVSPost2010Prop52
140
1.0
102
RTVSPost2010PropOp52
 70
     0
102
RTVSPost2010Prop53
 90
        2
102
RTVSPost2010PropOp53
 70
     1
102
RTVSPost2010Prop54
  1
strokes_ogs.tif
102
RTVSPost2010PropOp54
 70
     1
102
RTVSPost2010Prop55
280
     0
102
RTVSPost2010PropOp55
 70
     1
102
RTVSPost2010Prop56
140
1.0
102
RTVSPost2010PropOp56
 70
     1
102
RTVSPost2010Prop57
140
1.0
102
RTVSPost2010PropOp57
 70
     1
102
RTVSPropertyOp0
 70
     1
102
RTVSPropertyOp1
 70
     1
102
RTVSPropertyOp2
 70
     1
102
RTVSPropertyOp3
 70
     1
102
RTVSPropertyOp4
 70
     1
102
RTVSPropertyOp5
 70
     1
102
RTVSPropertyOp6
 70
     1
102
RTVSPropertyOp7
 70
     1
102
RTVSPropertyOp8
 70
     1
102
RTVSPropertyOp9
 70
     1
102
RTVSPropertyOp10
 70
     1
102
RTVSPropertyOp11
 70
     1
102
RTVSPropertyOp12
 70
     1
102
RTVSPropertyOp13
 70
     1
102
RTVSPropertyOp14
 70
     1
102
RTVSPropertyOp15
 70
     1
102
RTVSPropertyOp16
 70
     1
102
RTVSPropertyOp17
 70
     1
102
RTVSPropertyOp18
 70
     1
102
RTVSPropertyOp19
 70
     1
102
RTVSPropertyOp20
 70
     1
102
RTVSPropertyOp21
 70
     1
102
RTVSPropertyOp22
 70
     1
102
RTVSPropertyOp23
 70
     1
102
RTVSPropertyOp24
 70
     1
102
RTVSPropertyOp25
 70
     1
102
RTVSPropertyOp26
 70
     1
102
RTVSPropertyOp27
 70
     1
102
RTVSPropertyOp28
 70
     1
102
RTVSPropertyOp29
 70
     1
102
RTVSPropertyOp30
 70
     1
102
RTVSPropertyOp31
 70
     1
102
RTVSPropertyOp32
 70
     1
102
RTVSPropertyOp33
 70
     1
102
RTVSPropertyOp34
 70
     1
102
RTVSPropertyOp35
 70
     1
102
RTVSPropertyOp36
 70
     1
102
RTVSPropertyOp37
 70
     1
102
RTVSPropertyOp38
 70
     1
102
RTVSPropertyOp39
 70
     1
102
RTVSPropertyOp40
 70
     1
102
RTVSPropertyOp41
 70
     1
102
RTVSPropertyOp42
 70
     1
102
RTVSPropertyOp43
 70
     1
102
RTVSPropertyOp44
 70
     1
102
RTVSPropertyOp45
 70
     1
102
RTVSPropertyOp46
 70
     1
102
RTVSPropertyOp47
 70
     1
102
RTVSPropertyOp48
 70
     1
102
RTVSPropertyOp49
 70
     1
102
RTVSPropertyOp50
 70
     1
102
RTVSPropertyOp51
 70
     0
102
RTVSPropertyOp52
 70
     0
102
RTVSPropertyOp53
 70
     1
102
RTVSPropertyOp54
 70
     1
102
RTVSPropertyOp55
 70
     1
102
RTVSPropertyOp56
 70
     1
102
RTVSPropertyOp57
 70
     1
102
RTVSPropertyOp58
 70
     1
102
RTVSPropertyOp59
 70
     1
102
RTVSPropertyOp60
 70
     1
102
RTVSPropertyOp61
 70
     1
102
RTVSPropertyOp62
 70
     1
  0
XRECORD
  5
81A
102
{ACAD_REACTORS
330
819
102
}
330
819
100
AcDbXrecord
280
     1
102
RTVSPost2010Prop28
280
     0
102
RTVSPost2010PropOp28
 70
     1
102
RTVSPost2010Prop29
280
     1
102
RTVSPost2010PropOp29
 70
     1
102
RTVSPost2010Prop30
280
     1
102
RTVSPost2010PropOp30
 70
     1
102
RTVSPost2010Prop31
280
     0
102
RTVSPost2010PropOp31
 70
     1
102
RTVSPost2010Prop32
280
     0
102
RTVSPost2010PropOp32
 70
     1
102
RTVSPost2010Prop33
280
     0
102
RTVSPost2010PropOp33
 70
     1
102
RTVSPost2010Prop34
280
     0
102
RTVSPost2010PropOp34
 70
     1
102
RTVSPost2010Prop35
280
     0
102
RTVSPost2010PropOp35
 70
     1
102
RTVSPost2010Prop36
280
     0
102
RTVSPost2010PropOp36
 70
     1
102
RTVSPost2010Prop37
 90
       50
102
RTVSPost2010PropOp37
 70
     1
102
RTVSPost2010Prop38
140
0.0
102
RTVSPost2010PropOp38
 70
     1
102
RTVSPost2010Prop39
140
1.0
102
RTVSPost2010PropOp39
 70
     1
102
RTVSPost2010Prop40
 90
        0
102
RTVSPost2010PropOp40
 70
     1
102
RTVSPost2010Prop41ColorIndex
 90
       18
102
RTVSPost2010Prop41ColorRGB
 90
        0
102
RTVSPost2010PropOp41
 70
     1
102
RTVSPost2010Prop42
 90
       50
102
RTVSPost2010PropOp42
 70
     1
102
RTVSPost2010Prop43
 90
        3
102
RTVSPost2010PropOp43
 70
     1
102
RTVSPost2010Prop44ColorIndex
 90
        5
102
RTVSPost2010Prop44ColorRGB
 90
      255
102
RTVSPost2010PropOp44
 70
     1
102
RTVSPost2010Prop45
280
     0
102
RTVSPost2010PropOp45
 70
     1
102
RTVSPost2010Prop46
 90
       50
102
RTVSPost2010PropOp46
 70
     1
102
RTVSPost2010Prop47
 90
       50
102
RTVSPost2010PropOp47
 70
     1
102
RTVSPost2010Prop48
 90
       50
102
RTVSPost2010PropOp48
 70
     1
102
RTVSPost2010Prop49
280
     0
102
RTVSPost2010PropOp49
 70
     1
102
RTVSPost2010Prop50
 90
       50
102
RTVSPost2010PropOp50
 70
     1
102
RTVSPost2010Prop51ColorIndex
 90
      256
102
RTVSPost2010Prop51ColorRGB
 90
-16777216
102
RTVSPost2010PropOp51
 70
     0
102
RTVSPost2010Prop52
140
1.0
102
RTVSPost2010PropOp52
 70
     0
102
RTVSPost2010Prop53
 90
        2
102
RTVSPost2010PropOp53
 70
     1
102
RTVSPost2010Prop54
  1
strokes_ogs.tif
102
RTVSPost2010PropOp54
 70
     1
102
RTVSPost2010Prop55
280
     0
102
RTVSPost2010PropOp55
 70
     1
102
RTVSPost2010Prop56
140
1.0
102
RTVSPost2010PropOp56
 70
     1
102
RTVSPost2010Prop57
140
1.0
102
RTVSPost2010PropOp57
 70
     1
102
RTVSPropertyOp0
 70
     1
102
RTVSPropertyOp1
 70
     1
102
RTVSPropertyOp2
 70
     1
102
RTVSPropertyOp3
 70
     1
102
RTVSPropertyOp4
 70
     1
102
RTVSPropertyOp5
 70
     1
102
RTVSPropertyOp6
 70
     1
102
RTVSPropertyOp7
 70
     1
102
RTVSPropertyOp8
 70
     1
102
RTVSPropertyOp9
 70
     1
102
RTVSPropertyOp10
 70
     1
102
RTVSPropertyOp11
 70
     1
102
RTVSPropertyOp12
 70
     1
102
RTVSPropertyOp13
 70
     1
102
RTVSPropertyOp14
 70
     1
102
RTVSPropertyOp15
 70
     1
102
RTVSPropertyOp16
 70
     1
102
RTVSPropertyOp17
 70
     1
102
RTVSPropertyOp18
 70
     1
102
RTVSPropertyOp19
 70
     1
102
RTVSPropertyOp20
 70
     1
102
RTVSPropertyOp21
 70
     1
102
RTVSPropertyOp22
 70
     1
102
RTVSPropertyOp23
 70
     1
102
RTVSPropertyOp24
 70
     1
102
RTVSPropertyOp25
 70
     1
102
RTVSPropertyOp26
 70
     1
102
RTVSPropertyOp27
 70
     1
102
RTVSPropertyOp28
 70
     1
102
RTVSPropertyOp29
 70
     1
102
RTVSPropertyOp30
 70
     1
102
RTVSPropertyOp31
 70
     1
102
RTVSPropertyOp32
 70
     1
102
RTVSPropertyOp33
 70
     1
102
RTVSPropertyOp34
 70
     1
102
RTVSPropertyOp35
 70
     1
102
RTVSPropertyOp36
 70
     1
102
RTVSPropertyOp37
 70
     1
102
RTVSPropertyOp38
 70
     1
102
RTVSPropertyOp39
 70
     1
102
RTVSPropertyOp40
 70
     1
102
RTVSPropertyOp41
 70
     1
102
RTVSPropertyOp42
 70
     1
102
RTVSPropertyOp43
 70
     1
102
RTVSPropertyOp44
 70
     1
102
RTVSPropertyOp45
 70
     1
102
RTVSPropertyOp46
 70
     1
102
RTVSPropertyOp47
 70
     1
102
RTVSPropertyOp48
 70
     1
102
RTVSPropertyOp49
 70
     1
102
RTVSPropertyOp50
 70
     1
102
RTVSPropertyOp51
 70
     0
102
RTVSPropertyOp52
 70
     0
102
RTVSPropertyOp53
 70
     1
102
RTVSPropertyOp54
 70
     1
102
RTVSPropertyOp55
 70
     1
102
RTVSPropertyOp56
 70
     1
102
RTVSPropertyOp57
 70
     1
102
RTVSPropertyOp58
 70
     1
102
RTVSPropertyOp59
 70
     1
102
RTVSPropertyOp60
 70
     1
102
RTVSPropertyOp61
 70
     1
102
RTVSPropertyOp62
 70
     1
  0
XRECORD
  5
81C
102
{ACAD_REACTORS
330
81B
102
}
330
81B
100
AcDbXrecord
280
     1
102
RTVSPost2010Prop28
280
     0
102
RTVSPost2010PropOp28
 70
     1
102
RTVSPost2010Prop29
280
     1
102
RTVSPost2010PropOp29
 70
     1
102
RTVSPost2010Prop30
280
     1
102
RTVSPost2010PropOp30
 70
     1
102
RTVSPost2010Prop31
280
     0
102
RTVSPost2010PropOp31
 70
     1
102
RTVSPost2010Prop32
280
     0
102
RTVSPost2010PropOp32
 70
     1
102
RTVSPost2010Prop33
280
     0
102
RTVSPost2010PropOp33
 70
     1
102
RTVSPost2010Prop34
280
     0
102
RTVSPost2010PropOp34
 70
     1
102
RTVSPost2010Prop35
280
     0
102
RTVSPost2010PropOp35
 70
     1
102
RTVSPost2010Prop36
280
     0
102
RTVSPost2010PropOp36
 70
     1
102
RTVSPost2010Prop37
 90
       50
102
RTVSPost2010PropOp37
 70
     1
102
RTVSPost2010Prop38
140
0.0
102
RTVSPost2010PropOp38
 70
     1
102
RTVSPost2010Prop39
140
1.0
102
RTVSPost2010PropOp39
 70
     1
102
RTVSPost2010Prop40
 90
        0
102
RTVSPost2010PropOp40
 70
     1
102
RTVSPost2010Prop41ColorIndex
 90
       18
102
RTVSPost2010Prop41ColorRGB
 90
        0
102
RTVSPost2010PropOp41
 70
     1
102
RTVSPost2010Prop42
 90
       50
102
RTVSPost2010PropOp42
 70
     1
102
RTVSPost2010Prop43
 90
        3
102
RTVSPost2010PropOp43
 70
     1
102
RTVSPost2010Prop44ColorIndex
 90
        5
102
RTVSPost2010Prop44ColorRGB
 90
      255
102
RTVSPost2010PropOp44
 70
     1
102
RTVSPost2010Prop45
280
     0
102
RTVSPost2010PropOp45
 70
     1
102
RTVSPost2010Prop46
 90
       50
102
RTVSPost2010PropOp46
 70
     1
102
RTVSPost2010Prop47
 90
       50
102
RTVSPost2010PropOp47
 70
     1
102
RTVSPost2010Prop48
 90
       50
102
RTVSPost2010PropOp48
 70
     1
102
RTVSPost2010Prop49
280
     0
102
RTVSPost2010PropOp49
 70
     1
102
RTVSPost2010Prop50
 90
       50
102
RTVSPost2010PropOp50
 70
     1
102
RTVSPost2010Prop51ColorIndex
 90
      256
102
RTVSPost2010Prop51ColorRGB
 90
-16777216
102
RTVSPost2010PropOp51
 70
     0
102
RTVSPost2010Prop52
140
1.0
102
RTVSPost2010PropOp52
 70
     0
102
RTVSPost2010Prop53
 90
        2
102
RTVSPost2010PropOp53
 70
     1
102
RTVSPost2010Prop54
  1
strokes_ogs.tif
102
RTVSPost2010PropOp54
 70
     1
102
RTVSPost2010Prop55
280
     0
102
RTVSPost2010PropOp55
 70
     1
102
RTVSPost2010Prop56
140
1.0
102
RTVSPost2010PropOp56
 70
     1
102
RTVSPost2010Prop57
140
1.0
102
RTVSPost2010PropOp57
 70
     1
102
RTVSPropertyOp0
 70
     1
102
RTVSPropertyOp1
 70
     1
102
RTVSPropertyOp2
 70
     1
102
RTVSPropertyOp3
 70
     1
102
RTVSPropertyOp4
 70
     1
102
RTVSPropertyOp5
 70
     1
102
RTVSPropertyOp6
 70
     1
102
RTVSPropertyOp7
 70
     1
102
RTVSPropertyOp8
 70
     1
102
RTVSPropertyOp9
 70
     1
102
RTVSPropertyOp10
 70
     1
102
RTVSPropertyOp11
 70
     1
102
RTVSPropertyOp12
 70
     1
102
RTVSPropertyOp13
 70
     1
102
RTVSPropertyOp14
 70
     1
102
RTVSPropertyOp15
 70
     1
102
RTVSPropertyOp16
 70
     1
102
RTVSPropertyOp17
 70
     1
102
RTVSPropertyOp18
 70
     1
102
RTVSPropertyOp19
 70
     1
102
RTVSPropertyOp20
 70
     1
102
RTVSPropertyOp21
 70
     1
102
RTVSPropertyOp22
 70
     1
102
RTVSPropertyOp23
 70
     1
102
RTVSPropertyOp24
 70
     1
102
RTVSPropertyOp25
 70
     1
102
RTVSPropertyOp26
 70
     1
102
RTVSPropertyOp27
 70
     1
102
RTVSPropertyOp28
 70
     1
102
RTVSPropertyOp29
 70
     1
102
RTVSPropertyOp30
 70
     1
102
RTVSPropertyOp31
 70
     1
102
RTVSPropertyOp32
 70
     1
102
RTVSPropertyOp33
 70
     1
102
RTVSPropertyOp34
 70
     1
102
RTVSPropertyOp35
 70
     1
102
RTVSPropertyOp36
 70
     1
102
RTVSPropertyOp37
 70
     1
102
RTVSPropertyOp38
 70
     1
102
RTVSPropertyOp39
 70
     1
102
RTVSPropertyOp40
 70
     1
102
RTVSPropertyOp41
 70
     1
102
RTVSPropertyOp42
 70
     1
102
RTVSPropertyOp43
 70
     1
102
RTVSPropertyOp44
 70
     1
102
RTVSPropertyOp45
 70
     1
102
RTVSPropertyOp46
 70
     1
102
RTVSPropertyOp47
 70
     1
102
RTVSPropertyOp48
 70
     1
102
RTVSPropertyOp49
 70
     1
102
RTVSPropertyOp50
 70
     1
102
RTVSPropertyOp51
 70
     0
102
RTVSPropertyOp52
 70
     0
102
RTVSPropertyOp53
 70
     1
102
RTVSPropertyOp54
 70
     1
102
RTVSPropertyOp55
 70
     1
102
RTVSPropertyOp56
 70
     1
102
RTVSPropertyOp57
 70
     1
102
RTVSPropertyOp58
 70
     1
102
RTVSPropertyOp59
 70
     1
102
RTVSPropertyOp60
 70
     1
102
RTVSPropertyOp61
 70
     1
102
RTVSPropertyOp62
 70
     1
  0
XRECORD
  5
824
102
{ACAD_REACTORS
330
823
102
}
330
823
100
AcDbXrecord
280
     1
102
RTVSPost2010Prop28
280
     0
102
RTVSPost2010PropOp28
 70
     1
102
RTVSPost2010Prop29
280
     1
102
RTVSPost2010PropOp29
 70
     1
102
RTVSPost2010Prop30
280
     1
102
RTVSPost2010PropOp30
 70
     1
102
RTVSPost2010Prop31
280
     0
102
RTVSPost2010PropOp31
 70
     1
102
RTVSPost2010Prop32
280
     0
102
RTVSPost2010PropOp32
 70
     1
102
RTVSPost2010Prop33
280
     0
102
RTVSPost2010PropOp33
 70
     1
102
RTVSPost2010Prop34
280
     0
102
RTVSPost2010PropOp34
 70
     1
102
RTVSPost2010Prop35
280
     0
102
RTVSPost2010PropOp35
 70
     1
102
RTVSPost2010Prop36
280
     0
102
RTVSPost2010PropOp36
 70
     1
102
RTVSPost2010Prop37
 90
       50
102
RTVSPost2010PropOp37
 70
     1
102
RTVSPost2010Prop38
140
0.0
102
RTVSPost2010PropOp38
 70
     1
102
RTVSPost2010Prop39
140
1.0
102
RTVSPost2010PropOp39
 70
     1
102
RTVSPost2010Prop40
 90
        0
102
RTVSPost2010PropOp40
 70
     1
102
RTVSPost2010Prop41ColorIndex
 90
       18
102
RTVSPost2010Prop41ColorRGB
 90
        0
102
RTVSPost2010PropOp41
 70
     1
102
RTVSPost2010Prop42
 90
       50
102
RTVSPost2010PropOp42
 70
     1
102
RTVSPost2010Prop43
 90
        3
102
RTVSPost2010PropOp43
 70
     1
102
RTVSPost2010Prop44ColorIndex
 90
        5
102
RTVSPost2010Prop44ColorRGB
 90
      255
102
RTVSPost2010PropOp44
 70
     1
102
RTVSPost2010Prop45
280
     0
102
RTVSPost2010PropOp45
 70
     1
102
RTVSPost2010Prop46
 90
       50
102
RTVSPost2010PropOp46
 70
     1
102
RTVSPost2010Prop47
 90
       50
102
RTVSPost2010PropOp47
 70
     1
102
RTVSPost2010Prop48
 90
       50
102
RTVSPost2010PropOp48
 70
     1
102
RTVSPost2010Prop49
280
     0
102
RTVSPost2010PropOp49
 70
     1
102
RTVSPost2010Prop50
 90
       50
102
RTVSPost2010PropOp50
 70
     1
102
RTVSPost2010Prop51ColorIndex
 90
      256
102
RTVSPost2010Prop51ColorRGB
 90
-16777216
102
RTVSPost2010PropOp51
 70
     0
102
RTVSPost2010Prop52
140
1.0
102
RTVSPost2010PropOp52
 70
     0
102
RTVSPost2010Prop53
 90
        2
102
RTVSPost2010PropOp53
 70
     1
102
RTVSPost2010Prop54
  1
strokes_ogs.tif
102
RTVSPost2010PropOp54
 70
     1
102
RTVSPost2010Prop55
280
     0
102
RTVSPost2010PropOp55
 70
     1
102
RTVSPost2010Prop56
140
1.0
102
RTVSPost2010PropOp56
 70
     1
102
RTVSPost2010Prop57
140
1.0
102
RTVSPost2010PropOp57
 70
     1
102
RTVSPropertyOp0
 70
     1
102
RTVSPropertyOp1
 70
     1
102
RTVSPropertyOp2
 70
     1
102
RTVSPropertyOp3
 70
     1
102
RTVSPropertyOp4
 70
     1
102
RTVSPropertyOp5
 70
     1
102
RTVSPropertyOp6
 70
     1
102
RTVSPropertyOp7
 70
     1
102
RTVSPropertyOp8
 70
     1
102
RTVSPropertyOp9
 70
     1
102
RTVSPropertyOp10
 70
     1
102
RTVSPropertyOp11
 70
     1
102
RTVSPropertyOp12
 70
     1
102
RTVSPropertyOp13
 70
     1
102
RTVSPropertyOp14
 70
     1
102
RTVSPropertyOp15
 70
     1
102
RTVSPropertyOp16
 70
     1
102
RTVSPropertyOp17
 70
     1
102
RTVSPropertyOp18
 70
     1
102
RTVSPropertyOp19
 70
     1
102
RTVSPropertyOp20
 70
     1
102
RTVSPropertyOp21
 70
     1
102
RTVSPropertyOp22
 70
     1
102
RTVSPropertyOp23
 70
     1
102
RTVSPropertyOp24
 70
     1
102
RTVSPropertyOp25
 70
     1
102
RTVSPropertyOp26
 70
     1
102
RTVSPropertyOp27
 70
     1
102
RTVSPropertyOp28
 70
     1
102
RTVSPropertyOp29
 70
     1
102
RTVSPropertyOp30
 70
     1
102
RTVSPropertyOp31
 70
     1
102
RTVSPropertyOp32
 70
     1
102
RTVSPropertyOp33
 70
     1
102
RTVSPropertyOp34
 70
     1
102
RTVSPropertyOp35
 70
     1
102
RTVSPropertyOp36
 70
     1
102
RTVSPropertyOp37
 70
     1
102
RTVSPropertyOp38
 70
     1
102
RTVSPropertyOp39
 70
     1
102
RTVSPropertyOp40
 70
     1
102
RTVSPropertyOp41
 70
     1
102
RTVSPropertyOp42
 70
     1
102
RTVSPropertyOp43
 70
     1
102
RTVSPropertyOp44
 70
     1
102
RTVSPropertyOp45
 70
     1
102
RTVSPropertyOp46
 70
     1
102
RTVSPropertyOp47
 70
     1
102
RTVSPropertyOp48
 70
     1
102
RTVSPropertyOp49
 70
     1
102
RTVSPropertyOp50
 70
     1
102
RTVSPropertyOp51
 70
     0
102
RTVSPropertyOp52
 70
     0
102
RTVSPropertyOp53
 70
     1
102
RTVSPropertyOp54
 70
     1
102
RTVSPropertyOp55
 70
     1
102
RTVSPropertyOp56
 70
     1
102
RTVSPropertyOp57
 70
     1
102
RTVSPropertyOp58
 70
     1
102
RTVSPropertyOp59
 70
     1
102
RTVSPropertyOp60
 70
     1
102
RTVSPropertyOp61
 70
     1
102
RTVSPropertyOp62
 70
     1
  0
XRECORD
  5
840
102
{ACAD_REACTORS
330
83F
102
}
330
83F
100
AcDbXrecord
280
     1
102
RTVSPost2010Prop28
280
     0
102
RTVSPost2010PropOp28
 70
     1
102
RTVSPost2010Prop29
280
     1
102
RTVSPost2010PropOp29
 70
     1
102
RTVSPost2010Prop30
280
     1
102
RTVSPost2010PropOp30
 70
     1
102
RTVSPost2010Prop31
280
     0
102
RTVSPost2010PropOp31
 70
     1
102
RTVSPost2010Prop32
280
     0
102
RTVSPost2010PropOp32
 70
     1
102
RTVSPost2010Prop33
280
     0
102
RTVSPost2010PropOp33
 70
     1
102
RTVSPost2010Prop34
280
     0
102
RTVSPost2010PropOp34
 70
     1
102
RTVSPost2010Prop35
280
     0
102
RTVSPost2010PropOp35
 70
     1
102
RTVSPost2010Prop36
280
     0
102
RTVSPost2010PropOp36
 70
     1
102
RTVSPost2010Prop37
 90
       50
102
RTVSPost2010PropOp37
 70
     0
102
RTVSPost2010Prop38
140
0.0
102
RTVSPost2010PropOp38
 70
     0
102
RTVSPost2010Prop39
140
1.0
102
RTVSPost2010PropOp39
 70
     0
102
RTVSPost2010Prop40
 90
        0
102
RTVSPost2010PropOp40
 70
     0
102
RTVSPost2010Prop41ColorIndex
 90
       18
102
RTVSPost2010Prop41ColorRGB
 90
        0
102
RTVSPost2010PropOp41
 70
     0
102
RTVSPost2010Prop42
 90
       50
102
RTVSPost2010PropOp42
 70
     0
102
RTVSPost2010Prop43
 90
        3
102
RTVSPost2010PropOp43
 70
     0
102
RTVSPost2010Prop44ColorIndex
 90
        5
102
RTVSPost2010Prop44ColorRGB
 90
      255
102
RTVSPost2010PropOp44
 70
     0
102
RTVSPost2010Prop45
280
     0
102
RTVSPost2010PropOp45
 70
     1
102
RTVSPost2010Prop46
 90
       50
102
RTVSPost2010PropOp46
 70
     0
102
RTVSPost2010Prop47
 90
       50
102
RTVSPost2010PropOp47
 70
     0
102
RTVSPost2010Prop48
 90
       50
102
RTVSPost2010PropOp48
 70
     0
102
RTVSPost2010Prop49
280
     0
102
RTVSPost2010PropOp49
 70
     1
102
RTVSPost2010Prop50
 90
       50
102
RTVSPost2010PropOp50
 70
     0
102
RTVSPost2010Prop51ColorIndex
 90
      256
102
RTVSPost2010Prop51ColorRGB
 90
-16777216
102
RTVSPost2010PropOp51
 70
     0
102
RTVSPost2010Prop52
140
1.0
102
RTVSPost2010PropOp52
 70
     0
102
RTVSPost2010Prop53
 90
        2
102
RTVSPost2010PropOp53
 70
     0
102
RTVSPost2010Prop54
  1
strokes_ogs.tif
102
RTVSPost2010PropOp54
 70
     0
102
RTVSPost2010Prop55
280
     0
102
RTVSPost2010PropOp55
 70
     1
102
RTVSPost2010Prop56
140
1.0
102
RTVSPost2010PropOp56
 70
     0
102
RTVSPost2010Prop57
140
1.0
102
RTVSPost2010PropOp57
 70
     0
102
RTVSPropertyOp0
 70
     0
102
RTVSPropertyOp1
 70
     0
102
RTVSPropertyOp2
 70
     0
102
RTVSPropertyOp3
 70
     0
102
RTVSPropertyOp4
 70
     0
102
RTVSPropertyOp5
 70
     0
102
RTVSPropertyOp6
 70
     0
102
RTVSPropertyOp7
 70
     0
102
RTVSPropertyOp8
 70
     0
102
RTVSPropertyOp9
 70
     0
102
RTVSPropertyOp10
 70
     0
102
RTVSPropertyOp11
 70
     0
102
RTVSPropertyOp12
 70
     0
102
RTVSPropertyOp13
 70
     0
102
RTVSPropertyOp14
 70
     2
102
RTVSPropertyOp15
 70
     0
102
RTVSPropertyOp16
 70
     0
102
RTVSPropertyOp17
 70
     0
102
RTVSPropertyOp18
 70
     0
102
RTVSPropertyOp19
 70
     0
102
RTVSPropertyOp20
 70
     0
102
RTVSPropertyOp21
 70
     0
102
RTVSPropertyOp22
 70
     0
102
RTVSPropertyOp23
 70
     0
102
RTVSPropertyOp24
 70
     0
102
RTVSPropertyOp25
 70
     0
102
RTVSPropertyOp26
 70
     0
102
RTVSPropertyOp27
 70
     0
102
RTVSPropertyOp28
 70
     1
102
RTVSPropertyOp29
 70
     1
102
RTVSPropertyOp30
 70
     1
102
RTVSPropertyOp31
 70
     1
102
RTVSPropertyOp32
 70
     1
102
RTVSPropertyOp33
 70
     1
102
RTVSPropertyOp34
 70
     1
102
RTVSPropertyOp35
 70
     1
102
RTVSPropertyOp36
 70
     1
102
RTVSPropertyOp37
 70
     0
102
RTVSPropertyOp38
 70
     0
102
RTVSPropertyOp39
 70
     0
102
RTVSPropertyOp40
 70
     0
102
RTVSPropertyOp41
 70
     0
102
RTVSPropertyOp42
 70
     0
102
RTVSPropertyOp43
 70
     0
102
RTVSPropertyOp44
 70
     0
102
RTVSPropertyOp45
 70
     1
102
RTVSPropertyOp46
 70
     0
102
RTVSPropertyOp47
 70
     0
102
RTVSPropertyOp48
 70
     0
102
RTVSPropertyOp49
 70
     1
102
RTVSPropertyOp50
 70
     0
102
RTVSPropertyOp51
 70
     0
102
RTVSPropertyOp52
 70
     0
102
RTVSPropertyOp53
 70
     0
102
RTVSPropertyOp54
 70
     0
102
RTVSPropertyOp55
 70
     1
102
RTVSPropertyOp56
 70
     0
102
RTVSPropertyOp57
 70
     0
102
RTVSPropertyOp58
 70
     0
102
RTVSPropertyOp59
 70
     0
102
RTVSPropertyOp60
 70
     0
102
RTVSPropertyOp61
 70
     0
102
RTVSPropertyOp62
 70
     0
  0
XRECORD
  5
830
102
{ACAD_REACTORS
330
82F
102
}
330
82F
100
AcDbXrecord
280
     1
102
RTVSPost2010Prop28
280
     0
102
RTVSPost2010PropOp28
 70
     1
102
RTVSPost2010Prop29
280
     1
102
RTVSPost2010PropOp29
 70
     1
102
RTVSPost2010Prop30
280
     1
102
RTVSPost2010PropOp30
 70
     1
102
RTVSPost2010Prop31
280
     0
102
RTVSPost2010PropOp31
 70
     1
102
RTVSPost2010Prop32
280
     0
102
RTVSPost2010PropOp32
 70
     1
102
RTVSPost2010Prop33
280
     0
102
RTVSPost2010PropOp33
 70
     1
102
RTVSPost2010Prop34
280
     0
102
RTVSPost2010PropOp34
 70
     1
102
RTVSPost2010Prop35
280
     0
102
RTVSPost2010PropOp35
 70
     1
102
RTVSPost2010Prop36
280
     0
102
RTVSPost2010PropOp36
 70
     1
102
RTVSPost2010Prop37
 90
       50
102
RTVSPost2010PropOp37
 70
     1
102
RTVSPost2010Prop38
140
0.0
102
RTVSPost2010PropOp38
 70
     1
102
RTVSPost2010Prop39
140
1.0
102
RTVSPost2010PropOp39
 70
     1
102
RTVSPost2010Prop40
 90
        0
102
RTVSPost2010PropOp40
 70
     1
102
RTVSPost2010Prop41ColorIndex
 90
       18
102
RTVSPost2010Prop41ColorRGB
 90
        0
102
RTVSPost2010PropOp41
 70
     1
102
RTVSPost2010Prop42
 90
       50
102
RTVSPost2010PropOp42
 70
     1
102
RTVSPost2010Prop43
 90
        3
102
RTVSPost2010PropOp43
 70
     1
102
RTVSPost2010Prop44ColorIndex
 90
        5
102
RTVSPost2010Prop44ColorRGB
 90
      255
102
RTVSPost2010PropOp44
 70
     1
102
RTVSPost2010Prop45
280
     0
102
RTVSPost2010PropOp45
 70
     1
102
RTVSPost2010Prop46
 90
       50
102
RTVSPost2010PropOp46
 70
     1
102
RTVSPost2010Prop47
 90
       50
102
RTVSPost2010PropOp47
 70
     1
102
RTVSPost2010Prop48
 90
       50
102
RTVSPost2010PropOp48
 70
     1
102
RTVSPost2010Prop49
280
     0
102
RTVSPost2010PropOp49
 70
     1
102
RTVSPost2010Prop50
 90
       50
102
RTVSPost2010PropOp50
 70
     1
102
RTVSPost2010Prop51ColorIndex
 90
      256
102
RTVSPost2010Prop51ColorRGB
 90
-16777216
102
RTVSPost2010PropOp51
 70
     0
102
RTVSPost2010Prop52
140
1.0
102
RTVSPost2010PropOp52
 70
     0
102
RTVSPost2010Prop53
 90
        2
102
RTVSPost2010PropOp53
 70
     1
102
RTVSPost2010Prop54
  1
strokes_ogs.tif
102
RTVSPost2010PropOp54
 70
     1
102
RTVSPost2010Prop55
280
     0
102
RTVSPost2010PropOp55
 70
     1
102
RTVSPost2010Prop56
140
1.0
102
RTVSPost2010PropOp56
 70
     1
102
RTVSPost2010Prop57
140
1.0
102
RTVSPost2010PropOp57
 70
     1
102
RTVSPropertyOp0
 70
     1
102
RTVSPropertyOp1
 70
     1
102
RTVSPropertyOp2
 70
     1
102
RTVSPropertyOp3
 70
     1
102
RTVSPropertyOp4
 70
     1
102
RTVSPropertyOp5
 70
     1
102
RTVSPropertyOp6
 70
     1
102
RTVSPropertyOp7
 70
     1
102
RTVSPropertyOp8
 70
     1
102
RTVSPropertyOp9
 70
     1
102
RTVSPropertyOp10
 70
     1
102
RTVSPropertyOp11
 70
     1
102
RTVSPropertyOp12
 70
     1
102
RTVSPropertyOp13
 70
     1
102
RTVSPropertyOp14
 70
     1
102
RTVSPropertyOp15
 70
     1
102
RTVSPropertyOp16
 70
     1
102
RTVSPropertyOp17
 70
     1
102
RTVSPropertyOp18
 70
     1
102
RTVSPropertyOp19
 70
     1
102
RTVSPropertyOp20
 70
     1
102
RTVSPropertyOp21
 70
     1
102
RTVSPropertyOp22
 70
     1
102
RTVSPropertyOp23
 70
     1
102
RTVSPropertyOp24
 70
     1
102
RTVSPropertyOp25
 70
     1
102
RTVSPropertyOp26
 70
     1
102
RTVSPropertyOp27
 70
     1
102
RTVSPropertyOp28
 70
     1
102
RTVSPropertyOp29
 70
     1
102
RTVSPropertyOp30
 70
     1
102
RTVSPropertyOp31
 70
     1
102
RTVSPropertyOp32
 70
     1
102
RTVSPropertyOp33
 70
     1
102
RTVSPropertyOp34
 70
     1
102
RTVSPropertyOp35
 70
     1
102
RTVSPropertyOp36
 70
     1
102
RTVSPropertyOp37
 70
     1
102
RTVSPropertyOp38
 70
     1
102
RTVSPropertyOp39
 70
     1
102
RTVSPropertyOp40
 70
     1
102
RTVSPropertyOp41
 70
     1
102
RTVSPropertyOp42
 70
     1
102
RTVSPropertyOp43
 70
     1
102
RTVSPropertyOp44
 70
     1
102
RTVSPropertyOp45
 70
     1
102
RTVSPropertyOp46
 70
     1
102
RTVSPropertyOp47
 70
     1
102
RTVSPropertyOp48
 70
     1
102
RTVSPropertyOp49
 70
     1
102
RTVSPropertyOp50
 70
     1
102
RTVSPropertyOp51
 70
     0
102
RTVSPropertyOp52
 70
     0
102
RTVSPropertyOp53
 70
     1
102
RTVSPropertyOp54
 70
     1
102
RTVSPropertyOp55
 70
     1
102
RTVSPropertyOp56
 70
     1
102
RTVSPropertyOp57
 70
     1
102
RTVSPropertyOp58
 70
     1
102
RTVSPropertyOp59
 70
     1
102
RTVSPropertyOp60
 70
     1
102
RTVSPropertyOp61
 70
     1
102
RTVSPropertyOp62
 70
     1
  0
XRECORD
  5
842
102
{ACAD_REACTORS
330
841
102
}
330
841
100
AcDbXrecord
280
     1
102
RTVSPost2010Prop28
280
     0
102
RTVSPost2010PropOp28
 70
     1
102
RTVSPost2010Prop29
280
     1
102
RTVSPost2010PropOp29
 70
     1
102
RTVSPost2010Prop30
280
     1
102
RTVSPost2010PropOp30
 70
     1
102
RTVSPost2010Prop31
280
     0
102
RTVSPost2010PropOp31
 70
     1
102
RTVSPost2010Prop32
280
     0
102
RTVSPost2010PropOp32
 70
     1
102
RTVSPost2010Prop33
280
     0
102
RTVSPost2010PropOp33
 70
     1
102
RTVSPost2010Prop34
280
     0
102
RTVSPost2010PropOp34
 70
     1
102
RTVSPost2010Prop35
280
     0
102
RTVSPost2010PropOp35
 70
     1
102
RTVSPost2010Prop36
280
     0
102
RTVSPost2010PropOp36
 70
     1
102
RTVSPost2010Prop37
 90
       50
102
RTVSPost2010PropOp37
 70
     0
102
RTVSPost2010Prop38
140
0.0
102
RTVSPost2010PropOp38
 70
     0
102
RTVSPost2010Prop39
140
1.0
102
RTVSPost2010PropOp39
 70
     0
102
RTVSPost2010Prop40
 90
        0
102
RTVSPost2010PropOp40
 70
     0
102
RTVSPost2010Prop41ColorIndex
 90
       18
102
RTVSPost2010Prop41ColorRGB
 90
        0
102
RTVSPost2010PropOp41
 70
     0
102
RTVSPost2010Prop42
 90
       50
102
RTVSPost2010PropOp42
 70
     0
102
RTVSPost2010Prop43
 90
        3
102
RTVSPost2010PropOp43
 70
     0
102
RTVSPost2010Prop44ColorIndex
 90
        5
102
RTVSPost2010Prop44ColorRGB
 90
      255
102
RTVSPost2010PropOp44
 70
     0
102
RTVSPost2010Prop45
280
     0
102
RTVSPost2010PropOp45
 70
     1
102
RTVSPost2010Prop46
 90
       50
102
RTVSPost2010PropOp46
 70
     0
102
RTVSPost2010Prop47
 90
       50
102
RTVSPost2010PropOp47
 70
     0
102
RTVSPost2010Prop48
 90
       50
102
RTVSPost2010PropOp48
 70
     0
102
RTVSPost2010Prop49
280
     0
102
RTVSPost2010PropOp49
 70
     1
102
RTVSPost2010Prop50
 90
       50
102
RTVSPost2010PropOp50
 70
     0
102
RTVSPost2010Prop51ColorIndex
 90
      256
102
RTVSPost2010Prop51ColorRGB
 90
-16777216
102
RTVSPost2010PropOp51
 70
     0
102
RTVSPost2010Prop52
140
1.0
102
RTVSPost2010PropOp52
 70
     0
102
RTVSPost2010Prop53
 90
        2
102
RTVSPost2010PropOp53
 70
     0
102
RTVSPost2010Prop54
  1
strokes_ogs.tif
102
RTVSPost2010PropOp54
 70
     0
102
RTVSPost2010Prop55
280
     0
102
RTVSPost2010PropOp55
 70
     1
102
RTVSPost2010Prop56
140
1.0
102
RTVSPost2010PropOp56
 70
     0
102
RTVSPost2010Prop57
140
1.0
102
RTVSPost2010PropOp57
 70
     0
102
RTVSPropertyOp0
 70
     0
102
RTVSPropertyOp1
 70
     0
102
RTVSPropertyOp2
 70
     0
102
RTVSPropertyOp3
 70
     0
102
RTVSPropertyOp4
 70
     0
102
RTVSPropertyOp5
 70
     0
102
RTVSPropertyOp6
 70
     0
102
RTVSPropertyOp7
 70
     0
102
RTVSPropertyOp8
 70
     0
102
RTVSPropertyOp9
 70
     0
102
RTVSPropertyOp10
 70
     0
102
RTVSPropertyOp11
 70
     0
102
RTVSPropertyOp12
 70
     0
102
RTVSPropertyOp13
 70
     0
102
RTVSPropertyOp14
 70
     2
102
RTVSPropertyOp15
 70
     0
102
RTVSPropertyOp16
 70
     0
102
RTVSPropertyOp17
 70
     0
102
RTVSPropertyOp18
 70
     0
102
RTVSPropertyOp19
 70
     0
102
RTVSPropertyOp20
 70
     0
102
RTVSPropertyOp21
 70
     0
102
RTVSPropertyOp22
 70
     0
102
RTVSPropertyOp23
 70
     0
102
RTVSPropertyOp24
 70
     0
102
RTVSPropertyOp25
 70
     0
102
RTVSPropertyOp26
 70
     0
102
RTVSPropertyOp27
 70
     0
102
RTVSPropertyOp28
 70
     1
102
RTVSPropertyOp29
 70
     1
102
RTVSPropertyOp30
 70
     1
102
RTVSPropertyOp31
 70
     1
102
RTVSPropertyOp32
 70
     1
102
RTVSPropertyOp33
 70
     1
102
RTVSPropertyOp34
 70
     1
102
RTVSPropertyOp35
 70
     1
102
RTVSPropertyOp36
 70
     1
102
RTVSPropertyOp37
 70
     0
102
RTVSPropertyOp38
 70
     0
102
RTVSPropertyOp39
 70
     0
102
RTVSPropertyOp40
 70
     0
102
RTVSPropertyOp41
 70
     0
102
RTVSPropertyOp42
 70
     0
102
RTVSPropertyOp43
 70
     0
102
RTVSPropertyOp44
 70
     0
102
RTVSPropertyOp45
 70
     1
102
RTVSPropertyOp46
 70
     0
102
RTVSPropertyOp47
 70
     0
102
RTVSPropertyOp48
 70
     0
102
RTVSPropertyOp49
 70
     1
102
RTVSPropertyOp50
 70
     0
102
RTVSPropertyOp51
 70
     0
102
RTVSPropertyOp52
 70
     0
102
RTVSPropertyOp53
 70
     0
102
RTVSPropertyOp54
 70
     0
102
RTVSPropertyOp55
 70
     1
102
RTVSPropertyOp56
 70
     0
102
RTVSPropertyOp57
 70
     0
102
RTVSPropertyOp58
 70
     0
102
RTVSPropertyOp59
 70
     0
102
RTVSPropertyOp60
 70
     0
102
RTVSPropertyOp61
 70
     0
102
RTVSPropertyOp62
 70
     0
  0
XRECORD
  5
828
102
{ACAD_REACTORS
330
827
102
}
330
827
100
AcDbXrecord
280
     1
102
RTVSPost2010Prop28
280
     0
102
RTVSPost2010PropOp28
 70
     1
102
RTVSPost2010Prop29
280
     1
102
RTVSPost2010PropOp29
 70
     1
102
RTVSPost2010Prop30
280
     1
102
RTVSPost2010PropOp30
 70
     1
102
RTVSPost2010Prop31
280
     0
102
RTVSPost2010PropOp31
 70
     1
102
RTVSPost2010Prop32
280
     0
102
RTVSPost2010PropOp32
 70
     1
102
RTVSPost2010Prop33
280
     0
102
RTVSPost2010PropOp33
 70
     1
102
RTVSPost2010Prop34
280
     0
102
RTVSPost2010PropOp34
 70
     1
102
RTVSPost2010Prop35
280
     0
102
RTVSPost2010PropOp35
 70
     1
102
RTVSPost2010Prop36
280
     0
102
RTVSPost2010PropOp36
 70
     1
102
RTVSPost2010Prop37
 90
       50
102
RTVSPost2010PropOp37
 70
     1
102
RTVSPost2010Prop38
140
0.0
102
RTVSPost2010PropOp38
 70
     1
102
RTVSPost2010Prop39
140
1.0
102
RTVSPost2010PropOp39
 70
     1
102
RTVSPost2010Prop40
 90
        0
102
RTVSPost2010PropOp40
 70
     1
102
RTVSPost2010Prop41ColorIndex
 90
       18
102
RTVSPost2010Prop41ColorRGB
 90
        0
102
RTVSPost2010PropOp41
 70
     1
102
RTVSPost2010Prop42
 90
       50
102
RTVSPost2010PropOp42
 70
     1
102
RTVSPost2010Prop43
 90
        3
102
RTVSPost2010PropOp43
 70
     1
102
RTVSPost2010Prop44ColorIndex
 90
        5
102
RTVSPost2010Prop44ColorRGB
 90
      255
102
RTVSPost2010PropOp44
 70
     1
102
RTVSPost2010Prop45
280
     0
102
RTVSPost2010PropOp45
 70
     1
102
RTVSPost2010Prop46
 90
       50
102
RTVSPost2010PropOp46
 70
     1
102
RTVSPost2010Prop47
 90
       50
102
RTVSPost2010PropOp47
 70
     1
102
RTVSPost2010Prop48
 90
       50
102
RTVSPost2010PropOp48
 70
     1
102
RTVSPost2010Prop49
280
     0
102
RTVSPost2010PropOp49
 70
     1
102
RTVSPost2010Prop50
 90
       50
102
RTVSPost2010PropOp50
 70
     1
102
RTVSPost2010Prop51ColorIndex
 90
      256
102
RTVSPost2010Prop51ColorRGB
 90
-16777216
102
RTVSPost2010PropOp51
 70
     0
102
RTVSPost2010Prop52
140
1.0
102
RTVSPost2010PropOp52
 70
     0
102
RTVSPost2010Prop53
 90
        2
102
RTVSPost2010PropOp53
 70
     1
102
RTVSPost2010Prop54
  1
strokes_ogs.tif
102
RTVSPost2010PropOp54
 70
     1
102
RTVSPost2010Prop55
280
     0
102
RTVSPost2010PropOp55
 70
     1
102
RTVSPost2010Prop56
140
1.0
102
RTVSPost2010PropOp56
 70
     1
102
RTVSPost2010Prop57
140
1.0
102
RTVSPost2010PropOp57
 70
     1
102
RTVSPropertyOp0
 70
     1
102
RTVSPropertyOp1
 70
     1
102
RTVSPropertyOp2
 70
     1
102
RTVSPropertyOp3
 70
     1
102
RTVSPropertyOp4
 70
     1
102
RTVSPropertyOp5
 70
     1
102
RTVSPropertyOp6
 70
     1
102
RTVSPropertyOp7
 70
     1
102
RTVSPropertyOp8
 70
     1
102
RTVSPropertyOp9
 70
     1
102
RTVSPropertyOp10
 70
     1
102
RTVSPropertyOp11
 70
     1
102
RTVSPropertyOp12
 70
     1
102
RTVSPropertyOp13
 70
     1
102
RTVSPropertyOp14
 70
     1
102
RTVSPropertyOp15
 70
     1
102
RTVSPropertyOp16
 70
     1
102
RTVSPropertyOp17
 70
     1
102
RTVSPropertyOp18
 70
     1
102
RTVSPropertyOp19
 70
     1
102
RTVSPropertyOp20
 70
     1
102
RTVSPropertyOp21
 70
     1
102
RTVSPropertyOp22
 70
     1
102
RTVSPropertyOp23
 70
     1
102
RTVSPropertyOp24
 70
     1
102
RTVSPropertyOp25
 70
     1
102
RTVSPropertyOp26
 70
     1
102
RTVSPropertyOp27
 70
     1
102
RTVSPropertyOp28
 70
     1
102
RTVSPropertyOp29
 70
     1
102
RTVSPropertyOp30
 70
     1
102
RTVSPropertyOp31
 70
     1
102
RTVSPropertyOp32
 70
     1
102
RTVSPropertyOp33
 70
     1
102
RTVSPropertyOp34
 70
     1
102
RTVSPropertyOp35
 70
     1
102
RTVSPropertyOp36
 70
     1
102
RTVSPropertyOp37
 70
     1
102
RTVSPropertyOp38
 70
     1
102
RTVSPropertyOp39
 70
     1
102
RTVSPropertyOp40
 70
     1
102
RTVSPropertyOp41
 70
     1
102
RTVSPropertyOp42
 70
     1
102
RTVSPropertyOp43
 70
     1
102
RTVSPropertyOp44
 70
     1
102
RTVSPropertyOp45
 70
     1
102
RTVSPropertyOp46
 70
     1
102
RTVSPropertyOp47
 70
     1
102
RTVSPropertyOp48
 70
     1
102
RTVSPropertyOp49
 70
     1
102
RTVSPropertyOp50
 70
     1
102
RTVSPropertyOp51
 70
     0
102
RTVSPropertyOp52
 70
     0
102
RTVSPropertyOp53
 70
     1
102
RTVSPropertyOp54
 70
     1
102
RTVSPropertyOp55
 70
     1
102
RTVSPropertyOp56
 70
     1
102
RTVSPropertyOp57
 70
     1
102
RTVSPropertyOp58
 70
     1
102
RTVSPropertyOp59
 70
     1
102
RTVSPropertyOp60
 70
     1
102
RTVSPropertyOp61
 70
     1
102
RTVSPropertyOp62
 70
     1
  0
XRECORD
  5
83E
102
{ACAD_REACTORS
330
83D
102
}
330
83D
100
AcDbXrecord
280
     1
102
RTVSPost2010Prop28
280
     0
102
RTVSPost2010PropOp28
 70
     1
102
RTVSPost2010Prop29
280
     1
102
RTVSPost2010PropOp29
 70
     1
102
RTVSPost2010Prop30
280
     1
102
RTVSPost2010PropOp30
 70
     1
102
RTVSPost2010Prop31
280
     0
102
RTVSPost2010PropOp31
 70
     1
102
RTVSPost2010Prop32
280
     0
102
RTVSPost2010PropOp32
 70
     1
102
RTVSPost2010Prop33
280
     0
102
RTVSPost2010PropOp33
 70
     1
102
RTVSPost2010Prop34
280
     0
102
RTVSPost2010PropOp34
 70
     1
102
RTVSPost2010Prop35
280
     0
102
RTVSPost2010PropOp35
 70
     1
102
RTVSPost2010Prop36
280
     0
102
RTVSPost2010PropOp36
 70
     1
102
RTVSPost2010Prop37
 90
       50
102
RTVSPost2010PropOp37
 70
     1
102
RTVSPost2010Prop38
140
0.0
102
RTVSPost2010PropOp38
 70
     1
102
RTVSPost2010Prop39
140
1.0
102
RTVSPost2010PropOp39
 70
     1
102
RTVSPost2010Prop40
 90
        0
102
RTVSPost2010PropOp40
 70
     1
102
RTVSPost2010Prop41ColorIndex
 90
       18
102
RTVSPost2010Prop41ColorRGB
 90
        0
102
RTVSPost2010PropOp41
 70
     1
102
RTVSPost2010Prop42
 90
       50
102
RTVSPost2010PropOp42
 70
     1
102
RTVSPost2010Prop43
 90
        3
102
RTVSPost2010PropOp43
 70
     1
102
RTVSPost2010Prop44ColorIndex
 90
        5
102
RTVSPost2010Prop44ColorRGB
 90
      255
102
RTVSPost2010PropOp44
 70
     1
102
RTVSPost2010Prop45
280
     0
102
RTVSPost2010PropOp45
 70
     1
102
RTVSPost2010Prop46
 90
       50
102
RTVSPost2010PropOp46
 70
     1
102
RTVSPost2010Prop47
 90
       50
102
RTVSPost2010PropOp47
 70
     1
102
RTVSPost2010Prop48
 90
       50
102
RTVSPost2010PropOp48
 70
     1
102
RTVSPost2010Prop49
280
     0
102
RTVSPost2010PropOp49
 70
     1
102
RTVSPost2010Prop50
 90
       50
102
RTVSPost2010PropOp50
 70
     1
102
RTVSPost2010Prop51ColorIndex
 90
      256
102
RTVSPost2010Prop51ColorRGB
 90
-16777216
102
RTVSPost2010PropOp51
 70
     0
102
RTVSPost2010Prop52
140
1.0
102
RTVSPost2010PropOp52
 70
     0
102
RTVSPost2010Prop53
 90
        2
102
RTVSPost2010PropOp53
 70
     1
102
RTVSPost2010Prop54
  1
strokes_ogs.tif
102
RTVSPost2010PropOp54
 70
     1
102
RTVSPost2010Prop55
280
     0
102
RTVSPost2010PropOp55
 70
     1
102
RTVSPost2010Prop56
140
1.0
102
RTVSPost2010PropOp56
 70
     1
102
RTVSPost2010Prop57
140
1.0
102
RTVSPost2010PropOp57
 70
     1
102
RTVSPropertyOp0
 70
     1
102
RTVSPropertyOp1
 70
     1
102
RTVSPropertyOp2
 70
     1
102
RTVSPropertyOp3
 70
     1
102
RTVSPropertyOp4
 70
     1
102
RTVSPropertyOp5
 70
     1
102
RTVSPropertyOp6
 70
     1
102
RTVSPropertyOp7
 70
     1
102
RTVSPropertyOp8
 70
     1
102
RTVSPropertyOp9
 70
     1
102
RTVSPropertyOp10
 70
     1
102
RTVSPropertyOp11
 70
     1
102
RTVSPropertyOp12
 70
     1
102
RTVSPropertyOp13
 70
     1
102
RTVSPropertyOp14
 70
     1
102
RTVSPropertyOp15
 70
     1
102
RTVSPropertyOp16
 70
     1
102
RTVSPropertyOp17
 70
     1
102
RTVSPropertyOp18
 70
     1
102
RTVSPropertyOp19
 70
     1
102
RTVSPropertyOp20
 70
     1
102
RTVSPropertyOp21
 70
     1
102
RTVSPropertyOp22
 70
     1
102
RTVSPropertyOp23
 70
     1
102
RTVSPropertyOp24
 70
     1
102
RTVSPropertyOp25
 70
     1
102
RTVSPropertyOp26
 70
     1
102
RTVSPropertyOp27
 70
     1
102
RTVSPropertyOp28
 70
     1
102
RTVSPropertyOp29
 70
     1
102
RTVSPropertyOp30
 70
     1
102
RTVSPropertyOp31
 70
     1
102
RTVSPropertyOp32
 70
     1
102
RTVSPropertyOp33
 70
     1
102
RTVSPropertyOp34
 70
     1
102
RTVSPropertyOp35
 70
     1
102
RTVSPropertyOp36
 70
     1
102
RTVSPropertyOp37
 70
     1
102
RTVSPropertyOp38
 70
     1
102
RTVSPropertyOp39
 70
     1
102
RTVSPropertyOp40
 70
     1
102
RTVSPropertyOp41
 70
     1
102
RTVSPropertyOp42
 70
     1
102
RTVSPropertyOp43
 70
     1
102
RTVSPropertyOp44
 70
     1
102
RTVSPropertyOp45
 70
     1
102
RTVSPropertyOp46
 70
     1
102
RTVSPropertyOp47
 70
     1
102
RTVSPropertyOp48
 70
     1
102
RTVSPropertyOp49
 70
     1
102
RTVSPropertyOp50
 70
     1
102
RTVSPropertyOp51
 70
     0
102
RTVSPropertyOp52
 70
     0
102
RTVSPropertyOp53
 70
     1
102
RTVSPropertyOp54
 70
     1
102
RTVSPropertyOp55
 70
     1
102
RTVSPropertyOp56
 70
     1
102
RTVSPropertyOp57
 70
     1
102
RTVSPropertyOp58
 70
     1
102
RTVSPropertyOp59
 70
     1
102
RTVSPropertyOp60
 70
     1
102
RTVSPropertyOp61
 70
     1
102
RTVSPropertyOp62
 70
     1
  0
XRECORD
  5
83C
102
{ACAD_REACTORS
330
83B
102
}
330
83B
100
AcDbXrecord
280
     1
102
RTVSPost2010Prop28
280
     0
102
RTVSPost2010PropOp28
 70
     1
102
RTVSPost2010Prop29
280
     1
102
RTVSPost2010PropOp29
 70
     1
102
RTVSPost2010Prop30
280
     1
102
RTVSPost2010PropOp30
 70
     1
102
RTVSPost2010Prop31
280
     0
102
RTVSPost2010PropOp31
 70
     1
102
RTVSPost2010Prop32
280
     0
102
RTVSPost2010PropOp32
 70
     1
102
RTVSPost2010Prop33
280
     0
102
RTVSPost2010PropOp33
 70
     1
102
RTVSPost2010Prop34
280
     0
102
RTVSPost2010PropOp34
 70
     1
102
RTVSPost2010Prop35
280
     0
102
RTVSPost2010PropOp35
 70
     1
102
RTVSPost2010Prop36
280
     0
102
RTVSPost2010PropOp36
 70
     1
102
RTVSPost2010Prop37
 90
       50
102
RTVSPost2010PropOp37
 70
     1
102
RTVSPost2010Prop38
140
0.0
102
RTVSPost2010PropOp38
 70
     1
102
RTVSPost2010Prop39
140
1.0
102
RTVSPost2010PropOp39
 70
     1
102
RTVSPost2010Prop40
 90
        0
102
RTVSPost2010PropOp40
 70
     1
102
RTVSPost2010Prop41ColorIndex
 90
       18
102
RTVSPost2010Prop41ColorRGB
 90
        0
102
RTVSPost2010PropOp41
 70
     1
102
RTVSPost2010Prop42
 90
       50
102
RTVSPost2010PropOp42
 70
     1
102
RTVSPost2010Prop43
 90
        3
102
RTVSPost2010PropOp43
 70
     1
102
RTVSPost2010Prop44ColorIndex
 90
        5
102
RTVSPost2010Prop44ColorRGB
 90
      255
102
RTVSPost2010PropOp44
 70
     1
102
RTVSPost2010Prop45
280
     0
102
RTVSPost2010PropOp45
 70
     1
102
RTVSPost2010Prop46
 90
       50
102
RTVSPost2010PropOp46
 70
     1
102
RTVSPost2010Prop47
 90
       50
102
RTVSPost2010PropOp47
 70
     1
102
RTVSPost2010Prop48
 90
       50
102
RTVSPost2010PropOp48
 70
     1
102
RTVSPost2010Prop49
280
     0
102
RTVSPost2010PropOp49
 70
     1
102
RTVSPost2010Prop50
 90
       50
102
RTVSPost2010PropOp50
 70
     1
102
RTVSPost2010Prop51ColorIndex
 90
      256
102
RTVSPost2010Prop51ColorRGB
 90
-16777216
102
RTVSPost2010PropOp51
 70
     0
102
RTVSPost2010Prop52
140
1.0
102
RTVSPost2010PropOp52
 70
     0
102
RTVSPost2010Prop53
 90
        2
102
RTVSPost2010PropOp53
 70
     1
102
RTVSPost2010Prop54
  1
strokes_ogs.tif
102
RTVSPost2010PropOp54
 70
     1
102
RTVSPost2010Prop55
280
     0
102
RTVSPost2010PropOp55
 70
     1
102
RTVSPost2010Prop56
140
1.0
102
RTVSPost2010PropOp56
 70
     1
102
RTVSPost2010Prop57
140
1.0
102
RTVSPost2010PropOp57
 70
     1
102
RTVSPropertyOp0
 70
     1
102
RTVSPropertyOp1
 70
     1
102
RTVSPropertyOp2
 70
     1
102
RTVSPropertyOp3
 70
     1
102
RTVSPropertyOp4
 70
     1
102
RTVSPropertyOp5
 70
     1
102
RTVSPropertyOp6
 70
     1
102
RTVSPropertyOp7
 70
     1
102
RTVSPropertyOp8
 70
     1
102
RTVSPropertyOp9
 70
     1
102
RTVSPropertyOp10
 70
     1
102
RTVSPropertyOp11
 70
     1
102
RTVSPropertyOp12
 70
     1
102
RTVSPropertyOp13
 70
     1
102
RTVSPropertyOp14
 70
     1
102
RTVSPropertyOp15
 70
     1
102
RTVSPropertyOp16
 70
     1
102
RTVSPropertyOp17
 70
     1
102
RTVSPropertyOp18
 70
     1
102
RTVSPropertyOp19
 70
     1
102
RTVSPropertyOp20
 70
     1
102
RTVSPropertyOp21
 70
     1
102
RTVSPropertyOp22
 70
     1
102
RTVSPropertyOp23
 70
     1
102
RTVSPropertyOp24
 70
     1
102
RTVSPropertyOp25
 70
     1
102
RTVSPropertyOp26
 70
     1
102
RTVSPropertyOp27
 70
     1
102
RTVSPropertyOp28
 70
     1
102
RTVSPropertyOp29
 70
     1
102
RTVSPropertyOp30
 70
     1
102
RTVSPropertyOp31
 70
     1
102
RTVSPropertyOp32
 70
     1
102
RTVSPropertyOp33
 70
     1
102
RTVSPropertyOp34
 70
     1
102
RTVSPropertyOp35
 70
     1
102
RTVSPropertyOp36
 70
     1
102
RTVSPropertyOp37
 70
     1
102
RTVSPropertyOp38
 70
     1
102
RTVSPropertyOp39
 70
     1
102
RTVSPropertyOp40
 70
     1
102
RTVSPropertyOp41
 70
     1
102
RTVSPropertyOp42
 70
     1
102
RTVSPropertyOp43
 70
     1
102
RTVSPropertyOp44
 70
     1
102
RTVSPropertyOp45
 70
     1
102
RTVSPropertyOp46
 70
     1
102
RTVSPropertyOp47
 70
     1
102
RTVSPropertyOp48
 70
     1
102
RTVSPropertyOp49
 70
     1
102
RTVSPropertyOp50
 70
     1
102
RTVSPropertyOp51
 70
     0
102
RTVSPropertyOp52
 70
     0
102
RTVSPropertyOp53
 70
     1
102
RTVSPropertyOp54
 70
     1
102
RTVSPropertyOp55
 70
     1
102
RTVSPropertyOp56
 70
     1
102
RTVSPropertyOp57
 70
     1
102
RTVSPropertyOp58
 70
     1
102
RTVSPropertyOp59
 70
     1
102
RTVSPropertyOp60
 70
     1
102
RTVSPropertyOp61
 70
     1
102
RTVSPropertyOp62
 70
     1
  0
XRECORD
  5
836
102
{ACAD_REACTORS
330
835
102
}
330
835
100
AcDbXrecord
280
     1
102
RTVSPost2010Prop28
280
     0
102
RTVSPost2010PropOp28
 70
     1
102
RTVSPost2010Prop29
280
     1
102
RTVSPost2010PropOp29
 70
     1
102
RTVSPost2010Prop30
280
     1
102
RTVSPost2010PropOp30
 70
     1
102
RTVSPost2010Prop31
280
     0
102
RTVSPost2010PropOp31
 70
     1
102
RTVSPost2010Prop32
280
     0
102
RTVSPost2010PropOp32
 70
     1
102
RTVSPost2010Prop33
280
     0
102
RTVSPost2010PropOp33
 70
     1
102
RTVSPost2010Prop34
280
     0
102
RTVSPost2010PropOp34
 70
     1
102
RTVSPost2010Prop35
280
     0
102
RTVSPost2010PropOp35
 70
     1
102
RTVSPost2010Prop36
280
     0
102
RTVSPost2010PropOp36
 70
     1
102
RTVSPost2010Prop37
 90
       50
102
RTVSPost2010PropOp37
 70
     1
102
RTVSPost2010Prop38
140
0.0
102
RTVSPost2010PropOp38
 70
     1
102
RTVSPost2010Prop39
140
1.0
102
RTVSPost2010PropOp39
 70
     1
102
RTVSPost2010Prop40
 90
        0
102
RTVSPost2010PropOp40
 70
     1
102
RTVSPost2010Prop41ColorIndex
 90
       18
102
RTVSPost2010Prop41ColorRGB
 90
        0
102
RTVSPost2010PropOp41
 70
     1
102
RTVSPost2010Prop42
 90
       50
102
RTVSPost2010PropOp42
 70
     1
102
RTVSPost2010Prop43
 90
        3
102
RTVSPost2010PropOp43
 70
     1
102
RTVSPost2010Prop44ColorIndex
 90
        5
102
RTVSPost2010Prop44ColorRGB
 90
      255
102
RTVSPost2010PropOp44
 70
     1
102
RTVSPost2010Prop45
280
     0
102
RTVSPost2010PropOp45
 70
     1
102
RTVSPost2010Prop46
 90
       50
102
RTVSPost2010PropOp46
 70
     1
102
RTVSPost2010Prop47
 90
       50
102
RTVSPost2010PropOp47
 70
     1
102
RTVSPost2010Prop48
 90
       50
102
RTVSPost2010PropOp48
 70
     1
102
RTVSPost2010Prop49
280
     0
102
RTVSPost2010PropOp49
 70
     1
102
RTVSPost2010Prop50
 90
       50
102
RTVSPost2010PropOp50
 70
     1
102
RTVSPost2010Prop51ColorIndex
 90
      256
102
RTVSPost2010Prop51ColorRGB
 90
-16777216
102
RTVSPost2010PropOp51
 70
     0
102
RTVSPost2010Prop52
140
1.0
102
RTVSPost2010PropOp52
 70
     0
102
RTVSPost2010Prop53
 90
        2
102
RTVSPost2010PropOp53
 70
     1
102
RTVSPost2010Prop54
  1
strokes_ogs.tif
102
RTVSPost2010PropOp54
 70
     1
102
RTVSPost2010Prop55
280
     0
102
RTVSPost2010PropOp55
 70
     1
102
RTVSPost2010Prop56
140
1.0
102
RTVSPost2010PropOp56
 70
     1
102
RTVSPost2010Prop57
140
1.0
102
RTVSPost2010PropOp57
 70
     1
102
RTVSPropertyOp0
 70
     1
102
RTVSPropertyOp1
 70
     1
102
RTVSPropertyOp2
 70
     1
102
RTVSPropertyOp3
 70
     1
102
RTVSPropertyOp4
 70
     1
102
RTVSPropertyOp5
 70
     1
102
RTVSPropertyOp6
 70
     1
102
RTVSPropertyOp7
 70
     1
102
RTVSPropertyOp8
 70
     1
102
RTVSPropertyOp9
 70
     1
102
RTVSPropertyOp10
 70
     1
102
RTVSPropertyOp11
 70
     1
102
RTVSPropertyOp12
 70
     1
102
RTVSPropertyOp13
 70
     1
102
RTVSPropertyOp14
 70
     1
102
RTVSPropertyOp15
 70
     1
102
RTVSPropertyOp16
 70
     1
102
RTVSPropertyOp17
 70
     1
102
RTVSPropertyOp18
 70
     1
102
RTVSPropertyOp19
 70
     1
102
RTVSPropertyOp20
 70
     1
102
RTVSPropertyOp21
 70
     1
102
RTVSPropertyOp22
 70
     1
102
RTVSPropertyOp23
 70
     1
102
RTVSPropertyOp24
 70
     1
102
RTVSPropertyOp25
 70
     1
102
RTVSPropertyOp26
 70
     1
102
RTVSPropertyOp27
 70
     1
102
RTVSPropertyOp28
 70
     1
102
RTVSPropertyOp29
 70
     1
102
RTVSPropertyOp30
 70
     1
102
RTVSPropertyOp31
 70
     1
102
RTVSPropertyOp32
 70
     1
102
RTVSPropertyOp33
 70
     1
102
RTVSPropertyOp34
 70
     1
102
RTVSPropertyOp35
 70
     1
102
RTVSPropertyOp36
 70
     1
102
RTVSPropertyOp37
 70
     1
102
RTVSPropertyOp38
 70
     1
102
RTVSPropertyOp39
 70
     1
102
RTVSPropertyOp40
 70
     1
102
RTVSPropertyOp41
 70
     1
102
RTVSPropertyOp42
 70
     1
102
RTVSPropertyOp43
 70
     1
102
RTVSPropertyOp44
 70
     1
102
RTVSPropertyOp45
 70
     1
102
RTVSPropertyOp46
 70
     1
102
RTVSPropertyOp47
 70
     1
102
RTVSPropertyOp48
 70
     1
102
RTVSPropertyOp49
 70
     1
102
RTVSPropertyOp50
 70
     1
102
RTVSPropertyOp51
 70
     0
102
RTVSPropertyOp52
 70
     0
102
RTVSPropertyOp53
 70
     1
102
RTVSPropertyOp54
 70
     1
102
RTVSPropertyOp55
 70
     1
102
RTVSPropertyOp56
 70
     1
102
RTVSPropertyOp57
 70
     1
102
RTVSPropertyOp58
 70
     1
102
RTVSPropertyOp59
 70
     1
102
RTVSPropertyOp60
 70
     1
102
RTVSPropertyOp61
 70
     1
102
RTVSPropertyOp62
 70
     1
  0
XRECORD
  5
838
102
{ACAD_REACTORS
330
837
102
}
330
837
100
AcDbXrecord
280
     1
102
RTVSPost2010Prop28
280
     0
102
RTVSPost2010PropOp28
 70
     1
102
RTVSPost2010Prop29
280
     1
102
RTVSPost2010PropOp29
 70
     1
102
RTVSPost2010Prop30
280
     1
102
RTVSPost2010PropOp30
 70
     1
102
RTVSPost2010Prop31
280
     0
102
RTVSPost2010PropOp31
 70
     1
102
RTVSPost2010Prop32
280
     0
102
RTVSPost2010PropOp32
 70
     1
102
RTVSPost2010Prop33
280
     0
102
RTVSPost2010PropOp33
 70
     1
102
RTVSPost2010Prop34
280
     0
102
RTVSPost2010PropOp34
 70
     1
102
RTVSPost2010Prop35
280
     0
102
RTVSPost2010PropOp35
 70
     1
102
RTVSPost2010Prop36
280
     0
102
RTVSPost2010PropOp36
 70
     1
102
RTVSPost2010Prop37
 90
       50
102
RTVSPost2010PropOp37
 70
     1
102
RTVSPost2010Prop38
140
0.0
102
RTVSPost2010PropOp38
 70
     1
102
RTVSPost2010Prop39
140
1.0
102
RTVSPost2010PropOp39
 70
     1
102
RTVSPost2010Prop40
 90
        0
102
RTVSPost2010PropOp40
 70
     1
102
RTVSPost2010Prop41ColorIndex
 90
       18
102
RTVSPost2010Prop41ColorRGB
 90
        0
102
RTVSPost2010PropOp41
 70
     1
102
RTVSPost2010Prop42
 90
       50
102
RTVSPost2010PropOp42
 70
     1
102
RTVSPost2010Prop43
 90
        3
102
RTVSPost2010PropOp43
 70
     1
102
RTVSPost2010Prop44ColorIndex
 90
        5
102
RTVSPost2010Prop44ColorRGB
 90
      255
102
RTVSPost2010PropOp44
 70
     1
102
RTVSPost2010Prop45
280
     0
102
RTVSPost2010PropOp45
 70
     1
102
RTVSPost2010Prop46
 90
       50
102
RTVSPost2010PropOp46
 70
     1
102
RTVSPost2010Prop47
 90
       50
102
RTVSPost2010PropOp47
 70
     1
102
RTVSPost2010Prop48
 90
       50
102
RTVSPost2010PropOp48
 70
     1
102
RTVSPost2010Prop49
280
     0
102
RTVSPost2010PropOp49
 70
     1
102
RTVSPost2010Prop50
 90
       50
102
RTVSPost2010PropOp50
 70
     1
102
RTVSPost2010Prop51ColorIndex
 90
      256
102
RTVSPost2010Prop51ColorRGB
 90
-16777216
102
RTVSPost2010PropOp51
 70
     0
102
RTVSPost2010Prop52
140
1.0
102
RTVSPost2010PropOp52
 70
     0
102
RTVSPost2010Prop53
 90
        2
102
RTVSPost2010PropOp53
 70
     1
102
RTVSPost2010Prop54
  1
strokes_ogs.tif
102
RTVSPost2010PropOp54
 70
     1
102
RTVSPost2010Prop55
280
     0
102
RTVSPost2010PropOp55
 70
     1
102
RTVSPost2010Prop56
140
1.0
102
RTVSPost2010PropOp56
 70
     1
102
RTVSPost2010Prop57
140
1.0
102
RTVSPost2010PropOp57
 70
     1
102
RTVSPropertyOp0
 70
     1
102
RTVSPropertyOp1
 70
     1
102
RTVSPropertyOp2
 70
     1
102
RTVSPropertyOp3
 70
     1
102
RTVSPropertyOp4
 70
     1
102
RTVSPropertyOp5
 70
     1
102
RTVSPropertyOp6
 70
     1
102
RTVSPropertyOp7
 70
     1
102
RTVSPropertyOp8
 70
     1
102
RTVSPropertyOp9
 70
     1
102
RTVSPropertyOp10
 70
     1
102
RTVSPropertyOp11
 70
     1
102
RTVSPropertyOp12
 70
     1
102
RTVSPropertyOp13
 70
     1
102
RTVSPropertyOp14
 70
     1
102
RTVSPropertyOp15
 70
     1
102
RTVSPropertyOp16
 70
     1
102
RTVSPropertyOp17
 70
     1
102
RTVSPropertyOp18
 70
     1
102
RTVSPropertyOp19
 70
     1
102
RTVSPropertyOp20
 70
     1
102
RTVSPropertyOp21
 70
     1
102
RTVSPropertyOp22
 70
     1
102
RTVSPropertyOp23
 70
     1
102
RTVSPropertyOp24
 70
     1
102
RTVSPropertyOp25
 70
     1
102
RTVSPropertyOp26
 70
     1
102
RTVSPropertyOp27
 70
     1
102
RTVSPropertyOp28
 70
     1
102
RTVSPropertyOp29
 70
     1
102
RTVSPropertyOp30
 70
     1
102
RTVSPropertyOp31
 70
     1
102
RTVSPropertyOp32
 70
     1
102
RTVSPropertyOp33
 70
     1
102
RTVSPropertyOp34
 70
     1
102
RTVSPropertyOp35
 70
     1
102
RTVSPropertyOp36
 70
     1
102
RTVSPropertyOp37
 70
     1
102
RTVSPropertyOp38
 70
     1
102
RTVSPropertyOp39
 70
     1
102
RTVSPropertyOp40
 70
     1
102
RTVSPropertyOp41
 70
     1
102
RTVSPropertyOp42
 70
     1
102
RTVSPropertyOp43
 70
     1
102
RTVSPropertyOp44
 70
     1
102
RTVSPropertyOp45
 70
     1
102
RTVSPropertyOp46
 70
     1
102
RTVSPropertyOp47
 70
     1
102
RTVSPropertyOp48
 70
     1
102
RTVSPropertyOp49
 70
     1
102
RTVSPropertyOp50
 70
     1
102
RTVSPropertyOp51
 70
     0
102
RTVSPropertyOp52
 70
     0
102
RTVSPropertyOp53
 70
     1
102
RTVSPropertyOp54
 70
     1
102
RTVSPropertyOp55
 70
     1
102
RTVSPropertyOp56
 70
     1
102
RTVSPropertyOp57
 70
     1
102
RTVSPropertyOp58
 70
     1
102
RTVSPropertyOp59
 70
     1
102
RTVSPropertyOp60
 70
     1
102
RTVSPropertyOp61
 70
     1
102
RTVSPropertyOp62
 70
     1
  0
XRECORD
  5
82E
102
{ACAD_REACTORS
330
82D
102
}
330
82D
100
AcDbXrecord
280
     1
102
RTVSPost2010Prop28
280
     0
102
RTVSPost2010PropOp28
 70
     1
102
RTVSPost2010Prop29
280
     1
102
RTVSPost2010PropOp29
 70
     1
102
RTVSPost2010Prop30
280
     1
102
RTVSPost2010PropOp30
 70
     1
102
RTVSPost2010Prop31
280
     0
102
RTVSPost2010PropOp31
 70
     1
102
RTVSPost2010Prop32
280
     0
102
RTVSPost2010PropOp32
 70
     1
102
RTVSPost2010Prop33
280
     0
102
RTVSPost2010PropOp33
 70
     1
102
RTVSPost2010Prop34
280
     0
102
RTVSPost2010PropOp34
 70
     1
102
RTVSPost2010Prop35
280
     0
102
RTVSPost2010PropOp35
 70
     1
102
RTVSPost2010Prop36
280
     0
102
RTVSPost2010PropOp36
 70
     1
102
RTVSPost2010Prop37
 90
       50
102
RTVSPost2010PropOp37
 70
     1
102
RTVSPost2010Prop38
140
0.0
102
RTVSPost2010PropOp38
 70
     1
102
RTVSPost2010Prop39
140
1.0
102
RTVSPost2010PropOp39
 70
     1
102
RTVSPost2010Prop40
 90
        0
102
RTVSPost2010PropOp40
 70
     1
102
RTVSPost2010Prop41ColorIndex
 90
       18
102
RTVSPost2010Prop41ColorRGB
 90
        0
102
RTVSPost2010PropOp41
 70
     1
102
RTVSPost2010Prop42
 90
       50
102
RTVSPost2010PropOp42
 70
     1
102
RTVSPost2010Prop43
 90
        3
102
RTVSPost2010PropOp43
 70
     1
102
RTVSPost2010Prop44ColorIndex
 90
        5
102
RTVSPost2010Prop44ColorRGB
 90
      255
102
RTVSPost2010PropOp44
 70
     1
102
RTVSPost2010Prop45
280
     0
102
RTVSPost2010PropOp45
 70
     1
102
RTVSPost2010Prop46
 90
       50
102
RTVSPost2010PropOp46
 70
     1
102
RTVSPost2010Prop47
 90
       50
102
RTVSPost2010PropOp47
 70
     1
102
RTVSPost2010Prop48
 90
       50
102
RTVSPost2010PropOp48
 70
     1
102
RTVSPost2010Prop49
280
     0
102
RTVSPost2010PropOp49
 70
     1
102
RTVSPost2010Prop50
 90
       50
102
RTVSPost2010PropOp50
 70
     1
102
RTVSPost2010Prop51ColorIndex
 90
      256
102
RTVSPost2010Prop51ColorRGB
 90
-16777216
102
RTVSPost2010PropOp51
 70
     0
102
RTVSPost2010Prop52
140
1.0
102
RTVSPost2010PropOp52
 70
     0
102
RTVSPost2010Prop53
 90
        2
102
RTVSPost2010PropOp53
 70
     1
102
RTVSPost2010Prop54
  1
strokes_ogs.tif
102
RTVSPost2010PropOp54
 70
     1
102
RTVSPost2010Prop55
280
     0
102
RTVSPost2010PropOp55
 70
     1
102
RTVSPost2010Prop56
140
1.0
102
RTVSPost2010PropOp56
 70
     1
102
RTVSPost2010Prop57
140
1.0
102
RTVSPost2010PropOp57
 70
     1
102
RTVSPropertyOp0
 70
     1
102
RTVSPropertyOp1
 70
     1
102
RTVSPropertyOp2
 70
     1
102
RTVSPropertyOp3
 70
     1
102
RTVSPropertyOp4
 70
     1
102
RTVSPropertyOp5
 70
     1
102
RTVSPropertyOp6
 70
     1
102
RTVSPropertyOp7
 70
     1
102
RTVSPropertyOp8
 70
     1
102
RTVSPropertyOp9
 70
     1
102
RTVSPropertyOp10
 70
     1
102
RTVSPropertyOp11
 70
     1
102
RTVSPropertyOp12
 70
     1
102
RTVSPropertyOp13
 70
     1
102
RTVSPropertyOp14
 70
     1
102
RTVSPropertyOp15
 70
     1
102
RTVSPropertyOp16
 70
     1
102
RTVSPropertyOp17
 70
     1
102
RTVSPropertyOp18
 70
     1
102
RTVSPropertyOp19
 70
     1
102
RTVSPropertyOp20
 70
     1
102
RTVSPropertyOp21
 70
     1
102
RTVSPropertyOp22
 70
     1
102
RTVSPropertyOp23
 70
     1
102
RTVSPropertyOp24
 70
     1
102
RTVSPropertyOp25
 70
     1
102
RTVSPropertyOp26
 70
     1
102
RTVSPropertyOp27
 70
     1
102
RTVSPropertyOp28
 70
     1
102
RTVSPropertyOp29
 70
     1
102
RTVSPropertyOp30
 70
     1
102
RTVSPropertyOp31
 70
     1
102
RTVSPropertyOp32
 70
     1
102
RTVSPropertyOp33
 70
     1
102
RTVSPropertyOp34
 70
     1
102
RTVSPropertyOp35
 70
     1
102
RTVSPropertyOp36
 70
     1
102
RTVSPropertyOp37
 70
     1
102
RTVSPropertyOp38
 70
     1
102
RTVSPropertyOp39
 70
     1
102
RTVSPropertyOp40
 70
     1
102
RTVSPropertyOp41
 70
     1
102
RTVSPropertyOp42
 70
     1
102
RTVSPropertyOp43
 70
     1
102
RTVSPropertyOp44
 70
     1
102
RTVSPropertyOp45
 70
     1
102
RTVSPropertyOp46
 70
     1
102
RTVSPropertyOp47
 70
     1
102
RTVSPropertyOp48
 70
     1
102
RTVSPropertyOp49
 70
     1
102
RTVSPropertyOp50
 70
     1
102
RTVSPropertyOp51
 70
     0
102
RTVSPropertyOp52
 70
     0
102
RTVSPropertyOp53
 70
     1
102
RTVSPropertyOp54
 70
     1
102
RTVSPropertyOp55
 70
     1
102
RTVSPropertyOp56
 70
     1
102
RTVSPropertyOp57
 70
     1
102
RTVSPropertyOp58
 70
     1
102
RTVSPropertyOp59
 70
     1
102
RTVSPropertyOp60
 70
     1
102
RTVSPropertyOp61
 70
     1
102
RTVSPropertyOp62
 70
     1
  0
XRECORD
  5
822
102
{ACAD_REACTORS
330
821
102
}
330
821
100
AcDbXrecord
280
     1
102
RTVSPost2010Prop28
280
     0
102
RTVSPost2010PropOp28
 70
     1
102
RTVSPost2010Prop29
280
     1
102
RTVSPost2010PropOp29
 70
     1
102
RTVSPost2010Prop30
280
     1
102
RTVSPost2010PropOp30
 70
     1
102
RTVSPost2010Prop31
280
     0
102
RTVSPost2010PropOp31
 70
     1
102
RTVSPost2010Prop32
280
     0
102
RTVSPost2010PropOp32
 70
     1
102
RTVSPost2010Prop33
280
     0
102
RTVSPost2010PropOp33
 70
     1
102
RTVSPost2010Prop34
280
     0
102
RTVSPost2010PropOp34
 70
     1
102
RTVSPost2010Prop35
280
     0
102
RTVSPost2010PropOp35
 70
     1
102
RTVSPost2010Prop36
280
     0
102
RTVSPost2010PropOp36
 70
     1
102
RTVSPost2010Prop37
 90
       50
102
RTVSPost2010PropOp37
 70
     1
102
RTVSPost2010Prop38
140
0.0
102
RTVSPost2010PropOp38
 70
     1
102
RTVSPost2010Prop39
140
1.0
102
RTVSPost2010PropOp39
 70
     1
102
RTVSPost2010Prop40
 90
        0
102
RTVSPost2010PropOp40
 70
     1
102
RTVSPost2010Prop41ColorIndex
 90
       18
102
RTVSPost2010Prop41ColorRGB
 90
        0
102
RTVSPost2010PropOp41
 70
     1
102
RTVSPost2010Prop42
 90
       50
102
RTVSPost2010PropOp42
 70
     1
102
RTVSPost2010Prop43
 90
        3
102
RTVSPost2010PropOp43
 70
     1
102
RTVSPost2010Prop44ColorIndex
 90
        5
102
RTVSPost2010Prop44ColorRGB
 90
      255
102
RTVSPost2010PropOp44
 70
     1
102
RTVSPost2010Prop45
280
     0
102
RTVSPost2010PropOp45
 70
     1
102
RTVSPost2010Prop46
 90
       50
102
RTVSPost2010PropOp46
 70
     1
102
RTVSPost2010Prop47
 90
       50
102
RTVSPost2010PropOp47
 70
     1
102
RTVSPost2010Prop48
 90
       50
102
RTVSPost2010PropOp48
 70
     1
102
RTVSPost2010Prop49
280
     0
102
RTVSPost2010PropOp49
 70
     1
102
RTVSPost2010Prop50
 90
       50
102
RTVSPost2010PropOp50
 70
     1
102
RTVSPost2010Prop51ColorIndex
 90
      256
102
RTVSPost2010Prop51ColorRGB
 90
-16777216
102
RTVSPost2010PropOp51
 70
     0
102
RTVSPost2010Prop52
140
1.0
102
RTVSPost2010PropOp52
 70
     0
102
RTVSPost2010Prop53
 90
        2
102
RTVSPost2010PropOp53
 70
     1
102
RTVSPost2010Prop54
  1
strokes_ogs.tif
102
RTVSPost2010PropOp54
 70
     1
102
RTVSPost2010Prop55
280
     0
102
RTVSPost2010PropOp55
 70
     1
102
RTVSPost2010Prop56
140
1.0
102
RTVSPost2010PropOp56
 70
     1
102
RTVSPost2010Prop57
140
1.0
102
RTVSPost2010PropOp57
 70
     1
102
RTVSPropertyOp0
 70
     1
102
RTVSPropertyOp1
 70
     1
102
RTVSPropertyOp2
 70
     1
102
RTVSPropertyOp3
 70
     1
102
RTVSPropertyOp4
 70
     1
102
RTVSPropertyOp5
 70
     1
102
RTVSPropertyOp6
 70
     1
102
RTVSPropertyOp7
 70
     1
102
RTVSPropertyOp8
 70
     1
102
RTVSPropertyOp9
 70
     1
102
RTVSPropertyOp10
 70
     1
102
RTVSPropertyOp11
 70
     1
102
RTVSPropertyOp12
 70
     1
102
RTVSPropertyOp13
 70
     1
102
RTVSPropertyOp14
 70
     1
102
RTVSPropertyOp15
 70
     1
102
RTVSPropertyOp16
 70
     1
102
RTVSPropertyOp17
 70
     1
102
RTVSPropertyOp18
 70
     1
102
RTVSPropertyOp19
 70
     1
102
RTVSPropertyOp20
 70
     1
102
RTVSPropertyOp21
 70
     1
102
RTVSPropertyOp22
 70
     1
102
RTVSPropertyOp23
 70
     1
102
RTVSPropertyOp24
 70
     1
102
RTVSPropertyOp25
 70
     1
102
RTVSPropertyOp26
 70
     1
102
RTVSPropertyOp27
 70
     1
102
RTVSPropertyOp28
 70
     1
102
RTVSPropertyOp29
 70
     1
102
RTVSPropertyOp30
 70
     1
102
RTVSPropertyOp31
 70
     1
102
RTVSPropertyOp32
 70
     1
102
RTVSPropertyOp33
 70
     1
102
RTVSPropertyOp34
 70
     1
102
RTVSPropertyOp35
 70
     1
102
RTVSPropertyOp36
 70
     1
102
RTVSPropertyOp37
 70
     1
102
RTVSPropertyOp38
 70
     1
102
RTVSPropertyOp39
 70
     1
102
RTVSPropertyOp40
 70
     1
102
RTVSPropertyOp41
 70
     1
102
RTVSPropertyOp42
 70
     1
102
RTVSPropertyOp43
 70
     1
102
RTVSPropertyOp44
 70
     1
102
RTVSPropertyOp45
 70
     1
102
RTVSPropertyOp46
 70
     1
102
RTVSPropertyOp47
 70
     1
102
RTVSPropertyOp48
 70
     1
102
RTVSPropertyOp49
 70
     1
102
RTVSPropertyOp50
 70
     1
102
RTVSPropertyOp51
 70
     0
102
RTVSPropertyOp52
 70
     0
102
RTVSPropertyOp53
 70
     1
102
RTVSPropertyOp54
 70
     1
102
RTVSPropertyOp55
 70
     1
102
RTVSPropertyOp56
 70
     1
102
RTVSPropertyOp57
 70
     1
102
RTVSPropertyOp58
 70
     1
102
RTVSPropertyOp59
 70
     1
102
RTVSPropertyOp60
 70
     1
102
RTVSPropertyOp61
 70
     1
102
RTVSPropertyOp62
 70
     1
  0
XRECORD
  5
83A
102
{ACAD_REACTORS
330
839
102
}
330
839
100
AcDbXrecord
280
     1
102
RTVSPost2010Prop28
280
     0
102
RTVSPost2010PropOp28
 70
     1
102
RTVSPost2010Prop29
280
     1
102
RTVSPost2010PropOp29
 70
     1
102
RTVSPost2010Prop30
280
     1
102
RTVSPost2010PropOp30
 70
     1
102
RTVSPost2010Prop31
280
     0
102
RTVSPost2010PropOp31
 70
     1
102
RTVSPost2010Prop32
280
     0
102
RTVSPost2010PropOp32
 70
     1
102
RTVSPost2010Prop33
280
     0
102
RTVSPost2010PropOp33
 70
     1
102
RTVSPost2010Prop34
280
     0
102
RTVSPost2010PropOp34
 70
     1
102
RTVSPost2010Prop35
280
     0
102
RTVSPost2010PropOp35
 70
     1
102
RTVSPost2010Prop36
280
     0
102
RTVSPost2010PropOp36
 70
     1
102
RTVSPost2010Prop37
 90
       50
102
RTVSPost2010PropOp37
 70
     1
102
RTVSPost2010Prop38
140
0.0
102
RTVSPost2010PropOp38
 70
     1
102
RTVSPost2010Prop39
140
1.0
102
RTVSPost2010PropOp39
 70
     1
102
RTVSPost2010Prop40
 90
        0
102
RTVSPost2010PropOp40
 70
     1
102
RTVSPost2010Prop41ColorIndex
 90
       18
102
RTVSPost2010Prop41ColorRGB
 90
        0
102
RTVSPost2010PropOp41
 70
     1
102
RTVSPost2010Prop42
 90
       50
102
RTVSPost2010PropOp42
 70
     1
102
RTVSPost2010Prop43
 90
        3
102
RTVSPost2010PropOp43
 70
     1
102
RTVSPost2010Prop44ColorIndex
 90
        5
102
RTVSPost2010Prop44ColorRGB
 90
      255
102
RTVSPost2010PropOp44
 70
     1
102
RTVSPost2010Prop45
280
     0
102
RTVSPost2010PropOp45
 70
     1
102
RTVSPost2010Prop46
 90
       50
102
RTVSPost2010PropOp46
 70
     1
102
RTVSPost2010Prop47
 90
       50
102
RTVSPost2010PropOp47
 70
     1
102
RTVSPost2010Prop48
 90
       50
102
RTVSPost2010PropOp48
 70
     1
102
RTVSPost2010Prop49
280
     0
102
RTVSPost2010PropOp49
 70
     1
102
RTVSPost2010Prop50
 90
       50
102
RTVSPost2010PropOp50
 70
     1
102
RTVSPost2010Prop51ColorIndex
 90
      256
102
RTVSPost2010Prop51ColorRGB
 90
-16777216
102
RTVSPost2010PropOp51
 70
     0
102
RTVSPost2010Prop52
140
1.0
102
RTVSPost2010PropOp52
 70
     0
102
RTVSPost2010Prop53
 90
        2
102
RTVSPost2010PropOp53
 70
     1
102
RTVSPost2010Prop54
  1
strokes_ogs.tif
102
RTVSPost2010PropOp54
 70
     1
102
RTVSPost2010Prop55
280
     0
102
RTVSPost2010PropOp55
 70
     1
102
RTVSPost2010Prop56
140
1.0
102
RTVSPost2010PropOp56
 70
     1
102
RTVSPost2010Prop57
140
1.0
102
RTVSPost2010PropOp57
 70
     1
102
RTVSPropertyOp0
 70
     1
102
RTVSPropertyOp1
 70
     1
102
RTVSPropertyOp2
 70
     1
102
RTVSPropertyOp3
 70
     1
102
RTVSPropertyOp4
 70
     1
102
RTVSPropertyOp5
 70
     1
102
RTVSPropertyOp6
 70
     1
102
RTVSPropertyOp7
 70
     1
102
RTVSPropertyOp8
 70
     1
102
RTVSPropertyOp9
 70
     1
102
RTVSPropertyOp10
 70
     1
102
RTVSPropertyOp11
 70
     1
102
RTVSPropertyOp12
 70
     1
102
RTVSPropertyOp13
 70
     1
102
RTVSPropertyOp14
 70
     1
102
RTVSPropertyOp15
 70
     1
102
RTVSPropertyOp16
 70
     1
102
RTVSPropertyOp17
 70
     1
102
RTVSPropertyOp18
 70
     1
102
RTVSPropertyOp19
 70
     1
102
RTVSPropertyOp20
 70
     1
102
RTVSPropertyOp21
 70
     1
102
RTVSPropertyOp22
 70
     1
102
RTVSPropertyOp23
 70
     1
102
RTVSPropertyOp24
 70
     1
102
RTVSPropertyOp25
 70
     1
102
RTVSPropertyOp26
 70
     1
102
RTVSPropertyOp27
 70
     1
102
RTVSPropertyOp28
 70
     1
102
RTVSPropertyOp29
 70
     1
102
RTVSPropertyOp30
 70
     1
102
RTVSPropertyOp31
 70
     1
102
RTVSPropertyOp32
 70
     1
102
RTVSPropertyOp33
 70
     1
102
RTVSPropertyOp34
 70
     1
102
RTVSPropertyOp35
 70
     1
102
RTVSPropertyOp36
 70
     1
102
RTVSPropertyOp37
 70
     1
102
RTVSPropertyOp38
 70
     1
102
RTVSPropertyOp39
 70
     1
102
RTVSPropertyOp40
 70
     1
102
RTVSPropertyOp41
 70
     1
102
RTVSPropertyOp42
 70
     1
102
RTVSPropertyOp43
 70
     1
102
RTVSPropertyOp44
 70
     1
102
RTVSPropertyOp45
 70
     1
102
RTVSPropertyOp46
 70
     1
102
RTVSPropertyOp47
 70
     1
102
RTVSPropertyOp48
 70
     1
102
RTVSPropertyOp49
 70
     1
102
RTVSPropertyOp50
 70
     1
102
RTVSPropertyOp51
 70
     0
102
RTVSPropertyOp52
 70
     0
102
RTVSPropertyOp53
 70
     1
102
RTVSPropertyOp54
 70
     1
102
RTVSPropertyOp55
 70
     1
102
RTVSPropertyOp56
 70
     1
102
RTVSPropertyOp57
 70
     1
102
RTVSPropertyOp58
 70
     1
102
RTVSPropertyOp59
 70
     1
102
RTVSPropertyOp60
 70
     1
102
RTVSPropertyOp61
 70
     1
102
RTVSPropertyOp62
 70
     1
  0
ENDSEC
  0
EOF
