  0
SECTION
  2
HEADER
  9
$ACADVER
  1
AC1015
  9
$ACADMAINTVER
 70
    20
  9
$DWGCODEPAGE
  3
ANSI_932
  9
$INSBASE
 10
0.0
 20
0.0
 30
0.0
  9
$EXTMIN
 10
9.99995
 20
9.999999999999998
 30
0.0
  9
$EXTMAX
 10
588.6995849999998
 20
735.0
 30
0.0
  9
$LIMMIN
 10
0.0
 20
0.0
  9
$LIMMAX
 10
1108.8
 20
764.4
  9
$ORTHOMODE
 70
     1
  9
$REGENMODE
 70
     1
  9
$FILLMODE
 70
     1
  9
$QTEXTMODE
 70
     0
  9
$MIRRTEXT
 70
     1
  9
$LTSCALE
 40
20.0
  9
$ATTMODE
 70
     1
  9
$TEXTSIZE
 40
5.0
  9
$TRACEWID
 40
1.0
  9
$TEXTSTYLE
  7
STANDARD
  9
$CLAYER
  8
0
  9
$CELTYPE
  6
BYLAYER
  9
$CECOLOR
 62
   256
  9
$CELTSCALE
 40
1.0
  9
$DISPSILH
 70
     0
  9
$DIMSCALE
 40
1.0
  9
$DIMASZ
 40
3.0
  9
$DIMEXO
 40
1.0
  9
$DIMDLI
 40
10.0
  9
$DIMRND
 40
0.0
  9
$DIMDLE
 40
0.0
  9
$DIMEXE
 40
1.0
  9
$DIMTP
 40
0.0
  9
$DIMTM
 40
0.0
  9
$DIMTXT
 40
3.2
  9
$DIMCEN
 40
0.0
  9
$DIMTSZ
 40
0.0
  9
$DIMTOL
 70
     0
  9
$DIMLIM
 70
     0
  9
$DIMTIH
 70
     0
  9
$DIMTOH
 70
     0
  9
$DIMSE1
 70
     0
  9
$DIMSE2
 70
     0
  9
$DIMTAD
 70
     3
  9
$DIMZIN
 70
     8
  9
$DIMBLK
  1

  9
$DIMASO
 70
     1
  9
$DIMSHO
 70
     1
  9
$DIMPOST
  1

  9
$DIMAPOST
  1

  9
$DIMALT
 70
     0
  9
$DIMALTD
 70
     2
  9
$DIMALTF
 40
25.4
  9
$DIMLFAC
 40
1.0
  9
$DIMTOFL
 70
     1
  9
$DIMTVP
 40
0.0
  9
$DIMTIX
 70
     0
  9
$DIMSOXD
 70
     0
  9
$DIMSAH
 70
     1
  9
$DIMBLK1
  1

  9
$DIMBLK2
  1

  9
$DIMSTYLE
  2
STANDARD
  9
$DIMCLRD
 70
     0
  9
$DIMCLRE
 70
     0
  9
$DIMCLRT
 70
     0
  9
$DIMTFAC
 40
1.0
  9
$DIMGAP
 40
1.0
  9
$DIMJUST
 70
     0
  9
$DIMSD1
 70
     0
  9
$DIMSD2
 70
     0
  9
$DIMTOLJ
 70
     1
  9
$DIMTZIN
 70
     0
  9
$DIMALTZ
 70
     0
  9
$DIMALTTZ
 70
     0
  9
$DIMUPT
 70
     0
  9
$DIMDEC
 70
     4
  9
$DIMTDEC
 70
     4
  9
$DIMALTU
 70
     2
  9
$DIMALTTD
 70
     2
  9
$DIMTXSTY
  7
STANDARD
  9
$DIMAUNIT
 70
     0
  9
$DIMADEC
 70
     0
  9
$DIMALTRND
 40
0.0
  9
$DIMAZIN
 70
     0
  9
$DIMDSEP
 70
    46
  9
$DIMATFIT
 70
     3
  9
$DIMFRAC
 70
     0
  9
$DIMLDRBLK
  1

  9
$DIMLUNIT
 70
     2
  9
$DIMLWD
 70
    -2
  9
$DIMLWE
 70
    -2
  9
$DIMTMOVE
 70
     0
  9
$LUNITS
 70
     2
  9
$LUPREC
 70
     4
  9
$SKETCHINC
 40
1.0
  9
$FILLETRAD
 40
2.0
  9
$AUNITS
 70
     0
  9
$AUPREC
 70
     2
  9
$MENU
  1
.
  9
$ELEVATION
 40
0.0
  9
$PELEVATION
 40
0.0
  9
$THICKNESS
 40
0.0
  9
$LIMCHECK
 70
     0
  9
$CHAMFERA
 40
10.0
  9
$CHAMFERB
 40
10.0
  9
$CHAMFERC
 40
0.0
  9
$CHAMFERD
 40
0.0
  9
$SKPOLY
 70
     0
  9
$TDCREATE
 40
2451069.685255903
  9
$TDUCREATE
 40
2451069.310255903
  9
$TDUPDATE
 40
2457192.621314132
  9
$TDUUPDATE
 40
2457192.246314132
  9
$TDINDWG
 40
0.0006570486
  9
$TDUSRTIMER
 40
0.0006565509
  9
$USRTIMER
 70
     1
  9
$ANGBASE
 50
0.0
  9
$ANGDIR
 70
     0
  9
$PDMODE
 70
     0
  9
$PDSIZE
 40
0.0
  9
$PLINEWID
 40
0.0
  9
$SPLFRAME
 70
     0
  9
$SPLINETYPE
 70
     6
  9
$SPLINESEGS
 70
     8
  9
$HANDSEED
  5
545
  9
$SURFTAB1
 70
     6
  9
$SURFTAB2
 70
     6
  9
$SURFTYPE
 70
     6
  9
$SURFU
 70
     6
  9
$SURFV
 70
     6
  9
$UCSBASE
  2

  9
$UCSNAME
  2

  9
$UCSORG
 10
0.0
 20
0.0
 30
0.0
  9
$UCSXDIR
 10
1.0
 20
0.0
 30
0.0
  9
$UCSYDIR
 10
0.0
 20
1.0
 30
0.0
  9
$UCSORTHOREF
  2

  9
$UCSORTHOVIEW
 70
     0
  9
$UCSORGTOP
 10
0.0
 20
0.0
 30
0.0
  9
$UCSORGBOTTOM
 10
0.0
 20
0.0
 30
0.0
  9
$UCSORGLEFT
 10
0.0
 20
0.0
 30
0.0
  9
$UCSORGRIGHT
 10
0.0
 20
0.0
 30
0.0
  9
$UCSORGFRONT
 10
0.0
 20
0.0
 30
0.0
  9
$UCSORGBACK
 10
0.0
 20
0.0
 30
0.0
  9
$PUCSBASE
  2

  9
$PUCSNAME
  2

  9
$PUCSORG
 10
0.0
 20
0.0
 30
0.0
  9
$PUCSXDIR
 10
1.0
 20
0.0
 30
0.0
  9
$PUCSYDIR
 10
0.0
 20
1.0
 30
0.0
  9
$PUCSORTHOREF
  2

  9
$PUCSORTHOVIEW
 70
     0
  9
$PUCSORGTOP
 10
0.0
 20
0.0
 30
0.0
  9
$PUCSORGBOTTOM
 10
0.0
 20
0.0
 30
0.0
  9
$PUCSORGLEFT
 10
0.0
 20
0.0
 30
0.0
  9
$PUCSORGRIGHT
 10
0.0
 20
0.0
 30
0.0
  9
$PUCSORGFRONT
 10
0.0
 20
0.0
 30
0.0
  9
$PUCSORGBACK
 10
0.0
 20
0.0
 30
0.0
  9
$USERI1
 70
     0
  9
$USERI2
 70
     0
  9
$USERI3
 70
     0
  9
$USERI4
 70
     0
  9
$USERI5
 70
     0
  9
$USERR1
 40
0.0
  9
$USERR2
 40
0.0
  9
$USERR3
 40
0.0
  9
$USERR4
 40
0.0
  9
$USERR5
 40
0.0
  9
$WORLDVIEW
 70
     1
  9
$SHADEDGE
 70
     3
  9
$SHADEDIF
 70
    70
  9
$TILEMODE
 70
     1
  9
$MAXACTVP
 70
    16
  9
$PINSBASE
 10
0.0
 20
0.0
 30
0.0
  9
$PLIMCHECK
 70
     0
  9
$PEXTMIN
 10
1.000000000000000E+20
 20
1.000000000000000E+20
 30
1.000000000000000E+20
  9
$PEXTMAX
 10
-1.000000000000000E+20
 20
-1.000000000000000E+20
 30
-1.000000000000000E+20
  9
$PLIMMIN
 10
0.0
 20
0.0
  9
$PLIMMAX
 10
420.0
 20
297.0
  9
$UNITMODE
 70
     0
  9
$VISRETAIN
 70
     0
  9
$PLINEGEN
 70
     0
  9
$PSLTSCALE
 70
     0
  9
$TREEDEPTH
 70
  3020
  9
$CMLSTYLE
  2
STANDARD
  9
$CMLJUST
 70
     0
  9
$CMLSCALE
 40
1.0
  9
$PROXYGRAPHICS
 70
     1
  9
$MEASUREMENT
 70
     0
  9
$CELWEIGHT
370
    -1
  9
$ENDCAPS
280
     0
  9
$JOINSTYLE
280
     0
  9
$LWDISPLAY
290
     0
  9
$INSUNITS
 70
     0
  9
$HYPERLINKBASE
  1

  9
$STYLESHEET
  1

  9
$XEDIT
290
     1
  9
$CEPSNTYPE
380
     0
  9
$PSTYLEMODE
290
     1
  9
$FINGERPRINTGUID
  2
{7756D048-6252-420F-A0F7-D63DAB7BC5C5}
  9
$VERSIONGUID
  2
{B3022918-2EEA-437B-A92A-B245C57AB31A}
  9
$EXTNAMES
290
     1
  9
$PSVPSCALE
 40
0.0
  9
$OLESTARTUP
290
     0
  0
ENDSEC
  0
SECTION
  2
CLASSES
  0
CLASS
  1
ACDBDICTIONARYWDFLT
  2
AcDbDictionaryWithDefault
  3
ObjectDBX Classes
 90
        0
280
     0
281
     0
  0
CLASS
  1
ACDBPLACEHOLDER
  2
AcDbPlaceHolder
  3
ObjectDBX Classes
 90
        0
280
     0
281
     0
  0
CLASS
  1
LAYOUT
  2
AcDbLayout
  3
ObjectDBX Classes
 90
        0
280
     0
281
     0
  0
CLASS
  1
DICTIONARYVAR
  2
AcDbDictionaryVar
  3
ObjectDBX Classes
 90
        0
280
     0
281
     0
  0
CLASS
  1
MATERIAL
  2
AcDbMaterial
  3
ObjectDBX Classes
 90
     1153
280
     0
281
     0
  0
CLASS
  1
VISUALSTYLE
  2
AcDbVisualStyle
  3
ObjectDBX Classes
 90
     4095
280
     0
281
     0
  0
CLASS
  1
TABLESTYLE
  2
AcDbTableStyle
  3
ObjectDBX Classes
 90
     4095
280
     0
281
     0
  0
CLASS
  1
SCALE
  2
AcDbScale
  3
ObjectDBX Classes
 90
     1153
280
     0
281
     0
  0
CLASS
  1
MLEADERSTYLE
  2
AcDbMLeaderStyle
  3
ACDB_MLEADERSTYLE_CLASS
 90
     4095
280
     0
281
     0
  0
CLASS
  1
ACDBSECTIONVIEWSTYLE
  2
AcDbSectionViewStyle
  3
ObjectDBX Classes
 90
     1025
280
     0
281
     0
  0
CLASS
  1
ACDBDETAILVIEWSTYLE
  2
AcDbDetailViewStyle
  3
ObjectDBX Classes
 90
     1025
280
     0
281
     0
  0
CLASS
  1
CELLSTYLEMAP
  2
AcDbCellStyleMap
  3
ObjectDBX Classes
 90
     1152
280
     0
281
     0
  0
ENDSEC
  0
SECTION
  2
TABLES
  0
TABLE
  2
VPORT
  5
247
330
0
100
AcDbSymbolTable
 70
     1
  0
VPORT
  5
48E
330
247
100
AcDbSymbolTableRecord
100
AcDbViewportTableRecord
  2
*ACTIVE
 70
     0
 10
0.0
 20
0.0
 11
1.0
 21
1.0
 12
518.9609343416818
 22
372.4898729842735
 13
0.0
 23
0.0
 14
10.0
 24
10.0
 15
10.0
 25
10.0
 16
0.0
 26
0.0
 36
1.0
 17
0.0
 27
0.0
 37
0.0
 40
733.1908800216977
 41
1.899603698811096
 42
50.0
 43
0.0
 44
0.0
 50
0.0
 51
0.0
 71
     0
 72
   100
 73
     1
 74
     0
 75
     0
 76
     0
 77
     0
 78
     0
281
     0
 65
     1
110
0.0
120
0.0
130
0.0
111
1.0
121
0.0
131
0.0
112
0.0
122
1.0
132
0.0
 79
     0
146
0.0
1001
ACAD_NAV_VCDISPLAY
1070
     3
  0
ENDTAB
  0
TABLE
  2
LTYPE
  5
244
330
0
100
AcDbSymbolTable
 70
     4
  0
LTYPE
  5
252
330
244
100
AcDbSymbolTableRecord
100
AcDbLinetypeTableRecord
  2
BYBLOCK
 70
     0
  3

 72
    65
 73
     0
 40
0.0
  0
LTYPE
  5
253
330
244
100
AcDbSymbolTableRecord
100
AcDbLinetypeTableRecord
  2
BYLAYER
 70
     0
  3

 72
    65
 73
     0
 40
0.0
  0
LTYPE
  5
254
330
244
100
AcDbSymbolTableRecord
100
AcDbLinetypeTableRecord
  2
CONTINUOUS
 70
     0
  3
Solid line
 72
    65
 73
     0
 40
0.0
  0
LTYPE
  5
262
330
244
100
AcDbSymbolTableRecord
100
AcDbLinetypeTableRecord
  2
DASHED
 70
     0
  3
__ __ __ __ __ __ __ __ __ __ __ __ __ __ __ __
 72
    65
 73
     2
 40
0.75
 49
0.5
 74
     0
 49
-0.25
 74
     0
  0
LTYPE
  5
263
330
244
100
AcDbSymbolTableRecord
100
AcDbLinetypeTableRecord
  2
CENTER
 70
     0
  3
____ _ ____ _ ____ _ ____ _ ____ _ ____ _ ____ 
 72
    65
 73
     4
 40
2.0
 49
1.25
 74
     0
 49
-0.25
 74
     0
 49
0.25
 74
     0
 49
-0.25
 74
     0
  0
LTYPE
  5
264
330
244
100
AcDbSymbolTableRecord
100
AcDbLinetypeTableRecord
  2
PHANTOM
 70
     0
  3
______  __  __  ______  __  __  ______  __  __ 
 72
    65
 73
     6
 40
2.5
 49
1.25
 74
     0
 49
-0.25
 74
     0
 49
0.25
 74
     0
 49
-0.25
 74
     0
 49
0.25
 74
     0
 49
-0.25
 74
     0
  0
ENDTAB
  0
TABLE
  2
LAYER
  5
241
330
0
100
AcDbSymbolTable
 70
     8
  0
LAYER
  5
24F
102
{ACAD_XDICTIONARY
360
4E9
102
}
330
241
100
AcDbSymbolTableRecord
100
AcDbLayerTableRecord
  2
0
 70
     0
 62
     7
  6
CONTINUOUS
370
    -3
390
497
  0
LAYER
  5
265
102
{ACAD_XDICTIONARY
360
4EB
102
}
330
241
100
AcDbSymbolTableRecord
100
AcDbLayerTableRecord
  2
4
 70
     0
 62
     1
  6
CENTER
370
    -3
390
497
  0
LAYER
  5
266
102
{ACAD_XDICTIONARY
360
4ED
102
}
330
241
100
AcDbSymbolTableRecord
100
AcDbLayerTableRecord
  2
5
 70
     0
 62
     6
  6
PHANTOM
370
    -3
390
497
  0
LAYER
  5
267
102
{ACAD_XDICTIONARY
360
4EF
102
}
330
241
100
AcDbSymbolTableRecord
100
AcDbLayerTableRecord
  2
1
 70
     0
 62
     7
  6
CONTINUOUS
370
    -3
390
497
  0
LAYER
  5
268
102
{ACAD_XDICTIONARY
360
4F1
102
}
330
241
100
AcDbSymbolTableRecord
100
AcDbLayerTableRecord
  2
2
 70
     0
 62
     4
  6
CONTINUOUS
370
    -3
390
497
  0
LAYER
  5
269
102
{ACAD_XDICTIONARY
360
4F3
102
}
330
241
100
AcDbSymbolTableRecord
100
AcDbLayerTableRecord
  2
3
 70
     0
 62
     2
  6
DASHED
370
    -3
390
497
  0
LAYER
  5
26A
102
{ACAD_XDICTIONARY
360
4F5
102
}
330
241
100
AcDbSymbolTableRecord
100
AcDbLayerTableRecord
  2
6
 70
     0
 62
     5
  6
CONTINUOUS
370
    -3
390
497
  0
LAYER
  5
26B
102
{ACAD_XDICTIONARY
360
4F7
102
}
330
241
100
AcDbSymbolTableRecord
100
AcDbLayerTableRecord
  2
7
 70
     0
 62
     3
  6
CONTINUOUS
370
    -3
390
497
  0
ENDTAB
  0
TABLE
  2
STYLE
  5
242
330
0
100
AcDbSymbolTable
 70
     1
  0
STYLE
  5
250
330
242
100
AcDbSymbolTableRecord
100
AcDbTextStyleTableRecord
  2
STANDARD
 70
     0
 40
0.0
 41
1.0
 50
0.0
 71
     0
 42
5.0
  3
txt
  4

  0
ENDTAB
  0
TABLE
  2
VIEW
  5
245
330
0
100
AcDbSymbolTable
 70
     0
  0
ENDTAB
  0
TABLE
  2
UCS
  5
246
330
0
100
AcDbSymbolTable
 70
     0
  0
ENDTAB
  0
TABLE
  2
APPID
  5
248
330
0
100
AcDbSymbolTable
 70
     3
  0
APPID
  5
251
330
248
100
AcDbSymbolTableRecord
100
AcDbRegAppTableRecord
  2
ACAD
 70
     0
  0
APPID
  5
503
330
248
100
AcDbSymbolTableRecord
100
AcDbRegAppTableRecord
  2
ACAD_NAV_VCDISPLAY
 70
     0
  0
APPID
  5
53C
330
248
100
AcDbSymbolTableRecord
100
AcDbRegAppTableRecord
  2
ACAD_MLEADERVER
 70
     0
  0
ENDTAB
  0
TABLE
  2
DIMSTYLE
  5
249
330
0
100
AcDbSymbolTable
 70
     1
100
AcDbDimStyleTable
 71
     0
  0
DIMSTYLE
105
26D
330
249
100
AcDbSymbolTableRecord
100
AcDbDimStyleTableRecord
  2
STANDARD
 70
     0
 41
3.0
 42
1.0
 43
10.0
 44
1.0
 73
     0
 74
     0
 77
     3
 78
     8
140
3.2
141
0.0
147
1.0
172
     1
173
     1
284
     8
285
     8
286
     8
340
250
  0
ENDTAB
  0
TABLE
  2
BLOCK_RECORD
  5
240
330
0
100
AcDbSymbolTable
 70
     0
  0
BLOCK_RECORD
  5
25D
102
{ACAD_XDICTIONARY
360
491
102
}
330
240
100
AcDbSymbolTableRecord
100
AcDbBlockTableRecord
  2
*MODEL_SPACE
340
4E5
  0
BLOCK_RECORD
  5
259
102
{ACAD_XDICTIONARY
360
48F
102
}
330
240
100
AcDbSymbolTableRecord
100
AcDbBlockTableRecord
  2
*PAPER_SPACE
340
4E6
  0
ENDTAB
  0
ENDSEC
  0
SECTION
  2
BLOCKS
  0
BLOCK
  5
25E
330
25D
100
AcDbEntity
  8
0
100
AcDbBlockBegin
  2
*MODEL_SPACE
 70
     0
 10
0.0
 20
0.0
 30
0.0
  3
*MODEL_SPACE
  1

  0
ENDBLK
  5
25F
330
25D
100
AcDbEntity
  8
0
100
AcDbBlockEnd
  0
BLOCK
  5
25A
330
259
100
AcDbEntity
 67
     1
  8
0
100
AcDbBlockBegin
  2
*PAPER_SPACE
 70
     0
 10
0.0
 20
0.0
 30
0.0
  3
*PAPER_SPACE
  1

  0
ENDBLK
  5
25B
330
259
100
AcDbEntity
 67
     1
  8
0
100
AcDbBlockEnd
  0
ENDSEC
  0
SECTION
  2
ENTITIES
  0
LINE
  5
275
330
25D
100
AcDbEntity
  8
1
  6
Continuous
100
AcDbLine
 10
369.49939
 20
588.9997559999998
 30
0.0
 11
390.49939
 21
588.9997559999998
 31
0.0
  0
LINE
  5
276
330
25D
100
AcDbEntity
  8
1
  6
Continuous
100
AcDbLine
 10
390.49939
 20
588.9997559999998
 30
0.0
 11
390.49939
 21
409.499756
 31
0.0
  0
LINE
  5
277
330
25D
100
AcDbEntity
  8
1
  6
Continuous
100
AcDbLine
 10
369.49939
 20
588.9997559999998
 30
0.0
 11
369.49939
 21
409.499756
 31
0.0
  0
LINE
  5
278
330
25D
100
AcDbEntity
  8
1
  6
Continuous
100
AcDbLine
 10
223.8995509999998
 20
588.9997559999998
 30
0.0
 11
215.599548
 21
588.9997559999998
 31
0.0
  0
LINE
  5
279
330
25D
100
AcDbEntity
  8
1
  6
Continuous
100
AcDbLine
 10
223.8995509999998
 20
409.499756
 30
0.0
 11
223.8995509999998
 21
588.9997559999998
 31
0.0
  0
LINE
  5
27A
330
25D
100
AcDbEntity
  8
1
  6
Continuous
100
AcDbLine
 10
215.599548
 20
409.499756
 30
0.0
 11
215.599548
 21
588.9997559999998
 31
0.0
  0
LINE
  5
27B
330
25D
100
AcDbEntity
  8
1
  6
Continuous
100
AcDbLine
 10
392.49939
 20
159.4997559999999
 30
0.0
 11
392.49939
 21
409.499756
 31
0.0
  0
LINE
  5
27C
330
25D
100
AcDbEntity
  8
1
  6
Continuous
100
AcDbLine
 10
392.49939
 20
159.4997559999999
 30
0.0
 11
367.49939
 21
159.4997559999999
 31
0.0
  0
LINE
  5
27D
330
25D
100
AcDbEntity
  8
1
  6
Continuous
100
AcDbLine
 10
392.49939
 20
409.499756
 30
0.0
 11
367.49939
 21
409.499756
 31
0.0
  0
LINE
  5
27E
330
25D
100
AcDbEntity
  8
1
  6
Continuous
100
AcDbLine
 10
367.49939
 20
159.4997559999999
 30
0.0
 11
367.49939
 21
409.499756
 31
0.0
  0
LINE
  5
27F
330
25D
100
AcDbEntity
  8
4
  6
CENTER
100
AcDbLine
 10
379.99939
 20
611.9997559999998
 30
0.0
 11
379.99939
 21
151.751114
 31
0.0
  0
LINE
  5
280
330
25D
100
AcDbEntity
  8
4
  6
CENTER
100
AcDbLine
 10
386.099396
 20
333.499756
 30
0.0
 11
373.8994139999999
 21
333.499756
 31
0.0
  0
LINE
  5
281
330
25D
100
AcDbEntity
  8
1
  6
Continuous
100
AcDbLine
 10
575.9995730000001
 20
159.4997559999999
 30
0.0
 11
563.9995730000001
 21
159.4997559999999
 31
0.0
  0
LINE
  5
282
330
25D
100
AcDbEntity
  8
1
  6
Continuous
100
AcDbLine
 10
575.9995730000001
 20
409.499756
 30
0.0
 11
563.9995730000001
 21
409.499756
 31
0.0
  0
LINE
  5
283
330
25D
100
AcDbEntity
  8
1
  6
Continuous
100
AcDbLine
 10
563.9995730000001
 20
159.4997559999999
 30
0.0
 11
563.9995730000001
 21
409.499756
 31
0.0
  0
LINE
  5
284
330
25D
100
AcDbEntity
  8
1
  6
Continuous
100
AcDbLine
 10
575.9995730000001
 20
159.4997559999999
 30
0.0
 11
575.9995730000001
 21
409.499756
 31
0.0
  0
LINE
  5
285
330
25D
100
AcDbEntity
  8
1
  6
Continuous
100
AcDbLine
 10
216.9995419999999
 20
363.9997559999998
 30
0.0
 11
216.9995419999999
 21
389.999756
 31
0.0
  0
LINE
  5
286
330
25D
100
AcDbEntity
  8
1
  6
Continuous
100
AcDbLine
 10
222.4995419999999
 20
363.9997559999998
 30
0.0
 11
222.4995419999999
 21
389.999756
 31
0.0
  0
LINE
  5
287
330
25D
100
AcDbEntity
  8
1
  6
Continuous
100
AcDbLine
 10
217.999542
 20
362.999756
 30
0.0
 11
221.499542
 21
362.999756
 31
0.0
  0
LINE
  5
288
330
25D
100
AcDbEntity
  8
1
  6
Continuous
100
AcDbLine
 10
217.999542
 20
390.9997559999998
 30
0.0
 11
221.499542
 21
390.9997559999998
 31
0.0
  0
LINE
  5
289
330
25D
100
AcDbEntity
  8
1
  6
Continuous
100
AcDbLine
 10
225.999542
 20
183.999756
 30
0.0
 11
225.999542
 21
409.499756
 31
0.0
  0
LINE
  5
28A
330
25D
100
AcDbEntity
  8
1
  6
Continuous
100
AcDbLine
 10
225.999542
 20
409.499756
 30
0.0
 11
213.9995419999999
 21
409.499756
 31
0.0
  0
LINE
  5
28B
330
25D
100
AcDbEntity
  8
1
  6
Continuous
100
AcDbLine
 10
213.9995419999999
 20
183.999756
 30
0.0
 11
213.9995419999999
 21
409.499756
 31
0.0
  0
LINE
  5
28C
330
25D
100
AcDbEntity
  8
4
  6
CENTER
100
AcDbLine
 10
569.9995730000003
 20
151.866745
 30
0.0
 11
569.9995730000003
 21
611.9997559999998
 31
0.0
  0
LINE
  5
28D
330
25D
100
AcDbEntity
  8
4
  6
CENTER
100
AcDbLine
 10
219.999542
 20
152.4847719999999
 30
0.0
 11
219.999542
 21
611.9997559999998
 31
0.0
  0
LINE
  5
28E
330
25D
100
AcDbEntity
  8
1
  6
Continuous
100
AcDbLine
 10
566.099609
 20
409.499756
 30
0.0
 11
566.099609
 21
588.9997559999998
 31
0.0
  0
LINE
  5
28F
330
25D
100
AcDbEntity
  8
1
  6
Continuous
100
AcDbLine
 10
574.3995969999997
 20
588.9997559999998
 30
0.0
 11
566.099609
 21
588.9997559999998
 31
0.0
  0
LINE
  5
290
330
25D
100
AcDbEntity
  8
1
  6
Continuous
100
AcDbLine
 10
574.3995969999997
 20
409.499756
 30
0.0
 11
574.3995969999997
 21
588.9997559999998
 31
0.0
  0
LINE
  5
291
330
25D
100
AcDbEntity
  8
1
  6
Continuous
100
AcDbLine
 10
29.5
 20
575.2875979999998
 30
0.0
 11
29.5
 21
409.499756
 31
0.0
  0
LINE
  5
292
330
25D
100
AcDbEntity
  8
1
  6
Continuous
100
AcDbLine
 10
50.5
 20
575.2875979999998
 30
0.0
 11
50.5
 21
409.499756
 31
0.0
  0
LINE
  5
293
330
25D
100
AcDbEntity
  8
4
  6
CENTER
100
AcDbLine
 10
40.0
 20
611.9997559999998
 30
0.0
 11
40.0
 21
151.751114
 31
0.0
  0
LINE
  5
294
330
25D
100
AcDbEntity
  8
1
  6
Continuous
100
AcDbLine
 10
52.5
 20
183.999756
 30
0.0
 11
52.5
 21
409.499756
 31
0.0
  0
LINE
  5
295
330
25D
100
AcDbEntity
  8
1
  6
Continuous
100
AcDbLine
 10
27.5
 20
409.499756
 30
0.0
 11
52.5
 21
409.499756
 31
0.0
  0
LINE
  5
296
330
25D
100
AcDbEntity
  8
1
  6
Continuous
100
AcDbLine
 10
27.5
 20
159.4997559999999
 30
0.0
 11
35.39181099999999
 21
159.4997559999999
 31
0.0
  0
LINE
  5
297
330
25D
100
AcDbEntity
  8
1
  6
Continuous
100
AcDbLine
 10
27.5
 20
159.4997559999999
 30
0.0
 11
27.5
 21
409.499756
 31
0.0
  0
LINE
  5
298
330
25D
100
AcDbEntity
  8
4
  6
CENTER
100
AcDbLine
 10
33.900002
 20
333.499756
 30
0.0
 11
46.09999799999999
 21
333.499756
 31
0.0
  0
LINE
  5
299
330
25D
100
AcDbEntity
  8
4
  6
CENTER
100
AcDbLine
 10
548.6995849999998
 20
168.9997559999999
 30
0.0
 11
588.6995849999998
 21
168.9997559999999
 31
0.0
  0
LINE
  5
29A
330
25D
100
AcDbEntity
  8
4
  6
CENTER
100
AcDbLine
 10
555.4957279999999
 20
578.9997559999997
 30
0.0
 11
588.628235
 21
578.9997559999997
 31
0.0
  0
LINE
  5
29B
330
25D
100
AcDbEntity
  8
1
  6
Continuous
100
AcDbLine
 10
583.699585
 20
153.9997559999999
 30
0.0
 11
583.699585
 21
183.999756
 31
0.0
  0
LINE
  5
29C
330
25D
100
AcDbEntity
  8
1
  6
Continuous
100
AcDbLine
 10
553.6995849999998
 20
155.999756
 30
0.0
 11
553.6995849999998
 21
181.999756
 31
0.0
  0
LINE
  5
29D
330
25D
100
AcDbEntity
  8
1
  6
Continuous
100
AcDbLine
 10
555.6995849999998
 20
153.9997559999999
 30
0.0
 11
583.699585
 21
153.9997559999999
 31
0.0
  0
LINE
  5
29E
330
25D
100
AcDbEntity
  8
1
  6
Continuous
100
AcDbLine
 10
555.6995849999998
 20
183.999756
 30
0.0
 11
563.9995730000001
 21
183.999756
 31
0.0
  0
LINE
  5
29F
330
25D
100
AcDbEntity
  8
4
  6
CENTER
100
AcDbLine
 10
561.6995849999998
 20
155.349747
 30
0.0
 11
561.6995849999998
 21
164.64975
 31
0.0
  0
LINE
  5
2A0
330
25D
100
AcDbEntity
  8
4
  6
CENTER
100
AcDbLine
 10
557.0496219999998
 20
159.999756
 30
0.0
 11
566.3496089999997
 21
159.999756
 31
0.0
  0
LINE
  5
2A1
330
25D
100
AcDbEntity
  8
4
  6
CENTER
100
AcDbLine
 10
561.6995849999998
 20
173.349747
 30
0.0
 11
561.6995849999998
 21
182.64975
 31
0.0
  0
LINE
  5
2A2
330
25D
100
AcDbEntity
  8
4
  6
CENTER
100
AcDbLine
 10
557.0496219999998
 20
177.9997559999999
 30
0.0
 11
566.3496089999997
 21
177.9997559999999
 31
0.0
  0
LINE
  5
2A3
330
25D
100
AcDbEntity
  8
1
  6
Continuous
100
AcDbLine
 10
575.9995730000001
 20
183.999756
 30
0.0
 11
583.699585
 21
183.999756
 31
0.0
  0
LINE
  5
2A4
330
25D
100
AcDbEntity
  8
1
  6
Continuous
100
AcDbLine
 10
560.999573
 20
162.4997559999999
 30
0.0
 11
560.999573
 21
175.4997559999999
 31
0.0
  0
LINE
  5
2A5
330
25D
100
AcDbEntity
  8
1
  6
Continuous
100
AcDbLine
 10
561.999573
 20
176.4997559999999
 30
0.0
 11
563.9995730000001
 21
176.4997559999999
 31
0.0
  0
LINE
  5
2A6
330
25D
100
AcDbEntity
  8
1
  6
Continuous
100
AcDbLine
 10
561.999573
 20
161.4997559999999
 30
0.0
 11
563.9995730000001
 21
161.4997559999999
 31
0.0
  0
LINE
  5
2A7
330
25D
100
AcDbEntity
  8
1
  6
Continuous
100
AcDbLine
 10
560.999573
 20
162.4997559999999
 30
0.0
 11
561.999573
 21
161.4997559999999
 31
0.0
  0
LINE
  5
2A8
330
25D
100
AcDbEntity
  8
1
  6
Continuous
100
AcDbLine
 10
560.999573
 20
175.4997559999999
 30
0.0
 11
561.999573
 21
176.4997559999999
 31
0.0
  0
LINE
  5
2A9
330
25D
100
AcDbEntity
  8
1
  6
Continuous
100
AcDbLine
 10
561.999573
 20
161.4997559999999
 30
0.0
 11
561.999573
 21
176.4997559999999
 31
0.0
  0
LINE
  5
2AA
330
25D
100
AcDbEntity
  8
1
  6
Continuous
100
AcDbLine
 10
581.9995730000001
 20
165.9997559999999
 30
0.0
 11
581.9995730000001
 21
168.499756
 31
0.0
  0
LINE
  5
2AB
330
25D
100
AcDbEntity
  8
1
  6
Continuous
100
AcDbLine
 10
575.9995730000001
 20
177.849747
 30
0.0
 11
577.5996089999997
 21
177.849747
 31
0.0
  0
LINE
  5
2AC
330
25D
100
AcDbEntity
  8
1
  6
Continuous
100
AcDbLine
 10
575.9995730000001
 20
160.14975
 30
0.0
 11
577.5996089999997
 21
160.14975
 31
0.0
  0
LINE
  5
2AD
330
25D
100
AcDbEntity
  8
1
  6
Continuous
100
AcDbLine
 10
580.4995730000001
 20
153.9997559999999
 30
0.0
 11
580.4995730000001
 21
183.999756
 31
0.0
  0
LINE
  5
2AE
330
25D
100
AcDbEntity
  8
1
  6
Continuous
100
AcDbLine
 10
564.0996089999998
 20
586.4997559999998
 30
0.0
 11
566.099609
 21
586.4997559999998
 31
0.0
  0
LINE
  5
2AF
330
25D
100
AcDbEntity
  8
1
  6
Continuous
100
AcDbLine
 10
564.0996089999998
 20
571.4997559999998
 30
0.0
 11
566.099609
 21
571.4997559999998
 31
0.0
  0
LINE
  5
2B0
330
25D
100
AcDbEntity
  8
1
  6
Continuous
100
AcDbLine
 10
563.099609
 20
572.4997559999998
 30
0.0
 11
563.099609
 21
585.4997559999998
 31
0.0
  0
LINE
  5
2B1
330
25D
100
AcDbEntity
  8
1
  6
Continuous
100
AcDbLine
 10
563.099609
 20
572.4997559999998
 30
0.0
 11
564.0996089999998
 21
571.4997559999998
 31
0.0
  0
LINE
  5
2B2
330
25D
100
AcDbEntity
  8
1
  6
Continuous
100
AcDbLine
 10
563.099609
 20
585.4997559999998
 30
0.0
 11
564.0996089999998
 21
586.4997559999998
 31
0.0
  0
LINE
  5
2B3
330
25D
100
AcDbEntity
  8
1
  6
Continuous
100
AcDbLine
 10
564.0996089999998
 20
571.4997559999998
 30
0.0
 11
564.0996089999998
 21
586.4997559999998
 31
0.0
  0
LINE
  5
2B4
330
25D
100
AcDbEntity
  8
1
  6
Continuous
100
AcDbLine
 10
575.9995730000001
 20
570.1497799999997
 30
0.0
 11
575.9995730000001
 21
589.0997309999997
 31
0.0
  0
LINE
  5
2B5
330
25D
100
AcDbEntity
  8
1
  6
Continuous
100
AcDbLine
 10
574.3995969999997
 20
587.8497309999998
 30
0.0
 11
575.9995730000001
 21
587.8497309999998
 31
0.0
  0
LINE
  5
2B6
330
25D
100
AcDbEntity
  8
1
  6
Continuous
100
AcDbLine
 10
574.3995969999997
 20
570.1497799999997
 30
0.0
 11
575.9995730000001
 21
570.1497799999997
 31
0.0
  0
LINE
  5
2B7
330
25D
100
AcDbEntity
  8
1
  6
Continuous
100
AcDbLine
 10
578.899597
 20
570.9997559999997
 30
0.0
 11
578.899597
 21
589.0997309999997
 31
0.0
  0
LINE
  5
2B8
330
25D
100
AcDbEntity
  8
1
  6
Continuous
100
AcDbLine
 10
551.999573
 20
606.9997559999998
 30
0.0
 11
579.099609
 21
606.9997559999998
 31
0.0
  0
LINE
  5
2B9
330
25D
100
AcDbEntity
  8
1
  6
Continuous
100
AcDbLine
 10
578.899597
 20
591.9997559999997
 30
0.0
 11
579.099609
 21
591.9997559999997
 31
0.0
  0
LINE
  5
2BA
330
25D
100
AcDbEntity
  8
1
  6
Continuous
100
AcDbLine
 10
581.9995730000001
 20
591.9997559999997
 30
0.0
 11
581.9995730000001
 21
604.0997309999998
 31
0.0
  0
LINE
  5
2BB
330
25D
100
AcDbEntity
  8
1
  6
Continuous
100
AcDbLine
 10
578.899597
 20
589.0997309999997
 30
0.0
 11
579.099609
 21
589.0997309999997
 31
0.0
  0
LINE
  5
2BC
330
25D
100
AcDbEntity
  8
1
  6
Continuous
100
AcDbLine
 10
551.999573
 20
604.0997309999998
 30
0.0
 11
579.099609
 21
604.0997309999998
 31
0.0
  0
LINE
  5
2BD
330
25D
100
AcDbEntity
  8
4
  6
CENTER
100
AcDbLine
 10
574.099609
 20
597.9997559999998
 30
0.0
 11
587.1495969999997
 21
597.9997559999998
 31
0.0
  0
LINE
  5
2BE
330
25D
100
AcDbEntity
  8
4
  6
CENTER
100
AcDbLine
 10
559.999573
 20
599.0997309999998
 30
0.0
 11
559.999573
 21
611.9997559999998
 31
0.0
  0
LINE
  5
2BF
330
25D
100
AcDbEntity
  8
1
  6
Continuous
100
AcDbLine
 10
351.99939
 20
153.9997559999999
 30
0.0
 11
372.99939
 21
153.9997559999999
 31
0.0
  0
LINE
  5
2C0
330
25D
100
AcDbEntity
  8
1
  6
Continuous
100
AcDbLine
 10
351.99939
 20
183.999756
 30
0.0
 11
367.49939
 21
183.999756
 31
0.0
  0
LINE
  5
2C1
330
25D
100
AcDbEntity
  8
1
  6
Continuous
100
AcDbLine
 10
351.99939
 20
153.9997559999999
 30
0.0
 11
351.99939
 21
183.999756
 31
0.0
  0
LINE
  5
2C2
330
25D
100
AcDbEntity
  8
4
  6
CENTER
100
AcDbLine
 10
346.9993899999999
 20
168.9997559999999
 30
0.0
 11
392.49939
 21
168.9997559999999
 31
0.0
  0
LINE
  5
2C3
330
25D
100
AcDbEntity
  8
1
  6
Continuous
100
AcDbLine
 10
575.9995730000001
 20
570.9997559999997
 30
0.0
 11
578.899597
 21
570.9997559999997
 31
0.0
  0
LINE
  5
2C4
330
25D
100
AcDbEntity
  8
1
  6
Continuous
100
AcDbLine
 10
354.899414
 20
153.9997559999999
 30
0.0
 11
354.899414
 21
183.999756
 31
0.0
  0
LINE
  5
2C5
330
25D
100
AcDbEntity
  8
4
  6
CENTER
100
AcDbLine
 10
360.99939
 20
155.349747
 30
0.0
 11
360.99939
 21
164.64975
 31
0.0
  0
LINE
  5
2C6
330
25D
100
AcDbEntity
  8
4
  6
CENTER
100
AcDbLine
 10
356.349396
 20
159.999756
 30
0.0
 11
365.6494139999999
 21
159.999756
 31
0.0
  0
LINE
  5
2C7
330
25D
100
AcDbEntity
  8
4
  6
CENTER
100
AcDbLine
 10
360.99939
 20
173.349747
 30
0.0
 11
360.99939
 21
182.64975
 31
0.0
  0
LINE
  5
2C8
330
25D
100
AcDbEntity
  8
4
  6
CENTER
100
AcDbLine
 10
356.349396
 20
177.9997559999999
 30
0.0
 11
365.6494139999999
 21
177.9997559999999
 31
0.0
  0
LINE
  5
2C9
330
25D
100
AcDbEntity
  8
1
  6
Continuous
100
AcDbLine
 10
394.9993899999999
 20
606.9997559999998
 30
0.0
 11
364.99939
 21
606.9997559999998
 31
0.0
  0
LINE
  5
2CA
330
25D
100
AcDbEntity
  8
1
  6
Continuous
100
AcDbLine
 10
394.9993899999999
 20
604.0997309999998
 30
0.0
 11
364.99939
 21
604.0997309999998
 31
0.0
  0
LINE
  5
2CB
330
25D
100
AcDbEntity
  8
1
  6
Continuous
100
AcDbLine
 10
394.9993899999999
 20
591.9997559999997
 30
0.0
 11
364.99939
 21
591.9997559999997
 31
0.0
  0
LINE
  5
2CC
330
25D
100
AcDbEntity
  8
1
  6
Continuous
100
AcDbLine
 10
394.9993899999999
 20
585.9997559999998
 30
0.0
 11
394.9993899999999
 21
606.9997559999998
 31
0.0
  0
LINE
  5
2CD
330
25D
100
AcDbEntity
  8
1
  6
Continuous
100
AcDbLine
 10
364.99939
 20
585.9997559999998
 30
0.0
 11
364.99939
 21
606.9997559999998
 31
0.0
  0
LINE
  5
2CE
330
25D
100
AcDbEntity
  8
4
  6
CENTER
100
AcDbLine
 10
370.99939
 20
593.3497309999998
 30
0.0
 11
370.99939
 21
611.9997559999998
 31
0.0
  0
LINE
  5
2CF
330
25D
100
AcDbEntity
  8
4
  6
CENTER
100
AcDbLine
 10
375.649414
 20
597.9997559999998
 30
0.0
 11
366.349396
 21
597.9997559999998
 31
0.0
  0
LINE
  5
2D0
330
25D
100
AcDbEntity
  8
4
  6
CENTER
100
AcDbLine
 10
388.99939
 20
593.3497309999998
 30
0.0
 11
388.99939
 21
611.9997559999998
 31
0.0
  0
LINE
  5
2D1
330
25D
100
AcDbEntity
  8
4
  6
CENTER
100
AcDbLine
 10
393.6494139999999
 20
597.9997559999998
 30
0.0
 11
384.349396
 21
597.9997559999998
 31
0.0
  0
LINE
  5
2D2
330
25D
100
AcDbEntity
  8
4
  6
CENTER
100
AcDbLine
 10
392.49939
 20
578.9997559999997
 30
0.0
 11
367.49939
 21
578.9997559999997
 31
0.0
  0
LINE
  5
2D3
330
25D
100
AcDbEntity
  8
1
  6
Continuous
100
AcDbLine
 10
366.99939
 20
153.9997559999999
 30
0.0
 11
366.99939
 21
183.999756
 31
0.0
  0
LINE
  5
2D4
330
25D
100
AcDbEntity
  8
1
  6
Continuous
100
AcDbLine
 10
68.0
 20
183.999756
 30
0.0
 11
47.0
 21
183.999756
 31
0.0
  0
LINE
  5
2D5
330
25D
100
AcDbEntity
  8
1
  6
Continuous
100
AcDbLine
 10
68.0
 20
153.9997559999999
 30
0.0
 11
47.0
 21
153.9997559999999
 31
0.0
  0
LINE
  5
2D6
330
25D
100
AcDbEntity
  8
4
  6
CENTER
100
AcDbLine
 10
59.0
 20
155.349747
 30
0.0
 11
59.0
 21
164.64975
 31
0.0
  0
LINE
  5
2D7
330
25D
100
AcDbEntity
  8
1
  6
Continuous
100
AcDbLine
 10
68.0
 20
153.9997559999999
 30
0.0
 11
68.0
 21
183.999756
 31
0.0
  0
LINE
  5
2D8
330
25D
100
AcDbEntity
  8
4
  6
CENTER
100
AcDbLine
 10
73.0
 20
168.9997559999999
 30
0.0
 11
27.0
 21
168.9997559999999
 31
0.0
  0
LINE
  5
2D9
330
25D
100
AcDbEntity
  8
4
  6
CENTER
100
AcDbLine
 10
73.0
 20
159.999756
 30
0.0
 11
54.34999799999999
 21
159.999756
 31
0.0
  0
LINE
  5
2DA
330
25D
100
AcDbEntity
  8
4
  6
CENTER
100
AcDbLine
 10
59.0
 20
173.349747
 30
0.0
 11
59.0
 21
182.64975
 31
0.0
  0
LINE
  5
2DB
330
25D
100
AcDbEntity
  8
4
  6
CENTER
100
AcDbLine
 10
73.0
 20
177.9997559999999
 30
0.0
 11
54.34999799999999
 21
177.9997559999999
 31
0.0
  0
LINE
  5
2DC
330
25D
100
AcDbEntity
  8
1
  6
Continuous
100
AcDbLine
 10
235.999542
 20
730.0
 30
0.0
 11
207.9995419999999
 21
730.0
 31
0.0
  0
LINE
  5
2DD
330
25D
100
AcDbEntity
  8
1
  6
Continuous
100
AcDbLine
 10
235.999542
 20
700.0
 30
0.0
 11
207.9995419999999
 21
700.0
 31
0.0
  0
LINE
  5
2DE
330
25D
100
AcDbEntity
  8
1
  6
Continuous
100
AcDbLine
 10
392.49939
 20
395.4997559999998
 30
0.0
 11
392.49939
 21
395.4997559999998
 31
0.0
  0
LINE
  5
2DF
330
25D
100
AcDbEntity
  8
1
  6
Continuous
100
AcDbLine
 10
392.49939
 20
405.499756
 30
0.0
 11
392.49939
 21
405.499756
 31
0.0
  0
LINE
  5
2E0
330
25D
100
AcDbEntity
  8
1
  6
Continuous
100
AcDbLine
 10
392.49939
 20
401.499756
 30
0.0
 11
392.49939
 21
401.499756
 31
0.0
  0
LINE
  5
2E1
330
25D
100
AcDbEntity
  8
1
  6
Continuous
100
AcDbLine
 10
581.9995730000001
 20
169.499756
 30
0.0
 11
581.2495730000001
 21
168.9997559999999
 31
0.0
  0
LINE
  5
2E2
330
25D
100
AcDbEntity
  8
1
  6
Continuous
100
AcDbLine
 10
581.2495730000001
 20
168.9997559999999
 30
0.0
 11
581.9995730000001
 21
168.499756
 31
0.0
  0
LINE
  5
2E3
330
25D
100
AcDbEntity
  8
1
  6
Continuous
100
AcDbLine
 10
581.9995730000001
 20
169.499756
 30
0.0
 11
581.9995730000001
 21
171.9997559999999
 31
0.0
  0
LINE
  5
2E4
330
25D
100
AcDbEntity
  8
1
  6
Continuous
100
AcDbLine
 10
551.999573
 20
604.0997309999998
 30
0.0
 11
551.999573
 21
606.9997559999998
 31
0.0
  0
LINE
  5
2E5
330
25D
100
AcDbEntity
  8
1
  6
Continuous
100
AcDbLine
 10
580.3995969999999
 20
579.4997559999997
 30
0.0
 11
580.3995969999999
 21
581.9997559999998
 31
0.0
  0
LINE
  5
2E6
330
25D
100
AcDbEntity
  8
1
  6
Continuous
100
AcDbLine
 10
580.3995969999999
 20
575.9997559999998
 30
0.0
 11
580.3995969999999
 21
578.4997559999998
 31
0.0
  0
LINE
  5
2E7
330
25D
100
AcDbEntity
  8
1
  6
Continuous
100
AcDbLine
 10
580.3995969999999
 20
579.4997559999997
 30
0.0
 11
579.6495969999997
 21
578.9997559999997
 31
0.0
  0
LINE
  5
2E8
330
25D
100
AcDbEntity
  8
1
  6
Continuous
100
AcDbLine
 10
579.6495969999997
 20
578.9997559999997
 30
0.0
 11
580.3995969999999
 21
578.4997559999998
 31
0.0
  0
LINE
  5
2E9
330
25D
100
AcDbEntity
  8
1
  6
Continuous
100
AcDbLine
 10
37.041962
 20
168.499756
 30
0.0
 11
39.5
 21
168.499756
 31
0.0
  0
LINE
  5
2EA
330
25D
100
AcDbEntity
  8
1
  6
Continuous
100
AcDbLine
 10
37.041962
 20
169.499756
 30
0.0
 11
39.5
 21
169.499756
 31
0.0
  0
LINE
  5
2EB
330
25D
100
AcDbEntity
  8
1
  6
Continuous
100
AcDbLine
 10
39.5
 20
166.041718
 30
0.0
 11
39.5
 21
168.499756
 31
0.0
  0
LINE
  5
2EC
330
25D
100
AcDbEntity
  8
1
  6
Continuous
100
AcDbLine
 10
40.49999999999999
 20
166.041718
 30
0.0
 11
40.49999999999999
 21
168.499756
 31
0.0
  0
LINE
  5
2ED
330
25D
100
AcDbEntity
  8
1
  6
Continuous
100
AcDbLine
 10
39.5
 20
169.499756
 30
0.0
 11
39.5
 21
171.957794
 31
0.0
  0
LINE
  5
2EE
330
25D
100
AcDbEntity
  8
1
  6
Continuous
100
AcDbLine
 10
40.49999999999999
 20
169.499756
 30
0.0
 11
40.49999999999999
 21
171.957794
 31
0.0
  0
LINE
  5
2EF
330
25D
100
AcDbEntity
  8
1
  6
Continuous
100
AcDbLine
 10
40.49999999999999
 20
168.499756
 30
0.0
 11
42.958038
 21
168.499756
 31
0.0
  0
LINE
  5
2F0
330
25D
100
AcDbEntity
  8
1
  6
Continuous
100
AcDbLine
 10
40.49999999999999
 20
169.499756
 30
0.0
 11
42.958038
 21
169.499756
 31
0.0
  0
LINE
  5
2F1
330
25D
100
AcDbEntity
  8
1
  6
Continuous
100
AcDbLine
 10
50.099998
 20
153.9997559999999
 30
0.0
 11
50.099998
 21
183.999756
 31
0.0
  0
LINE
  5
2F2
330
25D
100
AcDbEntity
  8
4
  6
CENTER
100
AcDbLine
 10
346.9993899999999
 20
159.999756
 30
0.0
 11
356.899414
 21
159.999756
 31
0.0
  0
LINE
  5
2F3
330
25D
100
AcDbEntity
  8
4
  6
CENTER
100
AcDbLine
 10
346.9993899999999
 20
177.9997559999999
 30
0.0
 11
356.899414
 21
177.9997559999999
 31
0.0
  0
LINE
  5
2F4
330
25D
100
AcDbEntity
  8
1
  6
Continuous
100
AcDbLine
 10
578.899597
 20
575.9997559999998
 30
0.0
 11
580.3995969999999
 21
575.9997559999998
 31
0.0
  0
LINE
  5
2F5
330
25D
100
AcDbEntity
  8
1
  6
Continuous
100
AcDbLine
 10
578.899597
 20
581.9997559999998
 30
0.0
 11
580.3995969999999
 21
581.9997559999998
 31
0.0
  0
LINE
  5
2F6
330
25D
100
AcDbEntity
  8
1
  6
Continuous
100
AcDbLine
 10
580.4995730000001
 20
165.9997559999999
 30
0.0
 11
581.9995730000001
 21
165.9997559999999
 31
0.0
  0
LINE
  5
2F7
330
25D
100
AcDbEntity
  8
1
  6
Continuous
100
AcDbLine
 10
580.4995730000001
 20
171.9997559999999
 30
0.0
 11
581.9995730000001
 21
171.9997559999999
 31
0.0
  0
LINE
  5
2F8
330
25D
100
AcDbEntity
  8
1
  6
Continuous
100
AcDbLine
 10
25.0
 20
606.9997559999998
 30
0.0
 11
25.0
 21
585.9997559999998
 31
0.0
  0
LINE
  5
2F9
330
25D
100
AcDbEntity
  8
1
  6
Continuous
100
AcDbLine
 10
55.0
 20
606.9997559999998
 30
0.0
 11
55.0
 21
585.9997559999998
 31
0.0
  0
LINE
  5
2FA
330
25D
100
AcDbEntity
  8
4
  6
CENTER
100
AcDbLine
 10
53.650002
 20
597.9997559999998
 30
0.0
 11
44.34999799999999
 21
597.9997559999998
 31
0.0
  0
LINE
  5
2FB
330
25D
100
AcDbEntity
  8
1
  6
Continuous
100
AcDbLine
 10
55.0
 20
606.9997559999998
 30
0.0
 11
25.0
 21
606.9997559999998
 31
0.0
  0
LINE
  5
2FC
330
25D
100
AcDbEntity
  8
4
  6
CENTER
100
AcDbLine
 10
49.0
 20
611.9997559999998
 30
0.0
 11
49.0
 21
593.3497309999998
 31
0.0
  0
LINE
  5
2FD
330
25D
100
AcDbEntity
  8
4
  6
CENTER
100
AcDbLine
 10
35.650002
 20
597.9997559999998
 30
0.0
 11
26.35
 21
597.9997559999998
 31
0.0
  0
LINE
  5
2FE
330
25D
100
AcDbEntity
  8
4
  6
CENTER
100
AcDbLine
 10
31.0
 20
611.9997559999998
 30
0.0
 11
31.0
 21
593.3497309999998
 31
0.0
  0
LINE
  5
2FF
330
25D
100
AcDbEntity
  8
1
  6
Continuous
100
AcDbLine
 10
40.49999999999999
 20
576.041687
 30
0.0
 11
40.49999999999999
 21
578.4997559999998
 31
0.0
  0
LINE
  5
300
330
25D
100
AcDbEntity
  8
1
  6
Continuous
100
AcDbLine
 10
39.5
 20
576.041687
 30
0.0
 11
39.5
 21
578.4997559999998
 31
0.0
  0
LINE
  5
301
330
25D
100
AcDbEntity
  8
1
  6
Continuous
100
AcDbLine
 10
42.958038
 20
578.4997559999998
 30
0.0
 11
40.49999999999999
 21
578.4997559999998
 31
0.0
  0
LINE
  5
302
330
25D
100
AcDbEntity
  8
1
  6
Continuous
100
AcDbLine
 10
42.958038
 20
579.4997559999997
 30
0.0
 11
40.49999999999999
 21
579.4997559999997
 31
0.0
  0
LINE
  5
303
330
25D
100
AcDbEntity
  8
1
  6
Continuous
100
AcDbLine
 10
39.5
 20
578.4997559999998
 30
0.0
 11
37.041962
 21
578.4997559999998
 31
0.0
  0
LINE
  5
304
330
25D
100
AcDbEntity
  8
1
  6
Continuous
100
AcDbLine
 10
39.5
 20
579.4997559999997
 30
0.0
 11
37.041962
 21
579.4997559999997
 31
0.0
  0
LINE
  5
305
330
25D
100
AcDbEntity
  8
1
  6
Continuous
100
AcDbLine
 10
40.49999999999999
 20
579.4997559999997
 30
0.0
 11
40.49999999999999
 21
581.957764
 31
0.0
  0
LINE
  5
306
330
25D
100
AcDbEntity
  8
1
  6
Continuous
100
AcDbLine
 10
39.5
 20
579.4997559999997
 30
0.0
 11
39.5
 21
581.957764
 31
0.0
  0
LINE
  5
307
330
25D
100
AcDbEntity
  8
1
  6
Continuous
100
AcDbLine
 10
55.0
 20
589.0997309999997
 30
0.0
 11
25.0
 21
589.0997309999997
 31
0.0
  0
LINE
  5
308
330
25D
100
AcDbEntity
  8
4
  6
CENTER
100
AcDbLine
 10
34.75
 20
578.9997559999997
 30
0.0
 11
45.25
 21
578.9997559999997
 31
0.0
  0
LINE
  5
309
330
25D
100
AcDbEntity
  8
1
  6
Continuous
100
AcDbLine
 10
237.9995419999999
 20
728.0
 30
0.0
 11
237.9995419999999
 21
702.0
 31
0.0
  0
LINE
  5
30A
330
25D
100
AcDbEntity
  8
1
  6
Continuous
100
AcDbLine
 10
207.9995419999999
 20
730.0
 30
0.0
 11
207.9995419999999
 21
700.0
 31
0.0
  0
LINE
  5
30B
330
25D
100
AcDbEntity
  8
4
  6
CENTER
100
AcDbLine
 10
242.849548
 20
715.0
 30
0.0
 11
202.999542
 21
715.0
 31
0.0
  0
LINE
  5
30C
330
25D
100
AcDbEntity
  8
4
  6
CENTER
100
AcDbLine
 10
225.349548
 20
724.0
 30
0.0
 11
234.649551
 21
724.0
 31
0.0
  0
LINE
  5
30D
330
25D
100
AcDbEntity
  8
4
  6
CENTER
100
AcDbLine
 10
229.999542
 20
728.650024
 30
0.0
 11
229.999542
 21
719.3499759999999
 31
0.0
  0
LINE
  5
30E
330
25D
100
AcDbEntity
  8
4
  6
CENTER
100
AcDbLine
 10
225.349548
 20
706.0
 30
0.0
 11
234.649551
 21
706.0
 31
0.0
  0
LINE
  5
30F
330
25D
100
AcDbEntity
  8
4
  6
CENTER
100
AcDbLine
 10
229.999542
 20
710.650024
 30
0.0
 11
229.999542
 21
701.349976
 31
0.0
  0
LINE
  5
310
330
25D
100
AcDbEntity
  8
1
  6
Continuous
100
AcDbLine
 10
236.299545
 20
689.900024
 30
0.0
 11
236.299545
 21
687.0
 31
0.0
  0
LINE
  5
311
330
25D
100
AcDbEntity
  8
1
  6
Continuous
100
AcDbLine
 10
206.2995449999998
 20
702.0
 30
0.0
 11
206.2995449999998
 21
689.900024
 31
0.0
  0
LINE
  5
312
330
25D
100
AcDbEntity
  8
1
  6
Continuous
100
AcDbLine
 10
236.299545
 20
687.0
 30
0.0
 11
209.199539
 21
687.0
 31
0.0
  0
LINE
  5
313
330
25D
100
AcDbEntity
  8
1
  6
Continuous
100
AcDbLine
 10
236.299545
 20
689.900024
 30
0.0
 11
209.199539
 21
689.900024
 31
0.0
  0
LINE
  5
314
330
25D
100
AcDbEntity
  8
4
  6
CENTER
100
AcDbLine
 10
213.9495389999999
 20
696.0
 30
0.0
 11
201.049545
 21
696.0
 31
0.0
  0
LINE
  5
315
330
25D
100
AcDbEntity
  8
1
  6
Continuous
100
AcDbLine
 10
207.9995419999999
 20
41.0
 30
0.0
 11
207.9995419999999
 21
66.35992399999999
 31
0.0
  0
LINE
  5
316
330
25D
100
AcDbEntity
  8
4
  6
CENTER
100
AcDbLine
 10
228.299545
 20
74.949608
 30
0.0
 11
228.299545
 21
89.0
 31
0.0
  0
LINE
  5
317
330
25D
100
AcDbEntity
  8
1
  6
Continuous
100
AcDbLine
 10
209.499542
 20
69.0
 30
0.0
 11
209.199539
 21
69.0
 31
0.0
  0
LINE
  5
318
330
25D
100
AcDbEntity
  8
1
  6
Continuous
100
AcDbLine
 10
212.3995509999998
 20
47.150002
 30
0.0
 11
212.3995509999998
 21
66.099998
 31
0.0
  0
LINE
  5
319
330
25D
100
AcDbEntity
  8
1
  6
Continuous
100
AcDbLine
 10
225.999542
 20
45.099998
 30
0.0
 11
225.999542
 21
66.900002
 31
0.0
  0
LINE
  5
31A
330
25D
100
AcDbEntity
  8
1
  6
Continuous
100
AcDbLine
 10
209.499542
 20
66.099998
 30
0.0
 11
209.199539
 21
66.099998
 31
0.0
  0
LINE
  5
31B
330
25D
100
AcDbEntity
  8
1
  6
Continuous
100
AcDbLine
 10
228.9995419999999
 20
49.5
 30
0.0
 11
228.9995419999999
 21
62.5
 31
0.0
  0
LINE
  5
31C
330
25D
100
AcDbEntity
  8
1
  6
Continuous
100
AcDbLine
 10
206.2995449999998
 20
69.0
 30
0.0
 11
206.2995449999998
 21
81.099998
 31
0.0
  0
LINE
  5
31D
330
25D
100
AcDbEntity
  8
4
  6
CENTER
100
AcDbLine
 10
214.0495449999999
 20
75.0
 30
0.0
 11
201.149551
 21
75.0
 31
0.0
  0
LINE
  5
31E
330
25D
100
AcDbEntity
  8
1
  6
Continuous
100
AcDbLine
 10
236.299545
 20
81.099998
 30
0.0
 11
209.199539
 21
81.099998
 31
0.0
  0
LINE
  5
31F
330
25D
100
AcDbEntity
  8
1
  6
Continuous
100
AcDbLine
 10
236.299545
 20
84.0
 30
0.0
 11
209.199539
 21
84.0
 31
0.0
  0
LINE
  5
320
330
25D
100
AcDbEntity
  8
1
  6
Continuous
100
AcDbLine
 10
236.299545
 20
81.099998
 30
0.0
 11
236.299545
 21
84.0
 31
0.0
  0
LINE
  5
321
330
25D
100
AcDbEntity
  8
1
  6
Continuous
100
AcDbLine
 10
213.9995419999999
 20
64.849998
 30
0.0
 11
212.3995509999998
 21
64.849998
 31
0.0
  0
LINE
  5
322
330
25D
100
AcDbEntity
  8
1
  6
Continuous
100
AcDbLine
 10
207.9995419999999
 20
56.5
 30
0.0
 11
208.7495419999999
 21
56.0
 31
0.0
  0
LINE
  5
323
330
25D
100
AcDbEntity
  8
1
  6
Continuous
100
AcDbLine
 10
212.3995509999998
 20
48.0
 30
0.0
 11
209.499542
 21
48.0
 31
0.0
  0
LINE
  5
324
330
25D
100
AcDbEntity
  8
1
  6
Continuous
100
AcDbLine
 10
209.499542
 20
48.0
 30
0.0
 11
209.499542
 21
66.099998
 31
0.0
  0
LINE
  5
325
330
25D
100
AcDbEntity
  8
1
  6
Continuous
100
AcDbLine
 10
227.999542
 20
48.5
 30
0.0
 11
227.999542
 21
63.5
 31
0.0
  0
LINE
  5
326
330
25D
100
AcDbEntity
  8
1
  6
Continuous
100
AcDbLine
 10
213.9995419999999
 20
47.150002
 30
0.0
 11
212.3995509999998
 21
47.150002
 31
0.0
  0
LINE
  5
327
330
25D
100
AcDbEntity
  8
1
  6
Continuous
100
AcDbLine
 10
227.999542
 20
63.5
 30
0.0
 11
225.999542
 21
63.5
 31
0.0
  0
LINE
  5
328
330
25D
100
AcDbEntity
  8
1
  6
Continuous
100
AcDbLine
 10
227.999542
 20
48.5
 30
0.0
 11
225.999542
 21
48.5
 31
0.0
  0
LINE
  5
329
330
25D
100
AcDbEntity
  8
1
  6
Continuous
100
AcDbLine
 10
228.9995419999999
 20
62.5
 30
0.0
 11
227.999542
 21
63.5
 31
0.0
  0
LINE
  5
32A
330
25D
100
AcDbEntity
  8
1
  6
Continuous
100
AcDbLine
 10
228.9995419999999
 20
49.5
 30
0.0
 11
227.999542
 21
48.5
 31
0.0
  0
LINE
  5
32B
330
25D
100
AcDbEntity
  8
1
  6
Continuous
100
AcDbLine
 10
209.499542
 20
59.0
 30
0.0
 11
207.9995419999999
 21
59.0
 31
0.0
  0
LINE
  5
32C
330
25D
100
AcDbEntity
  8
1
  6
Continuous
100
AcDbLine
 10
209.499542
 20
53.0
 30
0.0
 11
207.9995419999999
 21
53.0
 31
0.0
  0
LINE
  5
32D
330
25D
100
AcDbEntity
  8
1
  6
Continuous
100
AcDbLine
 10
208.7495419999999
 20
56.0
 30
0.0
 11
207.9995419999999
 21
55.5
 31
0.0
  0
LINE
  5
32E
330
25D
100
AcDbEntity
  8
1
  6
Continuous
100
AcDbLine
 10
235.999542
 20
41.0
 30
0.0
 11
207.9995419999999
 21
41.0
 31
0.0
  0
LINE
  5
32F
330
25D
100
AcDbEntity
  8
1
  6
Continuous
100
AcDbLine
 10
235.999542
 20
71.0
 30
0.0
 11
209.199539
 21
71.0
 31
0.0
  0
LINE
  5
330
330
25D
100
AcDbEntity
  8
4
  6
CENTER
100
AcDbLine
 10
242.849548
 20
56.0
 30
0.0
 11
202.999542
 21
56.0
 31
0.0
  0
LINE
  5
331
330
25D
100
AcDbEntity
  8
1
  6
Continuous
100
AcDbLine
 10
237.9995419999999
 20
43.0
 30
0.0
 11
237.9995419999999
 21
69.0
 31
0.0
  0
LINE
  5
332
330
25D
100
AcDbEntity
  8
1
  6
Continuous
100
AcDbLine
 10
213.9995419999999
 20
71.0
 30
0.0
 11
213.9995419999999
 21
41.0
 31
0.0
  0
LINE
  5
333
330
25D
100
AcDbEntity
  8
1
  6
Continuous
100
AcDbLine
 10
215.599548
 20
43.5
 30
0.0
 11
224.3995509999999
 21
43.5
 31
0.0
  0
LINE
  5
334
330
25D
100
AcDbEntity
  8
1
  6
Continuous
100
AcDbLine
 10
215.599548
 20
68.5
 30
0.0
 11
224.3995509999999
 21
68.5
 31
0.0
  0
LINE
  5
335
330
25D
100
AcDbEntity
  8
1
  6
Continuous
100
AcDbLine
 10
215.599548
 20
66.900002
 30
0.0
 11
215.599548
 21
45.099998
 31
0.0
  0
LINE
  5
336
330
25D
100
AcDbEntity
  8
1
  6
Continuous
100
AcDbLine
 10
215.599548
 20
66.900002
 30
0.0
 11
224.3995509999999
 21
66.900002
 31
0.0
  0
LINE
  5
337
330
25D
100
AcDbEntity
  8
1
  6
Continuous
100
AcDbLine
 10
224.3995509999999
 20
45.099998
 30
0.0
 11
224.3995509999999
 21
66.900002
 31
0.0
  0
LINE
  5
338
330
25D
100
AcDbEntity
  8
1
  6
Continuous
100
AcDbLine
 10
215.599548
 20
45.099998
 30
0.0
 11
224.3995509999999
 21
45.099998
 31
0.0
  0
LINE
  5
339
330
25D
100
AcDbEntity
  8
1
  6
Continuous
100
AcDbLine
 10
215.599548
 20
60.0
 30
0.0
 11
224.3995509999999
 21
60.0
 31
0.0
  0
LINE
  5
33A
330
25D
100
AcDbEntity
  8
1
  6
Continuous
100
AcDbLine
 10
215.599548
 20
52.0
 30
0.0
 11
224.3995509999999
 21
52.0
 31
0.0
  0
LINE
  5
33B
330
25D
100
AcDbEntity
  8
1
  6
Continuous
100
AcDbLine
 10
216.0995479999999
 20
66.5
 30
0.0
 11
216.0995479999999
 21
60.0
 31
0.0
  0
LINE
  5
33C
330
25D
100
AcDbEntity
  8
1
  6
Continuous
100
AcDbLine
 10
217.699539
 20
45.49999999999999
 30
0.0
 11
222.7995449999999
 21
45.49999999999999
 31
0.0
  0
LINE
  5
33D
330
25D
100
AcDbEntity
  8
1
  6
Continuous
100
AcDbLine
 10
216.0995479999999
 20
66.5
 30
0.0
 11
217.699539
 21
66.5
 31
0.0
  0
LINE
  5
33E
330
25D
100
AcDbEntity
  8
1
  6
Continuous
100
AcDbLine
 10
217.699539
 20
66.5
 30
0.0
 11
217.699539
 21
60.0
 31
0.0
  0
LINE
  5
33F
330
25D
100
AcDbEntity
  8
1
  6
Continuous
100
AcDbLine
 10
222.7995449999999
 20
66.5
 30
0.0
 11
222.7995449999999
 21
60.0
 31
0.0
  0
LINE
  5
340
330
25D
100
AcDbEntity
  8
1
  6
Continuous
100
AcDbLine
 10
217.699539
 20
47.099998
 30
0.0
 11
222.7995449999999
 21
47.099998
 31
0.0
  0
LINE
  5
341
330
25D
100
AcDbEntity
  8
1
  6
Continuous
100
AcDbLine
 10
222.7995449999999
 20
66.5
 30
0.0
 11
224.3995509999999
 21
66.5
 31
0.0
  0
LINE
  5
342
330
25D
100
AcDbEntity
  8
1
  6
Continuous
100
AcDbLine
 10
217.699539
 20
52.0
 30
0.0
 11
217.699539
 21
47.099998
 31
0.0
  0
LINE
  5
343
330
25D
100
AcDbEntity
  8
1
  6
Continuous
100
AcDbLine
 10
216.0995479999999
 20
52.0
 30
0.0
 11
216.0995479999999
 21
47.099998
 31
0.0
  0
LINE
  5
344
330
25D
100
AcDbEntity
  8
1
  6
Continuous
100
AcDbLine
 10
222.7995449999999
 20
52.0
 30
0.0
 11
222.7995449999999
 21
47.099998
 31
0.0
  0
LINE
  5
345
330
25D
100
AcDbEntity
  8
1
  6
Continuous
100
AcDbLine
 10
218.6995389999999
 20
63.400002
 30
0.0
 11
222.6995389999999
 21
63.400002
 31
0.0
  0
LINE
  5
346
330
25D
100
AcDbEntity
  8
1
  6
Continuous
100
AcDbLine
 10
218.6995389999999
 20
48.599998
 30
0.0
 11
222.6995389999999
 21
48.599998
 31
0.0
  0
LINE
  5
347
330
25D
100
AcDbEntity
  8
1
  6
Continuous
100
AcDbLine
 10
218.6995389999999
 20
66.900002
 30
0.0
 11
218.6995389999999
 21
60.0
 31
0.0
  0
LINE
  5
348
330
25D
100
AcDbEntity
  8
1
  6
Continuous
100
AcDbLine
 10
221.299545
 20
66.900002
 30
0.0
 11
221.299545
 21
63.400002
 31
0.0
  0
LINE
  5
349
330
25D
100
AcDbEntity
  8
4
  6
CENTER
100
AcDbLine
 10
394.9993899999999
 20
393.4997559999998
 30
0.0
 11
390.99939
 21
393.4997559999998
 31
0.0
  0
LINE
  5
34A
330
25D
100
AcDbEntity
  8
4
  6
CENTER
100
AcDbLine
 10
394.9993899999999
 20
403.4997559999998
 30
0.0
 11
390.99939
 21
403.4997559999998
 31
0.0
  0
LINE
  5
34B
330
25D
100
AcDbEntity
  8
4
  6
CENTER
100
AcDbLine
 10
228.299545
 20
694.900024
 30
0.0
 11
228.299545
 21
682.0
 31
0.0
  0
LINE
  5
34C
330
25D
100
AcDbEntity
  8
4
  6
CENTER
100
AcDbLine
 10
219.999542
 20
735.0
 30
0.0
 11
219.999542
 21
695.0
 31
0.0
  0
LINE
  5
34D
330
25D
100
AcDbEntity
  8
4
  6
CENTER
100
AcDbLine
 10
219.999542
 20
76.0
 30
0.0
 11
219.999542
 21
36.0
 31
0.0
  0
LINE
  5
34E
330
25D
100
AcDbEntity
  8
1
  6
Continuous
100
AcDbLine
 10
209.199539
 20
700.0
 30
0.0
 11
209.199539
 21
689.900024
 31
0.0
  0
LINE
  5
34F
330
25D
100
AcDbEntity
  8
1
  6
Continuous
100
AcDbLine
 10
577.5996089999997
 20
153.9997559999999
 30
0.0
 11
577.5996089999997
 21
183.999756
 31
0.0
  0
LINE
  5
350
330
25D
100
AcDbEntity
  8
1
  6
Continuous
100
AcDbLine
 10
579.099609
 20
591.9997559999997
 30
0.0
 11
579.099609
 21
604.0997309999998
 31
0.0
  0
LINE
  5
351
330
25D
100
AcDbEntity
  8
1
  6
Continuous
100
AcDbLine
 10
222.6995389999999
 20
63.400002
 30
0.0
 11
222.6995389999999
 21
60.0
 31
0.0
  0
LINE
  5
352
330
25D
100
AcDbEntity
  8
1
  6
Continuous
100
AcDbLine
 10
218.6995389999999
 20
52.0
 30
0.0
 11
218.6995389999999
 21
47.099998
 31
0.0
  0
LINE
  5
353
330
25D
100
AcDbEntity
  8
1
  6
Continuous
100
AcDbLine
 10
222.6995389999999
 20
52.0
 30
0.0
 11
222.6995389999999
 21
47.099998
 31
0.0
  0
LINE
  5
354
330
25D
100
AcDbEntity
  8
1
  6
Continuous
100
AcDbLine
 10
234.299545
 20
153.9997559999999
 30
0.0
 11
206.2995449999998
 21
153.9997559999999
 31
0.0
  0
LINE
  5
355
330
25D
100
AcDbEntity
  8
1
  6
Continuous
100
AcDbLine
 10
206.2995449999998
 20
153.9997559999999
 30
0.0
 11
206.2995449999998
 21
183.999756
 31
0.0
  0
LINE
  5
356
330
25D
100
AcDbEntity
  8
1
  6
Continuous
100
AcDbLine
 10
234.299545
 20
183.999756
 30
0.0
 11
206.2995449999998
 21
183.999756
 31
0.0
  0
LINE
  5
357
330
25D
100
AcDbEntity
  8
4
  6
CENTER
100
AcDbLine
 10
228.299545
 20
155.349747
 30
0.0
 11
228.299545
 21
164.64975
 31
0.0
  0
LINE
  5
358
330
25D
100
AcDbEntity
  8
4
  6
CENTER
100
AcDbLine
 10
228.299545
 20
173.349747
 30
0.0
 11
228.299545
 21
182.64975
 31
0.0
  0
LINE
  5
359
330
25D
100
AcDbEntity
  8
1
  6
Continuous
100
AcDbLine
 10
236.299545
 20
155.999756
 30
0.0
 11
236.299545
 21
181.999756
 31
0.0
  0
LINE
  5
35A
330
25D
100
AcDbEntity
  8
4
  6
CENTER
100
AcDbLine
 10
232.9495389999999
 20
177.9997559999999
 30
0.0
 11
223.6495509999998
 21
177.9997559999999
 31
0.0
  0
LINE
  5
35B
330
25D
100
AcDbEntity
  8
4
  6
CENTER
100
AcDbLine
 10
232.9495389999999
 20
159.999756
 30
0.0
 11
223.6495509999998
 21
159.999756
 31
0.0
  0
LINE
  5
35C
330
25D
100
AcDbEntity
  8
4
  6
CENTER
100
AcDbLine
 10
241.2995449999999
 20
168.9997559999999
 30
0.0
 11
201.299545
 21
168.9997559999999
 31
0.0
  0
LINE
  5
35D
330
25D
100
AcDbEntity
  8
4
  6
CENTER
100
AcDbLine
 10
201.299545
 20
159.999756
 30
0.0
 11
214.1995389999999
 21
159.999756
 31
0.0
  0
LINE
  5
35E
330
25D
100
AcDbEntity
  8
4
  6
CENTER
100
AcDbLine
 10
201.299545
 20
177.9997559999999
 30
0.0
 11
214.1995389999999
 21
177.9997559999999
 31
0.0
  0
LINE
  5
35F
330
25D
100
AcDbEntity
  8
4
  6
CENTER
100
AcDbLine
 10
572.5996089999997
 20
159.999756
 30
0.0
 11
585.4995730000001
 21
159.999756
 31
0.0
  0
LINE
  5
360
330
25D
100
AcDbEntity
  8
4
  6
CENTER
100
AcDbLine
 10
572.5996089999997
 20
177.9997559999999
 30
0.0
 11
585.4995730000001
 21
177.9997559999999
 31
0.0
  0
LINE
  5
361
330
25D
100
AcDbEntity
  8
1
  6
Continuous
100
AcDbLine
 10
209.199539
 20
69.0
 30
0.0
 11
209.199539
 21
81.099998
 31
0.0
  0
LINE
  5
362
330
25D
100
AcDbEntity
  8
4
  6
CENTER
100
AcDbLine
 10
225.349548
 20
65.0
 30
0.0
 11
234.649551
 21
65.0
 31
0.0
  0
LINE
  5
363
330
25D
100
AcDbEntity
  8
4
  6
CENTER
100
AcDbLine
 10
229.999542
 20
69.650002
 30
0.0
 11
229.999542
 21
60.349998
 31
0.0
  0
LINE
  5
364
330
25D
100
AcDbEntity
  8
4
  6
CENTER
100
AcDbLine
 10
225.349548
 20
47.0
 30
0.0
 11
234.649551
 21
47.0
 31
0.0
  0
LINE
  5
365
330
25D
100
AcDbEntity
  8
4
  6
CENTER
100
AcDbLine
 10
229.999542
 20
51.650002
 30
0.0
 11
229.999542
 21
42.34999799999999
 31
0.0
  0
LINE
  5
366
330
25D
100
AcDbEntity
  8
1
  6
Continuous
100
AcDbLine
 10
218.6995389999999
 20
42.0
 30
0.0
 11
222.6995389999999
 21
42.0
 31
0.0
  0
LINE
  5
367
330
25D
100
AcDbEntity
  8
1
  6
Continuous
100
AcDbLine
 10
218.6995389999999
 20
43.5
 30
0.0
 11
218.6995389999999
 21
42.0
 31
0.0
  0
LINE
  5
368
330
25D
100
AcDbEntity
  8
1
  6
Continuous
100
AcDbLine
 10
222.6995389999999
 20
43.5
 30
0.0
 11
222.6995389999999
 21
42.0
 31
0.0
  0
LINE
  5
369
330
25D
100
AcDbEntity
  8
1
  6
Continuous
100
AcDbLine
 10
219.1995389999999
 20
42.5
 30
0.0
 11
222.199539
 21
42.5
 31
0.0
  0
LINE
  5
36A
330
25D
100
AcDbEntity
  8
1
  6
Continuous
100
AcDbLine
 10
209.599548
 20
575.9997559999998
 30
0.0
 11
209.599548
 21
578.4997559999998
 31
0.0
  0
LINE
  5
36B
330
25D
100
AcDbEntity
  8
4
  6
CENTER
100
AcDbLine
 10
229.999542
 20
599.0997309999998
 30
0.0
 11
229.999542
 21
611.9997559999998
 31
0.0
  0
LINE
  5
36C
330
25D
100
AcDbEntity
  8
1
  6
Continuous
100
AcDbLine
 10
211.099548
 20
591.9997559999997
 30
0.0
 11
210.8995509999998
 21
591.9997559999997
 31
0.0
  0
LINE
  5
36D
330
25D
100
AcDbEntity
  8
1
  6
Continuous
100
AcDbLine
 10
213.9995419999999
 20
570.1497799999997
 30
0.0
 11
213.9995419999999
 21
589.0997309999997
 31
0.0
  0
LINE
  5
36E
330
25D
100
AcDbEntity
  8
4
  6
CENTER
100
AcDbLine
 10
234.503433
 20
578.9997559999997
 30
0.0
 11
201.370926
 21
578.9997559999997
 31
0.0
  0
LINE
  5
36F
330
25D
100
AcDbEntity
  8
1
  6
Continuous
100
AcDbLine
 10
211.099548
 20
589.0997309999997
 30
0.0
 11
210.8995509999998
 21
589.0997309999997
 31
0.0
  0
LINE
  5
370
330
25D
100
AcDbEntity
  8
1
  6
Continuous
100
AcDbLine
 10
226.8995509999998
 20
572.4997559999998
 30
0.0
 11
226.8995509999998
 21
585.4997559999998
 31
0.0
  0
LINE
  5
371
330
25D
100
AcDbEntity
  8
1
  6
Continuous
100
AcDbLine
 10
207.9995419999999
 20
591.9997559999997
 30
0.0
 11
207.9995419999999
 21
604.0997309999998
 31
0.0
  0
LINE
  5
372
330
25D
100
AcDbEntity
  8
4
  6
CENTER
100
AcDbLine
 10
215.899551
 20
597.9997559999998
 30
0.0
 11
202.849548
 21
597.9997559999998
 31
0.0
  0
LINE
  5
373
330
25D
100
AcDbEntity
  8
1
  6
Continuous
100
AcDbLine
 10
237.9995419999999
 20
604.0997309999998
 30
0.0
 11
210.8995509999998
 21
604.0997309999998
 31
0.0
  0
LINE
  5
374
330
25D
100
AcDbEntity
  8
1
  6
Continuous
100
AcDbLine
 10
237.9995419999999
 20
606.9997559999998
 30
0.0
 11
210.8995509999998
 21
606.9997559999998
 31
0.0
  0
LINE
  5
375
330
25D
100
AcDbEntity
  8
1
  6
Continuous
100
AcDbLine
 10
237.9995419999999
 20
604.0997309999998
 30
0.0
 11
237.9995419999999
 21
606.9997559999998
 31
0.0
  0
LINE
  5
376
330
25D
100
AcDbEntity
  8
1
  6
Continuous
100
AcDbLine
 10
215.599548
 20
587.8497309999998
 30
0.0
 11
213.9995419999999
 21
587.8497309999998
 31
0.0
  0
LINE
  5
377
330
25D
100
AcDbEntity
  8
1
  6
Continuous
100
AcDbLine
 10
209.599548
 20
579.4997559999997
 30
0.0
 11
210.3495479999998
 21
578.9997559999997
 31
0.0
  0
LINE
  5
378
330
25D
100
AcDbEntity
  8
1
  6
Continuous
100
AcDbLine
 10
213.9995419999999
 20
570.9997559999997
 30
0.0
 11
211.099548
 21
570.9997559999997
 31
0.0
  0
LINE
  5
379
330
25D
100
AcDbEntity
  8
1
  6
Continuous
100
AcDbLine
 10
209.599548
 20
579.4997559999997
 30
0.0
 11
209.599548
 21
581.9997559999998
 31
0.0
  0
LINE
  5
37A
330
25D
100
AcDbEntity
  8
1
  6
Continuous
100
AcDbLine
 10
211.099548
 20
570.9997559999997
 30
0.0
 11
211.099548
 21
589.0997309999997
 31
0.0
  0
LINE
  5
37B
330
25D
100
AcDbEntity
  8
1
  6
Continuous
100
AcDbLine
 10
225.8995509999998
 20
571.4997559999998
 30
0.0
 11
225.8995509999998
 21
586.4997559999998
 31
0.0
  0
LINE
  5
37C
330
25D
100
AcDbEntity
  8
1
  6
Continuous
100
AcDbLine
 10
215.599548
 20
570.1497799999997
 30
0.0
 11
213.9995419999999
 21
570.1497799999997
 31
0.0
  0
LINE
  5
37D
330
25D
100
AcDbEntity
  8
1
  6
Continuous
100
AcDbLine
 10
225.8995509999998
 20
586.4997559999998
 30
0.0
 11
223.8995509999998
 21
586.4997559999998
 31
0.0
  0
LINE
  5
37E
330
25D
100
AcDbEntity
  8
1
  6
Continuous
100
AcDbLine
 10
225.8995509999998
 20
571.4997559999998
 30
0.0
 11
223.8995509999998
 21
571.4997559999998
 31
0.0
  0
LINE
  5
37F
330
25D
100
AcDbEntity
  8
1
  6
Continuous
100
AcDbLine
 10
226.8995509999998
 20
585.4997559999998
 30
0.0
 11
225.8995509999998
 21
586.4997559999998
 31
0.0
  0
LINE
  5
380
330
25D
100
AcDbEntity
  8
1
  6
Continuous
100
AcDbLine
 10
226.8995509999998
 20
572.4997559999998
 30
0.0
 11
225.8995509999998
 21
571.4997559999998
 31
0.0
  0
LINE
  5
381
330
25D
100
AcDbEntity
  8
1
  6
Continuous
100
AcDbLine
 10
211.099548
 20
581.9997559999998
 30
0.0
 11
209.599548
 21
581.9997559999998
 31
0.0
  0
LINE
  5
382
330
25D
100
AcDbEntity
  8
1
  6
Continuous
100
AcDbLine
 10
211.099548
 20
575.9997559999998
 30
0.0
 11
209.599548
 21
575.9997559999998
 31
0.0
  0
LINE
  5
383
330
25D
100
AcDbEntity
  8
1
  6
Continuous
100
AcDbLine
 10
210.3495479999998
 20
578.9997559999997
 30
0.0
 11
209.599548
 21
578.4997559999998
 31
0.0
  0
LINE
  5
384
330
25D
100
AcDbEntity
  8
1
  6
Continuous
100
AcDbLine
 10
210.8995509999998
 20
591.9997559999997
 30
0.0
 11
210.8995509999998
 21
604.0997309999998
 31
0.0
  0
LINE
  5
385
330
25D
100
AcDbEntity
  8
1
  6
Continuous
100
AcDbLine
 10
572.799622
 20
409.499756
 30
0.0
 11
572.799622
 21
588.9997559999998
 31
0.0
  0
LINE
  5
386
330
25D
100
AcDbEntity
  8
1
  6
Continuous
100
AcDbLine
 10
567.6995849999998
 20
409.499756
 30
0.0
 11
567.6995849999998
 21
588.9997559999998
 31
0.0
  0
LINE
  5
387
330
25D
100
AcDbEntity
  8
1
  6
Continuous
100
AcDbLine
 10
52.5
 20
369.9997559999998
 30
0.0
 11
56.11715699999999
 21
368.366913
 31
0.0
  0
LINE
  5
388
330
25D
100
AcDbEntity
  8
1
  6
Continuous
100
AcDbLine
 10
52.5
 20
362.999756
 30
0.0
 11
56.374725
 21
365.781219
 31
0.0
  0
LINE
  5
389
330
25D
100
AcDbEntity
  8
1
  6
Continuous
100
AcDbLine
 10
367.49939
 20
369.9997559999998
 30
0.0
 11
363.8822329999999
 21
368.366913
 31
0.0
  0
LINE
  5
38A
330
25D
100
AcDbEntity
  8
1
  6
Continuous
100
AcDbLine
 10
367.49939
 20
362.999756
 30
0.0
 11
363.6246639999998
 21
365.781219
 31
0.0
  0
LINE
  5
38B
330
25D
100
AcDbEntity
  8
4
  6
CENTER
100
AcDbLine
 10
25.0
 20
393.4997559999998
 30
0.0
 11
29.0
 21
393.4997559999998
 31
0.0
  0
LINE
  5
38C
330
25D
100
AcDbEntity
  8
4
  6
CENTER
100
AcDbLine
 10
25.0
 20
403.4997559999998
 30
0.0
 11
29.0
 21
403.4997559999998
 31
0.0
  0
LINE
  5
38D
330
25D
100
AcDbEntity
  8
4
  6
CENTER
100
AcDbLine
 10
211.9995419999999
 20
333.499756
 30
0.0
 11
215.9995419999999
 21
333.499756
 31
0.0
  0
LINE
  5
38E
330
25D
100
AcDbEntity
  8
4
  6
CENTER
100
AcDbLine
 10
227.999542
 20
333.499756
 30
0.0
 11
223.999542
 21
333.499756
 31
0.0
  0
LINE
  5
38F
330
25D
100
AcDbEntity
  8
4
  6
CENTER
100
AcDbLine
 10
561.999573
 20
333.499756
 30
0.0
 11
565.9995730000003
 21
333.499756
 31
0.0
  0
LINE
  5
390
330
25D
100
AcDbEntity
  8
4
  6
CENTER
100
AcDbLine
 10
577.9995730000003
 20
333.499756
 30
0.0
 11
573.9995730000003
 21
333.499756
 31
0.0
  0
LINE
  5
391
330
25D
100
AcDbEntity
  8
1
  6
Continuous
100
AcDbLine
 10
221.937042
 20
401.01297
 30
0.0
 11
218.060898
 21
401.01297
 31
0.0
  0
LINE
  5
392
330
25D
100
AcDbEntity
  8
1
  6
Continuous
100
AcDbLine
 10
221.8908079999999
 20
401.5678409999998
 30
0.0
 11
218.107132
 21
401.5678409999998
 31
0.0
  0
LINE
  5
393
330
25D
100
AcDbEntity
  8
1
  6
Continuous
100
AcDbLine
 10
218.2717899999999
 20
402.1238099999997
 30
0.0
 11
219.3330229999999
 21
402.1238099999997
 31
0.0
  0
LINE
  5
394
330
25D
100
AcDbEntity
  8
1
  6
Continuous
100
AcDbLine
 10
221.441956
 20
402.6798099999998
 30
0.0
 11
218.5559839999999
 21
402.6798099999998
 31
0.0
  0
LINE
  5
395
330
25D
100
AcDbEntity
  8
1
  6
Continuous
100
AcDbLine
 10
219.999542
 20
401.01297
 30
0.0
 11
219.999542
 21
401.5678409999998
 31
0.0
  0
LINE
  5
396
330
25D
100
AcDbEntity
  8
1
  6
Continuous
100
AcDbLine
 10
220.666046
 20
402.1238099999997
 30
0.0
 11
221.7261509999999
 21
402.1238099999997
 31
0.0
  0
LINE
  5
397
330
25D
100
AcDbEntity
  8
1
  6
Continuous
100
AcDbLine
 10
221.3697809999999
 20
403.23468
 30
0.0
 11
218.6293029999999
 21
403.23468
 31
0.0
  0
LINE
  5
398
330
25D
100
AcDbEntity
  8
1
  6
Continuous
100
AcDbLine
 10
218.9743959999999
 20
403.79068
 30
0.0
 11
221.02356
 21
403.79068
 31
0.0
  0
LINE
  5
399
330
25D
100
AcDbEntity
  8
1
  6
Continuous
100
AcDbLine
 10
221.5231629999999
 20
404.34552
 30
0.0
 11
219.127777
 21
404.34552
 31
0.0
  0
LINE
  5
39A
330
25D
100
AcDbEntity
  8
1
  6
Continuous
100
AcDbLine
 10
221.8253939999999
 20
398.7912600000001
 30
0.0
 11
218.3473509999998
 21
398.7912600000001
 31
0.0
  0
LINE
  5
39B
330
25D
100
AcDbEntity
  8
1
  6
Continuous
100
AcDbLine
 10
218.4308009999998
 20
399.3461299999998
 30
0.0
 11
219.999542
 21
399.3461299999998
 31
0.0
  0
LINE
  5
39C
330
25D
100
AcDbEntity
  8
1
  6
Continuous
100
AcDbLine
 10
221.8276519999998
 20
399.9021
 30
0.0
 11
218.170288
 21
399.9021
 31
0.0
  0
LINE
  5
39D
330
25D
100
AcDbEntity
  8
1
  6
Continuous
100
AcDbLine
 10
221.937042
 20
400.45697
 30
0.0
 11
218.060898
 21
400.45697
 31
0.0
  0
LINE
  5
39E
330
25D
100
AcDbEntity
  8
1
  6
Continuous
100
AcDbLine
 10
219.999542
 20
395.9707029999998
 30
0.0
 11
219.999542
 21
397.1187739999999
 31
0.0
  0
LINE
  5
39F
330
25D
100
AcDbEntity
  8
1
  6
Continuous
100
AcDbLine
 10
218.9597319999998
 20
397.3973389999999
 30
0.0
 11
221.30098
 21
396.7691649999999
 31
0.0
  0
LINE
  5
3A0
330
25D
100
AcDbEntity
  8
1
  6
Continuous
100
AcDbLine
 10
219.999542
 20
397.957825
 30
0.0
 11
218.6665189999999
 21
397.957825
 31
0.0
  0
LINE
  5
3A1
330
25D
100
AcDbEntity
  8
1
  6
Continuous
100
AcDbLine
 10
220.276978
 20
397.6792909999998
 30
0.0
 11
221.463379
 21
397.6792909999998
 31
0.0
  0
LINE
  5
3A2
330
25D
100
AcDbEntity
  8
1
  6
Continuous
100
AcDbLine
 10
221.5637509999999
 20
398.23526
 30
0.0
 11
220.276978
 21
398.23526
 31
0.0
  0
LINE
  5
3A3
330
25D
100
AcDbEntity
  8
1
  6
Continuous
100
AcDbLine
 10
219.999542
 20
399.3461299999998
 30
0.0
 11
219.999542
 21
399.6235659999999
 31
0.0
  0
LINE
  5
3A4
330
25D
100
AcDbEntity
  8
1
  6
Continuous
100
AcDbLine
 10
220.666046
 20
399.3461299999998
 30
0.0
 11
221.567139
 21
399.3461299999998
 31
0.0
  0
LINE
  5
3A5
330
25D
100
AcDbEntity
  8
5
  6
PHANTOM
100
AcDbLine
 10
394.9993899999999
 20
621.9997559999998
 30
0.0
 11
364.99939
 21
621.9997559999998
 31
0.0
  0
LINE
  5
3A6
330
25D
100
AcDbEntity
  8
5
  6
PHANTOM
100
AcDbLine
 10
394.9993899999999
 20
619.0997309999998
 30
0.0
 11
364.99939
 21
619.0997309999998
 31
0.0
  0
LINE
  5
3A7
330
25D
100
AcDbEntity
  8
5
  6
PHANTOM
100
AcDbLine
 10
394.9993899999999
 20
600.9997559999998
 30
0.0
 11
394.9993899999999
 21
621.9997559999998
 31
0.0
  0
LINE
  5
3A8
330
25D
100
AcDbEntity
  8
5
  6
PHANTOM
100
AcDbLine
 10
364.99939
 20
600.9997559999998
 30
0.0
 11
364.99939
 21
621.9997559999998
 31
0.0
  0
LINE
  5
3A9
330
25D
100
AcDbEntity
  8
5
  6
PHANTOM
100
AcDbLine
 10
394.9993899999999
 20
445.9997559999997
 30
0.0
 11
364.99939
 21
445.9997559999997
 31
0.0
  0
LINE
  5
3AA
330
25D
100
AcDbEntity
  8
5
  6
PHANTOM
100
AcDbLine
 10
394.9993899999999
 20
443.099762
 30
0.0
 11
364.99939
 21
443.099762
 31
0.0
  0
LINE
  5
3AB
330
25D
100
AcDbEntity
  8
5
  6
PHANTOM
100
AcDbLine
 10
394.9993899999999
 20
424.9997559999997
 30
0.0
 11
394.9993899999999
 21
445.9997559999997
 31
0.0
  0
LINE
  5
3AC
330
25D
100
AcDbEntity
  8
5
  6
PHANTOM
100
AcDbLine
 10
364.99939
 20
424.9997559999997
 30
0.0
 11
364.99939
 21
445.9997559999997
 31
0.0
  0
LINE
  5
3AD
330
25D
100
AcDbEntity
  8
4
  6
CENTER
100
AcDbLine
 10
367.49939
 20
417.999756
 30
0.0
 11
392.49939
 21
417.999756
 31
0.0
  0
LINE
  5
3AE
330
25D
100
AcDbEntity
  8
4
  6
CENTER
100
AcDbLine
 10
367.49939
 20
593.9997559999998
 30
0.0
 11
392.49939
 21
593.9997559999998
 31
0.0
  0
LINE
  5
3AF
330
25D
100
AcDbEntity
  8
5
  6
PHANTOM
100
AcDbLine
 10
52.5
 20
375.878601
 30
0.0
 11
54.5
 21
375.878601
 31
0.0
  0
LINE
  5
3B0
330
25D
100
AcDbEntity
  8
5
  6
PHANTOM
100
AcDbLine
 10
52.5
 20
390.6786189999999
 30
0.0
 11
54.5
 21
390.6786189999999
 31
0.0
  0
LINE
  5
3B1
330
25D
100
AcDbEntity
  8
4
  6
CENTER
100
AcDbLine
 10
22.0
 20
383.599762
 30
0.0
 11
57.0
 21
383.599762
 31
0.0
  0
LINE
  5
3B2
330
25D
100
AcDbEntity
  8
5
  6
PHANTOM
100
AcDbLine
 10
367.49939
 20
375.878601
 30
0.0
 11
365.49939
 21
375.878601
 31
0.0
  0
LINE
  5
3B3
330
25D
100
AcDbEntity
  8
5
  6
PHANTOM
100
AcDbLine
 10
367.49939
 20
390.6786189999999
 30
0.0
 11
365.49939
 21
390.6786189999999
 31
0.0
  0
LINE
  5
3B4
330
25D
100
AcDbEntity
  8
4
  6
CENTER
100
AcDbLine
 10
397.99939
 20
383.599762
 30
0.0
 11
362.99939
 21
383.599762
 31
0.0
  0
LINE
  5
3B5
330
25D
100
AcDbEntity
  8
4
  6
CENTER
100
AcDbLine
 10
565.9995730000003
 20
403.4997559999998
 30
0.0
 11
573.9995730000003
 21
403.4997559999998
 31
0.0
  0
LINE
  5
3B6
330
25D
100
AcDbEntity
  8
4
  6
CENTER
100
AcDbLine
 10
565.9995730000003
 20
393.4997559999998
 30
0.0
 11
573.9995730000003
 21
393.4997559999998
 31
0.0
  0
LINE
  5
3B7
330
25D
100
AcDbEntity
  8
1
  6
Continuous
100
AcDbLine
 10
211.099548
 20
71.0
 30
0.0
 11
211.099548
 21
68.51867699999999
 31
0.0
  0
LINE
  5
3B8
330
25D
100
AcDbEntity
  8
1
  6
Continuous
100
AcDbLine
 10
211.099548
 20
48.0
 30
0.0
 11
211.099548
 21
41.0
 31
0.0
  0
LINE
  5
3B9
330
25D
100
AcDbEntity
  8
5
  6
PHANTOM
100
AcDbLine
 10
55.0
 20
445.9997559999997
 30
0.0
 11
25.0
 21
445.9997559999997
 31
0.0
  0
LINE
  5
3BA
330
25D
100
AcDbEntity
  8
5
  6
PHANTOM
100
AcDbLine
 10
55.0
 20
424.9997559999997
 30
0.0
 11
55.0
 21
445.9997559999997
 31
0.0
  0
LINE
  5
3BB
330
25D
100
AcDbEntity
  8
5
  6
PHANTOM
100
AcDbLine
 10
25.0
 20
424.9997559999997
 30
0.0
 11
25.0
 21
445.9997559999997
 31
0.0
  0
LINE
  5
3BC
330
25D
100
AcDbEntity
  8
5
  6
PHANTOM
100
AcDbLine
 10
55.0
 20
428.0997619999998
 30
0.0
 11
25.0
 21
428.0997619999998
 31
0.0
  0
LINE
  5
3BD
330
25D
100
AcDbEntity
  8
4
  6
CENTER
100
AcDbLine
 10
34.75
 20
417.999756
 30
0.0
 11
45.25
 21
417.999756
 31
0.0
  0
LINE
  5
3BE
330
25D
100
AcDbEntity
  8
5
  6
PHANTOM
100
AcDbLine
 10
55.0
 20
621.9997559999998
 30
0.0
 11
25.0
 21
621.9997559999998
 31
0.0
  0
LINE
  5
3BF
330
25D
100
AcDbEntity
  8
5
  6
PHANTOM
100
AcDbLine
 10
55.0
 20
600.9997559999998
 30
0.0
 11
55.0
 21
621.9997559999998
 31
0.0
  0
LINE
  5
3C0
330
25D
100
AcDbEntity
  8
5
  6
PHANTOM
100
AcDbLine
 10
25.0
 20
600.9997559999998
 30
0.0
 11
25.0
 21
621.9997559999998
 31
0.0
  0
LINE
  5
3C1
330
25D
100
AcDbEntity
  8
4
  6
CENTER
100
AcDbLine
 10
34.75
 20
593.9997559999998
 30
0.0
 11
45.25
 21
593.9997559999998
 31
0.0
  0
LINE
  5
3C2
330
25D
100
AcDbEntity
  8
5
  6
PHANTOM
100
AcDbLine
 10
55.0
 20
604.0997309999998
 30
0.0
 11
25.0
 21
604.0997309999998
 31
0.0
  0
CIRCLE
  5
3C3
330
25D
100
AcDbEntity
  8
1
  6
Continuous
100
AcDbCircle
 10
379.99939
 20
333.499756
 30
0.0
 40
3.049999999999998
  0
ARC
  5
3C4
330
25D
100
AcDbEntity
  8
1
  6
Continuous
100
AcDbCircle
 10
217.999542
 20
389.999756
 30
0.0
 40
1.0
100
AcDbArc
 50
90.00000300000001
 51
180.000005
  0
ARC
  5
3C5
330
25D
100
AcDbEntity
  8
1
  6
Continuous
100
AcDbCircle
 10
221.499542
 20
389.999756
 30
0.0
 40
1.0
100
AcDbArc
 50
0.0
 51
90.00000300000001
  0
ARC
  5
3C6
330
25D
100
AcDbEntity
  8
1
  6
Continuous
100
AcDbCircle
 10
221.499542
 20
363.9997559999998
 30
0.0
 40
1.0
100
AcDbArc
 50
269.9999969999999
 51
0.0
  0
ARC
  5
3C7
330
25D
100
AcDbEntity
  8
1
  6
Continuous
100
AcDbCircle
 10
217.999542
 20
363.9997559999998
 30
0.0
 40
1.0
100
AcDbArc
 50
180.000005
 51
270.000001
  0
CIRCLE
  5
3C8
330
25D
100
AcDbEntity
  8
1
  6
Continuous
100
AcDbCircle
 10
40.0
 20
333.499756
 30
0.0
 40
3.049999999999998
  0
ARC
  5
3C9
330
25D
100
AcDbEntity
  8
1
  6
Continuous
100
AcDbCircle
 10
561.6995849999998
 20
159.999756
 30
0.0
 40
2.649999999999999
100
AcDbArc
 50
105.3165099999999
 51
349.124272
  0
ARC
  5
3CA
330
25D
100
AcDbEntity
  8
1
  6
Continuous
100
AcDbCircle
 10
561.6995849999998
 20
177.9997559999999
 30
0.0
 40
2.649999999999999
100
AcDbArc
 50
29.78165699999999
 51
254.683493
  0
ARC
  5
3CB
330
25D
100
AcDbEntity
  8
1
  6
Continuous
100
AcDbCircle
 10
578.899597
 20
589.0997309999997
 30
0.0
 40
2.9
100
AcDbArc
 50
90.00000300000001
 51
180.000005
  0
CIRCLE
  5
3CC
330
25D
100
AcDbEntity
  8
1
  6
Continuous
100
AcDbCircle
 10
379.99939
 20
168.9997559999999
 30
0.0
 40
7.5
  0
CIRCLE
  5
3CD
330
25D
100
AcDbEntity
  8
1
  6
Continuous
100
AcDbCircle
 10
379.99939
 20
168.9997559999999
 30
0.0
 40
6.5
  0
ARC
  5
3CE
330
25D
100
AcDbEntity
  8
1
  6
Continuous
100
AcDbCircle
 10
372.99939
 20
168.9997559999999
 30
0.0
 40
15.0
100
AcDbArc
 50
269.9999969999999
 51
320.703521
  0
CIRCLE
  5
3CF
330
25D
100
AcDbEntity
  8
1
  6
Continuous
100
AcDbCircle
 10
360.99939
 20
159.999756
 30
0.0
 40
2.649999999999999
  0
CIRCLE
  5
3D0
330
25D
100
AcDbEntity
  8
1
  6
Continuous
100
AcDbCircle
 10
360.99939
 20
177.9997559999999
 30
0.0
 40
2.649999999999999
  0
ARC
  5
3D1
330
25D
100
AcDbEntity
  8
1
  6
Continuous
100
AcDbCircle
 10
379.99939
 20
585.9997559999998
 30
0.0
 40
15.0
100
AcDbArc
 50
180.000005
 51
225.5729939999999
  0
ARC
  5
3D2
330
25D
100
AcDbEntity
  8
1
  6
Continuous
100
AcDbCircle
 10
379.99939
 20
585.9997559999998
 30
0.0
 40
15.0
100
AcDbArc
 50
314.427004
 51
0.0
  0
CIRCLE
  5
3D3
330
25D
100
AcDbEntity
  8
1
  6
Continuous
100
AcDbCircle
 10
379.99939
 20
578.9997559999997
 30
0.0
 40
6.5
  0
CIRCLE
  5
3D4
330
25D
100
AcDbEntity
  8
1
  6
Continuous
100
AcDbCircle
 10
379.99939
 20
578.9997559999997
 30
0.0
 40
7.5
  0
CIRCLE
  5
3D5
330
25D
100
AcDbEntity
  8
1
  6
Continuous
100
AcDbCircle
 10
388.99939
 20
597.9997559999998
 30
0.0
 40
2.649999999999999
  0
CIRCLE
  5
3D6
330
25D
100
AcDbEntity
  8
1
  6
Continuous
100
AcDbCircle
 10
370.99939
 20
597.9997559999998
 30
0.0
 40
2.649999999999999
  0
ARC
  5
3D7
330
25D
100
AcDbEntity
  8
1
  6
Continuous
100
AcDbCircle
 10
47.0
 20
168.9997559999999
 30
0.0
 40
15.0
100
AcDbArc
 50
90.00000300000001
 51
270.000001
  0
CIRCLE
  5
3D8
330
25D
100
AcDbEntity
  8
1
  6
Continuous
100
AcDbCircle
 10
59.0
 20
177.9997559999999
 30
0.0
 40
2.649999999999999
  0
CIRCLE
  5
3D9
330
25D
100
AcDbEntity
  8
1
  6
Continuous
100
AcDbCircle
 10
59.0
 20
159.999756
 30
0.0
 40
2.649999999999999
  0
ARC
  5
3DA
330
25D
100
AcDbEntity
  8
1
  6
Continuous
100
AcDbCircle
 10
579.099609
 20
591.9997559999997
 30
0.0
 40
2.9
100
AcDbArc
 50
269.9999969999999
 51
0.0
  0
ARC
  5
3DB
330
25D
100
AcDbEntity
  8
1
  6
Continuous
100
AcDbCircle
 10
579.099609
 20
604.0997309999998
 30
0.0
 40
2.9
100
AcDbArc
 50
0.0
 51
90.00000300000001
  0
CIRCLE
  5
3DC
330
25D
100
AcDbEntity
  8
1
  6
Continuous
100
AcDbCircle
 10
40.0
 20
168.9997559999999
 30
0.0
 40
3.0
  0
CIRCLE
  5
3DD
330
25D
100
AcDbEntity
  8
1
  6
Continuous
100
AcDbCircle
 10
40.0
 20
168.9997559999999
 30
0.0
 40
3.25
  0
CIRCLE
  5
3DE
330
25D
100
AcDbEntity
  8
1
  6
Continuous
100
AcDbCircle
 10
40.0
 20
578.9997559999997
 30
0.0
 40
3.0
  0
CIRCLE
  5
3DF
330
25D
100
AcDbEntity
  8
1
  6
Continuous
100
AcDbCircle
 10
40.0
 20
578.9997559999997
 30
0.0
 40
3.25
  0
ARC
  5
3E0
330
25D
100
AcDbEntity
  8
1
  6
Continuous
100
AcDbCircle
 10
40.0
 20
585.9997559999998
 30
0.0
 40
15.0
100
AcDbArc
 50
180.000005
 51
0.00001
  0
CIRCLE
  5
3E1
330
25D
100
AcDbEntity
  8
1
  6
Continuous
100
AcDbCircle
 10
31.0
 20
597.9997559999998
 30
0.0
 40
2.649999999999999
  0
CIRCLE
  5
3E2
330
25D
100
AcDbEntity
  8
1
  6
Continuous
100
AcDbCircle
 10
49.0
 20
597.9997559999998
 30
0.0
 40
2.649999999999999
  0
CIRCLE
  5
3E3
330
25D
100
AcDbEntity
  8
1
  6
Continuous
100
AcDbCircle
 10
229.999542
 20
724.0
 30
0.0
 40
2.649999999999999
  0
CIRCLE
  5
3E4
330
25D
100
AcDbEntity
  8
1
  6
Continuous
100
AcDbCircle
 10
229.999542
 20
706.0
 30
0.0
 40
2.649999999999999
  0
ARC
  5
3E5
330
25D
100
AcDbEntity
  8
1
  6
Continuous
100
AcDbCircle
 10
209.199539
 20
702.0
 30
0.0
 40
2.9
100
AcDbArc
 50
114.443337
 51
180.000005
  0
ARC
  5
3E6
330
25D
100
AcDbEntity
  8
1
  6
Continuous
100
AcDbCircle
 10
209.199539
 20
689.900024
 30
0.0
 40
2.9
100
AcDbArc
 50
180.000005
 51
270.000001
  0
ARC
  5
3E7
330
25D
100
AcDbEntity
  8
1
  6
Continuous
100
AcDbCircle
 10
209.499542
 20
66.099998
 30
0.0
 40
2.9
100
AcDbArc
 50
0.0
 51
90.00000300000001
  0
ARC
  5
3E8
330
25D
100
AcDbEntity
  8
1
  6
Continuous
100
AcDbCircle
 10
209.199539
 20
69.0
 30
0.0
 40
2.9
100
AcDbArc
 50
180.000005
 51
270.000001
  0
ARC
  5
3E9
330
25D
100
AcDbEntity
  8
1
  6
Continuous
100
AcDbCircle
 10
209.199539
 20
81.099998
 30
0.0
 40
2.9
100
AcDbArc
 50
90.00000300000001
 51
180.000005
  0
ARC
  5
3EA
330
25D
100
AcDbEntity
  8
1
  6
Continuous
100
AcDbCircle
 10
229.999542
 20
65.0
 30
0.0
 40
2.649999999999999
100
AcDbArc
 50
251.2914259999998
 51
214.4743879999998
  0
ARC
  5
3EB
330
25D
100
AcDbEntity
  8
1
  6
Continuous
100
AcDbCircle
 10
229.999542
 20
47.0
 30
0.0
 40
2.649999999999999
100
AcDbArc
 50
145.5256089999998
 51
108.7085629999998
  0
ARC
  5
3EC
330
25D
100
AcDbEntity
  8
1
  6
Continuous
100
AcDbCircle
 10
215.599548
 20
66.900002
 30
0.0
 40
1.6
100
AcDbArc
 50
90.00000300000001
 51
180.000005
  0
ARC
  5
3ED
330
25D
100
AcDbEntity
  8
1
  6
Continuous
100
AcDbCircle
 10
224.3995509999999
 20
66.900002
 30
0.0
 40
1.6
100
AcDbArc
 50
0.0
 51
90.00000300000001
  0
ARC
  5
3EE
330
25D
100
AcDbEntity
  8
1
  6
Continuous
100
AcDbCircle
 10
215.599548
 20
45.099998
 30
0.0
 40
1.6
100
AcDbArc
 50
179.9999949999999
 51
269.9999969999999
  0
ARC
  5
3EF
330
25D
100
AcDbEntity
  8
1
  6
Continuous
100
AcDbCircle
 10
224.3995509999999
 20
45.099998
 30
0.0
 40
1.6
100
AcDbArc
 50
269.9999969999999
 51
0.0
  0
ARC
  5
3F0
330
25D
100
AcDbEntity
  8
1
  6
Continuous
100
AcDbCircle
 10
217.699539
 20
47.099998
 30
0.0
 40
1.6
100
AcDbArc
 50
179.9999949999999
 51
269.9999969999999
  0
ARC
  5
3F1
330
25D
100
AcDbEntity
  8
1
  6
Continuous
100
AcDbCircle
 10
222.7995449999999
 20
47.099998
 30
0.0
 40
1.6
100
AcDbArc
 50
269.9999969999999
 51
0.0
  0
ARC
  5
3F2
330
25D
100
AcDbEntity
  8
1
  6
Continuous
100
AcDbCircle
 10
206.599548
 20
56.0
 30
0.0
 40
12.0
100
AcDbArc
 50
19.47122
 51
22.331645
  0
ARC
  5
3F3
330
25D
100
AcDbEntity
  8
1
  6
Continuous
100
AcDbCircle
 10
206.599548
 20
56.0
 30
0.0
 40
12.09999999999999
100
AcDbArc
 50
19.303892
 51
23.45753299999999
  0
ARC
  5
3F4
330
25D
100
AcDbEntity
  8
1
  6
Continuous
100
AcDbCircle
 10
206.599548
 20
56.0
 30
0.0
 40
12.09999999999999
100
AcDbArc
 50
336.5424669999999
 51
340.6961079999998
  0
ARC
  5
3F5
330
25D
100
AcDbEntity
  8
1
  6
Continuous
100
AcDbCircle
 10
206.599548
 20
56.0
 30
0.0
 40
12.0
100
AcDbArc
 50
337.6683549999999
 51
340.5287799999999
  0
CIRCLE
  5
3F6
330
25D
100
AcDbEntity
  8
1
  6
Continuous
100
AcDbCircle
 10
228.299545
 20
177.9997559999999
 30
0.0
 40
2.649999999999999
  0
CIRCLE
  5
3F7
330
25D
100
AcDbEntity
  8
1
  6
Continuous
100
AcDbCircle
 10
228.299545
 20
159.999756
 30
0.0
 40
2.649999999999999
  0
ARC
  5
3F8
330
25D
100
AcDbEntity
  8
1
  6
Continuous
100
AcDbCircle
 10
211.099548
 20
589.0997309999997
 30
0.0
 40
2.9
100
AcDbArc
 50
0.0
 51
90.00000300000001
  0
ARC
  5
3F9
330
25D
100
AcDbEntity
  8
1
  6
Continuous
100
AcDbCircle
 10
210.8995509999998
 20
591.9997559999997
 30
0.0
 40
2.9
100
AcDbArc
 50
180.000005
 51
270.000001
  0
ARC
  5
3FA
330
25D
100
AcDbEntity
  8
1
  6
Continuous
100
AcDbCircle
 10
210.8995509999998
 20
604.0997309999998
 30
0.0
 40
2.9
100
AcDbArc
 50
90.00000300000001
 51
180.000005
  0
ARC
  5
3FB
330
25D
100
AcDbEntity
  8
1
  6
Continuous
100
AcDbCircle
 10
55.5
 20
366.999756
 30
0.0
 40
1.5
100
AcDbArc
 50
305.672498
 51
65.704828
  0
ARC
  5
3FC
330
25D
100
AcDbEntity
  8
1
  6
Continuous
100
AcDbCircle
 10
364.49939
 20
366.999756
 30
0.0
 40
1.5
100
AcDbArc
 50
114.29517
 51
234.327507
  0
ARC
  5
3FD
330
25D
100
AcDbEntity
  8
1
  6
Continuous
100
AcDbCircle
 10
224.665131
 20
400.735535
 30
0.0
 40
6.610656999999998
100
AcDbArc
 50
153.986
 51
157.0559929999998
  0
ARC
  5
3FE
330
25D
100
AcDbEntity
  8
1
  6
Continuous
100
AcDbCircle
 10
218.6293029999999
 20
403.289948
 30
0.0
 40
0.055565
100
AcDbArc
 50
157.0559929999998
 51
270.000001
  0
ARC
  5
3FF
330
25D
100
AcDbEntity
  8
1
  6
Continuous
100
AcDbCircle
 10
218.2717899999999
 20
402.1790769999998
 30
0.0
 40
0.055565
100
AcDbArc
 50
167.2709909999998
 51
270.000001
  0
ARC
  5
400
330
25D
100
AcDbEntity
  8
1
  6
Continuous
100
AcDbCircle
 10
224.665131
 20
400.735535
 30
0.0
 40
6.610656999999998
100
AcDbArc
 50
164.7939959999999
 51
167.2709909999998
  0
ARC
  5
401
330
25D
100
AcDbEntity
  8
1
  6
Continuous
100
AcDbCircle
 10
224.665131
 20
400.735535
 30
0.0
 40
6.610656999999998
100
AcDbArc
 50
164.7419909999999
 51
164.7939959999999
  0
ARC
  5
402
330
25D
100
AcDbEntity
  8
1
  6
Continuous
100
AcDbCircle
 10
218.5559839999999
 20
402.4012449999998
 30
0.0
 40
0.277826
100
AcDbArc
 50
90.00000900000001
 51
164.7419769999999
  0
ARC
  5
403
330
25D
100
AcDbEntity
  8
1
  6
Continuous
100
AcDbCircle
 10
221.441956
 20
402.4012449999998
 30
0.0
 40
0.277826
100
AcDbArc
 50
15.25749699999999
 51
90.00000300000001
  0
ARC
  5
404
330
25D
100
AcDbEntity
  8
1
  6
Continuous
100
AcDbCircle
 10
215.332825
 20
400.735535
 30
0.0
 40
6.610656999999998
100
AcDbArc
 50
13.26810299999998
 51
15.25749699999999
  0
ARC
  5
405
330
25D
100
AcDbEntity
  8
1
  6
Continuous
100
AcDbCircle
 10
215.332825
 20
400.735535
 30
0.0
 40
6.610656999999998
100
AcDbArc
 50
12.7289
 51
13.26810299999998
  0
ARC
  5
406
330
25D
100
AcDbEntity
  8
1
  6
Continuous
100
AcDbCircle
 10
221.7261509999999
 20
402.1790769999998
 30
0.0
 40
0.055565
100
AcDbArc
 50
269.9999969999999
 51
12.7289
  0
ARC
  5
407
330
25D
100
AcDbEntity
  8
1
  6
Continuous
100
AcDbCircle
 10
218.9743959999999
 20
403.512115
 30
0.0
 40
0.277826
100
AcDbArc
 50
90.00000900000001
 51
153.986
  0
ARC
  5
408
330
25D
100
AcDbEntity
  8
1
  6
Continuous
100
AcDbCircle
 10
221.3697809999999
 20
403.289948
 30
0.0
 40
0.055565
100
AcDbArc
 50
269.9999969999999
 51
22.94399999999999
  0
ARC
  5
409
330
25D
100
AcDbEntity
  8
1
  6
Continuous
100
AcDbCircle
 10
215.332825
 20
400.735535
 30
0.0
 40
6.610656999999998
100
AcDbArc
 50
22.94399999999999
 51
26.01439599999999
  0
ARC
  5
40A
330
25D
100
AcDbEntity
  8
1
  6
Continuous
100
AcDbCircle
 10
221.02356
 20
403.512115
 30
0.0
 40
0.277826
100
AcDbArc
 50
26.01439599999999
 51
90.00000300000001
  0
ARC
  5
40B
330
25D
100
AcDbEntity
  8
1
  6
Continuous
100
AcDbCircle
 10
219.999542
 20
404.068115
 30
0.0
 40
1.431648999999999
100
AcDbArc
 50
90.00000900000001
 51
144.4620119999999
  0
ARC
  5
40C
330
25D
100
AcDbEntity
  8
1
  6
Continuous
100
AcDbCircle
 10
219.999542
 20
404.068115
 30
0.0
 40
1.431648999999999
100
AcDbArc
 50
35.537703
 51
76.53739899999997
  0
ARC
  5
40D
330
25D
100
AcDbEntity
  8
1
  6
Continuous
100
AcDbCircle
 10
224.665131
 20
400.735535
 30
0.0
 40
6.610656999999998
100
AcDbArc
 50
187.792995
 51
190.104003
  0
ARC
  5
40E
330
25D
100
AcDbEntity
  8
1
  6
Continuous
100
AcDbCircle
 10
218.170288
 20
399.8457339999998
 30
0.0
 40
0.055565
100
AcDbArc
 50
90.00000900000001
 51
187.7929909999999
  0
ARC
  5
40F
330
25D
100
AcDbEntity
  8
1
  6
Continuous
100
AcDbCircle
 10
218.4308009999998
 20
399.6235659999999
 30
0.0
 40
0.277826
100
AcDbArc
 50
190.104003
 51
269.9999969999999
  0
ARC
  5
410
330
25D
100
AcDbEntity
  8
1
  6
Continuous
100
AcDbCircle
 10
221.8276519999998
 20
399.8457339999998
 30
0.0
 40
0.055565
100
AcDbArc
 50
352.207003
 51
90.00000300000001
  0
ARC
  5
411
330
25D
100
AcDbEntity
  8
1
  6
Continuous
100
AcDbCircle
 10
215.332825
 20
400.735535
 30
0.0
 40
6.610656999999998
100
AcDbArc
 50
349.8960009999998
 51
352.207003
  0
ARC
  5
412
330
25D
100
AcDbEntity
  8
1
  6
Continuous
100
AcDbCircle
 10
221.567139
 20
399.6235659999999
 30
0.0
 40
0.277826
100
AcDbArc
 50
269.9999969999999
 51
349.8960009999998
  0
ARC
  5
413
330
25D
100
AcDbEntity
  8
1
  6
Continuous
100
AcDbCircle
 10
219.999542
 20
397.4018549999998
 30
0.0
 40
1.431648999999999
100
AcDbArc
 50
215.5380019999999
 51
225.6990009999999
  0
ARC
  5
414
330
25D
100
AcDbEntity
  8
1
  6
Continuous
100
AcDbCircle
 10
219.999542
 20
397.4018549999998
 30
0.0
 40
1.431648999999999
100
AcDbArc
 50
242.2499979999999
 51
324.4619999999998
  0
ARC
  5
415
330
25D
100
AcDbEntity
  8
1
  6
Continuous
100
AcDbCircle
 10
220.276978
 20
397.957825
 30
0.0
 40
0.277826
100
AcDbArc
 50
90.00000900000001
 51
270.000001
  0
ARC
  5
416
330
25D
100
AcDbEntity
  8
1
  6
Continuous
100
AcDbCircle
 10
215.332825
 20
400.735535
 30
0.0
 40
7.166163
100
AcDbArc
 50
324.4619999999998
 51
35.537703
  0
ARC
  5
417
330
25D
100
AcDbEntity
  8
1
  6
Continuous
100
AcDbCircle
 10
224.665131
 20
400.735535
 30
0.0
 40
7.166163
100
AcDbArc
 50
144.461998
 51
215.5379979999999
  0
ARC
  5
418
330
25D
100
AcDbEntity
  8
5
  6
PHANTOM
100
AcDbCircle
 10
379.99939
 20
600.9997559999998
 30
0.0
 40
15.0
100
AcDbArc
 50
180.000005
 51
0.00001
  0
CIRCLE
  5
419
330
25D
100
AcDbEntity
  8
5
  6
PHANTOM
100
AcDbCircle
 10
379.99939
 20
593.9997559999998
 30
0.0
 40
7.5
  0
ARC
  5
41A
330
25D
100
AcDbEntity
  8
5
  6
PHANTOM
100
AcDbCircle
 10
379.99939
 20
424.9997559999997
 30
0.0
 40
15.0
100
AcDbArc
 50
180.000005
 51
0.00001
  0
CIRCLE
  5
41B
330
25D
100
AcDbEntity
  8
5
  6
PHANTOM
100
AcDbCircle
 10
379.99939
 20
417.999756
 30
0.0
 40
7.5
  0
ARC
  5
41C
330
25D
100
AcDbEntity
  8
5
  6
PHANTOM
100
AcDbCircle
 10
54.5
 20
377.378601
 30
0.0
 40
1.5
100
AcDbArc
 50
269.9999969999999
 51
349.008775
  0
ARC
  5
41D
330
25D
100
AcDbEntity
  8
5
  6
PHANTOM
100
AcDbCircle
 10
54.5
 20
389.1786189999999
 30
0.0
 40
1.5
100
AcDbArc
 50
10.991225
 51
90.00000300000001
  0
ARC
  5
41E
330
25D
100
AcDbEntity
  8
5
  6
PHANTOM
100
AcDbCircle
 10
51.06420100000001
 20
378.045898
 30
0.0
 40
5.0
100
AcDbArc
 50
349.008775
 51
60.70544399999999
  0
ARC
  5
41F
330
25D
100
AcDbEntity
  8
5
  6
PHANTOM
100
AcDbCircle
 10
54.0
 20
383.2785949999998
 30
0.0
 40
1.0
100
AcDbArc
 50
119.2945539999999
 51
240.705456
  0
ARC
  5
420
330
25D
100
AcDbEntity
  8
5
  6
PHANTOM
100
AcDbCircle
 10
51.06420100000001
 20
388.5112919999999
 30
0.0
 40
5.0
100
AcDbArc
 50
299.2945559999999
 51
10.991225
  0
ARC
  5
421
330
25D
100
AcDbEntity
  8
5
  6
PHANTOM
100
AcDbCircle
 10
365.49939
 20
377.378601
 30
0.0
 40
1.5
100
AcDbArc
 50
190.991231
 51
269.9999969999999
  0
ARC
  5
422
330
25D
100
AcDbEntity
  8
5
  6
PHANTOM
100
AcDbCircle
 10
365.49939
 20
389.1786189999999
 30
0.0
 40
1.5
100
AcDbArc
 50
90.00000300000001
 51
169.008769
  0
ARC
  5
423
330
25D
100
AcDbEntity
  8
5
  6
PHANTOM
100
AcDbCircle
 10
368.9352109999999
 20
378.045898
 30
0.0
 40
5.0
100
AcDbArc
 50
119.2945539999999
 51
190.991227
  0
ARC
  5
424
330
25D
100
AcDbEntity
  8
5
  6
PHANTOM
100
AcDbCircle
 10
365.9993899999999
 20
383.2785949999998
 30
0.0
 40
1.0
100
AcDbArc
 50
299.2945559999999
 51
60.70544399999999
  0
ARC
  5
425
330
25D
100
AcDbEntity
  8
5
  6
PHANTOM
100
AcDbCircle
 10
368.9352109999999
 20
388.5112919999999
 30
0.0
 40
5.0
100
AcDbArc
 50
169.008769
 51
240.705456
  0
CIRCLE
  5
426
330
25D
100
AcDbEntity
  8
1
  6
Continuous
100
AcDbCircle
 10
569.9995730000003
 20
393.4997559999998
 30
0.0
 40
2.0
  0
CIRCLE
  5
427
330
25D
100
AcDbEntity
  8
1
  6
Continuous
100
AcDbCircle
 10
569.9995730000003
 20
403.4997559999998
 30
0.0
 40
2.0
  0
ARC
  5
428
330
25D
100
AcDbEntity
  8
1
  6
Continuous
100
AcDbCircle
 10
388.7493899999999
 20
403.4997559999998
 30
0.0
 40
4.25
100
AcDbArc
 50
331.9275129999998
 51
28.072487
  0
ARC
  5
429
330
25D
100
AcDbEntity
  8
1
  6
Continuous
100
AcDbCircle
 10
388.7493899999999
 20
393.4997559999998
 30
0.0
 40
4.25
100
AcDbArc
 50
331.9275129999998
 51
28.072487
  0
ARC
  5
42A
330
25D
100
AcDbEntity
  8
1
  6
Continuous
100
AcDbCircle
 10
31.25
 20
393.4997559999998
 30
0.0
 40
4.25
100
AcDbArc
 50
151.9275179999999
 51
208.0724919999999
  0
ARC
  5
42B
330
25D
100
AcDbEntity
  8
1
  6
Continuous
100
AcDbCircle
 10
31.25
 20
403.4997559999998
 30
0.0
 40
4.25
100
AcDbArc
 50
151.9275179999999
 51
208.0724919999999
  0
ARC
  5
42C
330
25D
100
AcDbEntity
  8
1
  6
Continuous
100
AcDbCircle
 10
40.0
 20
578.9997559999997
 30
0.0
 40
8.849999999999997
100
AcDbArc
 50
232.03228
 51
307.967715
  0
ARC
  5
42D
330
25D
100
AcDbEntity
  8
5
  6
PHANTOM
100
AcDbCircle
 10
40.0
 20
424.9997559999997
 30
0.0
 40
15.0
100
AcDbArc
 50
180.000005
 51
0.00001
  0
CIRCLE
  5
42E
330
25D
100
AcDbEntity
  8
5
  6
PHANTOM
100
AcDbCircle
 10
40.0
 20
417.999756
 30
0.0
 40
3.25
  0
ARC
  5
42F
330
25D
100
AcDbEntity
  8
5
  6
PHANTOM
100
AcDbCircle
 10
40.0
 20
600.9997559999998
 30
0.0
 40
15.0
100
AcDbArc
 50
180.000005
 51
0.00001
  0
CIRCLE
  5
430
330
25D
100
AcDbEntity
  8
5
  6
PHANTOM
100
AcDbCircle
 10
40.0
 20
593.9997559999998
 30
0.0
 40
3.25
  0
TEXT
  5
431
330
25D
100
AcDbEntity
  8
6
  6
Continuous
100
AcDbText
 10
27.97945
 20
10.0487
 30
0.0
 40
1.399999999999999
  1
6
 41
1.069393
100
AcDbText
  0
TEXT
  5
432
330
25D
100
AcDbEntity
  8
1
  6
Continuous
100
AcDbText
 10
17.97945
 20
10.0487
 30
0.0
 40
1.399999999999999
  1
1
 41
1.069393
100
AcDbText
  0
TEXT
  5
433
330
25D
100
AcDbEntity
  8
1
  6
Continuous
100
AcDbText
 10
9.99995
 20
10.0
 30
0.0
 40
1.399999999999999
  1
LAYER
 41
1.009912999999997
100
AcDbText
  0
TEXT
  5
434
330
25D
100
AcDbEntity
  8
2
  6
Continuous
100
AcDbText
 10
19.97944999999998
 20
10.0487
 30
0.0
 40
1.399999999999999
  1
2
 41
1.069393
100
AcDbText
  0
TEXT
  5
435
330
25D
100
AcDbEntity
  8
3
  6
DASHED
100
AcDbText
 10
21.97945
 20
10.0487
 30
0.0
 40
1.399999999999999
  1
3
 41
1.069393
100
AcDbText
  0
TEXT
  5
436
330
25D
100
AcDbEntity
  8
4
  6
CENTER
100
AcDbText
 10
23.97944999999999
 20
10.0487
 30
0.0
 40
1.399999999999999
  1
4
 41
1.069393
100
AcDbText
  0
TEXT
  5
437
330
25D
100
AcDbEntity
  8
5
  6
PHANTOM
100
AcDbText
 10
25.97945
 20
10.0487
 30
0.0
 40
1.399999999999999
  1
5
 41
1.069393
100
AcDbText
  0
TEXT
  5
438
330
25D
100
AcDbEntity
  8
7
  6
Continuous
100
AcDbText
 10
10.00005
 20
26.0
 30
0.0
 40
3.0
  1
CODE No.5898
 41
1.003962999999999
100
AcDbText
  0
TEXT
  5
439
330
25D
100
AcDbEntity
  8
7
  6
Continuous
100
AcDbText
 10
10.00005
 20
18.0
 30
0.0
 40
3.0
  1
TYPE No.TM-227-2
 41
1.002950999999999
100
AcDbText
  0
TEXT
  5
43A
330
25D
100
AcDbEntity
  8
7
  6
Continuous
100
AcDbText
 10
29.97944999999999
 20
10.0487
 30
0.0
 40
1.399999999999999
  1
7
 41
1.069393
100
AcDbText
  0
LINE
  5
43B
330
25D
100
AcDbEntity
  8
1
  6
Continuous
100
AcDbLine
 10
354.899384
 20
171.9997559999999
 30
0.0
 11
359.9993959999998
 21
171.9997559999999
 31
0.0
  0
LINE
  5
43C
330
25D
100
AcDbEntity
  8
1
  6
Continuous
100
AcDbLine
 10
354.899384
 20
165.9997559999999
 30
0.0
 11
359.9993959999998
 21
165.9997559999999
 31
0.0
  0
LINE
  5
43D
330
25D
100
AcDbEntity
  8
1
  6
Continuous
100
AcDbLine
 10
355.9993839999998
 20
166.9997559999999
 30
0.0
 11
355.9993839999998
 21
170.9997559999999
 31
0.0
  0
LINE
  5
43E
330
25D
100
AcDbEntity
  8
1
  6
Continuous
100
AcDbLine
 10
376.99939
 20
598.99978
 30
0.0
 11
376.99939
 21
604.0997309999998
 31
0.0
  0
LINE
  5
43F
330
25D
100
AcDbEntity
  8
1
  6
Continuous
100
AcDbLine
 10
382.99939
 20
598.99978
 30
0.0
 11
382.99939
 21
604.0997309999998
 31
0.0
  0
LINE
  5
440
330
25D
100
AcDbEntity
  8
1
  6
Continuous
100
AcDbLine
 10
377.99939
 20
602.9997309999997
 30
0.0
 11
381.99939
 21
602.9997309999997
 31
0.0
  0
LINE
  5
441
330
25D
100
AcDbEntity
  8
1
  6
Continuous
100
AcDbLine
 10
66.90000000000001
 20
166.9997559999999
 30
0.0
 11
66.90000000000001
 21
170.9997559999999
 31
0.0
  0
LINE
  5
442
330
25D
100
AcDbEntity
  8
1
  6
Continuous
100
AcDbLine
 10
42.0
 20
605.8997559999998
 30
0.0
 11
38.0
 21
605.8997559999998
 31
0.0
  0
LINE
  5
443
330
25D
100
AcDbEntity
  8
1
  6
Continuous
100
AcDbLine
 10
209.099542
 20
717.0
 30
0.0
 11
209.099542
 21
713.0
 31
0.0
  0
LINE
  5
444
330
25D
100
AcDbEntity
  8
1
  6
Continuous
100
AcDbLine
 10
216.299536
 20
79.99999800000002
 30
0.0
 11
210.299539
 21
79.99999800000002
 31
0.0
  0
LINE
  5
445
330
25D
100
AcDbEntity
  8
1
  6
Continuous
100
AcDbLine
 10
210.299539
 20
74.00000199999998
 30
0.0
 11
210.299539
 21
79.99999800000002
 31
0.0
  0
LINE
  5
446
330
25D
100
AcDbEntity
  8
1
  6
Continuous
100
AcDbLine
 10
207.3995449999999
 20
166.9997559999999
 30
0.0
 11
207.3995449999999
 21
170.9997559999999
 31
0.0
  0
LINE
  5
447
330
25D
100
AcDbEntity
  8
1
  6
Continuous
100
AcDbLine
 10
571.9995669999998
 20
602.9997309999997
 30
0.0
 11
577.999579
 21
602.9997309999997
 31
0.0
  0
LINE
  5
448
330
25D
100
AcDbEntity
  8
1
  6
Continuous
100
AcDbLine
 10
577.999579
 20
596.9997499999998
 30
0.0
 11
577.999579
 21
602.9997309999997
 31
0.0
  0
LINE
  5
449
330
25D
100
AcDbEntity
  8
1
  6
Continuous
100
AcDbLine
 10
42.0
 20
606.4997559999998
 30
0.0
 11
42.0
 21
597.9997799999997
 31
0.0
  0
LINE
  5
44A
330
25D
100
AcDbEntity
  8
1
  6
Continuous
100
AcDbLine
 10
38.0
 20
606.4997559999998
 30
0.0
 11
38.0
 21
597.9997799999997
 31
0.0
  0
LINE
  5
44B
330
25D
100
AcDbEntity
  8
1
  6
Continuous
100
AcDbLine
 10
216.999548
 20
717.0
 30
0.0
 11
208.4995419999999
 21
717.0
 31
0.0
  0
LINE
  5
44C
330
25D
100
AcDbEntity
  8
1
  6
Continuous
100
AcDbLine
 10
216.999548
 20
713.0
 30
0.0
 11
208.4995419999999
 21
713.0
 31
0.0
  0
LINE
  5
44D
330
25D
100
AcDbEntity
  8
1
  6
Continuous
100
AcDbLine
 10
67.5
 20
166.9997559999999
 30
0.0
 11
59.000002
 21
166.9997559999999
 31
0.0
  0
LINE
  5
44E
330
25D
100
AcDbEntity
  8
1
  6
Continuous
100
AcDbLine
 10
67.5
 20
170.9997559999999
 30
0.0
 11
59.000002
 21
170.9997559999999
 31
0.0
  0
LINE
  5
44F
330
25D
100
AcDbEntity
  8
1
  6
Continuous
100
AcDbLine
 10
215.2995509999998
 20
166.9997559999999
 30
0.0
 11
206.799545
 21
166.9997559999999
 31
0.0
  0
LINE
  5
450
330
25D
100
AcDbEntity
  8
1
  6
Continuous
100
AcDbLine
 10
215.2995509999998
 20
170.9997559999999
 30
0.0
 11
206.799545
 21
170.9997559999999
 31
0.0
  0
ARC
  5
451
330
25D
100
AcDbEntity
  8
1
  6
Continuous
100
AcDbCircle
 10
359.9993959999998
 20
168.9997559999999
 30
0.0
 40
3.0
100
AcDbArc
 50
269.999999
 51
89.99999700000001
  0
ARC
  5
452
330
25D
100
AcDbEntity
  8
1
  6
Continuous
100
AcDbCircle
 10
354.9993839999999
 20
166.9997559999999
 30
0.0
 40
1.0
100
AcDbArc
 50
269.999999
 51
0.000009
  0
ARC
  5
453
330
25D
100
AcDbEntity
  8
1
  6
Continuous
100
AcDbCircle
 10
354.9993839999999
 20
170.9997559999999
 30
0.0
 40
1.0
100
AcDbArc
 50
359.999995
 51
89.99999700000001
  0
ARC
  5
454
330
25D
100
AcDbEntity
  8
1
  6
Continuous
100
AcDbCircle
 10
379.99939
 20
598.99978
 30
0.0
 40
3.0
100
AcDbArc
 50
179.9999899999999
 51
0.000009
  0
ARC
  5
455
330
25D
100
AcDbEntity
  8
1
  6
Continuous
100
AcDbCircle
 10
377.99939
 20
603.999731
 30
0.0
 40
1.0
100
AcDbArc
 50
180.0
 51
270.0000029999998
  0
ARC
  5
456
330
25D
100
AcDbEntity
  8
1
  6
Continuous
100
AcDbCircle
 10
381.99939
 20
603.999731
 30
0.0
 40
1.0
100
AcDbArc
 50
269.999999
 51
0.000009
  0
ARC
  5
457
330
25D
100
AcDbEntity
  8
1
  6
Continuous
100
AcDbCircle
 10
67.5
 20
166.4997559999999
 30
0.0
 40
0.5
100
AcDbArc
 50
359.999995
 51
89.99999700000001
  0
ARC
  5
458
330
25D
100
AcDbEntity
  8
1
  6
Continuous
100
AcDbCircle
 10
67.5
 20
171.499756
 30
0.0
 40
0.5
100
AcDbArc
 50
269.999999
 51
0.000009
  0
ARC
  5
459
330
25D
100
AcDbEntity
  8
1
  6
Continuous
100
AcDbCircle
 10
37.5
 20
606.4997559999998
 30
0.0
 40
0.5
100
AcDbArc
 50
359.999995
 51
89.99999700000001
  0
ARC
  5
45A
330
25D
100
AcDbEntity
  8
1
  6
Continuous
100
AcDbCircle
 10
42.5
 20
606.4997559999998
 30
0.0
 40
0.5
100
AcDbArc
 50
89.99999700000001
 51
180.0
  0
ARC
  5
45B
330
25D
100
AcDbEntity
  8
1
  6
Continuous
100
AcDbCircle
 10
208.4995419999999
 20
712.5
 30
0.0
 40
0.5
100
AcDbArc
 50
89.999999
 51
180.000009
  0
ARC
  5
45C
330
25D
100
AcDbEntity
  8
1
  6
Continuous
100
AcDbCircle
 10
208.4995419999999
 20
717.4999999999997
 30
0.0
 40
0.5
100
AcDbArc
 50
179.9999949999999
 51
269.9999969999999
  0
ARC
  5
45D
330
25D
100
AcDbEntity
  8
1
  6
Continuous
100
AcDbCircle
 10
216.299536
 20
80.999998
 30
0.0
 40
1.0
100
AcDbArc
 50
269.9999969999999
 51
0.0
  0
ARC
  5
45E
330
25D
100
AcDbEntity
  8
1
  6
Continuous
100
AcDbCircle
 10
209.299539
 20
74.00000199999998
 30
0.0
 40
1.0
100
AcDbArc
 50
269.9999969999999
 51
0.0
  0
ARC
  5
45F
330
25D
100
AcDbEntity
  8
1
  6
Continuous
100
AcDbCircle
 10
206.799545
 20
171.499756
 30
0.0
 40
0.5
100
AcDbArc
 50
180.0
 51
270.0000029999998
  0
ARC
  5
460
330
25D
100
AcDbEntity
  8
1
  6
Continuous
100
AcDbCircle
 10
206.799545
 20
166.4997559999999
 30
0.0
 40
0.5
100
AcDbArc
 50
89.99999700000001
 51
180.0
  0
ARC
  5
461
330
25D
100
AcDbEntity
  8
1
  6
Continuous
100
AcDbCircle
 10
571.9995669999998
 20
603.999731
 30
0.0
 40
1.0
100
AcDbArc
 50
180.000005
 51
270.000001
  0
ARC
  5
462
330
25D
100
AcDbEntity
  8
1
  6
Continuous
100
AcDbCircle
 10
578.999579
 20
596.9997499999998
 30
0.0
 40
1.0
100
AcDbArc
 50
180.000005
 51
270.000001
  0
ARC
  5
463
330
25D
100
AcDbEntity
  8
1
  6
Continuous
100
AcDbCircle
 10
40.0
 20
597.9997799999997
 30
0.0
 40
2.0
100
AcDbArc
 50
179.9999899999999
 51
0.000009
  0
ARC
  5
464
330
25D
100
AcDbEntity
  8
1
  6
Continuous
100
AcDbCircle
 10
216.999548
 20
715.0
 30
0.0
 40
2.0
100
AcDbArc
 50
270.0000109999999
 51
90.00000300000001
  0
ARC
  5
465
330
25D
100
AcDbEntity
  8
1
  6
Continuous
100
AcDbCircle
 10
59.000002
 20
168.9997559999999
 30
0.0
 40
2.0
100
AcDbArc
 50
90.000011
 51
270.0000029999998
  0
ARC
  5
466
330
25D
100
AcDbEntity
  8
1
  6
Continuous
100
AcDbCircle
 10
215.2995509999998
 20
168.9997559999999
 30
0.0
 40
2.0
100
AcDbArc
 50
269.999999
 51
89.99999700000001
  0
LINE
  5
467
330
25D
100
AcDbEntity
  8
1
  6
Continuous
100
AcDbLine
 10
217.2995359999999
 20
80.999998
 30
0.0
 11
217.2995359999999
 21
81.099998
 31
0.0
  0
LINE
  5
468
330
25D
100
AcDbEntity
  8
1
  6
Continuous
100
AcDbLine
 10
209.299539
 20
73.00000199999998
 30
0.0
 11
209.199539
 21
73.00000199999998
 31
0.0
  0
LINE
  5
469
330
25D
100
AcDbEntity
  8
1
  6
Continuous
100
AcDbLine
 10
578.999579
 20
595.9997499999998
 30
0.0
 11
579.0995789999998
 21
595.9997499999998
 31
0.0
  0
LINE
  5
46A
330
25D
100
AcDbEntity
  8
1
  6
Continuous
100
AcDbLine
 10
570.9995669999998
 20
603.999731
 30
0.0
 11
570.9995669999998
 21
604.0997309999998
 31
0.0
  0
ARC
  5
46B
330
25D
100
AcDbEntity
  8
1
  6
Continuous
100
AcDbCircle
 10
217.999548
 20
603.999731
 30
0.0
 40
1.0
100
AcDbArc
 50
269.999999
 51
359.999995
  0
LINE
  5
46C
330
25D
100
AcDbEntity
  8
1
  6
Continuous
100
AcDbLine
 10
218.9995479999998
 20
603.999731
 30
0.0
 11
218.9995479999998
 21
604.0997309999998
 31
0.0
  0
LINE
  5
46D
330
25D
100
AcDbEntity
  8
1
  6
Continuous
100
AcDbLine
 10
217.999548
 20
602.9997309999997
 30
0.0
 11
211.9995359999998
 21
602.9997309999997
 31
0.0
  0
LINE
  5
46E
330
25D
100
AcDbEntity
  8
1
  6
Continuous
100
AcDbLine
 10
211.9995359999998
 20
596.9997499999998
 30
0.0
 11
211.9995359999998
 21
602.9997309999997
 31
0.0
  0
ARC
  5
46F
330
25D
100
AcDbEntity
  8
1
  6
Continuous
100
AcDbCircle
 10
210.9995359999998
 20
596.9997499999998
 30
0.0
 40
1.0
100
AcDbArc
 50
269.999999
 51
359.999995
  0
LINE
  5
470
330
25D
100
AcDbEntity
  8
1
  6
Continuous
100
AcDbLine
 10
210.9995359999998
 20
595.9997499999998
 30
0.0
 11
210.8995359999999
 21
595.9997499999998
 31
0.0
  0
LINE
  5
471
330
25D
100
AcDbEntity
  8
1
  6
Continuous
100
AcDbLine
 10
217.2995509999998
 20
690.0000250000001
 30
0.0
 11
217.2995509999998
 21
689.900024
 31
0.0
  0
ARC
  5
472
330
25D
100
AcDbEntity
  8
1
  6
Continuous
100
AcDbCircle
 10
216.299551
 20
690.0000240000001
 30
0.0
 40
1.0
100
AcDbArc
 50
0.000005
 51
90.00000099999999
  0
LINE
  5
473
330
25D
100
AcDbEntity
  8
1
  6
Continuous
100
AcDbLine
 10
216.299551
 20
691.0000240000003
 30
0.0
 11
210.299539
 21
691.0000240000003
 31
0.0
  0
LINE
  5
474
330
25D
100
AcDbEntity
  8
1
  6
Continuous
100
AcDbLine
 10
210.299539
 20
697.000006
 30
0.0
 11
210.299539
 21
691.0000240000003
 31
0.0
  0
LINE
  5
475
330
25D
100
AcDbEntity
  8
1
  6
Continuous
100
AcDbLine
 10
209.299539
 20
698.000006
 30
0.0
 11
209.199539
 21
698.000006
 31
0.0
  0
ARC
  5
476
330
25D
100
AcDbEntity
  8
1
  6
Continuous
100
AcDbCircle
 10
209.299539
 20
697.000006
 30
0.0
 40
1.0
100
AcDbArc
 50
0.000005
 51
90.00000099999999
  0
ARC
  5
477
330
25D
100
AcDbEntity
  8
1
  6
Continuous
100
AcDbCircle
 10
235.999542
 20
728.0
 30
0.0
 40
2.0
100
AcDbArc
 50
0.0
 51
90.0
  0
ARC
  5
478
330
25D
100
AcDbEntity
  8
1
  6
Continuous
100
AcDbCircle
 10
235.999542
 20
702.0
 30
0.0
 40
2.0
100
AcDbArc
 50
270.0
 51
0.0
  0
ARC
  5
479
330
25D
100
AcDbEntity
  8
1
  6
Continuous
100
AcDbCircle
 10
234.299545
 20
155.999756
 30
0.0
 40
2.0
100
AcDbArc
 50
270.0
 51
0.0
  0
ARC
  5
47A
330
25D
100
AcDbEntity
  8
1
  6
Continuous
100
AcDbCircle
 10
234.299545
 20
181.999756
 30
0.0
 40
2.0
100
AcDbArc
 50
0.0
 51
90.0
  0
ARC
  5
47B
330
25D
100
AcDbEntity
  8
1
  6
Continuous
100
AcDbCircle
 10
235.999542
 20
43.0
 30
0.0
 40
2.0
100
AcDbArc
 50
270.0
 51
0.0
  0
ARC
  5
47C
330
25D
100
AcDbEntity
  8
1
  6
Continuous
100
AcDbCircle
 10
235.999542
 20
69.0
 30
0.0
 40
2.0
100
AcDbArc
 50
0.0
 51
90.0
  0
ARC
  5
47D
330
25D
100
AcDbEntity
  8
1
  6
Continuous
100
AcDbCircle
 10
555.6995849999998
 20
155.999756
 30
0.0
 40
2.0
100
AcDbArc
 50
180.0
 51
270.0
  0
ARC
  5
47E
330
25D
100
AcDbEntity
  8
1
  6
Continuous
100
AcDbCircle
 10
555.6995849999998
 20
181.999756
 30
0.0
 40
2.0
100
AcDbArc
 50
90.0
 51
180.0
  0
ENDSEC
  0
SECTION
  2
OBJECTS
  0
DICTIONARY
  5
24B
330
0
100
AcDbDictionary
281
     1
  3
ACAD_CIP_PREVIOUS_PRODUCT_INFO
350
4E8
  3
ACAD_COLOR
350
4CA
  3
ACAD_DETAILVIEWSTYLE
350
4E3
  3
ACAD_GROUP
350
24C
  3
ACAD_LAYOUT
350
258
  3
ACAD_MATERIAL
350
498
  3
ACAD_MLEADERSTYLE
350
4DF
  3
ACAD_MLINESTYLE
350
255
  3
ACAD_PLOTSETTINGS
350
257
  3
ACAD_PLOTSTYLENAME
350
496
  3
ACAD_SCALELIST
350
4CD
  3
ACAD_SECTIONVIEWSTYLE
350
4E1
  3
ACAD_TABLESTYLE
350
4CB
  3
ACAD_VISUALSTYLE
350
4B1
  3
ACDB_RECOMPOSE_DATA
350
506
  3
AcDbVariableDictionary
350
4F9
  3
DWGPROPS
350
507
  0
DICTIONARY
  5
4E9
330
24F
100
AcDbDictionary
280
     1
281
     1
  3
ADSK_XREC_LAYER_RECONCILED
360
4EA
  0
DICTIONARY
  5
4EB
330
265
100
AcDbDictionary
280
     1
281
     1
  3
ADSK_XREC_LAYER_RECONCILED
360
4EC
  0
DICTIONARY
  5
4ED
330
266
100
AcDbDictionary
280
     1
281
     1
  3
ADSK_XREC_LAYER_RECONCILED
360
4EE
  0
DICTIONARY
  5
4EF
330
267
100
AcDbDictionary
280
     1
281
     1
  3
ADSK_XREC_LAYER_RECONCILED
360
4F0
  0
DICTIONARY
  5
4F1
330
268
100
AcDbDictionary
280
     1
281
     1
  3
ADSK_XREC_LAYER_RECONCILED
360
4F2
  0
DICTIONARY
  5
4F3
330
269
100
AcDbDictionary
280
     1
281
     1
  3
ADSK_XREC_LAYER_RECONCILED
360
4F4
  0
DICTIONARY
  5
4F5
330
26A
100
AcDbDictionary
280
     1
281
     1
  3
ADSK_XREC_LAYER_RECONCILED
360
4F6
  0
DICTIONARY
  5
4F7
330
26B
100
AcDbDictionary
280
     1
281
     1
  3
ADSK_XREC_LAYER_RECONCILED
360
4F8
  0
DICTIONARY
  5
491
330
25D
100
AcDbDictionary
281
     1
  3
ACAD_LAYOUTSELFREF
350
492
  0
DICTIONARY
  5
48F
330
259
100
AcDbDictionary
281
     1
  3
ACAD_LAYOUTSELFREF
350
490
  0
XRECORD
  5
4E8
102
{ACAD_REACTORS
330
24B
102
}
330
24B
100
AcDbXrecord
280
     1
300
ACDLT
300
2014
300
ACDLT_F_S
  0
DICTIONARY
  5
4CA
102
{ACAD_REACTORS
330
24B
102
}
330
24B
100
AcDbDictionary
281
     1
  0
DICTIONARY
  5
4E3
102
{ACAD_REACTORS
330
24B
102
}
330
24B
100
AcDbDictionary
281
     1
  3
Imperial24
350
4E4
  0
DICTIONARY
  5
24C
102
{ACAD_REACTORS
330
24B
102
}
330
24B
100
AcDbDictionary
281
     1
  0
DICTIONARY
  5
258
102
{ACAD_REACTORS
330
24B
102
}
330
24B
100
AcDbDictionary
281
     1
  3
Model
350
4E5
  3
レイアウト1
350
4E6
  0
DICTIONARY
  5
498
102
{ACAD_REACTORS
330
24B
102
}
330
24B
100
AcDbDictionary
281
     1
  3
ByBlock
350
4A1
  3
ByLayer
350
499
  3
Global
350
4A9
  0
DICTIONARY
  5
4DF
102
{ACAD_REACTORS
330
24B
102
}
330
24B
100
AcDbDictionary
281
     1
  3
Standard
350
4E0
  0
DICTIONARY
  5
255
102
{ACAD_REACTORS
330
24B
102
}
330
24B
100
AcDbDictionary
281
     1
  3
STANDARD
350
256
  0
DICTIONARY
  5
257
102
{ACAD_REACTORS
330
24B
102
}
330
24B
100
AcDbDictionary
281
     1
  0
ACDBDICTIONARYWDFLT
  5
496
102
{ACAD_REACTORS
330
24B
102
}
330
24B
100
AcDbDictionary
281
     1
  3
Normal
350
497
100
AcDbDictionaryWithDefault
340
497
  0
DICTIONARY
  5
4CD
102
{ACAD_REACTORS
330
24B
102
}
330
24B
100
AcDbDictionary
281
     1
  3
A0
350
4CE
  3
A1
350
4CF
  3
A2
350
4D0
  3
A3
350
4D1
  3
A4
350
4D2
  3
A5
350
4D3
  3
A6
350
4D4
  3
A7
350
4D5
  3
A8
350
4D6
  3
A9
350
4D7
  3
B0
350
4D8
  3
B1
350
4D9
  3
B2
350
4DA
  3
B3
350
4DB
  3
B4
350
4DC
  3
B5
350
4DD
  3
B6
350
4DE
  0
DICTIONARY
  5
4E1
102
{ACAD_REACTORS
330
24B
102
}
330
24B
100
AcDbDictionary
281
     1
  3
Imperial24
350
4E2
  0
DICTIONARY
  5
4CB
102
{ACAD_REACTORS
330
24B
102
}
330
24B
100
AcDbDictionary
281
     1
  3
Standard
350
4CC
  0
DICTIONARY
  5
4B1
102
{ACAD_REACTORS
330
24B
102
}
330
24B
100
AcDbDictionary
281
     1
  3
2dWireframe
350
4B7
  3
Basic
350
4B6
  3
Brighten
350
4BD
  3
ColorChange
350
4C1
  3
Conceptual
350
4BA
  3
Dim
350
4BC
  3
EdgeColorOff
350
4C9
  3
Facepattern
350
4C0
  3
Flat
350
4B2
  3
FlatWithEdges
350
4B3
  3
Gouraud
350
4B4
  3
GouraudWithEdges
350
4B5
  3
Hidden
350
4B9
  3
JitterOff
350
4C7
  3
Linepattern
350
4BF
  3
OverhangOff
350
4C8
  3
Realistic
350
4BB
  3
Shaded
350
4C6
  3
Shaded with edges
350
4C5
  3
Shades of Gray
350
4C2
  3
Sketchy
350
4C3
  3
Thicken
350
4BE
  3
Wireframe
350
4B8
  3
X-Ray
350
4C4
  0
XRECORD
  5
506
102
{ACAD_REACTORS
330
24B
102
}
330
24B
100
AcDbXrecord
280
     1
 90
        1
330
4CC
  0
DICTIONARY
  5
4F9
102
{ACAD_REACTORS
330
24B
102
}
330
24B
100
AcDbDictionary
281
     1
  3
CANNOSCALE
350
4FE
  3
CMLEADERSTYLE
350
4FB
  3
CTABLESTYLE
350
4FA
  3
CVIEWDETAILSTYLE
350
4FC
  3
CVIEWSECTIONSTYLE
350
4FD
  3
DIMASSOC
350
501
  3
INDEXCTL
350
500
  3
SORTENTS
350
4FF
  3
XCLIPFRAME
350
502
  0
XRECORD
  5
507
102
{ACAD_REACTORS
330
24B
102
}
330
24B
100
AcDbXrecord
280
     1
  1
DWGPROPS COOKIE
  2

  3

  4

  6

  7

  8
Yoshitsune
  9

300
=
301
=
302
=
303
=
304
=
305
=
306
=
307
=
308
=
309
=
 40
0.0006563657407407
 41
2451069.685255903
 42
2457192.621314132
  1

 90
        0
  0
XRECORD
  5
4EA
102
{ACAD_REACTORS
330
4E9
102
}
330
4E9
100
AcDbXrecord
280
     1
290
     1
  0
XRECORD
  5
4EC
102
{ACAD_REACTORS
330
4EB
102
}
330
4EB
100
AcDbXrecord
280
     1
290
     1
  0
XRECORD
  5
4EE
102
{ACAD_REACTORS
330
4ED
102
}
330
4ED
100
AcDbXrecord
280
     1
290
     1
  0
XRECORD
  5
4F0
102
{ACAD_REACTORS
330
4EF
102
}
330
4EF
100
AcDbXrecord
280
     1
290
     1
  0
XRECORD
  5
4F2
102
{ACAD_REACTORS
330
4F1
102
}
330
4F1
100
AcDbXrecord
280
     1
290
     1
  0
XRECORD
  5
4F4
102
{ACAD_REACTORS
330
4F3
102
}
330
4F3
100
AcDbXrecord
280
     1
290
     1
  0
XRECORD
  5
4F6
102
{ACAD_REACTORS
330
4F5
102
}
330
4F5
100
AcDbXrecord
280
     1
290
     1
  0
XRECORD
  5
4F8
102
{ACAD_REACTORS
330
4F7
102
}
330
4F7
100
AcDbXrecord
280
     1
290
     1
  0
XRECORD
  5
492
102
{ACAD_REACTORS
330
491
102
}
330
491
100
AcDbXrecord
280
     1
340
25D
  0
XRECORD
  5
490
102
{ACAD_REACTORS
330
48F
102
}
330
48F
100
AcDbXrecord
280
     1
340
259
  0
ACDBDETAILVIEWSTYLE
  5
4E4
102
{ACAD_XDICTIONARY
360
53F
102
}
102
{ACAD_REACTORS
330
4E3
102
}
330
4E3
100
AcDbModelDocViewStyle
 70
     0
  3
Imperial24
290
     0
100
AcDbDetailViewStyle
 70
     0
 71
     0
 90
        3
 71
     1
340
250
 40
0.24
340
0
 40
0.24
300

 40
0.36
280
     3
 71
     2
340
254
 90
       25
 71
     3
340
250
 40
0.24
 90
        1
 40
0.75
 90
        1
300
%<\AcVar ViewType \f "%tc1">% %<\AcVar ViewDetailId>%\PSCALE %<\AcVar ViewScale \f "%sn">%
 71
     4
340
254
 90
       25
340
254
 90
       25
280
     0
  0
LAYOUT
  5
4E5
102
{ACAD_XDICTIONARY
360
541
102
}
102
{ACAD_REACTORS
330
258
102
}
330
258
100
AcDbPlotSettings
  1

  2
Canon LBP9100C
  4

  6

 40
0.0
 41
0.0
 42
0.0
 43
0.0
 44
0.0
 45
0.0
 46
0.0
 47
0.0
 48
0.0
 49
0.0
140
0.0
141
0.0
142
1.0
143
1.0
 70
  1712
 72
     0
 73
     0
 74
     0
  7

 75
     0
147
1.0
148
0.0
149
0.0
100
AcDbLayout
  1
Model
 70
     1
 71
     0
 10
0.0
 20
0.0
 11
12.0
 21
9.0
 12
0.0
 22
0.0
 32
0.0
 14
0.0
 24
0.0
 34
0.0
 15
0.0
 25
0.0
 35
0.0
146
0.0
 13
0.0
 23
0.0
 33
0.0
 16
1.0
 26
0.0
 36
0.0
 17
0.0
 27
1.0
 37
0.0
 76
     0
330
25D
331
48E
  0
LAYOUT
  5
4E6
102
{ACAD_XDICTIONARY
360
543
102
}
102
{ACAD_REACTORS
330
258
102
}
330
258
100
AcDbPlotSettings
  1

  2
Canon LBP9100C
  4

  6

 40
0.0
 41
0.0
 42
0.0
 43
0.0
 44
0.0
 45
0.0
 46
0.0
 47
0.0
 48
0.0
 49
0.0
140
0.0
141
0.0
142
1.0
143
1.0
 70
   688
 72
     0
 73
     0
 74
     5
  7

 75
    16
147
1.0
148
0.0
149
0.0
100
AcDbLayout
  1
レイアウト1
 70
     0
 71
     1
 10
0.0
 20
0.0
 11
420.0
 21
297.0
 12
0.0
 22
0.0
 32
0.0
 14
1.000000000000000E+20
 24
1.000000000000000E+20
 34
1.000000000000000E+20
 15
-1.000000000000000E+20
 25
-1.000000000000000E+20
 35
-1.000000000000000E+20
146
0.0
 13
0.0
 23
0.0
 33
0.0
 16
1.0
 26
0.0
 36
0.0
 17
0.0
 27
1.0
 37
0.0
 76
     0
330
259
  0
MATERIAL
  5
4A1
102
{ACAD_XDICTIONARY
360
4A2
102
}
102
{ACAD_REACTORS
330
498
102
}
330
498
100
AcDbMaterial
  1
ByBlock
 72
     0
 43
0.0208333333333333
 43
0.0
 43
0.0
 43
0.0
 43
0.0
 43
0.0208333333333333
 43
0.0
 43
0.0
 43
0.0
 43
0.0
 43
1.0
 43
0.0
 43
0.0
 43
0.0
 43
0.0
 43
1.0
 77
     0
 47
0.0208333333333333
 47
0.0
 47
0.0
 47
0.0
 47
0.0
 47
0.0208333333333333
 47
0.0
 47
0.0
 47
0.0
 47
0.0
 47
1.0
 47
0.0
 47
0.0
 47
0.0
 47
0.0
 47
1.0
171
     0
 49
0.0208333333333333
 49
0.0
 49
0.0
 49
0.0
 49
0.0
 49
0.0208333333333333
 49
0.0
 49
0.0
 49
0.0
 49
0.0
 49
1.0
 49
0.0
 49
0.0
 49
0.0
 49
0.0
 49
1.0
175
     0
142
0.0208333333333333
142
0.0
142
0.0
142
0.0
142
0.0
142
0.0208333333333333
142
0.0
142
0.0
142
0.0
142
0.0
142
1.0
142
0.0
142
0.0
142
0.0
142
0.0
142
1.0
179
     0
144
0.0208333333333333
144
0.0
144
0.0
144
0.0
144
0.0
144
0.0208333333333333
144
0.0
144
0.0
144
0.0
144
0.0
144
1.0
144
0.0
144
0.0
144
0.0
144
0.0
144
1.0
147
0.0208333333333333
147
0.0
147
0.0
147
0.0
147
0.0
147
0.0208333333333333
147
0.0
147
0.0
147
0.0
147
0.0
147
1.0
147
0.0
147
0.0
147
0.0
147
0.0
147
1.0
  0
MATERIAL
  5
499
102
{ACAD_XDICTIONARY
360
49A
102
}
102
{ACAD_REACTORS
330
498
102
}
330
498
100
AcDbMaterial
  1
ByLayer
 72
     0
 43
0.0208333333333333
 43
0.0
 43
0.0
 43
0.0
 43
0.0
 43
0.0208333333333333
 43
0.0
 43
0.0
 43
0.0
 43
0.0
 43
1.0
 43
0.0
 43
0.0
 43
0.0
 43
0.0
 43
1.0
 77
     0
 47
0.0208333333333333
 47
0.0
 47
0.0
 47
0.0
 47
0.0
 47
0.0208333333333333
 47
0.0
 47
0.0
 47
0.0
 47
0.0
 47
1.0
 47
0.0
 47
0.0
 47
0.0
 47
0.0
 47
1.0
171
     0
 49
0.0208333333333333
 49
0.0
 49
0.0
 49
0.0
 49
0.0
 49
0.0208333333333333
 49
0.0
 49
0.0
 49
0.0
 49
0.0
 49
1.0
 49
0.0
 49
0.0
 49
0.0
 49
0.0
 49
1.0
175
     0
142
0.0208333333333333
142
0.0
142
0.0
142
0.0
142
0.0
142
0.0208333333333333
142
0.0
142
0.0
142
0.0
142
0.0
142
1.0
142
0.0
142
0.0
142
0.0
142
0.0
142
1.0
179
     0
144
0.0208333333333333
144
0.0
144
0.0
144
0.0
144
0.0
144
0.0208333333333333
144
0.0
144
0.0
144
0.0
144
0.0
144
1.0
144
0.0
144
0.0
144
0.0
144
0.0
144
1.0
147
0.0208333333333333
147
0.0
147
0.0
147
0.0
147
0.0
147
0.0208333333333333
147
0.0
147
0.0
147
0.0
147
0.0
147
1.0
147
0.0
147
0.0
147
0.0
147
0.0
147
1.0
  0
MATERIAL
  5
4A9
102
{ACAD_XDICTIONARY
360
4AA
102
}
102
{ACAD_REACTORS
330
498
102
}
330
498
100
AcDbMaterial
  1
Global
 72
     0
 43
0.0208333333333333
 43
0.0
 43
0.0
 43
0.0
 43
0.0
 43
0.0208333333333333
 43
0.0
 43
0.0
 43
0.0
 43
0.0
 43
1.0
 43
0.0
 43
0.0
 43
0.0
 43
0.0
 43
1.0
 77
     0
 47
0.0208333333333333
 47
0.0
 47
0.0
 47
0.0
 47
0.0
 47
0.0208333333333333
 47
0.0
 47
0.0
 47
0.0
 47
0.0
 47
1.0
 47
0.0
 47
0.0
 47
0.0
 47
0.0
 47
1.0
171
     0
 49
0.0208333333333333
 49
0.0
 49
0.0
 49
0.0
 49
0.0
 49
0.0208333333333333
 49
0.0
 49
0.0
 49
0.0
 49
0.0
 49
1.0
 49
0.0
 49
0.0
 49
0.0
 49
0.0
 49
1.0
175
     0
142
0.0208333333333333
142
0.0
142
0.0
142
0.0
142
0.0
142
0.0208333333333333
142
0.0
142
0.0
142
0.0
142
0.0
142
1.0
142
0.0
142
0.0
142
0.0
142
0.0
142
1.0
179
     0
144
0.0208333333333333
144
0.0
144
0.0
144
0.0
144
0.0
144
0.0208333333333333
144
0.0
144
0.0
144
0.0
144
0.0
144
1.0
144
0.0
144
0.0
144
0.0
144
0.0
144
1.0
147
0.0208333333333333
147
0.0
147
0.0
147
0.0
147
0.0
147
0.0208333333333333
147
0.0
147
0.0
147
0.0
147
0.0
147
1.0
147
0.0
147
0.0
147
0.0
147
0.0
147
1.0
  0
MLEADERSTYLE
  5
4E0
102
{ACAD_REACTORS
330
4DF
102
}
330
4DF
100
AcDbMLeaderStyle
170
     2
171
     1
172
     0
 90
        2
 40
0.0
 41
0.0
173
     1
 91
-1056964608
340
252
 92
       -2
290
     1
 42
0.09
291
     1
 43
0.36
  3
Standard
 44
0.18
300

342
250
174
     1
178
     6
175
     1
176
     0
 93
-1056964608
 45
0.18
292
     0
297
     0
 46
0.18
 94
-1056964608
 47
1.0
 49
1.0
140
1.0
293
     1
141
0.0
294
     1
177
     0
142
1.0
295
     0
296
     0
143
0.125
1001
ACAD_MLEADERVER
1070
     2
  0
MLINESTYLE
  5
256
102
{ACAD_REACTORS
330
255
102
}
330
255
100
AcDbMlineStyle
  2
STANDARD
 70
     0
  3

 62
   256
 51
90.0
 52
90.0
 71
     2
 49
0.5
 62
   256
  6
BYLAYER
 49
-0.5
 62
   256
  6
BYLAYER
  0
ACDBPLACEHOLDER
  5
497
102
{ACAD_REACTORS
330
496
102
}
330
496
  0
SCALE
  5
4CE
102
{ACAD_REACTORS
330
4CD
102
}
330
4CD
100
AcDbScale
 70
     0
300
1:1
140
1.0
141
1.0
290
     1
  0
SCALE
  5
4CF
102
{ACAD_REACTORS
330
4CD
102
}
330
4CD
100
AcDbScale
 70
     0
300
1/128" = 1'-0"
140
0.0078125
141
12.0
290
     0
  0
SCALE
  5
4D0
102
{ACAD_REACTORS
330
4CD
102
}
330
4CD
100
AcDbScale
 70
     0
300
1/64" = 1'-0"
140
0.015625
141
12.0
290
     0
  0
SCALE
  5
4D1
102
{ACAD_REACTORS
330
4CD
102
}
330
4CD
100
AcDbScale
 70
     0
300
1/32" = 1'-0"
140
0.03125
141
12.0
290
     0
  0
SCALE
  5
4D2
102
{ACAD_REACTORS
330
4CD
102
}
330
4CD
100
AcDbScale
 70
     0
300
1/16" = 1'-0"
140
0.0625
141
12.0
290
     0
  0
SCALE
  5
4D3
102
{ACAD_REACTORS
330
4CD
102
}
330
4CD
100
AcDbScale
 70
     0
300
3/32" = 1'-0"
140
0.09375
141
12.0
290
     0
  0
SCALE
  5
4D4
102
{ACAD_REACTORS
330
4CD
102
}
330
4CD
100
AcDbScale
 70
     0
300
1/8" = 1'-0"
140
0.125
141
12.0
290
     0
  0
SCALE
  5
4D5
102
{ACAD_REACTORS
330
4CD
102
}
330
4CD
100
AcDbScale
 70
     0
300
3/16" = 1'-0"
140
0.1875
141
12.0
290
     0
  0
SCALE
  5
4D6
102
{ACAD_REACTORS
330
4CD
102
}
330
4CD
100
AcDbScale
 70
     0
300
1/4" = 1'-0"
140
0.25
141
12.0
290
     0
  0
SCALE
  5
4D7
102
{ACAD_REACTORS
330
4CD
102
}
330
4CD
100
AcDbScale
 70
     0
300
3/8" = 1'-0"
140
0.375
141
12.0
290
     0
  0
SCALE
  5
4D8
102
{ACAD_REACTORS
330
4CD
102
}
330
4CD
100
AcDbScale
 70
     0
300
1/2" = 1'-0"
140
0.5
141
12.0
290
     0
  0
SCALE
  5
4D9
102
{ACAD_REACTORS
330
4CD
102
}
330
4CD
100
AcDbScale
 70
     0
300
3/4" = 1'-0"
140
0.75
141
12.0
290
     0
  0
SCALE
  5
4DA
102
{ACAD_REACTORS
330
4CD
102
}
330
4CD
100
AcDbScale
 70
     0
300
1" = 1'-0"
140
1.0
141
12.0
290
     0
  0
SCALE
  5
4DB
102
{ACAD_REACTORS
330
4CD
102
}
330
4CD
100
AcDbScale
 70
     0
300
1-1/2" = 1'-0"
140
1.5
141
12.0
290
     0
  0
SCALE
  5
4DC
102
{ACAD_REACTORS
330
4CD
102
}
330
4CD
100
AcDbScale
 70
     0
300
3" = 1'-0"
140
3.0
141
12.0
290
     0
  0
SCALE
  5
4DD
102
{ACAD_REACTORS
330
4CD
102
}
330
4CD
100
AcDbScale
 70
     0
300
6" = 1'-0"
140
6.0
141
12.0
290
     0
  0
SCALE
  5
4DE
102
{ACAD_REACTORS
330
4CD
102
}
330
4CD
100
AcDbScale
 70
     0
300
1'-0" = 1'-0"
140
12.0
141
12.0
290
     0
  0
ACDBSECTIONVIEWSTYLE
  5
4E2
102
{ACAD_XDICTIONARY
360
53D
102
}
102
{ACAD_REACTORS
330
4E1
102
}
330
4E1
100
AcDbModelDocViewStyle
 70
     0
  3
Imperial24
290
     0
100
AcDbSectionViewStyle
 70
     0
 71
     0
 90
       78
 71
     1
340
250
 40
0.24
340
0
340
0
 40
0.24
300
I, O, Q, S, X, Z
 40
0.48
 90
        3
 40
0.18
 90
        1
 71
     2
340
254
 90
       25
340
254
 90
       50
 40
0.24
 40
0.0
 40
0.24
 71
     3
340
250
 40
0.24
 90
        1
 40
0.75
 90
        1
300
%<\AcVar ViewType \f "%tc1">% %<\AcVar ViewSectionStartId>%-%<\AcVar ViewSectionEndId>%\PSCALE %<\AcVar ViewScale \f "%sn">%
 71
     4
300
ANSI31
 40
1.0
 90
        0
290
     0
290
     0
 90
        6
 40
0.0
 40
1.570796326794896
 40
0.2617993877991494
 40
1.308996938995747
 40
-0.2617993877991494
 40
1.832595714594046
  0
TABLESTYLE
  5
4CC
102
{ACAD_XDICTIONARY
360
504
102
}
102
{ACAD_REACTORS
330
4CB
102
}
330
4CB
100
AcDbTableStyle
  3
Standard
 70
     0
 71
     0
 40
0.06
 41
0.06
280
     0
281
     0
  7
STANDARD
140
0.18
170
     2
 62
     0
 63
     7
283
     0
274
    -2
284
     1
 64
     0
275
    -2
285
     1
 65
     0
276
    -2
286
     1
 66
     0
277
    -2
287
     1
 67
     0
278
    -2
288
     1
 68
     0
279
    -2
289
     1
 69
     0
  7
STANDARD
140
0.25
170
     5
 62
     0
 63
     7
283
     0
274
    -2
284
     1
 64
     0
275
    -2
285
     1
 65
     0
276
    -2
286
     1
 66
     0
277
    -2
287
     1
 67
     0
278
    -2
288
     1
 68
     0
279
    -2
289
     1
 69
     0
  7
STANDARD
140
0.18
170
     5
 62
     0
 63
     7
283
     0
274
    -2
284
     1
 64
     0
275
    -2
285
     1
 65
     0
276
    -2
286
     1
 66
     0
277
    -2
287
     1
 67
     0
278
    -2
288
     1
 68
     0
279
    -2
289
     1
 69
     0
  0
VISUALSTYLE
  5
4B7
102
{ACAD_XDICTIONARY
360
515
102
}
102
{ACAD_REACTORS
330
4B1
102
}
330
4B1
100
AcDbVisualStyle
  2
2dWireframe
 70
     4
 71
     0
 72
     2
 73
     0
 90
        0
 40
-0.6
 41
-30.0
 62
     5
 63
     7
 74
     1
 91
        4
 64
     7
 65
   257
 75
     1
175
     1
 42
1.0
 92
        0
 66
   257
 43
1.0
 76
     1
 77
     6
 78
     2
 67
     7
 79
     5
170
     0
171
     0
290
     0
174
     0
 93
        1
 44
0.0
173
     0
291
     0
 45
0.0
1001
ACAD
1000
AcDbSavedByObjectVersion
1070
     0
  0
VISUALSTYLE
  5
4B6
102
{ACAD_XDICTIONARY
360
513
102
}
102
{ACAD_REACTORS
330
4B1
102
}
330
4B1
100
AcDbVisualStyle
  2
Basic
 70
     7
 71
     1
 72
     0
 73
     1
 90
        0
 40
-0.6
 41
-30.0
 62
     5
 63
     7
 74
     0
 91
        4
 64
     7
 65
   257
 75
     1
175
     1
 42
1.0
 92
        8
 66
     7
 43
1.0
 76
     1
 77
     6
 78
     2
 67
     7
 79
     5
170
     0
171
     0
290
     0
174
     0
 93
        1
 44
0.0
173
     0
291
     1
 45
0.0
1001
ACAD
1000
AcDbSavedByObjectVersion
1070
     0
  0
VISUALSTYLE
  5
4BD
102
{ACAD_XDICTIONARY
360
521
102
}
102
{ACAD_REACTORS
330
4B1
102
}
330
4B1
100
AcDbVisualStyle
  2
Brighten
 70
    12
 71
     2
 72
     2
 73
     0
 90
        0
 40
-0.6
 41
-30.0
 62
     5
 63
     7
 74
     1
 91
        4
 64
     7
 65
   257
 75
     1
175
     1
 42
1.0
 92
        8
 66
     7
 43
1.0
 76
     1
 77
     6
 78
     2
 67
     7
 79
     5
170
     0
171
     0
290
     0
174
     0
 93
        1
 44
50.0
173
     0
291
     1
 45
0.0
1001
ACAD
1000
AcDbSavedByObjectVersion
1070
     0
  0
VISUALSTYLE
  5
4C1
102
{ACAD_XDICTIONARY
360
529
102
}
102
{ACAD_REACTORS
330
4B1
102
}
330
4B1
100
AcDbVisualStyle
  2
ColorChange
 70
    16
 71
     2
 72
     2
 73
     3
 90
        0
 40
-0.6
 41
-30.0
 62
     5
 63
     8
 74
     1
 91
        4
 64
     7
 65
   257
 75
     1
175
     1
 42
1.0
 92
        8
 66
     8
 43
1.0
 76
     1
 77
     6
 78
     2
 67
     7
 79
     5
170
     0
171
     0
290
     0
174
     0
 93
        1
 44
0.0
173
     0
291
     1
 45
0.0
1001
ACAD
1000
AcDbSavedByObjectVersion
1070
     0
  0
VISUALSTYLE
  5
4BA
102
{ACAD_XDICTIONARY
360
51B
102
}
102
{ACAD_REACTORS
330
4B1
102
}
330
4B1
100
AcDbVisualStyle
  2
Conceptual
 70
     9
 71
     3
 72
     2
 73
     0
 90
        0
 40
-0.6
 41
-30.0
 62
     5
 63
     7
 74
     2
 91
        2
 64
     7
 65
   257
 75
     1
175
     1
 42
179.0
 92
        8
 66
     7
 43
1.0
 76
     1
 77
     6
 78
     2
 67
     7
 79
     3
170
     0
171
     0
290
     0
174
     0
 93
        1
 44
0.0
173
     0
291
     0
 45
0.0
1001
ACAD
1000
AcDbSavedByObjectVersion
1070
     0
  0
VISUALSTYLE
  5
4BC
102
{ACAD_XDICTIONARY
360
51F
102
}
102
{ACAD_REACTORS
330
4B1
102
}
330
4B1
100
AcDbVisualStyle
  2
Dim
 70
    11
 71
     2
 72
     2
 73
     0
 90
        0
 40
-0.6
 41
-30.0
 62
     5
 63
     7
 74
     1
 91
        4
 64
     7
 65
   257
 75
     1
175
     1
 42
1.0
 92
        8
 66
     7
 43
1.0
 76
     1
 77
     6
 78
     2
 67
     7
 79
     5
170
     0
171
     0
290
     0
174
     0
 93
        1
 44
-50.0
173
     0
291
     1
 45
0.0
1001
ACAD
1000
AcDbSavedByObjectVersion
1070
     0
  0
VISUALSTYLE
  5
4C9
102
{ACAD_XDICTIONARY
360
539
102
}
102
{ACAD_REACTORS
330
4B1
102
}
330
4B1
100
AcDbVisualStyle
  2
EdgeColorOff
 70
    22
 71
     2
 72
     2
 73
     0
 90
        0
 40
-0.6
 41
-30.0
 62
     5
 63
     7
 74
     1
 91
        4
 64
     7
 65
   257
 75
     1
175
     1
 42
1.0
 92
        8
 66
     7
 43
1.0
 76
     1
 77
     6
 78
     2
 67
     7
 79
     5
170
     0
171
     0
290
     0
174
     0
 93
        1
 44
0.0
173
     0
291
     1
 45
0.0
1001
ACAD
1000
AcDbSavedByObjectVersion
1070
     0
  0
VISUALSTYLE
  5
4C0
102
{ACAD_XDICTIONARY
360
527
102
}
102
{ACAD_REACTORS
330
4B1
102
}
330
4B1
100
AcDbVisualStyle
  2
Facepattern
 70
    15
 71
     2
 72
     2
 73
     0
 90
        0
 40
-0.6
 41
-30.0
 62
     5
 63
     7
 74
     1
 91
        4
 64
     7
 65
   257
 75
     1
175
     1
 42
1.0
 92
        8
 66
     7
 43
1.0
 76
     1
 77
     6
 78
     2
 67
     7
 79
     5
170
     0
171
     0
290
     0
174
     0
 93
        1
 44
0.0
173
     0
291
     1
 45
0.0
1001
ACAD
1000
AcDbSavedByObjectVersion
1070
     0
  0
VISUALSTYLE
  5
4B2
102
{ACAD_XDICTIONARY
360
50B
102
}
102
{ACAD_REACTORS
330
4B1
102
}
330
4B1
100
AcDbVisualStyle
  2
Flat
 70
     0
 71
     2
 72
     1
 73
     1
 90
        2
 40
-0.6
 41
30.0
 62
     5
 63
     7
 74
     0
 91
        0
 64
     7
 65
   257
 75
     1
175
     1
 42
1.0
 92
        8
 66
     7
 43
1.0
 76
     1
 77
     6
 78
     2
 67
     7
 79
     5
170
     0
171
     0
290
     0
174
     0
 93
       13
 44
0.0
173
     0
291
     1
 45
0.0
1001
ACAD
1000
AcDbSavedByObjectVersion
1070
     0
  0
VISUALSTYLE
  5
4B3
102
{ACAD_XDICTIONARY
360
50D
102
}
102
{ACAD_REACTORS
330
4B1
102
}
330
4B1
100
AcDbVisualStyle
  2
FlatWithEdges
 70
     1
 71
     2
 72
     1
 73
     1
 90
        2
 40
-0.6
 41
30.0
 62
     5
 63
     7
 74
     1
 91
        0
 64
     7
 65
   257
 75
     1
175
     1
 42
1.0
 92
        0
 66
   257
 43
1.0
 76
     1
 77
     6
 78
     2
 67
     7
 79
     5
170
     0
171
     0
290
     0
174
     0
 93
       13
 44
0.0
173
     0
291
     1
 45
0.0
1001
ACAD
1000
AcDbSavedByObjectVersion
1070
     0
  0
VISUALSTYLE
  5
4B4
102
{ACAD_XDICTIONARY
360
50F
102
}
102
{ACAD_REACTORS
330
4B1
102
}
330
4B1
100
AcDbVisualStyle
  2
Gouraud
 70
     2
 71
     2
 72
     2
 73
     1
 90
        2
 40
-0.6
 41
30.0
 62
     5
 63
     7
 74
     0
 91
        0
 64
     7
 65
   257
 75
     1
175
     1
 42
1.0
 92
        0
 66
     7
 43
1.0
 76
     1
 77
     6
 78
     2
 67
     7
 79
     5
170
     0
171
     0
290
     0
174
     0
 93
       13
 44
0.0
173
     0
291
     1
 45
0.0
1001
ACAD
1000
AcDbSavedByObjectVersion
1070
     0
  0
VISUALSTYLE
  5
4B5
102
{ACAD_XDICTIONARY
360
511
102
}
102
{ACAD_REACTORS
330
4B1
102
}
330
4B1
100
AcDbVisualStyle
  2
GouraudWithEdges
 70
     3
 71
     2
 72
     2
 73
     1
 90
        2
 40
-0.6
 41
30.0
 62
     5
 63
     7
 74
     1
 91
        0
 64
     7
 65
   257
 75
     1
175
     1
 42
1.0
 92
        0
 66
   257
 43
1.0
 76
     1
 77
     6
 78
     2
 67
     7
 79
     5
170
     0
171
     0
290
     0
174
     0
 93
       13
 44
0.0
173
     0
291
     1
 45
0.0
1001
ACAD
1000
AcDbSavedByObjectVersion
1070
     0
  0
VISUALSTYLE
  5
4B9
102
{ACAD_XDICTIONARY
360
519
102
}
102
{ACAD_REACTORS
330
4B1
102
}
330
4B1
100
AcDbVisualStyle
  2
Hidden
 70
     6
 71
     1
 72
     2
 73
     2
 90
        0
 40
-0.6
 41
-30.0
 62
     5
 63
     7
 74
     2
 91
        2
 64
     7
 65
   257
 75
     2
175
     1
 42
40.0
 92
        0
 66
   257
 43
1.0
 76
     1
 77
     6
 78
     2
 67
     7
 79
     3
170
     0
171
     0
290
     0
174
     0
 93
        1
 44
0.0
173
     0
291
     0
 45
0.0
1001
ACAD
1000
AcDbSavedByObjectVersion
1070
     0
  0
VISUALSTYLE
  5
4C7
102
{ACAD_XDICTIONARY
360
535
102
}
102
{ACAD_REACTORS
330
4B1
102
}
330
4B1
100
AcDbVisualStyle
  2
JitterOff
 70
    20
 71
     2
 72
     2
 73
     0
 90
        0
 40
-0.6
 41
-30.0
 62
     5
 63
     7
 74
     1
 91
        4
 64
     7
 65
   257
 75
     1
175
     1
 42
1.0
 92
       10
 66
     7
 43
1.0
 76
     1
 77
     6
 78
     2
 67
     7
 79
     5
170
     0
171
     0
290
     0
174
     0
 93
        1
 44
0.0
173
     0
291
     1
 45
0.0
1001
ACAD
1000
AcDbSavedByObjectVersion
1070
     0
  0
VISUALSTYLE
  5
4BF
102
{ACAD_XDICTIONARY
360
525
102
}
102
{ACAD_REACTORS
330
4B1
102
}
330
4B1
100
AcDbVisualStyle
  2
Linepattern
 70
    14
 71
     2
 72
     2
 73
     0
 90
        0
 40
-0.6
 41
-30.0
 62
     5
 63
     7
 74
     1
 91
        4
 64
     7
 65
   257
 75
     7
175
     7
 42
1.0
 92
        8
 66
     7
 43
1.0
 76
     1
 77
     6
 78
     2
 67
     7
 79
     5
170
     0
171
     0
290
     0
174
     0
 93
        1
 44
0.0
173
     0
291
     1
 45
0.0
1001
ACAD
1000
AcDbSavedByObjectVersion
1070
     0
  0
VISUALSTYLE
  5
4C8
102
{ACAD_XDICTIONARY
360
537
102
}
102
{ACAD_REACTORS
330
4B1
102
}
330
4B1
100
AcDbVisualStyle
  2
OverhangOff
 70
    21
 71
     2
 72
     2
 73
     0
 90
        0
 40
-0.6
 41
-30.0
 62
     5
 63
     7
 74
     1
 91
        4
 64
     7
 65
   257
 75
     1
175
     1
 42
1.0
 92
        9
 66
     7
 43
1.0
 76
     1
 77
     6
 78
     2
 67
     7
 79
     5
170
     0
171
     0
290
     0
174
     0
 93
        1
 44
0.0
173
     0
291
     1
 45
0.0
1001
ACAD
1000
AcDbSavedByObjectVersion
1070
     0
  0
VISUALSTYLE
  5
4BB
102
{ACAD_XDICTIONARY
360
51D
102
}
102
{ACAD_REACTORS
330
4B1
102
}
330
4B1
100
AcDbVisualStyle
  2
Realistic
 70
     8
 71
     2
 72
     3
 73
     0
 90
        2
 40
-0.6
 41
30.0
 62
     5
 63
     7
 74
     0
 91
        0
 64
     7
 65
   257
 75
     1
175
     1
 42
1.0
 92
        8
 66
   257
 43
1.0
 76
     1
 77
     6
 78
     2
 67
     7
 79
     3
170
     0
171
     0
290
     0
174
     0
 93
       13
 44
0.0
173
     0
291
     0
 45
0.0
1001
ACAD
1000
AcDbSavedByObjectVersion
1070
     0
  0
VISUALSTYLE
  5
4C6
102
{ACAD_XDICTIONARY
360
533
102
}
102
{ACAD_REACTORS
330
4B1
102
}
330
4B1
100
AcDbVisualStyle
  2
Shaded
 70
    27
 71
     2
 72
     2
 73
     1
 90
        2
 40
-0.6
 41
30.0
 62
     5
 63
     7
 74
     0
 91
        4
 64
     7
 65
   257
 75
     1
175
     1
 42
1.0
 92
        8
 66
   257
 43
1.0
 76
     1
 77
     6
 78
     2
 67
     8
 79
     3
170
     0
171
     0
290
     0
174
     0
 93
        5
 44
0.0
173
     0
291
     0
 45
0.0
1001
ACAD
1000
AcDbSavedByObjectVersion
1070
     0
  0
VISUALSTYLE
  5
4C5
102
{ACAD_XDICTIONARY
360
531
102
}
102
{ACAD_REACTORS
330
4B1
102
}
330
4B1
100
AcDbVisualStyle
  2
Shaded with edges
 70
    26
 71
     2
 72
     2
 73
     1
 90
        2
 40
-0.6
 41
30.0
 62
     5
 63
     7
 74
     1
 91
       10
 64
     7
 65
   257
 75
     2
175
     1
 42
1.0
 92
        8
 66
   257
 43
1.0
 76
     1
 77
     6
 78
     2
 67
     7
 79
     3
170
     0
171
     0
290
     0
174
     0
 93
        5
 44
0.0
173
     0
291
     0
 45
0.0
1001
ACAD
1000
AcDbSavedByObjectVersion
1070
     0
  0
VISUALSTYLE
  5
4C2
102
{ACAD_XDICTIONARY
360
52B
102
}
102
{ACAD_REACTORS
330
4B1
102
}
330
4B1
100
AcDbVisualStyle
  2
Shades of Gray
 70
    23
 71
     2
 72
     2
 73
     3
 90
        0
 40
-0.6
 41
-30.0
 62
     5
 63
     7
 74
     2
 91
        2
 64
     7
 65
     7
 75
     1
175
     1
 42
40.0
 92
        8
 66
     7
 43
1.0
 76
     1
 77
     6
 78
     2
 67
     7
 79
     3
170
     0
171
     0
290
     0
174
     0
 93
        1
 44
0.0
173
     0
291
     0
 45
0.0
1001
ACAD
1000
AcDbSavedByObjectVersion
1070
     0
  0
VISUALSTYLE
  5
4C3
102
{ACAD_XDICTIONARY
360
52D
102
}
102
{ACAD_REACTORS
330
4B1
102
}
330
4B1
100
AcDbVisualStyle
  2
Sketchy
 70
    24
 71
     1
 72
     2
 73
     2
 90
        0
 40
-0.6
 41
-30.0
 62
     5
 63
     7
 74
     2
 91
        2
 64
     7
 65
     7
 75
     1
175
     1
 42
40.0
 92
       11
 66
     7
 43
1.0
 76
     1
 77
     6
 78
     2
 67
     7
 79
     6
170
     0
171
     0
290
     0
174
     0
 93
        1
 44
0.0
173
     0
291
     0
 45
0.0
1001
ACAD
1000
AcDbSavedByObjectVersion
1070
     0
  0
VISUALSTYLE
  5
4BE
102
{ACAD_XDICTIONARY
360
523
102
}
102
{ACAD_REACTORS
330
4B1
102
}
330
4B1
100
AcDbVisualStyle
  2
Thicken
 70
    13
 71
     2
 72
     2
 73
     0
 90
        0
 40
-0.6
 41
-30.0
 62
     5
 63
     7
 74
     1
 91
        4
 64
     7
 65
   257
 75
     1
175
     1
 42
1.0
 92
       12
 66
     7
 43
1.0
 76
     1
 77
     6
 78
     2
 67
     7
 79
     5
170
     0
171
     0
290
     0
174
     0
 93
        1
 44
0.0
173
     0
291
     1
 45
0.0
1001
ACAD
1000
AcDbSavedByObjectVersion
1070
     0
  0
VISUALSTYLE
  5
4B8
102
{ACAD_XDICTIONARY
360
517
102
}
102
{ACAD_REACTORS
330
4B1
102
}
330
4B1
100
AcDbVisualStyle
  2
Wireframe
 70
     5
 71
     0
 72
     2
 73
     0
 90
        0
 40
-0.6
 41
-30.0
 62
     5
 63
     7
 74
     1
 91
        4
 64
     7
 65
   257
 75
     1
175
     1
 42
1.0
 92
        0
 66
   257
 43
1.0
 76
     1
 77
     6
 78
     2
 67
     7
 79
     3
170
     0
171
     0
290
     0
174
     0
 93
        1
 44
0.0
173
     0
291
     0
 45
0.0
1001
ACAD
1000
AcDbSavedByObjectVersion
1070
     0
  0
VISUALSTYLE
  5
4C4
102
{ACAD_XDICTIONARY
360
52F
102
}
102
{ACAD_REACTORS
330
4B1
102
}
330
4B1
100
AcDbVisualStyle
  2
X-Ray
 70
    25
 71
     2
 72
     2
 73
     1
 90
        1
 40
0.5
 41
-30.0
 62
     5
 63
     7
 74
     1
 91
        0
 64
     7
 65
   257
 75
     1
175
     1
 42
1.0
 92
        8
 66
     7
 43
1.0
 76
     1
 77
     6
 78
     2
 67
     7
 79
     3
170
     0
171
     0
290
     0
174
     0
 93
       13
 44
0.0
173
     0
291
     0
 45
0.0
1001
ACAD
1000
AcDbSavedByObjectVersion
1070
     0
  0
DICTIONARYVAR
  5
4FE
102
{ACAD_REACTORS
330
4F9
102
}
330
4F9
100
DictionaryVariables
280
     0
  1
1:1
  0
DICTIONARYVAR
  5
4FB
102
{ACAD_REACTORS
330
4F9
102
}
330
4F9
100
DictionaryVariables
280
     0
  1
STANDARD
  0
DICTIONARYVAR
  5
4FA
102
{ACAD_REACTORS
330
4F9
102
}
330
4F9
100
DictionaryVariables
280
     0
  1
STANDARD
  0
DICTIONARYVAR
  5
4FC
102
{ACAD_REACTORS
330
4F9
102
}
330
4F9
100
DictionaryVariables
280
     0
  1
Imperial24
  0
DICTIONARYVAR
  5
4FD
102
{ACAD_REACTORS
330
4F9
102
}
330
4F9
100
DictionaryVariables
280
     0
  1
Imperial24
  0
DICTIONARYVAR
  5
501
102
{ACAD_REACTORS
330
4F9
102
}
330
4F9
100
DictionaryVariables
280
     0
  1
1
  0
DICTIONARYVAR
  5
500
102
{ACAD_REACTORS
330
4F9
102
}
330
4F9
100
DictionaryVariables
280
     0
  1
0
  0
DICTIONARYVAR
  5
4FF
102
{ACAD_REACTORS
330
4F9
102
}
330
4F9
100
DictionaryVariables
280
     0
  1
127
  0
DICTIONARYVAR
  5
502
102
{ACAD_REACTORS
330
4F9
102
}
330
4F9
100
DictionaryVariables
280
     0
  1
2
  0
DICTIONARY
  5
53F
330
4E4
100
AcDbDictionary
280
     1
281
     1
  3
ACAD_XREC_ROUNDTRIP
360
540
  0
DICTIONARY
  5
541
330
4E5
100
AcDbDictionary
280
     1
281
     1
  3
ACAD_XREC_ROUNDTRIP
360
542
  0
DICTIONARY
  5
543
330
4E6
100
AcDbDictionary
280
     1
281
     1
  3
ACAD_XREC_ROUNDTRIP
360
544
  0
DICTIONARY
  5
4A2
330
4A1
100
AcDbDictionary
280
     1
281
     1
  3
ACAD_XREC_ROUNDTRIP
360
509
  3
BUMPTILE
360
4A4
  3
DIFFUSETILE
360
4A3
  3
OPACITYTILE
360
4A7
  3
REFLECTIONTILE
360
4A6
  3
REFRACTIONTILE
360
4A8
  3
SPECULARTILE
360
4A5
  0
DICTIONARY
  5
49A
330
499
100
AcDbDictionary
280
     1
281
     1
  3
ACAD_XREC_ROUNDTRIP
360
508
  3
BUMPTILE
360
49C
  3
DIFFUSETILE
360
49B
  3
OPACITYTILE
360
49F
  3
REFLECTIONTILE
360
49E
  3
REFRACTIONTILE
360
4A0
  3
SPECULARTILE
360
49D
  0
DICTIONARY
  5
4AA
330
4A9
100
AcDbDictionary
280
     1
281
     1
  3
ACAD_XREC_ROUNDTRIP
360
50A
  3
BUMPTILE
360
4AC
  3
DIFFUSETILE
360
4AB
  3
OPACITYTILE
360
4AF
  3
REFLECTIONTILE
360
4AE
  3
REFRACTIONTILE
360
4B0
  3
SPECULARTILE
360
4AD
  0
DICTIONARY
  5
53D
330
4E2
100
AcDbDictionary
280
     1
281
     1
  3
ACAD_XREC_ROUNDTRIP
360
53E
  0
DICTIONARY
  5
504
330
4CC
100
AcDbDictionary
280
     1
281
     1
  3
ACAD_ROUNDTRIP_2008_TABLESTYLE_CELLSTYLEMAP
360
505
  3
ACAD_XREC_ROUNDTRIP
360
53B
  0
DICTIONARY
  5
515
330
4B7
100
AcDbDictionary
280
     1
281
     1
  3
ACAD_XREC_ROUNDTRIP
360
516
  0
DICTIONARY
  5
513
330
4B6
100
AcDbDictionary
280
     1
281
     1
  3
ACAD_XREC_ROUNDTRIP
360
514
  0
DICTIONARY
  5
521
330
4BD
100
AcDbDictionary
280
     1
281
     1
  3
ACAD_XREC_ROUNDTRIP
360
522
  0
DICTIONARY
  5
529
330
4C1
100
AcDbDictionary
280
     1
281
     1
  3
ACAD_XREC_ROUNDTRIP
360
52A
  0
DICTIONARY
  5
51B
330
4BA
100
AcDbDictionary
280
     1
281
     1
  3
ACAD_XREC_ROUNDTRIP
360
51C
  0
DICTIONARY
  5
51F
330
4BC
100
AcDbDictionary
280
     1
281
     1
  3
ACAD_XREC_ROUNDTRIP
360
520
  0
DICTIONARY
  5
539
330
4C9
100
AcDbDictionary
280
     1
281
     1
  3
ACAD_XREC_ROUNDTRIP
360
53A
  0
DICTIONARY
  5
527
330
4C0
100
AcDbDictionary
280
     1
281
     1
  3
ACAD_XREC_ROUNDTRIP
360
528
  0
DICTIONARY
  5
50B
330
4B2
100
AcDbDictionary
280
     1
281
     1
  3
ACAD_XREC_ROUNDTRIP
360
50C
  0
DICTIONARY
  5
50D
330
4B3
100
AcDbDictionary
280
     1
281
     1
  3
ACAD_XREC_ROUNDTRIP
360
50E
  0
DICTIONARY
  5
50F
330
4B4
100
AcDbDictionary
280
     1
281
     1
  3
ACAD_XREC_ROUNDTRIP
360
510
  0
DICTIONARY
  5
511
330
4B5
100
AcDbDictionary
280
     1
281
     1
  3
ACAD_XREC_ROUNDTRIP
360
512
  0
DICTIONARY
  5
519
330
4B9
100
AcDbDictionary
280
     1
281
     1
  3
ACAD_XREC_ROUNDTRIP
360
51A
  0
DICTIONARY
  5
535
330
4C7
100
AcDbDictionary
280
     1
281
     1
  3
ACAD_XREC_ROUNDTRIP
360
536
  0
DICTIONARY
  5
525
330
4BF
100
AcDbDictionary
280
     1
281
     1
  3
ACAD_XREC_ROUNDTRIP
360
526
  0
DICTIONARY
  5
537
330
4C8
100
AcDbDictionary
280
     1
281
     1
  3
ACAD_XREC_ROUNDTRIP
360
538
  0
DICTIONARY
  5
51D
330
4BB
100
AcDbDictionary
280
     1
281
     1
  3
ACAD_XREC_ROUNDTRIP
360
51E
  0
DICTIONARY
  5
533
330
4C6
100
AcDbDictionary
280
     1
281
     1
  3
ACAD_XREC_ROUNDTRIP
360
534
  0
DICTIONARY
  5
531
330
4C5
100
AcDbDictionary
280
     1
281
     1
  3
ACAD_XREC_ROUNDTRIP
360
532
  0
DICTIONARY
  5
52B
330
4C2
100
AcDbDictionary
280
     1
281
     1
  3
ACAD_XREC_ROUNDTRIP
360
52C
  0
DICTIONARY
  5
52D
330
4C3
100
AcDbDictionary
280
     1
281
     1
  3
ACAD_XREC_ROUNDTRIP
360
52E
  0
DICTIONARY
  5
523
330
4BE
100
AcDbDictionary
280
     1
281
     1
  3
ACAD_XREC_ROUNDTRIP
360
524
  0
DICTIONARY
  5
517
330
4B8
100
AcDbDictionary
280
     1
281
     1
  3
ACAD_XREC_ROUNDTRIP
360
518
  0
DICTIONARY
  5
52F
330
4C4
100
AcDbDictionary
280
     1
281
     1
  3
ACAD_XREC_ROUNDTRIP
360
530
  0
XRECORD
  5
540
102
{ACAD_REACTORS
330
53F
102
}
330
53F
100
AcDbXrecord
280
     1
102
DISPLAYNAME
  1
Imperial24
102
FLAGS
 90
        0
  0
XRECORD
  5
542
102
{ACAD_REACTORS
330
541
102
}
330
541
100
AcDbXrecord
280
     1
102
SHADEPLOT
 70
     0
102
SHADEPLOTRESLEVEL
 70
     2
102
SHADEPLOTCUSTOMDPI
 70
   300
  0
XRECORD
  5
544
102
{ACAD_REACTORS
330
543
102
}
330
543
100
AcDbXrecord
280
     1
102
SHADEPLOT
 70
     0
102
SHADEPLOTRESLEVEL
 70
     2
102
SHADEPLOTCUSTOMDPI
 70
   300
  0
XRECORD
  5
509
102
{ACAD_REACTORS
330
4A2
102
}
330
4A2
100
AcDbXrecord
280
     1
102
MATERIAL
148
0.0
149
0.0
149
0.0
 93
        0
 94
      127
282
     0
 72
     0
 77
     0
171
     0
175
     0
179
     0
273
     0
  0
XRECORD
  5
4A4
102
{ACAD_REACTORS
330
4A2
102
}
330
4A2
100
AcDbXrecord
280
     1
270
     1
271
     1
  0
XRECORD
  5
4A3
102
{ACAD_REACTORS
330
4A2
102
}
330
4A2
100
AcDbXrecord
280
     1
270
     1
271
     1
  0
XRECORD
  5
4A7
102
{ACAD_REACTORS
330
4A2
102
}
330
4A2
100
AcDbXrecord
280
     1
270
     1
271
     1
  0
XRECORD
  5
4A6
102
{ACAD_REACTORS
330
4A2
102
}
330
4A2
100
AcDbXrecord
280
     1
270
     1
271
     1
  0
XRECORD
  5
4A8
102
{ACAD_REACTORS
330
4A2
102
}
330
4A2
100
AcDbXrecord
280
     1
270
     1
271
     1
  0
XRECORD
  5
4A5
102
{ACAD_REACTORS
330
4A2
102
}
330
4A2
100
AcDbXrecord
280
     1
270
     1
271
     1
  0
XRECORD
  5
508
102
{ACAD_REACTORS
330
49A
102
}
330
49A
100
AcDbXrecord
280
     1
102
MATERIAL
148
0.0
149
0.0
149
0.0
 93
        0
 94
      127
282
     0
 72
     0
 77
     0
171
     0
175
     0
179
     0
273
     0
  0
XRECORD
  5
49C
102
{ACAD_REACTORS
330
49A
102
}
330
49A
100
AcDbXrecord
280
     1
270
     1
271
     1
  0
XRECORD
  5
49B
102
{ACAD_REACTORS
330
49A
102
}
330
49A
100
AcDbXrecord
280
     1
270
     1
271
     1
  0
XRECORD
  5
49F
102
{ACAD_REACTORS
330
49A
102
}
330
49A
100
AcDbXrecord
280
     1
270
     1
271
     1
  0
XRECORD
  5
49E
102
{ACAD_REACTORS
330
49A
102
}
330
49A
100
AcDbXrecord
280
     1
270
     1
271
     1
  0
XRECORD
  5
4A0
102
{ACAD_REACTORS
330
49A
102
}
330
49A
100
AcDbXrecord
280
     1
270
     1
271
     1
  0
XRECORD
  5
49D
102
{ACAD_REACTORS
330
49A
102
}
330
49A
100
AcDbXrecord
280
     1
270
     1
271
     1
  0
XRECORD
  5
50A
102
{ACAD_REACTORS
330
4AA
102
}
330
4AA
100
AcDbXrecord
280
     1
102
MATERIAL
148
0.0
149
0.0
149
0.0
 93
        0
 94
      127
282
     0
 72
     0
 77
     0
171
     0
175
     0
179
     0
273
     0
  0
XRECORD
  5
4AC
102
{ACAD_REACTORS
330
4AA
102
}
330
4AA
100
AcDbXrecord
280
     1
270
     1
271
     1
  0
XRECORD
  5
4AB
102
{ACAD_REACTORS
330
4AA
102
}
330
4AA
100
AcDbXrecord
280
     1
270
     1
271
     1
  0
XRECORD
  5
4AF
102
{ACAD_REACTORS
330
4AA
102
}
330
4AA
100
AcDbXrecord
280
     1
270
     1
271
     1
  0
XRECORD
  5
4AE
102
{ACAD_REACTORS
330
4AA
102
}
330
4AA
100
AcDbXrecord
280
     1
270
     1
271
     1
  0
XRECORD
  5
4B0
102
{ACAD_REACTORS
330
4AA
102
}
330
4AA
100
AcDbXrecord
280
     1
270
     1
271
     1
  0
XRECORD
  5
4AD
102
{ACAD_REACTORS
330
4AA
102
}
330
4AA
100
AcDbXrecord
280
     1
270
     1
271
     1
  0
XRECORD
  5
53E
102
{ACAD_REACTORS
330
53D
102
}
330
53D
100
AcDbXrecord
280
     1
102
DISPLAYNAME
  1
Imperial24
102
FLAGS
 90
        0
  0
CELLSTYLEMAP
  5
505
102
{ACAD_REACTORS
330
504
102
}
330
504
100
AcDbCellStyleMap
 90
        3
300
CELLSTYLE
  1
TABLEFORMAT_BEGIN
 90
        5
170
     1
 91
        0
 92
    32768
 62
   257
 93
        1
300
CONTENTFORMAT
  1
CONTENTFORMAT_BEGIN
 90
        0
 91
        0
 92
      512
 93
        0
300

 40
0.0
140
1.0
 94
        5
 62
     0
340
250
144
0.25
309
CONTENTFORMAT_END
171
     0
 94
        0
309
TABLEFORMAT_END
  1
CELLSTYLE_BEGIN
 90
        1
 91
        1
300
_TITLE
309
CELLSTYLE_END
300
CELLSTYLE
  1
TABLEFORMAT_BEGIN
 90
        5
170
     1
 91
        0
 92
        0
 62
   257
 93
        1
300
CONTENTFORMAT
  1
CONTENTFORMAT_BEGIN
 90
        0
 91
        0
 92
      512
 93
        0
300

 40
0.0
140
1.0
 94
        5
 62
     0
340
250
144
0.18
309
CONTENTFORMAT_END
171
     0
 94
        0
309
TABLEFORMAT_END
  1
CELLSTYLE_BEGIN
 90
        2
 91
        1
300
_HEADER
309
CELLSTYLE_END
300
CELLSTYLE
  1
TABLEFORMAT_BEGIN
 90
        5
170
     1
 91
        0
 92
        0
 62
   257
 93
        1
300
CONTENTFORMAT
  1
CONTENTFORMAT_BEGIN
 90
        0
 91
        0
 92
      512
 93
        0
300

 40
0.0
140
1.0
 94
        2
 62
     0
340
250
144
0.18
309
CONTENTFORMAT_END
171
     0
 94
        0
309
TABLEFORMAT_END
  1
CELLSTYLE_BEGIN
 90
        3
 91
        2
300
_DATA
309
CELLSTYLE_END
  0
XRECORD
  5
53B
102
{ACAD_REACTORS
330
504
102
}
330
504
100
AcDbXrecord
280
     1
102
ACAD_ROUNDTRIP_PRE2007_TABLESTYLE
 90
      512
 91
        0
  1

 92
      512
 93
        0
  2

 94
      512
 95
        0
  3

  0
XRECORD
  5
516
102
{ACAD_REACTORS
330
515
102
}
330
515
100
AcDbXrecord
280
     1
102
RTVSPost2010Prop28
280
     1
102
RTVSPost2010PropOp28
 70
     1
102
RTVSPost2010Prop29
280
     1
102
RTVSPost2010PropOp29
 70
     1
102
RTVSPost2010Prop30
280
     0
102
RTVSPost2010PropOp30
 70
     1
102
RTVSPost2010Prop31
280
     0
102
RTVSPost2010PropOp31
 70
     1
102
RTVSPost2010Prop32
280
     0
102
RTVSPost2010PropOp32
 70
     1
102
RTVSPost2010Prop33
280
     0
102
RTVSPost2010PropOp33
 70
     1
102
RTVSPost2010Prop34
280
     0
102
RTVSPost2010PropOp34
 70
     1
102
RTVSPost2010Prop35
280
     0
102
RTVSPost2010PropOp35
 70
     1
102
RTVSPost2010Prop36
280
     0
102
RTVSPost2010PropOp36
 70
     1
102
RTVSPost2010Prop37
 90
       50
102
RTVSPost2010PropOp37
 70
     1
102
RTVSPost2010Prop38
140
0.0
102
RTVSPost2010PropOp38
 70
     1
102
RTVSPost2010Prop39
140
1.0
102
RTVSPost2010PropOp39
 70
     1
102
RTVSPost2010Prop40
 90
        0
102
RTVSPost2010PropOp40
 70
     1
102
RTVSPost2010Prop41ColorIndex
 90
       18
102
RTVSPost2010Prop41ColorRGB
 90
        0
102
RTVSPost2010PropOp41
 70
     1
102
RTVSPost2010Prop42
 90
       50
102
RTVSPost2010PropOp42
 70
     1
102
RTVSPost2010Prop43
 90
        3
102
RTVSPost2010PropOp43
 70
     1
102
RTVSPost2010Prop44ColorIndex
 90
        5
102
RTVSPost2010Prop44ColorRGB
 90
      255
102
RTVSPost2010PropOp44
 70
     1
102
RTVSPost2010Prop45
280
     0
102
RTVSPost2010PropOp45
 70
     1
102
RTVSPost2010Prop46
 90
       50
102
RTVSPost2010PropOp46
 70
     1
102
RTVSPost2010Prop47
 90
       50
102
RTVSPost2010PropOp47
 70
     1
102
RTVSPost2010Prop48
 90
       50
102
RTVSPost2010PropOp48
 70
     1
102
RTVSPost2010Prop49
280
     0
102
RTVSPost2010PropOp49
 70
     1
102
RTVSPost2010Prop50
 90
       50
102
RTVSPost2010PropOp50
 70
     1
102
RTVSPost2010Prop51ColorIndex
 90
      256
102
RTVSPost2010Prop51ColorRGB
 90
-16777216
102
RTVSPost2010PropOp51
 70
     0
102
RTVSPost2010Prop52
140
1.0
102
RTVSPost2010PropOp52
 70
     0
102
RTVSPost2010Prop53
 90
        2
102
RTVSPost2010PropOp53
 70
     1
102
RTVSPost2010Prop54
  1
strokes_ogs.tif
102
RTVSPost2010PropOp54
 70
     1
102
RTVSPost2010Prop55
280
     0
102
RTVSPost2010PropOp55
 70
     1
102
RTVSPost2010Prop56
140
1.0
102
RTVSPost2010PropOp56
 70
     1
102
RTVSPost2010Prop57
140
1.0
102
RTVSPost2010PropOp57
 70
     1
102
RTVSPropertyOp0
 70
     1
102
RTVSPropertyOp1
 70
     1
102
RTVSPropertyOp2
 70
     1
102
RTVSPropertyOp3
 70
     1
102
RTVSPropertyOp4
 70
     1
102
RTVSPropertyOp5
 70
     1
102
RTVSPropertyOp6
 70
     1
102
RTVSPropertyOp7
 70
     1
102
RTVSPropertyOp8
 70
     1
102
RTVSPropertyOp9
 70
     1
102
RTVSPropertyOp10
 70
     1
102
RTVSPropertyOp11
 70
     1
102
RTVSPropertyOp12
 70
     1
102
RTVSPropertyOp13
 70
     1
102
RTVSPropertyOp14
 70
     1
102
RTVSPropertyOp15
 70
     1
102
RTVSPropertyOp16
 70
     1
102
RTVSPropertyOp17
 70
     1
102
RTVSPropertyOp18
 70
     1
102
RTVSPropertyOp19
 70
     1
102
RTVSPropertyOp20
 70
     1
102
RTVSPropertyOp21
 70
     1
102
RTVSPropertyOp22
 70
     1
102
RTVSPropertyOp23
 70
     1
102
RTVSPropertyOp24
 70
     1
102
RTVSPropertyOp25
 70
     1
102
RTVSPropertyOp26
 70
     1
102
RTVSPropertyOp27
 70
     1
102
RTVSPropertyOp28
 70
     1
102
RTVSPropertyOp29
 70
     1
102
RTVSPropertyOp30
 70
     1
102
RTVSPropertyOp31
 70
     1
102
RTVSPropertyOp32
 70
     1
102
RTVSPropertyOp33
 70
     1
102
RTVSPropertyOp34
 70
     1
102
RTVSPropertyOp35
 70
     1
102
RTVSPropertyOp36
 70
     1
102
RTVSPropertyOp37
 70
     1
102
RTVSPropertyOp38
 70
     1
102
RTVSPropertyOp39
 70
     1
102
RTVSPropertyOp40
 70
     1
102
RTVSPropertyOp41
 70
     1
102
RTVSPropertyOp42
 70
     1
102
RTVSPropertyOp43
 70
     1
102
RTVSPropertyOp44
 70
     1
102
RTVSPropertyOp45
 70
     1
102
RTVSPropertyOp46
 70
     1
102
RTVSPropertyOp47
 70
     1
102
RTVSPropertyOp48
 70
     1
102
RTVSPropertyOp49
 70
     1
102
RTVSPropertyOp50
 70
     1
102
RTVSPropertyOp51
 70
     0
102
RTVSPropertyOp52
 70
     0
102
RTVSPropertyOp53
 70
     1
102
RTVSPropertyOp54
 70
     1
102
RTVSPropertyOp55
 70
     1
102
RTVSPropertyOp56
 70
     1
102
RTVSPropertyOp57
 70
     1
102
RTVSPropertyOp58
 70
     1
102
RTVSPropertyOp59
 70
     1
102
RTVSPropertyOp60
 70
     1
102
RTVSPropertyOp61
 70
     1
102
RTVSPropertyOp62
 70
     1
  0
XRECORD
  5
514
102
{ACAD_REACTORS
330
513
102
}
330
513
100
AcDbXrecord
280
     1
102
RTVSPost2010Prop28
280
     0
102
RTVSPost2010PropOp28
 70
     1
102
RTVSPost2010Prop29
280
     1
102
RTVSPost2010PropOp29
 70
     1
102
RTVSPost2010Prop30
280
     1
102
RTVSPost2010PropOp30
 70
     1
102
RTVSPost2010Prop31
280
     0
102
RTVSPost2010PropOp31
 70
     1
102
RTVSPost2010Prop32
280
     0
102
RTVSPost2010PropOp32
 70
     1
102
RTVSPost2010Prop33
280
     0
102
RTVSPost2010PropOp33
 70
     1
102
RTVSPost2010Prop34
280
     0
102
RTVSPost2010PropOp34
 70
     1
102
RTVSPost2010Prop35
280
     0
102
RTVSPost2010PropOp35
 70
     1
102
RTVSPost2010Prop36
280
     0
102
RTVSPost2010PropOp36
 70
     1
102
RTVSPost2010Prop37
 90
       50
102
RTVSPost2010PropOp37
 70
     1
102
RTVSPost2010Prop38
140
0.0
102
RTVSPost2010PropOp38
 70
     1
102
RTVSPost2010Prop39
140
1.0
102
RTVSPost2010PropOp39
 70
     1
102
RTVSPost2010Prop40
 90
        0
102
RTVSPost2010PropOp40
 70
     1
102
RTVSPost2010Prop41ColorIndex
 90
       18
102
RTVSPost2010Prop41ColorRGB
 90
        0
102
RTVSPost2010PropOp41
 70
     1
102
RTVSPost2010Prop42
 90
       50
102
RTVSPost2010PropOp42
 70
     1
102
RTVSPost2010Prop43
 90
        3
102
RTVSPost2010PropOp43
 70
     1
102
RTVSPost2010Prop44ColorIndex
 90
        5
102
RTVSPost2010Prop44ColorRGB
 90
      255
102
RTVSPost2010PropOp44
 70
     1
102
RTVSPost2010Prop45
280
     0
102
RTVSPost2010PropOp45
 70
     1
102
RTVSPost2010Prop46
 90
       50
102
RTVSPost2010PropOp46
 70
     1
102
RTVSPost2010Prop47
 90
       50
102
RTVSPost2010PropOp47
 70
     1
102
RTVSPost2010Prop48
 90
       50
102
RTVSPost2010PropOp48
 70
     1
102
RTVSPost2010Prop49
280
     0
102
RTVSPost2010PropOp49
 70
     1
102
RTVSPost2010Prop50
 90
       50
102
RTVSPost2010PropOp50
 70
     1
102
RTVSPost2010Prop51ColorIndex
 90
      256
102
RTVSPost2010Prop51ColorRGB
 90
-16777216
102
RTVSPost2010PropOp51
 70
     0
102
RTVSPost2010Prop52
140
1.0
102
RTVSPost2010PropOp52
 70
     0
102
RTVSPost2010Prop53
 90
        2
102
RTVSPost2010PropOp53
 70
     1
102
RTVSPost2010Prop54
  1
strokes_ogs.tif
102
RTVSPost2010PropOp54
 70
     1
102
RTVSPost2010Prop55
280
     0
102
RTVSPost2010PropOp55
 70
     1
102
RTVSPost2010Prop56
140
1.0
102
RTVSPost2010PropOp56
 70
     1
102
RTVSPost2010Prop57
140
1.0
102
RTVSPost2010PropOp57
 70
     1
102
RTVSPropertyOp0
 70
     1
102
RTVSPropertyOp1
 70
     1
102
RTVSPropertyOp2
 70
     1
102
RTVSPropertyOp3
 70
     1
102
RTVSPropertyOp4
 70
     1
102
RTVSPropertyOp5
 70
     1
102
RTVSPropertyOp6
 70
     1
102
RTVSPropertyOp7
 70
     1
102
RTVSPropertyOp8
 70
     1
102
RTVSPropertyOp9
 70
     1
102
RTVSPropertyOp10
 70
     1
102
RTVSPropertyOp11
 70
     1
102
RTVSPropertyOp12
 70
     1
102
RTVSPropertyOp13
 70
     1
102
RTVSPropertyOp14
 70
     1
102
RTVSPropertyOp15
 70
     1
102
RTVSPropertyOp16
 70
     1
102
RTVSPropertyOp17
 70
     1
102
RTVSPropertyOp18
 70
     1
102
RTVSPropertyOp19
 70
     1
102
RTVSPropertyOp20
 70
     1
102
RTVSPropertyOp21
 70
     1
102
RTVSPropertyOp22
 70
     1
102
RTVSPropertyOp23
 70
     1
102
RTVSPropertyOp24
 70
     1
102
RTVSPropertyOp25
 70
     1
102
RTVSPropertyOp26
 70
     1
102
RTVSPropertyOp27
 70
     1
102
RTVSPropertyOp28
 70
     1
102
RTVSPropertyOp29
 70
     1
102
RTVSPropertyOp30
 70
     1
102
RTVSPropertyOp31
 70
     1
102
RTVSPropertyOp32
 70
     1
102
RTVSPropertyOp33
 70
     1
102
RTVSPropertyOp34
 70
     1
102
RTVSPropertyOp35
 70
     1
102
RTVSPropertyOp36
 70
     1
102
RTVSPropertyOp37
 70
     1
102
RTVSPropertyOp38
 70
     1
102
RTVSPropertyOp39
 70
     1
102
RTVSPropertyOp40
 70
     1
102
RTVSPropertyOp41
 70
     1
102
RTVSPropertyOp42
 70
     1
102
RTVSPropertyOp43
 70
     1
102
RTVSPropertyOp44
 70
     1
102
RTVSPropertyOp45
 70
     1
102
RTVSPropertyOp46
 70
     1
102
RTVSPropertyOp47
 70
     1
102
RTVSPropertyOp48
 70
     1
102
RTVSPropertyOp49
 70
     1
102
RTVSPropertyOp50
 70
     1
102
RTVSPropertyOp51
 70
     0
102
RTVSPropertyOp52
 70
     0
102
RTVSPropertyOp53
 70
     1
102
RTVSPropertyOp54
 70
     1
102
RTVSPropertyOp55
 70
     1
102
RTVSPropertyOp56
 70
     1
102
RTVSPropertyOp57
 70
     1
102
RTVSPropertyOp58
 70
     1
102
RTVSPropertyOp59
 70
     1
102
RTVSPropertyOp60
 70
     1
102
RTVSPropertyOp61
 70
     1
102
RTVSPropertyOp62
 70
     1
  0
XRECORD
  5
522
102
{ACAD_REACTORS
330
521
102
}
330
521
100
AcDbXrecord
280
     1
102
RTVSPost2010Prop28
280
     0
102
RTVSPost2010PropOp28
 70
     1
102
RTVSPost2010Prop29
280
     1
102
RTVSPost2010PropOp29
 70
     1
102
RTVSPost2010Prop30
280
     1
102
RTVSPost2010PropOp30
 70
     1
102
RTVSPost2010Prop31
280
     0
102
RTVSPost2010PropOp31
 70
     1
102
RTVSPost2010Prop32
280
     0
102
RTVSPost2010PropOp32
 70
     1
102
RTVSPost2010Prop33
280
     0
102
RTVSPost2010PropOp33
 70
     1
102
RTVSPost2010Prop34
280
     0
102
RTVSPost2010PropOp34
 70
     1
102
RTVSPost2010Prop35
280
     0
102
RTVSPost2010PropOp35
 70
     1
102
RTVSPost2010Prop36
280
     0
102
RTVSPost2010PropOp36
 70
     1
102
RTVSPost2010Prop37
 90
       50
102
RTVSPost2010PropOp37
 70
     1
102
RTVSPost2010Prop38
140
0.0
102
RTVSPost2010PropOp38
 70
     1
102
RTVSPost2010Prop39
140
1.0
102
RTVSPost2010PropOp39
 70
     1
102
RTVSPost2010Prop40
 90
        0
102
RTVSPost2010PropOp40
 70
     1
102
RTVSPost2010Prop41ColorIndex
 90
       18
102
RTVSPost2010Prop41ColorRGB
 90
        0
102
RTVSPost2010PropOp41
 70
     1
102
RTVSPost2010Prop42
 90
       50
102
RTVSPost2010PropOp42
 70
     1
102
RTVSPost2010Prop43
 90
        3
102
RTVSPost2010PropOp43
 70
     1
102
RTVSPost2010Prop44ColorIndex
 90
        5
102
RTVSPost2010Prop44ColorRGB
 90
      255
102
RTVSPost2010PropOp44
 70
     1
102
RTVSPost2010Prop45
280
     0
102
RTVSPost2010PropOp45
 70
     1
102
RTVSPost2010Prop46
 90
       50
102
RTVSPost2010PropOp46
 70
     1
102
RTVSPost2010Prop47
 90
       50
102
RTVSPost2010PropOp47
 70
     1
102
RTVSPost2010Prop48
 90
       50
102
RTVSPost2010PropOp48
 70
     1
102
RTVSPost2010Prop49
280
     0
102
RTVSPost2010PropOp49
 70
     1
102
RTVSPost2010Prop50
 90
       50
102
RTVSPost2010PropOp50
 70
     1
102
RTVSPost2010Prop51ColorIndex
 90
      256
102
RTVSPost2010Prop51ColorRGB
 90
-16777216
102
RTVSPost2010PropOp51
 70
     0
102
RTVSPost2010Prop52
140
1.0
102
RTVSPost2010PropOp52
 70
     0
102
RTVSPost2010Prop53
 90
        2
102
RTVSPost2010PropOp53
 70
     1
102
RTVSPost2010Prop54
  1
strokes_ogs.tif
102
RTVSPost2010PropOp54
 70
     1
102
RTVSPost2010Prop55
280
     0
102
RTVSPost2010PropOp55
 70
     1
102
RTVSPost2010Prop56
140
1.0
102
RTVSPost2010PropOp56
 70
     1
102
RTVSPost2010Prop57
140
1.0
102
RTVSPost2010PropOp57
 70
     1
102
RTVSPropertyOp0
 70
     1
102
RTVSPropertyOp1
 70
     1
102
RTVSPropertyOp2
 70
     1
102
RTVSPropertyOp3
 70
     1
102
RTVSPropertyOp4
 70
     1
102
RTVSPropertyOp5
 70
     1
102
RTVSPropertyOp6
 70
     1
102
RTVSPropertyOp7
 70
     1
102
RTVSPropertyOp8
 70
     1
102
RTVSPropertyOp9
 70
     1
102
RTVSPropertyOp10
 70
     1
102
RTVSPropertyOp11
 70
     1
102
RTVSPropertyOp12
 70
     1
102
RTVSPropertyOp13
 70
     1
102
RTVSPropertyOp14
 70
     1
102
RTVSPropertyOp15
 70
     1
102
RTVSPropertyOp16
 70
     1
102
RTVSPropertyOp17
 70
     1
102
RTVSPropertyOp18
 70
     1
102
RTVSPropertyOp19
 70
     1
102
RTVSPropertyOp20
 70
     1
102
RTVSPropertyOp21
 70
     1
102
RTVSPropertyOp22
 70
     1
102
RTVSPropertyOp23
 70
     1
102
RTVSPropertyOp24
 70
     1
102
RTVSPropertyOp25
 70
     1
102
RTVSPropertyOp26
 70
     1
102
RTVSPropertyOp27
 70
     1
102
RTVSPropertyOp28
 70
     1
102
RTVSPropertyOp29
 70
     1
102
RTVSPropertyOp30
 70
     1
102
RTVSPropertyOp31
 70
     1
102
RTVSPropertyOp32
 70
     1
102
RTVSPropertyOp33
 70
     1
102
RTVSPropertyOp34
 70
     1
102
RTVSPropertyOp35
 70
     1
102
RTVSPropertyOp36
 70
     1
102
RTVSPropertyOp37
 70
     1
102
RTVSPropertyOp38
 70
     1
102
RTVSPropertyOp39
 70
     1
102
RTVSPropertyOp40
 70
     1
102
RTVSPropertyOp41
 70
     1
102
RTVSPropertyOp42
 70
     1
102
RTVSPropertyOp43
 70
     1
102
RTVSPropertyOp44
 70
     1
102
RTVSPropertyOp45
 70
     1
102
RTVSPropertyOp46
 70
     1
102
RTVSPropertyOp47
 70
     1
102
RTVSPropertyOp48
 70
     1
102
RTVSPropertyOp49
 70
     1
102
RTVSPropertyOp50
 70
     1
102
RTVSPropertyOp51
 70
     0
102
RTVSPropertyOp52
 70
     0
102
RTVSPropertyOp53
 70
     1
102
RTVSPropertyOp54
 70
     1
102
RTVSPropertyOp55
 70
     1
102
RTVSPropertyOp56
 70
     1
102
RTVSPropertyOp57
 70
     1
102
RTVSPropertyOp58
 70
     1
102
RTVSPropertyOp59
 70
     1
102
RTVSPropertyOp60
 70
     1
102
RTVSPropertyOp61
 70
     1
102
RTVSPropertyOp62
 70
     1
  0
XRECORD
  5
52A
102
{ACAD_REACTORS
330
529
102
}
330
529
100
AcDbXrecord
280
     1
102
RTVSPost2010Prop28
280
     0
102
RTVSPost2010PropOp28
 70
     1
102
RTVSPost2010Prop29
280
     1
102
RTVSPost2010PropOp29
 70
     1
102
RTVSPost2010Prop30
280
     1
102
RTVSPost2010PropOp30
 70
     1
102
RTVSPost2010Prop31
280
     0
102
RTVSPost2010PropOp31
 70
     1
102
RTVSPost2010Prop32
280
     0
102
RTVSPost2010PropOp32
 70
     1
102
RTVSPost2010Prop33
280
     0
102
RTVSPost2010PropOp33
 70
     1
102
RTVSPost2010Prop34
280
     0
102
RTVSPost2010PropOp34
 70
     1
102
RTVSPost2010Prop35
280
     0
102
RTVSPost2010PropOp35
 70
     1
102
RTVSPost2010Prop36
280
     0
102
RTVSPost2010PropOp36
 70
     1
102
RTVSPost2010Prop37
 90
       50
102
RTVSPost2010PropOp37
 70
     1
102
RTVSPost2010Prop38
140
0.0
102
RTVSPost2010PropOp38
 70
     1
102
RTVSPost2010Prop39
140
1.0
102
RTVSPost2010PropOp39
 70
     1
102
RTVSPost2010Prop40
 90
        0
102
RTVSPost2010PropOp40
 70
     1
102
RTVSPost2010Prop41ColorIndex
 90
       18
102
RTVSPost2010Prop41ColorRGB
 90
        0
102
RTVSPost2010PropOp41
 70
     1
102
RTVSPost2010Prop42
 90
       50
102
RTVSPost2010PropOp42
 70
     1
102
RTVSPost2010Prop43
 90
        3
102
RTVSPost2010PropOp43
 70
     1
102
RTVSPost2010Prop44ColorIndex
 90
        5
102
RTVSPost2010Prop44ColorRGB
 90
      255
102
RTVSPost2010PropOp44
 70
     1
102
RTVSPost2010Prop45
280
     0
102
RTVSPost2010PropOp45
 70
     1
102
RTVSPost2010Prop46
 90
       50
102
RTVSPost2010PropOp46
 70
     1
102
RTVSPost2010Prop47
 90
       50
102
RTVSPost2010PropOp47
 70
     1
102
RTVSPost2010Prop48
 90
       50
102
RTVSPost2010PropOp48
 70
     1
102
RTVSPost2010Prop49
280
     0
102
RTVSPost2010PropOp49
 70
     1
102
RTVSPost2010Prop50
 90
       50
102
RTVSPost2010PropOp50
 70
     1
102
RTVSPost2010Prop51ColorIndex
 90
      256
102
RTVSPost2010Prop51ColorRGB
 90
-16777216
102
RTVSPost2010PropOp51
 70
     0
102
RTVSPost2010Prop52
140
1.0
102
RTVSPost2010PropOp52
 70
     0
102
RTVSPost2010Prop53
 90
        2
102
RTVSPost2010PropOp53
 70
     1
102
RTVSPost2010Prop54
  1
strokes_ogs.tif
102
RTVSPost2010PropOp54
 70
     1
102
RTVSPost2010Prop55
280
     0
102
RTVSPost2010PropOp55
 70
     1
102
RTVSPost2010Prop56
140
1.0
102
RTVSPost2010PropOp56
 70
     1
102
RTVSPost2010Prop57
140
1.0
102
RTVSPost2010PropOp57
 70
     1
102
RTVSPropertyOp0
 70
     1
102
RTVSPropertyOp1
 70
     1
102
RTVSPropertyOp2
 70
     1
102
RTVSPropertyOp3
 70
     1
102
RTVSPropertyOp4
 70
     1
102
RTVSPropertyOp5
 70
     1
102
RTVSPropertyOp6
 70
     1
102
RTVSPropertyOp7
 70
     1
102
RTVSPropertyOp8
 70
     1
102
RTVSPropertyOp9
 70
     1
102
RTVSPropertyOp10
 70
     1
102
RTVSPropertyOp11
 70
     1
102
RTVSPropertyOp12
 70
     1
102
RTVSPropertyOp13
 70
     1
102
RTVSPropertyOp14
 70
     1
102
RTVSPropertyOp15
 70
     1
102
RTVSPropertyOp16
 70
     1
102
RTVSPropertyOp17
 70
     1
102
RTVSPropertyOp18
 70
     1
102
RTVSPropertyOp19
 70
     1
102
RTVSPropertyOp20
 70
     1
102
RTVSPropertyOp21
 70
     1
102
RTVSPropertyOp22
 70
     1
102
RTVSPropertyOp23
 70
     1
102
RTVSPropertyOp24
 70
     1
102
RTVSPropertyOp25
 70
     1
102
RTVSPropertyOp26
 70
     1
102
RTVSPropertyOp27
 70
     1
102
RTVSPropertyOp28
 70
     1
102
RTVSPropertyOp29
 70
     1
102
RTVSPropertyOp30
 70
     1
102
RTVSPropertyOp31
 70
     1
102
RTVSPropertyOp32
 70
     1
102
RTVSPropertyOp33
 70
     1
102
RTVSPropertyOp34
 70
     1
102
RTVSPropertyOp35
 70
     1
102
RTVSPropertyOp36
 70
     1
102
RTVSPropertyOp37
 70
     1
102
RTVSPropertyOp38
 70
     1
102
RTVSPropertyOp39
 70
     1
102
RTVSPropertyOp40
 70
     1
102
RTVSPropertyOp41
 70
     1
102
RTVSPropertyOp42
 70
     1
102
RTVSPropertyOp43
 70
     1
102
RTVSPropertyOp44
 70
     1
102
RTVSPropertyOp45
 70
     1
102
RTVSPropertyOp46
 70
     1
102
RTVSPropertyOp47
 70
     1
102
RTVSPropertyOp48
 70
     1
102
RTVSPropertyOp49
 70
     1
102
RTVSPropertyOp50
 70
     1
102
RTVSPropertyOp51
 70
     0
102
RTVSPropertyOp52
 70
     0
102
RTVSPropertyOp53
 70
     1
102
RTVSPropertyOp54
 70
     1
102
RTVSPropertyOp55
 70
     1
102
RTVSPropertyOp56
 70
     1
102
RTVSPropertyOp57
 70
     1
102
RTVSPropertyOp58
 70
     1
102
RTVSPropertyOp59
 70
     1
102
RTVSPropertyOp60
 70
     1
102
RTVSPropertyOp61
 70
     1
102
RTVSPropertyOp62
 70
     1
  0
XRECORD
  5
51C
102
{ACAD_REACTORS
330
51B
102
}
330
51B
100
AcDbXrecord
280
     1
102
RTVSPost2010Prop28
280
     0
102
RTVSPost2010PropOp28
 70
     1
102
RTVSPost2010Prop29
280
     1
102
RTVSPost2010PropOp29
 70
     1
102
RTVSPost2010Prop30
280
     1
102
RTVSPost2010PropOp30
 70
     1
102
RTVSPost2010Prop31
280
     0
102
RTVSPost2010PropOp31
 70
     1
102
RTVSPost2010Prop32
280
     0
102
RTVSPost2010PropOp32
 70
     1
102
RTVSPost2010Prop33
280
     0
102
RTVSPost2010PropOp33
 70
     1
102
RTVSPost2010Prop34
280
     0
102
RTVSPost2010PropOp34
 70
     1
102
RTVSPost2010Prop35
280
     0
102
RTVSPost2010PropOp35
 70
     1
102
RTVSPost2010Prop36
280
     0
102
RTVSPost2010PropOp36
 70
     1
102
RTVSPost2010Prop37
 90
       50
102
RTVSPost2010PropOp37
 70
     1
102
RTVSPost2010Prop38
140
0.0
102
RTVSPost2010PropOp38
 70
     1
102
RTVSPost2010Prop39
140
1.0
102
RTVSPost2010PropOp39
 70
     1
102
RTVSPost2010Prop40
 90
        0
102
RTVSPost2010PropOp40
 70
     1
102
RTVSPost2010Prop41ColorIndex
 90
       18
102
RTVSPost2010Prop41ColorRGB
 90
        0
102
RTVSPost2010PropOp41
 70
     1
102
RTVSPost2010Prop42
 90
       50
102
RTVSPost2010PropOp42
 70
     1
102
RTVSPost2010Prop43
 90
        3
102
RTVSPost2010PropOp43
 70
     1
102
RTVSPost2010Prop44ColorIndex
 90
        5
102
RTVSPost2010Prop44ColorRGB
 90
      255
102
RTVSPost2010PropOp44
 70
     1
102
RTVSPost2010Prop45
280
     0
102
RTVSPost2010PropOp45
 70
     1
102
RTVSPost2010Prop46
 90
       50
102
RTVSPost2010PropOp46
 70
     1
102
RTVSPost2010Prop47
 90
       50
102
RTVSPost2010PropOp47
 70
     1
102
RTVSPost2010Prop48
 90
       50
102
RTVSPost2010PropOp48
 70
     1
102
RTVSPost2010Prop49
280
     0
102
RTVSPost2010PropOp49
 70
     1
102
RTVSPost2010Prop50
 90
       50
102
RTVSPost2010PropOp50
 70
     1
102
RTVSPost2010Prop51ColorIndex
 90
      256
102
RTVSPost2010Prop51ColorRGB
 90
-16777216
102
RTVSPost2010PropOp51
 70
     0
102
RTVSPost2010Prop52
140
1.0
102
RTVSPost2010PropOp52
 70
     0
102
RTVSPost2010Prop53
 90
        2
102
RTVSPost2010PropOp53
 70
     1
102
RTVSPost2010Prop54
  1
strokes_ogs.tif
102
RTVSPost2010PropOp54
 70
     1
102
RTVSPost2010Prop55
280
     0
102
RTVSPost2010PropOp55
 70
     1
102
RTVSPost2010Prop56
140
1.0
102
RTVSPost2010PropOp56
 70
     1
102
RTVSPost2010Prop57
140
1.0
102
RTVSPost2010PropOp57
 70
     1
102
RTVSPropertyOp0
 70
     1
102
RTVSPropertyOp1
 70
     1
102
RTVSPropertyOp2
 70
     1
102
RTVSPropertyOp3
 70
     1
102
RTVSPropertyOp4
 70
     1
102
RTVSPropertyOp5
 70
     1
102
RTVSPropertyOp6
 70
     1
102
RTVSPropertyOp7
 70
     1
102
RTVSPropertyOp8
 70
     1
102
RTVSPropertyOp9
 70
     1
102
RTVSPropertyOp10
 70
     1
102
RTVSPropertyOp11
 70
     1
102
RTVSPropertyOp12
 70
     1
102
RTVSPropertyOp13
 70
     1
102
RTVSPropertyOp14
 70
     1
102
RTVSPropertyOp15
 70
     1
102
RTVSPropertyOp16
 70
     1
102
RTVSPropertyOp17
 70
     1
102
RTVSPropertyOp18
 70
     1
102
RTVSPropertyOp19
 70
     1
102
RTVSPropertyOp20
 70
     1
102
RTVSPropertyOp21
 70
     1
102
RTVSPropertyOp22
 70
     1
102
RTVSPropertyOp23
 70
     1
102
RTVSPropertyOp24
 70
     1
102
RTVSPropertyOp25
 70
     1
102
RTVSPropertyOp26
 70
     1
102
RTVSPropertyOp27
 70
     1
102
RTVSPropertyOp28
 70
     1
102
RTVSPropertyOp29
 70
     1
102
RTVSPropertyOp30
 70
     1
102
RTVSPropertyOp31
 70
     1
102
RTVSPropertyOp32
 70
     1
102
RTVSPropertyOp33
 70
     1
102
RTVSPropertyOp34
 70
     1
102
RTVSPropertyOp35
 70
     1
102
RTVSPropertyOp36
 70
     1
102
RTVSPropertyOp37
 70
     1
102
RTVSPropertyOp38
 70
     1
102
RTVSPropertyOp39
 70
     1
102
RTVSPropertyOp40
 70
     1
102
RTVSPropertyOp41
 70
     1
102
RTVSPropertyOp42
 70
     1
102
RTVSPropertyOp43
 70
     1
102
RTVSPropertyOp44
 70
     1
102
RTVSPropertyOp45
 70
     1
102
RTVSPropertyOp46
 70
     1
102
RTVSPropertyOp47
 70
     1
102
RTVSPropertyOp48
 70
     1
102
RTVSPropertyOp49
 70
     1
102
RTVSPropertyOp50
 70
     1
102
RTVSPropertyOp51
 70
     0
102
RTVSPropertyOp52
 70
     0
102
RTVSPropertyOp53
 70
     1
102
RTVSPropertyOp54
 70
     1
102
RTVSPropertyOp55
 70
     1
102
RTVSPropertyOp56
 70
     1
102
RTVSPropertyOp57
 70
     1
102
RTVSPropertyOp58
 70
     1
102
RTVSPropertyOp59
 70
     1
102
RTVSPropertyOp60
 70
     1
102
RTVSPropertyOp61
 70
     1
102
RTVSPropertyOp62
 70
     1
  0
XRECORD
  5
520
102
{ACAD_REACTORS
330
51F
102
}
330
51F
100
AcDbXrecord
280
     1
102
RTVSPost2010Prop28
280
     0
102
RTVSPost2010PropOp28
 70
     1
102
RTVSPost2010Prop29
280
     1
102
RTVSPost2010PropOp29
 70
     1
102
RTVSPost2010Prop30
280
     1
102
RTVSPost2010PropOp30
 70
     1
102
RTVSPost2010Prop31
280
     0
102
RTVSPost2010PropOp31
 70
     1
102
RTVSPost2010Prop32
280
     0
102
RTVSPost2010PropOp32
 70
     1
102
RTVSPost2010Prop33
280
     0
102
RTVSPost2010PropOp33
 70
     1
102
RTVSPost2010Prop34
280
     0
102
RTVSPost2010PropOp34
 70
     1
102
RTVSPost2010Prop35
280
     0
102
RTVSPost2010PropOp35
 70
     1
102
RTVSPost2010Prop36
280
     0
102
RTVSPost2010PropOp36
 70
     1
102
RTVSPost2010Prop37
 90
       50
102
RTVSPost2010PropOp37
 70
     1
102
RTVSPost2010Prop38
140
0.0
102
RTVSPost2010PropOp38
 70
     1
102
RTVSPost2010Prop39
140
1.0
102
RTVSPost2010PropOp39
 70
     1
102
RTVSPost2010Prop40
 90
        0
102
RTVSPost2010PropOp40
 70
     1
102
RTVSPost2010Prop41ColorIndex
 90
       18
102
RTVSPost2010Prop41ColorRGB
 90
        0
102
RTVSPost2010PropOp41
 70
     1
102
RTVSPost2010Prop42
 90
       50
102
RTVSPost2010PropOp42
 70
     1
102
RTVSPost2010Prop43
 90
        3
102
RTVSPost2010PropOp43
 70
     1
102
RTVSPost2010Prop44ColorIndex
 90
        5
102
RTVSPost2010Prop44ColorRGB
 90
      255
102
RTVSPost2010PropOp44
 70
     1
102
RTVSPost2010Prop45
280
     0
102
RTVSPost2010PropOp45
 70
     1
102
RTVSPost2010Prop46
 90
       50
102
RTVSPost2010PropOp46
 70
     1
102
RTVSPost2010Prop47
 90
       50
102
RTVSPost2010PropOp47
 70
     1
102
RTVSPost2010Prop48
 90
       50
102
RTVSPost2010PropOp48
 70
     1
102
RTVSPost2010Prop49
280
     0
102
RTVSPost2010PropOp49
 70
     1
102
RTVSPost2010Prop50
 90
       50
102
RTVSPost2010PropOp50
 70
     1
102
RTVSPost2010Prop51ColorIndex
 90
      256
102
RTVSPost2010Prop51ColorRGB
 90
-16777216
102
RTVSPost2010PropOp51
 70
     0
102
RTVSPost2010Prop52
140
1.0
102
RTVSPost2010PropOp52
 70
     0
102
RTVSPost2010Prop53
 90
        2
102
RTVSPost2010PropOp53
 70
     1
102
RTVSPost2010Prop54
  1
strokes_ogs.tif
102
RTVSPost2010PropOp54
 70
     1
102
RTVSPost2010Prop55
280
     0
102
RTVSPost2010PropOp55
 70
     1
102
RTVSPost2010Prop56
140
1.0
102
RTVSPost2010PropOp56
 70
     1
102
RTVSPost2010Prop57
140
1.0
102
RTVSPost2010PropOp57
 70
     1
102
RTVSPropertyOp0
 70
     1
102
RTVSPropertyOp1
 70
     1
102
RTVSPropertyOp2
 70
     1
102
RTVSPropertyOp3
 70
     1
102
RTVSPropertyOp4
 70
     1
102
RTVSPropertyOp5
 70
     1
102
RTVSPropertyOp6
 70
     1
102
RTVSPropertyOp7
 70
     1
102
RTVSPropertyOp8
 70
     1
102
RTVSPropertyOp9
 70
     1
102
RTVSPropertyOp10
 70
     1
102
RTVSPropertyOp11
 70
     1
102
RTVSPropertyOp12
 70
     1
102
RTVSPropertyOp13
 70
     1
102
RTVSPropertyOp14
 70
     1
102
RTVSPropertyOp15
 70
     1
102
RTVSPropertyOp16
 70
     1
102
RTVSPropertyOp17
 70
     1
102
RTVSPropertyOp18
 70
     1
102
RTVSPropertyOp19
 70
     1
102
RTVSPropertyOp20
 70
     1
102
RTVSPropertyOp21
 70
     1
102
RTVSPropertyOp22
 70
     1
102
RTVSPropertyOp23
 70
     1
102
RTVSPropertyOp24
 70
     1
102
RTVSPropertyOp25
 70
     1
102
RTVSPropertyOp26
 70
     1
102
RTVSPropertyOp27
 70
     1
102
RTVSPropertyOp28
 70
     1
102
RTVSPropertyOp29
 70
     1
102
RTVSPropertyOp30
 70
     1
102
RTVSPropertyOp31
 70
     1
102
RTVSPropertyOp32
 70
     1
102
RTVSPropertyOp33
 70
     1
102
RTVSPropertyOp34
 70
     1
102
RTVSPropertyOp35
 70
     1
102
RTVSPropertyOp36
 70
     1
102
RTVSPropertyOp37
 70
     1
102
RTVSPropertyOp38
 70
     1
102
RTVSPropertyOp39
 70
     1
102
RTVSPropertyOp40
 70
     1
102
RTVSPropertyOp41
 70
     1
102
RTVSPropertyOp42
 70
     1
102
RTVSPropertyOp43
 70
     1
102
RTVSPropertyOp44
 70
     1
102
RTVSPropertyOp45
 70
     1
102
RTVSPropertyOp46
 70
     1
102
RTVSPropertyOp47
 70
     1
102
RTVSPropertyOp48
 70
     1
102
RTVSPropertyOp49
 70
     1
102
RTVSPropertyOp50
 70
     1
102
RTVSPropertyOp51
 70
     0
102
RTVSPropertyOp52
 70
     0
102
RTVSPropertyOp53
 70
     1
102
RTVSPropertyOp54
 70
     1
102
RTVSPropertyOp55
 70
     1
102
RTVSPropertyOp56
 70
     1
102
RTVSPropertyOp57
 70
     1
102
RTVSPropertyOp58
 70
     1
102
RTVSPropertyOp59
 70
     1
102
RTVSPropertyOp60
 70
     1
102
RTVSPropertyOp61
 70
     1
102
RTVSPropertyOp62
 70
     1
  0
XRECORD
  5
53A
102
{ACAD_REACTORS
330
539
102
}
330
539
100
AcDbXrecord
280
     1
102
RTVSPost2010Prop28
280
     0
102
RTVSPost2010PropOp28
 70
     1
102
RTVSPost2010Prop29
280
     1
102
RTVSPost2010PropOp29
 70
     1
102
RTVSPost2010Prop30
280
     1
102
RTVSPost2010PropOp30
 70
     1
102
RTVSPost2010Prop31
280
     0
102
RTVSPost2010PropOp31
 70
     1
102
RTVSPost2010Prop32
280
     0
102
RTVSPost2010PropOp32
 70
     1
102
RTVSPost2010Prop33
280
     0
102
RTVSPost2010PropOp33
 70
     1
102
RTVSPost2010Prop34
280
     0
102
RTVSPost2010PropOp34
 70
     1
102
RTVSPost2010Prop35
280
     0
102
RTVSPost2010PropOp35
 70
     1
102
RTVSPost2010Prop36
280
     0
102
RTVSPost2010PropOp36
 70
     1
102
RTVSPost2010Prop37
 90
       50
102
RTVSPost2010PropOp37
 70
     0
102
RTVSPost2010Prop38
140
0.0
102
RTVSPost2010PropOp38
 70
     0
102
RTVSPost2010Prop39
140
1.0
102
RTVSPost2010PropOp39
 70
     0
102
RTVSPost2010Prop40
 90
        0
102
RTVSPost2010PropOp40
 70
     0
102
RTVSPost2010Prop41ColorIndex
 90
       18
102
RTVSPost2010Prop41ColorRGB
 90
        0
102
RTVSPost2010PropOp41
 70
     0
102
RTVSPost2010Prop42
 90
       50
102
RTVSPost2010PropOp42
 70
     0
102
RTVSPost2010Prop43
 90
        3
102
RTVSPost2010PropOp43
 70
     0
102
RTVSPost2010Prop44ColorIndex
 90
        5
102
RTVSPost2010Prop44ColorRGB
 90
      255
102
RTVSPost2010PropOp44
 70
     0
102
RTVSPost2010Prop45
280
     0
102
RTVSPost2010PropOp45
 70
     1
102
RTVSPost2010Prop46
 90
       50
102
RTVSPost2010PropOp46
 70
     0
102
RTVSPost2010Prop47
 90
       50
102
RTVSPost2010PropOp47
 70
     0
102
RTVSPost2010Prop48
 90
       50
102
RTVSPost2010PropOp48
 70
     0
102
RTVSPost2010Prop49
280
     0
102
RTVSPost2010PropOp49
 70
     1
102
RTVSPost2010Prop50
 90
       50
102
RTVSPost2010PropOp50
 70
     0
102
RTVSPost2010Prop51ColorIndex
 90
      256
102
RTVSPost2010Prop51ColorRGB
 90
-16777216
102
RTVSPost2010PropOp51
 70
     0
102
RTVSPost2010Prop52
140
1.0
102
RTVSPost2010PropOp52
 70
     0
102
RTVSPost2010Prop53
 90
        2
102
RTVSPost2010PropOp53
 70
     0
102
RTVSPost2010Prop54
  1
strokes_ogs.tif
102
RTVSPost2010PropOp54
 70
     0
102
RTVSPost2010Prop55
280
     0
102
RTVSPost2010PropOp55
 70
     1
102
RTVSPost2010Prop56
140
1.0
102
RTVSPost2010PropOp56
 70
     0
102
RTVSPost2010Prop57
140
1.0
102
RTVSPost2010PropOp57
 70
     0
102
RTVSPropertyOp0
 70
     0
102
RTVSPropertyOp1
 70
     0
102
RTVSPropertyOp2
 70
     0
102
RTVSPropertyOp3
 70
     0
102
RTVSPropertyOp4
 70
     0
102
RTVSPropertyOp5
 70
     0
102
RTVSPropertyOp6
 70
     0
102
RTVSPropertyOp7
 70
     0
102
RTVSPropertyOp8
 70
     0
102
RTVSPropertyOp9
 70
     0
102
RTVSPropertyOp10
 70
     0
102
RTVSPropertyOp11
 70
     0
102
RTVSPropertyOp12
 70
     0
102
RTVSPropertyOp13
 70
     0
102
RTVSPropertyOp14
 70
     2
102
RTVSPropertyOp15
 70
     0
102
RTVSPropertyOp16
 70
     0
102
RTVSPropertyOp17
 70
     0
102
RTVSPropertyOp18
 70
     0
102
RTVSPropertyOp19
 70
     0
102
RTVSPropertyOp20
 70
     0
102
RTVSPropertyOp21
 70
     0
102
RTVSPropertyOp22
 70
     0
102
RTVSPropertyOp23
 70
     0
102
RTVSPropertyOp24
 70
     0
102
RTVSPropertyOp25
 70
     0
102
RTVSPropertyOp26
 70
     0
102
RTVSPropertyOp27
 70
     0
102
RTVSPropertyOp28
 70
     1
102
RTVSPropertyOp29
 70
     1
102
RTVSPropertyOp30
 70
     1
102
RTVSPropertyOp31
 70
     1
102
RTVSPropertyOp32
 70
     1
102
RTVSPropertyOp33
 70
     1
102
RTVSPropertyOp34
 70
     1
102
RTVSPropertyOp35
 70
     1
102
RTVSPropertyOp36
 70
     1
102
RTVSPropertyOp37
 70
     0
102
RTVSPropertyOp38
 70
     0
102
RTVSPropertyOp39
 70
     0
102
RTVSPropertyOp40
 70
     0
102
RTVSPropertyOp41
 70
     0
102
RTVSPropertyOp42
 70
     0
102
RTVSPropertyOp43
 70
     0
102
RTVSPropertyOp44
 70
     0
102
RTVSPropertyOp45
 70
     1
102
RTVSPropertyOp46
 70
     0
102
RTVSPropertyOp47
 70
     0
102
RTVSPropertyOp48
 70
     0
102
RTVSPropertyOp49
 70
     1
102
RTVSPropertyOp50
 70
     0
102
RTVSPropertyOp51
 70
     0
102
RTVSPropertyOp52
 70
     0
102
RTVSPropertyOp53
 70
     0
102
RTVSPropertyOp54
 70
     0
102
RTVSPropertyOp55
 70
     1
102
RTVSPropertyOp56
 70
     0
102
RTVSPropertyOp57
 70
     0
102
RTVSPropertyOp58
 70
     0
102
RTVSPropertyOp59
 70
     0
102
RTVSPropertyOp60
 70
     0
102
RTVSPropertyOp61
 70
     0
102
RTVSPropertyOp62
 70
     0
  0
XRECORD
  5
528
102
{ACAD_REACTORS
330
527
102
}
330
527
100
AcDbXrecord
280
     1
102
RTVSPost2010Prop28
280
     0
102
RTVSPost2010PropOp28
 70
     1
102
RTVSPost2010Prop29
280
     1
102
RTVSPost2010PropOp29
 70
     1
102
RTVSPost2010Prop30
280
     1
102
RTVSPost2010PropOp30
 70
     1
102
RTVSPost2010Prop31
280
     0
102
RTVSPost2010PropOp31
 70
     1
102
RTVSPost2010Prop32
280
     0
102
RTVSPost2010PropOp32
 70
     1
102
RTVSPost2010Prop33
280
     0
102
RTVSPost2010PropOp33
 70
     1
102
RTVSPost2010Prop34
280
     0
102
RTVSPost2010PropOp34
 70
     1
102
RTVSPost2010Prop35
280
     0
102
RTVSPost2010PropOp35
 70
     1
102
RTVSPost2010Prop36
280
     0
102
RTVSPost2010PropOp36
 70
     1
102
RTVSPost2010Prop37
 90
       50
102
RTVSPost2010PropOp37
 70
     1
102
RTVSPost2010Prop38
140
0.0
102
RTVSPost2010PropOp38
 70
     1
102
RTVSPost2010Prop39
140
1.0
102
RTVSPost2010PropOp39
 70
     1
102
RTVSPost2010Prop40
 90
        0
102
RTVSPost2010PropOp40
 70
     1
102
RTVSPost2010Prop41ColorIndex
 90
       18
102
RTVSPost2010Prop41ColorRGB
 90
        0
102
RTVSPost2010PropOp41
 70
     1
102
RTVSPost2010Prop42
 90
       50
102
RTVSPost2010PropOp42
 70
     1
102
RTVSPost2010Prop43
 90
        3
102
RTVSPost2010PropOp43
 70
     1
102
RTVSPost2010Prop44ColorIndex
 90
        5
102
RTVSPost2010Prop44ColorRGB
 90
      255
102
RTVSPost2010PropOp44
 70
     1
102
RTVSPost2010Prop45
280
     0
102
RTVSPost2010PropOp45
 70
     1
102
RTVSPost2010Prop46
 90
       50
102
RTVSPost2010PropOp46
 70
     1
102
RTVSPost2010Prop47
 90
       50
102
RTVSPost2010PropOp47
 70
     1
102
RTVSPost2010Prop48
 90
       50
102
RTVSPost2010PropOp48
 70
     1
102
RTVSPost2010Prop49
280
     0
102
RTVSPost2010PropOp49
 70
     1
102
RTVSPost2010Prop50
 90
       50
102
RTVSPost2010PropOp50
 70
     1
102
RTVSPost2010Prop51ColorIndex
 90
      256
102
RTVSPost2010Prop51ColorRGB
 90
-16777216
102
RTVSPost2010PropOp51
 70
     0
102
RTVSPost2010Prop52
140
1.0
102
RTVSPost2010PropOp52
 70
     0
102
RTVSPost2010Prop53
 90
        2
102
RTVSPost2010PropOp53
 70
     1
102
RTVSPost2010Prop54
  1
strokes_ogs.tif
102
RTVSPost2010PropOp54
 70
     1
102
RTVSPost2010Prop55
280
     0
102
RTVSPost2010PropOp55
 70
     1
102
RTVSPost2010Prop56
140
1.0
102
RTVSPost2010PropOp56
 70
     1
102
RTVSPost2010Prop57
140
1.0
102
RTVSPost2010PropOp57
 70
     1
102
RTVSPropertyOp0
 70
     1
102
RTVSPropertyOp1
 70
     1
102
RTVSPropertyOp2
 70
     1
102
RTVSPropertyOp3
 70
     1
102
RTVSPropertyOp4
 70
     1
102
RTVSPropertyOp5
 70
     1
102
RTVSPropertyOp6
 70
     1
102
RTVSPropertyOp7
 70
     1
102
RTVSPropertyOp8
 70
     1
102
RTVSPropertyOp9
 70
     1
102
RTVSPropertyOp10
 70
     1
102
RTVSPropertyOp11
 70
     1
102
RTVSPropertyOp12
 70
     1
102
RTVSPropertyOp13
 70
     1
102
RTVSPropertyOp14
 70
     1
102
RTVSPropertyOp15
 70
     1
102
RTVSPropertyOp16
 70
     1
102
RTVSPropertyOp17
 70
     1
102
RTVSPropertyOp18
 70
     1
102
RTVSPropertyOp19
 70
     1
102
RTVSPropertyOp20
 70
     1
102
RTVSPropertyOp21
 70
     1
102
RTVSPropertyOp22
 70
     1
102
RTVSPropertyOp23
 70
     1
102
RTVSPropertyOp24
 70
     1
102
RTVSPropertyOp25
 70
     1
102
RTVSPropertyOp26
 70
     1
102
RTVSPropertyOp27
 70
     1
102
RTVSPropertyOp28
 70
     1
102
RTVSPropertyOp29
 70
     1
102
RTVSPropertyOp30
 70
     1
102
RTVSPropertyOp31
 70
     1
102
RTVSPropertyOp32
 70
     1
102
RTVSPropertyOp33
 70
     1
102
RTVSPropertyOp34
 70
     1
102
RTVSPropertyOp35
 70
     1
102
RTVSPropertyOp36
 70
     1
102
RTVSPropertyOp37
 70
     1
102
RTVSPropertyOp38
 70
     1
102
RTVSPropertyOp39
 70
     1
102
RTVSPropertyOp40
 70
     1
102
RTVSPropertyOp41
 70
     1
102
RTVSPropertyOp42
 70
     1
102
RTVSPropertyOp43
 70
     1
102
RTVSPropertyOp44
 70
     1
102
RTVSPropertyOp45
 70
     1
102
RTVSPropertyOp46
 70
     1
102
RTVSPropertyOp47
 70
     1
102
RTVSPropertyOp48
 70
     1
102
RTVSPropertyOp49
 70
     1
102
RTVSPropertyOp50
 70
     1
102
RTVSPropertyOp51
 70
     0
102
RTVSPropertyOp52
 70
     0
102
RTVSPropertyOp53
 70
     1
102
RTVSPropertyOp54
 70
     1
102
RTVSPropertyOp55
 70
     1
102
RTVSPropertyOp56
 70
     1
102
RTVSPropertyOp57
 70
     1
102
RTVSPropertyOp58
 70
     1
102
RTVSPropertyOp59
 70
     1
102
RTVSPropertyOp60
 70
     1
102
RTVSPropertyOp61
 70
     1
102
RTVSPropertyOp62
 70
     1
  0
XRECORD
  5
50C
102
{ACAD_REACTORS
330
50B
102
}
330
50B
100
AcDbXrecord
280
     1
102
RTVSPost2010Prop28
280
     0
102
RTVSPost2010PropOp28
 70
     1
102
RTVSPost2010Prop29
280
     1
102
RTVSPost2010PropOp29
 70
     1
102
RTVSPost2010Prop30
280
     1
102
RTVSPost2010PropOp30
 70
     1
102
RTVSPost2010Prop31
280
     0
102
RTVSPost2010PropOp31
 70
     1
102
RTVSPost2010Prop32
280
     0
102
RTVSPost2010PropOp32
 70
     1
102
RTVSPost2010Prop33
280
     0
102
RTVSPost2010PropOp33
 70
     1
102
RTVSPost2010Prop34
280
     0
102
RTVSPost2010PropOp34
 70
     1
102
RTVSPost2010Prop35
280
     0
102
RTVSPost2010PropOp35
 70
     1
102
RTVSPost2010Prop36
280
     0
102
RTVSPost2010PropOp36
 70
     1
102
RTVSPost2010Prop37
 90
       50
102
RTVSPost2010PropOp37
 70
     1
102
RTVSPost2010Prop38
140
0.0
102
RTVSPost2010PropOp38
 70
     1
102
RTVSPost2010Prop39
140
1.0
102
RTVSPost2010PropOp39
 70
     1
102
RTVSPost2010Prop40
 90
        0
102
RTVSPost2010PropOp40
 70
     1
102
RTVSPost2010Prop41ColorIndex
 90
       18
102
RTVSPost2010Prop41ColorRGB
 90
        0
102
RTVSPost2010PropOp41
 70
     1
102
RTVSPost2010Prop42
 90
       50
102
RTVSPost2010PropOp42
 70
     1
102
RTVSPost2010Prop43
 90
        3
102
RTVSPost2010PropOp43
 70
     1
102
RTVSPost2010Prop44ColorIndex
 90
        5
102
RTVSPost2010Prop44ColorRGB
 90
      255
102
RTVSPost2010PropOp44
 70
     1
102
RTVSPost2010Prop45
280
     0
102
RTVSPost2010PropOp45
 70
     1
102
RTVSPost2010Prop46
 90
       50
102
RTVSPost2010PropOp46
 70
     1
102
RTVSPost2010Prop47
 90
       50
102
RTVSPost2010PropOp47
 70
     1
102
RTVSPost2010Prop48
 90
       50
102
RTVSPost2010PropOp48
 70
     1
102
RTVSPost2010Prop49
280
     0
102
RTVSPost2010PropOp49
 70
     1
102
RTVSPost2010Prop50
 90
       50
102
RTVSPost2010PropOp50
 70
     1
102
RTVSPost2010Prop51ColorIndex
 90
      256
102
RTVSPost2010Prop51ColorRGB
 90
-16777216
102
RTVSPost2010PropOp51
 70
     0
102
RTVSPost2010Prop52
140
1.0
102
RTVSPost2010PropOp52
 70
     0
102
RTVSPost2010Prop53
 90
        2
102
RTVSPost2010PropOp53
 70
     1
102
RTVSPost2010Prop54
  1
strokes_ogs.tif
102
RTVSPost2010PropOp54
 70
     1
102
RTVSPost2010Prop55
280
     0
102
RTVSPost2010PropOp55
 70
     1
102
RTVSPost2010Prop56
140
1.0
102
RTVSPost2010PropOp56
 70
     1
102
RTVSPost2010Prop57
140
1.0
102
RTVSPost2010PropOp57
 70
     1
102
RTVSPropertyOp0
 70
     1
102
RTVSPropertyOp1
 70
     1
102
RTVSPropertyOp2
 70
     1
102
RTVSPropertyOp3
 70
     1
102
RTVSPropertyOp4
 70
     1
102
RTVSPropertyOp5
 70
     1
102
RTVSPropertyOp6
 70
     1
102
RTVSPropertyOp7
 70
     1
102
RTVSPropertyOp8
 70
     1
102
RTVSPropertyOp9
 70
     1
102
RTVSPropertyOp10
 70
     1
102
RTVSPropertyOp11
 70
     1
102
RTVSPropertyOp12
 70
     1
102
RTVSPropertyOp13
 70
     1
102
RTVSPropertyOp14
 70
     1
102
RTVSPropertyOp15
 70
     1
102
RTVSPropertyOp16
 70
     1
102
RTVSPropertyOp17
 70
     1
102
RTVSPropertyOp18
 70
     1
102
RTVSPropertyOp19
 70
     1
102
RTVSPropertyOp20
 70
     1
102
RTVSPropertyOp21
 70
     1
102
RTVSPropertyOp22
 70
     1
102
RTVSPropertyOp23
 70
     1
102
RTVSPropertyOp24
 70
     1
102
RTVSPropertyOp25
 70
     1
102
RTVSPropertyOp26
 70
     1
102
RTVSPropertyOp27
 70
     1
102
RTVSPropertyOp28
 70
     1
102
RTVSPropertyOp29
 70
     1
102
RTVSPropertyOp30
 70
     1
102
RTVSPropertyOp31
 70
     1
102
RTVSPropertyOp32
 70
     1
102
RTVSPropertyOp33
 70
     1
102
RTVSPropertyOp34
 70
     1
102
RTVSPropertyOp35
 70
     1
102
RTVSPropertyOp36
 70
     1
102
RTVSPropertyOp37
 70
     1
102
RTVSPropertyOp38
 70
     1
102
RTVSPropertyOp39
 70
     1
102
RTVSPropertyOp40
 70
     1
102
RTVSPropertyOp41
 70
     1
102
RTVSPropertyOp42
 70
     1
102
RTVSPropertyOp43
 70
     1
102
RTVSPropertyOp44
 70
     1
102
RTVSPropertyOp45
 70
     1
102
RTVSPropertyOp46
 70
     1
102
RTVSPropertyOp47
 70
     1
102
RTVSPropertyOp48
 70
     1
102
RTVSPropertyOp49
 70
     1
102
RTVSPropertyOp50
 70
     1
102
RTVSPropertyOp51
 70
     0
102
RTVSPropertyOp52
 70
     0
102
RTVSPropertyOp53
 70
     1
102
RTVSPropertyOp54
 70
     1
102
RTVSPropertyOp55
 70
     1
102
RTVSPropertyOp56
 70
     1
102
RTVSPropertyOp57
 70
     1
102
RTVSPropertyOp58
 70
     1
102
RTVSPropertyOp59
 70
     1
102
RTVSPropertyOp60
 70
     1
102
RTVSPropertyOp61
 70
     1
102
RTVSPropertyOp62
 70
     1
  0
XRECORD
  5
50E
102
{ACAD_REACTORS
330
50D
102
}
330
50D
100
AcDbXrecord
280
     1
102
RTVSPost2010Prop28
280
     0
102
RTVSPost2010PropOp28
 70
     1
102
RTVSPost2010Prop29
280
     1
102
RTVSPost2010PropOp29
 70
     1
102
RTVSPost2010Prop30
280
     1
102
RTVSPost2010PropOp30
 70
     1
102
RTVSPost2010Prop31
280
     0
102
RTVSPost2010PropOp31
 70
     1
102
RTVSPost2010Prop32
280
     0
102
RTVSPost2010PropOp32
 70
     1
102
RTVSPost2010Prop33
280
     0
102
RTVSPost2010PropOp33
 70
     1
102
RTVSPost2010Prop34
280
     0
102
RTVSPost2010PropOp34
 70
     1
102
RTVSPost2010Prop35
280
     0
102
RTVSPost2010PropOp35
 70
     1
102
RTVSPost2010Prop36
280
     0
102
RTVSPost2010PropOp36
 70
     1
102
RTVSPost2010Prop37
 90
       50
102
RTVSPost2010PropOp37
 70
     1
102
RTVSPost2010Prop38
140
0.0
102
RTVSPost2010PropOp38
 70
     1
102
RTVSPost2010Prop39
140
1.0
102
RTVSPost2010PropOp39
 70
     1
102
RTVSPost2010Prop40
 90
        0
102
RTVSPost2010PropOp40
 70
     1
102
RTVSPost2010Prop41ColorIndex
 90
       18
102
RTVSPost2010Prop41ColorRGB
 90
        0
102
RTVSPost2010PropOp41
 70
     1
102
RTVSPost2010Prop42
 90
       50
102
RTVSPost2010PropOp42
 70
     1
102
RTVSPost2010Prop43
 90
        3
102
RTVSPost2010PropOp43
 70
     1
102
RTVSPost2010Prop44ColorIndex
 90
        5
102
RTVSPost2010Prop44ColorRGB
 90
      255
102
RTVSPost2010PropOp44
 70
     1
102
RTVSPost2010Prop45
280
     0
102
RTVSPost2010PropOp45
 70
     1
102
RTVSPost2010Prop46
 90
       50
102
RTVSPost2010PropOp46
 70
     1
102
RTVSPost2010Prop47
 90
       50
102
RTVSPost2010PropOp47
 70
     1
102
RTVSPost2010Prop48
 90
       50
102
RTVSPost2010PropOp48
 70
     1
102
RTVSPost2010Prop49
280
     0
102
RTVSPost2010PropOp49
 70
     1
102
RTVSPost2010Prop50
 90
       50
102
RTVSPost2010PropOp50
 70
     1
102
RTVSPost2010Prop51ColorIndex
 90
      256
102
RTVSPost2010Prop51ColorRGB
 90
-16777216
102
RTVSPost2010PropOp51
 70
     0
102
RTVSPost2010Prop52
140
1.0
102
RTVSPost2010PropOp52
 70
     0
102
RTVSPost2010Prop53
 90
        2
102
RTVSPost2010PropOp53
 70
     1
102
RTVSPost2010Prop54
  1
strokes_ogs.tif
102
RTVSPost2010PropOp54
 70
     1
102
RTVSPost2010Prop55
280
     0
102
RTVSPost2010PropOp55
 70
     1
102
RTVSPost2010Prop56
140
1.0
102
RTVSPost2010PropOp56
 70
     1
102
RTVSPost2010Prop57
140
1.0
102
RTVSPost2010PropOp57
 70
     1
102
RTVSPropertyOp0
 70
     1
102
RTVSPropertyOp1
 70
     1
102
RTVSPropertyOp2
 70
     1
102
RTVSPropertyOp3
 70
     1
102
RTVSPropertyOp4
 70
     1
102
RTVSPropertyOp5
 70
     1
102
RTVSPropertyOp6
 70
     1
102
RTVSPropertyOp7
 70
     1
102
RTVSPropertyOp8
 70
     1
102
RTVSPropertyOp9
 70
     1
102
RTVSPropertyOp10
 70
     1
102
RTVSPropertyOp11
 70
     1
102
RTVSPropertyOp12
 70
     1
102
RTVSPropertyOp13
 70
     1
102
RTVSPropertyOp14
 70
     1
102
RTVSPropertyOp15
 70
     1
102
RTVSPropertyOp16
 70
     1
102
RTVSPropertyOp17
 70
     1
102
RTVSPropertyOp18
 70
     1
102
RTVSPropertyOp19
 70
     1
102
RTVSPropertyOp20
 70
     1
102
RTVSPropertyOp21
 70
     1
102
RTVSPropertyOp22
 70
     1
102
RTVSPropertyOp23
 70
     1
102
RTVSPropertyOp24
 70
     1
102
RTVSPropertyOp25
 70
     1
102
RTVSPropertyOp26
 70
     1
102
RTVSPropertyOp27
 70
     1
102
RTVSPropertyOp28
 70
     1
102
RTVSPropertyOp29
 70
     1
102
RTVSPropertyOp30
 70
     1
102
RTVSPropertyOp31
 70
     1
102
RTVSPropertyOp32
 70
     1
102
RTVSPropertyOp33
 70
     1
102
RTVSPropertyOp34
 70
     1
102
RTVSPropertyOp35
 70
     1
102
RTVSPropertyOp36
 70
     1
102
RTVSPropertyOp37
 70
     1
102
RTVSPropertyOp38
 70
     1
102
RTVSPropertyOp39
 70
     1
102
RTVSPropertyOp40
 70
     1
102
RTVSPropertyOp41
 70
     1
102
RTVSPropertyOp42
 70
     1
102
RTVSPropertyOp43
 70
     1
102
RTVSPropertyOp44
 70
     1
102
RTVSPropertyOp45
 70
     1
102
RTVSPropertyOp46
 70
     1
102
RTVSPropertyOp47
 70
     1
102
RTVSPropertyOp48
 70
     1
102
RTVSPropertyOp49
 70
     1
102
RTVSPropertyOp50
 70
     1
102
RTVSPropertyOp51
 70
     0
102
RTVSPropertyOp52
 70
     0
102
RTVSPropertyOp53
 70
     1
102
RTVSPropertyOp54
 70
     1
102
RTVSPropertyOp55
 70
     1
102
RTVSPropertyOp56
 70
     1
102
RTVSPropertyOp57
 70
     1
102
RTVSPropertyOp58
 70
     1
102
RTVSPropertyOp59
 70
     1
102
RTVSPropertyOp60
 70
     1
102
RTVSPropertyOp61
 70
     1
102
RTVSPropertyOp62
 70
     1
  0
XRECORD
  5
510
102
{ACAD_REACTORS
330
50F
102
}
330
50F
100
AcDbXrecord
280
     1
102
RTVSPost2010Prop28
280
     0
102
RTVSPost2010PropOp28
 70
     1
102
RTVSPost2010Prop29
280
     1
102
RTVSPost2010PropOp29
 70
     1
102
RTVSPost2010Prop30
280
     1
102
RTVSPost2010PropOp30
 70
     1
102
RTVSPost2010Prop31
280
     0
102
RTVSPost2010PropOp31
 70
     1
102
RTVSPost2010Prop32
280
     0
102
RTVSPost2010PropOp32
 70
     1
102
RTVSPost2010Prop33
280
     0
102
RTVSPost2010PropOp33
 70
     1
102
RTVSPost2010Prop34
280
     0
102
RTVSPost2010PropOp34
 70
     1
102
RTVSPost2010Prop35
280
     0
102
RTVSPost2010PropOp35
 70
     1
102
RTVSPost2010Prop36
280
     0
102
RTVSPost2010PropOp36
 70
     1
102
RTVSPost2010Prop37
 90
       50
102
RTVSPost2010PropOp37
 70
     1
102
RTVSPost2010Prop38
140
0.0
102
RTVSPost2010PropOp38
 70
     1
102
RTVSPost2010Prop39
140
1.0
102
RTVSPost2010PropOp39
 70
     1
102
RTVSPost2010Prop40
 90
        0
102
RTVSPost2010PropOp40
 70
     1
102
RTVSPost2010Prop41ColorIndex
 90
       18
102
RTVSPost2010Prop41ColorRGB
 90
        0
102
RTVSPost2010PropOp41
 70
     1
102
RTVSPost2010Prop42
 90
       50
102
RTVSPost2010PropOp42
 70
     1
102
RTVSPost2010Prop43
 90
        3
102
RTVSPost2010PropOp43
 70
     1
102
RTVSPost2010Prop44ColorIndex
 90
        5
102
RTVSPost2010Prop44ColorRGB
 90
      255
102
RTVSPost2010PropOp44
 70
     1
102
RTVSPost2010Prop45
280
     0
102
RTVSPost2010PropOp45
 70
     1
102
RTVSPost2010Prop46
 90
       50
102
RTVSPost2010PropOp46
 70
     1
102
RTVSPost2010Prop47
 90
       50
102
RTVSPost2010PropOp47
 70
     1
102
RTVSPost2010Prop48
 90
       50
102
RTVSPost2010PropOp48
 70
     1
102
RTVSPost2010Prop49
280
     0
102
RTVSPost2010PropOp49
 70
     1
102
RTVSPost2010Prop50
 90
       50
102
RTVSPost2010PropOp50
 70
     1
102
RTVSPost2010Prop51ColorIndex
 90
      256
102
RTVSPost2010Prop51ColorRGB
 90
-16777216
102
RTVSPost2010PropOp51
 70
     0
102
RTVSPost2010Prop52
140
1.0
102
RTVSPost2010PropOp52
 70
     0
102
RTVSPost2010Prop53
 90
        2
102
RTVSPost2010PropOp53
 70
     1
102
RTVSPost2010Prop54
  1
strokes_ogs.tif
102
RTVSPost2010PropOp54
 70
     1
102
RTVSPost2010Prop55
280
     0
102
RTVSPost2010PropOp55
 70
     1
102
RTVSPost2010Prop56
140
1.0
102
RTVSPost2010PropOp56
 70
     1
102
RTVSPost2010Prop57
140
1.0
102
RTVSPost2010PropOp57
 70
     1
102
RTVSPropertyOp0
 70
     1
102
RTVSPropertyOp1
 70
     1
102
RTVSPropertyOp2
 70
     1
102
RTVSPropertyOp3
 70
     1
102
RTVSPropertyOp4
 70
     1
102
RTVSPropertyOp5
 70
     1
102
RTVSPropertyOp6
 70
     1
102
RTVSPropertyOp7
 70
     1
102
RTVSPropertyOp8
 70
     1
102
RTVSPropertyOp9
 70
     1
102
RTVSPropertyOp10
 70
     1
102
RTVSPropertyOp11
 70
     1
102
RTVSPropertyOp12
 70
     1
102
RTVSPropertyOp13
 70
     1
102
RTVSPropertyOp14
 70
     1
102
RTVSPropertyOp15
 70
     1
102
RTVSPropertyOp16
 70
     1
102
RTVSPropertyOp17
 70
     1
102
RTVSPropertyOp18
 70
     1
102
RTVSPropertyOp19
 70
     1
102
RTVSPropertyOp20
 70
     1
102
RTVSPropertyOp21
 70
     1
102
RTVSPropertyOp22
 70
     1
102
RTVSPropertyOp23
 70
     1
102
RTVSPropertyOp24
 70
     1
102
RTVSPropertyOp25
 70
     1
102
RTVSPropertyOp26
 70
     1
102
RTVSPropertyOp27
 70
     1
102
RTVSPropertyOp28
 70
     1
102
RTVSPropertyOp29
 70
     1
102
RTVSPropertyOp30
 70
     1
102
RTVSPropertyOp31
 70
     1
102
RTVSPropertyOp32
 70
     1
102
RTVSPropertyOp33
 70
     1
102
RTVSPropertyOp34
 70
     1
102
RTVSPropertyOp35
 70
     1
102
RTVSPropertyOp36
 70
     1
102
RTVSPropertyOp37
 70
     1
102
RTVSPropertyOp38
 70
     1
102
RTVSPropertyOp39
 70
     1
102
RTVSPropertyOp40
 70
     1
102
RTVSPropertyOp41
 70
     1
102
RTVSPropertyOp42
 70
     1
102
RTVSPropertyOp43
 70
     1
102
RTVSPropertyOp44
 70
     1
102
RTVSPropertyOp45
 70
     1
102
RTVSPropertyOp46
 70
     1
102
RTVSPropertyOp47
 70
     1
102
RTVSPropertyOp48
 70
     1
102
RTVSPropertyOp49
 70
     1
102
RTVSPropertyOp50
 70
     1
102
RTVSPropertyOp51
 70
     0
102
RTVSPropertyOp52
 70
     0
102
RTVSPropertyOp53
 70
     1
102
RTVSPropertyOp54
 70
     1
102
RTVSPropertyOp55
 70
     1
102
RTVSPropertyOp56
 70
     1
102
RTVSPropertyOp57
 70
     1
102
RTVSPropertyOp58
 70
     1
102
RTVSPropertyOp59
 70
     1
102
RTVSPropertyOp60
 70
     1
102
RTVSPropertyOp61
 70
     1
102
RTVSPropertyOp62
 70
     1
  0
XRECORD
  5
512
102
{ACAD_REACTORS
330
511
102
}
330
511
100
AcDbXrecord
280
     1
102
RTVSPost2010Prop28
280
     0
102
RTVSPost2010PropOp28
 70
     1
102
RTVSPost2010Prop29
280
     1
102
RTVSPost2010PropOp29
 70
     1
102
RTVSPost2010Prop30
280
     1
102
RTVSPost2010PropOp30
 70
     1
102
RTVSPost2010Prop31
280
     0
102
RTVSPost2010PropOp31
 70
     1
102
RTVSPost2010Prop32
280
     0
102
RTVSPost2010PropOp32
 70
     1
102
RTVSPost2010Prop33
280
     0
102
RTVSPost2010PropOp33
 70
     1
102
RTVSPost2010Prop34
280
     0
102
RTVSPost2010PropOp34
 70
     1
102
RTVSPost2010Prop35
280
     0
102
RTVSPost2010PropOp35
 70
     1
102
RTVSPost2010Prop36
280
     0
102
RTVSPost2010PropOp36
 70
     1
102
RTVSPost2010Prop37
 90
       50
102
RTVSPost2010PropOp37
 70
     1
102
RTVSPost2010Prop38
140
0.0
102
RTVSPost2010PropOp38
 70
     1
102
RTVSPost2010Prop39
140
1.0
102
RTVSPost2010PropOp39
 70
     1
102
RTVSPost2010Prop40
 90
        0
102
RTVSPost2010PropOp40
 70
     1
102
RTVSPost2010Prop41ColorIndex
 90
       18
102
RTVSPost2010Prop41ColorRGB
 90
        0
102
RTVSPost2010PropOp41
 70
     1
102
RTVSPost2010Prop42
 90
       50
102
RTVSPost2010PropOp42
 70
     1
102
RTVSPost2010Prop43
 90
        3
102
RTVSPost2010PropOp43
 70
     1
102
RTVSPost2010Prop44ColorIndex
 90
        5
102
RTVSPost2010Prop44ColorRGB
 90
      255
102
RTVSPost2010PropOp44
 70
     1
102
RTVSPost2010Prop45
280
     0
102
RTVSPost2010PropOp45
 70
     1
102
RTVSPost2010Prop46
 90
       50
102
RTVSPost2010PropOp46
 70
     1
102
RTVSPost2010Prop47
 90
       50
102
RTVSPost2010PropOp47
 70
     1
102
RTVSPost2010Prop48
 90
       50
102
RTVSPost2010PropOp48
 70
     1
102
RTVSPost2010Prop49
280
     0
102
RTVSPost2010PropOp49
 70
     1
102
RTVSPost2010Prop50
 90
       50
102
RTVSPost2010PropOp50
 70
     1
102
RTVSPost2010Prop51ColorIndex
 90
      256
102
RTVSPost2010Prop51ColorRGB
 90
-16777216
102
RTVSPost2010PropOp51
 70
     0
102
RTVSPost2010Prop52
140
1.0
102
RTVSPost2010PropOp52
 70
     0
102
RTVSPost2010Prop53
 90
        2
102
RTVSPost2010PropOp53
 70
     1
102
RTVSPost2010Prop54
  1
strokes_ogs.tif
102
RTVSPost2010PropOp54
 70
     1
102
RTVSPost2010Prop55
280
     0
102
RTVSPost2010PropOp55
 70
     1
102
RTVSPost2010Prop56
140
1.0
102
RTVSPost2010PropOp56
 70
     1
102
RTVSPost2010Prop57
140
1.0
102
RTVSPost2010PropOp57
 70
     1
102
RTVSPropertyOp0
 70
     1
102
RTVSPropertyOp1
 70
     1
102
RTVSPropertyOp2
 70
     1
102
RTVSPropertyOp3
 70
     1
102
RTVSPropertyOp4
 70
     1
102
RTVSPropertyOp5
 70
     1
102
RTVSPropertyOp6
 70
     1
102
RTVSPropertyOp7
 70
     1
102
RTVSPropertyOp8
 70
     1
102
RTVSPropertyOp9
 70
     1
102
RTVSPropertyOp10
 70
     1
102
RTVSPropertyOp11
 70
     1
102
RTVSPropertyOp12
 70
     1
102
RTVSPropertyOp13
 70
     1
102
RTVSPropertyOp14
 70
     1
102
RTVSPropertyOp15
 70
     1
102
RTVSPropertyOp16
 70
     1
102
RTVSPropertyOp17
 70
     1
102
RTVSPropertyOp18
 70
     1
102
RTVSPropertyOp19
 70
     1
102
RTVSPropertyOp20
 70
     1
102
RTVSPropertyOp21
 70
     1
102
RTVSPropertyOp22
 70
     1
102
RTVSPropertyOp23
 70
     1
102
RTVSPropertyOp24
 70
     1
102
RTVSPropertyOp25
 70
     1
102
RTVSPropertyOp26
 70
     1
102
RTVSPropertyOp27
 70
     1
102
RTVSPropertyOp28
 70
     1
102
RTVSPropertyOp29
 70
     1
102
RTVSPropertyOp30
 70
     1
102
RTVSPropertyOp31
 70
     1
102
RTVSPropertyOp32
 70
     1
102
RTVSPropertyOp33
 70
     1
102
RTVSPropertyOp34
 70
     1
102
RTVSPropertyOp35
 70
     1
102
RTVSPropertyOp36
 70
     1
102
RTVSPropertyOp37
 70
     1
102
RTVSPropertyOp38
 70
     1
102
RTVSPropertyOp39
 70
     1
102
RTVSPropertyOp40
 70
     1
102
RTVSPropertyOp41
 70
     1
102
RTVSPropertyOp42
 70
     1
102
RTVSPropertyOp43
 70
     1
102
RTVSPropertyOp44
 70
     1
102
RTVSPropertyOp45
 70
     1
102
RTVSPropertyOp46
 70
     1
102
RTVSPropertyOp47
 70
     1
102
RTVSPropertyOp48
 70
     1
102
RTVSPropertyOp49
 70
     1
102
RTVSPropertyOp50
 70
     1
102
RTVSPropertyOp51
 70
     0
102
RTVSPropertyOp52
 70
     0
102
RTVSPropertyOp53
 70
     1
102
RTVSPropertyOp54
 70
     1
102
RTVSPropertyOp55
 70
     1
102
RTVSPropertyOp56
 70
     1
102
RTVSPropertyOp57
 70
     1
102
RTVSPropertyOp58
 70
     1
102
RTVSPropertyOp59
 70
     1
102
RTVSPropertyOp60
 70
     1
102
RTVSPropertyOp61
 70
     1
102
RTVSPropertyOp62
 70
     1
  0
XRECORD
  5
51A
102
{ACAD_REACTORS
330
519
102
}
330
519
100
AcDbXrecord
280
     1
102
RTVSPost2010Prop28
280
     0
102
RTVSPost2010PropOp28
 70
     1
102
RTVSPost2010Prop29
280
     1
102
RTVSPost2010PropOp29
 70
     1
102
RTVSPost2010Prop30
280
     1
102
RTVSPost2010PropOp30
 70
     1
102
RTVSPost2010Prop31
280
     0
102
RTVSPost2010PropOp31
 70
     1
102
RTVSPost2010Prop32
280
     0
102
RTVSPost2010PropOp32
 70
     1
102
RTVSPost2010Prop33
280
     0
102
RTVSPost2010PropOp33
 70
     1
102
RTVSPost2010Prop34
280
     0
102
RTVSPost2010PropOp34
 70
     1
102
RTVSPost2010Prop35
280
     0
102
RTVSPost2010PropOp35
 70
     1
102
RTVSPost2010Prop36
280
     0
102
RTVSPost2010PropOp36
 70
     1
102
RTVSPost2010Prop37
 90
       50
102
RTVSPost2010PropOp37
 70
     1
102
RTVSPost2010Prop38
140
0.0
102
RTVSPost2010PropOp38
 70
     1
102
RTVSPost2010Prop39
140
1.0
102
RTVSPost2010PropOp39
 70
     1
102
RTVSPost2010Prop40
 90
        0
102
RTVSPost2010PropOp40
 70
     1
102
RTVSPost2010Prop41ColorIndex
 90
       18
102
RTVSPost2010Prop41ColorRGB
 90
        0
102
RTVSPost2010PropOp41
 70
     1
102
RTVSPost2010Prop42
 90
       50
102
RTVSPost2010PropOp42
 70
     1
102
RTVSPost2010Prop43
 90
        3
102
RTVSPost2010PropOp43
 70
     1
102
RTVSPost2010Prop44ColorIndex
 90
        5
102
RTVSPost2010Prop44ColorRGB
 90
      255
102
RTVSPost2010PropOp44
 70
     1
102
RTVSPost2010Prop45
280
     0
102
RTVSPost2010PropOp45
 70
     1
102
RTVSPost2010Prop46
 90
       50
102
RTVSPost2010PropOp46
 70
     1
102
RTVSPost2010Prop47
 90
       50
102
RTVSPost2010PropOp47
 70
     1
102
RTVSPost2010Prop48
 90
       50
102
RTVSPost2010PropOp48
 70
     1
102
RTVSPost2010Prop49
280
     0
102
RTVSPost2010PropOp49
 70
     1
102
RTVSPost2010Prop50
 90
       50
102
RTVSPost2010PropOp50
 70
     1
102
RTVSPost2010Prop51ColorIndex
 90
      256
102
RTVSPost2010Prop51ColorRGB
 90
-16777216
102
RTVSPost2010PropOp51
 70
     0
102
RTVSPost2010Prop52
140
1.0
102
RTVSPost2010PropOp52
 70
     0
102
RTVSPost2010Prop53
 90
        2
102
RTVSPost2010PropOp53
 70
     1
102
RTVSPost2010Prop54
  1
strokes_ogs.tif
102
RTVSPost2010PropOp54
 70
     1
102
RTVSPost2010Prop55
280
     0
102
RTVSPost2010PropOp55
 70
     1
102
RTVSPost2010Prop56
140
1.0
102
RTVSPost2010PropOp56
 70
     1
102
RTVSPost2010Prop57
140
1.0
102
RTVSPost2010PropOp57
 70
     1
102
RTVSPropertyOp0
 70
     1
102
RTVSPropertyOp1
 70
     1
102
RTVSPropertyOp2
 70
     1
102
RTVSPropertyOp3
 70
     1
102
RTVSPropertyOp4
 70
     1
102
RTVSPropertyOp5
 70
     1
102
RTVSPropertyOp6
 70
     1
102
RTVSPropertyOp7
 70
     1
102
RTVSPropertyOp8
 70
     1
102
RTVSPropertyOp9
 70
     1
102
RTVSPropertyOp10
 70
     1
102
RTVSPropertyOp11
 70
     1
102
RTVSPropertyOp12
 70
     1
102
RTVSPropertyOp13
 70
     1
102
RTVSPropertyOp14
 70
     1
102
RTVSPropertyOp15
 70
     1
102
RTVSPropertyOp16
 70
     1
102
RTVSPropertyOp17
 70
     1
102
RTVSPropertyOp18
 70
     1
102
RTVSPropertyOp19
 70
     1
102
RTVSPropertyOp20
 70
     1
102
RTVSPropertyOp21
 70
     1
102
RTVSPropertyOp22
 70
     1
102
RTVSPropertyOp23
 70
     1
102
RTVSPropertyOp24
 70
     1
102
RTVSPropertyOp25
 70
     1
102
RTVSPropertyOp26
 70
     1
102
RTVSPropertyOp27
 70
     1
102
RTVSPropertyOp28
 70
     1
102
RTVSPropertyOp29
 70
     1
102
RTVSPropertyOp30
 70
     1
102
RTVSPropertyOp31
 70
     1
102
RTVSPropertyOp32
 70
     1
102
RTVSPropertyOp33
 70
     1
102
RTVSPropertyOp34
 70
     1
102
RTVSPropertyOp35
 70
     1
102
RTVSPropertyOp36
 70
     1
102
RTVSPropertyOp37
 70
     1
102
RTVSPropertyOp38
 70
     1
102
RTVSPropertyOp39
 70
     1
102
RTVSPropertyOp40
 70
     1
102
RTVSPropertyOp41
 70
     1
102
RTVSPropertyOp42
 70
     1
102
RTVSPropertyOp43
 70
     1
102
RTVSPropertyOp44
 70
     1
102
RTVSPropertyOp45
 70
     1
102
RTVSPropertyOp46
 70
     1
102
RTVSPropertyOp47
 70
     1
102
RTVSPropertyOp48
 70
     1
102
RTVSPropertyOp49
 70
     1
102
RTVSPropertyOp50
 70
     1
102
RTVSPropertyOp51
 70
     0
102
RTVSPropertyOp52
 70
     0
102
RTVSPropertyOp53
 70
     1
102
RTVSPropertyOp54
 70
     1
102
RTVSPropertyOp55
 70
     1
102
RTVSPropertyOp56
 70
     1
102
RTVSPropertyOp57
 70
     1
102
RTVSPropertyOp58
 70
     1
102
RTVSPropertyOp59
 70
     1
102
RTVSPropertyOp60
 70
     1
102
RTVSPropertyOp61
 70
     1
102
RTVSPropertyOp62
 70
     1
  0
XRECORD
  5
536
102
{ACAD_REACTORS
330
535
102
}
330
535
100
AcDbXrecord
280
     1
102
RTVSPost2010Prop28
280
     0
102
RTVSPost2010PropOp28
 70
     1
102
RTVSPost2010Prop29
280
     1
102
RTVSPost2010PropOp29
 70
     1
102
RTVSPost2010Prop30
280
     1
102
RTVSPost2010PropOp30
 70
     1
102
RTVSPost2010Prop31
280
     0
102
RTVSPost2010PropOp31
 70
     1
102
RTVSPost2010Prop32
280
     0
102
RTVSPost2010PropOp32
 70
     1
102
RTVSPost2010Prop33
280
     0
102
RTVSPost2010PropOp33
 70
     1
102
RTVSPost2010Prop34
280
     0
102
RTVSPost2010PropOp34
 70
     1
102
RTVSPost2010Prop35
280
     0
102
RTVSPost2010PropOp35
 70
     1
102
RTVSPost2010Prop36
280
     0
102
RTVSPost2010PropOp36
 70
     1
102
RTVSPost2010Prop37
 90
       50
102
RTVSPost2010PropOp37
 70
     0
102
RTVSPost2010Prop38
140
0.0
102
RTVSPost2010PropOp38
 70
     0
102
RTVSPost2010Prop39
140
1.0
102
RTVSPost2010PropOp39
 70
     0
102
RTVSPost2010Prop40
 90
        0
102
RTVSPost2010PropOp40
 70
     0
102
RTVSPost2010Prop41ColorIndex
 90
       18
102
RTVSPost2010Prop41ColorRGB
 90
        0
102
RTVSPost2010PropOp41
 70
     0
102
RTVSPost2010Prop42
 90
       50
102
RTVSPost2010PropOp42
 70
     0
102
RTVSPost2010Prop43
 90
        3
102
RTVSPost2010PropOp43
 70
     0
102
RTVSPost2010Prop44ColorIndex
 90
        5
102
RTVSPost2010Prop44ColorRGB
 90
      255
102
RTVSPost2010PropOp44
 70
     0
102
RTVSPost2010Prop45
280
     0
102
RTVSPost2010PropOp45
 70
     1
102
RTVSPost2010Prop46
 90
       50
102
RTVSPost2010PropOp46
 70
     0
102
RTVSPost2010Prop47
 90
       50
102
RTVSPost2010PropOp47
 70
     0
102
RTVSPost2010Prop48
 90
       50
102
RTVSPost2010PropOp48
 70
     0
102
RTVSPost2010Prop49
280
     0
102
RTVSPost2010PropOp49
 70
     1
102
RTVSPost2010Prop50
 90
       50
102
RTVSPost2010PropOp50
 70
     0
102
RTVSPost2010Prop51ColorIndex
 90
      256
102
RTVSPost2010Prop51ColorRGB
 90
-16777216
102
RTVSPost2010PropOp51
 70
     0
102
RTVSPost2010Prop52
140
1.0
102
RTVSPost2010PropOp52
 70
     0
102
RTVSPost2010Prop53
 90
        2
102
RTVSPost2010PropOp53
 70
     0
102
RTVSPost2010Prop54
  1
strokes_ogs.tif
102
RTVSPost2010PropOp54
 70
     0
102
RTVSPost2010Prop55
280
     0
102
RTVSPost2010PropOp55
 70
     1
102
RTVSPost2010Prop56
140
1.0
102
RTVSPost2010PropOp56
 70
     0
102
RTVSPost2010Prop57
140
1.0
102
RTVSPost2010PropOp57
 70
     0
102
RTVSPropertyOp0
 70
     0
102
RTVSPropertyOp1
 70
     0
102
RTVSPropertyOp2
 70
     0
102
RTVSPropertyOp3
 70
     0
102
RTVSPropertyOp4
 70
     0
102
RTVSPropertyOp5
 70
     0
102
RTVSPropertyOp6
 70
     0
102
RTVSPropertyOp7
 70
     0
102
RTVSPropertyOp8
 70
     0
102
RTVSPropertyOp9
 70
     0
102
RTVSPropertyOp10
 70
     0
102
RTVSPropertyOp11
 70
     0
102
RTVSPropertyOp12
 70
     0
102
RTVSPropertyOp13
 70
     0
102
RTVSPropertyOp14
 70
     2
102
RTVSPropertyOp15
 70
     0
102
RTVSPropertyOp16
 70
     0
102
RTVSPropertyOp17
 70
     0
102
RTVSPropertyOp18
 70
     0
102
RTVSPropertyOp19
 70
     0
102
RTVSPropertyOp20
 70
     0
102
RTVSPropertyOp21
 70
     0
102
RTVSPropertyOp22
 70
     0
102
RTVSPropertyOp23
 70
     0
102
RTVSPropertyOp24
 70
     0
102
RTVSPropertyOp25
 70
     0
102
RTVSPropertyOp26
 70
     0
102
RTVSPropertyOp27
 70
     0
102
RTVSPropertyOp28
 70
     1
102
RTVSPropertyOp29
 70
     1
102
RTVSPropertyOp30
 70
     1
102
RTVSPropertyOp31
 70
     1
102
RTVSPropertyOp32
 70
     1
102
RTVSPropertyOp33
 70
     1
102
RTVSPropertyOp34
 70
     1
102
RTVSPropertyOp35
 70
     1
102
RTVSPropertyOp36
 70
     1
102
RTVSPropertyOp37
 70
     0
102
RTVSPropertyOp38
 70
     0
102
RTVSPropertyOp39
 70
     0
102
RTVSPropertyOp40
 70
     0
102
RTVSPropertyOp41
 70
     0
102
RTVSPropertyOp42
 70
     0
102
RTVSPropertyOp43
 70
     0
102
RTVSPropertyOp44
 70
     0
102
RTVSPropertyOp45
 70
     1
102
RTVSPropertyOp46
 70
     0
102
RTVSPropertyOp47
 70
     0
102
RTVSPropertyOp48
 70
     0
102
RTVSPropertyOp49
 70
     1
102
RTVSPropertyOp50
 70
     0
102
RTVSPropertyOp51
 70
     0
102
RTVSPropertyOp52
 70
     0
102
RTVSPropertyOp53
 70
     0
102
RTVSPropertyOp54
 70
     0
102
RTVSPropertyOp55
 70
     1
102
RTVSPropertyOp56
 70
     0
102
RTVSPropertyOp57
 70
     0
102
RTVSPropertyOp58
 70
     0
102
RTVSPropertyOp59
 70
     0
102
RTVSPropertyOp60
 70
     0
102
RTVSPropertyOp61
 70
     0
102
RTVSPropertyOp62
 70
     0
  0
XRECORD
  5
526
102
{ACAD_REACTORS
330
525
102
}
330
525
100
AcDbXrecord
280
     1
102
RTVSPost2010Prop28
280
     0
102
RTVSPost2010PropOp28
 70
     1
102
RTVSPost2010Prop29
280
     1
102
RTVSPost2010PropOp29
 70
     1
102
RTVSPost2010Prop30
280
     1
102
RTVSPost2010PropOp30
 70
     1
102
RTVSPost2010Prop31
280
     0
102
RTVSPost2010PropOp31
 70
     1
102
RTVSPost2010Prop32
280
     0
102
RTVSPost2010PropOp32
 70
     1
102
RTVSPost2010Prop33
280
     0
102
RTVSPost2010PropOp33
 70
     1
102
RTVSPost2010Prop34
280
     0
102
RTVSPost2010PropOp34
 70
     1
102
RTVSPost2010Prop35
280
     0
102
RTVSPost2010PropOp35
 70
     1
102
RTVSPost2010Prop36
280
     0
102
RTVSPost2010PropOp36
 70
     1
102
RTVSPost2010Prop37
 90
       50
102
RTVSPost2010PropOp37
 70
     1
102
RTVSPost2010Prop38
140
0.0
102
RTVSPost2010PropOp38
 70
     1
102
RTVSPost2010Prop39
140
1.0
102
RTVSPost2010PropOp39
 70
     1
102
RTVSPost2010Prop40
 90
        0
102
RTVSPost2010PropOp40
 70
     1
102
RTVSPost2010Prop41ColorIndex
 90
       18
102
RTVSPost2010Prop41ColorRGB
 90
        0
102
RTVSPost2010PropOp41
 70
     1
102
RTVSPost2010Prop42
 90
       50
102
RTVSPost2010PropOp42
 70
     1
102
RTVSPost2010Prop43
 90
        3
102
RTVSPost2010PropOp43
 70
     1
102
RTVSPost2010Prop44ColorIndex
 90
        5
102
RTVSPost2010Prop44ColorRGB
 90
      255
102
RTVSPost2010PropOp44
 70
     1
102
RTVSPost2010Prop45
280
     0
102
RTVSPost2010PropOp45
 70
     1
102
RTVSPost2010Prop46
 90
       50
102
RTVSPost2010PropOp46
 70
     1
102
RTVSPost2010Prop47
 90
       50
102
RTVSPost2010PropOp47
 70
     1
102
RTVSPost2010Prop48
 90
       50
102
RTVSPost2010PropOp48
 70
     1
102
RTVSPost2010Prop49
280
     0
102
RTVSPost2010PropOp49
 70
     1
102
RTVSPost2010Prop50
 90
       50
102
RTVSPost2010PropOp50
 70
     1
102
RTVSPost2010Prop51ColorIndex
 90
      256
102
RTVSPost2010Prop51ColorRGB
 90
-16777216
102
RTVSPost2010PropOp51
 70
     0
102
RTVSPost2010Prop52
140
1.0
102
RTVSPost2010PropOp52
 70
     0
102
RTVSPost2010Prop53
 90
        2
102
RTVSPost2010PropOp53
 70
     1
102
RTVSPost2010Prop54
  1
strokes_ogs.tif
102
RTVSPost2010PropOp54
 70
     1
102
RTVSPost2010Prop55
280
     0
102
RTVSPost2010PropOp55
 70
     1
102
RTVSPost2010Prop56
140
1.0
102
RTVSPost2010PropOp56
 70
     1
102
RTVSPost2010Prop57
140
1.0
102
RTVSPost2010PropOp57
 70
     1
102
RTVSPropertyOp0
 70
     1
102
RTVSPropertyOp1
 70
     1
102
RTVSPropertyOp2
 70
     1
102
RTVSPropertyOp3
 70
     1
102
RTVSPropertyOp4
 70
     1
102
RTVSPropertyOp5
 70
     1
102
RTVSPropertyOp6
 70
     1
102
RTVSPropertyOp7
 70
     1
102
RTVSPropertyOp8
 70
     1
102
RTVSPropertyOp9
 70
     1
102
RTVSPropertyOp10
 70
     1
102
RTVSPropertyOp11
 70
     1
102
RTVSPropertyOp12
 70
     1
102
RTVSPropertyOp13
 70
     1
102
RTVSPropertyOp14
 70
     1
102
RTVSPropertyOp15
 70
     1
102
RTVSPropertyOp16
 70
     1
102
RTVSPropertyOp17
 70
     1
102
RTVSPropertyOp18
 70
     1
102
RTVSPropertyOp19
 70
     1
102
RTVSPropertyOp20
 70
     1
102
RTVSPropertyOp21
 70
     1
102
RTVSPropertyOp22
 70
     1
102
RTVSPropertyOp23
 70
     1
102
RTVSPropertyOp24
 70
     1
102
RTVSPropertyOp25
 70
     1
102
RTVSPropertyOp26
 70
     1
102
RTVSPropertyOp27
 70
     1
102
RTVSPropertyOp28
 70
     1
102
RTVSPropertyOp29
 70
     1
102
RTVSPropertyOp30
 70
     1
102
RTVSPropertyOp31
 70
     1
102
RTVSPropertyOp32
 70
     1
102
RTVSPropertyOp33
 70
     1
102
RTVSPropertyOp34
 70
     1
102
RTVSPropertyOp35
 70
     1
102
RTVSPropertyOp36
 70
     1
102
RTVSPropertyOp37
 70
     1
102
RTVSPropertyOp38
 70
     1
102
RTVSPropertyOp39
 70
     1
102
RTVSPropertyOp40
 70
     1
102
RTVSPropertyOp41
 70
     1
102
RTVSPropertyOp42
 70
     1
102
RTVSPropertyOp43
 70
     1
102
RTVSPropertyOp44
 70
     1
102
RTVSPropertyOp45
 70
     1
102
RTVSPropertyOp46
 70
     1
102
RTVSPropertyOp47
 70
     1
102
RTVSPropertyOp48
 70
     1
102
RTVSPropertyOp49
 70
     1
102
RTVSPropertyOp50
 70
     1
102
RTVSPropertyOp51
 70
     0
102
RTVSPropertyOp52
 70
     0
102
RTVSPropertyOp53
 70
     1
102
RTVSPropertyOp54
 70
     1
102
RTVSPropertyOp55
 70
     1
102
RTVSPropertyOp56
 70
     1
102
RTVSPropertyOp57
 70
     1
102
RTVSPropertyOp58
 70
     1
102
RTVSPropertyOp59
 70
     1
102
RTVSPropertyOp60
 70
     1
102
RTVSPropertyOp61
 70
     1
102
RTVSPropertyOp62
 70
     1
  0
XRECORD
  5
538
102
{ACAD_REACTORS
330
537
102
}
330
537
100
AcDbXrecord
280
     1
102
RTVSPost2010Prop28
280
     0
102
RTVSPost2010PropOp28
 70
     1
102
RTVSPost2010Prop29
280
     1
102
RTVSPost2010PropOp29
 70
     1
102
RTVSPost2010Prop30
280
     1
102
RTVSPost2010PropOp30
 70
     1
102
RTVSPost2010Prop31
280
     0
102
RTVSPost2010PropOp31
 70
     1
102
RTVSPost2010Prop32
280
     0
102
RTVSPost2010PropOp32
 70
     1
102
RTVSPost2010Prop33
280
     0
102
RTVSPost2010PropOp33
 70
     1
102
RTVSPost2010Prop34
280
     0
102
RTVSPost2010PropOp34
 70
     1
102
RTVSPost2010Prop35
280
     0
102
RTVSPost2010PropOp35
 70
     1
102
RTVSPost2010Prop36
280
     0
102
RTVSPost2010PropOp36
 70
     1
102
RTVSPost2010Prop37
 90
       50
102
RTVSPost2010PropOp37
 70
     0
102
RTVSPost2010Prop38
140
0.0
102
RTVSPost2010PropOp38
 70
     0
102
RTVSPost2010Prop39
140
1.0
102
RTVSPost2010PropOp39
 70
     0
102
RTVSPost2010Prop40
 90
        0
102
RTVSPost2010PropOp40
 70
     0
102
RTVSPost2010Prop41ColorIndex
 90
       18
102
RTVSPost2010Prop41ColorRGB
 90
        0
102
RTVSPost2010PropOp41
 70
     0
102
RTVSPost2010Prop42
 90
       50
102
RTVSPost2010PropOp42
 70
     0
102
RTVSPost2010Prop43
 90
        3
102
RTVSPost2010PropOp43
 70
     0
102
RTVSPost2010Prop44ColorIndex
 90
        5
102
RTVSPost2010Prop44ColorRGB
 90
      255
102
RTVSPost2010PropOp44
 70
     0
102
RTVSPost2010Prop45
280
     0
102
RTVSPost2010PropOp45
 70
     1
102
RTVSPost2010Prop46
 90
       50
102
RTVSPost2010PropOp46
 70
     0
102
RTVSPost2010Prop47
 90
       50
102
RTVSPost2010PropOp47
 70
     0
102
RTVSPost2010Prop48
 90
       50
102
RTVSPost2010PropOp48
 70
     0
102
RTVSPost2010Prop49
280
     0
102
RTVSPost2010PropOp49
 70
     1
102
RTVSPost2010Prop50
 90
       50
102
RTVSPost2010PropOp50
 70
     0
102
RTVSPost2010Prop51ColorIndex
 90
      256
102
RTVSPost2010Prop51ColorRGB
 90
-16777216
102
RTVSPost2010PropOp51
 70
     0
102
RTVSPost2010Prop52
140
1.0
102
RTVSPost2010PropOp52
 70
     0
102
RTVSPost2010Prop53
 90
        2
102
RTVSPost2010PropOp53
 70
     0
102
RTVSPost2010Prop54
  1
strokes_ogs.tif
102
RTVSPost2010PropOp54
 70
     0
102
RTVSPost2010Prop55
280
     0
102
RTVSPost2010PropOp55
 70
     1
102
RTVSPost2010Prop56
140
1.0
102
RTVSPost2010PropOp56
 70
     0
102
RTVSPost2010Prop57
140
1.0
102
RTVSPost2010PropOp57
 70
     0
102
RTVSPropertyOp0
 70
     0
102
RTVSPropertyOp1
 70
     0
102
RTVSPropertyOp2
 70
     0
102
RTVSPropertyOp3
 70
     0
102
RTVSPropertyOp4
 70
     0
102
RTVSPropertyOp5
 70
     0
102
RTVSPropertyOp6
 70
     0
102
RTVSPropertyOp7
 70
     0
102
RTVSPropertyOp8
 70
     0
102
RTVSPropertyOp9
 70
     0
102
RTVSPropertyOp10
 70
     0
102
RTVSPropertyOp11
 70
     0
102
RTVSPropertyOp12
 70
     0
102
RTVSPropertyOp13
 70
     0
102
RTVSPropertyOp14
 70
     2
102
RTVSPropertyOp15
 70
     0
102
RTVSPropertyOp16
 70
     0
102
RTVSPropertyOp17
 70
     0
102
RTVSPropertyOp18
 70
     0
102
RTVSPropertyOp19
 70
     0
102
RTVSPropertyOp20
 70
     0
102
RTVSPropertyOp21
 70
     0
102
RTVSPropertyOp22
 70
     0
102
RTVSPropertyOp23
 70
     0
102
RTVSPropertyOp24
 70
     0
102
RTVSPropertyOp25
 70
     0
102
RTVSPropertyOp26
 70
     0
102
RTVSPropertyOp27
 70
     0
102
RTVSPropertyOp28
 70
     1
102
RTVSPropertyOp29
 70
     1
102
RTVSPropertyOp30
 70
     1
102
RTVSPropertyOp31
 70
     1
102
RTVSPropertyOp32
 70
     1
102
RTVSPropertyOp33
 70
     1
102
RTVSPropertyOp34
 70
     1
102
RTVSPropertyOp35
 70
     1
102
RTVSPropertyOp36
 70
     1
102
RTVSPropertyOp37
 70
     0
102
RTVSPropertyOp38
 70
     0
102
RTVSPropertyOp39
 70
     0
102
RTVSPropertyOp40
 70
     0
102
RTVSPropertyOp41
 70
     0
102
RTVSPropertyOp42
 70
     0
102
RTVSPropertyOp43
 70
     0
102
RTVSPropertyOp44
 70
     0
102
RTVSPropertyOp45
 70
     1
102
RTVSPropertyOp46
 70
     0
102
RTVSPropertyOp47
 70
     0
102
RTVSPropertyOp48
 70
     0
102
RTVSPropertyOp49
 70
     1
102
RTVSPropertyOp50
 70
     0
102
RTVSPropertyOp51
 70
     0
102
RTVSPropertyOp52
 70
     0
102
RTVSPropertyOp53
 70
     0
102
RTVSPropertyOp54
 70
     0
102
RTVSPropertyOp55
 70
     1
102
RTVSPropertyOp56
 70
     0
102
RTVSPropertyOp57
 70
     0
102
RTVSPropertyOp58
 70
     0
102
RTVSPropertyOp59
 70
     0
102
RTVSPropertyOp60
 70
     0
102
RTVSPropertyOp61
 70
     0
102
RTVSPropertyOp62
 70
     0
  0
XRECORD
  5
51E
102
{ACAD_REACTORS
330
51D
102
}
330
51D
100
AcDbXrecord
280
     1
102
RTVSPost2010Prop28
280
     0
102
RTVSPost2010PropOp28
 70
     1
102
RTVSPost2010Prop29
280
     1
102
RTVSPost2010PropOp29
 70
     1
102
RTVSPost2010Prop30
280
     1
102
RTVSPost2010PropOp30
 70
     1
102
RTVSPost2010Prop31
280
     0
102
RTVSPost2010PropOp31
 70
     1
102
RTVSPost2010Prop32
280
     0
102
RTVSPost2010PropOp32
 70
     1
102
RTVSPost2010Prop33
280
     0
102
RTVSPost2010PropOp33
 70
     1
102
RTVSPost2010Prop34
280
     0
102
RTVSPost2010PropOp34
 70
     1
102
RTVSPost2010Prop35
280
     0
102
RTVSPost2010PropOp35
 70
     1
102
RTVSPost2010Prop36
280
     0
102
RTVSPost2010PropOp36
 70
     1
102
RTVSPost2010Prop37
 90
       50
102
RTVSPost2010PropOp37
 70
     1
102
RTVSPost2010Prop38
140
0.0
102
RTVSPost2010PropOp38
 70
     1
102
RTVSPost2010Prop39
140
1.0
102
RTVSPost2010PropOp39
 70
     1
102
RTVSPost2010Prop40
 90
        0
102
RTVSPost2010PropOp40
 70
     1
102
RTVSPost2010Prop41ColorIndex
 90
       18
102
RTVSPost2010Prop41ColorRGB
 90
        0
102
RTVSPost2010PropOp41
 70
     1
102
RTVSPost2010Prop42
 90
       50
102
RTVSPost2010PropOp42
 70
     1
102
RTVSPost2010Prop43
 90
        3
102
RTVSPost2010PropOp43
 70
     1
102
RTVSPost2010Prop44ColorIndex
 90
        5
102
RTVSPost2010Prop44ColorRGB
 90
      255
102
RTVSPost2010PropOp44
 70
     1
102
RTVSPost2010Prop45
280
     0
102
RTVSPost2010PropOp45
 70
     1
102
RTVSPost2010Prop46
 90
       50
102
RTVSPost2010PropOp46
 70
     1
102
RTVSPost2010Prop47
 90
       50
102
RTVSPost2010PropOp47
 70
     1
102
RTVSPost2010Prop48
 90
       50
102
RTVSPost2010PropOp48
 70
     1
102
RTVSPost2010Prop49
280
     0
102
RTVSPost2010PropOp49
 70
     1
102
RTVSPost2010Prop50
 90
       50
102
RTVSPost2010PropOp50
 70
     1
102
RTVSPost2010Prop51ColorIndex
 90
      256
102
RTVSPost2010Prop51ColorRGB
 90
-16777216
102
RTVSPost2010PropOp51
 70
     0
102
RTVSPost2010Prop52
140
1.0
102
RTVSPost2010PropOp52
 70
     0
102
RTVSPost2010Prop53
 90
        2
102
RTVSPost2010PropOp53
 70
     1
102
RTVSPost2010Prop54
  1
strokes_ogs.tif
102
RTVSPost2010PropOp54
 70
     1
102
RTVSPost2010Prop55
280
     0
102
RTVSPost2010PropOp55
 70
     1
102
RTVSPost2010Prop56
140
1.0
102
RTVSPost2010PropOp56
 70
     1
102
RTVSPost2010Prop57
140
1.0
102
RTVSPost2010PropOp57
 70
     1
102
RTVSPropertyOp0
 70
     1
102
RTVSPropertyOp1
 70
     1
102
RTVSPropertyOp2
 70
     1
102
RTVSPropertyOp3
 70
     1
102
RTVSPropertyOp4
 70
     1
102
RTVSPropertyOp5
 70
     1
102
RTVSPropertyOp6
 70
     1
102
RTVSPropertyOp7
 70
     1
102
RTVSPropertyOp8
 70
     1
102
RTVSPropertyOp9
 70
     1
102
RTVSPropertyOp10
 70
     1
102
RTVSPropertyOp11
 70
     1
102
RTVSPropertyOp12
 70
     1
102
RTVSPropertyOp13
 70
     1
102
RTVSPropertyOp14
 70
     1
102
RTVSPropertyOp15
 70
     1
102
RTVSPropertyOp16
 70
     1
102
RTVSPropertyOp17
 70
     1
102
RTVSPropertyOp18
 70
     1
102
RTVSPropertyOp19
 70
     1
102
RTVSPropertyOp20
 70
     1
102
RTVSPropertyOp21
 70
     1
102
RTVSPropertyOp22
 70
     1
102
RTVSPropertyOp23
 70
     1
102
RTVSPropertyOp24
 70
     1
102
RTVSPropertyOp25
 70
     1
102
RTVSPropertyOp26
 70
     1
102
RTVSPropertyOp27
 70
     1
102
RTVSPropertyOp28
 70
     1
102
RTVSPropertyOp29
 70
     1
102
RTVSPropertyOp30
 70
     1
102
RTVSPropertyOp31
 70
     1
102
RTVSPropertyOp32
 70
     1
102
RTVSPropertyOp33
 70
     1
102
RTVSPropertyOp34
 70
     1
102
RTVSPropertyOp35
 70
     1
102
RTVSPropertyOp36
 70
     1
102
RTVSPropertyOp37
 70
     1
102
RTVSPropertyOp38
 70
     1
102
RTVSPropertyOp39
 70
     1
102
RTVSPropertyOp40
 70
     1
102
RTVSPropertyOp41
 70
     1
102
RTVSPropertyOp42
 70
     1
102
RTVSPropertyOp43
 70
     1
102
RTVSPropertyOp44
 70
     1
102
RTVSPropertyOp45
 70
     1
102
RTVSPropertyOp46
 70
     1
102
RTVSPropertyOp47
 70
     1
102
RTVSPropertyOp48
 70
     1
102
RTVSPropertyOp49
 70
     1
102
RTVSPropertyOp50
 70
     1
102
RTVSPropertyOp51
 70
     0
102
RTVSPropertyOp52
 70
     0
102
RTVSPropertyOp53
 70
     1
102
RTVSPropertyOp54
 70
     1
102
RTVSPropertyOp55
 70
     1
102
RTVSPropertyOp56
 70
     1
102
RTVSPropertyOp57
 70
     1
102
RTVSPropertyOp58
 70
     1
102
RTVSPropertyOp59
 70
     1
102
RTVSPropertyOp60
 70
     1
102
RTVSPropertyOp61
 70
     1
102
RTVSPropertyOp62
 70
     1
  0
XRECORD
  5
534
102
{ACAD_REACTORS
330
533
102
}
330
533
100
AcDbXrecord
280
     1
102
RTVSPost2010Prop28
280
     0
102
RTVSPost2010PropOp28
 70
     1
102
RTVSPost2010Prop29
280
     1
102
RTVSPost2010PropOp29
 70
     1
102
RTVSPost2010Prop30
280
     1
102
RTVSPost2010PropOp30
 70
     1
102
RTVSPost2010Prop31
280
     0
102
RTVSPost2010PropOp31
 70
     1
102
RTVSPost2010Prop32
280
     0
102
RTVSPost2010PropOp32
 70
     1
102
RTVSPost2010Prop33
280
     0
102
RTVSPost2010PropOp33
 70
     1
102
RTVSPost2010Prop34
280
     0
102
RTVSPost2010PropOp34
 70
     1
102
RTVSPost2010Prop35
280
     0
102
RTVSPost2010PropOp35
 70
     1
102
RTVSPost2010Prop36
280
     0
102
RTVSPost2010PropOp36
 70
     1
102
RTVSPost2010Prop37
 90
       50
102
RTVSPost2010PropOp37
 70
     1
102
RTVSPost2010Prop38
140
0.0
102
RTVSPost2010PropOp38
 70
     1
102
RTVSPost2010Prop39
140
1.0
102
RTVSPost2010PropOp39
 70
     1
102
RTVSPost2010Prop40
 90
        0
102
RTVSPost2010PropOp40
 70
     1
102
RTVSPost2010Prop41ColorIndex
 90
       18
102
RTVSPost2010Prop41ColorRGB
 90
        0
102
RTVSPost2010PropOp41
 70
     1
102
RTVSPost2010Prop42
 90
       50
102
RTVSPost2010PropOp42
 70
     1
102
RTVSPost2010Prop43
 90
        3
102
RTVSPost2010PropOp43
 70
     1
102
RTVSPost2010Prop44ColorIndex
 90
        5
102
RTVSPost2010Prop44ColorRGB
 90
      255
102
RTVSPost2010PropOp44
 70
     1
102
RTVSPost2010Prop45
280
     0
102
RTVSPost2010PropOp45
 70
     1
102
RTVSPost2010Prop46
 90
       50
102
RTVSPost2010PropOp46
 70
     1
102
RTVSPost2010Prop47
 90
       50
102
RTVSPost2010PropOp47
 70
     1
102
RTVSPost2010Prop48
 90
       50
102
RTVSPost2010PropOp48
 70
     1
102
RTVSPost2010Prop49
280
     0
102
RTVSPost2010PropOp49
 70
     1
102
RTVSPost2010Prop50
 90
       50
102
RTVSPost2010PropOp50
 70
     1
102
RTVSPost2010Prop51ColorIndex
 90
      256
102
RTVSPost2010Prop51ColorRGB
 90
-16777216
102
RTVSPost2010PropOp51
 70
     0
102
RTVSPost2010Prop52
140
1.0
102
RTVSPost2010PropOp52
 70
     0
102
RTVSPost2010Prop53
 90
        2
102
RTVSPost2010PropOp53
 70
     1
102
RTVSPost2010Prop54
  1
strokes_ogs.tif
102
RTVSPost2010PropOp54
 70
     1
102
RTVSPost2010Prop55
280
     0
102
RTVSPost2010PropOp55
 70
     1
102
RTVSPost2010Prop56
140
1.0
102
RTVSPost2010PropOp56
 70
     1
102
RTVSPost2010Prop57
140
1.0
102
RTVSPost2010PropOp57
 70
     1
102
RTVSPropertyOp0
 70
     1
102
RTVSPropertyOp1
 70
     1
102
RTVSPropertyOp2
 70
     1
102
RTVSPropertyOp3
 70
     1
102
RTVSPropertyOp4
 70
     1
102
RTVSPropertyOp5
 70
     1
102
RTVSPropertyOp6
 70
     1
102
RTVSPropertyOp7
 70
     1
102
RTVSPropertyOp8
 70
     1
102
RTVSPropertyOp9
 70
     1
102
RTVSPropertyOp10
 70
     1
102
RTVSPropertyOp11
 70
     1
102
RTVSPropertyOp12
 70
     1
102
RTVSPropertyOp13
 70
     1
102
RTVSPropertyOp14
 70
     1
102
RTVSPropertyOp15
 70
     1
102
RTVSPropertyOp16
 70
     1
102
RTVSPropertyOp17
 70
     1
102
RTVSPropertyOp18
 70
     1
102
RTVSPropertyOp19
 70
     1
102
RTVSPropertyOp20
 70
     1
102
RTVSPropertyOp21
 70
     1
102
RTVSPropertyOp22
 70
     1
102
RTVSPropertyOp23
 70
     1
102
RTVSPropertyOp24
 70
     1
102
RTVSPropertyOp25
 70
     1
102
RTVSPropertyOp26
 70
     1
102
RTVSPropertyOp27
 70
     1
102
RTVSPropertyOp28
 70
     1
102
RTVSPropertyOp29
 70
     1
102
RTVSPropertyOp30
 70
     1
102
RTVSPropertyOp31
 70
     1
102
RTVSPropertyOp32
 70
     1
102
RTVSPropertyOp33
 70
     1
102
RTVSPropertyOp34
 70
     1
102
RTVSPropertyOp35
 70
     1
102
RTVSPropertyOp36
 70
     1
102
RTVSPropertyOp37
 70
     1
102
RTVSPropertyOp38
 70
     1
102
RTVSPropertyOp39
 70
     1
102
RTVSPropertyOp40
 70
     1
102
RTVSPropertyOp41
 70
     1
102
RTVSPropertyOp42
 70
     1
102
RTVSPropertyOp43
 70
     1
102
RTVSPropertyOp44
 70
     1
102
RTVSPropertyOp45
 70
     1
102
RTVSPropertyOp46
 70
     1
102
RTVSPropertyOp47
 70
     1
102
RTVSPropertyOp48
 70
     1
102
RTVSPropertyOp49
 70
     1
102
RTVSPropertyOp50
 70
     1
102
RTVSPropertyOp51
 70
     0
102
RTVSPropertyOp52
 70
     0
102
RTVSPropertyOp53
 70
     1
102
RTVSPropertyOp54
 70
     1
102
RTVSPropertyOp55
 70
     1
102
RTVSPropertyOp56
 70
     1
102
RTVSPropertyOp57
 70
     1
102
RTVSPropertyOp58
 70
     1
102
RTVSPropertyOp59
 70
     1
102
RTVSPropertyOp60
 70
     1
102
RTVSPropertyOp61
 70
     1
102
RTVSPropertyOp62
 70
     1
  0
XRECORD
  5
532
102
{ACAD_REACTORS
330
531
102
}
330
531
100
AcDbXrecord
280
     1
102
RTVSPost2010Prop28
280
     0
102
RTVSPost2010PropOp28
 70
     1
102
RTVSPost2010Prop29
280
     1
102
RTVSPost2010PropOp29
 70
     1
102
RTVSPost2010Prop30
280
     1
102
RTVSPost2010PropOp30
 70
     1
102
RTVSPost2010Prop31
280
     0
102
RTVSPost2010PropOp31
 70
     1
102
RTVSPost2010Prop32
280
     0
102
RTVSPost2010PropOp32
 70
     1
102
RTVSPost2010Prop33
280
     0
102
RTVSPost2010PropOp33
 70
     1
102
RTVSPost2010Prop34
280
     0
102
RTVSPost2010PropOp34
 70
     1
102
RTVSPost2010Prop35
280
     0
102
RTVSPost2010PropOp35
 70
     1
102
RTVSPost2010Prop36
280
     0
102
RTVSPost2010PropOp36
 70
     1
102
RTVSPost2010Prop37
 90
       50
102
RTVSPost2010PropOp37
 70
     1
102
RTVSPost2010Prop38
140
0.0
102
RTVSPost2010PropOp38
 70
     1
102
RTVSPost2010Prop39
140
1.0
102
RTVSPost2010PropOp39
 70
     1
102
RTVSPost2010Prop40
 90
        0
102
RTVSPost2010PropOp40
 70
     1
102
RTVSPost2010Prop41ColorIndex
 90
       18
102
RTVSPost2010Prop41ColorRGB
 90
        0
102
RTVSPost2010PropOp41
 70
     1
102
RTVSPost2010Prop42
 90
       50
102
RTVSPost2010PropOp42
 70
     1
102
RTVSPost2010Prop43
 90
        3
102
RTVSPost2010PropOp43
 70
     1
102
RTVSPost2010Prop44ColorIndex
 90
        5
102
RTVSPost2010Prop44ColorRGB
 90
      255
102
RTVSPost2010PropOp44
 70
     1
102
RTVSPost2010Prop45
280
     0
102
RTVSPost2010PropOp45
 70
     1
102
RTVSPost2010Prop46
 90
       50
102
RTVSPost2010PropOp46
 70
     1
102
RTVSPost2010Prop47
 90
       50
102
RTVSPost2010PropOp47
 70
     1
102
RTVSPost2010Prop48
 90
       50
102
RTVSPost2010PropOp48
 70
     1
102
RTVSPost2010Prop49
280
     0
102
RTVSPost2010PropOp49
 70
     1
102
RTVSPost2010Prop50
 90
       50
102
RTVSPost2010PropOp50
 70
     1
102
RTVSPost2010Prop51ColorIndex
 90
      256
102
RTVSPost2010Prop51ColorRGB
 90
-16777216
102
RTVSPost2010PropOp51
 70
     0
102
RTVSPost2010Prop52
140
1.0
102
RTVSPost2010PropOp52
 70
     0
102
RTVSPost2010Prop53
 90
        2
102
RTVSPost2010PropOp53
 70
     1
102
RTVSPost2010Prop54
  1
strokes_ogs.tif
102
RTVSPost2010PropOp54
 70
     1
102
RTVSPost2010Prop55
280
     0
102
RTVSPost2010PropOp55
 70
     1
102
RTVSPost2010Prop56
140
1.0
102
RTVSPost2010PropOp56
 70
     1
102
RTVSPost2010Prop57
140
1.0
102
RTVSPost2010PropOp57
 70
     1
102
RTVSPropertyOp0
 70
     1
102
RTVSPropertyOp1
 70
     1
102
RTVSPropertyOp2
 70
     1
102
RTVSPropertyOp3
 70
     1
102
RTVSPropertyOp4
 70
     1
102
RTVSPropertyOp5
 70
     1
102
RTVSPropertyOp6
 70
     1
102
RTVSPropertyOp7
 70
     1
102
RTVSPropertyOp8
 70
     1
102
RTVSPropertyOp9
 70
     1
102
RTVSPropertyOp10
 70
     1
102
RTVSPropertyOp11
 70
     1
102
RTVSPropertyOp12
 70
     1
102
RTVSPropertyOp13
 70
     1
102
RTVSPropertyOp14
 70
     1
102
RTVSPropertyOp15
 70
     1
102
RTVSPropertyOp16
 70
     1
102
RTVSPropertyOp17
 70
     1
102
RTVSPropertyOp18
 70
     1
102
RTVSPropertyOp19
 70
     1
102
RTVSPropertyOp20
 70
     1
102
RTVSPropertyOp21
 70
     1
102
RTVSPropertyOp22
 70
     1
102
RTVSPropertyOp23
 70
     1
102
RTVSPropertyOp24
 70
     1
102
RTVSPropertyOp25
 70
     1
102
RTVSPropertyOp26
 70
     1
102
RTVSPropertyOp27
 70
     1
102
RTVSPropertyOp28
 70
     1
102
RTVSPropertyOp29
 70
     1
102
RTVSPropertyOp30
 70
     1
102
RTVSPropertyOp31
 70
     1
102
RTVSPropertyOp32
 70
     1
102
RTVSPropertyOp33
 70
     1
102
RTVSPropertyOp34
 70
     1
102
RTVSPropertyOp35
 70
     1
102
RTVSPropertyOp36
 70
     1
102
RTVSPropertyOp37
 70
     1
102
RTVSPropertyOp38
 70
     1
102
RTVSPropertyOp39
 70
     1
102
RTVSPropertyOp40
 70
     1
102
RTVSPropertyOp41
 70
     1
102
RTVSPropertyOp42
 70
     1
102
RTVSPropertyOp43
 70
     1
102
RTVSPropertyOp44
 70
     1
102
RTVSPropertyOp45
 70
     1
102
RTVSPropertyOp46
 70
     1
102
RTVSPropertyOp47
 70
     1
102
RTVSPropertyOp48
 70
     1
102
RTVSPropertyOp49
 70
     1
102
RTVSPropertyOp50
 70
     1
102
RTVSPropertyOp51
 70
     0
102
RTVSPropertyOp52
 70
     0
102
RTVSPropertyOp53
 70
     1
102
RTVSPropertyOp54
 70
     1
102
RTVSPropertyOp55
 70
     1
102
RTVSPropertyOp56
 70
     1
102
RTVSPropertyOp57
 70
     1
102
RTVSPropertyOp58
 70
     1
102
RTVSPropertyOp59
 70
     1
102
RTVSPropertyOp60
 70
     1
102
RTVSPropertyOp61
 70
     1
102
RTVSPropertyOp62
 70
     1
  0
XRECORD
  5
52C
102
{ACAD_REACTORS
330
52B
102
}
330
52B
100
AcDbXrecord
280
     1
102
RTVSPost2010Prop28
280
     0
102
RTVSPost2010PropOp28
 70
     1
102
RTVSPost2010Prop29
280
     1
102
RTVSPost2010PropOp29
 70
     1
102
RTVSPost2010Prop30
280
     1
102
RTVSPost2010PropOp30
 70
     1
102
RTVSPost2010Prop31
280
     0
102
RTVSPost2010PropOp31
 70
     1
102
RTVSPost2010Prop32
280
     0
102
RTVSPost2010PropOp32
 70
     1
102
RTVSPost2010Prop33
280
     0
102
RTVSPost2010PropOp33
 70
     1
102
RTVSPost2010Prop34
280
     0
102
RTVSPost2010PropOp34
 70
     1
102
RTVSPost2010Prop35
280
     0
102
RTVSPost2010PropOp35
 70
     1
102
RTVSPost2010Prop36
280
     0
102
RTVSPost2010PropOp36
 70
     1
102
RTVSPost2010Prop37
 90
       50
102
RTVSPost2010PropOp37
 70
     1
102
RTVSPost2010Prop38
140
0.0
102
RTVSPost2010PropOp38
 70
     1
102
RTVSPost2010Prop39
140
1.0
102
RTVSPost2010PropOp39
 70
     1
102
RTVSPost2010Prop40
 90
        0
102
RTVSPost2010PropOp40
 70
     1
102
RTVSPost2010Prop41ColorIndex
 90
       18
102
RTVSPost2010Prop41ColorRGB
 90
        0
102
RTVSPost2010PropOp41
 70
     1
102
RTVSPost2010Prop42
 90
       50
102
RTVSPost2010PropOp42
 70
     1
102
RTVSPost2010Prop43
 90
        3
102
RTVSPost2010PropOp43
 70
     1
102
RTVSPost2010Prop44ColorIndex
 90
        5
102
RTVSPost2010Prop44ColorRGB
 90
      255
102
RTVSPost2010PropOp44
 70
     1
102
RTVSPost2010Prop45
280
     0
102
RTVSPost2010PropOp45
 70
     1
102
RTVSPost2010Prop46
 90
       50
102
RTVSPost2010PropOp46
 70
     1
102
RTVSPost2010Prop47
 90
       50
102
RTVSPost2010PropOp47
 70
     1
102
RTVSPost2010Prop48
 90
       50
102
RTVSPost2010PropOp48
 70
     1
102
RTVSPost2010Prop49
280
     0
102
RTVSPost2010PropOp49
 70
     1
102
RTVSPost2010Prop50
 90
       50
102
RTVSPost2010PropOp50
 70
     1
102
RTVSPost2010Prop51ColorIndex
 90
      256
102
RTVSPost2010Prop51ColorRGB
 90
-16777216
102
RTVSPost2010PropOp51
 70
     0
102
RTVSPost2010Prop52
140
1.0
102
RTVSPost2010PropOp52
 70
     0
102
RTVSPost2010Prop53
 90
        2
102
RTVSPost2010PropOp53
 70
     1
102
RTVSPost2010Prop54
  1
strokes_ogs.tif
102
RTVSPost2010PropOp54
 70
     1
102
RTVSPost2010Prop55
280
     0
102
RTVSPost2010PropOp55
 70
     1
102
RTVSPost2010Prop56
140
1.0
102
RTVSPost2010PropOp56
 70
     1
102
RTVSPost2010Prop57
140
1.0
102
RTVSPost2010PropOp57
 70
     1
102
RTVSPropertyOp0
 70
     1
102
RTVSPropertyOp1
 70
     1
102
RTVSPropertyOp2
 70
     1
102
RTVSPropertyOp3
 70
     1
102
RTVSPropertyOp4
 70
     1
102
RTVSPropertyOp5
 70
     1
102
RTVSPropertyOp6
 70
     1
102
RTVSPropertyOp7
 70
     1
102
RTVSPropertyOp8
 70
     1
102
RTVSPropertyOp9
 70
     1
102
RTVSPropertyOp10
 70
     1
102
RTVSPropertyOp11
 70
     1
102
RTVSPropertyOp12
 70
     1
102
RTVSPropertyOp13
 70
     1
102
RTVSPropertyOp14
 70
     1
102
RTVSPropertyOp15
 70
     1
102
RTVSPropertyOp16
 70
     1
102
RTVSPropertyOp17
 70
     1
102
RTVSPropertyOp18
 70
     1
102
RTVSPropertyOp19
 70
     1
102
RTVSPropertyOp20
 70
     1
102
RTVSPropertyOp21
 70
     1
102
RTVSPropertyOp22
 70
     1
102
RTVSPropertyOp23
 70
     1
102
RTVSPropertyOp24
 70
     1
102
RTVSPropertyOp25
 70
     1
102
RTVSPropertyOp26
 70
     1
102
RTVSPropertyOp27
 70
     1
102
RTVSPropertyOp28
 70
     1
102
RTVSPropertyOp29
 70
     1
102
RTVSPropertyOp30
 70
     1
102
RTVSPropertyOp31
 70
     1
102
RTVSPropertyOp32
 70
     1
102
RTVSPropertyOp33
 70
     1
102
RTVSPropertyOp34
 70
     1
102
RTVSPropertyOp35
 70
     1
102
RTVSPropertyOp36
 70
     1
102
RTVSPropertyOp37
 70
     1
102
RTVSPropertyOp38
 70
     1
102
RTVSPropertyOp39
 70
     1
102
RTVSPropertyOp40
 70
     1
102
RTVSPropertyOp41
 70
     1
102
RTVSPropertyOp42
 70
     1
102
RTVSPropertyOp43
 70
     1
102
RTVSPropertyOp44
 70
     1
102
RTVSPropertyOp45
 70
     1
102
RTVSPropertyOp46
 70
     1
102
RTVSPropertyOp47
 70
     1
102
RTVSPropertyOp48
 70
     1
102
RTVSPropertyOp49
 70
     1
102
RTVSPropertyOp50
 70
     1
102
RTVSPropertyOp51
 70
     0
102
RTVSPropertyOp52
 70
     0
102
RTVSPropertyOp53
 70
     1
102
RTVSPropertyOp54
 70
     1
102
RTVSPropertyOp55
 70
     1
102
RTVSPropertyOp56
 70
     1
102
RTVSPropertyOp57
 70
     1
102
RTVSPropertyOp58
 70
     1
102
RTVSPropertyOp59
 70
     1
102
RTVSPropertyOp60
 70
     1
102
RTVSPropertyOp61
 70
     1
102
RTVSPropertyOp62
 70
     1
  0
XRECORD
  5
52E
102
{ACAD_REACTORS
330
52D
102
}
330
52D
100
AcDbXrecord
280
     1
102
RTVSPost2010Prop28
280
     0
102
RTVSPost2010PropOp28
 70
     1
102
RTVSPost2010Prop29
280
     1
102
RTVSPost2010PropOp29
 70
     1
102
RTVSPost2010Prop30
280
     1
102
RTVSPost2010PropOp30
 70
     1
102
RTVSPost2010Prop31
280
     0
102
RTVSPost2010PropOp31
 70
     1
102
RTVSPost2010Prop32
280
     0
102
RTVSPost2010PropOp32
 70
     1
102
RTVSPost2010Prop33
280
     0
102
RTVSPost2010PropOp33
 70
     1
102
RTVSPost2010Prop34
280
     0
102
RTVSPost2010PropOp34
 70
     1
102
RTVSPost2010Prop35
280
     0
102
RTVSPost2010PropOp35
 70
     1
102
RTVSPost2010Prop36
280
     0
102
RTVSPost2010PropOp36
 70
     1
102
RTVSPost2010Prop37
 90
       50
102
RTVSPost2010PropOp37
 70
     1
102
RTVSPost2010Prop38
140
0.0
102
RTVSPost2010PropOp38
 70
     1
102
RTVSPost2010Prop39
140
1.0
102
RTVSPost2010PropOp39
 70
     1
102
RTVSPost2010Prop40
 90
        0
102
RTVSPost2010PropOp40
 70
     1
102
RTVSPost2010Prop41ColorIndex
 90
       18
102
RTVSPost2010Prop41ColorRGB
 90
        0
102
RTVSPost2010PropOp41
 70
     1
102
RTVSPost2010Prop42
 90
       50
102
RTVSPost2010PropOp42
 70
     1
102
RTVSPost2010Prop43
 90
        3
102
RTVSPost2010PropOp43
 70
     1
102
RTVSPost2010Prop44ColorIndex
 90
        5
102
RTVSPost2010Prop44ColorRGB
 90
      255
102
RTVSPost2010PropOp44
 70
     1
102
RTVSPost2010Prop45
280
     0
102
RTVSPost2010PropOp45
 70
     1
102
RTVSPost2010Prop46
 90
       50
102
RTVSPost2010PropOp46
 70
     1
102
RTVSPost2010Prop47
 90
       50
102
RTVSPost2010PropOp47
 70
     1
102
RTVSPost2010Prop48
 90
       50
102
RTVSPost2010PropOp48
 70
     1
102
RTVSPost2010Prop49
280
     0
102
RTVSPost2010PropOp49
 70
     1
102
RTVSPost2010Prop50
 90
       50
102
RTVSPost2010PropOp50
 70
     1
102
RTVSPost2010Prop51ColorIndex
 90
      256
102
RTVSPost2010Prop51ColorRGB
 90
-16777216
102
RTVSPost2010PropOp51
 70
     0
102
RTVSPost2010Prop52
140
1.0
102
RTVSPost2010PropOp52
 70
     0
102
RTVSPost2010Prop53
 90
        2
102
RTVSPost2010PropOp53
 70
     1
102
RTVSPost2010Prop54
  1
strokes_ogs.tif
102
RTVSPost2010PropOp54
 70
     1
102
RTVSPost2010Prop55
280
     0
102
RTVSPost2010PropOp55
 70
     1
102
RTVSPost2010Prop56
140
1.0
102
RTVSPost2010PropOp56
 70
     1
102
RTVSPost2010Prop57
140
1.0
102
RTVSPost2010PropOp57
 70
     1
102
RTVSPropertyOp0
 70
     1
102
RTVSPropertyOp1
 70
     1
102
RTVSPropertyOp2
 70
     1
102
RTVSPropertyOp3
 70
     1
102
RTVSPropertyOp4
 70
     1
102
RTVSPropertyOp5
 70
     1
102
RTVSPropertyOp6
 70
     1
102
RTVSPropertyOp7
 70
     1
102
RTVSPropertyOp8
 70
     1
102
RTVSPropertyOp9
 70
     1
102
RTVSPropertyOp10
 70
     1
102
RTVSPropertyOp11
 70
     1
102
RTVSPropertyOp12
 70
     1
102
RTVSPropertyOp13
 70
     1
102
RTVSPropertyOp14
 70
     1
102
RTVSPropertyOp15
 70
     1
102
RTVSPropertyOp16
 70
     1
102
RTVSPropertyOp17
 70
     1
102
RTVSPropertyOp18
 70
     1
102
RTVSPropertyOp19
 70
     1
102
RTVSPropertyOp20
 70
     1
102
RTVSPropertyOp21
 70
     1
102
RTVSPropertyOp22
 70
     1
102
RTVSPropertyOp23
 70
     1
102
RTVSPropertyOp24
 70
     1
102
RTVSPropertyOp25
 70
     1
102
RTVSPropertyOp26
 70
     1
102
RTVSPropertyOp27
 70
     1
102
RTVSPropertyOp28
 70
     1
102
RTVSPropertyOp29
 70
     1
102
RTVSPropertyOp30
 70
     1
102
RTVSPropertyOp31
 70
     1
102
RTVSPropertyOp32
 70
     1
102
RTVSPropertyOp33
 70
     1
102
RTVSPropertyOp34
 70
     1
102
RTVSPropertyOp35
 70
     1
102
RTVSPropertyOp36
 70
     1
102
RTVSPropertyOp37
 70
     1
102
RTVSPropertyOp38
 70
     1
102
RTVSPropertyOp39
 70
     1
102
RTVSPropertyOp40
 70
     1
102
RTVSPropertyOp41
 70
     1
102
RTVSPropertyOp42
 70
     1
102
RTVSPropertyOp43
 70
     1
102
RTVSPropertyOp44
 70
     1
102
RTVSPropertyOp45
 70
     1
102
RTVSPropertyOp46
 70
     1
102
RTVSPropertyOp47
 70
     1
102
RTVSPropertyOp48
 70
     1
102
RTVSPropertyOp49
 70
     1
102
RTVSPropertyOp50
 70
     1
102
RTVSPropertyOp51
 70
     0
102
RTVSPropertyOp52
 70
     0
102
RTVSPropertyOp53
 70
     1
102
RTVSPropertyOp54
 70
     1
102
RTVSPropertyOp55
 70
     1
102
RTVSPropertyOp56
 70
     1
102
RTVSPropertyOp57
 70
     1
102
RTVSPropertyOp58
 70
     1
102
RTVSPropertyOp59
 70
     1
102
RTVSPropertyOp60
 70
     1
102
RTVSPropertyOp61
 70
     1
102
RTVSPropertyOp62
 70
     1
  0
XRECORD
  5
524
102
{ACAD_REACTORS
330
523
102
}
330
523
100
AcDbXrecord
280
     1
102
RTVSPost2010Prop28
280
     0
102
RTVSPost2010PropOp28
 70
     1
102
RTVSPost2010Prop29
280
     1
102
RTVSPost2010PropOp29
 70
     1
102
RTVSPost2010Prop30
280
     1
102
RTVSPost2010PropOp30
 70
     1
102
RTVSPost2010Prop31
280
     0
102
RTVSPost2010PropOp31
 70
     1
102
RTVSPost2010Prop32
280
     0
102
RTVSPost2010PropOp32
 70
     1
102
RTVSPost2010Prop33
280
     0
102
RTVSPost2010PropOp33
 70
     1
102
RTVSPost2010Prop34
280
     0
102
RTVSPost2010PropOp34
 70
     1
102
RTVSPost2010Prop35
280
     0
102
RTVSPost2010PropOp35
 70
     1
102
RTVSPost2010Prop36
280
     0
102
RTVSPost2010PropOp36
 70
     1
102
RTVSPost2010Prop37
 90
       50
102
RTVSPost2010PropOp37
 70
     1
102
RTVSPost2010Prop38
140
0.0
102
RTVSPost2010PropOp38
 70
     1
102
RTVSPost2010Prop39
140
1.0
102
RTVSPost2010PropOp39
 70
     1
102
RTVSPost2010Prop40
 90
        0
102
RTVSPost2010PropOp40
 70
     1
102
RTVSPost2010Prop41ColorIndex
 90
       18
102
RTVSPost2010Prop41ColorRGB
 90
        0
102
RTVSPost2010PropOp41
 70
     1
102
RTVSPost2010Prop42
 90
       50
102
RTVSPost2010PropOp42
 70
     1
102
RTVSPost2010Prop43
 90
        3
102
RTVSPost2010PropOp43
 70
     1
102
RTVSPost2010Prop44ColorIndex
 90
        5
102
RTVSPost2010Prop44ColorRGB
 90
      255
102
RTVSPost2010PropOp44
 70
     1
102
RTVSPost2010Prop45
280
     0
102
RTVSPost2010PropOp45
 70
     1
102
RTVSPost2010Prop46
 90
       50
102
RTVSPost2010PropOp46
 70
     1
102
RTVSPost2010Prop47
 90
       50
102
RTVSPost2010PropOp47
 70
     1
102
RTVSPost2010Prop48
 90
       50
102
RTVSPost2010PropOp48
 70
     1
102
RTVSPost2010Prop49
280
     0
102
RTVSPost2010PropOp49
 70
     1
102
RTVSPost2010Prop50
 90
       50
102
RTVSPost2010PropOp50
 70
     1
102
RTVSPost2010Prop51ColorIndex
 90
      256
102
RTVSPost2010Prop51ColorRGB
 90
-16777216
102
RTVSPost2010PropOp51
 70
     0
102
RTVSPost2010Prop52
140
1.0
102
RTVSPost2010PropOp52
 70
     0
102
RTVSPost2010Prop53
 90
        2
102
RTVSPost2010PropOp53
 70
     1
102
RTVSPost2010Prop54
  1
strokes_ogs.tif
102
RTVSPost2010PropOp54
 70
     1
102
RTVSPost2010Prop55
280
     0
102
RTVSPost2010PropOp55
 70
     1
102
RTVSPost2010Prop56
140
1.0
102
RTVSPost2010PropOp56
 70
     1
102
RTVSPost2010Prop57
140
1.0
102
RTVSPost2010PropOp57
 70
     1
102
RTVSPropertyOp0
 70
     1
102
RTVSPropertyOp1
 70
     1
102
RTVSPropertyOp2
 70
     1
102
RTVSPropertyOp3
 70
     1
102
RTVSPropertyOp4
 70
     1
102
RTVSPropertyOp5
 70
     1
102
RTVSPropertyOp6
 70
     1
102
RTVSPropertyOp7
 70
     1
102
RTVSPropertyOp8
 70
     1
102
RTVSPropertyOp9
 70
     1
102
RTVSPropertyOp10
 70
     1
102
RTVSPropertyOp11
 70
     1
102
RTVSPropertyOp12
 70
     1
102
RTVSPropertyOp13
 70
     1
102
RTVSPropertyOp14
 70
     1
102
RTVSPropertyOp15
 70
     1
102
RTVSPropertyOp16
 70
     1
102
RTVSPropertyOp17
 70
     1
102
RTVSPropertyOp18
 70
     1
102
RTVSPropertyOp19
 70
     1
102
RTVSPropertyOp20
 70
     1
102
RTVSPropertyOp21
 70
     1
102
RTVSPropertyOp22
 70
     1
102
RTVSPropertyOp23
 70
     1
102
RTVSPropertyOp24
 70
     1
102
RTVSPropertyOp25
 70
     1
102
RTVSPropertyOp26
 70
     1
102
RTVSPropertyOp27
 70
     1
102
RTVSPropertyOp28
 70
     1
102
RTVSPropertyOp29
 70
     1
102
RTVSPropertyOp30
 70
     1
102
RTVSPropertyOp31
 70
     1
102
RTVSPropertyOp32
 70
     1
102
RTVSPropertyOp33
 70
     1
102
RTVSPropertyOp34
 70
     1
102
RTVSPropertyOp35
 70
     1
102
RTVSPropertyOp36
 70
     1
102
RTVSPropertyOp37
 70
     1
102
RTVSPropertyOp38
 70
     1
102
RTVSPropertyOp39
 70
     1
102
RTVSPropertyOp40
 70
     1
102
RTVSPropertyOp41
 70
     1
102
RTVSPropertyOp42
 70
     1
102
RTVSPropertyOp43
 70
     1
102
RTVSPropertyOp44
 70
     1
102
RTVSPropertyOp45
 70
     1
102
RTVSPropertyOp46
 70
     1
102
RTVSPropertyOp47
 70
     1
102
RTVSPropertyOp48
 70
     1
102
RTVSPropertyOp49
 70
     1
102
RTVSPropertyOp50
 70
     1
102
RTVSPropertyOp51
 70
     0
102
RTVSPropertyOp52
 70
     0
102
RTVSPropertyOp53
 70
     1
102
RTVSPropertyOp54
 70
     1
102
RTVSPropertyOp55
 70
     1
102
RTVSPropertyOp56
 70
     1
102
RTVSPropertyOp57
 70
     1
102
RTVSPropertyOp58
 70
     1
102
RTVSPropertyOp59
 70
     1
102
RTVSPropertyOp60
 70
     1
102
RTVSPropertyOp61
 70
     1
102
RTVSPropertyOp62
 70
     1
  0
XRECORD
  5
518
102
{ACAD_REACTORS
330
517
102
}
330
517
100
AcDbXrecord
280
     1
102
RTVSPost2010Prop28
280
     0
102
RTVSPost2010PropOp28
 70
     1
102
RTVSPost2010Prop29
280
     1
102
RTVSPost2010PropOp29
 70
     1
102
RTVSPost2010Prop30
280
     1
102
RTVSPost2010PropOp30
 70
     1
102
RTVSPost2010Prop31
280
     0
102
RTVSPost2010PropOp31
 70
     1
102
RTVSPost2010Prop32
280
     0
102
RTVSPost2010PropOp32
 70
     1
102
RTVSPost2010Prop33
280
     0
102
RTVSPost2010PropOp33
 70
     1
102
RTVSPost2010Prop34
280
     0
102
RTVSPost2010PropOp34
 70
     1
102
RTVSPost2010Prop35
280
     0
102
RTVSPost2010PropOp35
 70
     1
102
RTVSPost2010Prop36
280
     0
102
RTVSPost2010PropOp36
 70
     1
102
RTVSPost2010Prop37
 90
       50
102
RTVSPost2010PropOp37
 70
     1
102
RTVSPost2010Prop38
140
0.0
102
RTVSPost2010PropOp38
 70
     1
102
RTVSPost2010Prop39
140
1.0
102
RTVSPost2010PropOp39
 70
     1
102
RTVSPost2010Prop40
 90
        0
102
RTVSPost2010PropOp40
 70
     1
102
RTVSPost2010Prop41ColorIndex
 90
       18
102
RTVSPost2010Prop41ColorRGB
 90
        0
102
RTVSPost2010PropOp41
 70
     1
102
RTVSPost2010Prop42
 90
       50
102
RTVSPost2010PropOp42
 70
     1
102
RTVSPost2010Prop43
 90
        3
102
RTVSPost2010PropOp43
 70
     1
102
RTVSPost2010Prop44ColorIndex
 90
        5
102
RTVSPost2010Prop44ColorRGB
 90
      255
102
RTVSPost2010PropOp44
 70
     1
102
RTVSPost2010Prop45
280
     0
102
RTVSPost2010PropOp45
 70
     1
102
RTVSPost2010Prop46
 90
       50
102
RTVSPost2010PropOp46
 70
     1
102
RTVSPost2010Prop47
 90
       50
102
RTVSPost2010PropOp47
 70
     1
102
RTVSPost2010Prop48
 90
       50
102
RTVSPost2010PropOp48
 70
     1
102
RTVSPost2010Prop49
280
     0
102
RTVSPost2010PropOp49
 70
     1
102
RTVSPost2010Prop50
 90
       50
102
RTVSPost2010PropOp50
 70
     1
102
RTVSPost2010Prop51ColorIndex
 90
      256
102
RTVSPost2010Prop51ColorRGB
 90
-16777216
102
RTVSPost2010PropOp51
 70
     0
102
RTVSPost2010Prop52
140
1.0
102
RTVSPost2010PropOp52
 70
     0
102
RTVSPost2010Prop53
 90
        2
102
RTVSPost2010PropOp53
 70
     1
102
RTVSPost2010Prop54
  1
strokes_ogs.tif
102
RTVSPost2010PropOp54
 70
     1
102
RTVSPost2010Prop55
280
     0
102
RTVSPost2010PropOp55
 70
     1
102
RTVSPost2010Prop56
140
1.0
102
RTVSPost2010PropOp56
 70
     1
102
RTVSPost2010Prop57
140
1.0
102
RTVSPost2010PropOp57
 70
     1
102
RTVSPropertyOp0
 70
     1
102
RTVSPropertyOp1
 70
     1
102
RTVSPropertyOp2
 70
     1
102
RTVSPropertyOp3
 70
     1
102
RTVSPropertyOp4
 70
     1
102
RTVSPropertyOp5
 70
     1
102
RTVSPropertyOp6
 70
     1
102
RTVSPropertyOp7
 70
     1
102
RTVSPropertyOp8
 70
     1
102
RTVSPropertyOp9
 70
     1
102
RTVSPropertyOp10
 70
     1
102
RTVSPropertyOp11
 70
     1
102
RTVSPropertyOp12
 70
     1
102
RTVSPropertyOp13
 70
     1
102
RTVSPropertyOp14
 70
     1
102
RTVSPropertyOp15
 70
     1
102
RTVSPropertyOp16
 70
     1
102
RTVSPropertyOp17
 70
     1
102
RTVSPropertyOp18
 70
     1
102
RTVSPropertyOp19
 70
     1
102
RTVSPropertyOp20
 70
     1
102
RTVSPropertyOp21
 70
     1
102
RTVSPropertyOp22
 70
     1
102
RTVSPropertyOp23
 70
     1
102
RTVSPropertyOp24
 70
     1
102
RTVSPropertyOp25
 70
     1
102
RTVSPropertyOp26
 70
     1
102
RTVSPropertyOp27
 70
     1
102
RTVSPropertyOp28
 70
     1
102
RTVSPropertyOp29
 70
     1
102
RTVSPropertyOp30
 70
     1
102
RTVSPropertyOp31
 70
     1
102
RTVSPropertyOp32
 70
     1
102
RTVSPropertyOp33
 70
     1
102
RTVSPropertyOp34
 70
     1
102
RTVSPropertyOp35
 70
     1
102
RTVSPropertyOp36
 70
     1
102
RTVSPropertyOp37
 70
     1
102
RTVSPropertyOp38
 70
     1
102
RTVSPropertyOp39
 70
     1
102
RTVSPropertyOp40
 70
     1
102
RTVSPropertyOp41
 70
     1
102
RTVSPropertyOp42
 70
     1
102
RTVSPropertyOp43
 70
     1
102
RTVSPropertyOp44
 70
     1
102
RTVSPropertyOp45
 70
     1
102
RTVSPropertyOp46
 70
     1
102
RTVSPropertyOp47
 70
     1
102
RTVSPropertyOp48
 70
     1
102
RTVSPropertyOp49
 70
     1
102
RTVSPropertyOp50
 70
     1
102
RTVSPropertyOp51
 70
     0
102
RTVSPropertyOp52
 70
     0
102
RTVSPropertyOp53
 70
     1
102
RTVSPropertyOp54
 70
     1
102
RTVSPropertyOp55
 70
     1
102
RTVSPropertyOp56
 70
     1
102
RTVSPropertyOp57
 70
     1
102
RTVSPropertyOp58
 70
     1
102
RTVSPropertyOp59
 70
     1
102
RTVSPropertyOp60
 70
     1
102
RTVSPropertyOp61
 70
     1
102
RTVSPropertyOp62
 70
     1
  0
XRECORD
  5
530
102
{ACAD_REACTORS
330
52F
102
}
330
52F
100
AcDbXrecord
280
     1
102
RTVSPost2010Prop28
280
     0
102
RTVSPost2010PropOp28
 70
     1
102
RTVSPost2010Prop29
280
     1
102
RTVSPost2010PropOp29
 70
     1
102
RTVSPost2010Prop30
280
     1
102
RTVSPost2010PropOp30
 70
     1
102
RTVSPost2010Prop31
280
     0
102
RTVSPost2010PropOp31
 70
     1
102
RTVSPost2010Prop32
280
     0
102
RTVSPost2010PropOp32
 70
     1
102
RTVSPost2010Prop33
280
     0
102
RTVSPost2010PropOp33
 70
     1
102
RTVSPost2010Prop34
280
     0
102
RTVSPost2010PropOp34
 70
     1
102
RTVSPost2010Prop35
280
     0
102
RTVSPost2010PropOp35
 70
     1
102
RTVSPost2010Prop36
280
     0
102
RTVSPost2010PropOp36
 70
     1
102
RTVSPost2010Prop37
 90
       50
102
RTVSPost2010PropOp37
 70
     1
102
RTVSPost2010Prop38
140
0.0
102
RTVSPost2010PropOp38
 70
     1
102
RTVSPost2010Prop39
140
1.0
102
RTVSPost2010PropOp39
 70
     1
102
RTVSPost2010Prop40
 90
        0
102
RTVSPost2010PropOp40
 70
     1
102
RTVSPost2010Prop41ColorIndex
 90
       18
102
RTVSPost2010Prop41ColorRGB
 90
        0
102
RTVSPost2010PropOp41
 70
     1
102
RTVSPost2010Prop42
 90
       50
102
RTVSPost2010PropOp42
 70
     1
102
RTVSPost2010Prop43
 90
        3
102
RTVSPost2010PropOp43
 70
     1
102
RTVSPost2010Prop44ColorIndex
 90
        5
102
RTVSPost2010Prop44ColorRGB
 90
      255
102
RTVSPost2010PropOp44
 70
     1
102
RTVSPost2010Prop45
280
     0
102
RTVSPost2010PropOp45
 70
     1
102
RTVSPost2010Prop46
 90
       50
102
RTVSPost2010PropOp46
 70
     1
102
RTVSPost2010Prop47
 90
       50
102
RTVSPost2010PropOp47
 70
     1
102
RTVSPost2010Prop48
 90
       50
102
RTVSPost2010PropOp48
 70
     1
102
RTVSPost2010Prop49
280
     0
102
RTVSPost2010PropOp49
 70
     1
102
RTVSPost2010Prop50
 90
       50
102
RTVSPost2010PropOp50
 70
     1
102
RTVSPost2010Prop51ColorIndex
 90
      256
102
RTVSPost2010Prop51ColorRGB
 90
-16777216
102
RTVSPost2010PropOp51
 70
     0
102
RTVSPost2010Prop52
140
1.0
102
RTVSPost2010PropOp52
 70
     0
102
RTVSPost2010Prop53
 90
        2
102
RTVSPost2010PropOp53
 70
     1
102
RTVSPost2010Prop54
  1
strokes_ogs.tif
102
RTVSPost2010PropOp54
 70
     1
102
RTVSPost2010Prop55
280
     0
102
RTVSPost2010PropOp55
 70
     1
102
RTVSPost2010Prop56
140
1.0
102
RTVSPost2010PropOp56
 70
     1
102
RTVSPost2010Prop57
140
1.0
102
RTVSPost2010PropOp57
 70
     1
102
RTVSPropertyOp0
 70
     1
102
RTVSPropertyOp1
 70
     1
102
RTVSPropertyOp2
 70
     1
102
RTVSPropertyOp3
 70
     1
102
RTVSPropertyOp4
 70
     1
102
RTVSPropertyOp5
 70
     1
102
RTVSPropertyOp6
 70
     1
102
RTVSPropertyOp7
 70
     1
102
RTVSPropertyOp8
 70
     1
102
RTVSPropertyOp9
 70
     1
102
RTVSPropertyOp10
 70
     1
102
RTVSPropertyOp11
 70
     1
102
RTVSPropertyOp12
 70
     1
102
RTVSPropertyOp13
 70
     1
102
RTVSPropertyOp14
 70
     1
102
RTVSPropertyOp15
 70
     1
102
RTVSPropertyOp16
 70
     1
102
RTVSPropertyOp17
 70
     1
102
RTVSPropertyOp18
 70
     1
102
RTVSPropertyOp19
 70
     1
102
RTVSPropertyOp20
 70
     1
102
RTVSPropertyOp21
 70
     1
102
RTVSPropertyOp22
 70
     1
102
RTVSPropertyOp23
 70
     1
102
RTVSPropertyOp24
 70
     1
102
RTVSPropertyOp25
 70
     1
102
RTVSPropertyOp26
 70
     1
102
RTVSPropertyOp27
 70
     1
102
RTVSPropertyOp28
 70
     1
102
RTVSPropertyOp29
 70
     1
102
RTVSPropertyOp30
 70
     1
102
RTVSPropertyOp31
 70
     1
102
RTVSPropertyOp32
 70
     1
102
RTVSPropertyOp33
 70
     1
102
RTVSPropertyOp34
 70
     1
102
RTVSPropertyOp35
 70
     1
102
RTVSPropertyOp36
 70
     1
102
RTVSPropertyOp37
 70
     1
102
RTVSPropertyOp38
 70
     1
102
RTVSPropertyOp39
 70
     1
102
RTVSPropertyOp40
 70
     1
102
RTVSPropertyOp41
 70
     1
102
RTVSPropertyOp42
 70
     1
102
RTVSPropertyOp43
 70
     1
102
RTVSPropertyOp44
 70
     1
102
RTVSPropertyOp45
 70
     1
102
RTVSPropertyOp46
 70
     1
102
RTVSPropertyOp47
 70
     1
102
RTVSPropertyOp48
 70
     1
102
RTVSPropertyOp49
 70
     1
102
RTVSPropertyOp50
 70
     1
102
RTVSPropertyOp51
 70
     0
102
RTVSPropertyOp52
 70
     0
102
RTVSPropertyOp53
 70
     1
102
RTVSPropertyOp54
 70
     1
102
RTVSPropertyOp55
 70
     1
102
RTVSPropertyOp56
 70
     1
102
RTVSPropertyOp57
 70
     1
102
RTVSPropertyOp58
 70
     1
102
RTVSPropertyOp59
 70
     1
102
RTVSPropertyOp60
 70
     1
102
RTVSPropertyOp61
 70
     1
102
RTVSPropertyOp62
 70
     1
  0
ENDSEC
  0
EOF
