  0
SECTION
  2
HEADER
  9
$ACADVER
  1
AC1015
  9
$ACADMAINTVER
 70
    20
  9
$DWGCODEPAGE
  3
ANSI_932
  9
$INSBASE
 10
0.0
 20
0.0
 30
0.0
  9
$EXTMIN
 10
10.0
 20
9.999999999999998
 30
0.0
  9
$EXTMAX
 10
618.957703
 20
283.0
 30
0.0
  9
$LIMMIN
 10
0.0
 20
0.0
  9
$LIMMAX
 10
633.6
 20
436.8
  9
$ORTHOMODE
 70
     1
  9
$REGENMODE
 70
     1
  9
$FILLMODE
 70
     1
  9
$QTEXTMODE
 70
     0
  9
$MIRRTEXT
 70
     1
  9
$LTSCALE
 40
20.0
  9
$ATTMODE
 70
     1
  9
$TEXTSIZE
 40
5.0
  9
$TRACEWID
 40
1.0
  9
$TEXTSTYLE
  7
STANDARD
  9
$CLAYER
  8
0
  9
$CELTYPE
  6
BYLAYER
  9
$CECOLOR
 62
   256
  9
$CELTSCALE
 40
1.0
  9
$DISPSILH
 70
     0
  9
$DIMSCALE
 40
1.0
  9
$DIMASZ
 40
3.0
  9
$DIMEXO
 40
1.0
  9
$DIMDLI
 40
10.0
  9
$DIMRND
 40
0.0
  9
$DIMDLE
 40
0.0
  9
$DIMEXE
 40
1.0
  9
$DIMTP
 40
0.0
  9
$DIMTM
 40
0.0
  9
$DIMTXT
 40
2.5
  9
$DIMCEN
 40
0.0
  9
$DIMTSZ
 40
0.0
  9
$DIMTOL
 70
     0
  9
$DIMLIM
 70
     0
  9
$DIMTIH
 70
     0
  9
$DIMTOH
 70
     0
  9
$DIMSE1
 70
     0
  9
$DIMSE2
 70
     0
  9
$DIMTAD
 70
     3
  9
$DIMZIN
 70
     8
  9
$DIMBLK
  1

  9
$DIMASO
 70
     1
  9
$DIMSHO
 70
     1
  9
$DIMPOST
  1

  9
$DIMAPOST
  1

  9
$DIMALT
 70
     0
  9
$DIMALTD
 70
     2
  9
$DIMALTF
 40
25.4
  9
$DIMLFAC
 40
1.0
  9
$DIMTOFL
 70
     1
  9
$DIMTVP
 40
0.0
  9
$DIMTIX
 70
     0
  9
$DIMSOXD
 70
     0
  9
$DIMSAH
 70
     1
  9
$DIMBLK1
  1

  9
$DIMBLK2
  1

  9
$DIMSTYLE
  2
STANDARD
  9
$DIMCLRD
 70
     0
  9
$DIMCLRE
 70
     0
  9
$DIMCLRT
 70
     0
  9
$DIMTFAC
 40
1.0
  9
$DIMGAP
 40
1.0
  9
$DIMJUST
 70
     0
  9
$DIMSD1
 70
     0
  9
$DIMSD2
 70
     0
  9
$DIMTOLJ
 70
     1
  9
$DIMTZIN
 70
     0
  9
$DIMALTZ
 70
     0
  9
$DIMALTTZ
 70
     0
  9
$DIMUPT
 70
     0
  9
$DIMDEC
 70
     4
  9
$DIMTDEC
 70
     4
  9
$DIMALTU
 70
     2
  9
$DIMALTTD
 70
     2
  9
$DIMTXSTY
  7
STANDARD
  9
$DIMAUNIT
 70
     0
  9
$DIMADEC
 70
     0
  9
$DIMALTRND
 40
0.0
  9
$DIMAZIN
 70
     0
  9
$DIMDSEP
 70
    46
  9
$DIMATFIT
 70
     3
  9
$DIMFRAC
 70
     0
  9
$DIMLDRBLK
  1

  9
$DIMLUNIT
 70
     2
  9
$DIMLWD
 70
    -2
  9
$DIMLWE
 70
    -2
  9
$DIMTMOVE
 70
     0
  9
$LUNITS
 70
     2
  9
$LUPREC
 70
     4
  9
$SKETCHINC
 40
1.0
  9
$FILLETRAD
 40
0.0
  9
$AUNITS
 70
     0
  9
$AUPREC
 70
     2
  9
$MENU
  1
.
  9
$ELEVATION
 40
0.0
  9
$PELEVATION
 40
0.0
  9
$THICKNESS
 40
0.0
  9
$LIMCHECK
 70
     0
  9
$CHAMFERA
 40
10.0
  9
$CHAMFERB
 40
10.0
  9
$CHAMFERC
 40
0.0
  9
$CHAMFERD
 40
0.0
  9
$SKPOLY
 70
     0
  9
$TDCREATE
 40
2451233.433066435
  9
$TDUCREATE
 40
2451233.058066435
  9
$TDUPDATE
 40
2457192.661947650
  9
$TDUUPDATE
 40
2457192.286947651
  9
$TDINDWG
 40
0.0000156250
  9
$TDUSRTIMER
 40
0.0000150347
  9
$USRTIMER
 70
     1
  9
$ANGBASE
 50
0.0
  9
$ANGDIR
 70
     0
  9
$PDMODE
 70
     0
  9
$PDSIZE
 40
0.0
  9
$PLINEWID
 40
0.0
  9
$SPLFRAME
 70
     0
  9
$SPLINETYPE
 70
     6
  9
$SPLINESEGS
 70
     8
  9
$HANDSEED
  5
CC2E
  9
$SURFTAB1
 70
     6
  9
$SURFTAB2
 70
     6
  9
$SURFTYPE
 70
     6
  9
$SURFU
 70
     6
  9
$SURFV
 70
     6
  9
$UCSBASE
  2

  9
$UCSNAME
  2

  9
$UCSORG
 10
0.0
 20
0.0
 30
0.0
  9
$UCSXDIR
 10
1.0
 20
0.0
 30
0.0
  9
$UCSYDIR
 10
0.0
 20
1.0
 30
0.0
  9
$UCSORTHOREF
  2

  9
$UCSORTHOVIEW
 70
     0
  9
$UCSORGTOP
 10
0.0
 20
0.0
 30
0.0
  9
$UCSORGBOTTOM
 10
0.0
 20
0.0
 30
0.0
  9
$UCSORGLEFT
 10
0.0
 20
0.0
 30
0.0
  9
$UCSORGRIGHT
 10
0.0
 20
0.0
 30
0.0
  9
$UCSORGFRONT
 10
0.0
 20
0.0
 30
0.0
  9
$UCSORGBACK
 10
0.0
 20
0.0
 30
0.0
  9
$PUCSBASE
  2

  9
$PUCSNAME
  2

  9
$PUCSORG
 10
0.0
 20
0.0
 30
0.0
  9
$PUCSXDIR
 10
1.0
 20
0.0
 30
0.0
  9
$PUCSYDIR
 10
0.0
 20
1.0
 30
0.0
  9
$PUCSORTHOREF
  2

  9
$PUCSORTHOVIEW
 70
     0
  9
$PUCSORGTOP
 10
0.0
 20
0.0
 30
0.0
  9
$PUCSORGBOTTOM
 10
0.0
 20
0.0
 30
0.0
  9
$PUCSORGLEFT
 10
0.0
 20
0.0
 30
0.0
  9
$PUCSORGRIGHT
 10
0.0
 20
0.0
 30
0.0
  9
$PUCSORGFRONT
 10
0.0
 20
0.0
 30
0.0
  9
$PUCSORGBACK
 10
0.0
 20
0.0
 30
0.0
  9
$USERI1
 70
     0
  9
$USERI2
 70
     0
  9
$USERI3
 70
     0
  9
$USERI4
 70
     0
  9
$USERI5
 70
     0
  9
$USERR1
 40
0.0
  9
$USERR2
 40
0.0
  9
$USERR3
 40
0.0
  9
$USERR4
 40
0.0
  9
$USERR5
 40
0.0
  9
$WORLDVIEW
 70
     1
  9
$SHADEDGE
 70
     3
  9
$SHADEDIF
 70
    70
  9
$TILEMODE
 70
     1
  9
$MAXACTVP
 70
    16
  9
$PINSBASE
 10
0.0
 20
0.0
 30
0.0
  9
$PLIMCHECK
 70
     0
  9
$PEXTMIN
 10
1.000000000000000E+20
 20
1.000000000000000E+20
 30
1.000000000000000E+20
  9
$PEXTMAX
 10
-1.000000000000000E+20
 20
-1.000000000000000E+20
 30
-1.000000000000000E+20
  9
$PLIMMIN
 10
0.0
 20
0.0
  9
$PLIMMAX
 10
420.0
 20
297.0
  9
$UNITMODE
 70
     0
  9
$VISRETAIN
 70
     0
  9
$PLINEGEN
 70
     0
  9
$PSLTSCALE
 70
     0
  9
$TREEDEPTH
 70
  3020
  9
$CMLSTYLE
  2
STANDARD
  9
$CMLJUST
 70
     0
  9
$CMLSCALE
 40
1.0
  9
$PROXYGRAPHICS
 70
     1
  9
$MEASUREMENT
 70
     0
  9
$CELWEIGHT
370
    -1
  9
$ENDCAPS
280
     0
  9
$JOINSTYLE
280
     0
  9
$LWDISPLAY
290
     0
  9
$INSUNITS
 70
     0
  9
$HYPERLINKBASE
  1

  9
$STYLESHEET
  1

  9
$XEDIT
290
     1
  9
$CEPSNTYPE
380
     0
  9
$PSTYLEMODE
290
     1
  9
$FINGERPRINTGUID
  2
{FFFBA81A-66BD-4F69-8E8E-DD33700C67F5}
  9
$VERSIONGUID
  2
{460A7F9F-86F6-48DF-AA09-BC028CEBA90E}
  9
$EXTNAMES
290
     1
  9
$PSVPSCALE
 40
0.0
  9
$OLESTARTUP
290
     0
  0
ENDSEC
  0
SECTION
  2
CLASSES
  0
CLASS
  1
ACDBDICTIONARYWDFLT
  2
AcDbDictionaryWithDefault
  3
ObjectDBX Classes
 90
        0
280
     0
281
     0
  0
CLASS
  1
ACDBPLACEHOLDER
  2
AcDbPlaceHolder
  3
ObjectDBX Classes
 90
        0
280
     0
281
     0
  0
CLASS
  1
LAYOUT
  2
AcDbLayout
  3
ObjectDBX Classes
 90
        0
280
     0
281
     0
  0
CLASS
  1
DICTIONARYVAR
  2
AcDbDictionaryVar
  3
ObjectDBX Classes
 90
        0
280
     0
281
     0
  0
CLASS
  1
MATERIAL
  2
AcDbMaterial
  3
ObjectDBX Classes
 90
     1153
280
     0
281
     0
  0
CLASS
  1
VISUALSTYLE
  2
AcDbVisualStyle
  3
ObjectDBX Classes
 90
     4095
280
     0
281
     0
  0
CLASS
  1
TABLESTYLE
  2
AcDbTableStyle
  3
ObjectDBX Classes
 90
     4095
280
     0
281
     0
  0
CLASS
  1
SCALE
  2
AcDbScale
  3
ObjectDBX Classes
 90
     1153
280
     0
281
     0
  0
CLASS
  1
MLEADERSTYLE
  2
AcDbMLeaderStyle
  3
ACDB_MLEADERSTYLE_CLASS
 90
     4095
280
     0
281
     0
  0
CLASS
  1
ACDBSECTIONVIEWSTYLE
  2
AcDbSectionViewStyle
  3
ObjectDBX Classes
 90
     1025
280
     0
281
     0
  0
CLASS
  1
ACDBDETAILVIEWSTYLE
  2
AcDbDetailViewStyle
  3
ObjectDBX Classes
 90
     1025
280
     0
281
     0
  0
CLASS
  1
CELLSTYLEMAP
  2
AcDbCellStyleMap
  3
ObjectDBX Classes
 90
     1152
280
     0
281
     0
  0
ENDSEC
  0
SECTION
  2
TABLES
  0
TABLE
  2
VPORT
  5
C790
330
0
100
AcDbSymbolTable
 70
     1
  0
VPORT
  5
CB77
330
C790
100
AcDbSymbolTableRecord
100
AcDbViewportTableRecord
  2
*ACTIVE
 70
     0
 10
0.0
 20
0.0
 11
1.0
 21
1.0
 12
419.3307768195145
 22
146.5008920465839
 13
0.0
 23
0.0
 14
10.0
 24
10.0
 15
10.0
 25
10.0
 16
0.0
 26
0.0
 36
1.0
 17
0.0
 27
0.0
 37
0.0
 40
350.0498599503088
 41
1.899603698811096
 42
50.0
 43
0.0
 44
0.0
 50
0.0
 51
0.0
 71
     0
 72
   100
 73
     1
 74
     0
 75
     0
 76
     0
 77
     0
 78
     0
281
     0
 65
     1
110
0.0
120
0.0
130
0.0
111
1.0
121
0.0
131
0.0
112
0.0
122
1.0
132
0.0
 79
     0
146
0.0
1001
ACAD_NAV_VCDISPLAY
1070
     3
  0
ENDTAB
  0
TABLE
  2
LTYPE
  5
C78D
330
0
100
AcDbSymbolTable
 70
     4
  0
LTYPE
  5
C79B
330
C78D
100
AcDbSymbolTableRecord
100
AcDbLinetypeTableRecord
  2
BYBLOCK
 70
     0
  3

 72
    65
 73
     0
 40
0.0
  0
LTYPE
  5
C79C
330
C78D
100
AcDbSymbolTableRecord
100
AcDbLinetypeTableRecord
  2
BYLAYER
 70
     0
  3

 72
    65
 73
     0
 40
0.0
  0
LTYPE
  5
C79D
330
C78D
100
AcDbSymbolTableRecord
100
AcDbLinetypeTableRecord
  2
CONTINUOUS
 70
     0
  3
Solid line
 72
    65
 73
     0
 40
0.0
  0
LTYPE
  5
C7AB
330
C78D
100
AcDbSymbolTableRecord
100
AcDbLinetypeTableRecord
  2
DASHED
 70
     0
  3
__ __ __ __ __ __ __ __ __ __ __ __ __ __ __ __
 72
    65
 73
     2
 40
0.75
 49
0.5
 74
     0
 49
-0.25
 74
     0
  0
LTYPE
  5
C7AC
330
C78D
100
AcDbSymbolTableRecord
100
AcDbLinetypeTableRecord
  2
CENTER
 70
     0
  3
____ _ ____ _ ____ _ ____ _ ____ _ ____ _ ____ 
 72
    65
 73
     4
 40
2.0
 49
1.25
 74
     0
 49
-0.25
 74
     0
 49
0.25
 74
     0
 49
-0.25
 74
     0
  0
LTYPE
  5
C7AD
330
C78D
100
AcDbSymbolTableRecord
100
AcDbLinetypeTableRecord
  2
PHANTOM
 70
     0
  3
______  __  __  ______  __  __  ______  __  __ 
 72
    65
 73
     6
 40
2.5
 49
1.25
 74
     0
 49
-0.25
 74
     0
 49
0.25
 74
     0
 49
-0.25
 74
     0
 49
0.25
 74
     0
 49
-0.25
 74
     0
  0
ENDTAB
  0
TABLE
  2
LAYER
  5
C78A
330
0
100
AcDbSymbolTable
 70
     8
  0
LAYER
  5
C798
102
{ACAD_XDICTIONARY
360
CBD2
102
}
330
C78A
100
AcDbSymbolTableRecord
100
AcDbLayerTableRecord
  2
0
 70
     0
 62
     7
  6
CONTINUOUS
370
    -3
390
CB80
  0
LAYER
  5
C7AE
102
{ACAD_XDICTIONARY
360
CBD4
102
}
330
C78A
100
AcDbSymbolTableRecord
100
AcDbLayerTableRecord
  2
4
 70
     0
 62
     1
  6
CENTER
370
    -3
390
CB80
  0
LAYER
  5
C7AF
102
{ACAD_XDICTIONARY
360
CBD6
102
}
330
C78A
100
AcDbSymbolTableRecord
100
AcDbLayerTableRecord
  2
5
 70
     0
 62
     6
  6
PHANTOM
370
    -3
390
CB80
  0
LAYER
  5
C7B0
102
{ACAD_XDICTIONARY
360
CBD8
102
}
330
C78A
100
AcDbSymbolTableRecord
100
AcDbLayerTableRecord
  2
1
 70
     0
 62
     7
  6
CONTINUOUS
370
    -3
390
CB80
  0
LAYER
  5
C7B1
102
{ACAD_XDICTIONARY
360
CBDA
102
}
330
C78A
100
AcDbSymbolTableRecord
100
AcDbLayerTableRecord
  2
2
 70
     0
 62
     4
  6
CONTINUOUS
370
    -3
390
CB80
  0
LAYER
  5
C7B2
102
{ACAD_XDICTIONARY
360
CBDC
102
}
330
C78A
100
AcDbSymbolTableRecord
100
AcDbLayerTableRecord
  2
3
 70
     0
 62
     2
  6
DASHED
370
    -3
390
CB80
  0
LAYER
  5
C7B3
102
{ACAD_XDICTIONARY
360
CBDE
102
}
330
C78A
100
AcDbSymbolTableRecord
100
AcDbLayerTableRecord
  2
6
 70
     0
 62
     5
  6
CONTINUOUS
370
    -3
390
CB80
  0
LAYER
  5
C7B4
102
{ACAD_XDICTIONARY
360
CBE0
102
}
330
C78A
100
AcDbSymbolTableRecord
100
AcDbLayerTableRecord
  2
7
 70
     0
 62
     3
  6
CONTINUOUS
370
    -3
390
CB80
  0
ENDTAB
  0
TABLE
  2
STYLE
  5
C78B
330
0
100
AcDbSymbolTable
 70
     1
  0
STYLE
  5
C799
330
C78B
100
AcDbSymbolTableRecord
100
AcDbTextStyleTableRecord
  2
STANDARD
 70
     0
 40
0.0
 41
1.0
 50
0.0
 71
     0
 42
5.0
  3
txt
  4

  0
ENDTAB
  0
TABLE
  2
VIEW
  5
C78E
330
0
100
AcDbSymbolTable
 70
     0
  0
ENDTAB
  0
TABLE
  2
UCS
  5
C78F
330
0
100
AcDbSymbolTable
 70
     0
  0
ENDTAB
  0
TABLE
  2
APPID
  5
C791
330
0
100
AcDbSymbolTable
 70
     3
  0
APPID
  5
C79A
330
C791
100
AcDbSymbolTableRecord
100
AcDbRegAppTableRecord
  2
ACAD
 70
     0
  0
APPID
  5
CBEC
330
C791
100
AcDbSymbolTableRecord
100
AcDbRegAppTableRecord
  2
ACAD_NAV_VCDISPLAY
 70
     0
  0
APPID
  5
CC25
330
C791
100
AcDbSymbolTableRecord
100
AcDbRegAppTableRecord
  2
ACAD_MLEADERVER
 70
     0
  0
ENDTAB
  0
TABLE
  2
DIMSTYLE
  5
C792
330
0
100
AcDbSymbolTable
 70
     1
100
AcDbDimStyleTable
 71
     0
  0
DIMSTYLE
105
C7B6
330
C792
100
AcDbSymbolTableRecord
100
AcDbDimStyleTableRecord
  2
STANDARD
 70
     0
 41
3.0
 42
1.0
 43
10.0
 44
1.0
 73
     0
 74
     0
 77
     3
 78
     8
140
2.5
141
0.0
147
1.0
172
     1
173
     1
284
     8
285
     8
286
     8
340
C799
  0
ENDTAB
  0
TABLE
  2
BLOCK_RECORD
  5
C789
330
0
100
AcDbSymbolTable
 70
     0
  0
BLOCK_RECORD
  5
C7A6
102
{ACAD_XDICTIONARY
360
CB7A
102
}
330
C789
100
AcDbSymbolTableRecord
100
AcDbBlockTableRecord
  2
*MODEL_SPACE
340
CBCE
  0
BLOCK_RECORD
  5
C7A2
102
{ACAD_XDICTIONARY
360
CB78
102
}
330
C789
100
AcDbSymbolTableRecord
100
AcDbBlockTableRecord
  2
*PAPER_SPACE
340
CBCF
  0
ENDTAB
  0
ENDSEC
  0
SECTION
  2
BLOCKS
  0
BLOCK
  5
C7A7
330
C7A6
100
AcDbEntity
  8
0
100
AcDbBlockBegin
  2
*MODEL_SPACE
 70
     0
 10
0.0
 20
0.0
 30
0.0
  3
*MODEL_SPACE
  1

  0
ENDBLK
  5
C7A8
330
C7A6
100
AcDbEntity
  8
0
100
AcDbBlockEnd
  0
BLOCK
  5
C7A3
330
C7A2
100
AcDbEntity
 67
     1
  8
0
100
AcDbBlockBegin
  2
*PAPER_SPACE
 70
     0
 10
0.0
 20
0.0
 30
0.0
  3
*PAPER_SPACE
  1

  0
ENDBLK
  5
C7A4
330
C7A2
100
AcDbEntity
 67
     1
  8
0
100
AcDbBlockEnd
  0
ENDSEC
  0
SECTION
  2
ENTITIES
  0
TEXT
  5
C7BE
330
C7A6
100
AcDbEntity
  8
7
  6
Continuous
100
AcDbText
 10
10.0
 20
18.0
 30
0.0
 40
3.0
  1
TYPE No.TM-231-4
100
AcDbText
  0
TEXT
  5
C7BF
330
C7A6
100
AcDbEntity
  8
7
  6
Continuous
100
AcDbText
 10
10.0
 20
26.0
 30
0.0
 40
3.0
  1
CODE No.6019
100
AcDbText
  0
TEXT
  5
C7C0
330
C7A6
100
AcDbEntity
  8
1
  6
Continuous
100
AcDbText
 10
10.0
 20
10.0
 30
0.0
 40
1.399999999999999
  1
LAYER
100
AcDbText
  0
TEXT
  5
C7C1
330
C7A6
100
AcDbEntity
  8
1
  6
Continuous
100
AcDbText
 10
17.97951099999998
 20
10.04873699999998
 30
0.0
 40
1.399999999999999
  1
1
100
AcDbText
  0
TEXT
  5
C7C2
330
C7A6
100
AcDbEntity
  8
7
  6
Continuous
100
AcDbText
 10
29.97951099999999
 20
10.04873699999998
 30
0.0
 40
1.399999999999999
  1
7
100
AcDbText
  0
TEXT
  5
C7C3
330
C7A6
100
AcDbEntity
  8
4
  6
CENTER
100
AcDbText
 10
23.97951099999999
 20
10.04873699999998
 30
0.0
 40
1.399999999999999
  1
4
100
AcDbText
  0
TEXT
  5
C7C4
330
C7A6
100
AcDbEntity
  8
3
  6
DASHED
100
AcDbText
 10
21.979511
 20
10.04873699999998
 30
0.0
 40
1.399999999999999
  1
3
100
AcDbText
  0
TEXT
  5
C7C5
330
C7A6
100
AcDbEntity
  8
2
  6
Continuous
100
AcDbText
 10
19.97951099999999
 20
10.04873699999998
 30
0.0
 40
1.399999999999999
  1
2
100
AcDbText
  0
TEXT
  5
C7C6
330
C7A6
100
AcDbEntity
  8
6
  6
Continuous
100
AcDbText
 10
27.979511
 20
10.04873699999998
 30
0.0
 40
1.399999999999999
  1
6
100
AcDbText
  0
TEXT
  5
C7C7
330
C7A6
100
AcDbEntity
  8
5
  6
PHANTOM
100
AcDbText
 10
25.97951099999999
 20
10.04873699999998
 30
0.0
 40
1.399999999999999
  1
5
100
AcDbText
  0
LINE
  5
C7C8
330
C7A6
100
AcDbEntity
  8
1
  6
Continuous
100
AcDbLine
 10
569.4788519999997
 20
131.0
 30
0.0
 11
69.478852
 21
131.0
 31
0.0
  0
LINE
  5
C7C9
330
C7A6
100
AcDbEntity
  8
1
  6
Continuous
100
AcDbLine
 10
69.478852
 20
131.0
 30
0.0
 11
69.478852
 21
129.728427
 31
0.0
  0
ARC
  5
C7CA
330
C7A6
100
AcDbEntity
  8
1
  6
Continuous
100
AcDbCircle
 10
70.478852
 20
129.728427
 30
0.0
 40
1.0
100
AcDbArc
 50
180.0
 51
225.0
  0
LINE
  5
C7CB
330
C7A6
100
AcDbEntity
  8
1
  6
Continuous
100
AcDbLine
 10
69.771745
 20
129.0213199999998
 30
0.0
 11
70.78595899999998
 21
128.0071069999999
 31
0.0
  0
ARC
  5
C7CC
330
C7A6
100
AcDbEntity
  8
1
  6
Continuous
100
AcDbCircle
 10
70.078852
 20
127.2999999999999
 30
0.0
 40
1.0
100
AcDbArc
 50
270.0
 51
323.130102
  0
LINE
  5
C7CD
330
C7A6
100
AcDbEntity
  8
1
  6
Continuous
100
AcDbLine
 10
69.478852
 20
126.2999999999999
 30
0.0
 11
69.478852
 21
115.7
 31
0.0
  0
LINE
  5
C7CE
330
C7A6
100
AcDbEntity
  8
1
  6
Continuous
100
AcDbLine
 10
69.478852
 20
115.7
 30
0.0
 11
70.87885199999998
 21
115.7
 31
0.0
  0
LINE
  5
C7CF
330
C7A6
100
AcDbEntity
  8
1
  6
Continuous
100
AcDbLine
 10
70.87885199999998
 20
126.2999999999999
 30
0.0
 11
69.478852
 21
126.2999999999999
 31
0.0
  0
ARC
  5
C7D0
330
C7A6
100
AcDbEntity
  8
1
  6
Continuous
100
AcDbCircle
 10
70.078852
 20
114.7
 30
0.0
 40
1.0
100
AcDbArc
 50
315.0
 51
323.130102
  0
LINE
  5
C7D1
330
C7A6
100
AcDbEntity
  8
1
  6
Continuous
100
AcDbLine
 10
70.78595899999998
 20
113.9928929999999
 30
0.0
 11
69.771745
 21
112.97868
 31
0.0
  0
ARC
  5
C7D2
330
C7A6
100
AcDbEntity
  8
1
  6
Continuous
100
AcDbCircle
 10
70.478852
 20
112.271573
 30
0.0
 40
1.0
100
AcDbArc
 50
135.0
 51
180.0
  0
LINE
  5
C7D3
330
C7A6
100
AcDbEntity
  8
1
  6
Continuous
100
AcDbLine
 10
69.478852
 20
112.271573
 30
0.0
 11
69.478852
 21
111.0
 31
0.0
  0
LINE
  5
C7D4
330
C7A6
100
AcDbEntity
  8
1
  6
Continuous
100
AcDbLine
 10
69.478852
 20
111.0
 30
0.0
 11
569.4788519999997
 21
111.0
 31
0.0
  0
LINE
  5
C7D5
330
C7A6
100
AcDbEntity
  8
1
  6
Continuous
100
AcDbLine
 10
569.4788519999997
 20
111.0
 30
0.0
 11
569.4788519999997
 21
112.271573
 31
0.0
  0
ARC
  5
C7D6
330
C7A6
100
AcDbEntity
  8
1
  6
Continuous
100
AcDbCircle
 10
568.4788519999997
 20
112.271573
 30
0.0
 40
1.0
100
AcDbArc
 50
0.0
 51
45.0
  0
LINE
  5
C7D7
330
C7A6
100
AcDbEntity
  8
1
  6
Continuous
100
AcDbLine
 10
569.1859589999998
 20
112.97868
 30
0.0
 11
568.1717449999998
 21
113.9928929999999
 31
0.0
  0
ARC
  5
C7D8
330
C7A6
100
AcDbEntity
  8
1
  6
Continuous
100
AcDbCircle
 10
568.8788520000001
 20
114.7
 30
0.0
 40
1.0
100
AcDbArc
 50
90.0
 51
225.0
  0
LINE
  5
C7D9
330
C7A6
100
AcDbEntity
  8
1
  6
Continuous
100
AcDbLine
 10
569.4788519999997
 20
115.7
 30
0.0
 11
568.078852
 21
115.7
 31
0.0
  0
LINE
  5
C7DA
330
C7A6
100
AcDbEntity
  8
1
  6
Continuous
100
AcDbLine
 10
568.078852
 20
115.7
 30
0.0
 11
568.078852
 21
126.2999999999999
 31
0.0
  0
LINE
  5
C7DB
330
C7A6
100
AcDbEntity
  8
1
  6
Continuous
100
AcDbLine
 10
568.078852
 20
126.2999999999999
 30
0.0
 11
569.4788519999997
 21
126.2999999999999
 31
0.0
  0
LINE
  5
C7DC
330
C7A6
100
AcDbEntity
  8
1
  6
Continuous
100
AcDbLine
 10
569.4788519999997
 20
126.2999999999999
 30
0.0
 11
569.4788519999997
 21
115.7
 31
0.0
  0
ARC
  5
C7DD
330
C7A6
100
AcDbEntity
  8
1
  6
Continuous
100
AcDbCircle
 10
568.8788520000001
 20
127.2999999999999
 30
0.0
 40
1.0
100
AcDbArc
 50
135.0
 51
270.0
  0
LINE
  5
C7DE
330
C7A6
100
AcDbEntity
  8
1
  6
Continuous
100
AcDbLine
 10
568.1717449999998
 20
128.0071069999999
 30
0.0
 11
569.1859589999998
 21
129.0213199999998
 31
0.0
  0
ARC
  5
C7DF
330
C7A6
100
AcDbEntity
  8
1
  6
Continuous
100
AcDbCircle
 10
568.4788519999997
 20
129.728427
 30
0.0
 40
1.0
100
AcDbArc
 50
315.0
 51
0.0
  0
LINE
  5
C7E0
330
C7A6
100
AcDbEntity
  8
1
  6
Continuous
100
AcDbLine
 10
569.4788519999997
 20
129.728427
 30
0.0
 11
569.4788519999997
 21
131.0
 31
0.0
  0
LINE
  5
C7E1
330
C7A6
100
AcDbEntity
  8
4
  6
CENTER
100
AcDbLine
 10
64.478852
 20
121.0
 30
0.0
 11
574.4788519999997
 21
121.0
 31
0.0
  0
LINE
  5
C7E2
330
C7A6
100
AcDbEntity
  8
1
  6
Continuous
100
AcDbLine
 10
569.4788519999997
 20
112.4779619999999
 30
0.0
 11
69.478852
 21
112.4779619999999
 31
0.0
  0
LINE
  5
C7E3
330
C7A6
100
AcDbEntity
  8
1
  6
Continuous
100
AcDbLine
 10
70.120401
 20
113.327335
 30
0.0
 11
568.837303
 21
113.327335
 31
0.0
  0
LINE
  5
C7E4
330
C7A6
100
AcDbEntity
  8
1
  6
Continuous
100
AcDbLine
 10
568.837303
 20
128.672665
 30
0.0
 11
70.120401
 21
128.672665
 31
0.0
  0
LINE
  5
C7E5
330
C7A6
100
AcDbEntity
  8
1
  6
Continuous
100
AcDbLine
 10
69.478852
 20
129.5220379999999
 30
0.0
 11
569.4788519999997
 21
129.5220379999999
 31
0.0
  0
LINE
  5
C7E6
330
C7A6
100
AcDbEntity
  8
1
  6
Continuous
100
AcDbLine
 10
170.8788519999998
 20
127.15
 30
0.0
 11
70.87885199999998
 21
127.15
 31
0.0
  0
LINE
  5
C7E7
330
C7A6
100
AcDbEntity
  8
1
  6
Continuous
100
AcDbLine
 10
70.87885199999998
 20
128.1795
 30
0.0
 11
70.87885199999998
 21
113.8204999999999
 31
0.0
  0
LINE
  5
C7E8
330
C7A6
100
AcDbEntity
  8
1
  6
Continuous
100
AcDbLine
 10
70.87885199999998
 20
114.85
 30
0.0
 11
170.8788519999998
 21
114.85
 31
0.0
  0
LINE
  5
C7E9
330
C7A6
100
AcDbEntity
  8
1
  6
Continuous
100
AcDbLine
 10
170.8788519999998
 20
114.85
 30
0.0
 11
170.8788519999998
 21
127.15
 31
0.0
  0
LINE
  5
C7EA
330
C7A6
100
AcDbEntity
  8
1
  6
Continuous
100
AcDbLine
 10
78.87885199999998
 20
127.6795
 30
0.0
 11
78.87885199999998
 21
128.1795
 31
0.0
  0
LINE
  5
C7EB
330
C7A6
100
AcDbEntity
  8
1
  6
Continuous
100
AcDbLine
 10
70.87885199999998
 20
127.6795
 30
0.0
 11
78.87885199999998
 21
127.6795
 31
0.0
  0
LINE
  5
C7EC
330
C7A6
100
AcDbEntity
  8
1
  6
Continuous
100
AcDbLine
 10
70.87885199999998
 20
128.1795
 30
0.0
 11
78.87885199999998
 21
128.1795
 31
0.0
  0
ARC
  5
C7ED
330
C7A6
100
AcDbEntity
  8
1
  6
Continuous
100
AcDbCircle
 10
79.87885199999998
 20
114.3205
 30
0.0
 40
1.0
100
AcDbArc
 50
0.0
 51
31.97167800000001
  0
LINE
  5
C7EE
330
C7A6
100
AcDbEntity
  8
1
  6
Continuous
100
AcDbLine
 10
78.87885199999998
 20
114.3205
 30
0.0
 11
78.87885199999998
 21
113.8204999999999
 31
0.0
  0
LINE
  5
C7EF
330
C7A6
100
AcDbEntity
  8
1
  6
Continuous
100
AcDbLine
 10
70.87885199999998
 20
114.3205
 30
0.0
 11
78.87885199999998
 21
114.3205
 31
0.0
  0
LINE
  5
C7F0
330
C7A6
100
AcDbEntity
  8
1
  6
Continuous
100
AcDbLine
 10
70.87885199999998
 20
113.8204999999999
 30
0.0
 11
78.87885199999998
 21
113.8204999999999
 31
0.0
  0
ARC
  5
C7F1
330
C7A6
100
AcDbEntity
  8
1
  6
Continuous
100
AcDbCircle
 10
79.87885199999998
 20
127.6795
 30
0.0
 40
1.0
100
AcDbArc
 50
180.0
 51
211.9716779999999
  0
ARC
  5
C7F2
330
C7A6
100
AcDbEntity
  8
1
  6
Continuous
100
AcDbCircle
 10
89.87885199999999
 20
127.6795
 30
0.0
 40
1.0
100
AcDbArc
 50
180.0
 51
211.9716779999999
  0
LINE
  5
C7F3
330
C7A6
100
AcDbEntity
  8
1
  6
Continuous
100
AcDbLine
 10
88.87885199999997
 20
127.6795
 30
0.0
 11
88.87885199999997
 21
128.1795
 31
0.0
  0
LINE
  5
C7F4
330
C7A6
100
AcDbEntity
  8
1
  6
Continuous
100
AcDbLine
 10
80.87885199999998
 20
127.6795
 30
0.0
 11
88.87885199999997
 21
127.6795
 31
0.0
  0
LINE
  5
C7F5
330
C7A6
100
AcDbEntity
  8
1
  6
Continuous
100
AcDbLine
 10
80.87885199999998
 20
128.1795
 30
0.0
 11
88.87885199999997
 21
128.1795
 31
0.0
  0
LINE
  5
C7F6
330
C7A6
100
AcDbEntity
  8
1
  6
Continuous
100
AcDbLine
 10
88.87885199999997
 20
114.3205
 30
0.0
 11
88.87885199999997
 21
113.8204999999999
 31
0.0
  0
LINE
  5
C7F7
330
C7A6
100
AcDbEntity
  8
1
  6
Continuous
100
AcDbLine
 10
80.87885199999998
 20
114.3205
 30
0.0
 11
88.87885199999997
 21
114.3205
 31
0.0
  0
LINE
  5
C7F8
330
C7A6
100
AcDbEntity
  8
1
  6
Continuous
100
AcDbLine
 10
80.87885199999998
 20
113.8204999999999
 30
0.0
 11
88.87885199999997
 21
113.8204999999999
 31
0.0
  0
LINE
  5
C7F9
330
C7A6
100
AcDbEntity
  8
1
  6
Continuous
100
AcDbLine
 10
80.87885199999998
 20
128.1795
 30
0.0
 11
80.87885199999998
 21
127.6795
 31
0.0
  0
LINE
  5
C7FA
330
C7A6
100
AcDbEntity
  8
1
  6
Continuous
100
AcDbLine
 10
80.87885199999998
 20
113.8204999999999
 30
0.0
 11
80.87885199999998
 21
114.3205
 31
0.0
  0
ARC
  5
C7FB
330
C7A6
100
AcDbEntity
  8
1
  6
Continuous
100
AcDbCircle
 10
89.87885199999999
 20
114.3205
 30
0.0
 40
1.0
100
AcDbArc
 50
0.0
 51
31.97167800000001
  0
ARC
  5
C7FC
330
C7A6
100
AcDbEntity
  8
1
  6
Continuous
100
AcDbCircle
 10
99.878852
 20
127.6795
 30
0.0
 40
1.0
100
AcDbArc
 50
180.0
 51
211.9716779999999
  0
LINE
  5
C7FD
330
C7A6
100
AcDbEntity
  8
1
  6
Continuous
100
AcDbLine
 10
98.87885199999999
 20
127.6795
 30
0.0
 11
98.87885199999999
 21
128.1795
 31
0.0
  0
LINE
  5
C7FE
330
C7A6
100
AcDbEntity
  8
1
  6
Continuous
100
AcDbLine
 10
90.878852
 20
127.6795
 30
0.0
 11
98.87885199999999
 21
127.6795
 31
0.0
  0
LINE
  5
C7FF
330
C7A6
100
AcDbEntity
  8
1
  6
Continuous
100
AcDbLine
 10
90.878852
 20
128.1795
 30
0.0
 11
98.87885199999999
 21
128.1795
 31
0.0
  0
LINE
  5
C800
330
C7A6
100
AcDbEntity
  8
1
  6
Continuous
100
AcDbLine
 10
98.87885199999999
 20
114.3205
 30
0.0
 11
98.87885199999999
 21
113.8204999999999
 31
0.0
  0
LINE
  5
C801
330
C7A6
100
AcDbEntity
  8
1
  6
Continuous
100
AcDbLine
 10
90.878852
 20
114.3205
 30
0.0
 11
98.87885199999999
 21
114.3205
 31
0.0
  0
LINE
  5
C802
330
C7A6
100
AcDbEntity
  8
1
  6
Continuous
100
AcDbLine
 10
90.878852
 20
113.8204999999999
 30
0.0
 11
98.87885199999999
 21
113.8204999999999
 31
0.0
  0
LINE
  5
C803
330
C7A6
100
AcDbEntity
  8
1
  6
Continuous
100
AcDbLine
 10
90.878852
 20
128.1795
 30
0.0
 11
90.878852
 21
127.6795
 31
0.0
  0
LINE
  5
C804
330
C7A6
100
AcDbEntity
  8
1
  6
Continuous
100
AcDbLine
 10
90.878852
 20
113.8204999999999
 30
0.0
 11
90.878852
 21
114.3205
 31
0.0
  0
ARC
  5
C805
330
C7A6
100
AcDbEntity
  8
1
  6
Continuous
100
AcDbCircle
 10
99.878852
 20
114.3205
 30
0.0
 40
1.0
100
AcDbArc
 50
0.0
 51
31.97167800000001
  0
ARC
  5
C806
330
C7A6
100
AcDbEntity
  8
1
  6
Continuous
100
AcDbCircle
 10
109.878852
 20
127.6795
 30
0.0
 40
1.0
100
AcDbArc
 50
180.0
 51
211.9716779999999
  0
LINE
  5
C807
330
C7A6
100
AcDbEntity
  8
1
  6
Continuous
100
AcDbLine
 10
108.878852
 20
127.6795
 30
0.0
 11
108.878852
 21
128.1795
 31
0.0
  0
LINE
  5
C808
330
C7A6
100
AcDbEntity
  8
1
  6
Continuous
100
AcDbLine
 10
100.8788519999999
 20
127.6795
 30
0.0
 11
108.878852
 21
127.6795
 31
0.0
  0
LINE
  5
C809
330
C7A6
100
AcDbEntity
  8
1
  6
Continuous
100
AcDbLine
 10
100.8788519999999
 20
128.1795
 30
0.0
 11
108.878852
 21
128.1795
 31
0.0
  0
LINE
  5
C80A
330
C7A6
100
AcDbEntity
  8
1
  6
Continuous
100
AcDbLine
 10
108.878852
 20
114.3205
 30
0.0
 11
108.878852
 21
113.8204999999999
 31
0.0
  0
LINE
  5
C80B
330
C7A6
100
AcDbEntity
  8
1
  6
Continuous
100
AcDbLine
 10
100.8788519999999
 20
114.3205
 30
0.0
 11
108.878852
 21
114.3205
 31
0.0
  0
LINE
  5
C80C
330
C7A6
100
AcDbEntity
  8
1
  6
Continuous
100
AcDbLine
 10
100.8788519999999
 20
113.8204999999999
 30
0.0
 11
108.878852
 21
113.8204999999999
 31
0.0
  0
LINE
  5
C80D
330
C7A6
100
AcDbEntity
  8
1
  6
Continuous
100
AcDbLine
 10
100.8788519999999
 20
128.1795
 30
0.0
 11
100.8788519999999
 21
127.6795
 31
0.0
  0
LINE
  5
C80E
330
C7A6
100
AcDbEntity
  8
1
  6
Continuous
100
AcDbLine
 10
100.8788519999999
 20
113.8204999999999
 30
0.0
 11
100.8788519999999
 21
114.3205
 31
0.0
  0
ARC
  5
C80F
330
C7A6
100
AcDbEntity
  8
1
  6
Continuous
100
AcDbCircle
 10
109.878852
 20
114.3205
 30
0.0
 40
1.0
100
AcDbArc
 50
0.0
 51
31.97167800000001
  0
LINE
  5
C810
330
C7A6
100
AcDbEntity
  8
1
  6
Continuous
100
AcDbLine
 10
118.8788519999999
 20
127.6795
 30
0.0
 11
118.8788519999999
 21
128.1795
 31
0.0
  0
LINE
  5
C811
330
C7A6
100
AcDbEntity
  8
1
  6
Continuous
100
AcDbLine
 10
110.878852
 20
127.6795
 30
0.0
 11
118.8788519999999
 21
127.6795
 31
0.0
  0
LINE
  5
C812
330
C7A6
100
AcDbEntity
  8
1
  6
Continuous
100
AcDbLine
 10
110.878852
 20
128.1795
 30
0.0
 11
118.8788519999999
 21
128.1795
 31
0.0
  0
LINE
  5
C813
330
C7A6
100
AcDbEntity
  8
1
  6
Continuous
100
AcDbLine
 10
118.8788519999999
 20
114.3205
 30
0.0
 11
118.8788519999999
 21
113.8204999999999
 31
0.0
  0
LINE
  5
C814
330
C7A6
100
AcDbEntity
  8
1
  6
Continuous
100
AcDbLine
 10
110.878852
 20
114.3205
 30
0.0
 11
118.8788519999999
 21
114.3205
 31
0.0
  0
LINE
  5
C815
330
C7A6
100
AcDbEntity
  8
1
  6
Continuous
100
AcDbLine
 10
110.878852
 20
113.8204999999999
 30
0.0
 11
118.8788519999999
 21
113.8204999999999
 31
0.0
  0
LINE
  5
C816
330
C7A6
100
AcDbEntity
  8
1
  6
Continuous
100
AcDbLine
 10
110.878852
 20
128.1795
 30
0.0
 11
110.878852
 21
127.6795
 31
0.0
  0
LINE
  5
C817
330
C7A6
100
AcDbEntity
  8
1
  6
Continuous
100
AcDbLine
 10
110.878852
 20
113.8204999999999
 30
0.0
 11
110.878852
 21
114.3205
 31
0.0
  0
ARC
  5
C818
330
C7A6
100
AcDbEntity
  8
1
  6
Continuous
100
AcDbCircle
 10
119.8788519999999
 20
114.3205
 30
0.0
 40
1.0
100
AcDbArc
 50
0.0
 51
31.97167800000001
  0
LINE
  5
C819
330
C7A6
100
AcDbEntity
  8
1
  6
Continuous
100
AcDbLine
 10
128.8788519999999
 20
127.6795
 30
0.0
 11
128.8788519999999
 21
128.1795
 31
0.0
  0
LINE
  5
C81A
330
C7A6
100
AcDbEntity
  8
1
  6
Continuous
100
AcDbLine
 10
120.8788519999999
 20
127.6795
 30
0.0
 11
128.8788519999999
 21
127.6795
 31
0.0
  0
LINE
  5
C81B
330
C7A6
100
AcDbEntity
  8
1
  6
Continuous
100
AcDbLine
 10
120.8788519999999
 20
128.1795
 30
0.0
 11
128.8788519999999
 21
128.1795
 31
0.0
  0
LINE
  5
C81C
330
C7A6
100
AcDbEntity
  8
1
  6
Continuous
100
AcDbLine
 10
128.8788519999999
 20
114.3205
 30
0.0
 11
128.8788519999999
 21
113.8204999999999
 31
0.0
  0
LINE
  5
C81D
330
C7A6
100
AcDbEntity
  8
1
  6
Continuous
100
AcDbLine
 10
120.8788519999999
 20
114.3205
 30
0.0
 11
128.8788519999999
 21
114.3205
 31
0.0
  0
LINE
  5
C81E
330
C7A6
100
AcDbEntity
  8
1
  6
Continuous
100
AcDbLine
 10
120.8788519999999
 20
113.8204999999999
 30
0.0
 11
128.8788519999999
 21
113.8204999999999
 31
0.0
  0
LINE
  5
C81F
330
C7A6
100
AcDbEntity
  8
1
  6
Continuous
100
AcDbLine
 10
120.8788519999999
 20
128.1795
 30
0.0
 11
120.8788519999999
 21
127.6795
 31
0.0
  0
ARC
  5
C820
330
C7A6
100
AcDbEntity
  8
1
  6
Continuous
100
AcDbCircle
 10
119.8788519999999
 20
127.6795
 30
0.0
 40
1.0
100
AcDbArc
 50
180.0
 51
211.9716779999999
  0
LINE
  5
C821
330
C7A6
100
AcDbEntity
  8
1
  6
Continuous
100
AcDbLine
 10
120.8788519999999
 20
113.8204999999999
 30
0.0
 11
120.8788519999999
 21
114.3205
 31
0.0
  0
ARC
  5
C822
330
C7A6
100
AcDbEntity
  8
1
  6
Continuous
100
AcDbCircle
 10
139.8788519999999
 20
127.6795
 30
0.0
 40
1.0
100
AcDbArc
 50
180.0
 51
211.9716779999999
  0
LINE
  5
C823
330
C7A6
100
AcDbEntity
  8
1
  6
Continuous
100
AcDbLine
 10
138.878852
 20
127.6795
 30
0.0
 11
138.878852
 21
128.1795
 31
0.0
  0
LINE
  5
C824
330
C7A6
100
AcDbEntity
  8
1
  6
Continuous
100
AcDbLine
 10
130.878852
 20
127.6795
 30
0.0
 11
138.878852
 21
127.6795
 31
0.0
  0
LINE
  5
C825
330
C7A6
100
AcDbEntity
  8
1
  6
Continuous
100
AcDbLine
 10
130.878852
 20
128.1795
 30
0.0
 11
138.878852
 21
128.1795
 31
0.0
  0
LINE
  5
C826
330
C7A6
100
AcDbEntity
  8
1
  6
Continuous
100
AcDbLine
 10
138.878852
 20
114.3205
 30
0.0
 11
138.878852
 21
113.8204999999999
 31
0.0
  0
LINE
  5
C827
330
C7A6
100
AcDbEntity
  8
1
  6
Continuous
100
AcDbLine
 10
130.878852
 20
114.3205
 30
0.0
 11
138.878852
 21
114.3205
 31
0.0
  0
LINE
  5
C828
330
C7A6
100
AcDbEntity
  8
1
  6
Continuous
100
AcDbLine
 10
130.878852
 20
113.8204999999999
 30
0.0
 11
138.878852
 21
113.8204999999999
 31
0.0
  0
LINE
  5
C829
330
C7A6
100
AcDbEntity
  8
1
  6
Continuous
100
AcDbLine
 10
130.878852
 20
128.1795
 30
0.0
 11
130.878852
 21
127.6795
 31
0.0
  0
ARC
  5
C82A
330
C7A6
100
AcDbEntity
  8
1
  6
Continuous
100
AcDbCircle
 10
129.878852
 20
127.6795
 30
0.0
 40
1.0
100
AcDbArc
 50
180.0
 51
211.9716779999999
  0
LINE
  5
C82B
330
C7A6
100
AcDbEntity
  8
1
  6
Continuous
100
AcDbLine
 10
130.878852
 20
113.8204999999999
 30
0.0
 11
130.878852
 21
114.3205
 31
0.0
  0
ARC
  5
C82C
330
C7A6
100
AcDbEntity
  8
1
  6
Continuous
100
AcDbCircle
 10
139.8788519999999
 20
114.3205
 30
0.0
 40
1.0
100
AcDbArc
 50
0.0
 51
31.97167800000001
  0
ARC
  5
C82D
330
C7A6
100
AcDbEntity
  8
1
  6
Continuous
100
AcDbCircle
 10
129.878852
 20
114.3205
 30
0.0
 40
1.0
100
AcDbArc
 50
0.0
 51
31.97167800000001
  0
ARC
  5
C82E
330
C7A6
100
AcDbEntity
  8
1
  6
Continuous
100
AcDbCircle
 10
149.8788519999999
 20
127.6795
 30
0.0
 40
1.0
100
AcDbArc
 50
180.0
 51
211.9716779999999
  0
LINE
  5
C82F
330
C7A6
100
AcDbEntity
  8
1
  6
Continuous
100
AcDbLine
 10
148.8788519999999
 20
127.6795
 30
0.0
 11
148.8788519999999
 21
128.1795
 31
0.0
  0
LINE
  5
C830
330
C7A6
100
AcDbEntity
  8
1
  6
Continuous
100
AcDbLine
 10
140.8788519999999
 20
127.6795
 30
0.0
 11
148.8788519999999
 21
127.6795
 31
0.0
  0
LINE
  5
C831
330
C7A6
100
AcDbEntity
  8
1
  6
Continuous
100
AcDbLine
 10
140.8788519999999
 20
128.1795
 30
0.0
 11
148.8788519999999
 21
128.1795
 31
0.0
  0
LINE
  5
C832
330
C7A6
100
AcDbEntity
  8
1
  6
Continuous
100
AcDbLine
 10
148.8788519999999
 20
114.3205
 30
0.0
 11
148.8788519999999
 21
113.8204999999999
 31
0.0
  0
LINE
  5
C833
330
C7A6
100
AcDbEntity
  8
1
  6
Continuous
100
AcDbLine
 10
140.8788519999999
 20
114.3205
 30
0.0
 11
148.8788519999999
 21
114.3205
 31
0.0
  0
LINE
  5
C834
330
C7A6
100
AcDbEntity
  8
1
  6
Continuous
100
AcDbLine
 10
140.8788519999999
 20
113.8204999999999
 30
0.0
 11
148.8788519999999
 21
113.8204999999999
 31
0.0
  0
LINE
  5
C835
330
C7A6
100
AcDbEntity
  8
1
  6
Continuous
100
AcDbLine
 10
140.8788519999999
 20
128.1795
 30
0.0
 11
140.8788519999999
 21
127.6795
 31
0.0
  0
LINE
  5
C836
330
C7A6
100
AcDbEntity
  8
1
  6
Continuous
100
AcDbLine
 10
140.8788519999999
 20
113.8204999999999
 30
0.0
 11
140.8788519999999
 21
114.3205
 31
0.0
  0
ARC
  5
C837
330
C7A6
100
AcDbEntity
  8
1
  6
Continuous
100
AcDbCircle
 10
149.8788519999999
 20
114.3205
 30
0.0
 40
1.0
100
AcDbArc
 50
0.0
 51
31.97167800000001
  0
ARC
  5
C838
330
C7A6
100
AcDbEntity
  8
1
  6
Continuous
100
AcDbCircle
 10
159.878852
 20
127.6795
 30
0.0
 40
1.0
100
AcDbArc
 50
180.0
 51
211.9716779999999
  0
LINE
  5
C839
330
C7A6
100
AcDbEntity
  8
1
  6
Continuous
100
AcDbLine
 10
158.878852
 20
127.6795
 30
0.0
 11
158.878852
 21
128.1795
 31
0.0
  0
LINE
  5
C83A
330
C7A6
100
AcDbEntity
  8
1
  6
Continuous
100
AcDbLine
 10
150.8788519999999
 20
127.6795
 30
0.0
 11
158.878852
 21
127.6795
 31
0.0
  0
LINE
  5
C83B
330
C7A6
100
AcDbEntity
  8
1
  6
Continuous
100
AcDbLine
 10
150.8788519999999
 20
128.1795
 30
0.0
 11
158.878852
 21
128.1795
 31
0.0
  0
LINE
  5
C83C
330
C7A6
100
AcDbEntity
  8
1
  6
Continuous
100
AcDbLine
 10
158.878852
 20
114.3205
 30
0.0
 11
158.878852
 21
113.8204999999999
 31
0.0
  0
LINE
  5
C83D
330
C7A6
100
AcDbEntity
  8
1
  6
Continuous
100
AcDbLine
 10
150.8788519999999
 20
114.3205
 30
0.0
 11
158.878852
 21
114.3205
 31
0.0
  0
LINE
  5
C83E
330
C7A6
100
AcDbEntity
  8
1
  6
Continuous
100
AcDbLine
 10
150.8788519999999
 20
113.8204999999999
 30
0.0
 11
158.878852
 21
113.8204999999999
 31
0.0
  0
LINE
  5
C83F
330
C7A6
100
AcDbEntity
  8
1
  6
Continuous
100
AcDbLine
 10
150.8788519999999
 20
128.1795
 30
0.0
 11
150.8788519999999
 21
127.6795
 31
0.0
  0
LINE
  5
C840
330
C7A6
100
AcDbEntity
  8
1
  6
Continuous
100
AcDbLine
 10
150.8788519999999
 20
113.8204999999999
 30
0.0
 11
150.8788519999999
 21
114.3205
 31
0.0
  0
ARC
  5
C841
330
C7A6
100
AcDbEntity
  8
1
  6
Continuous
100
AcDbCircle
 10
159.878852
 20
114.3205
 30
0.0
 40
1.0
100
AcDbArc
 50
0.0
 51
31.97167800000001
  0
ARC
  5
C842
330
C7A6
100
AcDbEntity
  8
1
  6
Continuous
100
AcDbCircle
 10
169.8788519999999
 20
127.6795
 30
0.0
 40
1.0
100
AcDbArc
 50
180.0
 51
211.9716779999999
  0
LINE
  5
C843
330
C7A6
100
AcDbEntity
  8
1
  6
Continuous
100
AcDbLine
 10
168.8788519999999
 20
127.6795
 30
0.0
 11
168.8788519999999
 21
128.1795
 31
0.0
  0
LINE
  5
C844
330
C7A6
100
AcDbEntity
  8
1
  6
Continuous
100
AcDbLine
 10
160.878852
 20
127.6795
 30
0.0
 11
168.8788519999999
 21
127.6795
 31
0.0
  0
LINE
  5
C845
330
C7A6
100
AcDbEntity
  8
1
  6
Continuous
100
AcDbLine
 10
160.878852
 20
128.1795
 30
0.0
 11
168.8788519999999
 21
128.1795
 31
0.0
  0
LINE
  5
C846
330
C7A6
100
AcDbEntity
  8
1
  6
Continuous
100
AcDbLine
 10
168.8788519999999
 20
114.3205
 30
0.0
 11
168.8788519999999
 21
113.8204999999999
 31
0.0
  0
LINE
  5
C847
330
C7A6
100
AcDbEntity
  8
1
  6
Continuous
100
AcDbLine
 10
160.878852
 20
114.3205
 30
0.0
 11
168.8788519999999
 21
114.3205
 31
0.0
  0
LINE
  5
C848
330
C7A6
100
AcDbEntity
  8
1
  6
Continuous
100
AcDbLine
 10
160.878852
 20
113.8204999999999
 30
0.0
 11
168.8788519999999
 21
113.8204999999999
 31
0.0
  0
LINE
  5
C849
330
C7A6
100
AcDbEntity
  8
1
  6
Continuous
100
AcDbLine
 10
160.878852
 20
128.1795
 30
0.0
 11
160.878852
 21
127.6795
 31
0.0
  0
LINE
  5
C84A
330
C7A6
100
AcDbEntity
  8
1
  6
Continuous
100
AcDbLine
 10
160.878852
 20
113.8204999999999
 30
0.0
 11
160.878852
 21
114.3205
 31
0.0
  0
ARC
  5
C84B
330
C7A6
100
AcDbEntity
  8
1
  6
Continuous
100
AcDbCircle
 10
169.8788519999999
 20
114.3205
 30
0.0
 40
1.0
100
AcDbArc
 50
0.0
 51
31.97167800000001
  0
ARC
  5
C84C
330
C7A6
100
AcDbEntity
  8
1
  6
Continuous
100
AcDbCircle
 10
179.878852
 20
127.6795
 30
0.0
 40
1.0
100
AcDbArc
 50
180.0
 51
0.0
  0
LINE
  5
C84D
330
C7A6
100
AcDbEntity
  8
1
  6
Continuous
100
AcDbLine
 10
178.8788519999999
 20
127.6795
 30
0.0
 11
178.8788519999999
 21
128.1795
 31
0.0
  0
LINE
  5
C84E
330
C7A6
100
AcDbEntity
  8
1
  6
Continuous
100
AcDbLine
 10
170.8788519999998
 20
127.6795
 30
0.0
 11
178.8788519999999
 21
127.6795
 31
0.0
  0
LINE
  5
C84F
330
C7A6
100
AcDbEntity
  8
1
  6
Continuous
100
AcDbLine
 10
170.8788519999998
 20
128.1795
 30
0.0
 11
178.8788519999999
 21
128.1795
 31
0.0
  0
LINE
  5
C850
330
C7A6
100
AcDbEntity
  8
1
  6
Continuous
100
AcDbLine
 10
178.8788519999999
 20
114.3205
 30
0.0
 11
178.8788519999999
 21
113.8204999999999
 31
0.0
  0
LINE
  5
C851
330
C7A6
100
AcDbEntity
  8
1
  6
Continuous
100
AcDbLine
 10
170.8788519999998
 20
114.3205
 30
0.0
 11
178.8788519999999
 21
114.3205
 31
0.0
  0
LINE
  5
C852
330
C7A6
100
AcDbEntity
  8
1
  6
Continuous
100
AcDbLine
 10
170.8788519999998
 20
113.8204999999999
 30
0.0
 11
178.8788519999999
 21
113.8204999999999
 31
0.0
  0
LINE
  5
C853
330
C7A6
100
AcDbEntity
  8
1
  6
Continuous
100
AcDbLine
 10
170.8788519999998
 20
128.1795
 30
0.0
 11
170.8788519999998
 21
127.6795
 31
0.0
  0
LINE
  5
C854
330
C7A6
100
AcDbEntity
  8
1
  6
Continuous
100
AcDbLine
 10
170.8788519999998
 20
113.8204999999999
 30
0.0
 11
170.8788519999998
 21
114.3205
 31
0.0
  0
LINE
  5
C855
330
C7A6
100
AcDbEntity
  8
1
  6
Continuous
100
AcDbLine
 10
188.878852
 20
127.6795
 30
0.0
 11
188.878852
 21
128.1795
 31
0.0
  0
LINE
  5
C856
330
C7A6
100
AcDbEntity
  8
1
  6
Continuous
100
AcDbLine
 10
180.878852
 20
127.6795
 30
0.0
 11
188.878852
 21
127.6795
 31
0.0
  0
LINE
  5
C857
330
C7A6
100
AcDbEntity
  8
1
  6
Continuous
100
AcDbLine
 10
180.878852
 20
128.1795
 30
0.0
 11
188.878852
 21
128.1795
 31
0.0
  0
LINE
  5
C858
330
C7A6
100
AcDbEntity
  8
1
  6
Continuous
100
AcDbLine
 10
188.878852
 20
114.3205
 30
0.0
 11
188.878852
 21
113.8204999999999
 31
0.0
  0
LINE
  5
C859
330
C7A6
100
AcDbEntity
  8
1
  6
Continuous
100
AcDbLine
 10
180.878852
 20
114.3205
 30
0.0
 11
188.878852
 21
114.3205
 31
0.0
  0
LINE
  5
C85A
330
C7A6
100
AcDbEntity
  8
1
  6
Continuous
100
AcDbLine
 10
180.878852
 20
113.8204999999999
 30
0.0
 11
188.878852
 21
113.8204999999999
 31
0.0
  0
LINE
  5
C85B
330
C7A6
100
AcDbEntity
  8
1
  6
Continuous
100
AcDbLine
 10
180.878852
 20
128.1795
 30
0.0
 11
180.878852
 21
127.6795
 31
0.0
  0
LINE
  5
C85C
330
C7A6
100
AcDbEntity
  8
1
  6
Continuous
100
AcDbLine
 10
180.878852
 20
113.8204999999999
 30
0.0
 11
180.878852
 21
114.3205
 31
0.0
  0
ARC
  5
C85D
330
C7A6
100
AcDbEntity
  8
1
  6
Continuous
100
AcDbCircle
 10
179.878852
 20
114.3205
 30
0.0
 40
1.0
100
AcDbArc
 50
0.0
 51
180.0
  0
ARC
  5
C85E
330
C7A6
100
AcDbEntity
  8
1
  6
Continuous
100
AcDbCircle
 10
199.8788519999999
 20
127.6795
 30
0.0
 40
1.0
100
AcDbArc
 50
180.0
 51
0.0
  0
LINE
  5
C85F
330
C7A6
100
AcDbEntity
  8
1
  6
Continuous
100
AcDbLine
 10
198.8788519999999
 20
127.6795
 30
0.0
 11
198.8788519999999
 21
128.1795
 31
0.0
  0
LINE
  5
C860
330
C7A6
100
AcDbEntity
  8
1
  6
Continuous
100
AcDbLine
 10
190.8788519999999
 20
127.6795
 30
0.0
 11
198.8788519999999
 21
127.6795
 31
0.0
  0
LINE
  5
C861
330
C7A6
100
AcDbEntity
  8
1
  6
Continuous
100
AcDbLine
 10
190.8788519999999
 20
128.1795
 30
0.0
 11
198.8788519999999
 21
128.1795
 31
0.0
  0
LINE
  5
C862
330
C7A6
100
AcDbEntity
  8
1
  6
Continuous
100
AcDbLine
 10
198.8788519999999
 20
114.3205
 30
0.0
 11
198.8788519999999
 21
113.8204999999999
 31
0.0
  0
LINE
  5
C863
330
C7A6
100
AcDbEntity
  8
1
  6
Continuous
100
AcDbLine
 10
190.8788519999999
 20
114.3205
 30
0.0
 11
198.8788519999999
 21
114.3205
 31
0.0
  0
LINE
  5
C864
330
C7A6
100
AcDbEntity
  8
1
  6
Continuous
100
AcDbLine
 10
190.8788519999999
 20
113.8204999999999
 30
0.0
 11
198.8788519999999
 21
113.8204999999999
 31
0.0
  0
LINE
  5
C865
330
C7A6
100
AcDbEntity
  8
1
  6
Continuous
100
AcDbLine
 10
190.8788519999999
 20
128.1795
 30
0.0
 11
190.8788519999999
 21
127.6795
 31
0.0
  0
ARC
  5
C866
330
C7A6
100
AcDbEntity
  8
1
  6
Continuous
100
AcDbCircle
 10
189.878852
 20
127.6795
 30
0.0
 40
1.0
100
AcDbArc
 50
180.0
 51
0.0
  0
LINE
  5
C867
330
C7A6
100
AcDbEntity
  8
1
  6
Continuous
100
AcDbLine
 10
190.8788519999999
 20
113.8204999999999
 30
0.0
 11
190.8788519999999
 21
114.3205
 31
0.0
  0
ARC
  5
C868
330
C7A6
100
AcDbEntity
  8
1
  6
Continuous
100
AcDbCircle
 10
199.8788519999999
 20
114.3205
 30
0.0
 40
1.0
100
AcDbArc
 50
0.0
 51
180.0
  0
ARC
  5
C869
330
C7A6
100
AcDbEntity
  8
1
  6
Continuous
100
AcDbCircle
 10
189.878852
 20
114.3205
 30
0.0
 40
1.0
100
AcDbArc
 50
0.0
 51
180.0
  0
LINE
  5
C86A
330
C7A6
100
AcDbEntity
  8
1
  6
Continuous
100
AcDbLine
 10
200.8788519999999
 20
127.6795
 30
0.0
 11
200.8788519999999
 21
128.1795
 31
0.0
  0
LINE
  5
C86B
330
C7A6
100
AcDbEntity
  8
1
  6
Continuous
100
AcDbLine
 10
200.8788519999999
 20
127.6795
 30
0.0
 11
208.878852
 21
127.6795
 31
0.0
  0
LINE
  5
C86C
330
C7A6
100
AcDbEntity
  8
1
  6
Continuous
100
AcDbLine
 10
200.8788519999999
 20
128.1795
 30
0.0
 11
208.878852
 21
128.1795
 31
0.0
  0
LINE
  5
C86D
330
C7A6
100
AcDbEntity
  8
1
  6
Continuous
100
AcDbLine
 10
200.8788519999999
 20
114.3205
 30
0.0
 11
200.8788519999999
 21
113.8204999999999
 31
0.0
  0
LINE
  5
C86E
330
C7A6
100
AcDbEntity
  8
1
  6
Continuous
100
AcDbLine
 10
200.8788519999999
 20
114.3205
 30
0.0
 11
208.878852
 21
114.3205
 31
0.0
  0
LINE
  5
C86F
330
C7A6
100
AcDbEntity
  8
1
  6
Continuous
100
AcDbLine
 10
200.8788519999999
 20
113.8204999999999
 30
0.0
 11
208.878852
 21
113.8204999999999
 31
0.0
  0
LINE
  5
C870
330
C7A6
100
AcDbEntity
  8
1
  6
Continuous
100
AcDbLine
 10
170.8788519999998
 20
125.78
 30
0.0
 11
358.878852
 21
125.78
 31
0.0
  0
LINE
  5
C871
330
C7A6
100
AcDbEntity
  8
1
  6
Continuous
100
AcDbLine
 10
170.8788519999998
 20
124.5999999999998
 30
0.0
 11
358.878852
 21
124.5999999999998
 31
0.0
  0
LINE
  5
C872
330
C7A6
100
AcDbEntity
  8
1
  6
Continuous
100
AcDbLine
 10
170.8788519999998
 20
117.4
 30
0.0
 11
358.878852
 21
117.4
 31
0.0
  0
LINE
  5
C873
330
C7A6
100
AcDbEntity
  8
1
  6
Continuous
100
AcDbLine
 10
170.8788519999998
 20
116.22
 30
0.0
 11
358.878852
 21
116.22
 31
0.0
  0
LINE
  5
C874
330
C7A6
100
AcDbEntity
  8
4
  6
CENTER
100
AcDbLine
 10
89.47885199999998
 20
123.3784559999999
 30
0.0
 11
89.47885199999998
 21
118.9305499999999
 31
0.0
  0
CIRCLE
  5
C875
330
C7A6
100
AcDbEntity
  8
2
  6
Continuous
100
AcDbCircle
 10
90.878852
 20
121.0
 30
0.0
 40
1.5
  0
LINE
  5
C876
330
C7A6
100
AcDbEntity
  8
4
  6
CENTER
100
AcDbLine
 10
90.878852
 20
125.2156339999999
 30
0.0
 11
90.878852
 21
116.706597
 31
0.0
  0
LINE
  5
C877
330
C7A6
100
AcDbEntity
  8
4
  6
CENTER
100
AcDbLine
 10
104.4788519999999
 20
123.76523
 30
0.0
 11
104.4788519999999
 21
118.3503889999998
 31
0.0
  0
CIRCLE
  5
C878
330
C7A6
100
AcDbEntity
  8
2
  6
Continuous
100
AcDbCircle
 10
150.8788519999999
 20
121.0
 30
0.0
 40
1.5
  0
LINE
  5
C879
330
C7A6
100
AcDbEntity
  8
4
  6
CENTER
100
AcDbLine
 10
150.8788519999999
 20
125.263981
 30
0.0
 11
150.8788519999999
 21
116.899985
 31
0.0
  0
LINE
  5
C87A
330
C7A6
100
AcDbEntity
  8
4
  6
CENTER
100
AcDbLine
 10
189.4788519999999
 20
123.668537
 30
0.0
 11
189.4788519999999
 21
118.398735
 31
0.0
  0
LINE
  5
C87B
330
C7A6
100
AcDbEntity
  8
4
  6
CENTER
100
AcDbLine
 10
534.4788519999998
 20
123.861924
 30
0.0
 11
534.4788519999998
 21
118.398735
 31
0.0
  0
LINE
  5
C87C
330
C7A6
100
AcDbEntity
  8
1
  6
Continuous
100
AcDbLine
 10
534.178852
 20
119.4
 30
0.0
 11
534.7788519999998
 21
119.4
 31
0.0
  0
LINE
  5
C87D
330
C7A6
100
AcDbEntity
  8
1
  6
Continuous
100
AcDbLine
 10
534.7788519999998
 20
122.5999999999998
 30
0.0
 11
534.178852
 21
122.5999999999998
 31
0.0
  0
ARC
  5
C87E
330
C7A6
100
AcDbEntity
  8
1
  6
Continuous
100
AcDbCircle
 10
534.178852
 20
121.0
 30
0.0
 40
1.6
100
AcDbArc
 50
90.0
 51
270.0
  0
ARC
  5
C87F
330
C7A6
100
AcDbEntity
  8
1
  6
Continuous
100
AcDbCircle
 10
534.7788519999998
 20
121.0
 30
0.0
 40
1.6
100
AcDbArc
 50
270.0
 51
90.0
  0
LINE
  5
C880
330
C7A6
100
AcDbEntity
  8
4
  6
CENTER
100
AcDbLine
 10
549.4788519999998
 20
123.910271
 30
0.0
 11
549.4788519999998
 21
117.866921
 31
0.0
  0
LINE
  5
C881
330
C7A6
100
AcDbEntity
  8
1
  6
Continuous
100
AcDbLine
 10
549.178852
 20
119.4
 30
0.0
 11
549.7788519999998
 21
119.4
 31
0.0
  0
LINE
  5
C882
330
C7A6
100
AcDbEntity
  8
1
  6
Continuous
100
AcDbLine
 10
549.7788519999998
 20
122.5999999999998
 30
0.0
 11
549.178852
 21
122.5999999999998
 31
0.0
  0
ARC
  5
C883
330
C7A6
100
AcDbEntity
  8
1
  6
Continuous
100
AcDbCircle
 10
549.178852
 20
121.0
 30
0.0
 40
1.6
100
AcDbArc
 50
90.0
 51
270.0
  0
ARC
  5
C884
330
C7A6
100
AcDbEntity
  8
1
  6
Continuous
100
AcDbCircle
 10
549.7788519999998
 20
121.0
 30
0.0
 40
1.6
100
AcDbArc
 50
270.0
 51
90.0
  0
ARC
  5
C885
330
C7A6
100
AcDbEntity
  8
1
  6
Continuous
100
AcDbCircle
 10
89.87885199999999
 20
127.6795
 30
0.0
 40
1.0
100
AcDbArc
 50
328.028322
 51
0.0
  0
ARC
  5
C886
330
C7A6
100
AcDbEntity
  8
1
  6
Continuous
100
AcDbCircle
 10
79.87885199999998
 20
127.6795
 30
0.0
 40
1.0
100
AcDbArc
 50
328.028322
 51
0.0
  0
ARC
  5
C887
330
C7A6
100
AcDbEntity
  8
1
  6
Continuous
100
AcDbCircle
 10
99.878852
 20
127.6795
 30
0.0
 40
1.0
100
AcDbArc
 50
328.028322
 51
0.0
  0
ARC
  5
C888
330
C7A6
100
AcDbEntity
  8
1
  6
Continuous
100
AcDbCircle
 10
109.878852
 20
127.6795
 30
0.0
 40
1.0
100
AcDbArc
 50
328.028322
 51
0.0
  0
ARC
  5
C889
330
C7A6
100
AcDbEntity
  8
1
  6
Continuous
100
AcDbCircle
 10
109.878852
 20
114.3205
 30
0.0
 40
1.0
100
AcDbArc
 50
148.028322
 51
180.0
  0
ARC
  5
C88A
330
C7A6
100
AcDbEntity
  8
1
  6
Continuous
100
AcDbCircle
 10
99.878852
 20
114.3205
 30
0.0
 40
1.0
100
AcDbArc
 50
148.028322
 51
180.0
  0
ARC
  5
C88B
330
C7A6
100
AcDbEntity
  8
1
  6
Continuous
100
AcDbCircle
 10
89.87885199999999
 20
114.3205
 30
0.0
 40
1.0
100
AcDbArc
 50
148.028322
 51
180.0
  0
ARC
  5
C88C
330
C7A6
100
AcDbEntity
  8
1
  6
Continuous
100
AcDbCircle
 10
79.87885199999998
 20
114.3205
 30
0.0
 40
1.0
100
AcDbArc
 50
148.028322
 51
180.0
  0
ARC
  5
C88D
330
C7A6
100
AcDbEntity
  8
1
  6
Continuous
100
AcDbCircle
 10
70.078852
 20
114.7
 30
0.0
 40
1.0
100
AcDbArc
 50
36.869898
 51
90.0
  0
ARC
  5
C88E
330
C7A6
100
AcDbEntity
  8
1
  6
Continuous
100
AcDbCircle
 10
70.078852
 20
127.2999999999999
 30
0.0
 40
1.0
100
AcDbArc
 50
36.869898
 51
45.0
  0
LINE
  5
C88F
330
C7A6
100
AcDbEntity
  8
1
  6
Continuous
100
AcDbLine
 10
25.0
 20
127.081989
 30
0.0
 11
25.0
 21
114.918011
 31
0.0
  0
LINE
  5
C890
330
C7A6
100
AcDbEntity
  8
1
  6
Continuous
100
AcDbLine
 10
33.0
 20
125.6410399999999
 30
0.0
 11
33.0
 21
116.35896
 31
0.0
  0
LINE
  5
C891
330
C7A6
100
AcDbEntity
  8
1
  6
Continuous
100
AcDbLine
 10
26.4
 20
127.081989
 30
0.0
 11
26.4
 21
126.2999999999999
 31
0.0
  0
ARC
  5
C892
330
C7A6
100
AcDbEntity
  8
1
  6
Continuous
100
AcDbCircle
 10
29.5
 20
128.0124999999999
 30
0.0
 40
1.587499999999999
100
AcDbArc
 50
0.343152
 51
195.7716379999999
  0
ARC
  5
C893
330
C7A6
100
AcDbEntity
  8
1
  6
Continuous
100
AcDbCircle
 10
29.5
 20
128.0124999999999
 30
0.0
 40
2.987499999999998
100
AcDbArc
 50
30.350252
 51
132.8834129999999
  0
ARC
  5
C894
330
C7A6
100
AcDbEntity
  8
1
  6
Continuous
100
AcDbCircle
 10
74.87885199999998
 20
128.0124999999999
 30
0.0
 40
1.587499999999999
100
AcDbArc
 50
327.090948
 51
347.8914909999998
  0
ARC
  5
C895
330
C7A6
100
AcDbEntity
  8
1
  6
Continuous
100
AcDbCircle
 10
74.87885199999998
 20
128.0124999999999
 30
0.0
 40
1.587499999999999
100
AcDbArc
 50
155.4270199999999
 51
173.9614919999999
  0
ARC
  5
C896
330
C7A6
100
AcDbEntity
  8
1
  6
Continuous
100
AcDbCircle
 10
74.87885199999998
 20
128.0124999999999
 30
0.0
 40
1.587499999999999
100
AcDbArc
 50
6.038508
 51
24.57297999999999
  0
ARC
  5
C897
330
C7A6
100
AcDbEntity
  8
1
  6
Continuous
100
AcDbCircle
 10
74.87885199999998
 20
128.0124999999999
 30
0.0
 40
1.587499999999999
100
AcDbArc
 50
192.1085089999999
 51
212.9090519999999
  0
ARC
  5
C898
330
C7A6
100
AcDbEntity
  8
1
  6
Continuous
100
AcDbCircle
 10
84.87885199999999
 20
128.0124999999999
 30
0.0
 40
1.587499999999999
100
AcDbArc
 50
192.1085089999999
 51
212.9090519999999
  0
ARC
  5
C899
330
C7A6
100
AcDbEntity
  8
1
  6
Continuous
100
AcDbCircle
 10
84.87885199999999
 20
128.0124999999999
 30
0.0
 40
1.587499999999999
100
AcDbArc
 50
155.4270199999999
 51
173.9614919999999
  0
ARC
  5
C89A
330
C7A6
100
AcDbEntity
  8
1
  6
Continuous
100
AcDbCircle
 10
84.87885199999999
 20
128.0124999999999
 30
0.0
 40
1.587499999999999
100
AcDbArc
 50
6.038508
 51
24.57297999999999
  0
ARC
  5
C89B
330
C7A6
100
AcDbEntity
  8
1
  6
Continuous
100
AcDbCircle
 10
84.87885199999999
 20
128.0124999999999
 30
0.0
 40
1.587499999999999
100
AcDbArc
 50
327.090948
 51
347.8914909999998
  0
ARC
  5
C89C
330
C7A6
100
AcDbEntity
  8
1
  6
Continuous
100
AcDbCircle
 10
104.878852
 20
128.0124999999999
 30
0.0
 40
1.587499999999999
100
AcDbArc
 50
327.090948
 51
347.8914909999998
  0
ARC
  5
C89D
330
C7A6
100
AcDbEntity
  8
1
  6
Continuous
100
AcDbCircle
 10
104.878852
 20
128.0124999999999
 30
0.0
 40
1.587499999999999
100
AcDbArc
 50
6.038508
 51
24.57297999999999
  0
ARC
  5
C89E
330
C7A6
100
AcDbEntity
  8
1
  6
Continuous
100
AcDbCircle
 10
104.878852
 20
128.0124999999999
 30
0.0
 40
1.587499999999999
100
AcDbArc
 50
155.4270199999999
 51
173.9614919999999
  0
ARC
  5
C89F
330
C7A6
100
AcDbEntity
  8
1
  6
Continuous
100
AcDbCircle
 10
104.878852
 20
128.0124999999999
 30
0.0
 40
1.587499999999999
100
AcDbArc
 50
192.1085089999999
 51
212.9090519999999
  0
ARC
  5
C8A0
330
C7A6
100
AcDbEntity
  8
1
  6
Continuous
100
AcDbCircle
 10
94.87885199999999
 20
128.0124999999999
 30
0.0
 40
1.587499999999999
100
AcDbArc
 50
192.1085089999999
 51
212.9090519999999
  0
ARC
  5
C8A1
330
C7A6
100
AcDbEntity
  8
1
  6
Continuous
100
AcDbCircle
 10
94.87885199999999
 20
128.0124999999999
 30
0.0
 40
1.587499999999999
100
AcDbArc
 50
155.4270199999999
 51
173.9614919999999
  0
ARC
  5
C8A2
330
C7A6
100
AcDbEntity
  8
1
  6
Continuous
100
AcDbCircle
 10
94.87885199999999
 20
128.0124999999999
 30
0.0
 40
1.587499999999999
100
AcDbArc
 50
6.038508
 51
24.57297999999999
  0
ARC
  5
C8A3
330
C7A6
100
AcDbEntity
  8
1
  6
Continuous
100
AcDbCircle
 10
94.87885199999999
 20
128.0124999999999
 30
0.0
 40
1.587499999999999
100
AcDbArc
 50
327.090948
 51
347.8914909999998
  0
ARC
  5
C8A4
330
C7A6
100
AcDbEntity
  8
1
  6
Continuous
100
AcDbCircle
 10
124.8788519999999
 20
128.0124999999999
 30
0.0
 40
1.587499999999999
100
AcDbArc
 50
192.1085089999999
 51
212.9090519999999
  0
ARC
  5
C8A5
330
C7A6
100
AcDbEntity
  8
1
  6
Continuous
100
AcDbCircle
 10
124.8788519999999
 20
128.0124999999999
 30
0.0
 40
1.587499999999999
100
AcDbArc
 50
155.4270199999999
 51
173.9614919999999
  0
ARC
  5
C8A6
330
C7A6
100
AcDbEntity
  8
1
  6
Continuous
100
AcDbCircle
 10
124.8788519999999
 20
128.0124999999999
 30
0.0
 40
1.587499999999999
100
AcDbArc
 50
6.038508
 51
24.57297999999999
  0
ARC
  5
C8A7
330
C7A6
100
AcDbEntity
  8
1
  6
Continuous
100
AcDbCircle
 10
124.8788519999999
 20
128.0124999999999
 30
0.0
 40
1.587499999999999
100
AcDbArc
 50
327.090948
 51
347.8914909999998
  0
ARC
  5
C8A8
330
C7A6
100
AcDbEntity
  8
1
  6
Continuous
100
AcDbCircle
 10
114.8788519999999
 20
128.0124999999999
 30
0.0
 40
1.587499999999999
100
AcDbArc
 50
327.090948
 51
347.8914909999998
  0
ARC
  5
C8A9
330
C7A6
100
AcDbEntity
  8
1
  6
Continuous
100
AcDbCircle
 10
114.8788519999999
 20
128.0124999999999
 30
0.0
 40
1.587499999999999
100
AcDbArc
 50
6.038508
 51
24.57297999999999
  0
ARC
  5
C8AA
330
C7A6
100
AcDbEntity
  8
1
  6
Continuous
100
AcDbCircle
 10
114.8788519999999
 20
128.0124999999999
 30
0.0
 40
1.587499999999999
100
AcDbArc
 50
155.4270199999999
 51
173.9614919999999
  0
ARC
  5
C8AB
330
C7A6
100
AcDbEntity
  8
1
  6
Continuous
100
AcDbCircle
 10
114.8788519999999
 20
128.0124999999999
 30
0.0
 40
1.587499999999999
100
AcDbArc
 50
192.1085089999999
 51
212.9090519999999
  0
ARC
  5
C8AC
330
C7A6
100
AcDbEntity
  8
1
  6
Continuous
100
AcDbCircle
 10
134.878852
 20
128.0124999999999
 30
0.0
 40
1.587499999999999
100
AcDbArc
 50
192.1085089999999
 51
212.9090519999999
  0
ARC
  5
C8AD
330
C7A6
100
AcDbEntity
  8
1
  6
Continuous
100
AcDbCircle
 10
134.878852
 20
128.0124999999999
 30
0.0
 40
1.587499999999999
100
AcDbArc
 50
155.4270199999999
 51
173.9614919999999
  0
ARC
  5
C8AE
330
C7A6
100
AcDbEntity
  8
1
  6
Continuous
100
AcDbCircle
 10
134.878852
 20
128.0124999999999
 30
0.0
 40
1.587499999999999
100
AcDbArc
 50
6.038508
 51
24.57297999999999
  0
ARC
  5
C8AF
330
C7A6
100
AcDbEntity
  8
1
  6
Continuous
100
AcDbCircle
 10
134.878852
 20
128.0124999999999
 30
0.0
 40
1.587499999999999
100
AcDbArc
 50
327.090948
 51
347.8914909999998
  0
ARC
  5
C8B0
330
C7A6
100
AcDbEntity
  8
1
  6
Continuous
100
AcDbCircle
 10
144.8788519999999
 20
128.0124999999999
 30
0.0
 40
1.587499999999999
100
AcDbArc
 50
192.1085089999999
 51
212.9090519999999
  0
ARC
  5
C8B1
330
C7A6
100
AcDbEntity
  8
1
  6
Continuous
100
AcDbCircle
 10
144.8788519999999
 20
128.0124999999999
 30
0.0
 40
1.587499999999999
100
AcDbArc
 50
155.4270199999999
 51
173.9614919999999
  0
ARC
  5
C8B2
330
C7A6
100
AcDbEntity
  8
1
  6
Continuous
100
AcDbCircle
 10
144.8788519999999
 20
128.0124999999999
 30
0.0
 40
1.587499999999999
100
AcDbArc
 50
6.038508
 51
24.57297999999999
  0
ARC
  5
C8B3
330
C7A6
100
AcDbEntity
  8
1
  6
Continuous
100
AcDbCircle
 10
144.8788519999999
 20
128.0124999999999
 30
0.0
 40
1.587499999999999
100
AcDbArc
 50
327.090948
 51
347.8914909999998
  0
ARC
  5
C8B4
330
C7A6
100
AcDbEntity
  8
1
  6
Continuous
100
AcDbCircle
 10
154.878852
 20
128.0124999999999
 30
0.0
 40
1.587499999999999
100
AcDbArc
 50
327.090948
 51
347.8914909999998
  0
ARC
  5
C8B5
330
C7A6
100
AcDbEntity
  8
1
  6
Continuous
100
AcDbCircle
 10
154.878852
 20
128.0124999999999
 30
0.0
 40
1.587499999999999
100
AcDbArc
 50
6.038508
 51
24.57297999999999
  0
ARC
  5
C8B6
330
C7A6
100
AcDbEntity
  8
1
  6
Continuous
100
AcDbCircle
 10
154.878852
 20
128.0124999999999
 30
0.0
 40
1.587499999999999
100
AcDbArc
 50
155.4270199999999
 51
173.9614919999999
  0
ARC
  5
C8B7
330
C7A6
100
AcDbEntity
  8
1
  6
Continuous
100
AcDbCircle
 10
154.878852
 20
128.0124999999999
 30
0.0
 40
1.587499999999999
100
AcDbArc
 50
192.1085089999999
 51
212.9090519999999
  0
ARC
  5
C8B8
330
C7A6
100
AcDbEntity
  8
1
  6
Continuous
100
AcDbCircle
 10
204.878852
 20
128.0124999999999
 30
0.0
 40
1.587499999999999
100
AcDbArc
 50
155.4270199999999
 51
173.9614919999999
  0
ARC
  5
C8B9
330
C7A6
100
AcDbEntity
  8
1
  6
Continuous
100
AcDbCircle
 10
204.878852
 20
128.0124999999999
 30
0.0
 40
1.587499999999999
100
AcDbArc
 50
6.038508
 51
24.57297999999999
  0
ARC
  5
C8BA
330
C7A6
100
AcDbEntity
  8
1
  6
Continuous
100
AcDbCircle
 10
204.878852
 20
128.0124999999999
 30
0.0
 40
1.587499999999999
100
AcDbArc
 50
192.1085089999999
 51
347.8914909999998
  0
ARC
  5
C8BB
330
C7A6
100
AcDbEntity
  8
1
  6
Continuous
100
AcDbCircle
 10
194.8788519999999
 20
128.0124999999999
 30
0.0
 40
1.587499999999999
100
AcDbArc
 50
192.1085089999999
 51
347.8914909999998
  0
ARC
  5
C8BC
330
C7A6
100
AcDbEntity
  8
1
  6
Continuous
100
AcDbCircle
 10
194.8788519999999
 20
128.0124999999999
 30
0.0
 40
1.587499999999999
100
AcDbArc
 50
6.038508
 51
24.57297999999999
  0
ARC
  5
C8BD
330
C7A6
100
AcDbEntity
  8
1
  6
Continuous
100
AcDbCircle
 10
194.8788519999999
 20
128.0124999999999
 30
0.0
 40
1.587499999999999
100
AcDbArc
 50
155.4270199999999
 51
173.9614919999999
  0
ARC
  5
C8BE
330
C7A6
100
AcDbEntity
  8
1
  6
Continuous
100
AcDbCircle
 10
184.878852
 20
128.0124999999999
 30
0.0
 40
1.587499999999999
100
AcDbArc
 50
192.1085089999999
 51
347.8914909999998
  0
ARC
  5
C8BF
330
C7A6
100
AcDbEntity
  8
1
  6
Continuous
100
AcDbCircle
 10
184.878852
 20
128.0124999999999
 30
0.0
 40
1.587499999999999
100
AcDbArc
 50
6.038508
 51
24.57297999999999
  0
ARC
  5
C8C0
330
C7A6
100
AcDbEntity
  8
1
  6
Continuous
100
AcDbCircle
 10
184.878852
 20
128.0124999999999
 30
0.0
 40
1.587499999999999
100
AcDbArc
 50
155.4270199999999
 51
173.9614919999999
  0
ARC
  5
C8C1
330
C7A6
100
AcDbEntity
  8
1
  6
Continuous
100
AcDbCircle
 10
174.8788519999999
 20
128.0124999999999
 30
0.0
 40
1.587499999999999
100
AcDbArc
 50
192.1085089999999
 51
347.8914909999998
  0
ARC
  5
C8C2
330
C7A6
100
AcDbEntity
  8
1
  6
Continuous
100
AcDbCircle
 10
174.8788519999999
 20
128.0124999999999
 30
0.0
 40
1.587499999999999
100
AcDbArc
 50
6.038508
 51
24.57297999999999
  0
ARC
  5
C8C3
330
C7A6
100
AcDbEntity
  8
1
  6
Continuous
100
AcDbCircle
 10
174.8788519999999
 20
128.0124999999999
 30
0.0
 40
1.587499999999999
100
AcDbArc
 50
155.4270199999999
 51
173.9614919999999
  0
ARC
  5
C8C4
330
C7A6
100
AcDbEntity
  8
1
  6
Continuous
100
AcDbCircle
 10
164.878852
 20
128.0124999999999
 30
0.0
 40
1.587499999999999
100
AcDbArc
 50
192.1085089999999
 51
212.9090519999999
  0
ARC
  5
C8C5
330
C7A6
100
AcDbEntity
  8
1
  6
Continuous
100
AcDbCircle
 10
164.878852
 20
128.0124999999999
 30
0.0
 40
1.587499999999999
100
AcDbArc
 50
155.4270199999999
 51
173.9614919999999
  0
ARC
  5
C8C6
330
C7A6
100
AcDbEntity
  8
1
  6
Continuous
100
AcDbCircle
 10
164.878852
 20
128.0124999999999
 30
0.0
 40
1.587499999999999
100
AcDbArc
 50
6.038508
 51
24.57297999999999
  0
ARC
  5
C8C7
330
C7A6
100
AcDbEntity
  8
1
  6
Continuous
100
AcDbCircle
 10
164.878852
 20
128.0124999999999
 30
0.0
 40
1.587499999999999
100
AcDbArc
 50
327.090948
 51
347.8914909999998
  0
ARC
  5
C8C8
330
C7A6
100
AcDbEntity
  8
1
  6
Continuous
100
AcDbCircle
 10
204.878852
 20
113.9874999999999
 30
0.0
 40
1.587499999999999
100
AcDbArc
 50
12.108509
 51
167.891491
  0
ARC
  5
C8C9
330
C7A6
100
AcDbEntity
  8
1
  6
Continuous
100
AcDbCircle
 10
194.8788519999999
 20
113.9874999999999
 30
0.0
 40
1.587499999999999
100
AcDbArc
 50
12.108509
 51
167.891491
  0
ARC
  5
C8CA
330
C7A6
100
AcDbEntity
  8
1
  6
Continuous
100
AcDbCircle
 10
184.878852
 20
113.9874999999999
 30
0.0
 40
1.587499999999999
100
AcDbArc
 50
12.108509
 51
167.891491
  0
ARC
  5
C8CB
330
C7A6
100
AcDbEntity
  8
1
  6
Continuous
100
AcDbCircle
 10
174.8788519999999
 20
113.9874999999999
 30
0.0
 40
1.587499999999999
100
AcDbArc
 50
12.108509
 51
167.891491
  0
ARC
  5
C8CC
330
C7A6
100
AcDbEntity
  8
1
  6
Continuous
100
AcDbCircle
 10
164.878852
 20
113.9874999999999
 30
0.0
 40
1.587499999999999
100
AcDbArc
 50
12.108509
 51
32.909052
  0
ARC
  5
C8CD
330
C7A6
100
AcDbEntity
  8
1
  6
Continuous
100
AcDbCircle
 10
164.878852
 20
113.9874999999999
 30
0.0
 40
1.587499999999999
100
AcDbArc
 50
186.038508
 51
204.57298
  0
ARC
  5
C8CE
330
C7A6
100
AcDbEntity
  8
1
  6
Continuous
100
AcDbCircle
 10
164.878852
 20
113.9874999999999
 30
0.0
 40
1.587499999999999
100
AcDbArc
 50
147.0909479999999
 51
167.891491
  0
ARC
  5
C8CF
330
C7A6
100
AcDbEntity
  8
1
  6
Continuous
100
AcDbCircle
 10
164.878852
 20
113.9874999999999
 30
0.0
 40
1.587499999999999
100
AcDbArc
 50
335.4270200000001
 51
353.9614919999999
  0
ARC
  5
C8D0
330
C7A6
100
AcDbEntity
  8
1
  6
Continuous
100
AcDbCircle
 10
174.8788519999999
 20
113.9874999999999
 30
0.0
 40
1.587499999999999
100
AcDbArc
 50
186.038508
 51
204.57298
  0
ARC
  5
C8D1
330
C7A6
100
AcDbEntity
  8
1
  6
Continuous
100
AcDbCircle
 10
174.8788519999999
 20
113.9874999999999
 30
0.0
 40
1.587499999999999
100
AcDbArc
 50
335.4270200000001
 51
353.9614919999999
  0
ARC
  5
C8D2
330
C7A6
100
AcDbEntity
  8
1
  6
Continuous
100
AcDbCircle
 10
184.878852
 20
113.9874999999999
 30
0.0
 40
1.587499999999999
100
AcDbArc
 50
186.038508
 51
204.57298
  0
ARC
  5
C8D3
330
C7A6
100
AcDbEntity
  8
1
  6
Continuous
100
AcDbCircle
 10
184.878852
 20
113.9874999999999
 30
0.0
 40
1.587499999999999
100
AcDbArc
 50
335.4270200000001
 51
353.9614919999999
  0
ARC
  5
C8D4
330
C7A6
100
AcDbEntity
  8
1
  6
Continuous
100
AcDbCircle
 10
194.8788519999999
 20
113.9874999999999
 30
0.0
 40
1.587499999999999
100
AcDbArc
 50
186.038508
 51
204.57298
  0
ARC
  5
C8D5
330
C7A6
100
AcDbEntity
  8
1
  6
Continuous
100
AcDbCircle
 10
194.8788519999999
 20
113.9874999999999
 30
0.0
 40
1.587499999999999
100
AcDbArc
 50
335.4270200000001
 51
353.9614919999999
  0
ARC
  5
C8D6
330
C7A6
100
AcDbEntity
  8
1
  6
Continuous
100
AcDbCircle
 10
204.878852
 20
113.9874999999999
 30
0.0
 40
1.587499999999999
100
AcDbArc
 50
335.4270200000001
 51
353.9614919999999
  0
ARC
  5
C8D7
330
C7A6
100
AcDbEntity
  8
1
  6
Continuous
100
AcDbCircle
 10
204.878852
 20
113.9874999999999
 30
0.0
 40
1.587499999999999
100
AcDbArc
 50
186.038508
 51
204.57298
  0
ARC
  5
C8D8
330
C7A6
100
AcDbEntity
  8
1
  6
Continuous
100
AcDbCircle
 10
159.878852
 20
127.6795
 30
0.0
 40
1.0
100
AcDbArc
 50
328.028322
 51
0.0
  0
ARC
  5
C8D9
330
C7A6
100
AcDbEntity
  8
1
  6
Continuous
100
AcDbCircle
 10
159.878852
 20
114.3205
 30
0.0
 40
1.0
100
AcDbArc
 50
148.028322
 51
180.0
  0
ARC
  5
C8DA
330
C7A6
100
AcDbEntity
  8
1
  6
Continuous
100
AcDbCircle
 10
149.8788519999999
 20
127.6795
 30
0.0
 40
1.0
100
AcDbArc
 50
328.028322
 51
0.0
  0
ARC
  5
C8DB
330
C7A6
100
AcDbEntity
  8
1
  6
Continuous
100
AcDbCircle
 10
139.8788519999999
 20
127.6795
 30
0.0
 40
1.0
100
AcDbArc
 50
328.028322
 51
0.0
  0
ARC
  5
C8DC
330
C7A6
100
AcDbEntity
  8
1
  6
Continuous
100
AcDbCircle
 10
129.878852
 20
127.6795
 30
0.0
 40
1.0
100
AcDbArc
 50
328.028322
 51
0.0
  0
ARC
  5
C8DD
330
C7A6
100
AcDbEntity
  8
1
  6
Continuous
100
AcDbCircle
 10
119.8788519999999
 20
127.6795
 30
0.0
 40
1.0
100
AcDbArc
 50
328.028322
 51
0.0
  0
ARC
  5
C8DE
330
C7A6
100
AcDbEntity
  8
1
  6
Continuous
100
AcDbCircle
 10
119.8788519999999
 20
114.3205
 30
0.0
 40
1.0
100
AcDbArc
 50
148.028322
 51
180.0
  0
ARC
  5
C8DF
330
C7A6
100
AcDbEntity
  8
1
  6
Continuous
100
AcDbCircle
 10
129.878852
 20
114.3205
 30
0.0
 40
1.0
100
AcDbArc
 50
148.028322
 51
180.0
  0
ARC
  5
C8E0
330
C7A6
100
AcDbEntity
  8
1
  6
Continuous
100
AcDbCircle
 10
139.8788519999999
 20
114.3205
 30
0.0
 40
1.0
100
AcDbArc
 50
148.028322
 51
180.0
  0
ARC
  5
C8E1
330
C7A6
100
AcDbEntity
  8
1
  6
Continuous
100
AcDbCircle
 10
149.8788519999999
 20
114.3205
 30
0.0
 40
1.0
100
AcDbArc
 50
148.028322
 51
180.0
  0
ARC
  5
C8E2
330
C7A6
100
AcDbEntity
  8
1
  6
Continuous
100
AcDbCircle
 10
154.878852
 20
113.9874999999999
 30
0.0
 40
1.587499999999999
100
AcDbArc
 50
147.0909479999999
 51
167.891491
  0
ARC
  5
C8E3
330
C7A6
100
AcDbEntity
  8
1
  6
Continuous
100
AcDbCircle
 10
154.878852
 20
113.9874999999999
 30
0.0
 40
1.587499999999999
100
AcDbArc
 50
186.038508
 51
204.57298
  0
ARC
  5
C8E4
330
C7A6
100
AcDbEntity
  8
1
  6
Continuous
100
AcDbCircle
 10
154.878852
 20
113.9874999999999
 30
0.0
 40
1.587499999999999
100
AcDbArc
 50
335.4270200000001
 51
353.9614919999999
  0
ARC
  5
C8E5
330
C7A6
100
AcDbEntity
  8
1
  6
Continuous
100
AcDbCircle
 10
154.878852
 20
113.9874999999999
 30
0.0
 40
1.587499999999999
100
AcDbArc
 50
12.108509
 51
32.909052
  0
ARC
  5
C8E6
330
C7A6
100
AcDbEntity
  8
1
  6
Continuous
100
AcDbCircle
 10
144.8788519999999
 20
113.9874999999999
 30
0.0
 40
1.587499999999999
100
AcDbArc
 50
12.108509
 51
32.909052
  0
ARC
  5
C8E7
330
C7A6
100
AcDbEntity
  8
1
  6
Continuous
100
AcDbCircle
 10
144.8788519999999
 20
113.9874999999999
 30
0.0
 40
1.587499999999999
100
AcDbArc
 50
335.4270200000001
 51
353.9614919999999
  0
ARC
  5
C8E8
330
C7A6
100
AcDbEntity
  8
1
  6
Continuous
100
AcDbCircle
 10
144.8788519999999
 20
113.9874999999999
 30
0.0
 40
1.587499999999999
100
AcDbArc
 50
186.038508
 51
204.57298
  0
ARC
  5
C8E9
330
C7A6
100
AcDbEntity
  8
1
  6
Continuous
100
AcDbCircle
 10
144.8788519999999
 20
113.9874999999999
 30
0.0
 40
1.587499999999999
100
AcDbArc
 50
147.0909479999999
 51
167.891491
  0
ARC
  5
C8EA
330
C7A6
100
AcDbEntity
  8
1
  6
Continuous
100
AcDbCircle
 10
134.878852
 20
113.9874999999999
 30
0.0
 40
1.587499999999999
100
AcDbArc
 50
12.108509
 51
32.909052
  0
ARC
  5
C8EB
330
C7A6
100
AcDbEntity
  8
1
  6
Continuous
100
AcDbCircle
 10
134.878852
 20
113.9874999999999
 30
0.0
 40
1.587499999999999
100
AcDbArc
 50
335.4270200000001
 51
353.9614919999999
  0
ARC
  5
C8EC
330
C7A6
100
AcDbEntity
  8
1
  6
Continuous
100
AcDbCircle
 10
134.878852
 20
113.9874999999999
 30
0.0
 40
1.587499999999999
100
AcDbArc
 50
186.038508
 51
204.57298
  0
ARC
  5
C8ED
330
C7A6
100
AcDbEntity
  8
1
  6
Continuous
100
AcDbCircle
 10
134.878852
 20
113.9874999999999
 30
0.0
 40
1.587499999999999
100
AcDbArc
 50
147.0909479999999
 51
167.891491
  0
ARC
  5
C8EE
330
C7A6
100
AcDbEntity
  8
1
  6
Continuous
100
AcDbCircle
 10
124.8788519999999
 20
113.9874999999999
 30
0.0
 40
1.587499999999999
100
AcDbArc
 50
12.108509
 51
32.909052
  0
ARC
  5
C8EF
330
C7A6
100
AcDbEntity
  8
1
  6
Continuous
100
AcDbCircle
 10
124.8788519999999
 20
113.9874999999999
 30
0.0
 40
1.587499999999999
100
AcDbArc
 50
335.4270200000001
 51
353.9614919999999
  0
ARC
  5
C8F0
330
C7A6
100
AcDbEntity
  8
1
  6
Continuous
100
AcDbCircle
 10
124.8788519999999
 20
113.9874999999999
 30
0.0
 40
1.587499999999999
100
AcDbArc
 50
186.038508
 51
204.57298
  0
ARC
  5
C8F1
330
C7A6
100
AcDbEntity
  8
1
  6
Continuous
100
AcDbCircle
 10
124.8788519999999
 20
113.9874999999999
 30
0.0
 40
1.587499999999999
100
AcDbArc
 50
147.0909479999999
 51
167.891491
  0
ARC
  5
C8F2
330
C7A6
100
AcDbEntity
  8
1
  6
Continuous
100
AcDbCircle
 10
114.8788519999999
 20
113.9874999999999
 30
0.0
 40
1.587499999999999
100
AcDbArc
 50
147.0909479999999
 51
167.891491
  0
ARC
  5
C8F3
330
C7A6
100
AcDbEntity
  8
1
  6
Continuous
100
AcDbCircle
 10
114.8788519999999
 20
113.9874999999999
 30
0.0
 40
1.587499999999999
100
AcDbArc
 50
186.038508
 51
204.57298
  0
ARC
  5
C8F4
330
C7A6
100
AcDbEntity
  8
1
  6
Continuous
100
AcDbCircle
 10
114.8788519999999
 20
113.9874999999999
 30
0.0
 40
1.587499999999999
100
AcDbArc
 50
335.4270200000001
 51
353.9614919999999
  0
ARC
  5
C8F5
330
C7A6
100
AcDbEntity
  8
1
  6
Continuous
100
AcDbCircle
 10
114.8788519999999
 20
113.9874999999999
 30
0.0
 40
1.587499999999999
100
AcDbArc
 50
12.108509
 51
32.909052
  0
ARC
  5
C8F6
330
C7A6
100
AcDbEntity
  8
1
  6
Continuous
100
AcDbCircle
 10
74.87885199999998
 20
113.9874999999999
 30
0.0
 40
1.587499999999999
100
AcDbArc
 50
147.0909479999999
 51
167.891491
  0
ARC
  5
C8F7
330
C7A6
100
AcDbEntity
  8
1
  6
Continuous
100
AcDbCircle
 10
74.87885199999998
 20
113.9874999999999
 30
0.0
 40
1.587499999999999
100
AcDbArc
 50
186.038508
 51
204.57298
  0
ARC
  5
C8F8
330
C7A6
100
AcDbEntity
  8
1
  6
Continuous
100
AcDbCircle
 10
74.87885199999998
 20
113.9874999999999
 30
0.0
 40
1.587499999999999
100
AcDbArc
 50
335.4270200000001
 51
353.9614919999999
  0
ARC
  5
C8F9
330
C7A6
100
AcDbEntity
  8
1
  6
Continuous
100
AcDbCircle
 10
74.87885199999998
 20
113.9874999999999
 30
0.0
 40
1.587499999999999
100
AcDbArc
 50
12.108509
 51
32.909052
  0
ARC
  5
C8FA
330
C7A6
100
AcDbEntity
  8
1
  6
Continuous
100
AcDbCircle
 10
84.87885199999999
 20
113.9874999999999
 30
0.0
 40
1.587499999999999
100
AcDbArc
 50
12.108509
 51
32.909052
  0
ARC
  5
C8FB
330
C7A6
100
AcDbEntity
  8
1
  6
Continuous
100
AcDbCircle
 10
84.87885199999999
 20
113.9874999999999
 30
0.0
 40
1.587499999999999
100
AcDbArc
 50
335.4270200000001
 51
353.9614919999999
  0
ARC
  5
C8FC
330
C7A6
100
AcDbEntity
  8
1
  6
Continuous
100
AcDbCircle
 10
84.87885199999999
 20
113.9874999999999
 30
0.0
 40
1.587499999999999
100
AcDbArc
 50
186.038508
 51
204.57298
  0
ARC
  5
C8FD
330
C7A6
100
AcDbEntity
  8
1
  6
Continuous
100
AcDbCircle
 10
84.87885199999999
 20
113.9874999999999
 30
0.0
 40
1.587499999999999
100
AcDbArc
 50
147.0909479999999
 51
167.891491
  0
ARC
  5
C8FE
330
C7A6
100
AcDbEntity
  8
1
  6
Continuous
100
AcDbCircle
 10
94.87885199999999
 20
113.9874999999999
 30
0.0
 40
1.587499999999999
100
AcDbArc
 50
12.108509
 51
32.909052
  0
ARC
  5
C8FF
330
C7A6
100
AcDbEntity
  8
1
  6
Continuous
100
AcDbCircle
 10
94.87885199999999
 20
113.9874999999999
 30
0.0
 40
1.587499999999999
100
AcDbArc
 50
335.4270200000001
 51
353.9614919999999
  0
ARC
  5
C900
330
C7A6
100
AcDbEntity
  8
1
  6
Continuous
100
AcDbCircle
 10
94.87885199999999
 20
113.9874999999999
 30
0.0
 40
1.587499999999999
100
AcDbArc
 50
186.038508
 51
204.57298
  0
ARC
  5
C901
330
C7A6
100
AcDbEntity
  8
1
  6
Continuous
100
AcDbCircle
 10
94.87885199999999
 20
113.9874999999999
 30
0.0
 40
1.587499999999999
100
AcDbArc
 50
147.0909479999999
 51
167.891491
  0
ARC
  5
C902
330
C7A6
100
AcDbEntity
  8
1
  6
Continuous
100
AcDbCircle
 10
104.878852
 20
113.9874999999999
 30
0.0
 40
1.587499999999999
100
AcDbArc
 50
147.0909479999999
 51
167.891491
  0
ARC
  5
C903
330
C7A6
100
AcDbEntity
  8
1
  6
Continuous
100
AcDbCircle
 10
104.878852
 20
113.9874999999999
 30
0.0
 40
1.587499999999999
100
AcDbArc
 50
186.038508
 51
204.57298
  0
ARC
  5
C904
330
C7A6
100
AcDbEntity
  8
1
  6
Continuous
100
AcDbCircle
 10
104.878852
 20
113.9874999999999
 30
0.0
 40
1.587499999999999
100
AcDbArc
 50
335.4270200000001
 51
353.9614919999999
  0
ARC
  5
C905
330
C7A6
100
AcDbEntity
  8
1
  6
Continuous
100
AcDbCircle
 10
104.878852
 20
113.9874999999999
 30
0.0
 40
1.587499999999999
100
AcDbArc
 50
12.108509
 51
32.909052
  0
LINE
  5
C906
330
C7A6
100
AcDbEntity
  8
1
  6
Continuous
100
AcDbLine
 10
26.559746
 20
127.448359
 30
0.0
 11
28.41969199999999
 21
129.175725
 31
0.0
  0
LINE
  5
C907
330
C7A6
100
AcDbEntity
  8
1
  6
Continuous
100
AcDbLine
 10
25.607033
 20
128.474195
 30
0.0
 11
27.46698
 21
130.2015609999999
 31
0.0
  0
ARC
  5
C908
330
C7A6
100
AcDbEntity
  8
1
  6
Continuous
100
AcDbCircle
 10
26.89999999999999
 20
127.081989
 30
0.0
 40
0.5
100
AcDbArc
 50
132.8834129999999
 51
180.0
  0
ARC
  5
C909
330
C7A6
100
AcDbEntity
  8
1
  6
Continuous
100
AcDbCircle
 10
26.89999999999999
 20
127.081989
 30
0.0
 40
1.9
100
AcDbArc
 50
132.8834129999999
 51
180.0
  0
LINE
  5
C90A
330
C7A6
100
AcDbEntity
  8
4
  6
CENTER
100
AcDbLine
 10
20.0
 20
121.0
 30
0.0
 11
38.0
 21
121.0
 31
0.0
  0
ARC
  5
C90B
330
C7A6
100
AcDbEntity
  8
1
  6
Continuous
100
AcDbCircle
 10
31.49104
 20
125.6410399999999
 30
0.0
 40
1.50896
100
AcDbArc
 50
0.0
 51
130.0162919999999
  0
LINE
  5
C90C
330
C7A6
100
AcDbEntity
  8
1
  6
Continuous
100
AcDbLine
 10
30.943724
 20
128.672665
 30
0.0
 11
32.078071
 21
129.5220379999999
 31
0.0
  0
LINE
  5
C90D
330
C7A6
100
AcDbEntity
  8
1
  6
Continuous
100
AcDbLine
 10
27.73607199999998
 20
126.2999999999999
 30
0.0
 11
28.36098699999999
 21
126.906695
 31
0.0
  0
LINE
  5
C90E
330
C7A6
100
AcDbEntity
  8
1
  6
Continuous
100
AcDbLine
 10
30.943724
 20
113.327335
 30
0.0
 11
32.078071
 21
112.4779619999999
 31
0.0
  0
ARC
  5
C90F
330
C7A6
100
AcDbEntity
  8
1
  6
Continuous
100
AcDbCircle
 10
31.49104
 20
116.35896
 30
0.0
 40
1.50896
100
AcDbArc
 50
229.983708
 51
0.0
  0
ARC
  5
C910
330
C7A6
100
AcDbEntity
  8
1
  6
Continuous
100
AcDbCircle
 10
29.5
 20
113.9874999999999
 30
0.0
 40
2.987499999999998
100
AcDbArc
 50
227.116587
 51
329.6497479999998
  0
LINE
  5
C911
330
C7A6
100
AcDbEntity
  8
1
  6
Continuous
100
AcDbLine
 10
27.73607199999998
 20
115.7
 30
0.0
 11
28.36098699999999
 21
115.093305
 31
0.0
  0
ARC
  5
C912
330
C7A6
100
AcDbEntity
  8
1
  6
Continuous
100
AcDbCircle
 10
26.89999999999999
 20
114.918011
 30
0.0
 40
1.9
100
AcDbArc
 50
180.0
 51
227.116587
  0
ARC
  5
C913
330
C7A6
100
AcDbEntity
  8
1
  6
Continuous
100
AcDbCircle
 10
26.89999999999999
 20
114.918011
 30
0.0
 40
0.5
100
AcDbArc
 50
180.0
 51
227.116587
  0
LINE
  5
C914
330
C7A6
100
AcDbEntity
  8
1
  6
Continuous
100
AcDbLine
 10
25.607033
 20
113.525805
 30
0.0
 11
27.46698
 21
111.7984389999999
 31
0.0
  0
LINE
  5
C915
330
C7A6
100
AcDbEntity
  8
1
  6
Continuous
100
AcDbLine
 10
26.559746
 20
114.5516409999999
 30
0.0
 11
28.41969199999999
 21
112.824275
 31
0.0
  0
ARC
  5
C916
330
C7A6
100
AcDbEntity
  8
1
  6
Continuous
100
AcDbCircle
 10
29.5
 20
113.9874999999999
 30
0.0
 40
1.587499999999999
100
AcDbArc
 50
18.435313
 51
145.449896
  0
LINE
  5
C917
330
C7A6
100
AcDbEntity
  8
1
  6
Continuous
100
AcDbLine
 10
26.89999999999999
 20
126.9950149999999
 30
0.0
 11
26.89999999999999
 21
126.2999999999999
 31
0.0
  0
LINE
  5
C918
330
C7A6
100
AcDbEntity
  8
1
  6
Continuous
100
AcDbLine
 10
27.4
 20
127.0
 30
0.0
 11
27.4
 21
126.2999999999999
 31
0.0
  0
LINE
  5
C919
330
C7A6
100
AcDbEntity
  8
1
  6
Continuous
100
AcDbLine
 10
32.20000000000001
 20
128.1795
 30
0.0
 11
32.20000000000001
 21
127.6795
 31
0.0
  0
LINE
  5
C91A
330
C7A6
100
AcDbEntity
  8
1
  6
Continuous
100
AcDbLine
 10
27.4
 20
127.0
 30
0.0
 11
32.20000000000001
 21
127.6795
 31
0.0
  0
LINE
  5
C91B
330
C7A6
100
AcDbEntity
  8
1
  6
Continuous
100
AcDbLine
 10
27.32991699999999
 20
127.490079
 30
0.0
 11
32.20000000000001
 21
128.1795
 31
0.0
  0
ARC
  5
C91C
330
C7A6
100
AcDbEntity
  8
1
  6
Continuous
100
AcDbCircle
 10
27.4
 20
126.9950149999999
 30
0.0
 40
0.5
100
AcDbArc
 50
98.05739500000001
 51
180.0
  0
ARC
  5
C91D
330
C7A6
100
AcDbEntity
  8
1
  6
Continuous
100
AcDbCircle
 10
29.5
 20
128.0124999999999
 30
0.0
 40
1.587499999999999
100
AcDbArc
 50
214.550104
 51
341.5646869999999
  0
LINE
  5
C91E
330
C7A6
100
AcDbEntity
  8
1
  6
Continuous
100
AcDbLine
 10
27.32991699999999
 20
114.5099209999999
 30
0.0
 11
32.20000000000001
 21
113.8204999999999
 31
0.0
  0
LINE
  5
C91F
330
C7A6
100
AcDbEntity
  8
1
  6
Continuous
100
AcDbLine
 10
27.4
 20
115.0
 30
0.0
 11
32.20000000000001
 21
114.3205
 31
0.0
  0
LINE
  5
C920
330
C7A6
100
AcDbEntity
  8
1
  6
Continuous
100
AcDbLine
 10
32.20000000000001
 20
113.8204999999999
 30
0.0
 11
32.20000000000001
 21
114.3205
 31
0.0
  0
LINE
  5
C921
330
C7A6
100
AcDbEntity
  8
1
  6
Continuous
100
AcDbLine
 10
27.4
 20
115.0
 30
0.0
 11
27.4
 21
115.7
 31
0.0
  0
ARC
  5
C922
330
C7A6
100
AcDbEntity
  8
1
  6
Continuous
100
AcDbCircle
 10
27.4
 20
115.004985
 30
0.0
 40
0.5
100
AcDbArc
 50
180.0
 51
261.9426049999999
  0
LINE
  5
C923
330
C7A6
100
AcDbEntity
  8
1
  6
Continuous
100
AcDbLine
 10
26.89999999999999
 20
115.004985
 30
0.0
 11
26.89999999999999
 21
115.7
 31
0.0
  0
ARC
  5
C924
330
C7A6
100
AcDbEntity
  8
1
  6
Continuous
100
AcDbCircle
 10
29.5
 20
113.9874999999999
 30
0.0
 40
1.587499999999999
100
AcDbArc
 50
164.228362
 51
359.656848
  0
LINE
  5
C925
330
C7A6
100
AcDbEntity
  8
1
  6
Continuous
100
AcDbLine
 10
69.478852
 20
201.0
 30
0.0
 11
69.478852
 21
193.921929
 31
0.0
  0
LINE
  5
C926
330
C7A6
100
AcDbEntity
  8
1
  6
Continuous
100
AcDbLine
 10
569.4788519999997
 20
201.0
 30
0.0
 11
569.4788519999997
 21
193.921929
 31
0.0
  0
LINE
  5
C927
330
C7A6
100
AcDbEntity
  8
1
  6
Continuous
100
AcDbLine
 10
569.4788519999997
 20
201.0
 30
0.0
 11
69.478852
 21
201.0
 31
0.0
  0
LINE
  5
C928
330
C7A6
100
AcDbEntity
  8
1
  6
Continuous
100
AcDbLine
 10
170.8788519999998
 20
193.0
 30
0.0
 11
70.87885199999998
 21
193.0
 31
0.0
  0
LINE
  5
C929
330
C7A6
100
AcDbEntity
  8
1
  6
Continuous
100
AcDbLine
 10
69.478852
 20
193.921929
 30
0.0
 11
569.4788519999997
 21
193.921929
 31
0.0
  0
LINE
  5
C92A
330
C7A6
100
AcDbEntity
  8
1
  6
Continuous
100
AcDbLine
 10
170.8788519999998
 20
193.0
 30
0.0
 11
170.8788519999998
 21
193.921929
 31
0.0
  0
LINE
  5
C92B
330
C7A6
100
AcDbEntity
  8
4
  6
CENTER
100
AcDbLine
 10
90.878852
 20
196.421929
 30
0.0
 11
90.878852
 21
190.5
 31
0.0
  0
LINE
  5
C92C
330
C7A6
100
AcDbEntity
  8
4
  6
CENTER
100
AcDbLine
 10
150.8788519999999
 20
196.421929
 30
0.0
 11
150.8788519999999
 21
190.5
 31
0.0
  0
LINE
  5
C92D
330
C7A6
100
AcDbEntity
  8
4
  6
CENTER
100
AcDbLine
 10
549.4788519999998
 20
203.5
 30
0.0
 11
549.4788519999998
 21
198.5
 31
0.0
  0
LINE
  5
C92E
330
C7A6
100
AcDbEntity
  8
4
  6
CENTER
100
AcDbLine
 10
534.4788519999998
 20
203.5
 30
0.0
 11
534.4788519999998
 21
198.5
 31
0.0
  0
LINE
  5
C92F
330
C7A6
100
AcDbEntity
  8
4
  6
CENTER
100
AcDbLine
 10
189.4788519999999
 20
203.5
 30
0.0
 11
189.4788519999999
 21
198.5
 31
0.0
  0
LINE
  5
C930
330
C7A6
100
AcDbEntity
  8
4
  6
CENTER
100
AcDbLine
 10
104.4788519999999
 20
203.5
 30
0.0
 11
104.4788519999999
 21
198.5
 31
0.0
  0
LINE
  5
C931
330
C7A6
100
AcDbEntity
  8
4
  6
CENTER
100
AcDbLine
 10
89.47885199999998
 20
203.5
 30
0.0
 11
89.47885199999998
 21
198.5
 31
0.0
  0
LINE
  5
C932
330
C7A6
100
AcDbEntity
  8
3
  6
DASHED
100
AcDbLine
 10
170.8788519999998
 20
198.5
 30
0.0
 11
70.87885199999998
 21
198.5
 31
0.0
  0
LINE
  5
C933
330
C7A6
100
AcDbEntity
  8
3
  6
DASHED
100
AcDbLine
 10
170.8788519999998
 20
193.921929
 30
0.0
 11
170.8788519999998
 21
198.5
 31
0.0
  0
LINE
  5
C934
330
C7A6
100
AcDbEntity
  8
3
  6
DASHED
100
AcDbLine
 10
70.87885199999998
 20
198.5
 30
0.0
 11
70.87885199999998
 21
193.921929
 31
0.0
  0
LINE
  5
C935
330
C7A6
100
AcDbEntity
  8
4
  6
CENTER
100
AcDbLine
 10
64.478852
 20
273.0
 30
0.0
 11
574.4788519999997
 21
273.0
 31
0.0
  0
LINE
  5
C936
330
C7A6
100
AcDbEntity
  8
1
  6
Continuous
100
AcDbLine
 10
69.478852
 20
283.0
 30
0.0
 11
569.4788519999997
 21
283.0
 31
0.0
  0
LINE
  5
C937
330
C7A6
100
AcDbEntity
  8
1
  6
Continuous
100
AcDbLine
 10
569.4788519999997
 20
263.0
 30
0.0
 11
69.478852
 21
263.0
 31
0.0
  0
LINE
  5
C938
330
C7A6
100
AcDbEntity
  8
1
  6
Continuous
100
AcDbLine
 10
70.87885199999998
 20
279.1499999999999
 30
0.0
 11
71.06753799999999
 21
279.1499999999999
 31
0.0
  0
LINE
  5
C939
330
C7A6
100
AcDbEntity
  8
3
  6
DASHED
100
AcDbLine
 10
170.8788519999998
 20
266.85
 30
0.0
 11
71.06753799999999
 21
266.85
 31
0.0
  0
LINE
  5
C93A
330
C7A6
100
AcDbEntity
  8
3
  6
DASHED
100
AcDbLine
 10
70.87885199999998
 20
267.3
 30
0.0
 11
70.87885199999998
 21
278.6999999999998
 31
0.0
  0
LINE
  5
C93B
330
C7A6
100
AcDbEntity
  8
1
  6
Continuous
100
AcDbLine
 10
69.478852
 20
281.728427
 30
0.0
 11
69.478852
 21
283.0
 31
0.0
  0
ARC
  5
C93C
330
C7A6
100
AcDbEntity
  8
1
  6
Continuous
100
AcDbCircle
 10
70.478852
 20
281.728427
 30
0.0
 40
1.0
100
AcDbArc
 50
180.0
 51
225.0
  0
LINE
  5
C93D
330
C7A6
100
AcDbEntity
  8
1
  6
Continuous
100
AcDbLine
 10
70.78595899999998
 20
280.0071069999999
 30
0.0
 11
69.771745
 21
281.02132
 31
0.0
  0
ARC
  5
C93E
330
C7A6
100
AcDbEntity
  8
1
  6
Continuous
100
AcDbCircle
 10
70.078852
 20
279.3
 30
0.0
 40
1.0
100
AcDbArc
 50
270.0
 51
45.0
  0
LINE
  5
C93F
330
C7A6
100
AcDbEntity
  8
1
  6
Continuous
100
AcDbLine
 10
70.078852
 20
267.7
 30
0.0
 11
69.478852
 21
267.7
 31
0.0
  0
LINE
  5
C940
330
C7A6
100
AcDbEntity
  8
1
  6
Continuous
100
AcDbLine
 10
69.478852
 20
278.3
 30
0.0
 11
70.078852
 21
278.3
 31
0.0
  0
LINE
  5
C941
330
C7A6
100
AcDbEntity
  8
1
  6
Continuous
100
AcDbLine
 10
69.478852
 20
267.7
 30
0.0
 11
69.478852
 21
278.3
 31
0.0
  0
LINE
  5
C942
330
C7A6
100
AcDbEntity
  8
4
  6
CENTER
100
AcDbLine
 10
90.878852
 20
268.7843659999999
 30
0.0
 11
90.878852
 21
277.2934029999999
 31
0.0
  0
CIRCLE
  5
C943
330
C7A6
100
AcDbEntity
  8
1
  6
Continuous
100
AcDbCircle
 10
89.47885199999998
 20
273.0
 30
0.0
 40
1.6
  0
LINE
  5
C944
330
C7A6
100
AcDbEntity
  8
4
  6
CENTER
100
AcDbLine
 10
89.47885199999998
 20
270.6215439999999
 30
0.0
 11
89.47885199999998
 21
275.06945
 31
0.0
  0
ARC
  5
C945
330
C7A6
100
AcDbEntity
  8
1
  6
Continuous
100
AcDbCircle
 10
70.078852
 20
266.6999999999998
 30
0.0
 40
1.0
100
AcDbArc
 50
315.0
 51
90.0
  0
LINE
  5
C946
330
C7A6
100
AcDbEntity
  8
1
  6
Continuous
100
AcDbLine
 10
69.771745
 20
264.97868
 30
0.0
 11
70.78595899999998
 21
265.9928929999999
 31
0.0
  0
ARC
  5
C947
330
C7A6
100
AcDbEntity
  8
1
  6
Continuous
100
AcDbCircle
 10
70.478852
 20
264.2715729999998
 30
0.0
 40
1.0
100
AcDbArc
 50
135.0
 51
180.0
  0
LINE
  5
C948
330
C7A6
100
AcDbEntity
  8
1
  6
Continuous
100
AcDbLine
 10
69.478852
 20
263.0
 30
0.0
 11
69.478852
 21
264.2715729999998
 31
0.0
  0
ARC
  5
C949
330
C7A6
100
AcDbEntity
  8
1
  6
Continuous
100
AcDbCircle
 10
104.778852
 20
273.0
 30
0.0
 40
1.6
100
AcDbArc
 50
270.0
 51
90.0
  0
ARC
  5
C94A
330
C7A6
100
AcDbEntity
  8
1
  6
Continuous
100
AcDbCircle
 10
104.178852
 20
273.0
 30
0.0
 40
1.6
100
AcDbArc
 50
90.0
 51
270.0
  0
LINE
  5
C94B
330
C7A6
100
AcDbEntity
  8
1
  6
Continuous
100
AcDbLine
 10
104.778852
 20
271.3999999999999
 30
0.0
 11
104.178852
 21
271.3999999999999
 31
0.0
  0
LINE
  5
C94C
330
C7A6
100
AcDbEntity
  8
1
  6
Continuous
100
AcDbLine
 10
104.178852
 20
274.6
 30
0.0
 11
104.778852
 21
274.6
 31
0.0
  0
LINE
  5
C94D
330
C7A6
100
AcDbEntity
  8
4
  6
CENTER
100
AcDbLine
 10
104.4788519999999
 20
270.23477
 30
0.0
 11
104.4788519999999
 21
275.649611
 31
0.0
  0
LINE
  5
C94E
330
C7A6
100
AcDbEntity
  8
4
  6
CENTER
100
AcDbLine
 10
150.8788519999999
 20
268.736019
 30
0.0
 11
150.8788519999999
 21
277.1000149999999
 31
0.0
  0
ARC
  5
C94F
330
C7A6
100
AcDbEntity
  8
1
  6
Continuous
100
AcDbCircle
 10
189.7788519999998
 20
273.0
 30
0.0
 40
1.6
100
AcDbArc
 50
270.0
 51
90.0
  0
LINE
  5
C950
330
C7A6
100
AcDbEntity
  8
3
  6
DASHED
100
AcDbLine
 10
170.8788519999998
 20
279.1499999999999
 30
0.0
 11
170.8788519999998
 21
266.85
 31
0.0
  0
ARC
  5
C951
330
C7A6
100
AcDbEntity
  8
1
  6
Continuous
100
AcDbCircle
 10
189.178852
 20
273.0
 30
0.0
 40
1.6
100
AcDbArc
 50
90.0
 51
270.0
  0
LINE
  5
C952
330
C7A6
100
AcDbEntity
  8
1
  6
Continuous
100
AcDbLine
 10
189.7788519999998
 20
271.3999999999999
 30
0.0
 11
189.178852
 21
271.3999999999999
 31
0.0
  0
LINE
  5
C953
330
C7A6
100
AcDbEntity
  8
1
  6
Continuous
100
AcDbLine
 10
189.178852
 20
274.6
 30
0.0
 11
189.7788519999998
 21
274.6
 31
0.0
  0
LINE
  5
C954
330
C7A6
100
AcDbEntity
  8
4
  6
CENTER
100
AcDbLine
 10
189.4788519999999
 20
270.3314629999999
 30
0.0
 11
189.4788519999999
 21
275.601265
 31
0.0
  0
ARC
  5
C955
330
C7A6
100
AcDbEntity
  8
1
  6
Continuous
100
AcDbCircle
 10
534.7788519999998
 20
273.0
 30
0.0
 40
1.6
100
AcDbArc
 50
270.0
 51
90.0
  0
ARC
  5
C956
330
C7A6
100
AcDbEntity
  8
1
  6
Continuous
100
AcDbCircle
 10
534.178852
 20
273.0
 30
0.0
 40
1.6
100
AcDbArc
 50
90.0
 51
270.0
  0
LINE
  5
C957
330
C7A6
100
AcDbEntity
  8
1
  6
Continuous
100
AcDbLine
 10
534.7788519999998
 20
271.3999999999999
 30
0.0
 11
534.178852
 21
271.3999999999999
 31
0.0
  0
LINE
  5
C958
330
C7A6
100
AcDbEntity
  8
1
  6
Continuous
100
AcDbLine
 10
534.178852
 20
274.6
 30
0.0
 11
534.7788519999998
 21
274.6
 31
0.0
  0
LINE
  5
C959
330
C7A6
100
AcDbEntity
  8
4
  6
CENTER
100
AcDbLine
 10
534.4788519999998
 20
270.1380759999998
 30
0.0
 11
534.4788519999998
 21
275.601265
 31
0.0
  0
ARC
  5
C95A
330
C7A6
100
AcDbEntity
  8
1
  6
Continuous
100
AcDbCircle
 10
549.7788519999998
 20
273.0
 30
0.0
 40
1.6
100
AcDbArc
 50
270.0
 51
90.0
  0
ARC
  5
C95B
330
C7A6
100
AcDbEntity
  8
1
  6
Continuous
100
AcDbCircle
 10
549.178852
 20
273.0
 30
0.0
 40
1.6
100
AcDbArc
 50
90.0
 51
270.0
  0
LINE
  5
C95C
330
C7A6
100
AcDbEntity
  8
1
  6
Continuous
100
AcDbLine
 10
549.7788519999998
 20
271.3999999999999
 30
0.0
 11
549.178852
 21
271.3999999999999
 31
0.0
  0
LINE
  5
C95D
330
C7A6
100
AcDbEntity
  8
1
  6
Continuous
100
AcDbLine
 10
549.178852
 20
274.6
 30
0.0
 11
549.7788519999998
 21
274.6
 31
0.0
  0
LINE
  5
C95E
330
C7A6
100
AcDbEntity
  8
4
  6
CENTER
100
AcDbLine
 10
549.4788519999998
 20
270.0897289999999
 30
0.0
 11
549.4788519999998
 21
276.133079
 31
0.0
  0
ARC
  5
C95F
330
C7A6
100
AcDbEntity
  8
1
  6
Continuous
100
AcDbCircle
 10
568.8788520000001
 20
266.6999999999998
 30
0.0
 40
1.0
100
AcDbArc
 50
90.0
 51
225.0
  0
LINE
  5
C960
330
C7A6
100
AcDbEntity
  8
1
  6
Continuous
100
AcDbLine
 10
569.4788519999997
 20
267.7
 30
0.0
 11
569.4788519999997
 21
278.3
 31
0.0
  0
LINE
  5
C961
330
C7A6
100
AcDbEntity
  8
1
  6
Continuous
100
AcDbLine
 10
568.8788520000001
 20
267.7
 30
0.0
 11
569.4788519999997
 21
267.7
 31
0.0
  0
LINE
  5
C962
330
C7A6
100
AcDbEntity
  8
1
  6
Continuous
100
AcDbLine
 10
569.4788519999997
 20
278.3
 30
0.0
 11
568.8788520000001
 21
278.3
 31
0.0
  0
ARC
  5
C963
330
C7A6
100
AcDbEntity
  8
1
  6
Continuous
100
AcDbCircle
 10
568.8788520000001
 20
279.3
 30
0.0
 40
1.0
100
AcDbArc
 50
135.0
 51
270.0
  0
LINE
  5
C964
330
C7A6
100
AcDbEntity
  8
1
  6
Continuous
100
AcDbLine
 10
569.1859589999998
 20
281.02132
 30
0.0
 11
568.1717449999998
 21
280.0071069999999
 31
0.0
  0
ARC
  5
C965
330
C7A6
100
AcDbEntity
  8
1
  6
Continuous
100
AcDbCircle
 10
568.4788519999997
 20
281.728427
 30
0.0
 40
1.0
100
AcDbArc
 50
315.0
 51
0.0
  0
LINE
  5
C966
330
C7A6
100
AcDbEntity
  8
1
  6
Continuous
100
AcDbLine
 10
569.4788519999997
 20
283.0
 30
0.0
 11
569.4788519999997
 21
281.728427
 31
0.0
  0
LINE
  5
C967
330
C7A6
100
AcDbEntity
  8
1
  6
Continuous
100
AcDbLine
 10
569.4788519999997
 20
264.2715729999998
 30
0.0
 11
569.4788519999997
 21
263.0
 31
0.0
  0
ARC
  5
C968
330
C7A6
100
AcDbEntity
  8
1
  6
Continuous
100
AcDbCircle
 10
568.4788519999997
 20
264.2715729999998
 30
0.0
 40
1.0
100
AcDbArc
 50
0.0
 51
45.0
  0
LINE
  5
C969
330
C7A6
100
AcDbEntity
  8
1
  6
Continuous
100
AcDbLine
 10
568.1717449999998
 20
265.9928929999999
 30
0.0
 11
569.1859589999998
 21
264.97868
 31
0.0
  0
LINE
  5
C96A
330
C7A6
100
AcDbEntity
  8
1
  6
Continuous
100
AcDbLine
 10
70.87885199999998
 20
278.6999999999998
 30
0.0
 11
70.87885199999998
 21
279.8999999999999
 31
0.0
  0
LINE
  5
C96B
330
C7A6
100
AcDbEntity
  8
3
  6
DASHED
100
AcDbLine
 10
71.06753799999999
 20
279.1499999999999
 30
0.0
 11
170.8788519999998
 21
279.1499999999999
 31
0.0
  0
LINE
  5
C96C
330
C7A6
100
AcDbEntity
  8
1
  6
Continuous
100
AcDbLine
 10
70.87885199999998
 20
267.3
 30
0.0
 11
70.87885199999998
 21
266.1
 31
0.0
  0
LINE
  5
C96D
330
C7A6
100
AcDbEntity
  8
1
  6
Continuous
100
AcDbLine
 10
70.87885199999998
 20
266.85
 30
0.0
 11
71.06753799999999
 21
266.85
 31
0.0
  0
LINE
  5
C96E
330
C7A6
100
AcDbEntity
  8
1
  6
Continuous
100
AcDbLine
 10
208.878852
 20
193.921929
 30
0.0
 11
208.878852
 21
193.8
 31
0.0
  0
LINE
  5
C96F
330
C7A6
100
AcDbEntity
  8
1
  6
Continuous
100
AcDbLine
 10
208.878852
 20
193.8
 30
0.0
 11
200.8788519999999
 21
193.8
 31
0.0
  0
LINE
  5
C970
330
C7A6
100
AcDbEntity
  8
1
  6
Continuous
100
AcDbLine
 10
200.8788519999999
 20
193.8
 30
0.0
 11
200.8788519999999
 21
193.921929
 31
0.0
  0
LINE
  5
C971
330
C7A6
100
AcDbEntity
  8
1
  6
Continuous
100
AcDbLine
 10
198.8788519999999
 20
193.8
 30
0.0
 11
190.8788519999999
 21
193.8
 31
0.0
  0
LINE
  5
C972
330
C7A6
100
AcDbEntity
  8
1
  6
Continuous
100
AcDbLine
 10
198.8788519999999
 20
193.921929
 30
0.0
 11
198.8788519999999
 21
193.8
 31
0.0
  0
LINE
  5
C973
330
C7A6
100
AcDbEntity
  8
1
  6
Continuous
100
AcDbLine
 10
190.8788519999999
 20
193.8
 30
0.0
 11
190.8788519999999
 21
193.921929
 31
0.0
  0
LINE
  5
C974
330
C7A6
100
AcDbEntity
  8
1
  6
Continuous
100
AcDbLine
 10
180.878852
 20
193.8
 30
0.0
 11
180.878852
 21
193.921929
 31
0.0
  0
LINE
  5
C975
330
C7A6
100
AcDbEntity
  8
1
  6
Continuous
100
AcDbLine
 10
188.878852
 20
193.921929
 30
0.0
 11
188.878852
 21
193.8
 31
0.0
  0
LINE
  5
C976
330
C7A6
100
AcDbEntity
  8
1
  6
Continuous
100
AcDbLine
 10
188.878852
 20
193.8
 30
0.0
 11
180.878852
 21
193.8
 31
0.0
  0
LINE
  5
C977
330
C7A6
100
AcDbEntity
  8
1
  6
Continuous
100
AcDbLine
 10
178.8788519999999
 20
193.8
 30
0.0
 11
170.8788519999998
 21
193.8
 31
0.0
  0
LINE
  5
C978
330
C7A6
100
AcDbEntity
  8
1
  6
Continuous
100
AcDbLine
 10
178.8788519999999
 20
193.921929
 30
0.0
 11
178.8788519999999
 21
193.8
 31
0.0
  0
LINE
  5
C979
330
C7A6
100
AcDbEntity
  8
1
  6
Continuous
100
AcDbLine
 10
168.8788519999999
 20
193.921929
 30
0.0
 11
168.8788519999999
 21
193.8
 31
0.0
  0
LINE
  5
C97A
330
C7A6
100
AcDbEntity
  8
1
  6
Continuous
100
AcDbLine
 10
160.878852
 20
193.8
 30
0.0
 11
160.878852
 21
193.921929
 31
0.0
  0
LINE
  5
C97B
330
C7A6
100
AcDbEntity
  8
1
  6
Continuous
100
AcDbLine
 10
168.8788519999999
 20
193.8
 30
0.0
 11
160.878852
 21
193.8
 31
0.0
  0
LINE
  5
C97C
330
C7A6
100
AcDbEntity
  8
1
  6
Continuous
100
AcDbLine
 10
158.878852
 20
193.8
 30
0.0
 11
150.8788519999999
 21
193.8
 31
0.0
  0
LINE
  5
C97D
330
C7A6
100
AcDbEntity
  8
1
  6
Continuous
100
AcDbLine
 10
150.8788519999999
 20
193.8
 30
0.0
 11
150.8788519999999
 21
193.921929
 31
0.0
  0
LINE
  5
C97E
330
C7A6
100
AcDbEntity
  8
1
  6
Continuous
100
AcDbLine
 10
158.878852
 20
193.921929
 30
0.0
 11
158.878852
 21
193.8
 31
0.0
  0
LINE
  5
C97F
330
C7A6
100
AcDbEntity
  8
1
  6
Continuous
100
AcDbLine
 10
148.8788519999999
 20
193.8
 30
0.0
 11
140.8788519999999
 21
193.8
 31
0.0
  0
LINE
  5
C980
330
C7A6
100
AcDbEntity
  8
1
  6
Continuous
100
AcDbLine
 10
140.8788519999999
 20
193.8
 30
0.0
 11
140.8788519999999
 21
193.921929
 31
0.0
  0
LINE
  5
C981
330
C7A6
100
AcDbEntity
  8
1
  6
Continuous
100
AcDbLine
 10
148.8788519999999
 20
193.921929
 30
0.0
 11
148.8788519999999
 21
193.8
 31
0.0
  0
LINE
  5
C982
330
C7A6
100
AcDbEntity
  8
1
  6
Continuous
100
AcDbLine
 10
138.878852
 20
193.921929
 30
0.0
 11
138.878852
 21
193.8
 31
0.0
  0
LINE
  5
C983
330
C7A6
100
AcDbEntity
  8
1
  6
Continuous
100
AcDbLine
 10
130.878852
 20
193.8
 30
0.0
 11
130.878852
 21
193.921929
 31
0.0
  0
LINE
  5
C984
330
C7A6
100
AcDbEntity
  8
1
  6
Continuous
100
AcDbLine
 10
138.878852
 20
193.8
 30
0.0
 11
130.878852
 21
193.8
 31
0.0
  0
LINE
  5
C985
330
C7A6
100
AcDbEntity
  8
1
  6
Continuous
100
AcDbLine
 10
128.8788519999999
 20
193.8
 30
0.0
 11
120.8788519999999
 21
193.8
 31
0.0
  0
LINE
  5
C986
330
C7A6
100
AcDbEntity
  8
1
  6
Continuous
100
AcDbLine
 10
120.8788519999999
 20
193.8
 30
0.0
 11
120.8788519999999
 21
193.921929
 31
0.0
  0
LINE
  5
C987
330
C7A6
100
AcDbEntity
  8
1
  6
Continuous
100
AcDbLine
 10
128.8788519999999
 20
193.921929
 30
0.0
 11
128.8788519999999
 21
193.8
 31
0.0
  0
LINE
  5
C988
330
C7A6
100
AcDbEntity
  8
1
  6
Continuous
100
AcDbLine
 10
118.8788519999999
 20
193.921929
 30
0.0
 11
118.8788519999999
 21
193.8
 31
0.0
  0
LINE
  5
C989
330
C7A6
100
AcDbEntity
  8
1
  6
Continuous
100
AcDbLine
 10
110.878852
 20
193.8
 30
0.0
 11
110.878852
 21
193.921929
 31
0.0
  0
LINE
  5
C98A
330
C7A6
100
AcDbEntity
  8
1
  6
Continuous
100
AcDbLine
 10
118.8788519999999
 20
193.8
 30
0.0
 11
110.878852
 21
193.8
 31
0.0
  0
LINE
  5
C98B
330
C7A6
100
AcDbEntity
  8
1
  6
Continuous
100
AcDbLine
 10
108.878852
 20
193.8
 30
0.0
 11
100.8788519999999
 21
193.8
 31
0.0
  0
LINE
  5
C98C
330
C7A6
100
AcDbEntity
  8
1
  6
Continuous
100
AcDbLine
 10
100.8788519999999
 20
193.8
 30
0.0
 11
100.8788519999999
 21
193.921929
 31
0.0
  0
LINE
  5
C98D
330
C7A6
100
AcDbEntity
  8
1
  6
Continuous
100
AcDbLine
 10
108.878852
 20
193.921929
 30
0.0
 11
108.878852
 21
193.8
 31
0.0
  0
LINE
  5
C98E
330
C7A6
100
AcDbEntity
  8
1
  6
Continuous
100
AcDbLine
 10
98.87885199999999
 20
193.8
 30
0.0
 11
90.878852
 21
193.8
 31
0.0
  0
LINE
  5
C98F
330
C7A6
100
AcDbEntity
  8
1
  6
Continuous
100
AcDbLine
 10
90.878852
 20
193.8
 30
0.0
 11
90.878852
 21
193.921929
 31
0.0
  0
LINE
  5
C990
330
C7A6
100
AcDbEntity
  8
1
  6
Continuous
100
AcDbLine
 10
98.87885199999999
 20
193.921929
 30
0.0
 11
98.87885199999999
 21
193.8
 31
0.0
  0
LINE
  5
C991
330
C7A6
100
AcDbEntity
  8
1
  6
Continuous
100
AcDbLine
 10
88.87885199999997
 20
193.921929
 30
0.0
 11
88.87885199999997
 21
193.8
 31
0.0
  0
LINE
  5
C992
330
C7A6
100
AcDbEntity
  8
1
  6
Continuous
100
AcDbLine
 10
80.87885199999998
 20
193.8
 30
0.0
 11
80.87885199999998
 21
193.921929
 31
0.0
  0
LINE
  5
C993
330
C7A6
100
AcDbEntity
  8
1
  6
Continuous
100
AcDbLine
 10
88.87885199999997
 20
193.8
 30
0.0
 11
80.87885199999998
 21
193.8
 31
0.0
  0
LINE
  5
C994
330
C7A6
100
AcDbEntity
  8
1
  6
Continuous
100
AcDbLine
 10
78.87885199999998
 20
193.8
 30
0.0
 11
70.87885199999998
 21
193.8
 31
0.0
  0
LINE
  5
C995
330
C7A6
100
AcDbEntity
  8
1
  6
Continuous
100
AcDbLine
 10
70.87885199999998
 20
193.0
 30
0.0
 11
70.87885199999998
 21
193.921929
 31
0.0
  0
LINE
  5
C996
330
C7A6
100
AcDbEntity
  8
1
  6
Continuous
100
AcDbLine
 10
78.87885199999998
 20
193.921929
 30
0.0
 11
78.87885199999998
 21
193.8
 31
0.0
  0
LINE
  5
C997
330
C7A6
100
AcDbEntity
  8
1
  6
Continuous
100
AcDbLine
 10
25.5
 20
115.7
 30
0.0
 11
31.0
 21
115.7
 31
0.0
  0
LINE
  5
C998
330
C7A6
100
AcDbEntity
  8
1
  6
Continuous
100
AcDbLine
 10
31.0
 20
126.2999999999999
 30
0.0
 11
25.5
 21
126.2999999999999
 31
0.0
  0
LINE
  5
C999
330
C7A6
100
AcDbEntity
  8
1
  6
Continuous
100
AcDbLine
 10
32.0
 20
125.2999999999999
 30
0.0
 11
32.0
 21
116.7
 31
0.0
  0
ARC
  5
C99A
330
C7A6
100
AcDbEntity
  8
1
  6
Continuous
100
AcDbCircle
 10
31.0
 20
125.2999999999999
 30
0.0
 40
1.0
100
AcDbArc
 50
0.0
 51
90.0
  0
ARC
  5
C99B
330
C7A6
100
AcDbEntity
  8
1
  6
Continuous
100
AcDbCircle
 10
31.0
 20
116.7
 30
0.0
 40
1.0
100
AcDbArc
 50
270.0
 51
0.0
  0
LINE
  5
C99C
330
C7A6
100
AcDbEntity
  8
1
  6
Continuous
100
AcDbLine
 10
26.4
 20
115.7
 30
0.0
 11
26.4
 21
114.918011
 31
0.0
  0
ARC
  5
C99D
330
C7A6
100
AcDbEntity
  8
1
  6
Continuous
100
AcDbCircle
 10
25.5
 20
126.8
 30
0.0
 40
0.5
100
AcDbArc
 50
180.0
 51
270.0
  0
ARC
  5
C99E
330
C7A6
100
AcDbEntity
  8
1
  6
Continuous
100
AcDbCircle
 10
25.5
 20
115.2
 30
0.0
 40
0.5
100
AcDbArc
 50
90.0
 51
180.0
  0
ARC
  5
C99F
330
C7A6
100
AcDbEntity
  8
1
  6
Continuous
100
AcDbCircle
 10
607.957703
 20
116.7
 30
0.0
 40
1.0
100
AcDbArc
 50
180.0
 51
270.0
  0
ARC
  5
C9A0
330
C7A6
100
AcDbEntity
  8
1
  6
Continuous
100
AcDbCircle
 10
607.957703
 20
125.2999999999999
 30
0.0
 40
1.0
100
AcDbArc
 50
90.0
 51
180.0
  0
LINE
  5
C9A1
330
C7A6
100
AcDbEntity
  8
1
  6
Continuous
100
AcDbLine
 10
611.5577029999998
 20
115.0
 30
0.0
 11
606.7577029999998
 21
114.3205
 31
0.0
  0
LINE
  5
C9A2
330
C7A6
100
AcDbEntity
  8
1
  6
Continuous
100
AcDbLine
 10
611.627786
 20
114.5099209999999
 30
0.0
 11
606.7577029999998
 21
113.8204999999999
 31
0.0
  0
LINE
  5
C9A3
330
C7A6
100
AcDbEntity
  8
1
  6
Continuous
100
AcDbLine
 10
611.627786
 20
127.490079
 30
0.0
 11
606.7577029999998
 21
128.1795
 31
0.0
  0
LINE
  5
C9A4
330
C7A6
100
AcDbEntity
  8
1
  6
Continuous
100
AcDbLine
 10
611.5577029999998
 20
127.0
 30
0.0
 11
606.7577029999998
 21
127.6795
 31
0.0
  0
ARC
  5
C9A5
330
C7A6
100
AcDbEntity
  8
1
  6
Continuous
100
AcDbCircle
 10
609.457703
 20
113.9874999999999
 30
0.0
 40
2.987499999999998
100
AcDbArc
 50
210.350252
 51
312.8834129999999
  0
ARC
  5
C9A6
330
C7A6
100
AcDbEntity
  8
1
  6
Continuous
100
AcDbCircle
 10
607.466663
 20
116.35896
 30
0.0
 40
1.50896
100
AcDbArc
 50
180.0
 51
310.0162919999998
  0
LINE
  5
C9A7
330
C7A6
100
AcDbEntity
  8
1
  6
Continuous
100
AcDbLine
 10
608.0139789999998
 20
113.327335
 30
0.0
 11
606.879632
 21
112.4779619999999
 31
0.0
  0
LINE
  5
C9A8
330
C7A6
100
AcDbEntity
  8
1
  6
Continuous
100
AcDbLine
 10
608.0139789999998
 20
128.672665
 30
0.0
 11
606.879632
 21
129.5220379999999
 31
0.0
  0
ARC
  5
C9A9
330
C7A6
100
AcDbEntity
  8
1
  6
Continuous
100
AcDbCircle
 10
607.466663
 20
125.6410399999999
 30
0.0
 40
1.50896
100
AcDbArc
 50
49.983708
 51
180.0
  0
LINE
  5
C9AA
330
C7A6
100
AcDbEntity
  8
4
  6
CENTER
100
AcDbLine
 10
618.957703
 20
121.0
 30
0.0
 11
600.957703
 21
121.0
 31
0.0
  0
ARC
  5
C9AB
330
C7A6
100
AcDbEntity
  8
1
  6
Continuous
100
AcDbCircle
 10
609.457703
 20
128.0124999999999
 30
0.0
 40
2.987499999999998
100
AcDbArc
 50
47.116587
 51
149.6497479999999
  0
LINE
  5
C9AC
330
C7A6
100
AcDbEntity
  8
1
  6
Continuous
100
AcDbLine
 10
613.957703
 20
127.081989
 30
0.0
 11
613.957703
 21
114.918011
 31
0.0
  0
ARC
  5
C9AD
330
C7A6
100
AcDbEntity
  8
1
  6
Continuous
100
AcDbCircle
 10
613.457703
 20
115.2
 30
0.0
 40
0.5
100
AcDbArc
 50
0.0
 51
90.0
  0
LINE
  5
C9AE
330
C7A6
100
AcDbEntity
  8
1
  6
Continuous
100
AcDbLine
 10
613.457703
 20
115.7
 30
0.0
 11
607.957703
 21
115.7
 31
0.0
  0
ARC
  5
C9AF
330
C7A6
100
AcDbEntity
  8
1
  6
Continuous
100
AcDbCircle
 10
613.457703
 20
126.8
 30
0.0
 40
0.5
100
AcDbArc
 50
270.0
 51
0.0
  0
LINE
  5
C9B0
330
C7A6
100
AcDbEntity
  8
1
  6
Continuous
100
AcDbLine
 10
607.957703
 20
126.2999999999999
 30
0.0
 11
613.457703
 21
126.2999999999999
 31
0.0
  0
LINE
  5
C9B1
330
C7A6
100
AcDbEntity
  8
1
  6
Continuous
100
AcDbLine
 10
612.5577029999998
 20
115.7
 30
0.0
 11
612.5577029999998
 21
114.918011
 31
0.0
  0
LINE
  5
C9B2
330
C7A6
100
AcDbEntity
  8
1
  6
Continuous
100
AcDbLine
 10
612.5577029999998
 20
127.081989
 30
0.0
 11
612.5577029999998
 21
126.2999999999999
 31
0.0
  0
LINE
  5
C9B3
330
C7A6
100
AcDbEntity
  8
1
  6
Continuous
100
AcDbLine
 10
611.2216309999999
 20
115.7
 30
0.0
 11
610.596717
 21
115.093305
 31
0.0
  0
LINE
  5
C9B4
330
C7A6
100
AcDbEntity
  8
1
  6
Continuous
100
AcDbLine
 10
612.0577029999998
 20
115.004985
 30
0.0
 11
612.0577029999998
 21
115.7
 31
0.0
  0
LINE
  5
C9B5
330
C7A6
100
AcDbEntity
  8
1
  6
Continuous
100
AcDbLine
 10
611.5577029999998
 20
115.0
 30
0.0
 11
611.5577029999998
 21
115.7
 31
0.0
  0
LINE
  5
C9B6
330
C7A6
100
AcDbEntity
  8
1
  6
Continuous
100
AcDbLine
 10
612.0577029999998
 20
126.9950149999999
 30
0.0
 11
612.0577029999998
 21
126.2999999999999
 31
0.0
  0
LINE
  5
C9B7
330
C7A6
100
AcDbEntity
  8
1
  6
Continuous
100
AcDbLine
 10
611.5577029999998
 20
127.0
 30
0.0
 11
611.5577029999998
 21
126.2999999999999
 31
0.0
  0
LINE
  5
C9B8
330
C7A6
100
AcDbEntity
  8
1
  6
Continuous
100
AcDbLine
 10
611.2216309999999
 20
126.2999999999999
 30
0.0
 11
610.596717
 21
126.906695
 31
0.0
  0
ARC
  5
C9B9
330
C7A6
100
AcDbEntity
  8
1
  6
Continuous
100
AcDbCircle
 10
609.457703
 20
113.9874999999999
 30
0.0
 40
1.587499999999999
100
AcDbArc
 50
180.343152
 51
15.771638
  0
ARC
  5
C9BA
330
C7A6
100
AcDbEntity
  8
1
  6
Continuous
100
AcDbCircle
 10
611.5577029999998
 20
115.004985
 30
0.0
 40
0.5
100
AcDbArc
 50
278.0573949999999
 51
0.0
  0
ARC
  5
C9BB
330
C7A6
100
AcDbEntity
  8
1
  6
Continuous
100
AcDbCircle
 10
609.457703
 20
128.0124999999999
 30
0.0
 40
1.587499999999999
100
AcDbArc
 50
198.4353129999999
 51
325.449896
  0
ARC
  5
C9BC
330
C7A6
100
AcDbEntity
  8
1
  6
Continuous
100
AcDbCircle
 10
611.5577029999998
 20
126.9950149999999
 30
0.0
 40
0.5
100
AcDbArc
 50
0.0
 51
81.942605
  0
ARC
  5
C9BD
330
C7A6
100
AcDbEntity
  8
1
  6
Continuous
100
AcDbCircle
 10
609.457703
 20
113.9874999999999
 30
0.0
 40
1.587499999999999
100
AcDbArc
 50
34.55010399999999
 51
161.5646869999999
  0
LINE
  5
C9BE
330
C7A6
100
AcDbEntity
  8
1
  6
Continuous
100
AcDbLine
 10
612.397958
 20
114.5516409999999
 30
0.0
 11
610.5380109999997
 21
112.824275
 31
0.0
  0
LINE
  5
C9BF
330
C7A6
100
AcDbEntity
  8
1
  6
Continuous
100
AcDbLine
 10
613.35067
 20
113.525805
 30
0.0
 11
611.490723
 21
111.7984389999999
 31
0.0
  0
ARC
  5
C9C0
330
C7A6
100
AcDbEntity
  8
1
  6
Continuous
100
AcDbCircle
 10
612.0577029999998
 20
114.918011
 30
0.0
 40
0.5
100
AcDbArc
 50
312.8834129999999
 51
0.0
  0
ARC
  5
C9C1
330
C7A6
100
AcDbEntity
  8
1
  6
Continuous
100
AcDbCircle
 10
612.0577029999998
 20
114.918011
 30
0.0
 40
1.9
100
AcDbArc
 50
312.8834129999999
 51
0.0
  0
ARC
  5
C9C2
330
C7A6
100
AcDbEntity
  8
1
  6
Continuous
100
AcDbCircle
 10
612.0577029999998
 20
127.081989
 30
0.0
 40
1.9
100
AcDbArc
 50
0.0
 51
47.116587
  0
ARC
  5
C9C3
330
C7A6
100
AcDbEntity
  8
1
  6
Continuous
100
AcDbCircle
 10
612.0577029999998
 20
127.081989
 30
0.0
 40
0.5
100
AcDbArc
 50
0.0
 51
47.116587
  0
LINE
  5
C9C4
330
C7A6
100
AcDbEntity
  8
1
  6
Continuous
100
AcDbLine
 10
613.35067
 20
128.474195
 30
0.0
 11
611.490723
 21
130.2015609999999
 31
0.0
  0
LINE
  5
C9C5
330
C7A6
100
AcDbEntity
  8
1
  6
Continuous
100
AcDbLine
 10
612.397958
 20
127.448359
 30
0.0
 11
610.5380109999997
 21
129.175725
 31
0.0
  0
ARC
  5
C9C6
330
C7A6
100
AcDbEntity
  8
1
  6
Continuous
100
AcDbCircle
 10
609.457703
 20
128.0124999999999
 30
0.0
 40
1.587499999999999
100
AcDbArc
 50
344.2283619999998
 51
179.6568479999999
  0
LINE
  5
C9C7
330
C7A6
100
AcDbEntity
  8
1
  6
Continuous
100
AcDbLine
 10
606.957703
 20
125.2999999999999
 30
0.0
 11
606.957703
 21
116.7
 31
0.0
  0
LINE
  5
C9C8
330
C7A6
100
AcDbEntity
  8
1
  6
Continuous
100
AcDbLine
 10
606.7577029999998
 20
113.8204999999999
 30
0.0
 11
606.7577029999998
 21
114.3205
 31
0.0
  0
LINE
  5
C9C9
330
C7A6
100
AcDbEntity
  8
1
  6
Continuous
100
AcDbLine
 10
606.7577029999998
 20
128.1795
 30
0.0
 11
606.7577029999998
 21
127.6795
 31
0.0
  0
LINE
  5
C9CA
330
C7A6
100
AcDbEntity
  8
1
  6
Continuous
100
AcDbLine
 10
605.957703
 20
125.6410399999999
 30
0.0
 11
605.957703
 21
116.35896
 31
0.0
  0
CIRCLE
  5
C9CB
330
C7A6
100
AcDbEntity
  8
1
  6
Continuous
100
AcDbCircle
 10
90.878852
 20
121.0
 30
0.0
 40
1.2295
  0
CIRCLE
  5
C9CC
330
C7A6
100
AcDbEntity
  8
1
  6
Continuous
100
AcDbCircle
 10
150.8788519999999
 20
121.0
 30
0.0
 40
1.2295
  0
LINE
  5
C9CD
330
C7A6
100
AcDbEntity
  8
4
  6
CENTER
100
AcDbLine
 10
449.4788519999998
 20
203.5
 30
0.0
 11
449.4788519999998
 21
198.5
 31
0.0
  0
ARC
  5
C9CE
330
C7A6
100
AcDbEntity
  8
1
  6
Continuous
100
AcDbCircle
 10
449.7788519999998
 20
273.0
 30
0.0
 40
1.6
100
AcDbArc
 50
270.0
 51
90.0
  0
ARC
  5
C9CF
330
C7A6
100
AcDbEntity
  8
1
  6
Continuous
100
AcDbCircle
 10
449.1788519999998
 20
273.0
 30
0.0
 40
1.6
100
AcDbArc
 50
90.0
 51
270.0
  0
LINE
  5
C9D0
330
C7A6
100
AcDbEntity
  8
1
  6
Continuous
100
AcDbLine
 10
449.7788519999998
 20
271.3999999999999
 30
0.0
 11
449.1788519999998
 21
271.3999999999999
 31
0.0
  0
LINE
  5
C9D1
330
C7A6
100
AcDbEntity
  8
1
  6
Continuous
100
AcDbLine
 10
449.1788519999998
 20
274.6
 30
0.0
 11
449.7788519999998
 21
274.6
 31
0.0
  0
LINE
  5
C9D2
330
C7A6
100
AcDbEntity
  8
4
  6
CENTER
100
AcDbLine
 10
449.4788519999998
 20
270.0897289999999
 30
0.0
 11
449.4788519999998
 21
276.133079
 31
0.0
  0
LINE
  5
C9D3
330
C7A6
100
AcDbEntity
  8
4
  6
CENTER
100
AcDbLine
 10
449.4788519999998
 20
123.910271
 30
0.0
 11
449.4788519999998
 21
117.866921
 31
0.0
  0
ARC
  5
C9D4
330
C7A6
100
AcDbEntity
  8
1
  6
Continuous
100
AcDbCircle
 10
209.8788519999998
 20
127.6795
 30
0.0
 40
1.0
100
AcDbArc
 50
180.0
 51
0.0
  0
LINE
  5
C9D5
330
C7A6
100
AcDbEntity
  8
1
  6
Continuous
100
AcDbLine
 10
208.878852
 20
127.6795
 30
0.0
 11
208.878852
 21
128.1795
 31
0.0
  0
ARC
  5
C9D6
330
C7A6
100
AcDbEntity
  8
1
  6
Continuous
100
AcDbCircle
 10
214.878852
 20
128.0124999999999
 30
0.0
 40
1.587499999999999
100
AcDbArc
 50
192.1085089999999
 51
347.8914909999998
  0
ARC
  5
C9D7
330
C7A6
100
AcDbEntity
  8
1
  6
Continuous
100
AcDbCircle
 10
214.878852
 20
128.0124999999999
 30
0.0
 40
1.587499999999999
100
AcDbArc
 50
6.038508
 51
24.57297999999999
  0
ARC
  5
C9D8
330
C7A6
100
AcDbEntity
  8
1
  6
Continuous
100
AcDbCircle
 10
214.878852
 20
128.0124999999999
 30
0.0
 40
1.587499999999999
100
AcDbArc
 50
155.4270199999999
 51
173.9614919999999
  0
LINE
  5
C9D9
330
C7A6
100
AcDbEntity
  8
1
  6
Continuous
100
AcDbLine
 10
210.878852
 20
128.1795
 30
0.0
 11
218.878852
 21
128.1795
 31
0.0
  0
LINE
  5
C9DA
330
C7A6
100
AcDbEntity
  8
1
  6
Continuous
100
AcDbLine
 10
210.878852
 20
127.6795
 30
0.0
 11
218.878852
 21
127.6795
 31
0.0
  0
LINE
  5
C9DB
330
C7A6
100
AcDbEntity
  8
1
  6
Continuous
100
AcDbLine
 10
210.878852
 20
127.6795
 30
0.0
 11
210.878852
 21
128.1795
 31
0.0
  0
ARC
  5
C9DC
330
C7A6
100
AcDbEntity
  8
1
  6
Continuous
100
AcDbCircle
 10
209.8788519999998
 20
114.3205
 30
0.0
 40
1.0
100
AcDbArc
 50
0.0
 51
180.0
  0
LINE
  5
C9DD
330
C7A6
100
AcDbEntity
  8
1
  6
Continuous
100
AcDbLine
 10
208.878852
 20
114.3205
 30
0.0
 11
208.878852
 21
113.8204999999999
 31
0.0
  0
ARC
  5
C9DE
330
C7A6
100
AcDbEntity
  8
1
  6
Continuous
100
AcDbCircle
 10
214.878852
 20
113.9874999999999
 30
0.0
 40
1.587499999999999
100
AcDbArc
 50
186.038508
 51
204.57298
  0
ARC
  5
C9DF
330
C7A6
100
AcDbEntity
  8
1
  6
Continuous
100
AcDbCircle
 10
214.878852
 20
113.9874999999999
 30
0.0
 40
1.587499999999999
100
AcDbArc
 50
335.4270200000001
 51
353.9614919999999
  0
ARC
  5
C9E0
330
C7A6
100
AcDbEntity
  8
1
  6
Continuous
100
AcDbCircle
 10
214.878852
 20
113.9874999999999
 30
0.0
 40
1.587499999999999
100
AcDbArc
 50
12.108509
 51
167.891491
  0
LINE
  5
C9E1
330
C7A6
100
AcDbEntity
  8
1
  6
Continuous
100
AcDbLine
 10
210.878852
 20
113.8204999999999
 30
0.0
 11
218.878852
 21
113.8204999999999
 31
0.0
  0
LINE
  5
C9E2
330
C7A6
100
AcDbEntity
  8
1
  6
Continuous
100
AcDbLine
 10
210.878852
 20
114.3205
 30
0.0
 11
218.878852
 21
114.3205
 31
0.0
  0
LINE
  5
C9E3
330
C7A6
100
AcDbEntity
  8
1
  6
Continuous
100
AcDbLine
 10
210.878852
 20
114.3205
 30
0.0
 11
210.878852
 21
113.8204999999999
 31
0.0
  0
LINE
  5
C9E4
330
C7A6
100
AcDbEntity
  8
1
  6
Continuous
100
AcDbLine
 10
220.878852
 20
127.6795
 30
0.0
 11
228.878852
 21
127.6795
 31
0.0
  0
LINE
  5
C9E5
330
C7A6
100
AcDbEntity
  8
1
  6
Continuous
100
AcDbLine
 10
220.878852
 20
128.1795
 30
0.0
 11
228.878852
 21
128.1795
 31
0.0
  0
LINE
  5
C9E6
330
C7A6
100
AcDbEntity
  8
1
  6
Continuous
100
AcDbLine
 10
220.878852
 20
127.6795
 30
0.0
 11
220.878852
 21
128.1795
 31
0.0
  0
ARC
  5
C9E7
330
C7A6
100
AcDbEntity
  8
1
  6
Continuous
100
AcDbCircle
 10
224.878852
 20
128.0124999999999
 30
0.0
 40
1.587499999999999
100
AcDbArc
 50
155.4270199999999
 51
173.9614919999999
  0
ARC
  5
C9E8
330
C7A6
100
AcDbEntity
  8
1
  6
Continuous
100
AcDbCircle
 10
224.878852
 20
128.0124999999999
 30
0.0
 40
1.587499999999999
100
AcDbArc
 50
6.038508
 51
24.57297999999999
  0
ARC
  5
C9E9
330
C7A6
100
AcDbEntity
  8
1
  6
Continuous
100
AcDbCircle
 10
224.878852
 20
128.0124999999999
 30
0.0
 40
1.587499999999999
100
AcDbArc
 50
192.1085089999999
 51
347.8914909999998
  0
LINE
  5
C9EA
330
C7A6
100
AcDbEntity
  8
1
  6
Continuous
100
AcDbLine
 10
218.878852
 20
127.6795
 30
0.0
 11
218.878852
 21
128.1795
 31
0.0
  0
ARC
  5
C9EB
330
C7A6
100
AcDbEntity
  8
1
  6
Continuous
100
AcDbCircle
 10
219.8788519999999
 20
127.6795
 30
0.0
 40
1.0
100
AcDbArc
 50
180.0
 51
0.0
  0
LINE
  5
C9EC
330
C7A6
100
AcDbEntity
  8
1
  6
Continuous
100
AcDbLine
 10
220.878852
 20
114.3205
 30
0.0
 11
228.878852
 21
114.3205
 31
0.0
  0
LINE
  5
C9ED
330
C7A6
100
AcDbEntity
  8
1
  6
Continuous
100
AcDbLine
 10
220.878852
 20
113.8204999999999
 30
0.0
 11
228.878852
 21
113.8204999999999
 31
0.0
  0
LINE
  5
C9EE
330
C7A6
100
AcDbEntity
  8
1
  6
Continuous
100
AcDbLine
 10
220.878852
 20
114.3205
 30
0.0
 11
220.878852
 21
113.8204999999999
 31
0.0
  0
ARC
  5
C9EF
330
C7A6
100
AcDbEntity
  8
1
  6
Continuous
100
AcDbCircle
 10
224.878852
 20
113.9874999999999
 30
0.0
 40
1.587499999999999
100
AcDbArc
 50
12.108509
 51
167.891491
  0
ARC
  5
C9F0
330
C7A6
100
AcDbEntity
  8
1
  6
Continuous
100
AcDbCircle
 10
224.878852
 20
113.9874999999999
 30
0.0
 40
1.587499999999999
100
AcDbArc
 50
335.4270200000001
 51
353.9614919999999
  0
ARC
  5
C9F1
330
C7A6
100
AcDbEntity
  8
1
  6
Continuous
100
AcDbCircle
 10
224.878852
 20
113.9874999999999
 30
0.0
 40
1.587499999999999
100
AcDbArc
 50
186.038508
 51
204.57298
  0
LINE
  5
C9F2
330
C7A6
100
AcDbEntity
  8
1
  6
Continuous
100
AcDbLine
 10
218.878852
 20
114.3205
 30
0.0
 11
218.878852
 21
113.8204999999999
 31
0.0
  0
ARC
  5
C9F3
330
C7A6
100
AcDbEntity
  8
1
  6
Continuous
100
AcDbCircle
 10
219.8788519999999
 20
114.3205
 30
0.0
 40
1.0
100
AcDbArc
 50
0.0
 51
180.0
  0
ARC
  5
C9F4
330
C7A6
100
AcDbEntity
  8
1
  6
Continuous
100
AcDbCircle
 10
229.878852
 20
127.6795
 30
0.0
 40
1.0
100
AcDbArc
 50
180.0
 51
0.0
  0
LINE
  5
C9F5
330
C7A6
100
AcDbEntity
  8
1
  6
Continuous
100
AcDbLine
 10
228.878852
 20
127.6795
 30
0.0
 11
228.878852
 21
128.1795
 31
0.0
  0
ARC
  5
C9F6
330
C7A6
100
AcDbEntity
  8
1
  6
Continuous
100
AcDbCircle
 10
234.8788519999998
 20
128.0124999999999
 30
0.0
 40
1.587499999999999
100
AcDbArc
 50
192.1085089999999
 51
347.8914909999998
  0
ARC
  5
C9F7
330
C7A6
100
AcDbEntity
  8
1
  6
Continuous
100
AcDbCircle
 10
234.8788519999998
 20
128.0124999999999
 30
0.0
 40
1.587499999999999
100
AcDbArc
 50
6.038508
 51
24.57297999999999
  0
ARC
  5
C9F8
330
C7A6
100
AcDbEntity
  8
1
  6
Continuous
100
AcDbCircle
 10
234.8788519999998
 20
128.0124999999999
 30
0.0
 40
1.587499999999999
100
AcDbArc
 50
155.4270199999999
 51
173.9614919999999
  0
LINE
  5
C9F9
330
C7A6
100
AcDbEntity
  8
1
  6
Continuous
100
AcDbLine
 10
230.8788519999999
 20
127.6795
 30
0.0
 11
230.8788519999999
 21
128.1795
 31
0.0
  0
LINE
  5
C9FA
330
C7A6
100
AcDbEntity
  8
1
  6
Continuous
100
AcDbLine
 10
230.8788519999999
 20
128.1795
 30
0.0
 11
238.8788519999998
 21
128.1795
 31
0.0
  0
LINE
  5
C9FB
330
C7A6
100
AcDbEntity
  8
1
  6
Continuous
100
AcDbLine
 10
230.8788519999999
 20
127.6795
 30
0.0
 11
238.8788519999998
 21
127.6795
 31
0.0
  0
ARC
  5
C9FC
330
C7A6
100
AcDbEntity
  8
1
  6
Continuous
100
AcDbCircle
 10
229.878852
 20
114.3205
 30
0.0
 40
1.0
100
AcDbArc
 50
0.0
 51
180.0
  0
LINE
  5
C9FD
330
C7A6
100
AcDbEntity
  8
1
  6
Continuous
100
AcDbLine
 10
228.878852
 20
114.3205
 30
0.0
 11
228.878852
 21
113.8204999999999
 31
0.0
  0
ARC
  5
C9FE
330
C7A6
100
AcDbEntity
  8
1
  6
Continuous
100
AcDbCircle
 10
234.8788519999998
 20
113.9874999999999
 30
0.0
 40
1.587499999999999
100
AcDbArc
 50
186.038508
 51
204.57298
  0
ARC
  5
C9FF
330
C7A6
100
AcDbEntity
  8
1
  6
Continuous
100
AcDbCircle
 10
234.8788519999998
 20
113.9874999999999
 30
0.0
 40
1.587499999999999
100
AcDbArc
 50
335.4270200000001
 51
353.9614919999999
  0
ARC
  5
CA00
330
C7A6
100
AcDbEntity
  8
1
  6
Continuous
100
AcDbCircle
 10
234.8788519999998
 20
113.9874999999999
 30
0.0
 40
1.587499999999999
100
AcDbArc
 50
12.108509
 51
167.891491
  0
LINE
  5
CA01
330
C7A6
100
AcDbEntity
  8
1
  6
Continuous
100
AcDbLine
 10
230.8788519999999
 20
114.3205
 30
0.0
 11
230.8788519999999
 21
113.8204999999999
 31
0.0
  0
LINE
  5
CA02
330
C7A6
100
AcDbEntity
  8
1
  6
Continuous
100
AcDbLine
 10
230.8788519999999
 20
113.8204999999999
 30
0.0
 11
238.8788519999998
 21
113.8204999999999
 31
0.0
  0
LINE
  5
CA03
330
C7A6
100
AcDbEntity
  8
1
  6
Continuous
100
AcDbLine
 10
230.8788519999999
 20
114.3205
 30
0.0
 11
238.8788519999998
 21
114.3205
 31
0.0
  0
LINE
  5
CA04
330
C7A6
100
AcDbEntity
  8
1
  6
Continuous
100
AcDbLine
 10
240.8788519999998
 20
114.3205
 30
0.0
 11
248.8788519999999
 21
114.3205
 31
0.0
  0
LINE
  5
CA05
330
C7A6
100
AcDbEntity
  8
1
  6
Continuous
100
AcDbLine
 10
240.8788519999998
 20
113.8204999999999
 30
0.0
 11
248.8788519999999
 21
113.8204999999999
 31
0.0
  0
LINE
  5
CA06
330
C7A6
100
AcDbEntity
  8
1
  6
Continuous
100
AcDbLine
 10
240.8788519999998
 20
127.6795
 30
0.0
 11
248.8788519999999
 21
127.6795
 31
0.0
  0
LINE
  5
CA07
330
C7A6
100
AcDbEntity
  8
1
  6
Continuous
100
AcDbLine
 10
240.8788519999998
 20
128.1795
 30
0.0
 11
248.8788519999999
 21
128.1795
 31
0.0
  0
LINE
  5
CA08
330
C7A6
100
AcDbEntity
  8
1
  6
Continuous
100
AcDbLine
 10
240.8788519999998
 20
114.3205
 30
0.0
 11
240.8788519999998
 21
113.8204999999999
 31
0.0
  0
LINE
  5
CA09
330
C7A6
100
AcDbEntity
  8
1
  6
Continuous
100
AcDbLine
 10
238.8788519999998
 20
114.3205
 30
0.0
 11
238.8788519999998
 21
113.8204999999999
 31
0.0
  0
ARC
  5
CA0A
330
C7A6
100
AcDbEntity
  8
1
  6
Continuous
100
AcDbCircle
 10
239.878852
 20
114.3205
 30
0.0
 40
1.0
100
AcDbArc
 50
0.0
 51
180.0
  0
LINE
  5
CA0B
330
C7A6
100
AcDbEntity
  8
1
  6
Continuous
100
AcDbLine
 10
240.8788519999998
 20
127.6795
 30
0.0
 11
240.8788519999998
 21
128.1795
 31
0.0
  0
LINE
  5
CA0C
330
C7A6
100
AcDbEntity
  8
1
  6
Continuous
100
AcDbLine
 10
238.8788519999998
 20
127.6795
 30
0.0
 11
238.8788519999998
 21
128.1795
 31
0.0
  0
ARC
  5
CA0D
330
C7A6
100
AcDbEntity
  8
1
  6
Continuous
100
AcDbCircle
 10
239.878852
 20
127.6795
 30
0.0
 40
1.0
100
AcDbArc
 50
180.0
 51
0.0
  0
ARC
  5
CA0E
330
C7A6
100
AcDbEntity
  8
1
  6
Continuous
100
AcDbCircle
 10
244.8788519999999
 20
113.9874999999999
 30
0.0
 40
1.587499999999999
100
AcDbArc
 50
12.108509
 51
167.891491
  0
ARC
  5
CA0F
330
C7A6
100
AcDbEntity
  8
1
  6
Continuous
100
AcDbCircle
 10
244.8788519999999
 20
113.9874999999999
 30
0.0
 40
1.587499999999999
100
AcDbArc
 50
335.4270200000001
 51
353.9614919999999
  0
ARC
  5
CA10
330
C7A6
100
AcDbEntity
  8
1
  6
Continuous
100
AcDbCircle
 10
244.8788519999999
 20
113.9874999999999
 30
0.0
 40
1.587499999999999
100
AcDbArc
 50
186.038508
 51
204.57298
  0
ARC
  5
CA11
330
C7A6
100
AcDbEntity
  8
1
  6
Continuous
100
AcDbCircle
 10
244.8788519999999
 20
128.0124999999999
 30
0.0
 40
1.587499999999999
100
AcDbArc
 50
155.4270199999999
 51
173.9614919999999
  0
ARC
  5
CA12
330
C7A6
100
AcDbEntity
  8
1
  6
Continuous
100
AcDbCircle
 10
244.8788519999999
 20
128.0124999999999
 30
0.0
 40
1.587499999999999
100
AcDbArc
 50
6.038508
 51
24.57297999999999
  0
ARC
  5
CA13
330
C7A6
100
AcDbEntity
  8
1
  6
Continuous
100
AcDbCircle
 10
244.8788519999999
 20
128.0124999999999
 30
0.0
 40
1.587499999999999
100
AcDbArc
 50
192.1085089999999
 51
347.8914909999998
  0
LINE
  5
CA14
330
C7A6
100
AcDbEntity
  8
1
  6
Continuous
100
AcDbLine
 10
250.8788519999999
 20
128.1795
 30
0.0
 11
258.878852
 21
128.1795
 31
0.0
  0
LINE
  5
CA15
330
C7A6
100
AcDbEntity
  8
1
  6
Continuous
100
AcDbLine
 10
250.8788519999999
 20
127.6795
 30
0.0
 11
258.878852
 21
127.6795
 31
0.0
  0
ARC
  5
CA16
330
C7A6
100
AcDbEntity
  8
1
  6
Continuous
100
AcDbCircle
 10
254.878852
 20
128.0124999999999
 30
0.0
 40
1.587499999999999
100
AcDbArc
 50
192.1085089999999
 51
347.8914909999998
  0
ARC
  5
CA17
330
C7A6
100
AcDbEntity
  8
1
  6
Continuous
100
AcDbCircle
 10
254.878852
 20
128.0124999999999
 30
0.0
 40
1.587499999999999
100
AcDbArc
 50
6.038508
 51
24.57297999999999
  0
ARC
  5
CA18
330
C7A6
100
AcDbEntity
  8
1
  6
Continuous
100
AcDbCircle
 10
254.878852
 20
128.0124999999999
 30
0.0
 40
1.587499999999999
100
AcDbArc
 50
155.4270199999999
 51
173.9614919999999
  0
ARC
  5
CA19
330
C7A6
100
AcDbEntity
  8
1
  6
Continuous
100
AcDbCircle
 10
249.878852
 20
127.6795
 30
0.0
 40
1.0
100
AcDbArc
 50
180.0
 51
0.0
  0
LINE
  5
CA1A
330
C7A6
100
AcDbEntity
  8
1
  6
Continuous
100
AcDbLine
 10
248.8788519999999
 20
127.6795
 30
0.0
 11
248.8788519999999
 21
128.1795
 31
0.0
  0
LINE
  5
CA1B
330
C7A6
100
AcDbEntity
  8
1
  6
Continuous
100
AcDbLine
 10
250.8788519999999
 20
127.6795
 30
0.0
 11
250.8788519999999
 21
128.1795
 31
0.0
  0
LINE
  5
CA1C
330
C7A6
100
AcDbEntity
  8
1
  6
Continuous
100
AcDbLine
 10
250.8788519999999
 20
113.8204999999999
 30
0.0
 11
258.878852
 21
113.8204999999999
 31
0.0
  0
LINE
  5
CA1D
330
C7A6
100
AcDbEntity
  8
1
  6
Continuous
100
AcDbLine
 10
250.8788519999999
 20
114.3205
 30
0.0
 11
258.878852
 21
114.3205
 31
0.0
  0
ARC
  5
CA1E
330
C7A6
100
AcDbEntity
  8
1
  6
Continuous
100
AcDbCircle
 10
254.878852
 20
113.9874999999999
 30
0.0
 40
1.587499999999999
100
AcDbArc
 50
186.038508
 51
204.57298
  0
ARC
  5
CA1F
330
C7A6
100
AcDbEntity
  8
1
  6
Continuous
100
AcDbCircle
 10
254.878852
 20
113.9874999999999
 30
0.0
 40
1.587499999999999
100
AcDbArc
 50
335.4270200000001
 51
353.9614919999999
  0
ARC
  5
CA20
330
C7A6
100
AcDbEntity
  8
1
  6
Continuous
100
AcDbCircle
 10
254.878852
 20
113.9874999999999
 30
0.0
 40
1.587499999999999
100
AcDbArc
 50
12.108509
 51
167.891491
  0
ARC
  5
CA21
330
C7A6
100
AcDbEntity
  8
1
  6
Continuous
100
AcDbCircle
 10
249.878852
 20
114.3205
 30
0.0
 40
1.0
100
AcDbArc
 50
0.0
 51
180.0
  0
LINE
  5
CA22
330
C7A6
100
AcDbEntity
  8
1
  6
Continuous
100
AcDbLine
 10
248.8788519999999
 20
114.3205
 30
0.0
 11
248.8788519999999
 21
113.8204999999999
 31
0.0
  0
LINE
  5
CA23
330
C7A6
100
AcDbEntity
  8
1
  6
Continuous
100
AcDbLine
 10
250.8788519999999
 20
114.3205
 30
0.0
 11
250.8788519999999
 21
113.8204999999999
 31
0.0
  0
LINE
  5
CA24
330
C7A6
100
AcDbEntity
  8
1
  6
Continuous
100
AcDbLine
 10
210.878852
 20
193.8
 30
0.0
 11
210.878852
 21
193.921929
 31
0.0
  0
LINE
  5
CA25
330
C7A6
100
AcDbEntity
  8
1
  6
Continuous
100
AcDbLine
 10
218.878852
 20
193.8
 30
0.0
 11
210.878852
 21
193.8
 31
0.0
  0
LINE
  5
CA26
330
C7A6
100
AcDbEntity
  8
1
  6
Continuous
100
AcDbLine
 10
218.878852
 20
193.921929
 30
0.0
 11
218.878852
 21
193.8
 31
0.0
  0
LINE
  5
CA27
330
C7A6
100
AcDbEntity
  8
1
  6
Continuous
100
AcDbLine
 10
228.878852
 20
193.8
 30
0.0
 11
220.878852
 21
193.8
 31
0.0
  0
LINE
  5
CA28
330
C7A6
100
AcDbEntity
  8
1
  6
Continuous
100
AcDbLine
 10
220.878852
 20
193.8
 30
0.0
 11
220.878852
 21
193.921929
 31
0.0
  0
LINE
  5
CA29
330
C7A6
100
AcDbEntity
  8
1
  6
Continuous
100
AcDbLine
 10
228.878852
 20
193.921929
 30
0.0
 11
228.878852
 21
193.8
 31
0.0
  0
LINE
  5
CA2A
330
C7A6
100
AcDbEntity
  8
1
  6
Continuous
100
AcDbLine
 10
238.8788519999998
 20
193.921929
 30
0.0
 11
238.8788519999998
 21
193.8
 31
0.0
  0
LINE
  5
CA2B
330
C7A6
100
AcDbEntity
  8
1
  6
Continuous
100
AcDbLine
 10
230.8788519999999
 20
193.8
 30
0.0
 11
230.8788519999999
 21
193.921929
 31
0.0
  0
LINE
  5
CA2C
330
C7A6
100
AcDbEntity
  8
1
  6
Continuous
100
AcDbLine
 10
238.8788519999998
 20
193.8
 30
0.0
 11
230.8788519999999
 21
193.8
 31
0.0
  0
LINE
  5
CA2D
330
C7A6
100
AcDbEntity
  8
1
  6
Continuous
100
AcDbLine
 10
248.8788519999999
 20
193.8
 30
0.0
 11
240.8788519999998
 21
193.8
 31
0.0
  0
LINE
  5
CA2E
330
C7A6
100
AcDbEntity
  8
1
  6
Continuous
100
AcDbLine
 10
240.8788519999998
 20
193.8
 30
0.0
 11
240.8788519999998
 21
193.921929
 31
0.0
  0
LINE
  5
CA2F
330
C7A6
100
AcDbEntity
  8
1
  6
Continuous
100
AcDbLine
 10
248.8788519999999
 20
193.921929
 30
0.0
 11
248.8788519999999
 21
193.8
 31
0.0
  0
LINE
  5
CA30
330
C7A6
100
AcDbEntity
  8
1
  6
Continuous
100
AcDbLine
 10
258.878852
 20
193.8
 30
0.0
 11
250.8788519999999
 21
193.8
 31
0.0
  0
LINE
  5
CA31
330
C7A6
100
AcDbEntity
  8
1
  6
Continuous
100
AcDbLine
 10
250.8788519999999
 20
193.8
 30
0.0
 11
250.8788519999999
 21
193.921929
 31
0.0
  0
LINE
  5
CA32
330
C7A6
100
AcDbEntity
  8
1
  6
Continuous
100
AcDbLine
 10
258.878852
 20
193.921929
 30
0.0
 11
258.878852
 21
193.8
 31
0.0
  0
LINE
  5
CA33
330
C7A6
100
AcDbEntity
  8
1
  6
Continuous
100
AcDbLine
 10
449.1788519999998
 20
119.4
 30
0.0
 11
449.7788519999998
 21
119.4
 31
0.0
  0
LINE
  5
CA34
330
C7A6
100
AcDbEntity
  8
1
  6
Continuous
100
AcDbLine
 10
449.7788519999998
 20
122.5999999999998
 30
0.0
 11
449.1788519999998
 21
122.5999999999998
 31
0.0
  0
ARC
  5
CA35
330
C7A6
100
AcDbEntity
  8
1
  6
Continuous
100
AcDbCircle
 10
449.1788519999998
 20
121.0
 30
0.0
 40
1.6
100
AcDbArc
 50
90.0
 51
270.0
  0
ARC
  5
CA36
330
C7A6
100
AcDbEntity
  8
1
  6
Continuous
100
AcDbCircle
 10
449.7788519999998
 20
121.0
 30
0.0
 40
1.6
100
AcDbArc
 50
270.0
 51
90.0
  0
ARC
  5
CA37
330
C7A6
100
AcDbEntity
  8
1
  6
Continuous
100
AcDbCircle
 10
169.8788519999999
 20
114.3205
 30
0.0
 40
1.0
100
AcDbArc
 50
148.028322
 51
180.0
  0
ARC
  5
CA38
330
C7A6
100
AcDbEntity
  8
1
  6
Continuous
100
AcDbCircle
 10
169.8788519999999
 20
127.6795
 30
0.0
 40
1.0
100
AcDbArc
 50
328.028322
 51
0.0
  0
LINE
  5
CA39
330
C7A6
100
AcDbEntity
  8
1
  6
Continuous
100
AcDbLine
 10
270.878852
 20
113.8204999999999
 30
0.0
 11
278.878852
 21
113.8204999999999
 31
0.0
  0
LINE
  5
CA3A
330
C7A6
100
AcDbEntity
  8
1
  6
Continuous
100
AcDbLine
 10
270.878852
 20
114.3205
 30
0.0
 11
278.878852
 21
114.3205
 31
0.0
  0
ARC
  5
CA3B
330
C7A6
100
AcDbEntity
  8
1
  6
Continuous
100
AcDbCircle
 10
274.878852
 20
113.9874999999999
 30
0.0
 40
1.587499999999999
100
AcDbArc
 50
12.108509
 51
167.891491
  0
LINE
  5
CA3C
330
C7A6
100
AcDbEntity
  8
1
  6
Continuous
100
AcDbLine
 10
270.878852
 20
128.1795
 30
0.0
 11
278.878852
 21
128.1795
 31
0.0
  0
LINE
  5
CA3D
330
C7A6
100
AcDbEntity
  8
1
  6
Continuous
100
AcDbLine
 10
270.878852
 20
127.6795
 30
0.0
 11
278.878852
 21
127.6795
 31
0.0
  0
ARC
  5
CA3E
330
C7A6
100
AcDbEntity
  8
1
  6
Continuous
100
AcDbCircle
 10
274.878852
 20
128.0124999999999
 30
0.0
 40
1.587499999999999
100
AcDbArc
 50
192.1085089999999
 51
347.8914909999998
  0
ARC
  5
CA3F
330
C7A6
100
AcDbEntity
  8
1
  6
Continuous
100
AcDbCircle
 10
259.8788519999998
 20
114.3205
 30
0.0
 40
1.0
100
AcDbArc
 50
0.0
 51
180.0
  0
ARC
  5
CA40
330
C7A6
100
AcDbEntity
  8
1
  6
Continuous
100
AcDbCircle
 10
259.8788519999998
 20
127.6795
 30
0.0
 40
1.0
100
AcDbArc
 50
180.0
 51
0.0
  0
LINE
  5
CA41
330
C7A6
100
AcDbEntity
  8
1
  6
Continuous
100
AcDbLine
 10
258.878852
 20
114.3205
 30
0.0
 11
258.878852
 21
113.8204999999999
 31
0.0
  0
LINE
  5
CA42
330
C7A6
100
AcDbEntity
  8
1
  6
Continuous
100
AcDbLine
 10
258.878852
 20
127.6795
 30
0.0
 11
258.878852
 21
128.1795
 31
0.0
  0
ARC
  5
CA43
330
C7A6
100
AcDbEntity
  8
1
  6
Continuous
100
AcDbCircle
 10
274.878852
 20
113.9874999999999
 30
0.0
 40
1.587499999999999
100
AcDbArc
 50
186.038508
 51
204.57298
  0
ARC
  5
CA44
330
C7A6
100
AcDbEntity
  8
1
  6
Continuous
100
AcDbCircle
 10
269.8788519999999
 20
114.3205
 30
0.0
 40
1.0
100
AcDbArc
 50
0.0
 51
180.0
  0
LINE
  5
CA45
330
C7A6
100
AcDbEntity
  8
1
  6
Continuous
100
AcDbLine
 10
268.878852
 20
114.3205
 30
0.0
 11
268.878852
 21
113.8204999999999
 31
0.0
  0
LINE
  5
CA46
330
C7A6
100
AcDbEntity
  8
1
  6
Continuous
100
AcDbLine
 10
270.878852
 20
114.3205
 30
0.0
 11
270.878852
 21
113.8204999999999
 31
0.0
  0
LINE
  5
CA47
330
C7A6
100
AcDbEntity
  8
1
  6
Continuous
100
AcDbLine
 10
260.878852
 20
114.3205
 30
0.0
 11
260.878852
 21
113.8204999999999
 31
0.0
  0
ARC
  5
CA48
330
C7A6
100
AcDbEntity
  8
1
  6
Continuous
100
AcDbCircle
 10
264.878852
 20
113.9874999999999
 30
0.0
 40
1.587499999999999
100
AcDbArc
 50
12.108509
 51
167.891491
  0
ARC
  5
CA49
330
C7A6
100
AcDbEntity
  8
1
  6
Continuous
100
AcDbCircle
 10
264.878852
 20
113.9874999999999
 30
0.0
 40
1.587499999999999
100
AcDbArc
 50
335.4270200000001
 51
353.9614919999999
  0
ARC
  5
CA4A
330
C7A6
100
AcDbEntity
  8
1
  6
Continuous
100
AcDbCircle
 10
264.878852
 20
113.9874999999999
 30
0.0
 40
1.587499999999999
100
AcDbArc
 50
186.038508
 51
204.57298
  0
LINE
  5
CA4B
330
C7A6
100
AcDbEntity
  8
1
  6
Continuous
100
AcDbLine
 10
260.878852
 20
114.3205
 30
0.0
 11
268.878852
 21
114.3205
 31
0.0
  0
LINE
  5
CA4C
330
C7A6
100
AcDbEntity
  8
1
  6
Continuous
100
AcDbLine
 10
260.878852
 20
113.8204999999999
 30
0.0
 11
268.878852
 21
113.8204999999999
 31
0.0
  0
ARC
  5
CA4D
330
C7A6
100
AcDbEntity
  8
1
  6
Continuous
100
AcDbCircle
 10
274.878852
 20
128.0124999999999
 30
0.0
 40
1.587499999999999
100
AcDbArc
 50
155.4270199999999
 51
173.9614919999999
  0
ARC
  5
CA4E
330
C7A6
100
AcDbEntity
  8
1
  6
Continuous
100
AcDbCircle
 10
269.8788519999999
 20
127.6795
 30
0.0
 40
1.0
100
AcDbArc
 50
180.0
 51
0.0
  0
LINE
  5
CA4F
330
C7A6
100
AcDbEntity
  8
1
  6
Continuous
100
AcDbLine
 10
268.878852
 20
127.6795
 30
0.0
 11
268.878852
 21
128.1795
 31
0.0
  0
LINE
  5
CA50
330
C7A6
100
AcDbEntity
  8
1
  6
Continuous
100
AcDbLine
 10
270.878852
 20
127.6795
 30
0.0
 11
270.878852
 21
128.1795
 31
0.0
  0
LINE
  5
CA51
330
C7A6
100
AcDbEntity
  8
1
  6
Continuous
100
AcDbLine
 10
260.878852
 20
127.6795
 30
0.0
 11
260.878852
 21
128.1795
 31
0.0
  0
ARC
  5
CA52
330
C7A6
100
AcDbEntity
  8
1
  6
Continuous
100
AcDbCircle
 10
264.878852
 20
128.0124999999999
 30
0.0
 40
1.587499999999999
100
AcDbArc
 50
155.4270199999999
 51
173.9614919999999
  0
ARC
  5
CA53
330
C7A6
100
AcDbEntity
  8
1
  6
Continuous
100
AcDbCircle
 10
264.878852
 20
128.0124999999999
 30
0.0
 40
1.587499999999999
100
AcDbArc
 50
6.038508
 51
24.57297999999999
  0
ARC
  5
CA54
330
C7A6
100
AcDbEntity
  8
1
  6
Continuous
100
AcDbCircle
 10
264.878852
 20
128.0124999999999
 30
0.0
 40
1.587499999999999
100
AcDbArc
 50
192.1085089999999
 51
347.8914909999998
  0
LINE
  5
CA55
330
C7A6
100
AcDbEntity
  8
1
  6
Continuous
100
AcDbLine
 10
260.878852
 20
127.6795
 30
0.0
 11
268.878852
 21
127.6795
 31
0.0
  0
LINE
  5
CA56
330
C7A6
100
AcDbEntity
  8
1
  6
Continuous
100
AcDbLine
 10
260.878852
 20
128.1795
 30
0.0
 11
268.878852
 21
128.1795
 31
0.0
  0
ARC
  5
CA57
330
C7A6
100
AcDbEntity
  8
1
  6
Continuous
100
AcDbCircle
 10
274.878852
 20
113.9874999999999
 30
0.0
 40
1.587499999999999
100
AcDbArc
 50
335.4270200000001
 51
353.9614919999999
  0
ARC
  5
CA58
330
C7A6
100
AcDbEntity
  8
1
  6
Continuous
100
AcDbCircle
 10
274.878852
 20
128.0124999999999
 30
0.0
 40
1.587499999999999
100
AcDbArc
 50
6.038508
 51
24.57297999999999
  0
LINE
  5
CA59
330
C7A6
100
AcDbEntity
  8
1
  6
Continuous
100
AcDbLine
 10
280.8788519999998
 20
113.8204999999999
 30
0.0
 11
288.8788519999998
 21
113.8204999999999
 31
0.0
  0
LINE
  5
CA5A
330
C7A6
100
AcDbEntity
  8
1
  6
Continuous
100
AcDbLine
 10
280.8788519999998
 20
114.3205
 30
0.0
 11
288.8788519999998
 21
114.3205
 31
0.0
  0
ARC
  5
CA5B
330
C7A6
100
AcDbEntity
  8
1
  6
Continuous
100
AcDbCircle
 10
284.8788519999999
 20
113.9874999999999
 30
0.0
 40
1.587499999999999
100
AcDbArc
 50
12.108509
 51
167.891491
  0
LINE
  5
CA5C
330
C7A6
100
AcDbEntity
  8
1
  6
Continuous
100
AcDbLine
 10
280.8788519999998
 20
128.1795
 30
0.0
 11
288.8788519999998
 21
128.1795
 31
0.0
  0
LINE
  5
CA5D
330
C7A6
100
AcDbEntity
  8
1
  6
Continuous
100
AcDbLine
 10
280.8788519999998
 20
127.6795
 30
0.0
 11
288.8788519999998
 21
127.6795
 31
0.0
  0
ARC
  5
CA5E
330
C7A6
100
AcDbEntity
  8
1
  6
Continuous
100
AcDbCircle
 10
284.8788519999999
 20
128.0124999999999
 30
0.0
 40
1.587499999999999
100
AcDbArc
 50
192.1085089999999
 51
347.8914909999998
  0
ARC
  5
CA5F
330
C7A6
100
AcDbEntity
  8
1
  6
Continuous
100
AcDbCircle
 10
284.8788519999999
 20
113.9874999999999
 30
0.0
 40
1.587499999999999
100
AcDbArc
 50
186.038508
 51
204.57298
  0
ARC
  5
CA60
330
C7A6
100
AcDbEntity
  8
1
  6
Continuous
100
AcDbCircle
 10
279.878852
 20
114.3205
 30
0.0
 40
1.0
100
AcDbArc
 50
0.0
 51
180.0
  0
LINE
  5
CA61
330
C7A6
100
AcDbEntity
  8
1
  6
Continuous
100
AcDbLine
 10
278.878852
 20
114.3205
 30
0.0
 11
278.878852
 21
113.8204999999999
 31
0.0
  0
LINE
  5
CA62
330
C7A6
100
AcDbEntity
  8
1
  6
Continuous
100
AcDbLine
 10
280.8788519999998
 20
114.3205
 30
0.0
 11
280.8788519999998
 21
113.8204999999999
 31
0.0
  0
ARC
  5
CA63
330
C7A6
100
AcDbEntity
  8
1
  6
Continuous
100
AcDbCircle
 10
284.8788519999999
 20
128.0124999999999
 30
0.0
 40
1.587499999999999
100
AcDbArc
 50
155.4270199999999
 51
173.9614919999999
  0
ARC
  5
CA64
330
C7A6
100
AcDbEntity
  8
1
  6
Continuous
100
AcDbCircle
 10
279.878852
 20
127.6795
 30
0.0
 40
1.0
100
AcDbArc
 50
180.0
 51
0.0
  0
LINE
  5
CA65
330
C7A6
100
AcDbEntity
  8
1
  6
Continuous
100
AcDbLine
 10
278.878852
 20
127.6795
 30
0.0
 11
278.878852
 21
128.1795
 31
0.0
  0
LINE
  5
CA66
330
C7A6
100
AcDbEntity
  8
1
  6
Continuous
100
AcDbLine
 10
280.8788519999998
 20
127.6795
 30
0.0
 11
280.8788519999998
 21
128.1795
 31
0.0
  0
LINE
  5
CA67
330
C7A6
100
AcDbEntity
  8
1
  6
Continuous
100
AcDbLine
 10
300.8788519999999
 20
127.6795
 30
0.0
 11
308.878852
 21
127.6795
 31
0.0
  0
LINE
  5
CA68
330
C7A6
100
AcDbEntity
  8
1
  6
Continuous
100
AcDbLine
 10
300.8788519999999
 20
128.1795
 30
0.0
 11
308.878852
 21
128.1795
 31
0.0
  0
LINE
  5
CA69
330
C7A6
100
AcDbEntity
  8
1
  6
Continuous
100
AcDbLine
 10
300.8788519999999
 20
114.3205
 30
0.0
 11
308.878852
 21
114.3205
 31
0.0
  0
LINE
  5
CA6A
330
C7A6
100
AcDbEntity
  8
1
  6
Continuous
100
AcDbLine
 10
300.8788519999999
 20
113.8204999999999
 30
0.0
 11
308.878852
 21
113.8204999999999
 31
0.0
  0
LINE
  5
CA6B
330
C7A6
100
AcDbEntity
  8
1
  6
Continuous
100
AcDbLine
 10
290.8788519999998
 20
128.1795
 30
0.0
 11
298.8788519999999
 21
128.1795
 31
0.0
  0
LINE
  5
CA6C
330
C7A6
100
AcDbEntity
  8
1
  6
Continuous
100
AcDbLine
 10
290.8788519999998
 20
127.6795
 30
0.0
 11
298.8788519999999
 21
127.6795
 31
0.0
  0
ARC
  5
CA6D
330
C7A6
100
AcDbEntity
  8
1
  6
Continuous
100
AcDbCircle
 10
294.8788519999999
 20
128.0124999999999
 30
0.0
 40
1.587499999999999
100
AcDbArc
 50
192.1085089999999
 51
347.8914909999998
  0
ARC
  5
CA6E
330
C7A6
100
AcDbEntity
  8
1
  6
Continuous
100
AcDbCircle
 10
294.8788519999999
 20
128.0124999999999
 30
0.0
 40
1.587499999999999
100
AcDbArc
 50
6.038508
 51
24.57297999999999
  0
ARC
  5
CA6F
330
C7A6
100
AcDbEntity
  8
1
  6
Continuous
100
AcDbCircle
 10
294.8788519999999
 20
128.0124999999999
 30
0.0
 40
1.587499999999999
100
AcDbArc
 50
155.4270199999999
 51
173.9614919999999
  0
LINE
  5
CA70
330
C7A6
100
AcDbEntity
  8
1
  6
Continuous
100
AcDbLine
 10
290.8788519999998
 20
127.6795
 30
0.0
 11
290.8788519999998
 21
128.1795
 31
0.0
  0
LINE
  5
CA71
330
C7A6
100
AcDbEntity
  8
1
  6
Continuous
100
AcDbLine
 10
300.8788519999999
 20
127.6795
 30
0.0
 11
300.8788519999999
 21
128.1795
 31
0.0
  0
LINE
  5
CA72
330
C7A6
100
AcDbEntity
  8
1
  6
Continuous
100
AcDbLine
 10
298.8788519999999
 20
127.6795
 30
0.0
 11
298.8788519999999
 21
128.1795
 31
0.0
  0
ARC
  5
CA73
330
C7A6
100
AcDbEntity
  8
1
  6
Continuous
100
AcDbCircle
 10
299.878852
 20
127.6795
 30
0.0
 40
1.0
100
AcDbArc
 50
180.0
 51
0.0
  0
LINE
  5
CA74
330
C7A6
100
AcDbEntity
  8
1
  6
Continuous
100
AcDbLine
 10
290.8788519999998
 20
113.8204999999999
 30
0.0
 11
298.8788519999999
 21
113.8204999999999
 31
0.0
  0
LINE
  5
CA75
330
C7A6
100
AcDbEntity
  8
1
  6
Continuous
100
AcDbLine
 10
290.8788519999998
 20
114.3205
 30
0.0
 11
298.8788519999999
 21
114.3205
 31
0.0
  0
ARC
  5
CA76
330
C7A6
100
AcDbEntity
  8
1
  6
Continuous
100
AcDbCircle
 10
294.8788519999999
 20
113.9874999999999
 30
0.0
 40
1.587499999999999
100
AcDbArc
 50
186.038508
 51
204.57298
  0
ARC
  5
CA77
330
C7A6
100
AcDbEntity
  8
1
  6
Continuous
100
AcDbCircle
 10
294.8788519999999
 20
113.9874999999999
 30
0.0
 40
1.587499999999999
100
AcDbArc
 50
335.4270200000001
 51
353.9614919999999
  0
ARC
  5
CA78
330
C7A6
100
AcDbEntity
  8
1
  6
Continuous
100
AcDbCircle
 10
294.8788519999999
 20
113.9874999999999
 30
0.0
 40
1.587499999999999
100
AcDbArc
 50
12.108509
 51
167.891491
  0
LINE
  5
CA79
330
C7A6
100
AcDbEntity
  8
1
  6
Continuous
100
AcDbLine
 10
290.8788519999998
 20
114.3205
 30
0.0
 11
290.8788519999998
 21
113.8204999999999
 31
0.0
  0
LINE
  5
CA7A
330
C7A6
100
AcDbEntity
  8
1
  6
Continuous
100
AcDbLine
 10
300.8788519999999
 20
114.3205
 30
0.0
 11
300.8788519999999
 21
113.8204999999999
 31
0.0
  0
LINE
  5
CA7B
330
C7A6
100
AcDbEntity
  8
1
  6
Continuous
100
AcDbLine
 10
298.8788519999999
 20
114.3205
 30
0.0
 11
298.8788519999999
 21
113.8204999999999
 31
0.0
  0
ARC
  5
CA7C
330
C7A6
100
AcDbEntity
  8
1
  6
Continuous
100
AcDbCircle
 10
299.878852
 20
114.3205
 30
0.0
 40
1.0
100
AcDbArc
 50
0.0
 51
180.0
  0
LINE
  5
CA7D
330
C7A6
100
AcDbEntity
  8
1
  6
Continuous
100
AcDbLine
 10
288.8788519999998
 20
127.6795
 30
0.0
 11
288.8788519999998
 21
128.1795
 31
0.0
  0
LINE
  5
CA7E
330
C7A6
100
AcDbEntity
  8
1
  6
Continuous
100
AcDbLine
 10
288.8788519999998
 20
114.3205
 30
0.0
 11
288.8788519999998
 21
113.8204999999999
 31
0.0
  0
ARC
  5
CA7F
330
C7A6
100
AcDbEntity
  8
1
  6
Continuous
100
AcDbCircle
 10
289.878852
 20
127.6795
 30
0.0
 40
1.0
100
AcDbArc
 50
180.0
 51
0.0
  0
ARC
  5
CA80
330
C7A6
100
AcDbEntity
  8
1
  6
Continuous
100
AcDbCircle
 10
289.878852
 20
114.3205
 30
0.0
 40
1.0
100
AcDbArc
 50
0.0
 51
180.0
  0
ARC
  5
CA81
330
C7A6
100
AcDbEntity
  8
1
  6
Continuous
100
AcDbCircle
 10
284.8788519999999
 20
113.9874999999999
 30
0.0
 40
1.587499999999999
100
AcDbArc
 50
335.4270200000001
 51
353.9614919999999
  0
ARC
  5
CA82
330
C7A6
100
AcDbEntity
  8
1
  6
Continuous
100
AcDbCircle
 10
284.8788519999999
 20
128.0124999999999
 30
0.0
 40
1.587499999999999
100
AcDbArc
 50
6.038508
 51
24.57297999999999
  0
ARC
  5
CA83
330
C7A6
100
AcDbEntity
  8
1
  6
Continuous
100
AcDbCircle
 10
304.878852
 20
128.0124999999999
 30
0.0
 40
1.587499999999999
100
AcDbArc
 50
6.038508
 51
24.57297999999999
  0
ARC
  5
CA84
330
C7A6
100
AcDbEntity
  8
1
  6
Continuous
100
AcDbCircle
 10
304.878852
 20
113.9874999999999
 30
0.0
 40
1.587499999999999
100
AcDbArc
 50
335.4270200000001
 51
353.9614919999999
  0
LINE
  5
CA85
330
C7A6
100
AcDbEntity
  8
1
  6
Continuous
100
AcDbLine
 10
358.878852
 20
128.1795
 30
0.0
 11
358.878852
 21
113.8204999999999
 31
0.0
  0
ARC
  5
CA86
330
C7A6
100
AcDbEntity
  8
1
  6
Continuous
100
AcDbCircle
 10
304.878852
 20
128.0124999999999
 30
0.0
 40
1.587499999999999
100
AcDbArc
 50
155.4270199999999
 51
173.9614919999999
  0
ARC
  5
CA87
330
C7A6
100
AcDbEntity
  8
1
  6
Continuous
100
AcDbCircle
 10
304.878852
 20
113.9874999999999
 30
0.0
 40
1.587499999999999
100
AcDbArc
 50
186.038508
 51
204.57298
  0
ARC
  5
CA88
330
C7A6
100
AcDbEntity
  8
1
  6
Continuous
100
AcDbCircle
 10
304.878852
 20
128.0124999999999
 30
0.0
 40
1.587499999999999
100
AcDbArc
 50
192.1085089999999
 51
347.8914909999998
  0
ARC
  5
CA89
330
C7A6
100
AcDbEntity
  8
1
  6
Continuous
100
AcDbCircle
 10
304.878852
 20
113.9874999999999
 30
0.0
 40
1.587499999999999
100
AcDbArc
 50
12.108509
 51
167.891491
  0
LINE
  5
CA8A
330
C7A6
100
AcDbEntity
  8
1
  6
Continuous
100
AcDbLine
 10
288.8788519999998
 20
193.8
 30
0.0
 11
280.8788519999998
 21
193.8
 31
0.0
  0
LINE
  5
CA8B
330
C7A6
100
AcDbEntity
  8
1
  6
Continuous
100
AcDbLine
 10
268.878852
 20
193.8
 30
0.0
 11
260.878852
 21
193.8
 31
0.0
  0
LINE
  5
CA8C
330
C7A6
100
AcDbEntity
  8
1
  6
Continuous
100
AcDbLine
 10
260.878852
 20
193.8
 30
0.0
 11
260.878852
 21
193.921929
 31
0.0
  0
LINE
  5
CA8D
330
C7A6
100
AcDbEntity
  8
1
  6
Continuous
100
AcDbLine
 10
268.878852
 20
193.921929
 30
0.0
 11
268.878852
 21
193.8
 31
0.0
  0
LINE
  5
CA8E
330
C7A6
100
AcDbEntity
  8
1
  6
Continuous
100
AcDbLine
 10
280.8788519999998
 20
193.8
 30
0.0
 11
280.8788519999998
 21
193.921929
 31
0.0
  0
LINE
  5
CA8F
330
C7A6
100
AcDbEntity
  8
1
  6
Continuous
100
AcDbLine
 10
278.878852
 20
193.921929
 30
0.0
 11
278.878852
 21
193.8
 31
0.0
  0
LINE
  5
CA90
330
C7A6
100
AcDbEntity
  8
1
  6
Continuous
100
AcDbLine
 10
270.878852
 20
193.8
 30
0.0
 11
270.878852
 21
193.921929
 31
0.0
  0
LINE
  5
CA91
330
C7A6
100
AcDbEntity
  8
1
  6
Continuous
100
AcDbLine
 10
278.878852
 20
193.8
 30
0.0
 11
270.878852
 21
193.8
 31
0.0
  0
LINE
  5
CA92
330
C7A6
100
AcDbEntity
  8
1
  6
Continuous
100
AcDbLine
 10
288.8788519999998
 20
193.921929
 30
0.0
 11
288.8788519999998
 21
193.8
 31
0.0
  0
LINE
  5
CA93
330
C7A6
100
AcDbEntity
  8
1
  6
Continuous
100
AcDbLine
 10
308.878852
 20
193.8
 30
0.0
 11
300.8788519999999
 21
193.8
 31
0.0
  0
LINE
  5
CA94
330
C7A6
100
AcDbEntity
  8
1
  6
Continuous
100
AcDbLine
 10
298.8788519999999
 20
193.8
 30
0.0
 11
290.8788519999998
 21
193.8
 31
0.0
  0
LINE
  5
CA95
330
C7A6
100
AcDbEntity
  8
1
  6
Continuous
100
AcDbLine
 10
290.8788519999998
 20
193.8
 30
0.0
 11
290.8788519999998
 21
193.921929
 31
0.0
  0
LINE
  5
CA96
330
C7A6
100
AcDbEntity
  8
1
  6
Continuous
100
AcDbLine
 10
298.8788519999999
 20
193.921929
 30
0.0
 11
298.8788519999999
 21
193.8
 31
0.0
  0
LINE
  5
CA97
330
C7A6
100
AcDbEntity
  8
1
  6
Continuous
100
AcDbLine
 10
300.8788519999999
 20
193.8
 30
0.0
 11
300.8788519999999
 21
193.921929
 31
0.0
  0
LINE
  5
CA98
330
C7A6
100
AcDbEntity
  8
1
  6
Continuous
100
AcDbLine
 10
308.878852
 20
193.921929
 30
0.0
 11
308.878852
 21
193.8
 31
0.0
  0
LINE
  5
CA99
330
C7A6
100
AcDbEntity
  8
1
  6
Continuous
100
AcDbLine
 10
258.878852
 20
48.2
 30
0.0
 11
250.8788519999999
 21
48.2
 31
0.0
  0
LINE
  5
CA9A
330
C7A6
100
AcDbEntity
  8
1
  6
Continuous
100
AcDbLine
 10
69.478852
 20
48.078071
 30
0.0
 11
569.4788519999997
 21
48.078071
 31
0.0
  0
LINE
  5
CA9B
330
C7A6
100
AcDbEntity
  8
1
  6
Continuous
100
AcDbLine
 10
569.4788519999997
 20
41.0
 30
0.0
 11
69.478852
 21
41.0
 31
0.0
  0
LINE
  5
CA9C
330
C7A6
100
AcDbEntity
  8
1
  6
Continuous
100
AcDbLine
 10
128.8788519999999
 20
48.2
 30
0.0
 11
120.8788519999999
 21
48.2
 31
0.0
  0
LINE
  5
CA9D
330
C7A6
100
AcDbEntity
  8
3
  6
DASHED
100
AcDbLine
 10
170.8788519999998
 20
43.5
 30
0.0
 11
70.87885199999998
 21
43.5
 31
0.0
  0
LINE
  5
CA9E
330
C7A6
100
AcDbEntity
  8
1
  6
Continuous
100
AcDbLine
 10
170.8788519999998
 20
49.0
 30
0.0
 11
70.87885199999998
 21
49.0
 31
0.0
  0
LINE
  5
CA9F
330
C7A6
100
AcDbEntity
  8
1
  6
Continuous
100
AcDbLine
 10
98.87885199999999
 20
48.2
 30
0.0
 11
90.878852
 21
48.2
 31
0.0
  0
LINE
  5
CAA0
330
C7A6
100
AcDbEntity
  8
3
  6
DASHED
100
AcDbLine
 10
70.87885199999998
 20
43.5
 30
0.0
 11
70.87885199999998
 21
48.078071
 31
0.0
  0
LINE
  5
CAA1
330
C7A6
100
AcDbEntity
  8
1
  6
Continuous
100
AcDbLine
 10
69.478852
 20
41.0
 30
0.0
 11
69.478852
 21
48.078071
 31
0.0
  0
LINE
  5
CAA2
330
C7A6
100
AcDbEntity
  8
1
  6
Continuous
100
AcDbLine
 10
78.87885199999998
 20
48.078071
 30
0.0
 11
78.87885199999998
 21
48.2
 31
0.0
  0
LINE
  5
CAA3
330
C7A6
100
AcDbEntity
  8
1
  6
Continuous
100
AcDbLine
 10
70.87885199999998
 20
49.0
 30
0.0
 11
70.87885199999998
 21
48.078071
 31
0.0
  0
LINE
  5
CAA4
330
C7A6
100
AcDbEntity
  8
1
  6
Continuous
100
AcDbLine
 10
78.87885199999998
 20
48.2
 30
0.0
 11
70.87885199999998
 21
48.2
 31
0.0
  0
LINE
  5
CAA5
330
C7A6
100
AcDbEntity
  8
1
  6
Continuous
100
AcDbLine
 10
88.87885199999997
 20
48.2
 30
0.0
 11
80.87885199999998
 21
48.2
 31
0.0
  0
LINE
  5
CAA6
330
C7A6
100
AcDbEntity
  8
1
  6
Continuous
100
AcDbLine
 10
80.87885199999998
 20
48.2
 30
0.0
 11
80.87885199999998
 21
48.078071
 31
0.0
  0
LINE
  5
CAA7
330
C7A6
100
AcDbEntity
  8
1
  6
Continuous
100
AcDbLine
 10
88.87885199999997
 20
48.078071
 30
0.0
 11
88.87885199999997
 21
48.2
 31
0.0
  0
LINE
  5
CAA8
330
C7A6
100
AcDbEntity
  8
1
  6
Continuous
100
AcDbLine
 10
90.878852
 20
48.2
 30
0.0
 11
90.878852
 21
48.078071
 31
0.0
  0
LINE
  5
CAA9
330
C7A6
100
AcDbEntity
  8
4
  6
CENTER
100
AcDbLine
 10
90.878852
 20
45.578071
 30
0.0
 11
90.878852
 21
51.5
 31
0.0
  0
LINE
  5
CAAA
330
C7A6
100
AcDbEntity
  8
4
  6
CENTER
100
AcDbLine
 10
89.47885199999998
 20
38.5
 30
0.0
 11
89.47885199999998
 21
43.5
 31
0.0
  0
LINE
  5
CAAB
330
C7A6
100
AcDbEntity
  8
1
  6
Continuous
100
AcDbLine
 10
118.8788519999999
 20
48.2
 30
0.0
 11
110.878852
 21
48.2
 31
0.0
  0
LINE
  5
CAAC
330
C7A6
100
AcDbEntity
  8
1
  6
Continuous
100
AcDbLine
 10
98.87885199999999
 20
48.078071
 30
0.0
 11
98.87885199999999
 21
48.2
 31
0.0
  0
LINE
  5
CAAD
330
C7A6
100
AcDbEntity
  8
1
  6
Continuous
100
AcDbLine
 10
108.878852
 20
48.078071
 30
0.0
 11
108.878852
 21
48.2
 31
0.0
  0
LINE
  5
CAAE
330
C7A6
100
AcDbEntity
  8
1
  6
Continuous
100
AcDbLine
 10
100.8788519999999
 20
48.2
 30
0.0
 11
100.8788519999999
 21
48.078071
 31
0.0
  0
LINE
  5
CAAF
330
C7A6
100
AcDbEntity
  8
1
  6
Continuous
100
AcDbLine
 10
108.878852
 20
48.2
 30
0.0
 11
100.8788519999999
 21
48.2
 31
0.0
  0
LINE
  5
CAB0
330
C7A6
100
AcDbEntity
  8
1
  6
Continuous
100
AcDbLine
 10
110.878852
 20
48.2
 30
0.0
 11
110.878852
 21
48.078071
 31
0.0
  0
LINE
  5
CAB1
330
C7A6
100
AcDbEntity
  8
1
  6
Continuous
100
AcDbLine
 10
118.8788519999999
 20
48.078071
 30
0.0
 11
118.8788519999999
 21
48.2
 31
0.0
  0
LINE
  5
CAB2
330
C7A6
100
AcDbEntity
  8
1
  6
Continuous
100
AcDbLine
 10
120.8788519999999
 20
48.2
 30
0.0
 11
120.8788519999999
 21
48.078071
 31
0.0
  0
LINE
  5
CAB3
330
C7A6
100
AcDbEntity
  8
4
  6
CENTER
100
AcDbLine
 10
104.4788519999999
 20
38.5
 30
0.0
 11
104.4788519999999
 21
43.5
 31
0.0
  0
LINE
  5
CAB4
330
C7A6
100
AcDbEntity
  8
1
  6
Continuous
100
AcDbLine
 10
198.8788519999999
 20
48.2
 30
0.0
 11
190.8788519999999
 21
48.2
 31
0.0
  0
LINE
  5
CAB5
330
C7A6
100
AcDbEntity
  8
1
  6
Continuous
100
AcDbLine
 10
148.8788519999999
 20
48.2
 30
0.0
 11
140.8788519999999
 21
48.2
 31
0.0
  0
LINE
  5
CAB6
330
C7A6
100
AcDbEntity
  8
1
  6
Continuous
100
AcDbLine
 10
128.8788519999999
 20
48.078071
 30
0.0
 11
128.8788519999999
 21
48.2
 31
0.0
  0
LINE
  5
CAB7
330
C7A6
100
AcDbEntity
  8
1
  6
Continuous
100
AcDbLine
 10
138.878852
 20
48.2
 30
0.0
 11
130.878852
 21
48.2
 31
0.0
  0
LINE
  5
CAB8
330
C7A6
100
AcDbEntity
  8
1
  6
Continuous
100
AcDbLine
 10
130.878852
 20
48.2
 30
0.0
 11
130.878852
 21
48.078071
 31
0.0
  0
LINE
  5
CAB9
330
C7A6
100
AcDbEntity
  8
1
  6
Continuous
100
AcDbLine
 10
138.878852
 20
48.078071
 30
0.0
 11
138.878852
 21
48.2
 31
0.0
  0
LINE
  5
CABA
330
C7A6
100
AcDbEntity
  8
1
  6
Continuous
100
AcDbLine
 10
140.8788519999999
 20
48.2
 30
0.0
 11
140.8788519999999
 21
48.078071
 31
0.0
  0
LINE
  5
CABB
330
C7A6
100
AcDbEntity
  8
1
  6
Continuous
100
AcDbLine
 10
148.8788519999999
 20
48.078071
 30
0.0
 11
148.8788519999999
 21
48.2
 31
0.0
  0
LINE
  5
CABC
330
C7A6
100
AcDbEntity
  8
1
  6
Continuous
100
AcDbLine
 10
158.878852
 20
48.078071
 30
0.0
 11
158.878852
 21
48.2
 31
0.0
  0
LINE
  5
CABD
330
C7A6
100
AcDbEntity
  8
1
  6
Continuous
100
AcDbLine
 10
150.8788519999999
 20
48.2
 30
0.0
 11
150.8788519999999
 21
48.078071
 31
0.0
  0
LINE
  5
CABE
330
C7A6
100
AcDbEntity
  8
1
  6
Continuous
100
AcDbLine
 10
158.878852
 20
48.2
 30
0.0
 11
150.8788519999999
 21
48.2
 31
0.0
  0
LINE
  5
CABF
330
C7A6
100
AcDbEntity
  8
4
  6
CENTER
100
AcDbLine
 10
150.8788519999999
 20
45.578071
 30
0.0
 11
150.8788519999999
 21
51.5
 31
0.0
  0
LINE
  5
CAC0
330
C7A6
100
AcDbEntity
  8
3
  6
DASHED
100
AcDbLine
 10
170.8788519999998
 20
48.078071
 30
0.0
 11
170.8788519999998
 21
43.5
 31
0.0
  0
LINE
  5
CAC1
330
C7A6
100
AcDbEntity
  8
1
  6
Continuous
100
AcDbLine
 10
178.8788519999999
 20
48.2
 30
0.0
 11
170.8788519999998
 21
48.2
 31
0.0
  0
LINE
  5
CAC2
330
C7A6
100
AcDbEntity
  8
1
  6
Continuous
100
AcDbLine
 10
168.8788519999999
 20
48.2
 30
0.0
 11
160.878852
 21
48.2
 31
0.0
  0
LINE
  5
CAC3
330
C7A6
100
AcDbEntity
  8
1
  6
Continuous
100
AcDbLine
 10
160.878852
 20
48.2
 30
0.0
 11
160.878852
 21
48.078071
 31
0.0
  0
LINE
  5
CAC4
330
C7A6
100
AcDbEntity
  8
1
  6
Continuous
100
AcDbLine
 10
168.8788519999999
 20
48.078071
 30
0.0
 11
168.8788519999999
 21
48.2
 31
0.0
  0
LINE
  5
CAC5
330
C7A6
100
AcDbEntity
  8
1
  6
Continuous
100
AcDbLine
 10
170.8788519999998
 20
49.0
 30
0.0
 11
170.8788519999998
 21
48.078071
 31
0.0
  0
LINE
  5
CAC6
330
C7A6
100
AcDbEntity
  8
1
  6
Continuous
100
AcDbLine
 10
178.8788519999999
 20
48.078071
 30
0.0
 11
178.8788519999999
 21
48.2
 31
0.0
  0
LINE
  5
CAC7
330
C7A6
100
AcDbEntity
  8
1
  6
Continuous
100
AcDbLine
 10
188.878852
 20
48.2
 30
0.0
 11
180.878852
 21
48.2
 31
0.0
  0
LINE
  5
CAC8
330
C7A6
100
AcDbEntity
  8
1
  6
Continuous
100
AcDbLine
 10
188.878852
 20
48.078071
 30
0.0
 11
188.878852
 21
48.2
 31
0.0
  0
LINE
  5
CAC9
330
C7A6
100
AcDbEntity
  8
1
  6
Continuous
100
AcDbLine
 10
180.878852
 20
48.2
 30
0.0
 11
180.878852
 21
48.078071
 31
0.0
  0
LINE
  5
CACA
330
C7A6
100
AcDbEntity
  8
1
  6
Continuous
100
AcDbLine
 10
190.8788519999999
 20
48.2
 30
0.0
 11
190.8788519999999
 21
48.078071
 31
0.0
  0
LINE
  5
CACB
330
C7A6
100
AcDbEntity
  8
4
  6
CENTER
100
AcDbLine
 10
189.4788519999999
 20
38.5
 30
0.0
 11
189.4788519999999
 21
43.5
 31
0.0
  0
LINE
  5
CACC
330
C7A6
100
AcDbEntity
  8
1
  6
Continuous
100
AcDbLine
 10
228.878852
 20
48.2
 30
0.0
 11
220.878852
 21
48.2
 31
0.0
  0
LINE
  5
CACD
330
C7A6
100
AcDbEntity
  8
1
  6
Continuous
100
AcDbLine
 10
208.878852
 20
48.2
 30
0.0
 11
200.8788519999999
 21
48.2
 31
0.0
  0
LINE
  5
CACE
330
C7A6
100
AcDbEntity
  8
1
  6
Continuous
100
AcDbLine
 10
198.8788519999999
 20
48.078071
 30
0.0
 11
198.8788519999999
 21
48.2
 31
0.0
  0
LINE
  5
CACF
330
C7A6
100
AcDbEntity
  8
1
  6
Continuous
100
AcDbLine
 10
200.8788519999999
 20
48.2
 30
0.0
 11
200.8788519999999
 21
48.078071
 31
0.0
  0
LINE
  5
CAD0
330
C7A6
100
AcDbEntity
  8
1
  6
Continuous
100
AcDbLine
 10
220.878852
 20
48.2
 30
0.0
 11
220.878852
 21
48.078071
 31
0.0
  0
LINE
  5
CAD1
330
C7A6
100
AcDbEntity
  8
1
  6
Continuous
100
AcDbLine
 10
218.878852
 20
48.078071
 30
0.0
 11
218.878852
 21
48.2
 31
0.0
  0
LINE
  5
CAD2
330
C7A6
100
AcDbEntity
  8
1
  6
Continuous
100
AcDbLine
 10
218.878852
 20
48.2
 30
0.0
 11
210.878852
 21
48.2
 31
0.0
  0
LINE
  5
CAD3
330
C7A6
100
AcDbEntity
  8
1
  6
Continuous
100
AcDbLine
 10
210.878852
 20
48.2
 30
0.0
 11
210.878852
 21
48.078071
 31
0.0
  0
LINE
  5
CAD4
330
C7A6
100
AcDbEntity
  8
1
  6
Continuous
100
AcDbLine
 10
208.878852
 20
48.078071
 30
0.0
 11
208.878852
 21
48.2
 31
0.0
  0
LINE
  5
CAD5
330
C7A6
100
AcDbEntity
  8
1
  6
Continuous
100
AcDbLine
 10
238.8788519999998
 20
48.2
 30
0.0
 11
230.8788519999999
 21
48.2
 31
0.0
  0
LINE
  5
CAD6
330
C7A6
100
AcDbEntity
  8
1
  6
Continuous
100
AcDbLine
 10
230.8788519999999
 20
48.2
 30
0.0
 11
230.8788519999999
 21
48.078071
 31
0.0
  0
LINE
  5
CAD7
330
C7A6
100
AcDbEntity
  8
1
  6
Continuous
100
AcDbLine
 10
238.8788519999998
 20
48.078071
 30
0.0
 11
238.8788519999998
 21
48.2
 31
0.0
  0
LINE
  5
CAD8
330
C7A6
100
AcDbEntity
  8
1
  6
Continuous
100
AcDbLine
 10
228.878852
 20
48.078071
 30
0.0
 11
228.878852
 21
48.2
 31
0.0
  0
LINE
  5
CAD9
330
C7A6
100
AcDbEntity
  8
1
  6
Continuous
100
AcDbLine
 10
250.8788519999999
 20
48.2
 30
0.0
 11
250.8788519999999
 21
48.078071
 31
0.0
  0
LINE
  5
CADA
330
C7A6
100
AcDbEntity
  8
1
  6
Continuous
100
AcDbLine
 10
248.8788519999999
 20
48.078071
 30
0.0
 11
248.8788519999999
 21
48.2
 31
0.0
  0
LINE
  5
CADB
330
C7A6
100
AcDbEntity
  8
1
  6
Continuous
100
AcDbLine
 10
240.8788519999998
 20
48.2
 30
0.0
 11
240.8788519999998
 21
48.078071
 31
0.0
  0
LINE
  5
CADC
330
C7A6
100
AcDbEntity
  8
1
  6
Continuous
100
AcDbLine
 10
248.8788519999999
 20
48.2
 30
0.0
 11
240.8788519999998
 21
48.2
 31
0.0
  0
LINE
  5
CADD
330
C7A6
100
AcDbEntity
  8
1
  6
Continuous
100
AcDbLine
 10
288.8788519999998
 20
48.2
 30
0.0
 11
280.8788519999998
 21
48.2
 31
0.0
  0
LINE
  5
CADE
330
C7A6
100
AcDbEntity
  8
1
  6
Continuous
100
AcDbLine
 10
278.878852
 20
48.2
 30
0.0
 11
270.878852
 21
48.2
 31
0.0
  0
LINE
  5
CADF
330
C7A6
100
AcDbEntity
  8
1
  6
Continuous
100
AcDbLine
 10
270.878852
 20
48.2
 30
0.0
 11
270.878852
 21
48.078071
 31
0.0
  0
LINE
  5
CAE0
330
C7A6
100
AcDbEntity
  8
1
  6
Continuous
100
AcDbLine
 10
268.878852
 20
48.078071
 30
0.0
 11
268.878852
 21
48.2
 31
0.0
  0
LINE
  5
CAE1
330
C7A6
100
AcDbEntity
  8
1
  6
Continuous
100
AcDbLine
 10
260.878852
 20
48.2
 30
0.0
 11
260.878852
 21
48.078071
 31
0.0
  0
LINE
  5
CAE2
330
C7A6
100
AcDbEntity
  8
1
  6
Continuous
100
AcDbLine
 10
268.878852
 20
48.2
 30
0.0
 11
260.878852
 21
48.2
 31
0.0
  0
LINE
  5
CAE3
330
C7A6
100
AcDbEntity
  8
1
  6
Continuous
100
AcDbLine
 10
258.878852
 20
48.078071
 30
0.0
 11
258.878852
 21
48.2
 31
0.0
  0
LINE
  5
CAE4
330
C7A6
100
AcDbEntity
  8
1
  6
Continuous
100
AcDbLine
 10
278.878852
 20
48.078071
 30
0.0
 11
278.878852
 21
48.2
 31
0.0
  0
LINE
  5
CAE5
330
C7A6
100
AcDbEntity
  8
1
  6
Continuous
100
AcDbLine
 10
280.8788519999998
 20
48.2
 30
0.0
 11
280.8788519999998
 21
48.078071
 31
0.0
  0
LINE
  5
CAE6
330
C7A6
100
AcDbEntity
  8
1
  6
Continuous
100
AcDbLine
 10
308.878852
 20
48.2
 30
0.0
 11
300.8788519999999
 21
48.2
 31
0.0
  0
LINE
  5
CAE7
330
C7A6
100
AcDbEntity
  8
1
  6
Continuous
100
AcDbLine
 10
300.8788519999999
 20
48.2
 30
0.0
 11
300.8788519999999
 21
48.078071
 31
0.0
  0
LINE
  5
CAE8
330
C7A6
100
AcDbEntity
  8
1
  6
Continuous
100
AcDbLine
 10
298.8788519999999
 20
48.078071
 30
0.0
 11
298.8788519999999
 21
48.2
 31
0.0
  0
LINE
  5
CAE9
330
C7A6
100
AcDbEntity
  8
1
  6
Continuous
100
AcDbLine
 10
290.8788519999998
 20
48.2
 30
0.0
 11
290.8788519999998
 21
48.078071
 31
0.0
  0
LINE
  5
CAEA
330
C7A6
100
AcDbEntity
  8
1
  6
Continuous
100
AcDbLine
 10
298.8788519999999
 20
48.2
 30
0.0
 11
290.8788519999998
 21
48.2
 31
0.0
  0
LINE
  5
CAEB
330
C7A6
100
AcDbEntity
  8
1
  6
Continuous
100
AcDbLine
 10
288.8788519999998
 20
48.078071
 30
0.0
 11
288.8788519999998
 21
48.2
 31
0.0
  0
LINE
  5
CAEC
330
C7A6
100
AcDbEntity
  8
1
  6
Continuous
100
AcDbLine
 10
308.878852
 20
48.078071
 30
0.0
 11
308.878852
 21
48.2
 31
0.0
  0
LINE
  5
CAED
330
C7A6
100
AcDbEntity
  8
4
  6
CENTER
100
AcDbLine
 10
449.4788519999998
 20
38.5
 30
0.0
 11
449.4788519999998
 21
43.5
 31
0.0
  0
LINE
  5
CAEE
330
C7A6
100
AcDbEntity
  8
4
  6
CENTER
100
AcDbLine
 10
534.4788519999998
 20
38.5
 30
0.0
 11
534.4788519999998
 21
43.5
 31
0.0
  0
LINE
  5
CAEF
330
C7A6
100
AcDbEntity
  8
1
  6
Continuous
100
AcDbLine
 10
569.4788519999997
 20
41.0
 30
0.0
 11
569.4788519999997
 21
48.078071
 31
0.0
  0
LINE
  5
CAF0
330
C7A6
100
AcDbEntity
  8
4
  6
CENTER
100
AcDbLine
 10
549.4788519999998
 20
38.5
 30
0.0
 11
549.4788519999998
 21
43.5
 31
0.0
  0
ARC
  5
CAF1
330
C7A6
100
AcDbEntity
  8
1
  6
Continuous
100
AcDbCircle
 10
319.178852
 20
273.0
 30
0.0
 40
1.6
100
AcDbArc
 50
90.0
 51
270.0
  0
LINE
  5
CAF2
330
C7A6
100
AcDbEntity
  8
1
  6
Continuous
100
AcDbLine
 10
319.7788519999999
 20
271.3999999999999
 30
0.0
 11
319.178852
 21
271.3999999999999
 31
0.0
  0
LINE
  5
CAF3
330
C7A6
100
AcDbEntity
  8
1
  6
Continuous
100
AcDbLine
 10
319.178852
 20
274.6
 30
0.0
 11
319.7788519999999
 21
274.6
 31
0.0
  0
LINE
  5
CAF4
330
C7A6
100
AcDbEntity
  8
4
  6
CENTER
100
AcDbLine
 10
319.478852
 20
270.0897289999999
 30
0.0
 11
319.478852
 21
276.133079
 31
0.0
  0
ARC
  5
CAF5
330
C7A6
100
AcDbEntity
  8
1
  6
Continuous
100
AcDbCircle
 10
319.7788519999999
 20
273.0
 30
0.0
 40
1.6
100
AcDbArc
 50
270.0
 51
90.0
  0
LINE
  5
CAF6
330
C7A6
100
AcDbEntity
  8
4
  6
CENTER
100
AcDbLine
 10
319.478852
 20
203.5
 30
0.0
 11
319.478852
 21
198.5
 31
0.0
  0
LINE
  5
CAF7
330
C7A6
100
AcDbEntity
  8
4
  6
CENTER
100
AcDbLine
 10
319.478852
 20
38.5
 30
0.0
 11
319.478852
 21
43.5
 31
0.0
  0
LINE
  5
CAF8
330
C7A6
100
AcDbEntity
  8
4
  6
CENTER
100
AcDbLine
 10
319.478852
 20
123.910271
 30
0.0
 11
319.478852
 21
117.866921
 31
0.0
  0
LINE
  5
CAF9
330
C7A6
100
AcDbEntity
  8
1
  6
Continuous
100
AcDbLine
 10
320.878852
 20
128.1795
 30
0.0
 11
328.878852
 21
128.1795
 31
0.0
  0
LINE
  5
CAFA
330
C7A6
100
AcDbEntity
  8
1
  6
Continuous
100
AcDbLine
 10
320.878852
 20
127.6795
 30
0.0
 11
328.878852
 21
127.6795
 31
0.0
  0
ARC
  5
CAFB
330
C7A6
100
AcDbEntity
  8
1
  6
Continuous
100
AcDbCircle
 10
309.8788519999998
 20
127.6795
 30
0.0
 40
1.0
100
AcDbArc
 50
180.0
 51
0.0
  0
LINE
  5
CAFC
330
C7A6
100
AcDbEntity
  8
1
  6
Continuous
100
AcDbLine
 10
308.878852
 20
127.6795
 30
0.0
 11
308.878852
 21
128.1795
 31
0.0
  0
ARC
  5
CAFD
330
C7A6
100
AcDbEntity
  8
1
  6
Continuous
100
AcDbCircle
 10
319.8788519999999
 20
127.6795
 30
0.0
 40
1.0
100
AcDbArc
 50
180.0
 51
0.0
  0
LINE
  5
CAFE
330
C7A6
100
AcDbEntity
  8
1
  6
Continuous
100
AcDbLine
 10
318.878852
 20
127.6795
 30
0.0
 11
318.878852
 21
128.1795
 31
0.0
  0
LINE
  5
CAFF
330
C7A6
100
AcDbEntity
  8
1
  6
Continuous
100
AcDbLine
 10
320.878852
 20
127.6795
 30
0.0
 11
320.878852
 21
128.1795
 31
0.0
  0
LINE
  5
CB00
330
C7A6
100
AcDbEntity
  8
1
  6
Continuous
100
AcDbLine
 10
310.878852
 20
127.6795
 30
0.0
 11
310.878852
 21
128.1795
 31
0.0
  0
ARC
  5
CB01
330
C7A6
100
AcDbEntity
  8
1
  6
Continuous
100
AcDbCircle
 10
314.878852
 20
128.0124999999999
 30
0.0
 40
1.587499999999999
100
AcDbArc
 50
155.4270199999999
 51
173.9614919999999
  0
ARC
  5
CB02
330
C7A6
100
AcDbEntity
  8
1
  6
Continuous
100
AcDbCircle
 10
314.878852
 20
128.0124999999999
 30
0.0
 40
1.587499999999999
100
AcDbArc
 50
6.038508
 51
24.57297999999999
  0
ARC
  5
CB03
330
C7A6
100
AcDbEntity
  8
1
  6
Continuous
100
AcDbCircle
 10
314.878852
 20
128.0124999999999
 30
0.0
 40
1.587499999999999
100
AcDbArc
 50
192.1085089999999
 51
347.8914909999998
  0
LINE
  5
CB04
330
C7A6
100
AcDbEntity
  8
1
  6
Continuous
100
AcDbLine
 10
310.878852
 20
127.6795
 30
0.0
 11
318.878852
 21
127.6795
 31
0.0
  0
LINE
  5
CB05
330
C7A6
100
AcDbEntity
  8
1
  6
Continuous
100
AcDbLine
 10
310.878852
 20
128.1795
 30
0.0
 11
318.878852
 21
128.1795
 31
0.0
  0
ARC
  5
CB06
330
C7A6
100
AcDbEntity
  8
1
  6
Continuous
100
AcDbCircle
 10
324.878852
 20
128.0124999999999
 30
0.0
 40
1.587499999999999
100
AcDbArc
 50
192.1085089999999
 51
347.8914909999998
  0
ARC
  5
CB07
330
C7A6
100
AcDbEntity
  8
1
  6
Continuous
100
AcDbCircle
 10
324.878852
 20
128.0124999999999
 30
0.0
 40
1.587499999999999
100
AcDbArc
 50
155.4270199999999
 51
173.9614919999999
  0
ARC
  5
CB08
330
C7A6
100
AcDbEntity
  8
1
  6
Continuous
100
AcDbCircle
 10
324.878852
 20
128.0124999999999
 30
0.0
 40
1.587499999999999
100
AcDbArc
 50
6.038508
 51
24.57297999999999
  0
LINE
  5
CB09
330
C7A6
100
AcDbEntity
  8
1
  6
Continuous
100
AcDbLine
 10
320.878852
 20
113.8204999999999
 30
0.0
 11
328.878852
 21
113.8204999999999
 31
0.0
  0
LINE
  5
CB0A
330
C7A6
100
AcDbEntity
  8
1
  6
Continuous
100
AcDbLine
 10
320.878852
 20
114.3205
 30
0.0
 11
328.878852
 21
114.3205
 31
0.0
  0
ARC
  5
CB0B
330
C7A6
100
AcDbEntity
  8
1
  6
Continuous
100
AcDbCircle
 10
309.8788519999998
 20
114.3205
 30
0.0
 40
1.0
100
AcDbArc
 50
0.0
 51
180.0
  0
LINE
  5
CB0C
330
C7A6
100
AcDbEntity
  8
1
  6
Continuous
100
AcDbLine
 10
308.878852
 20
114.3205
 30
0.0
 11
308.878852
 21
113.8204999999999
 31
0.0
  0
ARC
  5
CB0D
330
C7A6
100
AcDbEntity
  8
1
  6
Continuous
100
AcDbCircle
 10
319.8788519999999
 20
114.3205
 30
0.0
 40
1.0
100
AcDbArc
 50
0.0
 51
180.0
  0
LINE
  5
CB0E
330
C7A6
100
AcDbEntity
  8
1
  6
Continuous
100
AcDbLine
 10
318.878852
 20
114.3205
 30
0.0
 11
318.878852
 21
113.8204999999999
 31
0.0
  0
LINE
  5
CB0F
330
C7A6
100
AcDbEntity
  8
1
  6
Continuous
100
AcDbLine
 10
320.878852
 20
114.3205
 30
0.0
 11
320.878852
 21
113.8204999999999
 31
0.0
  0
LINE
  5
CB10
330
C7A6
100
AcDbEntity
  8
1
  6
Continuous
100
AcDbLine
 10
310.878852
 20
114.3205
 30
0.0
 11
310.878852
 21
113.8204999999999
 31
0.0
  0
ARC
  5
CB11
330
C7A6
100
AcDbEntity
  8
1
  6
Continuous
100
AcDbCircle
 10
314.878852
 20
113.9874999999999
 30
0.0
 40
1.587499999999999
100
AcDbArc
 50
12.108509
 51
167.891491
  0
ARC
  5
CB12
330
C7A6
100
AcDbEntity
  8
1
  6
Continuous
100
AcDbCircle
 10
314.878852
 20
113.9874999999999
 30
0.0
 40
1.587499999999999
100
AcDbArc
 50
335.4270200000001
 51
353.9614919999999
  0
ARC
  5
CB13
330
C7A6
100
AcDbEntity
  8
1
  6
Continuous
100
AcDbCircle
 10
314.878852
 20
113.9874999999999
 30
0.0
 40
1.587499999999999
100
AcDbArc
 50
186.038508
 51
204.57298
  0
LINE
  5
CB14
330
C7A6
100
AcDbEntity
  8
1
  6
Continuous
100
AcDbLine
 10
310.878852
 20
114.3205
 30
0.0
 11
318.878852
 21
114.3205
 31
0.0
  0
LINE
  5
CB15
330
C7A6
100
AcDbEntity
  8
1
  6
Continuous
100
AcDbLine
 10
310.878852
 20
113.8204999999999
 30
0.0
 11
318.878852
 21
113.8204999999999
 31
0.0
  0
ARC
  5
CB16
330
C7A6
100
AcDbEntity
  8
1
  6
Continuous
100
AcDbCircle
 10
324.878852
 20
113.9874999999999
 30
0.0
 40
1.587499999999999
100
AcDbArc
 50
12.108509
 51
167.891491
  0
ARC
  5
CB17
330
C7A6
100
AcDbEntity
  8
1
  6
Continuous
100
AcDbCircle
 10
324.878852
 20
113.9874999999999
 30
0.0
 40
1.587499999999999
100
AcDbArc
 50
186.038508
 51
204.57298
  0
ARC
  5
CB18
330
C7A6
100
AcDbEntity
  8
1
  6
Continuous
100
AcDbCircle
 10
324.878852
 20
113.9874999999999
 30
0.0
 40
1.587499999999999
100
AcDbArc
 50
335.4270200000001
 51
353.9614919999999
  0
ARC
  5
CB19
330
C7A6
100
AcDbEntity
  8
1
  6
Continuous
100
AcDbCircle
 10
349.878852
 20
127.6795
 30
0.0
 40
1.0
100
AcDbArc
 50
180.0
 51
0.0
  0
LINE
  5
CB1A
330
C7A6
100
AcDbEntity
  8
1
  6
Continuous
100
AcDbLine
 10
330.878852
 20
128.1795
 30
0.0
 11
338.8788519999998
 21
128.1795
 31
0.0
  0
LINE
  5
CB1B
330
C7A6
100
AcDbEntity
  8
1
  6
Continuous
100
AcDbLine
 10
330.878852
 20
127.6795
 30
0.0
 11
338.8788519999998
 21
127.6795
 31
0.0
  0
ARC
  5
CB1C
330
C7A6
100
AcDbEntity
  8
1
  6
Continuous
100
AcDbCircle
 10
329.878852
 20
127.6795
 30
0.0
 40
1.0
100
AcDbArc
 50
180.0
 51
0.0
  0
LINE
  5
CB1D
330
C7A6
100
AcDbEntity
  8
1
  6
Continuous
100
AcDbLine
 10
328.878852
 20
127.6795
 30
0.0
 11
328.878852
 21
128.1795
 31
0.0
  0
LINE
  5
CB1E
330
C7A6
100
AcDbEntity
  8
1
  6
Continuous
100
AcDbLine
 10
330.878852
 20
127.6795
 30
0.0
 11
330.878852
 21
128.1795
 31
0.0
  0
LINE
  5
CB1F
330
C7A6
100
AcDbEntity
  8
1
  6
Continuous
100
AcDbLine
 10
340.8788519999998
 20
128.1795
 30
0.0
 11
348.8788519999998
 21
128.1795
 31
0.0
  0
LINE
  5
CB20
330
C7A6
100
AcDbEntity
  8
1
  6
Continuous
100
AcDbLine
 10
340.8788519999998
 20
127.6795
 30
0.0
 11
348.8788519999998
 21
127.6795
 31
0.0
  0
ARC
  5
CB21
330
C7A6
100
AcDbEntity
  8
1
  6
Continuous
100
AcDbCircle
 10
344.8788519999998
 20
128.0124999999999
 30
0.0
 40
1.587499999999999
100
AcDbArc
 50
192.1085089999999
 51
347.8914909999998
  0
ARC
  5
CB22
330
C7A6
100
AcDbEntity
  8
1
  6
Continuous
100
AcDbCircle
 10
344.8788519999998
 20
128.0124999999999
 30
0.0
 40
1.587499999999999
100
AcDbArc
 50
6.038508
 51
24.57297999999999
  0
ARC
  5
CB23
330
C7A6
100
AcDbEntity
  8
1
  6
Continuous
100
AcDbCircle
 10
344.8788519999998
 20
128.0124999999999
 30
0.0
 40
1.587499999999999
100
AcDbArc
 50
155.4270199999999
 51
173.9614919999999
  0
LINE
  5
CB24
330
C7A6
100
AcDbEntity
  8
1
  6
Continuous
100
AcDbLine
 10
340.8788519999998
 20
127.6795
 30
0.0
 11
340.8788519999998
 21
128.1795
 31
0.0
  0
LINE
  5
CB25
330
C7A6
100
AcDbEntity
  8
1
  6
Continuous
100
AcDbLine
 10
348.8788519999998
 20
127.6795
 30
0.0
 11
348.8788519999998
 21
128.1795
 31
0.0
  0
LINE
  5
CB26
330
C7A6
100
AcDbEntity
  8
1
  6
Continuous
100
AcDbLine
 10
338.8788519999998
 20
127.6795
 30
0.0
 11
338.8788519999998
 21
128.1795
 31
0.0
  0
ARC
  5
CB27
330
C7A6
100
AcDbEntity
  8
1
  6
Continuous
100
AcDbCircle
 10
339.878852
 20
127.6795
 30
0.0
 40
1.0
100
AcDbArc
 50
180.0
 51
0.0
  0
ARC
  5
CB28
330
C7A6
100
AcDbEntity
  8
1
  6
Continuous
100
AcDbCircle
 10
334.8788519999998
 20
128.0124999999999
 30
0.0
 40
1.587499999999999
100
AcDbArc
 50
192.1085089999999
 51
347.8914909999998
  0
ARC
  5
CB29
330
C7A6
100
AcDbEntity
  8
1
  6
Continuous
100
AcDbCircle
 10
334.8788519999998
 20
128.0124999999999
 30
0.0
 40
1.587499999999999
100
AcDbArc
 50
155.4270199999999
 51
173.9614919999999
  0
ARC
  5
CB2A
330
C7A6
100
AcDbEntity
  8
1
  6
Continuous
100
AcDbCircle
 10
334.8788519999998
 20
128.0124999999999
 30
0.0
 40
1.587499999999999
100
AcDbArc
 50
6.038508
 51
24.57297999999999
  0
ARC
  5
CB2B
330
C7A6
100
AcDbEntity
  8
1
  6
Continuous
100
AcDbCircle
 10
354.878852
 20
128.0124999999999
 30
0.0
 40
1.587499999999999
100
AcDbArc
 50
6.038508
 51
24.57297999999999
  0
ARC
  5
CB2C
330
C7A6
100
AcDbEntity
  8
1
  6
Continuous
100
AcDbCircle
 10
354.878852
 20
128.0124999999999
 30
0.0
 40
1.587499999999999
100
AcDbArc
 50
155.4270199999999
 51
173.9614919999999
  0
ARC
  5
CB2D
330
C7A6
100
AcDbEntity
  8
1
  6
Continuous
100
AcDbCircle
 10
354.878852
 20
128.0124999999999
 30
0.0
 40
1.587499999999999
100
AcDbArc
 50
192.1085089999999
 51
347.8914909999998
  0
LINE
  5
CB2E
330
C7A6
100
AcDbEntity
  8
1
  6
Continuous
100
AcDbLine
 10
350.8788519999998
 20
127.6795
 30
0.0
 11
350.8788519999998
 21
128.1795
 31
0.0
  0
LINE
  5
CB2F
330
C7A6
100
AcDbEntity
  8
1
  6
Continuous
100
AcDbLine
 10
350.8788519999998
 20
127.6795
 30
0.0
 11
358.878852
 21
127.6795
 31
0.0
  0
LINE
  5
CB30
330
C7A6
100
AcDbEntity
  8
1
  6
Continuous
100
AcDbLine
 10
350.8788519999998
 20
128.1795
 30
0.0
 11
358.878852
 21
128.1795
 31
0.0
  0
ARC
  5
CB31
330
C7A6
100
AcDbEntity
  8
1
  6
Continuous
100
AcDbCircle
 10
349.878852
 20
114.3205
 30
0.0
 40
1.0
100
AcDbArc
 50
0.0
 51
180.0
  0
LINE
  5
CB32
330
C7A6
100
AcDbEntity
  8
1
  6
Continuous
100
AcDbLine
 10
330.878852
 20
113.8204999999999
 30
0.0
 11
338.8788519999998
 21
113.8204999999999
 31
0.0
  0
LINE
  5
CB33
330
C7A6
100
AcDbEntity
  8
1
  6
Continuous
100
AcDbLine
 10
330.878852
 20
114.3205
 30
0.0
 11
338.8788519999998
 21
114.3205
 31
0.0
  0
ARC
  5
CB34
330
C7A6
100
AcDbEntity
  8
1
  6
Continuous
100
AcDbCircle
 10
329.878852
 20
114.3205
 30
0.0
 40
1.0
100
AcDbArc
 50
0.0
 51
180.0
  0
LINE
  5
CB35
330
C7A6
100
AcDbEntity
  8
1
  6
Continuous
100
AcDbLine
 10
328.878852
 20
114.3205
 30
0.0
 11
328.878852
 21
113.8204999999999
 31
0.0
  0
LINE
  5
CB36
330
C7A6
100
AcDbEntity
  8
1
  6
Continuous
100
AcDbLine
 10
330.878852
 20
114.3205
 30
0.0
 11
330.878852
 21
113.8204999999999
 31
0.0
  0
LINE
  5
CB37
330
C7A6
100
AcDbEntity
  8
1
  6
Continuous
100
AcDbLine
 10
340.8788519999998
 20
113.8204999999999
 30
0.0
 11
348.8788519999998
 21
113.8204999999999
 31
0.0
  0
LINE
  5
CB38
330
C7A6
100
AcDbEntity
  8
1
  6
Continuous
100
AcDbLine
 10
340.8788519999998
 20
114.3205
 30
0.0
 11
348.8788519999998
 21
114.3205
 31
0.0
  0
ARC
  5
CB39
330
C7A6
100
AcDbEntity
  8
1
  6
Continuous
100
AcDbCircle
 10
344.8788519999998
 20
113.9874999999999
 30
0.0
 40
1.587499999999999
100
AcDbArc
 50
186.038508
 51
204.57298
  0
ARC
  5
CB3A
330
C7A6
100
AcDbEntity
  8
1
  6
Continuous
100
AcDbCircle
 10
344.8788519999998
 20
113.9874999999999
 30
0.0
 40
1.587499999999999
100
AcDbArc
 50
335.4270200000001
 51
353.9614919999999
  0
ARC
  5
CB3B
330
C7A6
100
AcDbEntity
  8
1
  6
Continuous
100
AcDbCircle
 10
344.8788519999998
 20
113.9874999999999
 30
0.0
 40
1.587499999999999
100
AcDbArc
 50
12.108509
 51
167.891491
  0
LINE
  5
CB3C
330
C7A6
100
AcDbEntity
  8
1
  6
Continuous
100
AcDbLine
 10
340.8788519999998
 20
114.3205
 30
0.0
 11
340.8788519999998
 21
113.8204999999999
 31
0.0
  0
LINE
  5
CB3D
330
C7A6
100
AcDbEntity
  8
1
  6
Continuous
100
AcDbLine
 10
348.8788519999998
 20
114.3205
 30
0.0
 11
348.8788519999998
 21
113.8204999999999
 31
0.0
  0
LINE
  5
CB3E
330
C7A6
100
AcDbEntity
  8
1
  6
Continuous
100
AcDbLine
 10
338.8788519999998
 20
114.3205
 30
0.0
 11
338.8788519999998
 21
113.8204999999999
 31
0.0
  0
ARC
  5
CB3F
330
C7A6
100
AcDbEntity
  8
1
  6
Continuous
100
AcDbCircle
 10
339.878852
 20
114.3205
 30
0.0
 40
1.0
100
AcDbArc
 50
0.0
 51
180.0
  0
ARC
  5
CB40
330
C7A6
100
AcDbEntity
  8
1
  6
Continuous
100
AcDbCircle
 10
334.8788519999998
 20
113.9874999999999
 30
0.0
 40
1.587499999999999
100
AcDbArc
 50
12.108509
 51
167.891491
  0
ARC
  5
CB41
330
C7A6
100
AcDbEntity
  8
1
  6
Continuous
100
AcDbCircle
 10
334.8788519999998
 20
113.9874999999999
 30
0.0
 40
1.587499999999999
100
AcDbArc
 50
186.038508
 51
204.57298
  0
ARC
  5
CB42
330
C7A6
100
AcDbEntity
  8
1
  6
Continuous
100
AcDbCircle
 10
334.8788519999998
 20
113.9874999999999
 30
0.0
 40
1.587499999999999
100
AcDbArc
 50
335.4270200000001
 51
353.9614919999999
  0
ARC
  5
CB43
330
C7A6
100
AcDbEntity
  8
1
  6
Continuous
100
AcDbCircle
 10
354.878852
 20
113.9874999999999
 30
0.0
 40
1.587499999999999
100
AcDbArc
 50
335.4270200000001
 51
353.9614919999999
  0
ARC
  5
CB44
330
C7A6
100
AcDbEntity
  8
1
  6
Continuous
100
AcDbCircle
 10
354.878852
 20
113.9874999999999
 30
0.0
 40
1.587499999999999
100
AcDbArc
 50
186.038508
 51
204.57298
  0
ARC
  5
CB45
330
C7A6
100
AcDbEntity
  8
1
  6
Continuous
100
AcDbCircle
 10
354.878852
 20
113.9874999999999
 30
0.0
 40
1.587499999999999
100
AcDbArc
 50
12.108509
 51
167.891491
  0
LINE
  5
CB46
330
C7A6
100
AcDbEntity
  8
1
  6
Continuous
100
AcDbLine
 10
350.8788519999998
 20
114.3205
 30
0.0
 11
350.8788519999998
 21
113.8204999999999
 31
0.0
  0
LINE
  5
CB47
330
C7A6
100
AcDbEntity
  8
1
  6
Continuous
100
AcDbLine
 10
350.8788519999998
 20
114.3205
 30
0.0
 11
358.878852
 21
114.3205
 31
0.0
  0
LINE
  5
CB48
330
C7A6
100
AcDbEntity
  8
1
  6
Continuous
100
AcDbLine
 10
350.8788519999998
 20
113.8204999999999
 30
0.0
 11
358.878852
 21
113.8204999999999
 31
0.0
  0
LINE
  5
CB49
330
C7A6
100
AcDbEntity
  8
1
  6
Continuous
100
AcDbLine
 10
318.878852
 20
193.8
 30
0.0
 11
310.878852
 21
193.8
 31
0.0
  0
LINE
  5
CB4A
330
C7A6
100
AcDbEntity
  8
1
  6
Continuous
100
AcDbLine
 10
310.878852
 20
193.8
 30
0.0
 11
310.878852
 21
193.921929
 31
0.0
  0
LINE
  5
CB4B
330
C7A6
100
AcDbEntity
  8
1
  6
Continuous
100
AcDbLine
 10
338.8788519999998
 20
193.8
 30
0.0
 11
330.878852
 21
193.8
 31
0.0
  0
LINE
  5
CB4C
330
C7A6
100
AcDbEntity
  8
1
  6
Continuous
100
AcDbLine
 10
330.878852
 20
193.8
 30
0.0
 11
330.878852
 21
193.921929
 31
0.0
  0
LINE
  5
CB4D
330
C7A6
100
AcDbEntity
  8
1
  6
Continuous
100
AcDbLine
 10
328.878852
 20
193.921929
 30
0.0
 11
328.878852
 21
193.8
 31
0.0
  0
LINE
  5
CB4E
330
C7A6
100
AcDbEntity
  8
1
  6
Continuous
100
AcDbLine
 10
320.878852
 20
193.8
 30
0.0
 11
320.878852
 21
193.921929
 31
0.0
  0
LINE
  5
CB4F
330
C7A6
100
AcDbEntity
  8
1
  6
Continuous
100
AcDbLine
 10
328.878852
 20
193.8
 30
0.0
 11
320.878852
 21
193.8
 31
0.0
  0
LINE
  5
CB50
330
C7A6
100
AcDbEntity
  8
1
  6
Continuous
100
AcDbLine
 10
318.878852
 20
193.921929
 30
0.0
 11
318.878852
 21
193.8
 31
0.0
  0
LINE
  5
CB51
330
C7A6
100
AcDbEntity
  8
1
  6
Continuous
100
AcDbLine
 10
338.8788519999998
 20
193.921929
 30
0.0
 11
338.8788519999998
 21
193.8
 31
0.0
  0
LINE
  5
CB52
330
C7A6
100
AcDbEntity
  8
1
  6
Continuous
100
AcDbLine
 10
358.878852
 20
193.8
 30
0.0
 11
350.8788519999998
 21
193.8
 31
0.0
  0
LINE
  5
CB53
330
C7A6
100
AcDbEntity
  8
1
  6
Continuous
100
AcDbLine
 10
348.8788519999998
 20
193.8
 30
0.0
 11
340.8788519999998
 21
193.8
 31
0.0
  0
LINE
  5
CB54
330
C7A6
100
AcDbEntity
  8
1
  6
Continuous
100
AcDbLine
 10
340.8788519999998
 20
193.8
 30
0.0
 11
340.8788519999998
 21
193.921929
 31
0.0
  0
LINE
  5
CB55
330
C7A6
100
AcDbEntity
  8
1
  6
Continuous
100
AcDbLine
 10
348.8788519999998
 20
193.921929
 30
0.0
 11
348.8788519999998
 21
193.8
 31
0.0
  0
LINE
  5
CB56
330
C7A6
100
AcDbEntity
  8
1
  6
Continuous
100
AcDbLine
 10
350.8788519999998
 20
193.8
 30
0.0
 11
350.8788519999998
 21
193.921929
 31
0.0
  0
LINE
  5
CB57
330
C7A6
100
AcDbEntity
  8
1
  6
Continuous
100
AcDbLine
 10
358.878852
 20
193.921929
 30
0.0
 11
358.878852
 21
193.8
 31
0.0
  0
LINE
  5
CB58
330
C7A6
100
AcDbEntity
  8
1
  6
Continuous
100
AcDbLine
 10
318.878852
 20
48.2
 30
0.0
 11
310.878852
 21
48.2
 31
0.0
  0
LINE
  5
CB59
330
C7A6
100
AcDbEntity
  8
1
  6
Continuous
100
AcDbLine
 10
310.878852
 20
48.2
 30
0.0
 11
310.878852
 21
48.078071
 31
0.0
  0
LINE
  5
CB5A
330
C7A6
100
AcDbEntity
  8
1
  6
Continuous
100
AcDbLine
 10
338.8788519999998
 20
48.2
 30
0.0
 11
330.878852
 21
48.2
 31
0.0
  0
LINE
  5
CB5B
330
C7A6
100
AcDbEntity
  8
1
  6
Continuous
100
AcDbLine
 10
318.878852
 20
48.078071
 30
0.0
 11
318.878852
 21
48.2
 31
0.0
  0
LINE
  5
CB5C
330
C7A6
100
AcDbEntity
  8
1
  6
Continuous
100
AcDbLine
 10
328.878852
 20
48.2
 30
0.0
 11
320.878852
 21
48.2
 31
0.0
  0
LINE
  5
CB5D
330
C7A6
100
AcDbEntity
  8
1
  6
Continuous
100
AcDbLine
 10
320.878852
 20
48.2
 30
0.0
 11
320.878852
 21
48.078071
 31
0.0
  0
LINE
  5
CB5E
330
C7A6
100
AcDbEntity
  8
1
  6
Continuous
100
AcDbLine
 10
328.878852
 20
48.078071
 30
0.0
 11
328.878852
 21
48.2
 31
0.0
  0
LINE
  5
CB5F
330
C7A6
100
AcDbEntity
  8
1
  6
Continuous
100
AcDbLine
 10
330.878852
 20
48.2
 30
0.0
 11
330.878852
 21
48.078071
 31
0.0
  0
LINE
  5
CB60
330
C7A6
100
AcDbEntity
  8
1
  6
Continuous
100
AcDbLine
 10
338.8788519999998
 20
48.078071
 30
0.0
 11
338.8788519999998
 21
48.2
 31
0.0
  0
LINE
  5
CB61
330
C7A6
100
AcDbEntity
  8
1
  6
Continuous
100
AcDbLine
 10
348.8788519999998
 20
48.2
 30
0.0
 11
340.8788519999998
 21
48.2
 31
0.0
  0
LINE
  5
CB62
330
C7A6
100
AcDbEntity
  8
1
  6
Continuous
100
AcDbLine
 10
340.8788519999998
 20
48.2
 30
0.0
 11
340.8788519999998
 21
48.078071
 31
0.0
  0
LINE
  5
CB63
330
C7A6
100
AcDbEntity
  8
1
  6
Continuous
100
AcDbLine
 10
348.8788519999998
 20
48.078071
 30
0.0
 11
348.8788519999998
 21
48.2
 31
0.0
  0
LINE
  5
CB64
330
C7A6
100
AcDbEntity
  8
1
  6
Continuous
100
AcDbLine
 10
358.878852
 20
48.078071
 30
0.0
 11
358.878852
 21
48.2
 31
0.0
  0
LINE
  5
CB65
330
C7A6
100
AcDbEntity
  8
1
  6
Continuous
100
AcDbLine
 10
350.8788519999998
 20
48.2
 30
0.0
 11
350.8788519999998
 21
48.078071
 31
0.0
  0
LINE
  5
CB66
330
C7A6
100
AcDbEntity
  8
1
  6
Continuous
100
AcDbLine
 10
358.878852
 20
48.2
 30
0.0
 11
350.8788519999998
 21
48.2
 31
0.0
  0
LINE
  5
CB67
330
C7A6
100
AcDbEntity
  8
5
  6
PHANTOM
100
AcDbLine
 10
468.078852
 20
114.85
 30
0.0
 11
568.078852
 21
114.85
 31
0.0
  0
LINE
  5
CB68
330
C7A6
100
AcDbEntity
  8
5
  6
PHANTOM
100
AcDbLine
 10
568.078852
 20
127.15
 30
0.0
 11
468.078852
 21
127.15
 31
0.0
  0
LINE
  5
CB69
330
C7A6
100
AcDbEntity
  8
5
  6
PHANTOM
100
AcDbLine
 10
468.078852
 20
127.15
 30
0.0
 11
468.078852
 21
114.85
 31
0.0
  0
CIRCLE
  5
CB6A
330
C7A6
100
AcDbEntity
  8
5
  6
PHANTOM
100
AcDbCircle
 10
488.078852
 20
121.0
 30
0.0
 40
1.2295
  0
LINE
  5
CB6B
330
C7A6
100
AcDbEntity
  8
4
  6
CENTER
100
AcDbLine
 10
488.078852
 20
125.2156339999999
 30
0.0
 11
488.078852
 21
116.706597
 31
0.0
  0
CIRCLE
  5
CB6C
330
C7A6
100
AcDbEntity
  8
5
  6
PHANTOM
100
AcDbCircle
 10
488.078852
 20
121.0
 30
0.0
 40
1.5
  0
CIRCLE
  5
CB6D
330
C7A6
100
AcDbEntity
  8
5
  6
PHANTOM
100
AcDbCircle
 10
548.0788519999999
 20
121.0
 30
0.0
 40
1.2295
  0
LINE
  5
CB6E
330
C7A6
100
AcDbEntity
  8
4
  6
CENTER
100
AcDbLine
 10
548.0788519999999
 20
125.263981
 30
0.0
 11
548.0788519999999
 21
116.899985
 31
0.0
  0
CIRCLE
  5
CB6F
330
C7A6
100
AcDbEntity
  8
5
  6
PHANTOM
100
AcDbCircle
 10
548.0788519999999
 20
121.0
 30
0.0
 40
1.5
  0
LINE
  5
CB70
330
C7A6
100
AcDbEntity
  8
5
  6
PHANTOM
100
AcDbLine
 10
568.078852
 20
126.2999999999999
 30
0.0
 11
568.078852
 21
127.15
 31
0.0
  0
LINE
  5
CB71
330
C7A6
100
AcDbEntity
  8
5
  6
PHANTOM
100
AcDbLine
 10
568.078852
 20
115.7
 30
0.0
 11
568.078852
 21
114.85
 31
0.0
  0
ENDSEC
  0
SECTION
  2
OBJECTS
  0
DICTIONARY
  5
C794
330
0
100
AcDbDictionary
281
     1
  3
ACAD_CIP_PREVIOUS_PRODUCT_INFO
350
CBD1
  3
ACAD_COLOR
350
CBB3
  3
ACAD_DETAILVIEWSTYLE
350
CBCC
  3
ACAD_GROUP
350
C795
  3
ACAD_LAYOUT
350
C7A1
  3
ACAD_MATERIAL
350
CB81
  3
ACAD_MLEADERSTYLE
350
CBC8
  3
ACAD_MLINESTYLE
350
C79E
  3
ACAD_PLOTSETTINGS
350
C7A0
  3
ACAD_PLOTSTYLENAME
350
CB7F
  3
ACAD_SCALELIST
350
CBB6
  3
ACAD_SECTIONVIEWSTYLE
350
CBCA
  3
ACAD_TABLESTYLE
350
CBB4
  3
ACAD_VISUALSTYLE
350
CB9A
  3
ACDB_RECOMPOSE_DATA
350
CBEF
  3
AcDbVariableDictionary
350
CBE2
  3
DWGPROPS
350
CBF0
  0
DICTIONARY
  5
CBD2
330
C798
100
AcDbDictionary
280
     1
281
     1
  3
ADSK_XREC_LAYER_RECONCILED
360
CBD3
  0
DICTIONARY
  5
CBD4
330
C7AE
100
AcDbDictionary
280
     1
281
     1
  3
ADSK_XREC_LAYER_RECONCILED
360
CBD5
  0
DICTIONARY
  5
CBD6
330
C7AF
100
AcDbDictionary
280
     1
281
     1
  3
ADSK_XREC_LAYER_RECONCILED
360
CBD7
  0
DICTIONARY
  5
CBD8
330
C7B0
100
AcDbDictionary
280
     1
281
     1
  3
ADSK_XREC_LAYER_RECONCILED
360
CBD9
  0
DICTIONARY
  5
CBDA
330
C7B1
100
AcDbDictionary
280
     1
281
     1
  3
ADSK_XREC_LAYER_RECONCILED
360
CBDB
  0
DICTIONARY
  5
CBDC
330
C7B2
100
AcDbDictionary
280
     1
281
     1
  3
ADSK_XREC_LAYER_RECONCILED
360
CBDD
  0
DICTIONARY
  5
CBDE
330
C7B3
100
AcDbDictionary
280
     1
281
     1
  3
ADSK_XREC_LAYER_RECONCILED
360
CBDF
  0
DICTIONARY
  5
CBE0
330
C7B4
100
AcDbDictionary
280
     1
281
     1
  3
ADSK_XREC_LAYER_RECONCILED
360
CBE1
  0
DICTIONARY
  5
CB7A
330
C7A6
100
AcDbDictionary
281
     1
  3
ACAD_LAYOUTSELFREF
350
CB7B
  0
DICTIONARY
  5
CB78
330
C7A2
100
AcDbDictionary
281
     1
  3
ACAD_LAYOUTSELFREF
350
CB79
  0
XRECORD
  5
CBD1
102
{ACAD_REACTORS
330
C794
102
}
330
C794
100
AcDbXrecord
280
     1
300
ACDLT
300
2014
300
ACDLT_F_S
  0
DICTIONARY
  5
CBB3
102
{ACAD_REACTORS
330
C794
102
}
330
C794
100
AcDbDictionary
281
     1
  0
DICTIONARY
  5
CBCC
102
{ACAD_REACTORS
330
C794
102
}
330
C794
100
AcDbDictionary
281
     1
  3
Imperial24
350
CBCD
  0
DICTIONARY
  5
C795
102
{ACAD_REACTORS
330
C794
102
}
330
C794
100
AcDbDictionary
281
     1
  0
DICTIONARY
  5
C7A1
102
{ACAD_REACTORS
330
C794
102
}
330
C794
100
AcDbDictionary
281
     1
  3
Model
350
CBCE
  3
レイアウト1
350
CBCF
  0
DICTIONARY
  5
CB81
102
{ACAD_REACTORS
330
C794
102
}
330
C794
100
AcDbDictionary
281
     1
  3
ByBlock
350
CB8A
  3
ByLayer
350
CB82
  3
Global
350
CB92
  0
DICTIONARY
  5
CBC8
102
{ACAD_REACTORS
330
C794
102
}
330
C794
100
AcDbDictionary
281
     1
  3
Standard
350
CBC9
  0
DICTIONARY
  5
C79E
102
{ACAD_REACTORS
330
C794
102
}
330
C794
100
AcDbDictionary
281
     1
  3
STANDARD
350
C79F
  0
DICTIONARY
  5
C7A0
102
{ACAD_REACTORS
330
C794
102
}
330
C794
100
AcDbDictionary
281
     1
  0
ACDBDICTIONARYWDFLT
  5
CB7F
102
{ACAD_REACTORS
330
C794
102
}
330
C794
100
AcDbDictionary
281
     1
  3
Normal
350
CB80
100
AcDbDictionaryWithDefault
340
CB80
  0
DICTIONARY
  5
CBB6
102
{ACAD_REACTORS
330
C794
102
}
330
C794
100
AcDbDictionary
281
     1
  3
A0
350
CBB7
  3
A1
350
CBB8
  3
A2
350
CBB9
  3
A3
350
CBBA
  3
A4
350
CBBB
  3
A5
350
CBBC
  3
A6
350
CBBD
  3
A7
350
CBBE
  3
A8
350
CBBF
  3
A9
350
CBC0
  3
B0
350
CBC1
  3
B1
350
CBC2
  3
B2
350
CBC3
  3
B3
350
CBC4
  3
B4
350
CBC5
  3
B5
350
CBC6
  3
B6
350
CBC7
  0
DICTIONARY
  5
CBCA
102
{ACAD_REACTORS
330
C794
102
}
330
C794
100
AcDbDictionary
281
     1
  3
Imperial24
350
CBCB
  0
DICTIONARY
  5
CBB4
102
{ACAD_REACTORS
330
C794
102
}
330
C794
100
AcDbDictionary
281
     1
  3
Standard
350
CBB5
  0
DICTIONARY
  5
CB9A
102
{ACAD_REACTORS
330
C794
102
}
330
C794
100
AcDbDictionary
281
     1
  3
2dWireframe
350
CBA0
  3
Basic
350
CB9F
  3
Brighten
350
CBA6
  3
ColorChange
350
CBAA
  3
Conceptual
350
CBA3
  3
Dim
350
CBA5
  3
EdgeColorOff
350
CBB2
  3
Facepattern
350
CBA9
  3
Flat
350
CB9B
  3
FlatWithEdges
350
CB9C
  3
Gouraud
350
CB9D
  3
GouraudWithEdges
350
CB9E
  3
Hidden
350
CBA2
  3
JitterOff
350
CBB0
  3
Linepattern
350
CBA8
  3
OverhangOff
350
CBB1
  3
Realistic
350
CBA4
  3
Shaded
350
CBAF
  3
Shaded with edges
350
CBAE
  3
Shades of Gray
350
CBAB
  3
Sketchy
350
CBAC
  3
Thicken
350
CBA7
  3
Wireframe
350
CBA1
  3
X-Ray
350
CBAD
  0
XRECORD
  5
CBEF
102
{ACAD_REACTORS
330
C794
102
}
330
C794
100
AcDbXrecord
280
     1
 90
        1
330
CBB5
  0
DICTIONARY
  5
CBE2
102
{ACAD_REACTORS
330
C794
102
}
330
C794
100
AcDbDictionary
281
     1
  3
CANNOSCALE
350
CBE7
  3
CMLEADERSTYLE
350
CBE4
  3
CTABLESTYLE
350
CBE3
  3
CVIEWDETAILSTYLE
350
CBE5
  3
CVIEWSECTIONSTYLE
350
CBE6
  3
DIMASSOC
350
CBEA
  3
INDEXCTL
350
CBE9
  3
SORTENTS
350
CBE8
  3
XCLIPFRAME
350
CBEB
  0
XRECORD
  5
CBF0
102
{ACAD_REACTORS
330
C794
102
}
330
C794
100
AcDbXrecord
280
     1
  1
DWGPROPS COOKIE
  2

  3

  4

  6

  7

  8
Yoshitsune
  9

300
=
301
=
302
=
303
=
304
=
305
=
306
=
307
=
308
=
309
=
 40
0.0000150810185185
 41
2451233.433066435
 42
2457192.66194765
  1

 90
        0
  0
XRECORD
  5
CBD3
102
{ACAD_REACTORS
330
CBD2
102
}
330
CBD2
100
AcDbXrecord
280
     1
290
     1
  0
XRECORD
  5
CBD5
102
{ACAD_REACTORS
330
CBD4
102
}
330
CBD4
100
AcDbXrecord
280
     1
290
     1
  0
XRECORD
  5
CBD7
102
{ACAD_REACTORS
330
CBD6
102
}
330
CBD6
100
AcDbXrecord
280
     1
290
     1
  0
XRECORD
  5
CBD9
102
{ACAD_REACTORS
330
CBD8
102
}
330
CBD8
100
AcDbXrecord
280
     1
290
     1
  0
XRECORD
  5
CBDB
102
{ACAD_REACTORS
330
CBDA
102
}
330
CBDA
100
AcDbXrecord
280
     1
290
     1
  0
XRECORD
  5
CBDD
102
{ACAD_REACTORS
330
CBDC
102
}
330
CBDC
100
AcDbXrecord
280
     1
290
     1
  0
XRECORD
  5
CBDF
102
{ACAD_REACTORS
330
CBDE
102
}
330
CBDE
100
AcDbXrecord
280
     1
290
     1
  0
XRECORD
  5
CBE1
102
{ACAD_REACTORS
330
CBE0
102
}
330
CBE0
100
AcDbXrecord
280
     1
290
     1
  0
XRECORD
  5
CB7B
102
{ACAD_REACTORS
330
CB7A
102
}
330
CB7A
100
AcDbXrecord
280
     1
340
C7A6
  0
XRECORD
  5
CB79
102
{ACAD_REACTORS
330
CB78
102
}
330
CB78
100
AcDbXrecord
280
     1
340
C7A2
  0
ACDBDETAILVIEWSTYLE
  5
CBCD
102
{ACAD_XDICTIONARY
360
CC28
102
}
102
{ACAD_REACTORS
330
CBCC
102
}
330
CBCC
100
AcDbModelDocViewStyle
 70
     0
  3
Imperial24
290
     0
100
AcDbDetailViewStyle
 70
     0
 71
     0
 90
        3
 71
     1
340
C799
 40
0.24
340
0
 40
0.24
300

 40
0.36
280
     3
 71
     2
340
C79D
 90
       25
 71
     3
340
C799
 40
0.24
 90
        1
 40
0.75
 90
        1
300
%<\AcVar ViewType \f "%tc1">% %<\AcVar ViewDetailId>%\PSCALE %<\AcVar ViewScale \f "%sn">%
 71
     4
340
C79D
 90
       25
340
C79D
 90
       25
280
     0
  0
LAYOUT
  5
CBCE
102
{ACAD_XDICTIONARY
360
CC2A
102
}
102
{ACAD_REACTORS
330
C7A1
102
}
330
C7A1
100
AcDbPlotSettings
  1

  2
Canon LBP9100C
  4

  6

 40
0.0
 41
0.0
 42
0.0
 43
0.0
 44
0.0
 45
0.0
 46
0.0
 47
0.0
 48
0.0
 49
0.0
140
0.0
141
0.0
142
1.0
143
1.0
 70
  1712
 72
     0
 73
     0
 74
     0
  7

 75
     0
147
1.0
148
0.0
149
0.0
100
AcDbLayout
  1
Model
 70
     1
 71
     0
 10
0.0
 20
0.0
 11
12.0
 21
9.0
 12
0.0
 22
0.0
 32
0.0
 14
0.0
 24
0.0
 34
0.0
 15
0.0
 25
0.0
 35
0.0
146
0.0
 13
0.0
 23
0.0
 33
0.0
 16
1.0
 26
0.0
 36
0.0
 17
0.0
 27
1.0
 37
0.0
 76
     0
330
C7A6
331
CB77
  0
LAYOUT
  5
CBCF
102
{ACAD_XDICTIONARY
360
CC2C
102
}
102
{ACAD_REACTORS
330
C7A1
102
}
330
C7A1
100
AcDbPlotSettings
  1

  2
Canon LBP9100C
  4

  6

 40
0.0
 41
0.0
 42
0.0
 43
0.0
 44
0.0
 45
0.0
 46
0.0
 47
0.0
 48
0.0
 49
0.0
140
0.0
141
0.0
142
1.0
143
1.0
 70
   688
 72
     0
 73
     0
 74
     5
  7

 75
    16
147
1.0
148
0.0
149
0.0
100
AcDbLayout
  1
レイアウト1
 70
     0
 71
     1
 10
0.0
 20
0.0
 11
420.0
 21
297.0
 12
0.0
 22
0.0
 32
0.0
 14
1.000000000000000E+20
 24
1.000000000000000E+20
 34
1.000000000000000E+20
 15
-1.000000000000000E+20
 25
-1.000000000000000E+20
 35
-1.000000000000000E+20
146
0.0
 13
0.0
 23
0.0
 33
0.0
 16
1.0
 26
0.0
 36
0.0
 17
0.0
 27
1.0
 37
0.0
 76
     0
330
C7A2
  0
MATERIAL
  5
CB8A
102
{ACAD_XDICTIONARY
360
CB8B
102
}
102
{ACAD_REACTORS
330
CB81
102
}
330
CB81
100
AcDbMaterial
  1
ByBlock
 72
     0
 43
0.0208333333333333
 43
0.0
 43
0.0
 43
0.0
 43
0.0
 43
0.0208333333333333
 43
0.0
 43
0.0
 43
0.0
 43
0.0
 43
1.0
 43
0.0
 43
0.0
 43
0.0
 43
0.0
 43
1.0
 77
     0
 47
0.0208333333333333
 47
0.0
 47
0.0
 47
0.0
 47
0.0
 47
0.0208333333333333
 47
0.0
 47
0.0
 47
0.0
 47
0.0
 47
1.0
 47
0.0
 47
0.0
 47
0.0
 47
0.0
 47
1.0
171
     0
 49
0.0208333333333333
 49
0.0
 49
0.0
 49
0.0
 49
0.0
 49
0.0208333333333333
 49
0.0
 49
0.0
 49
0.0
 49
0.0
 49
1.0
 49
0.0
 49
0.0
 49
0.0
 49
0.0
 49
1.0
175
     0
142
0.0208333333333333
142
0.0
142
0.0
142
0.0
142
0.0
142
0.0208333333333333
142
0.0
142
0.0
142
0.0
142
0.0
142
1.0
142
0.0
142
0.0
142
0.0
142
0.0
142
1.0
179
     0
144
0.0208333333333333
144
0.0
144
0.0
144
0.0
144
0.0
144
0.0208333333333333
144
0.0
144
0.0
144
0.0
144
0.0
144
1.0
144
0.0
144
0.0
144
0.0
144
0.0
144
1.0
147
0.0208333333333333
147
0.0
147
0.0
147
0.0
147
0.0
147
0.0208333333333333
147
0.0
147
0.0
147
0.0
147
0.0
147
1.0
147
0.0
147
0.0
147
0.0
147
0.0
147
1.0
  0
MATERIAL
  5
CB82
102
{ACAD_XDICTIONARY
360
CB83
102
}
102
{ACAD_REACTORS
330
CB81
102
}
330
CB81
100
AcDbMaterial
  1
ByLayer
 72
     0
 43
0.0208333333333333
 43
0.0
 43
0.0
 43
0.0
 43
0.0
 43
0.0208333333333333
 43
0.0
 43
0.0
 43
0.0
 43
0.0
 43
1.0
 43
0.0
 43
0.0
 43
0.0
 43
0.0
 43
1.0
 77
     0
 47
0.0208333333333333
 47
0.0
 47
0.0
 47
0.0
 47
0.0
 47
0.0208333333333333
 47
0.0
 47
0.0
 47
0.0
 47
0.0
 47
1.0
 47
0.0
 47
0.0
 47
0.0
 47
0.0
 47
1.0
171
     0
 49
0.0208333333333333
 49
0.0
 49
0.0
 49
0.0
 49
0.0
 49
0.0208333333333333
 49
0.0
 49
0.0
 49
0.0
 49
0.0
 49
1.0
 49
0.0
 49
0.0
 49
0.0
 49
0.0
 49
1.0
175
     0
142
0.0208333333333333
142
0.0
142
0.0
142
0.0
142
0.0
142
0.0208333333333333
142
0.0
142
0.0
142
0.0
142
0.0
142
1.0
142
0.0
142
0.0
142
0.0
142
0.0
142
1.0
179
     0
144
0.0208333333333333
144
0.0
144
0.0
144
0.0
144
0.0
144
0.0208333333333333
144
0.0
144
0.0
144
0.0
144
0.0
144
1.0
144
0.0
144
0.0
144
0.0
144
0.0
144
1.0
147
0.0208333333333333
147
0.0
147
0.0
147
0.0
147
0.0
147
0.0208333333333333
147
0.0
147
0.0
147
0.0
147
0.0
147
1.0
147
0.0
147
0.0
147
0.0
147
0.0
147
1.0
  0
MATERIAL
  5
CB92
102
{ACAD_XDICTIONARY
360
CB93
102
}
102
{ACAD_REACTORS
330
CB81
102
}
330
CB81
100
AcDbMaterial
  1
Global
 72
     0
 43
0.0208333333333333
 43
0.0
 43
0.0
 43
0.0
 43
0.0
 43
0.0208333333333333
 43
0.0
 43
0.0
 43
0.0
 43
0.0
 43
1.0
 43
0.0
 43
0.0
 43
0.0
 43
0.0
 43
1.0
 77
     0
 47
0.0208333333333333
 47
0.0
 47
0.0
 47
0.0
 47
0.0
 47
0.0208333333333333
 47
0.0
 47
0.0
 47
0.0
 47
0.0
 47
1.0
 47
0.0
 47
0.0
 47
0.0
 47
0.0
 47
1.0
171
     0
 49
0.0208333333333333
 49
0.0
 49
0.0
 49
0.0
 49
0.0
 49
0.0208333333333333
 49
0.0
 49
0.0
 49
0.0
 49
0.0
 49
1.0
 49
0.0
 49
0.0
 49
0.0
 49
0.0
 49
1.0
175
     0
142
0.0208333333333333
142
0.0
142
0.0
142
0.0
142
0.0
142
0.0208333333333333
142
0.0
142
0.0
142
0.0
142
0.0
142
1.0
142
0.0
142
0.0
142
0.0
142
0.0
142
1.0
179
     0
144
0.0208333333333333
144
0.0
144
0.0
144
0.0
144
0.0
144
0.0208333333333333
144
0.0
144
0.0
144
0.0
144
0.0
144
1.0
144
0.0
144
0.0
144
0.0
144
0.0
144
1.0
147
0.0208333333333333
147
0.0
147
0.0
147
0.0
147
0.0
147
0.0208333333333333
147
0.0
147
0.0
147
0.0
147
0.0
147
1.0
147
0.0
147
0.0
147
0.0
147
0.0
147
1.0
  0
MLEADERSTYLE
  5
CBC9
102
{ACAD_REACTORS
330
CBC8
102
}
330
CBC8
100
AcDbMLeaderStyle
170
     2
171
     1
172
     0
 90
        2
 40
0.0
 41
0.0
173
     1
 91
-1056964608
340
C79B
 92
       -2
290
     1
 42
0.09
291
     1
 43
0.36
  3
Standard
 44
0.18
300

342
C799
174
     1
178
     6
175
     1
176
     0
 93
-1056964608
 45
0.18
292
     0
297
     0
 46
0.18
 94
-1056964608
 47
1.0
 49
1.0
140
1.0
293
     1
141
0.0
294
     1
177
     0
142
1.0
295
     0
296
     0
143
0.125
1001
ACAD_MLEADERVER
1070
     2
  0
MLINESTYLE
  5
C79F
102
{ACAD_REACTORS
330
C79E
102
}
330
C79E
100
AcDbMlineStyle
  2
STANDARD
 70
     0
  3

 62
   256
 51
90.0
 52
90.0
 71
     2
 49
0.5
 62
   256
  6
BYLAYER
 49
-0.5
 62
   256
  6
BYLAYER
  0
ACDBPLACEHOLDER
  5
CB80
102
{ACAD_REACTORS
330
CB7F
102
}
330
CB7F
  0
SCALE
  5
CBB7
102
{ACAD_REACTORS
330
CBB6
102
}
330
CBB6
100
AcDbScale
 70
     0
300
1:1
140
1.0
141
1.0
290
     1
  0
SCALE
  5
CBB8
102
{ACAD_REACTORS
330
CBB6
102
}
330
CBB6
100
AcDbScale
 70
     0
300
1/128" = 1'-0"
140
0.0078125
141
12.0
290
     0
  0
SCALE
  5
CBB9
102
{ACAD_REACTORS
330
CBB6
102
}
330
CBB6
100
AcDbScale
 70
     0
300
1/64" = 1'-0"
140
0.015625
141
12.0
290
     0
  0
SCALE
  5
CBBA
102
{ACAD_REACTORS
330
CBB6
102
}
330
CBB6
100
AcDbScale
 70
     0
300
1/32" = 1'-0"
140
0.03125
141
12.0
290
     0
  0
SCALE
  5
CBBB
102
{ACAD_REACTORS
330
CBB6
102
}
330
CBB6
100
AcDbScale
 70
     0
300
1/16" = 1'-0"
140
0.0625
141
12.0
290
     0
  0
SCALE
  5
CBBC
102
{ACAD_REACTORS
330
CBB6
102
}
330
CBB6
100
AcDbScale
 70
     0
300
3/32" = 1'-0"
140
0.09375
141
12.0
290
     0
  0
SCALE
  5
CBBD
102
{ACAD_REACTORS
330
CBB6
102
}
330
CBB6
100
AcDbScale
 70
     0
300
1/8" = 1'-0"
140
0.125
141
12.0
290
     0
  0
SCALE
  5
CBBE
102
{ACAD_REACTORS
330
CBB6
102
}
330
CBB6
100
AcDbScale
 70
     0
300
3/16" = 1'-0"
140
0.1875
141
12.0
290
     0
  0
SCALE
  5
CBBF
102
{ACAD_REACTORS
330
CBB6
102
}
330
CBB6
100
AcDbScale
 70
     0
300
1/4" = 1'-0"
140
0.25
141
12.0
290
     0
  0
SCALE
  5
CBC0
102
{ACAD_REACTORS
330
CBB6
102
}
330
CBB6
100
AcDbScale
 70
     0
300
3/8" = 1'-0"
140
0.375
141
12.0
290
     0
  0
SCALE
  5
CBC1
102
{ACAD_REACTORS
330
CBB6
102
}
330
CBB6
100
AcDbScale
 70
     0
300
1/2" = 1'-0"
140
0.5
141
12.0
290
     0
  0
SCALE
  5
CBC2
102
{ACAD_REACTORS
330
CBB6
102
}
330
CBB6
100
AcDbScale
 70
     0
300
3/4" = 1'-0"
140
0.75
141
12.0
290
     0
  0
SCALE
  5
CBC3
102
{ACAD_REACTORS
330
CBB6
102
}
330
CBB6
100
AcDbScale
 70
     0
300
1" = 1'-0"
140
1.0
141
12.0
290
     0
  0
SCALE
  5
CBC4
102
{ACAD_REACTORS
330
CBB6
102
}
330
CBB6
100
AcDbScale
 70
     0
300
1-1/2" = 1'-0"
140
1.5
141
12.0
290
     0
  0
SCALE
  5
CBC5
102
{ACAD_REACTORS
330
CBB6
102
}
330
CBB6
100
AcDbScale
 70
     0
300
3" = 1'-0"
140
3.0
141
12.0
290
     0
  0
SCALE
  5
CBC6
102
{ACAD_REACTORS
330
CBB6
102
}
330
CBB6
100
AcDbScale
 70
     0
300
6" = 1'-0"
140
6.0
141
12.0
290
     0
  0
SCALE
  5
CBC7
102
{ACAD_REACTORS
330
CBB6
102
}
330
CBB6
100
AcDbScale
 70
     0
300
1'-0" = 1'-0"
140
12.0
141
12.0
290
     0
  0
ACDBSECTIONVIEWSTYLE
  5
CBCB
102
{ACAD_XDICTIONARY
360
CC26
102
}
102
{ACAD_REACTORS
330
CBCA
102
}
330
CBCA
100
AcDbModelDocViewStyle
 70
     0
  3
Imperial24
290
     0
100
AcDbSectionViewStyle
 70
     0
 71
     0
 90
       78
 71
     1
340
C799
 40
0.24
340
0
340
0
 40
0.24
300
I, O, Q, S, X, Z
 40
0.48
 90
        3
 40
0.18
 90
        1
 71
     2
340
C79D
 90
       25
340
C79D
 90
       50
 40
0.24
 40
0.0
 40
0.24
 71
     3
340
C799
 40
0.24
 90
        1
 40
0.75
 90
        1
300
%<\AcVar ViewType \f "%tc1">% %<\AcVar ViewSectionStartId>%-%<\AcVar ViewSectionEndId>%\PSCALE %<\AcVar ViewScale \f "%sn">%
 71
     4
300
ANSI31
 40
1.0
 90
        0
290
     0
290
     0
 90
        6
 40
0.0
 40
1.570796326794896
 40
0.2617993877991494
 40
1.308996938995747
 40
-0.2617993877991494
 40
1.832595714594046
  0
TABLESTYLE
  5
CBB5
102
{ACAD_XDICTIONARY
360
CBED
102
}
102
{ACAD_REACTORS
330
CBB4
102
}
330
CBB4
100
AcDbTableStyle
  3
Standard
 70
     0
 71
     0
 40
0.06
 41
0.06
280
     0
281
     0
  7
STANDARD
140
0.18
170
     2
 62
     0
 63
     7
283
     0
274
    -2
284
     1
 64
     0
275
    -2
285
     1
 65
     0
276
    -2
286
     1
 66
     0
277
    -2
287
     1
 67
     0
278
    -2
288
     1
 68
     0
279
    -2
289
     1
 69
     0
  7
STANDARD
140
0.25
170
     5
 62
     0
 63
     7
283
     0
274
    -2
284
     1
 64
     0
275
    -2
285
     1
 65
     0
276
    -2
286
     1
 66
     0
277
    -2
287
     1
 67
     0
278
    -2
288
     1
 68
     0
279
    -2
289
     1
 69
     0
  7
STANDARD
140
0.18
170
     5
 62
     0
 63
     7
283
     0
274
    -2
284
     1
 64
     0
275
    -2
285
     1
 65
     0
276
    -2
286
     1
 66
     0
277
    -2
287
     1
 67
     0
278
    -2
288
     1
 68
     0
279
    -2
289
     1
 69
     0
  0
VISUALSTYLE
  5
CBA0
102
{ACAD_XDICTIONARY
360
CBFE
102
}
102
{ACAD_REACTORS
330
CB9A
102
}
330
CB9A
100
AcDbVisualStyle
  2
2dWireframe
 70
     4
 71
     0
 72
     2
 73
     0
 90
        0
 40
-0.6
 41
-30.0
 62
     5
 63
     7
 74
     1
 91
        4
 64
     7
 65
   257
 75
     1
175
     1
 42
1.0
 92
        0
 66
   257
 43
1.0
 76
     1
 77
     6
 78
     2
 67
     7
 79
     5
170
     0
171
     0
290
     0
174
     0
 93
        1
 44
0.0
173
     0
291
     0
 45
0.0
1001
ACAD
1000
AcDbSavedByObjectVersion
1070
     0
  0
VISUALSTYLE
  5
CB9F
102
{ACAD_XDICTIONARY
360
CBFC
102
}
102
{ACAD_REACTORS
330
CB9A
102
}
330
CB9A
100
AcDbVisualStyle
  2
Basic
 70
     7
 71
     1
 72
     0
 73
     1
 90
        0
 40
-0.6
 41
-30.0
 62
     5
 63
     7
 74
     0
 91
        4
 64
     7
 65
   257
 75
     1
175
     1
 42
1.0
 92
        8
 66
     7
 43
1.0
 76
     1
 77
     6
 78
     2
 67
     7
 79
     5
170
     0
171
     0
290
     0
174
     0
 93
        1
 44
0.0
173
     0
291
     1
 45
0.0
1001
ACAD
1000
AcDbSavedByObjectVersion
1070
     0
  0
VISUALSTYLE
  5
CBA6
102
{ACAD_XDICTIONARY
360
CC0A
102
}
102
{ACAD_REACTORS
330
CB9A
102
}
330
CB9A
100
AcDbVisualStyle
  2
Brighten
 70
    12
 71
     2
 72
     2
 73
     0
 90
        0
 40
-0.6
 41
-30.0
 62
     5
 63
     7
 74
     1
 91
        4
 64
     7
 65
   257
 75
     1
175
     1
 42
1.0
 92
        8
 66
     7
 43
1.0
 76
     1
 77
     6
 78
     2
 67
     7
 79
     5
170
     0
171
     0
290
     0
174
     0
 93
        1
 44
50.0
173
     0
291
     1
 45
0.0
1001
ACAD
1000
AcDbSavedByObjectVersion
1070
     0
  0
VISUALSTYLE
  5
CBAA
102
{ACAD_XDICTIONARY
360
CC12
102
}
102
{ACAD_REACTORS
330
CB9A
102
}
330
CB9A
100
AcDbVisualStyle
  2
ColorChange
 70
    16
 71
     2
 72
     2
 73
     3
 90
        0
 40
-0.6
 41
-30.0
 62
     5
 63
     8
 74
     1
 91
        4
 64
     7
 65
   257
 75
     1
175
     1
 42
1.0
 92
        8
 66
     8
 43
1.0
 76
     1
 77
     6
 78
     2
 67
     7
 79
     5
170
     0
171
     0
290
     0
174
     0
 93
        1
 44
0.0
173
     0
291
     1
 45
0.0
1001
ACAD
1000
AcDbSavedByObjectVersion
1070
     0
  0
VISUALSTYLE
  5
CBA3
102
{ACAD_XDICTIONARY
360
CC04
102
}
102
{ACAD_REACTORS
330
CB9A
102
}
330
CB9A
100
AcDbVisualStyle
  2
Conceptual
 70
     9
 71
     3
 72
     2
 73
     0
 90
        0
 40
-0.6
 41
-30.0
 62
     5
 63
     7
 74
     2
 91
        2
 64
     7
 65
   257
 75
     1
175
     1
 42
179.0
 92
        8
 66
     7
 43
1.0
 76
     1
 77
     6
 78
     2
 67
     7
 79
     3
170
     0
171
     0
290
     0
174
     0
 93
        1
 44
0.0
173
     0
291
     0
 45
0.0
1001
ACAD
1000
AcDbSavedByObjectVersion
1070
     0
  0
VISUALSTYLE
  5
CBA5
102
{ACAD_XDICTIONARY
360
CC08
102
}
102
{ACAD_REACTORS
330
CB9A
102
}
330
CB9A
100
AcDbVisualStyle
  2
Dim
 70
    11
 71
     2
 72
     2
 73
     0
 90
        0
 40
-0.6
 41
-30.0
 62
     5
 63
     7
 74
     1
 91
        4
 64
     7
 65
   257
 75
     1
175
     1
 42
1.0
 92
        8
 66
     7
 43
1.0
 76
     1
 77
     6
 78
     2
 67
     7
 79
     5
170
     0
171
     0
290
     0
174
     0
 93
        1
 44
-50.0
173
     0
291
     1
 45
0.0
1001
ACAD
1000
AcDbSavedByObjectVersion
1070
     0
  0
VISUALSTYLE
  5
CBB2
102
{ACAD_XDICTIONARY
360
CC22
102
}
102
{ACAD_REACTORS
330
CB9A
102
}
330
CB9A
100
AcDbVisualStyle
  2
EdgeColorOff
 70
    22
 71
     2
 72
     2
 73
     0
 90
        0
 40
-0.6
 41
-30.0
 62
     5
 63
     7
 74
     1
 91
        4
 64
     7
 65
   257
 75
     1
175
     1
 42
1.0
 92
        8
 66
     7
 43
1.0
 76
     1
 77
     6
 78
     2
 67
     7
 79
     5
170
     0
171
     0
290
     0
174
     0
 93
        1
 44
0.0
173
     0
291
     1
 45
0.0
1001
ACAD
1000
AcDbSavedByObjectVersion
1070
     0
  0
VISUALSTYLE
  5
CBA9
102
{ACAD_XDICTIONARY
360
CC10
102
}
102
{ACAD_REACTORS
330
CB9A
102
}
330
CB9A
100
AcDbVisualStyle
  2
Facepattern
 70
    15
 71
     2
 72
     2
 73
     0
 90
        0
 40
-0.6
 41
-30.0
 62
     5
 63
     7
 74
     1
 91
        4
 64
     7
 65
   257
 75
     1
175
     1
 42
1.0
 92
        8
 66
     7
 43
1.0
 76
     1
 77
     6
 78
     2
 67
     7
 79
     5
170
     0
171
     0
290
     0
174
     0
 93
        1
 44
0.0
173
     0
291
     1
 45
0.0
1001
ACAD
1000
AcDbSavedByObjectVersion
1070
     0
  0
VISUALSTYLE
  5
CB9B
102
{ACAD_XDICTIONARY
360
CBF4
102
}
102
{ACAD_REACTORS
330
CB9A
102
}
330
CB9A
100
AcDbVisualStyle
  2
Flat
 70
     0
 71
     2
 72
     1
 73
     1
 90
        2
 40
-0.6
 41
30.0
 62
     5
 63
     7
 74
     0
 91
        0
 64
     7
 65
   257
 75
     1
175
     1
 42
1.0
 92
        8
 66
     7
 43
1.0
 76
     1
 77
     6
 78
     2
 67
     7
 79
     5
170
     0
171
     0
290
     0
174
     0
 93
       13
 44
0.0
173
     0
291
     1
 45
0.0
1001
ACAD
1000
AcDbSavedByObjectVersion
1070
     0
  0
VISUALSTYLE
  5
CB9C
102
{ACAD_XDICTIONARY
360
CBF6
102
}
102
{ACAD_REACTORS
330
CB9A
102
}
330
CB9A
100
AcDbVisualStyle
  2
FlatWithEdges
 70
     1
 71
     2
 72
     1
 73
     1
 90
        2
 40
-0.6
 41
30.0
 62
     5
 63
     7
 74
     1
 91
        0
 64
     7
 65
   257
 75
     1
175
     1
 42
1.0
 92
        0
 66
   257
 43
1.0
 76
     1
 77
     6
 78
     2
 67
     7
 79
     5
170
     0
171
     0
290
     0
174
     0
 93
       13
 44
0.0
173
     0
291
     1
 45
0.0
1001
ACAD
1000
AcDbSavedByObjectVersion
1070
     0
  0
VISUALSTYLE
  5
CB9D
102
{ACAD_XDICTIONARY
360
CBF8
102
}
102
{ACAD_REACTORS
330
CB9A
102
}
330
CB9A
100
AcDbVisualStyle
  2
Gouraud
 70
     2
 71
     2
 72
     2
 73
     1
 90
        2
 40
-0.6
 41
30.0
 62
     5
 63
     7
 74
     0
 91
        0
 64
     7
 65
   257
 75
     1
175
     1
 42
1.0
 92
        0
 66
     7
 43
1.0
 76
     1
 77
     6
 78
     2
 67
     7
 79
     5
170
     0
171
     0
290
     0
174
     0
 93
       13
 44
0.0
173
     0
291
     1
 45
0.0
1001
ACAD
1000
AcDbSavedByObjectVersion
1070
     0
  0
VISUALSTYLE
  5
CB9E
102
{ACAD_XDICTIONARY
360
CBFA
102
}
102
{ACAD_REACTORS
330
CB9A
102
}
330
CB9A
100
AcDbVisualStyle
  2
GouraudWithEdges
 70
     3
 71
     2
 72
     2
 73
     1
 90
        2
 40
-0.6
 41
30.0
 62
     5
 63
     7
 74
     1
 91
        0
 64
     7
 65
   257
 75
     1
175
     1
 42
1.0
 92
        0
 66
   257
 43
1.0
 76
     1
 77
     6
 78
     2
 67
     7
 79
     5
170
     0
171
     0
290
     0
174
     0
 93
       13
 44
0.0
173
     0
291
     1
 45
0.0
1001
ACAD
1000
AcDbSavedByObjectVersion
1070
     0
  0
VISUALSTYLE
  5
CBA2
102
{ACAD_XDICTIONARY
360
CC02
102
}
102
{ACAD_REACTORS
330
CB9A
102
}
330
CB9A
100
AcDbVisualStyle
  2
Hidden
 70
     6
 71
     1
 72
     2
 73
     2
 90
        0
 40
-0.6
 41
-30.0
 62
     5
 63
     7
 74
     2
 91
        2
 64
     7
 65
   257
 75
     2
175
     1
 42
40.0
 92
        0
 66
   257
 43
1.0
 76
     1
 77
     6
 78
     2
 67
     7
 79
     3
170
     0
171
     0
290
     0
174
     0
 93
        1
 44
0.0
173
     0
291
     0
 45
0.0
1001
ACAD
1000
AcDbSavedByObjectVersion
1070
     0
  0
VISUALSTYLE
  5
CBB0
102
{ACAD_XDICTIONARY
360
CC1E
102
}
102
{ACAD_REACTORS
330
CB9A
102
}
330
CB9A
100
AcDbVisualStyle
  2
JitterOff
 70
    20
 71
     2
 72
     2
 73
     0
 90
        0
 40
-0.6
 41
-30.0
 62
     5
 63
     7
 74
     1
 91
        4
 64
     7
 65
   257
 75
     1
175
     1
 42
1.0
 92
       10
 66
     7
 43
1.0
 76
     1
 77
     6
 78
     2
 67
     7
 79
     5
170
     0
171
     0
290
     0
174
     0
 93
        1
 44
0.0
173
     0
291
     1
 45
0.0
1001
ACAD
1000
AcDbSavedByObjectVersion
1070
     0
  0
VISUALSTYLE
  5
CBA8
102
{ACAD_XDICTIONARY
360
CC0E
102
}
102
{ACAD_REACTORS
330
CB9A
102
}
330
CB9A
100
AcDbVisualStyle
  2
Linepattern
 70
    14
 71
     2
 72
     2
 73
     0
 90
        0
 40
-0.6
 41
-30.0
 62
     5
 63
     7
 74
     1
 91
        4
 64
     7
 65
   257
 75
     7
175
     7
 42
1.0
 92
        8
 66
     7
 43
1.0
 76
     1
 77
     6
 78
     2
 67
     7
 79
     5
170
     0
171
     0
290
     0
174
     0
 93
        1
 44
0.0
173
     0
291
     1
 45
0.0
1001
ACAD
1000
AcDbSavedByObjectVersion
1070
     0
  0
VISUALSTYLE
  5
CBB1
102
{ACAD_XDICTIONARY
360
CC20
102
}
102
{ACAD_REACTORS
330
CB9A
102
}
330
CB9A
100
AcDbVisualStyle
  2
OverhangOff
 70
    21
 71
     2
 72
     2
 73
     0
 90
        0
 40
-0.6
 41
-30.0
 62
     5
 63
     7
 74
     1
 91
        4
 64
     7
 65
   257
 75
     1
175
     1
 42
1.0
 92
        9
 66
     7
 43
1.0
 76
     1
 77
     6
 78
     2
 67
     7
 79
     5
170
     0
171
     0
290
     0
174
     0
 93
        1
 44
0.0
173
     0
291
     1
 45
0.0
1001
ACAD
1000
AcDbSavedByObjectVersion
1070
     0
  0
VISUALSTYLE
  5
CBA4
102
{ACAD_XDICTIONARY
360
CC06
102
}
102
{ACAD_REACTORS
330
CB9A
102
}
330
CB9A
100
AcDbVisualStyle
  2
Realistic
 70
     8
 71
     2
 72
     3
 73
     0
 90
        2
 40
-0.6
 41
30.0
 62
     5
 63
     7
 74
     0
 91
        0
 64
     7
 65
   257
 75
     1
175
     1
 42
1.0
 92
        8
 66
   257
 43
1.0
 76
     1
 77
     6
 78
     2
 67
     7
 79
     3
170
     0
171
     0
290
     0
174
     0
 93
       13
 44
0.0
173
     0
291
     0
 45
0.0
1001
ACAD
1000
AcDbSavedByObjectVersion
1070
     0
  0
VISUALSTYLE
  5
CBAF
102
{ACAD_XDICTIONARY
360
CC1C
102
}
102
{ACAD_REACTORS
330
CB9A
102
}
330
CB9A
100
AcDbVisualStyle
  2
Shaded
 70
    27
 71
     2
 72
     2
 73
     1
 90
        2
 40
-0.6
 41
30.0
 62
     5
 63
     7
 74
     0
 91
        4
 64
     7
 65
   257
 75
     1
175
     1
 42
1.0
 92
        8
 66
   257
 43
1.0
 76
     1
 77
     6
 78
     2
 67
     8
 79
     3
170
     0
171
     0
290
     0
174
     0
 93
        5
 44
0.0
173
     0
291
     0
 45
0.0
1001
ACAD
1000
AcDbSavedByObjectVersion
1070
     0
  0
VISUALSTYLE
  5
CBAE
102
{ACAD_XDICTIONARY
360
CC1A
102
}
102
{ACAD_REACTORS
330
CB9A
102
}
330
CB9A
100
AcDbVisualStyle
  2
Shaded with edges
 70
    26
 71
     2
 72
     2
 73
     1
 90
        2
 40
-0.6
 41
30.0
 62
     5
 63
     7
 74
     1
 91
       10
 64
     7
 65
   257
 75
     2
175
     1
 42
1.0
 92
        8
 66
   257
 43
1.0
 76
     1
 77
     6
 78
     2
 67
     7
 79
     3
170
     0
171
     0
290
     0
174
     0
 93
        5
 44
0.0
173
     0
291
     0
 45
0.0
1001
ACAD
1000
AcDbSavedByObjectVersion
1070
     0
  0
VISUALSTYLE
  5
CBAB
102
{ACAD_XDICTIONARY
360
CC14
102
}
102
{ACAD_REACTORS
330
CB9A
102
}
330
CB9A
100
AcDbVisualStyle
  2
Shades of Gray
 70
    23
 71
     2
 72
     2
 73
     3
 90
        0
 40
-0.6
 41
-30.0
 62
     5
 63
     7
 74
     2
 91
        2
 64
     7
 65
     7
 75
     1
175
     1
 42
40.0
 92
        8
 66
     7
 43
1.0
 76
     1
 77
     6
 78
     2
 67
     7
 79
     3
170
     0
171
     0
290
     0
174
     0
 93
        1
 44
0.0
173
     0
291
     0
 45
0.0
1001
ACAD
1000
AcDbSavedByObjectVersion
1070
     0
  0
VISUALSTYLE
  5
CBAC
102
{ACAD_XDICTIONARY
360
CC16
102
}
102
{ACAD_REACTORS
330
CB9A
102
}
330
CB9A
100
AcDbVisualStyle
  2
Sketchy
 70
    24
 71
     1
 72
     2
 73
     2
 90
        0
 40
-0.6
 41
-30.0
 62
     5
 63
     7
 74
     2
 91
        2
 64
     7
 65
     7
 75
     1
175
     1
 42
40.0
 92
       11
 66
     7
 43
1.0
 76
     1
 77
     6
 78
     2
 67
     7
 79
     6
170
     0
171
     0
290
     0
174
     0
 93
        1
 44
0.0
173
     0
291
     0
 45
0.0
1001
ACAD
1000
AcDbSavedByObjectVersion
1070
     0
  0
VISUALSTYLE
  5
CBA7
102
{ACAD_XDICTIONARY
360
CC0C
102
}
102
{ACAD_REACTORS
330
CB9A
102
}
330
CB9A
100
AcDbVisualStyle
  2
Thicken
 70
    13
 71
     2
 72
     2
 73
     0
 90
        0
 40
-0.6
 41
-30.0
 62
     5
 63
     7
 74
     1
 91
        4
 64
     7
 65
   257
 75
     1
175
     1
 42
1.0
 92
       12
 66
     7
 43
1.0
 76
     1
 77
     6
 78
     2
 67
     7
 79
     5
170
     0
171
     0
290
     0
174
     0
 93
        1
 44
0.0
173
     0
291
     1
 45
0.0
1001
ACAD
1000
AcDbSavedByObjectVersion
1070
     0
  0
VISUALSTYLE
  5
CBA1
102
{ACAD_XDICTIONARY
360
CC00
102
}
102
{ACAD_REACTORS
330
CB9A
102
}
330
CB9A
100
AcDbVisualStyle
  2
Wireframe
 70
     5
 71
     0
 72
     2
 73
     0
 90
        0
 40
-0.6
 41
-30.0
 62
     5
 63
     7
 74
     1
 91
        4
 64
     7
 65
   257
 75
     1
175
     1
 42
1.0
 92
        0
 66
   257
 43
1.0
 76
     1
 77
     6
 78
     2
 67
     7
 79
     3
170
     0
171
     0
290
     0
174
     0
 93
        1
 44
0.0
173
     0
291
     0
 45
0.0
1001
ACAD
1000
AcDbSavedByObjectVersion
1070
     0
  0
VISUALSTYLE
  5
CBAD
102
{ACAD_XDICTIONARY
360
CC18
102
}
102
{ACAD_REACTORS
330
CB9A
102
}
330
CB9A
100
AcDbVisualStyle
  2
X-Ray
 70
    25
 71
     2
 72
     2
 73
     1
 90
        1
 40
0.5
 41
-30.0
 62
     5
 63
     7
 74
     1
 91
        0
 64
     7
 65
   257
 75
     1
175
     1
 42
1.0
 92
        8
 66
     7
 43
1.0
 76
     1
 77
     6
 78
     2
 67
     7
 79
     3
170
     0
171
     0
290
     0
174
     0
 93
       13
 44
0.0
173
     0
291
     0
 45
0.0
1001
ACAD
1000
AcDbSavedByObjectVersion
1070
     0
  0
DICTIONARYVAR
  5
CBE7
102
{ACAD_REACTORS
330
CBE2
102
}
330
CBE2
100
DictionaryVariables
280
     0
  1
1:1
  0
DICTIONARYVAR
  5
CBE4
102
{ACAD_REACTORS
330
CBE2
102
}
330
CBE2
100
DictionaryVariables
280
     0
  1
STANDARD
  0
DICTIONARYVAR
  5
CBE3
102
{ACAD_REACTORS
330
CBE2
102
}
330
CBE2
100
DictionaryVariables
280
     0
  1
STANDARD
  0
DICTIONARYVAR
  5
CBE5
102
{ACAD_REACTORS
330
CBE2
102
}
330
CBE2
100
DictionaryVariables
280
     0
  1
Imperial24
  0
DICTIONARYVAR
  5
CBE6
102
{ACAD_REACTORS
330
CBE2
102
}
330
CBE2
100
DictionaryVariables
280
     0
  1
Imperial24
  0
DICTIONARYVAR
  5
CBEA
102
{ACAD_REACTORS
330
CBE2
102
}
330
CBE2
100
DictionaryVariables
280
     0
  1
1
  0
DICTIONARYVAR
  5
CBE9
102
{ACAD_REACTORS
330
CBE2
102
}
330
CBE2
100
DictionaryVariables
280
     0
  1
0
  0
DICTIONARYVAR
  5
CBE8
102
{ACAD_REACTORS
330
CBE2
102
}
330
CBE2
100
DictionaryVariables
280
     0
  1
127
  0
DICTIONARYVAR
  5
CBEB
102
{ACAD_REACTORS
330
CBE2
102
}
330
CBE2
100
DictionaryVariables
280
     0
  1
2
  0
DICTIONARY
  5
CC28
330
CBCD
100
AcDbDictionary
280
     1
281
     1
  3
ACAD_XREC_ROUNDTRIP
360
CC29
  0
DICTIONARY
  5
CC2A
330
CBCE
100
AcDbDictionary
280
     1
281
     1
  3
ACAD_XREC_ROUNDTRIP
360
CC2B
  0
DICTIONARY
  5
CC2C
330
CBCF
100
AcDbDictionary
280
     1
281
     1
  3
ACAD_XREC_ROUNDTRIP
360
CC2D
  0
DICTIONARY
  5
CB8B
330
CB8A
100
AcDbDictionary
280
     1
281
     1
  3
ACAD_XREC_ROUNDTRIP
360
CBF2
  3
BUMPTILE
360
CB8D
  3
DIFFUSETILE
360
CB8C
  3
OPACITYTILE
360
CB90
  3
REFLECTIONTILE
360
CB8F
  3
REFRACTIONTILE
360
CB91
  3
SPECULARTILE
360
CB8E
  0
DICTIONARY
  5
CB83
330
CB82
100
AcDbDictionary
280
     1
281
     1
  3
ACAD_XREC_ROUNDTRIP
360
CBF1
  3
BUMPTILE
360
CB85
  3
DIFFUSETILE
360
CB84
  3
OPACITYTILE
360
CB88
  3
REFLECTIONTILE
360
CB87
  3
REFRACTIONTILE
360
CB89
  3
SPECULARTILE
360
CB86
  0
DICTIONARY
  5
CB93
330
CB92
100
AcDbDictionary
280
     1
281
     1
  3
ACAD_XREC_ROUNDTRIP
360
CBF3
  3
BUMPTILE
360
CB95
  3
DIFFUSETILE
360
CB94
  3
OPACITYTILE
360
CB98
  3
REFLECTIONTILE
360
CB97
  3
REFRACTIONTILE
360
CB99
  3
SPECULARTILE
360
CB96
  0
DICTIONARY
  5
CC26
330
CBCB
100
AcDbDictionary
280
     1
281
     1
  3
ACAD_XREC_ROUNDTRIP
360
CC27
  0
DICTIONARY
  5
CBED
330
CBB5
100
AcDbDictionary
280
     1
281
     1
  3
ACAD_ROUNDTRIP_2008_TABLESTYLE_CELLSTYLEMAP
360
CBEE
  3
ACAD_XREC_ROUNDTRIP
360
CC24
  0
DICTIONARY
  5
CBFE
330
CBA0
100
AcDbDictionary
280
     1
281
     1
  3
ACAD_XREC_ROUNDTRIP
360
CBFF
  0
DICTIONARY
  5
CBFC
330
CB9F
100
AcDbDictionary
280
     1
281
     1
  3
ACAD_XREC_ROUNDTRIP
360
CBFD
  0
DICTIONARY
  5
CC0A
330
CBA6
100
AcDbDictionary
280
     1
281
     1
  3
ACAD_XREC_ROUNDTRIP
360
CC0B
  0
DICTIONARY
  5
CC12
330
CBAA
100
AcDbDictionary
280
     1
281
     1
  3
ACAD_XREC_ROUNDTRIP
360
CC13
  0
DICTIONARY
  5
CC04
330
CBA3
100
AcDbDictionary
280
     1
281
     1
  3
ACAD_XREC_ROUNDTRIP
360
CC05
  0
DICTIONARY
  5
CC08
330
CBA5
100
AcDbDictionary
280
     1
281
     1
  3
ACAD_XREC_ROUNDTRIP
360
CC09
  0
DICTIONARY
  5
CC22
330
CBB2
100
AcDbDictionary
280
     1
281
     1
  3
ACAD_XREC_ROUNDTRIP
360
CC23
  0
DICTIONARY
  5
CC10
330
CBA9
100
AcDbDictionary
280
     1
281
     1
  3
ACAD_XREC_ROUNDTRIP
360
CC11
  0
DICTIONARY
  5
CBF4
330
CB9B
100
AcDbDictionary
280
     1
281
     1
  3
ACAD_XREC_ROUNDTRIP
360
CBF5
  0
DICTIONARY
  5
CBF6
330
CB9C
100
AcDbDictionary
280
     1
281
     1
  3
ACAD_XREC_ROUNDTRIP
360
CBF7
  0
DICTIONARY
  5
CBF8
330
CB9D
100
AcDbDictionary
280
     1
281
     1
  3
ACAD_XREC_ROUNDTRIP
360
CBF9
  0
DICTIONARY
  5
CBFA
330
CB9E
100
AcDbDictionary
280
     1
281
     1
  3
ACAD_XREC_ROUNDTRIP
360
CBFB
  0
DICTIONARY
  5
CC02
330
CBA2
100
AcDbDictionary
280
     1
281
     1
  3
ACAD_XREC_ROUNDTRIP
360
CC03
  0
DICTIONARY
  5
CC1E
330
CBB0
100
AcDbDictionary
280
     1
281
     1
  3
ACAD_XREC_ROUNDTRIP
360
CC1F
  0
DICTIONARY
  5
CC0E
330
CBA8
100
AcDbDictionary
280
     1
281
     1
  3
ACAD_XREC_ROUNDTRIP
360
CC0F
  0
DICTIONARY
  5
CC20
330
CBB1
100
AcDbDictionary
280
     1
281
     1
  3
ACAD_XREC_ROUNDTRIP
360
CC21
  0
DICTIONARY
  5
CC06
330
CBA4
100
AcDbDictionary
280
     1
281
     1
  3
ACAD_XREC_ROUNDTRIP
360
CC07
  0
DICTIONARY
  5
CC1C
330
CBAF
100
AcDbDictionary
280
     1
281
     1
  3
ACAD_XREC_ROUNDTRIP
360
CC1D
  0
DICTIONARY
  5
CC1A
330
CBAE
100
AcDbDictionary
280
     1
281
     1
  3
ACAD_XREC_ROUNDTRIP
360
CC1B
  0
DICTIONARY
  5
CC14
330
CBAB
100
AcDbDictionary
280
     1
281
     1
  3
ACAD_XREC_ROUNDTRIP
360
CC15
  0
DICTIONARY
  5
CC16
330
CBAC
100
AcDbDictionary
280
     1
281
     1
  3
ACAD_XREC_ROUNDTRIP
360
CC17
  0
DICTIONARY
  5
CC0C
330
CBA7
100
AcDbDictionary
280
     1
281
     1
  3
ACAD_XREC_ROUNDTRIP
360
CC0D
  0
DICTIONARY
  5
CC00
330
CBA1
100
AcDbDictionary
280
     1
281
     1
  3
ACAD_XREC_ROUNDTRIP
360
CC01
  0
DICTIONARY
  5
CC18
330
CBAD
100
AcDbDictionary
280
     1
281
     1
  3
ACAD_XREC_ROUNDTRIP
360
CC19
  0
XRECORD
  5
CC29
102
{ACAD_REACTORS
330
CC28
102
}
330
CC28
100
AcDbXrecord
280
     1
102
DISPLAYNAME
  1
Imperial24
102
FLAGS
 90
        0
  0
XRECORD
  5
CC2B
102
{ACAD_REACTORS
330
CC2A
102
}
330
CC2A
100
AcDbXrecord
280
     1
102
SHADEPLOT
 70
     0
102
SHADEPLOTRESLEVEL
 70
     2
102
SHADEPLOTCUSTOMDPI
 70
   300
  0
XRECORD
  5
CC2D
102
{ACAD_REACTORS
330
CC2C
102
}
330
CC2C
100
AcDbXrecord
280
     1
102
SHADEPLOT
 70
     0
102
SHADEPLOTRESLEVEL
 70
     2
102
SHADEPLOTCUSTOMDPI
 70
   300
  0
XRECORD
  5
CBF2
102
{ACAD_REACTORS
330
CB8B
102
}
330
CB8B
100
AcDbXrecord
280
     1
102
MATERIAL
148
0.0
149
0.0
149
0.0
 93
        0
 94
      127
282
     0
 72
     0
 77
     0
171
     0
175
     0
179
     0
273
     0
  0
XRECORD
  5
CB8D
102
{ACAD_REACTORS
330
CB8B
102
}
330
CB8B
100
AcDbXrecord
280
     1
270
     1
271
     1
  0
XRECORD
  5
CB8C
102
{ACAD_REACTORS
330
CB8B
102
}
330
CB8B
100
AcDbXrecord
280
     1
270
     1
271
     1
  0
XRECORD
  5
CB90
102
{ACAD_REACTORS
330
CB8B
102
}
330
CB8B
100
AcDbXrecord
280
     1
270
     1
271
     1
  0
XRECORD
  5
CB8F
102
{ACAD_REACTORS
330
CB8B
102
}
330
CB8B
100
AcDbXrecord
280
     1
270
     1
271
     1
  0
XRECORD
  5
CB91
102
{ACAD_REACTORS
330
CB8B
102
}
330
CB8B
100
AcDbXrecord
280
     1
270
     1
271
     1
  0
XRECORD
  5
CB8E
102
{ACAD_REACTORS
330
CB8B
102
}
330
CB8B
100
AcDbXrecord
280
     1
270
     1
271
     1
  0
XRECORD
  5
CBF1
102
{ACAD_REACTORS
330
CB83
102
}
330
CB83
100
AcDbXrecord
280
     1
102
MATERIAL
148
0.0
149
0.0
149
0.0
 93
        0
 94
      127
282
     0
 72
     0
 77
     0
171
     0
175
     0
179
     0
273
     0
  0
XRECORD
  5
CB85
102
{ACAD_REACTORS
330
CB83
102
}
330
CB83
100
AcDbXrecord
280
     1
270
     1
271
     1
  0
XRECORD
  5
CB84
102
{ACAD_REACTORS
330
CB83
102
}
330
CB83
100
AcDbXrecord
280
     1
270
     1
271
     1
  0
XRECORD
  5
CB88
102
{ACAD_REACTORS
330
CB83
102
}
330
CB83
100
AcDbXrecord
280
     1
270
     1
271
     1
  0
XRECORD
  5
CB87
102
{ACAD_REACTORS
330
CB83
102
}
330
CB83
100
AcDbXrecord
280
     1
270
     1
271
     1
  0
XRECORD
  5
CB89
102
{ACAD_REACTORS
330
CB83
102
}
330
CB83
100
AcDbXrecord
280
     1
270
     1
271
     1
  0
XRECORD
  5
CB86
102
{ACAD_REACTORS
330
CB83
102
}
330
CB83
100
AcDbXrecord
280
     1
270
     1
271
     1
  0
XRECORD
  5
CBF3
102
{ACAD_REACTORS
330
CB93
102
}
330
CB93
100
AcDbXrecord
280
     1
102
MATERIAL
148
0.0
149
0.0
149
0.0
 93
        0
 94
      127
282
     0
 72
     0
 77
     0
171
     0
175
     0
179
     0
273
     0
  0
XRECORD
  5
CB95
102
{ACAD_REACTORS
330
CB93
102
}
330
CB93
100
AcDbXrecord
280
     1
270
     1
271
     1
  0
XRECORD
  5
CB94
102
{ACAD_REACTORS
330
CB93
102
}
330
CB93
100
AcDbXrecord
280
     1
270
     1
271
     1
  0
XRECORD
  5
CB98
102
{ACAD_REACTORS
330
CB93
102
}
330
CB93
100
AcDbXrecord
280
     1
270
     1
271
     1
  0
XRECORD
  5
CB97
102
{ACAD_REACTORS
330
CB93
102
}
330
CB93
100
AcDbXrecord
280
     1
270
     1
271
     1
  0
XRECORD
  5
CB99
102
{ACAD_REACTORS
330
CB93
102
}
330
CB93
100
AcDbXrecord
280
     1
270
     1
271
     1
  0
XRECORD
  5
CB96
102
{ACAD_REACTORS
330
CB93
102
}
330
CB93
100
AcDbXrecord
280
     1
270
     1
271
     1
  0
XRECORD
  5
CC27
102
{ACAD_REACTORS
330
CC26
102
}
330
CC26
100
AcDbXrecord
280
     1
102
DISPLAYNAME
  1
Imperial24
102
FLAGS
 90
        0
  0
CELLSTYLEMAP
  5
CBEE
102
{ACAD_REACTORS
330
CBED
102
}
330
CBED
100
AcDbCellStyleMap
 90
        3
300
CELLSTYLE
  1
TABLEFORMAT_BEGIN
 90
        5
170
     1
 91
        0
 92
    32768
 62
   257
 93
        1
300
CONTENTFORMAT
  1
CONTENTFORMAT_BEGIN
 90
        0
 91
        0
 92
      512
 93
        0
300

 40
0.0
140
1.0
 94
        5
 62
     0
340
C799
144
0.25
309
CONTENTFORMAT_END
171
     0
 94
        0
309
TABLEFORMAT_END
  1
CELLSTYLE_BEGIN
 90
        1
 91
        1
300
_TITLE
309
CELLSTYLE_END
300
CELLSTYLE
  1
TABLEFORMAT_BEGIN
 90
        5
170
     1
 91
        0
 92
        0
 62
   257
 93
        1
300
CONTENTFORMAT
  1
CONTENTFORMAT_BEGIN
 90
        0
 91
        0
 92
      512
 93
        0
300

 40
0.0
140
1.0
 94
        5
 62
     0
340
C799
144
0.18
309
CONTENTFORMAT_END
171
     0
 94
        0
309
TABLEFORMAT_END
  1
CELLSTYLE_BEGIN
 90
        2
 91
        1
300
_HEADER
309
CELLSTYLE_END
300
CELLSTYLE
  1
TABLEFORMAT_BEGIN
 90
        5
170
     1
 91
        0
 92
        0
 62
   257
 93
        1
300
CONTENTFORMAT
  1
CONTENTFORMAT_BEGIN
 90
        0
 91
        0
 92
      512
 93
        0
300

 40
0.0
140
1.0
 94
        2
 62
     0
340
C799
144
0.18
309
CONTENTFORMAT_END
171
     0
 94
        0
309
TABLEFORMAT_END
  1
CELLSTYLE_BEGIN
 90
        3
 91
        2
300
_DATA
309
CELLSTYLE_END
  0
XRECORD
  5
CC24
102
{ACAD_REACTORS
330
CBED
102
}
330
CBED
100
AcDbXrecord
280
     1
102
ACAD_ROUNDTRIP_PRE2007_TABLESTYLE
 90
      512
 91
        0
  1

 92
      512
 93
        0
  2

 94
      512
 95
        0
  3

  0
XRECORD
  5
CBFF
102
{ACAD_REACTORS
330
CBFE
102
}
330
CBFE
100
AcDbXrecord
280
     1
102
RTVSPost2010Prop28
280
     1
102
RTVSPost2010PropOp28
 70
     1
102
RTVSPost2010Prop29
280
     1
102
RTVSPost2010PropOp29
 70
     1
102
RTVSPost2010Prop30
280
     0
102
RTVSPost2010PropOp30
 70
     1
102
RTVSPost2010Prop31
280
     0
102
RTVSPost2010PropOp31
 70
     1
102
RTVSPost2010Prop32
280
     0
102
RTVSPost2010PropOp32
 70
     1
102
RTVSPost2010Prop33
280
     0
102
RTVSPost2010PropOp33
 70
     1
102
RTVSPost2010Prop34
280
     0
102
RTVSPost2010PropOp34
 70
     1
102
RTVSPost2010Prop35
280
     0
102
RTVSPost2010PropOp35
 70
     1
102
RTVSPost2010Prop36
280
     0
102
RTVSPost2010PropOp36
 70
     1
102
RTVSPost2010Prop37
 90
       50
102
RTVSPost2010PropOp37
 70
     1
102
RTVSPost2010Prop38
140
0.0
102
RTVSPost2010PropOp38
 70
     1
102
RTVSPost2010Prop39
140
1.0
102
RTVSPost2010PropOp39
 70
     1
102
RTVSPost2010Prop40
 90
        0
102
RTVSPost2010PropOp40
 70
     1
102
RTVSPost2010Prop41ColorIndex
 90
       18
102
RTVSPost2010Prop41ColorRGB
 90
        0
102
RTVSPost2010PropOp41
 70
     1
102
RTVSPost2010Prop42
 90
       50
102
RTVSPost2010PropOp42
 70
     1
102
RTVSPost2010Prop43
 90
        3
102
RTVSPost2010PropOp43
 70
     1
102
RTVSPost2010Prop44ColorIndex
 90
        5
102
RTVSPost2010Prop44ColorRGB
 90
      255
102
RTVSPost2010PropOp44
 70
     1
102
RTVSPost2010Prop45
280
     0
102
RTVSPost2010PropOp45
 70
     1
102
RTVSPost2010Prop46
 90
       50
102
RTVSPost2010PropOp46
 70
     1
102
RTVSPost2010Prop47
 90
       50
102
RTVSPost2010PropOp47
 70
     1
102
RTVSPost2010Prop48
 90
       50
102
RTVSPost2010PropOp48
 70
     1
102
RTVSPost2010Prop49
280
     0
102
RTVSPost2010PropOp49
 70
     1
102
RTVSPost2010Prop50
 90
       50
102
RTVSPost2010PropOp50
 70
     1
102
RTVSPost2010Prop51ColorIndex
 90
      256
102
RTVSPost2010Prop51ColorRGB
 90
-16777216
102
RTVSPost2010PropOp51
 70
     0
102
RTVSPost2010Prop52
140
1.0
102
RTVSPost2010PropOp52
 70
     0
102
RTVSPost2010Prop53
 90
        2
102
RTVSPost2010PropOp53
 70
     1
102
RTVSPost2010Prop54
  1
strokes_ogs.tif
102
RTVSPost2010PropOp54
 70
     1
102
RTVSPost2010Prop55
280
     0
102
RTVSPost2010PropOp55
 70
     1
102
RTVSPost2010Prop56
140
1.0
102
RTVSPost2010PropOp56
 70
     1
102
RTVSPost2010Prop57
140
1.0
102
RTVSPost2010PropOp57
 70
     1
102
RTVSPropertyOp0
 70
     1
102
RTVSPropertyOp1
 70
     1
102
RTVSPropertyOp2
 70
     1
102
RTVSPropertyOp3
 70
     1
102
RTVSPropertyOp4
 70
     1
102
RTVSPropertyOp5
 70
     1
102
RTVSPropertyOp6
 70
     1
102
RTVSPropertyOp7
 70
     1
102
RTVSPropertyOp8
 70
     1
102
RTVSPropertyOp9
 70
     1
102
RTVSPropertyOp10
 70
     1
102
RTVSPropertyOp11
 70
     1
102
RTVSPropertyOp12
 70
     1
102
RTVSPropertyOp13
 70
     1
102
RTVSPropertyOp14
 70
     1
102
RTVSPropertyOp15
 70
     1
102
RTVSPropertyOp16
 70
     1
102
RTVSPropertyOp17
 70
     1
102
RTVSPropertyOp18
 70
     1
102
RTVSPropertyOp19
 70
     1
102
RTVSPropertyOp20
 70
     1
102
RTVSPropertyOp21
 70
     1
102
RTVSPropertyOp22
 70
     1
102
RTVSPropertyOp23
 70
     1
102
RTVSPropertyOp24
 70
     1
102
RTVSPropertyOp25
 70
     1
102
RTVSPropertyOp26
 70
     1
102
RTVSPropertyOp27
 70
     1
102
RTVSPropertyOp28
 70
     1
102
RTVSPropertyOp29
 70
     1
102
RTVSPropertyOp30
 70
     1
102
RTVSPropertyOp31
 70
     1
102
RTVSPropertyOp32
 70
     1
102
RTVSPropertyOp33
 70
     1
102
RTVSPropertyOp34
 70
     1
102
RTVSPropertyOp35
 70
     1
102
RTVSPropertyOp36
 70
     1
102
RTVSPropertyOp37
 70
     1
102
RTVSPropertyOp38
 70
     1
102
RTVSPropertyOp39
 70
     1
102
RTVSPropertyOp40
 70
     1
102
RTVSPropertyOp41
 70
     1
102
RTVSPropertyOp42
 70
     1
102
RTVSPropertyOp43
 70
     1
102
RTVSPropertyOp44
 70
     1
102
RTVSPropertyOp45
 70
     1
102
RTVSPropertyOp46
 70
     1
102
RTVSPropertyOp47
 70
     1
102
RTVSPropertyOp48
 70
     1
102
RTVSPropertyOp49
 70
     1
102
RTVSPropertyOp50
 70
     1
102
RTVSPropertyOp51
 70
     0
102
RTVSPropertyOp52
 70
     0
102
RTVSPropertyOp53
 70
     1
102
RTVSPropertyOp54
 70
     1
102
RTVSPropertyOp55
 70
     1
102
RTVSPropertyOp56
 70
     1
102
RTVSPropertyOp57
 70
     1
102
RTVSPropertyOp58
 70
     1
102
RTVSPropertyOp59
 70
     1
102
RTVSPropertyOp60
 70
     1
102
RTVSPropertyOp61
 70
     1
102
RTVSPropertyOp62
 70
     1
  0
XRECORD
  5
CBFD
102
{ACAD_REACTORS
330
CBFC
102
}
330
CBFC
100
AcDbXrecord
280
     1
102
RTVSPost2010Prop28
280
     0
102
RTVSPost2010PropOp28
 70
     1
102
RTVSPost2010Prop29
280
     1
102
RTVSPost2010PropOp29
 70
     1
102
RTVSPost2010Prop30
280
     1
102
RTVSPost2010PropOp30
 70
     1
102
RTVSPost2010Prop31
280
     0
102
RTVSPost2010PropOp31
 70
     1
102
RTVSPost2010Prop32
280
     0
102
RTVSPost2010PropOp32
 70
     1
102
RTVSPost2010Prop33
280
     0
102
RTVSPost2010PropOp33
 70
     1
102
RTVSPost2010Prop34
280
     0
102
RTVSPost2010PropOp34
 70
     1
102
RTVSPost2010Prop35
280
     0
102
RTVSPost2010PropOp35
 70
     1
102
RTVSPost2010Prop36
280
     0
102
RTVSPost2010PropOp36
 70
     1
102
RTVSPost2010Prop37
 90
       50
102
RTVSPost2010PropOp37
 70
     1
102
RTVSPost2010Prop38
140
0.0
102
RTVSPost2010PropOp38
 70
     1
102
RTVSPost2010Prop39
140
1.0
102
RTVSPost2010PropOp39
 70
     1
102
RTVSPost2010Prop40
 90
        0
102
RTVSPost2010PropOp40
 70
     1
102
RTVSPost2010Prop41ColorIndex
 90
       18
102
RTVSPost2010Prop41ColorRGB
 90
        0
102
RTVSPost2010PropOp41
 70
     1
102
RTVSPost2010Prop42
 90
       50
102
RTVSPost2010PropOp42
 70
     1
102
RTVSPost2010Prop43
 90
        3
102
RTVSPost2010PropOp43
 70
     1
102
RTVSPost2010Prop44ColorIndex
 90
        5
102
RTVSPost2010Prop44ColorRGB
 90
      255
102
RTVSPost2010PropOp44
 70
     1
102
RTVSPost2010Prop45
280
     0
102
RTVSPost2010PropOp45
 70
     1
102
RTVSPost2010Prop46
 90
       50
102
RTVSPost2010PropOp46
 70
     1
102
RTVSPost2010Prop47
 90
       50
102
RTVSPost2010PropOp47
 70
     1
102
RTVSPost2010Prop48
 90
       50
102
RTVSPost2010PropOp48
 70
     1
102
RTVSPost2010Prop49
280
     0
102
RTVSPost2010PropOp49
 70
     1
102
RTVSPost2010Prop50
 90
       50
102
RTVSPost2010PropOp50
 70
     1
102
RTVSPost2010Prop51ColorIndex
 90
      256
102
RTVSPost2010Prop51ColorRGB
 90
-16777216
102
RTVSPost2010PropOp51
 70
     0
102
RTVSPost2010Prop52
140
1.0
102
RTVSPost2010PropOp52
 70
     0
102
RTVSPost2010Prop53
 90
        2
102
RTVSPost2010PropOp53
 70
     1
102
RTVSPost2010Prop54
  1
strokes_ogs.tif
102
RTVSPost2010PropOp54
 70
     1
102
RTVSPost2010Prop55
280
     0
102
RTVSPost2010PropOp55
 70
     1
102
RTVSPost2010Prop56
140
1.0
102
RTVSPost2010PropOp56
 70
     1
102
RTVSPost2010Prop57
140
1.0
102
RTVSPost2010PropOp57
 70
     1
102
RTVSPropertyOp0
 70
     1
102
RTVSPropertyOp1
 70
     1
102
RTVSPropertyOp2
 70
     1
102
RTVSPropertyOp3
 70
     1
102
RTVSPropertyOp4
 70
     1
102
RTVSPropertyOp5
 70
     1
102
RTVSPropertyOp6
 70
     1
102
RTVSPropertyOp7
 70
     1
102
RTVSPropertyOp8
 70
     1
102
RTVSPropertyOp9
 70
     1
102
RTVSPropertyOp10
 70
     1
102
RTVSPropertyOp11
 70
     1
102
RTVSPropertyOp12
 70
     1
102
RTVSPropertyOp13
 70
     1
102
RTVSPropertyOp14
 70
     1
102
RTVSPropertyOp15
 70
     1
102
RTVSPropertyOp16
 70
     1
102
RTVSPropertyOp17
 70
     1
102
RTVSPropertyOp18
 70
     1
102
RTVSPropertyOp19
 70
     1
102
RTVSPropertyOp20
 70
     1
102
RTVSPropertyOp21
 70
     1
102
RTVSPropertyOp22
 70
     1
102
RTVSPropertyOp23
 70
     1
102
RTVSPropertyOp24
 70
     1
102
RTVSPropertyOp25
 70
     1
102
RTVSPropertyOp26
 70
     1
102
RTVSPropertyOp27
 70
     1
102
RTVSPropertyOp28
 70
     1
102
RTVSPropertyOp29
 70
     1
102
RTVSPropertyOp30
 70
     1
102
RTVSPropertyOp31
 70
     1
102
RTVSPropertyOp32
 70
     1
102
RTVSPropertyOp33
 70
     1
102
RTVSPropertyOp34
 70
     1
102
RTVSPropertyOp35
 70
     1
102
RTVSPropertyOp36
 70
     1
102
RTVSPropertyOp37
 70
     1
102
RTVSPropertyOp38
 70
     1
102
RTVSPropertyOp39
 70
     1
102
RTVSPropertyOp40
 70
     1
102
RTVSPropertyOp41
 70
     1
102
RTVSPropertyOp42
 70
     1
102
RTVSPropertyOp43
 70
     1
102
RTVSPropertyOp44
 70
     1
102
RTVSPropertyOp45
 70
     1
102
RTVSPropertyOp46
 70
     1
102
RTVSPropertyOp47
 70
     1
102
RTVSPropertyOp48
 70
     1
102
RTVSPropertyOp49
 70
     1
102
RTVSPropertyOp50
 70
     1
102
RTVSPropertyOp51
 70
     0
102
RTVSPropertyOp52
 70
     0
102
RTVSPropertyOp53
 70
     1
102
RTVSPropertyOp54
 70
     1
102
RTVSPropertyOp55
 70
     1
102
RTVSPropertyOp56
 70
     1
102
RTVSPropertyOp57
 70
     1
102
RTVSPropertyOp58
 70
     1
102
RTVSPropertyOp59
 70
     1
102
RTVSPropertyOp60
 70
     1
102
RTVSPropertyOp61
 70
     1
102
RTVSPropertyOp62
 70
     1
  0
XRECORD
  5
CC0B
102
{ACAD_REACTORS
330
CC0A
102
}
330
CC0A
100
AcDbXrecord
280
     1
102
RTVSPost2010Prop28
280
     0
102
RTVSPost2010PropOp28
 70
     1
102
RTVSPost2010Prop29
280
     1
102
RTVSPost2010PropOp29
 70
     1
102
RTVSPost2010Prop30
280
     1
102
RTVSPost2010PropOp30
 70
     1
102
RTVSPost2010Prop31
280
     0
102
RTVSPost2010PropOp31
 70
     1
102
RTVSPost2010Prop32
280
     0
102
RTVSPost2010PropOp32
 70
     1
102
RTVSPost2010Prop33
280
     0
102
RTVSPost2010PropOp33
 70
     1
102
RTVSPost2010Prop34
280
     0
102
RTVSPost2010PropOp34
 70
     1
102
RTVSPost2010Prop35
280
     0
102
RTVSPost2010PropOp35
 70
     1
102
RTVSPost2010Prop36
280
     0
102
RTVSPost2010PropOp36
 70
     1
102
RTVSPost2010Prop37
 90
       50
102
RTVSPost2010PropOp37
 70
     1
102
RTVSPost2010Prop38
140
0.0
102
RTVSPost2010PropOp38
 70
     1
102
RTVSPost2010Prop39
140
1.0
102
RTVSPost2010PropOp39
 70
     1
102
RTVSPost2010Prop40
 90
        0
102
RTVSPost2010PropOp40
 70
     1
102
RTVSPost2010Prop41ColorIndex
 90
       18
102
RTVSPost2010Prop41ColorRGB
 90
        0
102
RTVSPost2010PropOp41
 70
     1
102
RTVSPost2010Prop42
 90
       50
102
RTVSPost2010PropOp42
 70
     1
102
RTVSPost2010Prop43
 90
        3
102
RTVSPost2010PropOp43
 70
     1
102
RTVSPost2010Prop44ColorIndex
 90
        5
102
RTVSPost2010Prop44ColorRGB
 90
      255
102
RTVSPost2010PropOp44
 70
     1
102
RTVSPost2010Prop45
280
     0
102
RTVSPost2010PropOp45
 70
     1
102
RTVSPost2010Prop46
 90
       50
102
RTVSPost2010PropOp46
 70
     1
102
RTVSPost2010Prop47
 90
       50
102
RTVSPost2010PropOp47
 70
     1
102
RTVSPost2010Prop48
 90
       50
102
RTVSPost2010PropOp48
 70
     1
102
RTVSPost2010Prop49
280
     0
102
RTVSPost2010PropOp49
 70
     1
102
RTVSPost2010Prop50
 90
       50
102
RTVSPost2010PropOp50
 70
     1
102
RTVSPost2010Prop51ColorIndex
 90
      256
102
RTVSPost2010Prop51ColorRGB
 90
-16777216
102
RTVSPost2010PropOp51
 70
     0
102
RTVSPost2010Prop52
140
1.0
102
RTVSPost2010PropOp52
 70
     0
102
RTVSPost2010Prop53
 90
        2
102
RTVSPost2010PropOp53
 70
     1
102
RTVSPost2010Prop54
  1
strokes_ogs.tif
102
RTVSPost2010PropOp54
 70
     1
102
RTVSPost2010Prop55
280
     0
102
RTVSPost2010PropOp55
 70
     1
102
RTVSPost2010Prop56
140
1.0
102
RTVSPost2010PropOp56
 70
     1
102
RTVSPost2010Prop57
140
1.0
102
RTVSPost2010PropOp57
 70
     1
102
RTVSPropertyOp0
 70
     1
102
RTVSPropertyOp1
 70
     1
102
RTVSPropertyOp2
 70
     1
102
RTVSPropertyOp3
 70
     1
102
RTVSPropertyOp4
 70
     1
102
RTVSPropertyOp5
 70
     1
102
RTVSPropertyOp6
 70
     1
102
RTVSPropertyOp7
 70
     1
102
RTVSPropertyOp8
 70
     1
102
RTVSPropertyOp9
 70
     1
102
RTVSPropertyOp10
 70
     1
102
RTVSPropertyOp11
 70
     1
102
RTVSPropertyOp12
 70
     1
102
RTVSPropertyOp13
 70
     1
102
RTVSPropertyOp14
 70
     1
102
RTVSPropertyOp15
 70
     1
102
RTVSPropertyOp16
 70
     1
102
RTVSPropertyOp17
 70
     1
102
RTVSPropertyOp18
 70
     1
102
RTVSPropertyOp19
 70
     1
102
RTVSPropertyOp20
 70
     1
102
RTVSPropertyOp21
 70
     1
102
RTVSPropertyOp22
 70
     1
102
RTVSPropertyOp23
 70
     1
102
RTVSPropertyOp24
 70
     1
102
RTVSPropertyOp25
 70
     1
102
RTVSPropertyOp26
 70
     1
102
RTVSPropertyOp27
 70
     1
102
RTVSPropertyOp28
 70
     1
102
RTVSPropertyOp29
 70
     1
102
RTVSPropertyOp30
 70
     1
102
RTVSPropertyOp31
 70
     1
102
RTVSPropertyOp32
 70
     1
102
RTVSPropertyOp33
 70
     1
102
RTVSPropertyOp34
 70
     1
102
RTVSPropertyOp35
 70
     1
102
RTVSPropertyOp36
 70
     1
102
RTVSPropertyOp37
 70
     1
102
RTVSPropertyOp38
 70
     1
102
RTVSPropertyOp39
 70
     1
102
RTVSPropertyOp40
 70
     1
102
RTVSPropertyOp41
 70
     1
102
RTVSPropertyOp42
 70
     1
102
RTVSPropertyOp43
 70
     1
102
RTVSPropertyOp44
 70
     1
102
RTVSPropertyOp45
 70
     1
102
RTVSPropertyOp46
 70
     1
102
RTVSPropertyOp47
 70
     1
102
RTVSPropertyOp48
 70
     1
102
RTVSPropertyOp49
 70
     1
102
RTVSPropertyOp50
 70
     1
102
RTVSPropertyOp51
 70
     0
102
RTVSPropertyOp52
 70
     0
102
RTVSPropertyOp53
 70
     1
102
RTVSPropertyOp54
 70
     1
102
RTVSPropertyOp55
 70
     1
102
RTVSPropertyOp56
 70
     1
102
RTVSPropertyOp57
 70
     1
102
RTVSPropertyOp58
 70
     1
102
RTVSPropertyOp59
 70
     1
102
RTVSPropertyOp60
 70
     1
102
RTVSPropertyOp61
 70
     1
102
RTVSPropertyOp62
 70
     1
  0
XRECORD
  5
CC13
102
{ACAD_REACTORS
330
CC12
102
}
330
CC12
100
AcDbXrecord
280
     1
102
RTVSPost2010Prop28
280
     0
102
RTVSPost2010PropOp28
 70
     1
102
RTVSPost2010Prop29
280
     1
102
RTVSPost2010PropOp29
 70
     1
102
RTVSPost2010Prop30
280
     1
102
RTVSPost2010PropOp30
 70
     1
102
RTVSPost2010Prop31
280
     0
102
RTVSPost2010PropOp31
 70
     1
102
RTVSPost2010Prop32
280
     0
102
RTVSPost2010PropOp32
 70
     1
102
RTVSPost2010Prop33
280
     0
102
RTVSPost2010PropOp33
 70
     1
102
RTVSPost2010Prop34
280
     0
102
RTVSPost2010PropOp34
 70
     1
102
RTVSPost2010Prop35
280
     0
102
RTVSPost2010PropOp35
 70
     1
102
RTVSPost2010Prop36
280
     0
102
RTVSPost2010PropOp36
 70
     1
102
RTVSPost2010Prop37
 90
       50
102
RTVSPost2010PropOp37
 70
     1
102
RTVSPost2010Prop38
140
0.0
102
RTVSPost2010PropOp38
 70
     1
102
RTVSPost2010Prop39
140
1.0
102
RTVSPost2010PropOp39
 70
     1
102
RTVSPost2010Prop40
 90
        0
102
RTVSPost2010PropOp40
 70
     1
102
RTVSPost2010Prop41ColorIndex
 90
       18
102
RTVSPost2010Prop41ColorRGB
 90
        0
102
RTVSPost2010PropOp41
 70
     1
102
RTVSPost2010Prop42
 90
       50
102
RTVSPost2010PropOp42
 70
     1
102
RTVSPost2010Prop43
 90
        3
102
RTVSPost2010PropOp43
 70
     1
102
RTVSPost2010Prop44ColorIndex
 90
        5
102
RTVSPost2010Prop44ColorRGB
 90
      255
102
RTVSPost2010PropOp44
 70
     1
102
RTVSPost2010Prop45
280
     0
102
RTVSPost2010PropOp45
 70
     1
102
RTVSPost2010Prop46
 90
       50
102
RTVSPost2010PropOp46
 70
     1
102
RTVSPost2010Prop47
 90
       50
102
RTVSPost2010PropOp47
 70
     1
102
RTVSPost2010Prop48
 90
       50
102
RTVSPost2010PropOp48
 70
     1
102
RTVSPost2010Prop49
280
     0
102
RTVSPost2010PropOp49
 70
     1
102
RTVSPost2010Prop50
 90
       50
102
RTVSPost2010PropOp50
 70
     1
102
RTVSPost2010Prop51ColorIndex
 90
      256
102
RTVSPost2010Prop51ColorRGB
 90
-16777216
102
RTVSPost2010PropOp51
 70
     0
102
RTVSPost2010Prop52
140
1.0
102
RTVSPost2010PropOp52
 70
     0
102
RTVSPost2010Prop53
 90
        2
102
RTVSPost2010PropOp53
 70
     1
102
RTVSPost2010Prop54
  1
strokes_ogs.tif
102
RTVSPost2010PropOp54
 70
     1
102
RTVSPost2010Prop55
280
     0
102
RTVSPost2010PropOp55
 70
     1
102
RTVSPost2010Prop56
140
1.0
102
RTVSPost2010PropOp56
 70
     1
102
RTVSPost2010Prop57
140
1.0
102
RTVSPost2010PropOp57
 70
     1
102
RTVSPropertyOp0
 70
     1
102
RTVSPropertyOp1
 70
     1
102
RTVSPropertyOp2
 70
     1
102
RTVSPropertyOp3
 70
     1
102
RTVSPropertyOp4
 70
     1
102
RTVSPropertyOp5
 70
     1
102
RTVSPropertyOp6
 70
     1
102
RTVSPropertyOp7
 70
     1
102
RTVSPropertyOp8
 70
     1
102
RTVSPropertyOp9
 70
     1
102
RTVSPropertyOp10
 70
     1
102
RTVSPropertyOp11
 70
     1
102
RTVSPropertyOp12
 70
     1
102
RTVSPropertyOp13
 70
     1
102
RTVSPropertyOp14
 70
     1
102
RTVSPropertyOp15
 70
     1
102
RTVSPropertyOp16
 70
     1
102
RTVSPropertyOp17
 70
     1
102
RTVSPropertyOp18
 70
     1
102
RTVSPropertyOp19
 70
     1
102
RTVSPropertyOp20
 70
     1
102
RTVSPropertyOp21
 70
     1
102
RTVSPropertyOp22
 70
     1
102
RTVSPropertyOp23
 70
     1
102
RTVSPropertyOp24
 70
     1
102
RTVSPropertyOp25
 70
     1
102
RTVSPropertyOp26
 70
     1
102
RTVSPropertyOp27
 70
     1
102
RTVSPropertyOp28
 70
     1
102
RTVSPropertyOp29
 70
     1
102
RTVSPropertyOp30
 70
     1
102
RTVSPropertyOp31
 70
     1
102
RTVSPropertyOp32
 70
     1
102
RTVSPropertyOp33
 70
     1
102
RTVSPropertyOp34
 70
     1
102
RTVSPropertyOp35
 70
     1
102
RTVSPropertyOp36
 70
     1
102
RTVSPropertyOp37
 70
     1
102
RTVSPropertyOp38
 70
     1
102
RTVSPropertyOp39
 70
     1
102
RTVSPropertyOp40
 70
     1
102
RTVSPropertyOp41
 70
     1
102
RTVSPropertyOp42
 70
     1
102
RTVSPropertyOp43
 70
     1
102
RTVSPropertyOp44
 70
     1
102
RTVSPropertyOp45
 70
     1
102
RTVSPropertyOp46
 70
     1
102
RTVSPropertyOp47
 70
     1
102
RTVSPropertyOp48
 70
     1
102
RTVSPropertyOp49
 70
     1
102
RTVSPropertyOp50
 70
     1
102
RTVSPropertyOp51
 70
     0
102
RTVSPropertyOp52
 70
     0
102
RTVSPropertyOp53
 70
     1
102
RTVSPropertyOp54
 70
     1
102
RTVSPropertyOp55
 70
     1
102
RTVSPropertyOp56
 70
     1
102
RTVSPropertyOp57
 70
     1
102
RTVSPropertyOp58
 70
     1
102
RTVSPropertyOp59
 70
     1
102
RTVSPropertyOp60
 70
     1
102
RTVSPropertyOp61
 70
     1
102
RTVSPropertyOp62
 70
     1
  0
XRECORD
  5
CC05
102
{ACAD_REACTORS
330
CC04
102
}
330
CC04
100
AcDbXrecord
280
     1
102
RTVSPost2010Prop28
280
     0
102
RTVSPost2010PropOp28
 70
     1
102
RTVSPost2010Prop29
280
     1
102
RTVSPost2010PropOp29
 70
     1
102
RTVSPost2010Prop30
280
     1
102
RTVSPost2010PropOp30
 70
     1
102
RTVSPost2010Prop31
280
     0
102
RTVSPost2010PropOp31
 70
     1
102
RTVSPost2010Prop32
280
     0
102
RTVSPost2010PropOp32
 70
     1
102
RTVSPost2010Prop33
280
     0
102
RTVSPost2010PropOp33
 70
     1
102
RTVSPost2010Prop34
280
     0
102
RTVSPost2010PropOp34
 70
     1
102
RTVSPost2010Prop35
280
     0
102
RTVSPost2010PropOp35
 70
     1
102
RTVSPost2010Prop36
280
     0
102
RTVSPost2010PropOp36
 70
     1
102
RTVSPost2010Prop37
 90
       50
102
RTVSPost2010PropOp37
 70
     1
102
RTVSPost2010Prop38
140
0.0
102
RTVSPost2010PropOp38
 70
     1
102
RTVSPost2010Prop39
140
1.0
102
RTVSPost2010PropOp39
 70
     1
102
RTVSPost2010Prop40
 90
        0
102
RTVSPost2010PropOp40
 70
     1
102
RTVSPost2010Prop41ColorIndex
 90
       18
102
RTVSPost2010Prop41ColorRGB
 90
        0
102
RTVSPost2010PropOp41
 70
     1
102
RTVSPost2010Prop42
 90
       50
102
RTVSPost2010PropOp42
 70
     1
102
RTVSPost2010Prop43
 90
        3
102
RTVSPost2010PropOp43
 70
     1
102
RTVSPost2010Prop44ColorIndex
 90
        5
102
RTVSPost2010Prop44ColorRGB
 90
      255
102
RTVSPost2010PropOp44
 70
     1
102
RTVSPost2010Prop45
280
     0
102
RTVSPost2010PropOp45
 70
     1
102
RTVSPost2010Prop46
 90
       50
102
RTVSPost2010PropOp46
 70
     1
102
RTVSPost2010Prop47
 90
       50
102
RTVSPost2010PropOp47
 70
     1
102
RTVSPost2010Prop48
 90
       50
102
RTVSPost2010PropOp48
 70
     1
102
RTVSPost2010Prop49
280
     0
102
RTVSPost2010PropOp49
 70
     1
102
RTVSPost2010Prop50
 90
       50
102
RTVSPost2010PropOp50
 70
     1
102
RTVSPost2010Prop51ColorIndex
 90
      256
102
RTVSPost2010Prop51ColorRGB
 90
-16777216
102
RTVSPost2010PropOp51
 70
     0
102
RTVSPost2010Prop52
140
1.0
102
RTVSPost2010PropOp52
 70
     0
102
RTVSPost2010Prop53
 90
        2
102
RTVSPost2010PropOp53
 70
     1
102
RTVSPost2010Prop54
  1
strokes_ogs.tif
102
RTVSPost2010PropOp54
 70
     1
102
RTVSPost2010Prop55
280
     0
102
RTVSPost2010PropOp55
 70
     1
102
RTVSPost2010Prop56
140
1.0
102
RTVSPost2010PropOp56
 70
     1
102
RTVSPost2010Prop57
140
1.0
102
RTVSPost2010PropOp57
 70
     1
102
RTVSPropertyOp0
 70
     1
102
RTVSPropertyOp1
 70
     1
102
RTVSPropertyOp2
 70
     1
102
RTVSPropertyOp3
 70
     1
102
RTVSPropertyOp4
 70
     1
102
RTVSPropertyOp5
 70
     1
102
RTVSPropertyOp6
 70
     1
102
RTVSPropertyOp7
 70
     1
102
RTVSPropertyOp8
 70
     1
102
RTVSPropertyOp9
 70
     1
102
RTVSPropertyOp10
 70
     1
102
RTVSPropertyOp11
 70
     1
102
RTVSPropertyOp12
 70
     1
102
RTVSPropertyOp13
 70
     1
102
RTVSPropertyOp14
 70
     1
102
RTVSPropertyOp15
 70
     1
102
RTVSPropertyOp16
 70
     1
102
RTVSPropertyOp17
 70
     1
102
RTVSPropertyOp18
 70
     1
102
RTVSPropertyOp19
 70
     1
102
RTVSPropertyOp20
 70
     1
102
RTVSPropertyOp21
 70
     1
102
RTVSPropertyOp22
 70
     1
102
RTVSPropertyOp23
 70
     1
102
RTVSPropertyOp24
 70
     1
102
RTVSPropertyOp25
 70
     1
102
RTVSPropertyOp26
 70
     1
102
RTVSPropertyOp27
 70
     1
102
RTVSPropertyOp28
 70
     1
102
RTVSPropertyOp29
 70
     1
102
RTVSPropertyOp30
 70
     1
102
RTVSPropertyOp31
 70
     1
102
RTVSPropertyOp32
 70
     1
102
RTVSPropertyOp33
 70
     1
102
RTVSPropertyOp34
 70
     1
102
RTVSPropertyOp35
 70
     1
102
RTVSPropertyOp36
 70
     1
102
RTVSPropertyOp37
 70
     1
102
RTVSPropertyOp38
 70
     1
102
RTVSPropertyOp39
 70
     1
102
RTVSPropertyOp40
 70
     1
102
RTVSPropertyOp41
 70
     1
102
RTVSPropertyOp42
 70
     1
102
RTVSPropertyOp43
 70
     1
102
RTVSPropertyOp44
 70
     1
102
RTVSPropertyOp45
 70
     1
102
RTVSPropertyOp46
 70
     1
102
RTVSPropertyOp47
 70
     1
102
RTVSPropertyOp48
 70
     1
102
RTVSPropertyOp49
 70
     1
102
RTVSPropertyOp50
 70
     1
102
RTVSPropertyOp51
 70
     0
102
RTVSPropertyOp52
 70
     0
102
RTVSPropertyOp53
 70
     1
102
RTVSPropertyOp54
 70
     1
102
RTVSPropertyOp55
 70
     1
102
RTVSPropertyOp56
 70
     1
102
RTVSPropertyOp57
 70
     1
102
RTVSPropertyOp58
 70
     1
102
RTVSPropertyOp59
 70
     1
102
RTVSPropertyOp60
 70
     1
102
RTVSPropertyOp61
 70
     1
102
RTVSPropertyOp62
 70
     1
  0
XRECORD
  5
CC09
102
{ACAD_REACTORS
330
CC08
102
}
330
CC08
100
AcDbXrecord
280
     1
102
RTVSPost2010Prop28
280
     0
102
RTVSPost2010PropOp28
 70
     1
102
RTVSPost2010Prop29
280
     1
102
RTVSPost2010PropOp29
 70
     1
102
RTVSPost2010Prop30
280
     1
102
RTVSPost2010PropOp30
 70
     1
102
RTVSPost2010Prop31
280
     0
102
RTVSPost2010PropOp31
 70
     1
102
RTVSPost2010Prop32
280
     0
102
RTVSPost2010PropOp32
 70
     1
102
RTVSPost2010Prop33
280
     0
102
RTVSPost2010PropOp33
 70
     1
102
RTVSPost2010Prop34
280
     0
102
RTVSPost2010PropOp34
 70
     1
102
RTVSPost2010Prop35
280
     0
102
RTVSPost2010PropOp35
 70
     1
102
RTVSPost2010Prop36
280
     0
102
RTVSPost2010PropOp36
 70
     1
102
RTVSPost2010Prop37
 90
       50
102
RTVSPost2010PropOp37
 70
     1
102
RTVSPost2010Prop38
140
0.0
102
RTVSPost2010PropOp38
 70
     1
102
RTVSPost2010Prop39
140
1.0
102
RTVSPost2010PropOp39
 70
     1
102
RTVSPost2010Prop40
 90
        0
102
RTVSPost2010PropOp40
 70
     1
102
RTVSPost2010Prop41ColorIndex
 90
       18
102
RTVSPost2010Prop41ColorRGB
 90
        0
102
RTVSPost2010PropOp41
 70
     1
102
RTVSPost2010Prop42
 90
       50
102
RTVSPost2010PropOp42
 70
     1
102
RTVSPost2010Prop43
 90
        3
102
RTVSPost2010PropOp43
 70
     1
102
RTVSPost2010Prop44ColorIndex
 90
        5
102
RTVSPost2010Prop44ColorRGB
 90
      255
102
RTVSPost2010PropOp44
 70
     1
102
RTVSPost2010Prop45
280
     0
102
RTVSPost2010PropOp45
 70
     1
102
RTVSPost2010Prop46
 90
       50
102
RTVSPost2010PropOp46
 70
     1
102
RTVSPost2010Prop47
 90
       50
102
RTVSPost2010PropOp47
 70
     1
102
RTVSPost2010Prop48
 90
       50
102
RTVSPost2010PropOp48
 70
     1
102
RTVSPost2010Prop49
280
     0
102
RTVSPost2010PropOp49
 70
     1
102
RTVSPost2010Prop50
 90
       50
102
RTVSPost2010PropOp50
 70
     1
102
RTVSPost2010Prop51ColorIndex
 90
      256
102
RTVSPost2010Prop51ColorRGB
 90
-16777216
102
RTVSPost2010PropOp51
 70
     0
102
RTVSPost2010Prop52
140
1.0
102
RTVSPost2010PropOp52
 70
     0
102
RTVSPost2010Prop53
 90
        2
102
RTVSPost2010PropOp53
 70
     1
102
RTVSPost2010Prop54
  1
strokes_ogs.tif
102
RTVSPost2010PropOp54
 70
     1
102
RTVSPost2010Prop55
280
     0
102
RTVSPost2010PropOp55
 70
     1
102
RTVSPost2010Prop56
140
1.0
102
RTVSPost2010PropOp56
 70
     1
102
RTVSPost2010Prop57
140
1.0
102
RTVSPost2010PropOp57
 70
     1
102
RTVSPropertyOp0
 70
     1
102
RTVSPropertyOp1
 70
     1
102
RTVSPropertyOp2
 70
     1
102
RTVSPropertyOp3
 70
     1
102
RTVSPropertyOp4
 70
     1
102
RTVSPropertyOp5
 70
     1
102
RTVSPropertyOp6
 70
     1
102
RTVSPropertyOp7
 70
     1
102
RTVSPropertyOp8
 70
     1
102
RTVSPropertyOp9
 70
     1
102
RTVSPropertyOp10
 70
     1
102
RTVSPropertyOp11
 70
     1
102
RTVSPropertyOp12
 70
     1
102
RTVSPropertyOp13
 70
     1
102
RTVSPropertyOp14
 70
     1
102
RTVSPropertyOp15
 70
     1
102
RTVSPropertyOp16
 70
     1
102
RTVSPropertyOp17
 70
     1
102
RTVSPropertyOp18
 70
     1
102
RTVSPropertyOp19
 70
     1
102
RTVSPropertyOp20
 70
     1
102
RTVSPropertyOp21
 70
     1
102
RTVSPropertyOp22
 70
     1
102
RTVSPropertyOp23
 70
     1
102
RTVSPropertyOp24
 70
     1
102
RTVSPropertyOp25
 70
     1
102
RTVSPropertyOp26
 70
     1
102
RTVSPropertyOp27
 70
     1
102
RTVSPropertyOp28
 70
     1
102
RTVSPropertyOp29
 70
     1
102
RTVSPropertyOp30
 70
     1
102
RTVSPropertyOp31
 70
     1
102
RTVSPropertyOp32
 70
     1
102
RTVSPropertyOp33
 70
     1
102
RTVSPropertyOp34
 70
     1
102
RTVSPropertyOp35
 70
     1
102
RTVSPropertyOp36
 70
     1
102
RTVSPropertyOp37
 70
     1
102
RTVSPropertyOp38
 70
     1
102
RTVSPropertyOp39
 70
     1
102
RTVSPropertyOp40
 70
     1
102
RTVSPropertyOp41
 70
     1
102
RTVSPropertyOp42
 70
     1
102
RTVSPropertyOp43
 70
     1
102
RTVSPropertyOp44
 70
     1
102
RTVSPropertyOp45
 70
     1
102
RTVSPropertyOp46
 70
     1
102
RTVSPropertyOp47
 70
     1
102
RTVSPropertyOp48
 70
     1
102
RTVSPropertyOp49
 70
     1
102
RTVSPropertyOp50
 70
     1
102
RTVSPropertyOp51
 70
     0
102
RTVSPropertyOp52
 70
     0
102
RTVSPropertyOp53
 70
     1
102
RTVSPropertyOp54
 70
     1
102
RTVSPropertyOp55
 70
     1
102
RTVSPropertyOp56
 70
     1
102
RTVSPropertyOp57
 70
     1
102
RTVSPropertyOp58
 70
     1
102
RTVSPropertyOp59
 70
     1
102
RTVSPropertyOp60
 70
     1
102
RTVSPropertyOp61
 70
     1
102
RTVSPropertyOp62
 70
     1
  0
XRECORD
  5
CC23
102
{ACAD_REACTORS
330
CC22
102
}
330
CC22
100
AcDbXrecord
280
     1
102
RTVSPost2010Prop28
280
     0
102
RTVSPost2010PropOp28
 70
     1
102
RTVSPost2010Prop29
280
     1
102
RTVSPost2010PropOp29
 70
     1
102
RTVSPost2010Prop30
280
     1
102
RTVSPost2010PropOp30
 70
     1
102
RTVSPost2010Prop31
280
     0
102
RTVSPost2010PropOp31
 70
     1
102
RTVSPost2010Prop32
280
     0
102
RTVSPost2010PropOp32
 70
     1
102
RTVSPost2010Prop33
280
     0
102
RTVSPost2010PropOp33
 70
     1
102
RTVSPost2010Prop34
280
     0
102
RTVSPost2010PropOp34
 70
     1
102
RTVSPost2010Prop35
280
     0
102
RTVSPost2010PropOp35
 70
     1
102
RTVSPost2010Prop36
280
     0
102
RTVSPost2010PropOp36
 70
     1
102
RTVSPost2010Prop37
 90
       50
102
RTVSPost2010PropOp37
 70
     0
102
RTVSPost2010Prop38
140
0.0
102
RTVSPost2010PropOp38
 70
     0
102
RTVSPost2010Prop39
140
1.0
102
RTVSPost2010PropOp39
 70
     0
102
RTVSPost2010Prop40
 90
        0
102
RTVSPost2010PropOp40
 70
     0
102
RTVSPost2010Prop41ColorIndex
 90
       18
102
RTVSPost2010Prop41ColorRGB
 90
        0
102
RTVSPost2010PropOp41
 70
     0
102
RTVSPost2010Prop42
 90
       50
102
RTVSPost2010PropOp42
 70
     0
102
RTVSPost2010Prop43
 90
        3
102
RTVSPost2010PropOp43
 70
     0
102
RTVSPost2010Prop44ColorIndex
 90
        5
102
RTVSPost2010Prop44ColorRGB
 90
      255
102
RTVSPost2010PropOp44
 70
     0
102
RTVSPost2010Prop45
280
     0
102
RTVSPost2010PropOp45
 70
     1
102
RTVSPost2010Prop46
 90
       50
102
RTVSPost2010PropOp46
 70
     0
102
RTVSPost2010Prop47
 90
       50
102
RTVSPost2010PropOp47
 70
     0
102
RTVSPost2010Prop48
 90
       50
102
RTVSPost2010PropOp48
 70
     0
102
RTVSPost2010Prop49
280
     0
102
RTVSPost2010PropOp49
 70
     1
102
RTVSPost2010Prop50
 90
       50
102
RTVSPost2010PropOp50
 70
     0
102
RTVSPost2010Prop51ColorIndex
 90
      256
102
RTVSPost2010Prop51ColorRGB
 90
-16777216
102
RTVSPost2010PropOp51
 70
     0
102
RTVSPost2010Prop52
140
1.0
102
RTVSPost2010PropOp52
 70
     0
102
RTVSPost2010Prop53
 90
        2
102
RTVSPost2010PropOp53
 70
     0
102
RTVSPost2010Prop54
  1
strokes_ogs.tif
102
RTVSPost2010PropOp54
 70
     0
102
RTVSPost2010Prop55
280
     0
102
RTVSPost2010PropOp55
 70
     1
102
RTVSPost2010Prop56
140
1.0
102
RTVSPost2010PropOp56
 70
     0
102
RTVSPost2010Prop57
140
1.0
102
RTVSPost2010PropOp57
 70
     0
102
RTVSPropertyOp0
 70
     0
102
RTVSPropertyOp1
 70
     0
102
RTVSPropertyOp2
 70
     0
102
RTVSPropertyOp3
 70
     0
102
RTVSPropertyOp4
 70
     0
102
RTVSPropertyOp5
 70
     0
102
RTVSPropertyOp6
 70
     0
102
RTVSPropertyOp7
 70
     0
102
RTVSPropertyOp8
 70
     0
102
RTVSPropertyOp9
 70
     0
102
RTVSPropertyOp10
 70
     0
102
RTVSPropertyOp11
 70
     0
102
RTVSPropertyOp12
 70
     0
102
RTVSPropertyOp13
 70
     0
102
RTVSPropertyOp14
 70
     2
102
RTVSPropertyOp15
 70
     0
102
RTVSPropertyOp16
 70
     0
102
RTVSPropertyOp17
 70
     0
102
RTVSPropertyOp18
 70
     0
102
RTVSPropertyOp19
 70
     0
102
RTVSPropertyOp20
 70
     0
102
RTVSPropertyOp21
 70
     0
102
RTVSPropertyOp22
 70
     0
102
RTVSPropertyOp23
 70
     0
102
RTVSPropertyOp24
 70
     0
102
RTVSPropertyOp25
 70
     0
102
RTVSPropertyOp26
 70
     0
102
RTVSPropertyOp27
 70
     0
102
RTVSPropertyOp28
 70
     1
102
RTVSPropertyOp29
 70
     1
102
RTVSPropertyOp30
 70
     1
102
RTVSPropertyOp31
 70
     1
102
RTVSPropertyOp32
 70
     1
102
RTVSPropertyOp33
 70
     1
102
RTVSPropertyOp34
 70
     1
102
RTVSPropertyOp35
 70
     1
102
RTVSPropertyOp36
 70
     1
102
RTVSPropertyOp37
 70
     0
102
RTVSPropertyOp38
 70
     0
102
RTVSPropertyOp39
 70
     0
102
RTVSPropertyOp40
 70
     0
102
RTVSPropertyOp41
 70
     0
102
RTVSPropertyOp42
 70
     0
102
RTVSPropertyOp43
 70
     0
102
RTVSPropertyOp44
 70
     0
102
RTVSPropertyOp45
 70
     1
102
RTVSPropertyOp46
 70
     0
102
RTVSPropertyOp47
 70
     0
102
RTVSPropertyOp48
 70
     0
102
RTVSPropertyOp49
 70
     1
102
RTVSPropertyOp50
 70
     0
102
RTVSPropertyOp51
 70
     0
102
RTVSPropertyOp52
 70
     0
102
RTVSPropertyOp53
 70
     0
102
RTVSPropertyOp54
 70
     0
102
RTVSPropertyOp55
 70
     1
102
RTVSPropertyOp56
 70
     0
102
RTVSPropertyOp57
 70
     0
102
RTVSPropertyOp58
 70
     0
102
RTVSPropertyOp59
 70
     0
102
RTVSPropertyOp60
 70
     0
102
RTVSPropertyOp61
 70
     0
102
RTVSPropertyOp62
 70
     0
  0
XRECORD
  5
CC11
102
{ACAD_REACTORS
330
CC10
102
}
330
CC10
100
AcDbXrecord
280
     1
102
RTVSPost2010Prop28
280
     0
102
RTVSPost2010PropOp28
 70
     1
102
RTVSPost2010Prop29
280
     1
102
RTVSPost2010PropOp29
 70
     1
102
RTVSPost2010Prop30
280
     1
102
RTVSPost2010PropOp30
 70
     1
102
RTVSPost2010Prop31
280
     0
102
RTVSPost2010PropOp31
 70
     1
102
RTVSPost2010Prop32
280
     0
102
RTVSPost2010PropOp32
 70
     1
102
RTVSPost2010Prop33
280
     0
102
RTVSPost2010PropOp33
 70
     1
102
RTVSPost2010Prop34
280
     0
102
RTVSPost2010PropOp34
 70
     1
102
RTVSPost2010Prop35
280
     0
102
RTVSPost2010PropOp35
 70
     1
102
RTVSPost2010Prop36
280
     0
102
RTVSPost2010PropOp36
 70
     1
102
RTVSPost2010Prop37
 90
       50
102
RTVSPost2010PropOp37
 70
     1
102
RTVSPost2010Prop38
140
0.0
102
RTVSPost2010PropOp38
 70
     1
102
RTVSPost2010Prop39
140
1.0
102
RTVSPost2010PropOp39
 70
     1
102
RTVSPost2010Prop40
 90
        0
102
RTVSPost2010PropOp40
 70
     1
102
RTVSPost2010Prop41ColorIndex
 90
       18
102
RTVSPost2010Prop41ColorRGB
 90
        0
102
RTVSPost2010PropOp41
 70
     1
102
RTVSPost2010Prop42
 90
       50
102
RTVSPost2010PropOp42
 70
     1
102
RTVSPost2010Prop43
 90
        3
102
RTVSPost2010PropOp43
 70
     1
102
RTVSPost2010Prop44ColorIndex
 90
        5
102
RTVSPost2010Prop44ColorRGB
 90
      255
102
RTVSPost2010PropOp44
 70
     1
102
RTVSPost2010Prop45
280
     0
102
RTVSPost2010PropOp45
 70
     1
102
RTVSPost2010Prop46
 90
       50
102
RTVSPost2010PropOp46
 70
     1
102
RTVSPost2010Prop47
 90
       50
102
RTVSPost2010PropOp47
 70
     1
102
RTVSPost2010Prop48
 90
       50
102
RTVSPost2010PropOp48
 70
     1
102
RTVSPost2010Prop49
280
     0
102
RTVSPost2010PropOp49
 70
     1
102
RTVSPost2010Prop50
 90
       50
102
RTVSPost2010PropOp50
 70
     1
102
RTVSPost2010Prop51ColorIndex
 90
      256
102
RTVSPost2010Prop51ColorRGB
 90
-16777216
102
RTVSPost2010PropOp51
 70
     0
102
RTVSPost2010Prop52
140
1.0
102
RTVSPost2010PropOp52
 70
     0
102
RTVSPost2010Prop53
 90
        2
102
RTVSPost2010PropOp53
 70
     1
102
RTVSPost2010Prop54
  1
strokes_ogs.tif
102
RTVSPost2010PropOp54
 70
     1
102
RTVSPost2010Prop55
280
     0
102
RTVSPost2010PropOp55
 70
     1
102
RTVSPost2010Prop56
140
1.0
102
RTVSPost2010PropOp56
 70
     1
102
RTVSPost2010Prop57
140
1.0
102
RTVSPost2010PropOp57
 70
     1
102
RTVSPropertyOp0
 70
     1
102
RTVSPropertyOp1
 70
     1
102
RTVSPropertyOp2
 70
     1
102
RTVSPropertyOp3
 70
     1
102
RTVSPropertyOp4
 70
     1
102
RTVSPropertyOp5
 70
     1
102
RTVSPropertyOp6
 70
     1
102
RTVSPropertyOp7
 70
     1
102
RTVSPropertyOp8
 70
     1
102
RTVSPropertyOp9
 70
     1
102
RTVSPropertyOp10
 70
     1
102
RTVSPropertyOp11
 70
     1
102
RTVSPropertyOp12
 70
     1
102
RTVSPropertyOp13
 70
     1
102
RTVSPropertyOp14
 70
     1
102
RTVSPropertyOp15
 70
     1
102
RTVSPropertyOp16
 70
     1
102
RTVSPropertyOp17
 70
     1
102
RTVSPropertyOp18
 70
     1
102
RTVSPropertyOp19
 70
     1
102
RTVSPropertyOp20
 70
     1
102
RTVSPropertyOp21
 70
     1
102
RTVSPropertyOp22
 70
     1
102
RTVSPropertyOp23
 70
     1
102
RTVSPropertyOp24
 70
     1
102
RTVSPropertyOp25
 70
     1
102
RTVSPropertyOp26
 70
     1
102
RTVSPropertyOp27
 70
     1
102
RTVSPropertyOp28
 70
     1
102
RTVSPropertyOp29
 70
     1
102
RTVSPropertyOp30
 70
     1
102
RTVSPropertyOp31
 70
     1
102
RTVSPropertyOp32
 70
     1
102
RTVSPropertyOp33
 70
     1
102
RTVSPropertyOp34
 70
     1
102
RTVSPropertyOp35
 70
     1
102
RTVSPropertyOp36
 70
     1
102
RTVSPropertyOp37
 70
     1
102
RTVSPropertyOp38
 70
     1
102
RTVSPropertyOp39
 70
     1
102
RTVSPropertyOp40
 70
     1
102
RTVSPropertyOp41
 70
     1
102
RTVSPropertyOp42
 70
     1
102
RTVSPropertyOp43
 70
     1
102
RTVSPropertyOp44
 70
     1
102
RTVSPropertyOp45
 70
     1
102
RTVSPropertyOp46
 70
     1
102
RTVSPropertyOp47
 70
     1
102
RTVSPropertyOp48
 70
     1
102
RTVSPropertyOp49
 70
     1
102
RTVSPropertyOp50
 70
     1
102
RTVSPropertyOp51
 70
     0
102
RTVSPropertyOp52
 70
     0
102
RTVSPropertyOp53
 70
     1
102
RTVSPropertyOp54
 70
     1
102
RTVSPropertyOp55
 70
     1
102
RTVSPropertyOp56
 70
     1
102
RTVSPropertyOp57
 70
     1
102
RTVSPropertyOp58
 70
     1
102
RTVSPropertyOp59
 70
     1
102
RTVSPropertyOp60
 70
     1
102
RTVSPropertyOp61
 70
     1
102
RTVSPropertyOp62
 70
     1
  0
XRECORD
  5
CBF5
102
{ACAD_REACTORS
330
CBF4
102
}
330
CBF4
100
AcDbXrecord
280
     1
102
RTVSPost2010Prop28
280
     0
102
RTVSPost2010PropOp28
 70
     1
102
RTVSPost2010Prop29
280
     1
102
RTVSPost2010PropOp29
 70
     1
102
RTVSPost2010Prop30
280
     1
102
RTVSPost2010PropOp30
 70
     1
102
RTVSPost2010Prop31
280
     0
102
RTVSPost2010PropOp31
 70
     1
102
RTVSPost2010Prop32
280
     0
102
RTVSPost2010PropOp32
 70
     1
102
RTVSPost2010Prop33
280
     0
102
RTVSPost2010PropOp33
 70
     1
102
RTVSPost2010Prop34
280
     0
102
RTVSPost2010PropOp34
 70
     1
102
RTVSPost2010Prop35
280
     0
102
RTVSPost2010PropOp35
 70
     1
102
RTVSPost2010Prop36
280
     0
102
RTVSPost2010PropOp36
 70
     1
102
RTVSPost2010Prop37
 90
       50
102
RTVSPost2010PropOp37
 70
     1
102
RTVSPost2010Prop38
140
0.0
102
RTVSPost2010PropOp38
 70
     1
102
RTVSPost2010Prop39
140
1.0
102
RTVSPost2010PropOp39
 70
     1
102
RTVSPost2010Prop40
 90
        0
102
RTVSPost2010PropOp40
 70
     1
102
RTVSPost2010Prop41ColorIndex
 90
       18
102
RTVSPost2010Prop41ColorRGB
 90
        0
102
RTVSPost2010PropOp41
 70
     1
102
RTVSPost2010Prop42
 90
       50
102
RTVSPost2010PropOp42
 70
     1
102
RTVSPost2010Prop43
 90
        3
102
RTVSPost2010PropOp43
 70
     1
102
RTVSPost2010Prop44ColorIndex
 90
        5
102
RTVSPost2010Prop44ColorRGB
 90
      255
102
RTVSPost2010PropOp44
 70
     1
102
RTVSPost2010Prop45
280
     0
102
RTVSPost2010PropOp45
 70
     1
102
RTVSPost2010Prop46
 90
       50
102
RTVSPost2010PropOp46
 70
     1
102
RTVSPost2010Prop47
 90
       50
102
RTVSPost2010PropOp47
 70
     1
102
RTVSPost2010Prop48
 90
       50
102
RTVSPost2010PropOp48
 70
     1
102
RTVSPost2010Prop49
280
     0
102
RTVSPost2010PropOp49
 70
     1
102
RTVSPost2010Prop50
 90
       50
102
RTVSPost2010PropOp50
 70
     1
102
RTVSPost2010Prop51ColorIndex
 90
      256
102
RTVSPost2010Prop51ColorRGB
 90
-16777216
102
RTVSPost2010PropOp51
 70
     0
102
RTVSPost2010Prop52
140
1.0
102
RTVSPost2010PropOp52
 70
     0
102
RTVSPost2010Prop53
 90
        2
102
RTVSPost2010PropOp53
 70
     1
102
RTVSPost2010Prop54
  1
strokes_ogs.tif
102
RTVSPost2010PropOp54
 70
     1
102
RTVSPost2010Prop55
280
     0
102
RTVSPost2010PropOp55
 70
     1
102
RTVSPost2010Prop56
140
1.0
102
RTVSPost2010PropOp56
 70
     1
102
RTVSPost2010Prop57
140
1.0
102
RTVSPost2010PropOp57
 70
     1
102
RTVSPropertyOp0
 70
     1
102
RTVSPropertyOp1
 70
     1
102
RTVSPropertyOp2
 70
     1
102
RTVSPropertyOp3
 70
     1
102
RTVSPropertyOp4
 70
     1
102
RTVSPropertyOp5
 70
     1
102
RTVSPropertyOp6
 70
     1
102
RTVSPropertyOp7
 70
     1
102
RTVSPropertyOp8
 70
     1
102
RTVSPropertyOp9
 70
     1
102
RTVSPropertyOp10
 70
     1
102
RTVSPropertyOp11
 70
     1
102
RTVSPropertyOp12
 70
     1
102
RTVSPropertyOp13
 70
     1
102
RTVSPropertyOp14
 70
     1
102
RTVSPropertyOp15
 70
     1
102
RTVSPropertyOp16
 70
     1
102
RTVSPropertyOp17
 70
     1
102
RTVSPropertyOp18
 70
     1
102
RTVSPropertyOp19
 70
     1
102
RTVSPropertyOp20
 70
     1
102
RTVSPropertyOp21
 70
     1
102
RTVSPropertyOp22
 70
     1
102
RTVSPropertyOp23
 70
     1
102
RTVSPropertyOp24
 70
     1
102
RTVSPropertyOp25
 70
     1
102
RTVSPropertyOp26
 70
     1
102
RTVSPropertyOp27
 70
     1
102
RTVSPropertyOp28
 70
     1
102
RTVSPropertyOp29
 70
     1
102
RTVSPropertyOp30
 70
     1
102
RTVSPropertyOp31
 70
     1
102
RTVSPropertyOp32
 70
     1
102
RTVSPropertyOp33
 70
     1
102
RTVSPropertyOp34
 70
     1
102
RTVSPropertyOp35
 70
     1
102
RTVSPropertyOp36
 70
     1
102
RTVSPropertyOp37
 70
     1
102
RTVSPropertyOp38
 70
     1
102
RTVSPropertyOp39
 70
     1
102
RTVSPropertyOp40
 70
     1
102
RTVSPropertyOp41
 70
     1
102
RTVSPropertyOp42
 70
     1
102
RTVSPropertyOp43
 70
     1
102
RTVSPropertyOp44
 70
     1
102
RTVSPropertyOp45
 70
     1
102
RTVSPropertyOp46
 70
     1
102
RTVSPropertyOp47
 70
     1
102
RTVSPropertyOp48
 70
     1
102
RTVSPropertyOp49
 70
     1
102
RTVSPropertyOp50
 70
     1
102
RTVSPropertyOp51
 70
     0
102
RTVSPropertyOp52
 70
     0
102
RTVSPropertyOp53
 70
     1
102
RTVSPropertyOp54
 70
     1
102
RTVSPropertyOp55
 70
     1
102
RTVSPropertyOp56
 70
     1
102
RTVSPropertyOp57
 70
     1
102
RTVSPropertyOp58
 70
     1
102
RTVSPropertyOp59
 70
     1
102
RTVSPropertyOp60
 70
     1
102
RTVSPropertyOp61
 70
     1
102
RTVSPropertyOp62
 70
     1
  0
XRECORD
  5
CBF7
102
{ACAD_REACTORS
330
CBF6
102
}
330
CBF6
100
AcDbXrecord
280
     1
102
RTVSPost2010Prop28
280
     0
102
RTVSPost2010PropOp28
 70
     1
102
RTVSPost2010Prop29
280
     1
102
RTVSPost2010PropOp29
 70
     1
102
RTVSPost2010Prop30
280
     1
102
RTVSPost2010PropOp30
 70
     1
102
RTVSPost2010Prop31
280
     0
102
RTVSPost2010PropOp31
 70
     1
102
RTVSPost2010Prop32
280
     0
102
RTVSPost2010PropOp32
 70
     1
102
RTVSPost2010Prop33
280
     0
102
RTVSPost2010PropOp33
 70
     1
102
RTVSPost2010Prop34
280
     0
102
RTVSPost2010PropOp34
 70
     1
102
RTVSPost2010Prop35
280
     0
102
RTVSPost2010PropOp35
 70
     1
102
RTVSPost2010Prop36
280
     0
102
RTVSPost2010PropOp36
 70
     1
102
RTVSPost2010Prop37
 90
       50
102
RTVSPost2010PropOp37
 70
     1
102
RTVSPost2010Prop38
140
0.0
102
RTVSPost2010PropOp38
 70
     1
102
RTVSPost2010Prop39
140
1.0
102
RTVSPost2010PropOp39
 70
     1
102
RTVSPost2010Prop40
 90
        0
102
RTVSPost2010PropOp40
 70
     1
102
RTVSPost2010Prop41ColorIndex
 90
       18
102
RTVSPost2010Prop41ColorRGB
 90
        0
102
RTVSPost2010PropOp41
 70
     1
102
RTVSPost2010Prop42
 90
       50
102
RTVSPost2010PropOp42
 70
     1
102
RTVSPost2010Prop43
 90
        3
102
RTVSPost2010PropOp43
 70
     1
102
RTVSPost2010Prop44ColorIndex
 90
        5
102
RTVSPost2010Prop44ColorRGB
 90
      255
102
RTVSPost2010PropOp44
 70
     1
102
RTVSPost2010Prop45
280
     0
102
RTVSPost2010PropOp45
 70
     1
102
RTVSPost2010Prop46
 90
       50
102
RTVSPost2010PropOp46
 70
     1
102
RTVSPost2010Prop47
 90
       50
102
RTVSPost2010PropOp47
 70
     1
102
RTVSPost2010Prop48
 90
       50
102
RTVSPost2010PropOp48
 70
     1
102
RTVSPost2010Prop49
280
     0
102
RTVSPost2010PropOp49
 70
     1
102
RTVSPost2010Prop50
 90
       50
102
RTVSPost2010PropOp50
 70
     1
102
RTVSPost2010Prop51ColorIndex
 90
      256
102
RTVSPost2010Prop51ColorRGB
 90
-16777216
102
RTVSPost2010PropOp51
 70
     0
102
RTVSPost2010Prop52
140
1.0
102
RTVSPost2010PropOp52
 70
     0
102
RTVSPost2010Prop53
 90
        2
102
RTVSPost2010PropOp53
 70
     1
102
RTVSPost2010Prop54
  1
strokes_ogs.tif
102
RTVSPost2010PropOp54
 70
     1
102
RTVSPost2010Prop55
280
     0
102
RTVSPost2010PropOp55
 70
     1
102
RTVSPost2010Prop56
140
1.0
102
RTVSPost2010PropOp56
 70
     1
102
RTVSPost2010Prop57
140
1.0
102
RTVSPost2010PropOp57
 70
     1
102
RTVSPropertyOp0
 70
     1
102
RTVSPropertyOp1
 70
     1
102
RTVSPropertyOp2
 70
     1
102
RTVSPropertyOp3
 70
     1
102
RTVSPropertyOp4
 70
     1
102
RTVSPropertyOp5
 70
     1
102
RTVSPropertyOp6
 70
     1
102
RTVSPropertyOp7
 70
     1
102
RTVSPropertyOp8
 70
     1
102
RTVSPropertyOp9
 70
     1
102
RTVSPropertyOp10
 70
     1
102
RTVSPropertyOp11
 70
     1
102
RTVSPropertyOp12
 70
     1
102
RTVSPropertyOp13
 70
     1
102
RTVSPropertyOp14
 70
     1
102
RTVSPropertyOp15
 70
     1
102
RTVSPropertyOp16
 70
     1
102
RTVSPropertyOp17
 70
     1
102
RTVSPropertyOp18
 70
     1
102
RTVSPropertyOp19
 70
     1
102
RTVSPropertyOp20
 70
     1
102
RTVSPropertyOp21
 70
     1
102
RTVSPropertyOp22
 70
     1
102
RTVSPropertyOp23
 70
     1
102
RTVSPropertyOp24
 70
     1
102
RTVSPropertyOp25
 70
     1
102
RTVSPropertyOp26
 70
     1
102
RTVSPropertyOp27
 70
     1
102
RTVSPropertyOp28
 70
     1
102
RTVSPropertyOp29
 70
     1
102
RTVSPropertyOp30
 70
     1
102
RTVSPropertyOp31
 70
     1
102
RTVSPropertyOp32
 70
     1
102
RTVSPropertyOp33
 70
     1
102
RTVSPropertyOp34
 70
     1
102
RTVSPropertyOp35
 70
     1
102
RTVSPropertyOp36
 70
     1
102
RTVSPropertyOp37
 70
     1
102
RTVSPropertyOp38
 70
     1
102
RTVSPropertyOp39
 70
     1
102
RTVSPropertyOp40
 70
     1
102
RTVSPropertyOp41
 70
     1
102
RTVSPropertyOp42
 70
     1
102
RTVSPropertyOp43
 70
     1
102
RTVSPropertyOp44
 70
     1
102
RTVSPropertyOp45
 70
     1
102
RTVSPropertyOp46
 70
     1
102
RTVSPropertyOp47
 70
     1
102
RTVSPropertyOp48
 70
     1
102
RTVSPropertyOp49
 70
     1
102
RTVSPropertyOp50
 70
     1
102
RTVSPropertyOp51
 70
     0
102
RTVSPropertyOp52
 70
     0
102
RTVSPropertyOp53
 70
     1
102
RTVSPropertyOp54
 70
     1
102
RTVSPropertyOp55
 70
     1
102
RTVSPropertyOp56
 70
     1
102
RTVSPropertyOp57
 70
     1
102
RTVSPropertyOp58
 70
     1
102
RTVSPropertyOp59
 70
     1
102
RTVSPropertyOp60
 70
     1
102
RTVSPropertyOp61
 70
     1
102
RTVSPropertyOp62
 70
     1
  0
XRECORD
  5
CBF9
102
{ACAD_REACTORS
330
CBF8
102
}
330
CBF8
100
AcDbXrecord
280
     1
102
RTVSPost2010Prop28
280
     0
102
RTVSPost2010PropOp28
 70
     1
102
RTVSPost2010Prop29
280
     1
102
RTVSPost2010PropOp29
 70
     1
102
RTVSPost2010Prop30
280
     1
102
RTVSPost2010PropOp30
 70
     1
102
RTVSPost2010Prop31
280
     0
102
RTVSPost2010PropOp31
 70
     1
102
RTVSPost2010Prop32
280
     0
102
RTVSPost2010PropOp32
 70
     1
102
RTVSPost2010Prop33
280
     0
102
RTVSPost2010PropOp33
 70
     1
102
RTVSPost2010Prop34
280
     0
102
RTVSPost2010PropOp34
 70
     1
102
RTVSPost2010Prop35
280
     0
102
RTVSPost2010PropOp35
 70
     1
102
RTVSPost2010Prop36
280
     0
102
RTVSPost2010PropOp36
 70
     1
102
RTVSPost2010Prop37
 90
       50
102
RTVSPost2010PropOp37
 70
     1
102
RTVSPost2010Prop38
140
0.0
102
RTVSPost2010PropOp38
 70
     1
102
RTVSPost2010Prop39
140
1.0
102
RTVSPost2010PropOp39
 70
     1
102
RTVSPost2010Prop40
 90
        0
102
RTVSPost2010PropOp40
 70
     1
102
RTVSPost2010Prop41ColorIndex
 90
       18
102
RTVSPost2010Prop41ColorRGB
 90
        0
102
RTVSPost2010PropOp41
 70
     1
102
RTVSPost2010Prop42
 90
       50
102
RTVSPost2010PropOp42
 70
     1
102
RTVSPost2010Prop43
 90
        3
102
RTVSPost2010PropOp43
 70
     1
102
RTVSPost2010Prop44ColorIndex
 90
        5
102
RTVSPost2010Prop44ColorRGB
 90
      255
102
RTVSPost2010PropOp44
 70
     1
102
RTVSPost2010Prop45
280
     0
102
RTVSPost2010PropOp45
 70
     1
102
RTVSPost2010Prop46
 90
       50
102
RTVSPost2010PropOp46
 70
     1
102
RTVSPost2010Prop47
 90
       50
102
RTVSPost2010PropOp47
 70
     1
102
RTVSPost2010Prop48
 90
       50
102
RTVSPost2010PropOp48
 70
     1
102
RTVSPost2010Prop49
280
     0
102
RTVSPost2010PropOp49
 70
     1
102
RTVSPost2010Prop50
 90
       50
102
RTVSPost2010PropOp50
 70
     1
102
RTVSPost2010Prop51ColorIndex
 90
      256
102
RTVSPost2010Prop51ColorRGB
 90
-16777216
102
RTVSPost2010PropOp51
 70
     0
102
RTVSPost2010Prop52
140
1.0
102
RTVSPost2010PropOp52
 70
     0
102
RTVSPost2010Prop53
 90
        2
102
RTVSPost2010PropOp53
 70
     1
102
RTVSPost2010Prop54
  1
strokes_ogs.tif
102
RTVSPost2010PropOp54
 70
     1
102
RTVSPost2010Prop55
280
     0
102
RTVSPost2010PropOp55
 70
     1
102
RTVSPost2010Prop56
140
1.0
102
RTVSPost2010PropOp56
 70
     1
102
RTVSPost2010Prop57
140
1.0
102
RTVSPost2010PropOp57
 70
     1
102
RTVSPropertyOp0
 70
     1
102
RTVSPropertyOp1
 70
     1
102
RTVSPropertyOp2
 70
     1
102
RTVSPropertyOp3
 70
     1
102
RTVSPropertyOp4
 70
     1
102
RTVSPropertyOp5
 70
     1
102
RTVSPropertyOp6
 70
     1
102
RTVSPropertyOp7
 70
     1
102
RTVSPropertyOp8
 70
     1
102
RTVSPropertyOp9
 70
     1
102
RTVSPropertyOp10
 70
     1
102
RTVSPropertyOp11
 70
     1
102
RTVSPropertyOp12
 70
     1
102
RTVSPropertyOp13
 70
     1
102
RTVSPropertyOp14
 70
     1
102
RTVSPropertyOp15
 70
     1
102
RTVSPropertyOp16
 70
     1
102
RTVSPropertyOp17
 70
     1
102
RTVSPropertyOp18
 70
     1
102
RTVSPropertyOp19
 70
     1
102
RTVSPropertyOp20
 70
     1
102
RTVSPropertyOp21
 70
     1
102
RTVSPropertyOp22
 70
     1
102
RTVSPropertyOp23
 70
     1
102
RTVSPropertyOp24
 70
     1
102
RTVSPropertyOp25
 70
     1
102
RTVSPropertyOp26
 70
     1
102
RTVSPropertyOp27
 70
     1
102
RTVSPropertyOp28
 70
     1
102
RTVSPropertyOp29
 70
     1
102
RTVSPropertyOp30
 70
     1
102
RTVSPropertyOp31
 70
     1
102
RTVSPropertyOp32
 70
     1
102
RTVSPropertyOp33
 70
     1
102
RTVSPropertyOp34
 70
     1
102
RTVSPropertyOp35
 70
     1
102
RTVSPropertyOp36
 70
     1
102
RTVSPropertyOp37
 70
     1
102
RTVSPropertyOp38
 70
     1
102
RTVSPropertyOp39
 70
     1
102
RTVSPropertyOp40
 70
     1
102
RTVSPropertyOp41
 70
     1
102
RTVSPropertyOp42
 70
     1
102
RTVSPropertyOp43
 70
     1
102
RTVSPropertyOp44
 70
     1
102
RTVSPropertyOp45
 70
     1
102
RTVSPropertyOp46
 70
     1
102
RTVSPropertyOp47
 70
     1
102
RTVSPropertyOp48
 70
     1
102
RTVSPropertyOp49
 70
     1
102
RTVSPropertyOp50
 70
     1
102
RTVSPropertyOp51
 70
     0
102
RTVSPropertyOp52
 70
     0
102
RTVSPropertyOp53
 70
     1
102
RTVSPropertyOp54
 70
     1
102
RTVSPropertyOp55
 70
     1
102
RTVSPropertyOp56
 70
     1
102
RTVSPropertyOp57
 70
     1
102
RTVSPropertyOp58
 70
     1
102
RTVSPropertyOp59
 70
     1
102
RTVSPropertyOp60
 70
     1
102
RTVSPropertyOp61
 70
     1
102
RTVSPropertyOp62
 70
     1
  0
XRECORD
  5
CBFB
102
{ACAD_REACTORS
330
CBFA
102
}
330
CBFA
100
AcDbXrecord
280
     1
102
RTVSPost2010Prop28
280
     0
102
RTVSPost2010PropOp28
 70
     1
102
RTVSPost2010Prop29
280
     1
102
RTVSPost2010PropOp29
 70
     1
102
RTVSPost2010Prop30
280
     1
102
RTVSPost2010PropOp30
 70
     1
102
RTVSPost2010Prop31
280
     0
102
RTVSPost2010PropOp31
 70
     1
102
RTVSPost2010Prop32
280
     0
102
RTVSPost2010PropOp32
 70
     1
102
RTVSPost2010Prop33
280
     0
102
RTVSPost2010PropOp33
 70
     1
102
RTVSPost2010Prop34
280
     0
102
RTVSPost2010PropOp34
 70
     1
102
RTVSPost2010Prop35
280
     0
102
RTVSPost2010PropOp35
 70
     1
102
RTVSPost2010Prop36
280
     0
102
RTVSPost2010PropOp36
 70
     1
102
RTVSPost2010Prop37
 90
       50
102
RTVSPost2010PropOp37
 70
     1
102
RTVSPost2010Prop38
140
0.0
102
RTVSPost2010PropOp38
 70
     1
102
RTVSPost2010Prop39
140
1.0
102
RTVSPost2010PropOp39
 70
     1
102
RTVSPost2010Prop40
 90
        0
102
RTVSPost2010PropOp40
 70
     1
102
RTVSPost2010Prop41ColorIndex
 90
       18
102
RTVSPost2010Prop41ColorRGB
 90
        0
102
RTVSPost2010PropOp41
 70
     1
102
RTVSPost2010Prop42
 90
       50
102
RTVSPost2010PropOp42
 70
     1
102
RTVSPost2010Prop43
 90
        3
102
RTVSPost2010PropOp43
 70
     1
102
RTVSPost2010Prop44ColorIndex
 90
        5
102
RTVSPost2010Prop44ColorRGB
 90
      255
102
RTVSPost2010PropOp44
 70
     1
102
RTVSPost2010Prop45
280
     0
102
RTVSPost2010PropOp45
 70
     1
102
RTVSPost2010Prop46
 90
       50
102
RTVSPost2010PropOp46
 70
     1
102
RTVSPost2010Prop47
 90
       50
102
RTVSPost2010PropOp47
 70
     1
102
RTVSPost2010Prop48
 90
       50
102
RTVSPost2010PropOp48
 70
     1
102
RTVSPost2010Prop49
280
     0
102
RTVSPost2010PropOp49
 70
     1
102
RTVSPost2010Prop50
 90
       50
102
RTVSPost2010PropOp50
 70
     1
102
RTVSPost2010Prop51ColorIndex
 90
      256
102
RTVSPost2010Prop51ColorRGB
 90
-16777216
102
RTVSPost2010PropOp51
 70
     0
102
RTVSPost2010Prop52
140
1.0
102
RTVSPost2010PropOp52
 70
     0
102
RTVSPost2010Prop53
 90
        2
102
RTVSPost2010PropOp53
 70
     1
102
RTVSPost2010Prop54
  1
strokes_ogs.tif
102
RTVSPost2010PropOp54
 70
     1
102
RTVSPost2010Prop55
280
     0
102
RTVSPost2010PropOp55
 70
     1
102
RTVSPost2010Prop56
140
1.0
102
RTVSPost2010PropOp56
 70
     1
102
RTVSPost2010Prop57
140
1.0
102
RTVSPost2010PropOp57
 70
     1
102
RTVSPropertyOp0
 70
     1
102
RTVSPropertyOp1
 70
     1
102
RTVSPropertyOp2
 70
     1
102
RTVSPropertyOp3
 70
     1
102
RTVSPropertyOp4
 70
     1
102
RTVSPropertyOp5
 70
     1
102
RTVSPropertyOp6
 70
     1
102
RTVSPropertyOp7
 70
     1
102
RTVSPropertyOp8
 70
     1
102
RTVSPropertyOp9
 70
     1
102
RTVSPropertyOp10
 70
     1
102
RTVSPropertyOp11
 70
     1
102
RTVSPropertyOp12
 70
     1
102
RTVSPropertyOp13
 70
     1
102
RTVSPropertyOp14
 70
     1
102
RTVSPropertyOp15
 70
     1
102
RTVSPropertyOp16
 70
     1
102
RTVSPropertyOp17
 70
     1
102
RTVSPropertyOp18
 70
     1
102
RTVSPropertyOp19
 70
     1
102
RTVSPropertyOp20
 70
     1
102
RTVSPropertyOp21
 70
     1
102
RTVSPropertyOp22
 70
     1
102
RTVSPropertyOp23
 70
     1
102
RTVSPropertyOp24
 70
     1
102
RTVSPropertyOp25
 70
     1
102
RTVSPropertyOp26
 70
     1
102
RTVSPropertyOp27
 70
     1
102
RTVSPropertyOp28
 70
     1
102
RTVSPropertyOp29
 70
     1
102
RTVSPropertyOp30
 70
     1
102
RTVSPropertyOp31
 70
     1
102
RTVSPropertyOp32
 70
     1
102
RTVSPropertyOp33
 70
     1
102
RTVSPropertyOp34
 70
     1
102
RTVSPropertyOp35
 70
     1
102
RTVSPropertyOp36
 70
     1
102
RTVSPropertyOp37
 70
     1
102
RTVSPropertyOp38
 70
     1
102
RTVSPropertyOp39
 70
     1
102
RTVSPropertyOp40
 70
     1
102
RTVSPropertyOp41
 70
     1
102
RTVSPropertyOp42
 70
     1
102
RTVSPropertyOp43
 70
     1
102
RTVSPropertyOp44
 70
     1
102
RTVSPropertyOp45
 70
     1
102
RTVSPropertyOp46
 70
     1
102
RTVSPropertyOp47
 70
     1
102
RTVSPropertyOp48
 70
     1
102
RTVSPropertyOp49
 70
     1
102
RTVSPropertyOp50
 70
     1
102
RTVSPropertyOp51
 70
     0
102
RTVSPropertyOp52
 70
     0
102
RTVSPropertyOp53
 70
     1
102
RTVSPropertyOp54
 70
     1
102
RTVSPropertyOp55
 70
     1
102
RTVSPropertyOp56
 70
     1
102
RTVSPropertyOp57
 70
     1
102
RTVSPropertyOp58
 70
     1
102
RTVSPropertyOp59
 70
     1
102
RTVSPropertyOp60
 70
     1
102
RTVSPropertyOp61
 70
     1
102
RTVSPropertyOp62
 70
     1
  0
XRECORD
  5
CC03
102
{ACAD_REACTORS
330
CC02
102
}
330
CC02
100
AcDbXrecord
280
     1
102
RTVSPost2010Prop28
280
     0
102
RTVSPost2010PropOp28
 70
     1
102
RTVSPost2010Prop29
280
     1
102
RTVSPost2010PropOp29
 70
     1
102
RTVSPost2010Prop30
280
     1
102
RTVSPost2010PropOp30
 70
     1
102
RTVSPost2010Prop31
280
     0
102
RTVSPost2010PropOp31
 70
     1
102
RTVSPost2010Prop32
280
     0
102
RTVSPost2010PropOp32
 70
     1
102
RTVSPost2010Prop33
280
     0
102
RTVSPost2010PropOp33
 70
     1
102
RTVSPost2010Prop34
280
     0
102
RTVSPost2010PropOp34
 70
     1
102
RTVSPost2010Prop35
280
     0
102
RTVSPost2010PropOp35
 70
     1
102
RTVSPost2010Prop36
280
     0
102
RTVSPost2010PropOp36
 70
     1
102
RTVSPost2010Prop37
 90
       50
102
RTVSPost2010PropOp37
 70
     1
102
RTVSPost2010Prop38
140
0.0
102
RTVSPost2010PropOp38
 70
     1
102
RTVSPost2010Prop39
140
1.0
102
RTVSPost2010PropOp39
 70
     1
102
RTVSPost2010Prop40
 90
        0
102
RTVSPost2010PropOp40
 70
     1
102
RTVSPost2010Prop41ColorIndex
 90
       18
102
RTVSPost2010Prop41ColorRGB
 90
        0
102
RTVSPost2010PropOp41
 70
     1
102
RTVSPost2010Prop42
 90
       50
102
RTVSPost2010PropOp42
 70
     1
102
RTVSPost2010Prop43
 90
        3
102
RTVSPost2010PropOp43
 70
     1
102
RTVSPost2010Prop44ColorIndex
 90
        5
102
RTVSPost2010Prop44ColorRGB
 90
      255
102
RTVSPost2010PropOp44
 70
     1
102
RTVSPost2010Prop45
280
     0
102
RTVSPost2010PropOp45
 70
     1
102
RTVSPost2010Prop46
 90
       50
102
RTVSPost2010PropOp46
 70
     1
102
RTVSPost2010Prop47
 90
       50
102
RTVSPost2010PropOp47
 70
     1
102
RTVSPost2010Prop48
 90
       50
102
RTVSPost2010PropOp48
 70
     1
102
RTVSPost2010Prop49
280
     0
102
RTVSPost2010PropOp49
 70
     1
102
RTVSPost2010Prop50
 90
       50
102
RTVSPost2010PropOp50
 70
     1
102
RTVSPost2010Prop51ColorIndex
 90
      256
102
RTVSPost2010Prop51ColorRGB
 90
-16777216
102
RTVSPost2010PropOp51
 70
     0
102
RTVSPost2010Prop52
140
1.0
102
RTVSPost2010PropOp52
 70
     0
102
RTVSPost2010Prop53
 90
        2
102
RTVSPost2010PropOp53
 70
     1
102
RTVSPost2010Prop54
  1
strokes_ogs.tif
102
RTVSPost2010PropOp54
 70
     1
102
RTVSPost2010Prop55
280
     0
102
RTVSPost2010PropOp55
 70
     1
102
RTVSPost2010Prop56
140
1.0
102
RTVSPost2010PropOp56
 70
     1
102
RTVSPost2010Prop57
140
1.0
102
RTVSPost2010PropOp57
 70
     1
102
RTVSPropertyOp0
 70
     1
102
RTVSPropertyOp1
 70
     1
102
RTVSPropertyOp2
 70
     1
102
RTVSPropertyOp3
 70
     1
102
RTVSPropertyOp4
 70
     1
102
RTVSPropertyOp5
 70
     1
102
RTVSPropertyOp6
 70
     1
102
RTVSPropertyOp7
 70
     1
102
RTVSPropertyOp8
 70
     1
102
RTVSPropertyOp9
 70
     1
102
RTVSPropertyOp10
 70
     1
102
RTVSPropertyOp11
 70
     1
102
RTVSPropertyOp12
 70
     1
102
RTVSPropertyOp13
 70
     1
102
RTVSPropertyOp14
 70
     1
102
RTVSPropertyOp15
 70
     1
102
RTVSPropertyOp16
 70
     1
102
RTVSPropertyOp17
 70
     1
102
RTVSPropertyOp18
 70
     1
102
RTVSPropertyOp19
 70
     1
102
RTVSPropertyOp20
 70
     1
102
RTVSPropertyOp21
 70
     1
102
RTVSPropertyOp22
 70
     1
102
RTVSPropertyOp23
 70
     1
102
RTVSPropertyOp24
 70
     1
102
RTVSPropertyOp25
 70
     1
102
RTVSPropertyOp26
 70
     1
102
RTVSPropertyOp27
 70
     1
102
RTVSPropertyOp28
 70
     1
102
RTVSPropertyOp29
 70
     1
102
RTVSPropertyOp30
 70
     1
102
RTVSPropertyOp31
 70
     1
102
RTVSPropertyOp32
 70
     1
102
RTVSPropertyOp33
 70
     1
102
RTVSPropertyOp34
 70
     1
102
RTVSPropertyOp35
 70
     1
102
RTVSPropertyOp36
 70
     1
102
RTVSPropertyOp37
 70
     1
102
RTVSPropertyOp38
 70
     1
102
RTVSPropertyOp39
 70
     1
102
RTVSPropertyOp40
 70
     1
102
RTVSPropertyOp41
 70
     1
102
RTVSPropertyOp42
 70
     1
102
RTVSPropertyOp43
 70
     1
102
RTVSPropertyOp44
 70
     1
102
RTVSPropertyOp45
 70
     1
102
RTVSPropertyOp46
 70
     1
102
RTVSPropertyOp47
 70
     1
102
RTVSPropertyOp48
 70
     1
102
RTVSPropertyOp49
 70
     1
102
RTVSPropertyOp50
 70
     1
102
RTVSPropertyOp51
 70
     0
102
RTVSPropertyOp52
 70
     0
102
RTVSPropertyOp53
 70
     1
102
RTVSPropertyOp54
 70
     1
102
RTVSPropertyOp55
 70
     1
102
RTVSPropertyOp56
 70
     1
102
RTVSPropertyOp57
 70
     1
102
RTVSPropertyOp58
 70
     1
102
RTVSPropertyOp59
 70
     1
102
RTVSPropertyOp60
 70
     1
102
RTVSPropertyOp61
 70
     1
102
RTVSPropertyOp62
 70
     1
  0
XRECORD
  5
CC1F
102
{ACAD_REACTORS
330
CC1E
102
}
330
CC1E
100
AcDbXrecord
280
     1
102
RTVSPost2010Prop28
280
     0
102
RTVSPost2010PropOp28
 70
     1
102
RTVSPost2010Prop29
280
     1
102
RTVSPost2010PropOp29
 70
     1
102
RTVSPost2010Prop30
280
     1
102
RTVSPost2010PropOp30
 70
     1
102
RTVSPost2010Prop31
280
     0
102
RTVSPost2010PropOp31
 70
     1
102
RTVSPost2010Prop32
280
     0
102
RTVSPost2010PropOp32
 70
     1
102
RTVSPost2010Prop33
280
     0
102
RTVSPost2010PropOp33
 70
     1
102
RTVSPost2010Prop34
280
     0
102
RTVSPost2010PropOp34
 70
     1
102
RTVSPost2010Prop35
280
     0
102
RTVSPost2010PropOp35
 70
     1
102
RTVSPost2010Prop36
280
     0
102
RTVSPost2010PropOp36
 70
     1
102
RTVSPost2010Prop37
 90
       50
102
RTVSPost2010PropOp37
 70
     0
102
RTVSPost2010Prop38
140
0.0
102
RTVSPost2010PropOp38
 70
     0
102
RTVSPost2010Prop39
140
1.0
102
RTVSPost2010PropOp39
 70
     0
102
RTVSPost2010Prop40
 90
        0
102
RTVSPost2010PropOp40
 70
     0
102
RTVSPost2010Prop41ColorIndex
 90
       18
102
RTVSPost2010Prop41ColorRGB
 90
        0
102
RTVSPost2010PropOp41
 70
     0
102
RTVSPost2010Prop42
 90
       50
102
RTVSPost2010PropOp42
 70
     0
102
RTVSPost2010Prop43
 90
        3
102
RTVSPost2010PropOp43
 70
     0
102
RTVSPost2010Prop44ColorIndex
 90
        5
102
RTVSPost2010Prop44ColorRGB
 90
      255
102
RTVSPost2010PropOp44
 70
     0
102
RTVSPost2010Prop45
280
     0
102
RTVSPost2010PropOp45
 70
     1
102
RTVSPost2010Prop46
 90
       50
102
RTVSPost2010PropOp46
 70
     0
102
RTVSPost2010Prop47
 90
       50
102
RTVSPost2010PropOp47
 70
     0
102
RTVSPost2010Prop48
 90
       50
102
RTVSPost2010PropOp48
 70
     0
102
RTVSPost2010Prop49
280
     0
102
RTVSPost2010PropOp49
 70
     1
102
RTVSPost2010Prop50
 90
       50
102
RTVSPost2010PropOp50
 70
     0
102
RTVSPost2010Prop51ColorIndex
 90
      256
102
RTVSPost2010Prop51ColorRGB
 90
-16777216
102
RTVSPost2010PropOp51
 70
     0
102
RTVSPost2010Prop52
140
1.0
102
RTVSPost2010PropOp52
 70
     0
102
RTVSPost2010Prop53
 90
        2
102
RTVSPost2010PropOp53
 70
     0
102
RTVSPost2010Prop54
  1
strokes_ogs.tif
102
RTVSPost2010PropOp54
 70
     0
102
RTVSPost2010Prop55
280
     0
102
RTVSPost2010PropOp55
 70
     1
102
RTVSPost2010Prop56
140
1.0
102
RTVSPost2010PropOp56
 70
     0
102
RTVSPost2010Prop57
140
1.0
102
RTVSPost2010PropOp57
 70
     0
102
RTVSPropertyOp0
 70
     0
102
RTVSPropertyOp1
 70
     0
102
RTVSPropertyOp2
 70
     0
102
RTVSPropertyOp3
 70
     0
102
RTVSPropertyOp4
 70
     0
102
RTVSPropertyOp5
 70
     0
102
RTVSPropertyOp6
 70
     0
102
RTVSPropertyOp7
 70
     0
102
RTVSPropertyOp8
 70
     0
102
RTVSPropertyOp9
 70
     0
102
RTVSPropertyOp10
 70
     0
102
RTVSPropertyOp11
 70
     0
102
RTVSPropertyOp12
 70
     0
102
RTVSPropertyOp13
 70
     0
102
RTVSPropertyOp14
 70
     2
102
RTVSPropertyOp15
 70
     0
102
RTVSPropertyOp16
 70
     0
102
RTVSPropertyOp17
 70
     0
102
RTVSPropertyOp18
 70
     0
102
RTVSPropertyOp19
 70
     0
102
RTVSPropertyOp20
 70
     0
102
RTVSPropertyOp21
 70
     0
102
RTVSPropertyOp22
 70
     0
102
RTVSPropertyOp23
 70
     0
102
RTVSPropertyOp24
 70
     0
102
RTVSPropertyOp25
 70
     0
102
RTVSPropertyOp26
 70
     0
102
RTVSPropertyOp27
 70
     0
102
RTVSPropertyOp28
 70
     1
102
RTVSPropertyOp29
 70
     1
102
RTVSPropertyOp30
 70
     1
102
RTVSPropertyOp31
 70
     1
102
RTVSPropertyOp32
 70
     1
102
RTVSPropertyOp33
 70
     1
102
RTVSPropertyOp34
 70
     1
102
RTVSPropertyOp35
 70
     1
102
RTVSPropertyOp36
 70
     1
102
RTVSPropertyOp37
 70
     0
102
RTVSPropertyOp38
 70
     0
102
RTVSPropertyOp39
 70
     0
102
RTVSPropertyOp40
 70
     0
102
RTVSPropertyOp41
 70
     0
102
RTVSPropertyOp42
 70
     0
102
RTVSPropertyOp43
 70
     0
102
RTVSPropertyOp44
 70
     0
102
RTVSPropertyOp45
 70
     1
102
RTVSPropertyOp46
 70
     0
102
RTVSPropertyOp47
 70
     0
102
RTVSPropertyOp48
 70
     0
102
RTVSPropertyOp49
 70
     1
102
RTVSPropertyOp50
 70
     0
102
RTVSPropertyOp51
 70
     0
102
RTVSPropertyOp52
 70
     0
102
RTVSPropertyOp53
 70
     0
102
RTVSPropertyOp54
 70
     0
102
RTVSPropertyOp55
 70
     1
102
RTVSPropertyOp56
 70
     0
102
RTVSPropertyOp57
 70
     0
102
RTVSPropertyOp58
 70
     0
102
RTVSPropertyOp59
 70
     0
102
RTVSPropertyOp60
 70
     0
102
RTVSPropertyOp61
 70
     0
102
RTVSPropertyOp62
 70
     0
  0
XRECORD
  5
CC0F
102
{ACAD_REACTORS
330
CC0E
102
}
330
CC0E
100
AcDbXrecord
280
     1
102
RTVSPost2010Prop28
280
     0
102
RTVSPost2010PropOp28
 70
     1
102
RTVSPost2010Prop29
280
     1
102
RTVSPost2010PropOp29
 70
     1
102
RTVSPost2010Prop30
280
     1
102
RTVSPost2010PropOp30
 70
     1
102
RTVSPost2010Prop31
280
     0
102
RTVSPost2010PropOp31
 70
     1
102
RTVSPost2010Prop32
280
     0
102
RTVSPost2010PropOp32
 70
     1
102
RTVSPost2010Prop33
280
     0
102
RTVSPost2010PropOp33
 70
     1
102
RTVSPost2010Prop34
280
     0
102
RTVSPost2010PropOp34
 70
     1
102
RTVSPost2010Prop35
280
     0
102
RTVSPost2010PropOp35
 70
     1
102
RTVSPost2010Prop36
280
     0
102
RTVSPost2010PropOp36
 70
     1
102
RTVSPost2010Prop37
 90
       50
102
RTVSPost2010PropOp37
 70
     1
102
RTVSPost2010Prop38
140
0.0
102
RTVSPost2010PropOp38
 70
     1
102
RTVSPost2010Prop39
140
1.0
102
RTVSPost2010PropOp39
 70
     1
102
RTVSPost2010Prop40
 90
        0
102
RTVSPost2010PropOp40
 70
     1
102
RTVSPost2010Prop41ColorIndex
 90
       18
102
RTVSPost2010Prop41ColorRGB
 90
        0
102
RTVSPost2010PropOp41
 70
     1
102
RTVSPost2010Prop42
 90
       50
102
RTVSPost2010PropOp42
 70
     1
102
RTVSPost2010Prop43
 90
        3
102
RTVSPost2010PropOp43
 70
     1
102
RTVSPost2010Prop44ColorIndex
 90
        5
102
RTVSPost2010Prop44ColorRGB
 90
      255
102
RTVSPost2010PropOp44
 70
     1
102
RTVSPost2010Prop45
280
     0
102
RTVSPost2010PropOp45
 70
     1
102
RTVSPost2010Prop46
 90
       50
102
RTVSPost2010PropOp46
 70
     1
102
RTVSPost2010Prop47
 90
       50
102
RTVSPost2010PropOp47
 70
     1
102
RTVSPost2010Prop48
 90
       50
102
RTVSPost2010PropOp48
 70
     1
102
RTVSPost2010Prop49
280
     0
102
RTVSPost2010PropOp49
 70
     1
102
RTVSPost2010Prop50
 90
       50
102
RTVSPost2010PropOp50
 70
     1
102
RTVSPost2010Prop51ColorIndex
 90
      256
102
RTVSPost2010Prop51ColorRGB
 90
-16777216
102
RTVSPost2010PropOp51
 70
     0
102
RTVSPost2010Prop52
140
1.0
102
RTVSPost2010PropOp52
 70
     0
102
RTVSPost2010Prop53
 90
        2
102
RTVSPost2010PropOp53
 70
     1
102
RTVSPost2010Prop54
  1
strokes_ogs.tif
102
RTVSPost2010PropOp54
 70
     1
102
RTVSPost2010Prop55
280
     0
102
RTVSPost2010PropOp55
 70
     1
102
RTVSPost2010Prop56
140
1.0
102
RTVSPost2010PropOp56
 70
     1
102
RTVSPost2010Prop57
140
1.0
102
RTVSPost2010PropOp57
 70
     1
102
RTVSPropertyOp0
 70
     1
102
RTVSPropertyOp1
 70
     1
102
RTVSPropertyOp2
 70
     1
102
RTVSPropertyOp3
 70
     1
102
RTVSPropertyOp4
 70
     1
102
RTVSPropertyOp5
 70
     1
102
RTVSPropertyOp6
 70
     1
102
RTVSPropertyOp7
 70
     1
102
RTVSPropertyOp8
 70
     1
102
RTVSPropertyOp9
 70
     1
102
RTVSPropertyOp10
 70
     1
102
RTVSPropertyOp11
 70
     1
102
RTVSPropertyOp12
 70
     1
102
RTVSPropertyOp13
 70
     1
102
RTVSPropertyOp14
 70
     1
102
RTVSPropertyOp15
 70
     1
102
RTVSPropertyOp16
 70
     1
102
RTVSPropertyOp17
 70
     1
102
RTVSPropertyOp18
 70
     1
102
RTVSPropertyOp19
 70
     1
102
RTVSPropertyOp20
 70
     1
102
RTVSPropertyOp21
 70
     1
102
RTVSPropertyOp22
 70
     1
102
RTVSPropertyOp23
 70
     1
102
RTVSPropertyOp24
 70
     1
102
RTVSPropertyOp25
 70
     1
102
RTVSPropertyOp26
 70
     1
102
RTVSPropertyOp27
 70
     1
102
RTVSPropertyOp28
 70
     1
102
RTVSPropertyOp29
 70
     1
102
RTVSPropertyOp30
 70
     1
102
RTVSPropertyOp31
 70
     1
102
RTVSPropertyOp32
 70
     1
102
RTVSPropertyOp33
 70
     1
102
RTVSPropertyOp34
 70
     1
102
RTVSPropertyOp35
 70
     1
102
RTVSPropertyOp36
 70
     1
102
RTVSPropertyOp37
 70
     1
102
RTVSPropertyOp38
 70
     1
102
RTVSPropertyOp39
 70
     1
102
RTVSPropertyOp40
 70
     1
102
RTVSPropertyOp41
 70
     1
102
RTVSPropertyOp42
 70
     1
102
RTVSPropertyOp43
 70
     1
102
RTVSPropertyOp44
 70
     1
102
RTVSPropertyOp45
 70
     1
102
RTVSPropertyOp46
 70
     1
102
RTVSPropertyOp47
 70
     1
102
RTVSPropertyOp48
 70
     1
102
RTVSPropertyOp49
 70
     1
102
RTVSPropertyOp50
 70
     1
102
RTVSPropertyOp51
 70
     0
102
RTVSPropertyOp52
 70
     0
102
RTVSPropertyOp53
 70
     1
102
RTVSPropertyOp54
 70
     1
102
RTVSPropertyOp55
 70
     1
102
RTVSPropertyOp56
 70
     1
102
RTVSPropertyOp57
 70
     1
102
RTVSPropertyOp58
 70
     1
102
RTVSPropertyOp59
 70
     1
102
RTVSPropertyOp60
 70
     1
102
RTVSPropertyOp61
 70
     1
102
RTVSPropertyOp62
 70
     1
  0
XRECORD
  5
CC21
102
{ACAD_REACTORS
330
CC20
102
}
330
CC20
100
AcDbXrecord
280
     1
102
RTVSPost2010Prop28
280
     0
102
RTVSPost2010PropOp28
 70
     1
102
RTVSPost2010Prop29
280
     1
102
RTVSPost2010PropOp29
 70
     1
102
RTVSPost2010Prop30
280
     1
102
RTVSPost2010PropOp30
 70
     1
102
RTVSPost2010Prop31
280
     0
102
RTVSPost2010PropOp31
 70
     1
102
RTVSPost2010Prop32
280
     0
102
RTVSPost2010PropOp32
 70
     1
102
RTVSPost2010Prop33
280
     0
102
RTVSPost2010PropOp33
 70
     1
102
RTVSPost2010Prop34
280
     0
102
RTVSPost2010PropOp34
 70
     1
102
RTVSPost2010Prop35
280
     0
102
RTVSPost2010PropOp35
 70
     1
102
RTVSPost2010Prop36
280
     0
102
RTVSPost2010PropOp36
 70
     1
102
RTVSPost2010Prop37
 90
       50
102
RTVSPost2010PropOp37
 70
     0
102
RTVSPost2010Prop38
140
0.0
102
RTVSPost2010PropOp38
 70
     0
102
RTVSPost2010Prop39
140
1.0
102
RTVSPost2010PropOp39
 70
     0
102
RTVSPost2010Prop40
 90
        0
102
RTVSPost2010PropOp40
 70
     0
102
RTVSPost2010Prop41ColorIndex
 90
       18
102
RTVSPost2010Prop41ColorRGB
 90
        0
102
RTVSPost2010PropOp41
 70
     0
102
RTVSPost2010Prop42
 90
       50
102
RTVSPost2010PropOp42
 70
     0
102
RTVSPost2010Prop43
 90
        3
102
RTVSPost2010PropOp43
 70
     0
102
RTVSPost2010Prop44ColorIndex
 90
        5
102
RTVSPost2010Prop44ColorRGB
 90
      255
102
RTVSPost2010PropOp44
 70
     0
102
RTVSPost2010Prop45
280
     0
102
RTVSPost2010PropOp45
 70
     1
102
RTVSPost2010Prop46
 90
       50
102
RTVSPost2010PropOp46
 70
     0
102
RTVSPost2010Prop47
 90
       50
102
RTVSPost2010PropOp47
 70
     0
102
RTVSPost2010Prop48
 90
       50
102
RTVSPost2010PropOp48
 70
     0
102
RTVSPost2010Prop49
280
     0
102
RTVSPost2010PropOp49
 70
     1
102
RTVSPost2010Prop50
 90
       50
102
RTVSPost2010PropOp50
 70
     0
102
RTVSPost2010Prop51ColorIndex
 90
      256
102
RTVSPost2010Prop51ColorRGB
 90
-16777216
102
RTVSPost2010PropOp51
 70
     0
102
RTVSPost2010Prop52
140
1.0
102
RTVSPost2010PropOp52
 70
     0
102
RTVSPost2010Prop53
 90
        2
102
RTVSPost2010PropOp53
 70
     0
102
RTVSPost2010Prop54
  1
strokes_ogs.tif
102
RTVSPost2010PropOp54
 70
     0
102
RTVSPost2010Prop55
280
     0
102
RTVSPost2010PropOp55
 70
     1
102
RTVSPost2010Prop56
140
1.0
102
RTVSPost2010PropOp56
 70
     0
102
RTVSPost2010Prop57
140
1.0
102
RTVSPost2010PropOp57
 70
     0
102
RTVSPropertyOp0
 70
     0
102
RTVSPropertyOp1
 70
     0
102
RTVSPropertyOp2
 70
     0
102
RTVSPropertyOp3
 70
     0
102
RTVSPropertyOp4
 70
     0
102
RTVSPropertyOp5
 70
     0
102
RTVSPropertyOp6
 70
     0
102
RTVSPropertyOp7
 70
     0
102
RTVSPropertyOp8
 70
     0
102
RTVSPropertyOp9
 70
     0
102
RTVSPropertyOp10
 70
     0
102
RTVSPropertyOp11
 70
     0
102
RTVSPropertyOp12
 70
     0
102
RTVSPropertyOp13
 70
     0
102
RTVSPropertyOp14
 70
     2
102
RTVSPropertyOp15
 70
     0
102
RTVSPropertyOp16
 70
     0
102
RTVSPropertyOp17
 70
     0
102
RTVSPropertyOp18
 70
     0
102
RTVSPropertyOp19
 70
     0
102
RTVSPropertyOp20
 70
     0
102
RTVSPropertyOp21
 70
     0
102
RTVSPropertyOp22
 70
     0
102
RTVSPropertyOp23
 70
     0
102
RTVSPropertyOp24
 70
     0
102
RTVSPropertyOp25
 70
     0
102
RTVSPropertyOp26
 70
     0
102
RTVSPropertyOp27
 70
     0
102
RTVSPropertyOp28
 70
     1
102
RTVSPropertyOp29
 70
     1
102
RTVSPropertyOp30
 70
     1
102
RTVSPropertyOp31
 70
     1
102
RTVSPropertyOp32
 70
     1
102
RTVSPropertyOp33
 70
     1
102
RTVSPropertyOp34
 70
     1
102
RTVSPropertyOp35
 70
     1
102
RTVSPropertyOp36
 70
     1
102
RTVSPropertyOp37
 70
     0
102
RTVSPropertyOp38
 70
     0
102
RTVSPropertyOp39
 70
     0
102
RTVSPropertyOp40
 70
     0
102
RTVSPropertyOp41
 70
     0
102
RTVSPropertyOp42
 70
     0
102
RTVSPropertyOp43
 70
     0
102
RTVSPropertyOp44
 70
     0
102
RTVSPropertyOp45
 70
     1
102
RTVSPropertyOp46
 70
     0
102
RTVSPropertyOp47
 70
     0
102
RTVSPropertyOp48
 70
     0
102
RTVSPropertyOp49
 70
     1
102
RTVSPropertyOp50
 70
     0
102
RTVSPropertyOp51
 70
     0
102
RTVSPropertyOp52
 70
     0
102
RTVSPropertyOp53
 70
     0
102
RTVSPropertyOp54
 70
     0
102
RTVSPropertyOp55
 70
     1
102
RTVSPropertyOp56
 70
     0
102
RTVSPropertyOp57
 70
     0
102
RTVSPropertyOp58
 70
     0
102
RTVSPropertyOp59
 70
     0
102
RTVSPropertyOp60
 70
     0
102
RTVSPropertyOp61
 70
     0
102
RTVSPropertyOp62
 70
     0
  0
XRECORD
  5
CC07
102
{ACAD_REACTORS
330
CC06
102
}
330
CC06
100
AcDbXrecord
280
     1
102
RTVSPost2010Prop28
280
     0
102
RTVSPost2010PropOp28
 70
     1
102
RTVSPost2010Prop29
280
     1
102
RTVSPost2010PropOp29
 70
     1
102
RTVSPost2010Prop30
280
     1
102
RTVSPost2010PropOp30
 70
     1
102
RTVSPost2010Prop31
280
     0
102
RTVSPost2010PropOp31
 70
     1
102
RTVSPost2010Prop32
280
     0
102
RTVSPost2010PropOp32
 70
     1
102
RTVSPost2010Prop33
280
     0
102
RTVSPost2010PropOp33
 70
     1
102
RTVSPost2010Prop34
280
     0
102
RTVSPost2010PropOp34
 70
     1
102
RTVSPost2010Prop35
280
     0
102
RTVSPost2010PropOp35
 70
     1
102
RTVSPost2010Prop36
280
     0
102
RTVSPost2010PropOp36
 70
     1
102
RTVSPost2010Prop37
 90
       50
102
RTVSPost2010PropOp37
 70
     1
102
RTVSPost2010Prop38
140
0.0
102
RTVSPost2010PropOp38
 70
     1
102
RTVSPost2010Prop39
140
1.0
102
RTVSPost2010PropOp39
 70
     1
102
RTVSPost2010Prop40
 90
        0
102
RTVSPost2010PropOp40
 70
     1
102
RTVSPost2010Prop41ColorIndex
 90
       18
102
RTVSPost2010Prop41ColorRGB
 90
        0
102
RTVSPost2010PropOp41
 70
     1
102
RTVSPost2010Prop42
 90
       50
102
RTVSPost2010PropOp42
 70
     1
102
RTVSPost2010Prop43
 90
        3
102
RTVSPost2010PropOp43
 70
     1
102
RTVSPost2010Prop44ColorIndex
 90
        5
102
RTVSPost2010Prop44ColorRGB
 90
      255
102
RTVSPost2010PropOp44
 70
     1
102
RTVSPost2010Prop45
280
     0
102
RTVSPost2010PropOp45
 70
     1
102
RTVSPost2010Prop46
 90
       50
102
RTVSPost2010PropOp46
 70
     1
102
RTVSPost2010Prop47
 90
       50
102
RTVSPost2010PropOp47
 70
     1
102
RTVSPost2010Prop48
 90
       50
102
RTVSPost2010PropOp48
 70
     1
102
RTVSPost2010Prop49
280
     0
102
RTVSPost2010PropOp49
 70
     1
102
RTVSPost2010Prop50
 90
       50
102
RTVSPost2010PropOp50
 70
     1
102
RTVSPost2010Prop51ColorIndex
 90
      256
102
RTVSPost2010Prop51ColorRGB
 90
-16777216
102
RTVSPost2010PropOp51
 70
     0
102
RTVSPost2010Prop52
140
1.0
102
RTVSPost2010PropOp52
 70
     0
102
RTVSPost2010Prop53
 90
        2
102
RTVSPost2010PropOp53
 70
     1
102
RTVSPost2010Prop54
  1
strokes_ogs.tif
102
RTVSPost2010PropOp54
 70
     1
102
RTVSPost2010Prop55
280
     0
102
RTVSPost2010PropOp55
 70
     1
102
RTVSPost2010Prop56
140
1.0
102
RTVSPost2010PropOp56
 70
     1
102
RTVSPost2010Prop57
140
1.0
102
RTVSPost2010PropOp57
 70
     1
102
RTVSPropertyOp0
 70
     1
102
RTVSPropertyOp1
 70
     1
102
RTVSPropertyOp2
 70
     1
102
RTVSPropertyOp3
 70
     1
102
RTVSPropertyOp4
 70
     1
102
RTVSPropertyOp5
 70
     1
102
RTVSPropertyOp6
 70
     1
102
RTVSPropertyOp7
 70
     1
102
RTVSPropertyOp8
 70
     1
102
RTVSPropertyOp9
 70
     1
102
RTVSPropertyOp10
 70
     1
102
RTVSPropertyOp11
 70
     1
102
RTVSPropertyOp12
 70
     1
102
RTVSPropertyOp13
 70
     1
102
RTVSPropertyOp14
 70
     1
102
RTVSPropertyOp15
 70
     1
102
RTVSPropertyOp16
 70
     1
102
RTVSPropertyOp17
 70
     1
102
RTVSPropertyOp18
 70
     1
102
RTVSPropertyOp19
 70
     1
102
RTVSPropertyOp20
 70
     1
102
RTVSPropertyOp21
 70
     1
102
RTVSPropertyOp22
 70
     1
102
RTVSPropertyOp23
 70
     1
102
RTVSPropertyOp24
 70
     1
102
RTVSPropertyOp25
 70
     1
102
RTVSPropertyOp26
 70
     1
102
RTVSPropertyOp27
 70
     1
102
RTVSPropertyOp28
 70
     1
102
RTVSPropertyOp29
 70
     1
102
RTVSPropertyOp30
 70
     1
102
RTVSPropertyOp31
 70
     1
102
RTVSPropertyOp32
 70
     1
102
RTVSPropertyOp33
 70
     1
102
RTVSPropertyOp34
 70
     1
102
RTVSPropertyOp35
 70
     1
102
RTVSPropertyOp36
 70
     1
102
RTVSPropertyOp37
 70
     1
102
RTVSPropertyOp38
 70
     1
102
RTVSPropertyOp39
 70
     1
102
RTVSPropertyOp40
 70
     1
102
RTVSPropertyOp41
 70
     1
102
RTVSPropertyOp42
 70
     1
102
RTVSPropertyOp43
 70
     1
102
RTVSPropertyOp44
 70
     1
102
RTVSPropertyOp45
 70
     1
102
RTVSPropertyOp46
 70
     1
102
RTVSPropertyOp47
 70
     1
102
RTVSPropertyOp48
 70
     1
102
RTVSPropertyOp49
 70
     1
102
RTVSPropertyOp50
 70
     1
102
RTVSPropertyOp51
 70
     0
102
RTVSPropertyOp52
 70
     0
102
RTVSPropertyOp53
 70
     1
102
RTVSPropertyOp54
 70
     1
102
RTVSPropertyOp55
 70
     1
102
RTVSPropertyOp56
 70
     1
102
RTVSPropertyOp57
 70
     1
102
RTVSPropertyOp58
 70
     1
102
RTVSPropertyOp59
 70
     1
102
RTVSPropertyOp60
 70
     1
102
RTVSPropertyOp61
 70
     1
102
RTVSPropertyOp62
 70
     1
  0
XRECORD
  5
CC1D
102
{ACAD_REACTORS
330
CC1C
102
}
330
CC1C
100
AcDbXrecord
280
     1
102
RTVSPost2010Prop28
280
     0
102
RTVSPost2010PropOp28
 70
     1
102
RTVSPost2010Prop29
280
     1
102
RTVSPost2010PropOp29
 70
     1
102
RTVSPost2010Prop30
280
     1
102
RTVSPost2010PropOp30
 70
     1
102
RTVSPost2010Prop31
280
     0
102
RTVSPost2010PropOp31
 70
     1
102
RTVSPost2010Prop32
280
     0
102
RTVSPost2010PropOp32
 70
     1
102
RTVSPost2010Prop33
280
     0
102
RTVSPost2010PropOp33
 70
     1
102
RTVSPost2010Prop34
280
     0
102
RTVSPost2010PropOp34
 70
     1
102
RTVSPost2010Prop35
280
     0
102
RTVSPost2010PropOp35
 70
     1
102
RTVSPost2010Prop36
280
     0
102
RTVSPost2010PropOp36
 70
     1
102
RTVSPost2010Prop37
 90
       50
102
RTVSPost2010PropOp37
 70
     1
102
RTVSPost2010Prop38
140
0.0
102
RTVSPost2010PropOp38
 70
     1
102
RTVSPost2010Prop39
140
1.0
102
RTVSPost2010PropOp39
 70
     1
102
RTVSPost2010Prop40
 90
        0
102
RTVSPost2010PropOp40
 70
     1
102
RTVSPost2010Prop41ColorIndex
 90
       18
102
RTVSPost2010Prop41ColorRGB
 90
        0
102
RTVSPost2010PropOp41
 70
     1
102
RTVSPost2010Prop42
 90
       50
102
RTVSPost2010PropOp42
 70
     1
102
RTVSPost2010Prop43
 90
        3
102
RTVSPost2010PropOp43
 70
     1
102
RTVSPost2010Prop44ColorIndex
 90
        5
102
RTVSPost2010Prop44ColorRGB
 90
      255
102
RTVSPost2010PropOp44
 70
     1
102
RTVSPost2010Prop45
280
     0
102
RTVSPost2010PropOp45
 70
     1
102
RTVSPost2010Prop46
 90
       50
102
RTVSPost2010PropOp46
 70
     1
102
RTVSPost2010Prop47
 90
       50
102
RTVSPost2010PropOp47
 70
     1
102
RTVSPost2010Prop48
 90
       50
102
RTVSPost2010PropOp48
 70
     1
102
RTVSPost2010Prop49
280
     0
102
RTVSPost2010PropOp49
 70
     1
102
RTVSPost2010Prop50
 90
       50
102
RTVSPost2010PropOp50
 70
     1
102
RTVSPost2010Prop51ColorIndex
 90
      256
102
RTVSPost2010Prop51ColorRGB
 90
-16777216
102
RTVSPost2010PropOp51
 70
     0
102
RTVSPost2010Prop52
140
1.0
102
RTVSPost2010PropOp52
 70
     0
102
RTVSPost2010Prop53
 90
        2
102
RTVSPost2010PropOp53
 70
     1
102
RTVSPost2010Prop54
  1
strokes_ogs.tif
102
RTVSPost2010PropOp54
 70
     1
102
RTVSPost2010Prop55
280
     0
102
RTVSPost2010PropOp55
 70
     1
102
RTVSPost2010Prop56
140
1.0
102
RTVSPost2010PropOp56
 70
     1
102
RTVSPost2010Prop57
140
1.0
102
RTVSPost2010PropOp57
 70
     1
102
RTVSPropertyOp0
 70
     1
102
RTVSPropertyOp1
 70
     1
102
RTVSPropertyOp2
 70
     1
102
RTVSPropertyOp3
 70
     1
102
RTVSPropertyOp4
 70
     1
102
RTVSPropertyOp5
 70
     1
102
RTVSPropertyOp6
 70
     1
102
RTVSPropertyOp7
 70
     1
102
RTVSPropertyOp8
 70
     1
102
RTVSPropertyOp9
 70
     1
102
RTVSPropertyOp10
 70
     1
102
RTVSPropertyOp11
 70
     1
102
RTVSPropertyOp12
 70
     1
102
RTVSPropertyOp13
 70
     1
102
RTVSPropertyOp14
 70
     1
102
RTVSPropertyOp15
 70
     1
102
RTVSPropertyOp16
 70
     1
102
RTVSPropertyOp17
 70
     1
102
RTVSPropertyOp18
 70
     1
102
RTVSPropertyOp19
 70
     1
102
RTVSPropertyOp20
 70
     1
102
RTVSPropertyOp21
 70
     1
102
RTVSPropertyOp22
 70
     1
102
RTVSPropertyOp23
 70
     1
102
RTVSPropertyOp24
 70
     1
102
RTVSPropertyOp25
 70
     1
102
RTVSPropertyOp26
 70
     1
102
RTVSPropertyOp27
 70
     1
102
RTVSPropertyOp28
 70
     1
102
RTVSPropertyOp29
 70
     1
102
RTVSPropertyOp30
 70
     1
102
RTVSPropertyOp31
 70
     1
102
RTVSPropertyOp32
 70
     1
102
RTVSPropertyOp33
 70
     1
102
RTVSPropertyOp34
 70
     1
102
RTVSPropertyOp35
 70
     1
102
RTVSPropertyOp36
 70
     1
102
RTVSPropertyOp37
 70
     1
102
RTVSPropertyOp38
 70
     1
102
RTVSPropertyOp39
 70
     1
102
RTVSPropertyOp40
 70
     1
102
RTVSPropertyOp41
 70
     1
102
RTVSPropertyOp42
 70
     1
102
RTVSPropertyOp43
 70
     1
102
RTVSPropertyOp44
 70
     1
102
RTVSPropertyOp45
 70
     1
102
RTVSPropertyOp46
 70
     1
102
RTVSPropertyOp47
 70
     1
102
RTVSPropertyOp48
 70
     1
102
RTVSPropertyOp49
 70
     1
102
RTVSPropertyOp50
 70
     1
102
RTVSPropertyOp51
 70
     0
102
RTVSPropertyOp52
 70
     0
102
RTVSPropertyOp53
 70
     1
102
RTVSPropertyOp54
 70
     1
102
RTVSPropertyOp55
 70
     1
102
RTVSPropertyOp56
 70
     1
102
RTVSPropertyOp57
 70
     1
102
RTVSPropertyOp58
 70
     1
102
RTVSPropertyOp59
 70
     1
102
RTVSPropertyOp60
 70
     1
102
RTVSPropertyOp61
 70
     1
102
RTVSPropertyOp62
 70
     1
  0
XRECORD
  5
CC1B
102
{ACAD_REACTORS
330
CC1A
102
}
330
CC1A
100
AcDbXrecord
280
     1
102
RTVSPost2010Prop28
280
     0
102
RTVSPost2010PropOp28
 70
     1
102
RTVSPost2010Prop29
280
     1
102
RTVSPost2010PropOp29
 70
     1
102
RTVSPost2010Prop30
280
     1
102
RTVSPost2010PropOp30
 70
     1
102
RTVSPost2010Prop31
280
     0
102
RTVSPost2010PropOp31
 70
     1
102
RTVSPost2010Prop32
280
     0
102
RTVSPost2010PropOp32
 70
     1
102
RTVSPost2010Prop33
280
     0
102
RTVSPost2010PropOp33
 70
     1
102
RTVSPost2010Prop34
280
     0
102
RTVSPost2010PropOp34
 70
     1
102
RTVSPost2010Prop35
280
     0
102
RTVSPost2010PropOp35
 70
     1
102
RTVSPost2010Prop36
280
     0
102
RTVSPost2010PropOp36
 70
     1
102
RTVSPost2010Prop37
 90
       50
102
RTVSPost2010PropOp37
 70
     1
102
RTVSPost2010Prop38
140
0.0
102
RTVSPost2010PropOp38
 70
     1
102
RTVSPost2010Prop39
140
1.0
102
RTVSPost2010PropOp39
 70
     1
102
RTVSPost2010Prop40
 90
        0
102
RTVSPost2010PropOp40
 70
     1
102
RTVSPost2010Prop41ColorIndex
 90
       18
102
RTVSPost2010Prop41ColorRGB
 90
        0
102
RTVSPost2010PropOp41
 70
     1
102
RTVSPost2010Prop42
 90
       50
102
RTVSPost2010PropOp42
 70
     1
102
RTVSPost2010Prop43
 90
        3
102
RTVSPost2010PropOp43
 70
     1
102
RTVSPost2010Prop44ColorIndex
 90
        5
102
RTVSPost2010Prop44ColorRGB
 90
      255
102
RTVSPost2010PropOp44
 70
     1
102
RTVSPost2010Prop45
280
     0
102
RTVSPost2010PropOp45
 70
     1
102
RTVSPost2010Prop46
 90
       50
102
RTVSPost2010PropOp46
 70
     1
102
RTVSPost2010Prop47
 90
       50
102
RTVSPost2010PropOp47
 70
     1
102
RTVSPost2010Prop48
 90
       50
102
RTVSPost2010PropOp48
 70
     1
102
RTVSPost2010Prop49
280
     0
102
RTVSPost2010PropOp49
 70
     1
102
RTVSPost2010Prop50
 90
       50
102
RTVSPost2010PropOp50
 70
     1
102
RTVSPost2010Prop51ColorIndex
 90
      256
102
RTVSPost2010Prop51ColorRGB
 90
-16777216
102
RTVSPost2010PropOp51
 70
     0
102
RTVSPost2010Prop52
140
1.0
102
RTVSPost2010PropOp52
 70
     0
102
RTVSPost2010Prop53
 90
        2
102
RTVSPost2010PropOp53
 70
     1
102
RTVSPost2010Prop54
  1
strokes_ogs.tif
102
RTVSPost2010PropOp54
 70
     1
102
RTVSPost2010Prop55
280
     0
102
RTVSPost2010PropOp55
 70
     1
102
RTVSPost2010Prop56
140
1.0
102
RTVSPost2010PropOp56
 70
     1
102
RTVSPost2010Prop57
140
1.0
102
RTVSPost2010PropOp57
 70
     1
102
RTVSPropertyOp0
 70
     1
102
RTVSPropertyOp1
 70
     1
102
RTVSPropertyOp2
 70
     1
102
RTVSPropertyOp3
 70
     1
102
RTVSPropertyOp4
 70
     1
102
RTVSPropertyOp5
 70
     1
102
RTVSPropertyOp6
 70
     1
102
RTVSPropertyOp7
 70
     1
102
RTVSPropertyOp8
 70
     1
102
RTVSPropertyOp9
 70
     1
102
RTVSPropertyOp10
 70
     1
102
RTVSPropertyOp11
 70
     1
102
RTVSPropertyOp12
 70
     1
102
RTVSPropertyOp13
 70
     1
102
RTVSPropertyOp14
 70
     1
102
RTVSPropertyOp15
 70
     1
102
RTVSPropertyOp16
 70
     1
102
RTVSPropertyOp17
 70
     1
102
RTVSPropertyOp18
 70
     1
102
RTVSPropertyOp19
 70
     1
102
RTVSPropertyOp20
 70
     1
102
RTVSPropertyOp21
 70
     1
102
RTVSPropertyOp22
 70
     1
102
RTVSPropertyOp23
 70
     1
102
RTVSPropertyOp24
 70
     1
102
RTVSPropertyOp25
 70
     1
102
RTVSPropertyOp26
 70
     1
102
RTVSPropertyOp27
 70
     1
102
RTVSPropertyOp28
 70
     1
102
RTVSPropertyOp29
 70
     1
102
RTVSPropertyOp30
 70
     1
102
RTVSPropertyOp31
 70
     1
102
RTVSPropertyOp32
 70
     1
102
RTVSPropertyOp33
 70
     1
102
RTVSPropertyOp34
 70
     1
102
RTVSPropertyOp35
 70
     1
102
RTVSPropertyOp36
 70
     1
102
RTVSPropertyOp37
 70
     1
102
RTVSPropertyOp38
 70
     1
102
RTVSPropertyOp39
 70
     1
102
RTVSPropertyOp40
 70
     1
102
RTVSPropertyOp41
 70
     1
102
RTVSPropertyOp42
 70
     1
102
RTVSPropertyOp43
 70
     1
102
RTVSPropertyOp44
 70
     1
102
RTVSPropertyOp45
 70
     1
102
RTVSPropertyOp46
 70
     1
102
RTVSPropertyOp47
 70
     1
102
RTVSPropertyOp48
 70
     1
102
RTVSPropertyOp49
 70
     1
102
RTVSPropertyOp50
 70
     1
102
RTVSPropertyOp51
 70
     0
102
RTVSPropertyOp52
 70
     0
102
RTVSPropertyOp53
 70
     1
102
RTVSPropertyOp54
 70
     1
102
RTVSPropertyOp55
 70
     1
102
RTVSPropertyOp56
 70
     1
102
RTVSPropertyOp57
 70
     1
102
RTVSPropertyOp58
 70
     1
102
RTVSPropertyOp59
 70
     1
102
RTVSPropertyOp60
 70
     1
102
RTVSPropertyOp61
 70
     1
102
RTVSPropertyOp62
 70
     1
  0
XRECORD
  5
CC15
102
{ACAD_REACTORS
330
CC14
102
}
330
CC14
100
AcDbXrecord
280
     1
102
RTVSPost2010Prop28
280
     0
102
RTVSPost2010PropOp28
 70
     1
102
RTVSPost2010Prop29
280
     1
102
RTVSPost2010PropOp29
 70
     1
102
RTVSPost2010Prop30
280
     1
102
RTVSPost2010PropOp30
 70
     1
102
RTVSPost2010Prop31
280
     0
102
RTVSPost2010PropOp31
 70
     1
102
RTVSPost2010Prop32
280
     0
102
RTVSPost2010PropOp32
 70
     1
102
RTVSPost2010Prop33
280
     0
102
RTVSPost2010PropOp33
 70
     1
102
RTVSPost2010Prop34
280
     0
102
RTVSPost2010PropOp34
 70
     1
102
RTVSPost2010Prop35
280
     0
102
RTVSPost2010PropOp35
 70
     1
102
RTVSPost2010Prop36
280
     0
102
RTVSPost2010PropOp36
 70
     1
102
RTVSPost2010Prop37
 90
       50
102
RTVSPost2010PropOp37
 70
     1
102
RTVSPost2010Prop38
140
0.0
102
RTVSPost2010PropOp38
 70
     1
102
RTVSPost2010Prop39
140
1.0
102
RTVSPost2010PropOp39
 70
     1
102
RTVSPost2010Prop40
 90
        0
102
RTVSPost2010PropOp40
 70
     1
102
RTVSPost2010Prop41ColorIndex
 90
       18
102
RTVSPost2010Prop41ColorRGB
 90
        0
102
RTVSPost2010PropOp41
 70
     1
102
RTVSPost2010Prop42
 90
       50
102
RTVSPost2010PropOp42
 70
     1
102
RTVSPost2010Prop43
 90
        3
102
RTVSPost2010PropOp43
 70
     1
102
RTVSPost2010Prop44ColorIndex
 90
        5
102
RTVSPost2010Prop44ColorRGB
 90
      255
102
RTVSPost2010PropOp44
 70
     1
102
RTVSPost2010Prop45
280
     0
102
RTVSPost2010PropOp45
 70
     1
102
RTVSPost2010Prop46
 90
       50
102
RTVSPost2010PropOp46
 70
     1
102
RTVSPost2010Prop47
 90
       50
102
RTVSPost2010PropOp47
 70
     1
102
RTVSPost2010Prop48
 90
       50
102
RTVSPost2010PropOp48
 70
     1
102
RTVSPost2010Prop49
280
     0
102
RTVSPost2010PropOp49
 70
     1
102
RTVSPost2010Prop50
 90
       50
102
RTVSPost2010PropOp50
 70
     1
102
RTVSPost2010Prop51ColorIndex
 90
      256
102
RTVSPost2010Prop51ColorRGB
 90
-16777216
102
RTVSPost2010PropOp51
 70
     0
102
RTVSPost2010Prop52
140
1.0
102
RTVSPost2010PropOp52
 70
     0
102
RTVSPost2010Prop53
 90
        2
102
RTVSPost2010PropOp53
 70
     1
102
RTVSPost2010Prop54
  1
strokes_ogs.tif
102
RTVSPost2010PropOp54
 70
     1
102
RTVSPost2010Prop55
280
     0
102
RTVSPost2010PropOp55
 70
     1
102
RTVSPost2010Prop56
140
1.0
102
RTVSPost2010PropOp56
 70
     1
102
RTVSPost2010Prop57
140
1.0
102
RTVSPost2010PropOp57
 70
     1
102
RTVSPropertyOp0
 70
     1
102
RTVSPropertyOp1
 70
     1
102
RTVSPropertyOp2
 70
     1
102
RTVSPropertyOp3
 70
     1
102
RTVSPropertyOp4
 70
     1
102
RTVSPropertyOp5
 70
     1
102
RTVSPropertyOp6
 70
     1
102
RTVSPropertyOp7
 70
     1
102
RTVSPropertyOp8
 70
     1
102
RTVSPropertyOp9
 70
     1
102
RTVSPropertyOp10
 70
     1
102
RTVSPropertyOp11
 70
     1
102
RTVSPropertyOp12
 70
     1
102
RTVSPropertyOp13
 70
     1
102
RTVSPropertyOp14
 70
     1
102
RTVSPropertyOp15
 70
     1
102
RTVSPropertyOp16
 70
     1
102
RTVSPropertyOp17
 70
     1
102
RTVSPropertyOp18
 70
     1
102
RTVSPropertyOp19
 70
     1
102
RTVSPropertyOp20
 70
     1
102
RTVSPropertyOp21
 70
     1
102
RTVSPropertyOp22
 70
     1
102
RTVSPropertyOp23
 70
     1
102
RTVSPropertyOp24
 70
     1
102
RTVSPropertyOp25
 70
     1
102
RTVSPropertyOp26
 70
     1
102
RTVSPropertyOp27
 70
     1
102
RTVSPropertyOp28
 70
     1
102
RTVSPropertyOp29
 70
     1
102
RTVSPropertyOp30
 70
     1
102
RTVSPropertyOp31
 70
     1
102
RTVSPropertyOp32
 70
     1
102
RTVSPropertyOp33
 70
     1
102
RTVSPropertyOp34
 70
     1
102
RTVSPropertyOp35
 70
     1
102
RTVSPropertyOp36
 70
     1
102
RTVSPropertyOp37
 70
     1
102
RTVSPropertyOp38
 70
     1
102
RTVSPropertyOp39
 70
     1
102
RTVSPropertyOp40
 70
     1
102
RTVSPropertyOp41
 70
     1
102
RTVSPropertyOp42
 70
     1
102
RTVSPropertyOp43
 70
     1
102
RTVSPropertyOp44
 70
     1
102
RTVSPropertyOp45
 70
     1
102
RTVSPropertyOp46
 70
     1
102
RTVSPropertyOp47
 70
     1
102
RTVSPropertyOp48
 70
     1
102
RTVSPropertyOp49
 70
     1
102
RTVSPropertyOp50
 70
     1
102
RTVSPropertyOp51
 70
     0
102
RTVSPropertyOp52
 70
     0
102
RTVSPropertyOp53
 70
     1
102
RTVSPropertyOp54
 70
     1
102
RTVSPropertyOp55
 70
     1
102
RTVSPropertyOp56
 70
     1
102
RTVSPropertyOp57
 70
     1
102
RTVSPropertyOp58
 70
     1
102
RTVSPropertyOp59
 70
     1
102
RTVSPropertyOp60
 70
     1
102
RTVSPropertyOp61
 70
     1
102
RTVSPropertyOp62
 70
     1
  0
XRECORD
  5
CC17
102
{ACAD_REACTORS
330
CC16
102
}
330
CC16
100
AcDbXrecord
280
     1
102
RTVSPost2010Prop28
280
     0
102
RTVSPost2010PropOp28
 70
     1
102
RTVSPost2010Prop29
280
     1
102
RTVSPost2010PropOp29
 70
     1
102
RTVSPost2010Prop30
280
     1
102
RTVSPost2010PropOp30
 70
     1
102
RTVSPost2010Prop31
280
     0
102
RTVSPost2010PropOp31
 70
     1
102
RTVSPost2010Prop32
280
     0
102
RTVSPost2010PropOp32
 70
     1
102
RTVSPost2010Prop33
280
     0
102
RTVSPost2010PropOp33
 70
     1
102
RTVSPost2010Prop34
280
     0
102
RTVSPost2010PropOp34
 70
     1
102
RTVSPost2010Prop35
280
     0
102
RTVSPost2010PropOp35
 70
     1
102
RTVSPost2010Prop36
280
     0
102
RTVSPost2010PropOp36
 70
     1
102
RTVSPost2010Prop37
 90
       50
102
RTVSPost2010PropOp37
 70
     1
102
RTVSPost2010Prop38
140
0.0
102
RTVSPost2010PropOp38
 70
     1
102
RTVSPost2010Prop39
140
1.0
102
RTVSPost2010PropOp39
 70
     1
102
RTVSPost2010Prop40
 90
        0
102
RTVSPost2010PropOp40
 70
     1
102
RTVSPost2010Prop41ColorIndex
 90
       18
102
RTVSPost2010Prop41ColorRGB
 90
        0
102
RTVSPost2010PropOp41
 70
     1
102
RTVSPost2010Prop42
 90
       50
102
RTVSPost2010PropOp42
 70
     1
102
RTVSPost2010Prop43
 90
        3
102
RTVSPost2010PropOp43
 70
     1
102
RTVSPost2010Prop44ColorIndex
 90
        5
102
RTVSPost2010Prop44ColorRGB
 90
      255
102
RTVSPost2010PropOp44
 70
     1
102
RTVSPost2010Prop45
280
     0
102
RTVSPost2010PropOp45
 70
     1
102
RTVSPost2010Prop46
 90
       50
102
RTVSPost2010PropOp46
 70
     1
102
RTVSPost2010Prop47
 90
       50
102
RTVSPost2010PropOp47
 70
     1
102
RTVSPost2010Prop48
 90
       50
102
RTVSPost2010PropOp48
 70
     1
102
RTVSPost2010Prop49
280
     0
102
RTVSPost2010PropOp49
 70
     1
102
RTVSPost2010Prop50
 90
       50
102
RTVSPost2010PropOp50
 70
     1
102
RTVSPost2010Prop51ColorIndex
 90
      256
102
RTVSPost2010Prop51ColorRGB
 90
-16777216
102
RTVSPost2010PropOp51
 70
     0
102
RTVSPost2010Prop52
140
1.0
102
RTVSPost2010PropOp52
 70
     0
102
RTVSPost2010Prop53
 90
        2
102
RTVSPost2010PropOp53
 70
     1
102
RTVSPost2010Prop54
  1
strokes_ogs.tif
102
RTVSPost2010PropOp54
 70
     1
102
RTVSPost2010Prop55
280
     0
102
RTVSPost2010PropOp55
 70
     1
102
RTVSPost2010Prop56
140
1.0
102
RTVSPost2010PropOp56
 70
     1
102
RTVSPost2010Prop57
140
1.0
102
RTVSPost2010PropOp57
 70
     1
102
RTVSPropertyOp0
 70
     1
102
RTVSPropertyOp1
 70
     1
102
RTVSPropertyOp2
 70
     1
102
RTVSPropertyOp3
 70
     1
102
RTVSPropertyOp4
 70
     1
102
RTVSPropertyOp5
 70
     1
102
RTVSPropertyOp6
 70
     1
102
RTVSPropertyOp7
 70
     1
102
RTVSPropertyOp8
 70
     1
102
RTVSPropertyOp9
 70
     1
102
RTVSPropertyOp10
 70
     1
102
RTVSPropertyOp11
 70
     1
102
RTVSPropertyOp12
 70
     1
102
RTVSPropertyOp13
 70
     1
102
RTVSPropertyOp14
 70
     1
102
RTVSPropertyOp15
 70
     1
102
RTVSPropertyOp16
 70
     1
102
RTVSPropertyOp17
 70
     1
102
RTVSPropertyOp18
 70
     1
102
RTVSPropertyOp19
 70
     1
102
RTVSPropertyOp20
 70
     1
102
RTVSPropertyOp21
 70
     1
102
RTVSPropertyOp22
 70
     1
102
RTVSPropertyOp23
 70
     1
102
RTVSPropertyOp24
 70
     1
102
RTVSPropertyOp25
 70
     1
102
RTVSPropertyOp26
 70
     1
102
RTVSPropertyOp27
 70
     1
102
RTVSPropertyOp28
 70
     1
102
RTVSPropertyOp29
 70
     1
102
RTVSPropertyOp30
 70
     1
102
RTVSPropertyOp31
 70
     1
102
RTVSPropertyOp32
 70
     1
102
RTVSPropertyOp33
 70
     1
102
RTVSPropertyOp34
 70
     1
102
RTVSPropertyOp35
 70
     1
102
RTVSPropertyOp36
 70
     1
102
RTVSPropertyOp37
 70
     1
102
RTVSPropertyOp38
 70
     1
102
RTVSPropertyOp39
 70
     1
102
RTVSPropertyOp40
 70
     1
102
RTVSPropertyOp41
 70
     1
102
RTVSPropertyOp42
 70
     1
102
RTVSPropertyOp43
 70
     1
102
RTVSPropertyOp44
 70
     1
102
RTVSPropertyOp45
 70
     1
102
RTVSPropertyOp46
 70
     1
102
RTVSPropertyOp47
 70
     1
102
RTVSPropertyOp48
 70
     1
102
RTVSPropertyOp49
 70
     1
102
RTVSPropertyOp50
 70
     1
102
RTVSPropertyOp51
 70
     0
102
RTVSPropertyOp52
 70
     0
102
RTVSPropertyOp53
 70
     1
102
RTVSPropertyOp54
 70
     1
102
RTVSPropertyOp55
 70
     1
102
RTVSPropertyOp56
 70
     1
102
RTVSPropertyOp57
 70
     1
102
RTVSPropertyOp58
 70
     1
102
RTVSPropertyOp59
 70
     1
102
RTVSPropertyOp60
 70
     1
102
RTVSPropertyOp61
 70
     1
102
RTVSPropertyOp62
 70
     1
  0
XRECORD
  5
CC0D
102
{ACAD_REACTORS
330
CC0C
102
}
330
CC0C
100
AcDbXrecord
280
     1
102
RTVSPost2010Prop28
280
     0
102
RTVSPost2010PropOp28
 70
     1
102
RTVSPost2010Prop29
280
     1
102
RTVSPost2010PropOp29
 70
     1
102
RTVSPost2010Prop30
280
     1
102
RTVSPost2010PropOp30
 70
     1
102
RTVSPost2010Prop31
280
     0
102
RTVSPost2010PropOp31
 70
     1
102
RTVSPost2010Prop32
280
     0
102
RTVSPost2010PropOp32
 70
     1
102
RTVSPost2010Prop33
280
     0
102
RTVSPost2010PropOp33
 70
     1
102
RTVSPost2010Prop34
280
     0
102
RTVSPost2010PropOp34
 70
     1
102
RTVSPost2010Prop35
280
     0
102
RTVSPost2010PropOp35
 70
     1
102
RTVSPost2010Prop36
280
     0
102
RTVSPost2010PropOp36
 70
     1
102
RTVSPost2010Prop37
 90
       50
102
RTVSPost2010PropOp37
 70
     1
102
RTVSPost2010Prop38
140
0.0
102
RTVSPost2010PropOp38
 70
     1
102
RTVSPost2010Prop39
140
1.0
102
RTVSPost2010PropOp39
 70
     1
102
RTVSPost2010Prop40
 90
        0
102
RTVSPost2010PropOp40
 70
     1
102
RTVSPost2010Prop41ColorIndex
 90
       18
102
RTVSPost2010Prop41ColorRGB
 90
        0
102
RTVSPost2010PropOp41
 70
     1
102
RTVSPost2010Prop42
 90
       50
102
RTVSPost2010PropOp42
 70
     1
102
RTVSPost2010Prop43
 90
        3
102
RTVSPost2010PropOp43
 70
     1
102
RTVSPost2010Prop44ColorIndex
 90
        5
102
RTVSPost2010Prop44ColorRGB
 90
      255
102
RTVSPost2010PropOp44
 70
     1
102
RTVSPost2010Prop45
280
     0
102
RTVSPost2010PropOp45
 70
     1
102
RTVSPost2010Prop46
 90
       50
102
RTVSPost2010PropOp46
 70
     1
102
RTVSPost2010Prop47
 90
       50
102
RTVSPost2010PropOp47
 70
     1
102
RTVSPost2010Prop48
 90
       50
102
RTVSPost2010PropOp48
 70
     1
102
RTVSPost2010Prop49
280
     0
102
RTVSPost2010PropOp49
 70
     1
102
RTVSPost2010Prop50
 90
       50
102
RTVSPost2010PropOp50
 70
     1
102
RTVSPost2010Prop51ColorIndex
 90
      256
102
RTVSPost2010Prop51ColorRGB
 90
-16777216
102
RTVSPost2010PropOp51
 70
     0
102
RTVSPost2010Prop52
140
1.0
102
RTVSPost2010PropOp52
 70
     0
102
RTVSPost2010Prop53
 90
        2
102
RTVSPost2010PropOp53
 70
     1
102
RTVSPost2010Prop54
  1
strokes_ogs.tif
102
RTVSPost2010PropOp54
 70
     1
102
RTVSPost2010Prop55
280
     0
102
RTVSPost2010PropOp55
 70
     1
102
RTVSPost2010Prop56
140
1.0
102
RTVSPost2010PropOp56
 70
     1
102
RTVSPost2010Prop57
140
1.0
102
RTVSPost2010PropOp57
 70
     1
102
RTVSPropertyOp0
 70
     1
102
RTVSPropertyOp1
 70
     1
102
RTVSPropertyOp2
 70
     1
102
RTVSPropertyOp3
 70
     1
102
RTVSPropertyOp4
 70
     1
102
RTVSPropertyOp5
 70
     1
102
RTVSPropertyOp6
 70
     1
102
RTVSPropertyOp7
 70
     1
102
RTVSPropertyOp8
 70
     1
102
RTVSPropertyOp9
 70
     1
102
RTVSPropertyOp10
 70
     1
102
RTVSPropertyOp11
 70
     1
102
RTVSPropertyOp12
 70
     1
102
RTVSPropertyOp13
 70
     1
102
RTVSPropertyOp14
 70
     1
102
RTVSPropertyOp15
 70
     1
102
RTVSPropertyOp16
 70
     1
102
RTVSPropertyOp17
 70
     1
102
RTVSPropertyOp18
 70
     1
102
RTVSPropertyOp19
 70
     1
102
RTVSPropertyOp20
 70
     1
102
RTVSPropertyOp21
 70
     1
102
RTVSPropertyOp22
 70
     1
102
RTVSPropertyOp23
 70
     1
102
RTVSPropertyOp24
 70
     1
102
RTVSPropertyOp25
 70
     1
102
RTVSPropertyOp26
 70
     1
102
RTVSPropertyOp27
 70
     1
102
RTVSPropertyOp28
 70
     1
102
RTVSPropertyOp29
 70
     1
102
RTVSPropertyOp30
 70
     1
102
RTVSPropertyOp31
 70
     1
102
RTVSPropertyOp32
 70
     1
102
RTVSPropertyOp33
 70
     1
102
RTVSPropertyOp34
 70
     1
102
RTVSPropertyOp35
 70
     1
102
RTVSPropertyOp36
 70
     1
102
RTVSPropertyOp37
 70
     1
102
RTVSPropertyOp38
 70
     1
102
RTVSPropertyOp39
 70
     1
102
RTVSPropertyOp40
 70
     1
102
RTVSPropertyOp41
 70
     1
102
RTVSPropertyOp42
 70
     1
102
RTVSPropertyOp43
 70
     1
102
RTVSPropertyOp44
 70
     1
102
RTVSPropertyOp45
 70
     1
102
RTVSPropertyOp46
 70
     1
102
RTVSPropertyOp47
 70
     1
102
RTVSPropertyOp48
 70
     1
102
RTVSPropertyOp49
 70
     1
102
RTVSPropertyOp50
 70
     1
102
RTVSPropertyOp51
 70
     0
102
RTVSPropertyOp52
 70
     0
102
RTVSPropertyOp53
 70
     1
102
RTVSPropertyOp54
 70
     1
102
RTVSPropertyOp55
 70
     1
102
RTVSPropertyOp56
 70
     1
102
RTVSPropertyOp57
 70
     1
102
RTVSPropertyOp58
 70
     1
102
RTVSPropertyOp59
 70
     1
102
RTVSPropertyOp60
 70
     1
102
RTVSPropertyOp61
 70
     1
102
RTVSPropertyOp62
 70
     1
  0
XRECORD
  5
CC01
102
{ACAD_REACTORS
330
CC00
102
}
330
CC00
100
AcDbXrecord
280
     1
102
RTVSPost2010Prop28
280
     0
102
RTVSPost2010PropOp28
 70
     1
102
RTVSPost2010Prop29
280
     1
102
RTVSPost2010PropOp29
 70
     1
102
RTVSPost2010Prop30
280
     1
102
RTVSPost2010PropOp30
 70
     1
102
RTVSPost2010Prop31
280
     0
102
RTVSPost2010PropOp31
 70
     1
102
RTVSPost2010Prop32
280
     0
102
RTVSPost2010PropOp32
 70
     1
102
RTVSPost2010Prop33
280
     0
102
RTVSPost2010PropOp33
 70
     1
102
RTVSPost2010Prop34
280
     0
102
RTVSPost2010PropOp34
 70
     1
102
RTVSPost2010Prop35
280
     0
102
RTVSPost2010PropOp35
 70
     1
102
RTVSPost2010Prop36
280
     0
102
RTVSPost2010PropOp36
 70
     1
102
RTVSPost2010Prop37
 90
       50
102
RTVSPost2010PropOp37
 70
     1
102
RTVSPost2010Prop38
140
0.0
102
RTVSPost2010PropOp38
 70
     1
102
RTVSPost2010Prop39
140
1.0
102
RTVSPost2010PropOp39
 70
     1
102
RTVSPost2010Prop40
 90
        0
102
RTVSPost2010PropOp40
 70
     1
102
RTVSPost2010Prop41ColorIndex
 90
       18
102
RTVSPost2010Prop41ColorRGB
 90
        0
102
RTVSPost2010PropOp41
 70
     1
102
RTVSPost2010Prop42
 90
       50
102
RTVSPost2010PropOp42
 70
     1
102
RTVSPost2010Prop43
 90
        3
102
RTVSPost2010PropOp43
 70
     1
102
RTVSPost2010Prop44ColorIndex
 90
        5
102
RTVSPost2010Prop44ColorRGB
 90
      255
102
RTVSPost2010PropOp44
 70
     1
102
RTVSPost2010Prop45
280
     0
102
RTVSPost2010PropOp45
 70
     1
102
RTVSPost2010Prop46
 90
       50
102
RTVSPost2010PropOp46
 70
     1
102
RTVSPost2010Prop47
 90
       50
102
RTVSPost2010PropOp47
 70
     1
102
RTVSPost2010Prop48
 90
       50
102
RTVSPost2010PropOp48
 70
     1
102
RTVSPost2010Prop49
280
     0
102
RTVSPost2010PropOp49
 70
     1
102
RTVSPost2010Prop50
 90
       50
102
RTVSPost2010PropOp50
 70
     1
102
RTVSPost2010Prop51ColorIndex
 90
      256
102
RTVSPost2010Prop51ColorRGB
 90
-16777216
102
RTVSPost2010PropOp51
 70
     0
102
RTVSPost2010Prop52
140
1.0
102
RTVSPost2010PropOp52
 70
     0
102
RTVSPost2010Prop53
 90
        2
102
RTVSPost2010PropOp53
 70
     1
102
RTVSPost2010Prop54
  1
strokes_ogs.tif
102
RTVSPost2010PropOp54
 70
     1
102
RTVSPost2010Prop55
280
     0
102
RTVSPost2010PropOp55
 70
     1
102
RTVSPost2010Prop56
140
1.0
102
RTVSPost2010PropOp56
 70
     1
102
RTVSPost2010Prop57
140
1.0
102
RTVSPost2010PropOp57
 70
     1
102
RTVSPropertyOp0
 70
     1
102
RTVSPropertyOp1
 70
     1
102
RTVSPropertyOp2
 70
     1
102
RTVSPropertyOp3
 70
     1
102
RTVSPropertyOp4
 70
     1
102
RTVSPropertyOp5
 70
     1
102
RTVSPropertyOp6
 70
     1
102
RTVSPropertyOp7
 70
     1
102
RTVSPropertyOp8
 70
     1
102
RTVSPropertyOp9
 70
     1
102
RTVSPropertyOp10
 70
     1
102
RTVSPropertyOp11
 70
     1
102
RTVSPropertyOp12
 70
     1
102
RTVSPropertyOp13
 70
     1
102
RTVSPropertyOp14
 70
     1
102
RTVSPropertyOp15
 70
     1
102
RTVSPropertyOp16
 70
     1
102
RTVSPropertyOp17
 70
     1
102
RTVSPropertyOp18
 70
     1
102
RTVSPropertyOp19
 70
     1
102
RTVSPropertyOp20
 70
     1
102
RTVSPropertyOp21
 70
     1
102
RTVSPropertyOp22
 70
     1
102
RTVSPropertyOp23
 70
     1
102
RTVSPropertyOp24
 70
     1
102
RTVSPropertyOp25
 70
     1
102
RTVSPropertyOp26
 70
     1
102
RTVSPropertyOp27
 70
     1
102
RTVSPropertyOp28
 70
     1
102
RTVSPropertyOp29
 70
     1
102
RTVSPropertyOp30
 70
     1
102
RTVSPropertyOp31
 70
     1
102
RTVSPropertyOp32
 70
     1
102
RTVSPropertyOp33
 70
     1
102
RTVSPropertyOp34
 70
     1
102
RTVSPropertyOp35
 70
     1
102
RTVSPropertyOp36
 70
     1
102
RTVSPropertyOp37
 70
     1
102
RTVSPropertyOp38
 70
     1
102
RTVSPropertyOp39
 70
     1
102
RTVSPropertyOp40
 70
     1
102
RTVSPropertyOp41
 70
     1
102
RTVSPropertyOp42
 70
     1
102
RTVSPropertyOp43
 70
     1
102
RTVSPropertyOp44
 70
     1
102
RTVSPropertyOp45
 70
     1
102
RTVSPropertyOp46
 70
     1
102
RTVSPropertyOp47
 70
     1
102
RTVSPropertyOp48
 70
     1
102
RTVSPropertyOp49
 70
     1
102
RTVSPropertyOp50
 70
     1
102
RTVSPropertyOp51
 70
     0
102
RTVSPropertyOp52
 70
     0
102
RTVSPropertyOp53
 70
     1
102
RTVSPropertyOp54
 70
     1
102
RTVSPropertyOp55
 70
     1
102
RTVSPropertyOp56
 70
     1
102
RTVSPropertyOp57
 70
     1
102
RTVSPropertyOp58
 70
     1
102
RTVSPropertyOp59
 70
     1
102
RTVSPropertyOp60
 70
     1
102
RTVSPropertyOp61
 70
     1
102
RTVSPropertyOp62
 70
     1
  0
XRECORD
  5
CC19
102
{ACAD_REACTORS
330
CC18
102
}
330
CC18
100
AcDbXrecord
280
     1
102
RTVSPost2010Prop28
280
     0
102
RTVSPost2010PropOp28
 70
     1
102
RTVSPost2010Prop29
280
     1
102
RTVSPost2010PropOp29
 70
     1
102
RTVSPost2010Prop30
280
     1
102
RTVSPost2010PropOp30
 70
     1
102
RTVSPost2010Prop31
280
     0
102
RTVSPost2010PropOp31
 70
     1
102
RTVSPost2010Prop32
280
     0
102
RTVSPost2010PropOp32
 70
     1
102
RTVSPost2010Prop33
280
     0
102
RTVSPost2010PropOp33
 70
     1
102
RTVSPost2010Prop34
280
     0
102
RTVSPost2010PropOp34
 70
     1
102
RTVSPost2010Prop35
280
     0
102
RTVSPost2010PropOp35
 70
     1
102
RTVSPost2010Prop36
280
     0
102
RTVSPost2010PropOp36
 70
     1
102
RTVSPost2010Prop37
 90
       50
102
RTVSPost2010PropOp37
 70
     1
102
RTVSPost2010Prop38
140
0.0
102
RTVSPost2010PropOp38
 70
     1
102
RTVSPost2010Prop39
140
1.0
102
RTVSPost2010PropOp39
 70
     1
102
RTVSPost2010Prop40
 90
        0
102
RTVSPost2010PropOp40
 70
     1
102
RTVSPost2010Prop41ColorIndex
 90
       18
102
RTVSPost2010Prop41ColorRGB
 90
        0
102
RTVSPost2010PropOp41
 70
     1
102
RTVSPost2010Prop42
 90
       50
102
RTVSPost2010PropOp42
 70
     1
102
RTVSPost2010Prop43
 90
        3
102
RTVSPost2010PropOp43
 70
     1
102
RTVSPost2010Prop44ColorIndex
 90
        5
102
RTVSPost2010Prop44ColorRGB
 90
      255
102
RTVSPost2010PropOp44
 70
     1
102
RTVSPost2010Prop45
280
     0
102
RTVSPost2010PropOp45
 70
     1
102
RTVSPost2010Prop46
 90
       50
102
RTVSPost2010PropOp46
 70
     1
102
RTVSPost2010Prop47
 90
       50
102
RTVSPost2010PropOp47
 70
     1
102
RTVSPost2010Prop48
 90
       50
102
RTVSPost2010PropOp48
 70
     1
102
RTVSPost2010Prop49
280
     0
102
RTVSPost2010PropOp49
 70
     1
102
RTVSPost2010Prop50
 90
       50
102
RTVSPost2010PropOp50
 70
     1
102
RTVSPost2010Prop51ColorIndex
 90
      256
102
RTVSPost2010Prop51ColorRGB
 90
-16777216
102
RTVSPost2010PropOp51
 70
     0
102
RTVSPost2010Prop52
140
1.0
102
RTVSPost2010PropOp52
 70
     0
102
RTVSPost2010Prop53
 90
        2
102
RTVSPost2010PropOp53
 70
     1
102
RTVSPost2010Prop54
  1
strokes_ogs.tif
102
RTVSPost2010PropOp54
 70
     1
102
RTVSPost2010Prop55
280
     0
102
RTVSPost2010PropOp55
 70
     1
102
RTVSPost2010Prop56
140
1.0
102
RTVSPost2010PropOp56
 70
     1
102
RTVSPost2010Prop57
140
1.0
102
RTVSPost2010PropOp57
 70
     1
102
RTVSPropertyOp0
 70
     1
102
RTVSPropertyOp1
 70
     1
102
RTVSPropertyOp2
 70
     1
102
RTVSPropertyOp3
 70
     1
102
RTVSPropertyOp4
 70
     1
102
RTVSPropertyOp5
 70
     1
102
RTVSPropertyOp6
 70
     1
102
RTVSPropertyOp7
 70
     1
102
RTVSPropertyOp8
 70
     1
102
RTVSPropertyOp9
 70
     1
102
RTVSPropertyOp10
 70
     1
102
RTVSPropertyOp11
 70
     1
102
RTVSPropertyOp12
 70
     1
102
RTVSPropertyOp13
 70
     1
102
RTVSPropertyOp14
 70
     1
102
RTVSPropertyOp15
 70
     1
102
RTVSPropertyOp16
 70
     1
102
RTVSPropertyOp17
 70
     1
102
RTVSPropertyOp18
 70
     1
102
RTVSPropertyOp19
 70
     1
102
RTVSPropertyOp20
 70
     1
102
RTVSPropertyOp21
 70
     1
102
RTVSPropertyOp22
 70
     1
102
RTVSPropertyOp23
 70
     1
102
RTVSPropertyOp24
 70
     1
102
RTVSPropertyOp25
 70
     1
102
RTVSPropertyOp26
 70
     1
102
RTVSPropertyOp27
 70
     1
102
RTVSPropertyOp28
 70
     1
102
RTVSPropertyOp29
 70
     1
102
RTVSPropertyOp30
 70
     1
102
RTVSPropertyOp31
 70
     1
102
RTVSPropertyOp32
 70
     1
102
RTVSPropertyOp33
 70
     1
102
RTVSPropertyOp34
 70
     1
102
RTVSPropertyOp35
 70
     1
102
RTVSPropertyOp36
 70
     1
102
RTVSPropertyOp37
 70
     1
102
RTVSPropertyOp38
 70
     1
102
RTVSPropertyOp39
 70
     1
102
RTVSPropertyOp40
 70
     1
102
RTVSPropertyOp41
 70
     1
102
RTVSPropertyOp42
 70
     1
102
RTVSPropertyOp43
 70
     1
102
RTVSPropertyOp44
 70
     1
102
RTVSPropertyOp45
 70
     1
102
RTVSPropertyOp46
 70
     1
102
RTVSPropertyOp47
 70
     1
102
RTVSPropertyOp48
 70
     1
102
RTVSPropertyOp49
 70
     1
102
RTVSPropertyOp50
 70
     1
102
RTVSPropertyOp51
 70
     0
102
RTVSPropertyOp52
 70
     0
102
RTVSPropertyOp53
 70
     1
102
RTVSPropertyOp54
 70
     1
102
RTVSPropertyOp55
 70
     1
102
RTVSPropertyOp56
 70
     1
102
RTVSPropertyOp57
 70
     1
102
RTVSPropertyOp58
 70
     1
102
RTVSPropertyOp59
 70
     1
102
RTVSPropertyOp60
 70
     1
102
RTVSPropertyOp61
 70
     1
102
RTVSPropertyOp62
 70
     1
  0
ENDSEC
  0
EOF
