  0
SECTION
  2
HEADER
  9
$ACADVER
  1
AC1015
  9
$ACADMAINTVER
 70
    20
  9
$DWGCODEPAGE
  3
ANSI_932
  9
$INSBASE
 10
0.0
 20
0.0
 30
0.0
  9
$EXTMIN
 10
10.0
 20
9.999999999999998
 30
0.0
  9
$EXTMAX
 10
840.2999999999996
 20
346.0
 30
0.0
  9
$LIMMIN
 10
0.0
 20
0.0
  9
$LIMMAX
 10
871.2000000000001
 20
600.6
  9
$ORTHOMODE
 70
     1
  9
$REGENMODE
 70
     1
  9
$FILLMODE
 70
     1
  9
$QTEXTMODE
 70
     0
  9
$MIRRTEXT
 70
     1
  9
$LTSCALE
 40
20.0
  9
$ATTMODE
 70
     1
  9
$TEXTSIZE
 40
5.0
  9
$TRACEWID
 40
1.0
  9
$TEXTSTYLE
  7
STANDARD
  9
$CLAYER
  8
0
  9
$CELTYPE
  6
BYLAYER
  9
$CECOLOR
 62
   256
  9
$CELTSCALE
 40
1.0
  9
$DISPSILH
 70
     0
  9
$DIMSCALE
 40
1.0
  9
$DIMASZ
 40
3.0
  9
$DIMEXO
 40
1.0
  9
$DIMDLI
 40
10.0
  9
$DIMRND
 40
0.0
  9
$DIMDLE
 40
0.0
  9
$DIMEXE
 40
1.0
  9
$DIMTP
 40
0.0
  9
$DIMTM
 40
0.0
  9
$DIMTXT
 40
2.5
  9
$DIMCEN
 40
0.0
  9
$DIMTSZ
 40
0.0
  9
$DIMTOL
 70
     0
  9
$DIMLIM
 70
     0
  9
$DIMTIH
 70
     0
  9
$DIMTOH
 70
     0
  9
$DIMSE1
 70
     0
  9
$DIMSE2
 70
     0
  9
$DIMTAD
 70
     3
  9
$DIMZIN
 70
     8
  9
$DIMBLK
  1

  9
$DIMASO
 70
     1
  9
$DIMSHO
 70
     1
  9
$DIMPOST
  1

  9
$DIMAPOST
  1

  9
$DIMALT
 70
     0
  9
$DIMALTD
 70
     2
  9
$DIMALTF
 40
25.4
  9
$DIMLFAC
 40
1.0
  9
$DIMTOFL
 70
     1
  9
$DIMTVP
 40
0.0
  9
$DIMTIX
 70
     0
  9
$DIMSOXD
 70
     0
  9
$DIMSAH
 70
     1
  9
$DIMBLK1
  1

  9
$DIMBLK2
  1

  9
$DIMSTYLE
  2
STANDARD
  9
$DIMCLRD
 70
     0
  9
$DIMCLRE
 70
     0
  9
$DIMCLRT
 70
     0
  9
$DIMTFAC
 40
1.0
  9
$DIMGAP
 40
1.0
  9
$DIMJUST
 70
     0
  9
$DIMSD1
 70
     0
  9
$DIMSD2
 70
     0
  9
$DIMTOLJ
 70
     1
  9
$DIMTZIN
 70
     0
  9
$DIMALTZ
 70
     0
  9
$DIMALTTZ
 70
     0
  9
$DIMUPT
 70
     0
  9
$DIMDEC
 70
     4
  9
$DIMTDEC
 70
     4
  9
$DIMALTU
 70
     2
  9
$DIMALTTD
 70
     2
  9
$DIMTXSTY
  7
STANDARD
  9
$DIMAUNIT
 70
     0
  9
$DIMADEC
 70
     0
  9
$DIMALTRND
 40
0.0
  9
$DIMAZIN
 70
     0
  9
$DIMDSEP
 70
    46
  9
$DIMATFIT
 70
     3
  9
$DIMFRAC
 70
     0
  9
$DIMLDRBLK
  1

  9
$DIMLUNIT
 70
     2
  9
$DIMLWD
 70
    -2
  9
$DIMLWE
 70
    -2
  9
$DIMTMOVE
 70
     0
  9
$LUNITS
 70
     2
  9
$LUPREC
 70
     4
  9
$SKETCHINC
 40
1.0
  9
$FILLETRAD
 40
0.0
  9
$AUNITS
 70
     0
  9
$AUPREC
 70
     2
  9
$MENU
  1
.
  9
$ELEVATION
 40
0.0
  9
$PELEVATION
 40
0.0
  9
$THICKNESS
 40
0.0
  9
$LIMCHECK
 70
     0
  9
$CHAMFERA
 40
10.0
  9
$CHAMFERB
 40
10.0
  9
$CHAMFERC
 40
0.0
  9
$CHAMFERD
 40
0.0
  9
$SKPOLY
 70
     0
  9
$TDCREATE
 40
2451233.435088079
  9
$TDUCREATE
 40
2451233.060088079
  9
$TDUPDATE
 40
2457192.662030371
  9
$TDUUPDATE
 40
2457192.287030371
  9
$TDINDWG
 40
0.0000118403
  9
$TDUSRTIMER
 40
0.0000115162
  9
$USRTIMER
 70
     1
  9
$ANGBASE
 50
0.0
  9
$ANGDIR
 70
     0
  9
$PDMODE
 70
     0
  9
$PDSIZE
 40
0.0
  9
$PLINEWID
 40
0.0
  9
$SPLFRAME
 70
     0
  9
$SPLINETYPE
 70
     6
  9
$SPLINESEGS
 70
     8
  9
$HANDSEED
  5
CCF3
  9
$SURFTAB1
 70
     6
  9
$SURFTAB2
 70
     6
  9
$SURFTYPE
 70
     6
  9
$SURFU
 70
     6
  9
$SURFV
 70
     6
  9
$UCSBASE
  2

  9
$UCSNAME
  2

  9
$UCSORG
 10
0.0
 20
0.0
 30
0.0
  9
$UCSXDIR
 10
1.0
 20
0.0
 30
0.0
  9
$UCSYDIR
 10
0.0
 20
1.0
 30
0.0
  9
$UCSORTHOREF
  2

  9
$UCSORTHOVIEW
 70
     0
  9
$UCSORGTOP
 10
0.0
 20
0.0
 30
0.0
  9
$UCSORGBOTTOM
 10
0.0
 20
0.0
 30
0.0
  9
$UCSORGLEFT
 10
0.0
 20
0.0
 30
0.0
  9
$UCSORGRIGHT
 10
0.0
 20
0.0
 30
0.0
  9
$UCSORGFRONT
 10
0.0
 20
0.0
 30
0.0
  9
$UCSORGBACK
 10
0.0
 20
0.0
 30
0.0
  9
$PUCSBASE
  2

  9
$PUCSNAME
  2

  9
$PUCSORG
 10
0.0
 20
0.0
 30
0.0
  9
$PUCSXDIR
 10
1.0
 20
0.0
 30
0.0
  9
$PUCSYDIR
 10
0.0
 20
1.0
 30
0.0
  9
$PUCSORTHOREF
  2

  9
$PUCSORTHOVIEW
 70
     0
  9
$PUCSORGTOP
 10
0.0
 20
0.0
 30
0.0
  9
$PUCSORGBOTTOM
 10
0.0
 20
0.0
 30
0.0
  9
$PUCSORGLEFT
 10
0.0
 20
0.0
 30
0.0
  9
$PUCSORGRIGHT
 10
0.0
 20
0.0
 30
0.0
  9
$PUCSORGFRONT
 10
0.0
 20
0.0
 30
0.0
  9
$PUCSORGBACK
 10
0.0
 20
0.0
 30
0.0
  9
$USERI1
 70
     0
  9
$USERI2
 70
     0
  9
$USERI3
 70
     0
  9
$USERI4
 70
     0
  9
$USERI5
 70
     0
  9
$USERR1
 40
0.0
  9
$USERR2
 40
0.0
  9
$USERR3
 40
0.0
  9
$USERR4
 40
0.0
  9
$USERR5
 40
0.0
  9
$WORLDVIEW
 70
     1
  9
$SHADEDGE
 70
     3
  9
$SHADEDIF
 70
    70
  9
$TILEMODE
 70
     1
  9
$MAXACTVP
 70
    16
  9
$PINSBASE
 10
0.0
 20
0.0
 30
0.0
  9
$PLIMCHECK
 70
     0
  9
$PEXTMIN
 10
1.000000000000000E+20
 20
1.000000000000000E+20
 30
1.000000000000000E+20
  9
$PEXTMAX
 10
-1.000000000000000E+20
 20
-1.000000000000000E+20
 30
-1.000000000000000E+20
  9
$PLIMMIN
 10
0.0
 20
0.0
  9
$PLIMMAX
 10
420.0
 20
297.0
  9
$UNITMODE
 70
     0
  9
$VISRETAIN
 70
     0
  9
$PLINEGEN
 70
     0
  9
$PSLTSCALE
 70
     0
  9
$TREEDEPTH
 70
  3020
  9
$CMLSTYLE
  2
STANDARD
  9
$CMLJUST
 70
     0
  9
$CMLSCALE
 40
1.0
  9
$PROXYGRAPHICS
 70
     1
  9
$MEASUREMENT
 70
     0
  9
$CELWEIGHT
370
    -1
  9
$ENDCAPS
280
     0
  9
$JOINSTYLE
280
     0
  9
$LWDISPLAY
290
     0
  9
$INSUNITS
 70
     0
  9
$HYPERLINKBASE
  1

  9
$STYLESHEET
  1

  9
$XEDIT
290
     1
  9
$CEPSNTYPE
380
     0
  9
$PSTYLEMODE
290
     1
  9
$FINGERPRINTGUID
  2
{E2509FF9-D25C-4E2A-924D-292DE437FDDF}
  9
$VERSIONGUID
  2
{A4D1AABE-ADF0-458B-B9F8-110E32992AE4}
  9
$EXTNAMES
290
     1
  9
$PSVPSCALE
 40
0.0
  9
$OLESTARTUP
290
     0
  0
ENDSEC
  0
SECTION
  2
CLASSES
  0
CLASS
  1
ACDBDICTIONARYWDFLT
  2
AcDbDictionaryWithDefault
  3
ObjectDBX Classes
 90
        0
280
     0
281
     0
  0
CLASS
  1
ACDBPLACEHOLDER
  2
AcDbPlaceHolder
  3
ObjectDBX Classes
 90
        0
280
     0
281
     0
  0
CLASS
  1
LAYOUT
  2
AcDbLayout
  3
ObjectDBX Classes
 90
        0
280
     0
281
     0
  0
CLASS
  1
DICTIONARYVAR
  2
AcDbDictionaryVar
  3
ObjectDBX Classes
 90
        0
280
     0
281
     0
  0
CLASS
  1
MATERIAL
  2
AcDbMaterial
  3
ObjectDBX Classes
 90
     1153
280
     0
281
     0
  0
CLASS
  1
VISUALSTYLE
  2
AcDbVisualStyle
  3
ObjectDBX Classes
 90
     4095
280
     0
281
     0
  0
CLASS
  1
TABLESTYLE
  2
AcDbTableStyle
  3
ObjectDBX Classes
 90
     4095
280
     0
281
     0
  0
CLASS
  1
SCALE
  2
AcDbScale
  3
ObjectDBX Classes
 90
     1153
280
     0
281
     0
  0
CLASS
  1
MLEADERSTYLE
  2
AcDbMLeaderStyle
  3
ACDB_MLEADERSTYLE_CLASS
 90
     4095
280
     0
281
     0
  0
CLASS
  1
ACDBSECTIONVIEWSTYLE
  2
AcDbSectionViewStyle
  3
ObjectDBX Classes
 90
     1025
280
     0
281
     0
  0
CLASS
  1
ACDBDETAILVIEWSTYLE
  2
AcDbDetailViewStyle
  3
ObjectDBX Classes
 90
     1025
280
     0
281
     0
  0
CLASS
  1
CELLSTYLEMAP
  2
AcDbCellStyleMap
  3
ObjectDBX Classes
 90
     1152
280
     0
281
     0
  0
ENDSEC
  0
SECTION
  2
TABLES
  0
TABLE
  2
VPORT
  5
C9AE
330
0
100
AcDbSymbolTable
 70
     1
  0
VPORT
  5
CC3C
330
C9AE
100
AcDbSymbolTableRecord
100
AcDbViewportTableRecord
  2
*ACTIVE
 70
     0
 10
0.0
 20
0.0
 11
1.0
 21
1.0
 12
568.1000409457224
 22
178.0007001085448
 13
0.0
 23
0.0
 14
10.0
 24
10.0
 15
10.0
 25
10.0
 16
0.0
 26
0.0
 36
1.0
 17
0.0
 27
0.0
 37
0.0
 40
477.3069326823857
 41
1.899603698811096
 42
50.0
 43
0.0
 44
0.0
 50
0.0
 51
0.0
 71
     0
 72
   100
 73
     1
 74
     0
 75
     0
 76
     0
 77
     0
 78
     0
281
     0
 65
     1
110
0.0
120
0.0
130
0.0
111
1.0
121
0.0
131
0.0
112
0.0
122
1.0
132
0.0
 79
     0
146
0.0
1001
ACAD_NAV_VCDISPLAY
1070
     3
  0
ENDTAB
  0
TABLE
  2
LTYPE
  5
C9AB
330
0
100
AcDbSymbolTable
 70
     4
  0
LTYPE
  5
C9B9
330
C9AB
100
AcDbSymbolTableRecord
100
AcDbLinetypeTableRecord
  2
BYBLOCK
 70
     0
  3

 72
    65
 73
     0
 40
0.0
  0
LTYPE
  5
C9BA
330
C9AB
100
AcDbSymbolTableRecord
100
AcDbLinetypeTableRecord
  2
BYLAYER
 70
     0
  3

 72
    65
 73
     0
 40
0.0
  0
LTYPE
  5
C9BB
330
C9AB
100
AcDbSymbolTableRecord
100
AcDbLinetypeTableRecord
  2
CONTINUOUS
 70
     0
  3
Solid line
 72
    65
 73
     0
 40
0.0
  0
LTYPE
  5
C9C9
330
C9AB
100
AcDbSymbolTableRecord
100
AcDbLinetypeTableRecord
  2
DASHED
 70
     0
  3
__ __ __ __ __ __ __ __ __ __ __ __ __ __ __ __
 72
    65
 73
     2
 40
0.75
 49
0.5
 74
     0
 49
-0.25
 74
     0
  0
LTYPE
  5
C9CA
330
C9AB
100
AcDbSymbolTableRecord
100
AcDbLinetypeTableRecord
  2
CENTER
 70
     0
  3
____ _ ____ _ ____ _ ____ _ ____ _ ____ _ ____ 
 72
    65
 73
     4
 40
2.0
 49
1.25
 74
     0
 49
-0.25
 74
     0
 49
0.25
 74
     0
 49
-0.25
 74
     0
  0
LTYPE
  5
C9CB
330
C9AB
100
AcDbSymbolTableRecord
100
AcDbLinetypeTableRecord
  2
PHANTOM
 70
     0
  3
______  __  __  ______  __  __  ______  __  __ 
 72
    65
 73
     6
 40
2.5
 49
1.25
 74
     0
 49
-0.25
 74
     0
 49
0.25
 74
     0
 49
-0.25
 74
     0
 49
0.25
 74
     0
 49
-0.25
 74
     0
  0
ENDTAB
  0
TABLE
  2
LAYER
  5
C9A8
330
0
100
AcDbSymbolTable
 70
     8
  0
LAYER
  5
C9B6
102
{ACAD_XDICTIONARY
360
CC97
102
}
330
C9A8
100
AcDbSymbolTableRecord
100
AcDbLayerTableRecord
  2
0
 70
     0
 62
     7
  6
CONTINUOUS
370
    -3
390
CC45
  0
LAYER
  5
C9CC
102
{ACAD_XDICTIONARY
360
CC99
102
}
330
C9A8
100
AcDbSymbolTableRecord
100
AcDbLayerTableRecord
  2
4
 70
     0
 62
     1
  6
CENTER
370
    -3
390
CC45
  0
LAYER
  5
C9CD
102
{ACAD_XDICTIONARY
360
CC9B
102
}
330
C9A8
100
AcDbSymbolTableRecord
100
AcDbLayerTableRecord
  2
5
 70
     0
 62
     6
  6
PHANTOM
370
    -3
390
CC45
  0
LAYER
  5
C9CE
102
{ACAD_XDICTIONARY
360
CC9D
102
}
330
C9A8
100
AcDbSymbolTableRecord
100
AcDbLayerTableRecord
  2
1
 70
     0
 62
     7
  6
CONTINUOUS
370
    -3
390
CC45
  0
LAYER
  5
C9CF
102
{ACAD_XDICTIONARY
360
CC9F
102
}
330
C9A8
100
AcDbSymbolTableRecord
100
AcDbLayerTableRecord
  2
2
 70
     0
 62
     4
  6
CONTINUOUS
370
    -3
390
CC45
  0
LAYER
  5
C9D0
102
{ACAD_XDICTIONARY
360
CCA1
102
}
330
C9A8
100
AcDbSymbolTableRecord
100
AcDbLayerTableRecord
  2
3
 70
     0
 62
     2
  6
DASHED
370
    -3
390
CC45
  0
LAYER
  5
C9D1
102
{ACAD_XDICTIONARY
360
CCA3
102
}
330
C9A8
100
AcDbSymbolTableRecord
100
AcDbLayerTableRecord
  2
6
 70
     0
 62
     5
  6
CONTINUOUS
370
    -3
390
CC45
  0
LAYER
  5
C9D2
102
{ACAD_XDICTIONARY
360
CCA5
102
}
330
C9A8
100
AcDbSymbolTableRecord
100
AcDbLayerTableRecord
  2
7
 70
     0
 62
     3
  6
CONTINUOUS
370
    -3
390
CC45
  0
ENDTAB
  0
TABLE
  2
STYLE
  5
C9A9
330
0
100
AcDbSymbolTable
 70
     1
  0
STYLE
  5
C9B7
330
C9A9
100
AcDbSymbolTableRecord
100
AcDbTextStyleTableRecord
  2
STANDARD
 70
     0
 40
0.0
 41
1.0
 50
0.0
 71
     0
 42
5.0
  3
txt
  4

  0
ENDTAB
  0
TABLE
  2
VIEW
  5
C9AC
330
0
100
AcDbSymbolTable
 70
     0
  0
ENDTAB
  0
TABLE
  2
UCS
  5
C9AD
330
0
100
AcDbSymbolTable
 70
     0
  0
ENDTAB
  0
TABLE
  2
APPID
  5
C9AF
330
0
100
AcDbSymbolTable
 70
     3
  0
APPID
  5
C9B8
330
C9AF
100
AcDbSymbolTableRecord
100
AcDbRegAppTableRecord
  2
ACAD
 70
     0
  0
APPID
  5
CCB1
330
C9AF
100
AcDbSymbolTableRecord
100
AcDbRegAppTableRecord
  2
ACAD_NAV_VCDISPLAY
 70
     0
  0
APPID
  5
CCEA
330
C9AF
100
AcDbSymbolTableRecord
100
AcDbRegAppTableRecord
  2
ACAD_MLEADERVER
 70
     0
  0
ENDTAB
  0
TABLE
  2
DIMSTYLE
  5
C9B0
330
0
100
AcDbSymbolTable
 70
     1
100
AcDbDimStyleTable
 71
     0
  0
DIMSTYLE
105
C9D4
330
C9B0
100
AcDbSymbolTableRecord
100
AcDbDimStyleTableRecord
  2
STANDARD
 70
     0
 41
3.0
 42
1.0
 43
10.0
 44
1.0
 73
     0
 74
     0
 77
     3
 78
     8
140
2.5
141
0.0
147
1.0
172
     1
173
     1
284
     8
285
     8
286
     8
340
C9B7
  0
ENDTAB
  0
TABLE
  2
BLOCK_RECORD
  5
C9A7
330
0
100
AcDbSymbolTable
 70
     0
  0
BLOCK_RECORD
  5
C9C4
102
{ACAD_XDICTIONARY
360
CC3F
102
}
330
C9A7
100
AcDbSymbolTableRecord
100
AcDbBlockTableRecord
  2
*MODEL_SPACE
340
CC93
  0
BLOCK_RECORD
  5
C9C0
102
{ACAD_XDICTIONARY
360
CC3D
102
}
330
C9A7
100
AcDbSymbolTableRecord
100
AcDbBlockTableRecord
  2
*PAPER_SPACE
340
CC94
  0
ENDTAB
  0
ENDSEC
  0
SECTION
  2
BLOCKS
  0
BLOCK
  5
C9C5
330
C9C4
100
AcDbEntity
  8
0
100
AcDbBlockBegin
  2
*MODEL_SPACE
 70
     0
 10
0.0
 20
0.0
 30
0.0
  3
*MODEL_SPACE
  1

  0
ENDBLK
  5
C9C6
330
C9C4
100
AcDbEntity
  8
0
100
AcDbBlockEnd
  0
BLOCK
  5
C9C1
330
C9C0
100
AcDbEntity
 67
     1
  8
0
100
AcDbBlockBegin
  2
*PAPER_SPACE
 70
     0
 10
0.0
 20
0.0
 30
0.0
  3
*PAPER_SPACE
  1

  0
ENDBLK
  5
C9C2
330
C9C0
100
AcDbEntity
 67
     1
  8
0
100
AcDbBlockEnd
  0
ENDSEC
  0
SECTION
  2
ENTITIES
  0
TEXT
  5
C9DC
330
C9C4
100
AcDbEntity
  8
7
  6
Continuous
100
AcDbText
 10
10.0
 20
18.0
 30
0.0
 40
3.0
  1
TYPE No.TM-233-3
100
AcDbText
  0
TEXT
  5
C9DD
330
C9C4
100
AcDbEntity
  8
7
  6
Continuous
100
AcDbText
 10
10.0
 20
26.0
 30
0.0
 40
3.0
  1
CODE No.6034
100
AcDbText
  0
TEXT
  5
C9DE
330
C9C4
100
AcDbEntity
  8
1
  6
Continuous
100
AcDbText
 10
10.0
 20
10.0
 30
0.0
 40
1.399999999999999
  1
LAYER
100
AcDbText
  0
TEXT
  5
C9DF
330
C9C4
100
AcDbEntity
  8
1
  6
Continuous
100
AcDbText
 10
17.97951099999998
 20
10.04873699999998
 30
0.0
 40
1.399999999999999
  1
1
100
AcDbText
  0
TEXT
  5
C9E0
330
C9C4
100
AcDbEntity
  8
7
  6
Continuous
100
AcDbText
 10
29.97951099999999
 20
10.04873699999998
 30
0.0
 40
1.399999999999999
  1
7
100
AcDbText
  0
TEXT
  5
C9E1
330
C9C4
100
AcDbEntity
  8
4
  6
CENTER
100
AcDbText
 10
23.97951099999999
 20
10.04873699999998
 30
0.0
 40
1.399999999999999
  1
4
100
AcDbText
  0
TEXT
  5
C9E2
330
C9C4
100
AcDbEntity
  8
3
  6
DASHED
100
AcDbText
 10
21.979511
 20
10.04873699999998
 30
0.0
 40
1.399999999999999
  1
3
100
AcDbText
  0
TEXT
  5
C9E3
330
C9C4
100
AcDbEntity
  8
2
  6
Continuous
100
AcDbText
 10
19.97951099999999
 20
10.04873699999998
 30
0.0
 40
1.399999999999999
  1
2
100
AcDbText
  0
TEXT
  5
C9E4
330
C9C4
100
AcDbEntity
  8
6
  6
Continuous
100
AcDbText
 10
27.979511
 20
10.04873699999998
 30
0.0
 40
1.399999999999999
  1
6
100
AcDbText
  0
TEXT
  5
C9E5
330
C9C4
100
AcDbEntity
  8
5
  6
PHANTOM
100
AcDbText
 10
25.97951099999999
 20
10.04873699999998
 30
0.0
 40
1.399999999999999
  1
5
100
AcDbText
  0
LINE
  5
C9E6
330
C9C4
100
AcDbEntity
  8
4
  6
CENTER
100
AcDbLine
 10
742.2999999999997
 20
145.1589569999999
 30
0.0
 11
742.2999999999997
 21
138.7474469999999
 31
0.0
  0
LINE
  5
C9E7
330
C9C4
100
AcDbEntity
  8
4
  6
CENTER
100
AcDbLine
 10
497.2999999999998
 20
145.429866
 30
0.0
 11
497.2999999999998
 21
139.1086579999999
 31
0.0
  0
LINE
  5
C9E8
330
C9C4
100
AcDbEntity
  8
4
  6
CENTER
100
AcDbLine
 10
118.3
 20
144.978351
 30
0.0
 11
118.3
 21
138.83775
 31
0.0
  0
LINE
  5
C9E9
330
C9C4
100
AcDbEntity
  8
4
  6
CENTER
100
AcDbLine
 10
203.3
 20
144.978351
 30
0.0
 11
203.3
 21
139.018355
 31
0.0
  0
LINE
  5
C9EA
330
C9C4
100
AcDbEntity
  8
4
  6
CENTER
100
AcDbLine
 10
448.3
 20
144.8880479999999
 30
0.0
 11
448.3
 21
139.289264
 31
0.0
  0
LINE
  5
C9EB
330
C9C4
100
AcDbEntity
  8
1
  6
Continuous
100
AcDbLine
 10
388.8
 20
148.6794999999998
 30
0.0
 11
388.8
 21
149.1794999999999
 31
0.0
  0
LINE
  5
C9EC
330
C9C4
100
AcDbEntity
  8
1
  6
Continuous
100
AcDbLine
 10
380.8
 20
148.6794999999998
 30
0.0
 11
388.8
 21
148.6794999999998
 31
0.0
  0
LINE
  5
C9ED
330
C9C4
100
AcDbEntity
  8
1
  6
Continuous
100
AcDbLine
 10
380.8
 20
149.1794999999999
 30
0.0
 11
388.8
 21
149.1794999999999
 31
0.0
  0
LINE
  5
C9EE
330
C9C4
100
AcDbEntity
  8
1
  6
Continuous
100
AcDbLine
 10
388.8
 20
135.3205
 30
0.0
 11
388.8
 21
134.8205
 31
0.0
  0
LINE
  5
C9EF
330
C9C4
100
AcDbEntity
  8
1
  6
Continuous
100
AcDbLine
 10
380.8
 20
135.3205
 30
0.0
 11
388.8
 21
135.3205
 31
0.0
  0
LINE
  5
C9F0
330
C9C4
100
AcDbEntity
  8
1
  6
Continuous
100
AcDbLine
 10
380.8
 20
134.8205
 30
0.0
 11
388.8
 21
134.8205
 31
0.0
  0
LINE
  5
C9F1
330
C9C4
100
AcDbEntity
  8
1
  6
Continuous
100
AcDbLine
 10
380.8
 20
149.1794999999999
 30
0.0
 11
380.8
 21
148.15
 31
0.0
  0
ARC
  5
C9F2
330
C9C4
100
AcDbEntity
  8
1
  6
Continuous
100
AcDbCircle
 10
389.8
 20
148.6794999999998
 30
0.0
 40
1.0
100
AcDbArc
 50
180.0
 51
211.9716779999999
  0
ARC
  5
C9F3
330
C9C4
100
AcDbEntity
  8
1
  6
Continuous
100
AcDbCircle
 10
399.8
 20
148.6794999999998
 30
0.0
 40
1.0
100
AcDbArc
 50
180.0
 51
211.9716779999999
  0
LINE
  5
C9F4
330
C9C4
100
AcDbEntity
  8
1
  6
Continuous
100
AcDbLine
 10
398.7999999999999
 20
148.6794999999998
 30
0.0
 11
398.7999999999999
 21
149.1794999999999
 31
0.0
  0
LINE
  5
C9F5
330
C9C4
100
AcDbEntity
  8
1
  6
Continuous
100
AcDbLine
 10
390.8
 20
148.6794999999998
 30
0.0
 11
398.7999999999999
 21
148.6794999999998
 31
0.0
  0
LINE
  5
C9F6
330
C9C4
100
AcDbEntity
  8
1
  6
Continuous
100
AcDbLine
 10
390.8
 20
149.1794999999999
 30
0.0
 11
398.7999999999999
 21
149.1794999999999
 31
0.0
  0
LINE
  5
C9F7
330
C9C4
100
AcDbEntity
  8
1
  6
Continuous
100
AcDbLine
 10
398.7999999999999
 20
135.3205
 30
0.0
 11
398.7999999999999
 21
134.8205
 31
0.0
  0
LINE
  5
C9F8
330
C9C4
100
AcDbEntity
  8
1
  6
Continuous
100
AcDbLine
 10
390.8
 20
135.3205
 30
0.0
 11
398.7999999999999
 21
135.3205
 31
0.0
  0
LINE
  5
C9F9
330
C9C4
100
AcDbEntity
  8
1
  6
Continuous
100
AcDbLine
 10
390.8
 20
134.8205
 30
0.0
 11
398.7999999999999
 21
134.8205
 31
0.0
  0
LINE
  5
C9FA
330
C9C4
100
AcDbEntity
  8
1
  6
Continuous
100
AcDbLine
 10
390.8
 20
149.1794999999999
 30
0.0
 11
390.8
 21
148.6794999999998
 31
0.0
  0
LINE
  5
C9FB
330
C9C4
100
AcDbEntity
  8
1
  6
Continuous
100
AcDbLine
 10
390.8
 20
134.8205
 30
0.0
 11
390.8
 21
135.3205
 31
0.0
  0
ARC
  5
C9FC
330
C9C4
100
AcDbEntity
  8
1
  6
Continuous
100
AcDbCircle
 10
389.8
 20
135.3205
 30
0.0
 40
1.0
100
AcDbArc
 50
0.0
 51
31.97167800000001
  0
ARC
  5
C9FD
330
C9C4
100
AcDbEntity
  8
1
  6
Continuous
100
AcDbCircle
 10
409.7999999999998
 20
148.6794999999998
 30
0.0
 40
1.0
100
AcDbArc
 50
180.0
 51
211.9716779999999
  0
LINE
  5
C9FE
330
C9C4
100
AcDbEntity
  8
1
  6
Continuous
100
AcDbLine
 10
408.8
 20
148.6794999999998
 30
0.0
 11
408.8
 21
149.1794999999999
 31
0.0
  0
LINE
  5
C9FF
330
C9C4
100
AcDbEntity
  8
1
  6
Continuous
100
AcDbLine
 10
400.8
 20
148.6794999999998
 30
0.0
 11
408.8
 21
148.6794999999998
 31
0.0
  0
LINE
  5
CA00
330
C9C4
100
AcDbEntity
  8
1
  6
Continuous
100
AcDbLine
 10
400.8
 20
149.1794999999999
 30
0.0
 11
408.8
 21
149.1794999999999
 31
0.0
  0
LINE
  5
CA01
330
C9C4
100
AcDbEntity
  8
1
  6
Continuous
100
AcDbLine
 10
408.8
 20
135.3205
 30
0.0
 11
408.8
 21
134.8205
 31
0.0
  0
LINE
  5
CA02
330
C9C4
100
AcDbEntity
  8
1
  6
Continuous
100
AcDbLine
 10
400.8
 20
135.3205
 30
0.0
 11
408.8
 21
135.3205
 31
0.0
  0
LINE
  5
CA03
330
C9C4
100
AcDbEntity
  8
1
  6
Continuous
100
AcDbLine
 10
400.8
 20
134.8205
 30
0.0
 11
408.8
 21
134.8205
 31
0.0
  0
LINE
  5
CA04
330
C9C4
100
AcDbEntity
  8
1
  6
Continuous
100
AcDbLine
 10
400.8
 20
149.1794999999999
 30
0.0
 11
400.8
 21
148.6794999999998
 31
0.0
  0
LINE
  5
CA05
330
C9C4
100
AcDbEntity
  8
1
  6
Continuous
100
AcDbLine
 10
400.8
 20
134.8205
 30
0.0
 11
400.8
 21
135.3205
 31
0.0
  0
ARC
  5
CA06
330
C9C4
100
AcDbEntity
  8
1
  6
Continuous
100
AcDbCircle
 10
399.8
 20
135.3205
 30
0.0
 40
1.0
100
AcDbArc
 50
0.0
 51
31.97167800000001
  0
ARC
  5
CA07
330
C9C4
100
AcDbEntity
  8
1
  6
Continuous
100
AcDbCircle
 10
419.8
 20
148.6794999999998
 30
0.0
 40
1.0
100
AcDbArc
 50
180.0
 51
211.9716779999999
  0
LINE
  5
CA08
330
C9C4
100
AcDbEntity
  8
1
  6
Continuous
100
AcDbLine
 10
418.8
 20
148.6794999999998
 30
0.0
 11
418.8
 21
149.1794999999999
 31
0.0
  0
LINE
  5
CA09
330
C9C4
100
AcDbEntity
  8
1
  6
Continuous
100
AcDbLine
 10
410.8
 20
148.6794999999998
 30
0.0
 11
418.8
 21
148.6794999999998
 31
0.0
  0
LINE
  5
CA0A
330
C9C4
100
AcDbEntity
  8
1
  6
Continuous
100
AcDbLine
 10
410.8
 20
149.1794999999999
 30
0.0
 11
418.8
 21
149.1794999999999
 31
0.0
  0
LINE
  5
CA0B
330
C9C4
100
AcDbEntity
  8
1
  6
Continuous
100
AcDbLine
 10
418.8
 20
135.3205
 30
0.0
 11
418.8
 21
134.8205
 31
0.0
  0
LINE
  5
CA0C
330
C9C4
100
AcDbEntity
  8
1
  6
Continuous
100
AcDbLine
 10
410.8
 20
135.3205
 30
0.0
 11
418.8
 21
135.3205
 31
0.0
  0
LINE
  5
CA0D
330
C9C4
100
AcDbEntity
  8
1
  6
Continuous
100
AcDbLine
 10
410.8
 20
134.8205
 30
0.0
 11
418.8
 21
134.8205
 31
0.0
  0
LINE
  5
CA0E
330
C9C4
100
AcDbEntity
  8
1
  6
Continuous
100
AcDbLine
 10
410.8
 20
149.1794999999999
 30
0.0
 11
410.8
 21
148.6794999999998
 31
0.0
  0
LINE
  5
CA0F
330
C9C4
100
AcDbEntity
  8
1
  6
Continuous
100
AcDbLine
 10
410.8
 20
134.8205
 30
0.0
 11
410.8
 21
135.3205
 31
0.0
  0
ARC
  5
CA10
330
C9C4
100
AcDbEntity
  8
1
  6
Continuous
100
AcDbCircle
 10
409.7999999999998
 20
135.3205
 30
0.0
 40
1.0
100
AcDbArc
 50
0.0
 51
31.97167800000001
  0
ARC
  5
CA11
330
C9C4
100
AcDbEntity
  8
1
  6
Continuous
100
AcDbCircle
 10
429.8
 20
148.6794999999998
 30
0.0
 40
1.0
100
AcDbArc
 50
180.0
 51
211.9716779999999
  0
LINE
  5
CA12
330
C9C4
100
AcDbEntity
  8
1
  6
Continuous
100
AcDbLine
 10
428.8
 20
148.6794999999998
 30
0.0
 11
428.8
 21
149.1794999999999
 31
0.0
  0
LINE
  5
CA13
330
C9C4
100
AcDbEntity
  8
1
  6
Continuous
100
AcDbLine
 10
420.8
 20
148.6794999999998
 30
0.0
 11
428.8
 21
148.6794999999998
 31
0.0
  0
LINE
  5
CA14
330
C9C4
100
AcDbEntity
  8
1
  6
Continuous
100
AcDbLine
 10
420.8
 20
149.1794999999999
 30
0.0
 11
428.8
 21
149.1794999999999
 31
0.0
  0
LINE
  5
CA15
330
C9C4
100
AcDbEntity
  8
1
  6
Continuous
100
AcDbLine
 10
428.8
 20
135.3205
 30
0.0
 11
428.8
 21
134.8205
 31
0.0
  0
LINE
  5
CA16
330
C9C4
100
AcDbEntity
  8
1
  6
Continuous
100
AcDbLine
 10
420.8
 20
135.3205
 30
0.0
 11
428.8
 21
135.3205
 31
0.0
  0
LINE
  5
CA17
330
C9C4
100
AcDbEntity
  8
1
  6
Continuous
100
AcDbLine
 10
420.8
 20
134.8205
 30
0.0
 11
428.8
 21
134.8205
 31
0.0
  0
LINE
  5
CA18
330
C9C4
100
AcDbEntity
  8
1
  6
Continuous
100
AcDbLine
 10
420.8
 20
149.1794999999999
 30
0.0
 11
420.8
 21
148.6794999999998
 31
0.0
  0
LINE
  5
CA19
330
C9C4
100
AcDbEntity
  8
1
  6
Continuous
100
AcDbLine
 10
420.8
 20
134.8205
 30
0.0
 11
420.8
 21
135.3205
 31
0.0
  0
ARC
  5
CA1A
330
C9C4
100
AcDbEntity
  8
1
  6
Continuous
100
AcDbCircle
 10
419.8
 20
135.3205
 30
0.0
 40
1.0
100
AcDbArc
 50
0.0
 51
31.97167800000001
  0
LINE
  5
CA1B
330
C9C4
100
AcDbEntity
  8
1
  6
Continuous
100
AcDbLine
 10
430.7999999999998
 20
148.6794999999998
 30
0.0
 11
430.7999999999998
 21
149.1794999999999
 31
0.0
  0
LINE
  5
CA1C
330
C9C4
100
AcDbEntity
  8
1
  6
Continuous
100
AcDbLine
 10
430.7999999999998
 20
148.6794999999998
 30
0.0
 11
438.7999999999998
 21
148.6794999999998
 31
0.0
  0
LINE
  5
CA1D
330
C9C4
100
AcDbEntity
  8
1
  6
Continuous
100
AcDbLine
 10
430.7999999999998
 20
149.1794999999999
 30
0.0
 11
438.7999999999998
 21
149.1794999999999
 31
0.0
  0
LINE
  5
CA1E
330
C9C4
100
AcDbEntity
  8
1
  6
Continuous
100
AcDbLine
 10
430.7999999999998
 20
135.3205
 30
0.0
 11
430.7999999999998
 21
134.8205
 31
0.0
  0
LINE
  5
CA1F
330
C9C4
100
AcDbEntity
  8
1
  6
Continuous
100
AcDbLine
 10
430.7999999999998
 20
135.3205
 30
0.0
 11
438.7999999999998
 21
135.3205
 31
0.0
  0
LINE
  5
CA20
330
C9C4
100
AcDbEntity
  8
1
  6
Continuous
100
AcDbLine
 10
430.7999999999998
 20
134.8205
 30
0.0
 11
438.7999999999998
 21
134.8205
 31
0.0
  0
ARC
  5
CA21
330
C9C4
100
AcDbEntity
  8
1
  6
Continuous
100
AcDbCircle
 10
429.8
 20
135.3205
 30
0.0
 40
1.0
100
AcDbArc
 50
0.0
 51
31.97167800000001
  0
LINE
  5
CA22
330
C9C4
100
AcDbEntity
  8
1
  6
Continuous
100
AcDbLine
 10
380.8
 20
135.85
 30
0.0
 11
380.8
 21
134.8205
 31
0.0
  0
ARC
  5
CA23
330
C9C4
100
AcDbEntity
  8
1
  6
Continuous
100
AcDbCircle
 10
389.8
 20
148.6794999999998
 30
0.0
 40
1.0
100
AcDbArc
 50
328.028322
 51
0.0
  0
ARC
  5
CA24
330
C9C4
100
AcDbEntity
  8
1
  6
Continuous
100
AcDbCircle
 10
399.8
 20
148.6794999999998
 30
0.0
 40
1.0
100
AcDbArc
 50
328.028322
 51
0.0
  0
ARC
  5
CA25
330
C9C4
100
AcDbEntity
  8
1
  6
Continuous
100
AcDbCircle
 10
409.7999999999998
 20
148.6794999999998
 30
0.0
 40
1.0
100
AcDbArc
 50
328.028322
 51
0.0
  0
ARC
  5
CA26
330
C9C4
100
AcDbEntity
  8
1
  6
Continuous
100
AcDbCircle
 10
419.8
 20
148.6794999999998
 30
0.0
 40
1.0
100
AcDbArc
 50
328.028322
 51
0.0
  0
ARC
  5
CA27
330
C9C4
100
AcDbEntity
  8
1
  6
Continuous
100
AcDbCircle
 10
429.8
 20
148.6794999999998
 30
0.0
 40
1.0
100
AcDbArc
 50
328.028322
 51
0.0
  0
ARC
  5
CA28
330
C9C4
100
AcDbEntity
  8
1
  6
Continuous
100
AcDbCircle
 10
429.8
 20
135.3205
 30
0.0
 40
1.0
100
AcDbArc
 50
148.028322
 51
180.0
  0
ARC
  5
CA29
330
C9C4
100
AcDbEntity
  8
1
  6
Continuous
100
AcDbCircle
 10
419.8
 20
135.3205
 30
0.0
 40
1.0
100
AcDbArc
 50
148.028322
 51
180.0
  0
ARC
  5
CA2A
330
C9C4
100
AcDbEntity
  8
1
  6
Continuous
100
AcDbCircle
 10
409.7999999999998
 20
135.3205
 30
0.0
 40
1.0
100
AcDbArc
 50
148.028322
 51
180.0
  0
ARC
  5
CA2B
330
C9C4
100
AcDbEntity
  8
1
  6
Continuous
100
AcDbCircle
 10
399.8
 20
135.3205
 30
0.0
 40
1.0
100
AcDbArc
 50
148.028322
 51
180.0
  0
ARC
  5
CA2C
330
C9C4
100
AcDbEntity
  8
1
  6
Continuous
100
AcDbCircle
 10
389.8
 20
135.3205
 30
0.0
 40
1.0
100
AcDbArc
 50
148.028322
 51
180.0
  0
LINE
  5
CA2D
330
C9C4
100
AcDbEntity
  8
1
  6
Continuous
100
AcDbLine
 10
480.2999999999998
 20
148.15
 30
0.0
 11
83.29999999999998
 21
148.15
 31
0.0
  0
LINE
  5
CA2E
330
C9C4
100
AcDbEntity
  8
1
  6
Continuous
100
AcDbLine
 10
83.29999999999998
 20
148.15
 30
0.0
 11
83.29999999999998
 21
135.85
 31
0.0
  0
LINE
  5
CA2F
330
C9C4
100
AcDbEntity
  8
1
  6
Continuous
100
AcDbLine
 10
83.29999999999998
 20
135.85
 30
0.0
 11
480.2999999999998
 21
135.85
 31
0.0
  0
LINE
  5
CA30
330
C9C4
100
AcDbEntity
  8
1
  6
Continuous
100
AcDbLine
 10
480.2999999999998
 20
143.0
 30
0.0
 11
477.3
 21
142.0
 31
0.0
  0
LINE
  5
CA31
330
C9C4
100
AcDbEntity
  8
1
  6
Continuous
100
AcDbLine
 10
477.3
 20
142.0
 30
0.0
 11
480.2999999999998
 21
141.0
 31
0.0
  0
LINE
  5
CA32
330
C9C4
100
AcDbEntity
  8
1
  6
Continuous
100
AcDbLine
 10
480.2999999999998
 20
142.0
 30
0.0
 11
477.3
 21
142.0
 31
0.0
  0
ARC
  5
CA33
330
C9C4
100
AcDbEntity
  8
1
  6
Continuous
100
AcDbCircle
 10
776.7
 20
148.3
 30
0.0
 40
1.0
100
AcDbArc
 50
135.0
 51
270.0
  0
LINE
  5
CA34
330
C9C4
100
AcDbEntity
  8
1
  6
Continuous
100
AcDbLine
 10
775.992893
 20
149.0071069999999
 30
0.0
 11
777.007107
 21
150.02132
 31
0.0
  0
ARC
  5
CA35
330
C9C4
100
AcDbEntity
  8
1
  6
Continuous
100
AcDbCircle
 10
776.2999999999999
 20
150.728427
 30
0.0
 40
1.0
100
AcDbArc
 50
315.0
 51
0.0
  0
LINE
  5
CA36
330
C9C4
100
AcDbEntity
  8
1
  6
Continuous
100
AcDbLine
 10
777.2999999999997
 20
150.728427
 30
0.0
 11
777.2999999999997
 21
152.0
 31
0.0
  0
LINE
  5
CA37
330
C9C4
100
AcDbEntity
  8
1
  6
Continuous
100
AcDbLine
 10
777.2784699999997
 20
133.4779619999999
 30
0.0
 11
377.3
 21
133.4779619999999
 31
0.0
  0
LINE
  5
CA38
330
C9C4
100
AcDbEntity
  8
1
  6
Continuous
100
AcDbLine
 10
377.3
 20
134.327335
 30
0.0
 11
776.658451
 21
134.327335
 31
0.0
  0
LINE
  5
CA39
330
C9C4
100
AcDbEntity
  8
1
  6
Continuous
100
AcDbLine
 10
776.658451
 20
149.672665
 30
0.0
 11
377.3
 21
149.672665
 31
0.0
  0
LINE
  5
CA3A
330
C9C4
100
AcDbEntity
  8
1
  6
Continuous
100
AcDbLine
 10
377.3
 20
150.5220379999999
 30
0.0
 11
777.2784699999997
 21
150.5220379999999
 31
0.0
  0
LINE
  5
CA3B
330
C9C4
100
AcDbEntity
  8
4
  6
CENTER
100
AcDbLine
 10
780.2999999999997
 20
142.0
 30
0.0
 11
80.0
 21
142.0
 31
0.0
  0
LINE
  5
CA3C
330
C9C4
100
AcDbEntity
  8
1
  6
Continuous
100
AcDbLine
 10
777.2999999999997
 20
152.0
 30
0.0
 11
377.3
 21
152.0
 31
0.0
  0
LINE
  5
CA3D
330
C9C4
100
AcDbEntity
  8
1
  6
Continuous
100
AcDbLine
 10
377.3
 20
132.0
 30
0.0
 11
777.2999999999997
 21
132.0
 31
0.0
  0
LINE
  5
CA3E
330
C9C4
100
AcDbEntity
  8
1
  6
Continuous
100
AcDbLine
 10
777.2999999999997
 20
132.0
 30
0.0
 11
777.2999999999997
 21
133.2715729999998
 31
0.0
  0
ARC
  5
CA3F
330
C9C4
100
AcDbEntity
  8
1
  6
Continuous
100
AcDbCircle
 10
776.2999999999999
 20
133.2715729999998
 30
0.0
 40
1.0
100
AcDbArc
 50
0.0
 51
45.0
  0
LINE
  5
CA40
330
C9C4
100
AcDbEntity
  8
1
  6
Continuous
100
AcDbLine
 10
777.007107
 20
133.9786799999999
 30
0.0
 11
775.992893
 21
134.9928929999999
 31
0.0
  0
ARC
  5
CA41
330
C9C4
100
AcDbEntity
  8
1
  6
Continuous
100
AcDbCircle
 10
776.7
 20
135.6999999999999
 30
0.0
 40
1.0
100
AcDbArc
 50
90.0
 51
225.0
  0
LINE
  5
CA42
330
C9C4
100
AcDbEntity
  8
1
  6
Continuous
100
AcDbLine
 10
777.2999999999997
 20
136.6999999999999
 30
0.0
 11
775.9
 21
136.6999999999999
 31
0.0
  0
LINE
  5
CA43
330
C9C4
100
AcDbEntity
  8
1
  6
Continuous
100
AcDbLine
 10
775.9
 20
136.6999999999999
 30
0.0
 11
775.9
 21
147.3
 31
0.0
  0
LINE
  5
CA44
330
C9C4
100
AcDbEntity
  8
1
  6
Continuous
100
AcDbLine
 10
775.9
 20
147.3
 30
0.0
 11
777.2999999999997
 21
147.3
 31
0.0
  0
LINE
  5
CA45
330
C9C4
100
AcDbEntity
  8
1
  6
Continuous
100
AcDbLine
 10
777.2999999999997
 20
147.3
 30
0.0
 11
777.2999999999997
 21
136.6999999999999
 31
0.0
  0
LINE
  5
CA46
330
C9C4
100
AcDbEntity
  8
4
  6
CENTER
100
AcDbLine
 10
103.2999999999999
 20
145.3395629999999
 30
0.0
 11
103.2999999999999
 21
138.83775
 31
0.0
  0
CIRCLE
  5
CA47
330
C9C4
100
AcDbEntity
  8
1
  6
Continuous
100
AcDbCircle
 10
103.2999999999999
 20
142.0
 30
0.0
 40
1.6
  0
LINE
  5
CA48
330
C9C4
100
AcDbEntity
  8
1
  6
Continuous
100
AcDbLine
 10
118.0
 20
140.4
 30
0.0
 11
118.5999999999998
 21
140.4
 31
0.0
  0
LINE
  5
CA49
330
C9C4
100
AcDbEntity
  8
1
  6
Continuous
100
AcDbLine
 10
118.5999999999998
 20
143.5999999999999
 30
0.0
 11
118.0
 21
143.5999999999999
 31
0.0
  0
ARC
  5
CA4A
330
C9C4
100
AcDbEntity
  8
1
  6
Continuous
100
AcDbCircle
 10
118.0
 20
142.0
 30
0.0
 40
1.6
100
AcDbArc
 50
90.0
 51
270.0
  0
ARC
  5
CA4B
330
C9C4
100
AcDbEntity
  8
1
  6
Continuous
100
AcDbCircle
 10
118.5999999999998
 20
142.0
 30
0.0
 40
1.6
100
AcDbArc
 50
270.0
 51
90.0
  0
LINE
  5
CA4C
330
C9C4
100
AcDbEntity
  8
4
  6
CENTER
100
AcDbLine
 10
158.3
 20
146.9499999999999
 30
0.0
 11
158.3
 21
137.05
 31
0.0
  0
CIRCLE
  5
CA4D
330
C9C4
100
AcDbEntity
  8
1
  6
Continuous
100
AcDbCircle
 10
158.3
 20
142.0
 30
0.0
 40
3.649999999999999
  0
LINE
  5
CA4E
330
C9C4
100
AcDbEntity
  8
1
  6
Continuous
100
AcDbLine
 10
203.0
 20
140.4
 30
0.0
 11
203.6
 21
140.4
 31
0.0
  0
LINE
  5
CA4F
330
C9C4
100
AcDbEntity
  8
1
  6
Continuous
100
AcDbLine
 10
203.6
 20
143.5999999999999
 30
0.0
 11
203.0
 21
143.5999999999999
 31
0.0
  0
ARC
  5
CA50
330
C9C4
100
AcDbEntity
  8
1
  6
Continuous
100
AcDbCircle
 10
203.0
 20
142.0
 30
0.0
 40
1.6
100
AcDbArc
 50
90.0
 51
270.0
  0
ARC
  5
CA51
330
C9C4
100
AcDbEntity
  8
1
  6
Continuous
100
AcDbCircle
 10
203.6
 20
142.0
 30
0.0
 40
1.6
100
AcDbArc
 50
270.0
 51
90.0
  0
LINE
  5
CA52
330
C9C4
100
AcDbEntity
  8
4
  6
CENTER
100
AcDbLine
 10
397.3
 20
144.8880479999999
 30
0.0
 11
397.3
 21
139.4698699999999
 31
0.0
  0
LINE
  5
CA53
330
C9C4
100
AcDbEntity
  8
1
  6
Continuous
100
AcDbLine
 10
377.3
 20
132.0
 30
0.0
 11
377.3
 21
135.85
 31
0.0
  0
LINE
  5
CA54
330
C9C4
100
AcDbEntity
  8
1
  6
Continuous
100
AcDbLine
 10
377.3
 20
148.15
 30
0.0
 11
377.3
 21
152.0
 31
0.0
  0
LINE
  5
CA55
330
C9C4
100
AcDbEntity
  8
3
  6
DASHED
100
AcDbLine
 10
377.3
 20
135.85
 30
0.0
 11
377.3
 21
148.15
 31
0.0
  0
LINE
  5
CA56
330
C9C4
100
AcDbEntity
  8
4
  6
CENTER
100
AcDbLine
 10
463.3
 20
144.978351
 30
0.0
 11
463.3
 21
139.3795669999998
 31
0.0
  0
LINE
  5
CA57
330
C9C4
100
AcDbEntity
  8
1
  6
Continuous
100
AcDbLine
 10
448.6
 20
140.4
 30
0.0
 11
448.0
 21
140.4
 31
0.0
  0
LINE
  5
CA58
330
C9C4
100
AcDbEntity
  8
1
  6
Continuous
100
AcDbLine
 10
448.0
 20
143.5999999999999
 30
0.0
 11
448.6
 21
143.5999999999999
 31
0.0
  0
ARC
  5
CA59
330
C9C4
100
AcDbEntity
  8
1
  6
Continuous
100
AcDbCircle
 10
448.6
 20
142.0
 30
0.0
 40
1.6
100
AcDbArc
 50
270.0
 51
90.0
  0
ARC
  5
CA5A
330
C9C4
100
AcDbEntity
  8
1
  6
Continuous
100
AcDbCircle
 10
448.0
 20
142.0
 30
0.0
 40
1.6
100
AcDbArc
 50
90.0
 51
270.0
  0
LINE
  5
CA5B
330
C9C4
100
AcDbEntity
  8
1
  6
Continuous
100
AcDbLine
 10
480.2999999999998
 20
135.85
 30
0.0
 11
480.2999999999998
 21
148.15
 31
0.0
  0
LINE
  5
CA5C
330
C9C4
100
AcDbEntity
  8
1
  6
Continuous
100
AcDbLine
 10
497.0
 20
140.4
 30
0.0
 11
497.5999999999998
 21
140.4
 31
0.0
  0
LINE
  5
CA5D
330
C9C4
100
AcDbEntity
  8
1
  6
Continuous
100
AcDbLine
 10
497.5999999999998
 20
143.5999999999999
 30
0.0
 11
497.0
 21
143.5999999999999
 31
0.0
  0
ARC
  5
CA5E
330
C9C4
100
AcDbEntity
  8
1
  6
Continuous
100
AcDbCircle
 10
497.0
 20
142.0
 30
0.0
 40
1.6
100
AcDbArc
 50
90.0
 51
270.0
  0
ARC
  5
CA5F
330
C9C4
100
AcDbEntity
  8
1
  6
Continuous
100
AcDbCircle
 10
497.5999999999998
 20
142.0
 30
0.0
 40
1.6
100
AcDbArc
 50
270.0
 51
90.0
  0
LINE
  5
CA60
330
C9C4
100
AcDbEntity
  8
4
  6
CENTER
100
AcDbLine
 10
722.2999999999997
 20
147.145622
 30
0.0
 11
722.2999999999997
 21
137.212296
 31
0.0
  0
CIRCLE
  5
CA61
330
C9C4
100
AcDbEntity
  8
1
  6
Continuous
100
AcDbCircle
 10
722.2999999999997
 20
142.0
 30
0.0
 40
3.649999999999999
  0
LINE
  5
CA62
330
C9C4
100
AcDbEntity
  8
4
  6
CENTER
100
AcDbLine
 10
757.2999999999997
 20
145.1589569999999
 30
0.0
 11
757.2999999999997
 21
138.83775
 31
0.0
  0
LINE
  5
CA63
330
C9C4
100
AcDbEntity
  8
1
  6
Continuous
100
AcDbLine
 10
742.0
 20
140.4
 30
0.0
 11
742.6
 21
140.4
 31
0.0
  0
LINE
  5
CA64
330
C9C4
100
AcDbEntity
  8
1
  6
Continuous
100
AcDbLine
 10
742.6
 20
143.5999999999999
 30
0.0
 11
742.0
 21
143.5999999999999
 31
0.0
  0
ARC
  5
CA65
330
C9C4
100
AcDbEntity
  8
1
  6
Continuous
100
AcDbCircle
 10
742.0
 20
142.0
 30
0.0
 40
1.6
100
AcDbArc
 50
90.0
 51
270.0
  0
ARC
  5
CA66
330
C9C4
100
AcDbEntity
  8
1
  6
Continuous
100
AcDbCircle
 10
742.6
 20
142.0
 30
0.0
 40
1.6
100
AcDbArc
 50
270.0
 51
90.0
  0
ARC
  5
CA67
330
C9C4
100
AcDbEntity
  8
1
  6
Continuous
100
AcDbCircle
 10
384.8
 20
149.0124999999999
 30
0.0
 40
1.587499999999999
100
AcDbArc
 50
327.090948
 51
347.8914909999998
  0
ARC
  5
CA68
330
C9C4
100
AcDbEntity
  8
1
  6
Continuous
100
AcDbCircle
 10
384.8
 20
149.0124999999999
 30
0.0
 40
1.587499999999999
100
AcDbArc
 50
6.038508
 51
24.57297999999999
  0
ARC
  5
CA69
330
C9C4
100
AcDbEntity
  8
1
  6
Continuous
100
AcDbCircle
 10
384.8
 20
149.0124999999999
 30
0.0
 40
1.587499999999999
100
AcDbArc
 50
155.4270199999999
 51
173.9614919999999
  0
ARC
  5
CA6A
330
C9C4
100
AcDbEntity
  8
1
  6
Continuous
100
AcDbCircle
 10
384.8
 20
149.0124999999999
 30
0.0
 40
1.587499999999999
100
AcDbArc
 50
192.1085089999999
 51
212.9090519999999
  0
LINE
  5
CA6B
330
C9C4
100
AcDbEntity
  8
4
  6
CENTER
100
AcDbLine
 10
840.2999999999996
 20
142.0
 30
0.0
 11
822.2999999999997
 21
142.0
 31
0.0
  0
LINE
  5
CA6C
330
C9C4
100
AcDbEntity
  8
1
  6
Continuous
100
AcDbLine
 10
827.2999999999997
 20
146.64104
 30
0.0
 11
827.2999999999997
 21
137.35896
 31
0.0
  0
LINE
  5
CA6D
330
C9C4
100
AcDbEntity
  8
1
  6
Continuous
100
AcDbLine
 10
828.1
 20
149.1794999999999
 30
0.0
 11
828.1
 21
148.6794999999998
 31
0.0
  0
LINE
  5
CA6E
330
C9C4
100
AcDbEntity
  8
1
  6
Continuous
100
AcDbLine
 10
828.1
 20
134.8205
 30
0.0
 11
828.1
 21
135.3205
 31
0.0
  0
LINE
  5
CA6F
330
C9C4
100
AcDbEntity
  8
1
  6
Continuous
100
AcDbLine
 10
828.2999999999997
 20
146.3
 30
0.0
 11
828.2999999999997
 21
137.7
 31
0.0
  0
ARC
  5
CA70
330
C9C4
100
AcDbEntity
  8
1
  6
Continuous
100
AcDbCircle
 10
830.7999999999998
 20
149.0124999999999
 30
0.0
 40
1.587499999999999
100
AcDbArc
 50
344.2283619999998
 51
179.6568479999999
  0
LINE
  5
CA71
330
C9C4
100
AcDbEntity
  8
1
  6
Continuous
100
AcDbLine
 10
833.7402540000001
 20
148.448359
 30
0.0
 11
831.880308
 21
150.1757249999998
 31
0.0
  0
LINE
  5
CA72
330
C9C4
100
AcDbEntity
  8
1
  6
Continuous
100
AcDbLine
 10
834.6929669999997
 20
149.474195
 30
0.0
 11
832.8330199999996
 21
151.2015609999999
 31
0.0
  0
ARC
  5
CA73
330
C9C4
100
AcDbEntity
  8
1
  6
Continuous
100
AcDbCircle
 10
833.3999999999999
 20
148.081989
 30
0.0
 40
0.5
100
AcDbArc
 50
0.0
 51
47.116587
  0
ARC
  5
CA74
330
C9C4
100
AcDbEntity
  8
1
  6
Continuous
100
AcDbCircle
 10
833.3999999999999
 20
148.081989
 30
0.0
 40
1.9
100
AcDbArc
 50
0.0
 51
47.116587
  0
ARC
  5
CA75
330
C9C4
100
AcDbEntity
  8
1
  6
Continuous
100
AcDbCircle
 10
833.3999999999999
 20
135.918011
 30
0.0
 40
1.9
100
AcDbArc
 50
312.8834129999999
 51
0.0
  0
ARC
  5
CA76
330
C9C4
100
AcDbEntity
  8
1
  6
Continuous
100
AcDbCircle
 10
833.3999999999999
 20
135.918011
 30
0.0
 40
0.5
100
AcDbArc
 50
312.8834129999999
 51
0.0
  0
LINE
  5
CA77
330
C9C4
100
AcDbEntity
  8
1
  6
Continuous
100
AcDbLine
 10
834.6929669999997
 20
134.5258049999999
 30
0.0
 11
832.8330199999996
 21
132.798439
 31
0.0
  0
LINE
  5
CA78
330
C9C4
100
AcDbEntity
  8
1
  6
Continuous
100
AcDbLine
 10
833.7402540000001
 20
135.5516409999999
 30
0.0
 11
831.880308
 21
133.824275
 31
0.0
  0
ARC
  5
CA79
330
C9C4
100
AcDbEntity
  8
1
  6
Continuous
100
AcDbCircle
 10
830.7999999999998
 20
134.9875
 30
0.0
 40
1.587499999999999
100
AcDbArc
 50
34.55010399999999
 51
161.5646869999999
  0
ARC
  5
CA7A
330
C9C4
100
AcDbEntity
  8
1
  6
Continuous
100
AcDbCircle
 10
832.9
 20
147.995015
 30
0.0
 40
0.5
100
AcDbArc
 50
0.0
 51
81.942605
  0
ARC
  5
CA7B
330
C9C4
100
AcDbEntity
  8
1
  6
Continuous
100
AcDbCircle
 10
830.7999999999998
 20
149.0124999999999
 30
0.0
 40
1.587499999999999
100
AcDbArc
 50
198.4353129999999
 51
325.449896
  0
ARC
  5
CA7C
330
C9C4
100
AcDbEntity
  8
1
  6
Continuous
100
AcDbCircle
 10
832.9
 20
136.004985
 30
0.0
 40
0.5
100
AcDbArc
 50
278.0573949999999
 51
0.0
  0
ARC
  5
CA7D
330
C9C4
100
AcDbEntity
  8
1
  6
Continuous
100
AcDbCircle
 10
830.7999999999998
 20
134.9875
 30
0.0
 40
1.587499999999999
100
AcDbArc
 50
180.343152
 51
15.771638
  0
LINE
  5
CA7E
330
C9C4
100
AcDbEntity
  8
1
  6
Continuous
100
AcDbLine
 10
832.563928
 20
147.3
 30
0.0
 11
831.939013
 21
147.9066949999999
 31
0.0
  0
LINE
  5
CA7F
330
C9C4
100
AcDbEntity
  8
1
  6
Continuous
100
AcDbLine
 10
832.9
 20
148.0
 30
0.0
 11
832.9
 21
147.3
 31
0.0
  0
LINE
  5
CA80
330
C9C4
100
AcDbEntity
  8
1
  6
Continuous
100
AcDbLine
 10
833.3999999999999
 20
147.995015
 30
0.0
 11
833.3999999999999
 21
147.3
 31
0.0
  0
LINE
  5
CA81
330
C9C4
100
AcDbEntity
  8
1
  6
Continuous
100
AcDbLine
 10
832.9
 20
136.0
 30
0.0
 11
832.9
 21
136.6999999999999
 31
0.0
  0
LINE
  5
CA82
330
C9C4
100
AcDbEntity
  8
1
  6
Continuous
100
AcDbLine
 10
833.3999999999999
 20
136.004985
 30
0.0
 11
833.3999999999999
 21
136.6999999999999
 31
0.0
  0
LINE
  5
CA83
330
C9C4
100
AcDbEntity
  8
1
  6
Continuous
100
AcDbLine
 10
832.563928
 20
136.6999999999999
 30
0.0
 11
831.939013
 21
136.0933049999999
 31
0.0
  0
LINE
  5
CA84
330
C9C4
100
AcDbEntity
  8
1
  6
Continuous
100
AcDbLine
 10
833.9
 20
148.081989
 30
0.0
 11
833.9
 21
147.3
 31
0.0
  0
LINE
  5
CA85
330
C9C4
100
AcDbEntity
  8
1
  6
Continuous
100
AcDbLine
 10
833.9
 20
136.6999999999999
 30
0.0
 11
833.9
 21
135.918011
 31
0.0
  0
LINE
  5
CA86
330
C9C4
100
AcDbEntity
  8
1
  6
Continuous
100
AcDbLine
 10
829.2999999999999
 20
147.3
 30
0.0
 11
834.7999999999997
 21
147.3
 31
0.0
  0
ARC
  5
CA87
330
C9C4
100
AcDbEntity
  8
1
  6
Continuous
100
AcDbCircle
 10
834.7999999999997
 20
147.8
 30
0.0
 40
0.5
100
AcDbArc
 50
270.0
 51
0.0
  0
LINE
  5
CA88
330
C9C4
100
AcDbEntity
  8
1
  6
Continuous
100
AcDbLine
 10
834.7999999999997
 20
136.6999999999999
 30
0.0
 11
829.2999999999999
 21
136.6999999999999
 31
0.0
  0
ARC
  5
CA89
330
C9C4
100
AcDbEntity
  8
1
  6
Continuous
100
AcDbCircle
 10
834.7999999999997
 20
136.1999999999998
 30
0.0
 40
0.5
100
AcDbArc
 50
0.0
 51
90.0
  0
LINE
  5
CA8A
330
C9C4
100
AcDbEntity
  8
1
  6
Continuous
100
AcDbLine
 10
835.2999999999997
 20
148.081989
 30
0.0
 11
835.2999999999997
 21
135.918011
 31
0.0
  0
ARC
  5
CA8B
330
C9C4
100
AcDbEntity
  8
1
  6
Continuous
100
AcDbCircle
 10
830.7999999999998
 20
149.0124999999999
 30
0.0
 40
2.987499999999998
100
AcDbArc
 50
47.116587
 51
149.6497479999999
  0
ARC
  5
CA8C
330
C9C4
100
AcDbEntity
  8
1
  6
Continuous
100
AcDbCircle
 10
828.8089599999999
 20
146.64104
 30
0.0
 40
1.50896
100
AcDbArc
 50
49.983708
 51
180.0
  0
LINE
  5
CA8D
330
C9C4
100
AcDbEntity
  8
1
  6
Continuous
100
AcDbLine
 10
829.356276
 20
149.672665
 30
0.0
 11
828.221929
 21
150.5220379999999
 31
0.0
  0
LINE
  5
CA8E
330
C9C4
100
AcDbEntity
  8
1
  6
Continuous
100
AcDbLine
 10
829.356276
 20
134.327335
 30
0.0
 11
828.221929
 21
133.4779619999999
 31
0.0
  0
ARC
  5
CA8F
330
C9C4
100
AcDbEntity
  8
1
  6
Continuous
100
AcDbCircle
 10
828.8089599999999
 20
137.35896
 30
0.0
 40
1.50896
100
AcDbArc
 50
180.0
 51
310.0162919999998
  0
ARC
  5
CA90
330
C9C4
100
AcDbEntity
  8
1
  6
Continuous
100
AcDbCircle
 10
830.7999999999998
 20
134.9875
 30
0.0
 40
2.987499999999998
100
AcDbArc
 50
210.350252
 51
312.8834129999999
  0
LINE
  5
CA91
330
C9C4
100
AcDbEntity
  8
1
  6
Continuous
100
AcDbLine
 10
832.9
 20
148.0
 30
0.0
 11
828.1
 21
148.6794999999998
 31
0.0
  0
LINE
  5
CA92
330
C9C4
100
AcDbEntity
  8
1
  6
Continuous
100
AcDbLine
 10
832.970083
 20
148.490079
 30
0.0
 11
828.1
 21
149.1794999999999
 31
0.0
  0
LINE
  5
CA93
330
C9C4
100
AcDbEntity
  8
1
  6
Continuous
100
AcDbLine
 10
832.970083
 20
135.5099209999999
 30
0.0
 11
828.1
 21
134.8205
 31
0.0
  0
LINE
  5
CA94
330
C9C4
100
AcDbEntity
  8
1
  6
Continuous
100
AcDbLine
 10
832.9
 20
136.0
 30
0.0
 11
828.1
 21
135.3205
 31
0.0
  0
ARC
  5
CA95
330
C9C4
100
AcDbEntity
  8
1
  6
Continuous
100
AcDbCircle
 10
829.2999999999999
 20
146.3
 30
0.0
 40
1.0
100
AcDbArc
 50
90.0
 51
180.0
  0
ARC
  5
CA96
330
C9C4
100
AcDbEntity
  8
1
  6
Continuous
100
AcDbCircle
 10
829.2999999999999
 20
137.7
 30
0.0
 40
1.0
100
AcDbArc
 50
180.0
 51
270.0
  0
LINE
  5
CA97
330
C9C4
100
AcDbEntity
  8
1
  6
Continuous
100
AcDbLine
 10
27.32991699999999
 20
135.5099209999999
 30
0.0
 11
32.20000000000001
 21
134.8205
 31
0.0
  0
LINE
  5
CA98
330
C9C4
100
AcDbEntity
  8
1
  6
Continuous
100
AcDbLine
 10
27.4
 20
136.0
 30
0.0
 11
32.20000000000001
 21
135.3205
 31
0.0
  0
LINE
  5
CA99
330
C9C4
100
AcDbEntity
  8
1
  6
Continuous
100
AcDbLine
 10
30.943724
 20
134.327335
 30
0.0
 11
32.078071
 21
133.4779619999999
 31
0.0
  0
ARC
  5
CA9A
330
C9C4
100
AcDbEntity
  8
1
  6
Continuous
100
AcDbCircle
 10
29.5
 20
134.9875
 30
0.0
 40
2.987499999999998
100
AcDbArc
 50
227.116587
 51
329.6497479999998
  0
ARC
  5
CA9B
330
C9C4
100
AcDbEntity
  8
1
  6
Continuous
100
AcDbCircle
 10
31.49104
 20
137.35896
 30
0.0
 40
1.50896
100
AcDbArc
 50
229.983708
 51
0.0
  0
ARC
  5
CA9C
330
C9C4
100
AcDbEntity
  8
1
  6
Continuous
100
AcDbCircle
 10
29.5
 20
149.0124999999999
 30
0.0
 40
2.987499999999998
100
AcDbArc
 50
30.350252
 51
132.8834129999999
  0
LINE
  5
CA9D
330
C9C4
100
AcDbEntity
  8
4
  6
CENTER
100
AcDbLine
 10
22.0
 20
142.0
 30
0.0
 11
36.0
 21
142.0
 31
0.0
  0
ARC
  5
CA9E
330
C9C4
100
AcDbEntity
  8
1
  6
Continuous
100
AcDbCircle
 10
31.49104
 20
146.64104
 30
0.0
 40
1.50896
100
AcDbArc
 50
0.0
 51
130.0162919999999
  0
LINE
  5
CA9F
330
C9C4
100
AcDbEntity
  8
1
  6
Continuous
100
AcDbLine
 10
30.943724
 20
149.672665
 30
0.0
 11
32.078071
 21
150.5220379999999
 31
0.0
  0
LINE
  5
CAA0
330
C9C4
100
AcDbEntity
  8
1
  6
Continuous
100
AcDbLine
 10
27.4
 20
148.0
 30
0.0
 11
32.20000000000001
 21
148.6794999999998
 31
0.0
  0
LINE
  5
CAA1
330
C9C4
100
AcDbEntity
  8
1
  6
Continuous
100
AcDbLine
 10
27.32991699999999
 20
148.490079
 30
0.0
 11
32.20000000000001
 21
149.1794999999999
 31
0.0
  0
LINE
  5
CAA2
330
C9C4
100
AcDbEntity
  8
1
  6
Continuous
100
AcDbLine
 10
26.69999999999999
 20
146.098959
 30
0.0
 11
26.69999999999999
 21
137.901041
 31
0.0
  0
LINE
  5
CAA3
330
C9C4
100
AcDbEntity
  8
1
  6
Continuous
100
AcDbLine
 10
28.1
 20
146.098959
 30
0.0
 11
28.1
 21
137.901041
 31
0.0
  0
LINE
  5
CAA4
330
C9C4
100
AcDbEntity
  8
1
  6
Continuous
100
AcDbLine
 10
25.0
 20
148.081989
 30
0.0
 11
25.0
 21
135.918011
 31
0.0
  0
LINE
  5
CAA5
330
C9C4
100
AcDbEntity
  8
1
  6
Continuous
100
AcDbLine
 10
26.4
 20
146.5588239999999
 30
0.0
 11
26.4
 21
137.441176
 31
0.0
  0
LINE
  5
CAA6
330
C9C4
100
AcDbEntity
  8
1
  6
Continuous
100
AcDbLine
 10
31.8
 20
146.64104
 30
0.0
 11
31.8
 21
137.35896
 31
0.0
  0
LINE
  5
CAA7
330
C9C4
100
AcDbEntity
  8
1
  6
Continuous
100
AcDbLine
 10
29.39999999999999
 20
145.314461
 30
0.0
 11
29.39999999999999
 21
138.6855389999998
 31
0.0
  0
LINE
  5
CAA8
330
C9C4
100
AcDbEntity
  8
1
  6
Continuous
100
AcDbLine
 10
28.9
 20
145.314461
 30
0.0
 11
28.9
 21
138.6855389999998
 31
0.0
  0
ARC
  5
CAA9
330
C9C4
100
AcDbEntity
  8
1
  6
Continuous
100
AcDbCircle
 10
29.5
 20
134.9875
 30
0.0
 40
1.587499999999999
100
AcDbArc
 50
18.435313
 51
145.449896
  0
ARC
  5
CAAA
330
C9C4
100
AcDbEntity
  8
1
  6
Continuous
100
AcDbCircle
 10
29.5
 20
134.9875
 30
0.0
 40
1.587499999999999
100
AcDbArc
 50
164.228362
 51
359.656848
  0
ARC
  5
CAAB
330
C9C4
100
AcDbEntity
  8
1
  6
Continuous
100
AcDbCircle
 10
28.9
 20
138.6855389999998
 30
0.0
 40
0.5
100
AcDbArc
 50
300.5406049999999
 51
0.0
  0
ARC
  5
CAAC
330
C9C4
100
AcDbEntity
  8
1
  6
Continuous
100
AcDbCircle
 10
31.49104
 20
137.35896
 30
0.0
 40
0.30896
100
AcDbArc
 50
229.983708
 51
0.0
  0
ARC
  5
CAAD
330
C9C4
100
AcDbEntity
  8
1
  6
Continuous
100
AcDbCircle
 10
26.2
 20
137.901041
 30
0.0
 40
1.9
100
AcDbArc
 50
297.8972709999998
 51
0.0
  0
LINE
  5
CAAE
330
C9C4
100
AcDbEntity
  8
1
  6
Continuous
100
AcDbLine
 10
26.91429600000001
 20
136.1293599999999
 30
0.0
 11
27.088987
 21
136.221844
 31
0.0
  0
LINE
  5
CAAF
330
C9C4
100
AcDbEntity
  8
1
  6
Continuous
100
AcDbLine
 10
26.89999999999999
 20
136.004985
 30
0.0
 11
26.89999999999999
 21
136.1214909999999
 31
0.0
  0
LINE
  5
CAB0
330
C9C4
100
AcDbEntity
  8
1
  6
Continuous
100
AcDbLine
 10
27.4
 20
136.0
 30
0.0
 11
27.4
 21
136.427949
 31
0.0
  0
LINE
  5
CAB1
330
C9C4
100
AcDbEntity
  8
1
  6
Continuous
100
AcDbLine
 10
28.079209
 20
137.620734
 30
0.0
 11
29.15407399999999
 21
138.254904
 31
0.0
  0
ARC
  5
CAB2
330
C9C4
100
AcDbEntity
  8
1
  6
Continuous
100
AcDbCircle
 10
29.5
 20
134.9875
 30
0.0
 40
2.7875
100
AcDbArc
 50
49.983708
 51
122.12208
  0
LINE
  5
CAB3
330
C9C4
100
AcDbEntity
  8
1
  6
Continuous
100
AcDbLine
 10
27.700075
 20
136.734947
 30
0.0
 11
28.36098699999999
 21
136.0933049999999
 31
0.0
  0
LINE
  5
CAB4
330
C9C4
100
AcDbEntity
  8
1
  6
Continuous
100
AcDbLine
 10
28.1
 20
138.2135389999999
 30
0.0
 11
28.9
 21
138.6855389999998
 31
0.0
  0
ARC
  5
CAB5
330
C9C4
100
AcDbEntity
  8
1
  6
Continuous
100
AcDbCircle
 10
26.89999999999999
 20
135.918011
 30
0.0
 40
1.9
100
AcDbArc
 50
157.4085689999998
 51
227.116587
  0
ARC
  5
CAB6
330
C9C4
100
AcDbEntity
  8
1
  6
Continuous
100
AcDbCircle
 10
25.60742499999999
 20
136.4558309999999
 30
0.0
 40
0.5
100
AcDbArc
 50
117.8972709999999
 51
157.4085689999998
  0
LINE
  5
CAB7
330
C9C4
100
AcDbEntity
  8
1
  6
Continuous
100
AcDbLine
 10
25.0
 20
136.6999999999999
 30
0.0
 11
26.433944
 21
137.459147
 31
0.0
  0
ARC
  5
CAB8
330
C9C4
100
AcDbEntity
  8
1
  6
Continuous
100
AcDbCircle
 10
26.2
 20
137.901041
 30
0.0
 40
0.5
100
AcDbArc
 50
297.8972709999998
 51
0.0
  0
ARC
  5
CAB9
330
C9C4
100
AcDbEntity
  8
1
  6
Continuous
100
AcDbCircle
 10
27.4
 20
136.004985
 30
0.0
 40
0.5
100
AcDbArc
 50
180.0
 51
261.9426049999999
  0
LINE
  5
CABA
330
C9C4
100
AcDbEntity
  8
1
  6
Continuous
100
AcDbLine
 10
25.607033
 20
134.5258049999999
 30
0.0
 11
27.46698
 21
132.798439
 31
0.0
  0
LINE
  5
CABB
330
C9C4
100
AcDbEntity
  8
1
  6
Continuous
100
AcDbLine
 10
26.807986
 20
135.3210959999999
 30
0.0
 11
28.41969199999999
 21
133.824275
 31
0.0
  0
ARC
  5
CABC
330
C9C4
100
AcDbEntity
  8
1
  6
Continuous
100
AcDbCircle
 10
27.14824
 20
135.687466
 30
0.0
 40
0.5
100
AcDbArc
 50
117.8972709999999
 51
227.116587
  0
ARC
  5
CABD
330
C9C4
100
AcDbEntity
  8
1
  6
Continuous
100
AcDbCircle
 10
27.14824
 20
148.3125339999999
 30
0.0
 40
0.5
100
AcDbArc
 50
132.8834129999999
 51
242.102729
  0
LINE
  5
CABE
330
C9C4
100
AcDbEntity
  8
1
  6
Continuous
100
AcDbLine
 10
26.91429600000001
 20
147.8706399999999
 30
0.0
 11
27.088987
 21
147.7781559999999
 31
0.0
  0
ARC
  5
CABF
330
C9C4
100
AcDbEntity
  8
1
  6
Continuous
100
AcDbCircle
 10
26.2
 20
146.098959
 30
0.0
 40
1.9
100
AcDbArc
 50
0.0
 51
62.10272899999999
  0
ARC
  5
CAC0
330
C9C4
100
AcDbEntity
  8
1
  6
Continuous
100
AcDbCircle
 10
26.2
 20
146.098959
 30
0.0
 40
0.5
100
AcDbArc
 50
0.0
 51
62.10272899999999
  0
ARC
  5
CAC1
330
C9C4
100
AcDbEntity
  8
1
  6
Continuous
100
AcDbCircle
 10
25.60742499999999
 20
147.5441689999998
 30
0.0
 40
0.5
100
AcDbArc
 50
202.591431
 51
242.102729
  0
LINE
  5
CAC2
330
C9C4
100
AcDbEntity
  8
1
  6
Continuous
100
AcDbLine
 10
25.0
 20
147.3
 30
0.0
 11
26.433944
 21
146.5408529999999
 31
0.0
  0
ARC
  5
CAC3
330
C9C4
100
AcDbEntity
  8
1
  6
Continuous
100
AcDbCircle
 10
29.5
 20
149.0124999999999
 30
0.0
 40
1.587499999999999
100
AcDbArc
 50
0.343152
 51
195.7716379999999
  0
LINE
  5
CAC4
330
C9C4
100
AcDbEntity
  8
1
  6
Continuous
100
AcDbLine
 10
26.807986
 20
148.6789039999999
 30
0.0
 11
28.41969199999999
 21
150.1757249999998
 31
0.0
  0
LINE
  5
CAC5
330
C9C4
100
AcDbEntity
  8
1
  6
Continuous
100
AcDbLine
 10
25.607033
 20
149.474195
 30
0.0
 11
27.46698
 21
151.2015609999999
 31
0.0
  0
ARC
  5
CAC6
330
C9C4
100
AcDbEntity
  8
1
  6
Continuous
100
AcDbCircle
 10
26.89999999999999
 20
148.081989
 30
0.0
 40
1.9
100
AcDbArc
 50
132.8834129999999
 51
202.591431
  0
ARC
  5
CAC7
330
C9C4
100
AcDbEntity
  8
1
  6
Continuous
100
AcDbCircle
 10
29.5
 20
149.0124999999999
 30
0.0
 40
2.7875
100
AcDbArc
 50
237.8779199999999
 51
310.0162919999998
  0
ARC
  5
CAC8
330
C9C4
100
AcDbEntity
  8
1
  6
Continuous
100
AcDbCircle
 10
31.49104
 20
146.64104
 30
0.0
 40
0.30896
100
AcDbArc
 50
0.0
 51
130.0162919999999
  0
LINE
  5
CAC9
330
C9C4
100
AcDbEntity
  8
1
  6
Continuous
100
AcDbLine
 10
27.700075
 20
147.2650529999999
 30
0.0
 11
28.36098699999999
 21
147.9066949999999
 31
0.0
  0
LINE
  5
CACA
330
C9C4
100
AcDbEntity
  8
1
  6
Continuous
100
AcDbLine
 10
26.89999999999999
 20
147.995015
 30
0.0
 11
26.89999999999999
 21
147.878509
 31
0.0
  0
LINE
  5
CACB
330
C9C4
100
AcDbEntity
  8
1
  6
Continuous
100
AcDbLine
 10
27.4
 20
148.0
 30
0.0
 11
27.4
 21
147.5720509999999
 31
0.0
  0
LINE
  5
CACC
330
C9C4
100
AcDbEntity
  8
1
  6
Continuous
100
AcDbLine
 10
28.079209
 20
146.379266
 30
0.0
 11
29.15407399999999
 21
145.7450959999999
 31
0.0
  0
LINE
  5
CACD
330
C9C4
100
AcDbEntity
  8
1
  6
Continuous
100
AcDbLine
 10
28.1
 20
145.786461
 30
0.0
 11
28.9
 21
145.314461
 31
0.0
  0
ARC
  5
CACE
330
C9C4
100
AcDbEntity
  8
1
  6
Continuous
100
AcDbCircle
 10
28.9
 20
145.314461
 30
0.0
 40
0.5
100
AcDbArc
 50
0.0
 51
59.45939499999999
  0
ARC
  5
CACF
330
C9C4
100
AcDbEntity
  8
1
  6
Continuous
100
AcDbCircle
 10
27.4
 20
147.995015
 30
0.0
 40
0.5
100
AcDbArc
 50
98.05739500000001
 51
180.0
  0
ARC
  5
CAD0
330
C9C4
100
AcDbEntity
  8
1
  6
Continuous
100
AcDbCircle
 10
29.5
 20
149.0124999999999
 30
0.0
 40
1.587499999999999
100
AcDbArc
 50
214.550104
 51
341.5646869999999
  0
LINE
  5
CAD1
330
C9C4
100
AcDbEntity
  8
1
  6
Continuous
100
AcDbLine
 10
32.20000000000001
 20
134.8205
 30
0.0
 11
32.20000000000001
 21
135.3205
 31
0.0
  0
LINE
  5
CAD2
330
C9C4
100
AcDbEntity
  8
1
  6
Continuous
100
AcDbLine
 10
32.20000000000001
 20
149.1794999999999
 30
0.0
 11
32.20000000000001
 21
148.6794999999998
 31
0.0
  0
ARC
  5
CAD3
330
C9C4
100
AcDbEntity
  8
1
  6
Continuous
100
AcDbCircle
 10
833.1517599999997
 20
148.3125339999999
 30
0.0
 40
0.5
100
AcDbArc
 50
299.767381
 51
47.116587
  0
ARC
  5
CAD4
330
C9C4
100
AcDbEntity
  8
1
  6
Continuous
100
AcDbCircle
 10
834.1000000000001
 20
146.098959
 30
0.0
 40
1.9
100
AcDbArc
 50
129.1667109999999
 51
140.792799
  0
ARC
  5
CAD5
330
C9C4
100
AcDbEntity
  8
1
  6
Continuous
100
AcDbCircle
 10
833.1517599999997
 20
135.687466
 30
0.0
 40
0.5
100
AcDbArc
 50
312.8834129999999
 51
60.23261899999999
  0
ARC
  5
CAD6
330
C9C4
100
AcDbEntity
  8
1
  6
Continuous
100
AcDbCircle
 10
834.1000000000001
 20
137.901041
 30
0.0
 40
1.9
100
AcDbArc
 50
219.2072009999999
 51
230.8332889999999
  0
LINE
  5
CAD7
330
C9C4
100
AcDbEntity
  8
1
  6
Continuous
100
AcDbLine
 10
33.0
 20
146.64104
 30
0.0
 11
33.0
 21
137.35896
 31
0.0
  0
ARC
  5
CAD8
330
C9C4
100
AcDbEntity
  8
1
  6
Continuous
100
AcDbCircle
 10
394.8
 20
149.0124999999999
 30
0.0
 40
1.587499999999999
100
AcDbArc
 50
327.090948
 51
347.8914909999998
  0
ARC
  5
CAD9
330
C9C4
100
AcDbEntity
  8
1
  6
Continuous
100
AcDbCircle
 10
394.8
 20
149.0124999999999
 30
0.0
 40
1.587499999999999
100
AcDbArc
 50
6.038508
 51
24.57297999999999
  0
ARC
  5
CADA
330
C9C4
100
AcDbEntity
  8
1
  6
Continuous
100
AcDbCircle
 10
394.8
 20
149.0124999999999
 30
0.0
 40
1.587499999999999
100
AcDbArc
 50
155.4270199999999
 51
173.9614919999999
  0
ARC
  5
CADB
330
C9C4
100
AcDbEntity
  8
1
  6
Continuous
100
AcDbCircle
 10
394.8
 20
149.0124999999999
 30
0.0
 40
1.587499999999999
100
AcDbArc
 50
192.1085089999999
 51
212.9090519999999
  0
ARC
  5
CADC
330
C9C4
100
AcDbEntity
  8
1
  6
Continuous
100
AcDbCircle
 10
404.8
 20
149.0124999999999
 30
0.0
 40
1.587499999999999
100
AcDbArc
 50
192.1085089999999
 51
212.9090519999999
  0
ARC
  5
CADD
330
C9C4
100
AcDbEntity
  8
1
  6
Continuous
100
AcDbCircle
 10
404.8
 20
149.0124999999999
 30
0.0
 40
1.587499999999999
100
AcDbArc
 50
155.4270199999999
 51
173.9614919999999
  0
ARC
  5
CADE
330
C9C4
100
AcDbEntity
  8
1
  6
Continuous
100
AcDbCircle
 10
404.8
 20
149.0124999999999
 30
0.0
 40
1.587499999999999
100
AcDbArc
 50
6.038508
 51
24.57297999999999
  0
ARC
  5
CADF
330
C9C4
100
AcDbEntity
  8
1
  6
Continuous
100
AcDbCircle
 10
404.8
 20
149.0124999999999
 30
0.0
 40
1.587499999999999
100
AcDbArc
 50
327.090948
 51
347.8914909999998
  0
ARC
  5
CAE0
330
C9C4
100
AcDbEntity
  8
1
  6
Continuous
100
AcDbCircle
 10
414.8
 20
149.0124999999999
 30
0.0
 40
1.587499999999999
100
AcDbArc
 50
192.1085089999999
 51
212.9090519999999
  0
ARC
  5
CAE1
330
C9C4
100
AcDbEntity
  8
1
  6
Continuous
100
AcDbCircle
 10
414.8
 20
149.0124999999999
 30
0.0
 40
1.587499999999999
100
AcDbArc
 50
155.4270199999999
 51
173.9614919999999
  0
ARC
  5
CAE2
330
C9C4
100
AcDbEntity
  8
1
  6
Continuous
100
AcDbCircle
 10
414.8
 20
149.0124999999999
 30
0.0
 40
1.587499999999999
100
AcDbArc
 50
327.090948
 51
347.8914909999998
  0
ARC
  5
CAE3
330
C9C4
100
AcDbEntity
  8
1
  6
Continuous
100
AcDbCircle
 10
414.8
 20
149.0124999999999
 30
0.0
 40
1.587499999999999
100
AcDbArc
 50
6.038508
 51
24.57297999999999
  0
ARC
  5
CAE4
330
C9C4
100
AcDbEntity
  8
1
  6
Continuous
100
AcDbCircle
 10
424.8
 20
149.0124999999999
 30
0.0
 40
1.587499999999999
100
AcDbArc
 50
6.038508
 51
24.57297999999999
  0
ARC
  5
CAE5
330
C9C4
100
AcDbEntity
  8
1
  6
Continuous
100
AcDbCircle
 10
424.8
 20
149.0124999999999
 30
0.0
 40
1.587499999999999
100
AcDbArc
 50
327.090948
 51
347.8914909999998
  0
ARC
  5
CAE6
330
C9C4
100
AcDbEntity
  8
1
  6
Continuous
100
AcDbCircle
 10
424.8
 20
149.0124999999999
 30
0.0
 40
1.587499999999999
100
AcDbArc
 50
155.4270199999999
 51
173.9614919999999
  0
ARC
  5
CAE7
330
C9C4
100
AcDbEntity
  8
1
  6
Continuous
100
AcDbCircle
 10
424.8
 20
149.0124999999999
 30
0.0
 40
1.587499999999999
100
AcDbArc
 50
192.1085089999999
 51
212.9090519999999
  0
ARC
  5
CAE8
330
C9C4
100
AcDbEntity
  8
1
  6
Continuous
100
AcDbCircle
 10
434.7999999999998
 20
149.0124999999999
 30
0.0
 40
1.587499999999999
100
AcDbArc
 50
192.1085089999999
 51
212.9090519999999
  0
ARC
  5
CAE9
330
C9C4
100
AcDbEntity
  8
1
  6
Continuous
100
AcDbCircle
 10
434.7999999999998
 20
149.0124999999999
 30
0.0
 40
1.587499999999999
100
AcDbArc
 50
155.4270199999999
 51
173.9614919999999
  0
ARC
  5
CAEA
330
C9C4
100
AcDbEntity
  8
1
  6
Continuous
100
AcDbCircle
 10
434.7999999999998
 20
149.0124999999999
 30
0.0
 40
1.587499999999999
100
AcDbArc
 50
327.090948
 51
347.8914909999998
  0
ARC
  5
CAEB
330
C9C4
100
AcDbEntity
  8
1
  6
Continuous
100
AcDbCircle
 10
434.7999999999998
 20
149.0124999999999
 30
0.0
 40
1.587499999999999
100
AcDbArc
 50
6.038508
 51
24.57297999999999
  0
ARC
  5
CAEC
330
C9C4
100
AcDbEntity
  8
1
  6
Continuous
100
AcDbCircle
 10
384.8
 20
134.9875
 30
0.0
 40
1.587499999999999
100
AcDbArc
 50
12.108509
 51
32.909052
  0
ARC
  5
CAED
330
C9C4
100
AcDbEntity
  8
1
  6
Continuous
100
AcDbCircle
 10
384.8
 20
134.9875
 30
0.0
 40
1.587499999999999
100
AcDbArc
 50
335.4270200000001
 51
353.9614919999999
  0
ARC
  5
CAEE
330
C9C4
100
AcDbEntity
  8
1
  6
Continuous
100
AcDbCircle
 10
384.8
 20
134.9875
 30
0.0
 40
1.587499999999999
100
AcDbArc
 50
186.038508
 51
204.57298
  0
ARC
  5
CAEF
330
C9C4
100
AcDbEntity
  8
1
  6
Continuous
100
AcDbCircle
 10
384.8
 20
134.9875
 30
0.0
 40
1.587499999999999
100
AcDbArc
 50
147.0909479999999
 51
167.891491
  0
ARC
  5
CAF0
330
C9C4
100
AcDbEntity
  8
1
  6
Continuous
100
AcDbCircle
 10
394.8
 20
134.9875
 30
0.0
 40
1.587499999999999
100
AcDbArc
 50
147.0909479999999
 51
167.891491
  0
ARC
  5
CAF1
330
C9C4
100
AcDbEntity
  8
1
  6
Continuous
100
AcDbCircle
 10
394.8
 20
134.9875
 30
0.0
 40
1.587499999999999
100
AcDbArc
 50
186.038508
 51
204.57298
  0
ARC
  5
CAF2
330
C9C4
100
AcDbEntity
  8
1
  6
Continuous
100
AcDbCircle
 10
394.8
 20
134.9875
 30
0.0
 40
1.587499999999999
100
AcDbArc
 50
335.4270200000001
 51
353.9614919999999
  0
ARC
  5
CAF3
330
C9C4
100
AcDbEntity
  8
1
  6
Continuous
100
AcDbCircle
 10
394.8
 20
134.9875
 30
0.0
 40
1.587499999999999
100
AcDbArc
 50
12.108509
 51
32.909052
  0
ARC
  5
CAF4
330
C9C4
100
AcDbEntity
  8
1
  6
Continuous
100
AcDbCircle
 10
404.8
 20
134.9875
 30
0.0
 40
1.587499999999999
100
AcDbArc
 50
147.0909479999999
 51
167.891491
  0
ARC
  5
CAF5
330
C9C4
100
AcDbEntity
  8
1
  6
Continuous
100
AcDbCircle
 10
404.8
 20
134.9875
 30
0.0
 40
1.587499999999999
100
AcDbArc
 50
186.038508
 51
204.57298
  0
ARC
  5
CAF6
330
C9C4
100
AcDbEntity
  8
1
  6
Continuous
100
AcDbCircle
 10
404.8
 20
134.9875
 30
0.0
 40
1.587499999999999
100
AcDbArc
 50
12.108509
 51
32.909052
  0
ARC
  5
CAF7
330
C9C4
100
AcDbEntity
  8
1
  6
Continuous
100
AcDbCircle
 10
404.8
 20
134.9875
 30
0.0
 40
1.587499999999999
100
AcDbArc
 50
335.4270200000001
 51
353.9614919999999
  0
ARC
  5
CAF8
330
C9C4
100
AcDbEntity
  8
1
  6
Continuous
100
AcDbCircle
 10
414.8
 20
134.9875
 30
0.0
 40
1.587499999999999
100
AcDbArc
 50
335.4270200000001
 51
353.9614919999999
  0
ARC
  5
CAF9
330
C9C4
100
AcDbEntity
  8
1
  6
Continuous
100
AcDbCircle
 10
414.8
 20
134.9875
 30
0.0
 40
1.587499999999999
100
AcDbArc
 50
12.108509
 51
32.909052
  0
ARC
  5
CAFA
330
C9C4
100
AcDbEntity
  8
1
  6
Continuous
100
AcDbCircle
 10
414.8
 20
134.9875
 30
0.0
 40
1.587499999999999
100
AcDbArc
 50
186.038508
 51
204.57298
  0
ARC
  5
CAFB
330
C9C4
100
AcDbEntity
  8
1
  6
Continuous
100
AcDbCircle
 10
414.8
 20
134.9875
 30
0.0
 40
1.587499999999999
100
AcDbArc
 50
147.0909479999999
 51
167.891491
  0
ARC
  5
CAFC
330
C9C4
100
AcDbEntity
  8
1
  6
Continuous
100
AcDbCircle
 10
424.8
 20
134.9875
 30
0.0
 40
1.587499999999999
100
AcDbArc
 50
147.0909479999999
 51
167.891491
  0
ARC
  5
CAFD
330
C9C4
100
AcDbEntity
  8
1
  6
Continuous
100
AcDbCircle
 10
424.8
 20
134.9875
 30
0.0
 40
1.587499999999999
100
AcDbArc
 50
186.038508
 51
204.57298
  0
ARC
  5
CAFE
330
C9C4
100
AcDbEntity
  8
1
  6
Continuous
100
AcDbCircle
 10
424.8
 20
134.9875
 30
0.0
 40
1.587499999999999
100
AcDbArc
 50
12.108509
 51
32.909052
  0
ARC
  5
CAFF
330
C9C4
100
AcDbEntity
  8
1
  6
Continuous
100
AcDbCircle
 10
424.8
 20
134.9875
 30
0.0
 40
1.587499999999999
100
AcDbArc
 50
335.4270200000001
 51
353.9614919999999
  0
ARC
  5
CB00
330
C9C4
100
AcDbEntity
  8
1
  6
Continuous
100
AcDbCircle
 10
434.7999999999998
 20
134.9875
 30
0.0
 40
1.587499999999999
100
AcDbArc
 50
186.038508
 51
204.57298
  0
ARC
  5
CB01
330
C9C4
100
AcDbEntity
  8
1
  6
Continuous
100
AcDbCircle
 10
434.7999999999998
 20
134.9875
 30
0.0
 40
1.587499999999999
100
AcDbArc
 50
147.0909479999999
 51
167.891491
  0
ARC
  5
CB02
330
C9C4
100
AcDbEntity
  8
1
  6
Continuous
100
AcDbCircle
 10
434.7999999999998
 20
134.9875
 30
0.0
 40
1.587499999999999
100
AcDbArc
 50
335.4270200000001
 51
353.9614919999999
  0
ARC
  5
CB03
330
C9C4
100
AcDbEntity
  8
1
  6
Continuous
100
AcDbCircle
 10
434.7999999999998
 20
134.9875
 30
0.0
 40
1.587499999999999
100
AcDbArc
 50
12.108509
 51
32.909052
  0
LINE
  5
CB04
330
C9C4
100
AcDbEntity
  8
1
  6
Continuous
100
AcDbLine
 10
83.29999999999998
 20
240.5
 30
0.0
 11
83.29999999999998
 21
235.0
 31
0.0
  0
LINE
  5
CB05
330
C9C4
100
AcDbEntity
  8
1
  6
Continuous
100
AcDbLine
 10
480.2999999999998
 20
235.0
 30
0.0
 11
480.2999999999998
 21
235.9219289999999
 31
0.0
  0
LINE
  5
CB06
330
C9C4
100
AcDbEntity
  8
1
  6
Continuous
100
AcDbLine
 10
480.2999999999998
 20
235.0
 30
0.0
 11
83.29999999999998
 21
235.0
 31
0.0
  0
LINE
  5
CB07
330
C9C4
100
AcDbEntity
  8
3
  6
DASHED
100
AcDbLine
 10
480.2999999999998
 20
240.5
 30
0.0
 11
377.3
 21
240.5
 31
0.0
  0
LINE
  5
CB08
330
C9C4
100
AcDbEntity
  8
1
  6
Continuous
100
AcDbLine
 10
377.3
 20
235.9219289999999
 30
0.0
 11
777.2999999999997
 21
235.9219289999999
 31
0.0
  0
LINE
  5
CB09
330
C9C4
100
AcDbEntity
  8
1
  6
Continuous
100
AcDbLine
 10
777.2999999999997
 20
243.0
 30
0.0
 11
377.3
 21
243.0
 31
0.0
  0
LINE
  5
CB0A
330
C9C4
100
AcDbEntity
  8
1
  6
Continuous
100
AcDbLine
 10
377.3
 20
235.9219289999999
 30
0.0
 11
377.3
 21
243.0
 31
0.0
  0
LINE
  5
CB0B
330
C9C4
100
AcDbEntity
  8
1
  6
Continuous
100
AcDbLine
 10
777.2999999999997
 20
235.9219289999999
 30
0.0
 11
777.2999999999997
 21
243.0
 31
0.0
  0
LINE
  5
CB0C
330
C9C4
100
AcDbEntity
  8
1
  6
Continuous
100
AcDbLine
 10
377.3
 20
240.5
 30
0.0
 11
83.29999999999998
 21
240.5
 31
0.0
  0
LINE
  5
CB0D
330
C9C4
100
AcDbEntity
  8
3
  6
DASHED
100
AcDbLine
 10
480.2999999999998
 20
235.9219289999999
 30
0.0
 11
480.2999999999998
 21
240.5
 31
0.0
  0
LINE
  5
CB0E
330
C9C4
100
AcDbEntity
  8
4
  6
CENTER
100
AcDbLine
 10
757.2999999999997
 20
246.0
 30
0.0
 11
757.2999999999997
 21
240.082188
 31
0.0
  0
LINE
  5
CB0F
330
C9C4
100
AcDbEntity
  8
4
  6
CENTER
100
AcDbLine
 10
742.2999999999997
 20
246.0
 30
0.0
 11
742.2999999999997
 21
239.991885
 31
0.0
  0
LINE
  5
CB10
330
C9C4
100
AcDbEntity
  8
4
  6
CENTER
100
AcDbLine
 10
722.2999999999997
 20
246.0
 30
0.0
 11
722.2999999999997
 21
239.991885
 31
0.0
  0
LINE
  5
CB11
330
C9C4
100
AcDbEntity
  8
4
  6
CENTER
100
AcDbLine
 10
497.2999999999998
 20
246.0
 30
0.0
 11
497.2999999999998
 21
240.3530959999999
 31
0.0
  0
LINE
  5
CB12
330
C9C4
100
AcDbEntity
  8
4
  6
CENTER
100
AcDbLine
 10
412.3
 20
246.0
 30
0.0
 11
412.3
 21
240.2627929999999
 31
0.0
  0
LINE
  5
CB13
330
C9C4
100
AcDbEntity
  8
4
  6
CENTER
100
AcDbLine
 10
397.3
 20
246.0
 30
0.0
 11
397.3
 21
240.7143079999999
 31
0.0
  0
LINE
  5
CB14
330
C9C4
100
AcDbEntity
  8
4
  6
CENTER
100
AcDbLine
 10
463.3
 20
237.739768
 30
0.0
 11
463.3
 21
232.5
 31
0.0
  0
LINE
  5
CB15
330
C9C4
100
AcDbEntity
  8
4
  6
CENTER
100
AcDbLine
 10
448.3
 20
237.649465
 30
0.0
 11
448.3
 21
232.5
 31
0.0
  0
LINE
  5
CB16
330
C9C4
100
AcDbEntity
  8
4
  6
CENTER
100
AcDbLine
 10
203.3
 20
237.739768
 30
0.0
 11
203.3
 21
232.5
 31
0.0
  0
LINE
  5
CB17
330
C9C4
100
AcDbEntity
  8
4
  6
CENTER
100
AcDbLine
 10
158.3
 20
237.739768
 30
0.0
 11
158.3
 21
232.5
 31
0.0
  0
LINE
  5
CB18
330
C9C4
100
AcDbEntity
  8
4
  6
CENTER
100
AcDbLine
 10
118.3
 20
237.739768
 30
0.0
 11
118.3
 21
232.5
 31
0.0
  0
LINE
  5
CB19
330
C9C4
100
AcDbEntity
  8
4
  6
CENTER
100
AcDbLine
 10
103.2999999999999
 20
238.10098
 30
0.0
 11
103.2999999999999
 21
232.5
 31
0.0
  0
LINE
  5
CB1A
330
C9C4
100
AcDbEntity
  8
1
  6
Continuous
100
AcDbLine
 10
388.8
 20
235.8
 30
0.0
 11
380.8
 21
235.8
 31
0.0
  0
LINE
  5
CB1B
330
C9C4
100
AcDbEntity
  8
1
  6
Continuous
100
AcDbLine
 10
380.8
 20
235.8
 30
0.0
 11
380.8
 21
235.9219289999999
 31
0.0
  0
LINE
  5
CB1C
330
C9C4
100
AcDbEntity
  8
1
  6
Continuous
100
AcDbLine
 10
388.8
 20
235.8
 30
0.0
 11
388.8
 21
235.9219289999999
 31
0.0
  0
LINE
  5
CB1D
330
C9C4
100
AcDbEntity
  8
1
  6
Continuous
100
AcDbLine
 10
398.7999999999999
 20
235.8
 30
0.0
 11
390.8
 21
235.8
 31
0.0
  0
LINE
  5
CB1E
330
C9C4
100
AcDbEntity
  8
1
  6
Continuous
100
AcDbLine
 10
390.8
 20
235.8
 30
0.0
 11
390.8
 21
235.9219289999999
 31
0.0
  0
LINE
  5
CB1F
330
C9C4
100
AcDbEntity
  8
1
  6
Continuous
100
AcDbLine
 10
398.7999999999999
 20
235.8
 30
0.0
 11
398.7999999999999
 21
235.9219289999999
 31
0.0
  0
LINE
  5
CB20
330
C9C4
100
AcDbEntity
  8
1
  6
Continuous
100
AcDbLine
 10
408.8
 20
235.8
 30
0.0
 11
408.8
 21
235.9219289999999
 31
0.0
  0
LINE
  5
CB21
330
C9C4
100
AcDbEntity
  8
1
  6
Continuous
100
AcDbLine
 10
400.8
 20
235.8
 30
0.0
 11
400.8
 21
235.9219289999999
 31
0.0
  0
LINE
  5
CB22
330
C9C4
100
AcDbEntity
  8
1
  6
Continuous
100
AcDbLine
 10
408.8
 20
235.8
 30
0.0
 11
400.8
 21
235.8
 31
0.0
  0
LINE
  5
CB23
330
C9C4
100
AcDbEntity
  8
1
  6
Continuous
100
AcDbLine
 10
418.8
 20
235.8
 30
0.0
 11
410.8
 21
235.8
 31
0.0
  0
LINE
  5
CB24
330
C9C4
100
AcDbEntity
  8
1
  6
Continuous
100
AcDbLine
 10
410.8
 20
235.8
 30
0.0
 11
410.8
 21
235.9219289999999
 31
0.0
  0
LINE
  5
CB25
330
C9C4
100
AcDbEntity
  8
1
  6
Continuous
100
AcDbLine
 10
418.8
 20
235.8
 30
0.0
 11
418.8
 21
235.9219289999999
 31
0.0
  0
LINE
  5
CB26
330
C9C4
100
AcDbEntity
  8
1
  6
Continuous
100
AcDbLine
 10
428.8
 20
235.8
 30
0.0
 11
428.8
 21
235.9219289999999
 31
0.0
  0
LINE
  5
CB27
330
C9C4
100
AcDbEntity
  8
1
  6
Continuous
100
AcDbLine
 10
420.8
 20
235.8
 30
0.0
 11
420.8
 21
235.9219289999999
 31
0.0
  0
LINE
  5
CB28
330
C9C4
100
AcDbEntity
  8
1
  6
Continuous
100
AcDbLine
 10
428.8
 20
235.8
 30
0.0
 11
420.8
 21
235.8
 31
0.0
  0
LINE
  5
CB29
330
C9C4
100
AcDbEntity
  8
1
  6
Continuous
100
AcDbLine
 10
438.7999999999998
 20
235.8
 30
0.0
 11
430.7999999999998
 21
235.8
 31
0.0
  0
LINE
  5
CB2A
330
C9C4
100
AcDbEntity
  8
1
  6
Continuous
100
AcDbLine
 10
430.7999999999998
 20
235.8
 30
0.0
 11
430.7999999999998
 21
235.9219289999999
 31
0.0
  0
LINE
  5
CB2B
330
C9C4
100
AcDbEntity
  8
1
  6
Continuous
100
AcDbLine
 10
438.7999999999998
 20
235.8
 30
0.0
 11
438.7999999999998
 21
235.9219289999999
 31
0.0
  0
LINE
  5
CB2C
330
C9C4
100
AcDbEntity
  8
1
  6
Continuous
100
AcDbLine
 10
377.3
 20
43.5
 30
0.0
 11
83.29999999999998
 21
43.5
 31
0.0
  0
LINE
  5
CB2D
330
C9C4
100
AcDbEntity
  8
1
  6
Continuous
100
AcDbLine
 10
480.2999999999998
 20
49.0
 30
0.0
 11
83.29999999999998
 21
49.0
 31
0.0
  0
LINE
  5
CB2E
330
C9C4
100
AcDbEntity
  8
1
  6
Continuous
100
AcDbLine
 10
83.29999999999998
 20
43.5
 30
0.0
 11
83.29999999999998
 21
49.0
 31
0.0
  0
LINE
  5
CB2F
330
C9C4
100
AcDbEntity
  8
4
  6
CENTER
100
AcDbLine
 10
103.2999999999999
 20
45.89902
 30
0.0
 11
103.2999999999999
 21
51.5
 31
0.0
  0
LINE
  5
CB30
330
C9C4
100
AcDbEntity
  8
4
  6
CENTER
100
AcDbLine
 10
118.3
 20
46.260232
 30
0.0
 11
118.3
 21
51.5
 31
0.0
  0
LINE
  5
CB31
330
C9C4
100
AcDbEntity
  8
4
  6
CENTER
100
AcDbLine
 10
158.3
 20
46.260232
 30
0.0
 11
158.3
 21
51.5
 31
0.0
  0
LINE
  5
CB32
330
C9C4
100
AcDbEntity
  8
1
  6
Continuous
100
AcDbLine
 10
777.2999999999997
 20
41.0
 30
0.0
 11
377.3
 21
41.0
 31
0.0
  0
LINE
  5
CB33
330
C9C4
100
AcDbEntity
  8
1
  6
Continuous
100
AcDbLine
 10
377.3
 20
48.078071
 30
0.0
 11
777.2999999999997
 21
48.078071
 31
0.0
  0
LINE
  5
CB34
330
C9C4
100
AcDbEntity
  8
1
  6
Continuous
100
AcDbLine
 10
408.8
 20
48.2
 30
0.0
 11
400.8
 21
48.2
 31
0.0
  0
LINE
  5
CB35
330
C9C4
100
AcDbEntity
  8
3
  6
DASHED
100
AcDbLine
 10
480.2999999999998
 20
43.5
 30
0.0
 11
377.3
 21
43.5
 31
0.0
  0
LINE
  5
CB36
330
C9C4
100
AcDbEntity
  8
4
  6
CENTER
100
AcDbLine
 10
203.3
 20
46.260232
 30
0.0
 11
203.3
 21
51.5
 31
0.0
  0
LINE
  5
CB37
330
C9C4
100
AcDbEntity
  8
4
  6
CENTER
100
AcDbLine
 10
397.3
 20
38.0
 30
0.0
 11
397.3
 21
43.28569199999999
 31
0.0
  0
LINE
  5
CB38
330
C9C4
100
AcDbEntity
  8
1
  6
Continuous
100
AcDbLine
 10
388.8
 20
48.2
 30
0.0
 11
380.8
 21
48.2
 31
0.0
  0
LINE
  5
CB39
330
C9C4
100
AcDbEntity
  8
1
  6
Continuous
100
AcDbLine
 10
380.8
 20
48.2
 30
0.0
 11
380.8
 21
48.078071
 31
0.0
  0
LINE
  5
CB3A
330
C9C4
100
AcDbEntity
  8
1
  6
Continuous
100
AcDbLine
 10
377.3
 20
48.078071
 30
0.0
 11
377.3
 21
41.0
 31
0.0
  0
LINE
  5
CB3B
330
C9C4
100
AcDbEntity
  8
1
  6
Continuous
100
AcDbLine
 10
400.8
 20
48.2
 30
0.0
 11
400.8
 21
48.078071
 31
0.0
  0
LINE
  5
CB3C
330
C9C4
100
AcDbEntity
  8
1
  6
Continuous
100
AcDbLine
 10
398.7999999999999
 20
48.2
 30
0.0
 11
398.7999999999999
 21
48.078071
 31
0.0
  0
LINE
  5
CB3D
330
C9C4
100
AcDbEntity
  8
1
  6
Continuous
100
AcDbLine
 10
390.8
 20
48.2
 30
0.0
 11
390.8
 21
48.078071
 31
0.0
  0
LINE
  5
CB3E
330
C9C4
100
AcDbEntity
  8
1
  6
Continuous
100
AcDbLine
 10
398.7999999999999
 20
48.2
 30
0.0
 11
390.8
 21
48.2
 31
0.0
  0
LINE
  5
CB3F
330
C9C4
100
AcDbEntity
  8
1
  6
Continuous
100
AcDbLine
 10
388.8
 20
48.2
 30
0.0
 11
388.8
 21
48.078071
 31
0.0
  0
LINE
  5
CB40
330
C9C4
100
AcDbEntity
  8
1
  6
Continuous
100
AcDbLine
 10
438.7999999999998
 20
48.2
 30
0.0
 11
430.7999999999998
 21
48.2
 31
0.0
  0
LINE
  5
CB41
330
C9C4
100
AcDbEntity
  8
4
  6
CENTER
100
AcDbLine
 10
412.3
 20
38.0
 30
0.0
 11
412.3
 21
43.73720699999998
 31
0.0
  0
LINE
  5
CB42
330
C9C4
100
AcDbEntity
  8
1
  6
Continuous
100
AcDbLine
 10
418.8
 20
48.2
 30
0.0
 11
418.8
 21
48.078071
 31
0.0
  0
LINE
  5
CB43
330
C9C4
100
AcDbEntity
  8
1
  6
Continuous
100
AcDbLine
 10
410.8
 20
48.2
 30
0.0
 11
410.8
 21
48.078071
 31
0.0
  0
LINE
  5
CB44
330
C9C4
100
AcDbEntity
  8
1
  6
Continuous
100
AcDbLine
 10
418.8
 20
48.2
 30
0.0
 11
410.8
 21
48.2
 31
0.0
  0
LINE
  5
CB45
330
C9C4
100
AcDbEntity
  8
1
  6
Continuous
100
AcDbLine
 10
408.8
 20
48.2
 30
0.0
 11
408.8
 21
48.078071
 31
0.0
  0
LINE
  5
CB46
330
C9C4
100
AcDbEntity
  8
4
  6
CENTER
100
AcDbLine
 10
448.3
 20
46.350535
 30
0.0
 11
448.3
 21
51.5
 31
0.0
  0
LINE
  5
CB47
330
C9C4
100
AcDbEntity
  8
1
  6
Continuous
100
AcDbLine
 10
430.7999999999998
 20
48.2
 30
0.0
 11
430.7999999999998
 21
48.078071
 31
0.0
  0
LINE
  5
CB48
330
C9C4
100
AcDbEntity
  8
1
  6
Continuous
100
AcDbLine
 10
428.8
 20
48.2
 30
0.0
 11
420.8
 21
48.2
 31
0.0
  0
LINE
  5
CB49
330
C9C4
100
AcDbEntity
  8
1
  6
Continuous
100
AcDbLine
 10
420.8
 20
48.2
 30
0.0
 11
420.8
 21
48.078071
 31
0.0
  0
LINE
  5
CB4A
330
C9C4
100
AcDbEntity
  8
1
  6
Continuous
100
AcDbLine
 10
428.8
 20
48.2
 30
0.0
 11
428.8
 21
48.078071
 31
0.0
  0
LINE
  5
CB4B
330
C9C4
100
AcDbEntity
  8
4
  6
CENTER
100
AcDbLine
 10
463.3
 20
46.260232
 30
0.0
 11
463.3
 21
51.5
 31
0.0
  0
LINE
  5
CB4C
330
C9C4
100
AcDbEntity
  8
1
  6
Continuous
100
AcDbLine
 10
438.7999999999998
 20
48.2
 30
0.0
 11
438.7999999999998
 21
48.078071
 31
0.0
  0
LINE
  5
CB4D
330
C9C4
100
AcDbEntity
  8
3
  6
DASHED
100
AcDbLine
 10
480.2999999999998
 20
48.078071
 30
0.0
 11
480.2999999999998
 21
43.5
 31
0.0
  0
LINE
  5
CB4E
330
C9C4
100
AcDbEntity
  8
1
  6
Continuous
100
AcDbLine
 10
480.2999999999998
 20
49.0
 30
0.0
 11
480.2999999999998
 21
48.078071
 31
0.0
  0
LINE
  5
CB4F
330
C9C4
100
AcDbEntity
  8
4
  6
CENTER
100
AcDbLine
 10
497.2999999999998
 20
38.0
 30
0.0
 11
497.2999999999998
 21
43.64690399999999
 31
0.0
  0
LINE
  5
CB50
330
C9C4
100
AcDbEntity
  8
4
  6
CENTER
100
AcDbLine
 10
722.2999999999997
 20
38.0
 30
0.0
 11
722.2999999999997
 21
44.00811499999998
 31
0.0
  0
LINE
  5
CB51
330
C9C4
100
AcDbEntity
  8
4
  6
CENTER
100
AcDbLine
 10
742.2999999999997
 20
38.0
 30
0.0
 11
742.2999999999997
 21
44.00811499999998
 31
0.0
  0
LINE
  5
CB52
330
C9C4
100
AcDbEntity
  8
4
  6
CENTER
100
AcDbLine
 10
757.2999999999997
 20
38.0
 30
0.0
 11
757.2999999999997
 21
43.91781199999999
 31
0.0
  0
LINE
  5
CB53
330
C9C4
100
AcDbEntity
  8
1
  6
Continuous
100
AcDbLine
 10
777.2999999999997
 20
48.078071
 30
0.0
 11
777.2999999999997
 21
41.0
 31
0.0
  0
LINE
  5
CB54
330
C9C4
100
AcDbEntity
  8
3
  6
DASHED
100
AcDbLine
 10
480.2999999999998
 20
329.85
 30
0.0
 11
377.3
 21
329.85
 31
0.0
  0
LINE
  5
CB55
330
C9C4
100
AcDbEntity
  8
1
  6
Continuous
100
AcDbLine
 10
83.29999999999998
 20
342.1499999999999
 30
0.0
 11
377.3
 21
342.1499999999999
 31
0.0
  0
LINE
  5
CB56
330
C9C4
100
AcDbEntity
  8
4
  6
CENTER
100
AcDbLine
 10
780.2999999999997
 20
336.0
 30
0.0
 11
80.0
 21
336.0
 31
0.0
  0
LINE
  5
CB57
330
C9C4
100
AcDbEntity
  8
1
  6
Continuous
100
AcDbLine
 10
83.29999999999998
 20
329.85
 30
0.0
 11
83.29999999999998
 21
342.1499999999999
 31
0.0
  0
LINE
  5
CB58
330
C9C4
100
AcDbEntity
  8
4
  6
CENTER
100
AcDbLine
 10
103.2999999999999
 20
332.660437
 30
0.0
 11
103.2999999999999
 21
339.1622499999999
 31
0.0
  0
CIRCLE
  5
CB59
330
C9C4
100
AcDbEntity
  8
1
  6
Continuous
100
AcDbCircle
 10
103.2999999999999
 20
336.0
 30
0.0
 40
1.6
  0
LINE
  5
CB5A
330
C9C4
100
AcDbEntity
  8
1
  6
Continuous
100
AcDbLine
 10
118.5999999999998
 20
334.3999999999998
 30
0.0
 11
118.0
 21
334.3999999999998
 31
0.0
  0
LINE
  5
CB5B
330
C9C4
100
AcDbEntity
  8
1
  6
Continuous
100
AcDbLine
 10
118.0
 20
337.6
 30
0.0
 11
118.5999999999998
 21
337.6
 31
0.0
  0
LINE
  5
CB5C
330
C9C4
100
AcDbEntity
  8
4
  6
CENTER
100
AcDbLine
 10
118.3
 20
333.021649
 30
0.0
 11
118.3
 21
339.1622499999999
 31
0.0
  0
ARC
  5
CB5D
330
C9C4
100
AcDbEntity
  8
1
  6
Continuous
100
AcDbCircle
 10
118.0
 20
336.0
 30
0.0
 40
1.6
100
AcDbArc
 50
90.0
 51
270.0
  0
ARC
  5
CB5E
330
C9C4
100
AcDbEntity
  8
1
  6
Continuous
100
AcDbCircle
 10
118.5999999999998
 20
336.0
 30
0.0
 40
1.6
100
AcDbArc
 50
270.0
 51
90.0
  0
LINE
  5
CB5F
330
C9C4
100
AcDbEntity
  8
4
  6
CENTER
100
AcDbLine
 10
158.3
 20
331.05
 30
0.0
 11
158.3
 21
340.9499999999998
 31
0.0
  0
CIRCLE
  5
CB60
330
C9C4
100
AcDbEntity
  8
1
  6
Continuous
100
AcDbCircle
 10
158.3
 20
336.0
 30
0.0
 40
3.649999999999999
  0
ARC
  5
CB61
330
C9C4
100
AcDbEntity
  8
1
  6
Continuous
100
AcDbCircle
 10
776.7
 20
329.7
 30
0.0
 40
1.0
100
AcDbArc
 50
90.0
 51
225.0
  0
LINE
  5
CB62
330
C9C4
100
AcDbEntity
  8
3
  6
DASHED
100
AcDbLine
 10
480.2999999999998
 20
342.1499999999999
 30
0.0
 11
480.2999999999998
 21
329.85
 31
0.0
  0
LINE
  5
CB63
330
C9C4
100
AcDbEntity
  8
1
  6
Continuous
100
AcDbLine
 10
377.3
 20
346.0
 30
0.0
 11
777.2999999999997
 21
346.0
 31
0.0
  0
LINE
  5
CB64
330
C9C4
100
AcDbEntity
  8
1
  6
Continuous
100
AcDbLine
 10
203.6
 20
334.3999999999998
 30
0.0
 11
203.0
 21
334.3999999999998
 31
0.0
  0
LINE
  5
CB65
330
C9C4
100
AcDbEntity
  8
1
  6
Continuous
100
AcDbLine
 10
203.0
 20
337.6
 30
0.0
 11
203.6
 21
337.6
 31
0.0
  0
LINE
  5
CB66
330
C9C4
100
AcDbEntity
  8
4
  6
CENTER
100
AcDbLine
 10
203.3
 20
333.021649
 30
0.0
 11
203.3
 21
338.981645
 31
0.0
  0
ARC
  5
CB67
330
C9C4
100
AcDbEntity
  8
1
  6
Continuous
100
AcDbCircle
 10
203.0
 20
336.0
 30
0.0
 40
1.6
100
AcDbArc
 50
90.0
 51
270.0
  0
ARC
  5
CB68
330
C9C4
100
AcDbEntity
  8
1
  6
Continuous
100
AcDbCircle
 10
203.6
 20
336.0
 30
0.0
 40
1.6
100
AcDbArc
 50
270.0
 51
90.0
  0
LINE
  5
CB69
330
C9C4
100
AcDbEntity
  8
4
  6
CENTER
100
AcDbLine
 10
397.3
 20
333.1119519999999
 30
0.0
 11
397.3
 21
338.53013
 31
0.0
  0
LINE
  5
CB6A
330
C9C4
100
AcDbEntity
  8
1
  6
Continuous
100
AcDbLine
 10
412.0
 20
334.3999999999998
 30
0.0
 11
412.6
 21
334.3999999999998
 31
0.0
  0
LINE
  5
CB6B
330
C9C4
100
AcDbEntity
  8
1
  6
Continuous
100
AcDbLine
 10
412.6
 20
337.6
 30
0.0
 11
412.0
 21
337.6
 31
0.0
  0
LINE
  5
CB6C
330
C9C4
100
AcDbEntity
  8
4
  6
CENTER
100
AcDbLine
 10
448.3
 20
333.1119519999999
 30
0.0
 11
448.3
 21
338.7107359999999
 31
0.0
  0
ARC
  5
CB6D
330
C9C4
100
AcDbEntity
  8
1
  6
Continuous
100
AcDbCircle
 10
412.6
 20
336.0
 30
0.0
 40
1.6
100
AcDbArc
 50
270.0
 51
90.0
  0
ARC
  5
CB6E
330
C9C4
100
AcDbEntity
  8
1
  6
Continuous
100
AcDbCircle
 10
412.0
 20
336.0
 30
0.0
 40
1.6
100
AcDbArc
 50
90.0
 51
270.0
  0
LINE
  5
CB6F
330
C9C4
100
AcDbEntity
  8
4
  6
CENTER
100
AcDbLine
 10
412.3
 20
333.1119519999999
 30
0.0
 11
412.3
 21
338.981645
 31
0.0
  0
LINE
  5
CB70
330
C9C4
100
AcDbEntity
  8
4
  6
CENTER
100
AcDbLine
 10
463.3
 20
333.021649
 30
0.0
 11
463.3
 21
338.6204329999998
 31
0.0
  0
CIRCLE
  5
CB71
330
C9C4
100
AcDbEntity
  8
1
  6
Continuous
100
AcDbCircle
 10
397.3
 20
336.0
 30
0.0
 40
1.6
  0
ARC
  5
CB72
330
C9C4
100
AcDbEntity
  8
1
  6
Continuous
100
AcDbCircle
 10
497.5999999999998
 20
336.0
 30
0.0
 40
1.6
100
AcDbArc
 50
270.0
 51
90.0
  0
LINE
  5
CB73
330
C9C4
100
AcDbEntity
  8
1
  6
Continuous
100
AcDbLine
 10
497.5999999999998
 20
334.3999999999998
 30
0.0
 11
497.0
 21
334.3999999999998
 31
0.0
  0
LINE
  5
CB74
330
C9C4
100
AcDbEntity
  8
1
  6
Continuous
100
AcDbLine
 10
497.0
 20
337.6
 30
0.0
 11
497.5999999999998
 21
337.6
 31
0.0
  0
LINE
  5
CB75
330
C9C4
100
AcDbEntity
  8
4
  6
CENTER
100
AcDbLine
 10
497.2999999999998
 20
332.570134
 30
0.0
 11
497.2999999999998
 21
338.891342
 31
0.0
  0
ARC
  5
CB76
330
C9C4
100
AcDbEntity
  8
1
  6
Continuous
100
AcDbCircle
 10
497.0
 20
336.0
 30
0.0
 40
1.6
100
AcDbArc
 50
90.0
 51
270.0
  0
LINE
  5
CB77
330
C9C4
100
AcDbEntity
  8
4
  6
CENTER
100
AcDbLine
 10
722.2999999999997
 20
330.8543779999999
 30
0.0
 11
722.2999999999997
 21
340.787704
 31
0.0
  0
CIRCLE
  5
CB78
330
C9C4
100
AcDbEntity
  8
1
  6
Continuous
100
AcDbCircle
 10
722.2999999999997
 20
336.0
 30
0.0
 40
3.649999999999999
  0
LINE
  5
CB79
330
C9C4
100
AcDbEntity
  8
1
  6
Continuous
100
AcDbLine
 10
742.6
 20
334.3999999999998
 30
0.0
 11
742.0
 21
334.3999999999998
 31
0.0
  0
LINE
  5
CB7A
330
C9C4
100
AcDbEntity
  8
1
  6
Continuous
100
AcDbLine
 10
742.0
 20
337.6
 30
0.0
 11
742.6
 21
337.6
 31
0.0
  0
LINE
  5
CB7B
330
C9C4
100
AcDbEntity
  8
4
  6
CENTER
100
AcDbLine
 10
742.2999999999997
 20
332.841043
 30
0.0
 11
742.2999999999997
 21
339.2525529999999
 31
0.0
  0
ARC
  5
CB7C
330
C9C4
100
AcDbEntity
  8
1
  6
Continuous
100
AcDbCircle
 10
742.0
 20
336.0
 30
0.0
 40
1.6
100
AcDbArc
 50
90.0
 51
270.0
  0
ARC
  5
CB7D
330
C9C4
100
AcDbEntity
  8
1
  6
Continuous
100
AcDbCircle
 10
742.6
 20
336.0
 30
0.0
 40
1.6
100
AcDbArc
 50
270.0
 51
90.0
  0
LINE
  5
CB7E
330
C9C4
100
AcDbEntity
  8
4
  6
CENTER
100
AcDbLine
 10
757.2999999999997
 20
332.841043
 30
0.0
 11
757.2999999999997
 21
339.1622499999999
 31
0.0
  0
LINE
  5
CB7F
330
C9C4
100
AcDbEntity
  8
1
  6
Continuous
100
AcDbLine
 10
776.7
 20
330.6999999999998
 30
0.0
 11
777.2999999999997
 21
330.6999999999998
 31
0.0
  0
LINE
  5
CB80
330
C9C4
100
AcDbEntity
  8
1
  6
Continuous
100
AcDbLine
 10
777.2999999999997
 20
346.0
 30
0.0
 11
777.2999999999997
 21
344.728427
 31
0.0
  0
ARC
  5
CB81
330
C9C4
100
AcDbEntity
  8
1
  6
Continuous
100
AcDbCircle
 10
776.2999999999999
 20
344.728427
 30
0.0
 40
1.0
100
AcDbArc
 50
315.0
 51
0.0
  0
LINE
  5
CB82
330
C9C4
100
AcDbEntity
  8
1
  6
Continuous
100
AcDbLine
 10
777.007107
 20
344.02132
 30
0.0
 11
775.992893
 21
343.0071069999999
 31
0.0
  0
ARC
  5
CB83
330
C9C4
100
AcDbEntity
  8
1
  6
Continuous
100
AcDbCircle
 10
776.7
 20
342.3
 30
0.0
 40
1.0
100
AcDbArc
 50
135.0
 51
270.0
  0
LINE
  5
CB84
330
C9C4
100
AcDbEntity
  8
1
  6
Continuous
100
AcDbLine
 10
777.2999999999997
 20
341.3
 30
0.0
 11
776.7
 21
341.3
 31
0.0
  0
LINE
  5
CB85
330
C9C4
100
AcDbEntity
  8
1
  6
Continuous
100
AcDbLine
 10
777.2999999999997
 20
330.6999999999998
 30
0.0
 11
777.2999999999997
 21
341.3
 31
0.0
  0
LINE
  5
CB86
330
C9C4
100
AcDbEntity
  8
1
  6
Continuous
100
AcDbLine
 10
777.2999999999997
 20
326.0
 30
0.0
 11
377.3
 21
326.0
 31
0.0
  0
LINE
  5
CB87
330
C9C4
100
AcDbEntity
  8
1
  6
Continuous
100
AcDbLine
 10
377.3
 20
346.0
 30
0.0
 11
377.3
 21
326.0
 31
0.0
  0
LINE
  5
CB88
330
C9C4
100
AcDbEntity
  8
1
  6
Continuous
100
AcDbLine
 10
775.992893
 20
328.9928929999998
 30
0.0
 11
777.007107
 21
327.97868
 31
0.0
  0
ARC
  5
CB89
330
C9C4
100
AcDbEntity
  8
1
  6
Continuous
100
AcDbCircle
 10
776.2999999999999
 20
327.2715729999998
 30
0.0
 40
1.0
100
AcDbArc
 50
0.0
 51
45.0
  0
LINE
  5
CB8A
330
C9C4
100
AcDbEntity
  8
1
  6
Continuous
100
AcDbLine
 10
777.2999999999997
 20
327.2715729999998
 30
0.0
 11
777.2999999999997
 21
326.0
 31
0.0
  0
LINE
  5
CB8B
330
C9C4
100
AcDbEntity
  8
3
  6
DASHED
100
AcDbLine
 10
377.3
 20
342.1499999999999
 30
0.0
 11
480.2999999999998
 21
342.1499999999999
 31
0.0
  0
LINE
  5
CB8C
330
C9C4
100
AcDbEntity
  8
1
  6
Continuous
100
AcDbLine
 10
377.3
 20
329.85
 30
0.0
 11
83.29999999999998
 21
329.85
 31
0.0
  0
LINE
  5
CB8D
330
C9C4
100
AcDbEntity
  8
1
  6
Continuous
100
AcDbLine
 10
380.8
 20
341.3
 30
0.0
 11
380.8
 21
330.6999999999998
 31
0.0
  0
LINE
  5
CB8E
330
C9C4
100
AcDbEntity
  8
1
  6
Continuous
100
AcDbLine
 10
380.8
 20
341.3
 30
0.0
 11
377.3
 21
341.3
 31
0.0
  0
LINE
  5
CB8F
330
C9C4
100
AcDbEntity
  8
1
  6
Continuous
100
AcDbLine
 10
380.8
 20
340.3999999999999
 30
0.0
 11
377.3
 21
340.3999999999999
 31
0.0
  0
LINE
  5
CB90
330
C9C4
100
AcDbEntity
  8
1
  6
Continuous
100
AcDbLine
 10
380.8
 20
330.6999999999998
 30
0.0
 11
377.3
 21
330.6999999999998
 31
0.0
  0
LINE
  5
CB91
330
C9C4
100
AcDbEntity
  8
1
  6
Continuous
100
AcDbLine
 10
380.8
 20
331.6
 30
0.0
 11
377.3
 21
331.6
 31
0.0
  0
LINE
  5
CB92
330
C9C4
100
AcDbEntity
  8
1
  6
Continuous
100
AcDbLine
 10
83.29999999999998
 20
340.225
 30
0.0
 11
377.3
 21
340.225
 31
0.0
  0
LINE
  5
CB93
330
C9C4
100
AcDbEntity
  8
1
  6
Continuous
100
AcDbLine
 10
83.29999999999998
 20
331.7749999999999
 30
0.0
 11
377.3
 21
331.7749999999999
 31
0.0
  0
LINE
  5
CB94
330
C9C4
100
AcDbEntity
  8
3
  6
DASHED
100
AcDbLine
 10
377.3
 20
340.225
 30
0.0
 11
480.2999999999998
 21
340.225
 31
0.0
  0
LINE
  5
CB95
330
C9C4
100
AcDbEntity
  8
3
  6
DASHED
100
AcDbLine
 10
377.3
 20
331.7749999999999
 30
0.0
 11
480.2999999999998
 21
331.7749999999999
 31
0.0
  0
ARC
  5
CB96
330
C9C4
100
AcDbEntity
  8
1
  6
Continuous
100
AcDbCircle
 10
757.6
 20
336.0
 30
0.0
 40
1.6
100
AcDbArc
 50
270.0
 51
90.0
  0
LINE
  5
CB97
330
C9C4
100
AcDbEntity
  8
1
  6
Continuous
100
AcDbLine
 10
757.6
 20
334.3999999999998
 30
0.0
 11
757.0
 21
334.3999999999998
 31
0.0
  0
LINE
  5
CB98
330
C9C4
100
AcDbEntity
  8
1
  6
Continuous
100
AcDbLine
 10
757.0
 20
337.6
 30
0.0
 11
757.6
 21
337.6
 31
0.0
  0
ARC
  5
CB99
330
C9C4
100
AcDbEntity
  8
1
  6
Continuous
100
AcDbCircle
 10
757.0
 20
336.0
 30
0.0
 40
1.6
100
AcDbArc
 50
90.0
 51
270.0
  0
ARC
  5
CB9A
330
C9C4
100
AcDbEntity
  8
1
  6
Continuous
100
AcDbCircle
 10
757.6
 20
142.0
 30
0.0
 40
1.6
100
AcDbArc
 50
270.0
 51
90.0
  0
LINE
  5
CB9B
330
C9C4
100
AcDbEntity
  8
1
  6
Continuous
100
AcDbLine
 10
757.0
 20
140.4
 30
0.0
 11
757.6
 21
140.4
 31
0.0
  0
LINE
  5
CB9C
330
C9C4
100
AcDbEntity
  8
1
  6
Continuous
100
AcDbLine
 10
757.6
 20
143.5999999999999
 30
0.0
 11
757.0
 21
143.5999999999999
 31
0.0
  0
ARC
  5
CB9D
330
C9C4
100
AcDbEntity
  8
1
  6
Continuous
100
AcDbCircle
 10
757.0
 20
142.0
 30
0.0
 40
1.6
100
AcDbArc
 50
90.0
 51
270.0
  0
LINE
  5
CB9E
330
C9C4
100
AcDbEntity
  8
1
  6
Continuous
100
AcDbLine
 10
463.6
 20
140.4
 30
0.0
 11
463.0
 21
140.4
 31
0.0
  0
LINE
  5
CB9F
330
C9C4
100
AcDbEntity
  8
1
  6
Continuous
100
AcDbLine
 10
463.0
 20
143.5999999999999
 30
0.0
 11
463.6
 21
143.5999999999999
 31
0.0
  0
ARC
  5
CBA0
330
C9C4
100
AcDbEntity
  8
1
  6
Continuous
100
AcDbCircle
 10
463.6
 20
142.0
 30
0.0
 40
1.6
100
AcDbArc
 50
270.0
 51
90.0
  0
ARC
  5
CBA1
330
C9C4
100
AcDbEntity
  8
1
  6
Continuous
100
AcDbCircle
 10
463.0
 20
142.0
 30
0.0
 40
1.6
100
AcDbArc
 50
90.0
 51
270.0
  0
LINE
  5
CBA2
330
C9C4
100
AcDbEntity
  8
1
  6
Continuous
100
AcDbLine
 10
448.8
 20
235.8
 30
0.0
 11
440.8
 21
235.8
 31
0.0
  0
LINE
  5
CBA3
330
C9C4
100
AcDbEntity
  8
1
  6
Continuous
100
AcDbLine
 10
440.8
 20
235.8
 30
0.0
 11
440.8
 21
235.9219289999999
 31
0.0
  0
LINE
  5
CBA4
330
C9C4
100
AcDbEntity
  8
1
  6
Continuous
100
AcDbLine
 10
448.8
 20
235.8
 30
0.0
 11
448.8
 21
235.9219289999999
 31
0.0
  0
LINE
  5
CBA5
330
C9C4
100
AcDbEntity
  8
4
  6
CENTER
100
AcDbLine
 10
412.3
 20
144.8880479999999
 30
0.0
 11
412.3
 21
139.4698699999999
 31
0.0
  0
LINE
  5
CBA6
330
C9C4
100
AcDbEntity
  8
1
  6
Continuous
100
AcDbLine
 10
440.8
 20
148.6794999999998
 30
0.0
 11
448.8
 21
148.6794999999998
 31
0.0
  0
LINE
  5
CBA7
330
C9C4
100
AcDbEntity
  8
1
  6
Continuous
100
AcDbLine
 10
440.8
 20
149.1794999999999
 30
0.0
 11
448.8
 21
149.1794999999999
 31
0.0
  0
ARC
  5
CBA8
330
C9C4
100
AcDbEntity
  8
1
  6
Continuous
100
AcDbCircle
 10
444.8
 20
149.0124999999999
 30
0.0
 40
1.587499999999999
100
AcDbArc
 50
192.1085089999999
 51
212.9090519999999
  0
ARC
  5
CBA9
330
C9C4
100
AcDbEntity
  8
1
  6
Continuous
100
AcDbCircle
 10
444.8
 20
149.0124999999999
 30
0.0
 40
1.587499999999999
100
AcDbArc
 50
155.4270199999999
 51
173.9614919999999
  0
ARC
  5
CBAA
330
C9C4
100
AcDbEntity
  8
1
  6
Continuous
100
AcDbCircle
 10
444.8
 20
149.0124999999999
 30
0.0
 40
1.587499999999999
100
AcDbArc
 50
327.090948
 51
347.8914909999998
  0
ARC
  5
CBAB
330
C9C4
100
AcDbEntity
  8
1
  6
Continuous
100
AcDbCircle
 10
444.8
 20
149.0124999999999
 30
0.0
 40
1.587499999999999
100
AcDbArc
 50
6.038508
 51
24.57297999999999
  0
ARC
  5
CBAC
330
C9C4
100
AcDbEntity
  8
1
  6
Continuous
100
AcDbCircle
 10
439.8
 20
148.6794999999998
 30
0.0
 40
1.0
100
AcDbArc
 50
180.0
 51
211.9716779999999
  0
LINE
  5
CBAD
330
C9C4
100
AcDbEntity
  8
1
  6
Continuous
100
AcDbLine
 10
438.7999999999998
 20
148.6794999999998
 30
0.0
 11
438.7999999999998
 21
149.1794999999999
 31
0.0
  0
LINE
  5
CBAE
330
C9C4
100
AcDbEntity
  8
1
  6
Continuous
100
AcDbLine
 10
440.8
 20
148.6794999999998
 30
0.0
 11
440.8
 21
149.1794999999999
 31
0.0
  0
ARC
  5
CBAF
330
C9C4
100
AcDbEntity
  8
1
  6
Continuous
100
AcDbCircle
 10
439.8
 20
148.6794999999998
 30
0.0
 40
1.0
100
AcDbArc
 50
328.028322
 51
0.0
  0
LINE
  5
CBB0
330
C9C4
100
AcDbEntity
  8
1
  6
Continuous
100
AcDbLine
 10
440.8
 20
135.3205
 30
0.0
 11
448.8
 21
135.3205
 31
0.0
  0
LINE
  5
CBB1
330
C9C4
100
AcDbEntity
  8
1
  6
Continuous
100
AcDbLine
 10
440.8
 20
134.8205
 30
0.0
 11
448.8
 21
134.8205
 31
0.0
  0
ARC
  5
CBB2
330
C9C4
100
AcDbEntity
  8
1
  6
Continuous
100
AcDbCircle
 10
444.8
 20
134.9875
 30
0.0
 40
1.587499999999999
100
AcDbArc
 50
186.038508
 51
204.57298
  0
ARC
  5
CBB3
330
C9C4
100
AcDbEntity
  8
1
  6
Continuous
100
AcDbCircle
 10
444.8
 20
134.9875
 30
0.0
 40
1.587499999999999
100
AcDbArc
 50
147.0909479999999
 51
167.891491
  0
ARC
  5
CBB4
330
C9C4
100
AcDbEntity
  8
1
  6
Continuous
100
AcDbCircle
 10
444.8
 20
134.9875
 30
0.0
 40
1.587499999999999
100
AcDbArc
 50
335.4270200000001
 51
353.9614919999999
  0
ARC
  5
CBB5
330
C9C4
100
AcDbEntity
  8
1
  6
Continuous
100
AcDbCircle
 10
444.8
 20
134.9875
 30
0.0
 40
1.587499999999999
100
AcDbArc
 50
12.108509
 51
32.909052
  0
LINE
  5
CBB6
330
C9C4
100
AcDbEntity
  8
1
  6
Continuous
100
AcDbLine
 10
438.7999999999998
 20
135.3205
 30
0.0
 11
438.7999999999998
 21
134.8205
 31
0.0
  0
LINE
  5
CBB7
330
C9C4
100
AcDbEntity
  8
1
  6
Continuous
100
AcDbLine
 10
440.8
 20
135.3205
 30
0.0
 11
440.8
 21
134.8205
 31
0.0
  0
ARC
  5
CBB8
330
C9C4
100
AcDbEntity
  8
1
  6
Continuous
100
AcDbCircle
 10
439.8
 20
135.3205
 30
0.0
 40
1.0
100
AcDbArc
 50
0.0
 51
31.97167800000001
  0
ARC
  5
CBB9
330
C9C4
100
AcDbEntity
  8
1
  6
Continuous
100
AcDbCircle
 10
439.8
 20
135.3205
 30
0.0
 40
1.0
100
AcDbArc
 50
148.028322
 51
180.0
  0
LINE
  5
CBBA
330
C9C4
100
AcDbEntity
  8
1
  6
Continuous
100
AcDbLine
 10
448.8
 20
48.2
 30
0.0
 11
440.8
 21
48.2
 31
0.0
  0
LINE
  5
CBBB
330
C9C4
100
AcDbEntity
  8
1
  6
Continuous
100
AcDbLine
 10
440.8
 20
48.2
 30
0.0
 11
440.8
 21
48.078071
 31
0.0
  0
LINE
  5
CBBC
330
C9C4
100
AcDbEntity
  8
1
  6
Continuous
100
AcDbLine
 10
448.8
 20
48.2
 30
0.0
 11
448.8
 21
48.078071
 31
0.0
  0
LINE
  5
CBBD
330
C9C4
100
AcDbEntity
  8
4
  6
CENTER
100
AcDbLine
 10
368.3
 20
45.89902
 30
0.0
 11
368.3
 21
51.5
 31
0.0
  0
LINE
  5
CBBE
330
C9C4
100
AcDbEntity
  8
4
  6
CENTER
100
AcDbLine
 10
657.2999999999998
 20
38.0
 30
0.0
 11
657.2999999999998
 21
43.28569199999999
 31
0.0
  0
ARC
  5
CBBF
330
C9C4
100
AcDbEntity
  8
1
  6
Continuous
100
AcDbCircle
 10
368.6
 20
142.0
 30
0.0
 40
1.6
100
AcDbArc
 50
270.0
 51
90.0
  0
ARC
  5
CBC0
330
C9C4
100
AcDbEntity
  8
1
  6
Continuous
100
AcDbCircle
 10
368.0
 20
142.0
 30
0.0
 40
1.6
100
AcDbArc
 50
90.0
 51
270.0
  0
LINE
  5
CBC1
330
C9C4
100
AcDbEntity
  8
1
  6
Continuous
100
AcDbLine
 10
368.6
 20
143.5999999999999
 30
0.0
 11
368.0
 21
143.5999999999999
 31
0.0
  0
LINE
  5
CBC2
330
C9C4
100
AcDbEntity
  8
1
  6
Continuous
100
AcDbLine
 10
368.0
 20
140.4
 30
0.0
 11
368.6
 21
140.4
 31
0.0
  0
LINE
  5
CBC3
330
C9C4
100
AcDbEntity
  8
4
  6
CENTER
100
AcDbLine
 10
368.3
 20
144.978351
 30
0.0
 11
368.3
 21
139.018355
 31
0.0
  0
LINE
  5
CBC4
330
C9C4
100
AcDbEntity
  8
4
  6
CENTER
100
AcDbLine
 10
657.2999999999998
 20
145.429866
 30
0.0
 11
657.2999999999998
 21
139.1086579999999
 31
0.0
  0
LINE
  5
CBC5
330
C9C4
100
AcDbEntity
  8
1
  6
Continuous
100
AcDbLine
 10
657.0
 20
140.4
 30
0.0
 11
657.6
 21
140.4
 31
0.0
  0
LINE
  5
CBC6
330
C9C4
100
AcDbEntity
  8
1
  6
Continuous
100
AcDbLine
 10
657.6
 20
143.5999999999999
 30
0.0
 11
657.0
 21
143.5999999999999
 31
0.0
  0
ARC
  5
CBC7
330
C9C4
100
AcDbEntity
  8
1
  6
Continuous
100
AcDbCircle
 10
657.0
 20
142.0
 30
0.0
 40
1.6
100
AcDbArc
 50
90.0
 51
270.0
  0
ARC
  5
CBC8
330
C9C4
100
AcDbEntity
  8
1
  6
Continuous
100
AcDbCircle
 10
657.6
 20
142.0
 30
0.0
 40
1.6
100
AcDbArc
 50
270.0
 51
90.0
  0
LINE
  5
CBC9
330
C9C4
100
AcDbEntity
  8
4
  6
CENTER
100
AcDbLine
 10
368.3
 20
238.10098
 30
0.0
 11
368.3
 21
232.5
 31
0.0
  0
LINE
  5
CBCA
330
C9C4
100
AcDbEntity
  8
4
  6
CENTER
100
AcDbLine
 10
657.2999999999998
 20
246.0
 30
0.0
 11
657.2999999999998
 21
240.7143079999999
 31
0.0
  0
ARC
  5
CBCB
330
C9C4
100
AcDbEntity
  8
1
  6
Continuous
100
AcDbCircle
 10
657.6
 20
336.0
 30
0.0
 40
1.6
100
AcDbArc
 50
270.0
 51
90.0
  0
LINE
  5
CBCC
330
C9C4
100
AcDbEntity
  8
1
  6
Continuous
100
AcDbLine
 10
657.6
 20
334.3999999999998
 30
0.0
 11
657.0
 21
334.3999999999998
 31
0.0
  0
LINE
  5
CBCD
330
C9C4
100
AcDbEntity
  8
1
  6
Continuous
100
AcDbLine
 10
657.0
 20
337.6
 30
0.0
 11
657.6
 21
337.6
 31
0.0
  0
LINE
  5
CBCE
330
C9C4
100
AcDbEntity
  8
4
  6
CENTER
100
AcDbLine
 10
657.2999999999998
 20
332.570134
 30
0.0
 11
657.2999999999998
 21
338.891342
 31
0.0
  0
ARC
  5
CBCF
330
C9C4
100
AcDbEntity
  8
1
  6
Continuous
100
AcDbCircle
 10
657.0
 20
336.0
 30
0.0
 40
1.6
100
AcDbArc
 50
90.0
 51
270.0
  0
ARC
  5
CBD0
330
C9C4
100
AcDbEntity
  8
1
  6
Continuous
100
AcDbCircle
 10
368.6
 20
336.0
 30
0.0
 40
1.6
100
AcDbArc
 50
270.0
 51
90.0
  0
ARC
  5
CBD1
330
C9C4
100
AcDbEntity
  8
1
  6
Continuous
100
AcDbCircle
 10
368.0
 20
336.0
 30
0.0
 40
1.6
100
AcDbArc
 50
90.0
 51
270.0
  0
LINE
  5
CBD2
330
C9C4
100
AcDbEntity
  8
4
  6
CENTER
100
AcDbLine
 10
368.3
 20
333.021649
 30
0.0
 11
368.3
 21
338.981645
 31
0.0
  0
LINE
  5
CBD3
330
C9C4
100
AcDbEntity
  8
1
  6
Continuous
100
AcDbLine
 10
368.0
 20
337.6
 30
0.0
 11
368.6
 21
337.6
 31
0.0
  0
LINE
  5
CBD4
330
C9C4
100
AcDbEntity
  8
1
  6
Continuous
100
AcDbLine
 10
368.6
 20
334.3999999999998
 30
0.0
 11
368.0
 21
334.3999999999998
 31
0.0
  0
LINE
  5
CBD5
330
C9C4
100
AcDbEntity
  8
1
  6
Continuous
100
AcDbLine
 10
458.8
 20
235.8
 30
0.0
 11
450.8
 21
235.8
 31
0.0
  0
LINE
  5
CBD6
330
C9C4
100
AcDbEntity
  8
1
  6
Continuous
100
AcDbLine
 10
450.8
 20
235.8
 30
0.0
 11
450.8
 21
235.9219289999999
 31
0.0
  0
LINE
  5
CBD7
330
C9C4
100
AcDbEntity
  8
1
  6
Continuous
100
AcDbLine
 10
458.8
 20
235.8
 30
0.0
 11
458.8
 21
235.9219289999999
 31
0.0
  0
LINE
  5
CBD8
330
C9C4
100
AcDbEntity
  8
1
  6
Continuous
100
AcDbLine
 10
468.8
 20
235.8
 30
0.0
 11
460.8
 21
235.8
 31
0.0
  0
LINE
  5
CBD9
330
C9C4
100
AcDbEntity
  8
1
  6
Continuous
100
AcDbLine
 10
460.8
 20
235.8
 30
0.0
 11
460.8
 21
235.9219289999999
 31
0.0
  0
LINE
  5
CBDA
330
C9C4
100
AcDbEntity
  8
1
  6
Continuous
100
AcDbLine
 10
478.8
 20
235.8
 30
0.0
 11
470.8
 21
235.8
 31
0.0
  0
LINE
  5
CBDB
330
C9C4
100
AcDbEntity
  8
1
  6
Continuous
100
AcDbLine
 10
470.8
 20
235.8
 30
0.0
 11
470.8
 21
235.9219289999999
 31
0.0
  0
LINE
  5
CBDC
330
C9C4
100
AcDbEntity
  8
1
  6
Continuous
100
AcDbLine
 10
468.8
 20
235.8
 30
0.0
 11
468.8
 21
235.9219289999999
 31
0.0
  0
LINE
  5
CBDD
330
C9C4
100
AcDbEntity
  8
1
  6
Continuous
100
AcDbLine
 10
478.8
 20
235.8
 30
0.0
 11
478.8
 21
235.9219289999999
 31
0.0
  0
LINE
  5
CBDE
330
C9C4
100
AcDbEntity
  8
1
  6
Continuous
100
AcDbLine
 10
470.8
 20
134.8205
 30
0.0
 11
478.8
 21
134.8205
 31
0.0
  0
LINE
  5
CBDF
330
C9C4
100
AcDbEntity
  8
1
  6
Continuous
100
AcDbLine
 10
470.8
 20
135.3205
 30
0.0
 11
478.8
 21
135.3205
 31
0.0
  0
LINE
  5
CBE0
330
C9C4
100
AcDbEntity
  8
1
  6
Continuous
100
AcDbLine
 10
450.8
 20
134.8205
 30
0.0
 11
458.8
 21
134.8205
 31
0.0
  0
LINE
  5
CBE1
330
C9C4
100
AcDbEntity
  8
1
  6
Continuous
100
AcDbLine
 10
450.8
 20
135.3205
 30
0.0
 11
458.8
 21
135.3205
 31
0.0
  0
ARC
  5
CBE2
330
C9C4
100
AcDbEntity
  8
1
  6
Continuous
100
AcDbCircle
 10
454.8
 20
134.9875
 30
0.0
 40
1.587499999999999
100
AcDbArc
 50
186.038508
 51
204.57298
  0
ARC
  5
CBE3
330
C9C4
100
AcDbEntity
  8
1
  6
Continuous
100
AcDbCircle
 10
454.8
 20
134.9875
 30
0.0
 40
1.587499999999999
100
AcDbArc
 50
147.0909479999999
 51
167.891491
  0
ARC
  5
CBE4
330
C9C4
100
AcDbEntity
  8
1
  6
Continuous
100
AcDbCircle
 10
449.8
 20
135.3205
 30
0.0
 40
1.0
100
AcDbArc
 50
148.028322
 51
180.0
  0
ARC
  5
CBE5
330
C9C4
100
AcDbEntity
  8
1
  6
Continuous
100
AcDbCircle
 10
449.8
 20
135.3205
 30
0.0
 40
1.0
100
AcDbArc
 50
0.0
 51
31.97167800000001
  0
LINE
  5
CBE6
330
C9C4
100
AcDbEntity
  8
1
  6
Continuous
100
AcDbLine
 10
450.8
 20
134.8205
 30
0.0
 11
450.8
 21
135.3205
 31
0.0
  0
LINE
  5
CBE7
330
C9C4
100
AcDbEntity
  8
1
  6
Continuous
100
AcDbLine
 10
448.8
 20
135.3205
 30
0.0
 11
448.8
 21
134.8205
 31
0.0
  0
ARC
  5
CBE8
330
C9C4
100
AcDbEntity
  8
1
  6
Continuous
100
AcDbCircle
 10
469.8
 20
135.3205
 30
0.0
 40
1.0
100
AcDbArc
 50
148.028322
 51
180.0
  0
ARC
  5
CBE9
330
C9C4
100
AcDbEntity
  8
1
  6
Continuous
100
AcDbCircle
 10
469.8
 20
135.3205
 30
0.0
 40
1.0
100
AcDbArc
 50
0.0
 51
31.97167800000001
  0
LINE
  5
CBEA
330
C9C4
100
AcDbEntity
  8
1
  6
Continuous
100
AcDbLine
 10
470.8
 20
135.3205
 30
0.0
 11
470.8
 21
134.8205
 31
0.0
  0
LINE
  5
CBEB
330
C9C4
100
AcDbEntity
  8
1
  6
Continuous
100
AcDbLine
 10
468.8
 20
135.3205
 30
0.0
 11
468.8
 21
134.8205
 31
0.0
  0
ARC
  5
CBEC
330
C9C4
100
AcDbEntity
  8
1
  6
Continuous
100
AcDbCircle
 10
464.8
 20
134.9875
 30
0.0
 40
1.587499999999999
100
AcDbArc
 50
12.108509
 51
32.909052
  0
ARC
  5
CBED
330
C9C4
100
AcDbEntity
  8
1
  6
Continuous
100
AcDbCircle
 10
464.8
 20
134.9875
 30
0.0
 40
1.587499999999999
100
AcDbArc
 50
335.4270200000001
 51
353.9614919999999
  0
ARC
  5
CBEE
330
C9C4
100
AcDbEntity
  8
1
  6
Continuous
100
AcDbCircle
 10
464.8
 20
134.9875
 30
0.0
 40
1.587499999999999
100
AcDbArc
 50
147.0909479999999
 51
167.891491
  0
ARC
  5
CBEF
330
C9C4
100
AcDbEntity
  8
1
  6
Continuous
100
AcDbCircle
 10
464.8
 20
134.9875
 30
0.0
 40
1.587499999999999
100
AcDbArc
 50
186.038508
 51
204.57298
  0
ARC
  5
CBF0
330
C9C4
100
AcDbEntity
  8
1
  6
Continuous
100
AcDbCircle
 10
454.8
 20
134.9875
 30
0.0
 40
1.587499999999999
100
AcDbArc
 50
335.4270200000001
 51
353.9614919999999
  0
ARC
  5
CBF1
330
C9C4
100
AcDbEntity
  8
1
  6
Continuous
100
AcDbCircle
 10
454.8
 20
134.9875
 30
0.0
 40
1.587499999999999
100
AcDbArc
 50
12.108509
 51
32.909052
  0
ARC
  5
CBF2
330
C9C4
100
AcDbEntity
  8
1
  6
Continuous
100
AcDbCircle
 10
459.7999999999998
 20
135.3205
 30
0.0
 40
1.0
100
AcDbArc
 50
148.028322
 51
180.0
  0
ARC
  5
CBF3
330
C9C4
100
AcDbEntity
  8
1
  6
Continuous
100
AcDbCircle
 10
459.7999999999998
 20
135.3205
 30
0.0
 40
1.0
100
AcDbArc
 50
0.0
 51
31.97167800000001
  0
LINE
  5
CBF4
330
C9C4
100
AcDbEntity
  8
1
  6
Continuous
100
AcDbLine
 10
460.8
 20
134.8205
 30
0.0
 11
468.8
 21
134.8205
 31
0.0
  0
LINE
  5
CBF5
330
C9C4
100
AcDbEntity
  8
1
  6
Continuous
100
AcDbLine
 10
460.8
 20
135.3205
 30
0.0
 11
468.8
 21
135.3205
 31
0.0
  0
LINE
  5
CBF6
330
C9C4
100
AcDbEntity
  8
1
  6
Continuous
100
AcDbLine
 10
460.8
 20
135.3205
 30
0.0
 11
460.8
 21
134.8205
 31
0.0
  0
LINE
  5
CBF7
330
C9C4
100
AcDbEntity
  8
1
  6
Continuous
100
AcDbLine
 10
458.8
 20
135.3205
 30
0.0
 11
458.8
 21
134.8205
 31
0.0
  0
LINE
  5
CBF8
330
C9C4
100
AcDbEntity
  8
1
  6
Continuous
100
AcDbLine
 10
478.8
 20
135.85
 30
0.0
 11
478.8
 21
134.8205
 31
0.0
  0
ARC
  5
CBF9
330
C9C4
100
AcDbEntity
  8
1
  6
Continuous
100
AcDbCircle
 10
474.8
 20
134.9875
 30
0.0
 40
1.587499999999999
100
AcDbArc
 50
12.108509
 51
32.909052
  0
ARC
  5
CBFA
330
C9C4
100
AcDbEntity
  8
1
  6
Continuous
100
AcDbCircle
 10
474.8
 20
134.9875
 30
0.0
 40
1.587499999999999
100
AcDbArc
 50
335.4270200000001
 51
353.9614919999999
  0
ARC
  5
CBFB
330
C9C4
100
AcDbEntity
  8
1
  6
Continuous
100
AcDbCircle
 10
474.8
 20
134.9875
 30
0.0
 40
1.587499999999999
100
AcDbArc
 50
147.0909479999999
 51
167.891491
  0
ARC
  5
CBFC
330
C9C4
100
AcDbEntity
  8
1
  6
Continuous
100
AcDbCircle
 10
474.8
 20
134.9875
 30
0.0
 40
1.587499999999999
100
AcDbArc
 50
186.038508
 51
204.57298
  0
LINE
  5
CBFD
330
C9C4
100
AcDbEntity
  8
1
  6
Continuous
100
AcDbLine
 10
470.8
 20
149.1794999999999
 30
0.0
 11
478.8
 21
149.1794999999999
 31
0.0
  0
LINE
  5
CBFE
330
C9C4
100
AcDbEntity
  8
1
  6
Continuous
100
AcDbLine
 10
470.8
 20
148.6794999999998
 30
0.0
 11
478.8
 21
148.6794999999998
 31
0.0
  0
LINE
  5
CBFF
330
C9C4
100
AcDbEntity
  8
1
  6
Continuous
100
AcDbLine
 10
450.8
 20
149.1794999999999
 30
0.0
 11
458.8
 21
149.1794999999999
 31
0.0
  0
LINE
  5
CC00
330
C9C4
100
AcDbEntity
  8
1
  6
Continuous
100
AcDbLine
 10
450.8
 20
148.6794999999998
 30
0.0
 11
458.8
 21
148.6794999999998
 31
0.0
  0
ARC
  5
CC01
330
C9C4
100
AcDbEntity
  8
1
  6
Continuous
100
AcDbCircle
 10
454.8
 20
149.0124999999999
 30
0.0
 40
1.587499999999999
100
AcDbArc
 50
192.1085089999999
 51
212.9090519999999
  0
ARC
  5
CC02
330
C9C4
100
AcDbEntity
  8
1
  6
Continuous
100
AcDbCircle
 10
454.8
 20
149.0124999999999
 30
0.0
 40
1.587499999999999
100
AcDbArc
 50
155.4270199999999
 51
173.9614919999999
  0
ARC
  5
CC03
330
C9C4
100
AcDbEntity
  8
1
  6
Continuous
100
AcDbCircle
 10
449.8
 20
148.6794999999998
 30
0.0
 40
1.0
100
AcDbArc
 50
328.028322
 51
0.0
  0
LINE
  5
CC04
330
C9C4
100
AcDbEntity
  8
1
  6
Continuous
100
AcDbLine
 10
450.8
 20
149.1794999999999
 30
0.0
 11
450.8
 21
148.6794999999998
 31
0.0
  0
LINE
  5
CC05
330
C9C4
100
AcDbEntity
  8
1
  6
Continuous
100
AcDbLine
 10
448.8
 20
148.6794999999998
 30
0.0
 11
448.8
 21
149.1794999999999
 31
0.0
  0
ARC
  5
CC06
330
C9C4
100
AcDbEntity
  8
1
  6
Continuous
100
AcDbCircle
 10
449.8
 20
148.6794999999998
 30
0.0
 40
1.0
100
AcDbArc
 50
180.0
 51
211.9716779999999
  0
ARC
  5
CC07
330
C9C4
100
AcDbEntity
  8
1
  6
Continuous
100
AcDbCircle
 10
469.8
 20
148.6794999999998
 30
0.0
 40
1.0
100
AcDbArc
 50
328.028322
 51
0.0
  0
LINE
  5
CC08
330
C9C4
100
AcDbEntity
  8
1
  6
Continuous
100
AcDbLine
 10
470.8
 20
148.6794999999998
 30
0.0
 11
470.8
 21
149.1794999999999
 31
0.0
  0
LINE
  5
CC09
330
C9C4
100
AcDbEntity
  8
1
  6
Continuous
100
AcDbLine
 10
468.8
 20
148.6794999999998
 30
0.0
 11
468.8
 21
149.1794999999999
 31
0.0
  0
ARC
  5
CC0A
330
C9C4
100
AcDbEntity
  8
1
  6
Continuous
100
AcDbCircle
 10
469.8
 20
148.6794999999998
 30
0.0
 40
1.0
100
AcDbArc
 50
180.0
 51
211.9716779999999
  0
ARC
  5
CC0B
330
C9C4
100
AcDbEntity
  8
1
  6
Continuous
100
AcDbCircle
 10
464.8
 20
149.0124999999999
 30
0.0
 40
1.587499999999999
100
AcDbArc
 50
6.038508
 51
24.57297999999999
  0
ARC
  5
CC0C
330
C9C4
100
AcDbEntity
  8
1
  6
Continuous
100
AcDbCircle
 10
464.8
 20
149.0124999999999
 30
0.0
 40
1.587499999999999
100
AcDbArc
 50
327.090948
 51
347.8914909999998
  0
ARC
  5
CC0D
330
C9C4
100
AcDbEntity
  8
1
  6
Continuous
100
AcDbCircle
 10
464.8
 20
149.0124999999999
 30
0.0
 40
1.587499999999999
100
AcDbArc
 50
155.4270199999999
 51
173.9614919999999
  0
ARC
  5
CC0E
330
C9C4
100
AcDbEntity
  8
1
  6
Continuous
100
AcDbCircle
 10
464.8
 20
149.0124999999999
 30
0.0
 40
1.587499999999999
100
AcDbArc
 50
192.1085089999999
 51
212.9090519999999
  0
ARC
  5
CC0F
330
C9C4
100
AcDbEntity
  8
1
  6
Continuous
100
AcDbCircle
 10
454.8
 20
149.0124999999999
 30
0.0
 40
1.587499999999999
100
AcDbArc
 50
327.090948
 51
347.8914909999998
  0
ARC
  5
CC10
330
C9C4
100
AcDbEntity
  8
1
  6
Continuous
100
AcDbCircle
 10
454.8
 20
149.0124999999999
 30
0.0
 40
1.587499999999999
100
AcDbArc
 50
6.038508
 51
24.57297999999999
  0
ARC
  5
CC11
330
C9C4
100
AcDbEntity
  8
1
  6
Continuous
100
AcDbCircle
 10
459.7999999999998
 20
148.6794999999998
 30
0.0
 40
1.0
100
AcDbArc
 50
328.028322
 51
0.0
  0
LINE
  5
CC12
330
C9C4
100
AcDbEntity
  8
1
  6
Continuous
100
AcDbLine
 10
460.8
 20
149.1794999999999
 30
0.0
 11
468.8
 21
149.1794999999999
 31
0.0
  0
LINE
  5
CC13
330
C9C4
100
AcDbEntity
  8
1
  6
Continuous
100
AcDbLine
 10
460.8
 20
148.6794999999998
 30
0.0
 11
468.8
 21
148.6794999999998
 31
0.0
  0
LINE
  5
CC14
330
C9C4
100
AcDbEntity
  8
1
  6
Continuous
100
AcDbLine
 10
460.8
 20
148.6794999999998
 30
0.0
 11
460.8
 21
149.1794999999999
 31
0.0
  0
LINE
  5
CC15
330
C9C4
100
AcDbEntity
  8
1
  6
Continuous
100
AcDbLine
 10
458.8
 20
148.6794999999998
 30
0.0
 11
458.8
 21
149.1794999999999
 31
0.0
  0
ARC
  5
CC16
330
C9C4
100
AcDbEntity
  8
1
  6
Continuous
100
AcDbCircle
 10
459.7999999999998
 20
148.6794999999998
 30
0.0
 40
1.0
100
AcDbArc
 50
180.0
 51
211.9716779999999
  0
LINE
  5
CC17
330
C9C4
100
AcDbEntity
  8
1
  6
Continuous
100
AcDbLine
 10
478.8
 20
149.1999999999999
 30
0.0
 11
478.8
 21
148.15
 31
0.0
  0
ARC
  5
CC18
330
C9C4
100
AcDbEntity
  8
1
  6
Continuous
100
AcDbCircle
 10
474.8
 20
149.0124999999999
 30
0.0
 40
1.587499999999999
100
AcDbArc
 50
6.038508
 51
24.57297999999999
  0
ARC
  5
CC19
330
C9C4
100
AcDbEntity
  8
1
  6
Continuous
100
AcDbCircle
 10
474.8
 20
149.0124999999999
 30
0.0
 40
1.587499999999999
100
AcDbArc
 50
327.090948
 51
347.8914909999998
  0
ARC
  5
CC1A
330
C9C4
100
AcDbEntity
  8
1
  6
Continuous
100
AcDbCircle
 10
474.8
 20
149.0124999999999
 30
0.0
 40
1.587499999999999
100
AcDbArc
 50
155.4270199999999
 51
173.9614919999999
  0
ARC
  5
CC1B
330
C9C4
100
AcDbEntity
  8
1
  6
Continuous
100
AcDbCircle
 10
474.8
 20
149.0124999999999
 30
0.0
 40
1.587499999999999
100
AcDbArc
 50
192.1085089999999
 51
212.9090519999999
  0
LINE
  5
CC1C
330
C9C4
100
AcDbEntity
  8
1
  6
Continuous
100
AcDbLine
 10
468.8
 20
48.2
 30
0.0
 11
460.8
 21
48.2
 31
0.0
  0
LINE
  5
CC1D
330
C9C4
100
AcDbEntity
  8
1
  6
Continuous
100
AcDbLine
 10
460.8
 20
48.2
 30
0.0
 11
460.8
 21
48.078071
 31
0.0
  0
LINE
  5
CC1E
330
C9C4
100
AcDbEntity
  8
1
  6
Continuous
100
AcDbLine
 10
458.8
 20
48.2
 30
0.0
 11
458.8
 21
48.078071
 31
0.0
  0
LINE
  5
CC1F
330
C9C4
100
AcDbEntity
  8
1
  6
Continuous
100
AcDbLine
 10
450.8
 20
48.2
 30
0.0
 11
450.8
 21
48.078071
 31
0.0
  0
LINE
  5
CC20
330
C9C4
100
AcDbEntity
  8
1
  6
Continuous
100
AcDbLine
 10
458.8
 20
48.2
 30
0.0
 11
450.8
 21
48.2
 31
0.0
  0
LINE
  5
CC21
330
C9C4
100
AcDbEntity
  8
1
  6
Continuous
100
AcDbLine
 10
468.8
 20
48.2
 30
0.0
 11
468.8
 21
48.078071
 31
0.0
  0
LINE
  5
CC22
330
C9C4
100
AcDbEntity
  8
1
  6
Continuous
100
AcDbLine
 10
478.8
 20
48.2
 30
0.0
 11
478.8
 21
48.078071
 31
0.0
  0
LINE
  5
CC23
330
C9C4
100
AcDbEntity
  8
1
  6
Continuous
100
AcDbLine
 10
470.8
 20
48.2
 30
0.0
 11
470.8
 21
48.078071
 31
0.0
  0
LINE
  5
CC24
330
C9C4
100
AcDbEntity
  8
1
  6
Continuous
100
AcDbLine
 10
478.8
 20
48.2
 30
0.0
 11
470.8
 21
48.2
 31
0.0
  0
LINE
  5
CC25
330
C9C4
100
AcDbEntity
  8
5
  6
PHANTOM
100
AcDbLine
 10
480.2999999999998
 20
135.85
 30
0.0
 11
774.2999999999997
 21
135.85
 31
0.0
  0
LINE
  5
CC26
330
C9C4
100
AcDbEntity
  8
5
  6
PHANTOM
100
AcDbLine
 10
774.2999999999997
 20
148.15
 30
0.0
 11
480.2999999999998
 21
148.15
 31
0.0
  0
LINE
  5
CC27
330
C9C4
100
AcDbEntity
  8
5
  6
PHANTOM
100
AcDbLine
 10
774.2999999999997
 20
135.85
 30
0.0
 11
774.2999999999997
 21
148.15
 31
0.0
  0
LINE
  5
CC28
330
C9C4
100
AcDbEntity
  8
5
  6
PHANTOM
100
AcDbLine
 10
774.2999999999997
 20
142.0
 30
0.0
 11
771.2999999999997
 21
142.0
 31
0.0
  0
LINE
  5
CC29
330
C9C4
100
AcDbEntity
  8
5
  6
PHANTOM
100
AcDbLine
 10
771.2999999999997
 20
142.0
 30
0.0
 11
774.2999999999997
 21
141.0
 31
0.0
  0
LINE
  5
CC2A
330
C9C4
100
AcDbEntity
  8
5
  6
PHANTOM
100
AcDbLine
 10
774.2999999999997
 20
143.0
 30
0.0
 11
771.2999999999997
 21
142.0
 31
0.0
  0
CIRCLE
  5
CC2B
330
C9C4
100
AcDbEntity
  8
5
  6
PHANTOM
100
AcDbCircle
 10
397.3
 20
142.0
 30
0.0
 40
1.6
  0
LINE
  5
CC2C
330
C9C4
100
AcDbEntity
  8
5
  6
PHANTOM
100
AcDbLine
 10
412.0
 20
140.4
 30
0.0
 11
412.6
 21
140.4
 31
0.0
  0
LINE
  5
CC2D
330
C9C4
100
AcDbEntity
  8
5
  6
PHANTOM
100
AcDbLine
 10
412.6
 20
143.5999999999999
 30
0.0
 11
412.0
 21
143.5999999999999
 31
0.0
  0
ARC
  5
CC2E
330
C9C4
100
AcDbEntity
  8
5
  6
PHANTOM
100
AcDbCircle
 10
412.0
 20
142.0
 30
0.0
 40
1.6
100
AcDbArc
 50
90.0
 51
270.0
  0
ARC
  5
CC2F
330
C9C4
100
AcDbEntity
  8
5
  6
PHANTOM
100
AcDbCircle
 10
412.6
 20
142.0
 30
0.0
 40
1.6
100
AcDbArc
 50
270.0
 51
90.0
  0
LINE
  5
CC30
330
C9C4
100
AcDbEntity
  8
4
  6
CENTER
100
AcDbLine
 10
452.3
 20
146.9499999999999
 30
0.0
 11
452.3
 21
137.05
 31
0.0
  0
CIRCLE
  5
CC31
330
C9C4
100
AcDbEntity
  8
5
  6
PHANTOM
100
AcDbCircle
 10
452.3
 20
142.0
 30
0.0
 40
3.649999999999999
  0
LINE
  5
CC32
330
C9C4
100
AcDbEntity
  8
4
  6
CENTER
100
AcDbLine
 10
662.2999999999998
 20
144.978351
 30
0.0
 11
662.2999999999998
 21
139.018355
 31
0.0
  0
ARC
  5
CC33
330
C9C4
100
AcDbEntity
  8
5
  6
PHANTOM
100
AcDbCircle
 10
662.0
 20
142.0
 30
0.0
 40
1.6
100
AcDbArc
 50
90.0
 51
270.0
  0
LINE
  5
CC34
330
C9C4
100
AcDbEntity
  8
5
  6
PHANTOM
100
AcDbLine
 10
662.6
 20
143.5999999999999
 30
0.0
 11
662.0
 21
143.5999999999999
 31
0.0
  0
LINE
  5
CC35
330
C9C4
100
AcDbEntity
  8
5
  6
PHANTOM
100
AcDbLine
 10
662.0
 20
140.4
 30
0.0
 11
662.6
 21
140.4
 31
0.0
  0
ARC
  5
CC36
330
C9C4
100
AcDbEntity
  8
5
  6
PHANTOM
100
AcDbCircle
 10
662.6
 20
142.0
 30
0.0
 40
1.6
100
AcDbArc
 50
270.0
 51
90.0
  0
ENDSEC
  0
SECTION
  2
OBJECTS
  0
DICTIONARY
  5
C9B2
330
0
100
AcDbDictionary
281
     1
  3
ACAD_CIP_PREVIOUS_PRODUCT_INFO
350
CC96
  3
ACAD_COLOR
350
CC78
  3
ACAD_DETAILVIEWSTYLE
350
CC91
  3
ACAD_GROUP
350
C9B3
  3
ACAD_LAYOUT
350
C9BF
  3
ACAD_MATERIAL
350
CC46
  3
ACAD_MLEADERSTYLE
350
CC8D
  3
ACAD_MLINESTYLE
350
C9BC
  3
ACAD_PLOTSETTINGS
350
C9BE
  3
ACAD_PLOTSTYLENAME
350
CC44
  3
ACAD_SCALELIST
350
CC7B
  3
ACAD_SECTIONVIEWSTYLE
350
CC8F
  3
ACAD_TABLESTYLE
350
CC79
  3
ACAD_VISUALSTYLE
350
CC5F
  3
ACDB_RECOMPOSE_DATA
350
CCB4
  3
AcDbVariableDictionary
350
CCA7
  3
DWGPROPS
350
CCB5
  0
DICTIONARY
  5
CC97
330
C9B6
100
AcDbDictionary
280
     1
281
     1
  3
ADSK_XREC_LAYER_RECONCILED
360
CC98
  0
DICTIONARY
  5
CC99
330
C9CC
100
AcDbDictionary
280
     1
281
     1
  3
ADSK_XREC_LAYER_RECONCILED
360
CC9A
  0
DICTIONARY
  5
CC9B
330
C9CD
100
AcDbDictionary
280
     1
281
     1
  3
ADSK_XREC_LAYER_RECONCILED
360
CC9C
  0
DICTIONARY
  5
CC9D
330
C9CE
100
AcDbDictionary
280
     1
281
     1
  3
ADSK_XREC_LAYER_RECONCILED
360
CC9E
  0
DICTIONARY
  5
CC9F
330
C9CF
100
AcDbDictionary
280
     1
281
     1
  3
ADSK_XREC_LAYER_RECONCILED
360
CCA0
  0
DICTIONARY
  5
CCA1
330
C9D0
100
AcDbDictionary
280
     1
281
     1
  3
ADSK_XREC_LAYER_RECONCILED
360
CCA2
  0
DICTIONARY
  5
CCA3
330
C9D1
100
AcDbDictionary
280
     1
281
     1
  3
ADSK_XREC_LAYER_RECONCILED
360
CCA4
  0
DICTIONARY
  5
CCA5
330
C9D2
100
AcDbDictionary
280
     1
281
     1
  3
ADSK_XREC_LAYER_RECONCILED
360
CCA6
  0
DICTIONARY
  5
CC3F
330
C9C4
100
AcDbDictionary
281
     1
  3
ACAD_LAYOUTSELFREF
350
CC40
  0
DICTIONARY
  5
CC3D
330
C9C0
100
AcDbDictionary
281
     1
  3
ACAD_LAYOUTSELFREF
350
CC3E
  0
XRECORD
  5
CC96
102
{ACAD_REACTORS
330
C9B2
102
}
330
C9B2
100
AcDbXrecord
280
     1
300
ACDLT
300
2014
300
ACDLT_F_S
  0
DICTIONARY
  5
CC78
102
{ACAD_REACTORS
330
C9B2
102
}
330
C9B2
100
AcDbDictionary
281
     1
  0
DICTIONARY
  5
CC91
102
{ACAD_REACTORS
330
C9B2
102
}
330
C9B2
100
AcDbDictionary
281
     1
  3
Imperial24
350
CC92
  0
DICTIONARY
  5
C9B3
102
{ACAD_REACTORS
330
C9B2
102
}
330
C9B2
100
AcDbDictionary
281
     1
  0
DICTIONARY
  5
C9BF
102
{ACAD_REACTORS
330
C9B2
102
}
330
C9B2
100
AcDbDictionary
281
     1
  3
Model
350
CC93
  3
レイアウト1
350
CC94
  0
DICTIONARY
  5
CC46
102
{ACAD_REACTORS
330
C9B2
102
}
330
C9B2
100
AcDbDictionary
281
     1
  3
ByBlock
350
CC4F
  3
ByLayer
350
CC47
  3
Global
350
CC57
  0
DICTIONARY
  5
CC8D
102
{ACAD_REACTORS
330
C9B2
102
}
330
C9B2
100
AcDbDictionary
281
     1
  3
Standard
350
CC8E
  0
DICTIONARY
  5
C9BC
102
{ACAD_REACTORS
330
C9B2
102
}
330
C9B2
100
AcDbDictionary
281
     1
  3
STANDARD
350
C9BD
  0
DICTIONARY
  5
C9BE
102
{ACAD_REACTORS
330
C9B2
102
}
330
C9B2
100
AcDbDictionary
281
     1
  0
ACDBDICTIONARYWDFLT
  5
CC44
102
{ACAD_REACTORS
330
C9B2
102
}
330
C9B2
100
AcDbDictionary
281
     1
  3
Normal
350
CC45
100
AcDbDictionaryWithDefault
340
CC45
  0
DICTIONARY
  5
CC7B
102
{ACAD_REACTORS
330
C9B2
102
}
330
C9B2
100
AcDbDictionary
281
     1
  3
A0
350
CC7C
  3
A1
350
CC7D
  3
A2
350
CC7E
  3
A3
350
CC7F
  3
A4
350
CC80
  3
A5
350
CC81
  3
A6
350
CC82
  3
A7
350
CC83
  3
A8
350
CC84
  3
A9
350
CC85
  3
B0
350
CC86
  3
B1
350
CC87
  3
B2
350
CC88
  3
B3
350
CC89
  3
B4
350
CC8A
  3
B5
350
CC8B
  3
B6
350
CC8C
  0
DICTIONARY
  5
CC8F
102
{ACAD_REACTORS
330
C9B2
102
}
330
C9B2
100
AcDbDictionary
281
     1
  3
Imperial24
350
CC90
  0
DICTIONARY
  5
CC79
102
{ACAD_REACTORS
330
C9B2
102
}
330
C9B2
100
AcDbDictionary
281
     1
  3
Standard
350
CC7A
  0
DICTIONARY
  5
CC5F
102
{ACAD_REACTORS
330
C9B2
102
}
330
C9B2
100
AcDbDictionary
281
     1
  3
2dWireframe
350
CC65
  3
Basic
350
CC64
  3
Brighten
350
CC6B
  3
ColorChange
350
CC6F
  3
Conceptual
350
CC68
  3
Dim
350
CC6A
  3
EdgeColorOff
350
CC77
  3
Facepattern
350
CC6E
  3
Flat
350
CC60
  3
FlatWithEdges
350
CC61
  3
Gouraud
350
CC62
  3
GouraudWithEdges
350
CC63
  3
Hidden
350
CC67
  3
JitterOff
350
CC75
  3
Linepattern
350
CC6D
  3
OverhangOff
350
CC76
  3
Realistic
350
CC69
  3
Shaded
350
CC74
  3
Shaded with edges
350
CC73
  3
Shades of Gray
350
CC70
  3
Sketchy
350
CC71
  3
Thicken
350
CC6C
  3
Wireframe
350
CC66
  3
X-Ray
350
CC72
  0
XRECORD
  5
CCB4
102
{ACAD_REACTORS
330
C9B2
102
}
330
C9B2
100
AcDbXrecord
280
     1
 90
        1
330
CC7A
  0
DICTIONARY
  5
CCA7
102
{ACAD_REACTORS
330
C9B2
102
}
330
C9B2
100
AcDbDictionary
281
     1
  3
CANNOSCALE
350
CCAC
  3
CMLEADERSTYLE
350
CCA9
  3
CTABLESTYLE
350
CCA8
  3
CVIEWDETAILSTYLE
350
CCAA
  3
CVIEWSECTIONSTYLE
350
CCAB
  3
DIMASSOC
350
CCAF
  3
INDEXCTL
350
CCAE
  3
SORTENTS
350
CCAD
  3
XCLIPFRAME
350
CCB0
  0
XRECORD
  5
CCB5
102
{ACAD_REACTORS
330
C9B2
102
}
330
C9B2
100
AcDbXrecord
280
     1
  1
DWGPROPS COOKIE
  2

  3

  4

  6

  7

  8
Yoshitsune
  9

300
=
301
=
302
=
303
=
304
=
305
=
306
=
307
=
308
=
309
=
 40
0.0000111689814815
 41
2451233.435088079
 42
2457192.662030371
  1

 90
        0
  0
XRECORD
  5
CC98
102
{ACAD_REACTORS
330
CC97
102
}
330
CC97
100
AcDbXrecord
280
     1
290
     1
  0
XRECORD
  5
CC9A
102
{ACAD_REACTORS
330
CC99
102
}
330
CC99
100
AcDbXrecord
280
     1
290
     1
  0
XRECORD
  5
CC9C
102
{ACAD_REACTORS
330
CC9B
102
}
330
CC9B
100
AcDbXrecord
280
     1
290
     1
  0
XRECORD
  5
CC9E
102
{ACAD_REACTORS
330
CC9D
102
}
330
CC9D
100
AcDbXrecord
280
     1
290
     1
  0
XRECORD
  5
CCA0
102
{ACAD_REACTORS
330
CC9F
102
}
330
CC9F
100
AcDbXrecord
280
     1
290
     1
  0
XRECORD
  5
CCA2
102
{ACAD_REACTORS
330
CCA1
102
}
330
CCA1
100
AcDbXrecord
280
     1
290
     1
  0
XRECORD
  5
CCA4
102
{ACAD_REACTORS
330
CCA3
102
}
330
CCA3
100
AcDbXrecord
280
     1
290
     1
  0
XRECORD
  5
CCA6
102
{ACAD_REACTORS
330
CCA5
102
}
330
CCA5
100
AcDbXrecord
280
     1
290
     1
  0
XRECORD
  5
CC40
102
{ACAD_REACTORS
330
CC3F
102
}
330
CC3F
100
AcDbXrecord
280
     1
340
C9C4
  0
XRECORD
  5
CC3E
102
{ACAD_REACTORS
330
CC3D
102
}
330
CC3D
100
AcDbXrecord
280
     1
340
C9C0
  0
ACDBDETAILVIEWSTYLE
  5
CC92
102
{ACAD_XDICTIONARY
360
CCED
102
}
102
{ACAD_REACTORS
330
CC91
102
}
330
CC91
100
AcDbModelDocViewStyle
 70
     0
  3
Imperial24
290
     0
100
AcDbDetailViewStyle
 70
     0
 71
     0
 90
        3
 71
     1
340
C9B7
 40
0.24
340
0
 40
0.24
300

 40
0.36
280
     3
 71
     2
340
C9BB
 90
       25
 71
     3
340
C9B7
 40
0.24
 90
        1
 40
0.75
 90
        1
300
%<\AcVar ViewType \f "%tc1">% %<\AcVar ViewDetailId>%\PSCALE %<\AcVar ViewScale \f "%sn">%
 71
     4
340
C9BB
 90
       25
340
C9BB
 90
       25
280
     0
  0
LAYOUT
  5
CC93
102
{ACAD_XDICTIONARY
360
CCEF
102
}
102
{ACAD_REACTORS
330
C9BF
102
}
330
C9BF
100
AcDbPlotSettings
  1

  2
Canon LBP9100C
  4

  6

 40
0.0
 41
0.0
 42
0.0
 43
0.0
 44
0.0
 45
0.0
 46
0.0
 47
0.0
 48
0.0
 49
0.0
140
0.0
141
0.0
142
1.0
143
1.0
 70
  1712
 72
     0
 73
     0
 74
     0
  7

 75
     0
147
1.0
148
0.0
149
0.0
100
AcDbLayout
  1
Model
 70
     1
 71
     0
 10
0.0
 20
0.0
 11
12.0
 21
9.0
 12
0.0
 22
0.0
 32
0.0
 14
0.0
 24
0.0
 34
0.0
 15
0.0
 25
0.0
 35
0.0
146
0.0
 13
0.0
 23
0.0
 33
0.0
 16
1.0
 26
0.0
 36
0.0
 17
0.0
 27
1.0
 37
0.0
 76
     0
330
C9C4
331
CC3C
  0
LAYOUT
  5
CC94
102
{ACAD_XDICTIONARY
360
CCF1
102
}
102
{ACAD_REACTORS
330
C9BF
102
}
330
C9BF
100
AcDbPlotSettings
  1

  2
Canon LBP9100C
  4

  6

 40
0.0
 41
0.0
 42
0.0
 43
0.0
 44
0.0
 45
0.0
 46
0.0
 47
0.0
 48
0.0
 49
0.0
140
0.0
141
0.0
142
1.0
143
1.0
 70
   688
 72
     0
 73
     0
 74
     5
  7

 75
    16
147
1.0
148
0.0
149
0.0
100
AcDbLayout
  1
レイアウト1
 70
     0
 71
     1
 10
0.0
 20
0.0
 11
420.0
 21
297.0
 12
0.0
 22
0.0
 32
0.0
 14
1.000000000000000E+20
 24
1.000000000000000E+20
 34
1.000000000000000E+20
 15
-1.000000000000000E+20
 25
-1.000000000000000E+20
 35
-1.000000000000000E+20
146
0.0
 13
0.0
 23
0.0
 33
0.0
 16
1.0
 26
0.0
 36
0.0
 17
0.0
 27
1.0
 37
0.0
 76
     0
330
C9C0
  0
MATERIAL
  5
CC4F
102
{ACAD_XDICTIONARY
360
CC50
102
}
102
{ACAD_REACTORS
330
CC46
102
}
330
CC46
100
AcDbMaterial
  1
ByBlock
 72
     0
 43
0.0208333333333333
 43
0.0
 43
0.0
 43
0.0
 43
0.0
 43
0.0208333333333333
 43
0.0
 43
0.0
 43
0.0
 43
0.0
 43
1.0
 43
0.0
 43
0.0
 43
0.0
 43
0.0
 43
1.0
 77
     0
 47
0.0208333333333333
 47
0.0
 47
0.0
 47
0.0
 47
0.0
 47
0.0208333333333333
 47
0.0
 47
0.0
 47
0.0
 47
0.0
 47
1.0
 47
0.0
 47
0.0
 47
0.0
 47
0.0
 47
1.0
171
     0
 49
0.0208333333333333
 49
0.0
 49
0.0
 49
0.0
 49
0.0
 49
0.0208333333333333
 49
0.0
 49
0.0
 49
0.0
 49
0.0
 49
1.0
 49
0.0
 49
0.0
 49
0.0
 49
0.0
 49
1.0
175
     0
142
0.0208333333333333
142
0.0
142
0.0
142
0.0
142
0.0
142
0.0208333333333333
142
0.0
142
0.0
142
0.0
142
0.0
142
1.0
142
0.0
142
0.0
142
0.0
142
0.0
142
1.0
179
     0
144
0.0208333333333333
144
0.0
144
0.0
144
0.0
144
0.0
144
0.0208333333333333
144
0.0
144
0.0
144
0.0
144
0.0
144
1.0
144
0.0
144
0.0
144
0.0
144
0.0
144
1.0
147
0.0208333333333333
147
0.0
147
0.0
147
0.0
147
0.0
147
0.0208333333333333
147
0.0
147
0.0
147
0.0
147
0.0
147
1.0
147
0.0
147
0.0
147
0.0
147
0.0
147
1.0
  0
MATERIAL
  5
CC47
102
{ACAD_XDICTIONARY
360
CC48
102
}
102
{ACAD_REACTORS
330
CC46
102
}
330
CC46
100
AcDbMaterial
  1
ByLayer
 72
     0
 43
0.0208333333333333
 43
0.0
 43
0.0
 43
0.0
 43
0.0
 43
0.0208333333333333
 43
0.0
 43
0.0
 43
0.0
 43
0.0
 43
1.0
 43
0.0
 43
0.0
 43
0.0
 43
0.0
 43
1.0
 77
     0
 47
0.0208333333333333
 47
0.0
 47
0.0
 47
0.0
 47
0.0
 47
0.0208333333333333
 47
0.0
 47
0.0
 47
0.0
 47
0.0
 47
1.0
 47
0.0
 47
0.0
 47
0.0
 47
0.0
 47
1.0
171
     0
 49
0.0208333333333333
 49
0.0
 49
0.0
 49
0.0
 49
0.0
 49
0.0208333333333333
 49
0.0
 49
0.0
 49
0.0
 49
0.0
 49
1.0
 49
0.0
 49
0.0
 49
0.0
 49
0.0
 49
1.0
175
     0
142
0.0208333333333333
142
0.0
142
0.0
142
0.0
142
0.0
142
0.0208333333333333
142
0.0
142
0.0
142
0.0
142
0.0
142
1.0
142
0.0
142
0.0
142
0.0
142
0.0
142
1.0
179
     0
144
0.0208333333333333
144
0.0
144
0.0
144
0.0
144
0.0
144
0.0208333333333333
144
0.0
144
0.0
144
0.0
144
0.0
144
1.0
144
0.0
144
0.0
144
0.0
144
0.0
144
1.0
147
0.0208333333333333
147
0.0
147
0.0
147
0.0
147
0.0
147
0.0208333333333333
147
0.0
147
0.0
147
0.0
147
0.0
147
1.0
147
0.0
147
0.0
147
0.0
147
0.0
147
1.0
  0
MATERIAL
  5
CC57
102
{ACAD_XDICTIONARY
360
CC58
102
}
102
{ACAD_REACTORS
330
CC46
102
}
330
CC46
100
AcDbMaterial
  1
Global
 72
     0
 43
0.0208333333333333
 43
0.0
 43
0.0
 43
0.0
 43
0.0
 43
0.0208333333333333
 43
0.0
 43
0.0
 43
0.0
 43
0.0
 43
1.0
 43
0.0
 43
0.0
 43
0.0
 43
0.0
 43
1.0
 77
     0
 47
0.0208333333333333
 47
0.0
 47
0.0
 47
0.0
 47
0.0
 47
0.0208333333333333
 47
0.0
 47
0.0
 47
0.0
 47
0.0
 47
1.0
 47
0.0
 47
0.0
 47
0.0
 47
0.0
 47
1.0
171
     0
 49
0.0208333333333333
 49
0.0
 49
0.0
 49
0.0
 49
0.0
 49
0.0208333333333333
 49
0.0
 49
0.0
 49
0.0
 49
0.0
 49
1.0
 49
0.0
 49
0.0
 49
0.0
 49
0.0
 49
1.0
175
     0
142
0.0208333333333333
142
0.0
142
0.0
142
0.0
142
0.0
142
0.0208333333333333
142
0.0
142
0.0
142
0.0
142
0.0
142
1.0
142
0.0
142
0.0
142
0.0
142
0.0
142
1.0
179
     0
144
0.0208333333333333
144
0.0
144
0.0
144
0.0
144
0.0
144
0.0208333333333333
144
0.0
144
0.0
144
0.0
144
0.0
144
1.0
144
0.0
144
0.0
144
0.0
144
0.0
144
1.0
147
0.0208333333333333
147
0.0
147
0.0
147
0.0
147
0.0
147
0.0208333333333333
147
0.0
147
0.0
147
0.0
147
0.0
147
1.0
147
0.0
147
0.0
147
0.0
147
0.0
147
1.0
  0
MLEADERSTYLE
  5
CC8E
102
{ACAD_REACTORS
330
CC8D
102
}
330
CC8D
100
AcDbMLeaderStyle
170
     2
171
     1
172
     0
 90
        2
 40
0.0
 41
0.0
173
     1
 91
-1056964608
340
C9B9
 92
       -2
290
     1
 42
0.09
291
     1
 43
0.36
  3
Standard
 44
0.18
300

342
C9B7
174
     1
178
     6
175
     1
176
     0
 93
-1056964608
 45
0.18
292
     0
297
     0
 46
0.18
 94
-1056964608
 47
1.0
 49
1.0
140
1.0
293
     1
141
0.0
294
     1
177
     0
142
1.0
295
     0
296
     0
143
0.125
1001
ACAD_MLEADERVER
1070
     2
  0
MLINESTYLE
  5
C9BD
102
{ACAD_REACTORS
330
C9BC
102
}
330
C9BC
100
AcDbMlineStyle
  2
STANDARD
 70
     0
  3

 62
   256
 51
90.0
 52
90.0
 71
     2
 49
0.5
 62
   256
  6
BYLAYER
 49
-0.5
 62
   256
  6
BYLAYER
  0
ACDBPLACEHOLDER
  5
CC45
102
{ACAD_REACTORS
330
CC44
102
}
330
CC44
  0
SCALE
  5
CC7C
102
{ACAD_REACTORS
330
CC7B
102
}
330
CC7B
100
AcDbScale
 70
     0
300
1:1
140
1.0
141
1.0
290
     1
  0
SCALE
  5
CC7D
102
{ACAD_REACTORS
330
CC7B
102
}
330
CC7B
100
AcDbScale
 70
     0
300
1/128" = 1'-0"
140
0.0078125
141
12.0
290
     0
  0
SCALE
  5
CC7E
102
{ACAD_REACTORS
330
CC7B
102
}
330
CC7B
100
AcDbScale
 70
     0
300
1/64" = 1'-0"
140
0.015625
141
12.0
290
     0
  0
SCALE
  5
CC7F
102
{ACAD_REACTORS
330
CC7B
102
}
330
CC7B
100
AcDbScale
 70
     0
300
1/32" = 1'-0"
140
0.03125
141
12.0
290
     0
  0
SCALE
  5
CC80
102
{ACAD_REACTORS
330
CC7B
102
}
330
CC7B
100
AcDbScale
 70
     0
300
1/16" = 1'-0"
140
0.0625
141
12.0
290
     0
  0
SCALE
  5
CC81
102
{ACAD_REACTORS
330
CC7B
102
}
330
CC7B
100
AcDbScale
 70
     0
300
3/32" = 1'-0"
140
0.09375
141
12.0
290
     0
  0
SCALE
  5
CC82
102
{ACAD_REACTORS
330
CC7B
102
}
330
CC7B
100
AcDbScale
 70
     0
300
1/8" = 1'-0"
140
0.125
141
12.0
290
     0
  0
SCALE
  5
CC83
102
{ACAD_REACTORS
330
CC7B
102
}
330
CC7B
100
AcDbScale
 70
     0
300
3/16" = 1'-0"
140
0.1875
141
12.0
290
     0
  0
SCALE
  5
CC84
102
{ACAD_REACTORS
330
CC7B
102
}
330
CC7B
100
AcDbScale
 70
     0
300
1/4" = 1'-0"
140
0.25
141
12.0
290
     0
  0
SCALE
  5
CC85
102
{ACAD_REACTORS
330
CC7B
102
}
330
CC7B
100
AcDbScale
 70
     0
300
3/8" = 1'-0"
140
0.375
141
12.0
290
     0
  0
SCALE
  5
CC86
102
{ACAD_REACTORS
330
CC7B
102
}
330
CC7B
100
AcDbScale
 70
     0
300
1/2" = 1'-0"
140
0.5
141
12.0
290
     0
  0
SCALE
  5
CC87
102
{ACAD_REACTORS
330
CC7B
102
}
330
CC7B
100
AcDbScale
 70
     0
300
3/4" = 1'-0"
140
0.75
141
12.0
290
     0
  0
SCALE
  5
CC88
102
{ACAD_REACTORS
330
CC7B
102
}
330
CC7B
100
AcDbScale
 70
     0
300
1" = 1'-0"
140
1.0
141
12.0
290
     0
  0
SCALE
  5
CC89
102
{ACAD_REACTORS
330
CC7B
102
}
330
CC7B
100
AcDbScale
 70
     0
300
1-1/2" = 1'-0"
140
1.5
141
12.0
290
     0
  0
SCALE
  5
CC8A
102
{ACAD_REACTORS
330
CC7B
102
}
330
CC7B
100
AcDbScale
 70
     0
300
3" = 1'-0"
140
3.0
141
12.0
290
     0
  0
SCALE
  5
CC8B
102
{ACAD_REACTORS
330
CC7B
102
}
330
CC7B
100
AcDbScale
 70
     0
300
6" = 1'-0"
140
6.0
141
12.0
290
     0
  0
SCALE
  5
CC8C
102
{ACAD_REACTORS
330
CC7B
102
}
330
CC7B
100
AcDbScale
 70
     0
300
1'-0" = 1'-0"
140
12.0
141
12.0
290
     0
  0
ACDBSECTIONVIEWSTYLE
  5
CC90
102
{ACAD_XDICTIONARY
360
CCEB
102
}
102
{ACAD_REACTORS
330
CC8F
102
}
330
CC8F
100
AcDbModelDocViewStyle
 70
     0
  3
Imperial24
290
     0
100
AcDbSectionViewStyle
 70
     0
 71
     0
 90
       78
 71
     1
340
C9B7
 40
0.24
340
0
340
0
 40
0.24
300
I, O, Q, S, X, Z
 40
0.48
 90
        3
 40
0.18
 90
        1
 71
     2
340
C9BB
 90
       25
340
C9BB
 90
       50
 40
0.24
 40
0.0
 40
0.24
 71
     3
340
C9B7
 40
0.24
 90
        1
 40
0.75
 90
        1
300
%<\AcVar ViewType \f "%tc1">% %<\AcVar ViewSectionStartId>%-%<\AcVar ViewSectionEndId>%\PSCALE %<\AcVar ViewScale \f "%sn">%
 71
     4
300
ANSI31
 40
1.0
 90
        0
290
     0
290
     0
 90
        6
 40
0.0
 40
1.570796326794896
 40
0.2617993877991494
 40
1.308996938995747
 40
-0.2617993877991494
 40
1.832595714594046
  0
TABLESTYLE
  5
CC7A
102
{ACAD_XDICTIONARY
360
CCB2
102
}
102
{ACAD_REACTORS
330
CC79
102
}
330
CC79
100
AcDbTableStyle
  3
Standard
 70
     0
 71
     0
 40
0.06
 41
0.06
280
     0
281
     0
  7
STANDARD
140
0.18
170
     2
 62
     0
 63
     7
283
     0
274
    -2
284
     1
 64
     0
275
    -2
285
     1
 65
     0
276
    -2
286
     1
 66
     0
277
    -2
287
     1
 67
     0
278
    -2
288
     1
 68
     0
279
    -2
289
     1
 69
     0
  7
STANDARD
140
0.25
170
     5
 62
     0
 63
     7
283
     0
274
    -2
284
     1
 64
     0
275
    -2
285
     1
 65
     0
276
    -2
286
     1
 66
     0
277
    -2
287
     1
 67
     0
278
    -2
288
     1
 68
     0
279
    -2
289
     1
 69
     0
  7
STANDARD
140
0.18
170
     5
 62
     0
 63
     7
283
     0
274
    -2
284
     1
 64
     0
275
    -2
285
     1
 65
     0
276
    -2
286
     1
 66
     0
277
    -2
287
     1
 67
     0
278
    -2
288
     1
 68
     0
279
    -2
289
     1
 69
     0
  0
VISUALSTYLE
  5
CC65
102
{ACAD_XDICTIONARY
360
CCC3
102
}
102
{ACAD_REACTORS
330
CC5F
102
}
330
CC5F
100
AcDbVisualStyle
  2
2dWireframe
 70
     4
 71
     0
 72
     2
 73
     0
 90
        0
 40
-0.6
 41
-30.0
 62
     5
 63
     7
 74
     1
 91
        4
 64
     7
 65
   257
 75
     1
175
     1
 42
1.0
 92
        0
 66
   257
 43
1.0
 76
     1
 77
     6
 78
     2
 67
     7
 79
     5
170
     0
171
     0
290
     0
174
     0
 93
        1
 44
0.0
173
     0
291
     0
 45
0.0
1001
ACAD
1000
AcDbSavedByObjectVersion
1070
     0
  0
VISUALSTYLE
  5
CC64
102
{ACAD_XDICTIONARY
360
CCC1
102
}
102
{ACAD_REACTORS
330
CC5F
102
}
330
CC5F
100
AcDbVisualStyle
  2
Basic
 70
     7
 71
     1
 72
     0
 73
     1
 90
        0
 40
-0.6
 41
-30.0
 62
     5
 63
     7
 74
     0
 91
        4
 64
     7
 65
   257
 75
     1
175
     1
 42
1.0
 92
        8
 66
     7
 43
1.0
 76
     1
 77
     6
 78
     2
 67
     7
 79
     5
170
     0
171
     0
290
     0
174
     0
 93
        1
 44
0.0
173
     0
291
     1
 45
0.0
1001
ACAD
1000
AcDbSavedByObjectVersion
1070
     0
  0
VISUALSTYLE
  5
CC6B
102
{ACAD_XDICTIONARY
360
CCCF
102
}
102
{ACAD_REACTORS
330
CC5F
102
}
330
CC5F
100
AcDbVisualStyle
  2
Brighten
 70
    12
 71
     2
 72
     2
 73
     0
 90
        0
 40
-0.6
 41
-30.0
 62
     5
 63
     7
 74
     1
 91
        4
 64
     7
 65
   257
 75
     1
175
     1
 42
1.0
 92
        8
 66
     7
 43
1.0
 76
     1
 77
     6
 78
     2
 67
     7
 79
     5
170
     0
171
     0
290
     0
174
     0
 93
        1
 44
50.0
173
     0
291
     1
 45
0.0
1001
ACAD
1000
AcDbSavedByObjectVersion
1070
     0
  0
VISUALSTYLE
  5
CC6F
102
{ACAD_XDICTIONARY
360
CCD7
102
}
102
{ACAD_REACTORS
330
CC5F
102
}
330
CC5F
100
AcDbVisualStyle
  2
ColorChange
 70
    16
 71
     2
 72
     2
 73
     3
 90
        0
 40
-0.6
 41
-30.0
 62
     5
 63
     8
 74
     1
 91
        4
 64
     7
 65
   257
 75
     1
175
     1
 42
1.0
 92
        8
 66
     8
 43
1.0
 76
     1
 77
     6
 78
     2
 67
     7
 79
     5
170
     0
171
     0
290
     0
174
     0
 93
        1
 44
0.0
173
     0
291
     1
 45
0.0
1001
ACAD
1000
AcDbSavedByObjectVersion
1070
     0
  0
VISUALSTYLE
  5
CC68
102
{ACAD_XDICTIONARY
360
CCC9
102
}
102
{ACAD_REACTORS
330
CC5F
102
}
330
CC5F
100
AcDbVisualStyle
  2
Conceptual
 70
     9
 71
     3
 72
     2
 73
     0
 90
        0
 40
-0.6
 41
-30.0
 62
     5
 63
     7
 74
     2
 91
        2
 64
     7
 65
   257
 75
     1
175
     1
 42
179.0
 92
        8
 66
     7
 43
1.0
 76
     1
 77
     6
 78
     2
 67
     7
 79
     3
170
     0
171
     0
290
     0
174
     0
 93
        1
 44
0.0
173
     0
291
     0
 45
0.0
1001
ACAD
1000
AcDbSavedByObjectVersion
1070
     0
  0
VISUALSTYLE
  5
CC6A
102
{ACAD_XDICTIONARY
360
CCCD
102
}
102
{ACAD_REACTORS
330
CC5F
102
}
330
CC5F
100
AcDbVisualStyle
  2
Dim
 70
    11
 71
     2
 72
     2
 73
     0
 90
        0
 40
-0.6
 41
-30.0
 62
     5
 63
     7
 74
     1
 91
        4
 64
     7
 65
   257
 75
     1
175
     1
 42
1.0
 92
        8
 66
     7
 43
1.0
 76
     1
 77
     6
 78
     2
 67
     7
 79
     5
170
     0
171
     0
290
     0
174
     0
 93
        1
 44
-50.0
173
     0
291
     1
 45
0.0
1001
ACAD
1000
AcDbSavedByObjectVersion
1070
     0
  0
VISUALSTYLE
  5
CC77
102
{ACAD_XDICTIONARY
360
CCE7
102
}
102
{ACAD_REACTORS
330
CC5F
102
}
330
CC5F
100
AcDbVisualStyle
  2
EdgeColorOff
 70
    22
 71
     2
 72
     2
 73
     0
 90
        0
 40
-0.6
 41
-30.0
 62
     5
 63
     7
 74
     1
 91
        4
 64
     7
 65
   257
 75
     1
175
     1
 42
1.0
 92
        8
 66
     7
 43
1.0
 76
     1
 77
     6
 78
     2
 67
     7
 79
     5
170
     0
171
     0
290
     0
174
     0
 93
        1
 44
0.0
173
     0
291
     1
 45
0.0
1001
ACAD
1000
AcDbSavedByObjectVersion
1070
     0
  0
VISUALSTYLE
  5
CC6E
102
{ACAD_XDICTIONARY
360
CCD5
102
}
102
{ACAD_REACTORS
330
CC5F
102
}
330
CC5F
100
AcDbVisualStyle
  2
Facepattern
 70
    15
 71
     2
 72
     2
 73
     0
 90
        0
 40
-0.6
 41
-30.0
 62
     5
 63
     7
 74
     1
 91
        4
 64
     7
 65
   257
 75
     1
175
     1
 42
1.0
 92
        8
 66
     7
 43
1.0
 76
     1
 77
     6
 78
     2
 67
     7
 79
     5
170
     0
171
     0
290
     0
174
     0
 93
        1
 44
0.0
173
     0
291
     1
 45
0.0
1001
ACAD
1000
AcDbSavedByObjectVersion
1070
     0
  0
VISUALSTYLE
  5
CC60
102
{ACAD_XDICTIONARY
360
CCB9
102
}
102
{ACAD_REACTORS
330
CC5F
102
}
330
CC5F
100
AcDbVisualStyle
  2
Flat
 70
     0
 71
     2
 72
     1
 73
     1
 90
        2
 40
-0.6
 41
30.0
 62
     5
 63
     7
 74
     0
 91
        0
 64
     7
 65
   257
 75
     1
175
     1
 42
1.0
 92
        8
 66
     7
 43
1.0
 76
     1
 77
     6
 78
     2
 67
     7
 79
     5
170
     0
171
     0
290
     0
174
     0
 93
       13
 44
0.0
173
     0
291
     1
 45
0.0
1001
ACAD
1000
AcDbSavedByObjectVersion
1070
     0
  0
VISUALSTYLE
  5
CC61
102
{ACAD_XDICTIONARY
360
CCBB
102
}
102
{ACAD_REACTORS
330
CC5F
102
}
330
CC5F
100
AcDbVisualStyle
  2
FlatWithEdges
 70
     1
 71
     2
 72
     1
 73
     1
 90
        2
 40
-0.6
 41
30.0
 62
     5
 63
     7
 74
     1
 91
        0
 64
     7
 65
   257
 75
     1
175
     1
 42
1.0
 92
        0
 66
   257
 43
1.0
 76
     1
 77
     6
 78
     2
 67
     7
 79
     5
170
     0
171
     0
290
     0
174
     0
 93
       13
 44
0.0
173
     0
291
     1
 45
0.0
1001
ACAD
1000
AcDbSavedByObjectVersion
1070
     0
  0
VISUALSTYLE
  5
CC62
102
{ACAD_XDICTIONARY
360
CCBD
102
}
102
{ACAD_REACTORS
330
CC5F
102
}
330
CC5F
100
AcDbVisualStyle
  2
Gouraud
 70
     2
 71
     2
 72
     2
 73
     1
 90
        2
 40
-0.6
 41
30.0
 62
     5
 63
     7
 74
     0
 91
        0
 64
     7
 65
   257
 75
     1
175
     1
 42
1.0
 92
        0
 66
     7
 43
1.0
 76
     1
 77
     6
 78
     2
 67
     7
 79
     5
170
     0
171
     0
290
     0
174
     0
 93
       13
 44
0.0
173
     0
291
     1
 45
0.0
1001
ACAD
1000
AcDbSavedByObjectVersion
1070
     0
  0
VISUALSTYLE
  5
CC63
102
{ACAD_XDICTIONARY
360
CCBF
102
}
102
{ACAD_REACTORS
330
CC5F
102
}
330
CC5F
100
AcDbVisualStyle
  2
GouraudWithEdges
 70
     3
 71
     2
 72
     2
 73
     1
 90
        2
 40
-0.6
 41
30.0
 62
     5
 63
     7
 74
     1
 91
        0
 64
     7
 65
   257
 75
     1
175
     1
 42
1.0
 92
        0
 66
   257
 43
1.0
 76
     1
 77
     6
 78
     2
 67
     7
 79
     5
170
     0
171
     0
290
     0
174
     0
 93
       13
 44
0.0
173
     0
291
     1
 45
0.0
1001
ACAD
1000
AcDbSavedByObjectVersion
1070
     0
  0
VISUALSTYLE
  5
CC67
102
{ACAD_XDICTIONARY
360
CCC7
102
}
102
{ACAD_REACTORS
330
CC5F
102
}
330
CC5F
100
AcDbVisualStyle
  2
Hidden
 70
     6
 71
     1
 72
     2
 73
     2
 90
        0
 40
-0.6
 41
-30.0
 62
     5
 63
     7
 74
     2
 91
        2
 64
     7
 65
   257
 75
     2
175
     1
 42
40.0
 92
        0
 66
   257
 43
1.0
 76
     1
 77
     6
 78
     2
 67
     7
 79
     3
170
     0
171
     0
290
     0
174
     0
 93
        1
 44
0.0
173
     0
291
     0
 45
0.0
1001
ACAD
1000
AcDbSavedByObjectVersion
1070
     0
  0
VISUALSTYLE
  5
CC75
102
{ACAD_XDICTIONARY
360
CCE3
102
}
102
{ACAD_REACTORS
330
CC5F
102
}
330
CC5F
100
AcDbVisualStyle
  2
JitterOff
 70
    20
 71
     2
 72
     2
 73
     0
 90
        0
 40
-0.6
 41
-30.0
 62
     5
 63
     7
 74
     1
 91
        4
 64
     7
 65
   257
 75
     1
175
     1
 42
1.0
 92
       10
 66
     7
 43
1.0
 76
     1
 77
     6
 78
     2
 67
     7
 79
     5
170
     0
171
     0
290
     0
174
     0
 93
        1
 44
0.0
173
     0
291
     1
 45
0.0
1001
ACAD
1000
AcDbSavedByObjectVersion
1070
     0
  0
VISUALSTYLE
  5
CC6D
102
{ACAD_XDICTIONARY
360
CCD3
102
}
102
{ACAD_REACTORS
330
CC5F
102
}
330
CC5F
100
AcDbVisualStyle
  2
Linepattern
 70
    14
 71
     2
 72
     2
 73
     0
 90
        0
 40
-0.6
 41
-30.0
 62
     5
 63
     7
 74
     1
 91
        4
 64
     7
 65
   257
 75
     7
175
     7
 42
1.0
 92
        8
 66
     7
 43
1.0
 76
     1
 77
     6
 78
     2
 67
     7
 79
     5
170
     0
171
     0
290
     0
174
     0
 93
        1
 44
0.0
173
     0
291
     1
 45
0.0
1001
ACAD
1000
AcDbSavedByObjectVersion
1070
     0
  0
VISUALSTYLE
  5
CC76
102
{ACAD_XDICTIONARY
360
CCE5
102
}
102
{ACAD_REACTORS
330
CC5F
102
}
330
CC5F
100
AcDbVisualStyle
  2
OverhangOff
 70
    21
 71
     2
 72
     2
 73
     0
 90
        0
 40
-0.6
 41
-30.0
 62
     5
 63
     7
 74
     1
 91
        4
 64
     7
 65
   257
 75
     1
175
     1
 42
1.0
 92
        9
 66
     7
 43
1.0
 76
     1
 77
     6
 78
     2
 67
     7
 79
     5
170
     0
171
     0
290
     0
174
     0
 93
        1
 44
0.0
173
     0
291
     1
 45
0.0
1001
ACAD
1000
AcDbSavedByObjectVersion
1070
     0
  0
VISUALSTYLE
  5
CC69
102
{ACAD_XDICTIONARY
360
CCCB
102
}
102
{ACAD_REACTORS
330
CC5F
102
}
330
CC5F
100
AcDbVisualStyle
  2
Realistic
 70
     8
 71
     2
 72
     3
 73
     0
 90
        2
 40
-0.6
 41
30.0
 62
     5
 63
     7
 74
     0
 91
        0
 64
     7
 65
   257
 75
     1
175
     1
 42
1.0
 92
        8
 66
   257
 43
1.0
 76
     1
 77
     6
 78
     2
 67
     7
 79
     3
170
     0
171
     0
290
     0
174
     0
 93
       13
 44
0.0
173
     0
291
     0
 45
0.0
1001
ACAD
1000
AcDbSavedByObjectVersion
1070
     0
  0
VISUALSTYLE
  5
CC74
102
{ACAD_XDICTIONARY
360
CCE1
102
}
102
{ACAD_REACTORS
330
CC5F
102
}
330
CC5F
100
AcDbVisualStyle
  2
Shaded
 70
    27
 71
     2
 72
     2
 73
     1
 90
        2
 40
-0.6
 41
30.0
 62
     5
 63
     7
 74
     0
 91
        4
 64
     7
 65
   257
 75
     1
175
     1
 42
1.0
 92
        8
 66
   257
 43
1.0
 76
     1
 77
     6
 78
     2
 67
     8
 79
     3
170
     0
171
     0
290
     0
174
     0
 93
        5
 44
0.0
173
     0
291
     0
 45
0.0
1001
ACAD
1000
AcDbSavedByObjectVersion
1070
     0
  0
VISUALSTYLE
  5
CC73
102
{ACAD_XDICTIONARY
360
CCDF
102
}
102
{ACAD_REACTORS
330
CC5F
102
}
330
CC5F
100
AcDbVisualStyle
  2
Shaded with edges
 70
    26
 71
     2
 72
     2
 73
     1
 90
        2
 40
-0.6
 41
30.0
 62
     5
 63
     7
 74
     1
 91
       10
 64
     7
 65
   257
 75
     2
175
     1
 42
1.0
 92
        8
 66
   257
 43
1.0
 76
     1
 77
     6
 78
     2
 67
     7
 79
     3
170
     0
171
     0
290
     0
174
     0
 93
        5
 44
0.0
173
     0
291
     0
 45
0.0
1001
ACAD
1000
AcDbSavedByObjectVersion
1070
     0
  0
VISUALSTYLE
  5
CC70
102
{ACAD_XDICTIONARY
360
CCD9
102
}
102
{ACAD_REACTORS
330
CC5F
102
}
330
CC5F
100
AcDbVisualStyle
  2
Shades of Gray
 70
    23
 71
     2
 72
     2
 73
     3
 90
        0
 40
-0.6
 41
-30.0
 62
     5
 63
     7
 74
     2
 91
        2
 64
     7
 65
     7
 75
     1
175
     1
 42
40.0
 92
        8
 66
     7
 43
1.0
 76
     1
 77
     6
 78
     2
 67
     7
 79
     3
170
     0
171
     0
290
     0
174
     0
 93
        1
 44
0.0
173
     0
291
     0
 45
0.0
1001
ACAD
1000
AcDbSavedByObjectVersion
1070
     0
  0
VISUALSTYLE
  5
CC71
102
{ACAD_XDICTIONARY
360
CCDB
102
}
102
{ACAD_REACTORS
330
CC5F
102
}
330
CC5F
100
AcDbVisualStyle
  2
Sketchy
 70
    24
 71
     1
 72
     2
 73
     2
 90
        0
 40
-0.6
 41
-30.0
 62
     5
 63
     7
 74
     2
 91
        2
 64
     7
 65
     7
 75
     1
175
     1
 42
40.0
 92
       11
 66
     7
 43
1.0
 76
     1
 77
     6
 78
     2
 67
     7
 79
     6
170
     0
171
     0
290
     0
174
     0
 93
        1
 44
0.0
173
     0
291
     0
 45
0.0
1001
ACAD
1000
AcDbSavedByObjectVersion
1070
     0
  0
VISUALSTYLE
  5
CC6C
102
{ACAD_XDICTIONARY
360
CCD1
102
}
102
{ACAD_REACTORS
330
CC5F
102
}
330
CC5F
100
AcDbVisualStyle
  2
Thicken
 70
    13
 71
     2
 72
     2
 73
     0
 90
        0
 40
-0.6
 41
-30.0
 62
     5
 63
     7
 74
     1
 91
        4
 64
     7
 65
   257
 75
     1
175
     1
 42
1.0
 92
       12
 66
     7
 43
1.0
 76
     1
 77
     6
 78
     2
 67
     7
 79
     5
170
     0
171
     0
290
     0
174
     0
 93
        1
 44
0.0
173
     0
291
     1
 45
0.0
1001
ACAD
1000
AcDbSavedByObjectVersion
1070
     0
  0
VISUALSTYLE
  5
CC66
102
{ACAD_XDICTIONARY
360
CCC5
102
}
102
{ACAD_REACTORS
330
CC5F
102
}
330
CC5F
100
AcDbVisualStyle
  2
Wireframe
 70
     5
 71
     0
 72
     2
 73
     0
 90
        0
 40
-0.6
 41
-30.0
 62
     5
 63
     7
 74
     1
 91
        4
 64
     7
 65
   257
 75
     1
175
     1
 42
1.0
 92
        0
 66
   257
 43
1.0
 76
     1
 77
     6
 78
     2
 67
     7
 79
     3
170
     0
171
     0
290
     0
174
     0
 93
        1
 44
0.0
173
     0
291
     0
 45
0.0
1001
ACAD
1000
AcDbSavedByObjectVersion
1070
     0
  0
VISUALSTYLE
  5
CC72
102
{ACAD_XDICTIONARY
360
CCDD
102
}
102
{ACAD_REACTORS
330
CC5F
102
}
330
CC5F
100
AcDbVisualStyle
  2
X-Ray
 70
    25
 71
     2
 72
     2
 73
     1
 90
        1
 40
0.5
 41
-30.0
 62
     5
 63
     7
 74
     1
 91
        0
 64
     7
 65
   257
 75
     1
175
     1
 42
1.0
 92
        8
 66
     7
 43
1.0
 76
     1
 77
     6
 78
     2
 67
     7
 79
     3
170
     0
171
     0
290
     0
174
     0
 93
       13
 44
0.0
173
     0
291
     0
 45
0.0
1001
ACAD
1000
AcDbSavedByObjectVersion
1070
     0
  0
DICTIONARYVAR
  5
CCAC
102
{ACAD_REACTORS
330
CCA7
102
}
330
CCA7
100
DictionaryVariables
280
     0
  1
1:1
  0
DICTIONARYVAR
  5
CCA9
102
{ACAD_REACTORS
330
CCA7
102
}
330
CCA7
100
DictionaryVariables
280
     0
  1
STANDARD
  0
DICTIONARYVAR
  5
CCA8
102
{ACAD_REACTORS
330
CCA7
102
}
330
CCA7
100
DictionaryVariables
280
     0
  1
STANDARD
  0
DICTIONARYVAR
  5
CCAA
102
{ACAD_REACTORS
330
CCA7
102
}
330
CCA7
100
DictionaryVariables
280
     0
  1
Imperial24
  0
DICTIONARYVAR
  5
CCAB
102
{ACAD_REACTORS
330
CCA7
102
}
330
CCA7
100
DictionaryVariables
280
     0
  1
Imperial24
  0
DICTIONARYVAR
  5
CCAF
102
{ACAD_REACTORS
330
CCA7
102
}
330
CCA7
100
DictionaryVariables
280
     0
  1
1
  0
DICTIONARYVAR
  5
CCAE
102
{ACAD_REACTORS
330
CCA7
102
}
330
CCA7
100
DictionaryVariables
280
     0
  1
0
  0
DICTIONARYVAR
  5
CCAD
102
{ACAD_REACTORS
330
CCA7
102
}
330
CCA7
100
DictionaryVariables
280
     0
  1
127
  0
DICTIONARYVAR
  5
CCB0
102
{ACAD_REACTORS
330
CCA7
102
}
330
CCA7
100
DictionaryVariables
280
     0
  1
2
  0
DICTIONARY
  5
CCED
330
CC92
100
AcDbDictionary
280
     1
281
     1
  3
ACAD_XREC_ROUNDTRIP
360
CCEE
  0
DICTIONARY
  5
CCEF
330
CC93
100
AcDbDictionary
280
     1
281
     1
  3
ACAD_XREC_ROUNDTRIP
360
CCF0
  0
DICTIONARY
  5
CCF1
330
CC94
100
AcDbDictionary
280
     1
281
     1
  3
ACAD_XREC_ROUNDTRIP
360
CCF2
  0
DICTIONARY
  5
CC50
330
CC4F
100
AcDbDictionary
280
     1
281
     1
  3
ACAD_XREC_ROUNDTRIP
360
CCB7
  3
BUMPTILE
360
CC52
  3
DIFFUSETILE
360
CC51
  3
OPACITYTILE
360
CC55
  3
REFLECTIONTILE
360
CC54
  3
REFRACTIONTILE
360
CC56
  3
SPECULARTILE
360
CC53
  0
DICTIONARY
  5
CC48
330
CC47
100
AcDbDictionary
280
     1
281
     1
  3
ACAD_XREC_ROUNDTRIP
360
CCB6
  3
BUMPTILE
360
CC4A
  3
DIFFUSETILE
360
CC49
  3
OPACITYTILE
360
CC4D
  3
REFLECTIONTILE
360
CC4C
  3
REFRACTIONTILE
360
CC4E
  3
SPECULARTILE
360
CC4B
  0
DICTIONARY
  5
CC58
330
CC57
100
AcDbDictionary
280
     1
281
     1
  3
ACAD_XREC_ROUNDTRIP
360
CCB8
  3
BUMPTILE
360
CC5A
  3
DIFFUSETILE
360
CC59
  3
OPACITYTILE
360
CC5D
  3
REFLECTIONTILE
360
CC5C
  3
REFRACTIONTILE
360
CC5E
  3
SPECULARTILE
360
CC5B
  0
DICTIONARY
  5
CCEB
330
CC90
100
AcDbDictionary
280
     1
281
     1
  3
ACAD_XREC_ROUNDTRIP
360
CCEC
  0
DICTIONARY
  5
CCB2
330
CC7A
100
AcDbDictionary
280
     1
281
     1
  3
ACAD_ROUNDTRIP_2008_TABLESTYLE_CELLSTYLEMAP
360
CCB3
  3
ACAD_XREC_ROUNDTRIP
360
CCE9
  0
DICTIONARY
  5
CCC3
330
CC65
100
AcDbDictionary
280
     1
281
     1
  3
ACAD_XREC_ROUNDTRIP
360
CCC4
  0
DICTIONARY
  5
CCC1
330
CC64
100
AcDbDictionary
280
     1
281
     1
  3
ACAD_XREC_ROUNDTRIP
360
CCC2
  0
DICTIONARY
  5
CCCF
330
CC6B
100
AcDbDictionary
280
     1
281
     1
  3
ACAD_XREC_ROUNDTRIP
360
CCD0
  0
DICTIONARY
  5
CCD7
330
CC6F
100
AcDbDictionary
280
     1
281
     1
  3
ACAD_XREC_ROUNDTRIP
360
CCD8
  0
DICTIONARY
  5
CCC9
330
CC68
100
AcDbDictionary
280
     1
281
     1
  3
ACAD_XREC_ROUNDTRIP
360
CCCA
  0
DICTIONARY
  5
CCCD
330
CC6A
100
AcDbDictionary
280
     1
281
     1
  3
ACAD_XREC_ROUNDTRIP
360
CCCE
  0
DICTIONARY
  5
CCE7
330
CC77
100
AcDbDictionary
280
     1
281
     1
  3
ACAD_XREC_ROUNDTRIP
360
CCE8
  0
DICTIONARY
  5
CCD5
330
CC6E
100
AcDbDictionary
280
     1
281
     1
  3
ACAD_XREC_ROUNDTRIP
360
CCD6
  0
DICTIONARY
  5
CCB9
330
CC60
100
AcDbDictionary
280
     1
281
     1
  3
ACAD_XREC_ROUNDTRIP
360
CCBA
  0
DICTIONARY
  5
CCBB
330
CC61
100
AcDbDictionary
280
     1
281
     1
  3
ACAD_XREC_ROUNDTRIP
360
CCBC
  0
DICTIONARY
  5
CCBD
330
CC62
100
AcDbDictionary
280
     1
281
     1
  3
ACAD_XREC_ROUNDTRIP
360
CCBE
  0
DICTIONARY
  5
CCBF
330
CC63
100
AcDbDictionary
280
     1
281
     1
  3
ACAD_XREC_ROUNDTRIP
360
CCC0
  0
DICTIONARY
  5
CCC7
330
CC67
100
AcDbDictionary
280
     1
281
     1
  3
ACAD_XREC_ROUNDTRIP
360
CCC8
  0
DICTIONARY
  5
CCE3
330
CC75
100
AcDbDictionary
280
     1
281
     1
  3
ACAD_XREC_ROUNDTRIP
360
CCE4
  0
DICTIONARY
  5
CCD3
330
CC6D
100
AcDbDictionary
280
     1
281
     1
  3
ACAD_XREC_ROUNDTRIP
360
CCD4
  0
DICTIONARY
  5
CCE5
330
CC76
100
AcDbDictionary
280
     1
281
     1
  3
ACAD_XREC_ROUNDTRIP
360
CCE6
  0
DICTIONARY
  5
CCCB
330
CC69
100
AcDbDictionary
280
     1
281
     1
  3
ACAD_XREC_ROUNDTRIP
360
CCCC
  0
DICTIONARY
  5
CCE1
330
CC74
100
AcDbDictionary
280
     1
281
     1
  3
ACAD_XREC_ROUNDTRIP
360
CCE2
  0
DICTIONARY
  5
CCDF
330
CC73
100
AcDbDictionary
280
     1
281
     1
  3
ACAD_XREC_ROUNDTRIP
360
CCE0
  0
DICTIONARY
  5
CCD9
330
CC70
100
AcDbDictionary
280
     1
281
     1
  3
ACAD_XREC_ROUNDTRIP
360
CCDA
  0
DICTIONARY
  5
CCDB
330
CC71
100
AcDbDictionary
280
     1
281
     1
  3
ACAD_XREC_ROUNDTRIP
360
CCDC
  0
DICTIONARY
  5
CCD1
330
CC6C
100
AcDbDictionary
280
     1
281
     1
  3
ACAD_XREC_ROUNDTRIP
360
CCD2
  0
DICTIONARY
  5
CCC5
330
CC66
100
AcDbDictionary
280
     1
281
     1
  3
ACAD_XREC_ROUNDTRIP
360
CCC6
  0
DICTIONARY
  5
CCDD
330
CC72
100
AcDbDictionary
280
     1
281
     1
  3
ACAD_XREC_ROUNDTRIP
360
CCDE
  0
XRECORD
  5
CCEE
102
{ACAD_REACTORS
330
CCED
102
}
330
CCED
100
AcDbXrecord
280
     1
102
DISPLAYNAME
  1
Imperial24
102
FLAGS
 90
        0
  0
XRECORD
  5
CCF0
102
{ACAD_REACTORS
330
CCEF
102
}
330
CCEF
100
AcDbXrecord
280
     1
102
SHADEPLOT
 70
     0
102
SHADEPLOTRESLEVEL
 70
     2
102
SHADEPLOTCUSTOMDPI
 70
   300
  0
XRECORD
  5
CCF2
102
{ACAD_REACTORS
330
CCF1
102
}
330
CCF1
100
AcDbXrecord
280
     1
102
SHADEPLOT
 70
     0
102
SHADEPLOTRESLEVEL
 70
     2
102
SHADEPLOTCUSTOMDPI
 70
   300
  0
XRECORD
  5
CCB7
102
{ACAD_REACTORS
330
CC50
102
}
330
CC50
100
AcDbXrecord
280
     1
102
MATERIAL
148
0.0
149
0.0
149
0.0
 93
        0
 94
      127
282
     0
 72
     0
 77
     0
171
     0
175
     0
179
     0
273
     0
  0
XRECORD
  5
CC52
102
{ACAD_REACTORS
330
CC50
102
}
330
CC50
100
AcDbXrecord
280
     1
270
     1
271
     1
  0
XRECORD
  5
CC51
102
{ACAD_REACTORS
330
CC50
102
}
330
CC50
100
AcDbXrecord
280
     1
270
     1
271
     1
  0
XRECORD
  5
CC55
102
{ACAD_REACTORS
330
CC50
102
}
330
CC50
100
AcDbXrecord
280
     1
270
     1
271
     1
  0
XRECORD
  5
CC54
102
{ACAD_REACTORS
330
CC50
102
}
330
CC50
100
AcDbXrecord
280
     1
270
     1
271
     1
  0
XRECORD
  5
CC56
102
{ACAD_REACTORS
330
CC50
102
}
330
CC50
100
AcDbXrecord
280
     1
270
     1
271
     1
  0
XRECORD
  5
CC53
102
{ACAD_REACTORS
330
CC50
102
}
330
CC50
100
AcDbXrecord
280
     1
270
     1
271
     1
  0
XRECORD
  5
CCB6
102
{ACAD_REACTORS
330
CC48
102
}
330
CC48
100
AcDbXrecord
280
     1
102
MATERIAL
148
0.0
149
0.0
149
0.0
 93
        0
 94
      127
282
     0
 72
     0
 77
     0
171
     0
175
     0
179
     0
273
     0
  0
XRECORD
  5
CC4A
102
{ACAD_REACTORS
330
CC48
102
}
330
CC48
100
AcDbXrecord
280
     1
270
     1
271
     1
  0
XRECORD
  5
CC49
102
{ACAD_REACTORS
330
CC48
102
}
330
CC48
100
AcDbXrecord
280
     1
270
     1
271
     1
  0
XRECORD
  5
CC4D
102
{ACAD_REACTORS
330
CC48
102
}
330
CC48
100
AcDbXrecord
280
     1
270
     1
271
     1
  0
XRECORD
  5
CC4C
102
{ACAD_REACTORS
330
CC48
102
}
330
CC48
100
AcDbXrecord
280
     1
270
     1
271
     1
  0
XRECORD
  5
CC4E
102
{ACAD_REACTORS
330
CC48
102
}
330
CC48
100
AcDbXrecord
280
     1
270
     1
271
     1
  0
XRECORD
  5
CC4B
102
{ACAD_REACTORS
330
CC48
102
}
330
CC48
100
AcDbXrecord
280
     1
270
     1
271
     1
  0
XRECORD
  5
CCB8
102
{ACAD_REACTORS
330
CC58
102
}
330
CC58
100
AcDbXrecord
280
     1
102
MATERIAL
148
0.0
149
0.0
149
0.0
 93
        0
 94
      127
282
     0
 72
     0
 77
     0
171
     0
175
     0
179
     0
273
     0
  0
XRECORD
  5
CC5A
102
{ACAD_REACTORS
330
CC58
102
}
330
CC58
100
AcDbXrecord
280
     1
270
     1
271
     1
  0
XRECORD
  5
CC59
102
{ACAD_REACTORS
330
CC58
102
}
330
CC58
100
AcDbXrecord
280
     1
270
     1
271
     1
  0
XRECORD
  5
CC5D
102
{ACAD_REACTORS
330
CC58
102
}
330
CC58
100
AcDbXrecord
280
     1
270
     1
271
     1
  0
XRECORD
  5
CC5C
102
{ACAD_REACTORS
330
CC58
102
}
330
CC58
100
AcDbXrecord
280
     1
270
     1
271
     1
  0
XRECORD
  5
CC5E
102
{ACAD_REACTORS
330
CC58
102
}
330
CC58
100
AcDbXrecord
280
     1
270
     1
271
     1
  0
XRECORD
  5
CC5B
102
{ACAD_REACTORS
330
CC58
102
}
330
CC58
100
AcDbXrecord
280
     1
270
     1
271
     1
  0
XRECORD
  5
CCEC
102
{ACAD_REACTORS
330
CCEB
102
}
330
CCEB
100
AcDbXrecord
280
     1
102
DISPLAYNAME
  1
Imperial24
102
FLAGS
 90
        0
  0
CELLSTYLEMAP
  5
CCB3
102
{ACAD_REACTORS
330
CCB2
102
}
330
CCB2
100
AcDbCellStyleMap
 90
        3
300
CELLSTYLE
  1
TABLEFORMAT_BEGIN
 90
        5
170
     1
 91
        0
 92
    32768
 62
   257
 93
        1
300
CONTENTFORMAT
  1
CONTENTFORMAT_BEGIN
 90
        0
 91
        0
 92
      512
 93
        0
300

 40
0.0
140
1.0
 94
        5
 62
     0
340
C9B7
144
0.25
309
CONTENTFORMAT_END
171
     0
 94
        0
309
TABLEFORMAT_END
  1
CELLSTYLE_BEGIN
 90
        1
 91
        1
300
_TITLE
309
CELLSTYLE_END
300
CELLSTYLE
  1
TABLEFORMAT_BEGIN
 90
        5
170
     1
 91
        0
 92
        0
 62
   257
 93
        1
300
CONTENTFORMAT
  1
CONTENTFORMAT_BEGIN
 90
        0
 91
        0
 92
      512
 93
        0
300

 40
0.0
140
1.0
 94
        5
 62
     0
340
C9B7
144
0.18
309
CONTENTFORMAT_END
171
     0
 94
        0
309
TABLEFORMAT_END
  1
CELLSTYLE_BEGIN
 90
        2
 91
        1
300
_HEADER
309
CELLSTYLE_END
300
CELLSTYLE
  1
TABLEFORMAT_BEGIN
 90
        5
170
     1
 91
        0
 92
        0
 62
   257
 93
        1
300
CONTENTFORMAT
  1
CONTENTFORMAT_BEGIN
 90
        0
 91
        0
 92
      512
 93
        0
300

 40
0.0
140
1.0
 94
        2
 62
     0
340
C9B7
144
0.18
309
CONTENTFORMAT_END
171
     0
 94
        0
309
TABLEFORMAT_END
  1
CELLSTYLE_BEGIN
 90
        3
 91
        2
300
_DATA
309
CELLSTYLE_END
  0
XRECORD
  5
CCE9
102
{ACAD_REACTORS
330
CCB2
102
}
330
CCB2
100
AcDbXrecord
280
     1
102
ACAD_ROUNDTRIP_PRE2007_TABLESTYLE
 90
      512
 91
        0
  1

 92
      512
 93
        0
  2

 94
      512
 95
        0
  3

  0
XRECORD
  5
CCC4
102
{ACAD_REACTORS
330
CCC3
102
}
330
CCC3
100
AcDbXrecord
280
     1
102
RTVSPost2010Prop28
280
     1
102
RTVSPost2010PropOp28
 70
     1
102
RTVSPost2010Prop29
280
     1
102
RTVSPost2010PropOp29
 70
     1
102
RTVSPost2010Prop30
280
     0
102
RTVSPost2010PropOp30
 70
     1
102
RTVSPost2010Prop31
280
     0
102
RTVSPost2010PropOp31
 70
     1
102
RTVSPost2010Prop32
280
     0
102
RTVSPost2010PropOp32
 70
     1
102
RTVSPost2010Prop33
280
     0
102
RTVSPost2010PropOp33
 70
     1
102
RTVSPost2010Prop34
280
     0
102
RTVSPost2010PropOp34
 70
     1
102
RTVSPost2010Prop35
280
     0
102
RTVSPost2010PropOp35
 70
     1
102
RTVSPost2010Prop36
280
     0
102
RTVSPost2010PropOp36
 70
     1
102
RTVSPost2010Prop37
 90
       50
102
RTVSPost2010PropOp37
 70
     1
102
RTVSPost2010Prop38
140
0.0
102
RTVSPost2010PropOp38
 70
     1
102
RTVSPost2010Prop39
140
1.0
102
RTVSPost2010PropOp39
 70
     1
102
RTVSPost2010Prop40
 90
        0
102
RTVSPost2010PropOp40
 70
     1
102
RTVSPost2010Prop41ColorIndex
 90
       18
102
RTVSPost2010Prop41ColorRGB
 90
        0
102
RTVSPost2010PropOp41
 70
     1
102
RTVSPost2010Prop42
 90
       50
102
RTVSPost2010PropOp42
 70
     1
102
RTVSPost2010Prop43
 90
        3
102
RTVSPost2010PropOp43
 70
     1
102
RTVSPost2010Prop44ColorIndex
 90
        5
102
RTVSPost2010Prop44ColorRGB
 90
      255
102
RTVSPost2010PropOp44
 70
     1
102
RTVSPost2010Prop45
280
     0
102
RTVSPost2010PropOp45
 70
     1
102
RTVSPost2010Prop46
 90
       50
102
RTVSPost2010PropOp46
 70
     1
102
RTVSPost2010Prop47
 90
       50
102
RTVSPost2010PropOp47
 70
     1
102
RTVSPost2010Prop48
 90
       50
102
RTVSPost2010PropOp48
 70
     1
102
RTVSPost2010Prop49
280
     0
102
RTVSPost2010PropOp49
 70
     1
102
RTVSPost2010Prop50
 90
       50
102
RTVSPost2010PropOp50
 70
     1
102
RTVSPost2010Prop51ColorIndex
 90
      256
102
RTVSPost2010Prop51ColorRGB
 90
-16777216
102
RTVSPost2010PropOp51
 70
     0
102
RTVSPost2010Prop52
140
1.0
102
RTVSPost2010PropOp52
 70
     0
102
RTVSPost2010Prop53
 90
        2
102
RTVSPost2010PropOp53
 70
     1
102
RTVSPost2010Prop54
  1
strokes_ogs.tif
102
RTVSPost2010PropOp54
 70
     1
102
RTVSPost2010Prop55
280
     0
102
RTVSPost2010PropOp55
 70
     1
102
RTVSPost2010Prop56
140
1.0
102
RTVSPost2010PropOp56
 70
     1
102
RTVSPost2010Prop57
140
1.0
102
RTVSPost2010PropOp57
 70
     1
102
RTVSPropertyOp0
 70
     1
102
RTVSPropertyOp1
 70
     1
102
RTVSPropertyOp2
 70
     1
102
RTVSPropertyOp3
 70
     1
102
RTVSPropertyOp4
 70
     1
102
RTVSPropertyOp5
 70
     1
102
RTVSPropertyOp6
 70
     1
102
RTVSPropertyOp7
 70
     1
102
RTVSPropertyOp8
 70
     1
102
RTVSPropertyOp9
 70
     1
102
RTVSPropertyOp10
 70
     1
102
RTVSPropertyOp11
 70
     1
102
RTVSPropertyOp12
 70
     1
102
RTVSPropertyOp13
 70
     1
102
RTVSPropertyOp14
 70
     1
102
RTVSPropertyOp15
 70
     1
102
RTVSPropertyOp16
 70
     1
102
RTVSPropertyOp17
 70
     1
102
RTVSPropertyOp18
 70
     1
102
RTVSPropertyOp19
 70
     1
102
RTVSPropertyOp20
 70
     1
102
RTVSPropertyOp21
 70
     1
102
RTVSPropertyOp22
 70
     1
102
RTVSPropertyOp23
 70
     1
102
RTVSPropertyOp24
 70
     1
102
RTVSPropertyOp25
 70
     1
102
RTVSPropertyOp26
 70
     1
102
RTVSPropertyOp27
 70
     1
102
RTVSPropertyOp28
 70
     1
102
RTVSPropertyOp29
 70
     1
102
RTVSPropertyOp30
 70
     1
102
RTVSPropertyOp31
 70
     1
102
RTVSPropertyOp32
 70
     1
102
RTVSPropertyOp33
 70
     1
102
RTVSPropertyOp34
 70
     1
102
RTVSPropertyOp35
 70
     1
102
RTVSPropertyOp36
 70
     1
102
RTVSPropertyOp37
 70
     1
102
RTVSPropertyOp38
 70
     1
102
RTVSPropertyOp39
 70
     1
102
RTVSPropertyOp40
 70
     1
102
RTVSPropertyOp41
 70
     1
102
RTVSPropertyOp42
 70
     1
102
RTVSPropertyOp43
 70
     1
102
RTVSPropertyOp44
 70
     1
102
RTVSPropertyOp45
 70
     1
102
RTVSPropertyOp46
 70
     1
102
RTVSPropertyOp47
 70
     1
102
RTVSPropertyOp48
 70
     1
102
RTVSPropertyOp49
 70
     1
102
RTVSPropertyOp50
 70
     1
102
RTVSPropertyOp51
 70
     0
102
RTVSPropertyOp52
 70
     0
102
RTVSPropertyOp53
 70
     1
102
RTVSPropertyOp54
 70
     1
102
RTVSPropertyOp55
 70
     1
102
RTVSPropertyOp56
 70
     1
102
RTVSPropertyOp57
 70
     1
102
RTVSPropertyOp58
 70
     1
102
RTVSPropertyOp59
 70
     1
102
RTVSPropertyOp60
 70
     1
102
RTVSPropertyOp61
 70
     1
102
RTVSPropertyOp62
 70
     1
  0
XRECORD
  5
CCC2
102
{ACAD_REACTORS
330
CCC1
102
}
330
CCC1
100
AcDbXrecord
280
     1
102
RTVSPost2010Prop28
280
     0
102
RTVSPost2010PropOp28
 70
     1
102
RTVSPost2010Prop29
280
     1
102
RTVSPost2010PropOp29
 70
     1
102
RTVSPost2010Prop30
280
     1
102
RTVSPost2010PropOp30
 70
     1
102
RTVSPost2010Prop31
280
     0
102
RTVSPost2010PropOp31
 70
     1
102
RTVSPost2010Prop32
280
     0
102
RTVSPost2010PropOp32
 70
     1
102
RTVSPost2010Prop33
280
     0
102
RTVSPost2010PropOp33
 70
     1
102
RTVSPost2010Prop34
280
     0
102
RTVSPost2010PropOp34
 70
     1
102
RTVSPost2010Prop35
280
     0
102
RTVSPost2010PropOp35
 70
     1
102
RTVSPost2010Prop36
280
     0
102
RTVSPost2010PropOp36
 70
     1
102
RTVSPost2010Prop37
 90
       50
102
RTVSPost2010PropOp37
 70
     1
102
RTVSPost2010Prop38
140
0.0
102
RTVSPost2010PropOp38
 70
     1
102
RTVSPost2010Prop39
140
1.0
102
RTVSPost2010PropOp39
 70
     1
102
RTVSPost2010Prop40
 90
        0
102
RTVSPost2010PropOp40
 70
     1
102
RTVSPost2010Prop41ColorIndex
 90
       18
102
RTVSPost2010Prop41ColorRGB
 90
        0
102
RTVSPost2010PropOp41
 70
     1
102
RTVSPost2010Prop42
 90
       50
102
RTVSPost2010PropOp42
 70
     1
102
RTVSPost2010Prop43
 90
        3
102
RTVSPost2010PropOp43
 70
     1
102
RTVSPost2010Prop44ColorIndex
 90
        5
102
RTVSPost2010Prop44ColorRGB
 90
      255
102
RTVSPost2010PropOp44
 70
     1
102
RTVSPost2010Prop45
280
     0
102
RTVSPost2010PropOp45
 70
     1
102
RTVSPost2010Prop46
 90
       50
102
RTVSPost2010PropOp46
 70
     1
102
RTVSPost2010Prop47
 90
       50
102
RTVSPost2010PropOp47
 70
     1
102
RTVSPost2010Prop48
 90
       50
102
RTVSPost2010PropOp48
 70
     1
102
RTVSPost2010Prop49
280
     0
102
RTVSPost2010PropOp49
 70
     1
102
RTVSPost2010Prop50
 90
       50
102
RTVSPost2010PropOp50
 70
     1
102
RTVSPost2010Prop51ColorIndex
 90
      256
102
RTVSPost2010Prop51ColorRGB
 90
-16777216
102
RTVSPost2010PropOp51
 70
     0
102
RTVSPost2010Prop52
140
1.0
102
RTVSPost2010PropOp52
 70
     0
102
RTVSPost2010Prop53
 90
        2
102
RTVSPost2010PropOp53
 70
     1
102
RTVSPost2010Prop54
  1
strokes_ogs.tif
102
RTVSPost2010PropOp54
 70
     1
102
RTVSPost2010Prop55
280
     0
102
RTVSPost2010PropOp55
 70
     1
102
RTVSPost2010Prop56
140
1.0
102
RTVSPost2010PropOp56
 70
     1
102
RTVSPost2010Prop57
140
1.0
102
RTVSPost2010PropOp57
 70
     1
102
RTVSPropertyOp0
 70
     1
102
RTVSPropertyOp1
 70
     1
102
RTVSPropertyOp2
 70
     1
102
RTVSPropertyOp3
 70
     1
102
RTVSPropertyOp4
 70
     1
102
RTVSPropertyOp5
 70
     1
102
RTVSPropertyOp6
 70
     1
102
RTVSPropertyOp7
 70
     1
102
RTVSPropertyOp8
 70
     1
102
RTVSPropertyOp9
 70
     1
102
RTVSPropertyOp10
 70
     1
102
RTVSPropertyOp11
 70
     1
102
RTVSPropertyOp12
 70
     1
102
RTVSPropertyOp13
 70
     1
102
RTVSPropertyOp14
 70
     1
102
RTVSPropertyOp15
 70
     1
102
RTVSPropertyOp16
 70
     1
102
RTVSPropertyOp17
 70
     1
102
RTVSPropertyOp18
 70
     1
102
RTVSPropertyOp19
 70
     1
102
RTVSPropertyOp20
 70
     1
102
RTVSPropertyOp21
 70
     1
102
RTVSPropertyOp22
 70
     1
102
RTVSPropertyOp23
 70
     1
102
RTVSPropertyOp24
 70
     1
102
RTVSPropertyOp25
 70
     1
102
RTVSPropertyOp26
 70
     1
102
RTVSPropertyOp27
 70
     1
102
RTVSPropertyOp28
 70
     1
102
RTVSPropertyOp29
 70
     1
102
RTVSPropertyOp30
 70
     1
102
RTVSPropertyOp31
 70
     1
102
RTVSPropertyOp32
 70
     1
102
RTVSPropertyOp33
 70
     1
102
RTVSPropertyOp34
 70
     1
102
RTVSPropertyOp35
 70
     1
102
RTVSPropertyOp36
 70
     1
102
RTVSPropertyOp37
 70
     1
102
RTVSPropertyOp38
 70
     1
102
RTVSPropertyOp39
 70
     1
102
RTVSPropertyOp40
 70
     1
102
RTVSPropertyOp41
 70
     1
102
RTVSPropertyOp42
 70
     1
102
RTVSPropertyOp43
 70
     1
102
RTVSPropertyOp44
 70
     1
102
RTVSPropertyOp45
 70
     1
102
RTVSPropertyOp46
 70
     1
102
RTVSPropertyOp47
 70
     1
102
RTVSPropertyOp48
 70
     1
102
RTVSPropertyOp49
 70
     1
102
RTVSPropertyOp50
 70
     1
102
RTVSPropertyOp51
 70
     0
102
RTVSPropertyOp52
 70
     0
102
RTVSPropertyOp53
 70
     1
102
RTVSPropertyOp54
 70
     1
102
RTVSPropertyOp55
 70
     1
102
RTVSPropertyOp56
 70
     1
102
RTVSPropertyOp57
 70
     1
102
RTVSPropertyOp58
 70
     1
102
RTVSPropertyOp59
 70
     1
102
RTVSPropertyOp60
 70
     1
102
RTVSPropertyOp61
 70
     1
102
RTVSPropertyOp62
 70
     1
  0
XRECORD
  5
CCD0
102
{ACAD_REACTORS
330
CCCF
102
}
330
CCCF
100
AcDbXrecord
280
     1
102
RTVSPost2010Prop28
280
     0
102
RTVSPost2010PropOp28
 70
     1
102
RTVSPost2010Prop29
280
     1
102
RTVSPost2010PropOp29
 70
     1
102
RTVSPost2010Prop30
280
     1
102
RTVSPost2010PropOp30
 70
     1
102
RTVSPost2010Prop31
280
     0
102
RTVSPost2010PropOp31
 70
     1
102
RTVSPost2010Prop32
280
     0
102
RTVSPost2010PropOp32
 70
     1
102
RTVSPost2010Prop33
280
     0
102
RTVSPost2010PropOp33
 70
     1
102
RTVSPost2010Prop34
280
     0
102
RTVSPost2010PropOp34
 70
     1
102
RTVSPost2010Prop35
280
     0
102
RTVSPost2010PropOp35
 70
     1
102
RTVSPost2010Prop36
280
     0
102
RTVSPost2010PropOp36
 70
     1
102
RTVSPost2010Prop37
 90
       50
102
RTVSPost2010PropOp37
 70
     1
102
RTVSPost2010Prop38
140
0.0
102
RTVSPost2010PropOp38
 70
     1
102
RTVSPost2010Prop39
140
1.0
102
RTVSPost2010PropOp39
 70
     1
102
RTVSPost2010Prop40
 90
        0
102
RTVSPost2010PropOp40
 70
     1
102
RTVSPost2010Prop41ColorIndex
 90
       18
102
RTVSPost2010Prop41ColorRGB
 90
        0
102
RTVSPost2010PropOp41
 70
     1
102
RTVSPost2010Prop42
 90
       50
102
RTVSPost2010PropOp42
 70
     1
102
RTVSPost2010Prop43
 90
        3
102
RTVSPost2010PropOp43
 70
     1
102
RTVSPost2010Prop44ColorIndex
 90
        5
102
RTVSPost2010Prop44ColorRGB
 90
      255
102
RTVSPost2010PropOp44
 70
     1
102
RTVSPost2010Prop45
280
     0
102
RTVSPost2010PropOp45
 70
     1
102
RTVSPost2010Prop46
 90
       50
102
RTVSPost2010PropOp46
 70
     1
102
RTVSPost2010Prop47
 90
       50
102
RTVSPost2010PropOp47
 70
     1
102
RTVSPost2010Prop48
 90
       50
102
RTVSPost2010PropOp48
 70
     1
102
RTVSPost2010Prop49
280
     0
102
RTVSPost2010PropOp49
 70
     1
102
RTVSPost2010Prop50
 90
       50
102
RTVSPost2010PropOp50
 70
     1
102
RTVSPost2010Prop51ColorIndex
 90
      256
102
RTVSPost2010Prop51ColorRGB
 90
-16777216
102
RTVSPost2010PropOp51
 70
     0
102
RTVSPost2010Prop52
140
1.0
102
RTVSPost2010PropOp52
 70
     0
102
RTVSPost2010Prop53
 90
        2
102
RTVSPost2010PropOp53
 70
     1
102
RTVSPost2010Prop54
  1
strokes_ogs.tif
102
RTVSPost2010PropOp54
 70
     1
102
RTVSPost2010Prop55
280
     0
102
RTVSPost2010PropOp55
 70
     1
102
RTVSPost2010Prop56
140
1.0
102
RTVSPost2010PropOp56
 70
     1
102
RTVSPost2010Prop57
140
1.0
102
RTVSPost2010PropOp57
 70
     1
102
RTVSPropertyOp0
 70
     1
102
RTVSPropertyOp1
 70
     1
102
RTVSPropertyOp2
 70
     1
102
RTVSPropertyOp3
 70
     1
102
RTVSPropertyOp4
 70
     1
102
RTVSPropertyOp5
 70
     1
102
RTVSPropertyOp6
 70
     1
102
RTVSPropertyOp7
 70
     1
102
RTVSPropertyOp8
 70
     1
102
RTVSPropertyOp9
 70
     1
102
RTVSPropertyOp10
 70
     1
102
RTVSPropertyOp11
 70
     1
102
RTVSPropertyOp12
 70
     1
102
RTVSPropertyOp13
 70
     1
102
RTVSPropertyOp14
 70
     1
102
RTVSPropertyOp15
 70
     1
102
RTVSPropertyOp16
 70
     1
102
RTVSPropertyOp17
 70
     1
102
RTVSPropertyOp18
 70
     1
102
RTVSPropertyOp19
 70
     1
102
RTVSPropertyOp20
 70
     1
102
RTVSPropertyOp21
 70
     1
102
RTVSPropertyOp22
 70
     1
102
RTVSPropertyOp23
 70
     1
102
RTVSPropertyOp24
 70
     1
102
RTVSPropertyOp25
 70
     1
102
RTVSPropertyOp26
 70
     1
102
RTVSPropertyOp27
 70
     1
102
RTVSPropertyOp28
 70
     1
102
RTVSPropertyOp29
 70
     1
102
RTVSPropertyOp30
 70
     1
102
RTVSPropertyOp31
 70
     1
102
RTVSPropertyOp32
 70
     1
102
RTVSPropertyOp33
 70
     1
102
RTVSPropertyOp34
 70
     1
102
RTVSPropertyOp35
 70
     1
102
RTVSPropertyOp36
 70
     1
102
RTVSPropertyOp37
 70
     1
102
RTVSPropertyOp38
 70
     1
102
RTVSPropertyOp39
 70
     1
102
RTVSPropertyOp40
 70
     1
102
RTVSPropertyOp41
 70
     1
102
RTVSPropertyOp42
 70
     1
102
RTVSPropertyOp43
 70
     1
102
RTVSPropertyOp44
 70
     1
102
RTVSPropertyOp45
 70
     1
102
RTVSPropertyOp46
 70
     1
102
RTVSPropertyOp47
 70
     1
102
RTVSPropertyOp48
 70
     1
102
RTVSPropertyOp49
 70
     1
102
RTVSPropertyOp50
 70
     1
102
RTVSPropertyOp51
 70
     0
102
RTVSPropertyOp52
 70
     0
102
RTVSPropertyOp53
 70
     1
102
RTVSPropertyOp54
 70
     1
102
RTVSPropertyOp55
 70
     1
102
RTVSPropertyOp56
 70
     1
102
RTVSPropertyOp57
 70
     1
102
RTVSPropertyOp58
 70
     1
102
RTVSPropertyOp59
 70
     1
102
RTVSPropertyOp60
 70
     1
102
RTVSPropertyOp61
 70
     1
102
RTVSPropertyOp62
 70
     1
  0
XRECORD
  5
CCD8
102
{ACAD_REACTORS
330
CCD7
102
}
330
CCD7
100
AcDbXrecord
280
     1
102
RTVSPost2010Prop28
280
     0
102
RTVSPost2010PropOp28
 70
     1
102
RTVSPost2010Prop29
280
     1
102
RTVSPost2010PropOp29
 70
     1
102
RTVSPost2010Prop30
280
     1
102
RTVSPost2010PropOp30
 70
     1
102
RTVSPost2010Prop31
280
     0
102
RTVSPost2010PropOp31
 70
     1
102
RTVSPost2010Prop32
280
     0
102
RTVSPost2010PropOp32
 70
     1
102
RTVSPost2010Prop33
280
     0
102
RTVSPost2010PropOp33
 70
     1
102
RTVSPost2010Prop34
280
     0
102
RTVSPost2010PropOp34
 70
     1
102
RTVSPost2010Prop35
280
     0
102
RTVSPost2010PropOp35
 70
     1
102
RTVSPost2010Prop36
280
     0
102
RTVSPost2010PropOp36
 70
     1
102
RTVSPost2010Prop37
 90
       50
102
RTVSPost2010PropOp37
 70
     1
102
RTVSPost2010Prop38
140
0.0
102
RTVSPost2010PropOp38
 70
     1
102
RTVSPost2010Prop39
140
1.0
102
RTVSPost2010PropOp39
 70
     1
102
RTVSPost2010Prop40
 90
        0
102
RTVSPost2010PropOp40
 70
     1
102
RTVSPost2010Prop41ColorIndex
 90
       18
102
RTVSPost2010Prop41ColorRGB
 90
        0
102
RTVSPost2010PropOp41
 70
     1
102
RTVSPost2010Prop42
 90
       50
102
RTVSPost2010PropOp42
 70
     1
102
RTVSPost2010Prop43
 90
        3
102
RTVSPost2010PropOp43
 70
     1
102
RTVSPost2010Prop44ColorIndex
 90
        5
102
RTVSPost2010Prop44ColorRGB
 90
      255
102
RTVSPost2010PropOp44
 70
     1
102
RTVSPost2010Prop45
280
     0
102
RTVSPost2010PropOp45
 70
     1
102
RTVSPost2010Prop46
 90
       50
102
RTVSPost2010PropOp46
 70
     1
102
RTVSPost2010Prop47
 90
       50
102
RTVSPost2010PropOp47
 70
     1
102
RTVSPost2010Prop48
 90
       50
102
RTVSPost2010PropOp48
 70
     1
102
RTVSPost2010Prop49
280
     0
102
RTVSPost2010PropOp49
 70
     1
102
RTVSPost2010Prop50
 90
       50
102
RTVSPost2010PropOp50
 70
     1
102
RTVSPost2010Prop51ColorIndex
 90
      256
102
RTVSPost2010Prop51ColorRGB
 90
-16777216
102
RTVSPost2010PropOp51
 70
     0
102
RTVSPost2010Prop52
140
1.0
102
RTVSPost2010PropOp52
 70
     0
102
RTVSPost2010Prop53
 90
        2
102
RTVSPost2010PropOp53
 70
     1
102
RTVSPost2010Prop54
  1
strokes_ogs.tif
102
RTVSPost2010PropOp54
 70
     1
102
RTVSPost2010Prop55
280
     0
102
RTVSPost2010PropOp55
 70
     1
102
RTVSPost2010Prop56
140
1.0
102
RTVSPost2010PropOp56
 70
     1
102
RTVSPost2010Prop57
140
1.0
102
RTVSPost2010PropOp57
 70
     1
102
RTVSPropertyOp0
 70
     1
102
RTVSPropertyOp1
 70
     1
102
RTVSPropertyOp2
 70
     1
102
RTVSPropertyOp3
 70
     1
102
RTVSPropertyOp4
 70
     1
102
RTVSPropertyOp5
 70
     1
102
RTVSPropertyOp6
 70
     1
102
RTVSPropertyOp7
 70
     1
102
RTVSPropertyOp8
 70
     1
102
RTVSPropertyOp9
 70
     1
102
RTVSPropertyOp10
 70
     1
102
RTVSPropertyOp11
 70
     1
102
RTVSPropertyOp12
 70
     1
102
RTVSPropertyOp13
 70
     1
102
RTVSPropertyOp14
 70
     1
102
RTVSPropertyOp15
 70
     1
102
RTVSPropertyOp16
 70
     1
102
RTVSPropertyOp17
 70
     1
102
RTVSPropertyOp18
 70
     1
102
RTVSPropertyOp19
 70
     1
102
RTVSPropertyOp20
 70
     1
102
RTVSPropertyOp21
 70
     1
102
RTVSPropertyOp22
 70
     1
102
RTVSPropertyOp23
 70
     1
102
RTVSPropertyOp24
 70
     1
102
RTVSPropertyOp25
 70
     1
102
RTVSPropertyOp26
 70
     1
102
RTVSPropertyOp27
 70
     1
102
RTVSPropertyOp28
 70
     1
102
RTVSPropertyOp29
 70
     1
102
RTVSPropertyOp30
 70
     1
102
RTVSPropertyOp31
 70
     1
102
RTVSPropertyOp32
 70
     1
102
RTVSPropertyOp33
 70
     1
102
RTVSPropertyOp34
 70
     1
102
RTVSPropertyOp35
 70
     1
102
RTVSPropertyOp36
 70
     1
102
RTVSPropertyOp37
 70
     1
102
RTVSPropertyOp38
 70
     1
102
RTVSPropertyOp39
 70
     1
102
RTVSPropertyOp40
 70
     1
102
RTVSPropertyOp41
 70
     1
102
RTVSPropertyOp42
 70
     1
102
RTVSPropertyOp43
 70
     1
102
RTVSPropertyOp44
 70
     1
102
RTVSPropertyOp45
 70
     1
102
RTVSPropertyOp46
 70
     1
102
RTVSPropertyOp47
 70
     1
102
RTVSPropertyOp48
 70
     1
102
RTVSPropertyOp49
 70
     1
102
RTVSPropertyOp50
 70
     1
102
RTVSPropertyOp51
 70
     0
102
RTVSPropertyOp52
 70
     0
102
RTVSPropertyOp53
 70
     1
102
RTVSPropertyOp54
 70
     1
102
RTVSPropertyOp55
 70
     1
102
RTVSPropertyOp56
 70
     1
102
RTVSPropertyOp57
 70
     1
102
RTVSPropertyOp58
 70
     1
102
RTVSPropertyOp59
 70
     1
102
RTVSPropertyOp60
 70
     1
102
RTVSPropertyOp61
 70
     1
102
RTVSPropertyOp62
 70
     1
  0
XRECORD
  5
CCCA
102
{ACAD_REACTORS
330
CCC9
102
}
330
CCC9
100
AcDbXrecord
280
     1
102
RTVSPost2010Prop28
280
     0
102
RTVSPost2010PropOp28
 70
     1
102
RTVSPost2010Prop29
280
     1
102
RTVSPost2010PropOp29
 70
     1
102
RTVSPost2010Prop30
280
     1
102
RTVSPost2010PropOp30
 70
     1
102
RTVSPost2010Prop31
280
     0
102
RTVSPost2010PropOp31
 70
     1
102
RTVSPost2010Prop32
280
     0
102
RTVSPost2010PropOp32
 70
     1
102
RTVSPost2010Prop33
280
     0
102
RTVSPost2010PropOp33
 70
     1
102
RTVSPost2010Prop34
280
     0
102
RTVSPost2010PropOp34
 70
     1
102
RTVSPost2010Prop35
280
     0
102
RTVSPost2010PropOp35
 70
     1
102
RTVSPost2010Prop36
280
     0
102
RTVSPost2010PropOp36
 70
     1
102
RTVSPost2010Prop37
 90
       50
102
RTVSPost2010PropOp37
 70
     1
102
RTVSPost2010Prop38
140
0.0
102
RTVSPost2010PropOp38
 70
     1
102
RTVSPost2010Prop39
140
1.0
102
RTVSPost2010PropOp39
 70
     1
102
RTVSPost2010Prop40
 90
        0
102
RTVSPost2010PropOp40
 70
     1
102
RTVSPost2010Prop41ColorIndex
 90
       18
102
RTVSPost2010Prop41ColorRGB
 90
        0
102
RTVSPost2010PropOp41
 70
     1
102
RTVSPost2010Prop42
 90
       50
102
RTVSPost2010PropOp42
 70
     1
102
RTVSPost2010Prop43
 90
        3
102
RTVSPost2010PropOp43
 70
     1
102
RTVSPost2010Prop44ColorIndex
 90
        5
102
RTVSPost2010Prop44ColorRGB
 90
      255
102
RTVSPost2010PropOp44
 70
     1
102
RTVSPost2010Prop45
280
     0
102
RTVSPost2010PropOp45
 70
     1
102
RTVSPost2010Prop46
 90
       50
102
RTVSPost2010PropOp46
 70
     1
102
RTVSPost2010Prop47
 90
       50
102
RTVSPost2010PropOp47
 70
     1
102
RTVSPost2010Prop48
 90
       50
102
RTVSPost2010PropOp48
 70
     1
102
RTVSPost2010Prop49
280
     0
102
RTVSPost2010PropOp49
 70
     1
102
RTVSPost2010Prop50
 90
       50
102
RTVSPost2010PropOp50
 70
     1
102
RTVSPost2010Prop51ColorIndex
 90
      256
102
RTVSPost2010Prop51ColorRGB
 90
-16777216
102
RTVSPost2010PropOp51
 70
     0
102
RTVSPost2010Prop52
140
1.0
102
RTVSPost2010PropOp52
 70
     0
102
RTVSPost2010Prop53
 90
        2
102
RTVSPost2010PropOp53
 70
     1
102
RTVSPost2010Prop54
  1
strokes_ogs.tif
102
RTVSPost2010PropOp54
 70
     1
102
RTVSPost2010Prop55
280
     0
102
RTVSPost2010PropOp55
 70
     1
102
RTVSPost2010Prop56
140
1.0
102
RTVSPost2010PropOp56
 70
     1
102
RTVSPost2010Prop57
140
1.0
102
RTVSPost2010PropOp57
 70
     1
102
RTVSPropertyOp0
 70
     1
102
RTVSPropertyOp1
 70
     1
102
RTVSPropertyOp2
 70
     1
102
RTVSPropertyOp3
 70
     1
102
RTVSPropertyOp4
 70
     1
102
RTVSPropertyOp5
 70
     1
102
RTVSPropertyOp6
 70
     1
102
RTVSPropertyOp7
 70
     1
102
RTVSPropertyOp8
 70
     1
102
RTVSPropertyOp9
 70
     1
102
RTVSPropertyOp10
 70
     1
102
RTVSPropertyOp11
 70
     1
102
RTVSPropertyOp12
 70
     1
102
RTVSPropertyOp13
 70
     1
102
RTVSPropertyOp14
 70
     1
102
RTVSPropertyOp15
 70
     1
102
RTVSPropertyOp16
 70
     1
102
RTVSPropertyOp17
 70
     1
102
RTVSPropertyOp18
 70
     1
102
RTVSPropertyOp19
 70
     1
102
RTVSPropertyOp20
 70
     1
102
RTVSPropertyOp21
 70
     1
102
RTVSPropertyOp22
 70
     1
102
RTVSPropertyOp23
 70
     1
102
RTVSPropertyOp24
 70
     1
102
RTVSPropertyOp25
 70
     1
102
RTVSPropertyOp26
 70
     1
102
RTVSPropertyOp27
 70
     1
102
RTVSPropertyOp28
 70
     1
102
RTVSPropertyOp29
 70
     1
102
RTVSPropertyOp30
 70
     1
102
RTVSPropertyOp31
 70
     1
102
RTVSPropertyOp32
 70
     1
102
RTVSPropertyOp33
 70
     1
102
RTVSPropertyOp34
 70
     1
102
RTVSPropertyOp35
 70
     1
102
RTVSPropertyOp36
 70
     1
102
RTVSPropertyOp37
 70
     1
102
RTVSPropertyOp38
 70
     1
102
RTVSPropertyOp39
 70
     1
102
RTVSPropertyOp40
 70
     1
102
RTVSPropertyOp41
 70
     1
102
RTVSPropertyOp42
 70
     1
102
RTVSPropertyOp43
 70
     1
102
RTVSPropertyOp44
 70
     1
102
RTVSPropertyOp45
 70
     1
102
RTVSPropertyOp46
 70
     1
102
RTVSPropertyOp47
 70
     1
102
RTVSPropertyOp48
 70
     1
102
RTVSPropertyOp49
 70
     1
102
RTVSPropertyOp50
 70
     1
102
RTVSPropertyOp51
 70
     0
102
RTVSPropertyOp52
 70
     0
102
RTVSPropertyOp53
 70
     1
102
RTVSPropertyOp54
 70
     1
102
RTVSPropertyOp55
 70
     1
102
RTVSPropertyOp56
 70
     1
102
RTVSPropertyOp57
 70
     1
102
RTVSPropertyOp58
 70
     1
102
RTVSPropertyOp59
 70
     1
102
RTVSPropertyOp60
 70
     1
102
RTVSPropertyOp61
 70
     1
102
RTVSPropertyOp62
 70
     1
  0
XRECORD
  5
CCCE
102
{ACAD_REACTORS
330
CCCD
102
}
330
CCCD
100
AcDbXrecord
280
     1
102
RTVSPost2010Prop28
280
     0
102
RTVSPost2010PropOp28
 70
     1
102
RTVSPost2010Prop29
280
     1
102
RTVSPost2010PropOp29
 70
     1
102
RTVSPost2010Prop30
280
     1
102
RTVSPost2010PropOp30
 70
     1
102
RTVSPost2010Prop31
280
     0
102
RTVSPost2010PropOp31
 70
     1
102
RTVSPost2010Prop32
280
     0
102
RTVSPost2010PropOp32
 70
     1
102
RTVSPost2010Prop33
280
     0
102
RTVSPost2010PropOp33
 70
     1
102
RTVSPost2010Prop34
280
     0
102
RTVSPost2010PropOp34
 70
     1
102
RTVSPost2010Prop35
280
     0
102
RTVSPost2010PropOp35
 70
     1
102
RTVSPost2010Prop36
280
     0
102
RTVSPost2010PropOp36
 70
     1
102
RTVSPost2010Prop37
 90
       50
102
RTVSPost2010PropOp37
 70
     1
102
RTVSPost2010Prop38
140
0.0
102
RTVSPost2010PropOp38
 70
     1
102
RTVSPost2010Prop39
140
1.0
102
RTVSPost2010PropOp39
 70
     1
102
RTVSPost2010Prop40
 90
        0
102
RTVSPost2010PropOp40
 70
     1
102
RTVSPost2010Prop41ColorIndex
 90
       18
102
RTVSPost2010Prop41ColorRGB
 90
        0
102
RTVSPost2010PropOp41
 70
     1
102
RTVSPost2010Prop42
 90
       50
102
RTVSPost2010PropOp42
 70
     1
102
RTVSPost2010Prop43
 90
        3
102
RTVSPost2010PropOp43
 70
     1
102
RTVSPost2010Prop44ColorIndex
 90
        5
102
RTVSPost2010Prop44ColorRGB
 90
      255
102
RTVSPost2010PropOp44
 70
     1
102
RTVSPost2010Prop45
280
     0
102
RTVSPost2010PropOp45
 70
     1
102
RTVSPost2010Prop46
 90
       50
102
RTVSPost2010PropOp46
 70
     1
102
RTVSPost2010Prop47
 90
       50
102
RTVSPost2010PropOp47
 70
     1
102
RTVSPost2010Prop48
 90
       50
102
RTVSPost2010PropOp48
 70
     1
102
RTVSPost2010Prop49
280
     0
102
RTVSPost2010PropOp49
 70
     1
102
RTVSPost2010Prop50
 90
       50
102
RTVSPost2010PropOp50
 70
     1
102
RTVSPost2010Prop51ColorIndex
 90
      256
102
RTVSPost2010Prop51ColorRGB
 90
-16777216
102
RTVSPost2010PropOp51
 70
     0
102
RTVSPost2010Prop52
140
1.0
102
RTVSPost2010PropOp52
 70
     0
102
RTVSPost2010Prop53
 90
        2
102
RTVSPost2010PropOp53
 70
     1
102
RTVSPost2010Prop54
  1
strokes_ogs.tif
102
RTVSPost2010PropOp54
 70
     1
102
RTVSPost2010Prop55
280
     0
102
RTVSPost2010PropOp55
 70
     1
102
RTVSPost2010Prop56
140
1.0
102
RTVSPost2010PropOp56
 70
     1
102
RTVSPost2010Prop57
140
1.0
102
RTVSPost2010PropOp57
 70
     1
102
RTVSPropertyOp0
 70
     1
102
RTVSPropertyOp1
 70
     1
102
RTVSPropertyOp2
 70
     1
102
RTVSPropertyOp3
 70
     1
102
RTVSPropertyOp4
 70
     1
102
RTVSPropertyOp5
 70
     1
102
RTVSPropertyOp6
 70
     1
102
RTVSPropertyOp7
 70
     1
102
RTVSPropertyOp8
 70
     1
102
RTVSPropertyOp9
 70
     1
102
RTVSPropertyOp10
 70
     1
102
RTVSPropertyOp11
 70
     1
102
RTVSPropertyOp12
 70
     1
102
RTVSPropertyOp13
 70
     1
102
RTVSPropertyOp14
 70
     1
102
RTVSPropertyOp15
 70
     1
102
RTVSPropertyOp16
 70
     1
102
RTVSPropertyOp17
 70
     1
102
RTVSPropertyOp18
 70
     1
102
RTVSPropertyOp19
 70
     1
102
RTVSPropertyOp20
 70
     1
102
RTVSPropertyOp21
 70
     1
102
RTVSPropertyOp22
 70
     1
102
RTVSPropertyOp23
 70
     1
102
RTVSPropertyOp24
 70
     1
102
RTVSPropertyOp25
 70
     1
102
RTVSPropertyOp26
 70
     1
102
RTVSPropertyOp27
 70
     1
102
RTVSPropertyOp28
 70
     1
102
RTVSPropertyOp29
 70
     1
102
RTVSPropertyOp30
 70
     1
102
RTVSPropertyOp31
 70
     1
102
RTVSPropertyOp32
 70
     1
102
RTVSPropertyOp33
 70
     1
102
RTVSPropertyOp34
 70
     1
102
RTVSPropertyOp35
 70
     1
102
RTVSPropertyOp36
 70
     1
102
RTVSPropertyOp37
 70
     1
102
RTVSPropertyOp38
 70
     1
102
RTVSPropertyOp39
 70
     1
102
RTVSPropertyOp40
 70
     1
102
RTVSPropertyOp41
 70
     1
102
RTVSPropertyOp42
 70
     1
102
RTVSPropertyOp43
 70
     1
102
RTVSPropertyOp44
 70
     1
102
RTVSPropertyOp45
 70
     1
102
RTVSPropertyOp46
 70
     1
102
RTVSPropertyOp47
 70
     1
102
RTVSPropertyOp48
 70
     1
102
RTVSPropertyOp49
 70
     1
102
RTVSPropertyOp50
 70
     1
102
RTVSPropertyOp51
 70
     0
102
RTVSPropertyOp52
 70
     0
102
RTVSPropertyOp53
 70
     1
102
RTVSPropertyOp54
 70
     1
102
RTVSPropertyOp55
 70
     1
102
RTVSPropertyOp56
 70
     1
102
RTVSPropertyOp57
 70
     1
102
RTVSPropertyOp58
 70
     1
102
RTVSPropertyOp59
 70
     1
102
RTVSPropertyOp60
 70
     1
102
RTVSPropertyOp61
 70
     1
102
RTVSPropertyOp62
 70
     1
  0
XRECORD
  5
CCE8
102
{ACAD_REACTORS
330
CCE7
102
}
330
CCE7
100
AcDbXrecord
280
     1
102
RTVSPost2010Prop28
280
     0
102
RTVSPost2010PropOp28
 70
     1
102
RTVSPost2010Prop29
280
     1
102
RTVSPost2010PropOp29
 70
     1
102
RTVSPost2010Prop30
280
     1
102
RTVSPost2010PropOp30
 70
     1
102
RTVSPost2010Prop31
280
     0
102
RTVSPost2010PropOp31
 70
     1
102
RTVSPost2010Prop32
280
     0
102
RTVSPost2010PropOp32
 70
     1
102
RTVSPost2010Prop33
280
     0
102
RTVSPost2010PropOp33
 70
     1
102
RTVSPost2010Prop34
280
     0
102
RTVSPost2010PropOp34
 70
     1
102
RTVSPost2010Prop35
280
     0
102
RTVSPost2010PropOp35
 70
     1
102
RTVSPost2010Prop36
280
     0
102
RTVSPost2010PropOp36
 70
     1
102
RTVSPost2010Prop37
 90
       50
102
RTVSPost2010PropOp37
 70
     0
102
RTVSPost2010Prop38
140
0.0
102
RTVSPost2010PropOp38
 70
     0
102
RTVSPost2010Prop39
140
1.0
102
RTVSPost2010PropOp39
 70
     0
102
RTVSPost2010Prop40
 90
        0
102
RTVSPost2010PropOp40
 70
     0
102
RTVSPost2010Prop41ColorIndex
 90
       18
102
RTVSPost2010Prop41ColorRGB
 90
        0
102
RTVSPost2010PropOp41
 70
     0
102
RTVSPost2010Prop42
 90
       50
102
RTVSPost2010PropOp42
 70
     0
102
RTVSPost2010Prop43
 90
        3
102
RTVSPost2010PropOp43
 70
     0
102
RTVSPost2010Prop44ColorIndex
 90
        5
102
RTVSPost2010Prop44ColorRGB
 90
      255
102
RTVSPost2010PropOp44
 70
     0
102
RTVSPost2010Prop45
280
     0
102
RTVSPost2010PropOp45
 70
     1
102
RTVSPost2010Prop46
 90
       50
102
RTVSPost2010PropOp46
 70
     0
102
RTVSPost2010Prop47
 90
       50
102
RTVSPost2010PropOp47
 70
     0
102
RTVSPost2010Prop48
 90
       50
102
RTVSPost2010PropOp48
 70
     0
102
RTVSPost2010Prop49
280
     0
102
RTVSPost2010PropOp49
 70
     1
102
RTVSPost2010Prop50
 90
       50
102
RTVSPost2010PropOp50
 70
     0
102
RTVSPost2010Prop51ColorIndex
 90
      256
102
RTVSPost2010Prop51ColorRGB
 90
-16777216
102
RTVSPost2010PropOp51
 70
     0
102
RTVSPost2010Prop52
140
1.0
102
RTVSPost2010PropOp52
 70
     0
102
RTVSPost2010Prop53
 90
        2
102
RTVSPost2010PropOp53
 70
     0
102
RTVSPost2010Prop54
  1
strokes_ogs.tif
102
RTVSPost2010PropOp54
 70
     0
102
RTVSPost2010Prop55
280
     0
102
RTVSPost2010PropOp55
 70
     1
102
RTVSPost2010Prop56
140
1.0
102
RTVSPost2010PropOp56
 70
     0
102
RTVSPost2010Prop57
140
1.0
102
RTVSPost2010PropOp57
 70
     0
102
RTVSPropertyOp0
 70
     0
102
RTVSPropertyOp1
 70
     0
102
RTVSPropertyOp2
 70
     0
102
RTVSPropertyOp3
 70
     0
102
RTVSPropertyOp4
 70
     0
102
RTVSPropertyOp5
 70
     0
102
RTVSPropertyOp6
 70
     0
102
RTVSPropertyOp7
 70
     0
102
RTVSPropertyOp8
 70
     0
102
RTVSPropertyOp9
 70
     0
102
RTVSPropertyOp10
 70
     0
102
RTVSPropertyOp11
 70
     0
102
RTVSPropertyOp12
 70
     0
102
RTVSPropertyOp13
 70
     0
102
RTVSPropertyOp14
 70
     2
102
RTVSPropertyOp15
 70
     0
102
RTVSPropertyOp16
 70
     0
102
RTVSPropertyOp17
 70
     0
102
RTVSPropertyOp18
 70
     0
102
RTVSPropertyOp19
 70
     0
102
RTVSPropertyOp20
 70
     0
102
RTVSPropertyOp21
 70
     0
102
RTVSPropertyOp22
 70
     0
102
RTVSPropertyOp23
 70
     0
102
RTVSPropertyOp24
 70
     0
102
RTVSPropertyOp25
 70
     0
102
RTVSPropertyOp26
 70
     0
102
RTVSPropertyOp27
 70
     0
102
RTVSPropertyOp28
 70
     1
102
RTVSPropertyOp29
 70
     1
102
RTVSPropertyOp30
 70
     1
102
RTVSPropertyOp31
 70
     1
102
RTVSPropertyOp32
 70
     1
102
RTVSPropertyOp33
 70
     1
102
RTVSPropertyOp34
 70
     1
102
RTVSPropertyOp35
 70
     1
102
RTVSPropertyOp36
 70
     1
102
RTVSPropertyOp37
 70
     0
102
RTVSPropertyOp38
 70
     0
102
RTVSPropertyOp39
 70
     0
102
RTVSPropertyOp40
 70
     0
102
RTVSPropertyOp41
 70
     0
102
RTVSPropertyOp42
 70
     0
102
RTVSPropertyOp43
 70
     0
102
RTVSPropertyOp44
 70
     0
102
RTVSPropertyOp45
 70
     1
102
RTVSPropertyOp46
 70
     0
102
RTVSPropertyOp47
 70
     0
102
RTVSPropertyOp48
 70
     0
102
RTVSPropertyOp49
 70
     1
102
RTVSPropertyOp50
 70
     0
102
RTVSPropertyOp51
 70
     0
102
RTVSPropertyOp52
 70
     0
102
RTVSPropertyOp53
 70
     0
102
RTVSPropertyOp54
 70
     0
102
RTVSPropertyOp55
 70
     1
102
RTVSPropertyOp56
 70
     0
102
RTVSPropertyOp57
 70
     0
102
RTVSPropertyOp58
 70
     0
102
RTVSPropertyOp59
 70
     0
102
RTVSPropertyOp60
 70
     0
102
RTVSPropertyOp61
 70
     0
102
RTVSPropertyOp62
 70
     0
  0
XRECORD
  5
CCD6
102
{ACAD_REACTORS
330
CCD5
102
}
330
CCD5
100
AcDbXrecord
280
     1
102
RTVSPost2010Prop28
280
     0
102
RTVSPost2010PropOp28
 70
     1
102
RTVSPost2010Prop29
280
     1
102
RTVSPost2010PropOp29
 70
     1
102
RTVSPost2010Prop30
280
     1
102
RTVSPost2010PropOp30
 70
     1
102
RTVSPost2010Prop31
280
     0
102
RTVSPost2010PropOp31
 70
     1
102
RTVSPost2010Prop32
280
     0
102
RTVSPost2010PropOp32
 70
     1
102
RTVSPost2010Prop33
280
     0
102
RTVSPost2010PropOp33
 70
     1
102
RTVSPost2010Prop34
280
     0
102
RTVSPost2010PropOp34
 70
     1
102
RTVSPost2010Prop35
280
     0
102
RTVSPost2010PropOp35
 70
     1
102
RTVSPost2010Prop36
280
     0
102
RTVSPost2010PropOp36
 70
     1
102
RTVSPost2010Prop37
 90
       50
102
RTVSPost2010PropOp37
 70
     1
102
RTVSPost2010Prop38
140
0.0
102
RTVSPost2010PropOp38
 70
     1
102
RTVSPost2010Prop39
140
1.0
102
RTVSPost2010PropOp39
 70
     1
102
RTVSPost2010Prop40
 90
        0
102
RTVSPost2010PropOp40
 70
     1
102
RTVSPost2010Prop41ColorIndex
 90
       18
102
RTVSPost2010Prop41ColorRGB
 90
        0
102
RTVSPost2010PropOp41
 70
     1
102
RTVSPost2010Prop42
 90
       50
102
RTVSPost2010PropOp42
 70
     1
102
RTVSPost2010Prop43
 90
        3
102
RTVSPost2010PropOp43
 70
     1
102
RTVSPost2010Prop44ColorIndex
 90
        5
102
RTVSPost2010Prop44ColorRGB
 90
      255
102
RTVSPost2010PropOp44
 70
     1
102
RTVSPost2010Prop45
280
     0
102
RTVSPost2010PropOp45
 70
     1
102
RTVSPost2010Prop46
 90
       50
102
RTVSPost2010PropOp46
 70
     1
102
RTVSPost2010Prop47
 90
       50
102
RTVSPost2010PropOp47
 70
     1
102
RTVSPost2010Prop48
 90
       50
102
RTVSPost2010PropOp48
 70
     1
102
RTVSPost2010Prop49
280
     0
102
RTVSPost2010PropOp49
 70
     1
102
RTVSPost2010Prop50
 90
       50
102
RTVSPost2010PropOp50
 70
     1
102
RTVSPost2010Prop51ColorIndex
 90
      256
102
RTVSPost2010Prop51ColorRGB
 90
-16777216
102
RTVSPost2010PropOp51
 70
     0
102
RTVSPost2010Prop52
140
1.0
102
RTVSPost2010PropOp52
 70
     0
102
RTVSPost2010Prop53
 90
        2
102
RTVSPost2010PropOp53
 70
     1
102
RTVSPost2010Prop54
  1
strokes_ogs.tif
102
RTVSPost2010PropOp54
 70
     1
102
RTVSPost2010Prop55
280
     0
102
RTVSPost2010PropOp55
 70
     1
102
RTVSPost2010Prop56
140
1.0
102
RTVSPost2010PropOp56
 70
     1
102
RTVSPost2010Prop57
140
1.0
102
RTVSPost2010PropOp57
 70
     1
102
RTVSPropertyOp0
 70
     1
102
RTVSPropertyOp1
 70
     1
102
RTVSPropertyOp2
 70
     1
102
RTVSPropertyOp3
 70
     1
102
RTVSPropertyOp4
 70
     1
102
RTVSPropertyOp5
 70
     1
102
RTVSPropertyOp6
 70
     1
102
RTVSPropertyOp7
 70
     1
102
RTVSPropertyOp8
 70
     1
102
RTVSPropertyOp9
 70
     1
102
RTVSPropertyOp10
 70
     1
102
RTVSPropertyOp11
 70
     1
102
RTVSPropertyOp12
 70
     1
102
RTVSPropertyOp13
 70
     1
102
RTVSPropertyOp14
 70
     1
102
RTVSPropertyOp15
 70
     1
102
RTVSPropertyOp16
 70
     1
102
RTVSPropertyOp17
 70
     1
102
RTVSPropertyOp18
 70
     1
102
RTVSPropertyOp19
 70
     1
102
RTVSPropertyOp20
 70
     1
102
RTVSPropertyOp21
 70
     1
102
RTVSPropertyOp22
 70
     1
102
RTVSPropertyOp23
 70
     1
102
RTVSPropertyOp24
 70
     1
102
RTVSPropertyOp25
 70
     1
102
RTVSPropertyOp26
 70
     1
102
RTVSPropertyOp27
 70
     1
102
RTVSPropertyOp28
 70
     1
102
RTVSPropertyOp29
 70
     1
102
RTVSPropertyOp30
 70
     1
102
RTVSPropertyOp31
 70
     1
102
RTVSPropertyOp32
 70
     1
102
RTVSPropertyOp33
 70
     1
102
RTVSPropertyOp34
 70
     1
102
RTVSPropertyOp35
 70
     1
102
RTVSPropertyOp36
 70
     1
102
RTVSPropertyOp37
 70
     1
102
RTVSPropertyOp38
 70
     1
102
RTVSPropertyOp39
 70
     1
102
RTVSPropertyOp40
 70
     1
102
RTVSPropertyOp41
 70
     1
102
RTVSPropertyOp42
 70
     1
102
RTVSPropertyOp43
 70
     1
102
RTVSPropertyOp44
 70
     1
102
RTVSPropertyOp45
 70
     1
102
RTVSPropertyOp46
 70
     1
102
RTVSPropertyOp47
 70
     1
102
RTVSPropertyOp48
 70
     1
102
RTVSPropertyOp49
 70
     1
102
RTVSPropertyOp50
 70
     1
102
RTVSPropertyOp51
 70
     0
102
RTVSPropertyOp52
 70
     0
102
RTVSPropertyOp53
 70
     1
102
RTVSPropertyOp54
 70
     1
102
RTVSPropertyOp55
 70
     1
102
RTVSPropertyOp56
 70
     1
102
RTVSPropertyOp57
 70
     1
102
RTVSPropertyOp58
 70
     1
102
RTVSPropertyOp59
 70
     1
102
RTVSPropertyOp60
 70
     1
102
RTVSPropertyOp61
 70
     1
102
RTVSPropertyOp62
 70
     1
  0
XRECORD
  5
CCBA
102
{ACAD_REACTORS
330
CCB9
102
}
330
CCB9
100
AcDbXrecord
280
     1
102
RTVSPost2010Prop28
280
     0
102
RTVSPost2010PropOp28
 70
     1
102
RTVSPost2010Prop29
280
     1
102
RTVSPost2010PropOp29
 70
     1
102
RTVSPost2010Prop30
280
     1
102
RTVSPost2010PropOp30
 70
     1
102
RTVSPost2010Prop31
280
     0
102
RTVSPost2010PropOp31
 70
     1
102
RTVSPost2010Prop32
280
     0
102
RTVSPost2010PropOp32
 70
     1
102
RTVSPost2010Prop33
280
     0
102
RTVSPost2010PropOp33
 70
     1
102
RTVSPost2010Prop34
280
     0
102
RTVSPost2010PropOp34
 70
     1
102
RTVSPost2010Prop35
280
     0
102
RTVSPost2010PropOp35
 70
     1
102
RTVSPost2010Prop36
280
     0
102
RTVSPost2010PropOp36
 70
     1
102
RTVSPost2010Prop37
 90
       50
102
RTVSPost2010PropOp37
 70
     1
102
RTVSPost2010Prop38
140
0.0
102
RTVSPost2010PropOp38
 70
     1
102
RTVSPost2010Prop39
140
1.0
102
RTVSPost2010PropOp39
 70
     1
102
RTVSPost2010Prop40
 90
        0
102
RTVSPost2010PropOp40
 70
     1
102
RTVSPost2010Prop41ColorIndex
 90
       18
102
RTVSPost2010Prop41ColorRGB
 90
        0
102
RTVSPost2010PropOp41
 70
     1
102
RTVSPost2010Prop42
 90
       50
102
RTVSPost2010PropOp42
 70
     1
102
RTVSPost2010Prop43
 90
        3
102
RTVSPost2010PropOp43
 70
     1
102
RTVSPost2010Prop44ColorIndex
 90
        5
102
RTVSPost2010Prop44ColorRGB
 90
      255
102
RTVSPost2010PropOp44
 70
     1
102
RTVSPost2010Prop45
280
     0
102
RTVSPost2010PropOp45
 70
     1
102
RTVSPost2010Prop46
 90
       50
102
RTVSPost2010PropOp46
 70
     1
102
RTVSPost2010Prop47
 90
       50
102
RTVSPost2010PropOp47
 70
     1
102
RTVSPost2010Prop48
 90
       50
102
RTVSPost2010PropOp48
 70
     1
102
RTVSPost2010Prop49
280
     0
102
RTVSPost2010PropOp49
 70
     1
102
RTVSPost2010Prop50
 90
       50
102
RTVSPost2010PropOp50
 70
     1
102
RTVSPost2010Prop51ColorIndex
 90
      256
102
RTVSPost2010Prop51ColorRGB
 90
-16777216
102
RTVSPost2010PropOp51
 70
     0
102
RTVSPost2010Prop52
140
1.0
102
RTVSPost2010PropOp52
 70
     0
102
RTVSPost2010Prop53
 90
        2
102
RTVSPost2010PropOp53
 70
     1
102
RTVSPost2010Prop54
  1
strokes_ogs.tif
102
RTVSPost2010PropOp54
 70
     1
102
RTVSPost2010Prop55
280
     0
102
RTVSPost2010PropOp55
 70
     1
102
RTVSPost2010Prop56
140
1.0
102
RTVSPost2010PropOp56
 70
     1
102
RTVSPost2010Prop57
140
1.0
102
RTVSPost2010PropOp57
 70
     1
102
RTVSPropertyOp0
 70
     1
102
RTVSPropertyOp1
 70
     1
102
RTVSPropertyOp2
 70
     1
102
RTVSPropertyOp3
 70
     1
102
RTVSPropertyOp4
 70
     1
102
RTVSPropertyOp5
 70
     1
102
RTVSPropertyOp6
 70
     1
102
RTVSPropertyOp7
 70
     1
102
RTVSPropertyOp8
 70
     1
102
RTVSPropertyOp9
 70
     1
102
RTVSPropertyOp10
 70
     1
102
RTVSPropertyOp11
 70
     1
102
RTVSPropertyOp12
 70
     1
102
RTVSPropertyOp13
 70
     1
102
RTVSPropertyOp14
 70
     1
102
RTVSPropertyOp15
 70
     1
102
RTVSPropertyOp16
 70
     1
102
RTVSPropertyOp17
 70
     1
102
RTVSPropertyOp18
 70
     1
102
RTVSPropertyOp19
 70
     1
102
RTVSPropertyOp20
 70
     1
102
RTVSPropertyOp21
 70
     1
102
RTVSPropertyOp22
 70
     1
102
RTVSPropertyOp23
 70
     1
102
RTVSPropertyOp24
 70
     1
102
RTVSPropertyOp25
 70
     1
102
RTVSPropertyOp26
 70
     1
102
RTVSPropertyOp27
 70
     1
102
RTVSPropertyOp28
 70
     1
102
RTVSPropertyOp29
 70
     1
102
RTVSPropertyOp30
 70
     1
102
RTVSPropertyOp31
 70
     1
102
RTVSPropertyOp32
 70
     1
102
RTVSPropertyOp33
 70
     1
102
RTVSPropertyOp34
 70
     1
102
RTVSPropertyOp35
 70
     1
102
RTVSPropertyOp36
 70
     1
102
RTVSPropertyOp37
 70
     1
102
RTVSPropertyOp38
 70
     1
102
RTVSPropertyOp39
 70
     1
102
RTVSPropertyOp40
 70
     1
102
RTVSPropertyOp41
 70
     1
102
RTVSPropertyOp42
 70
     1
102
RTVSPropertyOp43
 70
     1
102
RTVSPropertyOp44
 70
     1
102
RTVSPropertyOp45
 70
     1
102
RTVSPropertyOp46
 70
     1
102
RTVSPropertyOp47
 70
     1
102
RTVSPropertyOp48
 70
     1
102
RTVSPropertyOp49
 70
     1
102
RTVSPropertyOp50
 70
     1
102
RTVSPropertyOp51
 70
     0
102
RTVSPropertyOp52
 70
     0
102
RTVSPropertyOp53
 70
     1
102
RTVSPropertyOp54
 70
     1
102
RTVSPropertyOp55
 70
     1
102
RTVSPropertyOp56
 70
     1
102
RTVSPropertyOp57
 70
     1
102
RTVSPropertyOp58
 70
     1
102
RTVSPropertyOp59
 70
     1
102
RTVSPropertyOp60
 70
     1
102
RTVSPropertyOp61
 70
     1
102
RTVSPropertyOp62
 70
     1
  0
XRECORD
  5
CCBC
102
{ACAD_REACTORS
330
CCBB
102
}
330
CCBB
100
AcDbXrecord
280
     1
102
RTVSPost2010Prop28
280
     0
102
RTVSPost2010PropOp28
 70
     1
102
RTVSPost2010Prop29
280
     1
102
RTVSPost2010PropOp29
 70
     1
102
RTVSPost2010Prop30
280
     1
102
RTVSPost2010PropOp30
 70
     1
102
RTVSPost2010Prop31
280
     0
102
RTVSPost2010PropOp31
 70
     1
102
RTVSPost2010Prop32
280
     0
102
RTVSPost2010PropOp32
 70
     1
102
RTVSPost2010Prop33
280
     0
102
RTVSPost2010PropOp33
 70
     1
102
RTVSPost2010Prop34
280
     0
102
RTVSPost2010PropOp34
 70
     1
102
RTVSPost2010Prop35
280
     0
102
RTVSPost2010PropOp35
 70
     1
102
RTVSPost2010Prop36
280
     0
102
RTVSPost2010PropOp36
 70
     1
102
RTVSPost2010Prop37
 90
       50
102
RTVSPost2010PropOp37
 70
     1
102
RTVSPost2010Prop38
140
0.0
102
RTVSPost2010PropOp38
 70
     1
102
RTVSPost2010Prop39
140
1.0
102
RTVSPost2010PropOp39
 70
     1
102
RTVSPost2010Prop40
 90
        0
102
RTVSPost2010PropOp40
 70
     1
102
RTVSPost2010Prop41ColorIndex
 90
       18
102
RTVSPost2010Prop41ColorRGB
 90
        0
102
RTVSPost2010PropOp41
 70
     1
102
RTVSPost2010Prop42
 90
       50
102
RTVSPost2010PropOp42
 70
     1
102
RTVSPost2010Prop43
 90
        3
102
RTVSPost2010PropOp43
 70
     1
102
RTVSPost2010Prop44ColorIndex
 90
        5
102
RTVSPost2010Prop44ColorRGB
 90
      255
102
RTVSPost2010PropOp44
 70
     1
102
RTVSPost2010Prop45
280
     0
102
RTVSPost2010PropOp45
 70
     1
102
RTVSPost2010Prop46
 90
       50
102
RTVSPost2010PropOp46
 70
     1
102
RTVSPost2010Prop47
 90
       50
102
RTVSPost2010PropOp47
 70
     1
102
RTVSPost2010Prop48
 90
       50
102
RTVSPost2010PropOp48
 70
     1
102
RTVSPost2010Prop49
280
     0
102
RTVSPost2010PropOp49
 70
     1
102
RTVSPost2010Prop50
 90
       50
102
RTVSPost2010PropOp50
 70
     1
102
RTVSPost2010Prop51ColorIndex
 90
      256
102
RTVSPost2010Prop51ColorRGB
 90
-16777216
102
RTVSPost2010PropOp51
 70
     0
102
RTVSPost2010Prop52
140
1.0
102
RTVSPost2010PropOp52
 70
     0
102
RTVSPost2010Prop53
 90
        2
102
RTVSPost2010PropOp53
 70
     1
102
RTVSPost2010Prop54
  1
strokes_ogs.tif
102
RTVSPost2010PropOp54
 70
     1
102
RTVSPost2010Prop55
280
     0
102
RTVSPost2010PropOp55
 70
     1
102
RTVSPost2010Prop56
140
1.0
102
RTVSPost2010PropOp56
 70
     1
102
RTVSPost2010Prop57
140
1.0
102
RTVSPost2010PropOp57
 70
     1
102
RTVSPropertyOp0
 70
     1
102
RTVSPropertyOp1
 70
     1
102
RTVSPropertyOp2
 70
     1
102
RTVSPropertyOp3
 70
     1
102
RTVSPropertyOp4
 70
     1
102
RTVSPropertyOp5
 70
     1
102
RTVSPropertyOp6
 70
     1
102
RTVSPropertyOp7
 70
     1
102
RTVSPropertyOp8
 70
     1
102
RTVSPropertyOp9
 70
     1
102
RTVSPropertyOp10
 70
     1
102
RTVSPropertyOp11
 70
     1
102
RTVSPropertyOp12
 70
     1
102
RTVSPropertyOp13
 70
     1
102
RTVSPropertyOp14
 70
     1
102
RTVSPropertyOp15
 70
     1
102
RTVSPropertyOp16
 70
     1
102
RTVSPropertyOp17
 70
     1
102
RTVSPropertyOp18
 70
     1
102
RTVSPropertyOp19
 70
     1
102
RTVSPropertyOp20
 70
     1
102
RTVSPropertyOp21
 70
     1
102
RTVSPropertyOp22
 70
     1
102
RTVSPropertyOp23
 70
     1
102
RTVSPropertyOp24
 70
     1
102
RTVSPropertyOp25
 70
     1
102
RTVSPropertyOp26
 70
     1
102
RTVSPropertyOp27
 70
     1
102
RTVSPropertyOp28
 70
     1
102
RTVSPropertyOp29
 70
     1
102
RTVSPropertyOp30
 70
     1
102
RTVSPropertyOp31
 70
     1
102
RTVSPropertyOp32
 70
     1
102
RTVSPropertyOp33
 70
     1
102
RTVSPropertyOp34
 70
     1
102
RTVSPropertyOp35
 70
     1
102
RTVSPropertyOp36
 70
     1
102
RTVSPropertyOp37
 70
     1
102
RTVSPropertyOp38
 70
     1
102
RTVSPropertyOp39
 70
     1
102
RTVSPropertyOp40
 70
     1
102
RTVSPropertyOp41
 70
     1
102
RTVSPropertyOp42
 70
     1
102
RTVSPropertyOp43
 70
     1
102
RTVSPropertyOp44
 70
     1
102
RTVSPropertyOp45
 70
     1
102
RTVSPropertyOp46
 70
     1
102
RTVSPropertyOp47
 70
     1
102
RTVSPropertyOp48
 70
     1
102
RTVSPropertyOp49
 70
     1
102
RTVSPropertyOp50
 70
     1
102
RTVSPropertyOp51
 70
     0
102
RTVSPropertyOp52
 70
     0
102
RTVSPropertyOp53
 70
     1
102
RTVSPropertyOp54
 70
     1
102
RTVSPropertyOp55
 70
     1
102
RTVSPropertyOp56
 70
     1
102
RTVSPropertyOp57
 70
     1
102
RTVSPropertyOp58
 70
     1
102
RTVSPropertyOp59
 70
     1
102
RTVSPropertyOp60
 70
     1
102
RTVSPropertyOp61
 70
     1
102
RTVSPropertyOp62
 70
     1
  0
XRECORD
  5
CCBE
102
{ACAD_REACTORS
330
CCBD
102
}
330
CCBD
100
AcDbXrecord
280
     1
102
RTVSPost2010Prop28
280
     0
102
RTVSPost2010PropOp28
 70
     1
102
RTVSPost2010Prop29
280
     1
102
RTVSPost2010PropOp29
 70
     1
102
RTVSPost2010Prop30
280
     1
102
RTVSPost2010PropOp30
 70
     1
102
RTVSPost2010Prop31
280
     0
102
RTVSPost2010PropOp31
 70
     1
102
RTVSPost2010Prop32
280
     0
102
RTVSPost2010PropOp32
 70
     1
102
RTVSPost2010Prop33
280
     0
102
RTVSPost2010PropOp33
 70
     1
102
RTVSPost2010Prop34
280
     0
102
RTVSPost2010PropOp34
 70
     1
102
RTVSPost2010Prop35
280
     0
102
RTVSPost2010PropOp35
 70
     1
102
RTVSPost2010Prop36
280
     0
102
RTVSPost2010PropOp36
 70
     1
102
RTVSPost2010Prop37
 90
       50
102
RTVSPost2010PropOp37
 70
     1
102
RTVSPost2010Prop38
140
0.0
102
RTVSPost2010PropOp38
 70
     1
102
RTVSPost2010Prop39
140
1.0
102
RTVSPost2010PropOp39
 70
     1
102
RTVSPost2010Prop40
 90
        0
102
RTVSPost2010PropOp40
 70
     1
102
RTVSPost2010Prop41ColorIndex
 90
       18
102
RTVSPost2010Prop41ColorRGB
 90
        0
102
RTVSPost2010PropOp41
 70
     1
102
RTVSPost2010Prop42
 90
       50
102
RTVSPost2010PropOp42
 70
     1
102
RTVSPost2010Prop43
 90
        3
102
RTVSPost2010PropOp43
 70
     1
102
RTVSPost2010Prop44ColorIndex
 90
        5
102
RTVSPost2010Prop44ColorRGB
 90
      255
102
RTVSPost2010PropOp44
 70
     1
102
RTVSPost2010Prop45
280
     0
102
RTVSPost2010PropOp45
 70
     1
102
RTVSPost2010Prop46
 90
       50
102
RTVSPost2010PropOp46
 70
     1
102
RTVSPost2010Prop47
 90
       50
102
RTVSPost2010PropOp47
 70
     1
102
RTVSPost2010Prop48
 90
       50
102
RTVSPost2010PropOp48
 70
     1
102
RTVSPost2010Prop49
280
     0
102
RTVSPost2010PropOp49
 70
     1
102
RTVSPost2010Prop50
 90
       50
102
RTVSPost2010PropOp50
 70
     1
102
RTVSPost2010Prop51ColorIndex
 90
      256
102
RTVSPost2010Prop51ColorRGB
 90
-16777216
102
RTVSPost2010PropOp51
 70
     0
102
RTVSPost2010Prop52
140
1.0
102
RTVSPost2010PropOp52
 70
     0
102
RTVSPost2010Prop53
 90
        2
102
RTVSPost2010PropOp53
 70
     1
102
RTVSPost2010Prop54
  1
strokes_ogs.tif
102
RTVSPost2010PropOp54
 70
     1
102
RTVSPost2010Prop55
280
     0
102
RTVSPost2010PropOp55
 70
     1
102
RTVSPost2010Prop56
140
1.0
102
RTVSPost2010PropOp56
 70
     1
102
RTVSPost2010Prop57
140
1.0
102
RTVSPost2010PropOp57
 70
     1
102
RTVSPropertyOp0
 70
     1
102
RTVSPropertyOp1
 70
     1
102
RTVSPropertyOp2
 70
     1
102
RTVSPropertyOp3
 70
     1
102
RTVSPropertyOp4
 70
     1
102
RTVSPropertyOp5
 70
     1
102
RTVSPropertyOp6
 70
     1
102
RTVSPropertyOp7
 70
     1
102
RTVSPropertyOp8
 70
     1
102
RTVSPropertyOp9
 70
     1
102
RTVSPropertyOp10
 70
     1
102
RTVSPropertyOp11
 70
     1
102
RTVSPropertyOp12
 70
     1
102
RTVSPropertyOp13
 70
     1
102
RTVSPropertyOp14
 70
     1
102
RTVSPropertyOp15
 70
     1
102
RTVSPropertyOp16
 70
     1
102
RTVSPropertyOp17
 70
     1
102
RTVSPropertyOp18
 70
     1
102
RTVSPropertyOp19
 70
     1
102
RTVSPropertyOp20
 70
     1
102
RTVSPropertyOp21
 70
     1
102
RTVSPropertyOp22
 70
     1
102
RTVSPropertyOp23
 70
     1
102
RTVSPropertyOp24
 70
     1
102
RTVSPropertyOp25
 70
     1
102
RTVSPropertyOp26
 70
     1
102
RTVSPropertyOp27
 70
     1
102
RTVSPropertyOp28
 70
     1
102
RTVSPropertyOp29
 70
     1
102
RTVSPropertyOp30
 70
     1
102
RTVSPropertyOp31
 70
     1
102
RTVSPropertyOp32
 70
     1
102
RTVSPropertyOp33
 70
     1
102
RTVSPropertyOp34
 70
     1
102
RTVSPropertyOp35
 70
     1
102
RTVSPropertyOp36
 70
     1
102
RTVSPropertyOp37
 70
     1
102
RTVSPropertyOp38
 70
     1
102
RTVSPropertyOp39
 70
     1
102
RTVSPropertyOp40
 70
     1
102
RTVSPropertyOp41
 70
     1
102
RTVSPropertyOp42
 70
     1
102
RTVSPropertyOp43
 70
     1
102
RTVSPropertyOp44
 70
     1
102
RTVSPropertyOp45
 70
     1
102
RTVSPropertyOp46
 70
     1
102
RTVSPropertyOp47
 70
     1
102
RTVSPropertyOp48
 70
     1
102
RTVSPropertyOp49
 70
     1
102
RTVSPropertyOp50
 70
     1
102
RTVSPropertyOp51
 70
     0
102
RTVSPropertyOp52
 70
     0
102
RTVSPropertyOp53
 70
     1
102
RTVSPropertyOp54
 70
     1
102
RTVSPropertyOp55
 70
     1
102
RTVSPropertyOp56
 70
     1
102
RTVSPropertyOp57
 70
     1
102
RTVSPropertyOp58
 70
     1
102
RTVSPropertyOp59
 70
     1
102
RTVSPropertyOp60
 70
     1
102
RTVSPropertyOp61
 70
     1
102
RTVSPropertyOp62
 70
     1
  0
XRECORD
  5
CCC0
102
{ACAD_REACTORS
330
CCBF
102
}
330
CCBF
100
AcDbXrecord
280
     1
102
RTVSPost2010Prop28
280
     0
102
RTVSPost2010PropOp28
 70
     1
102
RTVSPost2010Prop29
280
     1
102
RTVSPost2010PropOp29
 70
     1
102
RTVSPost2010Prop30
280
     1
102
RTVSPost2010PropOp30
 70
     1
102
RTVSPost2010Prop31
280
     0
102
RTVSPost2010PropOp31
 70
     1
102
RTVSPost2010Prop32
280
     0
102
RTVSPost2010PropOp32
 70
     1
102
RTVSPost2010Prop33
280
     0
102
RTVSPost2010PropOp33
 70
     1
102
RTVSPost2010Prop34
280
     0
102
RTVSPost2010PropOp34
 70
     1
102
RTVSPost2010Prop35
280
     0
102
RTVSPost2010PropOp35
 70
     1
102
RTVSPost2010Prop36
280
     0
102
RTVSPost2010PropOp36
 70
     1
102
RTVSPost2010Prop37
 90
       50
102
RTVSPost2010PropOp37
 70
     1
102
RTVSPost2010Prop38
140
0.0
102
RTVSPost2010PropOp38
 70
     1
102
RTVSPost2010Prop39
140
1.0
102
RTVSPost2010PropOp39
 70
     1
102
RTVSPost2010Prop40
 90
        0
102
RTVSPost2010PropOp40
 70
     1
102
RTVSPost2010Prop41ColorIndex
 90
       18
102
RTVSPost2010Prop41ColorRGB
 90
        0
102
RTVSPost2010PropOp41
 70
     1
102
RTVSPost2010Prop42
 90
       50
102
RTVSPost2010PropOp42
 70
     1
102
RTVSPost2010Prop43
 90
        3
102
RTVSPost2010PropOp43
 70
     1
102
RTVSPost2010Prop44ColorIndex
 90
        5
102
RTVSPost2010Prop44ColorRGB
 90
      255
102
RTVSPost2010PropOp44
 70
     1
102
RTVSPost2010Prop45
280
     0
102
RTVSPost2010PropOp45
 70
     1
102
RTVSPost2010Prop46
 90
       50
102
RTVSPost2010PropOp46
 70
     1
102
RTVSPost2010Prop47
 90
       50
102
RTVSPost2010PropOp47
 70
     1
102
RTVSPost2010Prop48
 90
       50
102
RTVSPost2010PropOp48
 70
     1
102
RTVSPost2010Prop49
280
     0
102
RTVSPost2010PropOp49
 70
     1
102
RTVSPost2010Prop50
 90
       50
102
RTVSPost2010PropOp50
 70
     1
102
RTVSPost2010Prop51ColorIndex
 90
      256
102
RTVSPost2010Prop51ColorRGB
 90
-16777216
102
RTVSPost2010PropOp51
 70
     0
102
RTVSPost2010Prop52
140
1.0
102
RTVSPost2010PropOp52
 70
     0
102
RTVSPost2010Prop53
 90
        2
102
RTVSPost2010PropOp53
 70
     1
102
RTVSPost2010Prop54
  1
strokes_ogs.tif
102
RTVSPost2010PropOp54
 70
     1
102
RTVSPost2010Prop55
280
     0
102
RTVSPost2010PropOp55
 70
     1
102
RTVSPost2010Prop56
140
1.0
102
RTVSPost2010PropOp56
 70
     1
102
RTVSPost2010Prop57
140
1.0
102
RTVSPost2010PropOp57
 70
     1
102
RTVSPropertyOp0
 70
     1
102
RTVSPropertyOp1
 70
     1
102
RTVSPropertyOp2
 70
     1
102
RTVSPropertyOp3
 70
     1
102
RTVSPropertyOp4
 70
     1
102
RTVSPropertyOp5
 70
     1
102
RTVSPropertyOp6
 70
     1
102
RTVSPropertyOp7
 70
     1
102
RTVSPropertyOp8
 70
     1
102
RTVSPropertyOp9
 70
     1
102
RTVSPropertyOp10
 70
     1
102
RTVSPropertyOp11
 70
     1
102
RTVSPropertyOp12
 70
     1
102
RTVSPropertyOp13
 70
     1
102
RTVSPropertyOp14
 70
     1
102
RTVSPropertyOp15
 70
     1
102
RTVSPropertyOp16
 70
     1
102
RTVSPropertyOp17
 70
     1
102
RTVSPropertyOp18
 70
     1
102
RTVSPropertyOp19
 70
     1
102
RTVSPropertyOp20
 70
     1
102
RTVSPropertyOp21
 70
     1
102
RTVSPropertyOp22
 70
     1
102
RTVSPropertyOp23
 70
     1
102
RTVSPropertyOp24
 70
     1
102
RTVSPropertyOp25
 70
     1
102
RTVSPropertyOp26
 70
     1
102
RTVSPropertyOp27
 70
     1
102
RTVSPropertyOp28
 70
     1
102
RTVSPropertyOp29
 70
     1
102
RTVSPropertyOp30
 70
     1
102
RTVSPropertyOp31
 70
     1
102
RTVSPropertyOp32
 70
     1
102
RTVSPropertyOp33
 70
     1
102
RTVSPropertyOp34
 70
     1
102
RTVSPropertyOp35
 70
     1
102
RTVSPropertyOp36
 70
     1
102
RTVSPropertyOp37
 70
     1
102
RTVSPropertyOp38
 70
     1
102
RTVSPropertyOp39
 70
     1
102
RTVSPropertyOp40
 70
     1
102
RTVSPropertyOp41
 70
     1
102
RTVSPropertyOp42
 70
     1
102
RTVSPropertyOp43
 70
     1
102
RTVSPropertyOp44
 70
     1
102
RTVSPropertyOp45
 70
     1
102
RTVSPropertyOp46
 70
     1
102
RTVSPropertyOp47
 70
     1
102
RTVSPropertyOp48
 70
     1
102
RTVSPropertyOp49
 70
     1
102
RTVSPropertyOp50
 70
     1
102
RTVSPropertyOp51
 70
     0
102
RTVSPropertyOp52
 70
     0
102
RTVSPropertyOp53
 70
     1
102
RTVSPropertyOp54
 70
     1
102
RTVSPropertyOp55
 70
     1
102
RTVSPropertyOp56
 70
     1
102
RTVSPropertyOp57
 70
     1
102
RTVSPropertyOp58
 70
     1
102
RTVSPropertyOp59
 70
     1
102
RTVSPropertyOp60
 70
     1
102
RTVSPropertyOp61
 70
     1
102
RTVSPropertyOp62
 70
     1
  0
XRECORD
  5
CCC8
102
{ACAD_REACTORS
330
CCC7
102
}
330
CCC7
100
AcDbXrecord
280
     1
102
RTVSPost2010Prop28
280
     0
102
RTVSPost2010PropOp28
 70
     1
102
RTVSPost2010Prop29
280
     1
102
RTVSPost2010PropOp29
 70
     1
102
RTVSPost2010Prop30
280
     1
102
RTVSPost2010PropOp30
 70
     1
102
RTVSPost2010Prop31
280
     0
102
RTVSPost2010PropOp31
 70
     1
102
RTVSPost2010Prop32
280
     0
102
RTVSPost2010PropOp32
 70
     1
102
RTVSPost2010Prop33
280
     0
102
RTVSPost2010PropOp33
 70
     1
102
RTVSPost2010Prop34
280
     0
102
RTVSPost2010PropOp34
 70
     1
102
RTVSPost2010Prop35
280
     0
102
RTVSPost2010PropOp35
 70
     1
102
RTVSPost2010Prop36
280
     0
102
RTVSPost2010PropOp36
 70
     1
102
RTVSPost2010Prop37
 90
       50
102
RTVSPost2010PropOp37
 70
     1
102
RTVSPost2010Prop38
140
0.0
102
RTVSPost2010PropOp38
 70
     1
102
RTVSPost2010Prop39
140
1.0
102
RTVSPost2010PropOp39
 70
     1
102
RTVSPost2010Prop40
 90
        0
102
RTVSPost2010PropOp40
 70
     1
102
RTVSPost2010Prop41ColorIndex
 90
       18
102
RTVSPost2010Prop41ColorRGB
 90
        0
102
RTVSPost2010PropOp41
 70
     1
102
RTVSPost2010Prop42
 90
       50
102
RTVSPost2010PropOp42
 70
     1
102
RTVSPost2010Prop43
 90
        3
102
RTVSPost2010PropOp43
 70
     1
102
RTVSPost2010Prop44ColorIndex
 90
        5
102
RTVSPost2010Prop44ColorRGB
 90
      255
102
RTVSPost2010PropOp44
 70
     1
102
RTVSPost2010Prop45
280
     0
102
RTVSPost2010PropOp45
 70
     1
102
RTVSPost2010Prop46
 90
       50
102
RTVSPost2010PropOp46
 70
     1
102
RTVSPost2010Prop47
 90
       50
102
RTVSPost2010PropOp47
 70
     1
102
RTVSPost2010Prop48
 90
       50
102
RTVSPost2010PropOp48
 70
     1
102
RTVSPost2010Prop49
280
     0
102
RTVSPost2010PropOp49
 70
     1
102
RTVSPost2010Prop50
 90
       50
102
RTVSPost2010PropOp50
 70
     1
102
RTVSPost2010Prop51ColorIndex
 90
      256
102
RTVSPost2010Prop51ColorRGB
 90
-16777216
102
RTVSPost2010PropOp51
 70
     0
102
RTVSPost2010Prop52
140
1.0
102
RTVSPost2010PropOp52
 70
     0
102
RTVSPost2010Prop53
 90
        2
102
RTVSPost2010PropOp53
 70
     1
102
RTVSPost2010Prop54
  1
strokes_ogs.tif
102
RTVSPost2010PropOp54
 70
     1
102
RTVSPost2010Prop55
280
     0
102
RTVSPost2010PropOp55
 70
     1
102
RTVSPost2010Prop56
140
1.0
102
RTVSPost2010PropOp56
 70
     1
102
RTVSPost2010Prop57
140
1.0
102
RTVSPost2010PropOp57
 70
     1
102
RTVSPropertyOp0
 70
     1
102
RTVSPropertyOp1
 70
     1
102
RTVSPropertyOp2
 70
     1
102
RTVSPropertyOp3
 70
     1
102
RTVSPropertyOp4
 70
     1
102
RTVSPropertyOp5
 70
     1
102
RTVSPropertyOp6
 70
     1
102
RTVSPropertyOp7
 70
     1
102
RTVSPropertyOp8
 70
     1
102
RTVSPropertyOp9
 70
     1
102
RTVSPropertyOp10
 70
     1
102
RTVSPropertyOp11
 70
     1
102
RTVSPropertyOp12
 70
     1
102
RTVSPropertyOp13
 70
     1
102
RTVSPropertyOp14
 70
     1
102
RTVSPropertyOp15
 70
     1
102
RTVSPropertyOp16
 70
     1
102
RTVSPropertyOp17
 70
     1
102
RTVSPropertyOp18
 70
     1
102
RTVSPropertyOp19
 70
     1
102
RTVSPropertyOp20
 70
     1
102
RTVSPropertyOp21
 70
     1
102
RTVSPropertyOp22
 70
     1
102
RTVSPropertyOp23
 70
     1
102
RTVSPropertyOp24
 70
     1
102
RTVSPropertyOp25
 70
     1
102
RTVSPropertyOp26
 70
     1
102
RTVSPropertyOp27
 70
     1
102
RTVSPropertyOp28
 70
     1
102
RTVSPropertyOp29
 70
     1
102
RTVSPropertyOp30
 70
     1
102
RTVSPropertyOp31
 70
     1
102
RTVSPropertyOp32
 70
     1
102
RTVSPropertyOp33
 70
     1
102
RTVSPropertyOp34
 70
     1
102
RTVSPropertyOp35
 70
     1
102
RTVSPropertyOp36
 70
     1
102
RTVSPropertyOp37
 70
     1
102
RTVSPropertyOp38
 70
     1
102
RTVSPropertyOp39
 70
     1
102
RTVSPropertyOp40
 70
     1
102
RTVSPropertyOp41
 70
     1
102
RTVSPropertyOp42
 70
     1
102
RTVSPropertyOp43
 70
     1
102
RTVSPropertyOp44
 70
     1
102
RTVSPropertyOp45
 70
     1
102
RTVSPropertyOp46
 70
     1
102
RTVSPropertyOp47
 70
     1
102
RTVSPropertyOp48
 70
     1
102
RTVSPropertyOp49
 70
     1
102
RTVSPropertyOp50
 70
     1
102
RTVSPropertyOp51
 70
     0
102
RTVSPropertyOp52
 70
     0
102
RTVSPropertyOp53
 70
     1
102
RTVSPropertyOp54
 70
     1
102
RTVSPropertyOp55
 70
     1
102
RTVSPropertyOp56
 70
     1
102
RTVSPropertyOp57
 70
     1
102
RTVSPropertyOp58
 70
     1
102
RTVSPropertyOp59
 70
     1
102
RTVSPropertyOp60
 70
     1
102
RTVSPropertyOp61
 70
     1
102
RTVSPropertyOp62
 70
     1
  0
XRECORD
  5
CCE4
102
{ACAD_REACTORS
330
CCE3
102
}
330
CCE3
100
AcDbXrecord
280
     1
102
RTVSPost2010Prop28
280
     0
102
RTVSPost2010PropOp28
 70
     1
102
RTVSPost2010Prop29
280
     1
102
RTVSPost2010PropOp29
 70
     1
102
RTVSPost2010Prop30
280
     1
102
RTVSPost2010PropOp30
 70
     1
102
RTVSPost2010Prop31
280
     0
102
RTVSPost2010PropOp31
 70
     1
102
RTVSPost2010Prop32
280
     0
102
RTVSPost2010PropOp32
 70
     1
102
RTVSPost2010Prop33
280
     0
102
RTVSPost2010PropOp33
 70
     1
102
RTVSPost2010Prop34
280
     0
102
RTVSPost2010PropOp34
 70
     1
102
RTVSPost2010Prop35
280
     0
102
RTVSPost2010PropOp35
 70
     1
102
RTVSPost2010Prop36
280
     0
102
RTVSPost2010PropOp36
 70
     1
102
RTVSPost2010Prop37
 90
       50
102
RTVSPost2010PropOp37
 70
     0
102
RTVSPost2010Prop38
140
0.0
102
RTVSPost2010PropOp38
 70
     0
102
RTVSPost2010Prop39
140
1.0
102
RTVSPost2010PropOp39
 70
     0
102
RTVSPost2010Prop40
 90
        0
102
RTVSPost2010PropOp40
 70
     0
102
RTVSPost2010Prop41ColorIndex
 90
       18
102
RTVSPost2010Prop41ColorRGB
 90
        0
102
RTVSPost2010PropOp41
 70
     0
102
RTVSPost2010Prop42
 90
       50
102
RTVSPost2010PropOp42
 70
     0
102
RTVSPost2010Prop43
 90
        3
102
RTVSPost2010PropOp43
 70
     0
102
RTVSPost2010Prop44ColorIndex
 90
        5
102
RTVSPost2010Prop44ColorRGB
 90
      255
102
RTVSPost2010PropOp44
 70
     0
102
RTVSPost2010Prop45
280
     0
102
RTVSPost2010PropOp45
 70
     1
102
RTVSPost2010Prop46
 90
       50
102
RTVSPost2010PropOp46
 70
     0
102
RTVSPost2010Prop47
 90
       50
102
RTVSPost2010PropOp47
 70
     0
102
RTVSPost2010Prop48
 90
       50
102
RTVSPost2010PropOp48
 70
     0
102
RTVSPost2010Prop49
280
     0
102
RTVSPost2010PropOp49
 70
     1
102
RTVSPost2010Prop50
 90
       50
102
RTVSPost2010PropOp50
 70
     0
102
RTVSPost2010Prop51ColorIndex
 90
      256
102
RTVSPost2010Prop51ColorRGB
 90
-16777216
102
RTVSPost2010PropOp51
 70
     0
102
RTVSPost2010Prop52
140
1.0
102
RTVSPost2010PropOp52
 70
     0
102
RTVSPost2010Prop53
 90
        2
102
RTVSPost2010PropOp53
 70
     0
102
RTVSPost2010Prop54
  1
strokes_ogs.tif
102
RTVSPost2010PropOp54
 70
     0
102
RTVSPost2010Prop55
280
     0
102
RTVSPost2010PropOp55
 70
     1
102
RTVSPost2010Prop56
140
1.0
102
RTVSPost2010PropOp56
 70
     0
102
RTVSPost2010Prop57
140
1.0
102
RTVSPost2010PropOp57
 70
     0
102
RTVSPropertyOp0
 70
     0
102
RTVSPropertyOp1
 70
     0
102
RTVSPropertyOp2
 70
     0
102
RTVSPropertyOp3
 70
     0
102
RTVSPropertyOp4
 70
     0
102
RTVSPropertyOp5
 70
     0
102
RTVSPropertyOp6
 70
     0
102
RTVSPropertyOp7
 70
     0
102
RTVSPropertyOp8
 70
     0
102
RTVSPropertyOp9
 70
     0
102
RTVSPropertyOp10
 70
     0
102
RTVSPropertyOp11
 70
     0
102
RTVSPropertyOp12
 70
     0
102
RTVSPropertyOp13
 70
     0
102
RTVSPropertyOp14
 70
     2
102
RTVSPropertyOp15
 70
     0
102
RTVSPropertyOp16
 70
     0
102
RTVSPropertyOp17
 70
     0
102
RTVSPropertyOp18
 70
     0
102
RTVSPropertyOp19
 70
     0
102
RTVSPropertyOp20
 70
     0
102
RTVSPropertyOp21
 70
     0
102
RTVSPropertyOp22
 70
     0
102
RTVSPropertyOp23
 70
     0
102
RTVSPropertyOp24
 70
     0
102
RTVSPropertyOp25
 70
     0
102
RTVSPropertyOp26
 70
     0
102
RTVSPropertyOp27
 70
     0
102
RTVSPropertyOp28
 70
     1
102
RTVSPropertyOp29
 70
     1
102
RTVSPropertyOp30
 70
     1
102
RTVSPropertyOp31
 70
     1
102
RTVSPropertyOp32
 70
     1
102
RTVSPropertyOp33
 70
     1
102
RTVSPropertyOp34
 70
     1
102
RTVSPropertyOp35
 70
     1
102
RTVSPropertyOp36
 70
     1
102
RTVSPropertyOp37
 70
     0
102
RTVSPropertyOp38
 70
     0
102
RTVSPropertyOp39
 70
     0
102
RTVSPropertyOp40
 70
     0
102
RTVSPropertyOp41
 70
     0
102
RTVSPropertyOp42
 70
     0
102
RTVSPropertyOp43
 70
     0
102
RTVSPropertyOp44
 70
     0
102
RTVSPropertyOp45
 70
     1
102
RTVSPropertyOp46
 70
     0
102
RTVSPropertyOp47
 70
     0
102
RTVSPropertyOp48
 70
     0
102
RTVSPropertyOp49
 70
     1
102
RTVSPropertyOp50
 70
     0
102
RTVSPropertyOp51
 70
     0
102
RTVSPropertyOp52
 70
     0
102
RTVSPropertyOp53
 70
     0
102
RTVSPropertyOp54
 70
     0
102
RTVSPropertyOp55
 70
     1
102
RTVSPropertyOp56
 70
     0
102
RTVSPropertyOp57
 70
     0
102
RTVSPropertyOp58
 70
     0
102
RTVSPropertyOp59
 70
     0
102
RTVSPropertyOp60
 70
     0
102
RTVSPropertyOp61
 70
     0
102
RTVSPropertyOp62
 70
     0
  0
XRECORD
  5
CCD4
102
{ACAD_REACTORS
330
CCD3
102
}
330
CCD3
100
AcDbXrecord
280
     1
102
RTVSPost2010Prop28
280
     0
102
RTVSPost2010PropOp28
 70
     1
102
RTVSPost2010Prop29
280
     1
102
RTVSPost2010PropOp29
 70
     1
102
RTVSPost2010Prop30
280
     1
102
RTVSPost2010PropOp30
 70
     1
102
RTVSPost2010Prop31
280
     0
102
RTVSPost2010PropOp31
 70
     1
102
RTVSPost2010Prop32
280
     0
102
RTVSPost2010PropOp32
 70
     1
102
RTVSPost2010Prop33
280
     0
102
RTVSPost2010PropOp33
 70
     1
102
RTVSPost2010Prop34
280
     0
102
RTVSPost2010PropOp34
 70
     1
102
RTVSPost2010Prop35
280
     0
102
RTVSPost2010PropOp35
 70
     1
102
RTVSPost2010Prop36
280
     0
102
RTVSPost2010PropOp36
 70
     1
102
RTVSPost2010Prop37
 90
       50
102
RTVSPost2010PropOp37
 70
     1
102
RTVSPost2010Prop38
140
0.0
102
RTVSPost2010PropOp38
 70
     1
102
RTVSPost2010Prop39
140
1.0
102
RTVSPost2010PropOp39
 70
     1
102
RTVSPost2010Prop40
 90
        0
102
RTVSPost2010PropOp40
 70
     1
102
RTVSPost2010Prop41ColorIndex
 90
       18
102
RTVSPost2010Prop41ColorRGB
 90
        0
102
RTVSPost2010PropOp41
 70
     1
102
RTVSPost2010Prop42
 90
       50
102
RTVSPost2010PropOp42
 70
     1
102
RTVSPost2010Prop43
 90
        3
102
RTVSPost2010PropOp43
 70
     1
102
RTVSPost2010Prop44ColorIndex
 90
        5
102
RTVSPost2010Prop44ColorRGB
 90
      255
102
RTVSPost2010PropOp44
 70
     1
102
RTVSPost2010Prop45
280
     0
102
RTVSPost2010PropOp45
 70
     1
102
RTVSPost2010Prop46
 90
       50
102
RTVSPost2010PropOp46
 70
     1
102
RTVSPost2010Prop47
 90
       50
102
RTVSPost2010PropOp47
 70
     1
102
RTVSPost2010Prop48
 90
       50
102
RTVSPost2010PropOp48
 70
     1
102
RTVSPost2010Prop49
280
     0
102
RTVSPost2010PropOp49
 70
     1
102
RTVSPost2010Prop50
 90
       50
102
RTVSPost2010PropOp50
 70
     1
102
RTVSPost2010Prop51ColorIndex
 90
      256
102
RTVSPost2010Prop51ColorRGB
 90
-16777216
102
RTVSPost2010PropOp51
 70
     0
102
RTVSPost2010Prop52
140
1.0
102
RTVSPost2010PropOp52
 70
     0
102
RTVSPost2010Prop53
 90
        2
102
RTVSPost2010PropOp53
 70
     1
102
RTVSPost2010Prop54
  1
strokes_ogs.tif
102
RTVSPost2010PropOp54
 70
     1
102
RTVSPost2010Prop55
280
     0
102
RTVSPost2010PropOp55
 70
     1
102
RTVSPost2010Prop56
140
1.0
102
RTVSPost2010PropOp56
 70
     1
102
RTVSPost2010Prop57
140
1.0
102
RTVSPost2010PropOp57
 70
     1
102
RTVSPropertyOp0
 70
     1
102
RTVSPropertyOp1
 70
     1
102
RTVSPropertyOp2
 70
     1
102
RTVSPropertyOp3
 70
     1
102
RTVSPropertyOp4
 70
     1
102
RTVSPropertyOp5
 70
     1
102
RTVSPropertyOp6
 70
     1
102
RTVSPropertyOp7
 70
     1
102
RTVSPropertyOp8
 70
     1
102
RTVSPropertyOp9
 70
     1
102
RTVSPropertyOp10
 70
     1
102
RTVSPropertyOp11
 70
     1
102
RTVSPropertyOp12
 70
     1
102
RTVSPropertyOp13
 70
     1
102
RTVSPropertyOp14
 70
     1
102
RTVSPropertyOp15
 70
     1
102
RTVSPropertyOp16
 70
     1
102
RTVSPropertyOp17
 70
     1
102
RTVSPropertyOp18
 70
     1
102
RTVSPropertyOp19
 70
     1
102
RTVSPropertyOp20
 70
     1
102
RTVSPropertyOp21
 70
     1
102
RTVSPropertyOp22
 70
     1
102
RTVSPropertyOp23
 70
     1
102
RTVSPropertyOp24
 70
     1
102
RTVSPropertyOp25
 70
     1
102
RTVSPropertyOp26
 70
     1
102
RTVSPropertyOp27
 70
     1
102
RTVSPropertyOp28
 70
     1
102
RTVSPropertyOp29
 70
     1
102
RTVSPropertyOp30
 70
     1
102
RTVSPropertyOp31
 70
     1
102
RTVSPropertyOp32
 70
     1
102
RTVSPropertyOp33
 70
     1
102
RTVSPropertyOp34
 70
     1
102
RTVSPropertyOp35
 70
     1
102
RTVSPropertyOp36
 70
     1
102
RTVSPropertyOp37
 70
     1
102
RTVSPropertyOp38
 70
     1
102
RTVSPropertyOp39
 70
     1
102
RTVSPropertyOp40
 70
     1
102
RTVSPropertyOp41
 70
     1
102
RTVSPropertyOp42
 70
     1
102
RTVSPropertyOp43
 70
     1
102
RTVSPropertyOp44
 70
     1
102
RTVSPropertyOp45
 70
     1
102
RTVSPropertyOp46
 70
     1
102
RTVSPropertyOp47
 70
     1
102
RTVSPropertyOp48
 70
     1
102
RTVSPropertyOp49
 70
     1
102
RTVSPropertyOp50
 70
     1
102
RTVSPropertyOp51
 70
     0
102
RTVSPropertyOp52
 70
     0
102
RTVSPropertyOp53
 70
     1
102
RTVSPropertyOp54
 70
     1
102
RTVSPropertyOp55
 70
     1
102
RTVSPropertyOp56
 70
     1
102
RTVSPropertyOp57
 70
     1
102
RTVSPropertyOp58
 70
     1
102
RTVSPropertyOp59
 70
     1
102
RTVSPropertyOp60
 70
     1
102
RTVSPropertyOp61
 70
     1
102
RTVSPropertyOp62
 70
     1
  0
XRECORD
  5
CCE6
102
{ACAD_REACTORS
330
CCE5
102
}
330
CCE5
100
AcDbXrecord
280
     1
102
RTVSPost2010Prop28
280
     0
102
RTVSPost2010PropOp28
 70
     1
102
RTVSPost2010Prop29
280
     1
102
RTVSPost2010PropOp29
 70
     1
102
RTVSPost2010Prop30
280
     1
102
RTVSPost2010PropOp30
 70
     1
102
RTVSPost2010Prop31
280
     0
102
RTVSPost2010PropOp31
 70
     1
102
RTVSPost2010Prop32
280
     0
102
RTVSPost2010PropOp32
 70
     1
102
RTVSPost2010Prop33
280
     0
102
RTVSPost2010PropOp33
 70
     1
102
RTVSPost2010Prop34
280
     0
102
RTVSPost2010PropOp34
 70
     1
102
RTVSPost2010Prop35
280
     0
102
RTVSPost2010PropOp35
 70
     1
102
RTVSPost2010Prop36
280
     0
102
RTVSPost2010PropOp36
 70
     1
102
RTVSPost2010Prop37
 90
       50
102
RTVSPost2010PropOp37
 70
     0
102
RTVSPost2010Prop38
140
0.0
102
RTVSPost2010PropOp38
 70
     0
102
RTVSPost2010Prop39
140
1.0
102
RTVSPost2010PropOp39
 70
     0
102
RTVSPost2010Prop40
 90
        0
102
RTVSPost2010PropOp40
 70
     0
102
RTVSPost2010Prop41ColorIndex
 90
       18
102
RTVSPost2010Prop41ColorRGB
 90
        0
102
RTVSPost2010PropOp41
 70
     0
102
RTVSPost2010Prop42
 90
       50
102
RTVSPost2010PropOp42
 70
     0
102
RTVSPost2010Prop43
 90
        3
102
RTVSPost2010PropOp43
 70
     0
102
RTVSPost2010Prop44ColorIndex
 90
        5
102
RTVSPost2010Prop44ColorRGB
 90
      255
102
RTVSPost2010PropOp44
 70
     0
102
RTVSPost2010Prop45
280
     0
102
RTVSPost2010PropOp45
 70
     1
102
RTVSPost2010Prop46
 90
       50
102
RTVSPost2010PropOp46
 70
     0
102
RTVSPost2010Prop47
 90
       50
102
RTVSPost2010PropOp47
 70
     0
102
RTVSPost2010Prop48
 90
       50
102
RTVSPost2010PropOp48
 70
     0
102
RTVSPost2010Prop49
280
     0
102
RTVSPost2010PropOp49
 70
     1
102
RTVSPost2010Prop50
 90
       50
102
RTVSPost2010PropOp50
 70
     0
102
RTVSPost2010Prop51ColorIndex
 90
      256
102
RTVSPost2010Prop51ColorRGB
 90
-16777216
102
RTVSPost2010PropOp51
 70
     0
102
RTVSPost2010Prop52
140
1.0
102
RTVSPost2010PropOp52
 70
     0
102
RTVSPost2010Prop53
 90
        2
102
RTVSPost2010PropOp53
 70
     0
102
RTVSPost2010Prop54
  1
strokes_ogs.tif
102
RTVSPost2010PropOp54
 70
     0
102
RTVSPost2010Prop55
280
     0
102
RTVSPost2010PropOp55
 70
     1
102
RTVSPost2010Prop56
140
1.0
102
RTVSPost2010PropOp56
 70
     0
102
RTVSPost2010Prop57
140
1.0
102
RTVSPost2010PropOp57
 70
     0
102
RTVSPropertyOp0
 70
     0
102
RTVSPropertyOp1
 70
     0
102
RTVSPropertyOp2
 70
     0
102
RTVSPropertyOp3
 70
     0
102
RTVSPropertyOp4
 70
     0
102
RTVSPropertyOp5
 70
     0
102
RTVSPropertyOp6
 70
     0
102
RTVSPropertyOp7
 70
     0
102
RTVSPropertyOp8
 70
     0
102
RTVSPropertyOp9
 70
     0
102
RTVSPropertyOp10
 70
     0
102
RTVSPropertyOp11
 70
     0
102
RTVSPropertyOp12
 70
     0
102
RTVSPropertyOp13
 70
     0
102
RTVSPropertyOp14
 70
     2
102
RTVSPropertyOp15
 70
     0
102
RTVSPropertyOp16
 70
     0
102
RTVSPropertyOp17
 70
     0
102
RTVSPropertyOp18
 70
     0
102
RTVSPropertyOp19
 70
     0
102
RTVSPropertyOp20
 70
     0
102
RTVSPropertyOp21
 70
     0
102
RTVSPropertyOp22
 70
     0
102
RTVSPropertyOp23
 70
     0
102
RTVSPropertyOp24
 70
     0
102
RTVSPropertyOp25
 70
     0
102
RTVSPropertyOp26
 70
     0
102
RTVSPropertyOp27
 70
     0
102
RTVSPropertyOp28
 70
     1
102
RTVSPropertyOp29
 70
     1
102
RTVSPropertyOp30
 70
     1
102
RTVSPropertyOp31
 70
     1
102
RTVSPropertyOp32
 70
     1
102
RTVSPropertyOp33
 70
     1
102
RTVSPropertyOp34
 70
     1
102
RTVSPropertyOp35
 70
     1
102
RTVSPropertyOp36
 70
     1
102
RTVSPropertyOp37
 70
     0
102
RTVSPropertyOp38
 70
     0
102
RTVSPropertyOp39
 70
     0
102
RTVSPropertyOp40
 70
     0
102
RTVSPropertyOp41
 70
     0
102
RTVSPropertyOp42
 70
     0
102
RTVSPropertyOp43
 70
     0
102
RTVSPropertyOp44
 70
     0
102
RTVSPropertyOp45
 70
     1
102
RTVSPropertyOp46
 70
     0
102
RTVSPropertyOp47
 70
     0
102
RTVSPropertyOp48
 70
     0
102
RTVSPropertyOp49
 70
     1
102
RTVSPropertyOp50
 70
     0
102
RTVSPropertyOp51
 70
     0
102
RTVSPropertyOp52
 70
     0
102
RTVSPropertyOp53
 70
     0
102
RTVSPropertyOp54
 70
     0
102
RTVSPropertyOp55
 70
     1
102
RTVSPropertyOp56
 70
     0
102
RTVSPropertyOp57
 70
     0
102
RTVSPropertyOp58
 70
     0
102
RTVSPropertyOp59
 70
     0
102
RTVSPropertyOp60
 70
     0
102
RTVSPropertyOp61
 70
     0
102
RTVSPropertyOp62
 70
     0
  0
XRECORD
  5
CCCC
102
{ACAD_REACTORS
330
CCCB
102
}
330
CCCB
100
AcDbXrecord
280
     1
102
RTVSPost2010Prop28
280
     0
102
RTVSPost2010PropOp28
 70
     1
102
RTVSPost2010Prop29
280
     1
102
RTVSPost2010PropOp29
 70
     1
102
RTVSPost2010Prop30
280
     1
102
RTVSPost2010PropOp30
 70
     1
102
RTVSPost2010Prop31
280
     0
102
RTVSPost2010PropOp31
 70
     1
102
RTVSPost2010Prop32
280
     0
102
RTVSPost2010PropOp32
 70
     1
102
RTVSPost2010Prop33
280
     0
102
RTVSPost2010PropOp33
 70
     1
102
RTVSPost2010Prop34
280
     0
102
RTVSPost2010PropOp34
 70
     1
102
RTVSPost2010Prop35
280
     0
102
RTVSPost2010PropOp35
 70
     1
102
RTVSPost2010Prop36
280
     0
102
RTVSPost2010PropOp36
 70
     1
102
RTVSPost2010Prop37
 90
       50
102
RTVSPost2010PropOp37
 70
     1
102
RTVSPost2010Prop38
140
0.0
102
RTVSPost2010PropOp38
 70
     1
102
RTVSPost2010Prop39
140
1.0
102
RTVSPost2010PropOp39
 70
     1
102
RTVSPost2010Prop40
 90
        0
102
RTVSPost2010PropOp40
 70
     1
102
RTVSPost2010Prop41ColorIndex
 90
       18
102
RTVSPost2010Prop41ColorRGB
 90
        0
102
RTVSPost2010PropOp41
 70
     1
102
RTVSPost2010Prop42
 90
       50
102
RTVSPost2010PropOp42
 70
     1
102
RTVSPost2010Prop43
 90
        3
102
RTVSPost2010PropOp43
 70
     1
102
RTVSPost2010Prop44ColorIndex
 90
        5
102
RTVSPost2010Prop44ColorRGB
 90
      255
102
RTVSPost2010PropOp44
 70
     1
102
RTVSPost2010Prop45
280
     0
102
RTVSPost2010PropOp45
 70
     1
102
RTVSPost2010Prop46
 90
       50
102
RTVSPost2010PropOp46
 70
     1
102
RTVSPost2010Prop47
 90
       50
102
RTVSPost2010PropOp47
 70
     1
102
RTVSPost2010Prop48
 90
       50
102
RTVSPost2010PropOp48
 70
     1
102
RTVSPost2010Prop49
280
     0
102
RTVSPost2010PropOp49
 70
     1
102
RTVSPost2010Prop50
 90
       50
102
RTVSPost2010PropOp50
 70
     1
102
RTVSPost2010Prop51ColorIndex
 90
      256
102
RTVSPost2010Prop51ColorRGB
 90
-16777216
102
RTVSPost2010PropOp51
 70
     0
102
RTVSPost2010Prop52
140
1.0
102
RTVSPost2010PropOp52
 70
     0
102
RTVSPost2010Prop53
 90
        2
102
RTVSPost2010PropOp53
 70
     1
102
RTVSPost2010Prop54
  1
strokes_ogs.tif
102
RTVSPost2010PropOp54
 70
     1
102
RTVSPost2010Prop55
280
     0
102
RTVSPost2010PropOp55
 70
     1
102
RTVSPost2010Prop56
140
1.0
102
RTVSPost2010PropOp56
 70
     1
102
RTVSPost2010Prop57
140
1.0
102
RTVSPost2010PropOp57
 70
     1
102
RTVSPropertyOp0
 70
     1
102
RTVSPropertyOp1
 70
     1
102
RTVSPropertyOp2
 70
     1
102
RTVSPropertyOp3
 70
     1
102
RTVSPropertyOp4
 70
     1
102
RTVSPropertyOp5
 70
     1
102
RTVSPropertyOp6
 70
     1
102
RTVSPropertyOp7
 70
     1
102
RTVSPropertyOp8
 70
     1
102
RTVSPropertyOp9
 70
     1
102
RTVSPropertyOp10
 70
     1
102
RTVSPropertyOp11
 70
     1
102
RTVSPropertyOp12
 70
     1
102
RTVSPropertyOp13
 70
     1
102
RTVSPropertyOp14
 70
     1
102
RTVSPropertyOp15
 70
     1
102
RTVSPropertyOp16
 70
     1
102
RTVSPropertyOp17
 70
     1
102
RTVSPropertyOp18
 70
     1
102
RTVSPropertyOp19
 70
     1
102
RTVSPropertyOp20
 70
     1
102
RTVSPropertyOp21
 70
     1
102
RTVSPropertyOp22
 70
     1
102
RTVSPropertyOp23
 70
     1
102
RTVSPropertyOp24
 70
     1
102
RTVSPropertyOp25
 70
     1
102
RTVSPropertyOp26
 70
     1
102
RTVSPropertyOp27
 70
     1
102
RTVSPropertyOp28
 70
     1
102
RTVSPropertyOp29
 70
     1
102
RTVSPropertyOp30
 70
     1
102
RTVSPropertyOp31
 70
     1
102
RTVSPropertyOp32
 70
     1
102
RTVSPropertyOp33
 70
     1
102
RTVSPropertyOp34
 70
     1
102
RTVSPropertyOp35
 70
     1
102
RTVSPropertyOp36
 70
     1
102
RTVSPropertyOp37
 70
     1
102
RTVSPropertyOp38
 70
     1
102
RTVSPropertyOp39
 70
     1
102
RTVSPropertyOp40
 70
     1
102
RTVSPropertyOp41
 70
     1
102
RTVSPropertyOp42
 70
     1
102
RTVSPropertyOp43
 70
     1
102
RTVSPropertyOp44
 70
     1
102
RTVSPropertyOp45
 70
     1
102
RTVSPropertyOp46
 70
     1
102
RTVSPropertyOp47
 70
     1
102
RTVSPropertyOp48
 70
     1
102
RTVSPropertyOp49
 70
     1
102
RTVSPropertyOp50
 70
     1
102
RTVSPropertyOp51
 70
     0
102
RTVSPropertyOp52
 70
     0
102
RTVSPropertyOp53
 70
     1
102
RTVSPropertyOp54
 70
     1
102
RTVSPropertyOp55
 70
     1
102
RTVSPropertyOp56
 70
     1
102
RTVSPropertyOp57
 70
     1
102
RTVSPropertyOp58
 70
     1
102
RTVSPropertyOp59
 70
     1
102
RTVSPropertyOp60
 70
     1
102
RTVSPropertyOp61
 70
     1
102
RTVSPropertyOp62
 70
     1
  0
XRECORD
  5
CCE2
102
{ACAD_REACTORS
330
CCE1
102
}
330
CCE1
100
AcDbXrecord
280
     1
102
RTVSPost2010Prop28
280
     0
102
RTVSPost2010PropOp28
 70
     1
102
RTVSPost2010Prop29
280
     1
102
RTVSPost2010PropOp29
 70
     1
102
RTVSPost2010Prop30
280
     1
102
RTVSPost2010PropOp30
 70
     1
102
RTVSPost2010Prop31
280
     0
102
RTVSPost2010PropOp31
 70
     1
102
RTVSPost2010Prop32
280
     0
102
RTVSPost2010PropOp32
 70
     1
102
RTVSPost2010Prop33
280
     0
102
RTVSPost2010PropOp33
 70
     1
102
RTVSPost2010Prop34
280
     0
102
RTVSPost2010PropOp34
 70
     1
102
RTVSPost2010Prop35
280
     0
102
RTVSPost2010PropOp35
 70
     1
102
RTVSPost2010Prop36
280
     0
102
RTVSPost2010PropOp36
 70
     1
102
RTVSPost2010Prop37
 90
       50
102
RTVSPost2010PropOp37
 70
     1
102
RTVSPost2010Prop38
140
0.0
102
RTVSPost2010PropOp38
 70
     1
102
RTVSPost2010Prop39
140
1.0
102
RTVSPost2010PropOp39
 70
     1
102
RTVSPost2010Prop40
 90
        0
102
RTVSPost2010PropOp40
 70
     1
102
RTVSPost2010Prop41ColorIndex
 90
       18
102
RTVSPost2010Prop41ColorRGB
 90
        0
102
RTVSPost2010PropOp41
 70
     1
102
RTVSPost2010Prop42
 90
       50
102
RTVSPost2010PropOp42
 70
     1
102
RTVSPost2010Prop43
 90
        3
102
RTVSPost2010PropOp43
 70
     1
102
RTVSPost2010Prop44ColorIndex
 90
        5
102
RTVSPost2010Prop44ColorRGB
 90
      255
102
RTVSPost2010PropOp44
 70
     1
102
RTVSPost2010Prop45
280
     0
102
RTVSPost2010PropOp45
 70
     1
102
RTVSPost2010Prop46
 90
       50
102
RTVSPost2010PropOp46
 70
     1
102
RTVSPost2010Prop47
 90
       50
102
RTVSPost2010PropOp47
 70
     1
102
RTVSPost2010Prop48
 90
       50
102
RTVSPost2010PropOp48
 70
     1
102
RTVSPost2010Prop49
280
     0
102
RTVSPost2010PropOp49
 70
     1
102
RTVSPost2010Prop50
 90
       50
102
RTVSPost2010PropOp50
 70
     1
102
RTVSPost2010Prop51ColorIndex
 90
      256
102
RTVSPost2010Prop51ColorRGB
 90
-16777216
102
RTVSPost2010PropOp51
 70
     0
102
RTVSPost2010Prop52
140
1.0
102
RTVSPost2010PropOp52
 70
     0
102
RTVSPost2010Prop53
 90
        2
102
RTVSPost2010PropOp53
 70
     1
102
RTVSPost2010Prop54
  1
strokes_ogs.tif
102
RTVSPost2010PropOp54
 70
     1
102
RTVSPost2010Prop55
280
     0
102
RTVSPost2010PropOp55
 70
     1
102
RTVSPost2010Prop56
140
1.0
102
RTVSPost2010PropOp56
 70
     1
102
RTVSPost2010Prop57
140
1.0
102
RTVSPost2010PropOp57
 70
     1
102
RTVSPropertyOp0
 70
     1
102
RTVSPropertyOp1
 70
     1
102
RTVSPropertyOp2
 70
     1
102
RTVSPropertyOp3
 70
     1
102
RTVSPropertyOp4
 70
     1
102
RTVSPropertyOp5
 70
     1
102
RTVSPropertyOp6
 70
     1
102
RTVSPropertyOp7
 70
     1
102
RTVSPropertyOp8
 70
     1
102
RTVSPropertyOp9
 70
     1
102
RTVSPropertyOp10
 70
     1
102
RTVSPropertyOp11
 70
     1
102
RTVSPropertyOp12
 70
     1
102
RTVSPropertyOp13
 70
     1
102
RTVSPropertyOp14
 70
     1
102
RTVSPropertyOp15
 70
     1
102
RTVSPropertyOp16
 70
     1
102
RTVSPropertyOp17
 70
     1
102
RTVSPropertyOp18
 70
     1
102
RTVSPropertyOp19
 70
     1
102
RTVSPropertyOp20
 70
     1
102
RTVSPropertyOp21
 70
     1
102
RTVSPropertyOp22
 70
     1
102
RTVSPropertyOp23
 70
     1
102
RTVSPropertyOp24
 70
     1
102
RTVSPropertyOp25
 70
     1
102
RTVSPropertyOp26
 70
     1
102
RTVSPropertyOp27
 70
     1
102
RTVSPropertyOp28
 70
     1
102
RTVSPropertyOp29
 70
     1
102
RTVSPropertyOp30
 70
     1
102
RTVSPropertyOp31
 70
     1
102
RTVSPropertyOp32
 70
     1
102
RTVSPropertyOp33
 70
     1
102
RTVSPropertyOp34
 70
     1
102
RTVSPropertyOp35
 70
     1
102
RTVSPropertyOp36
 70
     1
102
RTVSPropertyOp37
 70
     1
102
RTVSPropertyOp38
 70
     1
102
RTVSPropertyOp39
 70
     1
102
RTVSPropertyOp40
 70
     1
102
RTVSPropertyOp41
 70
     1
102
RTVSPropertyOp42
 70
     1
102
RTVSPropertyOp43
 70
     1
102
RTVSPropertyOp44
 70
     1
102
RTVSPropertyOp45
 70
     1
102
RTVSPropertyOp46
 70
     1
102
RTVSPropertyOp47
 70
     1
102
RTVSPropertyOp48
 70
     1
102
RTVSPropertyOp49
 70
     1
102
RTVSPropertyOp50
 70
     1
102
RTVSPropertyOp51
 70
     0
102
RTVSPropertyOp52
 70
     0
102
RTVSPropertyOp53
 70
     1
102
RTVSPropertyOp54
 70
     1
102
RTVSPropertyOp55
 70
     1
102
RTVSPropertyOp56
 70
     1
102
RTVSPropertyOp57
 70
     1
102
RTVSPropertyOp58
 70
     1
102
RTVSPropertyOp59
 70
     1
102
RTVSPropertyOp60
 70
     1
102
RTVSPropertyOp61
 70
     1
102
RTVSPropertyOp62
 70
     1
  0
XRECORD
  5
CCE0
102
{ACAD_REACTORS
330
CCDF
102
}
330
CCDF
100
AcDbXrecord
280
     1
102
RTVSPost2010Prop28
280
     0
102
RTVSPost2010PropOp28
 70
     1
102
RTVSPost2010Prop29
280
     1
102
RTVSPost2010PropOp29
 70
     1
102
RTVSPost2010Prop30
280
     1
102
RTVSPost2010PropOp30
 70
     1
102
RTVSPost2010Prop31
280
     0
102
RTVSPost2010PropOp31
 70
     1
102
RTVSPost2010Prop32
280
     0
102
RTVSPost2010PropOp32
 70
     1
102
RTVSPost2010Prop33
280
     0
102
RTVSPost2010PropOp33
 70
     1
102
RTVSPost2010Prop34
280
     0
102
RTVSPost2010PropOp34
 70
     1
102
RTVSPost2010Prop35
280
     0
102
RTVSPost2010PropOp35
 70
     1
102
RTVSPost2010Prop36
280
     0
102
RTVSPost2010PropOp36
 70
     1
102
RTVSPost2010Prop37
 90
       50
102
RTVSPost2010PropOp37
 70
     1
102
RTVSPost2010Prop38
140
0.0
102
RTVSPost2010PropOp38
 70
     1
102
RTVSPost2010Prop39
140
1.0
102
RTVSPost2010PropOp39
 70
     1
102
RTVSPost2010Prop40
 90
        0
102
RTVSPost2010PropOp40
 70
     1
102
RTVSPost2010Prop41ColorIndex
 90
       18
102
RTVSPost2010Prop41ColorRGB
 90
        0
102
RTVSPost2010PropOp41
 70
     1
102
RTVSPost2010Prop42
 90
       50
102
RTVSPost2010PropOp42
 70
     1
102
RTVSPost2010Prop43
 90
        3
102
RTVSPost2010PropOp43
 70
     1
102
RTVSPost2010Prop44ColorIndex
 90
        5
102
RTVSPost2010Prop44ColorRGB
 90
      255
102
RTVSPost2010PropOp44
 70
     1
102
RTVSPost2010Prop45
280
     0
102
RTVSPost2010PropOp45
 70
     1
102
RTVSPost2010Prop46
 90
       50
102
RTVSPost2010PropOp46
 70
     1
102
RTVSPost2010Prop47
 90
       50
102
RTVSPost2010PropOp47
 70
     1
102
RTVSPost2010Prop48
 90
       50
102
RTVSPost2010PropOp48
 70
     1
102
RTVSPost2010Prop49
280
     0
102
RTVSPost2010PropOp49
 70
     1
102
RTVSPost2010Prop50
 90
       50
102
RTVSPost2010PropOp50
 70
     1
102
RTVSPost2010Prop51ColorIndex
 90
      256
102
RTVSPost2010Prop51ColorRGB
 90
-16777216
102
RTVSPost2010PropOp51
 70
     0
102
RTVSPost2010Prop52
140
1.0
102
RTVSPost2010PropOp52
 70
     0
102
RTVSPost2010Prop53
 90
        2
102
RTVSPost2010PropOp53
 70
     1
102
RTVSPost2010Prop54
  1
strokes_ogs.tif
102
RTVSPost2010PropOp54
 70
     1
102
RTVSPost2010Prop55
280
     0
102
RTVSPost2010PropOp55
 70
     1
102
RTVSPost2010Prop56
140
1.0
102
RTVSPost2010PropOp56
 70
     1
102
RTVSPost2010Prop57
140
1.0
102
RTVSPost2010PropOp57
 70
     1
102
RTVSPropertyOp0
 70
     1
102
RTVSPropertyOp1
 70
     1
102
RTVSPropertyOp2
 70
     1
102
RTVSPropertyOp3
 70
     1
102
RTVSPropertyOp4
 70
     1
102
RTVSPropertyOp5
 70
     1
102
RTVSPropertyOp6
 70
     1
102
RTVSPropertyOp7
 70
     1
102
RTVSPropertyOp8
 70
     1
102
RTVSPropertyOp9
 70
     1
102
RTVSPropertyOp10
 70
     1
102
RTVSPropertyOp11
 70
     1
102
RTVSPropertyOp12
 70
     1
102
RTVSPropertyOp13
 70
     1
102
RTVSPropertyOp14
 70
     1
102
RTVSPropertyOp15
 70
     1
102
RTVSPropertyOp16
 70
     1
102
RTVSPropertyOp17
 70
     1
102
RTVSPropertyOp18
 70
     1
102
RTVSPropertyOp19
 70
     1
102
RTVSPropertyOp20
 70
     1
102
RTVSPropertyOp21
 70
     1
102
RTVSPropertyOp22
 70
     1
102
RTVSPropertyOp23
 70
     1
102
RTVSPropertyOp24
 70
     1
102
RTVSPropertyOp25
 70
     1
102
RTVSPropertyOp26
 70
     1
102
RTVSPropertyOp27
 70
     1
102
RTVSPropertyOp28
 70
     1
102
RTVSPropertyOp29
 70
     1
102
RTVSPropertyOp30
 70
     1
102
RTVSPropertyOp31
 70
     1
102
RTVSPropertyOp32
 70
     1
102
RTVSPropertyOp33
 70
     1
102
RTVSPropertyOp34
 70
     1
102
RTVSPropertyOp35
 70
     1
102
RTVSPropertyOp36
 70
     1
102
RTVSPropertyOp37
 70
     1
102
RTVSPropertyOp38
 70
     1
102
RTVSPropertyOp39
 70
     1
102
RTVSPropertyOp40
 70
     1
102
RTVSPropertyOp41
 70
     1
102
RTVSPropertyOp42
 70
     1
102
RTVSPropertyOp43
 70
     1
102
RTVSPropertyOp44
 70
     1
102
RTVSPropertyOp45
 70
     1
102
RTVSPropertyOp46
 70
     1
102
RTVSPropertyOp47
 70
     1
102
RTVSPropertyOp48
 70
     1
102
RTVSPropertyOp49
 70
     1
102
RTVSPropertyOp50
 70
     1
102
RTVSPropertyOp51
 70
     0
102
RTVSPropertyOp52
 70
     0
102
RTVSPropertyOp53
 70
     1
102
RTVSPropertyOp54
 70
     1
102
RTVSPropertyOp55
 70
     1
102
RTVSPropertyOp56
 70
     1
102
RTVSPropertyOp57
 70
     1
102
RTVSPropertyOp58
 70
     1
102
RTVSPropertyOp59
 70
     1
102
RTVSPropertyOp60
 70
     1
102
RTVSPropertyOp61
 70
     1
102
RTVSPropertyOp62
 70
     1
  0
XRECORD
  5
CCDA
102
{ACAD_REACTORS
330
CCD9
102
}
330
CCD9
100
AcDbXrecord
280
     1
102
RTVSPost2010Prop28
280
     0
102
RTVSPost2010PropOp28
 70
     1
102
RTVSPost2010Prop29
280
     1
102
RTVSPost2010PropOp29
 70
     1
102
RTVSPost2010Prop30
280
     1
102
RTVSPost2010PropOp30
 70
     1
102
RTVSPost2010Prop31
280
     0
102
RTVSPost2010PropOp31
 70
     1
102
RTVSPost2010Prop32
280
     0
102
RTVSPost2010PropOp32
 70
     1
102
RTVSPost2010Prop33
280
     0
102
RTVSPost2010PropOp33
 70
     1
102
RTVSPost2010Prop34
280
     0
102
RTVSPost2010PropOp34
 70
     1
102
RTVSPost2010Prop35
280
     0
102
RTVSPost2010PropOp35
 70
     1
102
RTVSPost2010Prop36
280
     0
102
RTVSPost2010PropOp36
 70
     1
102
RTVSPost2010Prop37
 90
       50
102
RTVSPost2010PropOp37
 70
     1
102
RTVSPost2010Prop38
140
0.0
102
RTVSPost2010PropOp38
 70
     1
102
RTVSPost2010Prop39
140
1.0
102
RTVSPost2010PropOp39
 70
     1
102
RTVSPost2010Prop40
 90
        0
102
RTVSPost2010PropOp40
 70
     1
102
RTVSPost2010Prop41ColorIndex
 90
       18
102
RTVSPost2010Prop41ColorRGB
 90
        0
102
RTVSPost2010PropOp41
 70
     1
102
RTVSPost2010Prop42
 90
       50
102
RTVSPost2010PropOp42
 70
     1
102
RTVSPost2010Prop43
 90
        3
102
RTVSPost2010PropOp43
 70
     1
102
RTVSPost2010Prop44ColorIndex
 90
        5
102
RTVSPost2010Prop44ColorRGB
 90
      255
102
RTVSPost2010PropOp44
 70
     1
102
RTVSPost2010Prop45
280
     0
102
RTVSPost2010PropOp45
 70
     1
102
RTVSPost2010Prop46
 90
       50
102
RTVSPost2010PropOp46
 70
     1
102
RTVSPost2010Prop47
 90
       50
102
RTVSPost2010PropOp47
 70
     1
102
RTVSPost2010Prop48
 90
       50
102
RTVSPost2010PropOp48
 70
     1
102
RTVSPost2010Prop49
280
     0
102
RTVSPost2010PropOp49
 70
     1
102
RTVSPost2010Prop50
 90
       50
102
RTVSPost2010PropOp50
 70
     1
102
RTVSPost2010Prop51ColorIndex
 90
      256
102
RTVSPost2010Prop51ColorRGB
 90
-16777216
102
RTVSPost2010PropOp51
 70
     0
102
RTVSPost2010Prop52
140
1.0
102
RTVSPost2010PropOp52
 70
     0
102
RTVSPost2010Prop53
 90
        2
102
RTVSPost2010PropOp53
 70
     1
102
RTVSPost2010Prop54
  1
strokes_ogs.tif
102
RTVSPost2010PropOp54
 70
     1
102
RTVSPost2010Prop55
280
     0
102
RTVSPost2010PropOp55
 70
     1
102
RTVSPost2010Prop56
140
1.0
102
RTVSPost2010PropOp56
 70
     1
102
RTVSPost2010Prop57
140
1.0
102
RTVSPost2010PropOp57
 70
     1
102
RTVSPropertyOp0
 70
     1
102
RTVSPropertyOp1
 70
     1
102
RTVSPropertyOp2
 70
     1
102
RTVSPropertyOp3
 70
     1
102
RTVSPropertyOp4
 70
     1
102
RTVSPropertyOp5
 70
     1
102
RTVSPropertyOp6
 70
     1
102
RTVSPropertyOp7
 70
     1
102
RTVSPropertyOp8
 70
     1
102
RTVSPropertyOp9
 70
     1
102
RTVSPropertyOp10
 70
     1
102
RTVSPropertyOp11
 70
     1
102
RTVSPropertyOp12
 70
     1
102
RTVSPropertyOp13
 70
     1
102
RTVSPropertyOp14
 70
     1
102
RTVSPropertyOp15
 70
     1
102
RTVSPropertyOp16
 70
     1
102
RTVSPropertyOp17
 70
     1
102
RTVSPropertyOp18
 70
     1
102
RTVSPropertyOp19
 70
     1
102
RTVSPropertyOp20
 70
     1
102
RTVSPropertyOp21
 70
     1
102
RTVSPropertyOp22
 70
     1
102
RTVSPropertyOp23
 70
     1
102
RTVSPropertyOp24
 70
     1
102
RTVSPropertyOp25
 70
     1
102
RTVSPropertyOp26
 70
     1
102
RTVSPropertyOp27
 70
     1
102
RTVSPropertyOp28
 70
     1
102
RTVSPropertyOp29
 70
     1
102
RTVSPropertyOp30
 70
     1
102
RTVSPropertyOp31
 70
     1
102
RTVSPropertyOp32
 70
     1
102
RTVSPropertyOp33
 70
     1
102
RTVSPropertyOp34
 70
     1
102
RTVSPropertyOp35
 70
     1
102
RTVSPropertyOp36
 70
     1
102
RTVSPropertyOp37
 70
     1
102
RTVSPropertyOp38
 70
     1
102
RTVSPropertyOp39
 70
     1
102
RTVSPropertyOp40
 70
     1
102
RTVSPropertyOp41
 70
     1
102
RTVSPropertyOp42
 70
     1
102
RTVSPropertyOp43
 70
     1
102
RTVSPropertyOp44
 70
     1
102
RTVSPropertyOp45
 70
     1
102
RTVSPropertyOp46
 70
     1
102
RTVSPropertyOp47
 70
     1
102
RTVSPropertyOp48
 70
     1
102
RTVSPropertyOp49
 70
     1
102
RTVSPropertyOp50
 70
     1
102
RTVSPropertyOp51
 70
     0
102
RTVSPropertyOp52
 70
     0
102
RTVSPropertyOp53
 70
     1
102
RTVSPropertyOp54
 70
     1
102
RTVSPropertyOp55
 70
     1
102
RTVSPropertyOp56
 70
     1
102
RTVSPropertyOp57
 70
     1
102
RTVSPropertyOp58
 70
     1
102
RTVSPropertyOp59
 70
     1
102
RTVSPropertyOp60
 70
     1
102
RTVSPropertyOp61
 70
     1
102
RTVSPropertyOp62
 70
     1
  0
XRECORD
  5
CCDC
102
{ACAD_REACTORS
330
CCDB
102
}
330
CCDB
100
AcDbXrecord
280
     1
102
RTVSPost2010Prop28
280
     0
102
RTVSPost2010PropOp28
 70
     1
102
RTVSPost2010Prop29
280
     1
102
RTVSPost2010PropOp29
 70
     1
102
RTVSPost2010Prop30
280
     1
102
RTVSPost2010PropOp30
 70
     1
102
RTVSPost2010Prop31
280
     0
102
RTVSPost2010PropOp31
 70
     1
102
RTVSPost2010Prop32
280
     0
102
RTVSPost2010PropOp32
 70
     1
102
RTVSPost2010Prop33
280
     0
102
RTVSPost2010PropOp33
 70
     1
102
RTVSPost2010Prop34
280
     0
102
RTVSPost2010PropOp34
 70
     1
102
RTVSPost2010Prop35
280
     0
102
RTVSPost2010PropOp35
 70
     1
102
RTVSPost2010Prop36
280
     0
102
RTVSPost2010PropOp36
 70
     1
102
RTVSPost2010Prop37
 90
       50
102
RTVSPost2010PropOp37
 70
     1
102
RTVSPost2010Prop38
140
0.0
102
RTVSPost2010PropOp38
 70
     1
102
RTVSPost2010Prop39
140
1.0
102
RTVSPost2010PropOp39
 70
     1
102
RTVSPost2010Prop40
 90
        0
102
RTVSPost2010PropOp40
 70
     1
102
RTVSPost2010Prop41ColorIndex
 90
       18
102
RTVSPost2010Prop41ColorRGB
 90
        0
102
RTVSPost2010PropOp41
 70
     1
102
RTVSPost2010Prop42
 90
       50
102
RTVSPost2010PropOp42
 70
     1
102
RTVSPost2010Prop43
 90
        3
102
RTVSPost2010PropOp43
 70
     1
102
RTVSPost2010Prop44ColorIndex
 90
        5
102
RTVSPost2010Prop44ColorRGB
 90
      255
102
RTVSPost2010PropOp44
 70
     1
102
RTVSPost2010Prop45
280
     0
102
RTVSPost2010PropOp45
 70
     1
102
RTVSPost2010Prop46
 90
       50
102
RTVSPost2010PropOp46
 70
     1
102
RTVSPost2010Prop47
 90
       50
102
RTVSPost2010PropOp47
 70
     1
102
RTVSPost2010Prop48
 90
       50
102
RTVSPost2010PropOp48
 70
     1
102
RTVSPost2010Prop49
280
     0
102
RTVSPost2010PropOp49
 70
     1
102
RTVSPost2010Prop50
 90
       50
102
RTVSPost2010PropOp50
 70
     1
102
RTVSPost2010Prop51ColorIndex
 90
      256
102
RTVSPost2010Prop51ColorRGB
 90
-16777216
102
RTVSPost2010PropOp51
 70
     0
102
RTVSPost2010Prop52
140
1.0
102
RTVSPost2010PropOp52
 70
     0
102
RTVSPost2010Prop53
 90
        2
102
RTVSPost2010PropOp53
 70
     1
102
RTVSPost2010Prop54
  1
strokes_ogs.tif
102
RTVSPost2010PropOp54
 70
     1
102
RTVSPost2010Prop55
280
     0
102
RTVSPost2010PropOp55
 70
     1
102
RTVSPost2010Prop56
140
1.0
102
RTVSPost2010PropOp56
 70
     1
102
RTVSPost2010Prop57
140
1.0
102
RTVSPost2010PropOp57
 70
     1
102
RTVSPropertyOp0
 70
     1
102
RTVSPropertyOp1
 70
     1
102
RTVSPropertyOp2
 70
     1
102
RTVSPropertyOp3
 70
     1
102
RTVSPropertyOp4
 70
     1
102
RTVSPropertyOp5
 70
     1
102
RTVSPropertyOp6
 70
     1
102
RTVSPropertyOp7
 70
     1
102
RTVSPropertyOp8
 70
     1
102
RTVSPropertyOp9
 70
     1
102
RTVSPropertyOp10
 70
     1
102
RTVSPropertyOp11
 70
     1
102
RTVSPropertyOp12
 70
     1
102
RTVSPropertyOp13
 70
     1
102
RTVSPropertyOp14
 70
     1
102
RTVSPropertyOp15
 70
     1
102
RTVSPropertyOp16
 70
     1
102
RTVSPropertyOp17
 70
     1
102
RTVSPropertyOp18
 70
     1
102
RTVSPropertyOp19
 70
     1
102
RTVSPropertyOp20
 70
     1
102
RTVSPropertyOp21
 70
     1
102
RTVSPropertyOp22
 70
     1
102
RTVSPropertyOp23
 70
     1
102
RTVSPropertyOp24
 70
     1
102
RTVSPropertyOp25
 70
     1
102
RTVSPropertyOp26
 70
     1
102
RTVSPropertyOp27
 70
     1
102
RTVSPropertyOp28
 70
     1
102
RTVSPropertyOp29
 70
     1
102
RTVSPropertyOp30
 70
     1
102
RTVSPropertyOp31
 70
     1
102
RTVSPropertyOp32
 70
     1
102
RTVSPropertyOp33
 70
     1
102
RTVSPropertyOp34
 70
     1
102
RTVSPropertyOp35
 70
     1
102
RTVSPropertyOp36
 70
     1
102
RTVSPropertyOp37
 70
     1
102
RTVSPropertyOp38
 70
     1
102
RTVSPropertyOp39
 70
     1
102
RTVSPropertyOp40
 70
     1
102
RTVSPropertyOp41
 70
     1
102
RTVSPropertyOp42
 70
     1
102
RTVSPropertyOp43
 70
     1
102
RTVSPropertyOp44
 70
     1
102
RTVSPropertyOp45
 70
     1
102
RTVSPropertyOp46
 70
     1
102
RTVSPropertyOp47
 70
     1
102
RTVSPropertyOp48
 70
     1
102
RTVSPropertyOp49
 70
     1
102
RTVSPropertyOp50
 70
     1
102
RTVSPropertyOp51
 70
     0
102
RTVSPropertyOp52
 70
     0
102
RTVSPropertyOp53
 70
     1
102
RTVSPropertyOp54
 70
     1
102
RTVSPropertyOp55
 70
     1
102
RTVSPropertyOp56
 70
     1
102
RTVSPropertyOp57
 70
     1
102
RTVSPropertyOp58
 70
     1
102
RTVSPropertyOp59
 70
     1
102
RTVSPropertyOp60
 70
     1
102
RTVSPropertyOp61
 70
     1
102
RTVSPropertyOp62
 70
     1
  0
XRECORD
  5
CCD2
102
{ACAD_REACTORS
330
CCD1
102
}
330
CCD1
100
AcDbXrecord
280
     1
102
RTVSPost2010Prop28
280
     0
102
RTVSPost2010PropOp28
 70
     1
102
RTVSPost2010Prop29
280
     1
102
RTVSPost2010PropOp29
 70
     1
102
RTVSPost2010Prop30
280
     1
102
RTVSPost2010PropOp30
 70
     1
102
RTVSPost2010Prop31
280
     0
102
RTVSPost2010PropOp31
 70
     1
102
RTVSPost2010Prop32
280
     0
102
RTVSPost2010PropOp32
 70
     1
102
RTVSPost2010Prop33
280
     0
102
RTVSPost2010PropOp33
 70
     1
102
RTVSPost2010Prop34
280
     0
102
RTVSPost2010PropOp34
 70
     1
102
RTVSPost2010Prop35
280
     0
102
RTVSPost2010PropOp35
 70
     1
102
RTVSPost2010Prop36
280
     0
102
RTVSPost2010PropOp36
 70
     1
102
RTVSPost2010Prop37
 90
       50
102
RTVSPost2010PropOp37
 70
     1
102
RTVSPost2010Prop38
140
0.0
102
RTVSPost2010PropOp38
 70
     1
102
RTVSPost2010Prop39
140
1.0
102
RTVSPost2010PropOp39
 70
     1
102
RTVSPost2010Prop40
 90
        0
102
RTVSPost2010PropOp40
 70
     1
102
RTVSPost2010Prop41ColorIndex
 90
       18
102
RTVSPost2010Prop41ColorRGB
 90
        0
102
RTVSPost2010PropOp41
 70
     1
102
RTVSPost2010Prop42
 90
       50
102
RTVSPost2010PropOp42
 70
     1
102
RTVSPost2010Prop43
 90
        3
102
RTVSPost2010PropOp43
 70
     1
102
RTVSPost2010Prop44ColorIndex
 90
        5
102
RTVSPost2010Prop44ColorRGB
 90
      255
102
RTVSPost2010PropOp44
 70
     1
102
RTVSPost2010Prop45
280
     0
102
RTVSPost2010PropOp45
 70
     1
102
RTVSPost2010Prop46
 90
       50
102
RTVSPost2010PropOp46
 70
     1
102
RTVSPost2010Prop47
 90
       50
102
RTVSPost2010PropOp47
 70
     1
102
RTVSPost2010Prop48
 90
       50
102
RTVSPost2010PropOp48
 70
     1
102
RTVSPost2010Prop49
280
     0
102
RTVSPost2010PropOp49
 70
     1
102
RTVSPost2010Prop50
 90
       50
102
RTVSPost2010PropOp50
 70
     1
102
RTVSPost2010Prop51ColorIndex
 90
      256
102
RTVSPost2010Prop51ColorRGB
 90
-16777216
102
RTVSPost2010PropOp51
 70
     0
102
RTVSPost2010Prop52
140
1.0
102
RTVSPost2010PropOp52
 70
     0
102
RTVSPost2010Prop53
 90
        2
102
RTVSPost2010PropOp53
 70
     1
102
RTVSPost2010Prop54
  1
strokes_ogs.tif
102
RTVSPost2010PropOp54
 70
     1
102
RTVSPost2010Prop55
280
     0
102
RTVSPost2010PropOp55
 70
     1
102
RTVSPost2010Prop56
140
1.0
102
RTVSPost2010PropOp56
 70
     1
102
RTVSPost2010Prop57
140
1.0
102
RTVSPost2010PropOp57
 70
     1
102
RTVSPropertyOp0
 70
     1
102
RTVSPropertyOp1
 70
     1
102
RTVSPropertyOp2
 70
     1
102
RTVSPropertyOp3
 70
     1
102
RTVSPropertyOp4
 70
     1
102
RTVSPropertyOp5
 70
     1
102
RTVSPropertyOp6
 70
     1
102
RTVSPropertyOp7
 70
     1
102
RTVSPropertyOp8
 70
     1
102
RTVSPropertyOp9
 70
     1
102
RTVSPropertyOp10
 70
     1
102
RTVSPropertyOp11
 70
     1
102
RTVSPropertyOp12
 70
     1
102
RTVSPropertyOp13
 70
     1
102
RTVSPropertyOp14
 70
     1
102
RTVSPropertyOp15
 70
     1
102
RTVSPropertyOp16
 70
     1
102
RTVSPropertyOp17
 70
     1
102
RTVSPropertyOp18
 70
     1
102
RTVSPropertyOp19
 70
     1
102
RTVSPropertyOp20
 70
     1
102
RTVSPropertyOp21
 70
     1
102
RTVSPropertyOp22
 70
     1
102
RTVSPropertyOp23
 70
     1
102
RTVSPropertyOp24
 70
     1
102
RTVSPropertyOp25
 70
     1
102
RTVSPropertyOp26
 70
     1
102
RTVSPropertyOp27
 70
     1
102
RTVSPropertyOp28
 70
     1
102
RTVSPropertyOp29
 70
     1
102
RTVSPropertyOp30
 70
     1
102
RTVSPropertyOp31
 70
     1
102
RTVSPropertyOp32
 70
     1
102
RTVSPropertyOp33
 70
     1
102
RTVSPropertyOp34
 70
     1
102
RTVSPropertyOp35
 70
     1
102
RTVSPropertyOp36
 70
     1
102
RTVSPropertyOp37
 70
     1
102
RTVSPropertyOp38
 70
     1
102
RTVSPropertyOp39
 70
     1
102
RTVSPropertyOp40
 70
     1
102
RTVSPropertyOp41
 70
     1
102
RTVSPropertyOp42
 70
     1
102
RTVSPropertyOp43
 70
     1
102
RTVSPropertyOp44
 70
     1
102
RTVSPropertyOp45
 70
     1
102
RTVSPropertyOp46
 70
     1
102
RTVSPropertyOp47
 70
     1
102
RTVSPropertyOp48
 70
     1
102
RTVSPropertyOp49
 70
     1
102
RTVSPropertyOp50
 70
     1
102
RTVSPropertyOp51
 70
     0
102
RTVSPropertyOp52
 70
     0
102
RTVSPropertyOp53
 70
     1
102
RTVSPropertyOp54
 70
     1
102
RTVSPropertyOp55
 70
     1
102
RTVSPropertyOp56
 70
     1
102
RTVSPropertyOp57
 70
     1
102
RTVSPropertyOp58
 70
     1
102
RTVSPropertyOp59
 70
     1
102
RTVSPropertyOp60
 70
     1
102
RTVSPropertyOp61
 70
     1
102
RTVSPropertyOp62
 70
     1
  0
XRECORD
  5
CCC6
102
{ACAD_REACTORS
330
CCC5
102
}
330
CCC5
100
AcDbXrecord
280
     1
102
RTVSPost2010Prop28
280
     0
102
RTVSPost2010PropOp28
 70
     1
102
RTVSPost2010Prop29
280
     1
102
RTVSPost2010PropOp29
 70
     1
102
RTVSPost2010Prop30
280
     1
102
RTVSPost2010PropOp30
 70
     1
102
RTVSPost2010Prop31
280
     0
102
RTVSPost2010PropOp31
 70
     1
102
RTVSPost2010Prop32
280
     0
102
RTVSPost2010PropOp32
 70
     1
102
RTVSPost2010Prop33
280
     0
102
RTVSPost2010PropOp33
 70
     1
102
RTVSPost2010Prop34
280
     0
102
RTVSPost2010PropOp34
 70
     1
102
RTVSPost2010Prop35
280
     0
102
RTVSPost2010PropOp35
 70
     1
102
RTVSPost2010Prop36
280
     0
102
RTVSPost2010PropOp36
 70
     1
102
RTVSPost2010Prop37
 90
       50
102
RTVSPost2010PropOp37
 70
     1
102
RTVSPost2010Prop38
140
0.0
102
RTVSPost2010PropOp38
 70
     1
102
RTVSPost2010Prop39
140
1.0
102
RTVSPost2010PropOp39
 70
     1
102
RTVSPost2010Prop40
 90
        0
102
RTVSPost2010PropOp40
 70
     1
102
RTVSPost2010Prop41ColorIndex
 90
       18
102
RTVSPost2010Prop41ColorRGB
 90
        0
102
RTVSPost2010PropOp41
 70
     1
102
RTVSPost2010Prop42
 90
       50
102
RTVSPost2010PropOp42
 70
     1
102
RTVSPost2010Prop43
 90
        3
102
RTVSPost2010PropOp43
 70
     1
102
RTVSPost2010Prop44ColorIndex
 90
        5
102
RTVSPost2010Prop44ColorRGB
 90
      255
102
RTVSPost2010PropOp44
 70
     1
102
RTVSPost2010Prop45
280
     0
102
RTVSPost2010PropOp45
 70
     1
102
RTVSPost2010Prop46
 90
       50
102
RTVSPost2010PropOp46
 70
     1
102
RTVSPost2010Prop47
 90
       50
102
RTVSPost2010PropOp47
 70
     1
102
RTVSPost2010Prop48
 90
       50
102
RTVSPost2010PropOp48
 70
     1
102
RTVSPost2010Prop49
280
     0
102
RTVSPost2010PropOp49
 70
     1
102
RTVSPost2010Prop50
 90
       50
102
RTVSPost2010PropOp50
 70
     1
102
RTVSPost2010Prop51ColorIndex
 90
      256
102
RTVSPost2010Prop51ColorRGB
 90
-16777216
102
RTVSPost2010PropOp51
 70
     0
102
RTVSPost2010Prop52
140
1.0
102
RTVSPost2010PropOp52
 70
     0
102
RTVSPost2010Prop53
 90
        2
102
RTVSPost2010PropOp53
 70
     1
102
RTVSPost2010Prop54
  1
strokes_ogs.tif
102
RTVSPost2010PropOp54
 70
     1
102
RTVSPost2010Prop55
280
     0
102
RTVSPost2010PropOp55
 70
     1
102
RTVSPost2010Prop56
140
1.0
102
RTVSPost2010PropOp56
 70
     1
102
RTVSPost2010Prop57
140
1.0
102
RTVSPost2010PropOp57
 70
     1
102
RTVSPropertyOp0
 70
     1
102
RTVSPropertyOp1
 70
     1
102
RTVSPropertyOp2
 70
     1
102
RTVSPropertyOp3
 70
     1
102
RTVSPropertyOp4
 70
     1
102
RTVSPropertyOp5
 70
     1
102
RTVSPropertyOp6
 70
     1
102
RTVSPropertyOp7
 70
     1
102
RTVSPropertyOp8
 70
     1
102
RTVSPropertyOp9
 70
     1
102
RTVSPropertyOp10
 70
     1
102
RTVSPropertyOp11
 70
     1
102
RTVSPropertyOp12
 70
     1
102
RTVSPropertyOp13
 70
     1
102
RTVSPropertyOp14
 70
     1
102
RTVSPropertyOp15
 70
     1
102
RTVSPropertyOp16
 70
     1
102
RTVSPropertyOp17
 70
     1
102
RTVSPropertyOp18
 70
     1
102
RTVSPropertyOp19
 70
     1
102
RTVSPropertyOp20
 70
     1
102
RTVSPropertyOp21
 70
     1
102
RTVSPropertyOp22
 70
     1
102
RTVSPropertyOp23
 70
     1
102
RTVSPropertyOp24
 70
     1
102
RTVSPropertyOp25
 70
     1
102
RTVSPropertyOp26
 70
     1
102
RTVSPropertyOp27
 70
     1
102
RTVSPropertyOp28
 70
     1
102
RTVSPropertyOp29
 70
     1
102
RTVSPropertyOp30
 70
     1
102
RTVSPropertyOp31
 70
     1
102
RTVSPropertyOp32
 70
     1
102
RTVSPropertyOp33
 70
     1
102
RTVSPropertyOp34
 70
     1
102
RTVSPropertyOp35
 70
     1
102
RTVSPropertyOp36
 70
     1
102
RTVSPropertyOp37
 70
     1
102
RTVSPropertyOp38
 70
     1
102
RTVSPropertyOp39
 70
     1
102
RTVSPropertyOp40
 70
     1
102
RTVSPropertyOp41
 70
     1
102
RTVSPropertyOp42
 70
     1
102
RTVSPropertyOp43
 70
     1
102
RTVSPropertyOp44
 70
     1
102
RTVSPropertyOp45
 70
     1
102
RTVSPropertyOp46
 70
     1
102
RTVSPropertyOp47
 70
     1
102
RTVSPropertyOp48
 70
     1
102
RTVSPropertyOp49
 70
     1
102
RTVSPropertyOp50
 70
     1
102
RTVSPropertyOp51
 70
     0
102
RTVSPropertyOp52
 70
     0
102
RTVSPropertyOp53
 70
     1
102
RTVSPropertyOp54
 70
     1
102
RTVSPropertyOp55
 70
     1
102
RTVSPropertyOp56
 70
     1
102
RTVSPropertyOp57
 70
     1
102
RTVSPropertyOp58
 70
     1
102
RTVSPropertyOp59
 70
     1
102
RTVSPropertyOp60
 70
     1
102
RTVSPropertyOp61
 70
     1
102
RTVSPropertyOp62
 70
     1
  0
XRECORD
  5
CCDE
102
{ACAD_REACTORS
330
CCDD
102
}
330
CCDD
100
AcDbXrecord
280
     1
102
RTVSPost2010Prop28
280
     0
102
RTVSPost2010PropOp28
 70
     1
102
RTVSPost2010Prop29
280
     1
102
RTVSPost2010PropOp29
 70
     1
102
RTVSPost2010Prop30
280
     1
102
RTVSPost2010PropOp30
 70
     1
102
RTVSPost2010Prop31
280
     0
102
RTVSPost2010PropOp31
 70
     1
102
RTVSPost2010Prop32
280
     0
102
RTVSPost2010PropOp32
 70
     1
102
RTVSPost2010Prop33
280
     0
102
RTVSPost2010PropOp33
 70
     1
102
RTVSPost2010Prop34
280
     0
102
RTVSPost2010PropOp34
 70
     1
102
RTVSPost2010Prop35
280
     0
102
RTVSPost2010PropOp35
 70
     1
102
RTVSPost2010Prop36
280
     0
102
RTVSPost2010PropOp36
 70
     1
102
RTVSPost2010Prop37
 90
       50
102
RTVSPost2010PropOp37
 70
     1
102
RTVSPost2010Prop38
140
0.0
102
RTVSPost2010PropOp38
 70
     1
102
RTVSPost2010Prop39
140
1.0
102
RTVSPost2010PropOp39
 70
     1
102
RTVSPost2010Prop40
 90
        0
102
RTVSPost2010PropOp40
 70
     1
102
RTVSPost2010Prop41ColorIndex
 90
       18
102
RTVSPost2010Prop41ColorRGB
 90
        0
102
RTVSPost2010PropOp41
 70
     1
102
RTVSPost2010Prop42
 90
       50
102
RTVSPost2010PropOp42
 70
     1
102
RTVSPost2010Prop43
 90
        3
102
RTVSPost2010PropOp43
 70
     1
102
RTVSPost2010Prop44ColorIndex
 90
        5
102
RTVSPost2010Prop44ColorRGB
 90
      255
102
RTVSPost2010PropOp44
 70
     1
102
RTVSPost2010Prop45
280
     0
102
RTVSPost2010PropOp45
 70
     1
102
RTVSPost2010Prop46
 90
       50
102
RTVSPost2010PropOp46
 70
     1
102
RTVSPost2010Prop47
 90
       50
102
RTVSPost2010PropOp47
 70
     1
102
RTVSPost2010Prop48
 90
       50
102
RTVSPost2010PropOp48
 70
     1
102
RTVSPost2010Prop49
280
     0
102
RTVSPost2010PropOp49
 70
     1
102
RTVSPost2010Prop50
 90
       50
102
RTVSPost2010PropOp50
 70
     1
102
RTVSPost2010Prop51ColorIndex
 90
      256
102
RTVSPost2010Prop51ColorRGB
 90
-16777216
102
RTVSPost2010PropOp51
 70
     0
102
RTVSPost2010Prop52
140
1.0
102
RTVSPost2010PropOp52
 70
     0
102
RTVSPost2010Prop53
 90
        2
102
RTVSPost2010PropOp53
 70
     1
102
RTVSPost2010Prop54
  1
strokes_ogs.tif
102
RTVSPost2010PropOp54
 70
     1
102
RTVSPost2010Prop55
280
     0
102
RTVSPost2010PropOp55
 70
     1
102
RTVSPost2010Prop56
140
1.0
102
RTVSPost2010PropOp56
 70
     1
102
RTVSPost2010Prop57
140
1.0
102
RTVSPost2010PropOp57
 70
     1
102
RTVSPropertyOp0
 70
     1
102
RTVSPropertyOp1
 70
     1
102
RTVSPropertyOp2
 70
     1
102
RTVSPropertyOp3
 70
     1
102
RTVSPropertyOp4
 70
     1
102
RTVSPropertyOp5
 70
     1
102
RTVSPropertyOp6
 70
     1
102
RTVSPropertyOp7
 70
     1
102
RTVSPropertyOp8
 70
     1
102
RTVSPropertyOp9
 70
     1
102
RTVSPropertyOp10
 70
     1
102
RTVSPropertyOp11
 70
     1
102
RTVSPropertyOp12
 70
     1
102
RTVSPropertyOp13
 70
     1
102
RTVSPropertyOp14
 70
     1
102
RTVSPropertyOp15
 70
     1
102
RTVSPropertyOp16
 70
     1
102
RTVSPropertyOp17
 70
     1
102
RTVSPropertyOp18
 70
     1
102
RTVSPropertyOp19
 70
     1
102
RTVSPropertyOp20
 70
     1
102
RTVSPropertyOp21
 70
     1
102
RTVSPropertyOp22
 70
     1
102
RTVSPropertyOp23
 70
     1
102
RTVSPropertyOp24
 70
     1
102
RTVSPropertyOp25
 70
     1
102
RTVSPropertyOp26
 70
     1
102
RTVSPropertyOp27
 70
     1
102
RTVSPropertyOp28
 70
     1
102
RTVSPropertyOp29
 70
     1
102
RTVSPropertyOp30
 70
     1
102
RTVSPropertyOp31
 70
     1
102
RTVSPropertyOp32
 70
     1
102
RTVSPropertyOp33
 70
     1
102
RTVSPropertyOp34
 70
     1
102
RTVSPropertyOp35
 70
     1
102
RTVSPropertyOp36
 70
     1
102
RTVSPropertyOp37
 70
     1
102
RTVSPropertyOp38
 70
     1
102
RTVSPropertyOp39
 70
     1
102
RTVSPropertyOp40
 70
     1
102
RTVSPropertyOp41
 70
     1
102
RTVSPropertyOp42
 70
     1
102
RTVSPropertyOp43
 70
     1
102
RTVSPropertyOp44
 70
     1
102
RTVSPropertyOp45
 70
     1
102
RTVSPropertyOp46
 70
     1
102
RTVSPropertyOp47
 70
     1
102
RTVSPropertyOp48
 70
     1
102
RTVSPropertyOp49
 70
     1
102
RTVSPropertyOp50
 70
     1
102
RTVSPropertyOp51
 70
     0
102
RTVSPropertyOp52
 70
     0
102
RTVSPropertyOp53
 70
     1
102
RTVSPropertyOp54
 70
     1
102
RTVSPropertyOp55
 70
     1
102
RTVSPropertyOp56
 70
     1
102
RTVSPropertyOp57
 70
     1
102
RTVSPropertyOp58
 70
     1
102
RTVSPropertyOp59
 70
     1
102
RTVSPropertyOp60
 70
     1
102
RTVSPropertyOp61
 70
     1
102
RTVSPropertyOp62
 70
     1
  0
ENDSEC
  0
EOF
