  0
SECTION
  2
HEADER
  9
$ACADVER
  1
AC1015
  9
$ACADMAINTVER
 70
    20
  9
$DWGCODEPAGE
  3
ANSI_932
  9
$INSBASE
 10
0.0
 20
0.0
 30
0.0
  9
$EXTMIN
 10
10.0
 20
9.999999999999998
 30
0.0
  9
$EXTMAX
 10
579.4868689999997
 20
350.0
 30
0.0
  9
$LIMMIN
 10
0.0
 20
0.0
  9
$LIMMAX
 10
594.0
 20
409.4999999999997
  9
$ORTHOMODE
 70
     1
  9
$REGENMODE
 70
     1
  9
$FILLMODE
 70
     1
  9
$QTEXTMODE
 70
     0
  9
$MIRRTEXT
 70
     1
  9
$LTSCALE
 40
20.0
  9
$ATTMODE
 70
     1
  9
$TEXTSIZE
 40
5.0
  9
$TRACEWID
 40
1.0
  9
$TEXTSTYLE
  7
STANDARD
  9
$CLAYER
  8
0
  9
$CELTYPE
  6
BYLAYER
  9
$CECOLOR
 62
   256
  9
$CELTSCALE
 40
1.0
  9
$DISPSILH
 70
     0
  9
$DIMSCALE
 40
1.0
  9
$DIMASZ
 40
3.0
  9
$DIMEXO
 40
1.0
  9
$DIMDLI
 40
10.0
  9
$DIMRND
 40
0.0
  9
$DIMDLE
 40
0.0
  9
$DIMEXE
 40
1.0
  9
$DIMTP
 40
0.0
  9
$DIMTM
 40
0.0
  9
$DIMTXT
 40
5.0
  9
$DIMCEN
 40
0.0
  9
$DIMTSZ
 40
0.0
  9
$DIMTOL
 70
     0
  9
$DIMLIM
 70
     0
  9
$DIMTIH
 70
     0
  9
$DIMTOH
 70
     0
  9
$DIMSE1
 70
     0
  9
$DIMSE2
 70
     0
  9
$DIMTAD
 70
     3
  9
$DIMZIN
 70
     8
  9
$DIMBLK
  1

  9
$DIMASO
 70
     1
  9
$DIMSHO
 70
     1
  9
$DIMPOST
  1

  9
$DIMAPOST
  1

  9
$DIMALT
 70
     0
  9
$DIMALTD
 70
     2
  9
$DIMALTF
 40
25.4
  9
$DIMLFAC
 40
1.0
  9
$DIMTOFL
 70
     1
  9
$DIMTVP
 40
0.0
  9
$DIMTIX
 70
     0
  9
$DIMSOXD
 70
     0
  9
$DIMSAH
 70
     0
  9
$DIMBLK1
  1

  9
$DIMBLK2
  1

  9
$DIMSTYLE
  2
STANDARD
  9
$DIMCLRD
 70
     0
  9
$DIMCLRE
 70
     0
  9
$DIMCLRT
 70
     0
  9
$DIMTFAC
 40
1.0
  9
$DIMGAP
 40
1.5
  9
$DIMJUST
 70
     0
  9
$DIMSD1
 70
     0
  9
$DIMSD2
 70
     0
  9
$DIMTOLJ
 70
     1
  9
$DIMTZIN
 70
     0
  9
$DIMALTZ
 70
     0
  9
$DIMALTTZ
 70
     0
  9
$DIMUPT
 70
     0
  9
$DIMDEC
 70
     4
  9
$DIMTDEC
 70
     4
  9
$DIMALTU
 70
     2
  9
$DIMALTTD
 70
     2
  9
$DIMTXSTY
  7
STANDARD
  9
$DIMAUNIT
 70
     0
  9
$DIMADEC
 70
     0
  9
$DIMALTRND
 40
0.0
  9
$DIMAZIN
 70
     0
  9
$DIMDSEP
 70
    46
  9
$DIMATFIT
 70
     3
  9
$DIMFRAC
 70
     0
  9
$DIMLDRBLK
  1

  9
$DIMLUNIT
 70
     2
  9
$DIMLWD
 70
    -2
  9
$DIMLWE
 70
    -2
  9
$DIMTMOVE
 70
     0
  9
$LUNITS
 70
     2
  9
$LUPREC
 70
     4
  9
$SKETCHINC
 40
1.0
  9
$FILLETRAD
 40
0.0
  9
$AUNITS
 70
     0
  9
$AUPREC
 70
     2
  9
$MENU
  1
.
  9
$ELEVATION
 40
0.0
  9
$PELEVATION
 40
0.0
  9
$THICKNESS
 40
0.0
  9
$LIMCHECK
 70
     0
  9
$CHAMFERA
 40
10.0
  9
$CHAMFERB
 40
10.0
  9
$CHAMFERC
 40
0.0
  9
$CHAMFERD
 40
0.0
  9
$SKPOLY
 70
     0
  9
$TDCREATE
 40
2451233.435842014
  9
$TDUCREATE
 40
2451233.060842014
  9
$TDUPDATE
 40
2457192.662051447
  9
$TDUUPDATE
 40
2457192.287051447
  9
$TDINDWG
 40
0.0057381481
  9
$TDUSRTIMER
 40
0.0057367824
  9
$USRTIMER
 70
     1
  9
$ANGBASE
 50
0.0
  9
$ANGDIR
 70
     0
  9
$PDMODE
 70
     0
  9
$PDSIZE
 40
0.0
  9
$PLINEWID
 40
0.0
  9
$SPLFRAME
 70
     0
  9
$SPLINETYPE
 70
     6
  9
$SPLINESEGS
 70
     8
  9
$HANDSEED
  5
C997
  9
$SURFTAB1
 70
     6
  9
$SURFTAB2
 70
     6
  9
$SURFTYPE
 70
     6
  9
$SURFU
 70
     6
  9
$SURFV
 70
     6
  9
$UCSBASE
  2

  9
$UCSNAME
  2

  9
$UCSORG
 10
0.0
 20
0.0
 30
0.0
  9
$UCSXDIR
 10
1.0
 20
0.0
 30
0.0
  9
$UCSYDIR
 10
0.0
 20
1.0
 30
0.0
  9
$UCSORTHOREF
  2

  9
$UCSORTHOVIEW
 70
     0
  9
$UCSORGTOP
 10
0.0
 20
0.0
 30
0.0
  9
$UCSORGBOTTOM
 10
0.0
 20
0.0
 30
0.0
  9
$UCSORGLEFT
 10
0.0
 20
0.0
 30
0.0
  9
$UCSORGRIGHT
 10
0.0
 20
0.0
 30
0.0
  9
$UCSORGFRONT
 10
0.0
 20
0.0
 30
0.0
  9
$UCSORGBACK
 10
0.0
 20
0.0
 30
0.0
  9
$PUCSBASE
  2

  9
$PUCSNAME
  2

  9
$PUCSORG
 10
0.0
 20
0.0
 30
0.0
  9
$PUCSXDIR
 10
1.0
 20
0.0
 30
0.0
  9
$PUCSYDIR
 10
0.0
 20
1.0
 30
0.0
  9
$PUCSORTHOREF
  2

  9
$PUCSORTHOVIEW
 70
     0
  9
$PUCSORGTOP
 10
0.0
 20
0.0
 30
0.0
  9
$PUCSORGBOTTOM
 10
0.0
 20
0.0
 30
0.0
  9
$PUCSORGLEFT
 10
0.0
 20
0.0
 30
0.0
  9
$PUCSORGRIGHT
 10
0.0
 20
0.0
 30
0.0
  9
$PUCSORGFRONT
 10
0.0
 20
0.0
 30
0.0
  9
$PUCSORGBACK
 10
0.0
 20
0.0
 30
0.0
  9
$USERI1
 70
     0
  9
$USERI2
 70
     0
  9
$USERI3
 70
     0
  9
$USERI4
 70
     0
  9
$USERI5
 70
     0
  9
$USERR1
 40
0.0
  9
$USERR2
 40
0.0
  9
$USERR3
 40
0.0
  9
$USERR4
 40
0.0
  9
$USERR5
 40
0.0
  9
$WORLDVIEW
 70
     1
  9
$SHADEDGE
 70
     3
  9
$SHADEDIF
 70
    70
  9
$TILEMODE
 70
     1
  9
$MAXACTVP
 70
    16
  9
$PINSBASE
 10
0.0
 20
0.0
 30
0.0
  9
$PLIMCHECK
 70
     0
  9
$PEXTMIN
 10
1.000000000000000E+20
 20
1.000000000000000E+20
 30
1.000000000000000E+20
  9
$PEXTMAX
 10
-1.000000000000000E+20
 20
-1.000000000000000E+20
 30
-1.000000000000000E+20
  9
$PLIMMIN
 10
0.0
 20
0.0
  9
$PLIMMAX
 10
420.0
 20
297.0
  9
$UNITMODE
 70
     0
  9
$VISRETAIN
 70
     0
  9
$PLINEGEN
 70
     0
  9
$PSLTSCALE
 70
     0
  9
$TREEDEPTH
 70
  3020
  9
$CMLSTYLE
  2
STANDARD
  9
$CMLJUST
 70
     0
  9
$CMLSCALE
 40
1.0
  9
$PROXYGRAPHICS
 70
     1
  9
$MEASUREMENT
 70
     0
  9
$CELWEIGHT
370
    -1
  9
$ENDCAPS
280
     0
  9
$JOINSTYLE
280
     0
  9
$LWDISPLAY
290
     0
  9
$INSUNITS
 70
     0
  9
$HYPERLINKBASE
  1

  9
$STYLESHEET
  1

  9
$XEDIT
290
     1
  9
$CEPSNTYPE
380
     0
  9
$PSTYLEMODE
290
     1
  9
$FINGERPRINTGUID
  2
{22324180-9923-44EE-B3E6-7D337F76A6FB}
  9
$VERSIONGUID
  2
{D84CDB29-360F-4BD5-B2B2-5A56B1E984A5}
  9
$EXTNAMES
290
     1
  9
$PSVPSCALE
 40
0.0
  9
$OLESTARTUP
290
     0
  0
ENDSEC
  0
SECTION
  2
CLASSES
  0
CLASS
  1
ACDBDICTIONARYWDFLT
  2
AcDbDictionaryWithDefault
  3
ObjectDBX Classes
 90
        0
280
     0
281
     0
  0
CLASS
  1
ACDBPLACEHOLDER
  2
AcDbPlaceHolder
  3
ObjectDBX Classes
 90
        0
280
     0
281
     0
  0
CLASS
  1
LAYOUT
  2
AcDbLayout
  3
ObjectDBX Classes
 90
        0
280
     0
281
     0
  0
CLASS
  1
DICTIONARYVAR
  2
AcDbDictionaryVar
  3
ObjectDBX Classes
 90
        0
280
     0
281
     0
  0
CLASS
  1
MATERIAL
  2
AcDbMaterial
  3
ObjectDBX Classes
 90
     1153
280
     0
281
     0
  0
CLASS
  1
VISUALSTYLE
  2
AcDbVisualStyle
  3
ObjectDBX Classes
 90
     4095
280
     0
281
     0
  0
CLASS
  1
TABLESTYLE
  2
AcDbTableStyle
  3
ObjectDBX Classes
 90
     4095
280
     0
281
     0
  0
CLASS
  1
SCALE
  2
AcDbScale
  3
ObjectDBX Classes
 90
     1153
280
     0
281
     0
  0
CLASS
  1
MLEADERSTYLE
  2
AcDbMLeaderStyle
  3
ACDB_MLEADERSTYLE_CLASS
 90
     4095
280
     0
281
     0
  0
CLASS
  1
ACDBSECTIONVIEWSTYLE
  2
AcDbSectionViewStyle
  3
ObjectDBX Classes
 90
     1025
280
     0
281
     0
  0
CLASS
  1
ACDBDETAILVIEWSTYLE
  2
AcDbDetailViewStyle
  3
ObjectDBX Classes
 90
     1025
280
     0
281
     0
  0
CLASS
  1
CELLSTYLEMAP
  2
AcDbCellStyleMap
  3
ObjectDBX Classes
 90
     1152
280
     0
281
     0
  0
ENDSEC
  0
SECTION
  2
TABLES
  0
TABLE
  2
VPORT
  5
C37C
330
0
100
AcDbSymbolTable
 70
     1
  0
VPORT
  5
C8E2
330
C37C
100
AcDbSymbolTableRecord
100
AcDbViewportTableRecord
  2
*ACTIVE
 70
     0
 10
0.0
 20
0.0
 11
1.0
 21
1.0
 12
404.0400300631945
 22
180.0060434051043
 13
0.0
 23
0.0
 14
10.0
 24
10.0
 15
10.0
 25
10.0
 16
0.0
 26
0.0
 36
1.0
 17
0.0
 27
0.0
 37
0.0
 40
343.331338248426
 41
1.899603698811096
 42
50.0
 43
0.0
 44
0.0
 50
0.0
 51
0.0
 71
     0
 72
   100
 73
     1
 74
     0
 75
     0
 76
     0
 77
     0
 78
     0
281
     0
 65
     1
110
0.0
120
0.0
130
0.0
111
1.0
121
0.0
131
0.0
112
0.0
122
1.0
132
0.0
 79
     0
146
0.0
1001
ACAD_NAV_VCDISPLAY
1070
     3
  0
ENDTAB
  0
TABLE
  2
LTYPE
  5
C379
330
0
100
AcDbSymbolTable
 70
     4
  0
LTYPE
  5
C387
330
C379
100
AcDbSymbolTableRecord
100
AcDbLinetypeTableRecord
  2
BYBLOCK
 70
     0
  3

 72
    65
 73
     0
 40
0.0
  0
LTYPE
  5
C388
330
C379
100
AcDbSymbolTableRecord
100
AcDbLinetypeTableRecord
  2
BYLAYER
 70
     0
  3

 72
    65
 73
     0
 40
0.0
  0
LTYPE
  5
C389
330
C379
100
AcDbSymbolTableRecord
100
AcDbLinetypeTableRecord
  2
CONTINUOUS
 70
     0
  3
Solid line
 72
    65
 73
     0
 40
0.0
  0
LTYPE
  5
C397
330
C379
100
AcDbSymbolTableRecord
100
AcDbLinetypeTableRecord
  2
DASHED
 70
     0
  3
__ __ __ __ __ __ __ __ __ __ __ __ __ __ __ __
 72
    65
 73
     2
 40
0.75
 49
0.5
 74
     0
 49
-0.25
 74
     0
  0
LTYPE
  5
C398
330
C379
100
AcDbSymbolTableRecord
100
AcDbLinetypeTableRecord
  2
CENTER
 70
     0
  3
____ _ ____ _ ____ _ ____ _ ____ _ ____ _ ____ 
 72
    65
 73
     4
 40
2.0
 49
1.25
 74
     0
 49
-0.25
 74
     0
 49
0.25
 74
     0
 49
-0.25
 74
     0
  0
LTYPE
  5
C399
330
C379
100
AcDbSymbolTableRecord
100
AcDbLinetypeTableRecord
  2
PHANTOM
 70
     0
  3
______  __  __  ______  __  __  ______  __  __ 
 72
    65
 73
     6
 40
2.5
 49
1.25
 74
     0
 49
-0.25
 74
     0
 49
0.25
 74
     0
 49
-0.25
 74
     0
 49
0.25
 74
     0
 49
-0.25
 74
     0
  0
ENDTAB
  0
TABLE
  2
LAYER
  5
C376
330
0
100
AcDbSymbolTable
 70
     8
  0
LAYER
  5
C384
102
{ACAD_XDICTIONARY
360
C93B
102
}
330
C376
100
AcDbSymbolTableRecord
100
AcDbLayerTableRecord
  2
0
 70
     0
 62
     7
  6
CONTINUOUS
370
    -3
390
C8E9
  0
LAYER
  5
C39A
102
{ACAD_XDICTIONARY
360
C93D
102
}
330
C376
100
AcDbSymbolTableRecord
100
AcDbLayerTableRecord
  2
4
 70
     0
 62
     1
  6
CENTER
370
    -3
390
C8E9
  0
LAYER
  5
C39B
102
{ACAD_XDICTIONARY
360
C93F
102
}
330
C376
100
AcDbSymbolTableRecord
100
AcDbLayerTableRecord
  2
5
 70
     0
 62
     6
  6
PHANTOM
370
    -3
390
C8E9
  0
LAYER
  5
C39C
102
{ACAD_XDICTIONARY
360
C941
102
}
330
C376
100
AcDbSymbolTableRecord
100
AcDbLayerTableRecord
  2
1
 70
     0
 62
     7
  6
CONTINUOUS
370
    -3
390
C8E9
  0
LAYER
  5
C39D
102
{ACAD_XDICTIONARY
360
C943
102
}
330
C376
100
AcDbSymbolTableRecord
100
AcDbLayerTableRecord
  2
2
 70
     0
 62
     4
  6
CONTINUOUS
370
    -3
390
C8E9
  0
LAYER
  5
C39E
102
{ACAD_XDICTIONARY
360
C945
102
}
330
C376
100
AcDbSymbolTableRecord
100
AcDbLayerTableRecord
  2
3
 70
     0
 62
     2
  6
DASHED
370
    -3
390
C8E9
  0
LAYER
  5
C39F
102
{ACAD_XDICTIONARY
360
C947
102
}
330
C376
100
AcDbSymbolTableRecord
100
AcDbLayerTableRecord
  2
6
 70
     0
 62
     5
  6
CONTINUOUS
370
    -3
390
C8E9
  0
LAYER
  5
C3A0
102
{ACAD_XDICTIONARY
360
C949
102
}
330
C376
100
AcDbSymbolTableRecord
100
AcDbLayerTableRecord
  2
7
 70
     0
 62
     3
  6
CONTINUOUS
370
    -3
390
C8E9
  0
ENDTAB
  0
TABLE
  2
STYLE
  5
C377
330
0
100
AcDbSymbolTable
 70
     1
  0
STYLE
  5
C385
330
C377
100
AcDbSymbolTableRecord
100
AcDbTextStyleTableRecord
  2
STANDARD
 70
     0
 40
0.0
 41
1.0
 50
0.0
 71
     0
 42
5.0
  3
txt
  4

  0
ENDTAB
  0
TABLE
  2
VIEW
  5
C37A
330
0
100
AcDbSymbolTable
 70
     0
  0
ENDTAB
  0
TABLE
  2
UCS
  5
C37B
330
0
100
AcDbSymbolTable
 70
     0
  0
ENDTAB
  0
TABLE
  2
APPID
  5
C37D
330
0
100
AcDbSymbolTable
 70
     3
  0
APPID
  5
C386
330
C37D
100
AcDbSymbolTableRecord
100
AcDbRegAppTableRecord
  2
ACAD
 70
     0
  0
APPID
  5
C955
330
C37D
100
AcDbSymbolTableRecord
100
AcDbRegAppTableRecord
  2
ACAD_NAV_VCDISPLAY
 70
     0
  0
APPID
  5
C98E
330
C37D
100
AcDbSymbolTableRecord
100
AcDbRegAppTableRecord
  2
ACAD_MLEADERVER
 70
     0
  0
ENDTAB
  0
TABLE
  2
DIMSTYLE
  5
C37E
330
0
100
AcDbSymbolTable
 70
     1
100
AcDbDimStyleTable
 71
     0
  0
DIMSTYLE
105
C3A2
330
C37E
100
AcDbSymbolTableRecord
100
AcDbDimStyleTableRecord
  2
STANDARD
 70
     0
 41
3.0
 42
1.0
 43
10.0
 44
1.0
 73
     0
 74
     0
 77
     3
 78
     8
140
5.0
141
0.0
147
1.5
172
     1
284
     8
285
     8
286
     8
340
C385
  0
ENDTAB
  0
TABLE
  2
BLOCK_RECORD
  5
C375
330
0
100
AcDbSymbolTable
 70
     0
  0
BLOCK_RECORD
  5
C392
102
{ACAD_XDICTIONARY
360
C74C
102
}
330
C375
100
AcDbSymbolTableRecord
100
AcDbBlockTableRecord
  2
*MODEL_SPACE
340
C937
  0
BLOCK_RECORD
  5
C38E
102
{ACAD_XDICTIONARY
360
C74A
102
}
330
C375
100
AcDbSymbolTableRecord
100
AcDbBlockTableRecord
  2
*PAPER_SPACE
340
C938
  0
ENDTAB
  0
ENDSEC
  0
SECTION
  2
BLOCKS
  0
BLOCK
  5
C393
330
C392
100
AcDbEntity
  8
0
100
AcDbBlockBegin
  2
*MODEL_SPACE
 70
     0
 10
0.0
 20
0.0
 30
0.0
  3
*MODEL_SPACE
  1

  0
ENDBLK
  5
C394
330
C392
100
AcDbEntity
  8
0
100
AcDbBlockEnd
  0
BLOCK
  5
C38F
330
C38E
100
AcDbEntity
 67
     1
  8
0
100
AcDbBlockBegin
  2
*PAPER_SPACE
 70
     0
 10
0.0
 20
0.0
 30
0.0
  3
*PAPER_SPACE
  1

  0
ENDBLK
  5
C390
330
C38E
100
AcDbEntity
 67
     1
  8
0
100
AcDbBlockEnd
  0
ENDSEC
  0
SECTION
  2
ENTITIES
  0
TEXT
  5
C3AA
330
C392
100
AcDbEntity
  8
7
  6
Continuous
100
AcDbText
 10
10.0
 20
18.0
 30
0.0
 40
3.0
  1
TYPE No.TM-234-1
100
AcDbText
  0
TEXT
  5
C3AB
330
C392
100
AcDbEntity
  8
7
  6
Continuous
100
AcDbText
 10
10.0
 20
26.0
 30
0.0
 40
3.0
  1
CODE No.6040
100
AcDbText
  0
TEXT
  5
C3AC
330
C392
100
AcDbEntity
  8
1
  6
Continuous
100
AcDbText
 10
10.0
 20
10.0
 30
0.0
 40
1.399999999999999
  1
LAYER
100
AcDbText
  0
TEXT
  5
C3AD
330
C392
100
AcDbEntity
  8
1
  6
Continuous
100
AcDbText
 10
17.97951099999998
 20
10.04873699999998
 30
0.0
 40
1.399999999999999
  1
1
100
AcDbText
  0
TEXT
  5
C3AE
330
C392
100
AcDbEntity
  8
7
  6
Continuous
100
AcDbText
 10
29.97951099999999
 20
10.04873699999998
 30
0.0
 40
1.399999999999999
  1
7
100
AcDbText
  0
TEXT
  5
C3AF
330
C392
100
AcDbEntity
  8
4
  6
CENTER
100
AcDbText
 10
23.97951099999999
 20
10.04873699999998
 30
0.0
 40
1.399999999999999
  1
4
100
AcDbText
  0
TEXT
  5
C3B0
330
C392
100
AcDbEntity
  8
3
  6
DASHED
100
AcDbText
 10
21.979511
 20
10.04873699999998
 30
0.0
 40
1.399999999999999
  1
3
100
AcDbText
  0
TEXT
  5
C3B1
330
C392
100
AcDbEntity
  8
2
  6
Continuous
100
AcDbText
 10
19.97951099999998
 20
10.04873699999998
 30
0.0
 40
1.399999999999999
  1
2
100
AcDbText
  0
TEXT
  5
C3B2
330
C392
100
AcDbEntity
  8
6
  6
Continuous
100
AcDbText
 10
27.979511
 20
10.04873699999998
 30
0.0
 40
1.399999999999999
  1
6
100
AcDbText
  0
TEXT
  5
C3B3
330
C392
100
AcDbEntity
  8
5
  6
PHANTOM
100
AcDbText
 10
25.97951099999999
 20
10.04873699999998
 30
0.0
 40
1.399999999999999
  1
5
100
AcDbText
  0
LINE
  5
C3B4
330
C392
100
AcDbEntity
  8
4
  6
CENTER
100
AcDbLine
 10
480.4434349999998
 20
149.6331209999999
 30
0.0
 11
480.4434349999998
 21
142.7708439999999
 31
0.0
  0
LINE
  5
C3B5
330
C392
100
AcDbEntity
  8
4
  6
CENTER
100
AcDbLine
 10
435.4434349999998
 20
149.6331209999999
 30
0.0
 11
435.4434349999998
 21
142.7708439999999
 31
0.0
  0
LINE
  5
C3B6
330
C392
100
AcDbEntity
  8
4
  6
CENTER
100
AcDbLine
 10
350.4434349999999
 20
148.6294619999999
 30
0.0
 11
350.4434349999999
 21
143.3288939999999
 31
0.0
  0
LINE
  5
C3B7
330
C392
100
AcDbEntity
  8
4
  6
CENTER
100
AcDbLine
 10
267.7434349999999
 20
150.175461
 30
0.0
 11
267.7434349999999
 21
141.6251399999999
 31
0.0
  0
LINE
  5
C3B8
330
C392
100
AcDbEntity
  8
4
  6
CENTER
100
AcDbLine
 10
266.443435
 20
148.6294619999999
 30
0.0
 11
266.443435
 21
143.3288939999999
 31
0.0
  0
LINE
  5
C3B9
330
C392
100
AcDbEntity
  8
4
  6
CENTER
100
AcDbLine
 10
251.443435
 20
148.6294619999999
 30
0.0
 11
251.443435
 21
143.3288939999999
 31
0.0
  0
LINE
  5
C3BA
330
C392
100
AcDbEntity
  8
4
  6
CENTER
100
AcDbLine
 10
166.443435
 20
148.6294619999999
 30
0.0
 11
166.443435
 21
143.3288939999999
 31
0.0
  0
LINE
  5
C3BB
330
C392
100
AcDbEntity
  8
4
  6
CENTER
100
AcDbLine
 10
121.4434349999999
 20
148.6294619999999
 30
0.0
 11
121.4434349999999
 21
143.3288939999999
 31
0.0
  0
LINE
  5
C3BC
330
C392
100
AcDbEntity
  8
4
  6
CENTER
100
AcDbLine
 10
106.4434349999999
 20
148.6294619999999
 30
0.0
 11
106.4434349999999
 21
143.3288939999999
 31
0.0
  0
LINE
  5
C3BD
330
C392
100
AcDbEntity
  8
1
  6
Continuous
100
AcDbLine
 10
515.4434349999998
 20
156.0
 30
0.0
 11
315.4434349999998
 21
156.0
 31
0.0
  0
LINE
  5
C3BE
330
C392
100
AcDbEntity
  8
1
  6
Continuous
100
AcDbLine
 10
315.4434349999998
 20
136.0
 30
0.0
 11
515.4434349999998
 21
136.0
 31
0.0
  0
LINE
  5
C3BF
330
C392
100
AcDbEntity
  8
1
  6
Continuous
100
AcDbLine
 10
515.4434349999998
 20
136.0
 30
0.0
 11
515.4434349999998
 21
137.2715729999999
 31
0.0
  0
ARC
  5
C3C0
330
C392
100
AcDbEntity
  8
1
  6
Continuous
100
AcDbCircle
 10
514.4434349999998
 20
137.2715729999999
 30
0.0
 40
1.0
100
AcDbArc
 50
0.0
 51
45.0
  0
LINE
  5
C3C1
330
C392
100
AcDbEntity
  8
1
  6
Continuous
100
AcDbLine
 10
515.1505419999998
 20
137.9786799999999
 30
0.0
 11
514.1363279999998
 21
138.9928929999999
 31
0.0
  0
ARC
  5
C3C2
330
C392
100
AcDbEntity
  8
1
  6
Continuous
100
AcDbCircle
 10
514.8434349999996
 20
139.7
 30
0.0
 40
1.0
100
AcDbArc
 50
90.0
 51
225.0
  0
LINE
  5
C3C3
330
C392
100
AcDbEntity
  8
1
  6
Continuous
100
AcDbLine
 10
515.4434349999998
 20
140.6999999999999
 30
0.0
 11
514.0434349999998
 21
140.6999999999999
 31
0.0
  0
LINE
  5
C3C4
330
C392
100
AcDbEntity
  8
1
  6
Continuous
100
AcDbLine
 10
514.0434349999998
 20
140.6999999999999
 30
0.0
 11
514.0434349999998
 21
151.3
 31
0.0
  0
LINE
  5
C3C5
330
C392
100
AcDbEntity
  8
1
  6
Continuous
100
AcDbLine
 10
514.0434349999998
 20
151.3
 30
0.0
 11
515.4434349999998
 21
151.3
 31
0.0
  0
LINE
  5
C3C6
330
C392
100
AcDbEntity
  8
1
  6
Continuous
100
AcDbLine
 10
515.4434349999998
 20
151.3
 30
0.0
 11
515.4434349999998
 21
140.6999999999999
 31
0.0
  0
ARC
  5
C3C7
330
C392
100
AcDbEntity
  8
1
  6
Continuous
100
AcDbCircle
 10
514.8434349999996
 20
152.3
 30
0.0
 40
1.0
100
AcDbArc
 50
135.0
 51
270.0
  0
LINE
  5
C3C8
330
C392
100
AcDbEntity
  8
1
  6
Continuous
100
AcDbLine
 10
514.1363279999998
 20
153.0071069999999
 30
0.0
 11
515.1505419999998
 21
154.02132
 31
0.0
  0
ARC
  5
C3C9
330
C392
100
AcDbEntity
  8
1
  6
Continuous
100
AcDbCircle
 10
514.4434349999998
 20
154.728427
 30
0.0
 40
1.0
100
AcDbArc
 50
315.0
 51
0.0
  0
LINE
  5
C3CA
330
C392
100
AcDbEntity
  8
1
  6
Continuous
100
AcDbLine
 10
515.4434349999998
 20
154.728427
 30
0.0
 11
515.4434349999998
 21
156.0
 31
0.0
  0
LINE
  5
C3CB
330
C392
100
AcDbEntity
  8
1
  6
Continuous
100
AcDbLine
 10
515.4219049999998
 20
137.4779619999999
 30
0.0
 11
315.4434349999998
 21
137.4779619999999
 31
0.0
  0
LINE
  5
C3CC
330
C392
100
AcDbEntity
  8
1
  6
Continuous
100
AcDbLine
 10
315.4434349999998
 20
138.327335
 30
0.0
 11
514.8018859999998
 21
138.327335
 31
0.0
  0
LINE
  5
C3CD
330
C392
100
AcDbEntity
  8
1
  6
Continuous
100
AcDbLine
 10
514.8018859999998
 20
153.672665
 30
0.0
 11
315.4434349999998
 21
153.672665
 31
0.0
  0
LINE
  5
C3CE
330
C392
100
AcDbEntity
  8
1
  6
Continuous
100
AcDbLine
 10
315.4434349999998
 20
154.5220379999999
 30
0.0
 11
515.4219049999998
 21
154.5220379999999
 31
0.0
  0
LINE
  5
C3CF
330
C392
100
AcDbEntity
  8
1
  6
Continuous
100
AcDbLine
 10
400.9434349999998
 20
152.15
 30
0.0
 11
286.443435
 21
152.15
 31
0.0
  0
LINE
  5
C3D0
330
C392
100
AcDbEntity
  8
3
  6
DASHED
100
AcDbLine
 10
200.9434349999999
 20
139.85
 30
0.0
 11
286.443435
 21
139.85
 31
0.0
  0
LINE
  5
C3D1
330
C392
100
AcDbEntity
  8
3
  6
DASHED
100
AcDbLine
 10
397.9434349999999
 20
139.85
 30
0.0
 11
397.9434349999999
 21
152.15
 31
0.0
  0
LINE
  5
C3D2
330
C392
100
AcDbEntity
  8
1
  6
Continuous
100
AcDbLine
 10
400.9434349999998
 20
150.9499999999999
 30
0.0
 11
315.4434349999998
 21
150.9499999999999
 31
0.0
  0
LINE
  5
C3D3
330
C392
100
AcDbEntity
  8
3
  6
DASHED
100
AcDbLine
 10
286.443435
 20
152.15
 30
0.0
 11
200.9434349999999
 21
152.15
 31
0.0
  0
LINE
  5
C3D4
330
C392
100
AcDbEntity
  8
1
  6
Continuous
100
AcDbLine
 10
315.4434349999998
 20
150.9499999999999
 30
0.0
 11
286.443435
 21
150.9499999999999
 31
0.0
  0
LINE
  5
C3D5
330
C392
100
AcDbEntity
  8
1
  6
Continuous
100
AcDbLine
 10
286.443435
 20
139.85
 30
0.0
 11
400.9434349999998
 21
139.85
 31
0.0
  0
LINE
  5
C3D6
330
C392
100
AcDbEntity
  8
3
  6
DASHED
100
AcDbLine
 10
200.9434349999999
 20
139.85
 30
0.0
 11
200.9434349999999
 21
152.15
 31
0.0
  0
LINE
  5
C3D7
330
C392
100
AcDbEntity
  8
1
  6
Continuous
100
AcDbLine
 10
286.443435
 20
141.05
 30
0.0
 11
315.4434349999998
 21
141.05
 31
0.0
  0
LINE
  5
C3D8
330
C392
100
AcDbEntity
  8
1
  6
Continuous
100
AcDbLine
 10
315.4434349999998
 20
141.05
 30
0.0
 11
400.9434349999998
 21
141.05
 31
0.0
  0
LINE
  5
C3D9
330
C392
100
AcDbEntity
  8
1
  6
Continuous
100
AcDbLine
 10
400.9434349999998
 20
139.85
 30
0.0
 11
400.9434349999998
 21
152.15
 31
0.0
  0
LINE
  5
C3DA
330
C392
100
AcDbEntity
  8
4
  6
CENTER
100
AcDbLine
 10
518.4434349999998
 20
146.0
 30
0.0
 11
83.44343499999999
 21
146.0
 31
0.0
  0
LINE
  5
C3DB
330
C392
100
AcDbEntity
  8
1
  6
Continuous
100
AcDbLine
 10
286.443435
 20
156.0
 30
0.0
 11
86.44343499999996
 21
156.0
 31
0.0
  0
LINE
  5
C3DC
330
C392
100
AcDbEntity
  8
1
  6
Continuous
100
AcDbLine
 10
86.44343499999996
 20
156.0
 30
0.0
 11
86.44343499999996
 21
154.728427
 31
0.0
  0
ARC
  5
C3DD
330
C392
100
AcDbEntity
  8
1
  6
Continuous
100
AcDbCircle
 10
87.44343499999997
 20
154.728427
 30
0.0
 40
1.0
100
AcDbArc
 50
180.0
 51
225.0
  0
LINE
  5
C3DE
330
C392
100
AcDbEntity
  8
1
  6
Continuous
100
AcDbLine
 10
86.736328
 20
154.02132
 30
0.0
 11
87.75054200000004
 21
153.0071069999999
 31
0.0
  0
ARC
  5
C3DF
330
C392
100
AcDbEntity
  8
1
  6
Continuous
100
AcDbCircle
 10
87.043435
 20
152.3
 30
0.0
 40
1.0
100
AcDbArc
 50
270.0
 51
45.0
  0
LINE
  5
C3E0
330
C392
100
AcDbEntity
  8
1
  6
Continuous
100
AcDbLine
 10
86.44343499999996
 20
151.3
 30
0.0
 11
86.44343499999996
 21
140.6999999999999
 31
0.0
  0
LINE
  5
C3E1
330
C392
100
AcDbEntity
  8
1
  6
Continuous
100
AcDbLine
 10
86.44343499999996
 20
140.6999999999999
 30
0.0
 11
87.043435
 21
140.6999999999999
 31
0.0
  0
ARC
  5
C3E2
330
C392
100
AcDbEntity
  8
1
  6
Continuous
100
AcDbCircle
 10
87.043435
 20
139.7
 30
0.0
 40
1.0
100
AcDbArc
 50
315.0
 51
90.0
  0
LINE
  5
C3E3
330
C392
100
AcDbEntity
  8
1
  6
Continuous
100
AcDbLine
 10
87.75054200000004
 20
138.9928929999999
 30
0.0
 11
86.736328
 21
137.9786799999999
 31
0.0
  0
ARC
  5
C3E4
330
C392
100
AcDbEntity
  8
1
  6
Continuous
100
AcDbCircle
 10
87.44343499999997
 20
137.2715729999999
 30
0.0
 40
1.0
100
AcDbArc
 50
135.0
 51
180.0
  0
LINE
  5
C3E5
330
C392
100
AcDbEntity
  8
1
  6
Continuous
100
AcDbLine
 10
86.44343499999996
 20
137.2715729999999
 30
0.0
 11
86.44343499999996
 21
136.0
 31
0.0
  0
LINE
  5
C3E6
330
C392
100
AcDbEntity
  8
1
  6
Continuous
100
AcDbLine
 10
86.44343499999996
 20
136.0
 30
0.0
 11
286.443435
 21
136.0
 31
0.0
  0
LINE
  5
C3E7
330
C392
100
AcDbEntity
  8
1
  6
Continuous
100
AcDbLine
 10
286.443435
 20
136.0
 30
0.0
 11
286.443435
 21
156.0
 31
0.0
  0
LINE
  5
C3E8
330
C392
100
AcDbEntity
  8
1
  6
Continuous
100
AcDbLine
 10
87.043435
 20
151.3
 30
0.0
 11
86.44343499999996
 21
151.3
 31
0.0
  0
LINE
  5
C3E9
330
C392
100
AcDbEntity
  8
1
  6
Continuous
100
AcDbLine
 10
121.143435
 20
144.4
 30
0.0
 11
121.7434349999999
 21
144.4
 31
0.0
  0
LINE
  5
C3EA
330
C392
100
AcDbEntity
  8
1
  6
Continuous
100
AcDbLine
 10
121.7434349999999
 20
147.5999999999999
 30
0.0
 11
121.143435
 21
147.5999999999999
 31
0.0
  0
ARC
  5
C3EB
330
C392
100
AcDbEntity
  8
1
  6
Continuous
100
AcDbCircle
 10
121.143435
 20
146.0
 30
0.0
 40
1.6
100
AcDbArc
 50
90.0
 51
270.0
  0
ARC
  5
C3EC
330
C392
100
AcDbEntity
  8
1
  6
Continuous
100
AcDbCircle
 10
121.7434349999999
 20
146.0
 30
0.0
 40
1.6
100
AcDbArc
 50
270.0
 51
90.0
  0
LINE
  5
C3ED
330
C392
100
AcDbEntity
  8
1
  6
Continuous
100
AcDbLine
 10
166.143435
 20
144.4
 30
0.0
 11
166.743435
 21
144.4
 31
0.0
  0
LINE
  5
C3EE
330
C392
100
AcDbEntity
  8
1
  6
Continuous
100
AcDbLine
 10
166.743435
 20
147.5999999999999
 30
0.0
 11
166.143435
 21
147.5999999999999
 31
0.0
  0
ARC
  5
C3EF
330
C392
100
AcDbEntity
  8
1
  6
Continuous
100
AcDbCircle
 10
166.143435
 20
146.0
 30
0.0
 40
1.6
100
AcDbArc
 50
90.0
 51
270.0
  0
ARC
  5
C3F0
330
C392
100
AcDbEntity
  8
1
  6
Continuous
100
AcDbCircle
 10
166.743435
 20
146.0
 30
0.0
 40
1.6
100
AcDbArc
 50
270.0
 51
90.0
  0
LINE
  5
C3F1
330
C392
100
AcDbEntity
  8
1
  6
Continuous
100
AcDbLine
 10
326.9434349999999
 20
152.6794999999999
 30
0.0
 11
326.9434349999999
 21
153.1794999999999
 31
0.0
  0
LINE
  5
C3F2
330
C392
100
AcDbEntity
  8
1
  6
Continuous
100
AcDbLine
 10
318.9434349999998
 20
152.6794999999999
 30
0.0
 11
326.9434349999999
 21
152.6794999999999
 31
0.0
  0
LINE
  5
C3F3
330
C392
100
AcDbEntity
  8
1
  6
Continuous
100
AcDbLine
 10
318.9434349999998
 20
153.1794999999999
 30
0.0
 11
326.9434349999999
 21
153.1794999999999
 31
0.0
  0
LINE
  5
C3F4
330
C392
100
AcDbEntity
  8
1
  6
Continuous
100
AcDbLine
 10
326.9434349999999
 20
139.3205
 30
0.0
 11
326.9434349999999
 21
138.8205
 31
0.0
  0
LINE
  5
C3F5
330
C392
100
AcDbEntity
  8
1
  6
Continuous
100
AcDbLine
 10
318.9434349999998
 20
139.3205
 30
0.0
 11
326.9434349999999
 21
139.3205
 31
0.0
  0
LINE
  5
C3F6
330
C392
100
AcDbEntity
  8
1
  6
Continuous
100
AcDbLine
 10
318.9434349999998
 20
138.8205
 30
0.0
 11
326.9434349999999
 21
138.8205
 31
0.0
  0
LINE
  5
C3F7
330
C392
100
AcDbEntity
  8
1
  6
Continuous
100
AcDbLine
 10
318.9434349999998
 20
153.1794999999999
 30
0.0
 11
318.9434349999998
 21
152.15
 31
0.0
  0
ARC
  5
C3F8
330
C392
100
AcDbEntity
  8
1
  6
Continuous
100
AcDbCircle
 10
327.9434349999998
 20
152.6794999999999
 30
0.0
 40
1.0
100
AcDbArc
 50
180.0
 51
211.9716779999999
  0
ARC
  5
C3F9
330
C392
100
AcDbEntity
  8
1
  6
Continuous
100
AcDbCircle
 10
337.9434349999998
 20
152.6794999999999
 30
0.0
 40
1.0
100
AcDbArc
 50
180.0
 51
211.9716779999999
  0
LINE
  5
C3FA
330
C392
100
AcDbEntity
  8
1
  6
Continuous
100
AcDbLine
 10
336.9434349999999
 20
152.6794999999999
 30
0.0
 11
336.9434349999999
 21
153.1794999999999
 31
0.0
  0
LINE
  5
C3FB
330
C392
100
AcDbEntity
  8
1
  6
Continuous
100
AcDbLine
 10
328.9434349999999
 20
152.6794999999999
 30
0.0
 11
336.9434349999999
 21
152.6794999999999
 31
0.0
  0
LINE
  5
C3FC
330
C392
100
AcDbEntity
  8
1
  6
Continuous
100
AcDbLine
 10
328.9434349999999
 20
153.1794999999999
 30
0.0
 11
336.9434349999999
 21
153.1794999999999
 31
0.0
  0
LINE
  5
C3FD
330
C392
100
AcDbEntity
  8
1
  6
Continuous
100
AcDbLine
 10
336.9434349999999
 20
139.3205
 30
0.0
 11
336.9434349999999
 21
138.8205
 31
0.0
  0
LINE
  5
C3FE
330
C392
100
AcDbEntity
  8
1
  6
Continuous
100
AcDbLine
 10
328.9434349999999
 20
139.3205
 30
0.0
 11
336.9434349999999
 21
139.3205
 31
0.0
  0
LINE
  5
C3FF
330
C392
100
AcDbEntity
  8
1
  6
Continuous
100
AcDbLine
 10
328.9434349999999
 20
138.8205
 30
0.0
 11
336.9434349999999
 21
138.8205
 31
0.0
  0
LINE
  5
C400
330
C392
100
AcDbEntity
  8
1
  6
Continuous
100
AcDbLine
 10
328.9434349999999
 20
153.1794999999999
 30
0.0
 11
328.9434349999999
 21
152.6794999999999
 31
0.0
  0
LINE
  5
C401
330
C392
100
AcDbEntity
  8
1
  6
Continuous
100
AcDbLine
 10
328.9434349999999
 20
138.8205
 30
0.0
 11
328.9434349999999
 21
139.3205
 31
0.0
  0
ARC
  5
C402
330
C392
100
AcDbEntity
  8
1
  6
Continuous
100
AcDbCircle
 10
327.9434349999998
 20
139.3205
 30
0.0
 40
1.0
100
AcDbArc
 50
0.0
 51
31.97167800000001
  0
ARC
  5
C403
330
C392
100
AcDbEntity
  8
1
  6
Continuous
100
AcDbCircle
 10
347.9434349999999
 20
152.6794999999999
 30
0.0
 40
1.0
100
AcDbArc
 50
180.0
 51
211.9716779999999
  0
LINE
  5
C404
330
C392
100
AcDbEntity
  8
1
  6
Continuous
100
AcDbLine
 10
346.9434349999998
 20
152.6794999999999
 30
0.0
 11
346.9434349999998
 21
153.1794999999999
 31
0.0
  0
LINE
  5
C405
330
C392
100
AcDbEntity
  8
1
  6
Continuous
100
AcDbLine
 10
338.9434349999999
 20
152.6794999999999
 30
0.0
 11
346.9434349999998
 21
152.6794999999999
 31
0.0
  0
LINE
  5
C406
330
C392
100
AcDbEntity
  8
1
  6
Continuous
100
AcDbLine
 10
338.9434349999999
 20
153.1794999999999
 30
0.0
 11
346.9434349999998
 21
153.1794999999999
 31
0.0
  0
LINE
  5
C407
330
C392
100
AcDbEntity
  8
1
  6
Continuous
100
AcDbLine
 10
346.9434349999998
 20
139.3205
 30
0.0
 11
346.9434349999998
 21
138.8205
 31
0.0
  0
LINE
  5
C408
330
C392
100
AcDbEntity
  8
1
  6
Continuous
100
AcDbLine
 10
338.9434349999999
 20
139.3205
 30
0.0
 11
346.9434349999998
 21
139.3205
 31
0.0
  0
LINE
  5
C409
330
C392
100
AcDbEntity
  8
1
  6
Continuous
100
AcDbLine
 10
338.9434349999999
 20
138.8205
 30
0.0
 11
346.9434349999998
 21
138.8205
 31
0.0
  0
LINE
  5
C40A
330
C392
100
AcDbEntity
  8
1
  6
Continuous
100
AcDbLine
 10
338.9434349999999
 20
153.1794999999999
 30
0.0
 11
338.9434349999999
 21
152.6794999999999
 31
0.0
  0
LINE
  5
C40B
330
C392
100
AcDbEntity
  8
1
  6
Continuous
100
AcDbLine
 10
338.9434349999999
 20
138.8205
 30
0.0
 11
338.9434349999999
 21
139.3205
 31
0.0
  0
ARC
  5
C40C
330
C392
100
AcDbEntity
  8
1
  6
Continuous
100
AcDbCircle
 10
337.9434349999998
 20
139.3205
 30
0.0
 40
1.0
100
AcDbArc
 50
0.0
 51
31.97167800000001
  0
ARC
  5
C40D
330
C392
100
AcDbEntity
  8
1
  6
Continuous
100
AcDbCircle
 10
357.9434349999999
 20
152.6794999999999
 30
0.0
 40
1.0
100
AcDbArc
 50
180.0
 51
211.9716779999999
  0
LINE
  5
C40E
330
C392
100
AcDbEntity
  8
1
  6
Continuous
100
AcDbLine
 10
356.9434349999998
 20
152.6794999999999
 30
0.0
 11
356.9434349999998
 21
153.1794999999999
 31
0.0
  0
LINE
  5
C40F
330
C392
100
AcDbEntity
  8
1
  6
Continuous
100
AcDbLine
 10
348.9434349999998
 20
152.6794999999999
 30
0.0
 11
356.9434349999998
 21
152.6794999999999
 31
0.0
  0
LINE
  5
C410
330
C392
100
AcDbEntity
  8
1
  6
Continuous
100
AcDbLine
 10
348.9434349999998
 20
153.1794999999999
 30
0.0
 11
356.9434349999998
 21
153.1794999999999
 31
0.0
  0
LINE
  5
C411
330
C392
100
AcDbEntity
  8
1
  6
Continuous
100
AcDbLine
 10
356.9434349999998
 20
139.3205
 30
0.0
 11
356.9434349999998
 21
138.8205
 31
0.0
  0
LINE
  5
C412
330
C392
100
AcDbEntity
  8
1
  6
Continuous
100
AcDbLine
 10
348.9434349999998
 20
139.3205
 30
0.0
 11
356.9434349999998
 21
139.3205
 31
0.0
  0
LINE
  5
C413
330
C392
100
AcDbEntity
  8
1
  6
Continuous
100
AcDbLine
 10
348.9434349999998
 20
138.8205
 30
0.0
 11
356.9434349999998
 21
138.8205
 31
0.0
  0
LINE
  5
C414
330
C392
100
AcDbEntity
  8
1
  6
Continuous
100
AcDbLine
 10
348.9434349999998
 20
153.1794999999999
 30
0.0
 11
348.9434349999998
 21
152.6794999999999
 31
0.0
  0
LINE
  5
C415
330
C392
100
AcDbEntity
  8
1
  6
Continuous
100
AcDbLine
 10
348.9434349999998
 20
138.8205
 30
0.0
 11
348.9434349999998
 21
139.3205
 31
0.0
  0
ARC
  5
C416
330
C392
100
AcDbEntity
  8
1
  6
Continuous
100
AcDbCircle
 10
347.9434349999999
 20
139.3205
 30
0.0
 40
1.0
100
AcDbArc
 50
0.0
 51
31.97167800000001
  0
ARC
  5
C417
330
C392
100
AcDbEntity
  8
1
  6
Continuous
100
AcDbCircle
 10
367.9434349999998
 20
152.6794999999999
 30
0.0
 40
1.0
100
AcDbArc
 50
180.0
 51
211.9716779999999
  0
LINE
  5
C418
330
C392
100
AcDbEntity
  8
1
  6
Continuous
100
AcDbLine
 10
366.9434349999999
 20
152.6794999999999
 30
0.0
 11
366.9434349999999
 21
153.1794999999999
 31
0.0
  0
LINE
  5
C419
330
C392
100
AcDbEntity
  8
1
  6
Continuous
100
AcDbLine
 10
358.9434349999998
 20
152.6794999999999
 30
0.0
 11
366.9434349999999
 21
152.6794999999999
 31
0.0
  0
LINE
  5
C41A
330
C392
100
AcDbEntity
  8
1
  6
Continuous
100
AcDbLine
 10
358.9434349999998
 20
153.1794999999999
 30
0.0
 11
366.9434349999999
 21
153.1794999999999
 31
0.0
  0
LINE
  5
C41B
330
C392
100
AcDbEntity
  8
1
  6
Continuous
100
AcDbLine
 10
366.9434349999999
 20
139.3205
 30
0.0
 11
366.9434349999999
 21
138.8205
 31
0.0
  0
LINE
  5
C41C
330
C392
100
AcDbEntity
  8
1
  6
Continuous
100
AcDbLine
 10
358.9434349999998
 20
139.3205
 30
0.0
 11
366.9434349999999
 21
139.3205
 31
0.0
  0
LINE
  5
C41D
330
C392
100
AcDbEntity
  8
1
  6
Continuous
100
AcDbLine
 10
358.9434349999998
 20
138.8205
 30
0.0
 11
366.9434349999999
 21
138.8205
 31
0.0
  0
LINE
  5
C41E
330
C392
100
AcDbEntity
  8
1
  6
Continuous
100
AcDbLine
 10
358.9434349999998
 20
153.1794999999999
 30
0.0
 11
358.9434349999998
 21
152.6794999999999
 31
0.0
  0
LINE
  5
C41F
330
C392
100
AcDbEntity
  8
1
  6
Continuous
100
AcDbLine
 10
358.9434349999998
 20
138.8205
 30
0.0
 11
358.9434349999998
 21
139.3205
 31
0.0
  0
ARC
  5
C420
330
C392
100
AcDbEntity
  8
1
  6
Continuous
100
AcDbCircle
 10
357.9434349999999
 20
139.3205
 30
0.0
 40
1.0
100
AcDbArc
 50
0.0
 51
31.97167800000001
  0
ARC
  5
C421
330
C392
100
AcDbEntity
  8
1
  6
Continuous
100
AcDbCircle
 10
377.9434349999998
 20
152.6794999999999
 30
0.0
 40
1.0
100
AcDbArc
 50
180.0
 51
211.9716779999999
  0
LINE
  5
C422
330
C392
100
AcDbEntity
  8
1
  6
Continuous
100
AcDbLine
 10
376.9434349999999
 20
152.6794999999999
 30
0.0
 11
376.9434349999999
 21
153.1794999999999
 31
0.0
  0
LINE
  5
C423
330
C392
100
AcDbEntity
  8
1
  6
Continuous
100
AcDbLine
 10
368.9434349999999
 20
152.6794999999999
 30
0.0
 11
376.9434349999999
 21
152.6794999999999
 31
0.0
  0
LINE
  5
C424
330
C392
100
AcDbEntity
  8
1
  6
Continuous
100
AcDbLine
 10
368.9434349999999
 20
153.1794999999999
 30
0.0
 11
376.9434349999999
 21
153.1794999999999
 31
0.0
  0
LINE
  5
C425
330
C392
100
AcDbEntity
  8
1
  6
Continuous
100
AcDbLine
 10
376.9434349999999
 20
139.3205
 30
0.0
 11
376.9434349999999
 21
138.8205
 31
0.0
  0
LINE
  5
C426
330
C392
100
AcDbEntity
  8
1
  6
Continuous
100
AcDbLine
 10
368.9434349999999
 20
139.3205
 30
0.0
 11
376.9434349999999
 21
139.3205
 31
0.0
  0
LINE
  5
C427
330
C392
100
AcDbEntity
  8
1
  6
Continuous
100
AcDbLine
 10
368.9434349999999
 20
138.8205
 30
0.0
 11
376.9434349999999
 21
138.8205
 31
0.0
  0
LINE
  5
C428
330
C392
100
AcDbEntity
  8
1
  6
Continuous
100
AcDbLine
 10
368.9434349999999
 20
153.1794999999999
 30
0.0
 11
368.9434349999999
 21
152.6794999999999
 31
0.0
  0
LINE
  5
C429
330
C392
100
AcDbEntity
  8
1
  6
Continuous
100
AcDbLine
 10
368.9434349999999
 20
138.8205
 30
0.0
 11
368.9434349999999
 21
139.3205
 31
0.0
  0
ARC
  5
C42A
330
C392
100
AcDbEntity
  8
1
  6
Continuous
100
AcDbCircle
 10
367.9434349999998
 20
139.3205
 30
0.0
 40
1.0
100
AcDbArc
 50
0.0
 51
31.97167800000001
  0
ARC
  5
C42B
330
C392
100
AcDbEntity
  8
1
  6
Continuous
100
AcDbCircle
 10
387.9434349999998
 20
152.6794999999999
 30
0.0
 40
1.0
100
AcDbArc
 50
180.0
 51
211.9716779999999
  0
LINE
  5
C42C
330
C392
100
AcDbEntity
  8
1
  6
Continuous
100
AcDbLine
 10
386.9434349999999
 20
152.6794999999999
 30
0.0
 11
386.9434349999999
 21
153.1794999999999
 31
0.0
  0
LINE
  5
C42D
330
C392
100
AcDbEntity
  8
1
  6
Continuous
100
AcDbLine
 10
378.9434349999999
 20
152.6794999999999
 30
0.0
 11
386.9434349999999
 21
152.6794999999999
 31
0.0
  0
LINE
  5
C42E
330
C392
100
AcDbEntity
  8
1
  6
Continuous
100
AcDbLine
 10
378.9434349999999
 20
153.1794999999999
 30
0.0
 11
386.9434349999999
 21
153.1794999999999
 31
0.0
  0
LINE
  5
C42F
330
C392
100
AcDbEntity
  8
1
  6
Continuous
100
AcDbLine
 10
386.9434349999999
 20
139.3205
 30
0.0
 11
386.9434349999999
 21
138.8205
 31
0.0
  0
LINE
  5
C430
330
C392
100
AcDbEntity
  8
1
  6
Continuous
100
AcDbLine
 10
378.9434349999999
 20
139.3205
 30
0.0
 11
386.9434349999999
 21
139.3205
 31
0.0
  0
LINE
  5
C431
330
C392
100
AcDbEntity
  8
1
  6
Continuous
100
AcDbLine
 10
378.9434349999999
 20
138.8205
 30
0.0
 11
386.9434349999999
 21
138.8205
 31
0.0
  0
LINE
  5
C432
330
C392
100
AcDbEntity
  8
1
  6
Continuous
100
AcDbLine
 10
378.9434349999999
 20
153.1794999999999
 30
0.0
 11
378.9434349999999
 21
152.6794999999999
 31
0.0
  0
LINE
  5
C433
330
C392
100
AcDbEntity
  8
1
  6
Continuous
100
AcDbLine
 10
378.9434349999999
 20
138.8205
 30
0.0
 11
378.9434349999999
 21
139.3205
 31
0.0
  0
ARC
  5
C434
330
C392
100
AcDbEntity
  8
1
  6
Continuous
100
AcDbCircle
 10
377.9434349999998
 20
139.3205
 30
0.0
 40
1.0
100
AcDbArc
 50
0.0
 51
31.97167800000001
  0
LINE
  5
C435
330
C392
100
AcDbEntity
  8
1
  6
Continuous
100
AcDbLine
 10
388.9434349999999
 20
152.6794999999999
 30
0.0
 11
388.9434349999999
 21
153.1794999999999
 31
0.0
  0
LINE
  5
C436
330
C392
100
AcDbEntity
  8
1
  6
Continuous
100
AcDbLine
 10
388.9434349999999
 20
152.6794999999999
 30
0.0
 11
396.9434349999998
 21
152.6794999999999
 31
0.0
  0
LINE
  5
C437
330
C392
100
AcDbEntity
  8
1
  6
Continuous
100
AcDbLine
 10
388.9434349999999
 20
153.1794999999999
 30
0.0
 11
396.9434349999998
 21
153.1794999999999
 31
0.0
  0
LINE
  5
C438
330
C392
100
AcDbEntity
  8
1
  6
Continuous
100
AcDbLine
 10
388.9434349999999
 20
139.3205
 30
0.0
 11
388.9434349999999
 21
138.8205
 31
0.0
  0
LINE
  5
C439
330
C392
100
AcDbEntity
  8
1
  6
Continuous
100
AcDbLine
 10
388.9434349999999
 20
139.3205
 30
0.0
 11
396.9434349999998
 21
139.3205
 31
0.0
  0
LINE
  5
C43A
330
C392
100
AcDbEntity
  8
1
  6
Continuous
100
AcDbLine
 10
388.9434349999999
 20
138.8205
 30
0.0
 11
396.9434349999998
 21
138.8205
 31
0.0
  0
LINE
  5
C43B
330
C392
100
AcDbEntity
  8
1
  6
Continuous
100
AcDbLine
 10
396.9434349999998
 20
153.2
 30
0.0
 11
396.9434349999998
 21
152.15
 31
0.0
  0
ARC
  5
C43C
330
C392
100
AcDbEntity
  8
1
  6
Continuous
100
AcDbCircle
 10
387.9434349999998
 20
139.3205
 30
0.0
 40
1.0
100
AcDbArc
 50
0.0
 51
31.97167800000001
  0
LINE
  5
C43D
330
C392
100
AcDbEntity
  8
1
  6
Continuous
100
AcDbLine
 10
396.9434349999998
 20
139.85
 30
0.0
 11
396.9434349999998
 21
138.8205
 31
0.0
  0
LINE
  5
C43E
330
C392
100
AcDbEntity
  8
1
  6
Continuous
100
AcDbLine
 10
318.9434349999998
 20
139.85
 30
0.0
 11
318.9434349999998
 21
138.8205
 31
0.0
  0
ARC
  5
C43F
330
C392
100
AcDbEntity
  8
1
  6
Continuous
100
AcDbCircle
 10
387.9434349999998
 20
152.6794999999999
 30
0.0
 40
1.0
100
AcDbArc
 50
328.028322
 51
0.0
  0
ARC
  5
C440
330
C392
100
AcDbEntity
  8
1
  6
Continuous
100
AcDbCircle
 10
377.9434349999998
 20
152.6794999999999
 30
0.0
 40
1.0
100
AcDbArc
 50
328.028322
 51
0.0
  0
ARC
  5
C441
330
C392
100
AcDbEntity
  8
1
  6
Continuous
100
AcDbCircle
 10
367.9434349999998
 20
152.6794999999999
 30
0.0
 40
1.0
100
AcDbArc
 50
328.028322
 51
0.0
  0
ARC
  5
C442
330
C392
100
AcDbEntity
  8
1
  6
Continuous
100
AcDbCircle
 10
387.9434349999998
 20
139.3205
 30
0.0
 40
1.0
100
AcDbArc
 50
148.028322
 51
180.0
  0
ARC
  5
C443
330
C392
100
AcDbEntity
  8
1
  6
Continuous
100
AcDbCircle
 10
377.9434349999998
 20
139.3205
 30
0.0
 40
1.0
100
AcDbArc
 50
148.028322
 51
180.0
  0
ARC
  5
C444
330
C392
100
AcDbEntity
  8
1
  6
Continuous
100
AcDbCircle
 10
367.9434349999998
 20
139.3205
 30
0.0
 40
1.0
100
AcDbArc
 50
148.028322
 51
180.0
  0
ARC
  5
C445
330
C392
100
AcDbEntity
  8
1
  6
Continuous
100
AcDbCircle
 10
357.9434349999999
 20
152.6794999999999
 30
0.0
 40
1.0
100
AcDbArc
 50
328.028322
 51
0.0
  0
ARC
  5
C446
330
C392
100
AcDbEntity
  8
1
  6
Continuous
100
AcDbCircle
 10
347.9434349999999
 20
152.6794999999999
 30
0.0
 40
1.0
100
AcDbArc
 50
328.028322
 51
0.0
  0
ARC
  5
C447
330
C392
100
AcDbEntity
  8
1
  6
Continuous
100
AcDbCircle
 10
337.9434349999998
 20
152.6794999999999
 30
0.0
 40
1.0
100
AcDbArc
 50
328.028322
 51
0.0
  0
ARC
  5
C448
330
C392
100
AcDbEntity
  8
1
  6
Continuous
100
AcDbCircle
 10
327.9434349999998
 20
152.6794999999999
 30
0.0
 40
1.0
100
AcDbArc
 50
328.028322
 51
0.0
  0
ARC
  5
C449
330
C392
100
AcDbEntity
  8
1
  6
Continuous
100
AcDbCircle
 10
327.9434349999998
 20
139.3205
 30
0.0
 40
1.0
100
AcDbArc
 50
148.028322
 51
180.0
  0
ARC
  5
C44A
330
C392
100
AcDbEntity
  8
1
  6
Continuous
100
AcDbCircle
 10
337.9434349999998
 20
139.3205
 30
0.0
 40
1.0
100
AcDbArc
 50
148.028322
 51
180.0
  0
ARC
  5
C44B
330
C392
100
AcDbEntity
  8
1
  6
Continuous
100
AcDbCircle
 10
347.9434349999999
 20
139.3205
 30
0.0
 40
1.0
100
AcDbArc
 50
148.028322
 51
180.0
  0
ARC
  5
C44C
330
C392
100
AcDbEntity
  8
1
  6
Continuous
100
AcDbCircle
 10
357.9434349999999
 20
139.3205
 30
0.0
 40
1.0
100
AcDbArc
 50
148.028322
 51
180.0
  0
CIRCLE
  5
C44D
330
C392
100
AcDbEntity
  8
1
  6
Continuous
100
AcDbCircle
 10
266.443435
 20
146.0
 30
0.0
 40
1.6
  0
LINE
  5
C44E
330
C392
100
AcDbEntity
  8
1
  6
Continuous
100
AcDbLine
 10
251.143435
 20
144.4
 30
0.0
 11
251.743435
 21
144.4
 31
0.0
  0
LINE
  5
C44F
330
C392
100
AcDbEntity
  8
1
  6
Continuous
100
AcDbLine
 10
251.743435
 20
147.5999999999999
 30
0.0
 11
251.143435
 21
147.5999999999999
 31
0.0
  0
ARC
  5
C450
330
C392
100
AcDbEntity
  8
1
  6
Continuous
100
AcDbCircle
 10
251.143435
 20
146.0
 30
0.0
 40
1.6
100
AcDbArc
 50
90.0
 51
270.0
  0
ARC
  5
C451
330
C392
100
AcDbEntity
  8
1
  6
Continuous
100
AcDbCircle
 10
251.743435
 20
146.0
 30
0.0
 40
1.6
100
AcDbArc
 50
270.0
 51
90.0
  0
LINE
  5
C452
330
C392
100
AcDbEntity
  8
4
  6
CENTER
100
AcDbLine
 10
334.1434349999998
 20
151.3555299999999
 30
0.0
 11
334.1434349999998
 21
140.723747
 31
0.0
  0
LINE
  5
C453
330
C392
100
AcDbEntity
  8
1
  6
Continuous
100
AcDbLine
 10
335.7434349999999
 20
149.65
 30
0.0
 11
332.543435
 21
149.65
 31
0.0
  0
LINE
  5
C454
330
C392
100
AcDbEntity
  8
1
  6
Continuous
100
AcDbLine
 10
332.543435
 20
142.3499999999999
 30
0.0
 11
335.7434349999999
 21
142.3499999999999
 31
0.0
  0
ARC
  5
C455
330
C392
100
AcDbEntity
  8
1
  6
Continuous
100
AcDbCircle
 10
332.543435
 20
146.0
 30
0.0
 40
3.649999999999999
100
AcDbArc
 50
90.0
 51
270.0
  0
ARC
  5
C456
330
C392
100
AcDbEntity
  8
1
  6
Continuous
100
AcDbCircle
 10
335.7434349999999
 20
146.0
 30
0.0
 40
3.649999999999999
100
AcDbArc
 50
270.0
 51
90.0
  0
LINE
  5
C457
330
C392
100
AcDbEntity
  8
1
  6
Continuous
100
AcDbLine
 10
315.4434349999998
 20
136.0
 30
0.0
 11
315.4434349999998
 21
139.85
 31
0.0
  0
LINE
  5
C458
330
C392
100
AcDbEntity
  8
1
  6
Continuous
100
AcDbLine
 10
315.4434349999998
 20
152.15
 30
0.0
 11
315.4434349999998
 21
156.0
 31
0.0
  0
LINE
  5
C459
330
C392
100
AcDbEntity
  8
3
  6
DASHED
100
AcDbLine
 10
315.4434349999998
 20
139.85
 30
0.0
 11
315.4434349999998
 21
152.15
 31
0.0
  0
LINE
  5
C45A
330
C392
100
AcDbEntity
  8
4
  6
CENTER
100
AcDbLine
 10
335.4434349999999
 20
148.6294619999999
 30
0.0
 11
335.4434349999999
 21
143.3288939999999
 31
0.0
  0
CIRCLE
  5
C45B
330
C392
100
AcDbEntity
  8
1
  6
Continuous
100
AcDbCircle
 10
335.4434349999999
 20
146.0
 30
0.0
 40
1.6
  0
LINE
  5
C45C
330
C392
100
AcDbEntity
  8
1
  6
Continuous
100
AcDbLine
 10
435.1434349999998
 20
144.4
 30
0.0
 11
435.7434349999998
 21
144.4
 31
0.0
  0
LINE
  5
C45D
330
C392
100
AcDbEntity
  8
1
  6
Continuous
100
AcDbLine
 10
435.7434349999998
 20
147.5999999999999
 30
0.0
 11
435.1434349999998
 21
147.5999999999999
 31
0.0
  0
ARC
  5
C45E
330
C392
100
AcDbEntity
  8
1
  6
Continuous
100
AcDbCircle
 10
435.1434349999998
 20
146.0
 30
0.0
 40
1.6
100
AcDbArc
 50
90.0
 51
270.0
  0
ARC
  5
C45F
330
C392
100
AcDbEntity
  8
1
  6
Continuous
100
AcDbCircle
 10
435.7434349999998
 20
146.0
 30
0.0
 40
1.6
100
AcDbArc
 50
270.0
 51
90.0
  0
LINE
  5
C460
330
C392
100
AcDbEntity
  8
1
  6
Continuous
100
AcDbLine
 10
480.1434349999998
 20
144.4
 30
0.0
 11
480.7434349999998
 21
144.4
 31
0.0
  0
LINE
  5
C461
330
C392
100
AcDbEntity
  8
1
  6
Continuous
100
AcDbLine
 10
480.7434349999998
 20
147.5999999999999
 30
0.0
 11
480.1434349999998
 21
147.5999999999999
 31
0.0
  0
ARC
  5
C462
330
C392
100
AcDbEntity
  8
1
  6
Continuous
100
AcDbCircle
 10
480.1434349999998
 20
146.0
 30
0.0
 40
1.6
100
AcDbArc
 50
90.0
 51
270.0
  0
ARC
  5
C463
330
C392
100
AcDbEntity
  8
1
  6
Continuous
100
AcDbCircle
 10
480.7434349999998
 20
146.0
 30
0.0
 40
1.6
100
AcDbArc
 50
270.0
 51
90.0
  0
LINE
  5
C464
330
C392
100
AcDbEntity
  8
4
  6
CENTER
100
AcDbLine
 10
495.4434349999998
 20
149.6331209999999
 30
0.0
 11
495.4434349999998
 21
142.7708439999999
 31
0.0
  0
LINE
  5
C465
330
C392
100
AcDbEntity
  8
1
  6
Continuous
100
AcDbLine
 10
282.943435
 20
140.6999999999999
 30
0.0
 11
282.943435
 21
151.3
 31
0.0
  0
LINE
  5
C466
330
C392
100
AcDbEntity
  8
1
  6
Continuous
100
AcDbLine
 10
286.443435
 20
150.4
 30
0.0
 11
282.943435
 21
150.4
 31
0.0
  0
LINE
  5
C467
330
C392
100
AcDbEntity
  8
1
  6
Continuous
100
AcDbLine
 10
286.443435
 20
141.5999999999999
 30
0.0
 11
282.943435
 21
141.5999999999999
 31
0.0
  0
LINE
  5
C468
330
C392
100
AcDbEntity
  8
1
  6
Continuous
100
AcDbLine
 10
286.443435
 20
151.3
 30
0.0
 11
282.943435
 21
151.3
 31
0.0
  0
LINE
  5
C469
330
C392
100
AcDbEntity
  8
1
  6
Continuous
100
AcDbLine
 10
286.443435
 20
140.6999999999999
 30
0.0
 11
282.943435
 21
140.6999999999999
 31
0.0
  0
ARC
  5
C46A
330
C392
100
AcDbEntity
  8
1
  6
Continuous
100
AcDbCircle
 10
495.7434349999997
 20
146.0
 30
0.0
 40
1.6
100
AcDbArc
 50
270.0
 51
90.0
  0
ARC
  5
C46B
330
C392
100
AcDbEntity
  8
1
  6
Continuous
100
AcDbCircle
 10
495.1434349999998
 20
146.0
 30
0.0
 40
1.6
100
AcDbArc
 50
90.0
 51
270.0
  0
LINE
  5
C46C
330
C392
100
AcDbEntity
  8
1
  6
Continuous
100
AcDbLine
 10
495.7434349999997
 20
147.5999999999999
 30
0.0
 11
495.1434349999998
 21
147.5999999999999
 31
0.0
  0
LINE
  5
C46D
330
C392
100
AcDbEntity
  8
1
  6
Continuous
100
AcDbLine
 10
495.1434349999998
 20
144.4
 30
0.0
 11
495.7434349999997
 21
144.4
 31
0.0
  0
LINE
  5
C46E
330
C392
100
AcDbEntity
  8
3
  6
DASHED
100
AcDbLine
 10
203.943435
 20
139.85
 30
0.0
 11
203.943435
 21
152.15
 31
0.0
  0
ARC
  5
C46F
330
C392
100
AcDbEntity
  8
1
  6
Continuous
100
AcDbCircle
 10
106.743435
 20
146.0
 30
0.0
 40
1.6
100
AcDbArc
 50
270.0
 51
90.0
  0
ARC
  5
C470
330
C392
100
AcDbEntity
  8
1
  6
Continuous
100
AcDbCircle
 10
106.143435
 20
146.0
 30
0.0
 40
1.6
100
AcDbArc
 50
90.0
 51
270.0
  0
LINE
  5
C471
330
C392
100
AcDbEntity
  8
1
  6
Continuous
100
AcDbLine
 10
106.743435
 20
147.5999999999999
 30
0.0
 11
106.143435
 21
147.5999999999999
 31
0.0
  0
LINE
  5
C472
330
C392
100
AcDbEntity
  8
1
  6
Continuous
100
AcDbLine
 10
106.143435
 20
144.4
 30
0.0
 11
106.743435
 21
144.4
 31
0.0
  0
ARC
  5
C473
330
C392
100
AcDbEntity
  8
1
  6
Continuous
100
AcDbCircle
 10
29.5
 20
138.9875
 30
0.0
 40
2.987499999999998
100
AcDbArc
 50
227.116587
 51
329.6497479999998
  0
LINE
  5
C474
330
C392
100
AcDbEntity
  8
1
  6
Continuous
100
AcDbLine
 10
27.32991699999999
 20
152.490079
 30
0.0
 11
32.20000000000001
 21
153.1794999999999
 31
0.0
  0
LINE
  5
C475
330
C392
100
AcDbEntity
  8
1
  6
Continuous
100
AcDbLine
 10
27.4
 20
152.0
 30
0.0
 11
32.20000000000001
 21
152.6794999999999
 31
0.0
  0
LINE
  5
C476
330
C392
100
AcDbEntity
  8
1
  6
Continuous
100
AcDbLine
 10
30.943724
 20
153.672665
 30
0.0
 11
32.078071
 21
154.5220379999999
 31
0.0
  0
ARC
  5
C477
330
C392
100
AcDbEntity
  8
1
  6
Continuous
100
AcDbCircle
 10
31.49104
 20
150.64104
 30
0.0
 40
1.50896
100
AcDbArc
 50
0.0
 51
130.0162919999999
  0
LINE
  5
C478
330
C392
100
AcDbEntity
  8
4
  6
CENTER
100
AcDbLine
 10
22.0
 20
146.0
 30
0.0
 11
44.0
 21
146.0
 31
0.0
  0
ARC
  5
C479
330
C392
100
AcDbEntity
  8
1
  6
Continuous
100
AcDbCircle
 10
29.5
 20
153.0124999999999
 30
0.0
 40
2.987499999999998
100
AcDbArc
 50
30.350252
 51
132.8834129999999
  0
ARC
  5
C47A
330
C392
100
AcDbEntity
  8
1
  6
Continuous
100
AcDbCircle
 10
31.49104
 20
141.3589599999999
 30
0.0
 40
1.50896
100
AcDbArc
 50
229.983708
 51
0.0
  0
LINE
  5
C47B
330
C392
100
AcDbEntity
  8
1
  6
Continuous
100
AcDbLine
 10
30.943724
 20
138.327335
 30
0.0
 11
32.078071
 21
137.4779619999999
 31
0.0
  0
LINE
  5
C47C
330
C392
100
AcDbEntity
  8
1
  6
Continuous
100
AcDbLine
 10
27.4
 20
140.0
 30
0.0
 11
32.20000000000001
 21
139.3205
 31
0.0
  0
LINE
  5
C47D
330
C392
100
AcDbEntity
  8
1
  6
Continuous
100
AcDbLine
 10
27.32991699999999
 20
139.5099209999999
 30
0.0
 11
32.20000000000001
 21
138.8205
 31
0.0
  0
ARC
  5
C47E
330
C392
100
AcDbEntity
  8
1
  6
Continuous
100
AcDbCircle
 10
29.5
 20
153.0124999999999
 30
0.0
 40
1.587499999999999
100
AcDbArc
 50
214.550104
 51
341.5646869999999
  0
ARC
  5
C47F
330
C392
100
AcDbEntity
  8
1
  6
Continuous
100
AcDbCircle
 10
27.4
 20
151.9950149999999
 30
0.0
 40
0.5
100
AcDbArc
 50
98.05739500000001
 51
180.0
  0
ARC
  5
C480
330
C392
100
AcDbEntity
  8
1
  6
Continuous
100
AcDbCircle
 10
28.9
 20
149.3144609999999
 30
0.0
 40
0.5
100
AcDbArc
 50
0.0
 51
59.45939499999999
  0
LINE
  5
C481
330
C392
100
AcDbEntity
  8
1
  6
Continuous
100
AcDbLine
 10
28.1
 20
149.786461
 30
0.0
 11
28.9
 21
149.3144609999999
 31
0.0
  0
LINE
  5
C482
330
C392
100
AcDbEntity
  8
1
  6
Continuous
100
AcDbLine
 10
28.079209
 20
150.379266
 30
0.0
 11
29.15407399999999
 21
149.7450959999999
 31
0.0
  0
LINE
  5
C483
330
C392
100
AcDbEntity
  8
1
  6
Continuous
100
AcDbLine
 10
27.4
 20
152.0
 30
0.0
 11
27.4
 21
151.5720509999999
 31
0.0
  0
LINE
  5
C484
330
C392
100
AcDbEntity
  8
1
  6
Continuous
100
AcDbLine
 10
26.89999999999999
 20
151.9950149999999
 30
0.0
 11
26.89999999999999
 21
151.878509
 31
0.0
  0
LINE
  5
C485
330
C392
100
AcDbEntity
  8
1
  6
Continuous
100
AcDbLine
 10
27.700075
 20
151.2650529999999
 30
0.0
 11
28.36098699999999
 21
151.9066949999999
 31
0.0
  0
ARC
  5
C486
330
C392
100
AcDbEntity
  8
1
  6
Continuous
100
AcDbCircle
 10
31.49104
 20
150.64104
 30
0.0
 40
0.30896
100
AcDbArc
 50
0.0
 51
130.0162919999999
  0
ARC
  5
C487
330
C392
100
AcDbEntity
  8
1
  6
Continuous
100
AcDbCircle
 10
29.5
 20
153.0124999999999
 30
0.0
 40
2.7875
100
AcDbArc
 50
237.8779199999999
 51
310.0162919999998
  0
ARC
  5
C488
330
C392
100
AcDbEntity
  8
1
  6
Continuous
100
AcDbCircle
 10
26.89999999999999
 20
152.081989
 30
0.0
 40
1.9
100
AcDbArc
 50
132.8834129999999
 51
202.591431
  0
LINE
  5
C489
330
C392
100
AcDbEntity
  8
1
  6
Continuous
100
AcDbLine
 10
25.607033
 20
153.474195
 30
0.0
 11
27.46698
 21
155.2015609999999
 31
0.0
  0
LINE
  5
C48A
330
C392
100
AcDbEntity
  8
1
  6
Continuous
100
AcDbLine
 10
26.807986
 20
152.6789039999998
 30
0.0
 11
28.41969199999999
 21
154.175725
 31
0.0
  0
ARC
  5
C48B
330
C392
100
AcDbEntity
  8
1
  6
Continuous
100
AcDbCircle
 10
29.5
 20
153.0124999999999
 30
0.0
 40
1.587499999999999
100
AcDbArc
 50
0.343152
 51
195.7716379999999
  0
LINE
  5
C48C
330
C392
100
AcDbEntity
  8
1
  6
Continuous
100
AcDbLine
 10
25.0
 20
151.3
 30
0.0
 11
26.433944
 21
150.5408529999999
 31
0.0
  0
ARC
  5
C48D
330
C392
100
AcDbEntity
  8
1
  6
Continuous
100
AcDbCircle
 10
25.60742499999999
 20
151.5441689999998
 30
0.0
 40
0.5
100
AcDbArc
 50
202.591431
 51
242.102729
  0
ARC
  5
C48E
330
C392
100
AcDbEntity
  8
1
  6
Continuous
100
AcDbCircle
 10
26.2
 20
150.098959
 30
0.0
 40
0.5
100
AcDbArc
 50
0.0
 51
62.10272899999999
  0
ARC
  5
C48F
330
C392
100
AcDbEntity
  8
1
  6
Continuous
100
AcDbCircle
 10
26.2
 20
150.098959
 30
0.0
 40
1.9
100
AcDbArc
 50
0.0
 51
62.10272899999999
  0
LINE
  5
C490
330
C392
100
AcDbEntity
  8
1
  6
Continuous
100
AcDbLine
 10
26.91429600000001
 20
151.8706399999999
 30
0.0
 11
27.088987
 21
151.7781559999999
 31
0.0
  0
ARC
  5
C491
330
C392
100
AcDbEntity
  8
1
  6
Continuous
100
AcDbCircle
 10
27.14824
 20
152.3125339999999
 30
0.0
 40
0.5
100
AcDbArc
 50
132.8834129999999
 51
242.102729
  0
ARC
  5
C492
330
C392
100
AcDbEntity
  8
1
  6
Continuous
100
AcDbCircle
 10
27.14824
 20
139.6874659999997
 30
0.0
 40
0.5
100
AcDbArc
 50
117.8972709999999
 51
227.116587
  0
LINE
  5
C493
330
C392
100
AcDbEntity
  8
1
  6
Continuous
100
AcDbLine
 10
26.807986
 20
139.3210959999999
 30
0.0
 11
28.41969199999999
 21
137.824275
 31
0.0
  0
LINE
  5
C494
330
C392
100
AcDbEntity
  8
1
  6
Continuous
100
AcDbLine
 10
25.607033
 20
138.525805
 30
0.0
 11
27.46698
 21
136.7984389999998
 31
0.0
  0
ARC
  5
C495
330
C392
100
AcDbEntity
  8
1
  6
Continuous
100
AcDbCircle
 10
27.4
 20
140.004985
 30
0.0
 40
0.5
100
AcDbArc
 50
180.0
 51
261.9426049999999
  0
ARC
  5
C496
330
C392
100
AcDbEntity
  8
1
  6
Continuous
100
AcDbCircle
 10
26.2
 20
141.901041
 30
0.0
 40
0.5
100
AcDbArc
 50
297.8972709999998
 51
0.0
  0
LINE
  5
C497
330
C392
100
AcDbEntity
  8
1
  6
Continuous
100
AcDbLine
 10
25.0
 20
140.6999999999999
 30
0.0
 11
26.433944
 21
141.4591469999997
 31
0.0
  0
ARC
  5
C498
330
C392
100
AcDbEntity
  8
1
  6
Continuous
100
AcDbCircle
 10
25.60742499999999
 20
140.4558309999998
 30
0.0
 40
0.5
100
AcDbArc
 50
117.8972709999999
 51
157.4085689999997
  0
ARC
  5
C499
330
C392
100
AcDbEntity
  8
1
  6
Continuous
100
AcDbCircle
 10
26.89999999999999
 20
139.918011
 30
0.0
 40
1.9
100
AcDbArc
 50
157.4085689999997
 51
227.116587
  0
LINE
  5
C49A
330
C392
100
AcDbEntity
  8
1
  6
Continuous
100
AcDbLine
 10
28.1
 20
142.213539
 30
0.0
 11
28.9
 21
142.6855389999998
 31
0.0
  0
LINE
  5
C49B
330
C392
100
AcDbEntity
  8
1
  6
Continuous
100
AcDbLine
 10
27.700075
 20
140.7349469999997
 30
0.0
 11
28.36098699999999
 21
140.0933049999999
 31
0.0
  0
ARC
  5
C49C
330
C392
100
AcDbEntity
  8
1
  6
Continuous
100
AcDbCircle
 10
29.5
 20
138.9875
 30
0.0
 40
2.7875
100
AcDbArc
 50
49.983708
 51
122.12208
  0
LINE
  5
C49D
330
C392
100
AcDbEntity
  8
1
  6
Continuous
100
AcDbLine
 10
28.079209
 20
141.6207339999999
 30
0.0
 11
29.15407399999999
 21
142.2549039999998
 31
0.0
  0
LINE
  5
C49E
330
C392
100
AcDbEntity
  8
1
  6
Continuous
100
AcDbLine
 10
27.4
 20
140.0
 30
0.0
 11
27.4
 21
140.427949
 31
0.0
  0
LINE
  5
C49F
330
C392
100
AcDbEntity
  8
1
  6
Continuous
100
AcDbLine
 10
26.89999999999999
 20
140.004985
 30
0.0
 11
26.89999999999999
 21
140.121491
 31
0.0
  0
LINE
  5
C4A0
330
C392
100
AcDbEntity
  8
1
  6
Continuous
100
AcDbLine
 10
26.91429600000001
 20
140.1293599999999
 30
0.0
 11
27.088987
 21
140.221844
 31
0.0
  0
ARC
  5
C4A1
330
C392
100
AcDbEntity
  8
1
  6
Continuous
100
AcDbCircle
 10
26.2
 20
141.901041
 30
0.0
 40
1.9
100
AcDbArc
 50
297.8972709999998
 51
0.0
  0
ARC
  5
C4A2
330
C392
100
AcDbEntity
  8
1
  6
Continuous
100
AcDbCircle
 10
31.49104
 20
141.3589599999999
 30
0.0
 40
0.30896
100
AcDbArc
 50
229.983708
 51
0.0
  0
ARC
  5
C4A3
330
C392
100
AcDbEntity
  8
1
  6
Continuous
100
AcDbCircle
 10
28.9
 20
142.6855389999998
 30
0.0
 40
0.5
100
AcDbArc
 50
300.5406049999998
 51
0.0
  0
ARC
  5
C4A4
330
C392
100
AcDbEntity
  8
1
  6
Continuous
100
AcDbCircle
 10
29.5
 20
138.9875
 30
0.0
 40
1.587499999999999
100
AcDbArc
 50
164.228362
 51
359.656848
  0
ARC
  5
C4A5
330
C392
100
AcDbEntity
  8
1
  6
Continuous
100
AcDbCircle
 10
29.5
 20
138.9875
 30
0.0
 40
1.587499999999999
100
AcDbArc
 50
18.435313
 51
145.449896
  0
LINE
  5
C4A6
330
C392
100
AcDbEntity
  8
1
  6
Continuous
100
AcDbLine
 10
28.9
 20
149.3144609999999
 30
0.0
 11
28.9
 21
142.6855389999998
 31
0.0
  0
LINE
  5
C4A7
330
C392
100
AcDbEntity
  8
1
  6
Continuous
100
AcDbLine
 10
29.39999999999999
 20
149.3144609999999
 30
0.0
 11
29.39999999999999
 21
142.6855389999998
 31
0.0
  0
LINE
  5
C4A8
330
C392
100
AcDbEntity
  8
1
  6
Continuous
100
AcDbLine
 10
31.8
 20
150.64104
 30
0.0
 11
31.8
 21
141.3589599999999
 31
0.0
  0
LINE
  5
C4A9
330
C392
100
AcDbEntity
  8
1
  6
Continuous
100
AcDbLine
 10
26.4
 20
150.5588239999999
 30
0.0
 11
26.4
 21
141.441176
 31
0.0
  0
LINE
  5
C4AA
330
C392
100
AcDbEntity
  8
1
  6
Continuous
100
AcDbLine
 10
25.0
 20
152.081989
 30
0.0
 11
25.0
 21
139.918011
 31
0.0
  0
LINE
  5
C4AB
330
C392
100
AcDbEntity
  8
1
  6
Continuous
100
AcDbLine
 10
28.1
 20
150.098959
 30
0.0
 11
28.1
 21
141.901041
 31
0.0
  0
LINE
  5
C4AC
330
C392
100
AcDbEntity
  8
1
  6
Continuous
100
AcDbLine
 10
26.69999999999999
 20
150.098959
 30
0.0
 11
26.69999999999999
 21
141.901041
 31
0.0
  0
LINE
  5
C4AD
330
C392
100
AcDbEntity
  8
1
  6
Continuous
100
AcDbLine
 10
32.20000000000001
 20
153.1794999999999
 30
0.0
 11
32.20000000000001
 21
152.6794999999999
 31
0.0
  0
LINE
  5
C4AE
330
C392
100
AcDbEntity
  8
1
  6
Continuous
100
AcDbLine
 10
32.20000000000001
 20
138.8205
 30
0.0
 11
32.20000000000001
 21
139.3205
 31
0.0
  0
ARC
  5
C4AF
330
C392
100
AcDbEntity
  8
1
  6
Continuous
100
AcDbCircle
 10
322.9434349999999
 20
153.0124999999999
 30
0.0
 40
1.587499999999999
100
AcDbArc
 50
192.1085089999999
 51
212.9090519999999
  0
ARC
  5
C4B0
330
C392
100
AcDbEntity
  8
1
  6
Continuous
100
AcDbCircle
 10
322.9434349999999
 20
153.0124999999999
 30
0.0
 40
1.587499999999999
100
AcDbArc
 50
155.4270199999999
 51
173.9614919999999
  0
ARC
  5
C4B1
330
C392
100
AcDbEntity
  8
1
  6
Continuous
100
AcDbCircle
 10
322.9434349999999
 20
153.0124999999999
 30
0.0
 40
1.587499999999999
100
AcDbArc
 50
6.038508
 51
24.57297999999999
  0
ARC
  5
C4B2
330
C392
100
AcDbEntity
  8
1
  6
Continuous
100
AcDbCircle
 10
322.9434349999999
 20
153.0124999999999
 30
0.0
 40
1.587499999999999
100
AcDbArc
 50
327.090948
 51
347.8914909999998
  0
ARC
  5
C4B3
330
C392
100
AcDbEntity
  8
1
  6
Continuous
100
AcDbCircle
 10
36.5
 20
138.9875
 30
0.0
 40
2.987499999999998
100
AcDbArc
 50
210.350252
 51
312.8834129999999
  0
ARC
  5
C4B4
330
C392
100
AcDbEntity
  8
1
  6
Continuous
100
AcDbCircle
 10
39.8
 20
141.901041
 30
0.0
 40
1.9
100
AcDbArc
 50
219.2072009999999
 51
230.8332889999999
  0
ARC
  5
C4B5
330
C392
100
AcDbEntity
  8
1
  6
Continuous
100
AcDbCircle
 10
38.85175999999999
 20
139.6874659999997
 30
0.0
 40
0.5
100
AcDbArc
 50
312.8834129999999
 51
60.23261899999999
  0
ARC
  5
C4B6
330
C392
100
AcDbEntity
  8
1
  6
Continuous
100
AcDbCircle
 10
39.8
 20
150.098959
 30
0.0
 40
1.9
100
AcDbArc
 50
129.1667109999998
 51
140.792799
  0
ARC
  5
C4B7
330
C392
100
AcDbEntity
  8
1
  6
Continuous
100
AcDbCircle
 10
38.85175999999999
 20
152.3125339999999
 30
0.0
 40
0.5
100
AcDbArc
 50
299.767381
 51
47.116587
  0
ARC
  5
C4B8
330
C392
100
AcDbEntity
  8
1
  6
Continuous
100
AcDbCircle
 10
35.0
 20
141.6999999999999
 30
0.0
 40
1.0
100
AcDbArc
 50
180.0
 51
270.0
  0
ARC
  5
C4B9
330
C392
100
AcDbEntity
  8
1
  6
Continuous
100
AcDbCircle
 10
35.0
 20
150.3
 30
0.0
 40
1.0
100
AcDbArc
 50
90.0
 51
180.0
  0
LINE
  5
C4BA
330
C392
100
AcDbEntity
  8
1
  6
Continuous
100
AcDbLine
 10
38.6
 20
140.0
 30
0.0
 11
33.79999999999999
 21
139.3205
 31
0.0
  0
LINE
  5
C4BB
330
C392
100
AcDbEntity
  8
1
  6
Continuous
100
AcDbLine
 10
38.670083
 20
139.5099209999999
 30
0.0
 11
33.79999999999999
 21
138.8205
 31
0.0
  0
LINE
  5
C4BC
330
C392
100
AcDbEntity
  8
1
  6
Continuous
100
AcDbLine
 10
38.670083
 20
152.490079
 30
0.0
 11
33.79999999999999
 21
153.1794999999999
 31
0.0
  0
LINE
  5
C4BD
330
C392
100
AcDbEntity
  8
1
  6
Continuous
100
AcDbLine
 10
38.6
 20
152.0
 30
0.0
 11
33.79999999999999
 21
152.6794999999999
 31
0.0
  0
ARC
  5
C4BE
330
C392
100
AcDbEntity
  8
1
  6
Continuous
100
AcDbCircle
 10
34.50895999999998
 20
141.3589599999999
 30
0.0
 40
1.50896
100
AcDbArc
 50
180.0
 51
310.0162919999998
  0
LINE
  5
C4BF
330
C392
100
AcDbEntity
  8
1
  6
Continuous
100
AcDbLine
 10
35.05627599999999
 20
138.327335
 30
0.0
 11
33.92192899999999
 21
137.4779619999999
 31
0.0
  0
LINE
  5
C4C0
330
C392
100
AcDbEntity
  8
1
  6
Continuous
100
AcDbLine
 10
35.05627599999999
 20
153.672665
 30
0.0
 11
33.92192899999999
 21
154.5220379999999
 31
0.0
  0
ARC
  5
C4C1
330
C392
100
AcDbEntity
  8
1
  6
Continuous
100
AcDbCircle
 10
34.50895999999998
 20
150.64104
 30
0.0
 40
1.50896
100
AcDbArc
 50
49.983708
 51
180.0
  0
ARC
  5
C4C2
330
C392
100
AcDbEntity
  8
1
  6
Continuous
100
AcDbCircle
 10
36.5
 20
153.0124999999999
 30
0.0
 40
2.987499999999998
100
AcDbArc
 50
47.116587
 51
149.6497479999999
  0
LINE
  5
C4C3
330
C392
100
AcDbEntity
  8
1
  6
Continuous
100
AcDbLine
 10
41.0
 20
152.081989
 30
0.0
 11
41.0
 21
139.918011
 31
0.0
  0
ARC
  5
C4C4
330
C392
100
AcDbEntity
  8
1
  6
Continuous
100
AcDbCircle
 10
40.49999999999999
 20
140.1999999999999
 30
0.0
 40
0.5
100
AcDbArc
 50
0.0
 51
90.0
  0
LINE
  5
C4C5
330
C392
100
AcDbEntity
  8
1
  6
Continuous
100
AcDbLine
 10
40.49999999999999
 20
140.6999999999999
 30
0.0
 11
35.0
 21
140.6999999999999
 31
0.0
  0
ARC
  5
C4C6
330
C392
100
AcDbEntity
  8
1
  6
Continuous
100
AcDbCircle
 10
40.49999999999999
 20
151.8
 30
0.0
 40
0.5
100
AcDbArc
 50
270.0
 51
0.0
  0
LINE
  5
C4C7
330
C392
100
AcDbEntity
  8
1
  6
Continuous
100
AcDbLine
 10
35.0
 20
151.3
 30
0.0
 11
40.49999999999999
 21
151.3
 31
0.0
  0
LINE
  5
C4C8
330
C392
100
AcDbEntity
  8
1
  6
Continuous
100
AcDbLine
 10
39.6
 20
140.6999999999999
 30
0.0
 11
39.6
 21
139.918011
 31
0.0
  0
LINE
  5
C4C9
330
C392
100
AcDbEntity
  8
1
  6
Continuous
100
AcDbLine
 10
39.6
 20
152.081989
 30
0.0
 11
39.6
 21
151.3
 31
0.0
  0
LINE
  5
C4CA
330
C392
100
AcDbEntity
  8
1
  6
Continuous
100
AcDbLine
 10
38.263928
 20
140.6999999999999
 30
0.0
 11
37.639013
 21
140.0933049999999
 31
0.0
  0
LINE
  5
C4CB
330
C392
100
AcDbEntity
  8
1
  6
Continuous
100
AcDbLine
 10
39.1
 20
140.004985
 30
0.0
 11
39.1
 21
140.6999999999999
 31
0.0
  0
LINE
  5
C4CC
330
C392
100
AcDbEntity
  8
1
  6
Continuous
100
AcDbLine
 10
38.6
 20
140.0
 30
0.0
 11
38.6
 21
140.6999999999999
 31
0.0
  0
LINE
  5
C4CD
330
C392
100
AcDbEntity
  8
1
  6
Continuous
100
AcDbLine
 10
39.1
 20
151.9950149999999
 30
0.0
 11
39.1
 21
151.3
 31
0.0
  0
LINE
  5
C4CE
330
C392
100
AcDbEntity
  8
1
  6
Continuous
100
AcDbLine
 10
38.6
 20
152.0
 30
0.0
 11
38.6
 21
151.3
 31
0.0
  0
LINE
  5
C4CF
330
C392
100
AcDbEntity
  8
1
  6
Continuous
100
AcDbLine
 10
38.263928
 20
151.3
 30
0.0
 11
37.639013
 21
151.9066949999999
 31
0.0
  0
ARC
  5
C4D0
330
C392
100
AcDbEntity
  8
1
  6
Continuous
100
AcDbCircle
 10
36.5
 20
138.9875
 30
0.0
 40
1.587499999999999
100
AcDbArc
 50
180.343152
 51
15.771638
  0
ARC
  5
C4D1
330
C392
100
AcDbEntity
  8
1
  6
Continuous
100
AcDbCircle
 10
38.6
 20
140.004985
 30
0.0
 40
0.5
100
AcDbArc
 50
278.0573949999999
 51
0.0
  0
ARC
  5
C4D2
330
C392
100
AcDbEntity
  8
1
  6
Continuous
100
AcDbCircle
 10
36.5
 20
153.0124999999999
 30
0.0
 40
1.587499999999999
100
AcDbArc
 50
198.4353129999999
 51
325.449896
  0
ARC
  5
C4D3
330
C392
100
AcDbEntity
  8
1
  6
Continuous
100
AcDbCircle
 10
38.6
 20
151.9950149999999
 30
0.0
 40
0.5
100
AcDbArc
 50
0.0
 51
81.942605
  0
ARC
  5
C4D4
330
C392
100
AcDbEntity
  8
1
  6
Continuous
100
AcDbCircle
 10
36.5
 20
138.9875
 30
0.0
 40
1.587499999999999
100
AcDbArc
 50
34.55010399999999
 51
161.5646869999999
  0
LINE
  5
C4D5
330
C392
100
AcDbEntity
  8
1
  6
Continuous
100
AcDbLine
 10
39.44025399999999
 20
139.5516409999999
 30
0.0
 11
37.580308
 21
137.824275
 31
0.0
  0
LINE
  5
C4D6
330
C392
100
AcDbEntity
  8
1
  6
Continuous
100
AcDbLine
 10
40.392967
 20
138.525805
 30
0.0
 11
38.53302
 21
136.7984389999998
 31
0.0
  0
ARC
  5
C4D7
330
C392
100
AcDbEntity
  8
1
  6
Continuous
100
AcDbCircle
 10
39.1
 20
139.918011
 30
0.0
 40
0.5
100
AcDbArc
 50
312.8834129999999
 51
0.0
  0
ARC
  5
C4D8
330
C392
100
AcDbEntity
  8
1
  6
Continuous
100
AcDbCircle
 10
39.1
 20
139.918011
 30
0.0
 40
1.9
100
AcDbArc
 50
312.8834129999999
 51
0.0
  0
ARC
  5
C4D9
330
C392
100
AcDbEntity
  8
1
  6
Continuous
100
AcDbCircle
 10
39.1
 20
152.081989
 30
0.0
 40
1.9
100
AcDbArc
 50
0.0
 51
47.116587
  0
ARC
  5
C4DA
330
C392
100
AcDbEntity
  8
1
  6
Continuous
100
AcDbCircle
 10
39.1
 20
152.081989
 30
0.0
 40
0.5
100
AcDbArc
 50
0.0
 51
47.116587
  0
LINE
  5
C4DB
330
C392
100
AcDbEntity
  8
1
  6
Continuous
100
AcDbLine
 10
40.392967
 20
153.474195
 30
0.0
 11
38.53302
 21
155.2015609999999
 31
0.0
  0
LINE
  5
C4DC
330
C392
100
AcDbEntity
  8
1
  6
Continuous
100
AcDbLine
 10
39.44025399999999
 20
152.448359
 30
0.0
 11
37.580308
 21
154.175725
 31
0.0
  0
ARC
  5
C4DD
330
C392
100
AcDbEntity
  8
1
  6
Continuous
100
AcDbCircle
 10
36.5
 20
153.0124999999999
 30
0.0
 40
1.587499999999999
100
AcDbArc
 50
344.2283619999998
 51
179.6568479999999
  0
LINE
  5
C4DE
330
C392
100
AcDbEntity
  8
1
  6
Continuous
100
AcDbLine
 10
34.0
 20
150.3
 30
0.0
 11
34.0
 21
141.6999999999999
 31
0.0
  0
LINE
  5
C4DF
330
C392
100
AcDbEntity
  8
1
  6
Continuous
100
AcDbLine
 10
33.79999999999999
 20
138.8205
 30
0.0
 11
33.79999999999999
 21
139.3205
 31
0.0
  0
LINE
  5
C4E0
330
C392
100
AcDbEntity
  8
1
  6
Continuous
100
AcDbLine
 10
33.79999999999999
 20
153.1794999999999
 30
0.0
 11
33.79999999999999
 21
152.6794999999999
 31
0.0
  0
LINE
  5
C4E1
330
C392
100
AcDbEntity
  8
1
  6
Continuous
100
AcDbLine
 10
33.0
 20
150.64104
 30
0.0
 11
33.0
 21
141.3589599999999
 31
0.0
  0
ARC
  5
C4E2
330
C392
100
AcDbEntity
  8
1
  6
Continuous
100
AcDbCircle
 10
332.9434349999999
 20
153.0124999999999
 30
0.0
 40
1.587499999999999
100
AcDbArc
 50
6.038508
 51
24.57297999999999
  0
ARC
  5
C4E3
330
C392
100
AcDbEntity
  8
1
  6
Continuous
100
AcDbCircle
 10
332.9434349999999
 20
153.0124999999999
 30
0.0
 40
1.587499999999999
100
AcDbArc
 50
327.090948
 51
347.8914909999998
  0
ARC
  5
C4E4
330
C392
100
AcDbEntity
  8
1
  6
Continuous
100
AcDbCircle
 10
332.9434349999999
 20
153.0124999999999
 30
0.0
 40
1.587499999999999
100
AcDbArc
 50
192.1085089999999
 51
212.9090519999999
  0
ARC
  5
C4E5
330
C392
100
AcDbEntity
  8
1
  6
Continuous
100
AcDbCircle
 10
332.9434349999999
 20
153.0124999999999
 30
0.0
 40
1.587499999999999
100
AcDbArc
 50
155.4270199999999
 51
173.9614919999999
  0
ARC
  5
C4E6
330
C392
100
AcDbEntity
  8
1
  6
Continuous
100
AcDbCircle
 10
342.9434349999997
 20
153.0124999999999
 30
0.0
 40
1.587499999999999
100
AcDbArc
 50
155.4270199999999
 51
173.9614919999999
  0
ARC
  5
C4E7
330
C392
100
AcDbEntity
  8
1
  6
Continuous
100
AcDbCircle
 10
342.9434349999997
 20
153.0124999999999
 30
0.0
 40
1.587499999999999
100
AcDbArc
 50
192.1085089999999
 51
212.9090519999999
  0
ARC
  5
C4E8
330
C392
100
AcDbEntity
  8
1
  6
Continuous
100
AcDbCircle
 10
342.9434349999997
 20
153.0124999999999
 30
0.0
 40
1.587499999999999
100
AcDbArc
 50
327.090948
 51
347.8914909999998
  0
ARC
  5
C4E9
330
C392
100
AcDbEntity
  8
1
  6
Continuous
100
AcDbCircle
 10
342.9434349999997
 20
153.0124999999999
 30
0.0
 40
1.587499999999999
100
AcDbArc
 50
6.038508
 51
24.57297999999999
  0
ARC
  5
C4EA
330
C392
100
AcDbEntity
  8
1
  6
Continuous
100
AcDbCircle
 10
352.9434349999998
 20
153.0124999999999
 30
0.0
 40
1.587499999999999
100
AcDbArc
 50
6.038508
 51
24.57297999999999
  0
ARC
  5
C4EB
330
C392
100
AcDbEntity
  8
1
  6
Continuous
100
AcDbCircle
 10
352.9434349999998
 20
153.0124999999999
 30
0.0
 40
1.587499999999999
100
AcDbArc
 50
327.090948
 51
347.8914909999998
  0
ARC
  5
C4EC
330
C392
100
AcDbEntity
  8
1
  6
Continuous
100
AcDbCircle
 10
352.9434349999998
 20
153.0124999999999
 30
0.0
 40
1.587499999999999
100
AcDbArc
 50
192.1085089999999
 51
212.9090519999999
  0
ARC
  5
C4ED
330
C392
100
AcDbEntity
  8
1
  6
Continuous
100
AcDbCircle
 10
352.9434349999998
 20
153.0124999999999
 30
0.0
 40
1.587499999999999
100
AcDbArc
 50
155.4270199999999
 51
173.9614919999999
  0
ARC
  5
C4EE
330
C392
100
AcDbEntity
  8
1
  6
Continuous
100
AcDbCircle
 10
362.9434349999999
 20
153.0124999999999
 30
0.0
 40
1.587499999999999
100
AcDbArc
 50
155.4270199999999
 51
173.9614919999999
  0
ARC
  5
C4EF
330
C392
100
AcDbEntity
  8
1
  6
Continuous
100
AcDbCircle
 10
362.9434349999999
 20
153.0124999999999
 30
0.0
 40
1.587499999999999
100
AcDbArc
 50
192.1085089999999
 51
212.9090519999999
  0
ARC
  5
C4F0
330
C392
100
AcDbEntity
  8
1
  6
Continuous
100
AcDbCircle
 10
362.9434349999999
 20
153.0124999999999
 30
0.0
 40
1.587499999999999
100
AcDbArc
 50
327.090948
 51
347.8914909999998
  0
ARC
  5
C4F1
330
C392
100
AcDbEntity
  8
1
  6
Continuous
100
AcDbCircle
 10
362.9434349999999
 20
153.0124999999999
 30
0.0
 40
1.587499999999999
100
AcDbArc
 50
6.038508
 51
24.57297999999999
  0
ARC
  5
C4F2
330
C392
100
AcDbEntity
  8
1
  6
Continuous
100
AcDbCircle
 10
372.9434349999999
 20
153.0124999999999
 30
0.0
 40
1.587499999999999
100
AcDbArc
 50
192.1085089999999
 51
212.9090519999999
  0
ARC
  5
C4F3
330
C392
100
AcDbEntity
  8
1
  6
Continuous
100
AcDbCircle
 10
372.9434349999999
 20
153.0124999999999
 30
0.0
 40
1.587499999999999
100
AcDbArc
 50
155.4270199999999
 51
173.9614919999999
  0
ARC
  5
C4F4
330
C392
100
AcDbEntity
  8
1
  6
Continuous
100
AcDbCircle
 10
372.9434349999999
 20
153.0124999999999
 30
0.0
 40
1.587499999999999
100
AcDbArc
 50
6.038508
 51
24.57297999999999
  0
ARC
  5
C4F5
330
C392
100
AcDbEntity
  8
1
  6
Continuous
100
AcDbCircle
 10
372.9434349999999
 20
153.0124999999999
 30
0.0
 40
1.587499999999999
100
AcDbArc
 50
327.090948
 51
347.8914909999998
  0
ARC
  5
C4F6
330
C392
100
AcDbEntity
  8
1
  6
Continuous
100
AcDbCircle
 10
382.9434349999999
 20
153.0124999999999
 30
0.0
 40
1.587499999999999
100
AcDbArc
 50
327.090948
 51
347.8914909999998
  0
ARC
  5
C4F7
330
C392
100
AcDbEntity
  8
1
  6
Continuous
100
AcDbCircle
 10
382.9434349999999
 20
153.0124999999999
 30
0.0
 40
1.587499999999999
100
AcDbArc
 50
6.038508
 51
24.57297999999999
  0
ARC
  5
C4F8
330
C392
100
AcDbEntity
  8
1
  6
Continuous
100
AcDbCircle
 10
382.9434349999999
 20
153.0124999999999
 30
0.0
 40
1.587499999999999
100
AcDbArc
 50
155.4270199999999
 51
173.9614919999999
  0
ARC
  5
C4F9
330
C392
100
AcDbEntity
  8
1
  6
Continuous
100
AcDbCircle
 10
382.9434349999999
 20
153.0124999999999
 30
0.0
 40
1.587499999999999
100
AcDbArc
 50
192.1085089999999
 51
212.9090519999999
  0
ARC
  5
C4FA
330
C392
100
AcDbEntity
  8
1
  6
Continuous
100
AcDbCircle
 10
392.9434349999998
 20
153.0124999999999
 30
0.0
 40
1.587499999999999
100
AcDbArc
 50
192.1085089999999
 51
212.9090519999999
  0
ARC
  5
C4FB
330
C392
100
AcDbEntity
  8
1
  6
Continuous
100
AcDbCircle
 10
392.9434349999998
 20
153.0124999999999
 30
0.0
 40
1.587499999999999
100
AcDbArc
 50
155.4270199999999
 51
173.9614919999999
  0
ARC
  5
C4FC
330
C392
100
AcDbEntity
  8
1
  6
Continuous
100
AcDbCircle
 10
392.9434349999998
 20
153.0124999999999
 30
0.0
 40
1.587499999999999
100
AcDbArc
 50
6.038508
 51
24.57297999999999
  0
ARC
  5
C4FD
330
C392
100
AcDbEntity
  8
1
  6
Continuous
100
AcDbCircle
 10
392.9434349999998
 20
153.0124999999999
 30
0.0
 40
1.587499999999999
100
AcDbArc
 50
327.090948
 51
347.8914909999998
  0
ARC
  5
C4FE
330
C392
100
AcDbEntity
  8
1
  6
Continuous
100
AcDbCircle
 10
322.9434349999999
 20
138.9875
 30
0.0
 40
1.587499999999999
100
AcDbArc
 50
12.108509
 51
32.909052
  0
ARC
  5
C4FF
330
C392
100
AcDbEntity
  8
1
  6
Continuous
100
AcDbCircle
 10
322.9434349999999
 20
138.9875
 30
0.0
 40
1.587499999999999
100
AcDbArc
 50
335.4270200000001
 51
353.9614919999999
  0
ARC
  5
C500
330
C392
100
AcDbEntity
  8
1
  6
Continuous
100
AcDbCircle
 10
322.9434349999999
 20
138.9875
 30
0.0
 40
1.587499999999999
100
AcDbArc
 50
186.038508
 51
204.57298
  0
ARC
  5
C501
330
C392
100
AcDbEntity
  8
1
  6
Continuous
100
AcDbCircle
 10
322.9434349999999
 20
138.9875
 30
0.0
 40
1.587499999999999
100
AcDbArc
 50
147.0909479999999
 51
167.891491
  0
ARC
  5
C502
330
C392
100
AcDbEntity
  8
1
  6
Continuous
100
AcDbCircle
 10
332.9434349999999
 20
138.9875
 30
0.0
 40
1.587499999999999
100
AcDbArc
 50
186.038508
 51
204.57298
  0
ARC
  5
C503
330
C392
100
AcDbEntity
  8
1
  6
Continuous
100
AcDbCircle
 10
332.9434349999999
 20
138.9875
 30
0.0
 40
1.587499999999999
100
AcDbArc
 50
147.0909479999999
 51
167.891491
  0
ARC
  5
C504
330
C392
100
AcDbEntity
  8
1
  6
Continuous
100
AcDbCircle
 10
332.9434349999999
 20
138.9875
 30
0.0
 40
1.587499999999999
100
AcDbArc
 50
12.108509
 51
32.909052
  0
ARC
  5
C505
330
C392
100
AcDbEntity
  8
1
  6
Continuous
100
AcDbCircle
 10
332.9434349999999
 20
138.9875
 30
0.0
 40
1.587499999999999
100
AcDbArc
 50
335.4270200000001
 51
353.9614919999999
  0
ARC
  5
C506
330
C392
100
AcDbEntity
  8
1
  6
Continuous
100
AcDbCircle
 10
342.9434349999997
 20
138.9875
 30
0.0
 40
1.587499999999999
100
AcDbArc
 50
335.4270200000001
 51
353.9614919999999
  0
ARC
  5
C507
330
C392
100
AcDbEntity
  8
1
  6
Continuous
100
AcDbCircle
 10
342.9434349999997
 20
138.9875
 30
0.0
 40
1.587499999999999
100
AcDbArc
 50
12.108509
 51
32.909052
  0
ARC
  5
C508
330
C392
100
AcDbEntity
  8
1
  6
Continuous
100
AcDbCircle
 10
342.9434349999997
 20
138.9875
 30
0.0
 40
1.587499999999999
100
AcDbArc
 50
147.0909479999999
 51
167.891491
  0
ARC
  5
C509
330
C392
100
AcDbEntity
  8
1
  6
Continuous
100
AcDbCircle
 10
342.9434349999997
 20
138.9875
 30
0.0
 40
1.587499999999999
100
AcDbArc
 50
186.038508
 51
204.57298
  0
ARC
  5
C50A
330
C392
100
AcDbEntity
  8
1
  6
Continuous
100
AcDbCircle
 10
352.9434349999998
 20
138.9875
 30
0.0
 40
1.587499999999999
100
AcDbArc
 50
186.038508
 51
204.57298
  0
ARC
  5
C50B
330
C392
100
AcDbEntity
  8
1
  6
Continuous
100
AcDbCircle
 10
352.9434349999998
 20
138.9875
 30
0.0
 40
1.587499999999999
100
AcDbArc
 50
147.0909479999999
 51
167.891491
  0
ARC
  5
C50C
330
C392
100
AcDbEntity
  8
1
  6
Continuous
100
AcDbCircle
 10
352.9434349999998
 20
138.9875
 30
0.0
 40
1.587499999999999
100
AcDbArc
 50
12.108509
 51
32.909052
  0
ARC
  5
C50D
330
C392
100
AcDbEntity
  8
1
  6
Continuous
100
AcDbCircle
 10
352.9434349999998
 20
138.9875
 30
0.0
 40
1.587499999999999
100
AcDbArc
 50
335.4270200000001
 51
353.9614919999999
  0
ARC
  5
C50E
330
C392
100
AcDbEntity
  8
1
  6
Continuous
100
AcDbCircle
 10
362.9434349999999
 20
138.9875
 30
0.0
 40
1.587499999999999
100
AcDbArc
 50
147.0909479999999
 51
167.891491
  0
ARC
  5
C50F
330
C392
100
AcDbEntity
  8
1
  6
Continuous
100
AcDbCircle
 10
362.9434349999999
 20
138.9875
 30
0.0
 40
1.587499999999999
100
AcDbArc
 50
186.038508
 51
204.57298
  0
ARC
  5
C510
330
C392
100
AcDbEntity
  8
1
  6
Continuous
100
AcDbCircle
 10
362.9434349999999
 20
138.9875
 30
0.0
 40
1.587499999999999
100
AcDbArc
 50
335.4270200000001
 51
353.9614919999999
  0
ARC
  5
C511
330
C392
100
AcDbEntity
  8
1
  6
Continuous
100
AcDbCircle
 10
362.9434349999999
 20
138.9875
 30
0.0
 40
1.587499999999999
100
AcDbArc
 50
12.108509
 51
32.909052
  0
ARC
  5
C512
330
C392
100
AcDbEntity
  8
1
  6
Continuous
100
AcDbCircle
 10
372.9434349999999
 20
138.9875
 30
0.0
 40
1.587499999999999
100
AcDbArc
 50
12.108509
 51
32.909052
  0
ARC
  5
C513
330
C392
100
AcDbEntity
  8
1
  6
Continuous
100
AcDbCircle
 10
372.9434349999999
 20
138.9875
 30
0.0
 40
1.587499999999999
100
AcDbArc
 50
335.4270200000001
 51
353.9614919999999
  0
ARC
  5
C514
330
C392
100
AcDbEntity
  8
1
  6
Continuous
100
AcDbCircle
 10
372.9434349999999
 20
138.9875
 30
0.0
 40
1.587499999999999
100
AcDbArc
 50
186.038508
 51
204.57298
  0
ARC
  5
C515
330
C392
100
AcDbEntity
  8
1
  6
Continuous
100
AcDbCircle
 10
372.9434349999999
 20
138.9875
 30
0.0
 40
1.587499999999999
100
AcDbArc
 50
147.0909479999999
 51
167.891491
  0
ARC
  5
C516
330
C392
100
AcDbEntity
  8
1
  6
Continuous
100
AcDbCircle
 10
382.9434349999999
 20
138.9875
 30
0.0
 40
1.587499999999999
100
AcDbArc
 50
147.0909479999999
 51
167.891491
  0
ARC
  5
C517
330
C392
100
AcDbEntity
  8
1
  6
Continuous
100
AcDbCircle
 10
382.9434349999999
 20
138.9875
 30
0.0
 40
1.587499999999999
100
AcDbArc
 50
186.038508
 51
204.57298
  0
ARC
  5
C518
330
C392
100
AcDbEntity
  8
1
  6
Continuous
100
AcDbCircle
 10
382.9434349999999
 20
138.9875
 30
0.0
 40
1.587499999999999
100
AcDbArc
 50
335.4270200000001
 51
353.9614919999999
  0
ARC
  5
C519
330
C392
100
AcDbEntity
  8
1
  6
Continuous
100
AcDbCircle
 10
382.9434349999999
 20
138.9875
 30
0.0
 40
1.587499999999999
100
AcDbArc
 50
12.108509
 51
32.909052
  0
ARC
  5
C51A
330
C392
100
AcDbEntity
  8
1
  6
Continuous
100
AcDbCircle
 10
392.9434349999998
 20
138.9875
 30
0.0
 40
1.587499999999999
100
AcDbArc
 50
12.108509
 51
32.909052
  0
ARC
  5
C51B
330
C392
100
AcDbEntity
  8
1
  6
Continuous
100
AcDbCircle
 10
392.9434349999998
 20
138.9875
 30
0.0
 40
1.587499999999999
100
AcDbArc
 50
335.4270200000001
 51
353.9614919999999
  0
ARC
  5
C51C
330
C392
100
AcDbEntity
  8
1
  6
Continuous
100
AcDbCircle
 10
392.9434349999998
 20
138.9875
 30
0.0
 40
1.587499999999999
100
AcDbArc
 50
186.038508
 51
204.57298
  0
ARC
  5
C51D
330
C392
100
AcDbEntity
  8
1
  6
Continuous
100
AcDbCircle
 10
392.9434349999998
 20
138.9875
 30
0.0
 40
1.587499999999999
100
AcDbArc
 50
147.0909479999999
 51
167.891491
  0
ARC
  5
C51E
330
C392
100
AcDbEntity
  8
1
  6
Continuous
100
AcDbCircle
 10
571.9868690000001
 20
153.0124999999999
 30
0.0
 40
2.987499999999998
100
AcDbArc
 50
47.116587
 51
149.6497479999999
  0
ARC
  5
C51F
330
C392
100
AcDbEntity
  8
1
  6
Continuous
100
AcDbCircle
 10
569.9958289999996
 20
150.64104
 30
0.0
 40
1.50896
100
AcDbArc
 50
49.983708
 51
180.0
  0
LINE
  5
C520
330
C392
100
AcDbEntity
  8
1
  6
Continuous
100
AcDbLine
 10
570.5431449999998
 20
153.672665
 30
0.0
 11
569.4087980000001
 21
154.5220379999999
 31
0.0
  0
LINE
  5
C521
330
C392
100
AcDbEntity
  8
1
  6
Continuous
100
AcDbLine
 10
570.5431449999998
 20
138.327335
 30
0.0
 11
569.4087980000001
 21
137.4779619999999
 31
0.0
  0
ARC
  5
C522
330
C392
100
AcDbEntity
  8
1
  6
Continuous
100
AcDbCircle
 10
569.9958289999996
 20
141.3589599999999
 30
0.0
 40
1.50896
100
AcDbArc
 50
180.0
 51
310.0162919999998
  0
LINE
  5
C523
330
C392
100
AcDbEntity
  8
1
  6
Continuous
100
AcDbLine
 10
574.086869
 20
152.0
 30
0.0
 11
569.286869
 21
152.6794999999999
 31
0.0
  0
LINE
  5
C524
330
C392
100
AcDbEntity
  8
1
  6
Continuous
100
AcDbLine
 10
574.1569519999997
 20
152.490079
 30
0.0
 11
569.286869
 21
153.1794999999999
 31
0.0
  0
LINE
  5
C525
330
C392
100
AcDbEntity
  8
1
  6
Continuous
100
AcDbLine
 10
574.1569519999997
 20
139.5099209999999
 30
0.0
 11
569.286869
 21
138.8205
 31
0.0
  0
LINE
  5
C526
330
C392
100
AcDbEntity
  8
1
  6
Continuous
100
AcDbLine
 10
574.086869
 20
140.0
 30
0.0
 11
569.286869
 21
139.3205
 31
0.0
  0
ARC
  5
C527
330
C392
100
AcDbEntity
  8
1
  6
Continuous
100
AcDbCircle
 10
570.4868689999996
 20
150.3
 30
0.0
 40
1.0
100
AcDbArc
 50
90.0
 51
180.0
  0
ARC
  5
C528
330
C392
100
AcDbEntity
  8
1
  6
Continuous
100
AcDbCircle
 10
570.4868689999996
 20
141.6999999999999
 30
0.0
 40
1.0
100
AcDbArc
 50
180.0
 51
270.0
  0
ARC
  5
C529
330
C392
100
AcDbEntity
  8
1
  6
Continuous
100
AcDbCircle
 10
571.9868690000001
 20
138.9875
 30
0.0
 40
2.987499999999998
100
AcDbArc
 50
210.350252
 51
312.8834129999999
  0
LINE
  5
C52A
330
C392
100
AcDbEntity
  8
1
  6
Continuous
100
AcDbLine
 10
568.486869
 20
150.64104
 30
0.0
 11
568.486869
 21
141.3589599999999
 31
0.0
  0
LINE
  5
C52B
330
C392
100
AcDbEntity
  8
1
  6
Continuous
100
AcDbLine
 10
569.4868689999997
 20
150.3
 30
0.0
 11
569.4868689999997
 21
141.6999999999999
 31
0.0
  0
LINE
  5
C52C
330
C392
100
AcDbEntity
  8
1
  6
Continuous
100
AcDbLine
 10
562.186869
 20
150.098959
 30
0.0
 11
562.186869
 21
141.901041
 31
0.0
  0
LINE
  5
C52D
330
C392
100
AcDbEntity
  8
1
  6
Continuous
100
AcDbLine
 10
563.5868690000002
 20
150.098959
 30
0.0
 11
563.5868690000002
 21
141.901041
 31
0.0
  0
LINE
  5
C52E
330
C392
100
AcDbEntity
  8
1
  6
Continuous
100
AcDbLine
 10
560.4868689999998
 20
152.081989
 30
0.0
 11
560.4868689999998
 21
139.918011
 31
0.0
  0
LINE
  5
C52F
330
C392
100
AcDbEntity
  8
1
  6
Continuous
100
AcDbLine
 10
561.886869
 20
150.5588239999999
 30
0.0
 11
561.886869
 21
141.441176
 31
0.0
  0
LINE
  5
C530
330
C392
100
AcDbEntity
  8
1
  6
Continuous
100
AcDbLine
 10
567.286869
 20
150.64104
 30
0.0
 11
567.286869
 21
141.3589599999999
 31
0.0
  0
LINE
  5
C531
330
C392
100
AcDbEntity
  8
1
  6
Continuous
100
AcDbLine
 10
564.8868690000001
 20
149.3144609999999
 30
0.0
 11
564.8868690000001
 21
142.6855389999998
 31
0.0
  0
LINE
  5
C532
330
C392
100
AcDbEntity
  8
1
  6
Continuous
100
AcDbLine
 10
564.3868690000001
 20
149.3144609999999
 30
0.0
 11
564.3868690000001
 21
142.6855389999998
 31
0.0
  0
LINE
  5
C533
330
C392
100
AcDbEntity
  8
1
  6
Continuous
100
AcDbLine
 10
569.286869
 20
138.8205
 30
0.0
 11
569.286869
 21
139.3205
 31
0.0
  0
LINE
  5
C534
330
C392
100
AcDbEntity
  8
1
  6
Continuous
100
AcDbLine
 10
567.686869
 20
138.8205
 30
0.0
 11
567.686869
 21
139.3205
 31
0.0
  0
ARC
  5
C535
330
C392
100
AcDbEntity
  8
1
  6
Continuous
100
AcDbCircle
 10
564.9868689999997
 20
138.9875
 30
0.0
 40
1.587499999999999
100
AcDbArc
 50
18.435313
 51
145.449896
  0
ARC
  5
C536
330
C392
100
AcDbEntity
  8
1
  6
Continuous
100
AcDbCircle
 10
564.9868689999997
 20
138.9875
 30
0.0
 40
1.587499999999999
100
AcDbArc
 50
164.228362
 51
359.656848
  0
ARC
  5
C537
330
C392
100
AcDbEntity
  8
1
  6
Continuous
100
AcDbCircle
 10
564.3868690000001
 20
142.6855389999998
 30
0.0
 40
0.5
100
AcDbArc
 50
300.5406049999998
 51
0.0
  0
ARC
  5
C538
330
C392
100
AcDbEntity
  8
1
  6
Continuous
100
AcDbCircle
 10
566.9779089999997
 20
141.3589599999999
 30
0.0
 40
0.30896
100
AcDbArc
 50
229.983708
 51
0.0
  0
ARC
  5
C539
330
C392
100
AcDbEntity
  8
1
  6
Continuous
100
AcDbCircle
 10
561.686869
 20
141.901041
 30
0.0
 40
1.9
100
AcDbArc
 50
297.8972709999998
 51
0.0
  0
LINE
  5
C53A
330
C392
100
AcDbEntity
  8
1
  6
Continuous
100
AcDbLine
 10
562.4011649999999
 20
140.1293599999999
 30
0.0
 11
562.5758559999998
 21
140.221844
 31
0.0
  0
LINE
  5
C53B
330
C392
100
AcDbEntity
  8
1
  6
Continuous
100
AcDbLine
 10
562.3868690000001
 20
140.004985
 30
0.0
 11
562.3868690000001
 21
140.121491
 31
0.0
  0
LINE
  5
C53C
330
C392
100
AcDbEntity
  8
1
  6
Continuous
100
AcDbLine
 10
562.886869
 20
140.0
 30
0.0
 11
562.886869
 21
140.427949
 31
0.0
  0
LINE
  5
C53D
330
C392
100
AcDbEntity
  8
1
  6
Continuous
100
AcDbLine
 10
563.5660790000001
 20
141.6207339999999
 30
0.0
 11
564.640944
 21
142.2549039999998
 31
0.0
  0
ARC
  5
C53E
330
C392
100
AcDbEntity
  8
1
  6
Continuous
100
AcDbCircle
 10
564.9868689999997
 20
138.9875
 30
0.0
 40
2.7875
100
AcDbArc
 50
49.983708
 51
122.12208
  0
LINE
  5
C53F
330
C392
100
AcDbEntity
  8
1
  6
Continuous
100
AcDbLine
 10
563.186944
 20
140.7349469999997
 30
0.0
 11
563.847856
 21
140.0933049999999
 31
0.0
  0
LINE
  5
C540
330
C392
100
AcDbEntity
  8
1
  6
Continuous
100
AcDbLine
 10
563.5868690000002
 20
142.213539
 30
0.0
 11
564.3868690000001
 21
142.6855389999998
 31
0.0
  0
ARC
  5
C541
330
C392
100
AcDbEntity
  8
1
  6
Continuous
100
AcDbCircle
 10
562.3868690000001
 20
139.918011
 30
0.0
 40
1.9
100
AcDbArc
 50
157.4085689999997
 51
227.116587
  0
ARC
  5
C542
330
C392
100
AcDbEntity
  8
1
  6
Continuous
100
AcDbCircle
 10
561.094294
 20
140.4558309999998
 30
0.0
 40
0.5
100
AcDbArc
 50
117.8972709999999
 51
157.4085689999997
  0
LINE
  5
C543
330
C392
100
AcDbEntity
  8
1
  6
Continuous
100
AcDbLine
 10
560.4868689999998
 20
140.6999999999999
 30
0.0
 11
561.9208129999998
 21
141.4591469999997
 31
0.0
  0
ARC
  5
C544
330
C392
100
AcDbEntity
  8
1
  6
Continuous
100
AcDbCircle
 10
561.686869
 20
141.901041
 30
0.0
 40
0.5
100
AcDbArc
 50
297.8972709999998
 51
0.0
  0
ARC
  5
C545
330
C392
100
AcDbEntity
  8
1
  6
Continuous
100
AcDbCircle
 10
562.886869
 20
140.004985
 30
0.0
 40
0.5
100
AcDbArc
 50
180.0
 51
261.9426049999999
  0
LINE
  5
C546
330
C392
100
AcDbEntity
  8
1
  6
Continuous
100
AcDbLine
 10
561.0939019999998
 20
138.525805
 30
0.0
 11
562.9538489999998
 21
136.7984389999998
 31
0.0
  0
LINE
  5
C547
330
C392
100
AcDbEntity
  8
1
  6
Continuous
100
AcDbLine
 10
562.294855
 20
139.3210959999999
 30
0.0
 11
563.906561
 21
137.824275
 31
0.0
  0
ARC
  5
C548
330
C392
100
AcDbEntity
  8
1
  6
Continuous
100
AcDbCircle
 10
562.6351089999998
 20
139.6874659999997
 30
0.0
 40
0.5
100
AcDbArc
 50
117.8972709999999
 51
227.116587
  0
LINE
  5
C549
330
C392
100
AcDbEntity
  8
1
  6
Continuous
100
AcDbLine
 10
562.8167869999998
 20
139.5099209999999
 30
0.0
 11
567.686869
 21
138.8205
 31
0.0
  0
LINE
  5
C54A
330
C392
100
AcDbEntity
  8
1
  6
Continuous
100
AcDbLine
 10
562.886869
 20
140.0
 30
0.0
 11
567.686869
 21
139.3205
 31
0.0
  0
LINE
  5
C54B
330
C392
100
AcDbEntity
  8
1
  6
Continuous
100
AcDbLine
 10
566.4305929999998
 20
138.327335
 30
0.0
 11
567.5649400000001
 21
137.4779619999999
 31
0.0
  0
ARC
  5
C54C
330
C392
100
AcDbEntity
  8
1
  6
Continuous
100
AcDbCircle
 10
566.9779089999997
 20
141.3589599999999
 30
0.0
 40
1.50896
100
AcDbArc
 50
229.983708
 51
0.0
  0
ARC
  5
C54D
330
C392
100
AcDbEntity
  8
1
  6
Continuous
100
AcDbCircle
 10
564.9868689999997
 20
138.9875
 30
0.0
 40
2.987499999999998
100
AcDbArc
 50
227.116587
 51
329.6497479999998
  0
LINE
  5
C54E
330
C392
100
AcDbEntity
  8
1
  6
Continuous
100
AcDbLine
 10
569.286869
 20
153.1794999999999
 30
0.0
 11
569.286869
 21
152.6794999999999
 31
0.0
  0
LINE
  5
C54F
330
C392
100
AcDbEntity
  8
1
  6
Continuous
100
AcDbLine
 10
567.686869
 20
153.1794999999999
 30
0.0
 11
567.686869
 21
152.6794999999999
 31
0.0
  0
ARC
  5
C550
330
C392
100
AcDbEntity
  8
1
  6
Continuous
100
AcDbCircle
 10
562.6351089999998
 20
152.3125339999999
 30
0.0
 40
0.5
100
AcDbArc
 50
132.8834129999999
 51
242.102729
  0
LINE
  5
C551
330
C392
100
AcDbEntity
  8
1
  6
Continuous
100
AcDbLine
 10
562.4011649999999
 20
151.8706399999999
 30
0.0
 11
562.5758559999998
 21
151.7781559999999
 31
0.0
  0
ARC
  5
C552
330
C392
100
AcDbEntity
  8
1
  6
Continuous
100
AcDbCircle
 10
561.686869
 20
150.098959
 30
0.0
 40
1.9
100
AcDbArc
 50
0.0
 51
62.10272899999999
  0
ARC
  5
C553
330
C392
100
AcDbEntity
  8
1
  6
Continuous
100
AcDbCircle
 10
561.686869
 20
150.098959
 30
0.0
 40
0.5
100
AcDbArc
 50
0.0
 51
62.10272899999999
  0
ARC
  5
C554
330
C392
100
AcDbEntity
  8
1
  6
Continuous
100
AcDbCircle
 10
561.094294
 20
151.5441689999998
 30
0.0
 40
0.5
100
AcDbArc
 50
202.591431
 51
242.102729
  0
LINE
  5
C555
330
C392
100
AcDbEntity
  8
1
  6
Continuous
100
AcDbLine
 10
560.4868689999998
 20
151.3
 30
0.0
 11
561.9208129999998
 21
150.5408529999999
 31
0.0
  0
ARC
  5
C556
330
C392
100
AcDbEntity
  8
1
  6
Continuous
100
AcDbCircle
 10
564.9868689999997
 20
153.0124999999999
 30
0.0
 40
1.587499999999999
100
AcDbArc
 50
0.343152
 51
195.7716379999999
  0
LINE
  5
C557
330
C392
100
AcDbEntity
  8
1
  6
Continuous
100
AcDbLine
 10
562.294855
 20
152.6789039999998
 30
0.0
 11
563.906561
 21
154.175725
 31
0.0
  0
LINE
  5
C558
330
C392
100
AcDbEntity
  8
1
  6
Continuous
100
AcDbLine
 10
561.0939019999998
 20
153.474195
 30
0.0
 11
562.9538489999998
 21
155.2015609999999
 31
0.0
  0
ARC
  5
C559
330
C392
100
AcDbEntity
  8
1
  6
Continuous
100
AcDbCircle
 10
562.3868690000001
 20
152.081989
 30
0.0
 40
1.9
100
AcDbArc
 50
132.8834129999999
 51
202.591431
  0
ARC
  5
C55A
330
C392
100
AcDbEntity
  8
1
  6
Continuous
100
AcDbCircle
 10
564.9868689999997
 20
153.0124999999999
 30
0.0
 40
2.7875
100
AcDbArc
 50
237.8779199999999
 51
310.0162919999998
  0
ARC
  5
C55B
330
C392
100
AcDbEntity
  8
1
  6
Continuous
100
AcDbCircle
 10
566.9779089999997
 20
150.64104
 30
0.0
 40
0.30896
100
AcDbArc
 50
0.0
 51
130.0162919999999
  0
LINE
  5
C55C
330
C392
100
AcDbEntity
  8
1
  6
Continuous
100
AcDbLine
 10
563.186944
 20
151.2650529999999
 30
0.0
 11
563.847856
 21
151.9066949999999
 31
0.0
  0
LINE
  5
C55D
330
C392
100
AcDbEntity
  8
1
  6
Continuous
100
AcDbLine
 10
562.3868690000001
 20
151.9950149999999
 30
0.0
 11
562.3868690000001
 21
151.878509
 31
0.0
  0
LINE
  5
C55E
330
C392
100
AcDbEntity
  8
1
  6
Continuous
100
AcDbLine
 10
562.886869
 20
152.0
 30
0.0
 11
562.886869
 21
151.5720509999999
 31
0.0
  0
LINE
  5
C55F
330
C392
100
AcDbEntity
  8
1
  6
Continuous
100
AcDbLine
 10
563.5660790000001
 20
150.379266
 30
0.0
 11
564.640944
 21
149.7450959999999
 31
0.0
  0
LINE
  5
C560
330
C392
100
AcDbEntity
  8
1
  6
Continuous
100
AcDbLine
 10
563.5868690000002
 20
149.786461
 30
0.0
 11
564.3868690000001
 21
149.3144609999999
 31
0.0
  0
ARC
  5
C561
330
C392
100
AcDbEntity
  8
1
  6
Continuous
100
AcDbCircle
 10
564.3868690000001
 20
149.3144609999999
 30
0.0
 40
0.5
100
AcDbArc
 50
0.0
 51
59.45939499999999
  0
ARC
  5
C562
330
C392
100
AcDbEntity
  8
1
  6
Continuous
100
AcDbCircle
 10
562.886869
 20
151.9950149999999
 30
0.0
 40
0.5
100
AcDbArc
 50
98.05739500000001
 51
180.0
  0
ARC
  5
C563
330
C392
100
AcDbEntity
  8
1
  6
Continuous
100
AcDbCircle
 10
564.9868689999997
 20
153.0124999999999
 30
0.0
 40
1.587499999999999
100
AcDbArc
 50
214.550104
 51
341.5646869999999
  0
ARC
  5
C564
330
C392
100
AcDbEntity
  8
1
  6
Continuous
100
AcDbCircle
 10
564.9868689999997
 20
153.0124999999999
 30
0.0
 40
2.987499999999998
100
AcDbArc
 50
30.350252
 51
132.8834129999999
  0
ARC
  5
C565
330
C392
100
AcDbEntity
  8
1
  6
Continuous
100
AcDbCircle
 10
566.9779089999997
 20
150.64104
 30
0.0
 40
1.50896
100
AcDbArc
 50
0.0
 51
130.0162919999999
  0
LINE
  5
C566
330
C392
100
AcDbEntity
  8
1
  6
Continuous
100
AcDbLine
 10
566.4305929999998
 20
153.672665
 30
0.0
 11
567.5649400000001
 21
154.5220379999999
 31
0.0
  0
LINE
  5
C567
330
C392
100
AcDbEntity
  8
1
  6
Continuous
100
AcDbLine
 10
562.886869
 20
152.0
 30
0.0
 11
567.686869
 21
152.6794999999999
 31
0.0
  0
LINE
  5
C568
330
C392
100
AcDbEntity
  8
1
  6
Continuous
100
AcDbLine
 10
562.8167869999998
 20
152.490079
 30
0.0
 11
567.686869
 21
153.1794999999999
 31
0.0
  0
LINE
  5
C569
330
C392
100
AcDbEntity
  8
1
  6
Continuous
100
AcDbLine
 10
576.4868690000001
 20
152.081989
 30
0.0
 11
576.4868690000001
 21
139.918011
 31
0.0
  0
ARC
  5
C56A
330
C392
100
AcDbEntity
  8
1
  6
Continuous
100
AcDbCircle
 10
574.586869
 20
139.918011
 30
0.0
 40
1.9
100
AcDbArc
 50
312.8834129999999
 51
0.0
  0
ARC
  5
C56B
330
C392
100
AcDbEntity
  8
1
  6
Continuous
100
AcDbCircle
 10
574.586869
 20
139.918011
 30
0.0
 40
0.5
100
AcDbArc
 50
312.8834129999999
 51
0.0
  0
LINE
  5
C56C
330
C392
100
AcDbEntity
  8
1
  6
Continuous
100
AcDbLine
 10
575.8798360000001
 20
138.525805
 30
0.0
 11
574.0198889999998
 21
136.7984389999998
 31
0.0
  0
LINE
  5
C56D
330
C392
100
AcDbEntity
  8
1
  6
Continuous
100
AcDbLine
 10
574.9271240000001
 20
139.5516409999999
 30
0.0
 11
573.0671769999998
 21
137.824275
 31
0.0
  0
ARC
  5
C56E
330
C392
100
AcDbEntity
  8
1
  6
Continuous
100
AcDbCircle
 10
571.9868690000001
 20
138.9875
 30
0.0
 40
1.587499999999999
100
AcDbArc
 50
34.55010399999999
 51
161.5646869999999
  0
ARC
  5
C56F
330
C392
100
AcDbEntity
  8
1
  6
Continuous
100
AcDbCircle
 10
574.086869
 20
140.004985
 30
0.0
 40
0.5
100
AcDbArc
 50
278.0573949999999
 51
0.0
  0
ARC
  5
C570
330
C392
100
AcDbEntity
  8
1
  6
Continuous
100
AcDbCircle
 10
571.9868690000001
 20
138.9875
 30
0.0
 40
1.587499999999999
100
AcDbArc
 50
180.343152
 51
15.771638
  0
LINE
  5
C571
330
C392
100
AcDbEntity
  8
1
  6
Continuous
100
AcDbLine
 10
574.086869
 20
140.0
 30
0.0
 11
574.086869
 21
140.6999999999999
 31
0.0
  0
LINE
  5
C572
330
C392
100
AcDbEntity
  8
1
  6
Continuous
100
AcDbLine
 10
574.586869
 20
140.004985
 30
0.0
 11
574.586869
 21
140.6999999999999
 31
0.0
  0
LINE
  5
C573
330
C392
100
AcDbEntity
  8
1
  6
Continuous
100
AcDbLine
 10
573.7507969999998
 20
140.6999999999999
 30
0.0
 11
573.125883
 21
140.0933049999999
 31
0.0
  0
LINE
  5
C574
330
C392
100
AcDbEntity
  8
1
  6
Continuous
100
AcDbLine
 10
575.0868689999999
 20
140.6999999999999
 30
0.0
 11
575.0868689999999
 21
139.918011
 31
0.0
  0
LINE
  5
C575
330
C392
100
AcDbEntity
  8
1
  6
Continuous
100
AcDbLine
 10
575.9868690000002
 20
140.6999999999999
 30
0.0
 11
570.4868689999996
 21
140.6999999999999
 31
0.0
  0
ARC
  5
C576
330
C392
100
AcDbEntity
  8
1
  6
Continuous
100
AcDbCircle
 10
575.9868690000002
 20
140.1999999999999
 30
0.0
 40
0.5
100
AcDbArc
 50
0.0
 51
90.0
  0
ARC
  5
C577
330
C392
100
AcDbEntity
  8
1
  6
Continuous
100
AcDbCircle
 10
574.338629
 20
139.6874659999997
 30
0.0
 40
0.5
100
AcDbArc
 50
312.8834129999999
 51
60.23261899999999
  0
ARC
  5
C578
330
C392
100
AcDbEntity
  8
1
  6
Continuous
100
AcDbCircle
 10
575.286869
 20
141.901041
 30
0.0
 40
1.9
100
AcDbArc
 50
219.2072009999999
 51
230.8332889999999
  0
ARC
  5
C579
330
C392
100
AcDbEntity
  8
1
  6
Continuous
100
AcDbCircle
 10
571.9868690000001
 20
153.0124999999999
 30
0.0
 40
1.587499999999999
100
AcDbArc
 50
344.2283619999998
 51
179.6568479999999
  0
LINE
  5
C57A
330
C392
100
AcDbEntity
  8
1
  6
Continuous
100
AcDbLine
 10
574.9271240000001
 20
152.448359
 30
0.0
 11
573.0671769999998
 21
154.175725
 31
0.0
  0
LINE
  5
C57B
330
C392
100
AcDbEntity
  8
1
  6
Continuous
100
AcDbLine
 10
575.8798360000001
 20
153.474195
 30
0.0
 11
574.0198889999998
 21
155.2015609999999
 31
0.0
  0
ARC
  5
C57C
330
C392
100
AcDbEntity
  8
1
  6
Continuous
100
AcDbCircle
 10
574.586869
 20
152.081989
 30
0.0
 40
0.5
100
AcDbArc
 50
0.0
 51
47.116587
  0
ARC
  5
C57D
330
C392
100
AcDbEntity
  8
1
  6
Continuous
100
AcDbCircle
 10
574.586869
 20
152.081989
 30
0.0
 40
1.9
100
AcDbArc
 50
0.0
 51
47.116587
  0
ARC
  5
C57E
330
C392
100
AcDbEntity
  8
1
  6
Continuous
100
AcDbCircle
 10
574.086869
 20
151.9950149999999
 30
0.0
 40
0.5
100
AcDbArc
 50
0.0
 51
81.942605
  0
ARC
  5
C57F
330
C392
100
AcDbEntity
  8
1
  6
Continuous
100
AcDbCircle
 10
571.9868690000001
 20
153.0124999999999
 30
0.0
 40
1.587499999999999
100
AcDbArc
 50
198.4353129999999
 51
325.449896
  0
LINE
  5
C580
330
C392
100
AcDbEntity
  8
1
  6
Continuous
100
AcDbLine
 10
573.7507969999998
 20
151.3
 30
0.0
 11
573.125883
 21
151.9066949999999
 31
0.0
  0
LINE
  5
C581
330
C392
100
AcDbEntity
  8
1
  6
Continuous
100
AcDbLine
 10
574.086869
 20
152.0
 30
0.0
 11
574.086869
 21
151.3
 31
0.0
  0
LINE
  5
C582
330
C392
100
AcDbEntity
  8
1
  6
Continuous
100
AcDbLine
 10
574.586869
 20
151.9950149999999
 30
0.0
 11
574.586869
 21
151.3
 31
0.0
  0
LINE
  5
C583
330
C392
100
AcDbEntity
  8
1
  6
Continuous
100
AcDbLine
 10
575.0868689999999
 20
152.081989
 30
0.0
 11
575.0868689999999
 21
151.3
 31
0.0
  0
LINE
  5
C584
330
C392
100
AcDbEntity
  8
1
  6
Continuous
100
AcDbLine
 10
570.4868689999996
 20
151.3
 30
0.0
 11
575.9868690000002
 21
151.3
 31
0.0
  0
ARC
  5
C585
330
C392
100
AcDbEntity
  8
1
  6
Continuous
100
AcDbCircle
 10
575.9868690000002
 20
151.8
 30
0.0
 40
0.5
100
AcDbArc
 50
270.0
 51
0.0
  0
ARC
  5
C586
330
C392
100
AcDbEntity
  8
1
  6
Continuous
100
AcDbCircle
 10
574.338629
 20
152.3125339999999
 30
0.0
 40
0.5
100
AcDbArc
 50
299.767381
 51
47.116587
  0
ARC
  5
C587
330
C392
100
AcDbEntity
  8
1
  6
Continuous
100
AcDbCircle
 10
575.286869
 20
150.098959
 30
0.0
 40
1.9
100
AcDbArc
 50
129.1667109999998
 51
140.792799
  0
LINE
  5
C588
330
C392
100
AcDbEntity
  8
4
  6
CENTER
100
AcDbLine
 10
579.4868689999997
 20
146.0
 30
0.0
 11
557.4868689999998
 21
146.0
 31
0.0
  0
LINE
  5
C589
330
C392
100
AcDbEntity
  8
1
  6
Continuous
100
AcDbLine
 10
286.443435
 20
235.0
 30
0.0
 11
286.443435
 21
242.0780709999999
 31
0.0
  0
LINE
  5
C58A
330
C392
100
AcDbEntity
  8
1
  6
Continuous
100
AcDbLine
 10
86.44343499999996
 20
242.0780709999999
 30
0.0
 11
86.44343499999996
 21
235.0
 31
0.0
  0
LINE
  5
C58B
330
C392
100
AcDbEntity
  8
1
  6
Continuous
100
AcDbLine
 10
515.4434349999998
 20
251.0
 30
0.0
 11
315.4434349999998
 21
251.0
 31
0.0
  0
LINE
  5
C58C
330
C392
100
AcDbEntity
  8
1
  6
Continuous
100
AcDbLine
 10
315.4434349999998
 20
243.921929
 30
0.0
 11
515.4434349999998
 21
243.921929
 31
0.0
  0
LINE
  5
C58D
330
C392
100
AcDbEntity
  8
1
  6
Continuous
100
AcDbLine
 10
86.44343499999996
 20
242.0780709999999
 30
0.0
 11
286.443435
 21
242.0780709999999
 31
0.0
  0
LINE
  5
C58E
330
C392
100
AcDbEntity
  8
1
  6
Continuous
100
AcDbLine
 10
86.44343499999996
 20
235.0
 30
0.0
 11
286.443435
 21
235.0
 31
0.0
  0
LINE
  5
C58F
330
C392
100
AcDbEntity
  8
1
  6
Continuous
100
AcDbLine
 10
315.4434349999998
 20
243.921929
 30
0.0
 11
315.4434349999998
 21
251.0
 31
0.0
  0
LINE
  5
C590
330
C392
100
AcDbEntity
  8
1
  6
Continuous
100
AcDbLine
 10
515.4434349999998
 20
251.0
 30
0.0
 11
515.4434349999998
 21
243.921929
 31
0.0
  0
LINE
  5
C591
330
C392
100
AcDbEntity
  8
1
  6
Continuous
100
AcDbLine
 10
400.9434349999998
 20
237.5
 30
0.0
 11
400.9434349999998
 21
243.0
 31
0.0
  0
LINE
  5
C592
330
C392
100
AcDbEntity
  8
3
  6
DASHED
100
AcDbLine
 10
203.943435
 20
237.5
 30
0.0
 11
203.943435
 21
242.0780709999999
 31
0.0
  0
LINE
  5
C593
330
C392
100
AcDbEntity
  8
1
  6
Continuous
100
AcDbLine
 10
200.9434349999999
 20
243.0
 30
0.0
 11
400.9434349999998
 21
243.0
 31
0.0
  0
LINE
  5
C594
330
C392
100
AcDbEntity
  8
3
  6
DASHED
100
AcDbLine
 10
203.943435
 20
237.5
 30
0.0
 11
286.443435
 21
237.5
 31
0.0
  0
LINE
  5
C595
330
C392
100
AcDbEntity
  8
1
  6
Continuous
100
AcDbLine
 10
397.9434349999999
 20
243.0
 30
0.0
 11
397.9434349999999
 21
243.921929
 31
0.0
  0
LINE
  5
C596
330
C392
100
AcDbEntity
  8
1
  6
Continuous
100
AcDbLine
 10
200.9434349999999
 20
243.0
 30
0.0
 11
200.9434349999999
 21
248.4999999999998
 31
0.0
  0
LINE
  5
C597
330
C392
100
AcDbEntity
  8
1
  6
Continuous
100
AcDbLine
 10
200.9434349999999
 20
248.4999999999998
 30
0.0
 11
315.4434349999998
 21
248.4999999999998
 31
0.0
  0
LINE
  5
C598
330
C392
100
AcDbEntity
  8
1
  6
Continuous
100
AcDbLine
 10
203.943435
 20
243.0
 30
0.0
 11
203.943435
 21
242.0780709999999
 31
0.0
  0
LINE
  5
C599
330
C392
100
AcDbEntity
  8
1
  6
Continuous
100
AcDbLine
 10
286.443435
 20
237.5
 30
0.0
 11
400.9434349999998
 21
237.5
 31
0.0
  0
LINE
  5
C59A
330
C392
100
AcDbEntity
  8
3
  6
DASHED
100
AcDbLine
 10
315.4434349999998
 20
248.4999999999998
 30
0.0
 11
397.9434349999999
 21
248.4999999999998
 31
0.0
  0
LINE
  5
C59B
330
C392
100
AcDbEntity
  8
3
  6
DASHED
100
AcDbLine
 10
397.9434349999999
 20
243.921929
 30
0.0
 11
397.9434349999999
 21
248.4999999999998
 31
0.0
  0
LINE
  5
C59C
330
C392
100
AcDbEntity
  8
4
  6
CENTER
100
AcDbLine
 10
106.4434349999999
 20
237.9865479999998
 30
0.0
 11
106.4434349999999
 21
232.6859799999998
 31
0.0
  0
LINE
  5
C59D
330
C392
100
AcDbEntity
  8
4
  6
CENTER
100
AcDbLine
 10
121.4434349999999
 20
237.9865479999998
 30
0.0
 11
121.4434349999999
 21
232.6859799999998
 31
0.0
  0
LINE
  5
C59E
330
C392
100
AcDbEntity
  8
4
  6
CENTER
100
AcDbLine
 10
166.443435
 20
237.9865479999998
 30
0.0
 11
166.443435
 21
232.6859799999998
 31
0.0
  0
LINE
  5
C59F
330
C392
100
AcDbEntity
  8
4
  6
CENTER
100
AcDbLine
 10
251.443435
 20
237.9865479999998
 30
0.0
 11
251.443435
 21
232.6859799999998
 31
0.0
  0
LINE
  5
C5A0
330
C392
100
AcDbEntity
  8
4
  6
CENTER
100
AcDbLine
 10
266.443435
 20
237.9865479999998
 30
0.0
 11
266.443435
 21
232.6859799999998
 31
0.0
  0
LINE
  5
C5A1
330
C392
100
AcDbEntity
  8
4
  6
CENTER
100
AcDbLine
 10
495.4434349999998
 20
254.447099
 30
0.0
 11
495.4434349999998
 21
247.584822
 31
0.0
  0
LINE
  5
C5A2
330
C392
100
AcDbEntity
  8
4
  6
CENTER
100
AcDbLine
 10
480.4434349999998
 20
254.447099
 30
0.0
 11
480.4434349999998
 21
247.584822
 31
0.0
  0
LINE
  5
C5A3
330
C392
100
AcDbEntity
  8
4
  6
CENTER
100
AcDbLine
 10
435.4434349999998
 20
254.447099
 30
0.0
 11
435.4434349999998
 21
247.584822
 31
0.0
  0
LINE
  5
C5A4
330
C392
100
AcDbEntity
  8
4
  6
CENTER
100
AcDbLine
 10
350.4434349999999
 20
253.4434399999999
 30
0.0
 11
350.4434349999999
 21
248.142872
 31
0.0
  0
LINE
  5
C5A5
330
C392
100
AcDbEntity
  8
4
  6
CENTER
100
AcDbLine
 10
335.4434349999999
 20
252.8384069999999
 30
0.0
 11
335.4434349999999
 21
247.5378389999999
 31
0.0
  0
LINE
  5
C5A6
330
C392
100
AcDbEntity
  8
4
  6
CENTER
100
AcDbLine
 10
334.1434349999998
 20
252.305858
 30
0.0
 11
334.1434349999998
 21
234.9496009999997
 31
0.0
  0
LINE
  5
C5A7
330
C392
100
AcDbEntity
  8
4
  6
CENTER
100
AcDbLine
 10
267.7434349999999
 20
250.4907519999999
 30
0.0
 11
267.7434349999999
 21
232.22078
 31
0.0
  0
LINE
  5
C5A8
330
C392
100
AcDbEntity
  8
1
  6
Continuous
100
AcDbLine
 10
318.9434349999998
 20
243.8
 30
0.0
 11
318.9434349999998
 21
243.921929
 31
0.0
  0
LINE
  5
C5A9
330
C392
100
AcDbEntity
  8
1
  6
Continuous
100
AcDbLine
 10
326.9434349999999
 20
243.8
 30
0.0
 11
318.9434349999998
 21
243.8
 31
0.0
  0
LINE
  5
C5AA
330
C392
100
AcDbEntity
  8
1
  6
Continuous
100
AcDbLine
 10
326.9434349999999
 20
243.8
 30
0.0
 11
326.9434349999999
 21
243.921929
 31
0.0
  0
LINE
  5
C5AB
330
C392
100
AcDbEntity
  8
1
  6
Continuous
100
AcDbLine
 10
336.9434349999999
 20
243.8
 30
0.0
 11
328.9434349999999
 21
243.8
 31
0.0
  0
LINE
  5
C5AC
330
C392
100
AcDbEntity
  8
1
  6
Continuous
100
AcDbLine
 10
328.9434349999999
 20
243.8
 30
0.0
 11
328.9434349999999
 21
243.921929
 31
0.0
  0
LINE
  5
C5AD
330
C392
100
AcDbEntity
  8
1
  6
Continuous
100
AcDbLine
 10
336.9434349999999
 20
243.8
 30
0.0
 11
336.9434349999999
 21
243.921929
 31
0.0
  0
LINE
  5
C5AE
330
C392
100
AcDbEntity
  8
1
  6
Continuous
100
AcDbLine
 10
346.9434349999998
 20
243.8
 30
0.0
 11
338.9434349999999
 21
243.8
 31
0.0
  0
LINE
  5
C5AF
330
C392
100
AcDbEntity
  8
1
  6
Continuous
100
AcDbLine
 10
338.9434349999999
 20
243.8
 30
0.0
 11
338.9434349999999
 21
243.921929
 31
0.0
  0
LINE
  5
C5B0
330
C392
100
AcDbEntity
  8
1
  6
Continuous
100
AcDbLine
 10
356.9434349999998
 20
243.8
 30
0.0
 11
356.9434349999998
 21
243.921929
 31
0.0
  0
LINE
  5
C5B1
330
C392
100
AcDbEntity
  8
1
  6
Continuous
100
AcDbLine
 10
348.9434349999998
 20
243.8
 30
0.0
 11
348.9434349999998
 21
243.921929
 31
0.0
  0
LINE
  5
C5B2
330
C392
100
AcDbEntity
  8
1
  6
Continuous
100
AcDbLine
 10
356.9434349999998
 20
243.8
 30
0.0
 11
348.9434349999998
 21
243.8
 31
0.0
  0
LINE
  5
C5B3
330
C392
100
AcDbEntity
  8
1
  6
Continuous
100
AcDbLine
 10
346.9434349999998
 20
243.8
 30
0.0
 11
346.9434349999998
 21
243.921929
 31
0.0
  0
LINE
  5
C5B4
330
C392
100
AcDbEntity
  8
1
  6
Continuous
100
AcDbLine
 10
386.9434349999999
 20
243.8
 30
0.0
 11
378.9434349999999
 21
243.8
 31
0.0
  0
LINE
  5
C5B5
330
C392
100
AcDbEntity
  8
1
  6
Continuous
100
AcDbLine
 10
366.9434349999999
 20
243.8
 30
0.0
 11
366.9434349999999
 21
243.921929
 31
0.0
  0
LINE
  5
C5B6
330
C392
100
AcDbEntity
  8
1
  6
Continuous
100
AcDbLine
 10
358.9434349999998
 20
243.8
 30
0.0
 11
358.9434349999998
 21
243.921929
 31
0.0
  0
LINE
  5
C5B7
330
C392
100
AcDbEntity
  8
1
  6
Continuous
100
AcDbLine
 10
366.9434349999999
 20
243.8
 30
0.0
 11
358.9434349999998
 21
243.8
 31
0.0
  0
LINE
  5
C5B8
330
C392
100
AcDbEntity
  8
1
  6
Continuous
100
AcDbLine
 10
376.9434349999999
 20
243.8
 30
0.0
 11
376.9434349999999
 21
243.921929
 31
0.0
  0
LINE
  5
C5B9
330
C392
100
AcDbEntity
  8
1
  6
Continuous
100
AcDbLine
 10
378.9434349999999
 20
243.8
 30
0.0
 11
378.9434349999999
 21
243.921929
 31
0.0
  0
LINE
  5
C5BA
330
C392
100
AcDbEntity
  8
1
  6
Continuous
100
AcDbLine
 10
368.9434349999999
 20
243.8
 30
0.0
 11
368.9434349999999
 21
243.921929
 31
0.0
  0
LINE
  5
C5BB
330
C392
100
AcDbEntity
  8
1
  6
Continuous
100
AcDbLine
 10
376.9434349999999
 20
243.8
 30
0.0
 11
368.9434349999999
 21
243.8
 31
0.0
  0
LINE
  5
C5BC
330
C392
100
AcDbEntity
  8
1
  6
Continuous
100
AcDbLine
 10
386.9434349999999
 20
243.8
 30
0.0
 11
386.9434349999999
 21
243.921929
 31
0.0
  0
LINE
  5
C5BD
330
C392
100
AcDbEntity
  8
1
  6
Continuous
100
AcDbLine
 10
396.9434349999998
 20
243.8
 30
0.0
 11
388.9434349999999
 21
243.8
 31
0.0
  0
LINE
  5
C5BE
330
C392
100
AcDbEntity
  8
1
  6
Continuous
100
AcDbLine
 10
388.9434349999999
 20
243.8
 30
0.0
 11
388.9434349999999
 21
243.921929
 31
0.0
  0
LINE
  5
C5BF
330
C392
100
AcDbEntity
  8
1
  6
Continuous
100
AcDbLine
 10
396.9434349999998
 20
243.8
 30
0.0
 11
396.9434349999998
 21
243.921929
 31
0.0
  0
LINE
  5
C5C0
330
C392
100
AcDbEntity
  8
1
  6
Continuous
100
AcDbLine
 10
244.943435
 20
242.2
 30
0.0
 11
252.9434349999999
 21
242.2
 31
0.0
  0
LINE
  5
C5C1
330
C392
100
AcDbEntity
  8
1
  6
Continuous
100
AcDbLine
 10
274.943435
 20
242.2
 30
0.0
 11
282.943435
 21
242.2
 31
0.0
  0
LINE
  5
C5C2
330
C392
100
AcDbEntity
  8
1
  6
Continuous
100
AcDbLine
 10
282.943435
 20
242.2
 30
0.0
 11
282.943435
 21
242.0780709999999
 31
0.0
  0
LINE
  5
C5C3
330
C392
100
AcDbEntity
  8
1
  6
Continuous
100
AcDbLine
 10
264.943435
 20
242.2
 30
0.0
 11
264.943435
 21
242.0780709999999
 31
0.0
  0
LINE
  5
C5C4
330
C392
100
AcDbEntity
  8
1
  6
Continuous
100
AcDbLine
 10
272.943435
 20
242.2
 30
0.0
 11
272.943435
 21
242.0780709999999
 31
0.0
  0
LINE
  5
C5C5
330
C392
100
AcDbEntity
  8
1
  6
Continuous
100
AcDbLine
 10
264.943435
 20
242.2
 30
0.0
 11
272.943435
 21
242.2
 31
0.0
  0
LINE
  5
C5C6
330
C392
100
AcDbEntity
  8
1
  6
Continuous
100
AcDbLine
 10
274.943435
 20
242.2
 30
0.0
 11
274.943435
 21
242.0780709999999
 31
0.0
  0
LINE
  5
C5C7
330
C392
100
AcDbEntity
  8
1
  6
Continuous
100
AcDbLine
 10
254.9434349999999
 20
242.2
 30
0.0
 11
254.9434349999999
 21
242.0780709999999
 31
0.0
  0
LINE
  5
C5C8
330
C392
100
AcDbEntity
  8
1
  6
Continuous
100
AcDbLine
 10
252.9434349999999
 20
242.2
 30
0.0
 11
252.9434349999999
 21
242.0780709999999
 31
0.0
  0
LINE
  5
C5C9
330
C392
100
AcDbEntity
  8
1
  6
Continuous
100
AcDbLine
 10
262.943435
 20
242.2
 30
0.0
 11
262.943435
 21
242.0780709999999
 31
0.0
  0
LINE
  5
C5CA
330
C392
100
AcDbEntity
  8
1
  6
Continuous
100
AcDbLine
 10
254.9434349999999
 20
242.2
 30
0.0
 11
262.943435
 21
242.2
 31
0.0
  0
LINE
  5
C5CB
330
C392
100
AcDbEntity
  8
1
  6
Continuous
100
AcDbLine
 10
214.9434349999999
 20
242.2
 30
0.0
 11
222.943435
 21
242.2
 31
0.0
  0
LINE
  5
C5CC
330
C392
100
AcDbEntity
  8
1
  6
Continuous
100
AcDbLine
 10
224.943435
 20
242.2
 30
0.0
 11
232.943435
 21
242.2
 31
0.0
  0
LINE
  5
C5CD
330
C392
100
AcDbEntity
  8
1
  6
Continuous
100
AcDbLine
 10
232.943435
 20
242.2
 30
0.0
 11
232.943435
 21
242.0780709999999
 31
0.0
  0
LINE
  5
C5CE
330
C392
100
AcDbEntity
  8
1
  6
Continuous
100
AcDbLine
 10
234.943435
 20
242.2
 30
0.0
 11
242.943435
 21
242.2
 31
0.0
  0
LINE
  5
C5CF
330
C392
100
AcDbEntity
  8
1
  6
Continuous
100
AcDbLine
 10
242.943435
 20
242.2
 30
0.0
 11
242.943435
 21
242.0780709999999
 31
0.0
  0
LINE
  5
C5D0
330
C392
100
AcDbEntity
  8
1
  6
Continuous
100
AcDbLine
 10
234.943435
 20
242.2
 30
0.0
 11
234.943435
 21
242.0780709999999
 31
0.0
  0
LINE
  5
C5D1
330
C392
100
AcDbEntity
  8
1
  6
Continuous
100
AcDbLine
 10
244.943435
 20
242.2
 30
0.0
 11
244.943435
 21
242.0780709999999
 31
0.0
  0
LINE
  5
C5D2
330
C392
100
AcDbEntity
  8
1
  6
Continuous
100
AcDbLine
 10
222.943435
 20
242.2
 30
0.0
 11
222.943435
 21
242.0780709999999
 31
0.0
  0
LINE
  5
C5D3
330
C392
100
AcDbEntity
  8
1
  6
Continuous
100
AcDbLine
 10
224.943435
 20
242.2
 30
0.0
 11
224.943435
 21
242.0780709999999
 31
0.0
  0
LINE
  5
C5D4
330
C392
100
AcDbEntity
  8
1
  6
Continuous
100
AcDbLine
 10
204.9434349999999
 20
242.2
 30
0.0
 11
204.9434349999999
 21
242.0780709999999
 31
0.0
  0
LINE
  5
C5D5
330
C392
100
AcDbEntity
  8
1
  6
Continuous
100
AcDbLine
 10
212.9434349999999
 20
242.2
 30
0.0
 11
212.9434349999999
 21
242.0780709999999
 31
0.0
  0
LINE
  5
C5D6
330
C392
100
AcDbEntity
  8
1
  6
Continuous
100
AcDbLine
 10
204.9434349999999
 20
242.2
 30
0.0
 11
212.9434349999999
 21
242.2
 31
0.0
  0
LINE
  5
C5D7
330
C392
100
AcDbEntity
  8
1
  6
Continuous
100
AcDbLine
 10
214.9434349999999
 20
242.2
 30
0.0
 11
214.9434349999999
 21
242.0780709999999
 31
0.0
  0
LINE
  5
C5D8
330
C392
100
AcDbEntity
  8
1
  6
Continuous
100
AcDbLine
 10
515.4434349999998
 20
41.0
 30
0.0
 11
315.4434349999998
 21
41.0
 31
0.0
  0
LINE
  5
C5D9
330
C392
100
AcDbEntity
  8
1
  6
Continuous
100
AcDbLine
 10
315.4434349999998
 20
48.078071
 30
0.0
 11
515.4434349999998
 21
48.078071
 31
0.0
  0
LINE
  5
C5DA
330
C392
100
AcDbEntity
  8
1
  6
Continuous
100
AcDbLine
 10
200.9434349999999
 20
43.5
 30
0.0
 11
315.4434349999998
 21
43.5
 31
0.0
  0
LINE
  5
C5DB
330
C392
100
AcDbEntity
  8
3
  6
DASHED
100
AcDbLine
 10
203.943435
 20
54.5
 30
0.0
 11
286.443435
 21
54.5
 31
0.0
  0
LINE
  5
C5DC
330
C392
100
AcDbEntity
  8
1
  6
Continuous
100
AcDbLine
 10
200.9434349999999
 20
49.0
 30
0.0
 11
400.9434349999998
 21
49.0
 31
0.0
  0
LINE
  5
C5DD
330
C392
100
AcDbEntity
  8
1
  6
Continuous
100
AcDbLine
 10
86.44343499999996
 20
49.921929
 30
0.0
 11
286.443435
 21
49.921929
 31
0.0
  0
LINE
  5
C5DE
330
C392
100
AcDbEntity
  8
1
  6
Continuous
100
AcDbLine
 10
86.44343499999996
 20
57.0
 30
0.0
 11
286.443435
 21
57.0
 31
0.0
  0
LINE
  5
C5DF
330
C392
100
AcDbEntity
  8
1
  6
Continuous
100
AcDbLine
 10
224.943435
 20
49.8
 30
0.0
 11
232.943435
 21
49.8
 31
0.0
  0
LINE
  5
C5E0
330
C392
100
AcDbEntity
  8
1
  6
Continuous
100
AcDbLine
 10
86.44343499999996
 20
49.921929
 30
0.0
 11
86.44343499999996
 21
57.0
 31
0.0
  0
LINE
  5
C5E1
330
C392
100
AcDbEntity
  8
4
  6
CENTER
100
AcDbLine
 10
106.4434349999999
 20
54.013452
 30
0.0
 11
106.4434349999999
 21
59.31401999999999
 31
0.0
  0
LINE
  5
C5E2
330
C392
100
AcDbEntity
  8
4
  6
CENTER
100
AcDbLine
 10
121.4434349999999
 20
54.013452
 30
0.0
 11
121.4434349999999
 21
59.31401999999999
 31
0.0
  0
LINE
  5
C5E3
330
C392
100
AcDbEntity
  8
4
  6
CENTER
100
AcDbLine
 10
166.443435
 20
54.013452
 30
0.0
 11
166.443435
 21
59.31401999999999
 31
0.0
  0
LINE
  5
C5E4
330
C392
100
AcDbEntity
  8
1
  6
Continuous
100
AcDbLine
 10
203.943435
 20
49.0
 30
0.0
 11
203.943435
 21
49.921929
 31
0.0
  0
LINE
  5
C5E5
330
C392
100
AcDbEntity
  8
1
  6
Continuous
100
AcDbLine
 10
204.9434349999999
 20
49.8
 30
0.0
 11
212.9434349999999
 21
49.8
 31
0.0
  0
LINE
  5
C5E6
330
C392
100
AcDbEntity
  8
3
  6
DASHED
100
AcDbLine
 10
203.943435
 20
54.5
 30
0.0
 11
203.943435
 21
49.921929
 31
0.0
  0
LINE
  5
C5E7
330
C392
100
AcDbEntity
  8
1
  6
Continuous
100
AcDbLine
 10
204.9434349999999
 20
49.8
 30
0.0
 11
204.9434349999999
 21
49.921929
 31
0.0
  0
LINE
  5
C5E8
330
C392
100
AcDbEntity
  8
1
  6
Continuous
100
AcDbLine
 10
214.9434349999999
 20
49.8
 30
0.0
 11
222.943435
 21
49.8
 31
0.0
  0
LINE
  5
C5E9
330
C392
100
AcDbEntity
  8
1
  6
Continuous
100
AcDbLine
 10
222.943435
 20
49.8
 30
0.0
 11
222.943435
 21
49.921929
 31
0.0
  0
LINE
  5
C5EA
330
C392
100
AcDbEntity
  8
1
  6
Continuous
100
AcDbLine
 10
224.943435
 20
49.8
 30
0.0
 11
224.943435
 21
49.921929
 31
0.0
  0
LINE
  5
C5EB
330
C392
100
AcDbEntity
  8
1
  6
Continuous
100
AcDbLine
 10
212.9434349999999
 20
49.8
 30
0.0
 11
212.9434349999999
 21
49.921929
 31
0.0
  0
LINE
  5
C5EC
330
C392
100
AcDbEntity
  8
1
  6
Continuous
100
AcDbLine
 10
214.9434349999999
 20
49.8
 30
0.0
 11
214.9434349999999
 21
49.921929
 31
0.0
  0
LINE
  5
C5ED
330
C392
100
AcDbEntity
  8
1
  6
Continuous
100
AcDbLine
 10
200.9434349999999
 20
49.0
 30
0.0
 11
200.9434349999999
 21
43.5
 31
0.0
  0
LINE
  5
C5EE
330
C392
100
AcDbEntity
  8
3
  6
DASHED
100
AcDbLine
 10
315.4434349999998
 20
43.5
 30
0.0
 11
397.9434349999999
 21
43.5
 31
0.0
  0
LINE
  5
C5EF
330
C392
100
AcDbEntity
  8
1
  6
Continuous
100
AcDbLine
 10
286.443435
 20
54.5
 30
0.0
 11
400.9434349999998
 21
54.5
 31
0.0
  0
LINE
  5
C5F0
330
C392
100
AcDbEntity
  8
1
  6
Continuous
100
AcDbLine
 10
356.9434349999998
 20
48.2
 30
0.0
 11
348.9434349999998
 21
48.2
 31
0.0
  0
LINE
  5
C5F1
330
C392
100
AcDbEntity
  8
1
  6
Continuous
100
AcDbLine
 10
254.9434349999999
 20
49.8
 30
0.0
 11
262.943435
 21
49.8
 31
0.0
  0
LINE
  5
C5F2
330
C392
100
AcDbEntity
  8
1
  6
Continuous
100
AcDbLine
 10
234.943435
 20
49.8
 30
0.0
 11
242.943435
 21
49.8
 31
0.0
  0
LINE
  5
C5F3
330
C392
100
AcDbEntity
  8
1
  6
Continuous
100
AcDbLine
 10
232.943435
 20
49.8
 30
0.0
 11
232.943435
 21
49.921929
 31
0.0
  0
LINE
  5
C5F4
330
C392
100
AcDbEntity
  8
1
  6
Continuous
100
AcDbLine
 10
234.943435
 20
49.8
 30
0.0
 11
234.943435
 21
49.921929
 31
0.0
  0
LINE
  5
C5F5
330
C392
100
AcDbEntity
  8
4
  6
CENTER
100
AcDbLine
 10
251.443435
 20
54.013452
 30
0.0
 11
251.443435
 21
59.31401999999999
 31
0.0
  0
LINE
  5
C5F6
330
C392
100
AcDbEntity
  8
1
  6
Continuous
100
AcDbLine
 10
244.943435
 20
49.8
 30
0.0
 11
252.9434349999999
 21
49.8
 31
0.0
  0
LINE
  5
C5F7
330
C392
100
AcDbEntity
  8
1
  6
Continuous
100
AcDbLine
 10
254.9434349999999
 20
49.8
 30
0.0
 11
254.9434349999999
 21
49.921929
 31
0.0
  0
LINE
  5
C5F8
330
C392
100
AcDbEntity
  8
1
  6
Continuous
100
AcDbLine
 10
252.9434349999999
 20
49.8
 30
0.0
 11
252.9434349999999
 21
49.921929
 31
0.0
  0
LINE
  5
C5F9
330
C392
100
AcDbEntity
  8
1
  6
Continuous
100
AcDbLine
 10
242.943435
 20
49.8
 30
0.0
 11
242.943435
 21
49.921929
 31
0.0
  0
LINE
  5
C5FA
330
C392
100
AcDbEntity
  8
1
  6
Continuous
100
AcDbLine
 10
244.943435
 20
49.8
 30
0.0
 11
244.943435
 21
49.921929
 31
0.0
  0
LINE
  5
C5FB
330
C392
100
AcDbEntity
  8
4
  6
CENTER
100
AcDbLine
 10
267.7434349999999
 20
41.509248
 30
0.0
 11
267.7434349999999
 21
59.77921999999999
 31
0.0
  0
LINE
  5
C5FC
330
C392
100
AcDbEntity
  8
4
  6
CENTER
100
AcDbLine
 10
266.443435
 20
54.013452
 30
0.0
 11
266.443435
 21
59.31401999999999
 31
0.0
  0
LINE
  5
C5FD
330
C392
100
AcDbEntity
  8
1
  6
Continuous
100
AcDbLine
 10
264.943435
 20
49.8
 30
0.0
 11
264.943435
 21
49.921929
 31
0.0
  0
LINE
  5
C5FE
330
C392
100
AcDbEntity
  8
1
  6
Continuous
100
AcDbLine
 10
272.943435
 20
49.8
 30
0.0
 11
272.943435
 21
49.921929
 31
0.0
  0
LINE
  5
C5FF
330
C392
100
AcDbEntity
  8
1
  6
Continuous
100
AcDbLine
 10
264.943435
 20
49.8
 30
0.0
 11
272.943435
 21
49.8
 31
0.0
  0
LINE
  5
C600
330
C392
100
AcDbEntity
  8
1
  6
Continuous
100
AcDbLine
 10
262.943435
 20
49.8
 30
0.0
 11
262.943435
 21
49.921929
 31
0.0
  0
LINE
  5
C601
330
C392
100
AcDbEntity
  8
1
  6
Continuous
100
AcDbLine
 10
286.443435
 20
57.0
 30
0.0
 11
286.443435
 21
49.921929
 31
0.0
  0
LINE
  5
C602
330
C392
100
AcDbEntity
  8
1
  6
Continuous
100
AcDbLine
 10
274.943435
 20
49.8
 30
0.0
 11
282.943435
 21
49.8
 31
0.0
  0
LINE
  5
C603
330
C392
100
AcDbEntity
  8
1
  6
Continuous
100
AcDbLine
 10
282.943435
 20
49.8
 30
0.0
 11
282.943435
 21
49.921929
 31
0.0
  0
LINE
  5
C604
330
C392
100
AcDbEntity
  8
1
  6
Continuous
100
AcDbLine
 10
274.943435
 20
49.8
 30
0.0
 11
274.943435
 21
49.921929
 31
0.0
  0
LINE
  5
C605
330
C392
100
AcDbEntity
  8
1
  6
Continuous
100
AcDbLine
 10
326.9434349999999
 20
48.2
 30
0.0
 11
318.9434349999998
 21
48.2
 31
0.0
  0
LINE
  5
C606
330
C392
100
AcDbEntity
  8
1
  6
Continuous
100
AcDbLine
 10
315.4434349999998
 20
48.078071
 30
0.0
 11
315.4434349999998
 21
41.0
 31
0.0
  0
LINE
  5
C607
330
C392
100
AcDbEntity
  8
1
  6
Continuous
100
AcDbLine
 10
318.9434349999998
 20
48.2
 30
0.0
 11
318.9434349999998
 21
48.078071
 31
0.0
  0
LINE
  5
C608
330
C392
100
AcDbEntity
  8
4
  6
CENTER
100
AcDbLine
 10
334.1434349999998
 20
39.694142
 30
0.0
 11
334.1434349999998
 21
57.050399
 31
0.0
  0
LINE
  5
C609
330
C392
100
AcDbEntity
  8
1
  6
Continuous
100
AcDbLine
 10
326.9434349999999
 20
48.2
 30
0.0
 11
326.9434349999999
 21
48.078071
 31
0.0
  0
LINE
  5
C60A
330
C392
100
AcDbEntity
  8
1
  6
Continuous
100
AcDbLine
 10
336.9434349999999
 20
48.2
 30
0.0
 11
328.9434349999999
 21
48.2
 31
0.0
  0
LINE
  5
C60B
330
C392
100
AcDbEntity
  8
1
  6
Continuous
100
AcDbLine
 10
328.9434349999999
 20
48.2
 30
0.0
 11
328.9434349999999
 21
48.078071
 31
0.0
  0
LINE
  5
C60C
330
C392
100
AcDbEntity
  8
1
  6
Continuous
100
AcDbLine
 10
336.9434349999999
 20
48.2
 30
0.0
 11
336.9434349999999
 21
48.078071
 31
0.0
  0
LINE
  5
C60D
330
C392
100
AcDbEntity
  8
4
  6
CENTER
100
AcDbLine
 10
335.4434349999999
 20
39.16159299999997
 30
0.0
 11
335.4434349999999
 21
44.462161
 31
0.0
  0
LINE
  5
C60E
330
C392
100
AcDbEntity
  8
1
  6
Continuous
100
AcDbLine
 10
346.9434349999998
 20
48.2
 30
0.0
 11
338.9434349999999
 21
48.2
 31
0.0
  0
LINE
  5
C60F
330
C392
100
AcDbEntity
  8
1
  6
Continuous
100
AcDbLine
 10
338.9434349999999
 20
48.2
 30
0.0
 11
338.9434349999999
 21
48.078071
 31
0.0
  0
LINE
  5
C610
330
C392
100
AcDbEntity
  8
1
  6
Continuous
100
AcDbLine
 10
348.9434349999998
 20
48.2
 30
0.0
 11
348.9434349999998
 21
48.078071
 31
0.0
  0
LINE
  5
C611
330
C392
100
AcDbEntity
  8
1
  6
Continuous
100
AcDbLine
 10
346.9434349999998
 20
48.2
 30
0.0
 11
346.9434349999998
 21
48.078071
 31
0.0
  0
LINE
  5
C612
330
C392
100
AcDbEntity
  8
4
  6
CENTER
100
AcDbLine
 10
350.4434349999999
 20
38.55655999999999
 30
0.0
 11
350.4434349999999
 21
43.857128
 31
0.0
  0
LINE
  5
C613
330
C392
100
AcDbEntity
  8
1
  6
Continuous
100
AcDbLine
 10
386.9434349999999
 20
48.2
 30
0.0
 11
378.9434349999999
 21
48.2
 31
0.0
  0
LINE
  5
C614
330
C392
100
AcDbEntity
  8
1
  6
Continuous
100
AcDbLine
 10
376.9434349999999
 20
48.2
 30
0.0
 11
368.9434349999999
 21
48.2
 31
0.0
  0
LINE
  5
C615
330
C392
100
AcDbEntity
  8
1
  6
Continuous
100
AcDbLine
 10
356.9434349999998
 20
48.2
 30
0.0
 11
356.9434349999998
 21
48.078071
 31
0.0
  0
LINE
  5
C616
330
C392
100
AcDbEntity
  8
1
  6
Continuous
100
AcDbLine
 10
366.9434349999999
 20
48.2
 30
0.0
 11
366.9434349999999
 21
48.078071
 31
0.0
  0
LINE
  5
C617
330
C392
100
AcDbEntity
  8
1
  6
Continuous
100
AcDbLine
 10
358.9434349999998
 20
48.2
 30
0.0
 11
358.9434349999998
 21
48.078071
 31
0.0
  0
LINE
  5
C618
330
C392
100
AcDbEntity
  8
1
  6
Continuous
100
AcDbLine
 10
366.9434349999999
 20
48.2
 30
0.0
 11
358.9434349999998
 21
48.2
 31
0.0
  0
LINE
  5
C619
330
C392
100
AcDbEntity
  8
1
  6
Continuous
100
AcDbLine
 10
368.9434349999999
 20
48.2
 30
0.0
 11
368.9434349999999
 21
48.078071
 31
0.0
  0
LINE
  5
C61A
330
C392
100
AcDbEntity
  8
1
  6
Continuous
100
AcDbLine
 10
376.9434349999999
 20
48.2
 30
0.0
 11
376.9434349999999
 21
48.078071
 31
0.0
  0
LINE
  5
C61B
330
C392
100
AcDbEntity
  8
1
  6
Continuous
100
AcDbLine
 10
378.9434349999999
 20
48.2
 30
0.0
 11
378.9434349999999
 21
48.078071
 31
0.0
  0
LINE
  5
C61C
330
C392
100
AcDbEntity
  8
1
  6
Continuous
100
AcDbLine
 10
400.9434349999998
 20
54.5
 30
0.0
 11
400.9434349999998
 21
49.0
 31
0.0
  0
LINE
  5
C61D
330
C392
100
AcDbEntity
  8
3
  6
DASHED
100
AcDbLine
 10
397.9434349999999
 20
48.078071
 30
0.0
 11
397.9434349999999
 21
43.5
 31
0.0
  0
LINE
  5
C61E
330
C392
100
AcDbEntity
  8
1
  6
Continuous
100
AcDbLine
 10
397.9434349999999
 20
49.0
 30
0.0
 11
397.9434349999999
 21
48.078071
 31
0.0
  0
LINE
  5
C61F
330
C392
100
AcDbEntity
  8
1
  6
Continuous
100
AcDbLine
 10
386.9434349999999
 20
48.2
 30
0.0
 11
386.9434349999999
 21
48.078071
 31
0.0
  0
LINE
  5
C620
330
C392
100
AcDbEntity
  8
1
  6
Continuous
100
AcDbLine
 10
396.9434349999998
 20
48.2
 30
0.0
 11
388.9434349999999
 21
48.2
 31
0.0
  0
LINE
  5
C621
330
C392
100
AcDbEntity
  8
1
  6
Continuous
100
AcDbLine
 10
388.9434349999999
 20
48.2
 30
0.0
 11
388.9434349999999
 21
48.078071
 31
0.0
  0
LINE
  5
C622
330
C392
100
AcDbEntity
  8
1
  6
Continuous
100
AcDbLine
 10
396.9434349999998
 20
48.2
 30
0.0
 11
396.9434349999998
 21
48.078071
 31
0.0
  0
LINE
  5
C623
330
C392
100
AcDbEntity
  8
4
  6
CENTER
100
AcDbLine
 10
435.4434349999998
 20
37.55290099999999
 30
0.0
 11
435.4434349999998
 21
44.41517799999998
 31
0.0
  0
LINE
  5
C624
330
C392
100
AcDbEntity
  8
4
  6
CENTER
100
AcDbLine
 10
480.4434349999998
 20
37.55290099999999
 30
0.0
 11
480.4434349999998
 21
44.41517799999998
 31
0.0
  0
LINE
  5
C625
330
C392
100
AcDbEntity
  8
4
  6
CENTER
100
AcDbLine
 10
495.4434349999998
 20
37.55290099999999
 30
0.0
 11
495.4434349999998
 21
44.41517799999998
 31
0.0
  0
LINE
  5
C626
330
C392
100
AcDbEntity
  8
1
  6
Continuous
100
AcDbLine
 10
515.4434349999998
 20
41.0
 30
0.0
 11
515.4434349999998
 21
48.078071
 31
0.0
  0
LINE
  5
C627
330
C392
100
AcDbEntity
  8
4
  6
CENTER
100
AcDbLine
 10
83.44343499999999
 20
340.0
 30
0.0
 11
518.4434349999998
 21
340.0
 31
0.0
  0
LINE
  5
C628
330
C392
100
AcDbEntity
  8
1
  6
Continuous
100
AcDbLine
 10
87.08498399999998
 20
332.327335
 30
0.0
 11
286.443435
 21
332.327335
 31
0.0
  0
LINE
  5
C629
330
C392
100
AcDbEntity
  8
1
  6
Continuous
100
AcDbLine
 10
286.443435
 20
347.6726649999998
 30
0.0
 11
87.08498399999998
 21
347.6726649999998
 31
0.0
  0
LINE
  5
C62A
330
C392
100
AcDbEntity
  8
1
  6
Continuous
100
AcDbLine
 10
286.443435
 20
350.0
 30
0.0
 11
86.44343499999996
 21
350.0
 31
0.0
  0
LINE
  5
C62B
330
C392
100
AcDbEntity
  8
1
  6
Continuous
100
AcDbLine
 10
86.44343499999996
 20
330.0
 30
0.0
 11
286.443435
 21
330.0
 31
0.0
  0
ARC
  5
C62C
330
C392
100
AcDbEntity
  8
1
  6
Continuous
100
AcDbCircle
 10
121.143435
 20
340.0
 30
0.0
 40
1.6
100
AcDbArc
 50
90.0
 51
270.0
  0
LINE
  5
C62D
330
C392
100
AcDbEntity
  8
1
  6
Continuous
100
AcDbLine
 10
286.443435
 20
331.4779619999999
 30
0.0
 11
86.46496500000003
 21
331.4779619999999
 31
0.0
  0
LINE
  5
C62E
330
C392
100
AcDbEntity
  8
1
  6
Continuous
100
AcDbLine
 10
86.46496500000003
 20
348.522038
 30
0.0
 11
286.443435
 21
348.522038
 31
0.0
  0
LINE
  5
C62F
330
C392
100
AcDbEntity
  8
1
  6
Continuous
100
AcDbLine
 10
515.4434349999998
 20
350.0
 30
0.0
 11
315.4434349999998
 21
350.0
 31
0.0
  0
LINE
  5
C630
330
C392
100
AcDbEntity
  8
1
  6
Continuous
100
AcDbLine
 10
315.4434349999998
 20
330.0
 30
0.0
 11
515.4434349999998
 21
330.0
 31
0.0
  0
LINE
  5
C631
330
C392
100
AcDbEntity
  8
3
  6
DASHED
100
AcDbLine
 10
315.4434349999998
 20
333.85
 30
0.0
 11
400.9434349999998
 21
333.85
 31
0.0
  0
LINE
  5
C632
330
C392
100
AcDbEntity
  8
3
  6
DASHED
100
AcDbLine
 10
400.9434349999998
 20
346.15
 30
0.0
 11
315.4434349999998
 21
346.15
 31
0.0
  0
LINE
  5
C633
330
C392
100
AcDbEntity
  8
1
  6
Continuous
100
AcDbLine
 10
515.4434349999998
 20
330.0
 30
0.0
 11
515.4434349999998
 21
331.2715729999998
 31
0.0
  0
LINE
  5
C634
330
C392
100
AcDbEntity
  8
1
  6
Continuous
100
AcDbLine
 10
514.8434349999996
 20
334.6999999999998
 30
0.0
 11
515.4434349999998
 21
334.6999999999998
 31
0.0
  0
ARC
  5
C635
330
C392
100
AcDbEntity
  8
1
  6
Continuous
100
AcDbCircle
 10
514.8434349999996
 20
333.6999999999998
 30
0.0
 40
1.0
100
AcDbArc
 50
90.0
 51
225.0
  0
LINE
  5
C636
330
C392
100
AcDbEntity
  8
1
  6
Continuous
100
AcDbLine
 10
515.1505419999998
 20
331.97868
 30
0.0
 11
514.1363279999998
 21
332.9928929999998
 31
0.0
  0
ARC
  5
C637
330
C392
100
AcDbEntity
  8
1
  6
Continuous
100
AcDbCircle
 10
514.4434349999998
 20
331.2715729999998
 30
0.0
 40
1.0
100
AcDbArc
 50
0.0
 51
45.0
  0
LINE
  5
C638
330
C392
100
AcDbEntity
  8
1
  6
Continuous
100
AcDbLine
 10
515.4434349999998
 20
348.7284269999999
 30
0.0
 11
515.4434349999998
 21
350.0
 31
0.0
  0
ARC
  5
C639
330
C392
100
AcDbEntity
  8
1
  6
Continuous
100
AcDbCircle
 10
514.4434349999998
 20
348.7284269999999
 30
0.0
 40
1.0
100
AcDbArc
 50
315.0
 51
0.0
  0
LINE
  5
C63A
330
C392
100
AcDbEntity
  8
1
  6
Continuous
100
AcDbLine
 10
514.1363279999998
 20
347.0071069999999
 30
0.0
 11
515.1505419999998
 21
348.02132
 31
0.0
  0
ARC
  5
C63B
330
C392
100
AcDbEntity
  8
1
  6
Continuous
100
AcDbCircle
 10
514.8434349999996
 20
346.3
 30
0.0
 40
1.0
100
AcDbArc
 50
135.0
 51
270.0
  0
LINE
  5
C63C
330
C392
100
AcDbEntity
  8
1
  6
Continuous
100
AcDbLine
 10
515.4434349999998
 20
345.3
 30
0.0
 11
514.8434349999996
 21
345.3
 31
0.0
  0
LINE
  5
C63D
330
C392
100
AcDbEntity
  8
1
  6
Continuous
100
AcDbLine
 10
515.4434349999998
 20
334.6999999999998
 30
0.0
 11
515.4434349999998
 21
345.3
 31
0.0
  0
ARC
  5
C63E
330
C392
100
AcDbEntity
  8
1
  6
Continuous
100
AcDbCircle
 10
495.1434349999998
 20
340.0
 30
0.0
 40
1.6
100
AcDbArc
 50
90.0
 51
270.0
  0
LINE
  5
C63F
330
C392
100
AcDbEntity
  8
1
  6
Continuous
100
AcDbLine
 10
495.7434349999997
 20
341.6
 30
0.0
 11
495.1434349999998
 21
341.6
 31
0.0
  0
LINE
  5
C640
330
C392
100
AcDbEntity
  8
1
  6
Continuous
100
AcDbLine
 10
495.1434349999998
 20
338.3999999999998
 30
0.0
 11
495.7434349999997
 21
338.3999999999998
 31
0.0
  0
ARC
  5
C641
330
C392
100
AcDbEntity
  8
1
  6
Continuous
100
AcDbCircle
 10
495.7434349999997
 20
340.0
 30
0.0
 40
1.6
100
AcDbArc
 50
270.0
 51
90.0
  0
LINE
  5
C642
330
C392
100
AcDbEntity
  8
4
  6
CENTER
100
AcDbLine
 10
495.4434349999998
 20
337.370538
 30
0.0
 11
495.4434349999998
 21
342.671106
 31
0.0
  0
ARC
  5
C643
330
C392
100
AcDbEntity
  8
1
  6
Continuous
100
AcDbCircle
 10
480.1434349999998
 20
340.0
 30
0.0
 40
1.6
100
AcDbArc
 50
90.0
 51
270.0
  0
ARC
  5
C644
330
C392
100
AcDbEntity
  8
1
  6
Continuous
100
AcDbCircle
 10
480.7434349999998
 20
340.0
 30
0.0
 40
1.6
100
AcDbArc
 50
270.0
 51
90.0
  0
LINE
  5
C645
330
C392
100
AcDbEntity
  8
1
  6
Continuous
100
AcDbLine
 10
480.1434349999998
 20
338.3999999999998
 30
0.0
 11
480.7434349999998
 21
338.3999999999998
 31
0.0
  0
LINE
  5
C646
330
C392
100
AcDbEntity
  8
1
  6
Continuous
100
AcDbLine
 10
480.7434349999998
 20
341.6
 30
0.0
 11
480.1434349999998
 21
341.6
 31
0.0
  0
LINE
  5
C647
330
C392
100
AcDbEntity
  8
4
  6
CENTER
100
AcDbLine
 10
480.4434349999998
 20
337.370538
 30
0.0
 11
480.4434349999998
 21
342.671106
 31
0.0
  0
ARC
  5
C648
330
C392
100
AcDbEntity
  8
1
  6
Continuous
100
AcDbCircle
 10
435.1434349999998
 20
340.0
 30
0.0
 40
1.6
100
AcDbArc
 50
90.0
 51
270.0
  0
ARC
  5
C649
330
C392
100
AcDbEntity
  8
1
  6
Continuous
100
AcDbCircle
 10
435.7434349999998
 20
340.0
 30
0.0
 40
1.6
100
AcDbArc
 50
270.0
 51
90.0
  0
LINE
  5
C64A
330
C392
100
AcDbEntity
  8
1
  6
Continuous
100
AcDbLine
 10
435.1434349999998
 20
338.3999999999998
 30
0.0
 11
435.7434349999998
 21
338.3999999999998
 31
0.0
  0
LINE
  5
C64B
330
C392
100
AcDbEntity
  8
1
  6
Continuous
100
AcDbLine
 10
435.7434349999998
 20
341.6
 30
0.0
 11
435.1434349999998
 21
341.6
 31
0.0
  0
LINE
  5
C64C
330
C392
100
AcDbEntity
  8
4
  6
CENTER
100
AcDbLine
 10
435.4434349999998
 20
337.370538
 30
0.0
 11
435.4434349999998
 21
342.671106
 31
0.0
  0
LINE
  5
C64D
330
C392
100
AcDbEntity
  8
3
  6
DASHED
100
AcDbLine
 10
400.9434349999998
 20
346.15
 30
0.0
 11
400.9434349999998
 21
333.85
 31
0.0
  0
LINE
  5
C64E
330
C392
100
AcDbEntity
  8
3
  6
DASHED
100
AcDbLine
 10
397.9434349999999
 20
346.15
 30
0.0
 11
397.9434349999999
 21
333.85
 31
0.0
  0
LINE
  5
C64F
330
C392
100
AcDbEntity
  8
1
  6
Continuous
100
AcDbLine
 10
286.443435
 20
344.95
 30
0.0
 11
200.9434349999999
 21
344.95
 31
0.0
  0
LINE
  5
C650
330
C392
100
AcDbEntity
  8
1
  6
Continuous
100
AcDbLine
 10
315.4434349999998
 20
346.15
 30
0.0
 11
200.9434349999999
 21
346.15
 31
0.0
  0
LINE
  5
C651
330
C392
100
AcDbEntity
  8
1
  6
Continuous
100
AcDbLine
 10
200.9434349999999
 20
335.05
 30
0.0
 11
286.443435
 21
335.05
 31
0.0
  0
LINE
  5
C652
330
C392
100
AcDbEntity
  8
1
  6
Continuous
100
AcDbLine
 10
200.9434349999999
 20
333.85
 30
0.0
 11
315.4434349999998
 21
333.85
 31
0.0
  0
LINE
  5
C653
330
C392
100
AcDbEntity
  8
1
  6
Continuous
100
AcDbLine
 10
252.9434349999999
 20
347.1795
 30
0.0
 11
244.943435
 21
347.1795
 31
0.0
  0
LINE
  5
C654
330
C392
100
AcDbEntity
  8
1
  6
Continuous
100
AcDbLine
 10
252.9434349999999
 20
346.6795
 30
0.0
 11
244.943435
 21
346.6795
 31
0.0
  0
LINE
  5
C655
330
C392
100
AcDbEntity
  8
1
  6
Continuous
100
AcDbLine
 10
252.9434349999999
 20
332.8205
 30
0.0
 11
244.943435
 21
332.8205
 31
0.0
  0
LINE
  5
C656
330
C392
100
AcDbEntity
  8
1
  6
Continuous
100
AcDbLine
 10
252.9434349999999
 20
333.3204999999998
 30
0.0
 11
244.943435
 21
333.3204999999998
 31
0.0
  0
LINE
  5
C657
330
C392
100
AcDbEntity
  8
1
  6
Continuous
100
AcDbLine
 10
315.4434349999998
 20
344.95
 30
0.0
 11
286.443435
 21
344.95
 31
0.0
  0
LINE
  5
C658
330
C392
100
AcDbEntity
  8
1
  6
Continuous
100
AcDbLine
 10
286.443435
 20
335.05
 30
0.0
 11
315.4434349999998
 21
335.05
 31
0.0
  0
LINE
  5
C659
330
C392
100
AcDbEntity
  8
1
  6
Continuous
100
AcDbLine
 10
350.1434349999998
 20
338.3999999999998
 30
0.0
 11
350.743435
 21
338.3999999999998
 31
0.0
  0
LINE
  5
C65A
330
C392
100
AcDbEntity
  8
1
  6
Continuous
100
AcDbLine
 10
350.743435
 20
341.6
 30
0.0
 11
350.1434349999998
 21
341.6
 31
0.0
  0
ARC
  5
C65B
330
C392
100
AcDbEntity
  8
1
  6
Continuous
100
AcDbCircle
 10
350.743435
 20
340.0
 30
0.0
 40
1.6
100
AcDbArc
 50
270.0
 51
90.0
  0
LINE
  5
C65C
330
C392
100
AcDbEntity
  8
4
  6
CENTER
100
AcDbLine
 10
350.4434349999999
 20
337.370538
 30
0.0
 11
350.4434349999999
 21
342.671106
 31
0.0
  0
ARC
  5
C65D
330
C392
100
AcDbEntity
  8
1
  6
Continuous
100
AcDbCircle
 10
350.1434349999998
 20
340.0
 30
0.0
 40
1.6
100
AcDbArc
 50
90.0
 51
270.0
  0
LINE
  5
C65E
330
C392
100
AcDbEntity
  8
1
  6
Continuous
100
AcDbLine
 10
315.4434349999998
 20
350.0
 30
0.0
 11
315.4434349999998
 21
330.0
 31
0.0
  0
CIRCLE
  5
C65F
330
C392
100
AcDbEntity
  8
1
  6
Continuous
100
AcDbCircle
 10
335.4434349999999
 20
340.0
 30
0.0
 40
1.6
  0
LINE
  5
C660
330
C392
100
AcDbEntity
  8
4
  6
CENTER
100
AcDbLine
 10
335.4434349999999
 20
337.370538
 30
0.0
 11
335.4434349999999
 21
342.671106
 31
0.0
  0
LINE
  5
C661
330
C392
100
AcDbEntity
  8
4
  6
CENTER
100
AcDbLine
 10
334.1434349999998
 20
335.824539
 30
0.0
 11
334.1434349999998
 21
344.37486
 31
0.0
  0
LINE
  5
C662
330
C392
100
AcDbEntity
  8
1
  6
Continuous
100
AcDbLine
 10
315.4434349999998
 20
334.6999999999998
 30
0.0
 11
318.9434349999998
 21
334.6999999999998
 31
0.0
  0
LINE
  5
C663
330
C392
100
AcDbEntity
  8
1
  6
Continuous
100
AcDbLine
 10
315.4434349999998
 20
335.6
 30
0.0
 11
318.9434349999998
 21
335.6
 31
0.0
  0
LINE
  5
C664
330
C392
100
AcDbEntity
  8
1
  6
Continuous
100
AcDbLine
 10
315.4434349999998
 20
345.3
 30
0.0
 11
318.9434349999998
 21
345.3
 31
0.0
  0
LINE
  5
C665
330
C392
100
AcDbEntity
  8
1
  6
Continuous
100
AcDbLine
 10
315.4434349999998
 20
344.3999999999999
 30
0.0
 11
318.9434349999998
 21
344.3999999999999
 31
0.0
  0
LINE
  5
C666
330
C392
100
AcDbEntity
  8
1
  6
Continuous
100
AcDbLine
 10
318.9434349999998
 20
345.3
 30
0.0
 11
318.9434349999998
 21
334.6999999999998
 31
0.0
  0
LINE
  5
C667
330
C392
100
AcDbEntity
  8
1
  6
Continuous
100
AcDbLine
 10
282.943435
 20
347.1795
 30
0.0
 11
274.943435
 21
347.1795
 31
0.0
  0
LINE
  5
C668
330
C392
100
AcDbEntity
  8
1
  6
Continuous
100
AcDbLine
 10
282.943435
 20
346.6795
 30
0.0
 11
274.943435
 21
346.6795
 31
0.0
  0
LINE
  5
C669
330
C392
100
AcDbEntity
  8
1
  6
Continuous
100
AcDbLine
 10
282.943435
 20
332.8205
 30
0.0
 11
274.943435
 21
332.8205
 31
0.0
  0
LINE
  5
C66A
330
C392
100
AcDbEntity
  8
1
  6
Continuous
100
AcDbLine
 10
282.943435
 20
333.3204999999998
 30
0.0
 11
274.943435
 21
333.3204999999998
 31
0.0
  0
LINE
  5
C66B
330
C392
100
AcDbEntity
  8
1
  6
Continuous
100
AcDbLine
 10
286.443435
 20
333.85
 30
0.0
 11
286.443435
 21
330.0
 31
0.0
  0
ARC
  5
C66C
330
C392
100
AcDbEntity
  8
1
  6
Continuous
100
AcDbCircle
 10
278.943435
 20
332.9875
 30
0.0
 40
1.587499999999999
100
AcDbArc
 50
335.4270200000001
 51
353.9614919999999
  0
ARC
  5
C66D
330
C392
100
AcDbEntity
  8
1
  6
Continuous
100
AcDbCircle
 10
278.943435
 20
332.9875
 30
0.0
 40
1.587499999999999
100
AcDbArc
 50
12.108509
 51
32.909052
  0
LINE
  5
C66E
330
C392
100
AcDbEntity
  8
1
  6
Continuous
100
AcDbLine
 10
282.943435
 20
332.8205
 30
0.0
 11
282.943435
 21
333.85
 31
0.0
  0
LINE
  5
C66F
330
C392
100
AcDbEntity
  8
1
  6
Continuous
100
AcDbLine
 10
286.443435
 20
350.0
 30
0.0
 11
286.443435
 21
346.15
 31
0.0
  0
ARC
  5
C670
330
C392
100
AcDbEntity
  8
1
  6
Continuous
100
AcDbCircle
 10
278.943435
 20
347.0124999999999
 30
0.0
 40
1.587499999999999
100
AcDbArc
 50
327.090948
 51
347.8914909999998
  0
ARC
  5
C671
330
C392
100
AcDbEntity
  8
1
  6
Continuous
100
AcDbCircle
 10
278.943435
 20
347.0124999999999
 30
0.0
 40
1.587499999999999
100
AcDbArc
 50
6.038508
 51
24.57297999999999
  0
LINE
  5
C672
330
C392
100
AcDbEntity
  8
1
  6
Continuous
100
AcDbLine
 10
282.943435
 20
346.15
 30
0.0
 11
282.943435
 21
347.1795
 31
0.0
  0
LINE
  5
C673
330
C392
100
AcDbEntity
  8
3
  6
DASHED
100
AcDbLine
 10
286.443435
 20
346.15
 30
0.0
 11
286.443435
 21
333.85
 31
0.0
  0
ARC
  5
C674
330
C392
100
AcDbEntity
  8
1
  6
Continuous
100
AcDbCircle
 10
266.1434349999999
 20
340.0
 30
0.0
 40
3.649999999999999
100
AcDbArc
 50
90.0
 51
270.0
  0
LINE
  5
C675
330
C392
100
AcDbEntity
  8
1
  6
Continuous
100
AcDbLine
 10
272.943435
 20
332.8205
 30
0.0
 11
264.943435
 21
332.8205
 31
0.0
  0
LINE
  5
C676
330
C392
100
AcDbEntity
  8
1
  6
Continuous
100
AcDbLine
 10
272.943435
 20
333.3204999999998
 30
0.0
 11
264.943435
 21
333.3204999999998
 31
0.0
  0
ARC
  5
C677
330
C392
100
AcDbEntity
  8
1
  6
Continuous
100
AcDbCircle
 10
268.943435
 20
332.9875
 30
0.0
 40
1.587499999999999
100
AcDbArc
 50
335.4270200000001
 51
353.9614919999999
  0
ARC
  5
C678
330
C392
100
AcDbEntity
  8
1
  6
Continuous
100
AcDbCircle
 10
268.943435
 20
332.9875
 30
0.0
 40
1.587499999999999
100
AcDbArc
 50
12.108509
 51
32.909052
  0
ARC
  5
C679
330
C392
100
AcDbEntity
  8
1
  6
Continuous
100
AcDbCircle
 10
278.943435
 20
332.9875
 30
0.0
 40
1.587499999999999
100
AcDbArc
 50
147.0909479999999
 51
167.891491
  0
ARC
  5
C67A
330
C392
100
AcDbEntity
  8
1
  6
Continuous
100
AcDbCircle
 10
278.943435
 20
332.9875
 30
0.0
 40
1.587499999999999
100
AcDbArc
 50
186.038508
 51
204.57298
  0
ARC
  5
C67B
330
C392
100
AcDbEntity
  8
1
  6
Continuous
100
AcDbCircle
 10
273.943435
 20
333.3204999999998
 30
0.0
 40
1.0
100
AcDbArc
 50
148.028322
 51
180.0
  0
LINE
  5
C67C
330
C392
100
AcDbEntity
  8
1
  6
Continuous
100
AcDbLine
 10
272.943435
 20
332.8205
 30
0.0
 11
272.943435
 21
333.3204999999998
 31
0.0
  0
ARC
  5
C67D
330
C392
100
AcDbEntity
  8
1
  6
Continuous
100
AcDbCircle
 10
273.943435
 20
333.3204999999998
 30
0.0
 40
1.0
100
AcDbArc
 50
0.0
 51
31.97167800000001
  0
LINE
  5
C67E
330
C392
100
AcDbEntity
  8
1
  6
Continuous
100
AcDbLine
 10
274.943435
 20
333.3204999999998
 30
0.0
 11
274.943435
 21
332.8205
 31
0.0
  0
ARC
  5
C67F
330
C392
100
AcDbEntity
  8
1
  6
Continuous
100
AcDbCircle
 10
268.943435
 20
332.9875
 30
0.0
 40
1.587499999999999
100
AcDbArc
 50
147.0909479999999
 51
167.891491
  0
ARC
  5
C680
330
C392
100
AcDbEntity
  8
1
  6
Continuous
100
AcDbCircle
 10
268.943435
 20
332.9875
 30
0.0
 40
1.587499999999999
100
AcDbArc
 50
186.038508
 51
204.57298
  0
CIRCLE
  5
C681
330
C392
100
AcDbEntity
  8
1
  6
Continuous
100
AcDbCircle
 10
266.443435
 20
340.0
 30
0.0
 40
1.6
  0
LINE
  5
C682
330
C392
100
AcDbEntity
  8
4
  6
CENTER
100
AcDbLine
 10
266.443435
 20
337.370538
 30
0.0
 11
266.443435
 21
342.671106
 31
0.0
  0
LINE
  5
C683
330
C392
100
AcDbEntity
  8
1
  6
Continuous
100
AcDbLine
 10
266.1434349999999
 20
336.35
 30
0.0
 11
269.3434349999999
 21
336.35
 31
0.0
  0
LINE
  5
C684
330
C392
100
AcDbEntity
  8
1
  6
Continuous
100
AcDbLine
 10
264.943435
 20
333.3204999999998
 30
0.0
 11
264.943435
 21
332.8205
 31
0.0
  0
ARC
  5
C685
330
C392
100
AcDbEntity
  8
1
  6
Continuous
100
AcDbCircle
 10
263.943435
 20
333.3204999999998
 30
0.0
 40
1.0
100
AcDbArc
 50
0.0
 51
31.97167800000001
  0
LINE
  5
C686
330
C392
100
AcDbEntity
  8
1
  6
Continuous
100
AcDbLine
 10
272.943435
 20
347.1795
 30
0.0
 11
264.943435
 21
347.1795
 31
0.0
  0
LINE
  5
C687
330
C392
100
AcDbEntity
  8
1
  6
Continuous
100
AcDbLine
 10
272.943435
 20
346.6795
 30
0.0
 11
264.943435
 21
346.6795
 31
0.0
  0
ARC
  5
C688
330
C392
100
AcDbEntity
  8
1
  6
Continuous
100
AcDbCircle
 10
268.943435
 20
347.0124999999999
 30
0.0
 40
1.587499999999999
100
AcDbArc
 50
327.090948
 51
347.8914909999998
  0
ARC
  5
C689
330
C392
100
AcDbEntity
  8
1
  6
Continuous
100
AcDbCircle
 10
268.943435
 20
347.0124999999999
 30
0.0
 40
1.587499999999999
100
AcDbArc
 50
6.038508
 51
24.57297999999999
  0
ARC
  5
C68A
330
C392
100
AcDbEntity
  8
1
  6
Continuous
100
AcDbCircle
 10
278.943435
 20
347.0124999999999
 30
0.0
 40
1.587499999999999
100
AcDbArc
 50
155.4270199999999
 51
173.9614919999999
  0
ARC
  5
C68B
330
C392
100
AcDbEntity
  8
1
  6
Continuous
100
AcDbCircle
 10
278.943435
 20
347.0124999999999
 30
0.0
 40
1.587499999999999
100
AcDbArc
 50
192.1085089999999
 51
212.9090519999999
  0
ARC
  5
C68C
330
C392
100
AcDbEntity
  8
1
  6
Continuous
100
AcDbCircle
 10
273.943435
 20
346.6795
 30
0.0
 40
1.0
100
AcDbArc
 50
328.028322
 51
0.0
  0
ARC
  5
C68D
330
C392
100
AcDbEntity
  8
1
  6
Continuous
100
AcDbCircle
 10
273.943435
 20
346.6795
 30
0.0
 40
1.0
100
AcDbArc
 50
180.0
 51
211.9716779999999
  0
LINE
  5
C68E
330
C392
100
AcDbEntity
  8
1
  6
Continuous
100
AcDbLine
 10
272.943435
 20
347.1795
 30
0.0
 11
272.943435
 21
346.6795
 31
0.0
  0
LINE
  5
C68F
330
C392
100
AcDbEntity
  8
1
  6
Continuous
100
AcDbLine
 10
274.943435
 20
346.6795
 30
0.0
 11
274.943435
 21
347.1795
 31
0.0
  0
ARC
  5
C690
330
C392
100
AcDbEntity
  8
1
  6
Continuous
100
AcDbCircle
 10
268.943435
 20
347.0124999999999
 30
0.0
 40
1.587499999999999
100
AcDbArc
 50
155.4270199999999
 51
173.9614919999999
  0
ARC
  5
C691
330
C392
100
AcDbEntity
  8
1
  6
Continuous
100
AcDbCircle
 10
268.943435
 20
347.0124999999999
 30
0.0
 40
1.587499999999999
100
AcDbArc
 50
192.1085089999999
 51
212.9090519999999
  0
LINE
  5
C692
330
C392
100
AcDbEntity
  8
1
  6
Continuous
100
AcDbLine
 10
269.3434349999999
 20
343.6499999999999
 30
0.0
 11
266.1434349999999
 21
343.6499999999999
 31
0.0
  0
ARC
  5
C693
330
C392
100
AcDbEntity
  8
1
  6
Continuous
100
AcDbCircle
 10
263.943435
 20
346.6795
 30
0.0
 40
1.0
100
AcDbArc
 50
328.028322
 51
0.0
  0
LINE
  5
C694
330
C392
100
AcDbEntity
  8
1
  6
Continuous
100
AcDbLine
 10
264.943435
 20
346.6795
 30
0.0
 11
264.943435
 21
347.1795
 31
0.0
  0
ARC
  5
C695
330
C392
100
AcDbEntity
  8
1
  6
Continuous
100
AcDbCircle
 10
269.3434349999999
 20
340.0
 30
0.0
 40
3.649999999999999
100
AcDbArc
 50
270.0
 51
90.0
  0
LINE
  5
C696
330
C392
100
AcDbEntity
  8
4
  6
CENTER
100
AcDbLine
 10
267.7434349999999
 20
334.64447
 30
0.0
 11
267.7434349999999
 21
345.276253
 31
0.0
  0
ARC
  5
C697
330
C392
100
AcDbEntity
  8
1
  6
Continuous
100
AcDbCircle
 10
258.943435
 20
332.9875
 30
0.0
 40
1.587499999999999
100
AcDbArc
 50
186.038508
 51
204.57298
  0
ARC
  5
C698
330
C392
100
AcDbEntity
  8
1
  6
Continuous
100
AcDbCircle
 10
258.943435
 20
332.9875
 30
0.0
 40
1.587499999999999
100
AcDbArc
 50
147.0909479999999
 51
167.891491
  0
ARC
  5
C699
330
C392
100
AcDbEntity
  8
1
  6
Continuous
100
AcDbCircle
 10
258.943435
 20
332.9875
 30
0.0
 40
1.587499999999999
100
AcDbArc
 50
12.108509
 51
32.909052
  0
ARC
  5
C69A
330
C392
100
AcDbEntity
  8
1
  6
Continuous
100
AcDbCircle
 10
258.943435
 20
332.9875
 30
0.0
 40
1.587499999999999
100
AcDbArc
 50
335.4270200000001
 51
353.9614919999999
  0
ARC
  5
C69B
330
C392
100
AcDbEntity
  8
1
  6
Continuous
100
AcDbCircle
 10
263.943435
 20
333.3204999999998
 30
0.0
 40
1.0
100
AcDbArc
 50
148.028322
 51
180.0
  0
LINE
  5
C69C
330
C392
100
AcDbEntity
  8
1
  6
Continuous
100
AcDbLine
 10
262.943435
 20
332.8205
 30
0.0
 11
262.943435
 21
333.3204999999998
 31
0.0
  0
LINE
  5
C69D
330
C392
100
AcDbEntity
  8
1
  6
Continuous
100
AcDbLine
 10
262.943435
 20
332.8205
 30
0.0
 11
254.9434349999999
 21
332.8205
 31
0.0
  0
LINE
  5
C69E
330
C392
100
AcDbEntity
  8
1
  6
Continuous
100
AcDbLine
 10
262.943435
 20
333.3204999999998
 30
0.0
 11
254.9434349999999
 21
333.3204999999998
 31
0.0
  0
LINE
  5
C69F
330
C392
100
AcDbEntity
  8
1
  6
Continuous
100
AcDbLine
 10
254.9434349999999
 20
333.3204999999998
 30
0.0
 11
254.9434349999999
 21
332.8205
 31
0.0
  0
ARC
  5
C6A0
330
C392
100
AcDbEntity
  8
1
  6
Continuous
100
AcDbCircle
 10
253.943435
 20
333.3204999999998
 30
0.0
 40
1.0
100
AcDbArc
 50
0.0
 51
31.97167800000001
  0
ARC
  5
C6A1
330
C392
100
AcDbEntity
  8
1
  6
Continuous
100
AcDbCircle
 10
248.9434349999999
 20
332.9875
 30
0.0
 40
1.587499999999999
100
AcDbArc
 50
335.4270200000001
 51
353.9614919999999
  0
ARC
  5
C6A2
330
C392
100
AcDbEntity
  8
1
  6
Continuous
100
AcDbCircle
 10
248.9434349999999
 20
332.9875
 30
0.0
 40
1.587499999999999
100
AcDbArc
 50
12.108509
 51
32.909052
  0
ARC
  5
C6A3
330
C392
100
AcDbEntity
  8
1
  6
Continuous
100
AcDbCircle
 10
253.943435
 20
333.3204999999998
 30
0.0
 40
1.0
100
AcDbArc
 50
148.028322
 51
180.0
  0
LINE
  5
C6A4
330
C392
100
AcDbEntity
  8
1
  6
Continuous
100
AcDbLine
 10
252.9434349999999
 20
332.8205
 30
0.0
 11
252.9434349999999
 21
333.3204999999998
 31
0.0
  0
LINE
  5
C6A5
330
C392
100
AcDbEntity
  8
4
  6
CENTER
100
AcDbLine
 10
251.443435
 20
337.370538
 30
0.0
 11
251.443435
 21
342.671106
 31
0.0
  0
ARC
  5
C6A6
330
C392
100
AcDbEntity
  8
1
  6
Continuous
100
AcDbCircle
 10
258.943435
 20
347.0124999999999
 30
0.0
 40
1.587499999999999
100
AcDbArc
 50
6.038508
 51
24.57297999999999
  0
ARC
  5
C6A7
330
C392
100
AcDbEntity
  8
1
  6
Continuous
100
AcDbCircle
 10
258.943435
 20
347.0124999999999
 30
0.0
 40
1.587499999999999
100
AcDbArc
 50
327.090948
 51
347.8914909999998
  0
ARC
  5
C6A8
330
C392
100
AcDbEntity
  8
1
  6
Continuous
100
AcDbCircle
 10
258.943435
 20
347.0124999999999
 30
0.0
 40
1.587499999999999
100
AcDbArc
 50
192.1085089999999
 51
212.9090519999999
  0
ARC
  5
C6A9
330
C392
100
AcDbEntity
  8
1
  6
Continuous
100
AcDbCircle
 10
258.943435
 20
347.0124999999999
 30
0.0
 40
1.587499999999999
100
AcDbArc
 50
155.4270199999999
 51
173.9614919999999
  0
ARC
  5
C6AA
330
C392
100
AcDbEntity
  8
1
  6
Continuous
100
AcDbCircle
 10
253.943435
 20
346.6795
 30
0.0
 40
1.0
100
AcDbArc
 50
328.028322
 51
0.0
  0
ARC
  5
C6AB
330
C392
100
AcDbEntity
  8
1
  6
Continuous
100
AcDbCircle
 10
263.943435
 20
346.6795
 30
0.0
 40
1.0
100
AcDbArc
 50
180.0
 51
211.9716779999999
  0
LINE
  5
C6AC
330
C392
100
AcDbEntity
  8
1
  6
Continuous
100
AcDbLine
 10
262.943435
 20
347.1795
 30
0.0
 11
262.943435
 21
346.6795
 31
0.0
  0
LINE
  5
C6AD
330
C392
100
AcDbEntity
  8
1
  6
Continuous
100
AcDbLine
 10
262.943435
 20
347.1795
 30
0.0
 11
254.9434349999999
 21
347.1795
 31
0.0
  0
LINE
  5
C6AE
330
C392
100
AcDbEntity
  8
1
  6
Continuous
100
AcDbLine
 10
262.943435
 20
346.6795
 30
0.0
 11
254.9434349999999
 21
346.6795
 31
0.0
  0
LINE
  5
C6AF
330
C392
100
AcDbEntity
  8
1
  6
Continuous
100
AcDbLine
 10
254.9434349999999
 20
346.6795
 30
0.0
 11
254.9434349999999
 21
347.1795
 31
0.0
  0
ARC
  5
C6B0
330
C392
100
AcDbEntity
  8
1
  6
Continuous
100
AcDbCircle
 10
248.9434349999999
 20
347.0124999999999
 30
0.0
 40
1.587499999999999
100
AcDbArc
 50
327.090948
 51
347.8914909999998
  0
ARC
  5
C6B1
330
C392
100
AcDbEntity
  8
1
  6
Continuous
100
AcDbCircle
 10
248.9434349999999
 20
347.0124999999999
 30
0.0
 40
1.587499999999999
100
AcDbArc
 50
6.038508
 51
24.57297999999999
  0
ARC
  5
C6B2
330
C392
100
AcDbEntity
  8
1
  6
Continuous
100
AcDbCircle
 10
253.943435
 20
346.6795
 30
0.0
 40
1.0
100
AcDbArc
 50
180.0
 51
211.9716779999999
  0
LINE
  5
C6B3
330
C392
100
AcDbEntity
  8
1
  6
Continuous
100
AcDbLine
 10
252.9434349999999
 20
347.1795
 30
0.0
 11
252.9434349999999
 21
346.6795
 31
0.0
  0
LINE
  5
C6B4
330
C392
100
AcDbEntity
  8
1
  6
Continuous
100
AcDbLine
 10
222.943435
 20
347.1795
 30
0.0
 11
214.9434349999999
 21
347.1795
 31
0.0
  0
LINE
  5
C6B5
330
C392
100
AcDbEntity
  8
1
  6
Continuous
100
AcDbLine
 10
222.943435
 20
346.6795
 30
0.0
 11
214.9434349999999
 21
346.6795
 31
0.0
  0
LINE
  5
C6B6
330
C392
100
AcDbEntity
  8
1
  6
Continuous
100
AcDbLine
 10
222.943435
 20
332.8205
 30
0.0
 11
214.9434349999999
 21
332.8205
 31
0.0
  0
LINE
  5
C6B7
330
C392
100
AcDbEntity
  8
1
  6
Continuous
100
AcDbLine
 10
222.943435
 20
333.3204999999998
 30
0.0
 11
214.9434349999999
 21
333.3204999999998
 31
0.0
  0
LINE
  5
C6B8
330
C392
100
AcDbEntity
  8
1
  6
Continuous
100
AcDbLine
 10
232.943435
 20
332.8205
 30
0.0
 11
224.943435
 21
332.8205
 31
0.0
  0
LINE
  5
C6B9
330
C392
100
AcDbEntity
  8
1
  6
Continuous
100
AcDbLine
 10
232.943435
 20
333.3204999999998
 30
0.0
 11
224.943435
 21
333.3204999999998
 31
0.0
  0
LINE
  5
C6BA
330
C392
100
AcDbEntity
  8
1
  6
Continuous
100
AcDbLine
 10
232.943435
 20
347.1795
 30
0.0
 11
224.943435
 21
347.1795
 31
0.0
  0
LINE
  5
C6BB
330
C392
100
AcDbEntity
  8
1
  6
Continuous
100
AcDbLine
 10
232.943435
 20
346.6795
 30
0.0
 11
224.943435
 21
346.6795
 31
0.0
  0
LINE
  5
C6BC
330
C392
100
AcDbEntity
  8
1
  6
Continuous
100
AcDbLine
 10
242.943435
 20
332.8205
 30
0.0
 11
234.943435
 21
332.8205
 31
0.0
  0
LINE
  5
C6BD
330
C392
100
AcDbEntity
  8
1
  6
Continuous
100
AcDbLine
 10
242.943435
 20
333.3204999999998
 30
0.0
 11
234.943435
 21
333.3204999999998
 31
0.0
  0
ARC
  5
C6BE
330
C392
100
AcDbEntity
  8
1
  6
Continuous
100
AcDbCircle
 10
238.943435
 20
332.9875
 30
0.0
 40
1.587499999999999
100
AcDbArc
 50
12.108509
 51
32.909052
  0
ARC
  5
C6BF
330
C392
100
AcDbEntity
  8
1
  6
Continuous
100
AcDbCircle
 10
238.943435
 20
332.9875
 30
0.0
 40
1.587499999999999
100
AcDbArc
 50
335.4270200000001
 51
353.9614919999999
  0
ARC
  5
C6C0
330
C392
100
AcDbEntity
  8
1
  6
Continuous
100
AcDbCircle
 10
248.9434349999999
 20
332.9875
 30
0.0
 40
1.587499999999999
100
AcDbArc
 50
147.0909479999999
 51
167.891491
  0
ARC
  5
C6C1
330
C392
100
AcDbEntity
  8
1
  6
Continuous
100
AcDbCircle
 10
248.9434349999999
 20
332.9875
 30
0.0
 40
1.587499999999999
100
AcDbArc
 50
186.038508
 51
204.57298
  0
ARC
  5
C6C2
330
C392
100
AcDbEntity
  8
1
  6
Continuous
100
AcDbCircle
 10
243.9434349999999
 20
333.3204999999998
 30
0.0
 40
1.0
100
AcDbArc
 50
148.028322
 51
180.0
  0
LINE
  5
C6C3
330
C392
100
AcDbEntity
  8
1
  6
Continuous
100
AcDbLine
 10
242.943435
 20
332.8205
 30
0.0
 11
242.943435
 21
333.3204999999998
 31
0.0
  0
LINE
  5
C6C4
330
C392
100
AcDbEntity
  8
1
  6
Continuous
100
AcDbLine
 10
244.943435
 20
333.3204999999998
 30
0.0
 11
244.943435
 21
332.8205
 31
0.0
  0
ARC
  5
C6C5
330
C392
100
AcDbEntity
  8
1
  6
Continuous
100
AcDbCircle
 10
243.9434349999999
 20
333.3204999999998
 30
0.0
 40
1.0
100
AcDbArc
 50
0.0
 51
31.97167800000001
  0
ARC
  5
C6C6
330
C392
100
AcDbEntity
  8
1
  6
Continuous
100
AcDbCircle
 10
238.943435
 20
332.9875
 30
0.0
 40
1.587499999999999
100
AcDbArc
 50
186.038508
 51
204.57298
  0
ARC
  5
C6C7
330
C392
100
AcDbEntity
  8
1
  6
Continuous
100
AcDbCircle
 10
238.943435
 20
332.9875
 30
0.0
 40
1.587499999999999
100
AcDbArc
 50
147.0909479999999
 51
167.891491
  0
ARC
  5
C6C8
330
C392
100
AcDbEntity
  8
1
  6
Continuous
100
AcDbCircle
 10
233.9434349999999
 20
333.3204999999998
 30
0.0
 40
1.0
100
AcDbArc
 50
148.028322
 51
180.0
  0
LINE
  5
C6C9
330
C392
100
AcDbEntity
  8
1
  6
Continuous
100
AcDbLine
 10
232.943435
 20
332.8205
 30
0.0
 11
232.943435
 21
333.3204999999998
 31
0.0
  0
LINE
  5
C6CA
330
C392
100
AcDbEntity
  8
1
  6
Continuous
100
AcDbLine
 10
234.943435
 20
333.3204999999998
 30
0.0
 11
234.943435
 21
332.8205
 31
0.0
  0
ARC
  5
C6CB
330
C392
100
AcDbEntity
  8
1
  6
Continuous
100
AcDbCircle
 10
233.9434349999999
 20
333.3204999999998
 30
0.0
 40
1.0
100
AcDbArc
 50
0.0
 51
31.97167800000001
  0
LINE
  5
C6CC
330
C392
100
AcDbEntity
  8
1
  6
Continuous
100
AcDbLine
 10
242.943435
 20
347.1795
 30
0.0
 11
234.943435
 21
347.1795
 31
0.0
  0
LINE
  5
C6CD
330
C392
100
AcDbEntity
  8
1
  6
Continuous
100
AcDbLine
 10
242.943435
 20
346.6795
 30
0.0
 11
234.943435
 21
346.6795
 31
0.0
  0
ARC
  5
C6CE
330
C392
100
AcDbEntity
  8
1
  6
Continuous
100
AcDbCircle
 10
238.943435
 20
347.0124999999999
 30
0.0
 40
1.587499999999999
100
AcDbArc
 50
6.038508
 51
24.57297999999999
  0
ARC
  5
C6CF
330
C392
100
AcDbEntity
  8
1
  6
Continuous
100
AcDbCircle
 10
238.943435
 20
347.0124999999999
 30
0.0
 40
1.587499999999999
100
AcDbArc
 50
327.090948
 51
347.8914909999998
  0
ARC
  5
C6D0
330
C392
100
AcDbEntity
  8
1
  6
Continuous
100
AcDbCircle
 10
248.9434349999999
 20
347.0124999999999
 30
0.0
 40
1.587499999999999
100
AcDbArc
 50
155.4270199999999
 51
173.9614919999999
  0
ARC
  5
C6D1
330
C392
100
AcDbEntity
  8
1
  6
Continuous
100
AcDbCircle
 10
248.9434349999999
 20
347.0124999999999
 30
0.0
 40
1.587499999999999
100
AcDbArc
 50
192.1085089999999
 51
212.9090519999999
  0
ARC
  5
C6D2
330
C392
100
AcDbEntity
  8
1
  6
Continuous
100
AcDbCircle
 10
243.9434349999999
 20
346.6795
 30
0.0
 40
1.0
100
AcDbArc
 50
328.028322
 51
0.0
  0
ARC
  5
C6D3
330
C392
100
AcDbEntity
  8
1
  6
Continuous
100
AcDbCircle
 10
243.9434349999999
 20
346.6795
 30
0.0
 40
1.0
100
AcDbArc
 50
180.0
 51
211.9716779999999
  0
LINE
  5
C6D4
330
C392
100
AcDbEntity
  8
1
  6
Continuous
100
AcDbLine
 10
242.943435
 20
347.1795
 30
0.0
 11
242.943435
 21
346.6795
 31
0.0
  0
LINE
  5
C6D5
330
C392
100
AcDbEntity
  8
1
  6
Continuous
100
AcDbLine
 10
244.943435
 20
346.6795
 30
0.0
 11
244.943435
 21
347.1795
 31
0.0
  0
ARC
  5
C6D6
330
C392
100
AcDbEntity
  8
1
  6
Continuous
100
AcDbCircle
 10
238.943435
 20
347.0124999999999
 30
0.0
 40
1.587499999999999
100
AcDbArc
 50
192.1085089999999
 51
212.9090519999999
  0
ARC
  5
C6D7
330
C392
100
AcDbEntity
  8
1
  6
Continuous
100
AcDbCircle
 10
238.943435
 20
347.0124999999999
 30
0.0
 40
1.587499999999999
100
AcDbArc
 50
155.4270199999999
 51
173.9614919999999
  0
ARC
  5
C6D8
330
C392
100
AcDbEntity
  8
1
  6
Continuous
100
AcDbCircle
 10
233.9434349999999
 20
346.6795
 30
0.0
 40
1.0
100
AcDbArc
 50
328.028322
 51
0.0
  0
ARC
  5
C6D9
330
C392
100
AcDbEntity
  8
1
  6
Continuous
100
AcDbCircle
 10
233.9434349999999
 20
346.6795
 30
0.0
 40
1.0
100
AcDbArc
 50
180.0
 51
211.9716779999999
  0
LINE
  5
C6DA
330
C392
100
AcDbEntity
  8
1
  6
Continuous
100
AcDbLine
 10
232.943435
 20
347.1795
 30
0.0
 11
232.943435
 21
346.6795
 31
0.0
  0
LINE
  5
C6DB
330
C392
100
AcDbEntity
  8
1
  6
Continuous
100
AcDbLine
 10
234.943435
 20
346.6795
 30
0.0
 11
234.943435
 21
347.1795
 31
0.0
  0
ARC
  5
C6DC
330
C392
100
AcDbEntity
  8
1
  6
Continuous
100
AcDbCircle
 10
228.943435
 20
332.9875
 30
0.0
 40
1.587499999999999
100
AcDbArc
 50
147.0909479999999
 51
167.891491
  0
ARC
  5
C6DD
330
C392
100
AcDbEntity
  8
1
  6
Continuous
100
AcDbCircle
 10
228.943435
 20
332.9875
 30
0.0
 40
1.587499999999999
100
AcDbArc
 50
186.038508
 51
204.57298
  0
ARC
  5
C6DE
330
C392
100
AcDbEntity
  8
1
  6
Continuous
100
AcDbCircle
 10
228.943435
 20
332.9875
 30
0.0
 40
1.587499999999999
100
AcDbArc
 50
335.4270200000001
 51
353.9614919999999
  0
ARC
  5
C6DF
330
C392
100
AcDbEntity
  8
1
  6
Continuous
100
AcDbCircle
 10
228.943435
 20
332.9875
 30
0.0
 40
1.587499999999999
100
AcDbArc
 50
12.108509
 51
32.909052
  0
ARC
  5
C6E0
330
C392
100
AcDbEntity
  8
1
  6
Continuous
100
AcDbCircle
 10
223.9434349999999
 20
333.3204999999998
 30
0.0
 40
1.0
100
AcDbArc
 50
148.028322
 51
180.0
  0
LINE
  5
C6E1
330
C392
100
AcDbEntity
  8
1
  6
Continuous
100
AcDbLine
 10
222.943435
 20
332.8205
 30
0.0
 11
222.943435
 21
333.3204999999998
 31
0.0
  0
LINE
  5
C6E2
330
C392
100
AcDbEntity
  8
1
  6
Continuous
100
AcDbLine
 10
224.943435
 20
333.3204999999998
 30
0.0
 11
224.943435
 21
332.8205
 31
0.0
  0
ARC
  5
C6E3
330
C392
100
AcDbEntity
  8
1
  6
Continuous
100
AcDbCircle
 10
223.9434349999999
 20
333.3204999999998
 30
0.0
 40
1.0
100
AcDbArc
 50
0.0
 51
31.97167800000001
  0
ARC
  5
C6E4
330
C392
100
AcDbEntity
  8
1
  6
Continuous
100
AcDbCircle
 10
218.9434349999999
 20
332.9875
 30
0.0
 40
1.587499999999999
100
AcDbArc
 50
12.108509
 51
32.909052
  0
ARC
  5
C6E5
330
C392
100
AcDbEntity
  8
1
  6
Continuous
100
AcDbCircle
 10
218.9434349999999
 20
332.9875
 30
0.0
 40
1.587499999999999
100
AcDbArc
 50
335.4270200000001
 51
353.9614919999999
  0
ARC
  5
C6E6
330
C392
100
AcDbEntity
  8
1
  6
Continuous
100
AcDbCircle
 10
218.9434349999999
 20
332.9875
 30
0.0
 40
1.587499999999999
100
AcDbArc
 50
186.038508
 51
204.57298
  0
ARC
  5
C6E7
330
C392
100
AcDbEntity
  8
1
  6
Continuous
100
AcDbCircle
 10
218.9434349999999
 20
332.9875
 30
0.0
 40
1.587499999999999
100
AcDbArc
 50
147.0909479999999
 51
167.891491
  0
ARC
  5
C6E8
330
C392
100
AcDbEntity
  8
1
  6
Continuous
100
AcDbCircle
 10
228.943435
 20
347.0124999999999
 30
0.0
 40
1.587499999999999
100
AcDbArc
 50
327.090948
 51
347.8914909999998
  0
ARC
  5
C6E9
330
C392
100
AcDbEntity
  8
1
  6
Continuous
100
AcDbCircle
 10
228.943435
 20
347.0124999999999
 30
0.0
 40
1.587499999999999
100
AcDbArc
 50
6.038508
 51
24.57297999999999
  0
ARC
  5
C6EA
330
C392
100
AcDbEntity
  8
1
  6
Continuous
100
AcDbCircle
 10
228.943435
 20
347.0124999999999
 30
0.0
 40
1.587499999999999
100
AcDbArc
 50
155.4270199999999
 51
173.9614919999999
  0
ARC
  5
C6EB
330
C392
100
AcDbEntity
  8
1
  6
Continuous
100
AcDbCircle
 10
228.943435
 20
347.0124999999999
 30
0.0
 40
1.587499999999999
100
AcDbArc
 50
192.1085089999999
 51
212.9090519999999
  0
ARC
  5
C6EC
330
C392
100
AcDbEntity
  8
1
  6
Continuous
100
AcDbCircle
 10
223.9434349999999
 20
346.6795
 30
0.0
 40
1.0
100
AcDbArc
 50
328.028322
 51
0.0
  0
ARC
  5
C6ED
330
C392
100
AcDbEntity
  8
1
  6
Continuous
100
AcDbCircle
 10
223.9434349999999
 20
346.6795
 30
0.0
 40
1.0
100
AcDbArc
 50
180.0
 51
211.9716779999999
  0
LINE
  5
C6EE
330
C392
100
AcDbEntity
  8
1
  6
Continuous
100
AcDbLine
 10
222.943435
 20
347.1795
 30
0.0
 11
222.943435
 21
346.6795
 31
0.0
  0
LINE
  5
C6EF
330
C392
100
AcDbEntity
  8
1
  6
Continuous
100
AcDbLine
 10
224.943435
 20
346.6795
 30
0.0
 11
224.943435
 21
347.1795
 31
0.0
  0
ARC
  5
C6F0
330
C392
100
AcDbEntity
  8
1
  6
Continuous
100
AcDbCircle
 10
218.9434349999999
 20
347.0124999999999
 30
0.0
 40
1.587499999999999
100
AcDbArc
 50
192.1085089999999
 51
212.9090519999999
  0
ARC
  5
C6F1
330
C392
100
AcDbEntity
  8
1
  6
Continuous
100
AcDbCircle
 10
218.9434349999999
 20
347.0124999999999
 30
0.0
 40
1.587499999999999
100
AcDbArc
 50
155.4270199999999
 51
173.9614919999999
  0
ARC
  5
C6F2
330
C392
100
AcDbEntity
  8
1
  6
Continuous
100
AcDbCircle
 10
218.9434349999999
 20
347.0124999999999
 30
0.0
 40
1.587499999999999
100
AcDbArc
 50
6.038508
 51
24.57297999999999
  0
ARC
  5
C6F3
330
C392
100
AcDbEntity
  8
1
  6
Continuous
100
AcDbCircle
 10
218.9434349999999
 20
347.0124999999999
 30
0.0
 40
1.587499999999999
100
AcDbArc
 50
327.090948
 51
347.8914909999998
  0
LINE
  5
C6F4
330
C392
100
AcDbEntity
  8
1
  6
Continuous
100
AcDbLine
 10
212.9434349999999
 20
332.8205
 30
0.0
 11
204.9434349999999
 21
332.8205
 31
0.0
  0
LINE
  5
C6F5
330
C392
100
AcDbEntity
  8
1
  6
Continuous
100
AcDbLine
 10
212.9434349999999
 20
333.3204999999998
 30
0.0
 11
204.9434349999999
 21
333.3204999999998
 31
0.0
  0
ARC
  5
C6F6
330
C392
100
AcDbEntity
  8
1
  6
Continuous
100
AcDbCircle
 10
208.9434349999999
 20
332.9875
 30
0.0
 40
1.587499999999999
100
AcDbArc
 50
147.0909479999999
 51
167.891491
  0
ARC
  5
C6F7
330
C392
100
AcDbEntity
  8
1
  6
Continuous
100
AcDbCircle
 10
208.9434349999999
 20
332.9875
 30
0.0
 40
1.587499999999999
100
AcDbArc
 50
186.038508
 51
204.57298
  0
ARC
  5
C6F8
330
C392
100
AcDbEntity
  8
1
  6
Continuous
100
AcDbCircle
 10
208.9434349999999
 20
332.9875
 30
0.0
 40
1.587499999999999
100
AcDbArc
 50
335.4270200000001
 51
353.9614919999999
  0
ARC
  5
C6F9
330
C392
100
AcDbEntity
  8
1
  6
Continuous
100
AcDbCircle
 10
208.9434349999999
 20
332.9875
 30
0.0
 40
1.587499999999999
100
AcDbArc
 50
12.108509
 51
32.909052
  0
ARC
  5
C6FA
330
C392
100
AcDbEntity
  8
1
  6
Continuous
100
AcDbCircle
 10
213.943435
 20
333.3204999999998
 30
0.0
 40
1.0
100
AcDbArc
 50
148.028322
 51
180.0
  0
LINE
  5
C6FB
330
C392
100
AcDbEntity
  8
1
  6
Continuous
100
AcDbLine
 10
212.9434349999999
 20
333.3204999999998
 30
0.0
 11
212.9434349999999
 21
332.8205
 31
0.0
  0
LINE
  5
C6FC
330
C392
100
AcDbEntity
  8
1
  6
Continuous
100
AcDbLine
 10
214.9434349999999
 20
333.3204999999998
 30
0.0
 11
214.9434349999999
 21
332.8205
 31
0.0
  0
ARC
  5
C6FD
330
C392
100
AcDbEntity
  8
1
  6
Continuous
100
AcDbCircle
 10
213.943435
 20
333.3204999999998
 30
0.0
 40
1.0
100
AcDbArc
 50
0.0
 51
31.97167800000001
  0
LINE
  5
C6FE
330
C392
100
AcDbEntity
  8
1
  6
Continuous
100
AcDbLine
 10
204.9434349999999
 20
332.8
 30
0.0
 11
204.9434349999999
 21
333.85
 31
0.0
  0
LINE
  5
C6FF
330
C392
100
AcDbEntity
  8
1
  6
Continuous
100
AcDbLine
 10
212.9434349999999
 20
347.1795
 30
0.0
 11
204.9434349999999
 21
347.1795
 31
0.0
  0
LINE
  5
C700
330
C392
100
AcDbEntity
  8
1
  6
Continuous
100
AcDbLine
 10
212.9434349999999
 20
346.6795
 30
0.0
 11
204.9434349999999
 21
346.6795
 31
0.0
  0
ARC
  5
C701
330
C392
100
AcDbEntity
  8
1
  6
Continuous
100
AcDbCircle
 10
208.9434349999999
 20
347.0124999999999
 30
0.0
 40
1.587499999999999
100
AcDbArc
 50
327.090948
 51
347.8914909999998
  0
ARC
  5
C702
330
C392
100
AcDbEntity
  8
1
  6
Continuous
100
AcDbCircle
 10
208.9434349999999
 20
347.0124999999999
 30
0.0
 40
1.587499999999999
100
AcDbArc
 50
6.038508
 51
24.57297999999999
  0
ARC
  5
C703
330
C392
100
AcDbEntity
  8
1
  6
Continuous
100
AcDbCircle
 10
208.9434349999999
 20
347.0124999999999
 30
0.0
 40
1.587499999999999
100
AcDbArc
 50
155.4270199999999
 51
173.9614919999999
  0
ARC
  5
C704
330
C392
100
AcDbEntity
  8
1
  6
Continuous
100
AcDbCircle
 10
208.9434349999999
 20
347.0124999999999
 30
0.0
 40
1.587499999999999
100
AcDbArc
 50
192.1085089999999
 51
212.9090519999999
  0
ARC
  5
C705
330
C392
100
AcDbEntity
  8
1
  6
Continuous
100
AcDbCircle
 10
213.943435
 20
346.6795
 30
0.0
 40
1.0
100
AcDbArc
 50
328.028322
 51
0.0
  0
ARC
  5
C706
330
C392
100
AcDbEntity
  8
1
  6
Continuous
100
AcDbCircle
 10
213.943435
 20
346.6795
 30
0.0
 40
1.0
100
AcDbArc
 50
180.0
 51
211.9716779999999
  0
LINE
  5
C707
330
C392
100
AcDbEntity
  8
1
  6
Continuous
100
AcDbLine
 10
212.9434349999999
 20
346.6795
 30
0.0
 11
212.9434349999999
 21
347.1795
 31
0.0
  0
LINE
  5
C708
330
C392
100
AcDbEntity
  8
1
  6
Continuous
100
AcDbLine
 10
214.9434349999999
 20
346.6795
 30
0.0
 11
214.9434349999999
 21
347.1795
 31
0.0
  0
LINE
  5
C709
330
C392
100
AcDbEntity
  8
1
  6
Continuous
100
AcDbLine
 10
204.9434349999999
 20
346.15
 30
0.0
 11
204.9434349999999
 21
347.1795
 31
0.0
  0
LINE
  5
C70A
330
C392
100
AcDbEntity
  8
1
  6
Continuous
100
AcDbLine
 10
200.9434349999999
 20
346.15
 30
0.0
 11
200.9434349999999
 21
333.85
 31
0.0
  0
LINE
  5
C70B
330
C392
100
AcDbEntity
  8
3
  6
DASHED
100
AcDbLine
 10
203.943435
 20
346.15
 30
0.0
 11
203.943435
 21
333.85
 31
0.0
  0
ARC
  5
C70C
330
C392
100
AcDbEntity
  8
1
  6
Continuous
100
AcDbCircle
 10
166.143435
 20
340.0
 30
0.0
 40
1.6
100
AcDbArc
 50
90.0
 51
270.0
  0
ARC
  5
C70D
330
C392
100
AcDbEntity
  8
1
  6
Continuous
100
AcDbCircle
 10
166.743435
 20
340.0
 30
0.0
 40
1.6
100
AcDbArc
 50
270.0
 51
90.0
  0
LINE
  5
C70E
330
C392
100
AcDbEntity
  8
1
  6
Continuous
100
AcDbLine
 10
166.143435
 20
338.3999999999998
 30
0.0
 11
166.743435
 21
338.3999999999998
 31
0.0
  0
LINE
  5
C70F
330
C392
100
AcDbEntity
  8
1
  6
Continuous
100
AcDbLine
 10
166.743435
 20
341.6
 30
0.0
 11
166.143435
 21
341.6
 31
0.0
  0
LINE
  5
C710
330
C392
100
AcDbEntity
  8
4
  6
CENTER
100
AcDbLine
 10
166.443435
 20
336.3668789999998
 30
0.0
 11
166.443435
 21
343.2291559999999
 31
0.0
  0
ARC
  5
C711
330
C392
100
AcDbEntity
  8
1
  6
Continuous
100
AcDbCircle
 10
121.7434349999999
 20
340.0
 30
0.0
 40
1.6
100
AcDbArc
 50
270.0
 51
90.0
  0
LINE
  5
C712
330
C392
100
AcDbEntity
  8
1
  6
Continuous
100
AcDbLine
 10
121.143435
 20
338.3999999999998
 30
0.0
 11
121.7434349999999
 21
338.3999999999998
 31
0.0
  0
LINE
  5
C713
330
C392
100
AcDbEntity
  8
1
  6
Continuous
100
AcDbLine
 10
121.7434349999999
 20
341.6
 30
0.0
 11
121.143435
 21
341.6
 31
0.0
  0
LINE
  5
C714
330
C392
100
AcDbEntity
  8
4
  6
CENTER
100
AcDbLine
 10
121.4434349999999
 20
336.3668789999998
 30
0.0
 11
121.4434349999999
 21
343.2291559999999
 31
0.0
  0
ARC
  5
C715
330
C392
100
AcDbEntity
  8
1
  6
Continuous
100
AcDbCircle
 10
106.143435
 20
340.0
 30
0.0
 40
1.6
100
AcDbArc
 50
90.0
 51
270.0
  0
LINE
  5
C716
330
C392
100
AcDbEntity
  8
1
  6
Continuous
100
AcDbLine
 10
106.743435
 20
341.6
 30
0.0
 11
106.143435
 21
341.6
 31
0.0
  0
LINE
  5
C717
330
C392
100
AcDbEntity
  8
1
  6
Continuous
100
AcDbLine
 10
106.143435
 20
338.3999999999998
 30
0.0
 11
106.743435
 21
338.3999999999998
 31
0.0
  0
ARC
  5
C718
330
C392
100
AcDbEntity
  8
1
  6
Continuous
100
AcDbCircle
 10
106.743435
 20
340.0
 30
0.0
 40
1.6
100
AcDbArc
 50
270.0
 51
90.0
  0
LINE
  5
C719
330
C392
100
AcDbEntity
  8
4
  6
CENTER
100
AcDbLine
 10
106.4434349999999
 20
336.3668789999998
 30
0.0
 11
106.4434349999999
 21
343.2291559999999
 31
0.0
  0
LINE
  5
C71A
330
C392
100
AcDbEntity
  8
1
  6
Continuous
100
AcDbLine
 10
86.44343499999996
 20
331.2715729999998
 30
0.0
 11
86.44343499999996
 21
330.0
 31
0.0
  0
ARC
  5
C71B
330
C392
100
AcDbEntity
  8
1
  6
Continuous
100
AcDbCircle
 10
87.44343499999997
 20
331.2715729999998
 30
0.0
 40
1.0
100
AcDbArc
 50
135.0
 51
180.0
  0
LINE
  5
C71C
330
C392
100
AcDbEntity
  8
1
  6
Continuous
100
AcDbLine
 10
87.75054200000004
 20
332.9928929999998
 30
0.0
 11
86.736328
 21
331.97868
 31
0.0
  0
ARC
  5
C71D
330
C392
100
AcDbEntity
  8
1
  6
Continuous
100
AcDbCircle
 10
87.043435
 20
333.6999999999998
 30
0.0
 40
1.0
100
AcDbArc
 50
315.0
 51
90.0
  0
LINE
  5
C71E
330
C392
100
AcDbEntity
  8
1
  6
Continuous
100
AcDbLine
 10
87.843435
 20
334.6999999999998
 30
0.0
 11
86.44343499999996
 21
334.6999999999998
 31
0.0
  0
LINE
  5
C71F
330
C392
100
AcDbEntity
  8
1
  6
Continuous
100
AcDbLine
 10
86.44343499999996
 20
345.3
 30
0.0
 11
87.843435
 21
345.3
 31
0.0
  0
ARC
  5
C720
330
C392
100
AcDbEntity
  8
1
  6
Continuous
100
AcDbCircle
 10
87.043435
 20
346.3
 30
0.0
 40
1.0
100
AcDbArc
 50
270.0
 51
45.0
  0
LINE
  5
C721
330
C392
100
AcDbEntity
  8
1
  6
Continuous
100
AcDbLine
 10
86.736328
 20
348.02132
 30
0.0
 11
87.75054200000004
 21
347.0071069999999
 31
0.0
  0
ARC
  5
C722
330
C392
100
AcDbEntity
  8
1
  6
Continuous
100
AcDbCircle
 10
87.44343499999997
 20
348.7284269999999
 30
0.0
 40
1.0
100
AcDbArc
 50
180.0
 51
225.0
  0
LINE
  5
C723
330
C392
100
AcDbEntity
  8
1
  6
Continuous
100
AcDbLine
 10
86.44343499999996
 20
350.0
 30
0.0
 11
86.44343499999996
 21
348.7284269999999
 31
0.0
  0
LINE
  5
C724
330
C392
100
AcDbEntity
  8
1
  6
Continuous
100
AcDbLine
 10
86.44343499999996
 20
334.6999999999998
 30
0.0
 11
86.44343499999996
 21
345.3
 31
0.0
  0
LINE
  5
C725
330
C392
100
AcDbEntity
  8
1
  6
Continuous
100
AcDbLine
 10
87.843435
 20
345.3
 30
0.0
 11
87.843435
 21
334.6999999999998
 31
0.0
  0
ARC
  5
C726
330
C392
100
AcDbEntity
  8
5
  6
PHANTOM
100
AcDbCircle
 10
316.4434349999999
 20
154.728427
 30
0.0
 40
1.0
100
AcDbArc
 50
180.0
 51
225.0
  0
LINE
  5
C727
330
C392
100
AcDbEntity
  8
5
  6
PHANTOM
100
AcDbLine
 10
315.7363279999998
 20
154.02132
 30
0.0
 11
316.7505419999999
 21
153.0071069999999
 31
0.0
  0
LINE
  5
C728
330
C392
100
AcDbEntity
  8
5
  6
PHANTOM
100
AcDbLine
 10
315.4434349999998
 20
140.6999999999999
 30
0.0
 11
316.043435
 21
140.6999999999999
 31
0.0
  0
ARC
  5
C729
330
C392
100
AcDbEntity
  8
5
  6
PHANTOM
100
AcDbCircle
 10
316.043435
 20
139.7
 30
0.0
 40
1.0
100
AcDbArc
 50
315.0
 51
90.0
  0
LINE
  5
C72A
330
C392
100
AcDbEntity
  8
5
  6
PHANTOM
100
AcDbLine
 10
316.7505419999999
 20
138.9928929999999
 30
0.0
 11
315.7363279999998
 21
137.9786799999999
 31
0.0
  0
ARC
  5
C72B
330
C392
100
AcDbEntity
  8
5
  6
PHANTOM
100
AcDbCircle
 10
316.4434349999999
 20
137.2715729999999
 30
0.0
 40
1.0
100
AcDbArc
 50
135.0
 51
180.0
  0
ARC
  5
C72C
330
C392
100
AcDbEntity
  8
5
  6
PHANTOM
100
AcDbCircle
 10
316.043435
 20
152.3
 30
0.0
 40
1.0
100
AcDbArc
 50
270.0
 51
45.0
  0
LINE
  5
C72D
330
C392
100
AcDbEntity
  8
5
  6
PHANTOM
100
AcDbLine
 10
316.043435
 20
151.3
 30
0.0
 11
315.4434349999998
 21
151.3
 31
0.0
  0
LINE
  5
C72E
330
C392
100
AcDbEntity
  8
4
  6
CENTER
100
AcDbLine
 10
335.4434349999999
 20
148.6294619999999
 30
0.0
 11
335.4434349999999
 21
143.3288939999999
 31
0.0
  0
ARC
  5
C72F
330
C392
100
AcDbEntity
  8
5
  6
PHANTOM
100
AcDbCircle
 10
335.1434349999998
 20
146.0
 30
0.0
 40
1.6
100
AcDbArc
 50
90.0
 51
270.0
  0
LINE
  5
C730
330
C392
100
AcDbEntity
  8
5
  6
PHANTOM
100
AcDbLine
 10
335.7434349999999
 20
147.5999999999999
 30
0.0
 11
335.1434349999998
 21
147.5999999999999
 31
0.0
  0
LINE
  5
C731
330
C392
100
AcDbEntity
  8
5
  6
PHANTOM
100
AcDbLine
 10
335.1434349999998
 20
144.4
 30
0.0
 11
335.7434349999999
 21
144.4
 31
0.0
  0
ARC
  5
C732
330
C392
100
AcDbEntity
  8
5
  6
PHANTOM
100
AcDbCircle
 10
335.7434349999999
 20
146.0
 30
0.0
 40
1.6
100
AcDbArc
 50
270.0
 51
90.0
  0
LINE
  5
C733
330
C392
100
AcDbEntity
  8
5
  6
PHANTOM
100
AcDbLine
 10
350.1434349999998
 20
144.4
 30
0.0
 11
350.743435
 21
144.4
 31
0.0
  0
LINE
  5
C734
330
C392
100
AcDbEntity
  8
5
  6
PHANTOM
100
AcDbLine
 10
350.743435
 20
147.5999999999999
 30
0.0
 11
350.1434349999998
 21
147.5999999999999
 31
0.0
  0
ARC
  5
C735
330
C392
100
AcDbEntity
  8
5
  6
PHANTOM
100
AcDbCircle
 10
350.1434349999998
 20
146.0
 30
0.0
 40
1.6
100
AcDbArc
 50
90.0
 51
270.0
  0
ARC
  5
C736
330
C392
100
AcDbEntity
  8
5
  6
PHANTOM
100
AcDbCircle
 10
350.743435
 20
146.0
 30
0.0
 40
1.6
100
AcDbArc
 50
270.0
 51
90.0
  0
LINE
  5
C737
330
C392
100
AcDbEntity
  8
4
  6
CENTER
100
AcDbLine
 10
395.4434349999999
 20
148.6294619999999
 30
0.0
 11
395.4434349999999
 21
143.3288939999999
 31
0.0
  0
LINE
  5
C738
330
C392
100
AcDbEntity
  8
5
  6
PHANTOM
100
AcDbLine
 10
395.1434349999999
 20
144.4
 30
0.0
 11
395.7434349999999
 21
144.4
 31
0.0
  0
LINE
  5
C739
330
C392
100
AcDbEntity
  8
5
  6
PHANTOM
100
AcDbLine
 10
395.7434349999999
 20
147.5999999999999
 30
0.0
 11
395.1434349999999
 21
147.5999999999999
 31
0.0
  0
ARC
  5
C73A
330
C392
100
AcDbEntity
  8
5
  6
PHANTOM
100
AcDbCircle
 10
395.1434349999999
 20
146.0
 30
0.0
 40
1.6
100
AcDbArc
 50
90.0
 51
270.0
  0
ARC
  5
C73B
330
C392
100
AcDbEntity
  8
5
  6
PHANTOM
100
AcDbCircle
 10
395.7434349999999
 20
146.0
 30
0.0
 40
1.6
100
AcDbArc
 50
270.0
 51
90.0
  0
LINE
  5
C73C
330
C392
100
AcDbEntity
  8
5
  6
PHANTOM
100
AcDbLine
 10
515.4434349999998
 20
137.2715729999999
 30
0.0
 11
515.4434349999998
 21
140.6999999999999
 31
0.0
  0
CIRCLE
  5
C73D
330
C392
100
AcDbEntity
  8
5
  6
PHANTOM
100
AcDbCircle
 10
495.4434349999998
 20
146.0
 30
0.0
 40
1.6
  0
LINE
  5
C73E
330
C392
100
AcDbEntity
  8
5
  6
PHANTOM
100
AcDbLine
 10
511.9434349999998
 20
140.6999999999999
 30
0.0
 11
511.9434349999998
 21
151.3
 31
0.0
  0
LINE
  5
C73F
330
C392
100
AcDbEntity
  8
5
  6
PHANTOM
100
AcDbLine
 10
515.4434349999998
 20
141.5999999999999
 30
0.0
 11
511.9434349999998
 21
141.5999999999999
 31
0.0
  0
LINE
  5
C740
330
C392
100
AcDbEntity
  8
5
  6
PHANTOM
100
AcDbLine
 10
514.0434349999998
 20
140.6999999999999
 30
0.0
 11
511.9434349999998
 21
140.6999999999999
 31
0.0
  0
LINE
  5
C741
330
C392
100
AcDbEntity
  8
5
  6
PHANTOM
100
AcDbLine
 10
515.4434349999998
 20
150.4
 30
0.0
 11
511.9434349999998
 21
150.4
 31
0.0
  0
LINE
  5
C742
330
C392
100
AcDbEntity
  8
5
  6
PHANTOM
100
AcDbLine
 10
514.0434349999998
 20
151.3
 30
0.0
 11
511.9434349999998
 21
151.3
 31
0.0
  0
LINE
  5
C743
330
C392
100
AcDbEntity
  8
5
  6
PHANTOM
100
AcDbLine
 10
515.4434349999998
 20
151.3
 30
0.0
 11
515.4434349999998
 21
154.728427
 31
0.0
  0
ENDSEC
  0
SECTION
  2
OBJECTS
  0
DICTIONARY
  5
C380
330
0
100
AcDbDictionary
281
     1
  3
ACAD_CIP_PREVIOUS_PRODUCT_INFO
350
C93A
  3
ACAD_COLOR
350
C91C
  3
ACAD_DETAILVIEWSTYLE
350
C935
  3
ACAD_GROUP
350
C381
  3
ACAD_LAYOUT
350
C38D
  3
ACAD_MATERIAL
350
C8EA
  3
ACAD_MLEADERSTYLE
350
C931
  3
ACAD_MLINESTYLE
350
C38A
  3
ACAD_PLOTSETTINGS
350
C38C
  3
ACAD_PLOTSTYLENAME
350
C8E8
  3
ACAD_SCALELIST
350
C91F
  3
ACAD_SECTIONVIEWSTYLE
350
C933
  3
ACAD_TABLESTYLE
350
C91D
  3
ACAD_VISUALSTYLE
350
C903
  3
ACDB_RECOMPOSE_DATA
350
C958
  3
AcDbVariableDictionary
350
C94B
  3
DWGPROPS
350
C959
  0
DICTIONARY
  5
C93B
330
C384
100
AcDbDictionary
280
     1
281
     1
  3
ADSK_XREC_LAYER_RECONCILED
360
C93C
  0
DICTIONARY
  5
C93D
330
C39A
100
AcDbDictionary
280
     1
281
     1
  3
ADSK_XREC_LAYER_RECONCILED
360
C93E
  0
DICTIONARY
  5
C93F
330
C39B
100
AcDbDictionary
280
     1
281
     1
  3
ADSK_XREC_LAYER_RECONCILED
360
C940
  0
DICTIONARY
  5
C941
330
C39C
100
AcDbDictionary
280
     1
281
     1
  3
ADSK_XREC_LAYER_RECONCILED
360
C942
  0
DICTIONARY
  5
C943
330
C39D
100
AcDbDictionary
280
     1
281
     1
  3
ADSK_XREC_LAYER_RECONCILED
360
C944
  0
DICTIONARY
  5
C945
330
C39E
100
AcDbDictionary
280
     1
281
     1
  3
ADSK_XREC_LAYER_RECONCILED
360
C946
  0
DICTIONARY
  5
C947
330
C39F
100
AcDbDictionary
280
     1
281
     1
  3
ADSK_XREC_LAYER_RECONCILED
360
C948
  0
DICTIONARY
  5
C949
330
C3A0
100
AcDbDictionary
280
     1
281
     1
  3
ADSK_XREC_LAYER_RECONCILED
360
C94A
  0
DICTIONARY
  5
C74C
330
C392
100
AcDbDictionary
281
     1
  3
ACAD_LAYOUTSELFREF
350
C8E4
  0
DICTIONARY
  5
C74A
330
C38E
100
AcDbDictionary
281
     1
  3
ACAD_LAYOUTSELFREF
350
C8E3
  0
XRECORD
  5
C93A
102
{ACAD_REACTORS
330
C380
102
}
330
C380
100
AcDbXrecord
280
     1
300
ACDLT
300
2014
300
ACDLT_F_S
  0
DICTIONARY
  5
C91C
102
{ACAD_REACTORS
330
C380
102
}
330
C380
100
AcDbDictionary
281
     1
  0
DICTIONARY
  5
C935
102
{ACAD_REACTORS
330
C380
102
}
330
C380
100
AcDbDictionary
281
     1
  3
Imperial24
350
C936
  0
DICTIONARY
  5
C381
102
{ACAD_REACTORS
330
C380
102
}
330
C380
100
AcDbDictionary
281
     1
  0
DICTIONARY
  5
C38D
102
{ACAD_REACTORS
330
C380
102
}
330
C380
100
AcDbDictionary
281
     1
  3
Model
350
C937
  3
レイアウト1
350
C938
  0
DICTIONARY
  5
C8EA
102
{ACAD_REACTORS
330
C380
102
}
330
C380
100
AcDbDictionary
281
     1
  3
ByBlock
350
C8F3
  3
ByLayer
350
C8EB
  3
Global
350
C8FB
  0
DICTIONARY
  5
C931
102
{ACAD_REACTORS
330
C380
102
}
330
C380
100
AcDbDictionary
281
     1
  3
Standard
350
C932
  0
DICTIONARY
  5
C38A
102
{ACAD_REACTORS
330
C380
102
}
330
C380
100
AcDbDictionary
281
     1
  3
STANDARD
350
C38B
  0
DICTIONARY
  5
C38C
102
{ACAD_REACTORS
330
C380
102
}
330
C380
100
AcDbDictionary
281
     1
  0
ACDBDICTIONARYWDFLT
  5
C8E8
102
{ACAD_REACTORS
330
C380
102
}
330
C380
100
AcDbDictionary
281
     1
  3
Normal
350
C8E9
100
AcDbDictionaryWithDefault
340
C8E9
  0
DICTIONARY
  5
C91F
102
{ACAD_REACTORS
330
C380
102
}
330
C380
100
AcDbDictionary
281
     1
  3
A0
350
C920
  3
A1
350
C921
  3
A2
350
C922
  3
A3
350
C923
  3
A4
350
C924
  3
A5
350
C925
  3
A6
350
C926
  3
A7
350
C927
  3
A8
350
C928
  3
A9
350
C929
  3
B0
350
C92A
  3
B1
350
C92B
  3
B2
350
C92C
  3
B3
350
C92D
  3
B4
350
C92E
  3
B5
350
C92F
  3
B6
350
C930
  0
DICTIONARY
  5
C933
102
{ACAD_REACTORS
330
C380
102
}
330
C380
100
AcDbDictionary
281
     1
  3
Imperial24
350
C934
  0
DICTIONARY
  5
C91D
102
{ACAD_REACTORS
330
C380
102
}
330
C380
100
AcDbDictionary
281
     1
  3
Standard
350
C91E
  0
DICTIONARY
  5
C903
102
{ACAD_REACTORS
330
C380
102
}
330
C380
100
AcDbDictionary
281
     1
  3
2dWireframe
350
C909
  3
Basic
350
C908
  3
Brighten
350
C90F
  3
ColorChange
350
C913
  3
Conceptual
350
C90C
  3
Dim
350
C90E
  3
EdgeColorOff
350
C91B
  3
Facepattern
350
C912
  3
Flat
350
C904
  3
FlatWithEdges
350
C905
  3
Gouraud
350
C906
  3
GouraudWithEdges
350
C907
  3
Hidden
350
C90B
  3
JitterOff
350
C919
  3
Linepattern
350
C911
  3
OverhangOff
350
C91A
  3
Realistic
350
C90D
  3
Shaded
350
C918
  3
Shaded with edges
350
C917
  3
Shades of Gray
350
C914
  3
Sketchy
350
C915
  3
Thicken
350
C910
  3
Wireframe
350
C90A
  3
X-Ray
350
C916
  0
XRECORD
  5
C958
102
{ACAD_REACTORS
330
C380
102
}
330
C380
100
AcDbXrecord
280
     1
 90
        1
330
C91E
  0
DICTIONARY
  5
C94B
102
{ACAD_REACTORS
330
C380
102
}
330
C380
100
AcDbDictionary
281
     1
  3
CANNOSCALE
350
C950
  3
CMLEADERSTYLE
350
C94D
  3
CTABLESTYLE
350
C94C
  3
CVIEWDETAILSTYLE
350
C94E
  3
CVIEWSECTIONSTYLE
350
C94F
  3
DIMASSOC
350
C953
  3
INDEXCTL
350
C952
  3
SORTENTS
350
C951
  3
XCLIPFRAME
350
C954
  0
XRECORD
  5
C959
102
{ACAD_REACTORS
330
C380
102
}
330
C380
100
AcDbXrecord
280
     1
  1
DWGPROPS COOKIE
  2

  3

  4

  6

  7

  8
Yoshitsune
  9

300
=
301
=
302
=
303
=
304
=
305
=
306
=
307
=
308
=
309
=
 40
0.0057374305555556
 41
2451233.435842014
 42
2457192.662051447
  1

 90
        0
  0
XRECORD
  5
C93C
102
{ACAD_REACTORS
330
C93B
102
}
330
C93B
100
AcDbXrecord
280
     1
290
     1
  0
XRECORD
  5
C93E
102
{ACAD_REACTORS
330
C93D
102
}
330
C93D
100
AcDbXrecord
280
     1
290
     1
  0
XRECORD
  5
C940
102
{ACAD_REACTORS
330
C93F
102
}
330
C93F
100
AcDbXrecord
280
     1
290
     1
  0
XRECORD
  5
C942
102
{ACAD_REACTORS
330
C941
102
}
330
C941
100
AcDbXrecord
280
     1
290
     1
  0
XRECORD
  5
C944
102
{ACAD_REACTORS
330
C943
102
}
330
C943
100
AcDbXrecord
280
     1
290
     1
  0
XRECORD
  5
C946
102
{ACAD_REACTORS
330
C945
102
}
330
C945
100
AcDbXrecord
280
     1
290
     1
  0
XRECORD
  5
C948
102
{ACAD_REACTORS
330
C947
102
}
330
C947
100
AcDbXrecord
280
     1
290
     1
  0
XRECORD
  5
C94A
102
{ACAD_REACTORS
330
C949
102
}
330
C949
100
AcDbXrecord
280
     1
290
     1
  0
XRECORD
  5
C8E4
102
{ACAD_REACTORS
330
C74C
102
}
330
C74C
100
AcDbXrecord
280
     1
340
C392
  0
XRECORD
  5
C8E3
102
{ACAD_REACTORS
330
C74A
102
}
330
C74A
100
AcDbXrecord
280
     1
340
C38E
  0
ACDBDETAILVIEWSTYLE
  5
C936
102
{ACAD_XDICTIONARY
360
C991
102
}
102
{ACAD_REACTORS
330
C935
102
}
330
C935
100
AcDbModelDocViewStyle
 70
     0
  3
Imperial24
290
     0
100
AcDbDetailViewStyle
 70
     0
 71
     0
 90
        3
 71
     1
340
C385
 40
0.24
340
0
 40
0.24
300

 40
0.36
280
     3
 71
     2
340
C389
 90
       25
 71
     3
340
C385
 40
0.24
 90
        1
 40
0.75
 90
        1
300
%<\AcVar ViewType \f "%tc1">% %<\AcVar ViewDetailId>%\PSCALE %<\AcVar ViewScale \f "%sn">%
 71
     4
340
C389
 90
       25
340
C389
 90
       25
280
     0
  0
LAYOUT
  5
C937
102
{ACAD_XDICTIONARY
360
C993
102
}
102
{ACAD_REACTORS
330
C38D
102
}
330
C38D
100
AcDbPlotSettings
  1

  2
Canon LBP9100C
  4

  6

 40
0.0
 41
0.0
 42
0.0
 43
0.0
 44
0.0
 45
0.0
 46
0.0
 47
0.0
 48
0.0
 49
0.0
140
0.0
141
0.0
142
1.0
143
1.0
 70
  1712
 72
     0
 73
     0
 74
     0
  7

 75
     0
147
1.0
148
0.0
149
0.0
100
AcDbLayout
  1
Model
 70
     1
 71
     0
 10
0.0
 20
0.0
 11
12.0
 21
9.0
 12
0.0
 22
0.0
 32
0.0
 14
0.0
 24
0.0
 34
0.0
 15
0.0
 25
0.0
 35
0.0
146
0.0
 13
0.0
 23
0.0
 33
0.0
 16
1.0
 26
0.0
 36
0.0
 17
0.0
 27
1.0
 37
0.0
 76
     0
330
C392
331
C8E2
  0
LAYOUT
  5
C938
102
{ACAD_XDICTIONARY
360
C995
102
}
102
{ACAD_REACTORS
330
C38D
102
}
330
C38D
100
AcDbPlotSettings
  1

  2
Canon LBP9100C
  4

  6

 40
0.0
 41
0.0
 42
0.0
 43
0.0
 44
0.0
 45
0.0
 46
0.0
 47
0.0
 48
0.0
 49
0.0
140
0.0
141
0.0
142
1.0
143
1.0
 70
   688
 72
     0
 73
     0
 74
     5
  7

 75
    16
147
1.0
148
0.0
149
0.0
100
AcDbLayout
  1
レイアウト1
 70
     0
 71
     1
 10
0.0
 20
0.0
 11
420.0
 21
297.0
 12
0.0
 22
0.0
 32
0.0
 14
1.000000000000000E+20
 24
1.000000000000000E+20
 34
1.000000000000000E+20
 15
-1.000000000000000E+20
 25
-1.000000000000000E+20
 35
-1.000000000000000E+20
146
0.0
 13
0.0
 23
0.0
 33
0.0
 16
1.0
 26
0.0
 36
0.0
 17
0.0
 27
1.0
 37
0.0
 76
     0
330
C38E
  0
MATERIAL
  5
C8F3
102
{ACAD_XDICTIONARY
360
C8F4
102
}
102
{ACAD_REACTORS
330
C8EA
102
}
330
C8EA
100
AcDbMaterial
  1
ByBlock
 72
     0
 43
0.0208333333333333
 43
0.0
 43
0.0
 43
0.0
 43
0.0
 43
0.0208333333333333
 43
0.0
 43
0.0
 43
0.0
 43
0.0
 43
1.0
 43
0.0
 43
0.0
 43
0.0
 43
0.0
 43
1.0
 77
     0
 47
0.0208333333333333
 47
0.0
 47
0.0
 47
0.0
 47
0.0
 47
0.0208333333333333
 47
0.0
 47
0.0
 47
0.0
 47
0.0
 47
1.0
 47
0.0
 47
0.0
 47
0.0
 47
0.0
 47
1.0
171
     0
 49
0.0208333333333333
 49
0.0
 49
0.0
 49
0.0
 49
0.0
 49
0.0208333333333333
 49
0.0
 49
0.0
 49
0.0
 49
0.0
 49
1.0
 49
0.0
 49
0.0
 49
0.0
 49
0.0
 49
1.0
175
     0
142
0.0208333333333333
142
0.0
142
0.0
142
0.0
142
0.0
142
0.0208333333333333
142
0.0
142
0.0
142
0.0
142
0.0
142
1.0
142
0.0
142
0.0
142
0.0
142
0.0
142
1.0
179
     0
144
0.0208333333333333
144
0.0
144
0.0
144
0.0
144
0.0
144
0.0208333333333333
144
0.0
144
0.0
144
0.0
144
0.0
144
1.0
144
0.0
144
0.0
144
0.0
144
0.0
144
1.0
147
0.0208333333333333
147
0.0
147
0.0
147
0.0
147
0.0
147
0.0208333333333333
147
0.0
147
0.0
147
0.0
147
0.0
147
1.0
147
0.0
147
0.0
147
0.0
147
0.0
147
1.0
  0
MATERIAL
  5
C8EB
102
{ACAD_XDICTIONARY
360
C8EC
102
}
102
{ACAD_REACTORS
330
C8EA
102
}
330
C8EA
100
AcDbMaterial
  1
ByLayer
 72
     0
 43
0.0208333333333333
 43
0.0
 43
0.0
 43
0.0
 43
0.0
 43
0.0208333333333333
 43
0.0
 43
0.0
 43
0.0
 43
0.0
 43
1.0
 43
0.0
 43
0.0
 43
0.0
 43
0.0
 43
1.0
 77
     0
 47
0.0208333333333333
 47
0.0
 47
0.0
 47
0.0
 47
0.0
 47
0.0208333333333333
 47
0.0
 47
0.0
 47
0.0
 47
0.0
 47
1.0
 47
0.0
 47
0.0
 47
0.0
 47
0.0
 47
1.0
171
     0
 49
0.0208333333333333
 49
0.0
 49
0.0
 49
0.0
 49
0.0
 49
0.0208333333333333
 49
0.0
 49
0.0
 49
0.0
 49
0.0
 49
1.0
 49
0.0
 49
0.0
 49
0.0
 49
0.0
 49
1.0
175
     0
142
0.0208333333333333
142
0.0
142
0.0
142
0.0
142
0.0
142
0.0208333333333333
142
0.0
142
0.0
142
0.0
142
0.0
142
1.0
142
0.0
142
0.0
142
0.0
142
0.0
142
1.0
179
     0
144
0.0208333333333333
144
0.0
144
0.0
144
0.0
144
0.0
144
0.0208333333333333
144
0.0
144
0.0
144
0.0
144
0.0
144
1.0
144
0.0
144
0.0
144
0.0
144
0.0
144
1.0
147
0.0208333333333333
147
0.0
147
0.0
147
0.0
147
0.0
147
0.0208333333333333
147
0.0
147
0.0
147
0.0
147
0.0
147
1.0
147
0.0
147
0.0
147
0.0
147
0.0
147
1.0
  0
MATERIAL
  5
C8FB
102
{ACAD_XDICTIONARY
360
C8FC
102
}
102
{ACAD_REACTORS
330
C8EA
102
}
330
C8EA
100
AcDbMaterial
  1
Global
 72
     0
 43
0.0208333333333333
 43
0.0
 43
0.0
 43
0.0
 43
0.0
 43
0.0208333333333333
 43
0.0
 43
0.0
 43
0.0
 43
0.0
 43
1.0
 43
0.0
 43
0.0
 43
0.0
 43
0.0
 43
1.0
 77
     0
 47
0.0208333333333333
 47
0.0
 47
0.0
 47
0.0
 47
0.0
 47
0.0208333333333333
 47
0.0
 47
0.0
 47
0.0
 47
0.0
 47
1.0
 47
0.0
 47
0.0
 47
0.0
 47
0.0
 47
1.0
171
     0
 49
0.0208333333333333
 49
0.0
 49
0.0
 49
0.0
 49
0.0
 49
0.0208333333333333
 49
0.0
 49
0.0
 49
0.0
 49
0.0
 49
1.0
 49
0.0
 49
0.0
 49
0.0
 49
0.0
 49
1.0
175
     0
142
0.0208333333333333
142
0.0
142
0.0
142
0.0
142
0.0
142
0.0208333333333333
142
0.0
142
0.0
142
0.0
142
0.0
142
1.0
142
0.0
142
0.0
142
0.0
142
0.0
142
1.0
179
     0
144
0.0208333333333333
144
0.0
144
0.0
144
0.0
144
0.0
144
0.0208333333333333
144
0.0
144
0.0
144
0.0
144
0.0
144
1.0
144
0.0
144
0.0
144
0.0
144
0.0
144
1.0
147
0.0208333333333333
147
0.0
147
0.0
147
0.0
147
0.0
147
0.0208333333333333
147
0.0
147
0.0
147
0.0
147
0.0
147
1.0
147
0.0
147
0.0
147
0.0
147
0.0
147
1.0
  0
MLEADERSTYLE
  5
C932
102
{ACAD_REACTORS
330
C931
102
}
330
C931
100
AcDbMLeaderStyle
170
     2
171
     1
172
     0
 90
        2
 40
0.0
 41
0.0
173
     1
 91
-1056964608
340
C387
 92
       -2
290
     1
 42
0.09
291
     1
 43
0.36
  3
Standard
 44
0.18
300

342
C385
174
     1
178
     6
175
     1
176
     0
 93
-1056964608
 45
0.18
292
     0
297
     0
 46
0.18
 94
-1056964608
 47
1.0
 49
1.0
140
1.0
293
     1
141
0.0
294
     1
177
     0
142
1.0
295
     0
296
     0
143
0.125
1001
ACAD_MLEADERVER
1070
     2
  0
MLINESTYLE
  5
C38B
102
{ACAD_REACTORS
330
C38A
102
}
330
C38A
100
AcDbMlineStyle
  2
STANDARD
 70
     0
  3

 62
   256
 51
90.0
 52
90.0
 71
     2
 49
0.5
 62
   256
  6
BYLAYER
 49
-0.5
 62
   256
  6
BYLAYER
  0
ACDBPLACEHOLDER
  5
C8E9
102
{ACAD_REACTORS
330
C8E8
102
}
330
C8E8
  0
SCALE
  5
C920
102
{ACAD_REACTORS
330
C91F
102
}
330
C91F
100
AcDbScale
 70
     0
300
1:1
140
1.0
141
1.0
290
     1
  0
SCALE
  5
C921
102
{ACAD_REACTORS
330
C91F
102
}
330
C91F
100
AcDbScale
 70
     0
300
1/128" = 1'-0"
140
0.0078125
141
12.0
290
     0
  0
SCALE
  5
C922
102
{ACAD_REACTORS
330
C91F
102
}
330
C91F
100
AcDbScale
 70
     0
300
1/64" = 1'-0"
140
0.015625
141
12.0
290
     0
  0
SCALE
  5
C923
102
{ACAD_REACTORS
330
C91F
102
}
330
C91F
100
AcDbScale
 70
     0
300
1/32" = 1'-0"
140
0.03125
141
12.0
290
     0
  0
SCALE
  5
C924
102
{ACAD_REACTORS
330
C91F
102
}
330
C91F
100
AcDbScale
 70
     0
300
1/16" = 1'-0"
140
0.0625
141
12.0
290
     0
  0
SCALE
  5
C925
102
{ACAD_REACTORS
330
C91F
102
}
330
C91F
100
AcDbScale
 70
     0
300
3/32" = 1'-0"
140
0.09375
141
12.0
290
     0
  0
SCALE
  5
C926
102
{ACAD_REACTORS
330
C91F
102
}
330
C91F
100
AcDbScale
 70
     0
300
1/8" = 1'-0"
140
0.125
141
12.0
290
     0
  0
SCALE
  5
C927
102
{ACAD_REACTORS
330
C91F
102
}
330
C91F
100
AcDbScale
 70
     0
300
3/16" = 1'-0"
140
0.1875
141
12.0
290
     0
  0
SCALE
  5
C928
102
{ACAD_REACTORS
330
C91F
102
}
330
C91F
100
AcDbScale
 70
     0
300
1/4" = 1'-0"
140
0.25
141
12.0
290
     0
  0
SCALE
  5
C929
102
{ACAD_REACTORS
330
C91F
102
}
330
C91F
100
AcDbScale
 70
     0
300
3/8" = 1'-0"
140
0.375
141
12.0
290
     0
  0
SCALE
  5
C92A
102
{ACAD_REACTORS
330
C91F
102
}
330
C91F
100
AcDbScale
 70
     0
300
1/2" = 1'-0"
140
0.5
141
12.0
290
     0
  0
SCALE
  5
C92B
102
{ACAD_REACTORS
330
C91F
102
}
330
C91F
100
AcDbScale
 70
     0
300
3/4" = 1'-0"
140
0.75
141
12.0
290
     0
  0
SCALE
  5
C92C
102
{ACAD_REACTORS
330
C91F
102
}
330
C91F
100
AcDbScale
 70
     0
300
1" = 1'-0"
140
1.0
141
12.0
290
     0
  0
SCALE
  5
C92D
102
{ACAD_REACTORS
330
C91F
102
}
330
C91F
100
AcDbScale
 70
     0
300
1-1/2" = 1'-0"
140
1.5
141
12.0
290
     0
  0
SCALE
  5
C92E
102
{ACAD_REACTORS
330
C91F
102
}
330
C91F
100
AcDbScale
 70
     0
300
3" = 1'-0"
140
3.0
141
12.0
290
     0
  0
SCALE
  5
C92F
102
{ACAD_REACTORS
330
C91F
102
}
330
C91F
100
AcDbScale
 70
     0
300
6" = 1'-0"
140
6.0
141
12.0
290
     0
  0
SCALE
  5
C930
102
{ACAD_REACTORS
330
C91F
102
}
330
C91F
100
AcDbScale
 70
     0
300
1'-0" = 1'-0"
140
12.0
141
12.0
290
     0
  0
ACDBSECTIONVIEWSTYLE
  5
C934
102
{ACAD_XDICTIONARY
360
C98F
102
}
102
{ACAD_REACTORS
330
C933
102
}
330
C933
100
AcDbModelDocViewStyle
 70
     0
  3
Imperial24
290
     0
100
AcDbSectionViewStyle
 70
     0
 71
     0
 90
       78
 71
     1
340
C385
 40
0.24
340
0
340
0
 40
0.24
300
I, O, Q, S, X, Z
 40
0.48
 90
        3
 40
0.18
 90
        1
 71
     2
340
C389
 90
       25
340
C389
 90
       50
 40
0.24
 40
0.0
 40
0.24
 71
     3
340
C385
 40
0.24
 90
        1
 40
0.75
 90
        1
300
%<\AcVar ViewType \f "%tc1">% %<\AcVar ViewSectionStartId>%-%<\AcVar ViewSectionEndId>%\PSCALE %<\AcVar ViewScale \f "%sn">%
 71
     4
300
ANSI31
 40
1.0
 90
        0
290
     0
290
     0
 90
        6
 40
0.0
 40
1.570796326794896
 40
0.2617993877991494
 40
1.308996938995747
 40
-0.2617993877991494
 40
1.832595714594046
  0
TABLESTYLE
  5
C91E
102
{ACAD_XDICTIONARY
360
C956
102
}
102
{ACAD_REACTORS
330
C91D
102
}
330
C91D
100
AcDbTableStyle
  3
Standard
 70
     0
 71
     0
 40
0.06
 41
0.06
280
     0
281
     0
  7
STANDARD
140
0.18
170
     2
 62
     0
 63
     7
283
     0
274
    -2
284
     1
 64
     0
275
    -2
285
     1
 65
     0
276
    -2
286
     1
 66
     0
277
    -2
287
     1
 67
     0
278
    -2
288
     1
 68
     0
279
    -2
289
     1
 69
     0
  7
STANDARD
140
0.25
170
     5
 62
     0
 63
     7
283
     0
274
    -2
284
     1
 64
     0
275
    -2
285
     1
 65
     0
276
    -2
286
     1
 66
     0
277
    -2
287
     1
 67
     0
278
    -2
288
     1
 68
     0
279
    -2
289
     1
 69
     0
  7
STANDARD
140
0.18
170
     5
 62
     0
 63
     7
283
     0
274
    -2
284
     1
 64
     0
275
    -2
285
     1
 65
     0
276
    -2
286
     1
 66
     0
277
    -2
287
     1
 67
     0
278
    -2
288
     1
 68
     0
279
    -2
289
     1
 69
     0
  0
VISUALSTYLE
  5
C909
102
{ACAD_XDICTIONARY
360
C967
102
}
102
{ACAD_REACTORS
330
C903
102
}
330
C903
100
AcDbVisualStyle
  2
2dWireframe
 70
     4
 71
     0
 72
     2
 73
     0
 90
        0
 40
-0.6
 41
-30.0
 62
     5
 63
     7
 74
     1
 91
        4
 64
     7
 65
   257
 75
     1
175
     1
 42
1.0
 92
        0
 66
   257
 43
1.0
 76
     1
 77
     6
 78
     2
 67
     7
 79
     5
170
     0
171
     0
290
     0
174
     0
 93
        1
 44
0.0
173
     0
291
     0
 45
0.0
1001
ACAD
1000
AcDbSavedByObjectVersion
1070
     0
  0
VISUALSTYLE
  5
C908
102
{ACAD_XDICTIONARY
360
C965
102
}
102
{ACAD_REACTORS
330
C903
102
}
330
C903
100
AcDbVisualStyle
  2
Basic
 70
     7
 71
     1
 72
     0
 73
     1
 90
        0
 40
-0.6
 41
-30.0
 62
     5
 63
     7
 74
     0
 91
        4
 64
     7
 65
   257
 75
     1
175
     1
 42
1.0
 92
        8
 66
     7
 43
1.0
 76
     1
 77
     6
 78
     2
 67
     7
 79
     5
170
     0
171
     0
290
     0
174
     0
 93
        1
 44
0.0
173
     0
291
     1
 45
0.0
1001
ACAD
1000
AcDbSavedByObjectVersion
1070
     0
  0
VISUALSTYLE
  5
C90F
102
{ACAD_XDICTIONARY
360
C973
102
}
102
{ACAD_REACTORS
330
C903
102
}
330
C903
100
AcDbVisualStyle
  2
Brighten
 70
    12
 71
     2
 72
     2
 73
     0
 90
        0
 40
-0.6
 41
-30.0
 62
     5
 63
     7
 74
     1
 91
        4
 64
     7
 65
   257
 75
     1
175
     1
 42
1.0
 92
        8
 66
     7
 43
1.0
 76
     1
 77
     6
 78
     2
 67
     7
 79
     5
170
     0
171
     0
290
     0
174
     0
 93
        1
 44
50.0
173
     0
291
     1
 45
0.0
1001
ACAD
1000
AcDbSavedByObjectVersion
1070
     0
  0
VISUALSTYLE
  5
C913
102
{ACAD_XDICTIONARY
360
C97B
102
}
102
{ACAD_REACTORS
330
C903
102
}
330
C903
100
AcDbVisualStyle
  2
ColorChange
 70
    16
 71
     2
 72
     2
 73
     3
 90
        0
 40
-0.6
 41
-30.0
 62
     5
 63
     8
 74
     1
 91
        4
 64
     7
 65
   257
 75
     1
175
     1
 42
1.0
 92
        8
 66
     8
 43
1.0
 76
     1
 77
     6
 78
     2
 67
     7
 79
     5
170
     0
171
     0
290
     0
174
     0
 93
        1
 44
0.0
173
     0
291
     1
 45
0.0
1001
ACAD
1000
AcDbSavedByObjectVersion
1070
     0
  0
VISUALSTYLE
  5
C90C
102
{ACAD_XDICTIONARY
360
C96D
102
}
102
{ACAD_REACTORS
330
C903
102
}
330
C903
100
AcDbVisualStyle
  2
Conceptual
 70
     9
 71
     3
 72
     2
 73
     0
 90
        0
 40
-0.6
 41
-30.0
 62
     5
 63
     7
 74
     2
 91
        2
 64
     7
 65
   257
 75
     1
175
     1
 42
179.0
 92
        8
 66
     7
 43
1.0
 76
     1
 77
     6
 78
     2
 67
     7
 79
     3
170
     0
171
     0
290
     0
174
     0
 93
        1
 44
0.0
173
     0
291
     0
 45
0.0
1001
ACAD
1000
AcDbSavedByObjectVersion
1070
     0
  0
VISUALSTYLE
  5
C90E
102
{ACAD_XDICTIONARY
360
C971
102
}
102
{ACAD_REACTORS
330
C903
102
}
330
C903
100
AcDbVisualStyle
  2
Dim
 70
    11
 71
     2
 72
     2
 73
     0
 90
        0
 40
-0.6
 41
-30.0
 62
     5
 63
     7
 74
     1
 91
        4
 64
     7
 65
   257
 75
     1
175
     1
 42
1.0
 92
        8
 66
     7
 43
1.0
 76
     1
 77
     6
 78
     2
 67
     7
 79
     5
170
     0
171
     0
290
     0
174
     0
 93
        1
 44
-50.0
173
     0
291
     1
 45
0.0
1001
ACAD
1000
AcDbSavedByObjectVersion
1070
     0
  0
VISUALSTYLE
  5
C91B
102
{ACAD_XDICTIONARY
360
C98B
102
}
102
{ACAD_REACTORS
330
C903
102
}
330
C903
100
AcDbVisualStyle
  2
EdgeColorOff
 70
    22
 71
     2
 72
     2
 73
     0
 90
        0
 40
-0.6
 41
-30.0
 62
     5
 63
     7
 74
     1
 91
        4
 64
     7
 65
   257
 75
     1
175
     1
 42
1.0
 92
        8
 66
     7
 43
1.0
 76
     1
 77
     6
 78
     2
 67
     7
 79
     5
170
     0
171
     0
290
     0
174
     0
 93
        1
 44
0.0
173
     0
291
     1
 45
0.0
1001
ACAD
1000
AcDbSavedByObjectVersion
1070
     0
  0
VISUALSTYLE
  5
C912
102
{ACAD_XDICTIONARY
360
C979
102
}
102
{ACAD_REACTORS
330
C903
102
}
330
C903
100
AcDbVisualStyle
  2
Facepattern
 70
    15
 71
     2
 72
     2
 73
     0
 90
        0
 40
-0.6
 41
-30.0
 62
     5
 63
     7
 74
     1
 91
        4
 64
     7
 65
   257
 75
     1
175
     1
 42
1.0
 92
        8
 66
     7
 43
1.0
 76
     1
 77
     6
 78
     2
 67
     7
 79
     5
170
     0
171
     0
290
     0
174
     0
 93
        1
 44
0.0
173
     0
291
     1
 45
0.0
1001
ACAD
1000
AcDbSavedByObjectVersion
1070
     0
  0
VISUALSTYLE
  5
C904
102
{ACAD_XDICTIONARY
360
C95D
102
}
102
{ACAD_REACTORS
330
C903
102
}
330
C903
100
AcDbVisualStyle
  2
Flat
 70
     0
 71
     2
 72
     1
 73
     1
 90
        2
 40
-0.6
 41
30.0
 62
     5
 63
     7
 74
     0
 91
        0
 64
     7
 65
   257
 75
     1
175
     1
 42
1.0
 92
        8
 66
     7
 43
1.0
 76
     1
 77
     6
 78
     2
 67
     7
 79
     5
170
     0
171
     0
290
     0
174
     0
 93
       13
 44
0.0
173
     0
291
     1
 45
0.0
1001
ACAD
1000
AcDbSavedByObjectVersion
1070
     0
  0
VISUALSTYLE
  5
C905
102
{ACAD_XDICTIONARY
360
C95F
102
}
102
{ACAD_REACTORS
330
C903
102
}
330
C903
100
AcDbVisualStyle
  2
FlatWithEdges
 70
     1
 71
     2
 72
     1
 73
     1
 90
        2
 40
-0.6
 41
30.0
 62
     5
 63
     7
 74
     1
 91
        0
 64
     7
 65
   257
 75
     1
175
     1
 42
1.0
 92
        0
 66
   257
 43
1.0
 76
     1
 77
     6
 78
     2
 67
     7
 79
     5
170
     0
171
     0
290
     0
174
     0
 93
       13
 44
0.0
173
     0
291
     1
 45
0.0
1001
ACAD
1000
AcDbSavedByObjectVersion
1070
     0
  0
VISUALSTYLE
  5
C906
102
{ACAD_XDICTIONARY
360
C961
102
}
102
{ACAD_REACTORS
330
C903
102
}
330
C903
100
AcDbVisualStyle
  2
Gouraud
 70
     2
 71
     2
 72
     2
 73
     1
 90
        2
 40
-0.6
 41
30.0
 62
     5
 63
     7
 74
     0
 91
        0
 64
     7
 65
   257
 75
     1
175
     1
 42
1.0
 92
        0
 66
     7
 43
1.0
 76
     1
 77
     6
 78
     2
 67
     7
 79
     5
170
     0
171
     0
290
     0
174
     0
 93
       13
 44
0.0
173
     0
291
     1
 45
0.0
1001
ACAD
1000
AcDbSavedByObjectVersion
1070
     0
  0
VISUALSTYLE
  5
C907
102
{ACAD_XDICTIONARY
360
C963
102
}
102
{ACAD_REACTORS
330
C903
102
}
330
C903
100
AcDbVisualStyle
  2
GouraudWithEdges
 70
     3
 71
     2
 72
     2
 73
     1
 90
        2
 40
-0.6
 41
30.0
 62
     5
 63
     7
 74
     1
 91
        0
 64
     7
 65
   257
 75
     1
175
     1
 42
1.0
 92
        0
 66
   257
 43
1.0
 76
     1
 77
     6
 78
     2
 67
     7
 79
     5
170
     0
171
     0
290
     0
174
     0
 93
       13
 44
0.0
173
     0
291
     1
 45
0.0
1001
ACAD
1000
AcDbSavedByObjectVersion
1070
     0
  0
VISUALSTYLE
  5
C90B
102
{ACAD_XDICTIONARY
360
C96B
102
}
102
{ACAD_REACTORS
330
C903
102
}
330
C903
100
AcDbVisualStyle
  2
Hidden
 70
     6
 71
     1
 72
     2
 73
     2
 90
        0
 40
-0.6
 41
-30.0
 62
     5
 63
     7
 74
     2
 91
        2
 64
     7
 65
   257
 75
     2
175
     1
 42
40.0
 92
        0
 66
   257
 43
1.0
 76
     1
 77
     6
 78
     2
 67
     7
 79
     3
170
     0
171
     0
290
     0
174
     0
 93
        1
 44
0.0
173
     0
291
     0
 45
0.0
1001
ACAD
1000
AcDbSavedByObjectVersion
1070
     0
  0
VISUALSTYLE
  5
C919
102
{ACAD_XDICTIONARY
360
C987
102
}
102
{ACAD_REACTORS
330
C903
102
}
330
C903
100
AcDbVisualStyle
  2
JitterOff
 70
    20
 71
     2
 72
     2
 73
     0
 90
        0
 40
-0.6
 41
-30.0
 62
     5
 63
     7
 74
     1
 91
        4
 64
     7
 65
   257
 75
     1
175
     1
 42
1.0
 92
       10
 66
     7
 43
1.0
 76
     1
 77
     6
 78
     2
 67
     7
 79
     5
170
     0
171
     0
290
     0
174
     0
 93
        1
 44
0.0
173
     0
291
     1
 45
0.0
1001
ACAD
1000
AcDbSavedByObjectVersion
1070
     0
  0
VISUALSTYLE
  5
C911
102
{ACAD_XDICTIONARY
360
C977
102
}
102
{ACAD_REACTORS
330
C903
102
}
330
C903
100
AcDbVisualStyle
  2
Linepattern
 70
    14
 71
     2
 72
     2
 73
     0
 90
        0
 40
-0.6
 41
-30.0
 62
     5
 63
     7
 74
     1
 91
        4
 64
     7
 65
   257
 75
     7
175
     7
 42
1.0
 92
        8
 66
     7
 43
1.0
 76
     1
 77
     6
 78
     2
 67
     7
 79
     5
170
     0
171
     0
290
     0
174
     0
 93
        1
 44
0.0
173
     0
291
     1
 45
0.0
1001
ACAD
1000
AcDbSavedByObjectVersion
1070
     0
  0
VISUALSTYLE
  5
C91A
102
{ACAD_XDICTIONARY
360
C989
102
}
102
{ACAD_REACTORS
330
C903
102
}
330
C903
100
AcDbVisualStyle
  2
OverhangOff
 70
    21
 71
     2
 72
     2
 73
     0
 90
        0
 40
-0.6
 41
-30.0
 62
     5
 63
     7
 74
     1
 91
        4
 64
     7
 65
   257
 75
     1
175
     1
 42
1.0
 92
        9
 66
     7
 43
1.0
 76
     1
 77
     6
 78
     2
 67
     7
 79
     5
170
     0
171
     0
290
     0
174
     0
 93
        1
 44
0.0
173
     0
291
     1
 45
0.0
1001
ACAD
1000
AcDbSavedByObjectVersion
1070
     0
  0
VISUALSTYLE
  5
C90D
102
{ACAD_XDICTIONARY
360
C96F
102
}
102
{ACAD_REACTORS
330
C903
102
}
330
C903
100
AcDbVisualStyle
  2
Realistic
 70
     8
 71
     2
 72
     3
 73
     0
 90
        2
 40
-0.6
 41
30.0
 62
     5
 63
     7
 74
     0
 91
        0
 64
     7
 65
   257
 75
     1
175
     1
 42
1.0
 92
        8
 66
   257
 43
1.0
 76
     1
 77
     6
 78
     2
 67
     7
 79
     3
170
     0
171
     0
290
     0
174
     0
 93
       13
 44
0.0
173
     0
291
     0
 45
0.0
1001
ACAD
1000
AcDbSavedByObjectVersion
1070
     0
  0
VISUALSTYLE
  5
C918
102
{ACAD_XDICTIONARY
360
C985
102
}
102
{ACAD_REACTORS
330
C903
102
}
330
C903
100
AcDbVisualStyle
  2
Shaded
 70
    27
 71
     2
 72
     2
 73
     1
 90
        2
 40
-0.6
 41
30.0
 62
     5
 63
     7
 74
     0
 91
        4
 64
     7
 65
   257
 75
     1
175
     1
 42
1.0
 92
        8
 66
   257
 43
1.0
 76
     1
 77
     6
 78
     2
 67
     8
 79
     3
170
     0
171
     0
290
     0
174
     0
 93
        5
 44
0.0
173
     0
291
     0
 45
0.0
1001
ACAD
1000
AcDbSavedByObjectVersion
1070
     0
  0
VISUALSTYLE
  5
C917
102
{ACAD_XDICTIONARY
360
C983
102
}
102
{ACAD_REACTORS
330
C903
102
}
330
C903
100
AcDbVisualStyle
  2
Shaded with edges
 70
    26
 71
     2
 72
     2
 73
     1
 90
        2
 40
-0.6
 41
30.0
 62
     5
 63
     7
 74
     1
 91
       10
 64
     7
 65
   257
 75
     2
175
     1
 42
1.0
 92
        8
 66
   257
 43
1.0
 76
     1
 77
     6
 78
     2
 67
     7
 79
     3
170
     0
171
     0
290
     0
174
     0
 93
        5
 44
0.0
173
     0
291
     0
 45
0.0
1001
ACAD
1000
AcDbSavedByObjectVersion
1070
     0
  0
VISUALSTYLE
  5
C914
102
{ACAD_XDICTIONARY
360
C97D
102
}
102
{ACAD_REACTORS
330
C903
102
}
330
C903
100
AcDbVisualStyle
  2
Shades of Gray
 70
    23
 71
     2
 72
     2
 73
     3
 90
        0
 40
-0.6
 41
-30.0
 62
     5
 63
     7
 74
     2
 91
        2
 64
     7
 65
     7
 75
     1
175
     1
 42
40.0
 92
        8
 66
     7
 43
1.0
 76
     1
 77
     6
 78
     2
 67
     7
 79
     3
170
     0
171
     0
290
     0
174
     0
 93
        1
 44
0.0
173
     0
291
     0
 45
0.0
1001
ACAD
1000
AcDbSavedByObjectVersion
1070
     0
  0
VISUALSTYLE
  5
C915
102
{ACAD_XDICTIONARY
360
C97F
102
}
102
{ACAD_REACTORS
330
C903
102
}
330
C903
100
AcDbVisualStyle
  2
Sketchy
 70
    24
 71
     1
 72
     2
 73
     2
 90
        0
 40
-0.6
 41
-30.0
 62
     5
 63
     7
 74
     2
 91
        2
 64
     7
 65
     7
 75
     1
175
     1
 42
40.0
 92
       11
 66
     7
 43
1.0
 76
     1
 77
     6
 78
     2
 67
     7
 79
     6
170
     0
171
     0
290
     0
174
     0
 93
        1
 44
0.0
173
     0
291
     0
 45
0.0
1001
ACAD
1000
AcDbSavedByObjectVersion
1070
     0
  0
VISUALSTYLE
  5
C910
102
{ACAD_XDICTIONARY
360
C975
102
}
102
{ACAD_REACTORS
330
C903
102
}
330
C903
100
AcDbVisualStyle
  2
Thicken
 70
    13
 71
     2
 72
     2
 73
     0
 90
        0
 40
-0.6
 41
-30.0
 62
     5
 63
     7
 74
     1
 91
        4
 64
     7
 65
   257
 75
     1
175
     1
 42
1.0
 92
       12
 66
     7
 43
1.0
 76
     1
 77
     6
 78
     2
 67
     7
 79
     5
170
     0
171
     0
290
     0
174
     0
 93
        1
 44
0.0
173
     0
291
     1
 45
0.0
1001
ACAD
1000
AcDbSavedByObjectVersion
1070
     0
  0
VISUALSTYLE
  5
C90A
102
{ACAD_XDICTIONARY
360
C969
102
}
102
{ACAD_REACTORS
330
C903
102
}
330
C903
100
AcDbVisualStyle
  2
Wireframe
 70
     5
 71
     0
 72
     2
 73
     0
 90
        0
 40
-0.6
 41
-30.0
 62
     5
 63
     7
 74
     1
 91
        4
 64
     7
 65
   257
 75
     1
175
     1
 42
1.0
 92
        0
 66
   257
 43
1.0
 76
     1
 77
     6
 78
     2
 67
     7
 79
     3
170
     0
171
     0
290
     0
174
     0
 93
        1
 44
0.0
173
     0
291
     0
 45
0.0
1001
ACAD
1000
AcDbSavedByObjectVersion
1070
     0
  0
VISUALSTYLE
  5
C916
102
{ACAD_XDICTIONARY
360
C981
102
}
102
{ACAD_REACTORS
330
C903
102
}
330
C903
100
AcDbVisualStyle
  2
X-Ray
 70
    25
 71
     2
 72
     2
 73
     1
 90
        1
 40
0.5
 41
-30.0
 62
     5
 63
     7
 74
     1
 91
        0
 64
     7
 65
   257
 75
     1
175
     1
 42
1.0
 92
        8
 66
     7
 43
1.0
 76
     1
 77
     6
 78
     2
 67
     7
 79
     3
170
     0
171
     0
290
     0
174
     0
 93
       13
 44
0.0
173
     0
291
     0
 45
0.0
1001
ACAD
1000
AcDbSavedByObjectVersion
1070
     0
  0
DICTIONARYVAR
  5
C950
102
{ACAD_REACTORS
330
C94B
102
}
330
C94B
100
DictionaryVariables
280
     0
  1
1:1
  0
DICTIONARYVAR
  5
C94D
102
{ACAD_REACTORS
330
C94B
102
}
330
C94B
100
DictionaryVariables
280
     0
  1
STANDARD
  0
DICTIONARYVAR
  5
C94C
102
{ACAD_REACTORS
330
C94B
102
}
330
C94B
100
DictionaryVariables
280
     0
  1
STANDARD
  0
DICTIONARYVAR
  5
C94E
102
{ACAD_REACTORS
330
C94B
102
}
330
C94B
100
DictionaryVariables
280
     0
  1
Imperial24
  0
DICTIONARYVAR
  5
C94F
102
{ACAD_REACTORS
330
C94B
102
}
330
C94B
100
DictionaryVariables
280
     0
  1
Imperial24
  0
DICTIONARYVAR
  5
C953
102
{ACAD_REACTORS
330
C94B
102
}
330
C94B
100
DictionaryVariables
280
     0
  1
1
  0
DICTIONARYVAR
  5
C952
102
{ACAD_REACTORS
330
C94B
102
}
330
C94B
100
DictionaryVariables
280
     0
  1
0
  0
DICTIONARYVAR
  5
C951
102
{ACAD_REACTORS
330
C94B
102
}
330
C94B
100
DictionaryVariables
280
     0
  1
127
  0
DICTIONARYVAR
  5
C954
102
{ACAD_REACTORS
330
C94B
102
}
330
C94B
100
DictionaryVariables
280
     0
  1
2
  0
DICTIONARY
  5
C991
330
C936
100
AcDbDictionary
280
     1
281
     1
  3
ACAD_XREC_ROUNDTRIP
360
C992
  0
DICTIONARY
  5
C993
330
C937
100
AcDbDictionary
280
     1
281
     1
  3
ACAD_XREC_ROUNDTRIP
360
C994
  0
DICTIONARY
  5
C995
330
C938
100
AcDbDictionary
280
     1
281
     1
  3
ACAD_XREC_ROUNDTRIP
360
C996
  0
DICTIONARY
  5
C8F4
330
C8F3
100
AcDbDictionary
280
     1
281
     1
  3
ACAD_XREC_ROUNDTRIP
360
C95B
  3
BUMPTILE
360
C8F6
  3
DIFFUSETILE
360
C8F5
  3
OPACITYTILE
360
C8F9
  3
REFLECTIONTILE
360
C8F8
  3
REFRACTIONTILE
360
C8FA
  3
SPECULARTILE
360
C8F7
  0
DICTIONARY
  5
C8EC
330
C8EB
100
AcDbDictionary
280
     1
281
     1
  3
ACAD_XREC_ROUNDTRIP
360
C95A
  3
BUMPTILE
360
C8EE
  3
DIFFUSETILE
360
C8ED
  3
OPACITYTILE
360
C8F1
  3
REFLECTIONTILE
360
C8F0
  3
REFRACTIONTILE
360
C8F2
  3
SPECULARTILE
360
C8EF
  0
DICTIONARY
  5
C8FC
330
C8FB
100
AcDbDictionary
280
     1
281
     1
  3
ACAD_XREC_ROUNDTRIP
360
C95C
  3
BUMPTILE
360
C8FE
  3
DIFFUSETILE
360
C8FD
  3
OPACITYTILE
360
C901
  3
REFLECTIONTILE
360
C900
  3
REFRACTIONTILE
360
C902
  3
SPECULARTILE
360
C8FF
  0
DICTIONARY
  5
C98F
330
C934
100
AcDbDictionary
280
     1
281
     1
  3
ACAD_XREC_ROUNDTRIP
360
C990
  0
DICTIONARY
  5
C956
330
C91E
100
AcDbDictionary
280
     1
281
     1
  3
ACAD_ROUNDTRIP_2008_TABLESTYLE_CELLSTYLEMAP
360
C957
  3
ACAD_XREC_ROUNDTRIP
360
C98D
  0
DICTIONARY
  5
C967
330
C909
100
AcDbDictionary
280
     1
281
     1
  3
ACAD_XREC_ROUNDTRIP
360
C968
  0
DICTIONARY
  5
C965
330
C908
100
AcDbDictionary
280
     1
281
     1
  3
ACAD_XREC_ROUNDTRIP
360
C966
  0
DICTIONARY
  5
C973
330
C90F
100
AcDbDictionary
280
     1
281
     1
  3
ACAD_XREC_ROUNDTRIP
360
C974
  0
DICTIONARY
  5
C97B
330
C913
100
AcDbDictionary
280
     1
281
     1
  3
ACAD_XREC_ROUNDTRIP
360
C97C
  0
DICTIONARY
  5
C96D
330
C90C
100
AcDbDictionary
280
     1
281
     1
  3
ACAD_XREC_ROUNDTRIP
360
C96E
  0
DICTIONARY
  5
C971
330
C90E
100
AcDbDictionary
280
     1
281
     1
  3
ACAD_XREC_ROUNDTRIP
360
C972
  0
DICTIONARY
  5
C98B
330
C91B
100
AcDbDictionary
280
     1
281
     1
  3
ACAD_XREC_ROUNDTRIP
360
C98C
  0
DICTIONARY
  5
C979
330
C912
100
AcDbDictionary
280
     1
281
     1
  3
ACAD_XREC_ROUNDTRIP
360
C97A
  0
DICTIONARY
  5
C95D
330
C904
100
AcDbDictionary
280
     1
281
     1
  3
ACAD_XREC_ROUNDTRIP
360
C95E
  0
DICTIONARY
  5
C95F
330
C905
100
AcDbDictionary
280
     1
281
     1
  3
ACAD_XREC_ROUNDTRIP
360
C960
  0
DICTIONARY
  5
C961
330
C906
100
AcDbDictionary
280
     1
281
     1
  3
ACAD_XREC_ROUNDTRIP
360
C962
  0
DICTIONARY
  5
C963
330
C907
100
AcDbDictionary
280
     1
281
     1
  3
ACAD_XREC_ROUNDTRIP
360
C964
  0
DICTIONARY
  5
C96B
330
C90B
100
AcDbDictionary
280
     1
281
     1
  3
ACAD_XREC_ROUNDTRIP
360
C96C
  0
DICTIONARY
  5
C987
330
C919
100
AcDbDictionary
280
     1
281
     1
  3
ACAD_XREC_ROUNDTRIP
360
C988
  0
DICTIONARY
  5
C977
330
C911
100
AcDbDictionary
280
     1
281
     1
  3
ACAD_XREC_ROUNDTRIP
360
C978
  0
DICTIONARY
  5
C989
330
C91A
100
AcDbDictionary
280
     1
281
     1
  3
ACAD_XREC_ROUNDTRIP
360
C98A
  0
DICTIONARY
  5
C96F
330
C90D
100
AcDbDictionary
280
     1
281
     1
  3
ACAD_XREC_ROUNDTRIP
360
C970
  0
DICTIONARY
  5
C985
330
C918
100
AcDbDictionary
280
     1
281
     1
  3
ACAD_XREC_ROUNDTRIP
360
C986
  0
DICTIONARY
  5
C983
330
C917
100
AcDbDictionary
280
     1
281
     1
  3
ACAD_XREC_ROUNDTRIP
360
C984
  0
DICTIONARY
  5
C97D
330
C914
100
AcDbDictionary
280
     1
281
     1
  3
ACAD_XREC_ROUNDTRIP
360
C97E
  0
DICTIONARY
  5
C97F
330
C915
100
AcDbDictionary
280
     1
281
     1
  3
ACAD_XREC_ROUNDTRIP
360
C980
  0
DICTIONARY
  5
C975
330
C910
100
AcDbDictionary
280
     1
281
     1
  3
ACAD_XREC_ROUNDTRIP
360
C976
  0
DICTIONARY
  5
C969
330
C90A
100
AcDbDictionary
280
     1
281
     1
  3
ACAD_XREC_ROUNDTRIP
360
C96A
  0
DICTIONARY
  5
C981
330
C916
100
AcDbDictionary
280
     1
281
     1
  3
ACAD_XREC_ROUNDTRIP
360
C982
  0
XRECORD
  5
C992
102
{ACAD_REACTORS
330
C991
102
}
330
C991
100
AcDbXrecord
280
     1
102
DISPLAYNAME
  1
Imperial24
102
FLAGS
 90
        0
  0
XRECORD
  5
C994
102
{ACAD_REACTORS
330
C993
102
}
330
C993
100
AcDbXrecord
280
     1
102
SHADEPLOT
 70
     0
102
SHADEPLOTRESLEVEL
 70
     2
102
SHADEPLOTCUSTOMDPI
 70
   300
  0
XRECORD
  5
C996
102
{ACAD_REACTORS
330
C995
102
}
330
C995
100
AcDbXrecord
280
     1
102
SHADEPLOT
 70
     0
102
SHADEPLOTRESLEVEL
 70
     2
102
SHADEPLOTCUSTOMDPI
 70
   300
  0
XRECORD
  5
C95B
102
{ACAD_REACTORS
330
C8F4
102
}
330
C8F4
100
AcDbXrecord
280
     1
102
MATERIAL
148
0.0
149
0.0
149
0.0
 93
        0
 94
      127
282
     0
 72
     0
 77
     0
171
     0
175
     0
179
     0
273
     0
  0
XRECORD
  5
C8F6
102
{ACAD_REACTORS
330
C8F4
102
}
330
C8F4
100
AcDbXrecord
280
     1
270
     1
271
     1
  0
XRECORD
  5
C8F5
102
{ACAD_REACTORS
330
C8F4
102
}
330
C8F4
100
AcDbXrecord
280
     1
270
     1
271
     1
  0
XRECORD
  5
C8F9
102
{ACAD_REACTORS
330
C8F4
102
}
330
C8F4
100
AcDbXrecord
280
     1
270
     1
271
     1
  0
XRECORD
  5
C8F8
102
{ACAD_REACTORS
330
C8F4
102
}
330
C8F4
100
AcDbXrecord
280
     1
270
     1
271
     1
  0
XRECORD
  5
C8FA
102
{ACAD_REACTORS
330
C8F4
102
}
330
C8F4
100
AcDbXrecord
280
     1
270
     1
271
     1
  0
XRECORD
  5
C8F7
102
{ACAD_REACTORS
330
C8F4
102
}
330
C8F4
100
AcDbXrecord
280
     1
270
     1
271
     1
  0
XRECORD
  5
C95A
102
{ACAD_REACTORS
330
C8EC
102
}
330
C8EC
100
AcDbXrecord
280
     1
102
MATERIAL
148
0.0
149
0.0
149
0.0
 93
        0
 94
      127
282
     0
 72
     0
 77
     0
171
     0
175
     0
179
     0
273
     0
  0
XRECORD
  5
C8EE
102
{ACAD_REACTORS
330
C8EC
102
}
330
C8EC
100
AcDbXrecord
280
     1
270
     1
271
     1
  0
XRECORD
  5
C8ED
102
{ACAD_REACTORS
330
C8EC
102
}
330
C8EC
100
AcDbXrecord
280
     1
270
     1
271
     1
  0
XRECORD
  5
C8F1
102
{ACAD_REACTORS
330
C8EC
102
}
330
C8EC
100
AcDbXrecord
280
     1
270
     1
271
     1
  0
XRECORD
  5
C8F0
102
{ACAD_REACTORS
330
C8EC
102
}
330
C8EC
100
AcDbXrecord
280
     1
270
     1
271
     1
  0
XRECORD
  5
C8F2
102
{ACAD_REACTORS
330
C8EC
102
}
330
C8EC
100
AcDbXrecord
280
     1
270
     1
271
     1
  0
XRECORD
  5
C8EF
102
{ACAD_REACTORS
330
C8EC
102
}
330
C8EC
100
AcDbXrecord
280
     1
270
     1
271
     1
  0
XRECORD
  5
C95C
102
{ACAD_REACTORS
330
C8FC
102
}
330
C8FC
100
AcDbXrecord
280
     1
102
MATERIAL
148
0.0
149
0.0
149
0.0
 93
        0
 94
      127
282
     0
 72
     0
 77
     0
171
     0
175
     0
179
     0
273
     0
  0
XRECORD
  5
C8FE
102
{ACAD_REACTORS
330
C8FC
102
}
330
C8FC
100
AcDbXrecord
280
     1
270
     1
271
     1
  0
XRECORD
  5
C8FD
102
{ACAD_REACTORS
330
C8FC
102
}
330
C8FC
100
AcDbXrecord
280
     1
270
     1
271
     1
  0
XRECORD
  5
C901
102
{ACAD_REACTORS
330
C8FC
102
}
330
C8FC
100
AcDbXrecord
280
     1
270
     1
271
     1
  0
XRECORD
  5
C900
102
{ACAD_REACTORS
330
C8FC
102
}
330
C8FC
100
AcDbXrecord
280
     1
270
     1
271
     1
  0
XRECORD
  5
C902
102
{ACAD_REACTORS
330
C8FC
102
}
330
C8FC
100
AcDbXrecord
280
     1
270
     1
271
     1
  0
XRECORD
  5
C8FF
102
{ACAD_REACTORS
330
C8FC
102
}
330
C8FC
100
AcDbXrecord
280
     1
270
     1
271
     1
  0
XRECORD
  5
C990
102
{ACAD_REACTORS
330
C98F
102
}
330
C98F
100
AcDbXrecord
280
     1
102
DISPLAYNAME
  1
Imperial24
102
FLAGS
 90
        0
  0
CELLSTYLEMAP
  5
C957
102
{ACAD_REACTORS
330
C956
102
}
330
C956
100
AcDbCellStyleMap
 90
        3
300
CELLSTYLE
  1
TABLEFORMAT_BEGIN
 90
        5
170
     1
 91
        0
 92
    32768
 62
   257
 93
        1
300
CONTENTFORMAT
  1
CONTENTFORMAT_BEGIN
 90
        0
 91
        0
 92
      512
 93
        0
300

 40
0.0
140
1.0
 94
        5
 62
     0
340
C385
144
0.25
309
CONTENTFORMAT_END
171
     0
 94
        0
309
TABLEFORMAT_END
  1
CELLSTYLE_BEGIN
 90
        1
 91
        1
300
_TITLE
309
CELLSTYLE_END
300
CELLSTYLE
  1
TABLEFORMAT_BEGIN
 90
        5
170
     1
 91
        0
 92
        0
 62
   257
 93
        1
300
CONTENTFORMAT
  1
CONTENTFORMAT_BEGIN
 90
        0
 91
        0
 92
      512
 93
        0
300

 40
0.0
140
1.0
 94
        5
 62
     0
340
C385
144
0.18
309
CONTENTFORMAT_END
171
     0
 94
        0
309
TABLEFORMAT_END
  1
CELLSTYLE_BEGIN
 90
        2
 91
        1
300
_HEADER
309
CELLSTYLE_END
300
CELLSTYLE
  1
TABLEFORMAT_BEGIN
 90
        5
170
     1
 91
        0
 92
        0
 62
   257
 93
        1
300
CONTENTFORMAT
  1
CONTENTFORMAT_BEGIN
 90
        0
 91
        0
 92
      512
 93
        0
300

 40
0.0
140
1.0
 94
        2
 62
     0
340
C385
144
0.18
309
CONTENTFORMAT_END
171
     0
 94
        0
309
TABLEFORMAT_END
  1
CELLSTYLE_BEGIN
 90
        3
 91
        2
300
_DATA
309
CELLSTYLE_END
  0
XRECORD
  5
C98D
102
{ACAD_REACTORS
330
C956
102
}
330
C956
100
AcDbXrecord
280
     1
102
ACAD_ROUNDTRIP_PRE2007_TABLESTYLE
 90
      512
 91
        0
  1

 92
      512
 93
        0
  2

 94
      512
 95
        0
  3

  0
XRECORD
  5
C968
102
{ACAD_REACTORS
330
C967
102
}
330
C967
100
AcDbXrecord
280
     1
102
RTVSPost2010Prop28
280
     1
102
RTVSPost2010PropOp28
 70
     1
102
RTVSPost2010Prop29
280
     1
102
RTVSPost2010PropOp29
 70
     1
102
RTVSPost2010Prop30
280
     0
102
RTVSPost2010PropOp30
 70
     1
102
RTVSPost2010Prop31
280
     0
102
RTVSPost2010PropOp31
 70
     1
102
RTVSPost2010Prop32
280
     0
102
RTVSPost2010PropOp32
 70
     1
102
RTVSPost2010Prop33
280
     0
102
RTVSPost2010PropOp33
 70
     1
102
RTVSPost2010Prop34
280
     0
102
RTVSPost2010PropOp34
 70
     1
102
RTVSPost2010Prop35
280
     0
102
RTVSPost2010PropOp35
 70
     1
102
RTVSPost2010Prop36
280
     0
102
RTVSPost2010PropOp36
 70
     1
102
RTVSPost2010Prop37
 90
       50
102
RTVSPost2010PropOp37
 70
     1
102
RTVSPost2010Prop38
140
0.0
102
RTVSPost2010PropOp38
 70
     1
102
RTVSPost2010Prop39
140
1.0
102
RTVSPost2010PropOp39
 70
     1
102
RTVSPost2010Prop40
 90
        0
102
RTVSPost2010PropOp40
 70
     1
102
RTVSPost2010Prop41ColorIndex
 90
       18
102
RTVSPost2010Prop41ColorRGB
 90
        0
102
RTVSPost2010PropOp41
 70
     1
102
RTVSPost2010Prop42
 90
       50
102
RTVSPost2010PropOp42
 70
     1
102
RTVSPost2010Prop43
 90
        3
102
RTVSPost2010PropOp43
 70
     1
102
RTVSPost2010Prop44ColorIndex
 90
        5
102
RTVSPost2010Prop44ColorRGB
 90
      255
102
RTVSPost2010PropOp44
 70
     1
102
RTVSPost2010Prop45
280
     0
102
RTVSPost2010PropOp45
 70
     1
102
RTVSPost2010Prop46
 90
       50
102
RTVSPost2010PropOp46
 70
     1
102
RTVSPost2010Prop47
 90
       50
102
RTVSPost2010PropOp47
 70
     1
102
RTVSPost2010Prop48
 90
       50
102
RTVSPost2010PropOp48
 70
     1
102
RTVSPost2010Prop49
280
     0
102
RTVSPost2010PropOp49
 70
     1
102
RTVSPost2010Prop50
 90
       50
102
RTVSPost2010PropOp50
 70
     1
102
RTVSPost2010Prop51ColorIndex
 90
      256
102
RTVSPost2010Prop51ColorRGB
 90
-16777216
102
RTVSPost2010PropOp51
 70
     0
102
RTVSPost2010Prop52
140
1.0
102
RTVSPost2010PropOp52
 70
     0
102
RTVSPost2010Prop53
 90
        2
102
RTVSPost2010PropOp53
 70
     1
102
RTVSPost2010Prop54
  1
strokes_ogs.tif
102
RTVSPost2010PropOp54
 70
     1
102
RTVSPost2010Prop55
280
     0
102
RTVSPost2010PropOp55
 70
     1
102
RTVSPost2010Prop56
140
1.0
102
RTVSPost2010PropOp56
 70
     1
102
RTVSPost2010Prop57
140
1.0
102
RTVSPost2010PropOp57
 70
     1
102
RTVSPropertyOp0
 70
     1
102
RTVSPropertyOp1
 70
     1
102
RTVSPropertyOp2
 70
     1
102
RTVSPropertyOp3
 70
     1
102
RTVSPropertyOp4
 70
     1
102
RTVSPropertyOp5
 70
     1
102
RTVSPropertyOp6
 70
     1
102
RTVSPropertyOp7
 70
     1
102
RTVSPropertyOp8
 70
     1
102
RTVSPropertyOp9
 70
     1
102
RTVSPropertyOp10
 70
     1
102
RTVSPropertyOp11
 70
     1
102
RTVSPropertyOp12
 70
     1
102
RTVSPropertyOp13
 70
     1
102
RTVSPropertyOp14
 70
     1
102
RTVSPropertyOp15
 70
     1
102
RTVSPropertyOp16
 70
     1
102
RTVSPropertyOp17
 70
     1
102
RTVSPropertyOp18
 70
     1
102
RTVSPropertyOp19
 70
     1
102
RTVSPropertyOp20
 70
     1
102
RTVSPropertyOp21
 70
     1
102
RTVSPropertyOp22
 70
     1
102
RTVSPropertyOp23
 70
     1
102
RTVSPropertyOp24
 70
     1
102
RTVSPropertyOp25
 70
     1
102
RTVSPropertyOp26
 70
     1
102
RTVSPropertyOp27
 70
     1
102
RTVSPropertyOp28
 70
     1
102
RTVSPropertyOp29
 70
     1
102
RTVSPropertyOp30
 70
     1
102
RTVSPropertyOp31
 70
     1
102
RTVSPropertyOp32
 70
     1
102
RTVSPropertyOp33
 70
     1
102
RTVSPropertyOp34
 70
     1
102
RTVSPropertyOp35
 70
     1
102
RTVSPropertyOp36
 70
     1
102
RTVSPropertyOp37
 70
     1
102
RTVSPropertyOp38
 70
     1
102
RTVSPropertyOp39
 70
     1
102
RTVSPropertyOp40
 70
     1
102
RTVSPropertyOp41
 70
     1
102
RTVSPropertyOp42
 70
     1
102
RTVSPropertyOp43
 70
     1
102
RTVSPropertyOp44
 70
     1
102
RTVSPropertyOp45
 70
     1
102
RTVSPropertyOp46
 70
     1
102
RTVSPropertyOp47
 70
     1
102
RTVSPropertyOp48
 70
     1
102
RTVSPropertyOp49
 70
     1
102
RTVSPropertyOp50
 70
     1
102
RTVSPropertyOp51
 70
     0
102
RTVSPropertyOp52
 70
     0
102
RTVSPropertyOp53
 70
     1
102
RTVSPropertyOp54
 70
     1
102
RTVSPropertyOp55
 70
     1
102
RTVSPropertyOp56
 70
     1
102
RTVSPropertyOp57
 70
     1
102
RTVSPropertyOp58
 70
     1
102
RTVSPropertyOp59
 70
     1
102
RTVSPropertyOp60
 70
     1
102
RTVSPropertyOp61
 70
     1
102
RTVSPropertyOp62
 70
     1
  0
XRECORD
  5
C966
102
{ACAD_REACTORS
330
C965
102
}
330
C965
100
AcDbXrecord
280
     1
102
RTVSPost2010Prop28
280
     0
102
RTVSPost2010PropOp28
 70
     1
102
RTVSPost2010Prop29
280
     1
102
RTVSPost2010PropOp29
 70
     1
102
RTVSPost2010Prop30
280
     1
102
RTVSPost2010PropOp30
 70
     1
102
RTVSPost2010Prop31
280
     0
102
RTVSPost2010PropOp31
 70
     1
102
RTVSPost2010Prop32
280
     0
102
RTVSPost2010PropOp32
 70
     1
102
RTVSPost2010Prop33
280
     0
102
RTVSPost2010PropOp33
 70
     1
102
RTVSPost2010Prop34
280
     0
102
RTVSPost2010PropOp34
 70
     1
102
RTVSPost2010Prop35
280
     0
102
RTVSPost2010PropOp35
 70
     1
102
RTVSPost2010Prop36
280
     0
102
RTVSPost2010PropOp36
 70
     1
102
RTVSPost2010Prop37
 90
       50
102
RTVSPost2010PropOp37
 70
     1
102
RTVSPost2010Prop38
140
0.0
102
RTVSPost2010PropOp38
 70
     1
102
RTVSPost2010Prop39
140
1.0
102
RTVSPost2010PropOp39
 70
     1
102
RTVSPost2010Prop40
 90
        0
102
RTVSPost2010PropOp40
 70
     1
102
RTVSPost2010Prop41ColorIndex
 90
       18
102
RTVSPost2010Prop41ColorRGB
 90
        0
102
RTVSPost2010PropOp41
 70
     1
102
RTVSPost2010Prop42
 90
       50
102
RTVSPost2010PropOp42
 70
     1
102
RTVSPost2010Prop43
 90
        3
102
RTVSPost2010PropOp43
 70
     1
102
RTVSPost2010Prop44ColorIndex
 90
        5
102
RTVSPost2010Prop44ColorRGB
 90
      255
102
RTVSPost2010PropOp44
 70
     1
102
RTVSPost2010Prop45
280
     0
102
RTVSPost2010PropOp45
 70
     1
102
RTVSPost2010Prop46
 90
       50
102
RTVSPost2010PropOp46
 70
     1
102
RTVSPost2010Prop47
 90
       50
102
RTVSPost2010PropOp47
 70
     1
102
RTVSPost2010Prop48
 90
       50
102
RTVSPost2010PropOp48
 70
     1
102
RTVSPost2010Prop49
280
     0
102
RTVSPost2010PropOp49
 70
     1
102
RTVSPost2010Prop50
 90
       50
102
RTVSPost2010PropOp50
 70
     1
102
RTVSPost2010Prop51ColorIndex
 90
      256
102
RTVSPost2010Prop51ColorRGB
 90
-16777216
102
RTVSPost2010PropOp51
 70
     0
102
RTVSPost2010Prop52
140
1.0
102
RTVSPost2010PropOp52
 70
     0
102
RTVSPost2010Prop53
 90
        2
102
RTVSPost2010PropOp53
 70
     1
102
RTVSPost2010Prop54
  1
strokes_ogs.tif
102
RTVSPost2010PropOp54
 70
     1
102
RTVSPost2010Prop55
280
     0
102
RTVSPost2010PropOp55
 70
     1
102
RTVSPost2010Prop56
140
1.0
102
RTVSPost2010PropOp56
 70
     1
102
RTVSPost2010Prop57
140
1.0
102
RTVSPost2010PropOp57
 70
     1
102
RTVSPropertyOp0
 70
     1
102
RTVSPropertyOp1
 70
     1
102
RTVSPropertyOp2
 70
     1
102
RTVSPropertyOp3
 70
     1
102
RTVSPropertyOp4
 70
     1
102
RTVSPropertyOp5
 70
     1
102
RTVSPropertyOp6
 70
     1
102
RTVSPropertyOp7
 70
     1
102
RTVSPropertyOp8
 70
     1
102
RTVSPropertyOp9
 70
     1
102
RTVSPropertyOp10
 70
     1
102
RTVSPropertyOp11
 70
     1
102
RTVSPropertyOp12
 70
     1
102
RTVSPropertyOp13
 70
     1
102
RTVSPropertyOp14
 70
     1
102
RTVSPropertyOp15
 70
     1
102
RTVSPropertyOp16
 70
     1
102
RTVSPropertyOp17
 70
     1
102
RTVSPropertyOp18
 70
     1
102
RTVSPropertyOp19
 70
     1
102
RTVSPropertyOp20
 70
     1
102
RTVSPropertyOp21
 70
     1
102
RTVSPropertyOp22
 70
     1
102
RTVSPropertyOp23
 70
     1
102
RTVSPropertyOp24
 70
     1
102
RTVSPropertyOp25
 70
     1
102
RTVSPropertyOp26
 70
     1
102
RTVSPropertyOp27
 70
     1
102
RTVSPropertyOp28
 70
     1
102
RTVSPropertyOp29
 70
     1
102
RTVSPropertyOp30
 70
     1
102
RTVSPropertyOp31
 70
     1
102
RTVSPropertyOp32
 70
     1
102
RTVSPropertyOp33
 70
     1
102
RTVSPropertyOp34
 70
     1
102
RTVSPropertyOp35
 70
     1
102
RTVSPropertyOp36
 70
     1
102
RTVSPropertyOp37
 70
     1
102
RTVSPropertyOp38
 70
     1
102
RTVSPropertyOp39
 70
     1
102
RTVSPropertyOp40
 70
     1
102
RTVSPropertyOp41
 70
     1
102
RTVSPropertyOp42
 70
     1
102
RTVSPropertyOp43
 70
     1
102
RTVSPropertyOp44
 70
     1
102
RTVSPropertyOp45
 70
     1
102
RTVSPropertyOp46
 70
     1
102
RTVSPropertyOp47
 70
     1
102
RTVSPropertyOp48
 70
     1
102
RTVSPropertyOp49
 70
     1
102
RTVSPropertyOp50
 70
     1
102
RTVSPropertyOp51
 70
     0
102
RTVSPropertyOp52
 70
     0
102
RTVSPropertyOp53
 70
     1
102
RTVSPropertyOp54
 70
     1
102
RTVSPropertyOp55
 70
     1
102
RTVSPropertyOp56
 70
     1
102
RTVSPropertyOp57
 70
     1
102
RTVSPropertyOp58
 70
     1
102
RTVSPropertyOp59
 70
     1
102
RTVSPropertyOp60
 70
     1
102
RTVSPropertyOp61
 70
     1
102
RTVSPropertyOp62
 70
     1
  0
XRECORD
  5
C974
102
{ACAD_REACTORS
330
C973
102
}
330
C973
100
AcDbXrecord
280
     1
102
RTVSPost2010Prop28
280
     0
102
RTVSPost2010PropOp28
 70
     1
102
RTVSPost2010Prop29
280
     1
102
RTVSPost2010PropOp29
 70
     1
102
RTVSPost2010Prop30
280
     1
102
RTVSPost2010PropOp30
 70
     1
102
RTVSPost2010Prop31
280
     0
102
RTVSPost2010PropOp31
 70
     1
102
RTVSPost2010Prop32
280
     0
102
RTVSPost2010PropOp32
 70
     1
102
RTVSPost2010Prop33
280
     0
102
RTVSPost2010PropOp33
 70
     1
102
RTVSPost2010Prop34
280
     0
102
RTVSPost2010PropOp34
 70
     1
102
RTVSPost2010Prop35
280
     0
102
RTVSPost2010PropOp35
 70
     1
102
RTVSPost2010Prop36
280
     0
102
RTVSPost2010PropOp36
 70
     1
102
RTVSPost2010Prop37
 90
       50
102
RTVSPost2010PropOp37
 70
     1
102
RTVSPost2010Prop38
140
0.0
102
RTVSPost2010PropOp38
 70
     1
102
RTVSPost2010Prop39
140
1.0
102
RTVSPost2010PropOp39
 70
     1
102
RTVSPost2010Prop40
 90
        0
102
RTVSPost2010PropOp40
 70
     1
102
RTVSPost2010Prop41ColorIndex
 90
       18
102
RTVSPost2010Prop41ColorRGB
 90
        0
102
RTVSPost2010PropOp41
 70
     1
102
RTVSPost2010Prop42
 90
       50
102
RTVSPost2010PropOp42
 70
     1
102
RTVSPost2010Prop43
 90
        3
102
RTVSPost2010PropOp43
 70
     1
102
RTVSPost2010Prop44ColorIndex
 90
        5
102
RTVSPost2010Prop44ColorRGB
 90
      255
102
RTVSPost2010PropOp44
 70
     1
102
RTVSPost2010Prop45
280
     0
102
RTVSPost2010PropOp45
 70
     1
102
RTVSPost2010Prop46
 90
       50
102
RTVSPost2010PropOp46
 70
     1
102
RTVSPost2010Prop47
 90
       50
102
RTVSPost2010PropOp47
 70
     1
102
RTVSPost2010Prop48
 90
       50
102
RTVSPost2010PropOp48
 70
     1
102
RTVSPost2010Prop49
280
     0
102
RTVSPost2010PropOp49
 70
     1
102
RTVSPost2010Prop50
 90
       50
102
RTVSPost2010PropOp50
 70
     1
102
RTVSPost2010Prop51ColorIndex
 90
      256
102
RTVSPost2010Prop51ColorRGB
 90
-16777216
102
RTVSPost2010PropOp51
 70
     0
102
RTVSPost2010Prop52
140
1.0
102
RTVSPost2010PropOp52
 70
     0
102
RTVSPost2010Prop53
 90
        2
102
RTVSPost2010PropOp53
 70
     1
102
RTVSPost2010Prop54
  1
strokes_ogs.tif
102
RTVSPost2010PropOp54
 70
     1
102
RTVSPost2010Prop55
280
     0
102
RTVSPost2010PropOp55
 70
     1
102
RTVSPost2010Prop56
140
1.0
102
RTVSPost2010PropOp56
 70
     1
102
RTVSPost2010Prop57
140
1.0
102
RTVSPost2010PropOp57
 70
     1
102
RTVSPropertyOp0
 70
     1
102
RTVSPropertyOp1
 70
     1
102
RTVSPropertyOp2
 70
     1
102
RTVSPropertyOp3
 70
     1
102
RTVSPropertyOp4
 70
     1
102
RTVSPropertyOp5
 70
     1
102
RTVSPropertyOp6
 70
     1
102
RTVSPropertyOp7
 70
     1
102
RTVSPropertyOp8
 70
     1
102
RTVSPropertyOp9
 70
     1
102
RTVSPropertyOp10
 70
     1
102
RTVSPropertyOp11
 70
     1
102
RTVSPropertyOp12
 70
     1
102
RTVSPropertyOp13
 70
     1
102
RTVSPropertyOp14
 70
     1
102
RTVSPropertyOp15
 70
     1
102
RTVSPropertyOp16
 70
     1
102
RTVSPropertyOp17
 70
     1
102
RTVSPropertyOp18
 70
     1
102
RTVSPropertyOp19
 70
     1
102
RTVSPropertyOp20
 70
     1
102
RTVSPropertyOp21
 70
     1
102
RTVSPropertyOp22
 70
     1
102
RTVSPropertyOp23
 70
     1
102
RTVSPropertyOp24
 70
     1
102
RTVSPropertyOp25
 70
     1
102
RTVSPropertyOp26
 70
     1
102
RTVSPropertyOp27
 70
     1
102
RTVSPropertyOp28
 70
     1
102
RTVSPropertyOp29
 70
     1
102
RTVSPropertyOp30
 70
     1
102
RTVSPropertyOp31
 70
     1
102
RTVSPropertyOp32
 70
     1
102
RTVSPropertyOp33
 70
     1
102
RTVSPropertyOp34
 70
     1
102
RTVSPropertyOp35
 70
     1
102
RTVSPropertyOp36
 70
     1
102
RTVSPropertyOp37
 70
     1
102
RTVSPropertyOp38
 70
     1
102
RTVSPropertyOp39
 70
     1
102
RTVSPropertyOp40
 70
     1
102
RTVSPropertyOp41
 70
     1
102
RTVSPropertyOp42
 70
     1
102
RTVSPropertyOp43
 70
     1
102
RTVSPropertyOp44
 70
     1
102
RTVSPropertyOp45
 70
     1
102
RTVSPropertyOp46
 70
     1
102
RTVSPropertyOp47
 70
     1
102
RTVSPropertyOp48
 70
     1
102
RTVSPropertyOp49
 70
     1
102
RTVSPropertyOp50
 70
     1
102
RTVSPropertyOp51
 70
     0
102
RTVSPropertyOp52
 70
     0
102
RTVSPropertyOp53
 70
     1
102
RTVSPropertyOp54
 70
     1
102
RTVSPropertyOp55
 70
     1
102
RTVSPropertyOp56
 70
     1
102
RTVSPropertyOp57
 70
     1
102
RTVSPropertyOp58
 70
     1
102
RTVSPropertyOp59
 70
     1
102
RTVSPropertyOp60
 70
     1
102
RTVSPropertyOp61
 70
     1
102
RTVSPropertyOp62
 70
     1
  0
XRECORD
  5
C97C
102
{ACAD_REACTORS
330
C97B
102
}
330
C97B
100
AcDbXrecord
280
     1
102
RTVSPost2010Prop28
280
     0
102
RTVSPost2010PropOp28
 70
     1
102
RTVSPost2010Prop29
280
     1
102
RTVSPost2010PropOp29
 70
     1
102
RTVSPost2010Prop30
280
     1
102
RTVSPost2010PropOp30
 70
     1
102
RTVSPost2010Prop31
280
     0
102
RTVSPost2010PropOp31
 70
     1
102
RTVSPost2010Prop32
280
     0
102
RTVSPost2010PropOp32
 70
     1
102
RTVSPost2010Prop33
280
     0
102
RTVSPost2010PropOp33
 70
     1
102
RTVSPost2010Prop34
280
     0
102
RTVSPost2010PropOp34
 70
     1
102
RTVSPost2010Prop35
280
     0
102
RTVSPost2010PropOp35
 70
     1
102
RTVSPost2010Prop36
280
     0
102
RTVSPost2010PropOp36
 70
     1
102
RTVSPost2010Prop37
 90
       50
102
RTVSPost2010PropOp37
 70
     1
102
RTVSPost2010Prop38
140
0.0
102
RTVSPost2010PropOp38
 70
     1
102
RTVSPost2010Prop39
140
1.0
102
RTVSPost2010PropOp39
 70
     1
102
RTVSPost2010Prop40
 90
        0
102
RTVSPost2010PropOp40
 70
     1
102
RTVSPost2010Prop41ColorIndex
 90
       18
102
RTVSPost2010Prop41ColorRGB
 90
        0
102
RTVSPost2010PropOp41
 70
     1
102
RTVSPost2010Prop42
 90
       50
102
RTVSPost2010PropOp42
 70
     1
102
RTVSPost2010Prop43
 90
        3
102
RTVSPost2010PropOp43
 70
     1
102
RTVSPost2010Prop44ColorIndex
 90
        5
102
RTVSPost2010Prop44ColorRGB
 90
      255
102
RTVSPost2010PropOp44
 70
     1
102
RTVSPost2010Prop45
280
     0
102
RTVSPost2010PropOp45
 70
     1
102
RTVSPost2010Prop46
 90
       50
102
RTVSPost2010PropOp46
 70
     1
102
RTVSPost2010Prop47
 90
       50
102
RTVSPost2010PropOp47
 70
     1
102
RTVSPost2010Prop48
 90
       50
102
RTVSPost2010PropOp48
 70
     1
102
RTVSPost2010Prop49
280
     0
102
RTVSPost2010PropOp49
 70
     1
102
RTVSPost2010Prop50
 90
       50
102
RTVSPost2010PropOp50
 70
     1
102
RTVSPost2010Prop51ColorIndex
 90
      256
102
RTVSPost2010Prop51ColorRGB
 90
-16777216
102
RTVSPost2010PropOp51
 70
     0
102
RTVSPost2010Prop52
140
1.0
102
RTVSPost2010PropOp52
 70
     0
102
RTVSPost2010Prop53
 90
        2
102
RTVSPost2010PropOp53
 70
     1
102
RTVSPost2010Prop54
  1
strokes_ogs.tif
102
RTVSPost2010PropOp54
 70
     1
102
RTVSPost2010Prop55
280
     0
102
RTVSPost2010PropOp55
 70
     1
102
RTVSPost2010Prop56
140
1.0
102
RTVSPost2010PropOp56
 70
     1
102
RTVSPost2010Prop57
140
1.0
102
RTVSPost2010PropOp57
 70
     1
102
RTVSPropertyOp0
 70
     1
102
RTVSPropertyOp1
 70
     1
102
RTVSPropertyOp2
 70
     1
102
RTVSPropertyOp3
 70
     1
102
RTVSPropertyOp4
 70
     1
102
RTVSPropertyOp5
 70
     1
102
RTVSPropertyOp6
 70
     1
102
RTVSPropertyOp7
 70
     1
102
RTVSPropertyOp8
 70
     1
102
RTVSPropertyOp9
 70
     1
102
RTVSPropertyOp10
 70
     1
102
RTVSPropertyOp11
 70
     1
102
RTVSPropertyOp12
 70
     1
102
RTVSPropertyOp13
 70
     1
102
RTVSPropertyOp14
 70
     1
102
RTVSPropertyOp15
 70
     1
102
RTVSPropertyOp16
 70
     1
102
RTVSPropertyOp17
 70
     1
102
RTVSPropertyOp18
 70
     1
102
RTVSPropertyOp19
 70
     1
102
RTVSPropertyOp20
 70
     1
102
RTVSPropertyOp21
 70
     1
102
RTVSPropertyOp22
 70
     1
102
RTVSPropertyOp23
 70
     1
102
RTVSPropertyOp24
 70
     1
102
RTVSPropertyOp25
 70
     1
102
RTVSPropertyOp26
 70
     1
102
RTVSPropertyOp27
 70
     1
102
RTVSPropertyOp28
 70
     1
102
RTVSPropertyOp29
 70
     1
102
RTVSPropertyOp30
 70
     1
102
RTVSPropertyOp31
 70
     1
102
RTVSPropertyOp32
 70
     1
102
RTVSPropertyOp33
 70
     1
102
RTVSPropertyOp34
 70
     1
102
RTVSPropertyOp35
 70
     1
102
RTVSPropertyOp36
 70
     1
102
RTVSPropertyOp37
 70
     1
102
RTVSPropertyOp38
 70
     1
102
RTVSPropertyOp39
 70
     1
102
RTVSPropertyOp40
 70
     1
102
RTVSPropertyOp41
 70
     1
102
RTVSPropertyOp42
 70
     1
102
RTVSPropertyOp43
 70
     1
102
RTVSPropertyOp44
 70
     1
102
RTVSPropertyOp45
 70
     1
102
RTVSPropertyOp46
 70
     1
102
RTVSPropertyOp47
 70
     1
102
RTVSPropertyOp48
 70
     1
102
RTVSPropertyOp49
 70
     1
102
RTVSPropertyOp50
 70
     1
102
RTVSPropertyOp51
 70
     0
102
RTVSPropertyOp52
 70
     0
102
RTVSPropertyOp53
 70
     1
102
RTVSPropertyOp54
 70
     1
102
RTVSPropertyOp55
 70
     1
102
RTVSPropertyOp56
 70
     1
102
RTVSPropertyOp57
 70
     1
102
RTVSPropertyOp58
 70
     1
102
RTVSPropertyOp59
 70
     1
102
RTVSPropertyOp60
 70
     1
102
RTVSPropertyOp61
 70
     1
102
RTVSPropertyOp62
 70
     1
  0
XRECORD
  5
C96E
102
{ACAD_REACTORS
330
C96D
102
}
330
C96D
100
AcDbXrecord
280
     1
102
RTVSPost2010Prop28
280
     0
102
RTVSPost2010PropOp28
 70
     1
102
RTVSPost2010Prop29
280
     1
102
RTVSPost2010PropOp29
 70
     1
102
RTVSPost2010Prop30
280
     1
102
RTVSPost2010PropOp30
 70
     1
102
RTVSPost2010Prop31
280
     0
102
RTVSPost2010PropOp31
 70
     1
102
RTVSPost2010Prop32
280
     0
102
RTVSPost2010PropOp32
 70
     1
102
RTVSPost2010Prop33
280
     0
102
RTVSPost2010PropOp33
 70
     1
102
RTVSPost2010Prop34
280
     0
102
RTVSPost2010PropOp34
 70
     1
102
RTVSPost2010Prop35
280
     0
102
RTVSPost2010PropOp35
 70
     1
102
RTVSPost2010Prop36
280
     0
102
RTVSPost2010PropOp36
 70
     1
102
RTVSPost2010Prop37
 90
       50
102
RTVSPost2010PropOp37
 70
     1
102
RTVSPost2010Prop38
140
0.0
102
RTVSPost2010PropOp38
 70
     1
102
RTVSPost2010Prop39
140
1.0
102
RTVSPost2010PropOp39
 70
     1
102
RTVSPost2010Prop40
 90
        0
102
RTVSPost2010PropOp40
 70
     1
102
RTVSPost2010Prop41ColorIndex
 90
       18
102
RTVSPost2010Prop41ColorRGB
 90
        0
102
RTVSPost2010PropOp41
 70
     1
102
RTVSPost2010Prop42
 90
       50
102
RTVSPost2010PropOp42
 70
     1
102
RTVSPost2010Prop43
 90
        3
102
RTVSPost2010PropOp43
 70
     1
102
RTVSPost2010Prop44ColorIndex
 90
        5
102
RTVSPost2010Prop44ColorRGB
 90
      255
102
RTVSPost2010PropOp44
 70
     1
102
RTVSPost2010Prop45
280
     0
102
RTVSPost2010PropOp45
 70
     1
102
RTVSPost2010Prop46
 90
       50
102
RTVSPost2010PropOp46
 70
     1
102
RTVSPost2010Prop47
 90
       50
102
RTVSPost2010PropOp47
 70
     1
102
RTVSPost2010Prop48
 90
       50
102
RTVSPost2010PropOp48
 70
     1
102
RTVSPost2010Prop49
280
     0
102
RTVSPost2010PropOp49
 70
     1
102
RTVSPost2010Prop50
 90
       50
102
RTVSPost2010PropOp50
 70
     1
102
RTVSPost2010Prop51ColorIndex
 90
      256
102
RTVSPost2010Prop51ColorRGB
 90
-16777216
102
RTVSPost2010PropOp51
 70
     0
102
RTVSPost2010Prop52
140
1.0
102
RTVSPost2010PropOp52
 70
     0
102
RTVSPost2010Prop53
 90
        2
102
RTVSPost2010PropOp53
 70
     1
102
RTVSPost2010Prop54
  1
strokes_ogs.tif
102
RTVSPost2010PropOp54
 70
     1
102
RTVSPost2010Prop55
280
     0
102
RTVSPost2010PropOp55
 70
     1
102
RTVSPost2010Prop56
140
1.0
102
RTVSPost2010PropOp56
 70
     1
102
RTVSPost2010Prop57
140
1.0
102
RTVSPost2010PropOp57
 70
     1
102
RTVSPropertyOp0
 70
     1
102
RTVSPropertyOp1
 70
     1
102
RTVSPropertyOp2
 70
     1
102
RTVSPropertyOp3
 70
     1
102
RTVSPropertyOp4
 70
     1
102
RTVSPropertyOp5
 70
     1
102
RTVSPropertyOp6
 70
     1
102
RTVSPropertyOp7
 70
     1
102
RTVSPropertyOp8
 70
     1
102
RTVSPropertyOp9
 70
     1
102
RTVSPropertyOp10
 70
     1
102
RTVSPropertyOp11
 70
     1
102
RTVSPropertyOp12
 70
     1
102
RTVSPropertyOp13
 70
     1
102
RTVSPropertyOp14
 70
     1
102
RTVSPropertyOp15
 70
     1
102
RTVSPropertyOp16
 70
     1
102
RTVSPropertyOp17
 70
     1
102
RTVSPropertyOp18
 70
     1
102
RTVSPropertyOp19
 70
     1
102
RTVSPropertyOp20
 70
     1
102
RTVSPropertyOp21
 70
     1
102
RTVSPropertyOp22
 70
     1
102
RTVSPropertyOp23
 70
     1
102
RTVSPropertyOp24
 70
     1
102
RTVSPropertyOp25
 70
     1
102
RTVSPropertyOp26
 70
     1
102
RTVSPropertyOp27
 70
     1
102
RTVSPropertyOp28
 70
     1
102
RTVSPropertyOp29
 70
     1
102
RTVSPropertyOp30
 70
     1
102
RTVSPropertyOp31
 70
     1
102
RTVSPropertyOp32
 70
     1
102
RTVSPropertyOp33
 70
     1
102
RTVSPropertyOp34
 70
     1
102
RTVSPropertyOp35
 70
     1
102
RTVSPropertyOp36
 70
     1
102
RTVSPropertyOp37
 70
     1
102
RTVSPropertyOp38
 70
     1
102
RTVSPropertyOp39
 70
     1
102
RTVSPropertyOp40
 70
     1
102
RTVSPropertyOp41
 70
     1
102
RTVSPropertyOp42
 70
     1
102
RTVSPropertyOp43
 70
     1
102
RTVSPropertyOp44
 70
     1
102
RTVSPropertyOp45
 70
     1
102
RTVSPropertyOp46
 70
     1
102
RTVSPropertyOp47
 70
     1
102
RTVSPropertyOp48
 70
     1
102
RTVSPropertyOp49
 70
     1
102
RTVSPropertyOp50
 70
     1
102
RTVSPropertyOp51
 70
     0
102
RTVSPropertyOp52
 70
     0
102
RTVSPropertyOp53
 70
     1
102
RTVSPropertyOp54
 70
     1
102
RTVSPropertyOp55
 70
     1
102
RTVSPropertyOp56
 70
     1
102
RTVSPropertyOp57
 70
     1
102
RTVSPropertyOp58
 70
     1
102
RTVSPropertyOp59
 70
     1
102
RTVSPropertyOp60
 70
     1
102
RTVSPropertyOp61
 70
     1
102
RTVSPropertyOp62
 70
     1
  0
XRECORD
  5
C972
102
{ACAD_REACTORS
330
C971
102
}
330
C971
100
AcDbXrecord
280
     1
102
RTVSPost2010Prop28
280
     0
102
RTVSPost2010PropOp28
 70
     1
102
RTVSPost2010Prop29
280
     1
102
RTVSPost2010PropOp29
 70
     1
102
RTVSPost2010Prop30
280
     1
102
RTVSPost2010PropOp30
 70
     1
102
RTVSPost2010Prop31
280
     0
102
RTVSPost2010PropOp31
 70
     1
102
RTVSPost2010Prop32
280
     0
102
RTVSPost2010PropOp32
 70
     1
102
RTVSPost2010Prop33
280
     0
102
RTVSPost2010PropOp33
 70
     1
102
RTVSPost2010Prop34
280
     0
102
RTVSPost2010PropOp34
 70
     1
102
RTVSPost2010Prop35
280
     0
102
RTVSPost2010PropOp35
 70
     1
102
RTVSPost2010Prop36
280
     0
102
RTVSPost2010PropOp36
 70
     1
102
RTVSPost2010Prop37
 90
       50
102
RTVSPost2010PropOp37
 70
     1
102
RTVSPost2010Prop38
140
0.0
102
RTVSPost2010PropOp38
 70
     1
102
RTVSPost2010Prop39
140
1.0
102
RTVSPost2010PropOp39
 70
     1
102
RTVSPost2010Prop40
 90
        0
102
RTVSPost2010PropOp40
 70
     1
102
RTVSPost2010Prop41ColorIndex
 90
       18
102
RTVSPost2010Prop41ColorRGB
 90
        0
102
RTVSPost2010PropOp41
 70
     1
102
RTVSPost2010Prop42
 90
       50
102
RTVSPost2010PropOp42
 70
     1
102
RTVSPost2010Prop43
 90
        3
102
RTVSPost2010PropOp43
 70
     1
102
RTVSPost2010Prop44ColorIndex
 90
        5
102
RTVSPost2010Prop44ColorRGB
 90
      255
102
RTVSPost2010PropOp44
 70
     1
102
RTVSPost2010Prop45
280
     0
102
RTVSPost2010PropOp45
 70
     1
102
RTVSPost2010Prop46
 90
       50
102
RTVSPost2010PropOp46
 70
     1
102
RTVSPost2010Prop47
 90
       50
102
RTVSPost2010PropOp47
 70
     1
102
RTVSPost2010Prop48
 90
       50
102
RTVSPost2010PropOp48
 70
     1
102
RTVSPost2010Prop49
280
     0
102
RTVSPost2010PropOp49
 70
     1
102
RTVSPost2010Prop50
 90
       50
102
RTVSPost2010PropOp50
 70
     1
102
RTVSPost2010Prop51ColorIndex
 90
      256
102
RTVSPost2010Prop51ColorRGB
 90
-16777216
102
RTVSPost2010PropOp51
 70
     0
102
RTVSPost2010Prop52
140
1.0
102
RTVSPost2010PropOp52
 70
     0
102
RTVSPost2010Prop53
 90
        2
102
RTVSPost2010PropOp53
 70
     1
102
RTVSPost2010Prop54
  1
strokes_ogs.tif
102
RTVSPost2010PropOp54
 70
     1
102
RTVSPost2010Prop55
280
     0
102
RTVSPost2010PropOp55
 70
     1
102
RTVSPost2010Prop56
140
1.0
102
RTVSPost2010PropOp56
 70
     1
102
RTVSPost2010Prop57
140
1.0
102
RTVSPost2010PropOp57
 70
     1
102
RTVSPropertyOp0
 70
     1
102
RTVSPropertyOp1
 70
     1
102
RTVSPropertyOp2
 70
     1
102
RTVSPropertyOp3
 70
     1
102
RTVSPropertyOp4
 70
     1
102
RTVSPropertyOp5
 70
     1
102
RTVSPropertyOp6
 70
     1
102
RTVSPropertyOp7
 70
     1
102
RTVSPropertyOp8
 70
     1
102
RTVSPropertyOp9
 70
     1
102
RTVSPropertyOp10
 70
     1
102
RTVSPropertyOp11
 70
     1
102
RTVSPropertyOp12
 70
     1
102
RTVSPropertyOp13
 70
     1
102
RTVSPropertyOp14
 70
     1
102
RTVSPropertyOp15
 70
     1
102
RTVSPropertyOp16
 70
     1
102
RTVSPropertyOp17
 70
     1
102
RTVSPropertyOp18
 70
     1
102
RTVSPropertyOp19
 70
     1
102
RTVSPropertyOp20
 70
     1
102
RTVSPropertyOp21
 70
     1
102
RTVSPropertyOp22
 70
     1
102
RTVSPropertyOp23
 70
     1
102
RTVSPropertyOp24
 70
     1
102
RTVSPropertyOp25
 70
     1
102
RTVSPropertyOp26
 70
     1
102
RTVSPropertyOp27
 70
     1
102
RTVSPropertyOp28
 70
     1
102
RTVSPropertyOp29
 70
     1
102
RTVSPropertyOp30
 70
     1
102
RTVSPropertyOp31
 70
     1
102
RTVSPropertyOp32
 70
     1
102
RTVSPropertyOp33
 70
     1
102
RTVSPropertyOp34
 70
     1
102
RTVSPropertyOp35
 70
     1
102
RTVSPropertyOp36
 70
     1
102
RTVSPropertyOp37
 70
     1
102
RTVSPropertyOp38
 70
     1
102
RTVSPropertyOp39
 70
     1
102
RTVSPropertyOp40
 70
     1
102
RTVSPropertyOp41
 70
     1
102
RTVSPropertyOp42
 70
     1
102
RTVSPropertyOp43
 70
     1
102
RTVSPropertyOp44
 70
     1
102
RTVSPropertyOp45
 70
     1
102
RTVSPropertyOp46
 70
     1
102
RTVSPropertyOp47
 70
     1
102
RTVSPropertyOp48
 70
     1
102
RTVSPropertyOp49
 70
     1
102
RTVSPropertyOp50
 70
     1
102
RTVSPropertyOp51
 70
     0
102
RTVSPropertyOp52
 70
     0
102
RTVSPropertyOp53
 70
     1
102
RTVSPropertyOp54
 70
     1
102
RTVSPropertyOp55
 70
     1
102
RTVSPropertyOp56
 70
     1
102
RTVSPropertyOp57
 70
     1
102
RTVSPropertyOp58
 70
     1
102
RTVSPropertyOp59
 70
     1
102
RTVSPropertyOp60
 70
     1
102
RTVSPropertyOp61
 70
     1
102
RTVSPropertyOp62
 70
     1
  0
XRECORD
  5
C98C
102
{ACAD_REACTORS
330
C98B
102
}
330
C98B
100
AcDbXrecord
280
     1
102
RTVSPost2010Prop28
280
     0
102
RTVSPost2010PropOp28
 70
     1
102
RTVSPost2010Prop29
280
     1
102
RTVSPost2010PropOp29
 70
     1
102
RTVSPost2010Prop30
280
     1
102
RTVSPost2010PropOp30
 70
     1
102
RTVSPost2010Prop31
280
     0
102
RTVSPost2010PropOp31
 70
     1
102
RTVSPost2010Prop32
280
     0
102
RTVSPost2010PropOp32
 70
     1
102
RTVSPost2010Prop33
280
     0
102
RTVSPost2010PropOp33
 70
     1
102
RTVSPost2010Prop34
280
     0
102
RTVSPost2010PropOp34
 70
     1
102
RTVSPost2010Prop35
280
     0
102
RTVSPost2010PropOp35
 70
     1
102
RTVSPost2010Prop36
280
     0
102
RTVSPost2010PropOp36
 70
     1
102
RTVSPost2010Prop37
 90
       50
102
RTVSPost2010PropOp37
 70
     0
102
RTVSPost2010Prop38
140
0.0
102
RTVSPost2010PropOp38
 70
     0
102
RTVSPost2010Prop39
140
1.0
102
RTVSPost2010PropOp39
 70
     0
102
RTVSPost2010Prop40
 90
        0
102
RTVSPost2010PropOp40
 70
     0
102
RTVSPost2010Prop41ColorIndex
 90
       18
102
RTVSPost2010Prop41ColorRGB
 90
        0
102
RTVSPost2010PropOp41
 70
     0
102
RTVSPost2010Prop42
 90
       50
102
RTVSPost2010PropOp42
 70
     0
102
RTVSPost2010Prop43
 90
        3
102
RTVSPost2010PropOp43
 70
     0
102
RTVSPost2010Prop44ColorIndex
 90
        5
102
RTVSPost2010Prop44ColorRGB
 90
      255
102
RTVSPost2010PropOp44
 70
     0
102
RTVSPost2010Prop45
280
     0
102
RTVSPost2010PropOp45
 70
     1
102
RTVSPost2010Prop46
 90
       50
102
RTVSPost2010PropOp46
 70
     0
102
RTVSPost2010Prop47
 90
       50
102
RTVSPost2010PropOp47
 70
     0
102
RTVSPost2010Prop48
 90
       50
102
RTVSPost2010PropOp48
 70
     0
102
RTVSPost2010Prop49
280
     0
102
RTVSPost2010PropOp49
 70
     1
102
RTVSPost2010Prop50
 90
       50
102
RTVSPost2010PropOp50
 70
     0
102
RTVSPost2010Prop51ColorIndex
 90
      256
102
RTVSPost2010Prop51ColorRGB
 90
-16777216
102
RTVSPost2010PropOp51
 70
     0
102
RTVSPost2010Prop52
140
1.0
102
RTVSPost2010PropOp52
 70
     0
102
RTVSPost2010Prop53
 90
        2
102
RTVSPost2010PropOp53
 70
     0
102
RTVSPost2010Prop54
  1
strokes_ogs.tif
102
RTVSPost2010PropOp54
 70
     0
102
RTVSPost2010Prop55
280
     0
102
RTVSPost2010PropOp55
 70
     1
102
RTVSPost2010Prop56
140
1.0
102
RTVSPost2010PropOp56
 70
     0
102
RTVSPost2010Prop57
140
1.0
102
RTVSPost2010PropOp57
 70
     0
102
RTVSPropertyOp0
 70
     0
102
RTVSPropertyOp1
 70
     0
102
RTVSPropertyOp2
 70
     0
102
RTVSPropertyOp3
 70
     0
102
RTVSPropertyOp4
 70
     0
102
RTVSPropertyOp5
 70
     0
102
RTVSPropertyOp6
 70
     0
102
RTVSPropertyOp7
 70
     0
102
RTVSPropertyOp8
 70
     0
102
RTVSPropertyOp9
 70
     0
102
RTVSPropertyOp10
 70
     0
102
RTVSPropertyOp11
 70
     0
102
RTVSPropertyOp12
 70
     0
102
RTVSPropertyOp13
 70
     0
102
RTVSPropertyOp14
 70
     2
102
RTVSPropertyOp15
 70
     0
102
RTVSPropertyOp16
 70
     0
102
RTVSPropertyOp17
 70
     0
102
RTVSPropertyOp18
 70
     0
102
RTVSPropertyOp19
 70
     0
102
RTVSPropertyOp20
 70
     0
102
RTVSPropertyOp21
 70
     0
102
RTVSPropertyOp22
 70
     0
102
RTVSPropertyOp23
 70
     0
102
RTVSPropertyOp24
 70
     0
102
RTVSPropertyOp25
 70
     0
102
RTVSPropertyOp26
 70
     0
102
RTVSPropertyOp27
 70
     0
102
RTVSPropertyOp28
 70
     1
102
RTVSPropertyOp29
 70
     1
102
RTVSPropertyOp30
 70
     1
102
RTVSPropertyOp31
 70
     1
102
RTVSPropertyOp32
 70
     1
102
RTVSPropertyOp33
 70
     1
102
RTVSPropertyOp34
 70
     1
102
RTVSPropertyOp35
 70
     1
102
RTVSPropertyOp36
 70
     1
102
RTVSPropertyOp37
 70
     0
102
RTVSPropertyOp38
 70
     0
102
RTVSPropertyOp39
 70
     0
102
RTVSPropertyOp40
 70
     0
102
RTVSPropertyOp41
 70
     0
102
RTVSPropertyOp42
 70
     0
102
RTVSPropertyOp43
 70
     0
102
RTVSPropertyOp44
 70
     0
102
RTVSPropertyOp45
 70
     1
102
RTVSPropertyOp46
 70
     0
102
RTVSPropertyOp47
 70
     0
102
RTVSPropertyOp48
 70
     0
102
RTVSPropertyOp49
 70
     1
102
RTVSPropertyOp50
 70
     0
102
RTVSPropertyOp51
 70
     0
102
RTVSPropertyOp52
 70
     0
102
RTVSPropertyOp53
 70
     0
102
RTVSPropertyOp54
 70
     0
102
RTVSPropertyOp55
 70
     1
102
RTVSPropertyOp56
 70
     0
102
RTVSPropertyOp57
 70
     0
102
RTVSPropertyOp58
 70
     0
102
RTVSPropertyOp59
 70
     0
102
RTVSPropertyOp60
 70
     0
102
RTVSPropertyOp61
 70
     0
102
RTVSPropertyOp62
 70
     0
  0
XRECORD
  5
C97A
102
{ACAD_REACTORS
330
C979
102
}
330
C979
100
AcDbXrecord
280
     1
102
RTVSPost2010Prop28
280
     0
102
RTVSPost2010PropOp28
 70
     1
102
RTVSPost2010Prop29
280
     1
102
RTVSPost2010PropOp29
 70
     1
102
RTVSPost2010Prop30
280
     1
102
RTVSPost2010PropOp30
 70
     1
102
RTVSPost2010Prop31
280
     0
102
RTVSPost2010PropOp31
 70
     1
102
RTVSPost2010Prop32
280
     0
102
RTVSPost2010PropOp32
 70
     1
102
RTVSPost2010Prop33
280
     0
102
RTVSPost2010PropOp33
 70
     1
102
RTVSPost2010Prop34
280
     0
102
RTVSPost2010PropOp34
 70
     1
102
RTVSPost2010Prop35
280
     0
102
RTVSPost2010PropOp35
 70
     1
102
RTVSPost2010Prop36
280
     0
102
RTVSPost2010PropOp36
 70
     1
102
RTVSPost2010Prop37
 90
       50
102
RTVSPost2010PropOp37
 70
     1
102
RTVSPost2010Prop38
140
0.0
102
RTVSPost2010PropOp38
 70
     1
102
RTVSPost2010Prop39
140
1.0
102
RTVSPost2010PropOp39
 70
     1
102
RTVSPost2010Prop40
 90
        0
102
RTVSPost2010PropOp40
 70
     1
102
RTVSPost2010Prop41ColorIndex
 90
       18
102
RTVSPost2010Prop41ColorRGB
 90
        0
102
RTVSPost2010PropOp41
 70
     1
102
RTVSPost2010Prop42
 90
       50
102
RTVSPost2010PropOp42
 70
     1
102
RTVSPost2010Prop43
 90
        3
102
RTVSPost2010PropOp43
 70
     1
102
RTVSPost2010Prop44ColorIndex
 90
        5
102
RTVSPost2010Prop44ColorRGB
 90
      255
102
RTVSPost2010PropOp44
 70
     1
102
RTVSPost2010Prop45
280
     0
102
RTVSPost2010PropOp45
 70
     1
102
RTVSPost2010Prop46
 90
       50
102
RTVSPost2010PropOp46
 70
     1
102
RTVSPost2010Prop47
 90
       50
102
RTVSPost2010PropOp47
 70
     1
102
RTVSPost2010Prop48
 90
       50
102
RTVSPost2010PropOp48
 70
     1
102
RTVSPost2010Prop49
280
     0
102
RTVSPost2010PropOp49
 70
     1
102
RTVSPost2010Prop50
 90
       50
102
RTVSPost2010PropOp50
 70
     1
102
RTVSPost2010Prop51ColorIndex
 90
      256
102
RTVSPost2010Prop51ColorRGB
 90
-16777216
102
RTVSPost2010PropOp51
 70
     0
102
RTVSPost2010Prop52
140
1.0
102
RTVSPost2010PropOp52
 70
     0
102
RTVSPost2010Prop53
 90
        2
102
RTVSPost2010PropOp53
 70
     1
102
RTVSPost2010Prop54
  1
strokes_ogs.tif
102
RTVSPost2010PropOp54
 70
     1
102
RTVSPost2010Prop55
280
     0
102
RTVSPost2010PropOp55
 70
     1
102
RTVSPost2010Prop56
140
1.0
102
RTVSPost2010PropOp56
 70
     1
102
RTVSPost2010Prop57
140
1.0
102
RTVSPost2010PropOp57
 70
     1
102
RTVSPropertyOp0
 70
     1
102
RTVSPropertyOp1
 70
     1
102
RTVSPropertyOp2
 70
     1
102
RTVSPropertyOp3
 70
     1
102
RTVSPropertyOp4
 70
     1
102
RTVSPropertyOp5
 70
     1
102
RTVSPropertyOp6
 70
     1
102
RTVSPropertyOp7
 70
     1
102
RTVSPropertyOp8
 70
     1
102
RTVSPropertyOp9
 70
     1
102
RTVSPropertyOp10
 70
     1
102
RTVSPropertyOp11
 70
     1
102
RTVSPropertyOp12
 70
     1
102
RTVSPropertyOp13
 70
     1
102
RTVSPropertyOp14
 70
     1
102
RTVSPropertyOp15
 70
     1
102
RTVSPropertyOp16
 70
     1
102
RTVSPropertyOp17
 70
     1
102
RTVSPropertyOp18
 70
     1
102
RTVSPropertyOp19
 70
     1
102
RTVSPropertyOp20
 70
     1
102
RTVSPropertyOp21
 70
     1
102
RTVSPropertyOp22
 70
     1
102
RTVSPropertyOp23
 70
     1
102
RTVSPropertyOp24
 70
     1
102
RTVSPropertyOp25
 70
     1
102
RTVSPropertyOp26
 70
     1
102
RTVSPropertyOp27
 70
     1
102
RTVSPropertyOp28
 70
     1
102
RTVSPropertyOp29
 70
     1
102
RTVSPropertyOp30
 70
     1
102
RTVSPropertyOp31
 70
     1
102
RTVSPropertyOp32
 70
     1
102
RTVSPropertyOp33
 70
     1
102
RTVSPropertyOp34
 70
     1
102
RTVSPropertyOp35
 70
     1
102
RTVSPropertyOp36
 70
     1
102
RTVSPropertyOp37
 70
     1
102
RTVSPropertyOp38
 70
     1
102
RTVSPropertyOp39
 70
     1
102
RTVSPropertyOp40
 70
     1
102
RTVSPropertyOp41
 70
     1
102
RTVSPropertyOp42
 70
     1
102
RTVSPropertyOp43
 70
     1
102
RTVSPropertyOp44
 70
     1
102
RTVSPropertyOp45
 70
     1
102
RTVSPropertyOp46
 70
     1
102
RTVSPropertyOp47
 70
     1
102
RTVSPropertyOp48
 70
     1
102
RTVSPropertyOp49
 70
     1
102
RTVSPropertyOp50
 70
     1
102
RTVSPropertyOp51
 70
     0
102
RTVSPropertyOp52
 70
     0
102
RTVSPropertyOp53
 70
     1
102
RTVSPropertyOp54
 70
     1
102
RTVSPropertyOp55
 70
     1
102
RTVSPropertyOp56
 70
     1
102
RTVSPropertyOp57
 70
     1
102
RTVSPropertyOp58
 70
     1
102
RTVSPropertyOp59
 70
     1
102
RTVSPropertyOp60
 70
     1
102
RTVSPropertyOp61
 70
     1
102
RTVSPropertyOp62
 70
     1
  0
XRECORD
  5
C95E
102
{ACAD_REACTORS
330
C95D
102
}
330
C95D
100
AcDbXrecord
280
     1
102
RTVSPost2010Prop28
280
     0
102
RTVSPost2010PropOp28
 70
     1
102
RTVSPost2010Prop29
280
     1
102
RTVSPost2010PropOp29
 70
     1
102
RTVSPost2010Prop30
280
     1
102
RTVSPost2010PropOp30
 70
     1
102
RTVSPost2010Prop31
280
     0
102
RTVSPost2010PropOp31
 70
     1
102
RTVSPost2010Prop32
280
     0
102
RTVSPost2010PropOp32
 70
     1
102
RTVSPost2010Prop33
280
     0
102
RTVSPost2010PropOp33
 70
     1
102
RTVSPost2010Prop34
280
     0
102
RTVSPost2010PropOp34
 70
     1
102
RTVSPost2010Prop35
280
     0
102
RTVSPost2010PropOp35
 70
     1
102
RTVSPost2010Prop36
280
     0
102
RTVSPost2010PropOp36
 70
     1
102
RTVSPost2010Prop37
 90
       50
102
RTVSPost2010PropOp37
 70
     1
102
RTVSPost2010Prop38
140
0.0
102
RTVSPost2010PropOp38
 70
     1
102
RTVSPost2010Prop39
140
1.0
102
RTVSPost2010PropOp39
 70
     1
102
RTVSPost2010Prop40
 90
        0
102
RTVSPost2010PropOp40
 70
     1
102
RTVSPost2010Prop41ColorIndex
 90
       18
102
RTVSPost2010Prop41ColorRGB
 90
        0
102
RTVSPost2010PropOp41
 70
     1
102
RTVSPost2010Prop42
 90
       50
102
RTVSPost2010PropOp42
 70
     1
102
RTVSPost2010Prop43
 90
        3
102
RTVSPost2010PropOp43
 70
     1
102
RTVSPost2010Prop44ColorIndex
 90
        5
102
RTVSPost2010Prop44ColorRGB
 90
      255
102
RTVSPost2010PropOp44
 70
     1
102
RTVSPost2010Prop45
280
     0
102
RTVSPost2010PropOp45
 70
     1
102
RTVSPost2010Prop46
 90
       50
102
RTVSPost2010PropOp46
 70
     1
102
RTVSPost2010Prop47
 90
       50
102
RTVSPost2010PropOp47
 70
     1
102
RTVSPost2010Prop48
 90
       50
102
RTVSPost2010PropOp48
 70
     1
102
RTVSPost2010Prop49
280
     0
102
RTVSPost2010PropOp49
 70
     1
102
RTVSPost2010Prop50
 90
       50
102
RTVSPost2010PropOp50
 70
     1
102
RTVSPost2010Prop51ColorIndex
 90
      256
102
RTVSPost2010Prop51ColorRGB
 90
-16777216
102
RTVSPost2010PropOp51
 70
     0
102
RTVSPost2010Prop52
140
1.0
102
RTVSPost2010PropOp52
 70
     0
102
RTVSPost2010Prop53
 90
        2
102
RTVSPost2010PropOp53
 70
     1
102
RTVSPost2010Prop54
  1
strokes_ogs.tif
102
RTVSPost2010PropOp54
 70
     1
102
RTVSPost2010Prop55
280
     0
102
RTVSPost2010PropOp55
 70
     1
102
RTVSPost2010Prop56
140
1.0
102
RTVSPost2010PropOp56
 70
     1
102
RTVSPost2010Prop57
140
1.0
102
RTVSPost2010PropOp57
 70
     1
102
RTVSPropertyOp0
 70
     1
102
RTVSPropertyOp1
 70
     1
102
RTVSPropertyOp2
 70
     1
102
RTVSPropertyOp3
 70
     1
102
RTVSPropertyOp4
 70
     1
102
RTVSPropertyOp5
 70
     1
102
RTVSPropertyOp6
 70
     1
102
RTVSPropertyOp7
 70
     1
102
RTVSPropertyOp8
 70
     1
102
RTVSPropertyOp9
 70
     1
102
RTVSPropertyOp10
 70
     1
102
RTVSPropertyOp11
 70
     1
102
RTVSPropertyOp12
 70
     1
102
RTVSPropertyOp13
 70
     1
102
RTVSPropertyOp14
 70
     1
102
RTVSPropertyOp15
 70
     1
102
RTVSPropertyOp16
 70
     1
102
RTVSPropertyOp17
 70
     1
102
RTVSPropertyOp18
 70
     1
102
RTVSPropertyOp19
 70
     1
102
RTVSPropertyOp20
 70
     1
102
RTVSPropertyOp21
 70
     1
102
RTVSPropertyOp22
 70
     1
102
RTVSPropertyOp23
 70
     1
102
RTVSPropertyOp24
 70
     1
102
RTVSPropertyOp25
 70
     1
102
RTVSPropertyOp26
 70
     1
102
RTVSPropertyOp27
 70
     1
102
RTVSPropertyOp28
 70
     1
102
RTVSPropertyOp29
 70
     1
102
RTVSPropertyOp30
 70
     1
102
RTVSPropertyOp31
 70
     1
102
RTVSPropertyOp32
 70
     1
102
RTVSPropertyOp33
 70
     1
102
RTVSPropertyOp34
 70
     1
102
RTVSPropertyOp35
 70
     1
102
RTVSPropertyOp36
 70
     1
102
RTVSPropertyOp37
 70
     1
102
RTVSPropertyOp38
 70
     1
102
RTVSPropertyOp39
 70
     1
102
RTVSPropertyOp40
 70
     1
102
RTVSPropertyOp41
 70
     1
102
RTVSPropertyOp42
 70
     1
102
RTVSPropertyOp43
 70
     1
102
RTVSPropertyOp44
 70
     1
102
RTVSPropertyOp45
 70
     1
102
RTVSPropertyOp46
 70
     1
102
RTVSPropertyOp47
 70
     1
102
RTVSPropertyOp48
 70
     1
102
RTVSPropertyOp49
 70
     1
102
RTVSPropertyOp50
 70
     1
102
RTVSPropertyOp51
 70
     0
102
RTVSPropertyOp52
 70
     0
102
RTVSPropertyOp53
 70
     1
102
RTVSPropertyOp54
 70
     1
102
RTVSPropertyOp55
 70
     1
102
RTVSPropertyOp56
 70
     1
102
RTVSPropertyOp57
 70
     1
102
RTVSPropertyOp58
 70
     1
102
RTVSPropertyOp59
 70
     1
102
RTVSPropertyOp60
 70
     1
102
RTVSPropertyOp61
 70
     1
102
RTVSPropertyOp62
 70
     1
  0
XRECORD
  5
C960
102
{ACAD_REACTORS
330
C95F
102
}
330
C95F
100
AcDbXrecord
280
     1
102
RTVSPost2010Prop28
280
     0
102
RTVSPost2010PropOp28
 70
     1
102
RTVSPost2010Prop29
280
     1
102
RTVSPost2010PropOp29
 70
     1
102
RTVSPost2010Prop30
280
     1
102
RTVSPost2010PropOp30
 70
     1
102
RTVSPost2010Prop31
280
     0
102
RTVSPost2010PropOp31
 70
     1
102
RTVSPost2010Prop32
280
     0
102
RTVSPost2010PropOp32
 70
     1
102
RTVSPost2010Prop33
280
     0
102
RTVSPost2010PropOp33
 70
     1
102
RTVSPost2010Prop34
280
     0
102
RTVSPost2010PropOp34
 70
     1
102
RTVSPost2010Prop35
280
     0
102
RTVSPost2010PropOp35
 70
     1
102
RTVSPost2010Prop36
280
     0
102
RTVSPost2010PropOp36
 70
     1
102
RTVSPost2010Prop37
 90
       50
102
RTVSPost2010PropOp37
 70
     1
102
RTVSPost2010Prop38
140
0.0
102
RTVSPost2010PropOp38
 70
     1
102
RTVSPost2010Prop39
140
1.0
102
RTVSPost2010PropOp39
 70
     1
102
RTVSPost2010Prop40
 90
        0
102
RTVSPost2010PropOp40
 70
     1
102
RTVSPost2010Prop41ColorIndex
 90
       18
102
RTVSPost2010Prop41ColorRGB
 90
        0
102
RTVSPost2010PropOp41
 70
     1
102
RTVSPost2010Prop42
 90
       50
102
RTVSPost2010PropOp42
 70
     1
102
RTVSPost2010Prop43
 90
        3
102
RTVSPost2010PropOp43
 70
     1
102
RTVSPost2010Prop44ColorIndex
 90
        5
102
RTVSPost2010Prop44ColorRGB
 90
      255
102
RTVSPost2010PropOp44
 70
     1
102
RTVSPost2010Prop45
280
     0
102
RTVSPost2010PropOp45
 70
     1
102
RTVSPost2010Prop46
 90
       50
102
RTVSPost2010PropOp46
 70
     1
102
RTVSPost2010Prop47
 90
       50
102
RTVSPost2010PropOp47
 70
     1
102
RTVSPost2010Prop48
 90
       50
102
RTVSPost2010PropOp48
 70
     1
102
RTVSPost2010Prop49
280
     0
102
RTVSPost2010PropOp49
 70
     1
102
RTVSPost2010Prop50
 90
       50
102
RTVSPost2010PropOp50
 70
     1
102
RTVSPost2010Prop51ColorIndex
 90
      256
102
RTVSPost2010Prop51ColorRGB
 90
-16777216
102
RTVSPost2010PropOp51
 70
     0
102
RTVSPost2010Prop52
140
1.0
102
RTVSPost2010PropOp52
 70
     0
102
RTVSPost2010Prop53
 90
        2
102
RTVSPost2010PropOp53
 70
     1
102
RTVSPost2010Prop54
  1
strokes_ogs.tif
102
RTVSPost2010PropOp54
 70
     1
102
RTVSPost2010Prop55
280
     0
102
RTVSPost2010PropOp55
 70
     1
102
RTVSPost2010Prop56
140
1.0
102
RTVSPost2010PropOp56
 70
     1
102
RTVSPost2010Prop57
140
1.0
102
RTVSPost2010PropOp57
 70
     1
102
RTVSPropertyOp0
 70
     1
102
RTVSPropertyOp1
 70
     1
102
RTVSPropertyOp2
 70
     1
102
RTVSPropertyOp3
 70
     1
102
RTVSPropertyOp4
 70
     1
102
RTVSPropertyOp5
 70
     1
102
RTVSPropertyOp6
 70
     1
102
RTVSPropertyOp7
 70
     1
102
RTVSPropertyOp8
 70
     1
102
RTVSPropertyOp9
 70
     1
102
RTVSPropertyOp10
 70
     1
102
RTVSPropertyOp11
 70
     1
102
RTVSPropertyOp12
 70
     1
102
RTVSPropertyOp13
 70
     1
102
RTVSPropertyOp14
 70
     1
102
RTVSPropertyOp15
 70
     1
102
RTVSPropertyOp16
 70
     1
102
RTVSPropertyOp17
 70
     1
102
RTVSPropertyOp18
 70
     1
102
RTVSPropertyOp19
 70
     1
102
RTVSPropertyOp20
 70
     1
102
RTVSPropertyOp21
 70
     1
102
RTVSPropertyOp22
 70
     1
102
RTVSPropertyOp23
 70
     1
102
RTVSPropertyOp24
 70
     1
102
RTVSPropertyOp25
 70
     1
102
RTVSPropertyOp26
 70
     1
102
RTVSPropertyOp27
 70
     1
102
RTVSPropertyOp28
 70
     1
102
RTVSPropertyOp29
 70
     1
102
RTVSPropertyOp30
 70
     1
102
RTVSPropertyOp31
 70
     1
102
RTVSPropertyOp32
 70
     1
102
RTVSPropertyOp33
 70
     1
102
RTVSPropertyOp34
 70
     1
102
RTVSPropertyOp35
 70
     1
102
RTVSPropertyOp36
 70
     1
102
RTVSPropertyOp37
 70
     1
102
RTVSPropertyOp38
 70
     1
102
RTVSPropertyOp39
 70
     1
102
RTVSPropertyOp40
 70
     1
102
RTVSPropertyOp41
 70
     1
102
RTVSPropertyOp42
 70
     1
102
RTVSPropertyOp43
 70
     1
102
RTVSPropertyOp44
 70
     1
102
RTVSPropertyOp45
 70
     1
102
RTVSPropertyOp46
 70
     1
102
RTVSPropertyOp47
 70
     1
102
RTVSPropertyOp48
 70
     1
102
RTVSPropertyOp49
 70
     1
102
RTVSPropertyOp50
 70
     1
102
RTVSPropertyOp51
 70
     0
102
RTVSPropertyOp52
 70
     0
102
RTVSPropertyOp53
 70
     1
102
RTVSPropertyOp54
 70
     1
102
RTVSPropertyOp55
 70
     1
102
RTVSPropertyOp56
 70
     1
102
RTVSPropertyOp57
 70
     1
102
RTVSPropertyOp58
 70
     1
102
RTVSPropertyOp59
 70
     1
102
RTVSPropertyOp60
 70
     1
102
RTVSPropertyOp61
 70
     1
102
RTVSPropertyOp62
 70
     1
  0
XRECORD
  5
C962
102
{ACAD_REACTORS
330
C961
102
}
330
C961
100
AcDbXrecord
280
     1
102
RTVSPost2010Prop28
280
     0
102
RTVSPost2010PropOp28
 70
     1
102
RTVSPost2010Prop29
280
     1
102
RTVSPost2010PropOp29
 70
     1
102
RTVSPost2010Prop30
280
     1
102
RTVSPost2010PropOp30
 70
     1
102
RTVSPost2010Prop31
280
     0
102
RTVSPost2010PropOp31
 70
     1
102
RTVSPost2010Prop32
280
     0
102
RTVSPost2010PropOp32
 70
     1
102
RTVSPost2010Prop33
280
     0
102
RTVSPost2010PropOp33
 70
     1
102
RTVSPost2010Prop34
280
     0
102
RTVSPost2010PropOp34
 70
     1
102
RTVSPost2010Prop35
280
     0
102
RTVSPost2010PropOp35
 70
     1
102
RTVSPost2010Prop36
280
     0
102
RTVSPost2010PropOp36
 70
     1
102
RTVSPost2010Prop37
 90
       50
102
RTVSPost2010PropOp37
 70
     1
102
RTVSPost2010Prop38
140
0.0
102
RTVSPost2010PropOp38
 70
     1
102
RTVSPost2010Prop39
140
1.0
102
RTVSPost2010PropOp39
 70
     1
102
RTVSPost2010Prop40
 90
        0
102
RTVSPost2010PropOp40
 70
     1
102
RTVSPost2010Prop41ColorIndex
 90
       18
102
RTVSPost2010Prop41ColorRGB
 90
        0
102
RTVSPost2010PropOp41
 70
     1
102
RTVSPost2010Prop42
 90
       50
102
RTVSPost2010PropOp42
 70
     1
102
RTVSPost2010Prop43
 90
        3
102
RTVSPost2010PropOp43
 70
     1
102
RTVSPost2010Prop44ColorIndex
 90
        5
102
RTVSPost2010Prop44ColorRGB
 90
      255
102
RTVSPost2010PropOp44
 70
     1
102
RTVSPost2010Prop45
280
     0
102
RTVSPost2010PropOp45
 70
     1
102
RTVSPost2010Prop46
 90
       50
102
RTVSPost2010PropOp46
 70
     1
102
RTVSPost2010Prop47
 90
       50
102
RTVSPost2010PropOp47
 70
     1
102
RTVSPost2010Prop48
 90
       50
102
RTVSPost2010PropOp48
 70
     1
102
RTVSPost2010Prop49
280
     0
102
RTVSPost2010PropOp49
 70
     1
102
RTVSPost2010Prop50
 90
       50
102
RTVSPost2010PropOp50
 70
     1
102
RTVSPost2010Prop51ColorIndex
 90
      256
102
RTVSPost2010Prop51ColorRGB
 90
-16777216
102
RTVSPost2010PropOp51
 70
     0
102
RTVSPost2010Prop52
140
1.0
102
RTVSPost2010PropOp52
 70
     0
102
RTVSPost2010Prop53
 90
        2
102
RTVSPost2010PropOp53
 70
     1
102
RTVSPost2010Prop54
  1
strokes_ogs.tif
102
RTVSPost2010PropOp54
 70
     1
102
RTVSPost2010Prop55
280
     0
102
RTVSPost2010PropOp55
 70
     1
102
RTVSPost2010Prop56
140
1.0
102
RTVSPost2010PropOp56
 70
     1
102
RTVSPost2010Prop57
140
1.0
102
RTVSPost2010PropOp57
 70
     1
102
RTVSPropertyOp0
 70
     1
102
RTVSPropertyOp1
 70
     1
102
RTVSPropertyOp2
 70
     1
102
RTVSPropertyOp3
 70
     1
102
RTVSPropertyOp4
 70
     1
102
RTVSPropertyOp5
 70
     1
102
RTVSPropertyOp6
 70
     1
102
RTVSPropertyOp7
 70
     1
102
RTVSPropertyOp8
 70
     1
102
RTVSPropertyOp9
 70
     1
102
RTVSPropertyOp10
 70
     1
102
RTVSPropertyOp11
 70
     1
102
RTVSPropertyOp12
 70
     1
102
RTVSPropertyOp13
 70
     1
102
RTVSPropertyOp14
 70
     1
102
RTVSPropertyOp15
 70
     1
102
RTVSPropertyOp16
 70
     1
102
RTVSPropertyOp17
 70
     1
102
RTVSPropertyOp18
 70
     1
102
RTVSPropertyOp19
 70
     1
102
RTVSPropertyOp20
 70
     1
102
RTVSPropertyOp21
 70
     1
102
RTVSPropertyOp22
 70
     1
102
RTVSPropertyOp23
 70
     1
102
RTVSPropertyOp24
 70
     1
102
RTVSPropertyOp25
 70
     1
102
RTVSPropertyOp26
 70
     1
102
RTVSPropertyOp27
 70
     1
102
RTVSPropertyOp28
 70
     1
102
RTVSPropertyOp29
 70
     1
102
RTVSPropertyOp30
 70
     1
102
RTVSPropertyOp31
 70
     1
102
RTVSPropertyOp32
 70
     1
102
RTVSPropertyOp33
 70
     1
102
RTVSPropertyOp34
 70
     1
102
RTVSPropertyOp35
 70
     1
102
RTVSPropertyOp36
 70
     1
102
RTVSPropertyOp37
 70
     1
102
RTVSPropertyOp38
 70
     1
102
RTVSPropertyOp39
 70
     1
102
RTVSPropertyOp40
 70
     1
102
RTVSPropertyOp41
 70
     1
102
RTVSPropertyOp42
 70
     1
102
RTVSPropertyOp43
 70
     1
102
RTVSPropertyOp44
 70
     1
102
RTVSPropertyOp45
 70
     1
102
RTVSPropertyOp46
 70
     1
102
RTVSPropertyOp47
 70
     1
102
RTVSPropertyOp48
 70
     1
102
RTVSPropertyOp49
 70
     1
102
RTVSPropertyOp50
 70
     1
102
RTVSPropertyOp51
 70
     0
102
RTVSPropertyOp52
 70
     0
102
RTVSPropertyOp53
 70
     1
102
RTVSPropertyOp54
 70
     1
102
RTVSPropertyOp55
 70
     1
102
RTVSPropertyOp56
 70
     1
102
RTVSPropertyOp57
 70
     1
102
RTVSPropertyOp58
 70
     1
102
RTVSPropertyOp59
 70
     1
102
RTVSPropertyOp60
 70
     1
102
RTVSPropertyOp61
 70
     1
102
RTVSPropertyOp62
 70
     1
  0
XRECORD
  5
C964
102
{ACAD_REACTORS
330
C963
102
}
330
C963
100
AcDbXrecord
280
     1
102
RTVSPost2010Prop28
280
     0
102
RTVSPost2010PropOp28
 70
     1
102
RTVSPost2010Prop29
280
     1
102
RTVSPost2010PropOp29
 70
     1
102
RTVSPost2010Prop30
280
     1
102
RTVSPost2010PropOp30
 70
     1
102
RTVSPost2010Prop31
280
     0
102
RTVSPost2010PropOp31
 70
     1
102
RTVSPost2010Prop32
280
     0
102
RTVSPost2010PropOp32
 70
     1
102
RTVSPost2010Prop33
280
     0
102
RTVSPost2010PropOp33
 70
     1
102
RTVSPost2010Prop34
280
     0
102
RTVSPost2010PropOp34
 70
     1
102
RTVSPost2010Prop35
280
     0
102
RTVSPost2010PropOp35
 70
     1
102
RTVSPost2010Prop36
280
     0
102
RTVSPost2010PropOp36
 70
     1
102
RTVSPost2010Prop37
 90
       50
102
RTVSPost2010PropOp37
 70
     1
102
RTVSPost2010Prop38
140
0.0
102
RTVSPost2010PropOp38
 70
     1
102
RTVSPost2010Prop39
140
1.0
102
RTVSPost2010PropOp39
 70
     1
102
RTVSPost2010Prop40
 90
        0
102
RTVSPost2010PropOp40
 70
     1
102
RTVSPost2010Prop41ColorIndex
 90
       18
102
RTVSPost2010Prop41ColorRGB
 90
        0
102
RTVSPost2010PropOp41
 70
     1
102
RTVSPost2010Prop42
 90
       50
102
RTVSPost2010PropOp42
 70
     1
102
RTVSPost2010Prop43
 90
        3
102
RTVSPost2010PropOp43
 70
     1
102
RTVSPost2010Prop44ColorIndex
 90
        5
102
RTVSPost2010Prop44ColorRGB
 90
      255
102
RTVSPost2010PropOp44
 70
     1
102
RTVSPost2010Prop45
280
     0
102
RTVSPost2010PropOp45
 70
     1
102
RTVSPost2010Prop46
 90
       50
102
RTVSPost2010PropOp46
 70
     1
102
RTVSPost2010Prop47
 90
       50
102
RTVSPost2010PropOp47
 70
     1
102
RTVSPost2010Prop48
 90
       50
102
RTVSPost2010PropOp48
 70
     1
102
RTVSPost2010Prop49
280
     0
102
RTVSPost2010PropOp49
 70
     1
102
RTVSPost2010Prop50
 90
       50
102
RTVSPost2010PropOp50
 70
     1
102
RTVSPost2010Prop51ColorIndex
 90
      256
102
RTVSPost2010Prop51ColorRGB
 90
-16777216
102
RTVSPost2010PropOp51
 70
     0
102
RTVSPost2010Prop52
140
1.0
102
RTVSPost2010PropOp52
 70
     0
102
RTVSPost2010Prop53
 90
        2
102
RTVSPost2010PropOp53
 70
     1
102
RTVSPost2010Prop54
  1
strokes_ogs.tif
102
RTVSPost2010PropOp54
 70
     1
102
RTVSPost2010Prop55
280
     0
102
RTVSPost2010PropOp55
 70
     1
102
RTVSPost2010Prop56
140
1.0
102
RTVSPost2010PropOp56
 70
     1
102
RTVSPost2010Prop57
140
1.0
102
RTVSPost2010PropOp57
 70
     1
102
RTVSPropertyOp0
 70
     1
102
RTVSPropertyOp1
 70
     1
102
RTVSPropertyOp2
 70
     1
102
RTVSPropertyOp3
 70
     1
102
RTVSPropertyOp4
 70
     1
102
RTVSPropertyOp5
 70
     1
102
RTVSPropertyOp6
 70
     1
102
RTVSPropertyOp7
 70
     1
102
RTVSPropertyOp8
 70
     1
102
RTVSPropertyOp9
 70
     1
102
RTVSPropertyOp10
 70
     1
102
RTVSPropertyOp11
 70
     1
102
RTVSPropertyOp12
 70
     1
102
RTVSPropertyOp13
 70
     1
102
RTVSPropertyOp14
 70
     1
102
RTVSPropertyOp15
 70
     1
102
RTVSPropertyOp16
 70
     1
102
RTVSPropertyOp17
 70
     1
102
RTVSPropertyOp18
 70
     1
102
RTVSPropertyOp19
 70
     1
102
RTVSPropertyOp20
 70
     1
102
RTVSPropertyOp21
 70
     1
102
RTVSPropertyOp22
 70
     1
102
RTVSPropertyOp23
 70
     1
102
RTVSPropertyOp24
 70
     1
102
RTVSPropertyOp25
 70
     1
102
RTVSPropertyOp26
 70
     1
102
RTVSPropertyOp27
 70
     1
102
RTVSPropertyOp28
 70
     1
102
RTVSPropertyOp29
 70
     1
102
RTVSPropertyOp30
 70
     1
102
RTVSPropertyOp31
 70
     1
102
RTVSPropertyOp32
 70
     1
102
RTVSPropertyOp33
 70
     1
102
RTVSPropertyOp34
 70
     1
102
RTVSPropertyOp35
 70
     1
102
RTVSPropertyOp36
 70
     1
102
RTVSPropertyOp37
 70
     1
102
RTVSPropertyOp38
 70
     1
102
RTVSPropertyOp39
 70
     1
102
RTVSPropertyOp40
 70
     1
102
RTVSPropertyOp41
 70
     1
102
RTVSPropertyOp42
 70
     1
102
RTVSPropertyOp43
 70
     1
102
RTVSPropertyOp44
 70
     1
102
RTVSPropertyOp45
 70
     1
102
RTVSPropertyOp46
 70
     1
102
RTVSPropertyOp47
 70
     1
102
RTVSPropertyOp48
 70
     1
102
RTVSPropertyOp49
 70
     1
102
RTVSPropertyOp50
 70
     1
102
RTVSPropertyOp51
 70
     0
102
RTVSPropertyOp52
 70
     0
102
RTVSPropertyOp53
 70
     1
102
RTVSPropertyOp54
 70
     1
102
RTVSPropertyOp55
 70
     1
102
RTVSPropertyOp56
 70
     1
102
RTVSPropertyOp57
 70
     1
102
RTVSPropertyOp58
 70
     1
102
RTVSPropertyOp59
 70
     1
102
RTVSPropertyOp60
 70
     1
102
RTVSPropertyOp61
 70
     1
102
RTVSPropertyOp62
 70
     1
  0
XRECORD
  5
C96C
102
{ACAD_REACTORS
330
C96B
102
}
330
C96B
100
AcDbXrecord
280
     1
102
RTVSPost2010Prop28
280
     0
102
RTVSPost2010PropOp28
 70
     1
102
RTVSPost2010Prop29
280
     1
102
RTVSPost2010PropOp29
 70
     1
102
RTVSPost2010Prop30
280
     1
102
RTVSPost2010PropOp30
 70
     1
102
RTVSPost2010Prop31
280
     0
102
RTVSPost2010PropOp31
 70
     1
102
RTVSPost2010Prop32
280
     0
102
RTVSPost2010PropOp32
 70
     1
102
RTVSPost2010Prop33
280
     0
102
RTVSPost2010PropOp33
 70
     1
102
RTVSPost2010Prop34
280
     0
102
RTVSPost2010PropOp34
 70
     1
102
RTVSPost2010Prop35
280
     0
102
RTVSPost2010PropOp35
 70
     1
102
RTVSPost2010Prop36
280
     0
102
RTVSPost2010PropOp36
 70
     1
102
RTVSPost2010Prop37
 90
       50
102
RTVSPost2010PropOp37
 70
     1
102
RTVSPost2010Prop38
140
0.0
102
RTVSPost2010PropOp38
 70
     1
102
RTVSPost2010Prop39
140
1.0
102
RTVSPost2010PropOp39
 70
     1
102
RTVSPost2010Prop40
 90
        0
102
RTVSPost2010PropOp40
 70
     1
102
RTVSPost2010Prop41ColorIndex
 90
       18
102
RTVSPost2010Prop41ColorRGB
 90
        0
102
RTVSPost2010PropOp41
 70
     1
102
RTVSPost2010Prop42
 90
       50
102
RTVSPost2010PropOp42
 70
     1
102
RTVSPost2010Prop43
 90
        3
102
RTVSPost2010PropOp43
 70
     1
102
RTVSPost2010Prop44ColorIndex
 90
        5
102
RTVSPost2010Prop44ColorRGB
 90
      255
102
RTVSPost2010PropOp44
 70
     1
102
RTVSPost2010Prop45
280
     0
102
RTVSPost2010PropOp45
 70
     1
102
RTVSPost2010Prop46
 90
       50
102
RTVSPost2010PropOp46
 70
     1
102
RTVSPost2010Prop47
 90
       50
102
RTVSPost2010PropOp47
 70
     1
102
RTVSPost2010Prop48
 90
       50
102
RTVSPost2010PropOp48
 70
     1
102
RTVSPost2010Prop49
280
     0
102
RTVSPost2010PropOp49
 70
     1
102
RTVSPost2010Prop50
 90
       50
102
RTVSPost2010PropOp50
 70
     1
102
RTVSPost2010Prop51ColorIndex
 90
      256
102
RTVSPost2010Prop51ColorRGB
 90
-16777216
102
RTVSPost2010PropOp51
 70
     0
102
RTVSPost2010Prop52
140
1.0
102
RTVSPost2010PropOp52
 70
     0
102
RTVSPost2010Prop53
 90
        2
102
RTVSPost2010PropOp53
 70
     1
102
RTVSPost2010Prop54
  1
strokes_ogs.tif
102
RTVSPost2010PropOp54
 70
     1
102
RTVSPost2010Prop55
280
     0
102
RTVSPost2010PropOp55
 70
     1
102
RTVSPost2010Prop56
140
1.0
102
RTVSPost2010PropOp56
 70
     1
102
RTVSPost2010Prop57
140
1.0
102
RTVSPost2010PropOp57
 70
     1
102
RTVSPropertyOp0
 70
     1
102
RTVSPropertyOp1
 70
     1
102
RTVSPropertyOp2
 70
     1
102
RTVSPropertyOp3
 70
     1
102
RTVSPropertyOp4
 70
     1
102
RTVSPropertyOp5
 70
     1
102
RTVSPropertyOp6
 70
     1
102
RTVSPropertyOp7
 70
     1
102
RTVSPropertyOp8
 70
     1
102
RTVSPropertyOp9
 70
     1
102
RTVSPropertyOp10
 70
     1
102
RTVSPropertyOp11
 70
     1
102
RTVSPropertyOp12
 70
     1
102
RTVSPropertyOp13
 70
     1
102
RTVSPropertyOp14
 70
     1
102
RTVSPropertyOp15
 70
     1
102
RTVSPropertyOp16
 70
     1
102
RTVSPropertyOp17
 70
     1
102
RTVSPropertyOp18
 70
     1
102
RTVSPropertyOp19
 70
     1
102
RTVSPropertyOp20
 70
     1
102
RTVSPropertyOp21
 70
     1
102
RTVSPropertyOp22
 70
     1
102
RTVSPropertyOp23
 70
     1
102
RTVSPropertyOp24
 70
     1
102
RTVSPropertyOp25
 70
     1
102
RTVSPropertyOp26
 70
     1
102
RTVSPropertyOp27
 70
     1
102
RTVSPropertyOp28
 70
     1
102
RTVSPropertyOp29
 70
     1
102
RTVSPropertyOp30
 70
     1
102
RTVSPropertyOp31
 70
     1
102
RTVSPropertyOp32
 70
     1
102
RTVSPropertyOp33
 70
     1
102
RTVSPropertyOp34
 70
     1
102
RTVSPropertyOp35
 70
     1
102
RTVSPropertyOp36
 70
     1
102
RTVSPropertyOp37
 70
     1
102
RTVSPropertyOp38
 70
     1
102
RTVSPropertyOp39
 70
     1
102
RTVSPropertyOp40
 70
     1
102
RTVSPropertyOp41
 70
     1
102
RTVSPropertyOp42
 70
     1
102
RTVSPropertyOp43
 70
     1
102
RTVSPropertyOp44
 70
     1
102
RTVSPropertyOp45
 70
     1
102
RTVSPropertyOp46
 70
     1
102
RTVSPropertyOp47
 70
     1
102
RTVSPropertyOp48
 70
     1
102
RTVSPropertyOp49
 70
     1
102
RTVSPropertyOp50
 70
     1
102
RTVSPropertyOp51
 70
     0
102
RTVSPropertyOp52
 70
     0
102
RTVSPropertyOp53
 70
     1
102
RTVSPropertyOp54
 70
     1
102
RTVSPropertyOp55
 70
     1
102
RTVSPropertyOp56
 70
     1
102
RTVSPropertyOp57
 70
     1
102
RTVSPropertyOp58
 70
     1
102
RTVSPropertyOp59
 70
     1
102
RTVSPropertyOp60
 70
     1
102
RTVSPropertyOp61
 70
     1
102
RTVSPropertyOp62
 70
     1
  0
XRECORD
  5
C988
102
{ACAD_REACTORS
330
C987
102
}
330
C987
100
AcDbXrecord
280
     1
102
RTVSPost2010Prop28
280
     0
102
RTVSPost2010PropOp28
 70
     1
102
RTVSPost2010Prop29
280
     1
102
RTVSPost2010PropOp29
 70
     1
102
RTVSPost2010Prop30
280
     1
102
RTVSPost2010PropOp30
 70
     1
102
RTVSPost2010Prop31
280
     0
102
RTVSPost2010PropOp31
 70
     1
102
RTVSPost2010Prop32
280
     0
102
RTVSPost2010PropOp32
 70
     1
102
RTVSPost2010Prop33
280
     0
102
RTVSPost2010PropOp33
 70
     1
102
RTVSPost2010Prop34
280
     0
102
RTVSPost2010PropOp34
 70
     1
102
RTVSPost2010Prop35
280
     0
102
RTVSPost2010PropOp35
 70
     1
102
RTVSPost2010Prop36
280
     0
102
RTVSPost2010PropOp36
 70
     1
102
RTVSPost2010Prop37
 90
       50
102
RTVSPost2010PropOp37
 70
     0
102
RTVSPost2010Prop38
140
0.0
102
RTVSPost2010PropOp38
 70
     0
102
RTVSPost2010Prop39
140
1.0
102
RTVSPost2010PropOp39
 70
     0
102
RTVSPost2010Prop40
 90
        0
102
RTVSPost2010PropOp40
 70
     0
102
RTVSPost2010Prop41ColorIndex
 90
       18
102
RTVSPost2010Prop41ColorRGB
 90
        0
102
RTVSPost2010PropOp41
 70
     0
102
RTVSPost2010Prop42
 90
       50
102
RTVSPost2010PropOp42
 70
     0
102
RTVSPost2010Prop43
 90
        3
102
RTVSPost2010PropOp43
 70
     0
102
RTVSPost2010Prop44ColorIndex
 90
        5
102
RTVSPost2010Prop44ColorRGB
 90
      255
102
RTVSPost2010PropOp44
 70
     0
102
RTVSPost2010Prop45
280
     0
102
RTVSPost2010PropOp45
 70
     1
102
RTVSPost2010Prop46
 90
       50
102
RTVSPost2010PropOp46
 70
     0
102
RTVSPost2010Prop47
 90
       50
102
RTVSPost2010PropOp47
 70
     0
102
RTVSPost2010Prop48
 90
       50
102
RTVSPost2010PropOp48
 70
     0
102
RTVSPost2010Prop49
280
     0
102
RTVSPost2010PropOp49
 70
     1
102
RTVSPost2010Prop50
 90
       50
102
RTVSPost2010PropOp50
 70
     0
102
RTVSPost2010Prop51ColorIndex
 90
      256
102
RTVSPost2010Prop51ColorRGB
 90
-16777216
102
RTVSPost2010PropOp51
 70
     0
102
RTVSPost2010Prop52
140
1.0
102
RTVSPost2010PropOp52
 70
     0
102
RTVSPost2010Prop53
 90
        2
102
RTVSPost2010PropOp53
 70
     0
102
RTVSPost2010Prop54
  1
strokes_ogs.tif
102
RTVSPost2010PropOp54
 70
     0
102
RTVSPost2010Prop55
280
     0
102
RTVSPost2010PropOp55
 70
     1
102
RTVSPost2010Prop56
140
1.0
102
RTVSPost2010PropOp56
 70
     0
102
RTVSPost2010Prop57
140
1.0
102
RTVSPost2010PropOp57
 70
     0
102
RTVSPropertyOp0
 70
     0
102
RTVSPropertyOp1
 70
     0
102
RTVSPropertyOp2
 70
     0
102
RTVSPropertyOp3
 70
     0
102
RTVSPropertyOp4
 70
     0
102
RTVSPropertyOp5
 70
     0
102
RTVSPropertyOp6
 70
     0
102
RTVSPropertyOp7
 70
     0
102
RTVSPropertyOp8
 70
     0
102
RTVSPropertyOp9
 70
     0
102
RTVSPropertyOp10
 70
     0
102
RTVSPropertyOp11
 70
     0
102
RTVSPropertyOp12
 70
     0
102
RTVSPropertyOp13
 70
     0
102
RTVSPropertyOp14
 70
     2
102
RTVSPropertyOp15
 70
     0
102
RTVSPropertyOp16
 70
     0
102
RTVSPropertyOp17
 70
     0
102
RTVSPropertyOp18
 70
     0
102
RTVSPropertyOp19
 70
     0
102
RTVSPropertyOp20
 70
     0
102
RTVSPropertyOp21
 70
     0
102
RTVSPropertyOp22
 70
     0
102
RTVSPropertyOp23
 70
     0
102
RTVSPropertyOp24
 70
     0
102
RTVSPropertyOp25
 70
     0
102
RTVSPropertyOp26
 70
     0
102
RTVSPropertyOp27
 70
     0
102
RTVSPropertyOp28
 70
     1
102
RTVSPropertyOp29
 70
     1
102
RTVSPropertyOp30
 70
     1
102
RTVSPropertyOp31
 70
     1
102
RTVSPropertyOp32
 70
     1
102
RTVSPropertyOp33
 70
     1
102
RTVSPropertyOp34
 70
     1
102
RTVSPropertyOp35
 70
     1
102
RTVSPropertyOp36
 70
     1
102
RTVSPropertyOp37
 70
     0
102
RTVSPropertyOp38
 70
     0
102
RTVSPropertyOp39
 70
     0
102
RTVSPropertyOp40
 70
     0
102
RTVSPropertyOp41
 70
     0
102
RTVSPropertyOp42
 70
     0
102
RTVSPropertyOp43
 70
     0
102
RTVSPropertyOp44
 70
     0
102
RTVSPropertyOp45
 70
     1
102
RTVSPropertyOp46
 70
     0
102
RTVSPropertyOp47
 70
     0
102
RTVSPropertyOp48
 70
     0
102
RTVSPropertyOp49
 70
     1
102
RTVSPropertyOp50
 70
     0
102
RTVSPropertyOp51
 70
     0
102
RTVSPropertyOp52
 70
     0
102
RTVSPropertyOp53
 70
     0
102
RTVSPropertyOp54
 70
     0
102
RTVSPropertyOp55
 70
     1
102
RTVSPropertyOp56
 70
     0
102
RTVSPropertyOp57
 70
     0
102
RTVSPropertyOp58
 70
     0
102
RTVSPropertyOp59
 70
     0
102
RTVSPropertyOp60
 70
     0
102
RTVSPropertyOp61
 70
     0
102
RTVSPropertyOp62
 70
     0
  0
XRECORD
  5
C978
102
{ACAD_REACTORS
330
C977
102
}
330
C977
100
AcDbXrecord
280
     1
102
RTVSPost2010Prop28
280
     0
102
RTVSPost2010PropOp28
 70
     1
102
RTVSPost2010Prop29
280
     1
102
RTVSPost2010PropOp29
 70
     1
102
RTVSPost2010Prop30
280
     1
102
RTVSPost2010PropOp30
 70
     1
102
RTVSPost2010Prop31
280
     0
102
RTVSPost2010PropOp31
 70
     1
102
RTVSPost2010Prop32
280
     0
102
RTVSPost2010PropOp32
 70
     1
102
RTVSPost2010Prop33
280
     0
102
RTVSPost2010PropOp33
 70
     1
102
RTVSPost2010Prop34
280
     0
102
RTVSPost2010PropOp34
 70
     1
102
RTVSPost2010Prop35
280
     0
102
RTVSPost2010PropOp35
 70
     1
102
RTVSPost2010Prop36
280
     0
102
RTVSPost2010PropOp36
 70
     1
102
RTVSPost2010Prop37
 90
       50
102
RTVSPost2010PropOp37
 70
     1
102
RTVSPost2010Prop38
140
0.0
102
RTVSPost2010PropOp38
 70
     1
102
RTVSPost2010Prop39
140
1.0
102
RTVSPost2010PropOp39
 70
     1
102
RTVSPost2010Prop40
 90
        0
102
RTVSPost2010PropOp40
 70
     1
102
RTVSPost2010Prop41ColorIndex
 90
       18
102
RTVSPost2010Prop41ColorRGB
 90
        0
102
RTVSPost2010PropOp41
 70
     1
102
RTVSPost2010Prop42
 90
       50
102
RTVSPost2010PropOp42
 70
     1
102
RTVSPost2010Prop43
 90
        3
102
RTVSPost2010PropOp43
 70
     1
102
RTVSPost2010Prop44ColorIndex
 90
        5
102
RTVSPost2010Prop44ColorRGB
 90
      255
102
RTVSPost2010PropOp44
 70
     1
102
RTVSPost2010Prop45
280
     0
102
RTVSPost2010PropOp45
 70
     1
102
RTVSPost2010Prop46
 90
       50
102
RTVSPost2010PropOp46
 70
     1
102
RTVSPost2010Prop47
 90
       50
102
RTVSPost2010PropOp47
 70
     1
102
RTVSPost2010Prop48
 90
       50
102
RTVSPost2010PropOp48
 70
     1
102
RTVSPost2010Prop49
280
     0
102
RTVSPost2010PropOp49
 70
     1
102
RTVSPost2010Prop50
 90
       50
102
RTVSPost2010PropOp50
 70
     1
102
RTVSPost2010Prop51ColorIndex
 90
      256
102
RTVSPost2010Prop51ColorRGB
 90
-16777216
102
RTVSPost2010PropOp51
 70
     0
102
RTVSPost2010Prop52
140
1.0
102
RTVSPost2010PropOp52
 70
     0
102
RTVSPost2010Prop53
 90
        2
102
RTVSPost2010PropOp53
 70
     1
102
RTVSPost2010Prop54
  1
strokes_ogs.tif
102
RTVSPost2010PropOp54
 70
     1
102
RTVSPost2010Prop55
280
     0
102
RTVSPost2010PropOp55
 70
     1
102
RTVSPost2010Prop56
140
1.0
102
RTVSPost2010PropOp56
 70
     1
102
RTVSPost2010Prop57
140
1.0
102
RTVSPost2010PropOp57
 70
     1
102
RTVSPropertyOp0
 70
     1
102
RTVSPropertyOp1
 70
     1
102
RTVSPropertyOp2
 70
     1
102
RTVSPropertyOp3
 70
     1
102
RTVSPropertyOp4
 70
     1
102
RTVSPropertyOp5
 70
     1
102
RTVSPropertyOp6
 70
     1
102
RTVSPropertyOp7
 70
     1
102
RTVSPropertyOp8
 70
     1
102
RTVSPropertyOp9
 70
     1
102
RTVSPropertyOp10
 70
     1
102
RTVSPropertyOp11
 70
     1
102
RTVSPropertyOp12
 70
     1
102
RTVSPropertyOp13
 70
     1
102
RTVSPropertyOp14
 70
     1
102
RTVSPropertyOp15
 70
     1
102
RTVSPropertyOp16
 70
     1
102
RTVSPropertyOp17
 70
     1
102
RTVSPropertyOp18
 70
     1
102
RTVSPropertyOp19
 70
     1
102
RTVSPropertyOp20
 70
     1
102
RTVSPropertyOp21
 70
     1
102
RTVSPropertyOp22
 70
     1
102
RTVSPropertyOp23
 70
     1
102
RTVSPropertyOp24
 70
     1
102
RTVSPropertyOp25
 70
     1
102
RTVSPropertyOp26
 70
     1
102
RTVSPropertyOp27
 70
     1
102
RTVSPropertyOp28
 70
     1
102
RTVSPropertyOp29
 70
     1
102
RTVSPropertyOp30
 70
     1
102
RTVSPropertyOp31
 70
     1
102
RTVSPropertyOp32
 70
     1
102
RTVSPropertyOp33
 70
     1
102
RTVSPropertyOp34
 70
     1
102
RTVSPropertyOp35
 70
     1
102
RTVSPropertyOp36
 70
     1
102
RTVSPropertyOp37
 70
     1
102
RTVSPropertyOp38
 70
     1
102
RTVSPropertyOp39
 70
     1
102
RTVSPropertyOp40
 70
     1
102
RTVSPropertyOp41
 70
     1
102
RTVSPropertyOp42
 70
     1
102
RTVSPropertyOp43
 70
     1
102
RTVSPropertyOp44
 70
     1
102
RTVSPropertyOp45
 70
     1
102
RTVSPropertyOp46
 70
     1
102
RTVSPropertyOp47
 70
     1
102
RTVSPropertyOp48
 70
     1
102
RTVSPropertyOp49
 70
     1
102
RTVSPropertyOp50
 70
     1
102
RTVSPropertyOp51
 70
     0
102
RTVSPropertyOp52
 70
     0
102
RTVSPropertyOp53
 70
     1
102
RTVSPropertyOp54
 70
     1
102
RTVSPropertyOp55
 70
     1
102
RTVSPropertyOp56
 70
     1
102
RTVSPropertyOp57
 70
     1
102
RTVSPropertyOp58
 70
     1
102
RTVSPropertyOp59
 70
     1
102
RTVSPropertyOp60
 70
     1
102
RTVSPropertyOp61
 70
     1
102
RTVSPropertyOp62
 70
     1
  0
XRECORD
  5
C98A
102
{ACAD_REACTORS
330
C989
102
}
330
C989
100
AcDbXrecord
280
     1
102
RTVSPost2010Prop28
280
     0
102
RTVSPost2010PropOp28
 70
     1
102
RTVSPost2010Prop29
280
     1
102
RTVSPost2010PropOp29
 70
     1
102
RTVSPost2010Prop30
280
     1
102
RTVSPost2010PropOp30
 70
     1
102
RTVSPost2010Prop31
280
     0
102
RTVSPost2010PropOp31
 70
     1
102
RTVSPost2010Prop32
280
     0
102
RTVSPost2010PropOp32
 70
     1
102
RTVSPost2010Prop33
280
     0
102
RTVSPost2010PropOp33
 70
     1
102
RTVSPost2010Prop34
280
     0
102
RTVSPost2010PropOp34
 70
     1
102
RTVSPost2010Prop35
280
     0
102
RTVSPost2010PropOp35
 70
     1
102
RTVSPost2010Prop36
280
     0
102
RTVSPost2010PropOp36
 70
     1
102
RTVSPost2010Prop37
 90
       50
102
RTVSPost2010PropOp37
 70
     0
102
RTVSPost2010Prop38
140
0.0
102
RTVSPost2010PropOp38
 70
     0
102
RTVSPost2010Prop39
140
1.0
102
RTVSPost2010PropOp39
 70
     0
102
RTVSPost2010Prop40
 90
        0
102
RTVSPost2010PropOp40
 70
     0
102
RTVSPost2010Prop41ColorIndex
 90
       18
102
RTVSPost2010Prop41ColorRGB
 90
        0
102
RTVSPost2010PropOp41
 70
     0
102
RTVSPost2010Prop42
 90
       50
102
RTVSPost2010PropOp42
 70
     0
102
RTVSPost2010Prop43
 90
        3
102
RTVSPost2010PropOp43
 70
     0
102
RTVSPost2010Prop44ColorIndex
 90
        5
102
RTVSPost2010Prop44ColorRGB
 90
      255
102
RTVSPost2010PropOp44
 70
     0
102
RTVSPost2010Prop45
280
     0
102
RTVSPost2010PropOp45
 70
     1
102
RTVSPost2010Prop46
 90
       50
102
RTVSPost2010PropOp46
 70
     0
102
RTVSPost2010Prop47
 90
       50
102
RTVSPost2010PropOp47
 70
     0
102
RTVSPost2010Prop48
 90
       50
102
RTVSPost2010PropOp48
 70
     0
102
RTVSPost2010Prop49
280
     0
102
RTVSPost2010PropOp49
 70
     1
102
RTVSPost2010Prop50
 90
       50
102
RTVSPost2010PropOp50
 70
     0
102
RTVSPost2010Prop51ColorIndex
 90
      256
102
RTVSPost2010Prop51ColorRGB
 90
-16777216
102
RTVSPost2010PropOp51
 70
     0
102
RTVSPost2010Prop52
140
1.0
102
RTVSPost2010PropOp52
 70
     0
102
RTVSPost2010Prop53
 90
        2
102
RTVSPost2010PropOp53
 70
     0
102
RTVSPost2010Prop54
  1
strokes_ogs.tif
102
RTVSPost2010PropOp54
 70
     0
102
RTVSPost2010Prop55
280
     0
102
RTVSPost2010PropOp55
 70
     1
102
RTVSPost2010Prop56
140
1.0
102
RTVSPost2010PropOp56
 70
     0
102
RTVSPost2010Prop57
140
1.0
102
RTVSPost2010PropOp57
 70
     0
102
RTVSPropertyOp0
 70
     0
102
RTVSPropertyOp1
 70
     0
102
RTVSPropertyOp2
 70
     0
102
RTVSPropertyOp3
 70
     0
102
RTVSPropertyOp4
 70
     0
102
RTVSPropertyOp5
 70
     0
102
RTVSPropertyOp6
 70
     0
102
RTVSPropertyOp7
 70
     0
102
RTVSPropertyOp8
 70
     0
102
RTVSPropertyOp9
 70
     0
102
RTVSPropertyOp10
 70
     0
102
RTVSPropertyOp11
 70
     0
102
RTVSPropertyOp12
 70
     0
102
RTVSPropertyOp13
 70
     0
102
RTVSPropertyOp14
 70
     2
102
RTVSPropertyOp15
 70
     0
102
RTVSPropertyOp16
 70
     0
102
RTVSPropertyOp17
 70
     0
102
RTVSPropertyOp18
 70
     0
102
RTVSPropertyOp19
 70
     0
102
RTVSPropertyOp20
 70
     0
102
RTVSPropertyOp21
 70
     0
102
RTVSPropertyOp22
 70
     0
102
RTVSPropertyOp23
 70
     0
102
RTVSPropertyOp24
 70
     0
102
RTVSPropertyOp25
 70
     0
102
RTVSPropertyOp26
 70
     0
102
RTVSPropertyOp27
 70
     0
102
RTVSPropertyOp28
 70
     1
102
RTVSPropertyOp29
 70
     1
102
RTVSPropertyOp30
 70
     1
102
RTVSPropertyOp31
 70
     1
102
RTVSPropertyOp32
 70
     1
102
RTVSPropertyOp33
 70
     1
102
RTVSPropertyOp34
 70
     1
102
RTVSPropertyOp35
 70
     1
102
RTVSPropertyOp36
 70
     1
102
RTVSPropertyOp37
 70
     0
102
RTVSPropertyOp38
 70
     0
102
RTVSPropertyOp39
 70
     0
102
RTVSPropertyOp40
 70
     0
102
RTVSPropertyOp41
 70
     0
102
RTVSPropertyOp42
 70
     0
102
RTVSPropertyOp43
 70
     0
102
RTVSPropertyOp44
 70
     0
102
RTVSPropertyOp45
 70
     1
102
RTVSPropertyOp46
 70
     0
102
RTVSPropertyOp47
 70
     0
102
RTVSPropertyOp48
 70
     0
102
RTVSPropertyOp49
 70
     1
102
RTVSPropertyOp50
 70
     0
102
RTVSPropertyOp51
 70
     0
102
RTVSPropertyOp52
 70
     0
102
RTVSPropertyOp53
 70
     0
102
RTVSPropertyOp54
 70
     0
102
RTVSPropertyOp55
 70
     1
102
RTVSPropertyOp56
 70
     0
102
RTVSPropertyOp57
 70
     0
102
RTVSPropertyOp58
 70
     0
102
RTVSPropertyOp59
 70
     0
102
RTVSPropertyOp60
 70
     0
102
RTVSPropertyOp61
 70
     0
102
RTVSPropertyOp62
 70
     0
  0
XRECORD
  5
C970
102
{ACAD_REACTORS
330
C96F
102
}
330
C96F
100
AcDbXrecord
280
     1
102
RTVSPost2010Prop28
280
     0
102
RTVSPost2010PropOp28
 70
     1
102
RTVSPost2010Prop29
280
     1
102
RTVSPost2010PropOp29
 70
     1
102
RTVSPost2010Prop30
280
     1
102
RTVSPost2010PropOp30
 70
     1
102
RTVSPost2010Prop31
280
     0
102
RTVSPost2010PropOp31
 70
     1
102
RTVSPost2010Prop32
280
     0
102
RTVSPost2010PropOp32
 70
     1
102
RTVSPost2010Prop33
280
     0
102
RTVSPost2010PropOp33
 70
     1
102
RTVSPost2010Prop34
280
     0
102
RTVSPost2010PropOp34
 70
     1
102
RTVSPost2010Prop35
280
     0
102
RTVSPost2010PropOp35
 70
     1
102
RTVSPost2010Prop36
280
     0
102
RTVSPost2010PropOp36
 70
     1
102
RTVSPost2010Prop37
 90
       50
102
RTVSPost2010PropOp37
 70
     1
102
RTVSPost2010Prop38
140
0.0
102
RTVSPost2010PropOp38
 70
     1
102
RTVSPost2010Prop39
140
1.0
102
RTVSPost2010PropOp39
 70
     1
102
RTVSPost2010Prop40
 90
        0
102
RTVSPost2010PropOp40
 70
     1
102
RTVSPost2010Prop41ColorIndex
 90
       18
102
RTVSPost2010Prop41ColorRGB
 90
        0
102
RTVSPost2010PropOp41
 70
     1
102
RTVSPost2010Prop42
 90
       50
102
RTVSPost2010PropOp42
 70
     1
102
RTVSPost2010Prop43
 90
        3
102
RTVSPost2010PropOp43
 70
     1
102
RTVSPost2010Prop44ColorIndex
 90
        5
102
RTVSPost2010Prop44ColorRGB
 90
      255
102
RTVSPost2010PropOp44
 70
     1
102
RTVSPost2010Prop45
280
     0
102
RTVSPost2010PropOp45
 70
     1
102
RTVSPost2010Prop46
 90
       50
102
RTVSPost2010PropOp46
 70
     1
102
RTVSPost2010Prop47
 90
       50
102
RTVSPost2010PropOp47
 70
     1
102
RTVSPost2010Prop48
 90
       50
102
RTVSPost2010PropOp48
 70
     1
102
RTVSPost2010Prop49
280
     0
102
RTVSPost2010PropOp49
 70
     1
102
RTVSPost2010Prop50
 90
       50
102
RTVSPost2010PropOp50
 70
     1
102
RTVSPost2010Prop51ColorIndex
 90
      256
102
RTVSPost2010Prop51ColorRGB
 90
-16777216
102
RTVSPost2010PropOp51
 70
     0
102
RTVSPost2010Prop52
140
1.0
102
RTVSPost2010PropOp52
 70
     0
102
RTVSPost2010Prop53
 90
        2
102
RTVSPost2010PropOp53
 70
     1
102
RTVSPost2010Prop54
  1
strokes_ogs.tif
102
RTVSPost2010PropOp54
 70
     1
102
RTVSPost2010Prop55
280
     0
102
RTVSPost2010PropOp55
 70
     1
102
RTVSPost2010Prop56
140
1.0
102
RTVSPost2010PropOp56
 70
     1
102
RTVSPost2010Prop57
140
1.0
102
RTVSPost2010PropOp57
 70
     1
102
RTVSPropertyOp0
 70
     1
102
RTVSPropertyOp1
 70
     1
102
RTVSPropertyOp2
 70
     1
102
RTVSPropertyOp3
 70
     1
102
RTVSPropertyOp4
 70
     1
102
RTVSPropertyOp5
 70
     1
102
RTVSPropertyOp6
 70
     1
102
RTVSPropertyOp7
 70
     1
102
RTVSPropertyOp8
 70
     1
102
RTVSPropertyOp9
 70
     1
102
RTVSPropertyOp10
 70
     1
102
RTVSPropertyOp11
 70
     1
102
RTVSPropertyOp12
 70
     1
102
RTVSPropertyOp13
 70
     1
102
RTVSPropertyOp14
 70
     1
102
RTVSPropertyOp15
 70
     1
102
RTVSPropertyOp16
 70
     1
102
RTVSPropertyOp17
 70
     1
102
RTVSPropertyOp18
 70
     1
102
RTVSPropertyOp19
 70
     1
102
RTVSPropertyOp20
 70
     1
102
RTVSPropertyOp21
 70
     1
102
RTVSPropertyOp22
 70
     1
102
RTVSPropertyOp23
 70
     1
102
RTVSPropertyOp24
 70
     1
102
RTVSPropertyOp25
 70
     1
102
RTVSPropertyOp26
 70
     1
102
RTVSPropertyOp27
 70
     1
102
RTVSPropertyOp28
 70
     1
102
RTVSPropertyOp29
 70
     1
102
RTVSPropertyOp30
 70
     1
102
RTVSPropertyOp31
 70
     1
102
RTVSPropertyOp32
 70
     1
102
RTVSPropertyOp33
 70
     1
102
RTVSPropertyOp34
 70
     1
102
RTVSPropertyOp35
 70
     1
102
RTVSPropertyOp36
 70
     1
102
RTVSPropertyOp37
 70
     1
102
RTVSPropertyOp38
 70
     1
102
RTVSPropertyOp39
 70
     1
102
RTVSPropertyOp40
 70
     1
102
RTVSPropertyOp41
 70
     1
102
RTVSPropertyOp42
 70
     1
102
RTVSPropertyOp43
 70
     1
102
RTVSPropertyOp44
 70
     1
102
RTVSPropertyOp45
 70
     1
102
RTVSPropertyOp46
 70
     1
102
RTVSPropertyOp47
 70
     1
102
RTVSPropertyOp48
 70
     1
102
RTVSPropertyOp49
 70
     1
102
RTVSPropertyOp50
 70
     1
102
RTVSPropertyOp51
 70
     0
102
RTVSPropertyOp52
 70
     0
102
RTVSPropertyOp53
 70
     1
102
RTVSPropertyOp54
 70
     1
102
RTVSPropertyOp55
 70
     1
102
RTVSPropertyOp56
 70
     1
102
RTVSPropertyOp57
 70
     1
102
RTVSPropertyOp58
 70
     1
102
RTVSPropertyOp59
 70
     1
102
RTVSPropertyOp60
 70
     1
102
RTVSPropertyOp61
 70
     1
102
RTVSPropertyOp62
 70
     1
  0
XRECORD
  5
C986
102
{ACAD_REACTORS
330
C985
102
}
330
C985
100
AcDbXrecord
280
     1
102
RTVSPost2010Prop28
280
     0
102
RTVSPost2010PropOp28
 70
     1
102
RTVSPost2010Prop29
280
     1
102
RTVSPost2010PropOp29
 70
     1
102
RTVSPost2010Prop30
280
     1
102
RTVSPost2010PropOp30
 70
     1
102
RTVSPost2010Prop31
280
     0
102
RTVSPost2010PropOp31
 70
     1
102
RTVSPost2010Prop32
280
     0
102
RTVSPost2010PropOp32
 70
     1
102
RTVSPost2010Prop33
280
     0
102
RTVSPost2010PropOp33
 70
     1
102
RTVSPost2010Prop34
280
     0
102
RTVSPost2010PropOp34
 70
     1
102
RTVSPost2010Prop35
280
     0
102
RTVSPost2010PropOp35
 70
     1
102
RTVSPost2010Prop36
280
     0
102
RTVSPost2010PropOp36
 70
     1
102
RTVSPost2010Prop37
 90
       50
102
RTVSPost2010PropOp37
 70
     1
102
RTVSPost2010Prop38
140
0.0
102
RTVSPost2010PropOp38
 70
     1
102
RTVSPost2010Prop39
140
1.0
102
RTVSPost2010PropOp39
 70
     1
102
RTVSPost2010Prop40
 90
        0
102
RTVSPost2010PropOp40
 70
     1
102
RTVSPost2010Prop41ColorIndex
 90
       18
102
RTVSPost2010Prop41ColorRGB
 90
        0
102
RTVSPost2010PropOp41
 70
     1
102
RTVSPost2010Prop42
 90
       50
102
RTVSPost2010PropOp42
 70
     1
102
RTVSPost2010Prop43
 90
        3
102
RTVSPost2010PropOp43
 70
     1
102
RTVSPost2010Prop44ColorIndex
 90
        5
102
RTVSPost2010Prop44ColorRGB
 90
      255
102
RTVSPost2010PropOp44
 70
     1
102
RTVSPost2010Prop45
280
     0
102
RTVSPost2010PropOp45
 70
     1
102
RTVSPost2010Prop46
 90
       50
102
RTVSPost2010PropOp46
 70
     1
102
RTVSPost2010Prop47
 90
       50
102
RTVSPost2010PropOp47
 70
     1
102
RTVSPost2010Prop48
 90
       50
102
RTVSPost2010PropOp48
 70
     1
102
RTVSPost2010Prop49
280
     0
102
RTVSPost2010PropOp49
 70
     1
102
RTVSPost2010Prop50
 90
       50
102
RTVSPost2010PropOp50
 70
     1
102
RTVSPost2010Prop51ColorIndex
 90
      256
102
RTVSPost2010Prop51ColorRGB
 90
-16777216
102
RTVSPost2010PropOp51
 70
     0
102
RTVSPost2010Prop52
140
1.0
102
RTVSPost2010PropOp52
 70
     0
102
RTVSPost2010Prop53
 90
        2
102
RTVSPost2010PropOp53
 70
     1
102
RTVSPost2010Prop54
  1
strokes_ogs.tif
102
RTVSPost2010PropOp54
 70
     1
102
RTVSPost2010Prop55
280
     0
102
RTVSPost2010PropOp55
 70
     1
102
RTVSPost2010Prop56
140
1.0
102
RTVSPost2010PropOp56
 70
     1
102
RTVSPost2010Prop57
140
1.0
102
RTVSPost2010PropOp57
 70
     1
102
RTVSPropertyOp0
 70
     1
102
RTVSPropertyOp1
 70
     1
102
RTVSPropertyOp2
 70
     1
102
RTVSPropertyOp3
 70
     1
102
RTVSPropertyOp4
 70
     1
102
RTVSPropertyOp5
 70
     1
102
RTVSPropertyOp6
 70
     1
102
RTVSPropertyOp7
 70
     1
102
RTVSPropertyOp8
 70
     1
102
RTVSPropertyOp9
 70
     1
102
RTVSPropertyOp10
 70
     1
102
RTVSPropertyOp11
 70
     1
102
RTVSPropertyOp12
 70
     1
102
RTVSPropertyOp13
 70
     1
102
RTVSPropertyOp14
 70
     1
102
RTVSPropertyOp15
 70
     1
102
RTVSPropertyOp16
 70
     1
102
RTVSPropertyOp17
 70
     1
102
RTVSPropertyOp18
 70
     1
102
RTVSPropertyOp19
 70
     1
102
RTVSPropertyOp20
 70
     1
102
RTVSPropertyOp21
 70
     1
102
RTVSPropertyOp22
 70
     1
102
RTVSPropertyOp23
 70
     1
102
RTVSPropertyOp24
 70
     1
102
RTVSPropertyOp25
 70
     1
102
RTVSPropertyOp26
 70
     1
102
RTVSPropertyOp27
 70
     1
102
RTVSPropertyOp28
 70
     1
102
RTVSPropertyOp29
 70
     1
102
RTVSPropertyOp30
 70
     1
102
RTVSPropertyOp31
 70
     1
102
RTVSPropertyOp32
 70
     1
102
RTVSPropertyOp33
 70
     1
102
RTVSPropertyOp34
 70
     1
102
RTVSPropertyOp35
 70
     1
102
RTVSPropertyOp36
 70
     1
102
RTVSPropertyOp37
 70
     1
102
RTVSPropertyOp38
 70
     1
102
RTVSPropertyOp39
 70
     1
102
RTVSPropertyOp40
 70
     1
102
RTVSPropertyOp41
 70
     1
102
RTVSPropertyOp42
 70
     1
102
RTVSPropertyOp43
 70
     1
102
RTVSPropertyOp44
 70
     1
102
RTVSPropertyOp45
 70
     1
102
RTVSPropertyOp46
 70
     1
102
RTVSPropertyOp47
 70
     1
102
RTVSPropertyOp48
 70
     1
102
RTVSPropertyOp49
 70
     1
102
RTVSPropertyOp50
 70
     1
102
RTVSPropertyOp51
 70
     0
102
RTVSPropertyOp52
 70
     0
102
RTVSPropertyOp53
 70
     1
102
RTVSPropertyOp54
 70
     1
102
RTVSPropertyOp55
 70
     1
102
RTVSPropertyOp56
 70
     1
102
RTVSPropertyOp57
 70
     1
102
RTVSPropertyOp58
 70
     1
102
RTVSPropertyOp59
 70
     1
102
RTVSPropertyOp60
 70
     1
102
RTVSPropertyOp61
 70
     1
102
RTVSPropertyOp62
 70
     1
  0
XRECORD
  5
C984
102
{ACAD_REACTORS
330
C983
102
}
330
C983
100
AcDbXrecord
280
     1
102
RTVSPost2010Prop28
280
     0
102
RTVSPost2010PropOp28
 70
     1
102
RTVSPost2010Prop29
280
     1
102
RTVSPost2010PropOp29
 70
     1
102
RTVSPost2010Prop30
280
     1
102
RTVSPost2010PropOp30
 70
     1
102
RTVSPost2010Prop31
280
     0
102
RTVSPost2010PropOp31
 70
     1
102
RTVSPost2010Prop32
280
     0
102
RTVSPost2010PropOp32
 70
     1
102
RTVSPost2010Prop33
280
     0
102
RTVSPost2010PropOp33
 70
     1
102
RTVSPost2010Prop34
280
     0
102
RTVSPost2010PropOp34
 70
     1
102
RTVSPost2010Prop35
280
     0
102
RTVSPost2010PropOp35
 70
     1
102
RTVSPost2010Prop36
280
     0
102
RTVSPost2010PropOp36
 70
     1
102
RTVSPost2010Prop37
 90
       50
102
RTVSPost2010PropOp37
 70
     1
102
RTVSPost2010Prop38
140
0.0
102
RTVSPost2010PropOp38
 70
     1
102
RTVSPost2010Prop39
140
1.0
102
RTVSPost2010PropOp39
 70
     1
102
RTVSPost2010Prop40
 90
        0
102
RTVSPost2010PropOp40
 70
     1
102
RTVSPost2010Prop41ColorIndex
 90
       18
102
RTVSPost2010Prop41ColorRGB
 90
        0
102
RTVSPost2010PropOp41
 70
     1
102
RTVSPost2010Prop42
 90
       50
102
RTVSPost2010PropOp42
 70
     1
102
RTVSPost2010Prop43
 90
        3
102
RTVSPost2010PropOp43
 70
     1
102
RTVSPost2010Prop44ColorIndex
 90
        5
102
RTVSPost2010Prop44ColorRGB
 90
      255
102
RTVSPost2010PropOp44
 70
     1
102
RTVSPost2010Prop45
280
     0
102
RTVSPost2010PropOp45
 70
     1
102
RTVSPost2010Prop46
 90
       50
102
RTVSPost2010PropOp46
 70
     1
102
RTVSPost2010Prop47
 90
       50
102
RTVSPost2010PropOp47
 70
     1
102
RTVSPost2010Prop48
 90
       50
102
RTVSPost2010PropOp48
 70
     1
102
RTVSPost2010Prop49
280
     0
102
RTVSPost2010PropOp49
 70
     1
102
RTVSPost2010Prop50
 90
       50
102
RTVSPost2010PropOp50
 70
     1
102
RTVSPost2010Prop51ColorIndex
 90
      256
102
RTVSPost2010Prop51ColorRGB
 90
-16777216
102
RTVSPost2010PropOp51
 70
     0
102
RTVSPost2010Prop52
140
1.0
102
RTVSPost2010PropOp52
 70
     0
102
RTVSPost2010Prop53
 90
        2
102
RTVSPost2010PropOp53
 70
     1
102
RTVSPost2010Prop54
  1
strokes_ogs.tif
102
RTVSPost2010PropOp54
 70
     1
102
RTVSPost2010Prop55
280
     0
102
RTVSPost2010PropOp55
 70
     1
102
RTVSPost2010Prop56
140
1.0
102
RTVSPost2010PropOp56
 70
     1
102
RTVSPost2010Prop57
140
1.0
102
RTVSPost2010PropOp57
 70
     1
102
RTVSPropertyOp0
 70
     1
102
RTVSPropertyOp1
 70
     1
102
RTVSPropertyOp2
 70
     1
102
RTVSPropertyOp3
 70
     1
102
RTVSPropertyOp4
 70
     1
102
RTVSPropertyOp5
 70
     1
102
RTVSPropertyOp6
 70
     1
102
RTVSPropertyOp7
 70
     1
102
RTVSPropertyOp8
 70
     1
102
RTVSPropertyOp9
 70
     1
102
RTVSPropertyOp10
 70
     1
102
RTVSPropertyOp11
 70
     1
102
RTVSPropertyOp12
 70
     1
102
RTVSPropertyOp13
 70
     1
102
RTVSPropertyOp14
 70
     1
102
RTVSPropertyOp15
 70
     1
102
RTVSPropertyOp16
 70
     1
102
RTVSPropertyOp17
 70
     1
102
RTVSPropertyOp18
 70
     1
102
RTVSPropertyOp19
 70
     1
102
RTVSPropertyOp20
 70
     1
102
RTVSPropertyOp21
 70
     1
102
RTVSPropertyOp22
 70
     1
102
RTVSPropertyOp23
 70
     1
102
RTVSPropertyOp24
 70
     1
102
RTVSPropertyOp25
 70
     1
102
RTVSPropertyOp26
 70
     1
102
RTVSPropertyOp27
 70
     1
102
RTVSPropertyOp28
 70
     1
102
RTVSPropertyOp29
 70
     1
102
RTVSPropertyOp30
 70
     1
102
RTVSPropertyOp31
 70
     1
102
RTVSPropertyOp32
 70
     1
102
RTVSPropertyOp33
 70
     1
102
RTVSPropertyOp34
 70
     1
102
RTVSPropertyOp35
 70
     1
102
RTVSPropertyOp36
 70
     1
102
RTVSPropertyOp37
 70
     1
102
RTVSPropertyOp38
 70
     1
102
RTVSPropertyOp39
 70
     1
102
RTVSPropertyOp40
 70
     1
102
RTVSPropertyOp41
 70
     1
102
RTVSPropertyOp42
 70
     1
102
RTVSPropertyOp43
 70
     1
102
RTVSPropertyOp44
 70
     1
102
RTVSPropertyOp45
 70
     1
102
RTVSPropertyOp46
 70
     1
102
RTVSPropertyOp47
 70
     1
102
RTVSPropertyOp48
 70
     1
102
RTVSPropertyOp49
 70
     1
102
RTVSPropertyOp50
 70
     1
102
RTVSPropertyOp51
 70
     0
102
RTVSPropertyOp52
 70
     0
102
RTVSPropertyOp53
 70
     1
102
RTVSPropertyOp54
 70
     1
102
RTVSPropertyOp55
 70
     1
102
RTVSPropertyOp56
 70
     1
102
RTVSPropertyOp57
 70
     1
102
RTVSPropertyOp58
 70
     1
102
RTVSPropertyOp59
 70
     1
102
RTVSPropertyOp60
 70
     1
102
RTVSPropertyOp61
 70
     1
102
RTVSPropertyOp62
 70
     1
  0
XRECORD
  5
C97E
102
{ACAD_REACTORS
330
C97D
102
}
330
C97D
100
AcDbXrecord
280
     1
102
RTVSPost2010Prop28
280
     0
102
RTVSPost2010PropOp28
 70
     1
102
RTVSPost2010Prop29
280
     1
102
RTVSPost2010PropOp29
 70
     1
102
RTVSPost2010Prop30
280
     1
102
RTVSPost2010PropOp30
 70
     1
102
RTVSPost2010Prop31
280
     0
102
RTVSPost2010PropOp31
 70
     1
102
RTVSPost2010Prop32
280
     0
102
RTVSPost2010PropOp32
 70
     1
102
RTVSPost2010Prop33
280
     0
102
RTVSPost2010PropOp33
 70
     1
102
RTVSPost2010Prop34
280
     0
102
RTVSPost2010PropOp34
 70
     1
102
RTVSPost2010Prop35
280
     0
102
RTVSPost2010PropOp35
 70
     1
102
RTVSPost2010Prop36
280
     0
102
RTVSPost2010PropOp36
 70
     1
102
RTVSPost2010Prop37
 90
       50
102
RTVSPost2010PropOp37
 70
     1
102
RTVSPost2010Prop38
140
0.0
102
RTVSPost2010PropOp38
 70
     1
102
RTVSPost2010Prop39
140
1.0
102
RTVSPost2010PropOp39
 70
     1
102
RTVSPost2010Prop40
 90
        0
102
RTVSPost2010PropOp40
 70
     1
102
RTVSPost2010Prop41ColorIndex
 90
       18
102
RTVSPost2010Prop41ColorRGB
 90
        0
102
RTVSPost2010PropOp41
 70
     1
102
RTVSPost2010Prop42
 90
       50
102
RTVSPost2010PropOp42
 70
     1
102
RTVSPost2010Prop43
 90
        3
102
RTVSPost2010PropOp43
 70
     1
102
RTVSPost2010Prop44ColorIndex
 90
        5
102
RTVSPost2010Prop44ColorRGB
 90
      255
102
RTVSPost2010PropOp44
 70
     1
102
RTVSPost2010Prop45
280
     0
102
RTVSPost2010PropOp45
 70
     1
102
RTVSPost2010Prop46
 90
       50
102
RTVSPost2010PropOp46
 70
     1
102
RTVSPost2010Prop47
 90
       50
102
RTVSPost2010PropOp47
 70
     1
102
RTVSPost2010Prop48
 90
       50
102
RTVSPost2010PropOp48
 70
     1
102
RTVSPost2010Prop49
280
     0
102
RTVSPost2010PropOp49
 70
     1
102
RTVSPost2010Prop50
 90
       50
102
RTVSPost2010PropOp50
 70
     1
102
RTVSPost2010Prop51ColorIndex
 90
      256
102
RTVSPost2010Prop51ColorRGB
 90
-16777216
102
RTVSPost2010PropOp51
 70
     0
102
RTVSPost2010Prop52
140
1.0
102
RTVSPost2010PropOp52
 70
     0
102
RTVSPost2010Prop53
 90
        2
102
RTVSPost2010PropOp53
 70
     1
102
RTVSPost2010Prop54
  1
strokes_ogs.tif
102
RTVSPost2010PropOp54
 70
     1
102
RTVSPost2010Prop55
280
     0
102
RTVSPost2010PropOp55
 70
     1
102
RTVSPost2010Prop56
140
1.0
102
RTVSPost2010PropOp56
 70
     1
102
RTVSPost2010Prop57
140
1.0
102
RTVSPost2010PropOp57
 70
     1
102
RTVSPropertyOp0
 70
     1
102
RTVSPropertyOp1
 70
     1
102
RTVSPropertyOp2
 70
     1
102
RTVSPropertyOp3
 70
     1
102
RTVSPropertyOp4
 70
     1
102
RTVSPropertyOp5
 70
     1
102
RTVSPropertyOp6
 70
     1
102
RTVSPropertyOp7
 70
     1
102
RTVSPropertyOp8
 70
     1
102
RTVSPropertyOp9
 70
     1
102
RTVSPropertyOp10
 70
     1
102
RTVSPropertyOp11
 70
     1
102
RTVSPropertyOp12
 70
     1
102
RTVSPropertyOp13
 70
     1
102
RTVSPropertyOp14
 70
     1
102
RTVSPropertyOp15
 70
     1
102
RTVSPropertyOp16
 70
     1
102
RTVSPropertyOp17
 70
     1
102
RTVSPropertyOp18
 70
     1
102
RTVSPropertyOp19
 70
     1
102
RTVSPropertyOp20
 70
     1
102
RTVSPropertyOp21
 70
     1
102
RTVSPropertyOp22
 70
     1
102
RTVSPropertyOp23
 70
     1
102
RTVSPropertyOp24
 70
     1
102
RTVSPropertyOp25
 70
     1
102
RTVSPropertyOp26
 70
     1
102
RTVSPropertyOp27
 70
     1
102
RTVSPropertyOp28
 70
     1
102
RTVSPropertyOp29
 70
     1
102
RTVSPropertyOp30
 70
     1
102
RTVSPropertyOp31
 70
     1
102
RTVSPropertyOp32
 70
     1
102
RTVSPropertyOp33
 70
     1
102
RTVSPropertyOp34
 70
     1
102
RTVSPropertyOp35
 70
     1
102
RTVSPropertyOp36
 70
     1
102
RTVSPropertyOp37
 70
     1
102
RTVSPropertyOp38
 70
     1
102
RTVSPropertyOp39
 70
     1
102
RTVSPropertyOp40
 70
     1
102
RTVSPropertyOp41
 70
     1
102
RTVSPropertyOp42
 70
     1
102
RTVSPropertyOp43
 70
     1
102
RTVSPropertyOp44
 70
     1
102
RTVSPropertyOp45
 70
     1
102
RTVSPropertyOp46
 70
     1
102
RTVSPropertyOp47
 70
     1
102
RTVSPropertyOp48
 70
     1
102
RTVSPropertyOp49
 70
     1
102
RTVSPropertyOp50
 70
     1
102
RTVSPropertyOp51
 70
     0
102
RTVSPropertyOp52
 70
     0
102
RTVSPropertyOp53
 70
     1
102
RTVSPropertyOp54
 70
     1
102
RTVSPropertyOp55
 70
     1
102
RTVSPropertyOp56
 70
     1
102
RTVSPropertyOp57
 70
     1
102
RTVSPropertyOp58
 70
     1
102
RTVSPropertyOp59
 70
     1
102
RTVSPropertyOp60
 70
     1
102
RTVSPropertyOp61
 70
     1
102
RTVSPropertyOp62
 70
     1
  0
XRECORD
  5
C980
102
{ACAD_REACTORS
330
C97F
102
}
330
C97F
100
AcDbXrecord
280
     1
102
RTVSPost2010Prop28
280
     0
102
RTVSPost2010PropOp28
 70
     1
102
RTVSPost2010Prop29
280
     1
102
RTVSPost2010PropOp29
 70
     1
102
RTVSPost2010Prop30
280
     1
102
RTVSPost2010PropOp30
 70
     1
102
RTVSPost2010Prop31
280
     0
102
RTVSPost2010PropOp31
 70
     1
102
RTVSPost2010Prop32
280
     0
102
RTVSPost2010PropOp32
 70
     1
102
RTVSPost2010Prop33
280
     0
102
RTVSPost2010PropOp33
 70
     1
102
RTVSPost2010Prop34
280
     0
102
RTVSPost2010PropOp34
 70
     1
102
RTVSPost2010Prop35
280
     0
102
RTVSPost2010PropOp35
 70
     1
102
RTVSPost2010Prop36
280
     0
102
RTVSPost2010PropOp36
 70
     1
102
RTVSPost2010Prop37
 90
       50
102
RTVSPost2010PropOp37
 70
     1
102
RTVSPost2010Prop38
140
0.0
102
RTVSPost2010PropOp38
 70
     1
102
RTVSPost2010Prop39
140
1.0
102
RTVSPost2010PropOp39
 70
     1
102
RTVSPost2010Prop40
 90
        0
102
RTVSPost2010PropOp40
 70
     1
102
RTVSPost2010Prop41ColorIndex
 90
       18
102
RTVSPost2010Prop41ColorRGB
 90
        0
102
RTVSPost2010PropOp41
 70
     1
102
RTVSPost2010Prop42
 90
       50
102
RTVSPost2010PropOp42
 70
     1
102
RTVSPost2010Prop43
 90
        3
102
RTVSPost2010PropOp43
 70
     1
102
RTVSPost2010Prop44ColorIndex
 90
        5
102
RTVSPost2010Prop44ColorRGB
 90
      255
102
RTVSPost2010PropOp44
 70
     1
102
RTVSPost2010Prop45
280
     0
102
RTVSPost2010PropOp45
 70
     1
102
RTVSPost2010Prop46
 90
       50
102
RTVSPost2010PropOp46
 70
     1
102
RTVSPost2010Prop47
 90
       50
102
RTVSPost2010PropOp47
 70
     1
102
RTVSPost2010Prop48
 90
       50
102
RTVSPost2010PropOp48
 70
     1
102
RTVSPost2010Prop49
280
     0
102
RTVSPost2010PropOp49
 70
     1
102
RTVSPost2010Prop50
 90
       50
102
RTVSPost2010PropOp50
 70
     1
102
RTVSPost2010Prop51ColorIndex
 90
      256
102
RTVSPost2010Prop51ColorRGB
 90
-16777216
102
RTVSPost2010PropOp51
 70
     0
102
RTVSPost2010Prop52
140
1.0
102
RTVSPost2010PropOp52
 70
     0
102
RTVSPost2010Prop53
 90
        2
102
RTVSPost2010PropOp53
 70
     1
102
RTVSPost2010Prop54
  1
strokes_ogs.tif
102
RTVSPost2010PropOp54
 70
     1
102
RTVSPost2010Prop55
280
     0
102
RTVSPost2010PropOp55
 70
     1
102
RTVSPost2010Prop56
140
1.0
102
RTVSPost2010PropOp56
 70
     1
102
RTVSPost2010Prop57
140
1.0
102
RTVSPost2010PropOp57
 70
     1
102
RTVSPropertyOp0
 70
     1
102
RTVSPropertyOp1
 70
     1
102
RTVSPropertyOp2
 70
     1
102
RTVSPropertyOp3
 70
     1
102
RTVSPropertyOp4
 70
     1
102
RTVSPropertyOp5
 70
     1
102
RTVSPropertyOp6
 70
     1
102
RTVSPropertyOp7
 70
     1
102
RTVSPropertyOp8
 70
     1
102
RTVSPropertyOp9
 70
     1
102
RTVSPropertyOp10
 70
     1
102
RTVSPropertyOp11
 70
     1
102
RTVSPropertyOp12
 70
     1
102
RTVSPropertyOp13
 70
     1
102
RTVSPropertyOp14
 70
     1
102
RTVSPropertyOp15
 70
     1
102
RTVSPropertyOp16
 70
     1
102
RTVSPropertyOp17
 70
     1
102
RTVSPropertyOp18
 70
     1
102
RTVSPropertyOp19
 70
     1
102
RTVSPropertyOp20
 70
     1
102
RTVSPropertyOp21
 70
     1
102
RTVSPropertyOp22
 70
     1
102
RTVSPropertyOp23
 70
     1
102
RTVSPropertyOp24
 70
     1
102
RTVSPropertyOp25
 70
     1
102
RTVSPropertyOp26
 70
     1
102
RTVSPropertyOp27
 70
     1
102
RTVSPropertyOp28
 70
     1
102
RTVSPropertyOp29
 70
     1
102
RTVSPropertyOp30
 70
     1
102
RTVSPropertyOp31
 70
     1
102
RTVSPropertyOp32
 70
     1
102
RTVSPropertyOp33
 70
     1
102
RTVSPropertyOp34
 70
     1
102
RTVSPropertyOp35
 70
     1
102
RTVSPropertyOp36
 70
     1
102
RTVSPropertyOp37
 70
     1
102
RTVSPropertyOp38
 70
     1
102
RTVSPropertyOp39
 70
     1
102
RTVSPropertyOp40
 70
     1
102
RTVSPropertyOp41
 70
     1
102
RTVSPropertyOp42
 70
     1
102
RTVSPropertyOp43
 70
     1
102
RTVSPropertyOp44
 70
     1
102
RTVSPropertyOp45
 70
     1
102
RTVSPropertyOp46
 70
     1
102
RTVSPropertyOp47
 70
     1
102
RTVSPropertyOp48
 70
     1
102
RTVSPropertyOp49
 70
     1
102
RTVSPropertyOp50
 70
     1
102
RTVSPropertyOp51
 70
     0
102
RTVSPropertyOp52
 70
     0
102
RTVSPropertyOp53
 70
     1
102
RTVSPropertyOp54
 70
     1
102
RTVSPropertyOp55
 70
     1
102
RTVSPropertyOp56
 70
     1
102
RTVSPropertyOp57
 70
     1
102
RTVSPropertyOp58
 70
     1
102
RTVSPropertyOp59
 70
     1
102
RTVSPropertyOp60
 70
     1
102
RTVSPropertyOp61
 70
     1
102
RTVSPropertyOp62
 70
     1
  0
XRECORD
  5
C976
102
{ACAD_REACTORS
330
C975
102
}
330
C975
100
AcDbXrecord
280
     1
102
RTVSPost2010Prop28
280
     0
102
RTVSPost2010PropOp28
 70
     1
102
RTVSPost2010Prop29
280
     1
102
RTVSPost2010PropOp29
 70
     1
102
RTVSPost2010Prop30
280
     1
102
RTVSPost2010PropOp30
 70
     1
102
RTVSPost2010Prop31
280
     0
102
RTVSPost2010PropOp31
 70
     1
102
RTVSPost2010Prop32
280
     0
102
RTVSPost2010PropOp32
 70
     1
102
RTVSPost2010Prop33
280
     0
102
RTVSPost2010PropOp33
 70
     1
102
RTVSPost2010Prop34
280
     0
102
RTVSPost2010PropOp34
 70
     1
102
RTVSPost2010Prop35
280
     0
102
RTVSPost2010PropOp35
 70
     1
102
RTVSPost2010Prop36
280
     0
102
RTVSPost2010PropOp36
 70
     1
102
RTVSPost2010Prop37
 90
       50
102
RTVSPost2010PropOp37
 70
     1
102
RTVSPost2010Prop38
140
0.0
102
RTVSPost2010PropOp38
 70
     1
102
RTVSPost2010Prop39
140
1.0
102
RTVSPost2010PropOp39
 70
     1
102
RTVSPost2010Prop40
 90
        0
102
RTVSPost2010PropOp40
 70
     1
102
RTVSPost2010Prop41ColorIndex
 90
       18
102
RTVSPost2010Prop41ColorRGB
 90
        0
102
RTVSPost2010PropOp41
 70
     1
102
RTVSPost2010Prop42
 90
       50
102
RTVSPost2010PropOp42
 70
     1
102
RTVSPost2010Prop43
 90
        3
102
RTVSPost2010PropOp43
 70
     1
102
RTVSPost2010Prop44ColorIndex
 90
        5
102
RTVSPost2010Prop44ColorRGB
 90
      255
102
RTVSPost2010PropOp44
 70
     1
102
RTVSPost2010Prop45
280
     0
102
RTVSPost2010PropOp45
 70
     1
102
RTVSPost2010Prop46
 90
       50
102
RTVSPost2010PropOp46
 70
     1
102
RTVSPost2010Prop47
 90
       50
102
RTVSPost2010PropOp47
 70
     1
102
RTVSPost2010Prop48
 90
       50
102
RTVSPost2010PropOp48
 70
     1
102
RTVSPost2010Prop49
280
     0
102
RTVSPost2010PropOp49
 70
     1
102
RTVSPost2010Prop50
 90
       50
102
RTVSPost2010PropOp50
 70
     1
102
RTVSPost2010Prop51ColorIndex
 90
      256
102
RTVSPost2010Prop51ColorRGB
 90
-16777216
102
RTVSPost2010PropOp51
 70
     0
102
RTVSPost2010Prop52
140
1.0
102
RTVSPost2010PropOp52
 70
     0
102
RTVSPost2010Prop53
 90
        2
102
RTVSPost2010PropOp53
 70
     1
102
RTVSPost2010Prop54
  1
strokes_ogs.tif
102
RTVSPost2010PropOp54
 70
     1
102
RTVSPost2010Prop55
280
     0
102
RTVSPost2010PropOp55
 70
     1
102
RTVSPost2010Prop56
140
1.0
102
RTVSPost2010PropOp56
 70
     1
102
RTVSPost2010Prop57
140
1.0
102
RTVSPost2010PropOp57
 70
     1
102
RTVSPropertyOp0
 70
     1
102
RTVSPropertyOp1
 70
     1
102
RTVSPropertyOp2
 70
     1
102
RTVSPropertyOp3
 70
     1
102
RTVSPropertyOp4
 70
     1
102
RTVSPropertyOp5
 70
     1
102
RTVSPropertyOp6
 70
     1
102
RTVSPropertyOp7
 70
     1
102
RTVSPropertyOp8
 70
     1
102
RTVSPropertyOp9
 70
     1
102
RTVSPropertyOp10
 70
     1
102
RTVSPropertyOp11
 70
     1
102
RTVSPropertyOp12
 70
     1
102
RTVSPropertyOp13
 70
     1
102
RTVSPropertyOp14
 70
     1
102
RTVSPropertyOp15
 70
     1
102
RTVSPropertyOp16
 70
     1
102
RTVSPropertyOp17
 70
     1
102
RTVSPropertyOp18
 70
     1
102
RTVSPropertyOp19
 70
     1
102
RTVSPropertyOp20
 70
     1
102
RTVSPropertyOp21
 70
     1
102
RTVSPropertyOp22
 70
     1
102
RTVSPropertyOp23
 70
     1
102
RTVSPropertyOp24
 70
     1
102
RTVSPropertyOp25
 70
     1
102
RTVSPropertyOp26
 70
     1
102
RTVSPropertyOp27
 70
     1
102
RTVSPropertyOp28
 70
     1
102
RTVSPropertyOp29
 70
     1
102
RTVSPropertyOp30
 70
     1
102
RTVSPropertyOp31
 70
     1
102
RTVSPropertyOp32
 70
     1
102
RTVSPropertyOp33
 70
     1
102
RTVSPropertyOp34
 70
     1
102
RTVSPropertyOp35
 70
     1
102
RTVSPropertyOp36
 70
     1
102
RTVSPropertyOp37
 70
     1
102
RTVSPropertyOp38
 70
     1
102
RTVSPropertyOp39
 70
     1
102
RTVSPropertyOp40
 70
     1
102
RTVSPropertyOp41
 70
     1
102
RTVSPropertyOp42
 70
     1
102
RTVSPropertyOp43
 70
     1
102
RTVSPropertyOp44
 70
     1
102
RTVSPropertyOp45
 70
     1
102
RTVSPropertyOp46
 70
     1
102
RTVSPropertyOp47
 70
     1
102
RTVSPropertyOp48
 70
     1
102
RTVSPropertyOp49
 70
     1
102
RTVSPropertyOp50
 70
     1
102
RTVSPropertyOp51
 70
     0
102
RTVSPropertyOp52
 70
     0
102
RTVSPropertyOp53
 70
     1
102
RTVSPropertyOp54
 70
     1
102
RTVSPropertyOp55
 70
     1
102
RTVSPropertyOp56
 70
     1
102
RTVSPropertyOp57
 70
     1
102
RTVSPropertyOp58
 70
     1
102
RTVSPropertyOp59
 70
     1
102
RTVSPropertyOp60
 70
     1
102
RTVSPropertyOp61
 70
     1
102
RTVSPropertyOp62
 70
     1
  0
XRECORD
  5
C96A
102
{ACAD_REACTORS
330
C969
102
}
330
C969
100
AcDbXrecord
280
     1
102
RTVSPost2010Prop28
280
     0
102
RTVSPost2010PropOp28
 70
     1
102
RTVSPost2010Prop29
280
     1
102
RTVSPost2010PropOp29
 70
     1
102
RTVSPost2010Prop30
280
     1
102
RTVSPost2010PropOp30
 70
     1
102
RTVSPost2010Prop31
280
     0
102
RTVSPost2010PropOp31
 70
     1
102
RTVSPost2010Prop32
280
     0
102
RTVSPost2010PropOp32
 70
     1
102
RTVSPost2010Prop33
280
     0
102
RTVSPost2010PropOp33
 70
     1
102
RTVSPost2010Prop34
280
     0
102
RTVSPost2010PropOp34
 70
     1
102
RTVSPost2010Prop35
280
     0
102
RTVSPost2010PropOp35
 70
     1
102
RTVSPost2010Prop36
280
     0
102
RTVSPost2010PropOp36
 70
     1
102
RTVSPost2010Prop37
 90
       50
102
RTVSPost2010PropOp37
 70
     1
102
RTVSPost2010Prop38
140
0.0
102
RTVSPost2010PropOp38
 70
     1
102
RTVSPost2010Prop39
140
1.0
102
RTVSPost2010PropOp39
 70
     1
102
RTVSPost2010Prop40
 90
        0
102
RTVSPost2010PropOp40
 70
     1
102
RTVSPost2010Prop41ColorIndex
 90
       18
102
RTVSPost2010Prop41ColorRGB
 90
        0
102
RTVSPost2010PropOp41
 70
     1
102
RTVSPost2010Prop42
 90
       50
102
RTVSPost2010PropOp42
 70
     1
102
RTVSPost2010Prop43
 90
        3
102
RTVSPost2010PropOp43
 70
     1
102
RTVSPost2010Prop44ColorIndex
 90
        5
102
RTVSPost2010Prop44ColorRGB
 90
      255
102
RTVSPost2010PropOp44
 70
     1
102
RTVSPost2010Prop45
280
     0
102
RTVSPost2010PropOp45
 70
     1
102
RTVSPost2010Prop46
 90
       50
102
RTVSPost2010PropOp46
 70
     1
102
RTVSPost2010Prop47
 90
       50
102
RTVSPost2010PropOp47
 70
     1
102
RTVSPost2010Prop48
 90
       50
102
RTVSPost2010PropOp48
 70
     1
102
RTVSPost2010Prop49
280
     0
102
RTVSPost2010PropOp49
 70
     1
102
RTVSPost2010Prop50
 90
       50
102
RTVSPost2010PropOp50
 70
     1
102
RTVSPost2010Prop51ColorIndex
 90
      256
102
RTVSPost2010Prop51ColorRGB
 90
-16777216
102
RTVSPost2010PropOp51
 70
     0
102
RTVSPost2010Prop52
140
1.0
102
RTVSPost2010PropOp52
 70
     0
102
RTVSPost2010Prop53
 90
        2
102
RTVSPost2010PropOp53
 70
     1
102
RTVSPost2010Prop54
  1
strokes_ogs.tif
102
RTVSPost2010PropOp54
 70
     1
102
RTVSPost2010Prop55
280
     0
102
RTVSPost2010PropOp55
 70
     1
102
RTVSPost2010Prop56
140
1.0
102
RTVSPost2010PropOp56
 70
     1
102
RTVSPost2010Prop57
140
1.0
102
RTVSPost2010PropOp57
 70
     1
102
RTVSPropertyOp0
 70
     1
102
RTVSPropertyOp1
 70
     1
102
RTVSPropertyOp2
 70
     1
102
RTVSPropertyOp3
 70
     1
102
RTVSPropertyOp4
 70
     1
102
RTVSPropertyOp5
 70
     1
102
RTVSPropertyOp6
 70
     1
102
RTVSPropertyOp7
 70
     1
102
RTVSPropertyOp8
 70
     1
102
RTVSPropertyOp9
 70
     1
102
RTVSPropertyOp10
 70
     1
102
RTVSPropertyOp11
 70
     1
102
RTVSPropertyOp12
 70
     1
102
RTVSPropertyOp13
 70
     1
102
RTVSPropertyOp14
 70
     1
102
RTVSPropertyOp15
 70
     1
102
RTVSPropertyOp16
 70
     1
102
RTVSPropertyOp17
 70
     1
102
RTVSPropertyOp18
 70
     1
102
RTVSPropertyOp19
 70
     1
102
RTVSPropertyOp20
 70
     1
102
RTVSPropertyOp21
 70
     1
102
RTVSPropertyOp22
 70
     1
102
RTVSPropertyOp23
 70
     1
102
RTVSPropertyOp24
 70
     1
102
RTVSPropertyOp25
 70
     1
102
RTVSPropertyOp26
 70
     1
102
RTVSPropertyOp27
 70
     1
102
RTVSPropertyOp28
 70
     1
102
RTVSPropertyOp29
 70
     1
102
RTVSPropertyOp30
 70
     1
102
RTVSPropertyOp31
 70
     1
102
RTVSPropertyOp32
 70
     1
102
RTVSPropertyOp33
 70
     1
102
RTVSPropertyOp34
 70
     1
102
RTVSPropertyOp35
 70
     1
102
RTVSPropertyOp36
 70
     1
102
RTVSPropertyOp37
 70
     1
102
RTVSPropertyOp38
 70
     1
102
RTVSPropertyOp39
 70
     1
102
RTVSPropertyOp40
 70
     1
102
RTVSPropertyOp41
 70
     1
102
RTVSPropertyOp42
 70
     1
102
RTVSPropertyOp43
 70
     1
102
RTVSPropertyOp44
 70
     1
102
RTVSPropertyOp45
 70
     1
102
RTVSPropertyOp46
 70
     1
102
RTVSPropertyOp47
 70
     1
102
RTVSPropertyOp48
 70
     1
102
RTVSPropertyOp49
 70
     1
102
RTVSPropertyOp50
 70
     1
102
RTVSPropertyOp51
 70
     0
102
RTVSPropertyOp52
 70
     0
102
RTVSPropertyOp53
 70
     1
102
RTVSPropertyOp54
 70
     1
102
RTVSPropertyOp55
 70
     1
102
RTVSPropertyOp56
 70
     1
102
RTVSPropertyOp57
 70
     1
102
RTVSPropertyOp58
 70
     1
102
RTVSPropertyOp59
 70
     1
102
RTVSPropertyOp60
 70
     1
102
RTVSPropertyOp61
 70
     1
102
RTVSPropertyOp62
 70
     1
  0
XRECORD
  5
C982
102
{ACAD_REACTORS
330
C981
102
}
330
C981
100
AcDbXrecord
280
     1
102
RTVSPost2010Prop28
280
     0
102
RTVSPost2010PropOp28
 70
     1
102
RTVSPost2010Prop29
280
     1
102
RTVSPost2010PropOp29
 70
     1
102
RTVSPost2010Prop30
280
     1
102
RTVSPost2010PropOp30
 70
     1
102
RTVSPost2010Prop31
280
     0
102
RTVSPost2010PropOp31
 70
     1
102
RTVSPost2010Prop32
280
     0
102
RTVSPost2010PropOp32
 70
     1
102
RTVSPost2010Prop33
280
     0
102
RTVSPost2010PropOp33
 70
     1
102
RTVSPost2010Prop34
280
     0
102
RTVSPost2010PropOp34
 70
     1
102
RTVSPost2010Prop35
280
     0
102
RTVSPost2010PropOp35
 70
     1
102
RTVSPost2010Prop36
280
     0
102
RTVSPost2010PropOp36
 70
     1
102
RTVSPost2010Prop37
 90
       50
102
RTVSPost2010PropOp37
 70
     1
102
RTVSPost2010Prop38
140
0.0
102
RTVSPost2010PropOp38
 70
     1
102
RTVSPost2010Prop39
140
1.0
102
RTVSPost2010PropOp39
 70
     1
102
RTVSPost2010Prop40
 90
        0
102
RTVSPost2010PropOp40
 70
     1
102
RTVSPost2010Prop41ColorIndex
 90
       18
102
RTVSPost2010Prop41ColorRGB
 90
        0
102
RTVSPost2010PropOp41
 70
     1
102
RTVSPost2010Prop42
 90
       50
102
RTVSPost2010PropOp42
 70
     1
102
RTVSPost2010Prop43
 90
        3
102
RTVSPost2010PropOp43
 70
     1
102
RTVSPost2010Prop44ColorIndex
 90
        5
102
RTVSPost2010Prop44ColorRGB
 90
      255
102
RTVSPost2010PropOp44
 70
     1
102
RTVSPost2010Prop45
280
     0
102
RTVSPost2010PropOp45
 70
     1
102
RTVSPost2010Prop46
 90
       50
102
RTVSPost2010PropOp46
 70
     1
102
RTVSPost2010Prop47
 90
       50
102
RTVSPost2010PropOp47
 70
     1
102
RTVSPost2010Prop48
 90
       50
102
RTVSPost2010PropOp48
 70
     1
102
RTVSPost2010Prop49
280
     0
102
RTVSPost2010PropOp49
 70
     1
102
RTVSPost2010Prop50
 90
       50
102
RTVSPost2010PropOp50
 70
     1
102
RTVSPost2010Prop51ColorIndex
 90
      256
102
RTVSPost2010Prop51ColorRGB
 90
-16777216
102
RTVSPost2010PropOp51
 70
     0
102
RTVSPost2010Prop52
140
1.0
102
RTVSPost2010PropOp52
 70
     0
102
RTVSPost2010Prop53
 90
        2
102
RTVSPost2010PropOp53
 70
     1
102
RTVSPost2010Prop54
  1
strokes_ogs.tif
102
RTVSPost2010PropOp54
 70
     1
102
RTVSPost2010Prop55
280
     0
102
RTVSPost2010PropOp55
 70
     1
102
RTVSPost2010Prop56
140
1.0
102
RTVSPost2010PropOp56
 70
     1
102
RTVSPost2010Prop57
140
1.0
102
RTVSPost2010PropOp57
 70
     1
102
RTVSPropertyOp0
 70
     1
102
RTVSPropertyOp1
 70
     1
102
RTVSPropertyOp2
 70
     1
102
RTVSPropertyOp3
 70
     1
102
RTVSPropertyOp4
 70
     1
102
RTVSPropertyOp5
 70
     1
102
RTVSPropertyOp6
 70
     1
102
RTVSPropertyOp7
 70
     1
102
RTVSPropertyOp8
 70
     1
102
RTVSPropertyOp9
 70
     1
102
RTVSPropertyOp10
 70
     1
102
RTVSPropertyOp11
 70
     1
102
RTVSPropertyOp12
 70
     1
102
RTVSPropertyOp13
 70
     1
102
RTVSPropertyOp14
 70
     1
102
RTVSPropertyOp15
 70
     1
102
RTVSPropertyOp16
 70
     1
102
RTVSPropertyOp17
 70
     1
102
RTVSPropertyOp18
 70
     1
102
RTVSPropertyOp19
 70
     1
102
RTVSPropertyOp20
 70
     1
102
RTVSPropertyOp21
 70
     1
102
RTVSPropertyOp22
 70
     1
102
RTVSPropertyOp23
 70
     1
102
RTVSPropertyOp24
 70
     1
102
RTVSPropertyOp25
 70
     1
102
RTVSPropertyOp26
 70
     1
102
RTVSPropertyOp27
 70
     1
102
RTVSPropertyOp28
 70
     1
102
RTVSPropertyOp29
 70
     1
102
RTVSPropertyOp30
 70
     1
102
RTVSPropertyOp31
 70
     1
102
RTVSPropertyOp32
 70
     1
102
RTVSPropertyOp33
 70
     1
102
RTVSPropertyOp34
 70
     1
102
RTVSPropertyOp35
 70
     1
102
RTVSPropertyOp36
 70
     1
102
RTVSPropertyOp37
 70
     1
102
RTVSPropertyOp38
 70
     1
102
RTVSPropertyOp39
 70
     1
102
RTVSPropertyOp40
 70
     1
102
RTVSPropertyOp41
 70
     1
102
RTVSPropertyOp42
 70
     1
102
RTVSPropertyOp43
 70
     1
102
RTVSPropertyOp44
 70
     1
102
RTVSPropertyOp45
 70
     1
102
RTVSPropertyOp46
 70
     1
102
RTVSPropertyOp47
 70
     1
102
RTVSPropertyOp48
 70
     1
102
RTVSPropertyOp49
 70
     1
102
RTVSPropertyOp50
 70
     1
102
RTVSPropertyOp51
 70
     0
102
RTVSPropertyOp52
 70
     0
102
RTVSPropertyOp53
 70
     1
102
RTVSPropertyOp54
 70
     1
102
RTVSPropertyOp55
 70
     1
102
RTVSPropertyOp56
 70
     1
102
RTVSPropertyOp57
 70
     1
102
RTVSPropertyOp58
 70
     1
102
RTVSPropertyOp59
 70
     1
102
RTVSPropertyOp60
 70
     1
102
RTVSPropertyOp61
 70
     1
102
RTVSPropertyOp62
 70
     1
  0
ENDSEC
  0
EOF
