  0
SECTION
  2
HEADER
  9
$ACADVER
  1
AC1015
  9
$ACADMAINTVER
 70
    20
  9
$DWGCODEPAGE
  3
ANSI_932
  9
$INSBASE
 10
0.0
 20
0.0
 30
0.0
  9
$EXTMIN
 10
9.99995
 20
9.999999999999998
 30
0.0
  9
$EXTMAX
 10
444.221588
 20
609.6846309999997
 30
0.0
  9
$LIMMIN
 10
0.0
 20
0.0
  9
$LIMMAX
 10
950.3999999999999
 20
655.2000000000001
  9
$ORTHOMODE
 70
     1
  9
$REGENMODE
 70
     1
  9
$FILLMODE
 70
     1
  9
$QTEXTMODE
 70
     0
  9
$MIRRTEXT
 70
     1
  9
$LTSCALE
 40
20.0
  9
$ATTMODE
 70
     1
  9
$TEXTSIZE
 40
5.0
  9
$TRACEWID
 40
1.0
  9
$TEXTSTYLE
  7
STANDARD
  9
$CLAYER
  8
0
  9
$CELTYPE
  6
BYLAYER
  9
$CECOLOR
 62
   256
  9
$CELTSCALE
 40
1.0
  9
$DISPSILH
 70
     0
  9
$DIMSCALE
 40
1.0
  9
$DIMASZ
 40
3.0
  9
$DIMEXO
 40
1.0
  9
$DIMDLI
 40
10.0
  9
$DIMRND
 40
0.0
  9
$DIMDLE
 40
0.0
  9
$DIMEXE
 40
1.0
  9
$DIMTP
 40
0.0
  9
$DIMTM
 40
0.0
  9
$DIMTXT
 40
3.2
  9
$DIMCEN
 40
0.0
  9
$DIMTSZ
 40
0.0
  9
$DIMTOL
 70
     0
  9
$DIMLIM
 70
     0
  9
$DIMTIH
 70
     0
  9
$DIMTOH
 70
     0
  9
$DIMSE1
 70
     0
  9
$DIMSE2
 70
     0
  9
$DIMTAD
 70
     3
  9
$DIMZIN
 70
     8
  9
$DIMBLK
  1

  9
$DIMASO
 70
     1
  9
$DIMSHO
 70
     1
  9
$DIMPOST
  1

  9
$DIMAPOST
  1

  9
$DIMALT
 70
     0
  9
$DIMALTD
 70
     2
  9
$DIMALTF
 40
25.4
  9
$DIMLFAC
 40
1.0
  9
$DIMTOFL
 70
     1
  9
$DIMTVP
 40
0.0
  9
$DIMTIX
 70
     0
  9
$DIMSOXD
 70
     0
  9
$DIMSAH
 70
     1
  9
$DIMBLK1
  1

  9
$DIMBLK2
  1

  9
$DIMSTYLE
  2
STANDARD
  9
$DIMCLRD
 70
     0
  9
$DIMCLRE
 70
     0
  9
$DIMCLRT
 70
     0
  9
$DIMTFAC
 40
1.0
  9
$DIMGAP
 40
1.0
  9
$DIMJUST
 70
     0
  9
$DIMSD1
 70
     0
  9
$DIMSD2
 70
     0
  9
$DIMTOLJ
 70
     1
  9
$DIMTZIN
 70
     0
  9
$DIMALTZ
 70
     0
  9
$DIMALTTZ
 70
     0
  9
$DIMUPT
 70
     0
  9
$DIMDEC
 70
     4
  9
$DIMTDEC
 70
     4
  9
$DIMALTU
 70
     2
  9
$DIMALTTD
 70
     2
  9
$DIMTXSTY
  7
STANDARD
  9
$DIMAUNIT
 70
     0
  9
$DIMADEC
 70
     0
  9
$DIMALTRND
 40
0.0
  9
$DIMAZIN
 70
     0
  9
$DIMDSEP
 70
    46
  9
$DIMATFIT
 70
     3
  9
$DIMFRAC
 70
     0
  9
$DIMLDRBLK
  1

  9
$DIMLUNIT
 70
     2
  9
$DIMLWD
 70
    -2
  9
$DIMLWE
 70
    -2
  9
$DIMTMOVE
 70
     0
  9
$LUNITS
 70
     2
  9
$LUPREC
 70
     4
  9
$SKETCHINC
 40
1.0
  9
$FILLETRAD
 40
0.0
  9
$AUNITS
 70
     0
  9
$AUPREC
 70
     2
  9
$MENU
  1
.
  9
$ELEVATION
 40
0.0
  9
$PELEVATION
 40
0.0
  9
$THICKNESS
 40
0.0
  9
$LIMCHECK
 70
     0
  9
$CHAMFERA
 40
10.0
  9
$CHAMFERB
 40
10.0
  9
$CHAMFERC
 40
0.0
  9
$CHAMFERD
 40
0.0
  9
$SKPOLY
 70
     0
  9
$TDCREATE
 40
2451074.620394791
  9
$TDUCREATE
 40
2451074.245394792
  9
$TDUPDATE
 40
2457192.621345081
  9
$TDUUPDATE
 40
2457192.246345081
  9
$TDINDWG
 40
0.0000167245
  9
$TDUSRTIMER
 40
0.0000162384
  9
$USRTIMER
 70
     1
  9
$ANGBASE
 50
0.0
  9
$ANGDIR
 70
     0
  9
$PDMODE
 70
     0
  9
$PDSIZE
 40
0.0
  9
$PLINEWID
 40
0.0
  9
$SPLFRAME
 70
     0
  9
$SPLINETYPE
 70
     6
  9
$SPLINESEGS
 70
     8
  9
$HANDSEED
  5
99EB
  9
$SURFTAB1
 70
     6
  9
$SURFTAB2
 70
     6
  9
$SURFTYPE
 70
     6
  9
$SURFU
 70
     6
  9
$SURFV
 70
     6
  9
$UCSBASE
  2

  9
$UCSNAME
  2

  9
$UCSORG
 10
0.0
 20
0.0
 30
0.0
  9
$UCSXDIR
 10
1.0
 20
0.0
 30
0.0
  9
$UCSYDIR
 10
0.0
 20
1.0
 30
0.0
  9
$UCSORTHOREF
  2

  9
$UCSORTHOVIEW
 70
     0
  9
$UCSORGTOP
 10
0.0
 20
0.0
 30
0.0
  9
$UCSORGBOTTOM
 10
0.0
 20
0.0
 30
0.0
  9
$UCSORGLEFT
 10
0.0
 20
0.0
 30
0.0
  9
$UCSORGRIGHT
 10
0.0
 20
0.0
 30
0.0
  9
$UCSORGFRONT
 10
0.0
 20
0.0
 30
0.0
  9
$UCSORGBACK
 10
0.0
 20
0.0
 30
0.0
  9
$PUCSBASE
  2

  9
$PUCSNAME
  2

  9
$PUCSORG
 10
0.0
 20
0.0
 30
0.0
  9
$PUCSXDIR
 10
1.0
 20
0.0
 30
0.0
  9
$PUCSYDIR
 10
0.0
 20
1.0
 30
0.0
  9
$PUCSORTHOREF
  2

  9
$PUCSORTHOVIEW
 70
     0
  9
$PUCSORGTOP
 10
0.0
 20
0.0
 30
0.0
  9
$PUCSORGBOTTOM
 10
0.0
 20
0.0
 30
0.0
  9
$PUCSORGLEFT
 10
0.0
 20
0.0
 30
0.0
  9
$PUCSORGRIGHT
 10
0.0
 20
0.0
 30
0.0
  9
$PUCSORGFRONT
 10
0.0
 20
0.0
 30
0.0
  9
$PUCSORGBACK
 10
0.0
 20
0.0
 30
0.0
  9
$USERI1
 70
     0
  9
$USERI2
 70
     0
  9
$USERI3
 70
     0
  9
$USERI4
 70
     0
  9
$USERI5
 70
     0
  9
$USERR1
 40
0.0
  9
$USERR2
 40
0.0
  9
$USERR3
 40
0.0
  9
$USERR4
 40
0.0
  9
$USERR5
 40
0.0
  9
$WORLDVIEW
 70
     1
  9
$SHADEDGE
 70
     3
  9
$SHADEDIF
 70
    70
  9
$TILEMODE
 70
     1
  9
$MAXACTVP
 70
    16
  9
$PINSBASE
 10
0.0
 20
0.0
 30
0.0
  9
$PLIMCHECK
 70
     0
  9
$PEXTMIN
 10
1.000000000000000E+20
 20
1.000000000000000E+20
 30
1.000000000000000E+20
  9
$PEXTMAX
 10
-1.000000000000000E+20
 20
-1.000000000000000E+20
 30
-1.000000000000000E+20
  9
$PLIMMIN
 10
0.0
 20
0.0
  9
$PLIMMAX
 10
420.0
 20
297.0
  9
$UNITMODE
 70
     0
  9
$VISRETAIN
 70
     0
  9
$PLINEGEN
 70
     0
  9
$PSLTSCALE
 70
     0
  9
$TREEDEPTH
 70
  3020
  9
$CMLSTYLE
  2
STANDARD
  9
$CMLJUST
 70
     0
  9
$CMLSCALE
 40
1.0
  9
$PROXYGRAPHICS
 70
     1
  9
$MEASUREMENT
 70
     0
  9
$CELWEIGHT
370
    -1
  9
$ENDCAPS
280
     0
  9
$JOINSTYLE
280
     0
  9
$LWDISPLAY
290
     0
  9
$INSUNITS
 70
     0
  9
$HYPERLINKBASE
  1

  9
$STYLESHEET
  1

  9
$XEDIT
290
     1
  9
$CEPSNTYPE
380
     0
  9
$PSTYLEMODE
290
     1
  9
$FINGERPRINTGUID
  2
{0705915A-BCDF-44B2-B0C2-A711945CD158}
  9
$VERSIONGUID
  2
{B9200FC2-FD22-488D-B999-5A969B0DE576}
  9
$EXTNAMES
290
     1
  9
$PSVPSCALE
 40
0.0
  9
$OLESTARTUP
290
     0
  0
ENDSEC
  0
SECTION
  2
CLASSES
  0
CLASS
  1
ACDBDICTIONARYWDFLT
  2
AcDbDictionaryWithDefault
  3
ObjectDBX Classes
 90
        0
280
     0
281
     0
  0
CLASS
  1
ACDBPLACEHOLDER
  2
AcDbPlaceHolder
  3
ObjectDBX Classes
 90
        0
280
     0
281
     0
  0
CLASS
  1
LAYOUT
  2
AcDbLayout
  3
ObjectDBX Classes
 90
        0
280
     0
281
     0
  0
CLASS
  1
DICTIONARYVAR
  2
AcDbDictionaryVar
  3
ObjectDBX Classes
 90
        0
280
     0
281
     0
  0
CLASS
  1
MATERIAL
  2
AcDbMaterial
  3
ObjectDBX Classes
 90
     1153
280
     0
281
     0
  0
CLASS
  1
VISUALSTYLE
  2
AcDbVisualStyle
  3
ObjectDBX Classes
 90
     4095
280
     0
281
     0
  0
CLASS
  1
TABLESTYLE
  2
AcDbTableStyle
  3
ObjectDBX Classes
 90
     4095
280
     0
281
     0
  0
CLASS
  1
SCALE
  2
AcDbScale
  3
ObjectDBX Classes
 90
     1153
280
     0
281
     0
  0
CLASS
  1
MLEADERSTYLE
  2
AcDbMLeaderStyle
  3
ACDB_MLEADERSTYLE_CLASS
 90
     4095
280
     0
281
     0
  0
CLASS
  1
ACDBSECTIONVIEWSTYLE
  2
AcDbSectionViewStyle
  3
ObjectDBX Classes
 90
     1025
280
     0
281
     0
  0
CLASS
  1
ACDBDETAILVIEWSTYLE
  2
AcDbDetailViewStyle
  3
ObjectDBX Classes
 90
     1025
280
     0
281
     0
  0
CLASS
  1
CELLSTYLEMAP
  2
AcDbCellStyleMap
  3
ObjectDBX Classes
 90
     1152
280
     0
281
     0
  0
ENDSEC
  0
SECTION
  2
TABLES
  0
TABLE
  2
VPORT
  5
95FA
330
0
100
AcDbSymbolTable
 70
     1
  0
VPORT
  5
9934
330
95FA
100
AcDbSymbolTableRecord
100
AcDbViewportTableRecord
  2
*ACTIVE
 70
     0
 10
0.0
 20
0.0
 11
1.0
 21
1.0
 12
408.7169428194328
 22
309.7793533114012
 13
0.0
 23
0.0
 14
10.0
 24
10.0
 15
10.0
 25
10.0
 16
0.0
 26
0.0
 36
1.0
 17
0.0
 27
0.0
 37
0.0
 40
606.3097934390827
 41
1.899603698811096
 42
50.0
 43
0.0
 44
0.0
 50
0.0
 51
0.0
 71
     0
 72
   100
 73
     1
 74
     0
 75
     0
 76
     0
 77
     0
 78
     0
281
     0
 65
     1
110
0.0
120
0.0
130
0.0
111
1.0
121
0.0
131
0.0
112
0.0
122
1.0
132
0.0
 79
     0
146
0.0
1001
ACAD_NAV_VCDISPLAY
1070
     3
  0
ENDTAB
  0
TABLE
  2
LTYPE
  5
95F7
330
0
100
AcDbSymbolTable
 70
     4
  0
LTYPE
  5
9605
330
95F7
100
AcDbSymbolTableRecord
100
AcDbLinetypeTableRecord
  2
BYBLOCK
 70
     0
  3

 72
    65
 73
     0
 40
0.0
  0
LTYPE
  5
9606
330
95F7
100
AcDbSymbolTableRecord
100
AcDbLinetypeTableRecord
  2
BYLAYER
 70
     0
  3

 72
    65
 73
     0
 40
0.0
  0
LTYPE
  5
9607
330
95F7
100
AcDbSymbolTableRecord
100
AcDbLinetypeTableRecord
  2
CONTINUOUS
 70
     0
  3
Solid line
 72
    65
 73
     0
 40
0.0
  0
LTYPE
  5
9615
330
95F7
100
AcDbSymbolTableRecord
100
AcDbLinetypeTableRecord
  2
DASHED
 70
     0
  3
__ __ __ __ __ __ __ __ __ __ __ __ __ __ __ __
 72
    65
 73
     2
 40
0.75
 49
0.5
 74
     0
 49
-0.25
 74
     0
  0
LTYPE
  5
9616
330
95F7
100
AcDbSymbolTableRecord
100
AcDbLinetypeTableRecord
  2
CENTER
 70
     0
  3
____ _ ____ _ ____ _ ____ _ ____ _ ____ _ ____ 
 72
    65
 73
     4
 40
2.0
 49
1.25
 74
     0
 49
-0.25
 74
     0
 49
0.25
 74
     0
 49
-0.25
 74
     0
  0
LTYPE
  5
9617
330
95F7
100
AcDbSymbolTableRecord
100
AcDbLinetypeTableRecord
  2
PHANTOM
 70
     0
  3
______  __  __  ______  __  __  ______  __  __ 
 72
    65
 73
     6
 40
2.5
 49
1.25
 74
     0
 49
-0.25
 74
     0
 49
0.25
 74
     0
 49
-0.25
 74
     0
 49
0.25
 74
     0
 49
-0.25
 74
     0
  0
ENDTAB
  0
TABLE
  2
LAYER
  5
95F4
330
0
100
AcDbSymbolTable
 70
     8
  0
LAYER
  5
9602
102
{ACAD_XDICTIONARY
360
998F
102
}
330
95F4
100
AcDbSymbolTableRecord
100
AcDbLayerTableRecord
  2
0
 70
     0
 62
     7
  6
CONTINUOUS
370
    -3
390
993D
  0
LAYER
  5
9618
102
{ACAD_XDICTIONARY
360
9991
102
}
330
95F4
100
AcDbSymbolTableRecord
100
AcDbLayerTableRecord
  2
4
 70
     0
 62
     1
  6
CENTER
370
    -3
390
993D
  0
LAYER
  5
9619
102
{ACAD_XDICTIONARY
360
9993
102
}
330
95F4
100
AcDbSymbolTableRecord
100
AcDbLayerTableRecord
  2
5
 70
     0
 62
     6
  6
PHANTOM
370
    -3
390
993D
  0
LAYER
  5
961A
102
{ACAD_XDICTIONARY
360
9995
102
}
330
95F4
100
AcDbSymbolTableRecord
100
AcDbLayerTableRecord
  2
1
 70
     0
 62
     7
  6
CONTINUOUS
370
    -3
390
993D
  0
LAYER
  5
961B
102
{ACAD_XDICTIONARY
360
9997
102
}
330
95F4
100
AcDbSymbolTableRecord
100
AcDbLayerTableRecord
  2
2
 70
     0
 62
     4
  6
CONTINUOUS
370
    -3
390
993D
  0
LAYER
  5
961C
102
{ACAD_XDICTIONARY
360
9999
102
}
330
95F4
100
AcDbSymbolTableRecord
100
AcDbLayerTableRecord
  2
3
 70
     0
 62
     2
  6
DASHED
370
    -3
390
993D
  0
LAYER
  5
961D
102
{ACAD_XDICTIONARY
360
999B
102
}
330
95F4
100
AcDbSymbolTableRecord
100
AcDbLayerTableRecord
  2
6
 70
     0
 62
     5
  6
CONTINUOUS
370
    -3
390
993D
  0
LAYER
  5
961E
102
{ACAD_XDICTIONARY
360
999D
102
}
330
95F4
100
AcDbSymbolTableRecord
100
AcDbLayerTableRecord
  2
7
 70
     0
 62
     3
  6
CONTINUOUS
370
    -3
390
993D
  0
ENDTAB
  0
TABLE
  2
STYLE
  5
95F5
330
0
100
AcDbSymbolTable
 70
     1
  0
STYLE
  5
9603
330
95F5
100
AcDbSymbolTableRecord
100
AcDbTextStyleTableRecord
  2
STANDARD
 70
     0
 40
0.0
 41
1.0
 50
0.0
 71
     0
 42
5.0
  3
txt
  4

  0
ENDTAB
  0
TABLE
  2
VIEW
  5
95F8
330
0
100
AcDbSymbolTable
 70
     0
  0
ENDTAB
  0
TABLE
  2
UCS
  5
95F9
330
0
100
AcDbSymbolTable
 70
     0
  0
ENDTAB
  0
TABLE
  2
APPID
  5
95FB
330
0
100
AcDbSymbolTable
 70
     3
  0
APPID
  5
9604
330
95FB
100
AcDbSymbolTableRecord
100
AcDbRegAppTableRecord
  2
ACAD
 70
     0
  0
APPID
  5
99A9
330
95FB
100
AcDbSymbolTableRecord
100
AcDbRegAppTableRecord
  2
ACAD_NAV_VCDISPLAY
 70
     0
  0
APPID
  5
99E2
330
95FB
100
AcDbSymbolTableRecord
100
AcDbRegAppTableRecord
  2
ACAD_MLEADERVER
 70
     0
  0
ENDTAB
  0
TABLE
  2
DIMSTYLE
  5
95FC
330
0
100
AcDbSymbolTable
 70
     1
100
AcDbDimStyleTable
 71
     0
  0
DIMSTYLE
105
9620
330
95FC
100
AcDbSymbolTableRecord
100
AcDbDimStyleTableRecord
  2
STANDARD
 70
     0
 41
3.0
 42
1.0
 43
10.0
 44
1.0
 73
     0
 74
     0
 77
     3
 78
     8
140
3.2
141
0.0
147
1.0
172
     1
173
     1
284
     8
285
     8
286
     8
340
9603
  0
ENDTAB
  0
TABLE
  2
BLOCK_RECORD
  5
95F3
330
0
100
AcDbSymbolTable
 70
     0
  0
BLOCK_RECORD
  5
9610
102
{ACAD_XDICTIONARY
360
9937
102
}
330
95F3
100
AcDbSymbolTableRecord
100
AcDbBlockTableRecord
  2
*MODEL_SPACE
340
998B
  0
BLOCK_RECORD
  5
960C
102
{ACAD_XDICTIONARY
360
9935
102
}
330
95F3
100
AcDbSymbolTableRecord
100
AcDbBlockTableRecord
  2
*PAPER_SPACE
340
998C
  0
ENDTAB
  0
ENDSEC
  0
SECTION
  2
BLOCKS
  0
BLOCK
  5
9611
330
9610
100
AcDbEntity
  8
0
100
AcDbBlockBegin
  2
*MODEL_SPACE
 70
     0
 10
0.0
 20
0.0
 30
0.0
  3
*MODEL_SPACE
  1

  0
ENDBLK
  5
9612
330
9610
100
AcDbEntity
  8
0
100
AcDbBlockEnd
  0
BLOCK
  5
960D
330
960C
100
AcDbEntity
 67
     1
  8
0
100
AcDbBlockBegin
  2
*PAPER_SPACE
 70
     0
 10
0.0
 20
0.0
 30
0.0
  3
*PAPER_SPACE
  1

  0
ENDBLK
  5
960E
330
960C
100
AcDbEntity
 67
     1
  8
0
100
AcDbBlockEnd
  0
ENDSEC
  0
SECTION
  2
ENTITIES
  0
LINE
  5
9628
330
9610
100
AcDbEntity
  8
4
  6
CENTER
100
AcDbLine
 10
164.0573579999999
 20
343.191162
 30
0.0
 11
164.0573579999999
 21
111.9475329999998
 31
0.0
  0
LINE
  5
9629
330
9610
100
AcDbEntity
  8
4
  6
CENTER
100
AcDbLine
 10
38.5
 20
511.7938839999998
 30
0.0
 11
38.5
 21
111.9475329999998
 31
0.0
  0
LINE
  5
962A
330
9610
100
AcDbEntity
  8
4
  6
CENTER
100
AcDbLine
 10
20.0
 20
126.1911769999999
 30
0.0
 11
57.0
 21
126.1911769999999
 31
0.0
  0
LINE
  5
962B
330
9610
100
AcDbEntity
  8
1
  6
Continuous
100
AcDbLine
 10
25.0
 20
338.191162
 30
0.0
 11
52.0
 21
338.191162
 31
0.0
  0
LINE
  5
962C
330
9610
100
AcDbEntity
  8
4
  6
CENTER
100
AcDbLine
 10
16.877575
 20
309.691162
 30
0.0
 11
58.5
 21
309.691162
 31
0.0
  0
LINE
  5
962D
330
9610
100
AcDbEntity
  8
4
  6
CENTER
100
AcDbLine
 10
160.895615
 20
346.691162
 30
0.0
 11
176.7297059999999
 21
346.691162
 31
0.0
  0
LINE
  5
962E
330
9610
100
AcDbEntity
  8
1
  6
Continuous
100
AcDbLine
 10
169.557358
 20
335.691162
 30
0.0
 11
170.557358
 21
335.691162
 31
0.0
  0
LINE
  5
962F
330
9610
100
AcDbEntity
  8
1
  6
Continuous
100
AcDbLine
 10
168.5573579999999
 20
498.1911619999998
 30
0.0
 11
168.5573579999999
 21
338.191162
 31
0.0
  0
LINE
  5
9630
330
9610
100
AcDbEntity
  8
1
  6
Continuous
100
AcDbLine
 10
163.5573579999999
 20
495.191162
 30
0.0
 11
163.5573579999999
 21
338.191162
 31
0.0
  0
LINE
  5
9631
330
9610
100
AcDbEntity
  8
4
  6
CENTER
100
AcDbLine
 10
166.0573579999999
 20
506.6911619999998
 30
0.0
 11
166.0573579999999
 21
334.191162
 31
0.0
  0
LINE
  5
9632
330
9610
100
AcDbEntity
  8
5
  6
PHANTOM
100
AcDbLine
 10
168.5573579999999
 20
339.441162
 30
0.0
 11
169.0573579999998
 21
339.441162
 31
0.0
  0
LINE
  5
9633
330
9610
100
AcDbEntity
  8
5
  6
PHANTOM
100
AcDbLine
 10
169.0573579999998
 20
361.691162
 30
0.0
 11
169.0573579999998
 21
339.441162
 31
0.0
  0
LINE
  5
9634
330
9610
100
AcDbEntity
  8
5
  6
PHANTOM
100
AcDbLine
 10
168.5573579999999
 20
353.691162
 30
0.0
 11
169.0573579999998
 21
353.691162
 31
0.0
  0
LINE
  5
9635
330
9610
100
AcDbEntity
  8
5
  6
PHANTOM
100
AcDbLine
 10
169.0573579999998
 20
339.691162
 30
0.0
 11
171.0573579999999
 21
339.691162
 31
0.0
  0
LINE
  5
9636
330
9610
100
AcDbEntity
  8
5
  6
PHANTOM
100
AcDbLine
 10
171.557358
 20
352.691162
 30
0.0
 11
173.557358
 21
352.691162
 31
0.0
  0
LINE
  5
9637
330
9610
100
AcDbEntity
  8
5
  6
PHANTOM
100
AcDbLine
 10
171.557358
 20
340.691162
 30
0.0
 11
173.557358
 21
340.691162
 31
0.0
  0
LINE
  5
9638
330
9610
100
AcDbEntity
  8
5
  6
PHANTOM
100
AcDbLine
 10
174.0573579999999
 20
352.191162
 30
0.0
 11
174.0573579999999
 21
341.191162
 31
0.0
  0
LINE
  5
9639
330
9610
100
AcDbEntity
  8
5
  6
PHANTOM
100
AcDbLine
 10
173.557358
 20
340.691193
 30
0.0
 11
174.0573429999998
 21
341.191162
 31
0.0
  0
LINE
  5
963A
330
9610
100
AcDbEntity
  8
5
  6
PHANTOM
100
AcDbLine
 10
173.557358
 20
352.691162
 30
0.0
 11
173.557358
 21
340.691162
 31
0.0
  0
LINE
  5
963B
330
9610
100
AcDbEntity
  8
5
  6
PHANTOM
100
AcDbLine
 10
171.0573579999999
 20
341.191193
 30
0.0
 11
171.557358
 21
340.691193
 31
0.0
  0
LINE
  5
963C
330
9610
100
AcDbEntity
  8
5
  6
PHANTOM
100
AcDbLine
 10
171.0573579999999
 20
361.691162
 30
0.0
 11
171.0573579999999
 21
339.691162
 31
0.0
  0
LINE
  5
963D
330
9610
100
AcDbEntity
  8
5
  6
PHANTOM
100
AcDbLine
 10
171.557358
 20
340.691162
 30
0.0
 11
171.557358
 21
352.691162
 31
0.0
  0
LINE
  5
963E
330
9610
100
AcDbEntity
  8
5
  6
PHANTOM
100
AcDbLine
 10
166.557358
 20
363.691162
 30
0.0
 11
181.5573579999999
 21
363.691162
 31
0.0
  0
LINE
  5
963F
330
9610
100
AcDbEntity
  8
5
  6
PHANTOM
100
AcDbLine
 10
166.557358
 20
361.691162
 30
0.0
 11
181.5573579999999
 21
361.691162
 31
0.0
  0
LINE
  5
9640
330
9610
100
AcDbEntity
  8
5
  6
PHANTOM
100
AcDbLine
 10
181.5573579999999
 20
363.691162
 30
0.0
 11
181.5573579999999
 21
361.691162
 31
0.0
  0
LINE
  5
9641
330
9610
100
AcDbEntity
  8
5
  6
PHANTOM
100
AcDbLine
 10
166.557358
 20
363.691162
 30
0.0
 11
166.557358
 21
361.691162
 31
0.0
  0
LINE
  5
9642
330
9610
100
AcDbEntity
  8
4
  6
CENTER
100
AcDbLine
 10
23.5
 20
346.691162
 30
0.0
 11
53.5
 21
346.691162
 31
0.0
  0
LINE
  5
9643
330
9610
100
AcDbEntity
  8
1
  6
Continuous
100
AcDbLine
 10
163.5573579999999
 20
493.191162
 30
0.0
 11
168.5573579999999
 21
493.191162
 31
0.0
  0
LINE
  5
9644
330
9610
100
AcDbEntity
  8
1
  6
Continuous
100
AcDbLine
 10
167.557358
 20
498.1911619999998
 30
0.0
 11
168.5573579999999
 21
498.1911619999998
 31
0.0
  0
LINE
  5
9645
330
9610
100
AcDbEntity
  8
1
  6
Continuous
100
AcDbLine
 10
170.757355
 20
34.000175
 30
0.0
 11
171.0573579999999
 21
34.000175
 31
0.0
  0
LINE
  5
9646
330
9610
100
AcDbEntity
  8
1
  6
Continuous
100
AcDbLine
 10
170.557358
 20
47.000175
 30
0.0
 11
172.0573579999999
 21
47.000175
 31
0.0
  0
LINE
  5
9647
330
9610
100
AcDbEntity
  8
1
  6
Continuous
100
AcDbLine
 10
172.0573579999999
 20
47.000175
 30
0.0
 11
172.0573579999999
 21
35.000175
 31
0.0
  0
LINE
  5
9648
330
9610
100
AcDbEntity
  8
1
  6
Continuous
100
AcDbLine
 10
172.0573579999999
 20
47.000172
 30
0.0
 11
172.557358
 21
46.50017199999999
 31
0.0
  0
LINE
  5
9649
330
9610
100
AcDbEntity
  8
1
  6
Continuous
100
AcDbLine
 10
172.557358
 20
46.50017499999999
 30
0.0
 11
172.557358
 21
35.500175
 31
0.0
  0
LINE
  5
964A
330
9610
100
AcDbEntity
  8
1
  6
Continuous
100
AcDbLine
 10
170.557358
 20
35.000175
 30
0.0
 11
172.0573579999999
 21
35.000175
 31
0.0
  0
LINE
  5
964B
330
9610
100
AcDbEntity
  8
1
  6
Continuous
100
AcDbLine
 10
172.0573429999998
 20
35.000175
 30
0.0
 11
172.557343
 21
35.500175
 31
0.0
  0
LINE
  5
964C
330
9610
100
AcDbEntity
  8
5
  6
PHANTOM
100
AcDbLine
 10
11.5
 20
363.691162
 30
0.0
 11
65.5
 21
363.691162
 31
0.0
  0
LINE
  5
964D
330
9610
100
AcDbEntity
  8
1
  6
Continuous
100
AcDbLine
 10
157.5573579999999
 20
319.691162
 30
0.0
 11
158.5573579999999
 21
319.691162
 31
0.0
  0
LINE
  5
964E
330
9610
100
AcDbEntity
  8
1
  6
Continuous
100
AcDbLine
 10
157.5573579999999
 20
299.691162
 30
0.0
 11
158.5573579999999
 21
299.691162
 31
0.0
  0
LINE
  5
964F
330
9610
100
AcDbEntity
  8
1
  6
Continuous
100
AcDbLine
 10
157.5573579999999
 20
319.691162
 30
0.0
 11
157.5573579999999
 21
299.691162
 31
0.0
  0
LINE
  5
9650
330
9610
100
AcDbEntity
  8
1
  6
Continuous
100
AcDbLine
 10
141.557358
 20
312.229645
 30
0.0
 11
141.557358
 21
311.441162
 31
0.0
  0
LINE
  5
9651
330
9610
100
AcDbEntity
  8
1
  6
Continuous
100
AcDbLine
 10
143.5573579999999
 20
312.383484
 30
0.0
 11
143.5573579999999
 21
311.441162
 31
0.0
  0
LINE
  5
9652
330
9610
100
AcDbEntity
  8
1
  6
Continuous
100
AcDbLine
 10
146.557358
 20
312.614258
 30
0.0
 11
146.557358
 21
311.7911680000001
 31
0.0
  0
LINE
  5
9653
330
9610
100
AcDbEntity
  8
1
  6
Continuous
100
AcDbLine
 10
148.557358
 20
312.768097
 30
0.0
 11
148.557358
 21
311.7911680000001
 31
0.0
  0
LINE
  5
9654
330
9610
100
AcDbEntity
  8
1
  6
Continuous
100
AcDbLine
 10
151.5573579999999
 20
312.998871
 30
0.0
 11
151.5573579999999
 21
312.191162
 31
0.0
  0
LINE
  5
9655
330
9610
100
AcDbEntity
  8
1
  6
Continuous
100
AcDbLine
 10
153.5573579999999
 20
313.15271
 30
0.0
 11
153.5573579999999
 21
312.191162
 31
0.0
  0
LINE
  5
9656
330
9610
100
AcDbEntity
  8
1
  6
Continuous
100
AcDbLine
 10
141.057343
 20
312.191162
 30
0.0
 11
141.557343
 21
312.229645
 31
0.0
  0
LINE
  5
9657
330
9610
100
AcDbEntity
  8
1
  6
Continuous
100
AcDbLine
 10
141.0573579999999
 20
307.191193
 30
0.0
 11
141.557358
 21
307.15271
 31
0.0
  0
LINE
  5
9658
330
9610
100
AcDbEntity
  8
1
  6
Continuous
100
AcDbLine
 10
151.5573579999999
 20
312.191162
 30
0.0
 11
153.5573579999999
 21
312.191162
 31
0.0
  0
LINE
  5
9659
330
9610
100
AcDbEntity
  8
1
  6
Continuous
100
AcDbLine
 10
151.5573579999999
 20
307.191162
 30
0.0
 11
153.5573579999999
 21
307.191162
 31
0.0
  0
LINE
  5
965A
330
9610
100
AcDbEntity
  8
1
  6
Continuous
100
AcDbLine
 10
151.5573579999999
 20
307.191162
 30
0.0
 11
151.5573579999999
 21
306.383484
 31
0.0
  0
LINE
  5
965B
330
9610
100
AcDbEntity
  8
1
  6
Continuous
100
AcDbLine
 10
153.5573579999999
 20
307.191162
 30
0.0
 11
153.5573579999999
 21
306.229645
 31
0.0
  0
LINE
  5
965C
330
9610
100
AcDbEntity
  8
1
  6
Continuous
100
AcDbLine
 10
141.557358
 20
307.941162
 30
0.0
 11
141.557358
 21
307.15271
 31
0.0
  0
LINE
  5
965D
330
9610
100
AcDbEntity
  8
1
  6
Continuous
100
AcDbLine
 10
143.5573579999999
 20
307.941162
 30
0.0
 11
143.5573579999999
 21
306.998871
 31
0.0
  0
LINE
  5
965E
330
9610
100
AcDbEntity
  8
1
  6
Continuous
100
AcDbLine
 10
146.557358
 20
307.591187
 30
0.0
 11
146.557358
 21
306.768097
 31
0.0
  0
LINE
  5
965F
330
9610
100
AcDbEntity
  8
1
  6
Continuous
100
AcDbLine
 10
148.557358
 20
307.591187
 30
0.0
 11
148.557358
 21
306.614258
 31
0.0
  0
LINE
  5
9660
330
9610
100
AcDbEntity
  8
1
  6
Continuous
100
AcDbLine
 10
148.557358
 20
306.614258
 30
0.0
 11
151.5573579999999
 21
306.383484
 31
0.0
  0
LINE
  5
9661
330
9610
100
AcDbEntity
  8
1
  6
Continuous
100
AcDbLine
 10
143.5573579999999
 20
306.998871
 30
0.0
 11
146.557358
 21
306.768097
 31
0.0
  0
LINE
  5
9662
330
9610
100
AcDbEntity
  8
1
  6
Continuous
100
AcDbLine
 10
143.5573429999998
 20
312.383484
 30
0.0
 11
146.557343
 21
312.614258
 31
0.0
  0
LINE
  5
9663
330
9610
100
AcDbEntity
  8
1
  6
Continuous
100
AcDbLine
 10
148.557343
 20
312.768097
 30
0.0
 11
151.557343
 21
312.998871
 31
0.0
  0
LINE
  5
9664
330
9610
100
AcDbEntity
  8
1
  6
Continuous
100
AcDbLine
 10
153.557343
 20
306.229645
 30
0.0
 11
154.057358
 21
306.1911929999999
 31
0.0
  0
LINE
  5
9665
330
9610
100
AcDbEntity
  8
1
  6
Continuous
100
AcDbLine
 10
153.557343
 20
313.15271
 30
0.0
 11
154.057343
 21
313.191162
 31
0.0
  0
LINE
  5
9666
330
9610
100
AcDbEntity
  8
1
  6
Continuous
100
AcDbLine
 10
151.5573579999999
 20
313.441162
 30
0.0
 11
157.5573579999999
 21
313.441162
 31
0.0
  0
LINE
  5
9667
330
9610
100
AcDbEntity
  8
1
  6
Continuous
100
AcDbLine
 10
151.5573579999999
 20
305.941162
 30
0.0
 11
157.5573579999999
 21
305.941162
 31
0.0
  0
LINE
  5
9668
330
9610
100
AcDbEntity
  8
1
  6
Continuous
100
AcDbLine
 10
151.5573579999999
 20
313.441162
 30
0.0
 11
151.5573579999999
 21
312.998871
 31
0.0
  0
LINE
  5
9669
330
9610
100
AcDbEntity
  8
1
  6
Continuous
100
AcDbLine
 10
151.5573579999999
 20
306.383484
 30
0.0
 11
151.5573579999999
 21
305.941162
 31
0.0
  0
LINE
  5
966A
330
9610
100
AcDbEntity
  8
5
  6
PHANTOM
100
AcDbLine
 10
31.5
 20
363.691162
 30
0.0
 11
31.5
 21
352.0473329999999
 31
0.0
  0
LINE
  5
966B
330
9610
100
AcDbEntity
  8
5
  6
PHANTOM
100
AcDbLine
 10
45.49999999999999
 20
363.691162
 30
0.0
 11
45.49999999999999
 21
352.0473329999999
 31
0.0
  0
LINE
  5
966C
330
9610
100
AcDbEntity
  8
5
  6
PHANTOM
100
AcDbLine
 10
11.5
 20
361.691162
 30
0.0
 11
31.5
 21
361.691162
 31
0.0
  0
LINE
  5
966D
330
9610
100
AcDbEntity
  8
5
  6
PHANTOM
100
AcDbLine
 10
11.5
 20
363.691162
 30
0.0
 11
11.5
 21
361.691162
 31
0.0
  0
LINE
  5
966E
330
9610
100
AcDbEntity
  8
5
  6
PHANTOM
100
AcDbLine
 10
65.5
 20
363.691162
 30
0.0
 11
65.5
 21
361.691162
 31
0.0
  0
LINE
  5
966F
330
9610
100
AcDbEntity
  8
5
  6
PHANTOM
100
AcDbLine
 10
17.5
 20
363.691162
 30
0.0
 11
17.5
 21
361.691162
 31
0.0
  0
LINE
  5
9670
330
9610
100
AcDbEntity
  8
5
  6
PHANTOM
100
AcDbLine
 10
59.5
 20
363.691162
 30
0.0
 11
59.5
 21
361.691162
 31
0.0
  0
LINE
  5
9671
330
9610
100
AcDbEntity
  8
5
  6
PHANTOM
100
AcDbLine
 10
27.5
 20
363.691162
 30
0.0
 11
27.5
 21
361.691162
 31
0.0
  0
LINE
  5
9672
330
9610
100
AcDbEntity
  8
5
  6
PHANTOM
100
AcDbLine
 10
49.5
 20
363.691162
 30
0.0
 11
49.5
 21
361.691162
 31
0.0
  0
LINE
  5
9673
330
9610
100
AcDbEntity
  8
5
  6
PHANTOM
100
AcDbLine
 10
45.49999999999999
 20
361.691162
 30
0.0
 11
65.5
 21
361.691162
 31
0.0
  0
LINE
  5
9674
330
9610
100
AcDbEntity
  8
4
  6
CENTER
100
AcDbLine
 10
158.057358
 20
490.691162
 30
0.0
 11
176.7297059999999
 21
490.691162
 31
0.0
  0
LINE
  5
9675
330
9610
100
AcDbEntity
  8
1
  6
Continuous
100
AcDbLine
 10
158.5573579999999
 20
338.191162
 30
0.0
 11
169.557358
 21
338.191162
 31
0.0
  0
LINE
  5
9676
330
9610
100
AcDbEntity
  8
1
  6
Continuous
100
AcDbLine
 10
25.0
 20
338.191162
 30
0.0
 11
25.0
 21
313.191162
 31
0.0
  0
LINE
  5
9677
330
9610
100
AcDbEntity
  8
1
  6
Continuous
100
AcDbLine
 10
52.0
 20
338.191162
 30
0.0
 11
52.0
 21
313.191162
 31
0.0
  0
LINE
  5
9678
330
9610
100
AcDbEntity
  8
1
  6
Continuous
100
AcDbLine
 10
33.525063
 20
125.691177
 30
0.0
 11
43.474937
 21
125.691177
 31
0.0
  0
LINE
  5
9679
330
9610
100
AcDbEntity
  8
1
  6
Continuous
100
AcDbLine
 10
33.525063
 20
126.6911769999999
 30
0.0
 11
43.474937
 21
126.6911769999999
 31
0.0
  0
LINE
  5
967A
330
9610
100
AcDbEntity
  8
4
  6
CENTER
100
AcDbLine
 10
133.8078309999999
 20
309.691162
 30
0.0
 11
178.145584
 21
309.691162
 31
0.0
  0
LINE
  5
967B
330
9610
100
AcDbEntity
  8
4
  6
CENTER
100
AcDbLine
 10
36.5
 20
331.691162
 30
0.0
 11
36.5
 21
287.691162
 31
0.0
  0
LINE
  5
967C
330
9610
100
AcDbEntity
  8
5
  6
PHANTOM
100
AcDbLine
 10
34.0
 20
292.959137
 30
0.0
 11
34.0
 21
326.423218
 31
0.0
  0
LINE
  5
967D
330
9610
100
AcDbEntity
  8
5
  6
PHANTOM
100
AcDbLine
 10
39.0
 20
292.959137
 30
0.0
 11
39.0
 21
326.423218
 31
0.0
  0
LINE
  5
967E
330
9610
100
AcDbEntity
  8
5
  6
PHANTOM
100
AcDbLine
 10
33.0
 20
294.691162
 30
0.0
 11
33.0
 21
324.691162
 31
0.0
  0
LINE
  5
967F
330
9610
100
AcDbEntity
  8
5
  6
PHANTOM
100
AcDbLine
 10
40.0
 20
294.691162
 30
0.0
 11
40.0
 21
324.691162
 31
0.0
  0
LINE
  5
9680
330
9610
100
AcDbEntity
  8
5
  6
PHANTOM
100
AcDbLine
 10
35.0
 20
292.691162
 30
0.0
 11
38.0
 21
292.691162
 31
0.0
  0
LINE
  5
9681
330
9610
100
AcDbEntity
  8
5
  6
PHANTOM
100
AcDbLine
 10
35.0
 20
326.691162
 30
0.0
 11
38.0
 21
326.691162
 31
0.0
  0
LINE
  5
9682
330
9610
100
AcDbEntity
  8
5
  6
PHANTOM
100
AcDbLine
 10
34.0
 20
301.691162
 30
0.0
 11
39.0
 21
301.691162
 31
0.0
  0
LINE
  5
9683
330
9610
100
AcDbEntity
  8
5
  6
PHANTOM
100
AcDbLine
 10
34.0
 20
317.691162
 30
0.0
 11
39.0
 21
317.691162
 31
0.0
  0
LINE
  5
9684
330
9610
100
AcDbEntity
  8
1
  6
Continuous
100
AcDbLine
 10
25.0
 20
306.191162
 30
0.0
 11
25.0
 21
122.1911769999999
 31
0.0
  0
LINE
  5
9685
330
9610
100
AcDbEntity
  8
1
  6
Continuous
100
AcDbLine
 10
52.0
 20
306.191162
 30
0.0
 11
52.0
 21
122.1911769999999
 31
0.0
  0
LINE
  5
9686
330
9610
100
AcDbEntity
  8
1
  6
Continuous
100
AcDbLine
 10
35.400002
 20
323.191162
 30
0.0
 11
37.599998
 21
323.191162
 31
0.0
  0
LINE
  5
9687
330
9610
100
AcDbEntity
  8
1
  6
Continuous
100
AcDbLine
 10
35.400002
 20
321.691162
 30
0.0
 11
37.599998
 21
321.691162
 31
0.0
  0
LINE
  5
9688
330
9610
100
AcDbEntity
  8
1
  6
Continuous
100
AcDbLine
 10
35.400002
 20
321.691162
 30
0.0
 11
35.400002
 21
323.191162
 31
0.0
  0
LINE
  5
9689
330
9610
100
AcDbEntity
  8
1
  6
Continuous
100
AcDbLine
 10
37.599998
 20
321.691162
 30
0.0
 11
37.599998
 21
323.191162
 31
0.0
  0
LINE
  5
968A
330
9610
100
AcDbEntity
  8
1
  6
Continuous
100
AcDbLine
 10
28.70577
 20
306.191162
 30
0.0
 11
32.0
 21
306.191162
 31
0.0
  0
LINE
  5
968B
330
9610
100
AcDbEntity
  8
1
  6
Continuous
100
AcDbLine
 10
19.76795
 20
307.191162
 30
0.0
 11
22.5
 21
307.191162
 31
0.0
  0
LINE
  5
968C
330
9610
100
AcDbEntity
  8
1
  6
Continuous
100
AcDbLine
 10
53.5
 20
310.7411799999998
 30
0.0
 11
53.5
 21
308.6411739999999
 31
0.0
  0
LINE
  5
968D
330
9610
100
AcDbEntity
  8
1
  6
Continuous
100
AcDbLine
 10
19.76795
 20
312.191162
 30
0.0
 11
22.5
 21
312.191162
 31
0.0
  0
LINE
  5
968E
330
9610
100
AcDbEntity
  8
1
  6
Continuous
100
AcDbLine
 10
53.5
 20
311.191162
 30
0.0
 11
53.5
 21
308.191162
 31
0.0
  0
LINE
  5
968F
330
9610
100
AcDbEntity
  8
1
  6
Continuous
100
AcDbLine
 10
19.5
 20
311.191162
 30
0.0
 11
19.5
 21
308.191162
 31
0.0
  0
LINE
  5
9690
330
9610
100
AcDbEntity
  8
1
  6
Continuous
100
AcDbLine
 10
21.49999999999999
 20
306.191162
 30
0.0
 11
51.5
 21
306.191162
 31
0.0
  0
LINE
  5
9691
330
9610
100
AcDbEntity
  8
5
  6
PHANTOM
100
AcDbLine
 10
33.0
 20
314.191162
 30
0.0
 11
33.0
 21
317.4854129999999
 31
0.0
  0
LINE
  5
9692
330
9610
100
AcDbEntity
  8
1
  6
Continuous
100
AcDbLine
 10
21.49999999999999
 20
313.191162
 30
0.0
 11
51.5
 21
313.191162
 31
0.0
  0
LINE
  5
9693
330
9610
100
AcDbEntity
  8
1
  6
Continuous
100
AcDbLine
 10
33.0
 20
314.191162
 30
0.0
 11
33.0
 21
317.4854129999999
 31
0.0
  0
LINE
  5
9694
330
9610
100
AcDbEntity
  8
1
  6
Continuous
100
AcDbLine
 10
28.5
 20
493.191162
 30
0.0
 11
28.5
 21
338.191162
 31
0.0
  0
LINE
  5
9695
330
9610
100
AcDbEntity
  8
1
  6
Continuous
100
AcDbLine
 10
48.5
 20
493.191162
 30
0.0
 11
48.5
 21
338.191162
 31
0.0
  0
LINE
  5
9696
330
9610
100
AcDbEntity
  8
1
  6
Continuous
100
AcDbLine
 10
43.5
 20
493.191162
 30
0.0
 11
43.5
 21
471.691162
 31
0.0
  0
LINE
  5
9697
330
9610
100
AcDbEntity
  8
1
  6
Continuous
100
AcDbLine
 10
31.700001
 20
494.7911679999998
 30
0.0
 11
31.700001
 21
338.191162
 31
0.0
  0
LINE
  5
9698
330
9610
100
AcDbEntity
  8
5
  6
PHANTOM
100
AcDbLine
 10
48.50001500000001
 20
349.191162
 30
0.0
 11
46.83335099999999
 21
350.681885
 31
0.0
  0
LINE
  5
9699
330
9610
100
AcDbEntity
  8
1
  6
Continuous
100
AcDbLine
 10
43.6054
 20
340.007385
 30
0.0
 11
45.394585
 21
345.374939
 31
0.0
  0
LINE
  5
969A
330
9610
100
AcDbEntity
  8
1
  6
Continuous
100
AcDbLine
 10
43.60540799999998
 20
339.3749389999999
 30
0.0
 11
43.999996
 21
338.191193
 31
0.0
  0
LINE
  5
969B
330
9610
100
AcDbEntity
  8
1
  6
Continuous
100
AcDbLine
 10
43.60540799999998
 20
460.007416
 30
0.0
 11
45.39459199999998
 21
465.374969
 31
0.0
  0
LINE
  5
969C
330
9610
100
AcDbEntity
  8
1
  6
Continuous
100
AcDbLine
 10
43.499996
 20
471.691193
 30
0.0
 11
45.39459199999998
 21
466.0073849999998
 31
0.0
  0
LINE
  5
969D
330
9610
100
AcDbEntity
  8
1
  6
Continuous
100
AcDbLine
 10
43.60540799999998
 20
448.007416
 30
0.0
 11
45.394585
 21
453.3749389999998
 31
0.0
  0
LINE
  5
969E
330
9610
100
AcDbEntity
  8
1
  6
Continuous
100
AcDbLine
 10
43.605412
 20
459.374969
 30
0.0
 11
45.39459599999999
 21
454.0074159999998
 31
0.0
  0
LINE
  5
969F
330
9610
100
AcDbEntity
  8
1
  6
Continuous
100
AcDbLine
 10
43.605404
 20
436.0074159999999
 30
0.0
 11
45.394588
 21
441.374969
 31
0.0
  0
LINE
  5
96A0
330
9610
100
AcDbEntity
  8
1
  6
Continuous
100
AcDbLine
 10
43.605412
 20
447.374939
 30
0.0
 11
45.39459599999999
 21
442.0073849999998
 31
0.0
  0
LINE
  5
96A1
330
9610
100
AcDbEntity
  8
1
  6
Continuous
100
AcDbLine
 10
43.605412
 20
424.0074159999998
 30
0.0
 11
45.394588
 21
429.374939
 31
0.0
  0
LINE
  5
96A2
330
9610
100
AcDbEntity
  8
1
  6
Continuous
100
AcDbLine
 10
43.605404
 20
435.3749689999999
 30
0.0
 11
45.394588
 21
430.007416
 31
0.0
  0
LINE
  5
96A3
330
9610
100
AcDbEntity
  8
1
  6
Continuous
100
AcDbLine
 10
43.605404
 20
412.0073849999998
 30
0.0
 11
45.394588
 21
417.374939
 31
0.0
  0
LINE
  5
96A4
330
9610
100
AcDbEntity
  8
1
  6
Continuous
100
AcDbLine
 10
43.605419
 20
423.3749389999998
 30
0.0
 11
45.394604
 21
418.007385
 31
0.0
  0
LINE
  5
96A5
330
9610
100
AcDbEntity
  8
1
  6
Continuous
100
AcDbLine
 10
43.60540799999998
 20
400.0074159999998
 30
0.0
 11
45.394581
 21
405.374939
 31
0.0
  0
LINE
  5
96A6
330
9610
100
AcDbEntity
  8
1
  6
Continuous
100
AcDbLine
 10
43.60540799999998
 20
411.374969
 30
0.0
 11
45.39459199999998
 21
406.007416
 31
0.0
  0
LINE
  5
96A7
330
9610
100
AcDbEntity
  8
1
  6
Continuous
100
AcDbLine
 10
43.6054
 20
388.007385
 30
0.0
 11
45.394585
 21
393.374939
 31
0.0
  0
LINE
  5
96A8
330
9610
100
AcDbEntity
  8
1
  6
Continuous
100
AcDbLine
 10
43.60542299999997
 20
399.3749389999999
 30
0.0
 11
45.39459599999999
 21
394.0074159999999
 31
0.0
  0
LINE
  5
96A9
330
9610
100
AcDbEntity
  8
1
  6
Continuous
100
AcDbLine
 10
43.605412
 20
376.0074159999998
 30
0.0
 11
45.39459599999999
 21
381.374969
 31
0.0
  0
LINE
  5
96AA
330
9610
100
AcDbEntity
  8
1
  6
Continuous
100
AcDbLine
 10
43.605412
 20
387.374969
 30
0.0
 11
45.39459599999999
 21
382.0074159999998
 31
0.0
  0
LINE
  5
96AB
330
9610
100
AcDbEntity
  8
1
  6
Continuous
100
AcDbLine
 10
43.605404
 20
364.007385
 30
0.0
 11
45.394588
 21
369.3749389999999
 31
0.0
  0
LINE
  5
96AC
330
9610
100
AcDbEntity
  8
1
  6
Continuous
100
AcDbLine
 10
43.605412
 20
375.3749389999999
 30
0.0
 11
45.394588
 21
370.0074159999999
 31
0.0
  0
LINE
  5
96AD
330
9610
100
AcDbEntity
  8
1
  6
Continuous
100
AcDbLine
 10
43.605404
 20
352.007416
 30
0.0
 11
45.394588
 21
357.374969
 31
0.0
  0
LINE
  5
96AE
330
9610
100
AcDbEntity
  8
1
  6
Continuous
100
AcDbLine
 10
43.605415
 20
363.3749389999999
 30
0.0
 11
45.3946
 21
358.007385
 31
0.0
  0
LINE
  5
96AF
330
9610
100
AcDbEntity
  8
4
  6
CENTER
100
AcDbLine
 10
55.5
 20
367.691162
 30
0.0
 11
55.5
 21
357.691162
 31
0.0
  0
LINE
  5
96B0
330
9610
100
AcDbEntity
  8
4
  6
CENTER
100
AcDbLine
 10
21.49999999999999
 20
367.691162
 30
0.0
 11
21.49999999999999
 21
357.691162
 31
0.0
  0
LINE
  5
96B1
330
9610
100
AcDbEntity
  8
1
  6
Continuous
100
AcDbLine
 10
46.83346199999999
 20
316.2911680000001
 30
0.0
 11
47.526272
 21
316.691162
 31
0.0
  0
LINE
  5
96B2
330
9610
100
AcDbEntity
  8
1
  6
Continuous
100
AcDbLine
 10
43.100002
 20
320.0246279999999
 30
0.0
 11
43.499996
 21
320.717438
 31
0.0
  0
LINE
  5
96B3
330
9610
100
AcDbEntity
  8
1
  6
Continuous
100
AcDbLine
 10
46.83345399999999
 20
316.2911680000001
 30
0.0
 11
48.734894
 21
315.3105159999999
 31
0.0
  0
LINE
  5
96B4
330
9610
100
AcDbEntity
  8
1
  6
Continuous
100
AcDbLine
 10
49.08512899999998
 20
317.591187
 30
0.0
 11
48.734901
 21
315.3105159999999
 31
0.0
  0
LINE
  5
96B5
330
9610
100
AcDbEntity
  8
1
  6
Continuous
100
AcDbLine
 10
42.11933499999999
 20
321.9260859999999
 30
0.0
 11
43.09999799999999
 21
320.0246579999998
 31
0.0
  0
LINE
  5
96B6
330
9610
100
AcDbEntity
  8
1
  6
Continuous
100
AcDbLine
 10
42.11933499999999
 20
321.9260859999999
 30
0.0
 11
44.399994
 21
322.2763059999999
 31
0.0
  0
LINE
  5
96B7
330
9610
100
AcDbEntity
  8
1
  6
Continuous
100
AcDbLine
 10
40.499985
 20
332.041168
 30
0.0
 11
40.499985
 21
330.841187
 31
0.0
  0
LINE
  5
96B8
330
9610
100
AcDbEntity
  8
1
  6
Continuous
100
AcDbLine
 10
42.999985
 20
336.441193
 30
0.0
 11
41.09998299999999
 21
336.441193
 31
0.0
  0
LINE
  5
96B9
330
9610
100
AcDbEntity
  8
1
  6
Continuous
100
AcDbLine
 10
42.999985
 20
335.24118
 30
0.0
 11
41.09998299999999
 21
335.24118
 31
0.0
  0
LINE
  5
96BA
330
9610
100
AcDbEntity
  8
1
  6
Continuous
100
AcDbLine
 10
42.999985
 20
334.2411799999998
 30
0.0
 11
40.499985
 21
334.2411799999998
 31
0.0
  0
LINE
  5
96BB
330
9610
100
AcDbEntity
  8
1
  6
Continuous
100
AcDbLine
 10
42.999985
 20
333.041168
 30
0.0
 11
40.499985
 21
333.041168
 31
0.0
  0
LINE
  5
96BC
330
9610
100
AcDbEntity
  8
1
  6
Continuous
100
AcDbLine
 10
42.999992
 20
334.2411799999998
 30
0.0
 11
40.499992
 21
333.041168
 31
0.0
  0
LINE
  5
96BD
330
9610
100
AcDbEntity
  8
1
  6
Continuous
100
AcDbLine
 10
42.999985
 20
332.041168
 30
0.0
 11
40.499985
 21
332.041168
 31
0.0
  0
LINE
  5
96BE
330
9610
100
AcDbEntity
  8
1
  6
Continuous
100
AcDbLine
 10
42.999985
 20
325.4411929999998
 30
0.0
 11
40.499985
 21
325.4411929999998
 31
0.0
  0
LINE
  5
96BF
330
9610
100
AcDbEntity
  8
1
  6
Continuous
100
AcDbLine
 10
41.749973
 20
325.4411929999998
 30
0.0
 11
42.999969
 21
323.941193
 31
0.0
  0
LINE
  5
96C0
330
9610
100
AcDbEntity
  8
1
  6
Continuous
100
AcDbLine
 10
40.500004
 20
323.941193
 30
0.0
 11
41.749992
 21
325.441162
 31
0.0
  0
LINE
  5
96C1
330
9610
100
AcDbEntity
  8
1
  6
Continuous
100
AcDbLine
 10
47.999985
 20
326.691162
 30
0.0
 11
47.999985
 21
325.191162
 31
0.0
  0
LINE
  5
96C2
330
9610
100
AcDbEntity
  8
1
  6
Continuous
100
AcDbLine
 10
50.499985
 20
326.691162
 30
0.0
 11
47.999985
 21
326.691162
 31
0.0
  0
LINE
  5
96C3
330
9610
100
AcDbEntity
  8
1
  6
Continuous
100
AcDbLine
 10
50.499985
 20
319.941162
 30
0.0
 11
47.999985
 21
319.941162
 31
0.0
  0
LINE
  5
96C4
330
9610
100
AcDbEntity
  8
1
  6
Continuous
100
AcDbLine
 10
49.249992
 20
319.941162
 30
0.0
 11
47.999996
 21
318.191162
 31
0.0
  0
LINE
  5
96C5
330
9610
100
AcDbEntity
  8
1
  6
Continuous
100
AcDbLine
 10
49.249977
 20
319.941162
 30
0.0
 11
50.49998099999999
 21
318.191162
 31
0.0
  0
LINE
  5
96C6
330
9610
100
AcDbEntity
  8
1
  6
Continuous
100
AcDbLine
 10
43.999996
 20
321.583466
 30
0.0
 11
44.400005
 21
322.2763059999999
 31
0.0
  0
LINE
  5
96C7
330
9610
100
AcDbEntity
  8
1
  6
Continuous
100
AcDbLine
 10
48.392296
 20
317.191162
 30
0.0
 11
49.085117
 21
317.591187
 31
0.0
  0
LINE
  5
96C8
330
9610
100
AcDbEntity
  8
1
  6
Continuous
100
AcDbLine
 10
27.61582000000001
 20
134.9303889999999
 30
0.0
 11
27.61582000000001
 21
132.7492829999999
 31
0.0
  0
LINE
  5
96C9
330
9610
100
AcDbEntity
  8
1
  6
Continuous
100
AcDbLine
 10
30.5072
 20
133.821732
 30
0.0
 11
26.412954
 21
132.3071749999998
 31
0.0
  0
LINE
  5
96CA
330
9610
100
AcDbEntity
  8
1
  6
Continuous
100
AcDbLine
 10
28.5
 20
150.191177
 30
0.0
 11
28.5
 21
147.597137
 31
0.0
  0
LINE
  5
96CB
330
9610
100
AcDbEntity
  8
1
  6
Continuous
100
AcDbLine
 10
30.427515
 20
161.2057339999998
 30
0.0
 11
26.42751500000001
 21
161.2057339999998
 31
0.0
  0
LINE
  5
96CC
330
9610
100
AcDbEntity
  8
1
  6
Continuous
100
AcDbLine
 10
30.427515
 20
162.828964
 30
0.0
 11
30.427515
 21
159.56813
 31
0.0
  0
LINE
  5
96CD
330
9610
100
AcDbEntity
  8
1
  6
Continuous
100
AcDbLine
 10
30.60144000000001
 20
150.191177
 30
0.0
 11
26.39855999999999
 21
150.191177
 31
0.0
  0
LINE
  5
96CE
330
9610
100
AcDbEntity
  8
1
  6
Continuous
100
AcDbLine
 10
28.29711899999999
 20
142.9158329999999
 30
0.0
 11
28.29711899999999
 21
141.5100709999999
 31
0.0
  0
LINE
  5
96CF
330
9610
100
AcDbEntity
  8
1
  6
Continuous
100
AcDbLine
 10
30.60144000000001
 20
147.597137
 30
0.0
 11
26.39855999999999
 21
147.597137
 31
0.0
  0
LINE
  5
96D0
330
9610
100
AcDbEntity
  8
1
  6
Continuous
100
AcDbLine
 10
30.60144000000001
 20
146.191177
 30
0.0
 11
26.39855999999999
 21
146.191177
 31
0.0
  0
LINE
  5
96D1
330
9610
100
AcDbEntity
  8
1
  6
Continuous
100
AcDbLine
 10
30.500004
 20
133.8217619999997
 30
0.0
 11
26.412962
 21
135.4086459999997
 31
0.0
  0
LINE
  5
96D2
330
9610
100
AcDbEntity
  8
1
  6
Continuous
100
AcDbLine
 10
28.282543
 20
137.5535739999999
 30
0.0
 11
26.39855999999999
 21
137.5535739999999
 31
0.0
  0
LINE
  5
96D3
330
9610
100
AcDbEntity
  8
1
  6
Continuous
100
AcDbLine
 10
27.700977
 20
141.5100709999999
 30
0.0
 11
26.42751500000001
 21
141.5100709999999
 31
0.0
  0
LINE
  5
96D4
330
9610
100
AcDbEntity
  8
1
  6
Continuous
100
AcDbLine
 10
30.60144000000001
 20
140.3506929999998
 30
0.0
 11
26.39855999999999
 21
140.3506929999998
 31
0.0
  0
LINE
  5
96D5
330
9610
100
AcDbEntity
  8
1
  6
Continuous
100
AcDbLine
 10
28.282536
 20
137.5535889999998
 30
0.0
 11
30.633238
 21
136.1963199999999
 31
0.0
  0
LINE
  5
96D6
330
9610
100
AcDbEntity
  8
1
  6
Continuous
100
AcDbLine
 10
28.28975900000001
 20
137.553604
 30
0.0
 11
30.63071599999998
 21
138.900955
 31
0.0
  0
LINE
  5
96D7
330
9610
100
AcDbEntity
  8
1
  6
Continuous
100
AcDbLine
 10
159.5573579999999
 20
54.5
 30
0.0
 11
169.557358
 21
54.5
 31
0.0
  0
LINE
  5
96D8
330
9610
100
AcDbEntity
  8
1
  6
Continuous
100
AcDbLine
 10
159.5573579999999
 20
27.5
 30
0.0
 11
169.557358
 21
27.5
 31
0.0
  0
LINE
  5
96D9
330
9610
100
AcDbEntity
  8
1
  6
Continuous
100
AcDbLine
 10
157.5573579999999
 20
54.0
 30
0.0
 11
157.5573579999999
 21
24.0
 31
0.0
  0
LINE
  5
96DA
330
9610
100
AcDbEntity
  8
1
  6
Continuous
100
AcDbLine
 10
157.5573579999999
 20
49.0
 30
0.0
 11
158.5573579999999
 21
49.0
 31
0.0
  0
LINE
  5
96DB
330
9610
100
AcDbEntity
  8
1
  6
Continuous
100
AcDbLine
 10
157.5573579999999
 20
29.0
 30
0.0
 11
158.5573579999999
 21
29.0
 31
0.0
  0
LINE
  5
96DC
330
9610
100
AcDbEntity
  8
1
  6
Continuous
100
AcDbLine
 10
151.5573579999999
 20
40.75
 30
0.0
 11
151.5573579999999
 21
37.25
 31
0.0
  0
LINE
  5
96DD
330
9610
100
AcDbEntity
  8
1
  6
Continuous
100
AcDbLine
 10
153.5573579999999
 20
42.75
 30
0.0
 11
157.5573579999999
 21
42.75
 31
0.0
  0
LINE
  5
96DE
330
9610
100
AcDbEntity
  8
1
  6
Continuous
100
AcDbLine
 10
153.5573579999999
 20
35.25
 30
0.0
 11
157.5573579999999
 21
35.25
 31
0.0
  0
LINE
  5
96DF
330
9610
100
AcDbEntity
  8
1
  6
Continuous
100
AcDbLine
 10
138.5573579999999
 20
47.0
 30
0.0
 11
138.5573579999999
 21
31.0
 31
0.0
  0
LINE
  5
96E0
330
9610
100
AcDbEntity
  8
1
  6
Continuous
100
AcDbLine
 10
145.1611479999999
 20
22.0
 30
0.0
 11
155.5573579999999
 21
22.0
 31
0.0
  0
LINE
  5
96E1
330
9610
100
AcDbEntity
  8
1
  6
Continuous
100
AcDbLine
 10
145.1611479999999
 20
56.0
 30
0.0
 11
155.5573579999999
 21
56.0
 31
0.0
  0
LINE
  5
96E2
330
9610
100
AcDbEntity
  8
1
  6
Continuous
100
AcDbLine
 10
141.557358
 20
54.465927
 30
0.0
 11
141.557358
 21
23.534073
 31
0.0
  0
LINE
  5
96E3
330
9610
100
AcDbEntity
  8
1
  6
Continuous
100
AcDbLine
 10
143.5573579999999
 20
55.73580599999999
 30
0.0
 11
143.5573579999999
 21
22.26419599999999
 31
0.0
  0
LINE
  5
96E4
330
9610
100
AcDbEntity
  8
1
  6
Continuous
100
AcDbLine
 10
146.557358
 20
56.0
 30
0.0
 11
146.557358
 21
22.0
 31
0.0
  0
LINE
  5
96E5
330
9610
100
AcDbEntity
  8
1
  6
Continuous
100
AcDbLine
 10
148.557358
 20
56.0
 30
0.0
 11
148.557358
 21
22.0
 31
0.0
  0
LINE
  5
96E6
330
9610
100
AcDbEntity
  8
1
  6
Continuous
100
AcDbLine
 10
151.5573579999999
 20
56.0
 30
0.0
 11
151.5573579999999
 21
22.0
 31
0.0
  0
LINE
  5
96E7
330
9610
100
AcDbEntity
  8
1
  6
Continuous
100
AcDbLine
 10
153.5573579999999
 20
56.0
 30
0.0
 11
153.5573579999999
 21
42.75
 31
0.0
  0
LINE
  5
96E8
330
9610
100
AcDbEntity
  8
1
  6
Continuous
100
AcDbLine
 10
138.5573579999999
 20
31.0
 30
0.0
 11
140.4177399999998
 21
25.418861
 31
0.0
  0
LINE
  5
96E9
330
9610
100
AcDbEntity
  8
1
  6
Continuous
100
AcDbLine
 10
138.5573579999999
 20
47.0
 30
0.0
 11
140.4177399999998
 21
52.58114200000001
 31
0.0
  0
LINE
  5
96EA
330
9610
100
AcDbEntity
  8
4
  6
CENTER
100
AcDbLine
 10
55.5
 20
511.691162
 30
0.0
 11
55.5
 21
501.691162
 31
0.0
  0
LINE
  5
96EB
330
9610
100
AcDbEntity
  8
4
  6
CENTER
100
AcDbLine
 10
21.49999999999999
 20
511.691162
 30
0.0
 11
21.49999999999999
 21
501.691162
 31
0.0
  0
LINE
  5
96EC
330
9610
100
AcDbEntity
  8
1
  6
Continuous
100
AcDbLine
 10
11.5
 20
507.691162
 30
0.0
 11
65.5
 21
507.691162
 31
0.0
  0
LINE
  5
96ED
330
9610
100
AcDbEntity
  8
1
  6
Continuous
100
AcDbLine
 10
31.5
 20
507.691162
 30
0.0
 11
31.5
 21
496.047333
 31
0.0
  0
LINE
  5
96EE
330
9610
100
AcDbEntity
  8
1
  6
Continuous
100
AcDbLine
 10
45.49999999999999
 20
507.691162
 30
0.0
 11
45.49999999999999
 21
496.047333
 31
0.0
  0
LINE
  5
96EF
330
9610
100
AcDbEntity
  8
1
  6
Continuous
100
AcDbLine
 10
11.5
 20
505.691162
 30
0.0
 11
31.5
 21
505.691162
 31
0.0
  0
LINE
  5
96F0
330
9610
100
AcDbEntity
  8
1
  6
Continuous
100
AcDbLine
 10
11.5
 20
507.691162
 30
0.0
 11
11.5
 21
505.691162
 31
0.0
  0
LINE
  5
96F1
330
9610
100
AcDbEntity
  8
1
  6
Continuous
100
AcDbLine
 10
65.5
 20
507.691162
 30
0.0
 11
65.5
 21
505.691162
 31
0.0
  0
LINE
  5
96F2
330
9610
100
AcDbEntity
  8
1
  6
Continuous
100
AcDbLine
 10
17.5
 20
507.691162
 30
0.0
 11
17.5
 21
505.691162
 31
0.0
  0
LINE
  5
96F3
330
9610
100
AcDbEntity
  8
1
  6
Continuous
100
AcDbLine
 10
59.5
 20
507.691162
 30
0.0
 11
59.5
 21
505.691162
 31
0.0
  0
LINE
  5
96F4
330
9610
100
AcDbEntity
  8
1
  6
Continuous
100
AcDbLine
 10
27.5
 20
507.691162
 30
0.0
 11
27.5
 21
505.691162
 31
0.0
  0
LINE
  5
96F5
330
9610
100
AcDbEntity
  8
1
  6
Continuous
100
AcDbLine
 10
49.5
 20
507.691162
 30
0.0
 11
49.5
 21
505.691162
 31
0.0
  0
LINE
  5
96F6
330
9610
100
AcDbEntity
  8
1
  6
Continuous
100
AcDbLine
 10
45.49999999999999
 20
505.691162
 30
0.0
 11
65.5
 21
505.691162
 31
0.0
  0
LINE
  5
96F7
330
9610
100
AcDbEntity
  8
1
  6
Continuous
100
AcDbLine
 10
48.500027
 20
493.191193
 30
0.0
 11
46.83334699999998
 21
494.681915
 31
0.0
  0
LINE
  5
96F8
330
9610
100
AcDbEntity
  8
4
  6
CENTER
100
AcDbLine
 10
23.5
 20
490.691162
 30
0.0
 11
53.5
 21
490.691162
 31
0.0
  0
LINE
  5
96F9
330
9610
100
AcDbEntity
  8
1
  6
Continuous
100
AcDbLine
 10
167.0573579999999
 20
505.691162
 30
0.0
 11
182.0573579999999
 21
505.691162
 31
0.0
  0
LINE
  5
96FA
330
9610
100
AcDbEntity
  8
1
  6
Continuous
100
AcDbLine
 10
167.0573579999999
 20
507.691162
 30
0.0
 11
182.0573579999999
 21
507.691162
 31
0.0
  0
LINE
  5
96FB
330
9610
100
AcDbEntity
  8
1
  6
Continuous
100
AcDbLine
 10
182.0573579999999
 20
507.691162
 30
0.0
 11
182.0573579999999
 21
505.691162
 31
0.0
  0
LINE
  5
96FC
330
9610
100
AcDbEntity
  8
1
  6
Continuous
100
AcDbLine
 10
167.0573579999999
 20
507.691162
 30
0.0
 11
167.0573579999999
 21
505.691162
 31
0.0
  0
LINE
  5
96FD
330
9610
100
AcDbEntity
  8
1
  6
Continuous
100
AcDbLine
 10
171.0573579999999
 20
505.691162
 30
0.0
 11
171.0573579999999
 21
483.691162
 31
0.0
  0
LINE
  5
96FE
330
9610
100
AcDbEntity
  8
1
  6
Continuous
100
AcDbLine
 10
169.0573579999998
 20
483.691162
 30
0.0
 11
171.0573579999999
 21
483.691162
 31
0.0
  0
LINE
  5
96FF
330
9610
100
AcDbEntity
  8
1
  6
Continuous
100
AcDbLine
 10
169.0573579999998
 20
505.691162
 30
0.0
 11
169.0573579999998
 21
483.191162
 31
0.0
  0
LINE
  5
9700
330
9610
100
AcDbEntity
  8
1
  6
Continuous
100
AcDbLine
 10
171.557358
 20
484.691162
 30
0.0
 11
171.557358
 21
496.691162
 31
0.0
  0
LINE
  5
9701
330
9610
100
AcDbEntity
  8
1
  6
Continuous
100
AcDbLine
 10
171.057343
 20
485.191162
 30
0.0
 11
171.557343
 21
484.691162
 31
0.0
  0
LINE
  5
9702
330
9610
100
AcDbEntity
  8
1
  6
Continuous
100
AcDbLine
 10
171.557343
 20
496.691162
 30
0.0
 11
171.0573579999999
 21
496.191193
 31
0.0
  0
LINE
  5
9703
330
9610
100
AcDbEntity
  8
1
  6
Continuous
100
AcDbLine
 10
171.557358
 20
496.691162
 30
0.0
 11
173.557358
 21
496.691162
 31
0.0
  0
LINE
  5
9704
330
9610
100
AcDbEntity
  8
1
  6
Continuous
100
AcDbLine
 10
173.557358
 20
496.691162
 30
0.0
 11
173.557358
 21
484.691162
 31
0.0
  0
LINE
  5
9705
330
9610
100
AcDbEntity
  8
1
  6
Continuous
100
AcDbLine
 10
174.0573579999999
 20
496.191162
 30
0.0
 11
174.0573579999999
 21
485.191162
 31
0.0
  0
LINE
  5
9706
330
9610
100
AcDbEntity
  8
1
  6
Continuous
100
AcDbLine
 10
173.557358
 20
496.691193
 30
0.0
 11
174.0573579999999
 21
496.191193
 31
0.0
  0
LINE
  5
9707
330
9610
100
AcDbEntity
  8
1
  6
Continuous
100
AcDbLine
 10
171.557358
 20
484.691162
 30
0.0
 11
173.557358
 21
484.691162
 31
0.0
  0
LINE
  5
9708
330
9610
100
AcDbEntity
  8
1
  6
Continuous
100
AcDbLine
 10
173.557343
 20
484.691162
 30
0.0
 11
174.0573579999999
 21
485.1911929999998
 31
0.0
  0
LINE
  5
9709
330
9610
100
AcDbEntity
  8
1
  6
Continuous
100
AcDbLine
 10
170.757355
 20
48.0
 30
0.0
 11
171.0573579999999
 21
48.0
 31
0.0
  0
LINE
  5
970A
330
9610
100
AcDbEntity
  8
1
  6
Continuous
100
AcDbLine
 10
170.757355
 20
34.0
 30
0.0
 11
171.0573579999999
 21
34.0
 31
0.0
  0
LINE
  5
970B
330
9610
100
AcDbEntity
  8
4
  6
CENTER
100
AcDbLine
 10
182.557358
 20
24.0
 30
0.0
 11
166.557358
 21
24.0
 31
0.0
  0
LINE
  5
970C
330
9610
100
AcDbEntity
  8
4
  6
CENTER
100
AcDbLine
 10
174.557358
 20
32.0
 30
0.0
 11
174.557358
 21
16.0
 31
0.0
  0
LINE
  5
970D
330
9610
100
AcDbEntity
  8
4
  6
CENTER
100
AcDbLine
 10
182.557358
 20
58.0
 30
0.0
 11
166.557358
 21
58.0
 31
0.0
  0
LINE
  5
970E
330
9610
100
AcDbEntity
  8
4
  6
CENTER
100
AcDbLine
 10
174.557358
 20
66.0
 30
0.0
 11
174.557358
 21
50.0
 31
0.0
  0
LINE
  5
970F
330
9610
100
AcDbEntity
  8
1
  6
Continuous
100
AcDbLine
 10
168.5573579999999
 20
483.191162
 30
0.0
 11
169.0573579999998
 21
483.191162
 31
0.0
  0
LINE
  5
9710
330
9610
100
AcDbEntity
  8
1
  6
Continuous
100
AcDbLine
 10
168.5573579999999
 20
498.1911619999998
 30
0.0
 11
169.0573579999998
 21
498.1911619999998
 31
0.0
  0
LINE
  5
9711
330
9610
100
AcDbEntity
  8
1
  6
Continuous
100
AcDbLine
 10
170.557358
 20
52.0
 30
0.0
 11
171.0573579999999
 21
52.0
 31
0.0
  0
LINE
  5
9712
330
9610
100
AcDbEntity
  8
1
  6
Continuous
100
AcDbLine
 10
170.557358
 20
30.0
 30
0.0
 11
171.0573579999999
 21
30.0
 31
0.0
  0
LINE
  5
9713
330
9610
100
AcDbEntity
  8
1
  6
Continuous
100
AcDbLine
 10
170.557358
 20
48.0
 30
0.0
 11
171.0573579999999
 21
48.0
 31
0.0
  0
LINE
  5
9714
330
9610
100
AcDbEntity
  8
1
  6
Continuous
100
AcDbLine
 10
170.557358
 20
34.0
 30
0.0
 11
171.0573579999999
 21
34.0
 31
0.0
  0
LINE
  5
9715
330
9610
100
AcDbEntity
  8
4
  6
CENTER
100
AcDbLine
 10
136.590698
 20
41.0
 30
0.0
 11
187.357346
 21
41.0
 31
0.0
  0
LINE
  5
9716
330
9610
100
AcDbEntity
  8
1
  6
Continuous
100
AcDbLine
 10
153.5573579999999
 20
35.25
 30
0.0
 11
153.5573579999999
 21
22.0
 31
0.0
  0
LINE
  5
9717
330
9610
100
AcDbEntity
  8
4
  6
CENTER
100
AcDbLine
 10
153.2573549999999
 20
126.1911769999999
 30
0.0
 11
184.413712
 21
126.1911769999999
 31
0.0
  0
LINE
  5
9718
330
9610
100
AcDbEntity
  8
1
  6
Continuous
100
AcDbLine
 10
158.5573579999999
 20
122.1911769999999
 30
0.0
 11
169.557358
 21
122.1911769999999
 31
0.0
  0
LINE
  5
9719
330
9610
100
AcDbEntity
  8
1
  6
Continuous
100
AcDbLine
 10
159.5573579999999
 20
116.947533
 30
0.0
 11
169.557358
 21
116.947533
 31
0.0
  0
LINE
  5
971A
330
9610
100
AcDbEntity
  8
1
  6
Continuous
100
AcDbLine
 10
169.557358
 20
118.947533
 30
0.0
 11
170.557358
 21
118.947533
 31
0.0
  0
LINE
  5
971B
330
9610
100
AcDbEntity
  8
1
  6
Continuous
100
AcDbLine
 10
169.557358
 20
123.71273
 30
0.0
 11
170.557358
 21
123.71273
 31
0.0
  0
LINE
  5
971C
330
9610
100
AcDbEntity
  8
4
  6
CENTER
100
AcDbLine
 10
174.557358
 20
511.632019
 30
0.0
 11
174.557358
 21
500.8114929999998
 31
0.0
  0
LINE
  5
971D
330
9610
100
AcDbEntity
  8
1
  6
Continuous
100
AcDbLine
 10
170.557358
 20
335.691162
 30
0.0
 11
170.557358
 21
118.947533
 31
0.0
  0
LINE
  5
971E
330
9610
100
AcDbEntity
  8
4
  6
CENTER
100
AcDbLine
 10
174.0573579999999
 20
367.691162
 30
0.0
 11
174.0573579999999
 21
357.691162
 31
0.0
  0
LINE
  5
971F
330
9610
100
AcDbEntity
  8
1
  6
Continuous
100
AcDbLine
 10
158.5573579999999
 20
338.191162
 30
0.0
 11
158.5573579999999
 21
117.947533
 31
0.0
  0
LINE
  5
9720
330
9610
100
AcDbEntity
  8
1
  6
Continuous
100
AcDbLine
 10
169.557358
 20
338.191162
 30
0.0
 11
169.557358
 21
116.947533
 31
0.0
  0
LINE
  5
9721
330
9610
100
AcDbEntity
  8
1
  6
Continuous
100
AcDbLine
 10
158.5573579999999
 20
53.5
 30
0.0
 11
158.5573579999999
 21
28.5
 31
0.0
  0
LINE
  5
9722
330
9610
100
AcDbEntity
  8
1
  6
Continuous
100
AcDbLine
 10
170.557358
 20
53.0
 30
0.0
 11
170.557358
 21
29.0
 31
0.0
  0
LINE
  5
9723
330
9610
100
AcDbEntity
  8
1
  6
Continuous
100
AcDbLine
 10
169.557358
 20
54.5
 30
0.0
 11
169.557358
 21
27.5
 31
0.0
  0
LINE
  5
9724
330
9610
100
AcDbEntity
  8
1
  6
Continuous
100
AcDbLine
 10
182.0573579999999
 20
65.045937
 30
0.0
 11
182.0573579999999
 21
16.95406499999998
 31
0.0
  0
LINE
  5
9725
330
9610
100
AcDbEntity
  8
1
  6
Continuous
100
AcDbLine
 10
167.0573579999999
 20
60.64593499999999
 30
0.0
 11
167.0573579999999
 21
54.5
 31
0.0
  0
LINE
  5
9726
330
9610
100
AcDbEntity
  8
1
  6
Continuous
100
AcDbLine
 10
167.0573579999999
 20
27.5
 30
0.0
 11
167.0573579999999
 21
21.354067
 31
0.0
  0
LINE
  5
9727
330
9610
100
AcDbEntity
  8
1
  6
Continuous
100
AcDbLine
 10
168.3145749999999
 20
19.49711199999999
 30
0.0
 11
179.3145749999999
 21
15.09711099999998
 31
0.0
  0
LINE
  5
9728
330
9610
100
AcDbEntity
  8
1
  6
Continuous
100
AcDbLine
 10
168.3145749999999
 20
62.50288799999999
 30
0.0
 11
179.31456
 21
66.902885
 31
0.0
  0
LINE
  5
9729
330
9610
100
AcDbEntity
  8
1
  6
Continuous
100
AcDbLine
 10
169.557358
 20
53.0
 30
0.0
 11
170.557358
 21
53.0
 31
0.0
  0
LINE
  5
972A
330
9610
100
AcDbEntity
  8
1
  6
Continuous
100
AcDbLine
 10
169.557358
 20
29.0
 30
0.0
 11
170.557358
 21
29.0
 31
0.0
  0
LINE
  5
972B
330
9610
100
AcDbEntity
  8
1
  6
Continuous
100
AcDbLine
 10
53.02734799999999
 20
308.941162
 30
0.0
 11
51.5
 21
308.941162
 31
0.0
  0
LINE
  5
972C
330
9610
100
AcDbEntity
  8
1
  6
Continuous
100
AcDbLine
 10
53.0
 20
310.441162
 30
0.0
 11
51.5
 21
310.441162
 31
0.0
  0
LINE
  5
972D
330
9610
100
AcDbEntity
  8
1
  6
Continuous
100
AcDbLine
 10
28.5
 20
310.441162
 30
0.0
 11
44.5
 21
310.441162
 31
0.0
  0
LINE
  5
972E
330
9610
100
AcDbEntity
  8
1
  6
Continuous
100
AcDbLine
 10
28.5
 20
308.941162
 30
0.0
 11
44.5
 21
308.941162
 31
0.0
  0
LINE
  5
972F
330
9610
100
AcDbEntity
  8
1
  6
Continuous
100
AcDbLine
 10
19.97265099999999
 20
308.941162
 30
0.0
 11
21.49999999999999
 21
308.941162
 31
0.0
  0
LINE
  5
9730
330
9610
100
AcDbEntity
  8
1
  6
Continuous
100
AcDbLine
 10
20.0
 20
310.441162
 30
0.0
 11
21.49999999999999
 21
310.441162
 31
0.0
  0
LINE
  5
9731
330
9610
100
AcDbEntity
  8
1
  6
Continuous
100
AcDbLine
 10
28.5
 20
310.7411799999998
 30
0.0
 11
28.5
 21
308.6411739999999
 31
0.0
  0
LINE
  5
9732
330
9610
100
AcDbEntity
  8
1
  6
Continuous
100
AcDbLine
 10
44.5
 20
310.7411799999998
 30
0.0
 11
44.5
 21
308.6411739999999
 31
0.0
  0
LINE
  5
9733
330
9610
100
AcDbEntity
  8
1
  6
Continuous
100
AcDbLine
 10
26.28003899999999
 20
307.191162
 30
0.0
 11
46.71996299999999
 21
307.191162
 31
0.0
  0
LINE
  5
9734
330
9610
100
AcDbEntity
  8
1
  6
Continuous
100
AcDbLine
 10
26.28003899999999
 20
312.191162
 30
0.0
 11
46.71996299999999
 21
312.191162
 31
0.0
  0
LINE
  5
9735
330
9610
100
AcDbEntity
  8
1
  6
Continuous
100
AcDbLine
 10
50.5
 20
312.191162
 30
0.0
 11
53.232052
 21
312.191162
 31
0.0
  0
LINE
  5
9736
330
9610
100
AcDbEntity
  8
1
  6
Continuous
100
AcDbLine
 10
50.5
 20
307.191162
 30
0.0
 11
53.232052
 21
307.191162
 31
0.0
  0
LINE
  5
9737
330
9610
100
AcDbEntity
  8
1
  6
Continuous
100
AcDbLine
 10
170.757355
 20
590.6385499999998
 30
0.0
 11
171.0573579999999
 21
590.6385499999998
 31
0.0
  0
LINE
  5
9738
330
9610
100
AcDbEntity
  8
1
  6
Continuous
100
AcDbLine
 10
159.5573579999999
 20
570.138733
 30
0.0
 11
167.0573579999999
 21
570.138733
 31
0.0
  0
LINE
  5
9739
330
9610
100
AcDbEntity
  8
1
  6
Continuous
100
AcDbLine
 10
159.5573579999999
 20
597.1387329999997
 30
0.0
 11
167.0573579999999
 21
597.1387329999997
 31
0.0
  0
LINE
  5
973A
330
9610
100
AcDbEntity
  8
1
  6
Continuous
100
AcDbLine
 10
157.5573579999999
 20
570.638733
 30
0.0
 11
157.5573579999999
 21
589.388733
 31
0.0
  0
LINE
  5
973B
330
9610
100
AcDbEntity
  8
1
  6
Continuous
100
AcDbLine
 10
157.5573579999999
 20
575.6387329999999
 30
0.0
 11
158.5573579999999
 21
575.6387329999999
 31
0.0
  0
LINE
  5
973C
330
9610
100
AcDbEntity
  8
1
  6
Continuous
100
AcDbLine
 10
157.5573579999999
 20
595.638733
 30
0.0
 11
158.5573579999999
 21
595.638733
 31
0.0
  0
LINE
  5
973D
330
9610
100
AcDbEntity
  8
1
  6
Continuous
100
AcDbLine
 10
151.5573579999999
 20
583.888733
 30
0.0
 11
151.5573579999999
 21
587.388733
 31
0.0
  0
LINE
  5
973E
330
9610
100
AcDbEntity
  8
1
  6
Continuous
100
AcDbLine
 10
153.5573579999999
 20
581.8887329999999
 30
0.0
 11
157.5573579999999
 21
581.8887329999999
 31
0.0
  0
LINE
  5
973F
330
9610
100
AcDbEntity
  8
1
  6
Continuous
100
AcDbLine
 10
153.5573579999999
 20
589.388733
 30
0.0
 11
157.5573579999999
 21
589.388733
 31
0.0
  0
LINE
  5
9740
330
9610
100
AcDbEntity
  8
1
  6
Continuous
100
AcDbLine
 10
138.5573579999999
 20
577.638733
 30
0.0
 11
138.5573579999999
 21
593.638733
 31
0.0
  0
LINE
  5
9741
330
9610
100
AcDbEntity
  8
1
  6
Continuous
100
AcDbLine
 10
145.1611479999999
 20
602.638733
 30
0.0
 11
155.5573579999999
 21
602.638733
 31
0.0
  0
LINE
  5
9742
330
9610
100
AcDbEntity
  8
1
  6
Continuous
100
AcDbLine
 10
145.1611479999999
 20
568.638733
 30
0.0
 11
155.5573579999999
 21
568.638733
 31
0.0
  0
LINE
  5
9743
330
9610
100
AcDbEntity
  8
1
  6
Continuous
100
AcDbLine
 10
141.557358
 20
570.1727909999997
 30
0.0
 11
141.557358
 21
601.1046139999997
 31
0.0
  0
LINE
  5
9744
330
9610
100
AcDbEntity
  8
1
  6
Continuous
100
AcDbLine
 10
143.5573579999999
 20
568.9028929999998
 30
0.0
 11
143.5573579999999
 21
602.374512
 31
0.0
  0
LINE
  5
9745
330
9610
100
AcDbEntity
  8
1
  6
Continuous
100
AcDbLine
 10
146.557358
 20
568.638733
 30
0.0
 11
146.557358
 21
602.638733
 31
0.0
  0
LINE
  5
9746
330
9610
100
AcDbEntity
  8
1
  6
Continuous
100
AcDbLine
 10
148.557358
 20
568.638733
 30
0.0
 11
148.557358
 21
602.638733
 31
0.0
  0
LINE
  5
9747
330
9610
100
AcDbEntity
  8
1
  6
Continuous
100
AcDbLine
 10
151.5573579999999
 20
568.638733
 30
0.0
 11
151.5573579999999
 21
602.638733
 31
0.0
  0
LINE
  5
9748
330
9610
100
AcDbEntity
  8
1
  6
Continuous
100
AcDbLine
 10
153.5573579999999
 20
568.638733
 30
0.0
 11
153.5573579999999
 21
581.8887329999999
 31
0.0
  0
LINE
  5
9749
330
9610
100
AcDbEntity
  8
1
  6
Continuous
100
AcDbLine
 10
138.5573429999998
 20
593.638733
 30
0.0
 11
140.4177399999998
 21
599.2198489999998
 31
0.0
  0
LINE
  5
974A
330
9610
100
AcDbEntity
  8
1
  6
Continuous
100
AcDbLine
 10
138.5573579999999
 20
577.6386719999997
 30
0.0
 11
140.4177249999999
 21
572.0575559999997
 31
0.0
  0
LINE
  5
974B
330
9610
100
AcDbEntity
  8
1
  6
Continuous
100
AcDbLine
 10
170.757355
 20
576.6387329999997
 30
0.0
 11
171.0573579999999
 21
576.6387329999997
 31
0.0
  0
LINE
  5
974C
330
9610
100
AcDbEntity
  8
1
  6
Continuous
100
AcDbLine
 10
170.757355
 20
590.638733
 30
0.0
 11
171.0573579999999
 21
590.638733
 31
0.0
  0
LINE
  5
974D
330
9610
100
AcDbEntity
  8
4
  6
CENTER
100
AcDbLine
 10
182.557358
 20
600.6387329999999
 30
0.0
 11
166.557358
 21
600.6387329999999
 31
0.0
  0
LINE
  5
974E
330
9610
100
AcDbEntity
  8
4
  6
CENTER
100
AcDbLine
 10
174.557358
 20
592.6387329999998
 30
0.0
 11
174.557358
 21
608.6387329999999
 31
0.0
  0
LINE
  5
974F
330
9610
100
AcDbEntity
  8
4
  6
CENTER
100
AcDbLine
 10
182.557358
 20
566.638733
 30
0.0
 11
166.557358
 21
566.638733
 31
0.0
  0
LINE
  5
9750
330
9610
100
AcDbEntity
  8
4
  6
CENTER
100
AcDbLine
 10
174.557358
 20
558.6387329999999
 30
0.0
 11
174.557358
 21
574.638733
 31
0.0
  0
LINE
  5
9751
330
9610
100
AcDbEntity
  8
1
  6
Continuous
100
AcDbLine
 10
170.557358
 20
572.638733
 30
0.0
 11
171.0573579999999
 21
572.638733
 31
0.0
  0
LINE
  5
9752
330
9610
100
AcDbEntity
  8
1
  6
Continuous
100
AcDbLine
 10
170.557358
 20
594.638733
 30
0.0
 11
171.0573579999999
 21
594.638733
 31
0.0
  0
LINE
  5
9753
330
9610
100
AcDbEntity
  8
1
  6
Continuous
100
AcDbLine
 10
170.557358
 20
576.6387329999997
 30
0.0
 11
171.0573579999999
 21
576.6387329999997
 31
0.0
  0
LINE
  5
9754
330
9610
100
AcDbEntity
  8
1
  6
Continuous
100
AcDbLine
 10
170.557358
 20
590.638733
 30
0.0
 11
171.0573579999999
 21
590.638733
 31
0.0
  0
LINE
  5
9755
330
9610
100
AcDbEntity
  8
4
  6
CENTER
100
AcDbLine
 10
136.590698
 20
583.6387329999999
 30
0.0
 11
187.357346
 21
583.6387329999999
 31
0.0
  0
LINE
  5
9756
330
9610
100
AcDbEntity
  8
1
  6
Continuous
100
AcDbLine
 10
153.5573579999999
 20
589.388733
 30
0.0
 11
153.5573579999999
 21
602.638733
 31
0.0
  0
LINE
  5
9757
330
9610
100
AcDbEntity
  8
1
  6
Continuous
100
AcDbLine
 10
158.5573579999999
 20
571.1387329999999
 30
0.0
 11
158.5573579999999
 21
596.1387329999999
 31
0.0
  0
LINE
  5
9758
330
9610
100
AcDbEntity
  8
1
  6
Continuous
100
AcDbLine
 10
182.0573579999999
 20
559.5927729999998
 30
0.0
 11
182.0573579999999
 21
607.6846309999997
 31
0.0
  0
LINE
  5
9759
330
9610
100
AcDbEntity
  8
1
  6
Continuous
100
AcDbLine
 10
167.0573579999999
 20
563.992798
 30
0.0
 11
167.0573579999999
 21
572.638733
 31
0.0
  0
LINE
  5
975A
330
9610
100
AcDbEntity
  8
1
  6
Continuous
100
AcDbLine
 10
168.3145899999999
 20
605.1416019999997
 30
0.0
 11
179.3145749999999
 21
609.5415649999997
 31
0.0
  0
LINE
  5
975B
330
9610
100
AcDbEntity
  8
1
  6
Continuous
100
AcDbLine
 10
168.3145749999999
 20
562.1358639999998
 30
0.0
 11
179.3145749999999
 21
557.73584
 31
0.0
  0
LINE
  5
975C
330
9610
100
AcDbEntity
  8
1
  6
Continuous
100
AcDbLine
 10
169.0573579999998
 20
590.638733
 30
0.0
 11
171.0573579999999
 21
590.638733
 31
0.0
  0
LINE
  5
975D
330
9610
100
AcDbEntity
  8
1
  6
Continuous
100
AcDbLine
 10
169.0573579999998
 20
576.6387329999997
 30
0.0
 11
171.0573579999999
 21
576.6387329999997
 31
0.0
  0
LINE
  5
975E
330
9610
100
AcDbEntity
  8
1
  6
Continuous
100
AcDbLine
 10
169.0573579999998
 20
576.1387329999998
 30
0.0
 11
169.0573579999998
 21
591.138733
 31
0.0
  0
LINE
  5
975F
330
9610
100
AcDbEntity
  8
1
  6
Continuous
100
AcDbLine
 10
167.0573579999999
 20
572.638733
 30
0.0
 11
171.0573579999999
 21
572.638733
 31
0.0
  0
LINE
  5
9760
330
9610
100
AcDbEntity
  8
1
  6
Continuous
100
AcDbLine
 10
167.0573579999999
 20
594.638733
 30
0.0
 11
171.0573579999999
 21
594.638733
 31
0.0
  0
LINE
  5
9761
330
9610
100
AcDbEntity
  8
1
  6
Continuous
100
AcDbLine
 10
167.0573579999999
 20
594.638733
 30
0.0
 11
167.0573579999999
 21
603.284668
 31
0.0
  0
LINE
  5
9762
330
9610
100
AcDbEntity
  8
1
  6
Continuous
100
AcDbLine
 10
168.5573579999999
 20
574.638733
 30
0.0
 11
168.5573579999999
 21
592.6387329999998
 31
0.0
  0
LINE
  5
9763
330
9610
100
AcDbEntity
  8
1
  6
Continuous
100
AcDbLine
 10
168.5573579999999
 20
576.1387329999998
 30
0.0
 11
169.0573579999998
 21
576.1387329999998
 31
0.0
  0
LINE
  5
9764
330
9610
100
AcDbEntity
  8
1
  6
Continuous
100
AcDbLine
 10
168.5573579999999
 20
591.138733
 30
0.0
 11
169.0573579999998
 21
591.138733
 31
0.0
  0
LINE
  5
9765
330
9610
100
AcDbEntity
  8
1
  6
Continuous
100
AcDbLine
 10
164.5573579999999
 20
593.638733
 30
0.0
 11
167.557358
 21
593.638733
 31
0.0
  0
LINE
  5
9766
330
9610
100
AcDbEntity
  8
1
  6
Continuous
100
AcDbLine
 10
164.5573579999999
 20
573.638733
 30
0.0
 11
169.557358
 21
573.638733
 31
0.0
  0
LINE
  5
9767
330
9610
100
AcDbEntity
  8
1
  6
Continuous
100
AcDbLine
 10
167.557358
 20
574.638733
 30
0.0
 11
167.557358
 21
592.6387329999998
 31
0.0
  0
LINE
  5
9768
330
9610
100
AcDbEntity
  8
1
  6
Continuous
100
AcDbLine
 10
164.5573579999999
 20
592.6387329999998
 30
0.0
 11
167.557358
 21
592.6387329999998
 31
0.0
  0
LINE
  5
9769
330
9610
100
AcDbEntity
  8
1
  6
Continuous
100
AcDbLine
 10
164.5573579999999
 20
574.638733
 30
0.0
 11
167.557358
 21
574.638733
 31
0.0
  0
LINE
  5
976A
330
9610
100
AcDbEntity
  8
1
  6
Continuous
100
AcDbLine
 10
163.5573579999999
 20
574.638733
 30
0.0
 11
163.5573579999999
 21
577.8887329999998
 31
0.0
  0
LINE
  5
976B
330
9610
100
AcDbEntity
  8
1
  6
Continuous
100
AcDbLine
 10
163.5573579999999
 20
589.388733
 30
0.0
 11
163.5573579999999
 21
592.6387329999998
 31
0.0
  0
LINE
  5
976C
330
9610
100
AcDbEntity
  8
1
  6
Continuous
100
AcDbLine
 10
163.5573579999999
 20
589.388733
 30
0.0
 11
164.5573579999999
 21
589.388733
 31
0.0
  0
LINE
  5
976D
330
9610
100
AcDbEntity
  8
1
  6
Continuous
100
AcDbLine
 10
163.5573579999999
 20
577.8887329999998
 30
0.0
 11
164.5573579999999
 21
577.8887329999998
 31
0.0
  0
LINE
  5
976E
330
9610
100
AcDbEntity
  8
1
  6
Continuous
100
AcDbLine
 10
164.5573579999999
 20
574.638733
 30
0.0
 11
164.5573579999999
 21
577.8887329999998
 31
0.0
  0
LINE
  5
976F
330
9610
100
AcDbEntity
  8
1
  6
Continuous
100
AcDbLine
 10
164.5573579999999
 20
589.388733
 30
0.0
 11
164.5573579999999
 21
592.6387329999998
 31
0.0
  0
LINE
  5
9770
330
9610
100
AcDbEntity
  8
1
  6
Continuous
100
AcDbLine
 10
161.9573519999999
 20
595.638733
 30
0.0
 11
167.0573579999999
 21
595.638733
 31
0.0
  0
LINE
  5
9771
330
9610
100
AcDbEntity
  8
1
  6
Continuous
100
AcDbLine
 10
161.9573519999999
 20
571.6387329999998
 30
0.0
 11
167.0573579999999
 21
571.6387329999998
 31
0.0
  0
LINE
  5
9772
330
9610
100
AcDbEntity
  8
1
  6
Continuous
100
AcDbLine
 10
170.557358
 20
572.638733
 30
0.0
 11
170.557358
 21
576.6387329999997
 31
0.0
  0
LINE
  5
9773
330
9610
100
AcDbEntity
  8
1
  6
Continuous
100
AcDbLine
 10
163.5573579999999
 20
594.638733
 30
0.0
 11
167.0573579999999
 21
594.638733
 31
0.0
  0
LINE
  5
9774
330
9610
100
AcDbEntity
  8
1
  6
Continuous
100
AcDbLine
 10
163.5573579999999
 20
572.638733
 30
0.0
 11
167.0573579999999
 21
572.638733
 31
0.0
  0
LINE
  5
9775
330
9610
100
AcDbEntity
  8
1
  6
Continuous
100
AcDbLine
 10
169.557358
 20
573.638733
 30
0.0
 11
169.557358
 21
576.6387329999997
 31
0.0
  0
LINE
  5
9776
330
9610
100
AcDbEntity
  8
1
  6
Continuous
100
AcDbLine
 10
162.557358
 20
590.3887329999998
 30
0.0
 11
162.557358
 21
593.638733
 31
0.0
  0
LINE
  5
9777
330
9610
100
AcDbEntity
  8
1
  6
Continuous
100
AcDbLine
 10
162.557358
 20
573.638733
 30
0.0
 11
162.557358
 21
576.888733
 31
0.0
  0
LINE
  5
9778
330
9610
100
AcDbEntity
  8
1
  6
Continuous
100
AcDbLine
 10
161.5573579999999
 20
572.638733
 30
0.0
 11
161.5573579999999
 21
575.888733
 31
0.0
  0
LINE
  5
9779
330
9610
100
AcDbEntity
  8
1
  6
Continuous
100
AcDbLine
 10
169.557358
 20
590.638733
 30
0.0
 11
169.557358
 21
594.638733
 31
0.0
  0
LINE
  5
977A
330
9610
100
AcDbEntity
  8
1
  6
Continuous
100
AcDbLine
 10
170.557358
 20
590.702209
 30
0.0
 11
170.557358
 21
594.638733
 31
0.0
  0
LINE
  5
977B
330
9610
100
AcDbEntity
  8
1
  6
Continuous
100
AcDbLine
 10
162.557358
 20
576.888733
 30
0.0
 11
163.5573579999999
 21
576.888733
 31
0.0
  0
LINE
  5
977C
330
9610
100
AcDbEntity
  8
1
  6
Continuous
100
AcDbLine
 10
161.5573579999999
 20
575.888733
 30
0.0
 11
162.557358
 21
575.888733
 31
0.0
  0
LINE
  5
977D
330
9610
100
AcDbEntity
  8
1
  6
Continuous
100
AcDbLine
 10
162.557358
 20
590.3887329999998
 30
0.0
 11
163.5573579999999
 21
590.3887329999998
 31
0.0
  0
LINE
  5
977E
330
9610
100
AcDbEntity
  8
1
  6
Continuous
100
AcDbLine
 10
161.5573579999999
 20
591.388733
 30
0.0
 11
162.557358
 21
591.388733
 31
0.0
  0
LINE
  5
977F
330
9610
100
AcDbEntity
  8
1
  6
Continuous
100
AcDbLine
 10
160.9573519999999
 20
588.1387329999999
 30
0.0
 11
165.9573519999999
 21
588.1387329999999
 31
0.0
  0
LINE
  5
9780
330
9610
100
AcDbEntity
  8
1
  6
Continuous
100
AcDbLine
 10
160.9573519999999
 20
579.138733
 30
0.0
 11
165.9573519999999
 21
579.138733
 31
0.0
  0
LINE
  5
9781
330
9610
100
AcDbEntity
  8
1
  6
Continuous
100
AcDbLine
 10
165.9573519999999
 20
579.138733
 30
0.0
 11
165.9573519999999
 21
588.1387329999999
 31
0.0
  0
LINE
  5
9782
330
9610
100
AcDbEntity
  8
1
  6
Continuous
100
AcDbLine
 10
160.9573519999999
 20
580.6387329999997
 30
0.0
 11
165.9573519999999
 21
580.6387329999997
 31
0.0
  0
LINE
  5
9783
330
9610
100
AcDbEntity
  8
1
  6
Continuous
100
AcDbLine
 10
160.9573519999999
 20
586.638733
 30
0.0
 11
165.9573519999999
 21
586.638733
 31
0.0
  0
LINE
  5
9784
330
9610
100
AcDbEntity
  8
1
  6
Continuous
100
AcDbLine
 10
153.5573579999999
 20
594.4334109999998
 30
0.0
 11
153.5573579999999
 21
589.3891599999998
 31
0.0
  0
LINE
  5
9785
330
9610
100
AcDbEntity
  8
1
  6
Continuous
100
AcDbLine
 10
153.5573579999999
 20
594.4334109999998
 30
0.0
 11
157.5573579999999
 21
594.4334109999998
 31
0.0
  0
LINE
  5
9786
330
9610
100
AcDbEntity
  8
1
  6
Continuous
100
AcDbLine
 10
153.5573579999999
 20
318.485413
 30
0.0
 11
157.5573579999999
 21
318.485413
 31
0.0
  0
LINE
  5
9787
330
9610
100
AcDbEntity
  8
1
  6
Continuous
100
AcDbLine
 10
153.5573579999999
 20
318.485413
 30
0.0
 11
153.5573579999999
 21
313.441162
 31
0.0
  0
LINE
  5
9788
330
9610
100
AcDbEntity
  8
4
  6
CENTER
100
AcDbLine
 10
289.0147089999999
 20
511.7938839999998
 30
0.0
 11
289.0147089999999
 21
110.176468
 31
0.0
  0
LINE
  5
9789
330
9610
100
AcDbEntity
  8
4
  6
CENTER
100
AcDbLine
 10
307.5147089999999
 20
126.1911769999999
 30
0.0
 11
270.514709
 21
126.1911769999999
 31
0.0
  0
LINE
  5
978A
330
9610
100
AcDbEntity
  8
1
  6
Continuous
100
AcDbLine
 10
302.5147089999999
 20
338.191162
 30
0.0
 11
299.0147089999999
 21
338.191162
 31
0.0
  0
LINE
  5
978B
330
9610
100
AcDbEntity
  8
4
  6
CENTER
100
AcDbLine
 10
304.014709
 20
346.691162
 30
0.0
 11
274.0147089999999
 21
346.691162
 31
0.0
  0
LINE
  5
978C
330
9610
100
AcDbEntity
  8
5
  6
PHANTOM
100
AcDbLine
 10
316.0147089999999
 20
363.691162
 30
0.0
 11
262.0147089999999
 21
363.691162
 31
0.0
  0
LINE
  5
978D
330
9610
100
AcDbEntity
  8
5
  6
PHANTOM
100
AcDbLine
 10
296.0147089999999
 20
361.691162
 30
0.0
 11
296.0147089999999
 21
346.691162
 31
0.0
  0
LINE
  5
978E
330
9610
100
AcDbEntity
  8
5
  6
PHANTOM
100
AcDbLine
 10
282.0147089999998
 20
361.691162
 30
0.0
 11
282.0147089999998
 21
346.691162
 31
0.0
  0
LINE
  5
978F
330
9610
100
AcDbEntity
  8
5
  6
PHANTOM
100
AcDbLine
 10
316.0147089999999
 20
363.691162
 30
0.0
 11
316.0147089999999
 21
361.691162
 31
0.0
  0
LINE
  5
9790
330
9610
100
AcDbEntity
  8
5
  6
PHANTOM
100
AcDbLine
 10
262.0147089999999
 20
363.691162
 30
0.0
 11
262.0147089999999
 21
361.691162
 31
0.0
  0
LINE
  5
9791
330
9610
100
AcDbEntity
  8
5
  6
PHANTOM
100
AcDbLine
 10
316.0147089999999
 20
361.691162
 30
0.0
 11
262.0147089999999
 21
361.691162
 31
0.0
  0
LINE
  5
9792
330
9610
100
AcDbEntity
  8
1
  6
Continuous
100
AcDbLine
 10
302.5147089999999
 20
338.191162
 30
0.0
 11
302.5147089999999
 21
122.1911769999999
 31
0.0
  0
LINE
  5
9793
330
9610
100
AcDbEntity
  8
1
  6
Continuous
100
AcDbLine
 10
275.5147089999999
 20
338.191162
 30
0.0
 11
275.5147089999999
 21
122.1911769999999
 31
0.0
  0
LINE
  5
9794
330
9610
100
AcDbEntity
  8
1
  6
Continuous
100
AcDbLine
 10
274.0147089999999
 20
310.7411799999998
 30
0.0
 11
274.0147089999999
 21
308.6411739999999
 31
0.0
  0
LINE
  5
9795
330
9610
100
AcDbEntity
  8
1
  6
Continuous
100
AcDbLine
 10
274.0147089999999
 20
311.191162
 30
0.0
 11
274.0147089999999
 21
308.191162
 31
0.0
  0
LINE
  5
9796
330
9610
100
AcDbEntity
  8
1
  6
Continuous
100
AcDbLine
 10
308.014709
 20
311.191162
 30
0.0
 11
308.014709
 21
308.191162
 31
0.0
  0
LINE
  5
9797
330
9610
100
AcDbEntity
  8
1
  6
Continuous
100
AcDbLine
 10
306.014709
 20
306.191162
 30
0.0
 11
302.5147089999999
 21
306.191162
 31
0.0
  0
LINE
  5
9798
330
9610
100
AcDbEntity
  8
1
  6
Continuous
100
AcDbLine
 10
306.014709
 20
313.191162
 30
0.0
 11
302.5147089999999
 21
313.191162
 31
0.0
  0
LINE
  5
9799
330
9610
100
AcDbEntity
  8
1
  6
Continuous
100
AcDbLine
 10
299.0147089999999
 20
493.191162
 30
0.0
 11
299.0147089999999
 21
335.647522
 31
0.0
  0
LINE
  5
979A
330
9610
100
AcDbEntity
  8
1
  6
Continuous
100
AcDbLine
 10
279.014709
 20
493.191162
 30
0.0
 11
279.014709
 21
335.647522
 31
0.0
  0
LINE
  5
979B
330
9610
100
AcDbEntity
  8
4
  6
CENTER
100
AcDbLine
 10
272.0147089999999
 20
367.691162
 30
0.0
 11
272.0147089999999
 21
357.691162
 31
0.0
  0
LINE
  5
979C
330
9610
100
AcDbEntity
  8
4
  6
CENTER
100
AcDbLine
 10
306.014709
 20
367.691162
 30
0.0
 11
306.014709
 21
357.691162
 31
0.0
  0
LINE
  5
979D
330
9610
100
AcDbEntity
  8
4
  6
CENTER
100
AcDbLine
 10
272.0147089999999
 20
511.691162
 30
0.0
 11
272.0147089999999
 21
501.691162
 31
0.0
  0
LINE
  5
979E
330
9610
100
AcDbEntity
  8
4
  6
CENTER
100
AcDbLine
 10
306.014709
 20
511.691162
 30
0.0
 11
306.014709
 21
501.691162
 31
0.0
  0
LINE
  5
979F
330
9610
100
AcDbEntity
  8
1
  6
Continuous
100
AcDbLine
 10
316.0147089999999
 20
507.691162
 30
0.0
 11
262.0147089999999
 21
507.691162
 31
0.0
  0
LINE
  5
97A0
330
9610
100
AcDbEntity
  8
1
  6
Continuous
100
AcDbLine
 10
296.0147089999999
 20
505.691162
 30
0.0
 11
296.0147089999999
 21
490.691162
 31
0.0
  0
LINE
  5
97A1
330
9610
100
AcDbEntity
  8
1
  6
Continuous
100
AcDbLine
 10
282.0147089999998
 20
505.691162
 30
0.0
 11
282.0147089999998
 21
490.691162
 31
0.0
  0
LINE
  5
97A2
330
9610
100
AcDbEntity
  8
1
  6
Continuous
100
AcDbLine
 10
316.0147089999999
 20
505.691162
 30
0.0
 11
262.0147089999999
 21
505.691162
 31
0.0
  0
LINE
  5
97A3
330
9610
100
AcDbEntity
  8
1
  6
Continuous
100
AcDbLine
 10
316.0147089999999
 20
507.691162
 30
0.0
 11
316.0147089999999
 21
505.691162
 31
0.0
  0
LINE
  5
97A4
330
9610
100
AcDbEntity
  8
1
  6
Continuous
100
AcDbLine
 10
262.0147089999999
 20
507.691162
 30
0.0
 11
262.0147089999999
 21
505.691162
 31
0.0
  0
LINE
  5
97A5
330
9610
100
AcDbEntity
  8
4
  6
CENTER
100
AcDbLine
 10
304.014709
 20
490.691162
 30
0.0
 11
274.0147089999999
 21
490.691162
 31
0.0
  0
LINE
  5
97A6
330
9610
100
AcDbEntity
  8
1
  6
Continuous
100
AcDbLine
 10
276.814697
 20
335.647522
 30
0.0
 11
301.214691
 21
335.647522
 31
0.0
  0
LINE
  5
97A7
330
9610
100
AcDbEntity
  8
1
  6
Continuous
100
AcDbLine
 10
279.014709
 20
338.191162
 30
0.0
 11
275.5147089999999
 21
338.191162
 31
0.0
  0
LINE
  5
97A8
330
9610
100
AcDbEntity
  8
4
  6
CENTER
100
AcDbLine
 10
284.0147089999998
 20
330.6475219999999
 30
0.0
 11
294.0147089999999
 21
330.6475219999999
 31
0.0
  0
LINE
  5
97A9
330
9610
100
AcDbEntity
  8
1
  6
Continuous
100
AcDbLine
 10
276.814697
 20
338.191162
 30
0.0
 11
276.814697
 21
123.099503
 31
0.0
  0
LINE
  5
97AA
330
9610
100
AcDbEntity
  8
1
  6
Continuous
100
AcDbLine
 10
301.214691
 20
338.191162
 30
0.0
 11
301.214691
 21
123.099503
 31
0.0
  0
LINE
  5
97AB
330
9610
100
AcDbEntity
  8
4
  6
CENTER
100
AcDbLine
 10
313.0785829999999
 20
309.691162
 30
0.0
 11
267.2586059999998
 21
309.691162
 31
0.0
  0
LINE
  5
97AC
330
9610
100
AcDbEntity
  8
4
  6
CENTER
100
AcDbLine
 10
413.9720459999998
 20
343.191162
 30
0.0
 11
413.9720459999998
 21
111.9475329999998
 31
0.0
  0
LINE
  5
97AD
330
9610
100
AcDbEntity
  8
4
  6
CENTER
100
AcDbLine
 10
417.194468
 20
346.691162
 30
0.0
 11
401.299713
 21
346.691162
 31
0.0
  0
LINE
  5
97AE
330
9610
100
AcDbEntity
  8
1
  6
Continuous
100
AcDbLine
 10
408.4720459999998
 20
335.691162
 30
0.0
 11
407.4720459999999
 21
335.691162
 31
0.0
  0
LINE
  5
97AF
330
9610
100
AcDbEntity
  8
1
  6
Continuous
100
AcDbLine
 10
409.4720459999998
 20
498.1911619999998
 30
0.0
 11
409.4720459999998
 21
338.191162
 31
0.0
  0
LINE
  5
97B0
330
9610
100
AcDbEntity
  8
4
  6
CENTER
100
AcDbLine
 10
411.9720459999999
 20
506.6911619999998
 30
0.0
 11
411.9720459999999
 21
334.191162
 31
0.0
  0
LINE
  5
97B1
330
9610
100
AcDbEntity
  8
5
  6
PHANTOM
100
AcDbLine
 10
409.4720459999998
 20
339.441162
 30
0.0
 11
408.9720459999998
 21
339.441162
 31
0.0
  0
LINE
  5
97B2
330
9610
100
AcDbEntity
  8
5
  6
PHANTOM
100
AcDbLine
 10
408.9720459999998
 20
361.691162
 30
0.0
 11
408.9720459999998
 21
339.441162
 31
0.0
  0
LINE
  5
97B3
330
9610
100
AcDbEntity
  8
5
  6
PHANTOM
100
AcDbLine
 10
409.4720459999998
 20
353.691162
 30
0.0
 11
408.9720459999998
 21
353.691162
 31
0.0
  0
LINE
  5
97B4
330
9610
100
AcDbEntity
  8
5
  6
PHANTOM
100
AcDbLine
 10
408.9720459999998
 20
339.691162
 30
0.0
 11
406.972046
 21
339.691162
 31
0.0
  0
LINE
  5
97B5
330
9610
100
AcDbEntity
  8
5
  6
PHANTOM
100
AcDbLine
 10
406.472046
 20
352.691162
 30
0.0
 11
404.4720459999998
 21
352.691162
 31
0.0
  0
LINE
  5
97B6
330
9610
100
AcDbEntity
  8
5
  6
PHANTOM
100
AcDbLine
 10
406.472046
 20
340.691162
 30
0.0
 11
404.4720459999998
 21
340.691162
 31
0.0
  0
LINE
  5
97B7
330
9610
100
AcDbEntity
  8
5
  6
PHANTOM
100
AcDbLine
 10
403.9720459999998
 20
352.191162
 30
0.0
 11
403.9720459999998
 21
341.191162
 31
0.0
  0
LINE
  5
97B8
330
9610
100
AcDbEntity
  8
5
  6
PHANTOM
100
AcDbLine
 10
404.4720459999998
 20
340.691162
 30
0.0
 11
403.9720459999998
 21
341.191162
 31
0.0
  0
LINE
  5
97B9
330
9610
100
AcDbEntity
  8
5
  6
PHANTOM
100
AcDbLine
 10
404.4720459999998
 20
352.691162
 30
0.0
 11
404.4720459999998
 21
340.691162
 31
0.0
  0
LINE
  5
97BA
330
9610
100
AcDbEntity
  8
5
  6
PHANTOM
100
AcDbLine
 10
406.972076
 20
341.191193
 30
0.0
 11
406.4720759999998
 21
340.691193
 31
0.0
  0
LINE
  5
97BB
330
9610
100
AcDbEntity
  8
5
  6
PHANTOM
100
AcDbLine
 10
406.972046
 20
361.691162
 30
0.0
 11
406.972046
 21
339.691162
 31
0.0
  0
LINE
  5
97BC
330
9610
100
AcDbEntity
  8
5
  6
PHANTOM
100
AcDbLine
 10
406.472046
 20
340.691162
 30
0.0
 11
406.472046
 21
352.691162
 31
0.0
  0
LINE
  5
97BD
330
9610
100
AcDbEntity
  8
5
  6
PHANTOM
100
AcDbLine
 10
411.472046
 20
363.691162
 30
0.0
 11
396.4720459999999
 21
363.691162
 31
0.0
  0
LINE
  5
97BE
330
9610
100
AcDbEntity
  8
5
  6
PHANTOM
100
AcDbLine
 10
411.472046
 20
361.691162
 30
0.0
 11
396.4720459999999
 21
361.691162
 31
0.0
  0
LINE
  5
97BF
330
9610
100
AcDbEntity
  8
5
  6
PHANTOM
100
AcDbLine
 10
396.4720459999999
 20
363.691162
 30
0.0
 11
396.4720459999999
 21
361.691162
 31
0.0
  0
LINE
  5
97C0
330
9610
100
AcDbEntity
  8
5
  6
PHANTOM
100
AcDbLine
 10
411.472046
 20
363.691162
 30
0.0
 11
411.472046
 21
361.691162
 31
0.0
  0
LINE
  5
97C1
330
9610
100
AcDbEntity
  8
1
  6
Continuous
100
AcDbLine
 10
414.472046
 20
493.191162
 30
0.0
 11
409.4720459999998
 21
493.191162
 31
0.0
  0
LINE
  5
97C2
330
9610
100
AcDbEntity
  8
1
  6
Continuous
100
AcDbLine
 10
420.4720459999998
 20
319.691162
 30
0.0
 11
419.472046
 21
319.691162
 31
0.0
  0
LINE
  5
97C3
330
9610
100
AcDbEntity
  8
1
  6
Continuous
100
AcDbLine
 10
420.4720459999998
 20
299.691162
 30
0.0
 11
419.472046
 21
299.691162
 31
0.0
  0
LINE
  5
97C4
330
9610
100
AcDbEntity
  8
1
  6
Continuous
100
AcDbLine
 10
420.4720459999998
 20
319.691162
 30
0.0
 11
420.4720459999998
 21
318.485413
 31
0.0
  0
LINE
  5
97C5
330
9610
100
AcDbEntity
  8
1
  6
Continuous
100
AcDbLine
 10
436.472046
 20
312.229645
 30
0.0
 11
436.472046
 21
311.441162
 31
0.0
  0
LINE
  5
97C6
330
9610
100
AcDbEntity
  8
1
  6
Continuous
100
AcDbLine
 10
434.4720459999998
 20
312.383484
 30
0.0
 11
434.4720459999998
 21
311.441162
 31
0.0
  0
LINE
  5
97C7
330
9610
100
AcDbEntity
  8
1
  6
Continuous
100
AcDbLine
 10
431.472046
 20
312.614258
 30
0.0
 11
431.472046
 21
311.7911680000001
 31
0.0
  0
LINE
  5
97C8
330
9610
100
AcDbEntity
  8
1
  6
Continuous
100
AcDbLine
 10
429.4720459999998
 20
312.768097
 30
0.0
 11
429.4720459999998
 21
311.7911680000001
 31
0.0
  0
LINE
  5
97C9
330
9610
100
AcDbEntity
  8
1
  6
Continuous
100
AcDbLine
 10
426.4720459999998
 20
312.998871
 30
0.0
 11
426.4720459999998
 21
312.191162
 31
0.0
  0
LINE
  5
97CA
330
9610
100
AcDbEntity
  8
1
  6
Continuous
100
AcDbLine
 10
424.4720459999999
 20
313.15271
 30
0.0
 11
424.4720459999999
 21
312.191162
 31
0.0
  0
LINE
  5
97CB
330
9610
100
AcDbEntity
  8
1
  6
Continuous
100
AcDbLine
 10
436.9720459999999
 20
312.191162
 30
0.0
 11
436.472046
 21
312.229614
 31
0.0
  0
LINE
  5
97CC
330
9610
100
AcDbEntity
  8
1
  6
Continuous
100
AcDbLine
 10
436.9720759999998
 20
307.191193
 30
0.0
 11
436.472046
 21
307.1527399999999
 31
0.0
  0
LINE
  5
97CD
330
9610
100
AcDbEntity
  8
1
  6
Continuous
100
AcDbLine
 10
426.4720459999998
 20
312.191162
 30
0.0
 11
424.4720459999999
 21
312.191162
 31
0.0
  0
LINE
  5
97CE
330
9610
100
AcDbEntity
  8
1
  6
Continuous
100
AcDbLine
 10
426.4720459999998
 20
307.191162
 30
0.0
 11
424.4720459999999
 21
307.191162
 31
0.0
  0
LINE
  5
97CF
330
9610
100
AcDbEntity
  8
1
  6
Continuous
100
AcDbLine
 10
426.4720459999998
 20
307.191162
 30
0.0
 11
426.4720459999998
 21
306.383484
 31
0.0
  0
LINE
  5
97D0
330
9610
100
AcDbEntity
  8
1
  6
Continuous
100
AcDbLine
 10
424.4720459999999
 20
307.191162
 30
0.0
 11
424.4720459999999
 21
306.229645
 31
0.0
  0
LINE
  5
97D1
330
9610
100
AcDbEntity
  8
1
  6
Continuous
100
AcDbLine
 10
436.472046
 20
307.941162
 30
0.0
 11
436.472046
 21
307.15271
 31
0.0
  0
LINE
  5
97D2
330
9610
100
AcDbEntity
  8
1
  6
Continuous
100
AcDbLine
 10
434.4720459999998
 20
307.941162
 30
0.0
 11
434.4720459999998
 21
306.998871
 31
0.0
  0
LINE
  5
97D3
330
9610
100
AcDbEntity
  8
1
  6
Continuous
100
AcDbLine
 10
431.472046
 20
307.591187
 30
0.0
 11
431.472046
 21
306.768097
 31
0.0
  0
LINE
  5
97D4
330
9610
100
AcDbEntity
  8
1
  6
Continuous
100
AcDbLine
 10
429.4720459999998
 20
307.591187
 30
0.0
 11
429.4720459999998
 21
306.614258
 31
0.0
  0
LINE
  5
97D5
330
9610
100
AcDbEntity
  8
1
  6
Continuous
100
AcDbLine
 10
429.4720759999998
 20
306.614258
 30
0.0
 11
426.4720459999998
 21
306.383484
 31
0.0
  0
LINE
  5
97D6
330
9610
100
AcDbEntity
  8
1
  6
Continuous
100
AcDbLine
 10
434.4720759999998
 20
306.998871
 30
0.0
 11
431.472046
 21
306.768127
 31
0.0
  0
LINE
  5
97D7
330
9610
100
AcDbEntity
  8
1
  6
Continuous
100
AcDbLine
 10
434.4720459999998
 20
312.383484
 30
0.0
 11
431.472046
 21
312.614227
 31
0.0
  0
LINE
  5
97D8
330
9610
100
AcDbEntity
  8
1
  6
Continuous
100
AcDbLine
 10
429.4720459999998
 20
312.768097
 30
0.0
 11
426.4720459999998
 21
312.9988399999998
 31
0.0
  0
LINE
  5
97D9
330
9610
100
AcDbEntity
  8
1
  6
Continuous
100
AcDbLine
 10
424.4720459999999
 20
306.229645
 30
0.0
 11
423.972046
 21
306.1911929999999
 31
0.0
  0
LINE
  5
97DA
330
9610
100
AcDbEntity
  8
1
  6
Continuous
100
AcDbLine
 10
424.4720459999999
 20
313.15271
 30
0.0
 11
423.972046
 21
313.191162
 31
0.0
  0
LINE
  5
97DB
330
9610
100
AcDbEntity
  8
1
  6
Continuous
100
AcDbLine
 10
426.4720459999998
 20
313.441162
 30
0.0
 11
420.4720459999998
 21
313.441162
 31
0.0
  0
LINE
  5
97DC
330
9610
100
AcDbEntity
  8
1
  6
Continuous
100
AcDbLine
 10
426.4720459999998
 20
305.941162
 30
0.0
 11
420.4720459999998
 21
305.941162
 31
0.0
  0
LINE
  5
97DD
330
9610
100
AcDbEntity
  8
1
  6
Continuous
100
AcDbLine
 10
426.4720459999998
 20
313.441162
 30
0.0
 11
426.4720459999998
 21
312.998871
 31
0.0
  0
LINE
  5
97DE
330
9610
100
AcDbEntity
  8
1
  6
Continuous
100
AcDbLine
 10
426.4720459999998
 20
306.383484
 30
0.0
 11
426.4720459999998
 21
305.941162
 31
0.0
  0
LINE
  5
97DF
330
9610
100
AcDbEntity
  8
4
  6
CENTER
100
AcDbLine
 10
419.9720459999999
 20
490.691162
 30
0.0
 11
401.299713
 21
490.691162
 31
0.0
  0
LINE
  5
97E0
330
9610
100
AcDbEntity
  8
1
  6
Continuous
100
AcDbLine
 10
419.472046
 20
338.191162
 30
0.0
 11
408.4720459999998
 21
338.191162
 31
0.0
  0
LINE
  5
97E1
330
9610
100
AcDbEntity
  8
4
  6
CENTER
100
AcDbLine
 10
444.221588
 20
309.691162
 30
0.0
 11
399.88382
 21
309.691162
 31
0.0
  0
LINE
  5
97E2
330
9610
100
AcDbEntity
  8
1
  6
Continuous
100
AcDbLine
 10
410.972046
 20
505.691162
 30
0.0
 11
395.9720459999999
 21
505.691162
 31
0.0
  0
LINE
  5
97E3
330
9610
100
AcDbEntity
  8
1
  6
Continuous
100
AcDbLine
 10
410.972046
 20
507.691162
 30
0.0
 11
395.9720459999999
 21
507.691162
 31
0.0
  0
LINE
  5
97E4
330
9610
100
AcDbEntity
  8
1
  6
Continuous
100
AcDbLine
 10
395.9720459999999
 20
507.691162
 30
0.0
 11
395.9720459999999
 21
505.691162
 31
0.0
  0
LINE
  5
97E5
330
9610
100
AcDbEntity
  8
1
  6
Continuous
100
AcDbLine
 10
410.972046
 20
507.691162
 30
0.0
 11
410.972046
 21
505.691162
 31
0.0
  0
LINE
  5
97E6
330
9610
100
AcDbEntity
  8
1
  6
Continuous
100
AcDbLine
 10
406.972046
 20
505.691162
 30
0.0
 11
406.972046
 21
483.691162
 31
0.0
  0
LINE
  5
97E7
330
9610
100
AcDbEntity
  8
1
  6
Continuous
100
AcDbLine
 10
408.9720459999998
 20
483.691162
 30
0.0
 11
406.972046
 21
483.691162
 31
0.0
  0
LINE
  5
97E8
330
9610
100
AcDbEntity
  8
1
  6
Continuous
100
AcDbLine
 10
408.9720459999998
 20
505.691162
 30
0.0
 11
408.9720459999998
 21
483.191162
 31
0.0
  0
LINE
  5
97E9
330
9610
100
AcDbEntity
  8
1
  6
Continuous
100
AcDbLine
 10
406.472046
 20
484.691162
 30
0.0
 11
406.472046
 21
496.691162
 31
0.0
  0
LINE
  5
97EA
330
9610
100
AcDbEntity
  8
1
  6
Continuous
100
AcDbLine
 10
406.972076
 20
485.191162
 30
0.0
 11
406.4720759999998
 21
484.691193
 31
0.0
  0
LINE
  5
97EB
330
9610
100
AcDbEntity
  8
1
  6
Continuous
100
AcDbLine
 10
406.4720759999998
 20
496.691193
 30
0.0
 11
406.972076
 21
496.191193
 31
0.0
  0
LINE
  5
97EC
330
9610
100
AcDbEntity
  8
1
  6
Continuous
100
AcDbLine
 10
406.472046
 20
496.691162
 30
0.0
 11
404.4720459999998
 21
496.691162
 31
0.0
  0
LINE
  5
97ED
330
9610
100
AcDbEntity
  8
1
  6
Continuous
100
AcDbLine
 10
404.4720459999998
 20
496.691162
 30
0.0
 11
404.4720459999998
 21
484.691162
 31
0.0
  0
LINE
  5
97EE
330
9610
100
AcDbEntity
  8
1
  6
Continuous
100
AcDbLine
 10
403.9720459999998
 20
496.191162
 30
0.0
 11
403.9720459999998
 21
485.191162
 31
0.0
  0
LINE
  5
97EF
330
9610
100
AcDbEntity
  8
1
  6
Continuous
100
AcDbLine
 10
404.4720459999998
 20
496.691162
 30
0.0
 11
403.9720459999998
 21
496.191193
 31
0.0
  0
LINE
  5
97F0
330
9610
100
AcDbEntity
  8
1
  6
Continuous
100
AcDbLine
 10
406.472046
 20
484.691162
 30
0.0
 11
404.4720459999998
 21
484.691162
 31
0.0
  0
LINE
  5
97F1
330
9610
100
AcDbEntity
  8
1
  6
Continuous
100
AcDbLine
 10
404.4720459999998
 20
484.691162
 30
0.0
 11
403.9720459999998
 21
485.191162
 31
0.0
  0
LINE
  5
97F2
330
9610
100
AcDbEntity
  8
1
  6
Continuous
100
AcDbLine
 10
409.4720459999998
 20
483.191162
 30
0.0
 11
408.9720459999998
 21
483.191162
 31
0.0
  0
LINE
  5
97F3
330
9610
100
AcDbEntity
  8
1
  6
Continuous
100
AcDbLine
 10
409.4720459999998
 20
498.1911619999998
 30
0.0
 11
408.9720459999998
 21
498.1911619999998
 31
0.0
  0
LINE
  5
97F4
330
9610
100
AcDbEntity
  8
4
  6
CENTER
100
AcDbLine
 10
424.7720639999998
 20
126.1911769999999
 30
0.0
 11
392.247648
 21
126.1911769999999
 31
0.0
  0
LINE
  5
97F5
330
9610
100
AcDbEntity
  8
1
  6
Continuous
100
AcDbLine
 10
396.4720459999999
 20
128.191154
 30
0.0
 11
396.4720459999999
 21
124.191154
 31
0.0
  0
LINE
  5
97F6
330
9610
100
AcDbEntity
  8
1
  6
Continuous
100
AcDbLine
 10
405.9720459999998
 20
130.191154
 30
0.0
 11
405.9720459999998
 21
122.191154
 31
0.0
  0
LINE
  5
97F7
330
9610
100
AcDbEntity
  8
1
  6
Continuous
100
AcDbLine
 10
407.4720459999999
 20
130.191154
 30
0.0
 11
405.9720459999998
 21
130.191154
 31
0.0
  0
LINE
  5
97F8
330
9610
100
AcDbEntity
  8
1
  6
Continuous
100
AcDbLine
 10
407.4720459999999
 20
122.191154
 30
0.0
 11
405.9720459999998
 21
122.191154
 31
0.0
  0
LINE
  5
97F9
330
9610
100
AcDbEntity
  8
1
  6
Continuous
100
AcDbLine
 10
405.9720459999998
 20
129.191154
 30
0.0
 11
397.4720459999998
 21
129.191154
 31
0.0
  0
LINE
  5
97FA
330
9610
100
AcDbEntity
  8
1
  6
Continuous
100
AcDbLine
 10
405.9720459999998
 20
123.191154
 30
0.0
 11
397.4720459999998
 21
123.191154
 31
0.0
  0
LINE
  5
97FB
330
9610
100
AcDbEntity
  8
2
  6
Continuous
100
AcDbLine
 10
405.4720459999998
 20
128.649651
 30
0.0
 11
396.9305419999998
 21
128.649651
 31
0.0
  0
LINE
  5
97FC
330
9610
100
AcDbEntity
  8
2
  6
Continuous
100
AcDbLine
 10
405.4720459999998
 20
123.732651
 30
0.0
 11
396.9305419999998
 21
123.732651
 31
0.0
  0
LINE
  5
97FD
330
9610
100
AcDbEntity
  8
1
  6
Continuous
100
AcDbLine
 10
405.4720459999998
 20
129.191154
 30
0.0
 11
405.4720459999998
 21
123.191154
 31
0.0
  0
LINE
  5
97FE
330
9610
100
AcDbEntity
  8
1
  6
Continuous
100
AcDbLine
 10
419.472046
 20
122.1911769999999
 30
0.0
 11
408.4720459999998
 21
122.1911769999999
 31
0.0
  0
LINE
  5
97FF
330
9610
100
AcDbEntity
  8
1
  6
Continuous
100
AcDbLine
 10
418.4720459999998
 20
116.947533
 30
0.0
 11
408.4720459999998
 21
116.947533
 31
0.0
  0
LINE
  5
9800
330
9610
100
AcDbEntity
  8
1
  6
Continuous
100
AcDbLine
 10
408.4720459999998
 20
118.947533
 30
0.0
 11
407.4720459999999
 21
118.947533
 31
0.0
  0
LINE
  5
9801
330
9610
100
AcDbEntity
  8
1
  6
Continuous
100
AcDbLine
 10
408.4720459999998
 20
123.71273
 30
0.0
 11
407.4720459999999
 21
123.71273
 31
0.0
  0
LINE
  5
9802
330
9610
100
AcDbEntity
  8
2
  6
Continuous
100
AcDbLine
 10
405.9720459999998
 20
123.443977
 30
0.0
 11
405.4720459999998
 21
123.7326579999999
 31
0.0
  0
LINE
  5
9803
330
9610
100
AcDbEntity
  8
2
  6
Continuous
100
AcDbLine
 10
405.9720459999998
 20
128.9383319999998
 30
0.0
 11
405.4720459999998
 21
128.649651
 31
0.0
  0
LINE
  5
9804
330
9610
100
AcDbEntity
  8
1
  6
Continuous
100
AcDbLine
 10
397.4720459999998
 20
129.191154
 30
0.0
 11
396.4720459999999
 21
128.1911389999999
 31
0.0
  0
LINE
  5
9805
330
9610
100
AcDbEntity
  8
1
  6
Continuous
100
AcDbLine
 10
397.4720459999998
 20
123.191154
 30
0.0
 11
396.4720459999999
 21
124.191154
 31
0.0
  0
LINE
  5
9806
330
9610
100
AcDbEntity
  8
4
  6
CENTER
100
AcDbLine
 10
403.4720459999999
 20
511.632019
 30
0.0
 11
403.4720459999999
 21
500.8114929999998
 31
0.0
  0
LINE
  5
9807
330
9610
100
AcDbEntity
  8
1
  6
Continuous
100
AcDbLine
 10
407.4720459999999
 20
335.691162
 30
0.0
 11
407.4720459999999
 21
118.947533
 31
0.0
  0
LINE
  5
9808
330
9610
100
AcDbEntity
  8
4
  6
CENTER
100
AcDbLine
 10
403.9720459999998
 20
367.691162
 30
0.0
 11
403.9720459999998
 21
357.691162
 31
0.0
  0
LINE
  5
9809
330
9610
100
AcDbEntity
  8
1
  6
Continuous
100
AcDbLine
 10
419.472046
 20
338.191162
 30
0.0
 11
419.472046
 21
117.947533
 31
0.0
  0
LINE
  5
980A
330
9610
100
AcDbEntity
  8
1
  6
Continuous
100
AcDbLine
 10
408.4720459999998
 20
338.191162
 30
0.0
 11
408.4720459999998
 21
116.947533
 31
0.0
  0
LINE
  5
980B
330
9610
100
AcDbEntity
  8
1
  6
Continuous
100
AcDbLine
 10
424.4720459999999
 20
318.485413
 30
0.0
 11
420.4720459999998
 21
318.485413
 31
0.0
  0
LINE
  5
980C
330
9610
100
AcDbEntity
  8
1
  6
Continuous
100
AcDbLine
 10
424.4720459999999
 20
318.485413
 30
0.0
 11
424.4720459999999
 21
313.441162
 31
0.0
  0
LINE
  5
980D
330
9610
100
AcDbEntity
  8
1
  6
Continuous
100
AcDbLine
 10
160.9573519999999
 20
572.638733
 30
0.0
 11
160.9573519999999
 21
594.638733
 31
0.0
  0
LINE
  5
980E
330
9610
100
AcDbEntity
  8
1
  6
Continuous
100
AcDbLine
 10
161.5573579999999
 20
591.388733
 30
0.0
 11
161.5573579999999
 21
594.638733
 31
0.0
  0
LINE
  5
980F
330
9610
100
AcDbEntity
  8
5
  6
PHANTOM
100
AcDbLine
 10
403.9720759999998
 20
352.1911929999998
 30
0.0
 11
404.4720759999998
 21
352.691162
 31
0.0
  0
LINE
  5
9810
330
9610
100
AcDbEntity
  8
5
  6
PHANTOM
100
AcDbLine
 10
406.472046
 20
352.691162
 30
0.0
 11
406.972046
 21
352.191162
 31
0.0
  0
LINE
  5
9811
330
9610
100
AcDbEntity
  8
5
  6
PHANTOM
100
AcDbLine
 10
171.557358
 20
352.691193
 30
0.0
 11
171.057343
 21
352.1911929999998
 31
0.0
  0
LINE
  5
9812
330
9610
100
AcDbEntity
  8
5
  6
PHANTOM
100
AcDbLine
 10
173.557343
 20
352.691162
 30
0.0
 11
174.0573429999998
 21
352.191162
 31
0.0
  0
LINE
  5
9813
330
9610
100
AcDbEntity
  8
1
  6
Continuous
100
AcDbLine
 10
43.605415
 20
351.374939
 30
0.0
 11
45.39459199999998
 21
346.007416
 31
0.0
  0
LINE
  5
9814
330
9610
100
AcDbEntity
  8
1
  6
Continuous
100
AcDbLine
 10
163.5573579999999
 20
495.191162
 30
0.0
 11
164.5573579999999
 21
495.191162
 31
0.0
  0
LINE
  5
9815
330
9610
100
AcDbEntity
  8
1
  6
Continuous
100
AcDbLine
 10
397.4720459999998
 20
129.191154
 30
0.0
 11
397.4720459999998
 21
123.191154
 31
0.0
  0
LINE
  5
9816
330
9610
100
AcDbEntity
  8
1
  6
Continuous
100
AcDbLine
 10
164.5573579999999
 20
495.191162
 30
0.0
 11
164.5573579999999
 21
493.191162
 31
0.0
  0
LINE
  5
9817
330
9610
100
AcDbEntity
  8
1
  6
Continuous
100
AcDbLine
 10
167.557358
 20
498.1911619999998
 30
0.0
 11
167.557358
 21
493.191162
 31
0.0
  0
LINE
  5
9818
330
9610
100
AcDbEntity
  8
1
  6
Continuous
100
AcDbLine
 10
166.557358
 20
494.691162
 30
0.0
 11
167.557358
 21
494.691162
 31
0.0
  0
LINE
  5
9819
330
9610
100
AcDbEntity
  8
1
  6
Continuous
100
AcDbLine
 10
166.557358
 20
494.691162
 30
0.0
 11
166.557358
 21
493.191162
 31
0.0
  0
LINE
  5
981A
330
9610
100
AcDbEntity
  8
1
  6
Continuous
100
AcDbLine
 10
166.557358
 20
579.6387329999999
 30
0.0
 11
166.557358
 21
587.638733
 31
0.0
  0
LINE
  5
981B
330
9610
100
AcDbEntity
  8
1
  6
Continuous
100
AcDbLine
 10
166.557358
 20
587.638733
 30
0.0
 11
167.557358
 21
587.638733
 31
0.0
  0
LINE
  5
981C
330
9610
100
AcDbEntity
  8
1
  6
Continuous
100
AcDbLine
 10
166.557358
 20
579.6387329999999
 30
0.0
 11
167.557358
 21
579.6387329999999
 31
0.0
  0
LINE
  5
981D
330
9610
100
AcDbEntity
  8
1
  6
Continuous
100
AcDbLine
 10
157.5573579999999
 20
594.4334109999998
 30
0.0
 11
157.5573579999999
 21
600.6387329999999
 31
0.0
  0
LINE
  5
981E
330
9610
100
AcDbEntity
  8
1
  6
Continuous
100
AcDbLine
 10
181.5573579999999
 20
128.191154
 30
0.0
 11
181.5573579999999
 21
124.191154
 31
0.0
  0
LINE
  5
981F
330
9610
100
AcDbEntity
  8
1
  6
Continuous
100
AcDbLine
 10
172.0573579999999
 20
130.191154
 30
0.0
 11
172.0573579999999
 21
122.191154
 31
0.0
  0
LINE
  5
9820
330
9610
100
AcDbEntity
  8
1
  6
Continuous
100
AcDbLine
 10
170.557358
 20
130.191154
 30
0.0
 11
172.0573579999999
 21
130.191154
 31
0.0
  0
LINE
  5
9821
330
9610
100
AcDbEntity
  8
1
  6
Continuous
100
AcDbLine
 10
170.557358
 20
122.191154
 30
0.0
 11
172.0573579999999
 21
122.191154
 31
0.0
  0
LINE
  5
9822
330
9610
100
AcDbEntity
  8
1
  6
Continuous
100
AcDbLine
 10
172.0573579999999
 20
129.191154
 30
0.0
 11
180.5573579999999
 21
129.191154
 31
0.0
  0
LINE
  5
9823
330
9610
100
AcDbEntity
  8
1
  6
Continuous
100
AcDbLine
 10
172.0573579999999
 20
123.191154
 30
0.0
 11
180.5573579999999
 21
123.191154
 31
0.0
  0
LINE
  5
9824
330
9610
100
AcDbEntity
  8
2
  6
Continuous
100
AcDbLine
 10
172.557358
 20
128.649651
 30
0.0
 11
181.098862
 21
128.649651
 31
0.0
  0
LINE
  5
9825
330
9610
100
AcDbEntity
  8
2
  6
Continuous
100
AcDbLine
 10
172.557358
 20
123.732651
 30
0.0
 11
181.098862
 21
123.732651
 31
0.0
  0
LINE
  5
9826
330
9610
100
AcDbEntity
  8
1
  6
Continuous
100
AcDbLine
 10
172.557358
 20
129.191154
 30
0.0
 11
172.557358
 21
123.191154
 31
0.0
  0
LINE
  5
9827
330
9610
100
AcDbEntity
  8
2
  6
Continuous
100
AcDbLine
 10
172.057365
 20
123.443985
 30
0.0
 11
172.557358
 21
123.7326579999999
 31
0.0
  0
LINE
  5
9828
330
9610
100
AcDbEntity
  8
2
  6
Continuous
100
AcDbLine
 10
172.0573579999999
 20
128.9383159999998
 30
0.0
 11
172.557358
 21
128.649651
 31
0.0
  0
LINE
  5
9829
330
9610
100
AcDbEntity
  8
1
  6
Continuous
100
AcDbLine
 10
180.55735
 20
129.1911389999999
 30
0.0
 11
181.55735
 21
128.1911389999999
 31
0.0
  0
LINE
  5
982A
330
9610
100
AcDbEntity
  8
1
  6
Continuous
100
AcDbLine
 10
180.5573579999999
 20
123.191154
 30
0.0
 11
181.5573579999999
 21
124.191154
 31
0.0
  0
LINE
  5
982B
330
9610
100
AcDbEntity
  8
1
  6
Continuous
100
AcDbLine
 10
180.5573579999999
 20
129.191154
 30
0.0
 11
180.5573579999999
 21
123.191154
 31
0.0
  0
LINE
  5
982C
330
9610
100
AcDbEntity
  8
1
  6
Continuous
100
AcDbLine
 10
181.5573579999999
 20
42.999977
 30
0.0
 11
181.5573579999999
 21
38.999977
 31
0.0
  0
LINE
  5
982D
330
9610
100
AcDbEntity
  8
1
  6
Continuous
100
AcDbLine
 10
170.557358
 20
44.999977
 30
0.0
 11
172.0573579999999
 21
44.999977
 31
0.0
  0
LINE
  5
982E
330
9610
100
AcDbEntity
  8
1
  6
Continuous
100
AcDbLine
 10
170.557358
 20
36.999977
 30
0.0
 11
172.0573579999999
 21
36.999977
 31
0.0
  0
LINE
  5
982F
330
9610
100
AcDbEntity
  8
1
  6
Continuous
100
AcDbLine
 10
172.0573579999999
 20
43.999977
 30
0.0
 11
180.5573579999999
 21
43.999977
 31
0.0
  0
LINE
  5
9830
330
9610
100
AcDbEntity
  8
1
  6
Continuous
100
AcDbLine
 10
172.0573579999999
 20
37.999977
 30
0.0
 11
180.5573579999999
 21
37.999977
 31
0.0
  0
LINE
  5
9831
330
9610
100
AcDbEntity
  8
2
  6
Continuous
100
AcDbLine
 10
172.557358
 20
43.458477
 30
0.0
 11
181.098862
 21
43.458477
 31
0.0
  0
LINE
  5
9832
330
9610
100
AcDbEntity
  8
2
  6
Continuous
100
AcDbLine
 10
172.557358
 20
38.541477
 30
0.0
 11
181.098862
 21
38.541477
 31
0.0
  0
LINE
  5
9833
330
9610
100
AcDbEntity
  8
2
  6
Continuous
100
AcDbLine
 10
172.05735
 20
38.2528
 30
0.0
 11
172.557358
 21
38.541477
 31
0.0
  0
LINE
  5
9834
330
9610
100
AcDbEntity
  8
2
  6
Continuous
100
AcDbLine
 10
172.0573579999999
 20
43.74715399999998
 30
0.0
 11
172.557358
 21
43.458477
 31
0.0
  0
LINE
  5
9835
330
9610
100
AcDbEntity
  8
1
  6
Continuous
100
AcDbLine
 10
180.5573579999999
 20
43.999977
 30
0.0
 11
181.5573579999999
 21
42.999977
 31
0.0
  0
LINE
  5
9836
330
9610
100
AcDbEntity
  8
1
  6
Continuous
100
AcDbLine
 10
180.5573579999999
 20
37.999977
 30
0.0
 11
181.5573579999999
 21
38.99998099999999
 31
0.0
  0
LINE
  5
9837
330
9610
100
AcDbEntity
  8
1
  6
Continuous
100
AcDbLine
 10
180.5573579999999
 20
43.999977
 30
0.0
 11
180.5573579999999
 21
37.999977
 31
0.0
  0
LINE
  5
9838
330
9610
100
AcDbEntity
  8
1
  6
Continuous
100
AcDbLine
 10
414.472046
 20
495.191162
 30
0.0
 11
414.472046
 21
338.191162
 31
0.0
  0
LINE
  5
9839
330
9610
100
AcDbEntity
  8
1
  6
Continuous
100
AcDbLine
 10
414.472046
 20
495.191162
 30
0.0
 11
413.4720459999998
 21
495.191162
 31
0.0
  0
LINE
  5
983A
330
9610
100
AcDbEntity
  8
1
  6
Continuous
100
AcDbLine
 10
413.4720459999998
 20
495.191162
 30
0.0
 11
413.4720459999998
 21
493.191162
 31
0.0
  0
LINE
  5
983B
330
9610
100
AcDbEntity
  8
1
  6
Continuous
100
AcDbLine
 10
411.472046
 20
494.691162
 30
0.0
 11
410.472046
 21
494.691162
 31
0.0
  0
LINE
  5
983C
330
9610
100
AcDbEntity
  8
1
  6
Continuous
100
AcDbLine
 10
410.472046
 20
498.1911619999998
 30
0.0
 11
410.472046
 21
493.191162
 31
0.0
  0
LINE
  5
983D
330
9610
100
AcDbEntity
  8
1
  6
Continuous
100
AcDbLine
 10
411.472046
 20
494.691162
 30
0.0
 11
411.472046
 21
493.191162
 31
0.0
  0
LINE
  5
983E
330
9610
100
AcDbEntity
  8
1
  6
Continuous
100
AcDbLine
 10
410.472046
 20
498.1911619999998
 30
0.0
 11
409.4720459999998
 21
498.1911619999998
 31
0.0
  0
LINE
  5
983F
330
9610
100
AcDbEntity
  8
1
  6
Continuous
100
AcDbLine
 10
420.4720459999998
 20
313.441162
 30
0.0
 11
420.4720459999998
 21
299.691162
 31
0.0
  0
ARC
  5
9840
330
9610
100
AcDbEntity
  8
1
  6
Continuous
100
AcDbCircle
 10
154.057358
 20
309.691162
 30
0.0
 40
3.5
100
AcDbArc
 50
269.9999969999999
 51
90.00000300000001
  0
ARC
  5
9841
330
9610
100
AcDbEntity
  8
1
  6
Continuous
100
AcDbCircle
 10
141.0573579999999
 20
309.691162
 30
0.0
 40
2.5
100
AcDbArc
 50
90.00000300000001
 51
270.000001
  0
CIRCLE
  5
9842
330
9610
100
AcDbEntity
  8
1
  6
Continuous
100
AcDbCircle
 10
154.057358
 20
309.691162
 30
0.0
 40
1.5
  0
ARC
  5
9843
330
9610
100
AcDbEntity
  8
1
  6
Continuous
100
AcDbCircle
 10
142.557358
 20
307.941162
 30
0.0
 40
1.0
100
AcDbArc
 50
0.0
 51
180.000005
  0
ARC
  5
9844
330
9610
100
AcDbEntity
  8
1
  6
Continuous
100
AcDbCircle
 10
147.557358
 20
307.591187
 30
0.0
 40
1.0
100
AcDbArc
 50
0.0
 51
180.000005
  0
ARC
  5
9845
330
9610
100
AcDbEntity
  8
1
  6
Continuous
100
AcDbCircle
 10
147.557358
 20
311.7911680000001
 30
0.0
 40
1.0
100
AcDbArc
 50
179.9999909999999
 51
0.00001
  0
ARC
  5
9846
330
9610
100
AcDbEntity
  8
1
  6
Continuous
100
AcDbCircle
 10
142.557358
 20
311.441162
 30
0.0
 40
1.0
100
AcDbArc
 50
179.9999909999999
 51
0.00001
  0
CIRCLE
  5
9847
330
9610
100
AcDbEntity
  8
5
  6
PHANTOM
100
AcDbCircle
 10
38.5
 20
346.691162
 30
0.0
 40
4.0
  0
CIRCLE
  5
9848
330
9610
100
AcDbEntity
  8
1
  6
Continuous
100
AcDbCircle
 10
38.5
 20
126.1911769999999
 30
0.0
 40
5.25
  0
CIRCLE
  5
9849
330
9610
100
AcDbEntity
  8
1
  6
Continuous
100
AcDbCircle
 10
38.5
 20
126.1911769999999
 30
0.0
 40
5.0
  0
ARC
  5
984A
330
9610
100
AcDbEntity
  8
1
  6
Continuous
100
AcDbCircle
 10
38.5
 20
126.1911769999999
 30
0.0
 40
4.5
100
AcDbArc
 50
6.379369999999997
 51
173.6206359999999
  0
ARC
  5
984B
330
9610
100
AcDbEntity
  8
1
  6
Continuous
100
AcDbCircle
 10
38.5
 20
126.1911769999999
 30
0.0
 40
4.5
100
AcDbArc
 50
186.379364
 51
353.62063
  0
ARC
  5
984C
330
9610
100
AcDbEntity
  8
5
  6
PHANTOM
100
AcDbCircle
 10
38.0
 20
294.691162
 30
0.0
 40
2.0
100
AcDbArc
 50
269.9999969999999
 51
0.0
  0
ARC
  5
984D
330
9610
100
AcDbEntity
  8
5
  6
PHANTOM
100
AcDbCircle
 10
35.0
 20
294.691162
 30
0.0
 40
2.0
100
AcDbArc
 50
179.9999909999999
 51
270.000001
  0
ARC
  5
984E
330
9610
100
AcDbEntity
  8
5
  6
PHANTOM
100
AcDbCircle
 10
35.0
 20
324.691162
 30
0.0
 40
2.0
100
AcDbArc
 50
90.00000300000001
 51
180.000005
  0
ARC
  5
984F
330
9610
100
AcDbEntity
  8
5
  6
PHANTOM
100
AcDbCircle
 10
38.0
 20
324.691162
 30
0.0
 40
2.0
100
AcDbArc
 50
0.0
 51
90.00000300000001
  0
ARC
  5
9850
330
9610
100
AcDbEntity
  8
1
  6
Continuous
100
AcDbCircle
 10
36.5
 20
309.691162
 30
0.0
 40
10.0
100
AcDbArc
 50
200.487311
 51
339.512685
  0
ARC
  5
9851
330
9610
100
AcDbEntity
  8
1
  6
Continuous
100
AcDbCircle
 10
51.5
 20
308.191162
 30
0.0
 40
2.0
100
AcDbArc
 50
269.9999969999999
 51
0.0
  0
ARC
  5
9852
330
9610
100
AcDbEntity
  8
1
  6
Continuous
100
AcDbCircle
 10
51.5
 20
311.191162
 30
0.0
 40
2.0
100
AcDbArc
 50
0.0
 51
90.00000300000001
  0
ARC
  5
9853
330
9610
100
AcDbEntity
  8
1
  6
Continuous
100
AcDbCircle
 10
21.49999999999999
 20
311.191162
 30
0.0
 40
2.0
100
AcDbArc
 50
90.00000300000001
 51
180.000005
  0
ARC
  5
9854
330
9610
100
AcDbEntity
  8
1
  6
Continuous
100
AcDbCircle
 10
21.49999999999999
 20
308.191162
 30
0.0
 40
2.0
100
AcDbArc
 50
179.9999909999999
 51
270.000001
  0
ARC
  5
9855
330
9610
100
AcDbEntity
  8
1
  6
Continuous
100
AcDbCircle
 10
36.5
 20
309.691162
 30
0.0
 40
10.0
100
AcDbArc
 50
20.487315
 51
159.5126889999999
  0
ARC
  5
9856
330
9610
100
AcDbEntity
  8
1
  6
Continuous
100
AcDbCircle
 10
36.5
 20
309.691162
 30
0.0
 40
10.0
100
AcDbArc
 50
120.0000029999998
 51
149.999997
  0
ARC
  5
9857
330
9610
100
AcDbEntity
  8
1
  6
Continuous
100
AcDbCircle
 10
28.70577
 20
314.191162
 30
0.0
 40
1.0
100
AcDbArc
 50
149.999997
 51
270.000001
  0
ARC
  5
9858
330
9610
100
AcDbEntity
  8
1
  6
Continuous
100
AcDbCircle
 10
32.0
 20
317.4854129999999
 30
0.0
 40
1.0
100
AcDbArc
 50
0.0
 51
120.0000029999998
  0
ARC
  5
9859
330
9610
100
AcDbEntity
  8
1
  6
Continuous
100
AcDbCircle
 10
32.0
 20
314.191162
 30
0.0
 40
1.0
100
AcDbArc
 50
269.9999969999999
 51
0.0
  0
ARC
  5
985A
330
9610
100
AcDbEntity
  8
5
  6
PHANTOM
100
AcDbCircle
 10
38.5
 20
341.691162
 30
0.0
 40
12.5
100
AcDbArc
 50
36.86989699999998
 51
130.5651179999999
  0
ARC
  5
985B
330
9610
100
AcDbEntity
  8
5
  6
PHANTOM
100
AcDbCircle
 10
30.5
 20
349.191162
 30
0.0
 40
2.0
100
AcDbArc
 50
53.130102
 51
180.000005
  0
ARC
  5
985C
330
9610
100
AcDbEntity
  8
5
  6
PHANTOM
100
AcDbCircle
 10
45.49999999999999
 20
349.191162
 30
0.0
 40
2.0
100
AcDbArc
 50
48.189686
 51
180.000005
  0
ARC
  5
985D
330
9610
100
AcDbEntity
  8
1
  6
Continuous
100
AcDbCircle
 10
38.0
 20
311.191162
 30
0.0
 40
12.0
100
AcDbArc
 50
30.000001
 51
60.000002
  0
ARC
  5
985E
330
9610
100
AcDbEntity
  8
1
  6
Continuous
100
AcDbCircle
 10
38.0
 20
311.191162
 30
0.0
 40
11.0
100
AcDbArc
 50
30.000001
 51
60.000002
  0
ARC
  5
985F
330
9610
100
AcDbEntity
  8
1
  6
Continuous
100
AcDbCircle
 10
41.09998299999999
 20
335.8411869999998
 30
0.0
 40
0.6
100
AcDbArc
 50
90.00000300000001
 51
270.000001
  0
CIRCLE
  5
9860
330
9610
100
AcDbEntity
  8
1
  6
Continuous
100
AcDbCircle
 10
41.749985
 20
329.2411799999998
 30
0.0
 40
1.1
  0
ARC
  5
9861
330
9610
100
AcDbEntity
  8
1
  6
Continuous
100
AcDbCircle
 10
41.749985
 20
326.8411869999998
 30
0.0
 40
1.1
100
AcDbArc
 50
333.927457
 51
206.711891
  0
CIRCLE
  5
9862
330
9610
100
AcDbEntity
  8
1
  6
Continuous
100
AcDbCircle
 10
49.249985
 20
323.816162
 30
0.0
 40
1.024999999999999
  0
ARC
  5
9863
330
9610
100
AcDbEntity
  8
1
  6
Continuous
100
AcDbCircle
 10
49.249985
 20
321.566162
 30
0.0
 40
1.024999999999999
100
AcDbArc
 50
325.354108
 51
213.325577
  0
ARC
  5
9864
330
9610
100
AcDbEntity
  8
1
  6
Continuous
100
AcDbCircle
 10
28.56623499999999
 20
152.5726929999999
 30
0.0
 40
2.135054999999999
100
AcDbArc
 50
48.93209999999999
 51
131.067901
  0
ARC
  5
9865
330
9610
100
AcDbEntity
  8
1
  6
Continuous
100
AcDbCircle
 10
28.16971399999999
 20
153.027756
 30
0.0
 40
1.531479
100
AcDbArc
 50
131.067901
 51
199.1927959999999
  0
ARC
  5
9866
330
9610
100
AcDbEntity
  8
1
  6
Continuous
100
AcDbCircle
 10
28.962757
 20
153.027756
 30
0.0
 40
1.531479
100
AcDbArc
 50
340.8071969999999
 51
48.93209999999999
  0
ARC
  5
9867
330
9610
100
AcDbEntity
  8
1
  6
Continuous
100
AcDbCircle
 10
29.439869
 20
152.8616639999999
 30
0.0
 40
1.026286999999999
100
AcDbArc
 50
275.65924
 51
340.8071969999999
  0
ARC
  5
9868
330
9610
100
AcDbEntity
  8
1
  6
Continuous
100
AcDbCircle
 10
27.692602
 20
152.8616639999999
 30
0.0
 40
1.026286999999999
100
AcDbArc
 50
199.192799
 51
264.340755
  0
ARC
  5
9869
330
9610
100
AcDbEntity
  8
1
  6
Continuous
100
AcDbCircle
 10
29.36726399999999
 20
142.764801
 30
0.0
 40
1.026286999999999
100
AcDbArc
 50
275.65924
 51
340.8071969999999
  0
ARC
  5
986A
330
9610
100
AcDbEntity
  8
1
  6
Continuous
100
AcDbCircle
 10
28.890152
 20
142.9308929999999
 30
0.0
 40
1.531479
100
AcDbArc
 50
340.8071969999999
 51
48.93209999999999
  0
ARC
  5
986B
330
9610
100
AcDbEntity
  8
1
  6
Continuous
100
AcDbCircle
 10
28.493629
 20
142.47583
 30
0.0
 40
2.135054999999999
100
AcDbArc
 50
48.93209999999999
 51
131.067901
  0
ARC
  5
986C
330
9610
100
AcDbEntity
  8
1
  6
Continuous
100
AcDbCircle
 10
28.09710900000001
 20
142.9308929999999
 30
0.0
 40
1.531479
100
AcDbArc
 50
131.067901
 51
186.591397
  0
ARC
  5
986D
330
9610
100
AcDbEntity
  8
1
  6
Continuous
100
AcDbCircle
 10
28.006235
 20
142.9203949999999
 30
0.0
 40
1.439999999999999
100
AcDbArc
 50
179.582189
 51
281.6541069999999
  0
ARC
  5
986E
330
9610
100
AcDbEntity
  8
1
  6
Continuous
100
AcDbCircle
 10
28.545031
 20
156.769958
 30
0.0
 40
2.135054999999999
100
AcDbArc
 50
48.93209999999999
 51
131.067901
  0
ARC
  5
986F
330
9610
100
AcDbEntity
  8
1
  6
Continuous
100
AcDbCircle
 10
28.545031
 20
157.6800689999998
 30
0.0
 40
2.135054999999999
100
AcDbArc
 50
228.9320989999999
 51
311.067896
  0
ARC
  5
9870
330
9610
100
AcDbEntity
  8
1
  6
Continuous
100
AcDbCircle
 10
28.14850999999999
 20
157.225006
 30
0.0
 40
1.531479
100
AcDbArc
 50
131.067901
 51
228.932109
  0
ARC
  5
9871
330
9610
100
AcDbEntity
  8
1
  6
Continuous
100
AcDbCircle
 10
28.941551
 20
157.225006
 30
0.0
 40
1.531479
100
AcDbArc
 50
311.067896
 51
48.93209999999999
  0
ARC
  5
9872
330
9610
100
AcDbEntity
  8
1
  6
Continuous
100
AcDbCircle
 10
155.5573579999999
 20
54.0
 30
0.0
 40
2.0
100
AcDbArc
 50
0.0
 51
90.00000300000001
  0
ARC
  5
9873
330
9610
100
AcDbEntity
  8
1
  6
Continuous
100
AcDbCircle
 10
155.5573579999999
 20
24.0
 30
0.0
 40
2.0
100
AcDbArc
 50
269.9999969999999
 51
0.0
  0
ARC
  5
9874
330
9610
100
AcDbEntity
  8
1
  6
Continuous
100
AcDbCircle
 10
153.5573579999999
 20
40.75
 30
0.0
 40
2.0
100
AcDbArc
 50
90.00000300000001
 51
180.000005
  0
ARC
  5
9875
330
9610
100
AcDbEntity
  8
1
  6
Continuous
100
AcDbCircle
 10
153.5573579999999
 20
37.25
 30
0.0
 40
2.0
100
AcDbArc
 50
179.9999909999999
 51
270.000001
  0
ARC
  5
9876
330
9610
100
AcDbEntity
  8
1
  6
Continuous
100
AcDbCircle
 10
45.49999999999999
 20
493.191162
 30
0.0
 40
2.0
100
AcDbArc
 50
48.189686
 51
180.000005
  0
CIRCLE
  5
9877
330
9610
100
AcDbEntity
  8
1
  6
Continuous
100
AcDbCircle
 10
38.5
 20
490.691162
 30
0.0
 40
4.0
  0
ARC
  5
9878
330
9610
100
AcDbEntity
  8
1
  6
Continuous
100
AcDbCircle
 10
38.5
 20
485.6911619999998
 30
0.0
 40
12.5
100
AcDbArc
 50
36.86989699999998
 51
130.5651179999999
  0
ARC
  5
9879
330
9610
100
AcDbEntity
  8
1
  6
Continuous
100
AcDbCircle
 10
30.5
 20
493.191162
 30
0.0
 40
2.0
100
AcDbArc
 50
53.130102
 51
180.000005
  0
CIRCLE
  5
987A
330
9610
100
AcDbEntity
  8
1
  6
Continuous
100
AcDbCircle
 10
174.557358
 20
58.0
 30
0.0
 40
4.0
  0
CIRCLE
  5
987B
330
9610
100
AcDbEntity
  8
1
  6
Continuous
100
AcDbCircle
 10
174.557358
 20
24.0
 30
0.0
 40
4.0
  0
CIRCLE
  5
987C
330
9610
100
AcDbEntity
  8
1
  6
Continuous
100
AcDbCircle
 10
174.557358
 20
24.0
 30
0.0
 40
2.5
  0
CIRCLE
  5
987D
330
9610
100
AcDbEntity
  8
1
  6
Continuous
100
AcDbCircle
 10
174.557358
 20
58.0
 30
0.0
 40
2.5
  0
ARC
  5
987E
330
9610
100
AcDbEntity
  8
1
  6
Continuous
100
AcDbCircle
 10
171.0573579999999
 20
50.0
 30
0.0
 40
2.0
100
AcDbArc
 50
269.9999969999999
 51
90.00000300000001
  0
ARC
  5
987F
330
9610
100
AcDbEntity
  8
1
  6
Continuous
100
AcDbCircle
 10
171.0573579999999
 20
32.0
 30
0.0
 40
2.0
100
AcDbArc
 50
269.9999969999999
 51
90.00000300000001
  0
ARC
  5
9880
330
9610
100
AcDbEntity
  8
1
  6
Continuous
100
AcDbCircle
 10
38.5
 20
136.947525
 30
0.0
 40
20.0
100
AcDbArc
 50
227.545843
 51
312.454152
  0
ARC
  5
9881
330
9610
100
AcDbEntity
  8
1
  6
Continuous
100
AcDbCircle
 10
145.1611479999999
 20
27.0
 30
0.0
 40
5.0
100
AcDbArc
 50
198.4349489999999
 51
269.9999969999999
  0
ARC
  5
9882
330
9610
100
AcDbEntity
  8
1
  6
Continuous
100
AcDbCircle
 10
145.1611479999999
 20
51.0
 30
0.0
 40
5.0
100
AcDbArc
 50
90.00000300000001
 51
161.565051
  0
ARC
  5
9883
330
9610
100
AcDbEntity
  8
1
  6
Continuous
100
AcDbCircle
 10
169.0573579999998
 20
60.64593499999999
 30
0.0
 40
2.0
100
AcDbArc
 50
111.8014059999998
 51
180.000005
  0
ARC
  5
9884
330
9610
100
AcDbEntity
  8
1
  6
Continuous
100
AcDbCircle
 10
180.057358
 20
65.045937
 30
0.0
 40
2.0
100
AcDbArc
 50
0.0
 51
111.8014059999998
  0
ARC
  5
9885
330
9610
100
AcDbEntity
  8
1
  6
Continuous
100
AcDbCircle
 10
180.057358
 20
16.95406499999998
 30
0.0
 40
2.0
100
AcDbArc
 50
248.1985939999999
 51
0.0
  0
ARC
  5
9886
330
9610
100
AcDbEntity
  8
1
  6
Continuous
100
AcDbCircle
 10
169.0573579999998
 20
21.354067
 30
0.0
 40
2.0
100
AcDbArc
 50
179.9999909999999
 51
248.198583
  0
ARC
  5
9887
330
9610
100
AcDbEntity
  8
1
  6
Continuous
100
AcDbCircle
 10
48.609982
 20
306.873138
 30
0.0
 40
5.643894999999997
100
AcDbArc
 50
70.434844
 51
136.7371359999999
  0
ARC
  5
9888
330
9610
100
AcDbEntity
  8
1
  6
Continuous
100
AcDbCircle
 10
48.609982
 20
312.5091859999999
 30
0.0
 40
5.643894999999997
100
AcDbArc
 50
223.2628639999998
 51
289.565156
  0
ARC
  5
9889
330
9610
100
AcDbEntity
  8
1
  6
Continuous
100
AcDbCircle
 10
49.85156299999999
 20
310.659912
 30
0.0
 40
1.662887999999998
100
AcDbArc
 50
352.4409330000001
 51
76.645296
  0
ARC
  5
988A
330
9610
100
AcDbEntity
  8
1
  6
Continuous
100
AcDbCircle
 10
49.85156299999999
 20
308.722412
 30
0.0
 40
1.662887999999998
100
AcDbArc
 50
283.354704
 51
7.559066999999997
  0
ARC
  5
988B
330
9610
100
AcDbEntity
  8
1
  6
Continuous
100
AcDbCircle
 10
53.02734799999999
 20
308.417755
 30
0.0
 40
0.524148
100
AcDbArc
 50
25.61083200000001
 51
90.00000300000001
  0
ARC
  5
988C
330
9610
100
AcDbEntity
  8
1
  6
Continuous
100
AcDbCircle
 10
52.939877
 20
311.022919
 30
0.0
 40
0.584848
100
AcDbArc
 50
264.09937
 51
343.280764
  0
ARC
  5
988D
330
9610
100
AcDbEntity
  8
1
  6
Continuous
100
AcDbCircle
 10
23.14843799999999
 20
308.722412
 30
0.0
 40
1.662887999999998
100
AcDbArc
 50
172.4409389999999
 51
256.6452869999998
  0
ARC
  5
988E
330
9610
100
AcDbEntity
  8
1
  6
Continuous
100
AcDbCircle
 10
19.97265099999999
 20
308.417755
 30
0.0
 40
0.524148
100
AcDbArc
 50
90.00000300000001
 51
154.389173
  0
ARC
  5
988F
330
9610
100
AcDbEntity
  8
1
  6
Continuous
100
AcDbCircle
 10
20.060125
 20
311.022919
 30
0.0
 40
0.584848
100
AcDbArc
 50
196.7192329999999
 51
275.9006319999999
  0
ARC
  5
9890
330
9610
100
AcDbEntity
  8
1
  6
Continuous
100
AcDbCircle
 10
23.14843799999999
 20
310.659912
 30
0.0
 40
1.662887999999998
100
AcDbArc
 50
103.354703
 51
187.559071
  0
ARC
  5
9891
330
9610
100
AcDbEntity
  8
1
  6
Continuous
100
AcDbCircle
 10
24.39001799999999
 20
306.873138
 30
0.0
 40
5.643894999999997
100
AcDbArc
 50
43.262862
 51
109.565155
  0
ARC
  5
9892
330
9610
100
AcDbEntity
  8
1
  6
Continuous
100
AcDbCircle
 10
24.39001799999999
 20
312.5091859999999
 30
0.0
 40
5.643894999999997
100
AcDbArc
 50
250.4348450000001
 51
316.737138
  0
ARC
  5
9893
330
9610
100
AcDbEntity
  8
1
  6
Continuous
100
AcDbCircle
 10
44.445908
 20
465.691162
 30
0.0
 40
1.0
100
AcDbArc
 50
341.5650509999999
 51
18.43494899999998
  0
ARC
  5
9894
330
9610
100
AcDbEntity
  8
1
  6
Continuous
100
AcDbCircle
 10
44.554092
 20
459.691162
 30
0.0
 40
1.0
100
AcDbArc
 50
161.565051
 51
198.4349449999999
  0
ARC
  5
9895
330
9610
100
AcDbEntity
  8
1
  6
Continuous
100
AcDbCircle
 10
44.445908
 20
453.691162
 30
0.0
 40
1.0
100
AcDbArc
 50
341.5650509999999
 51
18.43494899999998
  0
ARC
  5
9896
330
9610
100
AcDbEntity
  8
1
  6
Continuous
100
AcDbCircle
 10
44.554092
 20
447.691162
 30
0.0
 40
1.0
100
AcDbArc
 50
161.565051
 51
198.4349449999999
  0
ARC
  5
9897
330
9610
100
AcDbEntity
  8
1
  6
Continuous
100
AcDbCircle
 10
44.554092
 20
435.6911619999998
 30
0.0
 40
1.0
100
AcDbArc
 50
161.565051
 51
198.4349449999999
  0
ARC
  5
9898
330
9610
100
AcDbEntity
  8
1
  6
Continuous
100
AcDbCircle
 10
44.445908
 20
429.691162
 30
0.0
 40
1.0
100
AcDbArc
 50
341.5650509999999
 51
18.43494899999998
  0
ARC
  5
9899
330
9610
100
AcDbEntity
  8
1
  6
Continuous
100
AcDbCircle
 10
44.554092
 20
423.6911619999998
 30
0.0
 40
1.0
100
AcDbArc
 50
161.565051
 51
198.4349449999999
  0
ARC
  5
989A
330
9610
100
AcDbEntity
  8
1
  6
Continuous
100
AcDbCircle
 10
44.445908
 20
417.691162
 30
0.0
 40
1.0
100
AcDbArc
 50
341.5650509999999
 51
18.43494899999998
  0
ARC
  5
989B
330
9610
100
AcDbEntity
  8
1
  6
Continuous
100
AcDbCircle
 10
44.554092
 20
411.691162
 30
0.0
 40
1.0
100
AcDbArc
 50
161.565051
 51
198.4349449999999
  0
ARC
  5
989C
330
9610
100
AcDbEntity
  8
1
  6
Continuous
100
AcDbCircle
 10
44.445908
 20
405.691162
 30
0.0
 40
1.0
100
AcDbArc
 50
341.5650509999999
 51
18.43494899999998
  0
ARC
  5
989D
330
9610
100
AcDbEntity
  8
1
  6
Continuous
100
AcDbCircle
 10
44.554092
 20
399.691162
 30
0.0
 40
1.0
100
AcDbArc
 50
161.565051
 51
198.4349449999999
  0
ARC
  5
989E
330
9610
100
AcDbEntity
  8
1
  6
Continuous
100
AcDbCircle
 10
44.445908
 20
393.691162
 30
0.0
 40
1.0
100
AcDbArc
 50
341.5650509999999
 51
18.43494899999998
  0
ARC
  5
989F
330
9610
100
AcDbEntity
  8
1
  6
Continuous
100
AcDbCircle
 10
44.554092
 20
387.691162
 30
0.0
 40
1.0
100
AcDbArc
 50
161.565051
 51
198.4349449999999
  0
ARC
  5
98A0
330
9610
100
AcDbEntity
  8
1
  6
Continuous
100
AcDbCircle
 10
44.445908
 20
381.691162
 30
0.0
 40
1.0
100
AcDbArc
 50
341.5650509999999
 51
18.43494899999998
  0
ARC
  5
98A1
330
9610
100
AcDbEntity
  8
1
  6
Continuous
100
AcDbCircle
 10
44.554092
 20
375.691162
 30
0.0
 40
1.0
100
AcDbArc
 50
161.565051
 51
198.4349449999999
  0
ARC
  5
98A2
330
9610
100
AcDbEntity
  8
1
  6
Continuous
100
AcDbCircle
 10
44.445908
 20
369.691162
 30
0.0
 40
1.0
100
AcDbArc
 50
341.5650509999999
 51
18.43494899999998
  0
ARC
  5
98A3
330
9610
100
AcDbEntity
  8
1
  6
Continuous
100
AcDbCircle
 10
44.554092
 20
363.691162
 30
0.0
 40
1.0
100
AcDbArc
 50
161.565051
 51
198.4349449999999
  0
ARC
  5
98A4
330
9610
100
AcDbEntity
  8
1
  6
Continuous
100
AcDbCircle
 10
44.445908
 20
357.691162
 30
0.0
 40
1.0
100
AcDbArc
 50
341.5650509999999
 51
18.43494899999998
  0
ARC
  5
98A5
330
9610
100
AcDbEntity
  8
1
  6
Continuous
100
AcDbCircle
 10
44.554092
 20
339.691162
 30
0.0
 40
1.0
100
AcDbArc
 50
161.565051
 51
198.4349449999999
  0
ARC
  5
98A6
330
9610
100
AcDbEntity
  8
1
  6
Continuous
100
AcDbCircle
 10
44.445908
 20
345.691162
 30
0.0
 40
1.0
100
AcDbArc
 50
341.5650509999999
 51
18.43494899999998
  0
ARC
  5
98A7
330
9610
100
AcDbEntity
  8
1
  6
Continuous
100
AcDbCircle
 10
44.445908
 20
441.691162
 30
0.0
 40
1.0
100
AcDbArc
 50
341.5650509999999
 51
18.43494899999998
  0
ARC
  5
98A8
330
9610
100
AcDbEntity
  8
1
  6
Continuous
100
AcDbCircle
 10
155.5573579999999
 20
570.638733
 30
0.0
 40
2.0
100
AcDbArc
 50
269.9999969999999
 51
0.0
  0
ARC
  5
98A9
330
9610
100
AcDbEntity
  8
1
  6
Continuous
100
AcDbCircle
 10
155.5573579999999
 20
600.6387329999999
 30
0.0
 40
2.0
100
AcDbArc
 50
0.0
 51
90.00000300000001
  0
ARC
  5
98AA
330
9610
100
AcDbEntity
  8
1
  6
Continuous
100
AcDbCircle
 10
153.5573579999999
 20
583.888733
 30
0.0
 40
2.0
100
AcDbArc
 50
179.9999909999999
 51
270.000001
  0
ARC
  5
98AB
330
9610
100
AcDbEntity
  8
1
  6
Continuous
100
AcDbCircle
 10
153.5573579999999
 20
587.388733
 30
0.0
 40
2.0
100
AcDbArc
 50
90.00000300000001
 51
180.000005
  0
CIRCLE
  5
98AC
330
9610
100
AcDbEntity
  8
1
  6
Continuous
100
AcDbCircle
 10
174.557358
 20
600.6387329999999
 30
0.0
 40
2.5
  0
CIRCLE
  5
98AD
330
9610
100
AcDbEntity
  8
1
  6
Continuous
100
AcDbCircle
 10
174.557358
 20
566.638733
 30
0.0
 40
2.5
  0
ARC
  5
98AE
330
9610
100
AcDbEntity
  8
1
  6
Continuous
100
AcDbCircle
 10
171.0573579999999
 20
574.638733
 30
0.0
 40
2.0
100
AcDbArc
 50
269.9999969999999
 51
90.00000300000001
  0
ARC
  5
98AF
330
9610
100
AcDbEntity
  8
1
  6
Continuous
100
AcDbCircle
 10
171.0573579999999
 20
592.6387329999998
 30
0.0
 40
2.0
100
AcDbArc
 50
269.9999969999999
 51
90.00000300000001
  0
ARC
  5
98B0
330
9610
100
AcDbEntity
  8
1
  6
Continuous
100
AcDbCircle
 10
145.1611479999999
 20
597.638733
 30
0.0
 40
5.0
100
AcDbArc
 50
90.00000300000001
 51
161.565051
  0
ARC
  5
98B1
330
9610
100
AcDbEntity
  8
1
  6
Continuous
100
AcDbCircle
 10
145.1611479999999
 20
573.638733
 30
0.0
 40
5.0
100
AcDbArc
 50
198.4349489999999
 51
269.9999969999999
  0
ARC
  5
98B2
330
9610
100
AcDbEntity
  8
1
  6
Continuous
100
AcDbCircle
 10
169.0573579999998
 20
563.992798
 30
0.0
 40
2.0
100
AcDbArc
 50
179.9999909999999
 51
248.198583
  0
ARC
  5
98B3
330
9610
100
AcDbEntity
  8
1
  6
Continuous
100
AcDbCircle
 10
180.057358
 20
559.5927729999998
 30
0.0
 40
2.0
100
AcDbArc
 50
248.1985939999999
 51
0.0
  0
ARC
  5
98B4
330
9610
100
AcDbEntity
  8
1
  6
Continuous
100
AcDbCircle
 10
180.057358
 20
607.6846309999997
 30
0.0
 40
2.0
100
AcDbArc
 50
0.0
 51
111.8014059999998
  0
ARC
  5
98B5
330
9610
100
AcDbEntity
  8
1
  6
Continuous
100
AcDbCircle
 10
169.0573579999998
 20
603.284668
 30
0.0
 40
2.0
100
AcDbArc
 50
111.8014059999998
 51
180.000005
  0
ARC
  5
98B6
330
9610
100
AcDbEntity
  8
1
  6
Continuous
100
AcDbCircle
 10
164.5573579999999
 20
592.6387329999998
 30
0.0
 40
1.0
100
AcDbArc
 50
90.00000300000001
 51
180.000005
  0
ARC
  5
98B7
330
9610
100
AcDbEntity
  8
1
  6
Continuous
100
AcDbCircle
 10
164.5573579999999
 20
574.638733
 30
0.0
 40
1.0
100
AcDbArc
 50
179.9999909999999
 51
270.000001
  0
ARC
  5
98B8
330
9610
100
AcDbEntity
  8
1
  6
Continuous
100
AcDbCircle
 10
167.557358
 20
574.638733
 30
0.0
 40
1.0
100
AcDbArc
 50
269.9999969999999
 51
0.0
  0
ARC
  5
98B9
330
9610
100
AcDbEntity
  8
1
  6
Continuous
100
AcDbCircle
 10
167.557358
 20
592.6387329999998
 30
0.0
 40
1.0
100
AcDbArc
 50
0.0
 51
90.00000300000001
  0
ARC
  5
98BA
330
9610
100
AcDbEntity
  8
1
  6
Continuous
100
AcDbCircle
 10
163.5573579999999
 20
573.638733
 30
0.0
 40
1.0
100
AcDbArc
 50
179.9999909999999
 51
270.000001
  0
ARC
  5
98BB
330
9610
100
AcDbEntity
  8
1
  6
Continuous
100
AcDbCircle
 10
162.557358
 20
572.638733
 30
0.0
 40
1.0
100
AcDbArc
 50
179.9999909999999
 51
270.000001
  0
ARC
  5
98BC
330
9610
100
AcDbEntity
  8
1
  6
Continuous
100
AcDbCircle
 10
162.557358
 20
594.638733
 30
0.0
 40
1.0
100
AcDbArc
 50
90.00000300000001
 51
180.000005
  0
ARC
  5
98BD
330
9610
100
AcDbEntity
  8
1
  6
Continuous
100
AcDbCircle
 10
163.5573579999999
 20
593.638733
 30
0.0
 40
1.0
100
AcDbArc
 50
90.00000300000001
 51
180.000005
  0
ARC
  5
98BE
330
9610
100
AcDbEntity
  8
1
  6
Continuous
100
AcDbCircle
 10
276.0147089999999
 20
308.191162
 30
0.0
 40
2.0
100
AcDbArc
 50
179.9999909999999
 51
255.522486
  0
ARC
  5
98BF
330
9610
100
AcDbEntity
  8
1
  6
Continuous
100
AcDbCircle
 10
276.0147089999999
 20
311.191162
 30
0.0
 40
2.0
100
AcDbArc
 50
104.477511
 51
180.000005
  0
ARC
  5
98C0
330
9610
100
AcDbEntity
  8
1
  6
Continuous
100
AcDbCircle
 10
306.014709
 20
311.191162
 30
0.0
 40
2.0
100
AcDbArc
 50
0.0
 51
90.00000300000001
  0
ARC
  5
98C1
330
9610
100
AcDbEntity
  8
1
  6
Continuous
100
AcDbCircle
 10
306.014709
 20
308.191162
 30
0.0
 40
2.0
100
AcDbArc
 50
269.9999969999999
 51
0.0
  0
ARC
  5
98C2
330
9610
100
AcDbEntity
  8
5
  6
PHANTOM
100
AcDbCircle
 10
289.0147089999999
 20
341.691162
 30
0.0
 40
12.5
100
AcDbArc
 50
36.86989699999998
 51
55.94420099999999
  0
ARC
  5
98C3
330
9610
100
AcDbEntity
  8
1
  6
Continuous
100
AcDbCircle
 10
289.0147089999999
 20
136.947525
 30
0.0
 40
20.0
100
AcDbArc
 50
227.545843
 51
312.454152
  0
ARC
  5
98C4
330
9610
100
AcDbEntity
  8
1
  6
Continuous
100
AcDbCircle
 10
289.0147089999999
 20
490.691162
 30
0.0
 40
7.0
100
AcDbArc
 50
179.9999909999999
 51
0.00001
  0
CIRCLE
  5
98C5
330
9610
100
AcDbEntity
  8
1
  6
Continuous
100
AcDbCircle
 10
289.0147089999999
 20
490.691162
 30
0.0
 40
6.0
  0
ARC
  5
98C6
330
9610
100
AcDbEntity
  8
1
  6
Continuous
100
AcDbCircle
 10
289.0147089999999
 20
485.6911619999998
 30
0.0
 40
12.5
100
AcDbArc
 50
36.86989699999998
 51
55.94420099999999
  0
ARC
  5
98C7
330
9610
100
AcDbEntity
  8
1
  6
Continuous
100
AcDbCircle
 10
289.0147089999999
 20
485.6911619999998
 30
0.0
 40
12.5
100
AcDbArc
 50
124.0557969999999
 51
143.130097
  0
ARC
  5
98C8
330
9610
100
AcDbEntity
  8
5
  6
PHANTOM
100
AcDbCircle
 10
289.0147089999999
 20
341.691162
 30
0.0
 40
12.5
100
AcDbArc
 50
124.0557969999999
 51
143.130097
  0
CIRCLE
  5
98C9
330
9610
100
AcDbEntity
  8
5
  6
PHANTOM
100
AcDbCircle
 10
289.0147089999999
 20
346.691162
 30
0.0
 40
6.0
  0
ARC
  5
98CA
330
9610
100
AcDbEntity
  8
5
  6
PHANTOM
100
AcDbCircle
 10
289.0147089999999
 20
346.691162
 30
0.0
 40
7.0
100
AcDbArc
 50
179.9999909999999
 51
0.00001
  0
ARC
  5
98CB
330
9610
100
AcDbEntity
  8
1
  6
Continuous
100
AcDbCircle
 10
289.0147089999999
 20
138.947525
 30
0.0
 40
20.0
100
AcDbArc
 50
232.4104950000001
 51
307.5895029999998
  0
CIRCLE
  5
98CC
330
9610
100
AcDbEntity
  8
1
  6
Continuous
100
AcDbCircle
 10
289.0147089999999
 20
126.1911769999999
 30
0.0
 40
2.0
  0
CIRCLE
  5
98CD
330
9610
100
AcDbEntity
  8
1
  6
Continuous
100
AcDbCircle
 10
289.0147089999999
 20
126.1911769999999
 30
0.0
 40
3.0
  0
CIRCLE
  5
98CE
330
9610
100
AcDbEntity
  8
1
  6
Continuous
100
AcDbCircle
 10
289.0147089999999
 20
126.1911769999999
 30
0.0
 40
4.0
  0
CIRCLE
  5
98CF
330
9610
100
AcDbEntity
  8
1
  6
Continuous
100
AcDbCircle
 10
289.0147089999999
 20
330.6475219999999
 30
0.0
 40
2.5
  0
ARC
  5
98D0
330
9610
100
AcDbEntity
  8
1
  6
Continuous
100
AcDbCircle
 10
159.5573579999999
 20
53.5
 30
0.0
 40
1.0
100
AcDbArc
 50
90.00000300000001
 51
180.000005
  0
ARC
  5
98D1
330
9610
100
AcDbEntity
  8
1
  6
Continuous
100
AcDbCircle
 10
159.5573579999999
 20
28.5
 30
0.0
 40
1.0
100
AcDbArc
 50
179.9999909999999
 51
270.000001
  0
ARC
  5
98D2
330
9610
100
AcDbEntity
  8
1
  6
Continuous
100
AcDbCircle
 10
159.5573579999999
 20
117.947533
 30
0.0
 40
1.0
100
AcDbArc
 50
179.9999909999999
 51
270.000001
  0
ARC
  5
98D3
330
9610
100
AcDbEntity
  8
1
  6
Continuous
100
AcDbCircle
 10
159.5573579999999
 20
596.1387329999999
 30
0.0
 40
1.0
100
AcDbArc
 50
90.00000300000001
 51
180.000005
  0
ARC
  5
98D4
330
9610
100
AcDbEntity
  8
1
  6
Continuous
100
AcDbCircle
 10
159.5573579999999
 20
571.1387329999999
 30
0.0
 40
1.0
100
AcDbArc
 50
179.9999909999999
 51
270.000001
  0
ARC
  5
98D5
330
9610
100
AcDbEntity
  8
1
  6
Continuous
100
AcDbCircle
 10
423.972046
 20
309.691162
 30
0.0
 40
3.5
100
AcDbArc
 50
90.00000300000001
 51
270.000001
  0
ARC
  5
98D6
330
9610
100
AcDbEntity
  8
1
  6
Continuous
100
AcDbCircle
 10
436.9720459999999
 20
309.691162
 30
0.0
 40
2.5
100
AcDbArc
 50
269.9999969999999
 51
90.00000300000001
  0
CIRCLE
  5
98D7
330
9610
100
AcDbEntity
  8
1
  6
Continuous
100
AcDbCircle
 10
423.972046
 20
309.691162
 30
0.0
 40
1.5
  0
ARC
  5
98D8
330
9610
100
AcDbEntity
  8
1
  6
Continuous
100
AcDbCircle
 10
435.472046
 20
307.941162
 30
0.0
 40
1.0
100
AcDbArc
 50
0.0
 51
180.000005
  0
ARC
  5
98D9
330
9610
100
AcDbEntity
  8
1
  6
Continuous
100
AcDbCircle
 10
430.4720459999998
 20
307.591187
 30
0.0
 40
1.0
100
AcDbArc
 50
0.0
 51
180.000005
  0
ARC
  5
98DA
330
9610
100
AcDbEntity
  8
1
  6
Continuous
100
AcDbCircle
 10
430.4720459999998
 20
311.7911680000001
 30
0.0
 40
1.0
100
AcDbArc
 50
179.9999909999999
 51
0.00001
  0
ARC
  5
98DB
330
9610
100
AcDbEntity
  8
1
  6
Continuous
100
AcDbCircle
 10
435.472046
 20
311.441162
 30
0.0
 40
1.0
100
AcDbArc
 50
179.9999909999999
 51
0.00001
  0
ARC
  5
98DC
330
9610
100
AcDbEntity
  8
1
  6
Continuous
100
AcDbCircle
 10
418.4720459999998
 20
117.947533
 30
0.0
 40
1.0
100
AcDbArc
 50
269.9999969999999
 51
0.0
  0
ARC
  5
98DD
330
9610
100
AcDbEntity
  8
1
  6
Continuous
100
AcDbCircle
 10
161.9573519999999
 20
594.638733
 30
0.0
 40
1.0
100
AcDbArc
 50
90.00000300000001
 51
180.000005
  0
ARC
  5
98DE
330
9610
100
AcDbEntity
  8
1
  6
Continuous
100
AcDbCircle
 10
161.9573519999999
 20
572.638733
 30
0.0
 40
1.0
100
AcDbArc
 50
179.9999909999999
 51
270.000001
  0
ARC
  5
98DF
330
9610
100
AcDbEntity
  8
1
  6
Continuous
100
AcDbCircle
 10
44.554092
 20
351.691162
 30
0.0
 40
1.0
100
AcDbArc
 50
161.565051
 51
198.4349449999999
  0
CIRCLE
  5
98E0
330
9610
100
AcDbEntity
  8
2
  6
Continuous
100
AcDbCircle
 10
289.0147089999999
 20
126.1911769999999
 30
0.0
 40
2.458499999999999
  0
CIRCLE
  5
98E1
330
9610
100
AcDbEntity
  8
1
  6
Continuous
100
AcDbCircle
 10
289.0147089999999
 20
490.691162
 30
0.0
 40
5.5
  0
TEXT
  5
98E2
330
9610
100
AcDbEntity
  8
6
  6
Continuous
100
AcDbText
 10
27.97945
 20
10.0487
 30
0.0
 40
1.399999999999999
  1
6
 41
1.069393
100
AcDbText
  0
TEXT
  5
98E3
330
9610
100
AcDbEntity
  8
1
  6
Continuous
100
AcDbText
 10
17.97945
 20
10.0487
 30
0.0
 40
1.399999999999999
  1
1
 41
1.069393
100
AcDbText
  0
TEXT
  5
98E4
330
9610
100
AcDbEntity
  8
1
  6
Continuous
100
AcDbText
 10
9.99995
 20
10.0
 30
0.0
 40
1.399999999999999
  1
LAYER
 41
1.009912999999997
100
AcDbText
  0
TEXT
  5
98E5
330
9610
100
AcDbEntity
  8
2
  6
Continuous
100
AcDbText
 10
19.97944999999998
 20
10.0487
 30
0.0
 40
1.399999999999999
  1
2
 41
1.069393
100
AcDbText
  0
TEXT
  5
98E6
330
9610
100
AcDbEntity
  8
3
  6
DASHED
100
AcDbText
 10
21.97945
 20
10.0487
 30
0.0
 40
1.399999999999999
  1
3
 41
1.069393
100
AcDbText
  0
TEXT
  5
98E7
330
9610
100
AcDbEntity
  8
4
  6
CENTER
100
AcDbText
 10
23.97944999999999
 20
10.0487
 30
0.0
 40
1.399999999999999
  1
4
 41
1.069393
100
AcDbText
  0
TEXT
  5
98E8
330
9610
100
AcDbEntity
  8
5
  6
PHANTOM
100
AcDbText
 10
25.97945
 20
10.0487
 30
0.0
 40
1.399999999999999
  1
5
 41
1.069393
100
AcDbText
  0
TEXT
  5
98E9
330
9610
100
AcDbEntity
  8
7
  6
Continuous
100
AcDbText
 10
10.00005
 20
26.0
 30
0.0
 40
3.0
  1
CODE No.5730
 41
1.003962999999999
100
AcDbText
  0
TEXT
  5
98EA
330
9610
100
AcDbEntity
  8
7
  6
Continuous
100
AcDbText
 10
10.00005
 20
18.0
 30
0.0
 40
3.0
  1
TYPE No.TM-235
 41
1.003382999999999
100
AcDbText
  0
TEXT
  5
98EB
330
9610
100
AcDbEntity
  8
7
  6
Continuous
100
AcDbText
 10
29.97944999999999
 20
10.0487
 30
0.0
 40
1.399999999999999
  1
7
 41
1.069393
100
AcDbText
  0
LINE
  5
98EC
330
9610
100
AcDbEntity
  8
4
  6
CENTER
100
AcDbLine
 10
291.0147089999999
 20
325.3144029999999
 30
0.0
 11
291.0147089999999
 21
291.1262249999999
 31
0.0
  0
LINE
  5
98ED
330
9610
100
AcDbEntity
  8
4
  6
CENTER
100
AcDbLine
 10
133.6128079999998
 20
585.638733
 30
0.0
 11
161.984856
 21
585.638733
 31
0.0
  0
LINE
  5
98EE
330
9610
100
AcDbEntity
  8
4
  6
CENTER
100
AcDbLine
 10
133.855847
 20
39.0
 30
0.0
 11
162.6976389999998
 21
39.0
 31
0.0
  0
ARC
  5
98EF
330
9610
100
AcDbEntity
  8
5
  6
PHANTOM
100
AcDbCircle
 10
154.057358
 20
309.691162
 30
0.0
 40
3.5
100
AcDbArc
 50
359.999997
 51
180.0000029999999
  0
LINE
  5
98F0
330
9610
100
AcDbEntity
  8
5
  6
PHANTOM
100
AcDbLine
 10
150.5958099999998
 20
309.191162
 30
0.0
 11
151.5573579999999
 21
309.191162
 31
0.0
  0
LINE
  5
98F1
330
9610
100
AcDbEntity
  8
5
  6
PHANTOM
100
AcDbLine
 10
150.5958099999998
 20
309.1911469999998
 30
0.0
 11
150.557358
 21
309.691147
 31
0.0
  0
LINE
  5
98F2
330
9610
100
AcDbEntity
  8
5
  6
PHANTOM
100
AcDbLine
 10
151.5573579999999
 20
307.191162
 30
0.0
 11
151.5573579999999
 21
309.191162
 31
0.0
  0
LINE
  5
98F3
330
9610
100
AcDbEntity
  8
5
  6
PHANTOM
100
AcDbLine
 10
150.749649
 20
307.191162
 30
0.0
 11
151.5573579999999
 21
307.191162
 31
0.0
  0
LINE
  5
98F4
330
9610
100
AcDbEntity
  8
5
  6
PHANTOM
100
AcDbLine
 10
150.980423
 20
304.191147
 30
0.0
 11
150.749649
 21
307.1911469999998
 31
0.0
  0
LINE
  5
98F5
330
9610
100
AcDbEntity
  8
5
  6
PHANTOM
100
AcDbLine
 10
150.980423
 20
304.191162
 30
0.0
 11
151.9573519999999
 21
304.191162
 31
0.0
  0
ARC
  5
98F6
330
9610
100
AcDbEntity
  8
5
  6
PHANTOM
100
AcDbCircle
 10
151.9573519999999
 20
303.191162
 30
0.0
 40
1.0
100
AcDbArc
 50
269.999991
 51
90.00001000000002
  0
LINE
  5
98F7
330
9610
100
AcDbEntity
  8
5
  6
PHANTOM
100
AcDbLine
 10
151.134262
 20
302.191162
 30
0.0
 11
151.9573519999999
 21
302.191162
 31
0.0
  0
LINE
  5
98F8
330
9610
100
AcDbEntity
  8
5
  6
PHANTOM
100
AcDbLine
 10
151.3650359999998
 20
299.191147
 30
0.0
 11
151.134262
 21
302.191147
 31
0.0
  0
LINE
  5
98F9
330
9610
100
AcDbEntity
  8
5
  6
PHANTOM
100
AcDbLine
 10
151.3650359999998
 20
299.191162
 30
0.0
 11
152.3073579999999
 21
299.191162
 31
0.0
  0
ARC
  5
98FA
330
9610
100
AcDbEntity
  8
5
  6
PHANTOM
100
AcDbCircle
 10
152.3073579999999
 20
298.191162
 30
0.0
 40
1.0
100
AcDbArc
 50
269.999991
 51
90.00001000000002
  0
LINE
  5
98FB
330
9610
100
AcDbEntity
  8
5
  6
PHANTOM
100
AcDbLine
 10
151.518875
 20
297.191162
 30
0.0
 11
152.3073579999999
 21
297.191162
 31
0.0
  0
LINE
  5
98FC
330
9610
100
AcDbEntity
  8
5
  6
PHANTOM
100
AcDbLine
 10
151.5573579999999
 20
296.6911469999999
 30
0.0
 11
151.518875
 21
297.191147
 31
0.0
  0
ARC
  5
98FD
330
9610
100
AcDbEntity
  8
5
  6
PHANTOM
100
AcDbCircle
 10
154.057358
 20
296.691162
 30
0.0
 40
2.5
100
AcDbArc
 50
180.0000029999999
 51
0.000001
  0
LINE
  5
98FE
330
9610
100
AcDbEntity
  8
5
  6
PHANTOM
100
AcDbLine
 10
155.807358
 20
297.191162
 30
0.0
 11
156.59581
 21
297.191162
 31
0.0
  0
ARC
  5
98FF
330
9610
100
AcDbEntity
  8
5
  6
PHANTOM
100
AcDbCircle
 10
155.807358
 20
298.191162
 30
0.0
 40
1.0
100
AcDbArc
 50
90.0
 51
270.0000049999998
  0
LINE
  5
9900
330
9610
100
AcDbEntity
  8
5
  6
PHANTOM
100
AcDbLine
 10
155.807358
 20
299.191162
 30
0.0
 11
156.749649
 21
299.191162
 31
0.0
  0
LINE
  5
9901
330
9610
100
AcDbEntity
  8
5
  6
PHANTOM
100
AcDbLine
 10
156.749649
 20
299.191162
 30
0.0
 11
156.980423
 21
302.191162
 31
0.0
  0
LINE
  5
9902
330
9610
100
AcDbEntity
  8
5
  6
PHANTOM
100
AcDbLine
 10
156.1573329999999
 20
302.191162
 30
0.0
 11
156.980423
 21
302.191162
 31
0.0
  0
ARC
  5
9903
330
9610
100
AcDbEntity
  8
5
  6
PHANTOM
100
AcDbCircle
 10
156.1573329999999
 20
303.191162
 30
0.0
 40
1.0
100
AcDbArc
 50
90.0
 51
270.0000049999998
  0
LINE
  5
9904
330
9610
100
AcDbEntity
  8
5
  6
PHANTOM
100
AcDbLine
 10
156.1573329999999
 20
304.191162
 30
0.0
 11
157.134262
 21
304.191162
 31
0.0
  0
LINE
  5
9905
330
9610
100
AcDbEntity
  8
5
  6
PHANTOM
100
AcDbLine
 10
157.134262
 20
304.191162
 30
0.0
 11
157.365036
 21
307.191162
 31
0.0
  0
LINE
  5
9906
330
9610
100
AcDbEntity
  8
5
  6
PHANTOM
100
AcDbLine
 10
156.5573579999998
 20
307.191162
 30
0.0
 11
157.365036
 21
307.191162
 31
0.0
  0
LINE
  5
9907
330
9610
100
AcDbEntity
  8
5
  6
PHANTOM
100
AcDbLine
 10
156.5573579999998
 20
307.191162
 30
0.0
 11
156.5573579999998
 21
309.191162
 31
0.0
  0
LINE
  5
9908
330
9610
100
AcDbEntity
  8
5
  6
PHANTOM
100
AcDbLine
 10
156.5573579999998
 20
309.191162
 30
0.0
 11
157.518875
 21
309.191162
 31
0.0
  0
LINE
  5
9909
330
9610
100
AcDbEntity
  8
5
  6
PHANTOM
100
AcDbLine
 10
157.518875
 20
309.1911469999998
 30
0.0
 11
157.5573269999999
 21
309.691162
 31
0.0
  0
LINE
  5
990A
330
9610
100
AcDbEntity
  8
5
  6
PHANTOM
100
AcDbLine
 10
156.5573579999998
 20
296.6911469999999
 30
0.0
 11
156.5958399999999
 21
297.191147
 31
0.0
  0
LINE
  5
990B
330
9610
100
AcDbEntity
  8
4
  6
CENTER
100
AcDbLine
 10
154.057358
 20
290.6432779999999
 30
0.0
 11
154.057358
 21
315.849644
 31
0.0
  0
ARC
  5
990C
330
9610
100
AcDbEntity
  8
5
  6
PHANTOM
100
AcDbCircle
 10
423.972046
 20
309.691162
 30
0.0
 40
3.5
100
AcDbArc
 50
0.000003
 51
180.0000009999999
  0
LINE
  5
990D
330
9610
100
AcDbEntity
  8
5
  6
PHANTOM
100
AcDbLine
 10
427.433594
 20
309.191162
 30
0.0
 11
426.4720459999998
 21
309.191162
 31
0.0
  0
LINE
  5
990E
330
9610
100
AcDbEntity
  8
5
  6
PHANTOM
100
AcDbLine
 10
426.4720459999998
 20
307.191162
 30
0.0
 11
426.4720459999998
 21
309.191162
 31
0.0
  0
LINE
  5
990F
330
9610
100
AcDbEntity
  8
5
  6
PHANTOM
100
AcDbLine
 10
427.2797549999999
 20
307.191162
 30
0.0
 11
426.4720459999998
 21
307.191162
 31
0.0
  0
LINE
  5
9910
330
9610
100
AcDbEntity
  8
5
  6
PHANTOM
100
AcDbLine
 10
427.0489809999999
 20
304.191162
 30
0.0
 11
427.279724
 21
307.191162
 31
0.0
  0
LINE
  5
9911
330
9610
100
AcDbEntity
  8
5
  6
PHANTOM
100
AcDbLine
 10
427.0489809999999
 20
304.191162
 30
0.0
 11
426.0720519999998
 21
304.191162
 31
0.0
  0
ARC
  5
9912
330
9610
100
AcDbEntity
  8
5
  6
PHANTOM
100
AcDbCircle
 10
426.0720519999998
 20
303.191162
 30
0.0
 40
1.0
100
AcDbArc
 50
89.99999100000001
 51
270.00001
  0
LINE
  5
9913
330
9610
100
AcDbEntity
  8
5
  6
PHANTOM
100
AcDbLine
 10
426.8951419999998
 20
302.191162
 30
0.0
 11
426.0720519999998
 21
302.191162
 31
0.0
  0
LINE
  5
9914
330
9610
100
AcDbEntity
  8
5
  6
PHANTOM
100
AcDbLine
 10
426.6643679999998
 20
299.191162
 30
0.0
 11
426.8951109999998
 21
302.191162
 31
0.0
  0
LINE
  5
9915
330
9610
100
AcDbEntity
  8
5
  6
PHANTOM
100
AcDbLine
 10
426.6643679999998
 20
299.191162
 30
0.0
 11
425.722046
 21
299.191162
 31
0.0
  0
ARC
  5
9916
330
9610
100
AcDbEntity
  8
5
  6
PHANTOM
100
AcDbCircle
 10
425.722046
 20
298.191162
 30
0.0
 40
1.0
100
AcDbArc
 50
89.99999100000001
 51
270.00001
  0
LINE
  5
9917
330
9610
100
AcDbEntity
  8
5
  6
PHANTOM
100
AcDbLine
 10
426.510529
 20
297.191162
 30
0.0
 11
425.722046
 21
297.191162
 31
0.0
  0
LINE
  5
9918
330
9610
100
AcDbEntity
  8
5
  6
PHANTOM
100
AcDbLine
 10
426.4720459999998
 20
296.691162
 30
0.0
 11
426.510498
 21
297.191162
 31
0.0
  0
ARC
  5
9919
330
9610
100
AcDbEntity
  8
5
  6
PHANTOM
100
AcDbCircle
 10
423.972046
 20
296.691162
 30
0.0
 40
2.5
100
AcDbArc
 50
179.999997
 51
0.000003
  0
LINE
  5
991A
330
9610
100
AcDbEntity
  8
5
  6
PHANTOM
100
AcDbLine
 10
422.2220459999999
 20
297.191162
 30
0.0
 11
421.433594
 21
297.191162
 31
0.0
  0
ARC
  5
991B
330
9610
100
AcDbEntity
  8
5
  6
PHANTOM
100
AcDbCircle
 10
422.2220459999999
 20
298.191162
 30
0.0
 40
1.0
100
AcDbArc
 50
270.0
 51
90.00000500000002
  0
LINE
  5
991C
330
9610
100
AcDbEntity
  8
5
  6
PHANTOM
100
AcDbLine
 10
422.2220459999999
 20
299.191162
 30
0.0
 11
421.2797549999998
 21
299.191162
 31
0.0
  0
LINE
  5
991D
330
9610
100
AcDbEntity
  8
5
  6
PHANTOM
100
AcDbLine
 10
421.2797549999998
 20
299.1911319999999
 30
0.0
 11
421.049011
 21
302.191162
 31
0.0
  0
LINE
  5
991E
330
9610
100
AcDbEntity
  8
5
  6
PHANTOM
100
AcDbLine
 10
421.87207
 20
302.191162
 30
0.0
 11
421.0489809999998
 21
302.191162
 31
0.0
  0
ARC
  5
991F
330
9610
100
AcDbEntity
  8
5
  6
PHANTOM
100
AcDbCircle
 10
421.87207
 20
303.191162
 30
0.0
 40
1.0
100
AcDbArc
 50
270.0
 51
90.00000500000002
  0
LINE
  5
9920
330
9610
100
AcDbEntity
  8
5
  6
PHANTOM
100
AcDbLine
 10
421.87207
 20
304.191162
 30
0.0
 11
420.8951419999998
 21
304.191162
 31
0.0
  0
LINE
  5
9921
330
9610
100
AcDbEntity
  8
5
  6
PHANTOM
100
AcDbLine
 10
420.8951419999998
 20
304.191132
 30
0.0
 11
420.6643679999998
 21
307.191162
 31
0.0
  0
LINE
  5
9922
330
9610
100
AcDbEntity
  8
5
  6
PHANTOM
100
AcDbLine
 10
421.4720459999998
 20
307.191162
 30
0.0
 11
420.6643679999998
 21
307.191162
 31
0.0
  0
LINE
  5
9923
330
9610
100
AcDbEntity
  8
5
  6
PHANTOM
100
AcDbLine
 10
421.4720459999998
 20
307.191162
 30
0.0
 11
421.4720459999998
 21
309.191162
 31
0.0
  0
LINE
  5
9924
330
9610
100
AcDbEntity
  8
5
  6
PHANTOM
100
AcDbLine
 10
421.4720459999998
 20
309.191162
 30
0.0
 11
420.510529
 21
309.191162
 31
0.0
  0
LINE
  5
9925
330
9610
100
AcDbEntity
  8
5
  6
PHANTOM
100
AcDbLine
 10
420.510529
 20
309.191162
 30
0.0
 11
420.4720759999998
 21
309.691162
 31
0.0
  0
LINE
  5
9926
330
9610
100
AcDbEntity
  8
4
  6
CENTER
100
AcDbLine
 10
423.972046
 20
290.988646
 30
0.0
 11
423.972046
 21
316.8857479999999
 31
0.0
  0
LINE
  5
9927
330
9610
100
AcDbEntity
  8
5
  6
PHANTOM
100
AcDbLine
 10
421.4720459999998
 20
296.691162
 30
0.0
 11
421.433594
 21
297.191162
 31
0.0
  0
LINE
  5
9928
330
9610
100
AcDbEntity
  8
5
  6
PHANTOM
100
AcDbLine
 10
427.433563
 20
309.191162
 30
0.0
 11
427.472015
 21
309.691162
 31
0.0
  0
ENDSEC
  0
SECTION
  2
OBJECTS
  0
DICTIONARY
  5
95FE
330
0
100
AcDbDictionary
281
     1
  3
ACAD_CIP_PREVIOUS_PRODUCT_INFO
350
998E
  3
ACAD_COLOR
350
9970
  3
ACAD_DETAILVIEWSTYLE
350
9989
  3
ACAD_GROUP
350
95FF
  3
ACAD_LAYOUT
350
960B
  3
ACAD_MATERIAL
350
993E
  3
ACAD_MLEADERSTYLE
350
9985
  3
ACAD_MLINESTYLE
350
9608
  3
ACAD_PLOTSETTINGS
350
960A
  3
ACAD_PLOTSTYLENAME
350
993C
  3
ACAD_SCALELIST
350
9973
  3
ACAD_SECTIONVIEWSTYLE
350
9987
  3
ACAD_TABLESTYLE
350
9971
  3
ACAD_VISUALSTYLE
350
9957
  3
ACDB_RECOMPOSE_DATA
350
99AC
  3
AcDbVariableDictionary
350
999F
  3
DWGPROPS
350
99AD
  0
DICTIONARY
  5
998F
330
9602
100
AcDbDictionary
280
     1
281
     1
  3
ADSK_XREC_LAYER_RECONCILED
360
9990
  0
DICTIONARY
  5
9991
330
9618
100
AcDbDictionary
280
     1
281
     1
  3
ADSK_XREC_LAYER_RECONCILED
360
9992
  0
DICTIONARY
  5
9993
330
9619
100
AcDbDictionary
280
     1
281
     1
  3
ADSK_XREC_LAYER_RECONCILED
360
9994
  0
DICTIONARY
  5
9995
330
961A
100
AcDbDictionary
280
     1
281
     1
  3
ADSK_XREC_LAYER_RECONCILED
360
9996
  0
DICTIONARY
  5
9997
330
961B
100
AcDbDictionary
280
     1
281
     1
  3
ADSK_XREC_LAYER_RECONCILED
360
9998
  0
DICTIONARY
  5
9999
330
961C
100
AcDbDictionary
280
     1
281
     1
  3
ADSK_XREC_LAYER_RECONCILED
360
999A
  0
DICTIONARY
  5
999B
330
961D
100
AcDbDictionary
280
     1
281
     1
  3
ADSK_XREC_LAYER_RECONCILED
360
999C
  0
DICTIONARY
  5
999D
330
961E
100
AcDbDictionary
280
     1
281
     1
  3
ADSK_XREC_LAYER_RECONCILED
360
999E
  0
DICTIONARY
  5
9937
330
9610
100
AcDbDictionary
281
     1
  3
ACAD_LAYOUTSELFREF
350
9938
  0
DICTIONARY
  5
9935
330
960C
100
AcDbDictionary
281
     1
  3
ACAD_LAYOUTSELFREF
350
9936
  0
XRECORD
  5
998E
102
{ACAD_REACTORS
330
95FE
102
}
330
95FE
100
AcDbXrecord
280
     1
300
ACDLT
300
2014
300
ACDLT_F_S
  0
DICTIONARY
  5
9970
102
{ACAD_REACTORS
330
95FE
102
}
330
95FE
100
AcDbDictionary
281
     1
  0
DICTIONARY
  5
9989
102
{ACAD_REACTORS
330
95FE
102
}
330
95FE
100
AcDbDictionary
281
     1
  3
Imperial24
350
998A
  0
DICTIONARY
  5
95FF
102
{ACAD_REACTORS
330
95FE
102
}
330
95FE
100
AcDbDictionary
281
     1
  0
DICTIONARY
  5
960B
102
{ACAD_REACTORS
330
95FE
102
}
330
95FE
100
AcDbDictionary
281
     1
  3
Model
350
998B
  3
レイアウト1
350
998C
  0
DICTIONARY
  5
993E
102
{ACAD_REACTORS
330
95FE
102
}
330
95FE
100
AcDbDictionary
281
     1
  3
ByBlock
350
9947
  3
ByLayer
350
993F
  3
Global
350
994F
  0
DICTIONARY
  5
9985
102
{ACAD_REACTORS
330
95FE
102
}
330
95FE
100
AcDbDictionary
281
     1
  3
Standard
350
9986
  0
DICTIONARY
  5
9608
102
{ACAD_REACTORS
330
95FE
102
}
330
95FE
100
AcDbDictionary
281
     1
  3
STANDARD
350
9609
  0
DICTIONARY
  5
960A
102
{ACAD_REACTORS
330
95FE
102
}
330
95FE
100
AcDbDictionary
281
     1
  0
ACDBDICTIONARYWDFLT
  5
993C
102
{ACAD_REACTORS
330
95FE
102
}
330
95FE
100
AcDbDictionary
281
     1
  3
Normal
350
993D
100
AcDbDictionaryWithDefault
340
993D
  0
DICTIONARY
  5
9973
102
{ACAD_REACTORS
330
95FE
102
}
330
95FE
100
AcDbDictionary
281
     1
  3
A0
350
9974
  3
A1
350
9975
  3
A2
350
9976
  3
A3
350
9977
  3
A4
350
9978
  3
A5
350
9979
  3
A6
350
997A
  3
A7
350
997B
  3
A8
350
997C
  3
A9
350
997D
  3
B0
350
997E
  3
B1
350
997F
  3
B2
350
9980
  3
B3
350
9981
  3
B4
350
9982
  3
B5
350
9983
  3
B6
350
9984
  0
DICTIONARY
  5
9987
102
{ACAD_REACTORS
330
95FE
102
}
330
95FE
100
AcDbDictionary
281
     1
  3
Imperial24
350
9988
  0
DICTIONARY
  5
9971
102
{ACAD_REACTORS
330
95FE
102
}
330
95FE
100
AcDbDictionary
281
     1
  3
Standard
350
9972
  0
DICTIONARY
  5
9957
102
{ACAD_REACTORS
330
95FE
102
}
330
95FE
100
AcDbDictionary
281
     1
  3
2dWireframe
350
995D
  3
Basic
350
995C
  3
Brighten
350
9963
  3
ColorChange
350
9967
  3
Conceptual
350
9960
  3
Dim
350
9962
  3
EdgeColorOff
350
996F
  3
Facepattern
350
9966
  3
Flat
350
9958
  3
FlatWithEdges
350
9959
  3
Gouraud
350
995A
  3
GouraudWithEdges
350
995B
  3
Hidden
350
995F
  3
JitterOff
350
996D
  3
Linepattern
350
9965
  3
OverhangOff
350
996E
  3
Realistic
350
9961
  3
Shaded
350
996C
  3
Shaded with edges
350
996B
  3
Shades of Gray
350
9968
  3
Sketchy
350
9969
  3
Thicken
350
9964
  3
Wireframe
350
995E
  3
X-Ray
350
996A
  0
XRECORD
  5
99AC
102
{ACAD_REACTORS
330
95FE
102
}
330
95FE
100
AcDbXrecord
280
     1
 90
        1
330
9972
  0
DICTIONARY
  5
999F
102
{ACAD_REACTORS
330
95FE
102
}
330
95FE
100
AcDbDictionary
281
     1
  3
CANNOSCALE
350
99A4
  3
CMLEADERSTYLE
350
99A1
  3
CTABLESTYLE
350
99A0
  3
CVIEWDETAILSTYLE
350
99A2
  3
CVIEWSECTIONSTYLE
350
99A3
  3
DIMASSOC
350
99A7
  3
INDEXCTL
350
99A6
  3
SORTENTS
350
99A5
  3
XCLIPFRAME
350
99A8
  0
XRECORD
  5
99AD
102
{ACAD_REACTORS
330
95FE
102
}
330
95FE
100
AcDbXrecord
280
     1
  1
DWGPROPS COOKIE
  2

  3

  4

  6

  7

  8
Yoshitsune
  9

300
=
301
=
302
=
303
=
304
=
305
=
306
=
307
=
308
=
309
=
 40
0.0000160069444444
 41
2451074.620394791
 42
2457192.621345081
  1

 90
        0
  0
XRECORD
  5
9990
102
{ACAD_REACTORS
330
998F
102
}
330
998F
100
AcDbXrecord
280
     1
290
     1
  0
XRECORD
  5
9992
102
{ACAD_REACTORS
330
9991
102
}
330
9991
100
AcDbXrecord
280
     1
290
     1
  0
XRECORD
  5
9994
102
{ACAD_REACTORS
330
9993
102
}
330
9993
100
AcDbXrecord
280
     1
290
     1
  0
XRECORD
  5
9996
102
{ACAD_REACTORS
330
9995
102
}
330
9995
100
AcDbXrecord
280
     1
290
     1
  0
XRECORD
  5
9998
102
{ACAD_REACTORS
330
9997
102
}
330
9997
100
AcDbXrecord
280
     1
290
     1
  0
XRECORD
  5
999A
102
{ACAD_REACTORS
330
9999
102
}
330
9999
100
AcDbXrecord
280
     1
290
     1
  0
XRECORD
  5
999C
102
{ACAD_REACTORS
330
999B
102
}
330
999B
100
AcDbXrecord
280
     1
290
     1
  0
XRECORD
  5
999E
102
{ACAD_REACTORS
330
999D
102
}
330
999D
100
AcDbXrecord
280
     1
290
     1
  0
XRECORD
  5
9938
102
{ACAD_REACTORS
330
9937
102
}
330
9937
100
AcDbXrecord
280
     1
340
9610
  0
XRECORD
  5
9936
102
{ACAD_REACTORS
330
9935
102
}
330
9935
100
AcDbXrecord
280
     1
340
960C
  0
ACDBDETAILVIEWSTYLE
  5
998A
102
{ACAD_XDICTIONARY
360
99E5
102
}
102
{ACAD_REACTORS
330
9989
102
}
330
9989
100
AcDbModelDocViewStyle
 70
     0
  3
Imperial24
290
     0
100
AcDbDetailViewStyle
 70
     0
 71
     0
 90
        3
 71
     1
340
9603
 40
0.24
340
0
 40
0.24
300

 40
0.36
280
     3
 71
     2
340
9607
 90
       25
 71
     3
340
9603
 40
0.24
 90
        1
 40
0.75
 90
        1
300
%<\AcVar ViewType \f "%tc1">% %<\AcVar ViewDetailId>%\PSCALE %<\AcVar ViewScale \f "%sn">%
 71
     4
340
9607
 90
       25
340
9607
 90
       25
280
     0
  0
LAYOUT
  5
998B
102
{ACAD_XDICTIONARY
360
99E7
102
}
102
{ACAD_REACTORS
330
960B
102
}
330
960B
100
AcDbPlotSettings
  1

  2
Canon LBP9100C
  4

  6

 40
0.0
 41
0.0
 42
0.0
 43
0.0
 44
0.0
 45
0.0
 46
0.0
 47
0.0
 48
0.0
 49
0.0
140
0.0
141
0.0
142
1.0
143
1.0
 70
  1712
 72
     0
 73
     0
 74
     0
  7

 75
     0
147
1.0
148
0.0
149
0.0
100
AcDbLayout
  1
Model
 70
     1
 71
     0
 10
0.0
 20
0.0
 11
12.0
 21
9.0
 12
0.0
 22
0.0
 32
0.0
 14
0.0
 24
0.0
 34
0.0
 15
0.0
 25
0.0
 35
0.0
146
0.0
 13
0.0
 23
0.0
 33
0.0
 16
1.0
 26
0.0
 36
0.0
 17
0.0
 27
1.0
 37
0.0
 76
     0
330
9610
331
9934
  0
LAYOUT
  5
998C
102
{ACAD_XDICTIONARY
360
99E9
102
}
102
{ACAD_REACTORS
330
960B
102
}
330
960B
100
AcDbPlotSettings
  1

  2
Canon LBP9100C
  4

  6

 40
0.0
 41
0.0
 42
0.0
 43
0.0
 44
0.0
 45
0.0
 46
0.0
 47
0.0
 48
0.0
 49
0.0
140
0.0
141
0.0
142
1.0
143
1.0
 70
   688
 72
     0
 73
     0
 74
     5
  7

 75
    16
147
1.0
148
0.0
149
0.0
100
AcDbLayout
  1
レイアウト1
 70
     0
 71
     1
 10
0.0
 20
0.0
 11
420.0
 21
297.0
 12
0.0
 22
0.0
 32
0.0
 14
1.000000000000000E+20
 24
1.000000000000000E+20
 34
1.000000000000000E+20
 15
-1.000000000000000E+20
 25
-1.000000000000000E+20
 35
-1.000000000000000E+20
146
0.0
 13
0.0
 23
0.0
 33
0.0
 16
1.0
 26
0.0
 36
0.0
 17
0.0
 27
1.0
 37
0.0
 76
     0
330
960C
  0
MATERIAL
  5
9947
102
{ACAD_XDICTIONARY
360
9948
102
}
102
{ACAD_REACTORS
330
993E
102
}
330
993E
100
AcDbMaterial
  1
ByBlock
 72
     0
 43
0.0208333333333333
 43
0.0
 43
0.0
 43
0.0
 43
0.0
 43
0.0208333333333333
 43
0.0
 43
0.0
 43
0.0
 43
0.0
 43
1.0
 43
0.0
 43
0.0
 43
0.0
 43
0.0
 43
1.0
 77
     0
 47
0.0208333333333333
 47
0.0
 47
0.0
 47
0.0
 47
0.0
 47
0.0208333333333333
 47
0.0
 47
0.0
 47
0.0
 47
0.0
 47
1.0
 47
0.0
 47
0.0
 47
0.0
 47
0.0
 47
1.0
171
     0
 49
0.0208333333333333
 49
0.0
 49
0.0
 49
0.0
 49
0.0
 49
0.0208333333333333
 49
0.0
 49
0.0
 49
0.0
 49
0.0
 49
1.0
 49
0.0
 49
0.0
 49
0.0
 49
0.0
 49
1.0
175
     0
142
0.0208333333333333
142
0.0
142
0.0
142
0.0
142
0.0
142
0.0208333333333333
142
0.0
142
0.0
142
0.0
142
0.0
142
1.0
142
0.0
142
0.0
142
0.0
142
0.0
142
1.0
179
     0
144
0.0208333333333333
144
0.0
144
0.0
144
0.0
144
0.0
144
0.0208333333333333
144
0.0
144
0.0
144
0.0
144
0.0
144
1.0
144
0.0
144
0.0
144
0.0
144
0.0
144
1.0
147
0.0208333333333333
147
0.0
147
0.0
147
0.0
147
0.0
147
0.0208333333333333
147
0.0
147
0.0
147
0.0
147
0.0
147
1.0
147
0.0
147
0.0
147
0.0
147
0.0
147
1.0
  0
MATERIAL
  5
993F
102
{ACAD_XDICTIONARY
360
9940
102
}
102
{ACAD_REACTORS
330
993E
102
}
330
993E
100
AcDbMaterial
  1
ByLayer
 72
     0
 43
0.0208333333333333
 43
0.0
 43
0.0
 43
0.0
 43
0.0
 43
0.0208333333333333
 43
0.0
 43
0.0
 43
0.0
 43
0.0
 43
1.0
 43
0.0
 43
0.0
 43
0.0
 43
0.0
 43
1.0
 77
     0
 47
0.0208333333333333
 47
0.0
 47
0.0
 47
0.0
 47
0.0
 47
0.0208333333333333
 47
0.0
 47
0.0
 47
0.0
 47
0.0
 47
1.0
 47
0.0
 47
0.0
 47
0.0
 47
0.0
 47
1.0
171
     0
 49
0.0208333333333333
 49
0.0
 49
0.0
 49
0.0
 49
0.0
 49
0.0208333333333333
 49
0.0
 49
0.0
 49
0.0
 49
0.0
 49
1.0
 49
0.0
 49
0.0
 49
0.0
 49
0.0
 49
1.0
175
     0
142
0.0208333333333333
142
0.0
142
0.0
142
0.0
142
0.0
142
0.0208333333333333
142
0.0
142
0.0
142
0.0
142
0.0
142
1.0
142
0.0
142
0.0
142
0.0
142
0.0
142
1.0
179
     0
144
0.0208333333333333
144
0.0
144
0.0
144
0.0
144
0.0
144
0.0208333333333333
144
0.0
144
0.0
144
0.0
144
0.0
144
1.0
144
0.0
144
0.0
144
0.0
144
0.0
144
1.0
147
0.0208333333333333
147
0.0
147
0.0
147
0.0
147
0.0
147
0.0208333333333333
147
0.0
147
0.0
147
0.0
147
0.0
147
1.0
147
0.0
147
0.0
147
0.0
147
0.0
147
1.0
  0
MATERIAL
  5
994F
102
{ACAD_XDICTIONARY
360
9950
102
}
102
{ACAD_REACTORS
330
993E
102
}
330
993E
100
AcDbMaterial
  1
Global
 72
     0
 43
0.0208333333333333
 43
0.0
 43
0.0
 43
0.0
 43
0.0
 43
0.0208333333333333
 43
0.0
 43
0.0
 43
0.0
 43
0.0
 43
1.0
 43
0.0
 43
0.0
 43
0.0
 43
0.0
 43
1.0
 77
     0
 47
0.0208333333333333
 47
0.0
 47
0.0
 47
0.0
 47
0.0
 47
0.0208333333333333
 47
0.0
 47
0.0
 47
0.0
 47
0.0
 47
1.0
 47
0.0
 47
0.0
 47
0.0
 47
0.0
 47
1.0
171
     0
 49
0.0208333333333333
 49
0.0
 49
0.0
 49
0.0
 49
0.0
 49
0.0208333333333333
 49
0.0
 49
0.0
 49
0.0
 49
0.0
 49
1.0
 49
0.0
 49
0.0
 49
0.0
 49
0.0
 49
1.0
175
     0
142
0.0208333333333333
142
0.0
142
0.0
142
0.0
142
0.0
142
0.0208333333333333
142
0.0
142
0.0
142
0.0
142
0.0
142
1.0
142
0.0
142
0.0
142
0.0
142
0.0
142
1.0
179
     0
144
0.0208333333333333
144
0.0
144
0.0
144
0.0
144
0.0
144
0.0208333333333333
144
0.0
144
0.0
144
0.0
144
0.0
144
1.0
144
0.0
144
0.0
144
0.0
144
0.0
144
1.0
147
0.0208333333333333
147
0.0
147
0.0
147
0.0
147
0.0
147
0.0208333333333333
147
0.0
147
0.0
147
0.0
147
0.0
147
1.0
147
0.0
147
0.0
147
0.0
147
0.0
147
1.0
  0
MLEADERSTYLE
  5
9986
102
{ACAD_REACTORS
330
9985
102
}
330
9985
100
AcDbMLeaderStyle
170
     2
171
     1
172
     0
 90
        2
 40
0.0
 41
0.0
173
     1
 91
-1056964608
340
9605
 92
       -2
290
     1
 42
0.09
291
     1
 43
0.36
  3
Standard
 44
0.18
300

342
9603
174
     1
178
     6
175
     1
176
     0
 93
-1056964608
 45
0.18
292
     0
297
     0
 46
0.18
 94
-1056964608
 47
1.0
 49
1.0
140
1.0
293
     1
141
0.0
294
     1
177
     0
142
1.0
295
     0
296
     0
143
0.125
1001
ACAD_MLEADERVER
1070
     2
  0
MLINESTYLE
  5
9609
102
{ACAD_REACTORS
330
9608
102
}
330
9608
100
AcDbMlineStyle
  2
STANDARD
 70
     0
  3

 62
   256
 51
90.0
 52
90.0
 71
     2
 49
0.5
 62
   256
  6
BYLAYER
 49
-0.5
 62
   256
  6
BYLAYER
  0
ACDBPLACEHOLDER
  5
993D
102
{ACAD_REACTORS
330
993C
102
}
330
993C
  0
SCALE
  5
9974
102
{ACAD_REACTORS
330
9973
102
}
330
9973
100
AcDbScale
 70
     0
300
1:1
140
1.0
141
1.0
290
     1
  0
SCALE
  5
9975
102
{ACAD_REACTORS
330
9973
102
}
330
9973
100
AcDbScale
 70
     0
300
1/128" = 1'-0"
140
0.0078125
141
12.0
290
     0
  0
SCALE
  5
9976
102
{ACAD_REACTORS
330
9973
102
}
330
9973
100
AcDbScale
 70
     0
300
1/64" = 1'-0"
140
0.015625
141
12.0
290
     0
  0
SCALE
  5
9977
102
{ACAD_REACTORS
330
9973
102
}
330
9973
100
AcDbScale
 70
     0
300
1/32" = 1'-0"
140
0.03125
141
12.0
290
     0
  0
SCALE
  5
9978
102
{ACAD_REACTORS
330
9973
102
}
330
9973
100
AcDbScale
 70
     0
300
1/16" = 1'-0"
140
0.0625
141
12.0
290
     0
  0
SCALE
  5
9979
102
{ACAD_REACTORS
330
9973
102
}
330
9973
100
AcDbScale
 70
     0
300
3/32" = 1'-0"
140
0.09375
141
12.0
290
     0
  0
SCALE
  5
997A
102
{ACAD_REACTORS
330
9973
102
}
330
9973
100
AcDbScale
 70
     0
300
1/8" = 1'-0"
140
0.125
141
12.0
290
     0
  0
SCALE
  5
997B
102
{ACAD_REACTORS
330
9973
102
}
330
9973
100
AcDbScale
 70
     0
300
3/16" = 1'-0"
140
0.1875
141
12.0
290
     0
  0
SCALE
  5
997C
102
{ACAD_REACTORS
330
9973
102
}
330
9973
100
AcDbScale
 70
     0
300
1/4" = 1'-0"
140
0.25
141
12.0
290
     0
  0
SCALE
  5
997D
102
{ACAD_REACTORS
330
9973
102
}
330
9973
100
AcDbScale
 70
     0
300
3/8" = 1'-0"
140
0.375
141
12.0
290
     0
  0
SCALE
  5
997E
102
{ACAD_REACTORS
330
9973
102
}
330
9973
100
AcDbScale
 70
     0
300
1/2" = 1'-0"
140
0.5
141
12.0
290
     0
  0
SCALE
  5
997F
102
{ACAD_REACTORS
330
9973
102
}
330
9973
100
AcDbScale
 70
     0
300
3/4" = 1'-0"
140
0.75
141
12.0
290
     0
  0
SCALE
  5
9980
102
{ACAD_REACTORS
330
9973
102
}
330
9973
100
AcDbScale
 70
     0
300
1" = 1'-0"
140
1.0
141
12.0
290
     0
  0
SCALE
  5
9981
102
{ACAD_REACTORS
330
9973
102
}
330
9973
100
AcDbScale
 70
     0
300
1-1/2" = 1'-0"
140
1.5
141
12.0
290
     0
  0
SCALE
  5
9982
102
{ACAD_REACTORS
330
9973
102
}
330
9973
100
AcDbScale
 70
     0
300
3" = 1'-0"
140
3.0
141
12.0
290
     0
  0
SCALE
  5
9983
102
{ACAD_REACTORS
330
9973
102
}
330
9973
100
AcDbScale
 70
     0
300
6" = 1'-0"
140
6.0
141
12.0
290
     0
  0
SCALE
  5
9984
102
{ACAD_REACTORS
330
9973
102
}
330
9973
100
AcDbScale
 70
     0
300
1'-0" = 1'-0"
140
12.0
141
12.0
290
     0
  0
ACDBSECTIONVIEWSTYLE
  5
9988
102
{ACAD_XDICTIONARY
360
99E3
102
}
102
{ACAD_REACTORS
330
9987
102
}
330
9987
100
AcDbModelDocViewStyle
 70
     0
  3
Imperial24
290
     0
100
AcDbSectionViewStyle
 70
     0
 71
     0
 90
       78
 71
     1
340
9603
 40
0.24
340
0
340
0
 40
0.24
300
I, O, Q, S, X, Z
 40
0.48
 90
        3
 40
0.18
 90
        1
 71
     2
340
9607
 90
       25
340
9607
 90
       50
 40
0.24
 40
0.0
 40
0.24
 71
     3
340
9603
 40
0.24
 90
        1
 40
0.75
 90
        1
300
%<\AcVar ViewType \f "%tc1">% %<\AcVar ViewSectionStartId>%-%<\AcVar ViewSectionEndId>%\PSCALE %<\AcVar ViewScale \f "%sn">%
 71
     4
300
ANSI31
 40
1.0
 90
        0
290
     0
290
     0
 90
        6
 40
0.0
 40
1.570796326794896
 40
0.2617993877991494
 40
1.308996938995747
 40
-0.2617993877991494
 40
1.832595714594046
  0
TABLESTYLE
  5
9972
102
{ACAD_XDICTIONARY
360
99AA
102
}
102
{ACAD_REACTORS
330
9971
102
}
330
9971
100
AcDbTableStyle
  3
Standard
 70
     0
 71
     0
 40
0.06
 41
0.06
280
     0
281
     0
  7
STANDARD
140
0.18
170
     2
 62
     0
 63
     7
283
     0
274
    -2
284
     1
 64
     0
275
    -2
285
     1
 65
     0
276
    -2
286
     1
 66
     0
277
    -2
287
     1
 67
     0
278
    -2
288
     1
 68
     0
279
    -2
289
     1
 69
     0
  7
STANDARD
140
0.25
170
     5
 62
     0
 63
     7
283
     0
274
    -2
284
     1
 64
     0
275
    -2
285
     1
 65
     0
276
    -2
286
     1
 66
     0
277
    -2
287
     1
 67
     0
278
    -2
288
     1
 68
     0
279
    -2
289
     1
 69
     0
  7
STANDARD
140
0.18
170
     5
 62
     0
 63
     7
283
     0
274
    -2
284
     1
 64
     0
275
    -2
285
     1
 65
     0
276
    -2
286
     1
 66
     0
277
    -2
287
     1
 67
     0
278
    -2
288
     1
 68
     0
279
    -2
289
     1
 69
     0
  0
VISUALSTYLE
  5
995D
102
{ACAD_XDICTIONARY
360
99BB
102
}
102
{ACAD_REACTORS
330
9957
102
}
330
9957
100
AcDbVisualStyle
  2
2dWireframe
 70
     4
 71
     0
 72
     2
 73
     0
 90
        0
 40
-0.6
 41
-30.0
 62
     5
 63
     7
 74
     1
 91
        4
 64
     7
 65
   257
 75
     1
175
     1
 42
1.0
 92
        0
 66
   257
 43
1.0
 76
     1
 77
     6
 78
     2
 67
     7
 79
     5
170
     0
171
     0
290
     0
174
     0
 93
        1
 44
0.0
173
     0
291
     0
 45
0.0
1001
ACAD
1000
AcDbSavedByObjectVersion
1070
     0
  0
VISUALSTYLE
  5
995C
102
{ACAD_XDICTIONARY
360
99B9
102
}
102
{ACAD_REACTORS
330
9957
102
}
330
9957
100
AcDbVisualStyle
  2
Basic
 70
     7
 71
     1
 72
     0
 73
     1
 90
        0
 40
-0.6
 41
-30.0
 62
     5
 63
     7
 74
     0
 91
        4
 64
     7
 65
   257
 75
     1
175
     1
 42
1.0
 92
        8
 66
     7
 43
1.0
 76
     1
 77
     6
 78
     2
 67
     7
 79
     5
170
     0
171
     0
290
     0
174
     0
 93
        1
 44
0.0
173
     0
291
     1
 45
0.0
1001
ACAD
1000
AcDbSavedByObjectVersion
1070
     0
  0
VISUALSTYLE
  5
9963
102
{ACAD_XDICTIONARY
360
99C7
102
}
102
{ACAD_REACTORS
330
9957
102
}
330
9957
100
AcDbVisualStyle
  2
Brighten
 70
    12
 71
     2
 72
     2
 73
     0
 90
        0
 40
-0.6
 41
-30.0
 62
     5
 63
     7
 74
     1
 91
        4
 64
     7
 65
   257
 75
     1
175
     1
 42
1.0
 92
        8
 66
     7
 43
1.0
 76
     1
 77
     6
 78
     2
 67
     7
 79
     5
170
     0
171
     0
290
     0
174
     0
 93
        1
 44
50.0
173
     0
291
     1
 45
0.0
1001
ACAD
1000
AcDbSavedByObjectVersion
1070
     0
  0
VISUALSTYLE
  5
9967
102
{ACAD_XDICTIONARY
360
99CF
102
}
102
{ACAD_REACTORS
330
9957
102
}
330
9957
100
AcDbVisualStyle
  2
ColorChange
 70
    16
 71
     2
 72
     2
 73
     3
 90
        0
 40
-0.6
 41
-30.0
 62
     5
 63
     8
 74
     1
 91
        4
 64
     7
 65
   257
 75
     1
175
     1
 42
1.0
 92
        8
 66
     8
 43
1.0
 76
     1
 77
     6
 78
     2
 67
     7
 79
     5
170
     0
171
     0
290
     0
174
     0
 93
        1
 44
0.0
173
     0
291
     1
 45
0.0
1001
ACAD
1000
AcDbSavedByObjectVersion
1070
     0
  0
VISUALSTYLE
  5
9960
102
{ACAD_XDICTIONARY
360
99C1
102
}
102
{ACAD_REACTORS
330
9957
102
}
330
9957
100
AcDbVisualStyle
  2
Conceptual
 70
     9
 71
     3
 72
     2
 73
     0
 90
        0
 40
-0.6
 41
-30.0
 62
     5
 63
     7
 74
     2
 91
        2
 64
     7
 65
   257
 75
     1
175
     1
 42
179.0
 92
        8
 66
     7
 43
1.0
 76
     1
 77
     6
 78
     2
 67
     7
 79
     3
170
     0
171
     0
290
     0
174
     0
 93
        1
 44
0.0
173
     0
291
     0
 45
0.0
1001
ACAD
1000
AcDbSavedByObjectVersion
1070
     0
  0
VISUALSTYLE
  5
9962
102
{ACAD_XDICTIONARY
360
99C5
102
}
102
{ACAD_REACTORS
330
9957
102
}
330
9957
100
AcDbVisualStyle
  2
Dim
 70
    11
 71
     2
 72
     2
 73
     0
 90
        0
 40
-0.6
 41
-30.0
 62
     5
 63
     7
 74
     1
 91
        4
 64
     7
 65
   257
 75
     1
175
     1
 42
1.0
 92
        8
 66
     7
 43
1.0
 76
     1
 77
     6
 78
     2
 67
     7
 79
     5
170
     0
171
     0
290
     0
174
     0
 93
        1
 44
-50.0
173
     0
291
     1
 45
0.0
1001
ACAD
1000
AcDbSavedByObjectVersion
1070
     0
  0
VISUALSTYLE
  5
996F
102
{ACAD_XDICTIONARY
360
99DF
102
}
102
{ACAD_REACTORS
330
9957
102
}
330
9957
100
AcDbVisualStyle
  2
EdgeColorOff
 70
    22
 71
     2
 72
     2
 73
     0
 90
        0
 40
-0.6
 41
-30.0
 62
     5
 63
     7
 74
     1
 91
        4
 64
     7
 65
   257
 75
     1
175
     1
 42
1.0
 92
        8
 66
     7
 43
1.0
 76
     1
 77
     6
 78
     2
 67
     7
 79
     5
170
     0
171
     0
290
     0
174
     0
 93
        1
 44
0.0
173
     0
291
     1
 45
0.0
1001
ACAD
1000
AcDbSavedByObjectVersion
1070
     0
  0
VISUALSTYLE
  5
9966
102
{ACAD_XDICTIONARY
360
99CD
102
}
102
{ACAD_REACTORS
330
9957
102
}
330
9957
100
AcDbVisualStyle
  2
Facepattern
 70
    15
 71
     2
 72
     2
 73
     0
 90
        0
 40
-0.6
 41
-30.0
 62
     5
 63
     7
 74
     1
 91
        4
 64
     7
 65
   257
 75
     1
175
     1
 42
1.0
 92
        8
 66
     7
 43
1.0
 76
     1
 77
     6
 78
     2
 67
     7
 79
     5
170
     0
171
     0
290
     0
174
     0
 93
        1
 44
0.0
173
     0
291
     1
 45
0.0
1001
ACAD
1000
AcDbSavedByObjectVersion
1070
     0
  0
VISUALSTYLE
  5
9958
102
{ACAD_XDICTIONARY
360
99B1
102
}
102
{ACAD_REACTORS
330
9957
102
}
330
9957
100
AcDbVisualStyle
  2
Flat
 70
     0
 71
     2
 72
     1
 73
     1
 90
        2
 40
-0.6
 41
30.0
 62
     5
 63
     7
 74
     0
 91
        0
 64
     7
 65
   257
 75
     1
175
     1
 42
1.0
 92
        8
 66
     7
 43
1.0
 76
     1
 77
     6
 78
     2
 67
     7
 79
     5
170
     0
171
     0
290
     0
174
     0
 93
       13
 44
0.0
173
     0
291
     1
 45
0.0
1001
ACAD
1000
AcDbSavedByObjectVersion
1070
     0
  0
VISUALSTYLE
  5
9959
102
{ACAD_XDICTIONARY
360
99B3
102
}
102
{ACAD_REACTORS
330
9957
102
}
330
9957
100
AcDbVisualStyle
  2
FlatWithEdges
 70
     1
 71
     2
 72
     1
 73
     1
 90
        2
 40
-0.6
 41
30.0
 62
     5
 63
     7
 74
     1
 91
        0
 64
     7
 65
   257
 75
     1
175
     1
 42
1.0
 92
        0
 66
   257
 43
1.0
 76
     1
 77
     6
 78
     2
 67
     7
 79
     5
170
     0
171
     0
290
     0
174
     0
 93
       13
 44
0.0
173
     0
291
     1
 45
0.0
1001
ACAD
1000
AcDbSavedByObjectVersion
1070
     0
  0
VISUALSTYLE
  5
995A
102
{ACAD_XDICTIONARY
360
99B5
102
}
102
{ACAD_REACTORS
330
9957
102
}
330
9957
100
AcDbVisualStyle
  2
Gouraud
 70
     2
 71
     2
 72
     2
 73
     1
 90
        2
 40
-0.6
 41
30.0
 62
     5
 63
     7
 74
     0
 91
        0
 64
     7
 65
   257
 75
     1
175
     1
 42
1.0
 92
        0
 66
     7
 43
1.0
 76
     1
 77
     6
 78
     2
 67
     7
 79
     5
170
     0
171
     0
290
     0
174
     0
 93
       13
 44
0.0
173
     0
291
     1
 45
0.0
1001
ACAD
1000
AcDbSavedByObjectVersion
1070
     0
  0
VISUALSTYLE
  5
995B
102
{ACAD_XDICTIONARY
360
99B7
102
}
102
{ACAD_REACTORS
330
9957
102
}
330
9957
100
AcDbVisualStyle
  2
GouraudWithEdges
 70
     3
 71
     2
 72
     2
 73
     1
 90
        2
 40
-0.6
 41
30.0
 62
     5
 63
     7
 74
     1
 91
        0
 64
     7
 65
   257
 75
     1
175
     1
 42
1.0
 92
        0
 66
   257
 43
1.0
 76
     1
 77
     6
 78
     2
 67
     7
 79
     5
170
     0
171
     0
290
     0
174
     0
 93
       13
 44
0.0
173
     0
291
     1
 45
0.0
1001
ACAD
1000
AcDbSavedByObjectVersion
1070
     0
  0
VISUALSTYLE
  5
995F
102
{ACAD_XDICTIONARY
360
99BF
102
}
102
{ACAD_REACTORS
330
9957
102
}
330
9957
100
AcDbVisualStyle
  2
Hidden
 70
     6
 71
     1
 72
     2
 73
     2
 90
        0
 40
-0.6
 41
-30.0
 62
     5
 63
     7
 74
     2
 91
        2
 64
     7
 65
   257
 75
     2
175
     1
 42
40.0
 92
        0
 66
   257
 43
1.0
 76
     1
 77
     6
 78
     2
 67
     7
 79
     3
170
     0
171
     0
290
     0
174
     0
 93
        1
 44
0.0
173
     0
291
     0
 45
0.0
1001
ACAD
1000
AcDbSavedByObjectVersion
1070
     0
  0
VISUALSTYLE
  5
996D
102
{ACAD_XDICTIONARY
360
99DB
102
}
102
{ACAD_REACTORS
330
9957
102
}
330
9957
100
AcDbVisualStyle
  2
JitterOff
 70
    20
 71
     2
 72
     2
 73
     0
 90
        0
 40
-0.6
 41
-30.0
 62
     5
 63
     7
 74
     1
 91
        4
 64
     7
 65
   257
 75
     1
175
     1
 42
1.0
 92
       10
 66
     7
 43
1.0
 76
     1
 77
     6
 78
     2
 67
     7
 79
     5
170
     0
171
     0
290
     0
174
     0
 93
        1
 44
0.0
173
     0
291
     1
 45
0.0
1001
ACAD
1000
AcDbSavedByObjectVersion
1070
     0
  0
VISUALSTYLE
  5
9965
102
{ACAD_XDICTIONARY
360
99CB
102
}
102
{ACAD_REACTORS
330
9957
102
}
330
9957
100
AcDbVisualStyle
  2
Linepattern
 70
    14
 71
     2
 72
     2
 73
     0
 90
        0
 40
-0.6
 41
-30.0
 62
     5
 63
     7
 74
     1
 91
        4
 64
     7
 65
   257
 75
     7
175
     7
 42
1.0
 92
        8
 66
     7
 43
1.0
 76
     1
 77
     6
 78
     2
 67
     7
 79
     5
170
     0
171
     0
290
     0
174
     0
 93
        1
 44
0.0
173
     0
291
     1
 45
0.0
1001
ACAD
1000
AcDbSavedByObjectVersion
1070
     0
  0
VISUALSTYLE
  5
996E
102
{ACAD_XDICTIONARY
360
99DD
102
}
102
{ACAD_REACTORS
330
9957
102
}
330
9957
100
AcDbVisualStyle
  2
OverhangOff
 70
    21
 71
     2
 72
     2
 73
     0
 90
        0
 40
-0.6
 41
-30.0
 62
     5
 63
     7
 74
     1
 91
        4
 64
     7
 65
   257
 75
     1
175
     1
 42
1.0
 92
        9
 66
     7
 43
1.0
 76
     1
 77
     6
 78
     2
 67
     7
 79
     5
170
     0
171
     0
290
     0
174
     0
 93
        1
 44
0.0
173
     0
291
     1
 45
0.0
1001
ACAD
1000
AcDbSavedByObjectVersion
1070
     0
  0
VISUALSTYLE
  5
9961
102
{ACAD_XDICTIONARY
360
99C3
102
}
102
{ACAD_REACTORS
330
9957
102
}
330
9957
100
AcDbVisualStyle
  2
Realistic
 70
     8
 71
     2
 72
     3
 73
     0
 90
        2
 40
-0.6
 41
30.0
 62
     5
 63
     7
 74
     0
 91
        0
 64
     7
 65
   257
 75
     1
175
     1
 42
1.0
 92
        8
 66
   257
 43
1.0
 76
     1
 77
     6
 78
     2
 67
     7
 79
     3
170
     0
171
     0
290
     0
174
     0
 93
       13
 44
0.0
173
     0
291
     0
 45
0.0
1001
ACAD
1000
AcDbSavedByObjectVersion
1070
     0
  0
VISUALSTYLE
  5
996C
102
{ACAD_XDICTIONARY
360
99D9
102
}
102
{ACAD_REACTORS
330
9957
102
}
330
9957
100
AcDbVisualStyle
  2
Shaded
 70
    27
 71
     2
 72
     2
 73
     1
 90
        2
 40
-0.6
 41
30.0
 62
     5
 63
     7
 74
     0
 91
        4
 64
     7
 65
   257
 75
     1
175
     1
 42
1.0
 92
        8
 66
   257
 43
1.0
 76
     1
 77
     6
 78
     2
 67
     8
 79
     3
170
     0
171
     0
290
     0
174
     0
 93
        5
 44
0.0
173
     0
291
     0
 45
0.0
1001
ACAD
1000
AcDbSavedByObjectVersion
1070
     0
  0
VISUALSTYLE
  5
996B
102
{ACAD_XDICTIONARY
360
99D7
102
}
102
{ACAD_REACTORS
330
9957
102
}
330
9957
100
AcDbVisualStyle
  2
Shaded with edges
 70
    26
 71
     2
 72
     2
 73
     1
 90
        2
 40
-0.6
 41
30.0
 62
     5
 63
     7
 74
     1
 91
       10
 64
     7
 65
   257
 75
     2
175
     1
 42
1.0
 92
        8
 66
   257
 43
1.0
 76
     1
 77
     6
 78
     2
 67
     7
 79
     3
170
     0
171
     0
290
     0
174
     0
 93
        5
 44
0.0
173
     0
291
     0
 45
0.0
1001
ACAD
1000
AcDbSavedByObjectVersion
1070
     0
  0
VISUALSTYLE
  5
9968
102
{ACAD_XDICTIONARY
360
99D1
102
}
102
{ACAD_REACTORS
330
9957
102
}
330
9957
100
AcDbVisualStyle
  2
Shades of Gray
 70
    23
 71
     2
 72
     2
 73
     3
 90
        0
 40
-0.6
 41
-30.0
 62
     5
 63
     7
 74
     2
 91
        2
 64
     7
 65
     7
 75
     1
175
     1
 42
40.0
 92
        8
 66
     7
 43
1.0
 76
     1
 77
     6
 78
     2
 67
     7
 79
     3
170
     0
171
     0
290
     0
174
     0
 93
        1
 44
0.0
173
     0
291
     0
 45
0.0
1001
ACAD
1000
AcDbSavedByObjectVersion
1070
     0
  0
VISUALSTYLE
  5
9969
102
{ACAD_XDICTIONARY
360
99D3
102
}
102
{ACAD_REACTORS
330
9957
102
}
330
9957
100
AcDbVisualStyle
  2
Sketchy
 70
    24
 71
     1
 72
     2
 73
     2
 90
        0
 40
-0.6
 41
-30.0
 62
     5
 63
     7
 74
     2
 91
        2
 64
     7
 65
     7
 75
     1
175
     1
 42
40.0
 92
       11
 66
     7
 43
1.0
 76
     1
 77
     6
 78
     2
 67
     7
 79
     6
170
     0
171
     0
290
     0
174
     0
 93
        1
 44
0.0
173
     0
291
     0
 45
0.0
1001
ACAD
1000
AcDbSavedByObjectVersion
1070
     0
  0
VISUALSTYLE
  5
9964
102
{ACAD_XDICTIONARY
360
99C9
102
}
102
{ACAD_REACTORS
330
9957
102
}
330
9957
100
AcDbVisualStyle
  2
Thicken
 70
    13
 71
     2
 72
     2
 73
     0
 90
        0
 40
-0.6
 41
-30.0
 62
     5
 63
     7
 74
     1
 91
        4
 64
     7
 65
   257
 75
     1
175
     1
 42
1.0
 92
       12
 66
     7
 43
1.0
 76
     1
 77
     6
 78
     2
 67
     7
 79
     5
170
     0
171
     0
290
     0
174
     0
 93
        1
 44
0.0
173
     0
291
     1
 45
0.0
1001
ACAD
1000
AcDbSavedByObjectVersion
1070
     0
  0
VISUALSTYLE
  5
995E
102
{ACAD_XDICTIONARY
360
99BD
102
}
102
{ACAD_REACTORS
330
9957
102
}
330
9957
100
AcDbVisualStyle
  2
Wireframe
 70
     5
 71
     0
 72
     2
 73
     0
 90
        0
 40
-0.6
 41
-30.0
 62
     5
 63
     7
 74
     1
 91
        4
 64
     7
 65
   257
 75
     1
175
     1
 42
1.0
 92
        0
 66
   257
 43
1.0
 76
     1
 77
     6
 78
     2
 67
     7
 79
     3
170
     0
171
     0
290
     0
174
     0
 93
        1
 44
0.0
173
     0
291
     0
 45
0.0
1001
ACAD
1000
AcDbSavedByObjectVersion
1070
     0
  0
VISUALSTYLE
  5
996A
102
{ACAD_XDICTIONARY
360
99D5
102
}
102
{ACAD_REACTORS
330
9957
102
}
330
9957
100
AcDbVisualStyle
  2
X-Ray
 70
    25
 71
     2
 72
     2
 73
     1
 90
        1
 40
0.5
 41
-30.0
 62
     5
 63
     7
 74
     1
 91
        0
 64
     7
 65
   257
 75
     1
175
     1
 42
1.0
 92
        8
 66
     7
 43
1.0
 76
     1
 77
     6
 78
     2
 67
     7
 79
     3
170
     0
171
     0
290
     0
174
     0
 93
       13
 44
0.0
173
     0
291
     0
 45
0.0
1001
ACAD
1000
AcDbSavedByObjectVersion
1070
     0
  0
DICTIONARYVAR
  5
99A4
102
{ACAD_REACTORS
330
999F
102
}
330
999F
100
DictionaryVariables
280
     0
  1
1:1
  0
DICTIONARYVAR
  5
99A1
102
{ACAD_REACTORS
330
999F
102
}
330
999F
100
DictionaryVariables
280
     0
  1
STANDARD
  0
DICTIONARYVAR
  5
99A0
102
{ACAD_REACTORS
330
999F
102
}
330
999F
100
DictionaryVariables
280
     0
  1
STANDARD
  0
DICTIONARYVAR
  5
99A2
102
{ACAD_REACTORS
330
999F
102
}
330
999F
100
DictionaryVariables
280
     0
  1
Imperial24
  0
DICTIONARYVAR
  5
99A3
102
{ACAD_REACTORS
330
999F
102
}
330
999F
100
DictionaryVariables
280
     0
  1
Imperial24
  0
DICTIONARYVAR
  5
99A7
102
{ACAD_REACTORS
330
999F
102
}
330
999F
100
DictionaryVariables
280
     0
  1
1
  0
DICTIONARYVAR
  5
99A6
102
{ACAD_REACTORS
330
999F
102
}
330
999F
100
DictionaryVariables
280
     0
  1
0
  0
DICTIONARYVAR
  5
99A5
102
{ACAD_REACTORS
330
999F
102
}
330
999F
100
DictionaryVariables
280
     0
  1
127
  0
DICTIONARYVAR
  5
99A8
102
{ACAD_REACTORS
330
999F
102
}
330
999F
100
DictionaryVariables
280
     0
  1
2
  0
DICTIONARY
  5
99E5
330
998A
100
AcDbDictionary
280
     1
281
     1
  3
ACAD_XREC_ROUNDTRIP
360
99E6
  0
DICTIONARY
  5
99E7
330
998B
100
AcDbDictionary
280
     1
281
     1
  3
ACAD_XREC_ROUNDTRIP
360
99E8
  0
DICTIONARY
  5
99E9
330
998C
100
AcDbDictionary
280
     1
281
     1
  3
ACAD_XREC_ROUNDTRIP
360
99EA
  0
DICTIONARY
  5
9948
330
9947
100
AcDbDictionary
280
     1
281
     1
  3
ACAD_XREC_ROUNDTRIP
360
99AF
  3
BUMPTILE
360
994A
  3
DIFFUSETILE
360
9949
  3
OPACITYTILE
360
994D
  3
REFLECTIONTILE
360
994C
  3
REFRACTIONTILE
360
994E
  3
SPECULARTILE
360
994B
  0
DICTIONARY
  5
9940
330
993F
100
AcDbDictionary
280
     1
281
     1
  3
ACAD_XREC_ROUNDTRIP
360
99AE
  3
BUMPTILE
360
9942
  3
DIFFUSETILE
360
9941
  3
OPACITYTILE
360
9945
  3
REFLECTIONTILE
360
9944
  3
REFRACTIONTILE
360
9946
  3
SPECULARTILE
360
9943
  0
DICTIONARY
  5
9950
330
994F
100
AcDbDictionary
280
     1
281
     1
  3
ACAD_XREC_ROUNDTRIP
360
99B0
  3
BUMPTILE
360
9952
  3
DIFFUSETILE
360
9951
  3
OPACITYTILE
360
9955
  3
REFLECTIONTILE
360
9954
  3
REFRACTIONTILE
360
9956
  3
SPECULARTILE
360
9953
  0
DICTIONARY
  5
99E3
330
9988
100
AcDbDictionary
280
     1
281
     1
  3
ACAD_XREC_ROUNDTRIP
360
99E4
  0
DICTIONARY
  5
99AA
330
9972
100
AcDbDictionary
280
     1
281
     1
  3
ACAD_ROUNDTRIP_2008_TABLESTYLE_CELLSTYLEMAP
360
99AB
  3
ACAD_XREC_ROUNDTRIP
360
99E1
  0
DICTIONARY
  5
99BB
330
995D
100
AcDbDictionary
280
     1
281
     1
  3
ACAD_XREC_ROUNDTRIP
360
99BC
  0
DICTIONARY
  5
99B9
330
995C
100
AcDbDictionary
280
     1
281
     1
  3
ACAD_XREC_ROUNDTRIP
360
99BA
  0
DICTIONARY
  5
99C7
330
9963
100
AcDbDictionary
280
     1
281
     1
  3
ACAD_XREC_ROUNDTRIP
360
99C8
  0
DICTIONARY
  5
99CF
330
9967
100
AcDbDictionary
280
     1
281
     1
  3
ACAD_XREC_ROUNDTRIP
360
99D0
  0
DICTIONARY
  5
99C1
330
9960
100
AcDbDictionary
280
     1
281
     1
  3
ACAD_XREC_ROUNDTRIP
360
99C2
  0
DICTIONARY
  5
99C5
330
9962
100
AcDbDictionary
280
     1
281
     1
  3
ACAD_XREC_ROUNDTRIP
360
99C6
  0
DICTIONARY
  5
99DF
330
996F
100
AcDbDictionary
280
     1
281
     1
  3
ACAD_XREC_ROUNDTRIP
360
99E0
  0
DICTIONARY
  5
99CD
330
9966
100
AcDbDictionary
280
     1
281
     1
  3
ACAD_XREC_ROUNDTRIP
360
99CE
  0
DICTIONARY
  5
99B1
330
9958
100
AcDbDictionary
280
     1
281
     1
  3
ACAD_XREC_ROUNDTRIP
360
99B2
  0
DICTIONARY
  5
99B3
330
9959
100
AcDbDictionary
280
     1
281
     1
  3
ACAD_XREC_ROUNDTRIP
360
99B4
  0
DICTIONARY
  5
99B5
330
995A
100
AcDbDictionary
280
     1
281
     1
  3
ACAD_XREC_ROUNDTRIP
360
99B6
  0
DICTIONARY
  5
99B7
330
995B
100
AcDbDictionary
280
     1
281
     1
  3
ACAD_XREC_ROUNDTRIP
360
99B8
  0
DICTIONARY
  5
99BF
330
995F
100
AcDbDictionary
280
     1
281
     1
  3
ACAD_XREC_ROUNDTRIP
360
99C0
  0
DICTIONARY
  5
99DB
330
996D
100
AcDbDictionary
280
     1
281
     1
  3
ACAD_XREC_ROUNDTRIP
360
99DC
  0
DICTIONARY
  5
99CB
330
9965
100
AcDbDictionary
280
     1
281
     1
  3
ACAD_XREC_ROUNDTRIP
360
99CC
  0
DICTIONARY
  5
99DD
330
996E
100
AcDbDictionary
280
     1
281
     1
  3
ACAD_XREC_ROUNDTRIP
360
99DE
  0
DICTIONARY
  5
99C3
330
9961
100
AcDbDictionary
280
     1
281
     1
  3
ACAD_XREC_ROUNDTRIP
360
99C4
  0
DICTIONARY
  5
99D9
330
996C
100
AcDbDictionary
280
     1
281
     1
  3
ACAD_XREC_ROUNDTRIP
360
99DA
  0
DICTIONARY
  5
99D7
330
996B
100
AcDbDictionary
280
     1
281
     1
  3
ACAD_XREC_ROUNDTRIP
360
99D8
  0
DICTIONARY
  5
99D1
330
9968
100
AcDbDictionary
280
     1
281
     1
  3
ACAD_XREC_ROUNDTRIP
360
99D2
  0
DICTIONARY
  5
99D3
330
9969
100
AcDbDictionary
280
     1
281
     1
  3
ACAD_XREC_ROUNDTRIP
360
99D4
  0
DICTIONARY
  5
99C9
330
9964
100
AcDbDictionary
280
     1
281
     1
  3
ACAD_XREC_ROUNDTRIP
360
99CA
  0
DICTIONARY
  5
99BD
330
995E
100
AcDbDictionary
280
     1
281
     1
  3
ACAD_XREC_ROUNDTRIP
360
99BE
  0
DICTIONARY
  5
99D5
330
996A
100
AcDbDictionary
280
     1
281
     1
  3
ACAD_XREC_ROUNDTRIP
360
99D6
  0
XRECORD
  5
99E6
102
{ACAD_REACTORS
330
99E5
102
}
330
99E5
100
AcDbXrecord
280
     1
102
DISPLAYNAME
  1
Imperial24
102
FLAGS
 90
        0
  0
XRECORD
  5
99E8
102
{ACAD_REACTORS
330
99E7
102
}
330
99E7
100
AcDbXrecord
280
     1
102
SHADEPLOT
 70
     0
102
SHADEPLOTRESLEVEL
 70
     2
102
SHADEPLOTCUSTOMDPI
 70
   300
  0
XRECORD
  5
99EA
102
{ACAD_REACTORS
330
99E9
102
}
330
99E9
100
AcDbXrecord
280
     1
102
SHADEPLOT
 70
     0
102
SHADEPLOTRESLEVEL
 70
     2
102
SHADEPLOTCUSTOMDPI
 70
   300
  0
XRECORD
  5
99AF
102
{ACAD_REACTORS
330
9948
102
}
330
9948
100
AcDbXrecord
280
     1
102
MATERIAL
148
0.0
149
0.0
149
0.0
 93
        0
 94
      127
282
     0
 72
     0
 77
     0
171
     0
175
     0
179
     0
273
     0
  0
XRECORD
  5
994A
102
{ACAD_REACTORS
330
9948
102
}
330
9948
100
AcDbXrecord
280
     1
270
     1
271
     1
  0
XRECORD
  5
9949
102
{ACAD_REACTORS
330
9948
102
}
330
9948
100
AcDbXrecord
280
     1
270
     1
271
     1
  0
XRECORD
  5
994D
102
{ACAD_REACTORS
330
9948
102
}
330
9948
100
AcDbXrecord
280
     1
270
     1
271
     1
  0
XRECORD
  5
994C
102
{ACAD_REACTORS
330
9948
102
}
330
9948
100
AcDbXrecord
280
     1
270
     1
271
     1
  0
XRECORD
  5
994E
102
{ACAD_REACTORS
330
9948
102
}
330
9948
100
AcDbXrecord
280
     1
270
     1
271
     1
  0
XRECORD
  5
994B
102
{ACAD_REACTORS
330
9948
102
}
330
9948
100
AcDbXrecord
280
     1
270
     1
271
     1
  0
XRECORD
  5
99AE
102
{ACAD_REACTORS
330
9940
102
}
330
9940
100
AcDbXrecord
280
     1
102
MATERIAL
148
0.0
149
0.0
149
0.0
 93
        0
 94
      127
282
     0
 72
     0
 77
     0
171
     0
175
     0
179
     0
273
     0
  0
XRECORD
  5
9942
102
{ACAD_REACTORS
330
9940
102
}
330
9940
100
AcDbXrecord
280
     1
270
     1
271
     1
  0
XRECORD
  5
9941
102
{ACAD_REACTORS
330
9940
102
}
330
9940
100
AcDbXrecord
280
     1
270
     1
271
     1
  0
XRECORD
  5
9945
102
{ACAD_REACTORS
330
9940
102
}
330
9940
100
AcDbXrecord
280
     1
270
     1
271
     1
  0
XRECORD
  5
9944
102
{ACAD_REACTORS
330
9940
102
}
330
9940
100
AcDbXrecord
280
     1
270
     1
271
     1
  0
XRECORD
  5
9946
102
{ACAD_REACTORS
330
9940
102
}
330
9940
100
AcDbXrecord
280
     1
270
     1
271
     1
  0
XRECORD
  5
9943
102
{ACAD_REACTORS
330
9940
102
}
330
9940
100
AcDbXrecord
280
     1
270
     1
271
     1
  0
XRECORD
  5
99B0
102
{ACAD_REACTORS
330
9950
102
}
330
9950
100
AcDbXrecord
280
     1
102
MATERIAL
148
0.0
149
0.0
149
0.0
 93
        0
 94
      127
282
     0
 72
     0
 77
     0
171
     0
175
     0
179
     0
273
     0
  0
XRECORD
  5
9952
102
{ACAD_REACTORS
330
9950
102
}
330
9950
100
AcDbXrecord
280
     1
270
     1
271
     1
  0
XRECORD
  5
9951
102
{ACAD_REACTORS
330
9950
102
}
330
9950
100
AcDbXrecord
280
     1
270
     1
271
     1
  0
XRECORD
  5
9955
102
{ACAD_REACTORS
330
9950
102
}
330
9950
100
AcDbXrecord
280
     1
270
     1
271
     1
  0
XRECORD
  5
9954
102
{ACAD_REACTORS
330
9950
102
}
330
9950
100
AcDbXrecord
280
     1
270
     1
271
     1
  0
XRECORD
  5
9956
102
{ACAD_REACTORS
330
9950
102
}
330
9950
100
AcDbXrecord
280
     1
270
     1
271
     1
  0
XRECORD
  5
9953
102
{ACAD_REACTORS
330
9950
102
}
330
9950
100
AcDbXrecord
280
     1
270
     1
271
     1
  0
XRECORD
  5
99E4
102
{ACAD_REACTORS
330
99E3
102
}
330
99E3
100
AcDbXrecord
280
     1
102
DISPLAYNAME
  1
Imperial24
102
FLAGS
 90
        0
  0
CELLSTYLEMAP
  5
99AB
102
{ACAD_REACTORS
330
99AA
102
}
330
99AA
100
AcDbCellStyleMap
 90
        3
300
CELLSTYLE
  1
TABLEFORMAT_BEGIN
 90
        5
170
     1
 91
        0
 92
    32768
 62
   257
 93
        1
300
CONTENTFORMAT
  1
CONTENTFORMAT_BEGIN
 90
        0
 91
        0
 92
      512
 93
        0
300

 40
0.0
140
1.0
 94
        5
 62
     0
340
9603
144
0.25
309
CONTENTFORMAT_END
171
     0
 94
        0
309
TABLEFORMAT_END
  1
CELLSTYLE_BEGIN
 90
        1
 91
        1
300
_TITLE
309
CELLSTYLE_END
300
CELLSTYLE
  1
TABLEFORMAT_BEGIN
 90
        5
170
     1
 91
        0
 92
        0
 62
   257
 93
        1
300
CONTENTFORMAT
  1
CONTENTFORMAT_BEGIN
 90
        0
 91
        0
 92
      512
 93
        0
300

 40
0.0
140
1.0
 94
        5
 62
     0
340
9603
144
0.18
309
CONTENTFORMAT_END
171
     0
 94
        0
309
TABLEFORMAT_END
  1
CELLSTYLE_BEGIN
 90
        2
 91
        1
300
_HEADER
309
CELLSTYLE_END
300
CELLSTYLE
  1
TABLEFORMAT_BEGIN
 90
        5
170
     1
 91
        0
 92
        0
 62
   257
 93
        1
300
CONTENTFORMAT
  1
CONTENTFORMAT_BEGIN
 90
        0
 91
        0
 92
      512
 93
        0
300

 40
0.0
140
1.0
 94
        2
 62
     0
340
9603
144
0.18
309
CONTENTFORMAT_END
171
     0
 94
        0
309
TABLEFORMAT_END
  1
CELLSTYLE_BEGIN
 90
        3
 91
        2
300
_DATA
309
CELLSTYLE_END
  0
XRECORD
  5
99E1
102
{ACAD_REACTORS
330
99AA
102
}
330
99AA
100
AcDbXrecord
280
     1
102
ACAD_ROUNDTRIP_PRE2007_TABLESTYLE
 90
      512
 91
        0
  1

 92
      512
 93
        0
  2

 94
      512
 95
        0
  3

  0
XRECORD
  5
99BC
102
{ACAD_REACTORS
330
99BB
102
}
330
99BB
100
AcDbXrecord
280
     1
102
RTVSPost2010Prop28
280
     1
102
RTVSPost2010PropOp28
 70
     1
102
RTVSPost2010Prop29
280
     1
102
RTVSPost2010PropOp29
 70
     1
102
RTVSPost2010Prop30
280
     0
102
RTVSPost2010PropOp30
 70
     1
102
RTVSPost2010Prop31
280
     0
102
RTVSPost2010PropOp31
 70
     1
102
RTVSPost2010Prop32
280
     0
102
RTVSPost2010PropOp32
 70
     1
102
RTVSPost2010Prop33
280
     0
102
RTVSPost2010PropOp33
 70
     1
102
RTVSPost2010Prop34
280
     0
102
RTVSPost2010PropOp34
 70
     1
102
RTVSPost2010Prop35
280
     0
102
RTVSPost2010PropOp35
 70
     1
102
RTVSPost2010Prop36
280
     0
102
RTVSPost2010PropOp36
 70
     1
102
RTVSPost2010Prop37
 90
       50
102
RTVSPost2010PropOp37
 70
     1
102
RTVSPost2010Prop38
140
0.0
102
RTVSPost2010PropOp38
 70
     1
102
RTVSPost2010Prop39
140
1.0
102
RTVSPost2010PropOp39
 70
     1
102
RTVSPost2010Prop40
 90
        0
102
RTVSPost2010PropOp40
 70
     1
102
RTVSPost2010Prop41ColorIndex
 90
       18
102
RTVSPost2010Prop41ColorRGB
 90
        0
102
RTVSPost2010PropOp41
 70
     1
102
RTVSPost2010Prop42
 90
       50
102
RTVSPost2010PropOp42
 70
     1
102
RTVSPost2010Prop43
 90
        3
102
RTVSPost2010PropOp43
 70
     1
102
RTVSPost2010Prop44ColorIndex
 90
        5
102
RTVSPost2010Prop44ColorRGB
 90
      255
102
RTVSPost2010PropOp44
 70
     1
102
RTVSPost2010Prop45
280
     0
102
RTVSPost2010PropOp45
 70
     1
102
RTVSPost2010Prop46
 90
       50
102
RTVSPost2010PropOp46
 70
     1
102
RTVSPost2010Prop47
 90
       50
102
RTVSPost2010PropOp47
 70
     1
102
RTVSPost2010Prop48
 90
       50
102
RTVSPost2010PropOp48
 70
     1
102
RTVSPost2010Prop49
280
     0
102
RTVSPost2010PropOp49
 70
     1
102
RTVSPost2010Prop50
 90
       50
102
RTVSPost2010PropOp50
 70
     1
102
RTVSPost2010Prop51ColorIndex
 90
      256
102
RTVSPost2010Prop51ColorRGB
 90
-16777216
102
RTVSPost2010PropOp51
 70
     0
102
RTVSPost2010Prop52
140
1.0
102
RTVSPost2010PropOp52
 70
     0
102
RTVSPost2010Prop53
 90
        2
102
RTVSPost2010PropOp53
 70
     1
102
RTVSPost2010Prop54
  1
strokes_ogs.tif
102
RTVSPost2010PropOp54
 70
     1
102
RTVSPost2010Prop55
280
     0
102
RTVSPost2010PropOp55
 70
     1
102
RTVSPost2010Prop56
140
1.0
102
RTVSPost2010PropOp56
 70
     1
102
RTVSPost2010Prop57
140
1.0
102
RTVSPost2010PropOp57
 70
     1
102
RTVSPropertyOp0
 70
     1
102
RTVSPropertyOp1
 70
     1
102
RTVSPropertyOp2
 70
     1
102
RTVSPropertyOp3
 70
     1
102
RTVSPropertyOp4
 70
     1
102
RTVSPropertyOp5
 70
     1
102
RTVSPropertyOp6
 70
     1
102
RTVSPropertyOp7
 70
     1
102
RTVSPropertyOp8
 70
     1
102
RTVSPropertyOp9
 70
     1
102
RTVSPropertyOp10
 70
     1
102
RTVSPropertyOp11
 70
     1
102
RTVSPropertyOp12
 70
     1
102
RTVSPropertyOp13
 70
     1
102
RTVSPropertyOp14
 70
     1
102
RTVSPropertyOp15
 70
     1
102
RTVSPropertyOp16
 70
     1
102
RTVSPropertyOp17
 70
     1
102
RTVSPropertyOp18
 70
     1
102
RTVSPropertyOp19
 70
     1
102
RTVSPropertyOp20
 70
     1
102
RTVSPropertyOp21
 70
     1
102
RTVSPropertyOp22
 70
     1
102
RTVSPropertyOp23
 70
     1
102
RTVSPropertyOp24
 70
     1
102
RTVSPropertyOp25
 70
     1
102
RTVSPropertyOp26
 70
     1
102
RTVSPropertyOp27
 70
     1
102
RTVSPropertyOp28
 70
     1
102
RTVSPropertyOp29
 70
     1
102
RTVSPropertyOp30
 70
     1
102
RTVSPropertyOp31
 70
     1
102
RTVSPropertyOp32
 70
     1
102
RTVSPropertyOp33
 70
     1
102
RTVSPropertyOp34
 70
     1
102
RTVSPropertyOp35
 70
     1
102
RTVSPropertyOp36
 70
     1
102
RTVSPropertyOp37
 70
     1
102
RTVSPropertyOp38
 70
     1
102
RTVSPropertyOp39
 70
     1
102
RTVSPropertyOp40
 70
     1
102
RTVSPropertyOp41
 70
     1
102
RTVSPropertyOp42
 70
     1
102
RTVSPropertyOp43
 70
     1
102
RTVSPropertyOp44
 70
     1
102
RTVSPropertyOp45
 70
     1
102
RTVSPropertyOp46
 70
     1
102
RTVSPropertyOp47
 70
     1
102
RTVSPropertyOp48
 70
     1
102
RTVSPropertyOp49
 70
     1
102
RTVSPropertyOp50
 70
     1
102
RTVSPropertyOp51
 70
     0
102
RTVSPropertyOp52
 70
     0
102
RTVSPropertyOp53
 70
     1
102
RTVSPropertyOp54
 70
     1
102
RTVSPropertyOp55
 70
     1
102
RTVSPropertyOp56
 70
     1
102
RTVSPropertyOp57
 70
     1
102
RTVSPropertyOp58
 70
     1
102
RTVSPropertyOp59
 70
     1
102
RTVSPropertyOp60
 70
     1
102
RTVSPropertyOp61
 70
     1
102
RTVSPropertyOp62
 70
     1
  0
XRECORD
  5
99BA
102
{ACAD_REACTORS
330
99B9
102
}
330
99B9
100
AcDbXrecord
280
     1
102
RTVSPost2010Prop28
280
     0
102
RTVSPost2010PropOp28
 70
     1
102
RTVSPost2010Prop29
280
     1
102
RTVSPost2010PropOp29
 70
     1
102
RTVSPost2010Prop30
280
     1
102
RTVSPost2010PropOp30
 70
     1
102
RTVSPost2010Prop31
280
     0
102
RTVSPost2010PropOp31
 70
     1
102
RTVSPost2010Prop32
280
     0
102
RTVSPost2010PropOp32
 70
     1
102
RTVSPost2010Prop33
280
     0
102
RTVSPost2010PropOp33
 70
     1
102
RTVSPost2010Prop34
280
     0
102
RTVSPost2010PropOp34
 70
     1
102
RTVSPost2010Prop35
280
     0
102
RTVSPost2010PropOp35
 70
     1
102
RTVSPost2010Prop36
280
     0
102
RTVSPost2010PropOp36
 70
     1
102
RTVSPost2010Prop37
 90
       50
102
RTVSPost2010PropOp37
 70
     1
102
RTVSPost2010Prop38
140
0.0
102
RTVSPost2010PropOp38
 70
     1
102
RTVSPost2010Prop39
140
1.0
102
RTVSPost2010PropOp39
 70
     1
102
RTVSPost2010Prop40
 90
        0
102
RTVSPost2010PropOp40
 70
     1
102
RTVSPost2010Prop41ColorIndex
 90
       18
102
RTVSPost2010Prop41ColorRGB
 90
        0
102
RTVSPost2010PropOp41
 70
     1
102
RTVSPost2010Prop42
 90
       50
102
RTVSPost2010PropOp42
 70
     1
102
RTVSPost2010Prop43
 90
        3
102
RTVSPost2010PropOp43
 70
     1
102
RTVSPost2010Prop44ColorIndex
 90
        5
102
RTVSPost2010Prop44ColorRGB
 90
      255
102
RTVSPost2010PropOp44
 70
     1
102
RTVSPost2010Prop45
280
     0
102
RTVSPost2010PropOp45
 70
     1
102
RTVSPost2010Prop46
 90
       50
102
RTVSPost2010PropOp46
 70
     1
102
RTVSPost2010Prop47
 90
       50
102
RTVSPost2010PropOp47
 70
     1
102
RTVSPost2010Prop48
 90
       50
102
RTVSPost2010PropOp48
 70
     1
102
RTVSPost2010Prop49
280
     0
102
RTVSPost2010PropOp49
 70
     1
102
RTVSPost2010Prop50
 90
       50
102
RTVSPost2010PropOp50
 70
     1
102
RTVSPost2010Prop51ColorIndex
 90
      256
102
RTVSPost2010Prop51ColorRGB
 90
-16777216
102
RTVSPost2010PropOp51
 70
     0
102
RTVSPost2010Prop52
140
1.0
102
RTVSPost2010PropOp52
 70
     0
102
RTVSPost2010Prop53
 90
        2
102
RTVSPost2010PropOp53
 70
     1
102
RTVSPost2010Prop54
  1
strokes_ogs.tif
102
RTVSPost2010PropOp54
 70
     1
102
RTVSPost2010Prop55
280
     0
102
RTVSPost2010PropOp55
 70
     1
102
RTVSPost2010Prop56
140
1.0
102
RTVSPost2010PropOp56
 70
     1
102
RTVSPost2010Prop57
140
1.0
102
RTVSPost2010PropOp57
 70
     1
102
RTVSPropertyOp0
 70
     1
102
RTVSPropertyOp1
 70
     1
102
RTVSPropertyOp2
 70
     1
102
RTVSPropertyOp3
 70
     1
102
RTVSPropertyOp4
 70
     1
102
RTVSPropertyOp5
 70
     1
102
RTVSPropertyOp6
 70
     1
102
RTVSPropertyOp7
 70
     1
102
RTVSPropertyOp8
 70
     1
102
RTVSPropertyOp9
 70
     1
102
RTVSPropertyOp10
 70
     1
102
RTVSPropertyOp11
 70
     1
102
RTVSPropertyOp12
 70
     1
102
RTVSPropertyOp13
 70
     1
102
RTVSPropertyOp14
 70
     1
102
RTVSPropertyOp15
 70
     1
102
RTVSPropertyOp16
 70
     1
102
RTVSPropertyOp17
 70
     1
102
RTVSPropertyOp18
 70
     1
102
RTVSPropertyOp19
 70
     1
102
RTVSPropertyOp20
 70
     1
102
RTVSPropertyOp21
 70
     1
102
RTVSPropertyOp22
 70
     1
102
RTVSPropertyOp23
 70
     1
102
RTVSPropertyOp24
 70
     1
102
RTVSPropertyOp25
 70
     1
102
RTVSPropertyOp26
 70
     1
102
RTVSPropertyOp27
 70
     1
102
RTVSPropertyOp28
 70
     1
102
RTVSPropertyOp29
 70
     1
102
RTVSPropertyOp30
 70
     1
102
RTVSPropertyOp31
 70
     1
102
RTVSPropertyOp32
 70
     1
102
RTVSPropertyOp33
 70
     1
102
RTVSPropertyOp34
 70
     1
102
RTVSPropertyOp35
 70
     1
102
RTVSPropertyOp36
 70
     1
102
RTVSPropertyOp37
 70
     1
102
RTVSPropertyOp38
 70
     1
102
RTVSPropertyOp39
 70
     1
102
RTVSPropertyOp40
 70
     1
102
RTVSPropertyOp41
 70
     1
102
RTVSPropertyOp42
 70
     1
102
RTVSPropertyOp43
 70
     1
102
RTVSPropertyOp44
 70
     1
102
RTVSPropertyOp45
 70
     1
102
RTVSPropertyOp46
 70
     1
102
RTVSPropertyOp47
 70
     1
102
RTVSPropertyOp48
 70
     1
102
RTVSPropertyOp49
 70
     1
102
RTVSPropertyOp50
 70
     1
102
RTVSPropertyOp51
 70
     0
102
RTVSPropertyOp52
 70
     0
102
RTVSPropertyOp53
 70
     1
102
RTVSPropertyOp54
 70
     1
102
RTVSPropertyOp55
 70
     1
102
RTVSPropertyOp56
 70
     1
102
RTVSPropertyOp57
 70
     1
102
RTVSPropertyOp58
 70
     1
102
RTVSPropertyOp59
 70
     1
102
RTVSPropertyOp60
 70
     1
102
RTVSPropertyOp61
 70
     1
102
RTVSPropertyOp62
 70
     1
  0
XRECORD
  5
99C8
102
{ACAD_REACTORS
330
99C7
102
}
330
99C7
100
AcDbXrecord
280
     1
102
RTVSPost2010Prop28
280
     0
102
RTVSPost2010PropOp28
 70
     1
102
RTVSPost2010Prop29
280
     1
102
RTVSPost2010PropOp29
 70
     1
102
RTVSPost2010Prop30
280
     1
102
RTVSPost2010PropOp30
 70
     1
102
RTVSPost2010Prop31
280
     0
102
RTVSPost2010PropOp31
 70
     1
102
RTVSPost2010Prop32
280
     0
102
RTVSPost2010PropOp32
 70
     1
102
RTVSPost2010Prop33
280
     0
102
RTVSPost2010PropOp33
 70
     1
102
RTVSPost2010Prop34
280
     0
102
RTVSPost2010PropOp34
 70
     1
102
RTVSPost2010Prop35
280
     0
102
RTVSPost2010PropOp35
 70
     1
102
RTVSPost2010Prop36
280
     0
102
RTVSPost2010PropOp36
 70
     1
102
RTVSPost2010Prop37
 90
       50
102
RTVSPost2010PropOp37
 70
     1
102
RTVSPost2010Prop38
140
0.0
102
RTVSPost2010PropOp38
 70
     1
102
RTVSPost2010Prop39
140
1.0
102
RTVSPost2010PropOp39
 70
     1
102
RTVSPost2010Prop40
 90
        0
102
RTVSPost2010PropOp40
 70
     1
102
RTVSPost2010Prop41ColorIndex
 90
       18
102
RTVSPost2010Prop41ColorRGB
 90
        0
102
RTVSPost2010PropOp41
 70
     1
102
RTVSPost2010Prop42
 90
       50
102
RTVSPost2010PropOp42
 70
     1
102
RTVSPost2010Prop43
 90
        3
102
RTVSPost2010PropOp43
 70
     1
102
RTVSPost2010Prop44ColorIndex
 90
        5
102
RTVSPost2010Prop44ColorRGB
 90
      255
102
RTVSPost2010PropOp44
 70
     1
102
RTVSPost2010Prop45
280
     0
102
RTVSPost2010PropOp45
 70
     1
102
RTVSPost2010Prop46
 90
       50
102
RTVSPost2010PropOp46
 70
     1
102
RTVSPost2010Prop47
 90
       50
102
RTVSPost2010PropOp47
 70
     1
102
RTVSPost2010Prop48
 90
       50
102
RTVSPost2010PropOp48
 70
     1
102
RTVSPost2010Prop49
280
     0
102
RTVSPost2010PropOp49
 70
     1
102
RTVSPost2010Prop50
 90
       50
102
RTVSPost2010PropOp50
 70
     1
102
RTVSPost2010Prop51ColorIndex
 90
      256
102
RTVSPost2010Prop51ColorRGB
 90
-16777216
102
RTVSPost2010PropOp51
 70
     0
102
RTVSPost2010Prop52
140
1.0
102
RTVSPost2010PropOp52
 70
     0
102
RTVSPost2010Prop53
 90
        2
102
RTVSPost2010PropOp53
 70
     1
102
RTVSPost2010Prop54
  1
strokes_ogs.tif
102
RTVSPost2010PropOp54
 70
     1
102
RTVSPost2010Prop55
280
     0
102
RTVSPost2010PropOp55
 70
     1
102
RTVSPost2010Prop56
140
1.0
102
RTVSPost2010PropOp56
 70
     1
102
RTVSPost2010Prop57
140
1.0
102
RTVSPost2010PropOp57
 70
     1
102
RTVSPropertyOp0
 70
     1
102
RTVSPropertyOp1
 70
     1
102
RTVSPropertyOp2
 70
     1
102
RTVSPropertyOp3
 70
     1
102
RTVSPropertyOp4
 70
     1
102
RTVSPropertyOp5
 70
     1
102
RTVSPropertyOp6
 70
     1
102
RTVSPropertyOp7
 70
     1
102
RTVSPropertyOp8
 70
     1
102
RTVSPropertyOp9
 70
     1
102
RTVSPropertyOp10
 70
     1
102
RTVSPropertyOp11
 70
     1
102
RTVSPropertyOp12
 70
     1
102
RTVSPropertyOp13
 70
     1
102
RTVSPropertyOp14
 70
     1
102
RTVSPropertyOp15
 70
     1
102
RTVSPropertyOp16
 70
     1
102
RTVSPropertyOp17
 70
     1
102
RTVSPropertyOp18
 70
     1
102
RTVSPropertyOp19
 70
     1
102
RTVSPropertyOp20
 70
     1
102
RTVSPropertyOp21
 70
     1
102
RTVSPropertyOp22
 70
     1
102
RTVSPropertyOp23
 70
     1
102
RTVSPropertyOp24
 70
     1
102
RTVSPropertyOp25
 70
     1
102
RTVSPropertyOp26
 70
     1
102
RTVSPropertyOp27
 70
     1
102
RTVSPropertyOp28
 70
     1
102
RTVSPropertyOp29
 70
     1
102
RTVSPropertyOp30
 70
     1
102
RTVSPropertyOp31
 70
     1
102
RTVSPropertyOp32
 70
     1
102
RTVSPropertyOp33
 70
     1
102
RTVSPropertyOp34
 70
     1
102
RTVSPropertyOp35
 70
     1
102
RTVSPropertyOp36
 70
     1
102
RTVSPropertyOp37
 70
     1
102
RTVSPropertyOp38
 70
     1
102
RTVSPropertyOp39
 70
     1
102
RTVSPropertyOp40
 70
     1
102
RTVSPropertyOp41
 70
     1
102
RTVSPropertyOp42
 70
     1
102
RTVSPropertyOp43
 70
     1
102
RTVSPropertyOp44
 70
     1
102
RTVSPropertyOp45
 70
     1
102
RTVSPropertyOp46
 70
     1
102
RTVSPropertyOp47
 70
     1
102
RTVSPropertyOp48
 70
     1
102
RTVSPropertyOp49
 70
     1
102
RTVSPropertyOp50
 70
     1
102
RTVSPropertyOp51
 70
     0
102
RTVSPropertyOp52
 70
     0
102
RTVSPropertyOp53
 70
     1
102
RTVSPropertyOp54
 70
     1
102
RTVSPropertyOp55
 70
     1
102
RTVSPropertyOp56
 70
     1
102
RTVSPropertyOp57
 70
     1
102
RTVSPropertyOp58
 70
     1
102
RTVSPropertyOp59
 70
     1
102
RTVSPropertyOp60
 70
     1
102
RTVSPropertyOp61
 70
     1
102
RTVSPropertyOp62
 70
     1
  0
XRECORD
  5
99D0
102
{ACAD_REACTORS
330
99CF
102
}
330
99CF
100
AcDbXrecord
280
     1
102
RTVSPost2010Prop28
280
     0
102
RTVSPost2010PropOp28
 70
     1
102
RTVSPost2010Prop29
280
     1
102
RTVSPost2010PropOp29
 70
     1
102
RTVSPost2010Prop30
280
     1
102
RTVSPost2010PropOp30
 70
     1
102
RTVSPost2010Prop31
280
     0
102
RTVSPost2010PropOp31
 70
     1
102
RTVSPost2010Prop32
280
     0
102
RTVSPost2010PropOp32
 70
     1
102
RTVSPost2010Prop33
280
     0
102
RTVSPost2010PropOp33
 70
     1
102
RTVSPost2010Prop34
280
     0
102
RTVSPost2010PropOp34
 70
     1
102
RTVSPost2010Prop35
280
     0
102
RTVSPost2010PropOp35
 70
     1
102
RTVSPost2010Prop36
280
     0
102
RTVSPost2010PropOp36
 70
     1
102
RTVSPost2010Prop37
 90
       50
102
RTVSPost2010PropOp37
 70
     1
102
RTVSPost2010Prop38
140
0.0
102
RTVSPost2010PropOp38
 70
     1
102
RTVSPost2010Prop39
140
1.0
102
RTVSPost2010PropOp39
 70
     1
102
RTVSPost2010Prop40
 90
        0
102
RTVSPost2010PropOp40
 70
     1
102
RTVSPost2010Prop41ColorIndex
 90
       18
102
RTVSPost2010Prop41ColorRGB
 90
        0
102
RTVSPost2010PropOp41
 70
     1
102
RTVSPost2010Prop42
 90
       50
102
RTVSPost2010PropOp42
 70
     1
102
RTVSPost2010Prop43
 90
        3
102
RTVSPost2010PropOp43
 70
     1
102
RTVSPost2010Prop44ColorIndex
 90
        5
102
RTVSPost2010Prop44ColorRGB
 90
      255
102
RTVSPost2010PropOp44
 70
     1
102
RTVSPost2010Prop45
280
     0
102
RTVSPost2010PropOp45
 70
     1
102
RTVSPost2010Prop46
 90
       50
102
RTVSPost2010PropOp46
 70
     1
102
RTVSPost2010Prop47
 90
       50
102
RTVSPost2010PropOp47
 70
     1
102
RTVSPost2010Prop48
 90
       50
102
RTVSPost2010PropOp48
 70
     1
102
RTVSPost2010Prop49
280
     0
102
RTVSPost2010PropOp49
 70
     1
102
RTVSPost2010Prop50
 90
       50
102
RTVSPost2010PropOp50
 70
     1
102
RTVSPost2010Prop51ColorIndex
 90
      256
102
RTVSPost2010Prop51ColorRGB
 90
-16777216
102
RTVSPost2010PropOp51
 70
     0
102
RTVSPost2010Prop52
140
1.0
102
RTVSPost2010PropOp52
 70
     0
102
RTVSPost2010Prop53
 90
        2
102
RTVSPost2010PropOp53
 70
     1
102
RTVSPost2010Prop54
  1
strokes_ogs.tif
102
RTVSPost2010PropOp54
 70
     1
102
RTVSPost2010Prop55
280
     0
102
RTVSPost2010PropOp55
 70
     1
102
RTVSPost2010Prop56
140
1.0
102
RTVSPost2010PropOp56
 70
     1
102
RTVSPost2010Prop57
140
1.0
102
RTVSPost2010PropOp57
 70
     1
102
RTVSPropertyOp0
 70
     1
102
RTVSPropertyOp1
 70
     1
102
RTVSPropertyOp2
 70
     1
102
RTVSPropertyOp3
 70
     1
102
RTVSPropertyOp4
 70
     1
102
RTVSPropertyOp5
 70
     1
102
RTVSPropertyOp6
 70
     1
102
RTVSPropertyOp7
 70
     1
102
RTVSPropertyOp8
 70
     1
102
RTVSPropertyOp9
 70
     1
102
RTVSPropertyOp10
 70
     1
102
RTVSPropertyOp11
 70
     1
102
RTVSPropertyOp12
 70
     1
102
RTVSPropertyOp13
 70
     1
102
RTVSPropertyOp14
 70
     1
102
RTVSPropertyOp15
 70
     1
102
RTVSPropertyOp16
 70
     1
102
RTVSPropertyOp17
 70
     1
102
RTVSPropertyOp18
 70
     1
102
RTVSPropertyOp19
 70
     1
102
RTVSPropertyOp20
 70
     1
102
RTVSPropertyOp21
 70
     1
102
RTVSPropertyOp22
 70
     1
102
RTVSPropertyOp23
 70
     1
102
RTVSPropertyOp24
 70
     1
102
RTVSPropertyOp25
 70
     1
102
RTVSPropertyOp26
 70
     1
102
RTVSPropertyOp27
 70
     1
102
RTVSPropertyOp28
 70
     1
102
RTVSPropertyOp29
 70
     1
102
RTVSPropertyOp30
 70
     1
102
RTVSPropertyOp31
 70
     1
102
RTVSPropertyOp32
 70
     1
102
RTVSPropertyOp33
 70
     1
102
RTVSPropertyOp34
 70
     1
102
RTVSPropertyOp35
 70
     1
102
RTVSPropertyOp36
 70
     1
102
RTVSPropertyOp37
 70
     1
102
RTVSPropertyOp38
 70
     1
102
RTVSPropertyOp39
 70
     1
102
RTVSPropertyOp40
 70
     1
102
RTVSPropertyOp41
 70
     1
102
RTVSPropertyOp42
 70
     1
102
RTVSPropertyOp43
 70
     1
102
RTVSPropertyOp44
 70
     1
102
RTVSPropertyOp45
 70
     1
102
RTVSPropertyOp46
 70
     1
102
RTVSPropertyOp47
 70
     1
102
RTVSPropertyOp48
 70
     1
102
RTVSPropertyOp49
 70
     1
102
RTVSPropertyOp50
 70
     1
102
RTVSPropertyOp51
 70
     0
102
RTVSPropertyOp52
 70
     0
102
RTVSPropertyOp53
 70
     1
102
RTVSPropertyOp54
 70
     1
102
RTVSPropertyOp55
 70
     1
102
RTVSPropertyOp56
 70
     1
102
RTVSPropertyOp57
 70
     1
102
RTVSPropertyOp58
 70
     1
102
RTVSPropertyOp59
 70
     1
102
RTVSPropertyOp60
 70
     1
102
RTVSPropertyOp61
 70
     1
102
RTVSPropertyOp62
 70
     1
  0
XRECORD
  5
99C2
102
{ACAD_REACTORS
330
99C1
102
}
330
99C1
100
AcDbXrecord
280
     1
102
RTVSPost2010Prop28
280
     0
102
RTVSPost2010PropOp28
 70
     1
102
RTVSPost2010Prop29
280
     1
102
RTVSPost2010PropOp29
 70
     1
102
RTVSPost2010Prop30
280
     1
102
RTVSPost2010PropOp30
 70
     1
102
RTVSPost2010Prop31
280
     0
102
RTVSPost2010PropOp31
 70
     1
102
RTVSPost2010Prop32
280
     0
102
RTVSPost2010PropOp32
 70
     1
102
RTVSPost2010Prop33
280
     0
102
RTVSPost2010PropOp33
 70
     1
102
RTVSPost2010Prop34
280
     0
102
RTVSPost2010PropOp34
 70
     1
102
RTVSPost2010Prop35
280
     0
102
RTVSPost2010PropOp35
 70
     1
102
RTVSPost2010Prop36
280
     0
102
RTVSPost2010PropOp36
 70
     1
102
RTVSPost2010Prop37
 90
       50
102
RTVSPost2010PropOp37
 70
     1
102
RTVSPost2010Prop38
140
0.0
102
RTVSPost2010PropOp38
 70
     1
102
RTVSPost2010Prop39
140
1.0
102
RTVSPost2010PropOp39
 70
     1
102
RTVSPost2010Prop40
 90
        0
102
RTVSPost2010PropOp40
 70
     1
102
RTVSPost2010Prop41ColorIndex
 90
       18
102
RTVSPost2010Prop41ColorRGB
 90
        0
102
RTVSPost2010PropOp41
 70
     1
102
RTVSPost2010Prop42
 90
       50
102
RTVSPost2010PropOp42
 70
     1
102
RTVSPost2010Prop43
 90
        3
102
RTVSPost2010PropOp43
 70
     1
102
RTVSPost2010Prop44ColorIndex
 90
        5
102
RTVSPost2010Prop44ColorRGB
 90
      255
102
RTVSPost2010PropOp44
 70
     1
102
RTVSPost2010Prop45
280
     0
102
RTVSPost2010PropOp45
 70
     1
102
RTVSPost2010Prop46
 90
       50
102
RTVSPost2010PropOp46
 70
     1
102
RTVSPost2010Prop47
 90
       50
102
RTVSPost2010PropOp47
 70
     1
102
RTVSPost2010Prop48
 90
       50
102
RTVSPost2010PropOp48
 70
     1
102
RTVSPost2010Prop49
280
     0
102
RTVSPost2010PropOp49
 70
     1
102
RTVSPost2010Prop50
 90
       50
102
RTVSPost2010PropOp50
 70
     1
102
RTVSPost2010Prop51ColorIndex
 90
      256
102
RTVSPost2010Prop51ColorRGB
 90
-16777216
102
RTVSPost2010PropOp51
 70
     0
102
RTVSPost2010Prop52
140
1.0
102
RTVSPost2010PropOp52
 70
     0
102
RTVSPost2010Prop53
 90
        2
102
RTVSPost2010PropOp53
 70
     1
102
RTVSPost2010Prop54
  1
strokes_ogs.tif
102
RTVSPost2010PropOp54
 70
     1
102
RTVSPost2010Prop55
280
     0
102
RTVSPost2010PropOp55
 70
     1
102
RTVSPost2010Prop56
140
1.0
102
RTVSPost2010PropOp56
 70
     1
102
RTVSPost2010Prop57
140
1.0
102
RTVSPost2010PropOp57
 70
     1
102
RTVSPropertyOp0
 70
     1
102
RTVSPropertyOp1
 70
     1
102
RTVSPropertyOp2
 70
     1
102
RTVSPropertyOp3
 70
     1
102
RTVSPropertyOp4
 70
     1
102
RTVSPropertyOp5
 70
     1
102
RTVSPropertyOp6
 70
     1
102
RTVSPropertyOp7
 70
     1
102
RTVSPropertyOp8
 70
     1
102
RTVSPropertyOp9
 70
     1
102
RTVSPropertyOp10
 70
     1
102
RTVSPropertyOp11
 70
     1
102
RTVSPropertyOp12
 70
     1
102
RTVSPropertyOp13
 70
     1
102
RTVSPropertyOp14
 70
     1
102
RTVSPropertyOp15
 70
     1
102
RTVSPropertyOp16
 70
     1
102
RTVSPropertyOp17
 70
     1
102
RTVSPropertyOp18
 70
     1
102
RTVSPropertyOp19
 70
     1
102
RTVSPropertyOp20
 70
     1
102
RTVSPropertyOp21
 70
     1
102
RTVSPropertyOp22
 70
     1
102
RTVSPropertyOp23
 70
     1
102
RTVSPropertyOp24
 70
     1
102
RTVSPropertyOp25
 70
     1
102
RTVSPropertyOp26
 70
     1
102
RTVSPropertyOp27
 70
     1
102
RTVSPropertyOp28
 70
     1
102
RTVSPropertyOp29
 70
     1
102
RTVSPropertyOp30
 70
     1
102
RTVSPropertyOp31
 70
     1
102
RTVSPropertyOp32
 70
     1
102
RTVSPropertyOp33
 70
     1
102
RTVSPropertyOp34
 70
     1
102
RTVSPropertyOp35
 70
     1
102
RTVSPropertyOp36
 70
     1
102
RTVSPropertyOp37
 70
     1
102
RTVSPropertyOp38
 70
     1
102
RTVSPropertyOp39
 70
     1
102
RTVSPropertyOp40
 70
     1
102
RTVSPropertyOp41
 70
     1
102
RTVSPropertyOp42
 70
     1
102
RTVSPropertyOp43
 70
     1
102
RTVSPropertyOp44
 70
     1
102
RTVSPropertyOp45
 70
     1
102
RTVSPropertyOp46
 70
     1
102
RTVSPropertyOp47
 70
     1
102
RTVSPropertyOp48
 70
     1
102
RTVSPropertyOp49
 70
     1
102
RTVSPropertyOp50
 70
     1
102
RTVSPropertyOp51
 70
     0
102
RTVSPropertyOp52
 70
     0
102
RTVSPropertyOp53
 70
     1
102
RTVSPropertyOp54
 70
     1
102
RTVSPropertyOp55
 70
     1
102
RTVSPropertyOp56
 70
     1
102
RTVSPropertyOp57
 70
     1
102
RTVSPropertyOp58
 70
     1
102
RTVSPropertyOp59
 70
     1
102
RTVSPropertyOp60
 70
     1
102
RTVSPropertyOp61
 70
     1
102
RTVSPropertyOp62
 70
     1
  0
XRECORD
  5
99C6
102
{ACAD_REACTORS
330
99C5
102
}
330
99C5
100
AcDbXrecord
280
     1
102
RTVSPost2010Prop28
280
     0
102
RTVSPost2010PropOp28
 70
     1
102
RTVSPost2010Prop29
280
     1
102
RTVSPost2010PropOp29
 70
     1
102
RTVSPost2010Prop30
280
     1
102
RTVSPost2010PropOp30
 70
     1
102
RTVSPost2010Prop31
280
     0
102
RTVSPost2010PropOp31
 70
     1
102
RTVSPost2010Prop32
280
     0
102
RTVSPost2010PropOp32
 70
     1
102
RTVSPost2010Prop33
280
     0
102
RTVSPost2010PropOp33
 70
     1
102
RTVSPost2010Prop34
280
     0
102
RTVSPost2010PropOp34
 70
     1
102
RTVSPost2010Prop35
280
     0
102
RTVSPost2010PropOp35
 70
     1
102
RTVSPost2010Prop36
280
     0
102
RTVSPost2010PropOp36
 70
     1
102
RTVSPost2010Prop37
 90
       50
102
RTVSPost2010PropOp37
 70
     1
102
RTVSPost2010Prop38
140
0.0
102
RTVSPost2010PropOp38
 70
     1
102
RTVSPost2010Prop39
140
1.0
102
RTVSPost2010PropOp39
 70
     1
102
RTVSPost2010Prop40
 90
        0
102
RTVSPost2010PropOp40
 70
     1
102
RTVSPost2010Prop41ColorIndex
 90
       18
102
RTVSPost2010Prop41ColorRGB
 90
        0
102
RTVSPost2010PropOp41
 70
     1
102
RTVSPost2010Prop42
 90
       50
102
RTVSPost2010PropOp42
 70
     1
102
RTVSPost2010Prop43
 90
        3
102
RTVSPost2010PropOp43
 70
     1
102
RTVSPost2010Prop44ColorIndex
 90
        5
102
RTVSPost2010Prop44ColorRGB
 90
      255
102
RTVSPost2010PropOp44
 70
     1
102
RTVSPost2010Prop45
280
     0
102
RTVSPost2010PropOp45
 70
     1
102
RTVSPost2010Prop46
 90
       50
102
RTVSPost2010PropOp46
 70
     1
102
RTVSPost2010Prop47
 90
       50
102
RTVSPost2010PropOp47
 70
     1
102
RTVSPost2010Prop48
 90
       50
102
RTVSPost2010PropOp48
 70
     1
102
RTVSPost2010Prop49
280
     0
102
RTVSPost2010PropOp49
 70
     1
102
RTVSPost2010Prop50
 90
       50
102
RTVSPost2010PropOp50
 70
     1
102
RTVSPost2010Prop51ColorIndex
 90
      256
102
RTVSPost2010Prop51ColorRGB
 90
-16777216
102
RTVSPost2010PropOp51
 70
     0
102
RTVSPost2010Prop52
140
1.0
102
RTVSPost2010PropOp52
 70
     0
102
RTVSPost2010Prop53
 90
        2
102
RTVSPost2010PropOp53
 70
     1
102
RTVSPost2010Prop54
  1
strokes_ogs.tif
102
RTVSPost2010PropOp54
 70
     1
102
RTVSPost2010Prop55
280
     0
102
RTVSPost2010PropOp55
 70
     1
102
RTVSPost2010Prop56
140
1.0
102
RTVSPost2010PropOp56
 70
     1
102
RTVSPost2010Prop57
140
1.0
102
RTVSPost2010PropOp57
 70
     1
102
RTVSPropertyOp0
 70
     1
102
RTVSPropertyOp1
 70
     1
102
RTVSPropertyOp2
 70
     1
102
RTVSPropertyOp3
 70
     1
102
RTVSPropertyOp4
 70
     1
102
RTVSPropertyOp5
 70
     1
102
RTVSPropertyOp6
 70
     1
102
RTVSPropertyOp7
 70
     1
102
RTVSPropertyOp8
 70
     1
102
RTVSPropertyOp9
 70
     1
102
RTVSPropertyOp10
 70
     1
102
RTVSPropertyOp11
 70
     1
102
RTVSPropertyOp12
 70
     1
102
RTVSPropertyOp13
 70
     1
102
RTVSPropertyOp14
 70
     1
102
RTVSPropertyOp15
 70
     1
102
RTVSPropertyOp16
 70
     1
102
RTVSPropertyOp17
 70
     1
102
RTVSPropertyOp18
 70
     1
102
RTVSPropertyOp19
 70
     1
102
RTVSPropertyOp20
 70
     1
102
RTVSPropertyOp21
 70
     1
102
RTVSPropertyOp22
 70
     1
102
RTVSPropertyOp23
 70
     1
102
RTVSPropertyOp24
 70
     1
102
RTVSPropertyOp25
 70
     1
102
RTVSPropertyOp26
 70
     1
102
RTVSPropertyOp27
 70
     1
102
RTVSPropertyOp28
 70
     1
102
RTVSPropertyOp29
 70
     1
102
RTVSPropertyOp30
 70
     1
102
RTVSPropertyOp31
 70
     1
102
RTVSPropertyOp32
 70
     1
102
RTVSPropertyOp33
 70
     1
102
RTVSPropertyOp34
 70
     1
102
RTVSPropertyOp35
 70
     1
102
RTVSPropertyOp36
 70
     1
102
RTVSPropertyOp37
 70
     1
102
RTVSPropertyOp38
 70
     1
102
RTVSPropertyOp39
 70
     1
102
RTVSPropertyOp40
 70
     1
102
RTVSPropertyOp41
 70
     1
102
RTVSPropertyOp42
 70
     1
102
RTVSPropertyOp43
 70
     1
102
RTVSPropertyOp44
 70
     1
102
RTVSPropertyOp45
 70
     1
102
RTVSPropertyOp46
 70
     1
102
RTVSPropertyOp47
 70
     1
102
RTVSPropertyOp48
 70
     1
102
RTVSPropertyOp49
 70
     1
102
RTVSPropertyOp50
 70
     1
102
RTVSPropertyOp51
 70
     0
102
RTVSPropertyOp52
 70
     0
102
RTVSPropertyOp53
 70
     1
102
RTVSPropertyOp54
 70
     1
102
RTVSPropertyOp55
 70
     1
102
RTVSPropertyOp56
 70
     1
102
RTVSPropertyOp57
 70
     1
102
RTVSPropertyOp58
 70
     1
102
RTVSPropertyOp59
 70
     1
102
RTVSPropertyOp60
 70
     1
102
RTVSPropertyOp61
 70
     1
102
RTVSPropertyOp62
 70
     1
  0
XRECORD
  5
99E0
102
{ACAD_REACTORS
330
99DF
102
}
330
99DF
100
AcDbXrecord
280
     1
102
RTVSPost2010Prop28
280
     0
102
RTVSPost2010PropOp28
 70
     1
102
RTVSPost2010Prop29
280
     1
102
RTVSPost2010PropOp29
 70
     1
102
RTVSPost2010Prop30
280
     1
102
RTVSPost2010PropOp30
 70
     1
102
RTVSPost2010Prop31
280
     0
102
RTVSPost2010PropOp31
 70
     1
102
RTVSPost2010Prop32
280
     0
102
RTVSPost2010PropOp32
 70
     1
102
RTVSPost2010Prop33
280
     0
102
RTVSPost2010PropOp33
 70
     1
102
RTVSPost2010Prop34
280
     0
102
RTVSPost2010PropOp34
 70
     1
102
RTVSPost2010Prop35
280
     0
102
RTVSPost2010PropOp35
 70
     1
102
RTVSPost2010Prop36
280
     0
102
RTVSPost2010PropOp36
 70
     1
102
RTVSPost2010Prop37
 90
       50
102
RTVSPost2010PropOp37
 70
     0
102
RTVSPost2010Prop38
140
0.0
102
RTVSPost2010PropOp38
 70
     0
102
RTVSPost2010Prop39
140
1.0
102
RTVSPost2010PropOp39
 70
     0
102
RTVSPost2010Prop40
 90
        0
102
RTVSPost2010PropOp40
 70
     0
102
RTVSPost2010Prop41ColorIndex
 90
       18
102
RTVSPost2010Prop41ColorRGB
 90
        0
102
RTVSPost2010PropOp41
 70
     0
102
RTVSPost2010Prop42
 90
       50
102
RTVSPost2010PropOp42
 70
     0
102
RTVSPost2010Prop43
 90
        3
102
RTVSPost2010PropOp43
 70
     0
102
RTVSPost2010Prop44ColorIndex
 90
        5
102
RTVSPost2010Prop44ColorRGB
 90
      255
102
RTVSPost2010PropOp44
 70
     0
102
RTVSPost2010Prop45
280
     0
102
RTVSPost2010PropOp45
 70
     1
102
RTVSPost2010Prop46
 90
       50
102
RTVSPost2010PropOp46
 70
     0
102
RTVSPost2010Prop47
 90
       50
102
RTVSPost2010PropOp47
 70
     0
102
RTVSPost2010Prop48
 90
       50
102
RTVSPost2010PropOp48
 70
     0
102
RTVSPost2010Prop49
280
     0
102
RTVSPost2010PropOp49
 70
     1
102
RTVSPost2010Prop50
 90
       50
102
RTVSPost2010PropOp50
 70
     0
102
RTVSPost2010Prop51ColorIndex
 90
      256
102
RTVSPost2010Prop51ColorRGB
 90
-16777216
102
RTVSPost2010PropOp51
 70
     0
102
RTVSPost2010Prop52
140
1.0
102
RTVSPost2010PropOp52
 70
     0
102
RTVSPost2010Prop53
 90
        2
102
RTVSPost2010PropOp53
 70
     0
102
RTVSPost2010Prop54
  1
strokes_ogs.tif
102
RTVSPost2010PropOp54
 70
     0
102
RTVSPost2010Prop55
280
     0
102
RTVSPost2010PropOp55
 70
     1
102
RTVSPost2010Prop56
140
1.0
102
RTVSPost2010PropOp56
 70
     0
102
RTVSPost2010Prop57
140
1.0
102
RTVSPost2010PropOp57
 70
     0
102
RTVSPropertyOp0
 70
     0
102
RTVSPropertyOp1
 70
     0
102
RTVSPropertyOp2
 70
     0
102
RTVSPropertyOp3
 70
     0
102
RTVSPropertyOp4
 70
     0
102
RTVSPropertyOp5
 70
     0
102
RTVSPropertyOp6
 70
     0
102
RTVSPropertyOp7
 70
     0
102
RTVSPropertyOp8
 70
     0
102
RTVSPropertyOp9
 70
     0
102
RTVSPropertyOp10
 70
     0
102
RTVSPropertyOp11
 70
     0
102
RTVSPropertyOp12
 70
     0
102
RTVSPropertyOp13
 70
     0
102
RTVSPropertyOp14
 70
     2
102
RTVSPropertyOp15
 70
     0
102
RTVSPropertyOp16
 70
     0
102
RTVSPropertyOp17
 70
     0
102
RTVSPropertyOp18
 70
     0
102
RTVSPropertyOp19
 70
     0
102
RTVSPropertyOp20
 70
     0
102
RTVSPropertyOp21
 70
     0
102
RTVSPropertyOp22
 70
     0
102
RTVSPropertyOp23
 70
     0
102
RTVSPropertyOp24
 70
     0
102
RTVSPropertyOp25
 70
     0
102
RTVSPropertyOp26
 70
     0
102
RTVSPropertyOp27
 70
     0
102
RTVSPropertyOp28
 70
     1
102
RTVSPropertyOp29
 70
     1
102
RTVSPropertyOp30
 70
     1
102
RTVSPropertyOp31
 70
     1
102
RTVSPropertyOp32
 70
     1
102
RTVSPropertyOp33
 70
     1
102
RTVSPropertyOp34
 70
     1
102
RTVSPropertyOp35
 70
     1
102
RTVSPropertyOp36
 70
     1
102
RTVSPropertyOp37
 70
     0
102
RTVSPropertyOp38
 70
     0
102
RTVSPropertyOp39
 70
     0
102
RTVSPropertyOp40
 70
     0
102
RTVSPropertyOp41
 70
     0
102
RTVSPropertyOp42
 70
     0
102
RTVSPropertyOp43
 70
     0
102
RTVSPropertyOp44
 70
     0
102
RTVSPropertyOp45
 70
     1
102
RTVSPropertyOp46
 70
     0
102
RTVSPropertyOp47
 70
     0
102
RTVSPropertyOp48
 70
     0
102
RTVSPropertyOp49
 70
     1
102
RTVSPropertyOp50
 70
     0
102
RTVSPropertyOp51
 70
     0
102
RTVSPropertyOp52
 70
     0
102
RTVSPropertyOp53
 70
     0
102
RTVSPropertyOp54
 70
     0
102
RTVSPropertyOp55
 70
     1
102
RTVSPropertyOp56
 70
     0
102
RTVSPropertyOp57
 70
     0
102
RTVSPropertyOp58
 70
     0
102
RTVSPropertyOp59
 70
     0
102
RTVSPropertyOp60
 70
     0
102
RTVSPropertyOp61
 70
     0
102
RTVSPropertyOp62
 70
     0
  0
XRECORD
  5
99CE
102
{ACAD_REACTORS
330
99CD
102
}
330
99CD
100
AcDbXrecord
280
     1
102
RTVSPost2010Prop28
280
     0
102
RTVSPost2010PropOp28
 70
     1
102
RTVSPost2010Prop29
280
     1
102
RTVSPost2010PropOp29
 70
     1
102
RTVSPost2010Prop30
280
     1
102
RTVSPost2010PropOp30
 70
     1
102
RTVSPost2010Prop31
280
     0
102
RTVSPost2010PropOp31
 70
     1
102
RTVSPost2010Prop32
280
     0
102
RTVSPost2010PropOp32
 70
     1
102
RTVSPost2010Prop33
280
     0
102
RTVSPost2010PropOp33
 70
     1
102
RTVSPost2010Prop34
280
     0
102
RTVSPost2010PropOp34
 70
     1
102
RTVSPost2010Prop35
280
     0
102
RTVSPost2010PropOp35
 70
     1
102
RTVSPost2010Prop36
280
     0
102
RTVSPost2010PropOp36
 70
     1
102
RTVSPost2010Prop37
 90
       50
102
RTVSPost2010PropOp37
 70
     1
102
RTVSPost2010Prop38
140
0.0
102
RTVSPost2010PropOp38
 70
     1
102
RTVSPost2010Prop39
140
1.0
102
RTVSPost2010PropOp39
 70
     1
102
RTVSPost2010Prop40
 90
        0
102
RTVSPost2010PropOp40
 70
     1
102
RTVSPost2010Prop41ColorIndex
 90
       18
102
RTVSPost2010Prop41ColorRGB
 90
        0
102
RTVSPost2010PropOp41
 70
     1
102
RTVSPost2010Prop42
 90
       50
102
RTVSPost2010PropOp42
 70
     1
102
RTVSPost2010Prop43
 90
        3
102
RTVSPost2010PropOp43
 70
     1
102
RTVSPost2010Prop44ColorIndex
 90
        5
102
RTVSPost2010Prop44ColorRGB
 90
      255
102
RTVSPost2010PropOp44
 70
     1
102
RTVSPost2010Prop45
280
     0
102
RTVSPost2010PropOp45
 70
     1
102
RTVSPost2010Prop46
 90
       50
102
RTVSPost2010PropOp46
 70
     1
102
RTVSPost2010Prop47
 90
       50
102
RTVSPost2010PropOp47
 70
     1
102
RTVSPost2010Prop48
 90
       50
102
RTVSPost2010PropOp48
 70
     1
102
RTVSPost2010Prop49
280
     0
102
RTVSPost2010PropOp49
 70
     1
102
RTVSPost2010Prop50
 90
       50
102
RTVSPost2010PropOp50
 70
     1
102
RTVSPost2010Prop51ColorIndex
 90
      256
102
RTVSPost2010Prop51ColorRGB
 90
-16777216
102
RTVSPost2010PropOp51
 70
     0
102
RTVSPost2010Prop52
140
1.0
102
RTVSPost2010PropOp52
 70
     0
102
RTVSPost2010Prop53
 90
        2
102
RTVSPost2010PropOp53
 70
     1
102
RTVSPost2010Prop54
  1
strokes_ogs.tif
102
RTVSPost2010PropOp54
 70
     1
102
RTVSPost2010Prop55
280
     0
102
RTVSPost2010PropOp55
 70
     1
102
RTVSPost2010Prop56
140
1.0
102
RTVSPost2010PropOp56
 70
     1
102
RTVSPost2010Prop57
140
1.0
102
RTVSPost2010PropOp57
 70
     1
102
RTVSPropertyOp0
 70
     1
102
RTVSPropertyOp1
 70
     1
102
RTVSPropertyOp2
 70
     1
102
RTVSPropertyOp3
 70
     1
102
RTVSPropertyOp4
 70
     1
102
RTVSPropertyOp5
 70
     1
102
RTVSPropertyOp6
 70
     1
102
RTVSPropertyOp7
 70
     1
102
RTVSPropertyOp8
 70
     1
102
RTVSPropertyOp9
 70
     1
102
RTVSPropertyOp10
 70
     1
102
RTVSPropertyOp11
 70
     1
102
RTVSPropertyOp12
 70
     1
102
RTVSPropertyOp13
 70
     1
102
RTVSPropertyOp14
 70
     1
102
RTVSPropertyOp15
 70
     1
102
RTVSPropertyOp16
 70
     1
102
RTVSPropertyOp17
 70
     1
102
RTVSPropertyOp18
 70
     1
102
RTVSPropertyOp19
 70
     1
102
RTVSPropertyOp20
 70
     1
102
RTVSPropertyOp21
 70
     1
102
RTVSPropertyOp22
 70
     1
102
RTVSPropertyOp23
 70
     1
102
RTVSPropertyOp24
 70
     1
102
RTVSPropertyOp25
 70
     1
102
RTVSPropertyOp26
 70
     1
102
RTVSPropertyOp27
 70
     1
102
RTVSPropertyOp28
 70
     1
102
RTVSPropertyOp29
 70
     1
102
RTVSPropertyOp30
 70
     1
102
RTVSPropertyOp31
 70
     1
102
RTVSPropertyOp32
 70
     1
102
RTVSPropertyOp33
 70
     1
102
RTVSPropertyOp34
 70
     1
102
RTVSPropertyOp35
 70
     1
102
RTVSPropertyOp36
 70
     1
102
RTVSPropertyOp37
 70
     1
102
RTVSPropertyOp38
 70
     1
102
RTVSPropertyOp39
 70
     1
102
RTVSPropertyOp40
 70
     1
102
RTVSPropertyOp41
 70
     1
102
RTVSPropertyOp42
 70
     1
102
RTVSPropertyOp43
 70
     1
102
RTVSPropertyOp44
 70
     1
102
RTVSPropertyOp45
 70
     1
102
RTVSPropertyOp46
 70
     1
102
RTVSPropertyOp47
 70
     1
102
RTVSPropertyOp48
 70
     1
102
RTVSPropertyOp49
 70
     1
102
RTVSPropertyOp50
 70
     1
102
RTVSPropertyOp51
 70
     0
102
RTVSPropertyOp52
 70
     0
102
RTVSPropertyOp53
 70
     1
102
RTVSPropertyOp54
 70
     1
102
RTVSPropertyOp55
 70
     1
102
RTVSPropertyOp56
 70
     1
102
RTVSPropertyOp57
 70
     1
102
RTVSPropertyOp58
 70
     1
102
RTVSPropertyOp59
 70
     1
102
RTVSPropertyOp60
 70
     1
102
RTVSPropertyOp61
 70
     1
102
RTVSPropertyOp62
 70
     1
  0
XRECORD
  5
99B2
102
{ACAD_REACTORS
330
99B1
102
}
330
99B1
100
AcDbXrecord
280
     1
102
RTVSPost2010Prop28
280
     0
102
RTVSPost2010PropOp28
 70
     1
102
RTVSPost2010Prop29
280
     1
102
RTVSPost2010PropOp29
 70
     1
102
RTVSPost2010Prop30
280
     1
102
RTVSPost2010PropOp30
 70
     1
102
RTVSPost2010Prop31
280
     0
102
RTVSPost2010PropOp31
 70
     1
102
RTVSPost2010Prop32
280
     0
102
RTVSPost2010PropOp32
 70
     1
102
RTVSPost2010Prop33
280
     0
102
RTVSPost2010PropOp33
 70
     1
102
RTVSPost2010Prop34
280
     0
102
RTVSPost2010PropOp34
 70
     1
102
RTVSPost2010Prop35
280
     0
102
RTVSPost2010PropOp35
 70
     1
102
RTVSPost2010Prop36
280
     0
102
RTVSPost2010PropOp36
 70
     1
102
RTVSPost2010Prop37
 90
       50
102
RTVSPost2010PropOp37
 70
     1
102
RTVSPost2010Prop38
140
0.0
102
RTVSPost2010PropOp38
 70
     1
102
RTVSPost2010Prop39
140
1.0
102
RTVSPost2010PropOp39
 70
     1
102
RTVSPost2010Prop40
 90
        0
102
RTVSPost2010PropOp40
 70
     1
102
RTVSPost2010Prop41ColorIndex
 90
       18
102
RTVSPost2010Prop41ColorRGB
 90
        0
102
RTVSPost2010PropOp41
 70
     1
102
RTVSPost2010Prop42
 90
       50
102
RTVSPost2010PropOp42
 70
     1
102
RTVSPost2010Prop43
 90
        3
102
RTVSPost2010PropOp43
 70
     1
102
RTVSPost2010Prop44ColorIndex
 90
        5
102
RTVSPost2010Prop44ColorRGB
 90
      255
102
RTVSPost2010PropOp44
 70
     1
102
RTVSPost2010Prop45
280
     0
102
RTVSPost2010PropOp45
 70
     1
102
RTVSPost2010Prop46
 90
       50
102
RTVSPost2010PropOp46
 70
     1
102
RTVSPost2010Prop47
 90
       50
102
RTVSPost2010PropOp47
 70
     1
102
RTVSPost2010Prop48
 90
       50
102
RTVSPost2010PropOp48
 70
     1
102
RTVSPost2010Prop49
280
     0
102
RTVSPost2010PropOp49
 70
     1
102
RTVSPost2010Prop50
 90
       50
102
RTVSPost2010PropOp50
 70
     1
102
RTVSPost2010Prop51ColorIndex
 90
      256
102
RTVSPost2010Prop51ColorRGB
 90
-16777216
102
RTVSPost2010PropOp51
 70
     0
102
RTVSPost2010Prop52
140
1.0
102
RTVSPost2010PropOp52
 70
     0
102
RTVSPost2010Prop53
 90
        2
102
RTVSPost2010PropOp53
 70
     1
102
RTVSPost2010Prop54
  1
strokes_ogs.tif
102
RTVSPost2010PropOp54
 70
     1
102
RTVSPost2010Prop55
280
     0
102
RTVSPost2010PropOp55
 70
     1
102
RTVSPost2010Prop56
140
1.0
102
RTVSPost2010PropOp56
 70
     1
102
RTVSPost2010Prop57
140
1.0
102
RTVSPost2010PropOp57
 70
     1
102
RTVSPropertyOp0
 70
     1
102
RTVSPropertyOp1
 70
     1
102
RTVSPropertyOp2
 70
     1
102
RTVSPropertyOp3
 70
     1
102
RTVSPropertyOp4
 70
     1
102
RTVSPropertyOp5
 70
     1
102
RTVSPropertyOp6
 70
     1
102
RTVSPropertyOp7
 70
     1
102
RTVSPropertyOp8
 70
     1
102
RTVSPropertyOp9
 70
     1
102
RTVSPropertyOp10
 70
     1
102
RTVSPropertyOp11
 70
     1
102
RTVSPropertyOp12
 70
     1
102
RTVSPropertyOp13
 70
     1
102
RTVSPropertyOp14
 70
     1
102
RTVSPropertyOp15
 70
     1
102
RTVSPropertyOp16
 70
     1
102
RTVSPropertyOp17
 70
     1
102
RTVSPropertyOp18
 70
     1
102
RTVSPropertyOp19
 70
     1
102
RTVSPropertyOp20
 70
     1
102
RTVSPropertyOp21
 70
     1
102
RTVSPropertyOp22
 70
     1
102
RTVSPropertyOp23
 70
     1
102
RTVSPropertyOp24
 70
     1
102
RTVSPropertyOp25
 70
     1
102
RTVSPropertyOp26
 70
     1
102
RTVSPropertyOp27
 70
     1
102
RTVSPropertyOp28
 70
     1
102
RTVSPropertyOp29
 70
     1
102
RTVSPropertyOp30
 70
     1
102
RTVSPropertyOp31
 70
     1
102
RTVSPropertyOp32
 70
     1
102
RTVSPropertyOp33
 70
     1
102
RTVSPropertyOp34
 70
     1
102
RTVSPropertyOp35
 70
     1
102
RTVSPropertyOp36
 70
     1
102
RTVSPropertyOp37
 70
     1
102
RTVSPropertyOp38
 70
     1
102
RTVSPropertyOp39
 70
     1
102
RTVSPropertyOp40
 70
     1
102
RTVSPropertyOp41
 70
     1
102
RTVSPropertyOp42
 70
     1
102
RTVSPropertyOp43
 70
     1
102
RTVSPropertyOp44
 70
     1
102
RTVSPropertyOp45
 70
     1
102
RTVSPropertyOp46
 70
     1
102
RTVSPropertyOp47
 70
     1
102
RTVSPropertyOp48
 70
     1
102
RTVSPropertyOp49
 70
     1
102
RTVSPropertyOp50
 70
     1
102
RTVSPropertyOp51
 70
     0
102
RTVSPropertyOp52
 70
     0
102
RTVSPropertyOp53
 70
     1
102
RTVSPropertyOp54
 70
     1
102
RTVSPropertyOp55
 70
     1
102
RTVSPropertyOp56
 70
     1
102
RTVSPropertyOp57
 70
     1
102
RTVSPropertyOp58
 70
     1
102
RTVSPropertyOp59
 70
     1
102
RTVSPropertyOp60
 70
     1
102
RTVSPropertyOp61
 70
     1
102
RTVSPropertyOp62
 70
     1
  0
XRECORD
  5
99B4
102
{ACAD_REACTORS
330
99B3
102
}
330
99B3
100
AcDbXrecord
280
     1
102
RTVSPost2010Prop28
280
     0
102
RTVSPost2010PropOp28
 70
     1
102
RTVSPost2010Prop29
280
     1
102
RTVSPost2010PropOp29
 70
     1
102
RTVSPost2010Prop30
280
     1
102
RTVSPost2010PropOp30
 70
     1
102
RTVSPost2010Prop31
280
     0
102
RTVSPost2010PropOp31
 70
     1
102
RTVSPost2010Prop32
280
     0
102
RTVSPost2010PropOp32
 70
     1
102
RTVSPost2010Prop33
280
     0
102
RTVSPost2010PropOp33
 70
     1
102
RTVSPost2010Prop34
280
     0
102
RTVSPost2010PropOp34
 70
     1
102
RTVSPost2010Prop35
280
     0
102
RTVSPost2010PropOp35
 70
     1
102
RTVSPost2010Prop36
280
     0
102
RTVSPost2010PropOp36
 70
     1
102
RTVSPost2010Prop37
 90
       50
102
RTVSPost2010PropOp37
 70
     1
102
RTVSPost2010Prop38
140
0.0
102
RTVSPost2010PropOp38
 70
     1
102
RTVSPost2010Prop39
140
1.0
102
RTVSPost2010PropOp39
 70
     1
102
RTVSPost2010Prop40
 90
        0
102
RTVSPost2010PropOp40
 70
     1
102
RTVSPost2010Prop41ColorIndex
 90
       18
102
RTVSPost2010Prop41ColorRGB
 90
        0
102
RTVSPost2010PropOp41
 70
     1
102
RTVSPost2010Prop42
 90
       50
102
RTVSPost2010PropOp42
 70
     1
102
RTVSPost2010Prop43
 90
        3
102
RTVSPost2010PropOp43
 70
     1
102
RTVSPost2010Prop44ColorIndex
 90
        5
102
RTVSPost2010Prop44ColorRGB
 90
      255
102
RTVSPost2010PropOp44
 70
     1
102
RTVSPost2010Prop45
280
     0
102
RTVSPost2010PropOp45
 70
     1
102
RTVSPost2010Prop46
 90
       50
102
RTVSPost2010PropOp46
 70
     1
102
RTVSPost2010Prop47
 90
       50
102
RTVSPost2010PropOp47
 70
     1
102
RTVSPost2010Prop48
 90
       50
102
RTVSPost2010PropOp48
 70
     1
102
RTVSPost2010Prop49
280
     0
102
RTVSPost2010PropOp49
 70
     1
102
RTVSPost2010Prop50
 90
       50
102
RTVSPost2010PropOp50
 70
     1
102
RTVSPost2010Prop51ColorIndex
 90
      256
102
RTVSPost2010Prop51ColorRGB
 90
-16777216
102
RTVSPost2010PropOp51
 70
     0
102
RTVSPost2010Prop52
140
1.0
102
RTVSPost2010PropOp52
 70
     0
102
RTVSPost2010Prop53
 90
        2
102
RTVSPost2010PropOp53
 70
     1
102
RTVSPost2010Prop54
  1
strokes_ogs.tif
102
RTVSPost2010PropOp54
 70
     1
102
RTVSPost2010Prop55
280
     0
102
RTVSPost2010PropOp55
 70
     1
102
RTVSPost2010Prop56
140
1.0
102
RTVSPost2010PropOp56
 70
     1
102
RTVSPost2010Prop57
140
1.0
102
RTVSPost2010PropOp57
 70
     1
102
RTVSPropertyOp0
 70
     1
102
RTVSPropertyOp1
 70
     1
102
RTVSPropertyOp2
 70
     1
102
RTVSPropertyOp3
 70
     1
102
RTVSPropertyOp4
 70
     1
102
RTVSPropertyOp5
 70
     1
102
RTVSPropertyOp6
 70
     1
102
RTVSPropertyOp7
 70
     1
102
RTVSPropertyOp8
 70
     1
102
RTVSPropertyOp9
 70
     1
102
RTVSPropertyOp10
 70
     1
102
RTVSPropertyOp11
 70
     1
102
RTVSPropertyOp12
 70
     1
102
RTVSPropertyOp13
 70
     1
102
RTVSPropertyOp14
 70
     1
102
RTVSPropertyOp15
 70
     1
102
RTVSPropertyOp16
 70
     1
102
RTVSPropertyOp17
 70
     1
102
RTVSPropertyOp18
 70
     1
102
RTVSPropertyOp19
 70
     1
102
RTVSPropertyOp20
 70
     1
102
RTVSPropertyOp21
 70
     1
102
RTVSPropertyOp22
 70
     1
102
RTVSPropertyOp23
 70
     1
102
RTVSPropertyOp24
 70
     1
102
RTVSPropertyOp25
 70
     1
102
RTVSPropertyOp26
 70
     1
102
RTVSPropertyOp27
 70
     1
102
RTVSPropertyOp28
 70
     1
102
RTVSPropertyOp29
 70
     1
102
RTVSPropertyOp30
 70
     1
102
RTVSPropertyOp31
 70
     1
102
RTVSPropertyOp32
 70
     1
102
RTVSPropertyOp33
 70
     1
102
RTVSPropertyOp34
 70
     1
102
RTVSPropertyOp35
 70
     1
102
RTVSPropertyOp36
 70
     1
102
RTVSPropertyOp37
 70
     1
102
RTVSPropertyOp38
 70
     1
102
RTVSPropertyOp39
 70
     1
102
RTVSPropertyOp40
 70
     1
102
RTVSPropertyOp41
 70
     1
102
RTVSPropertyOp42
 70
     1
102
RTVSPropertyOp43
 70
     1
102
RTVSPropertyOp44
 70
     1
102
RTVSPropertyOp45
 70
     1
102
RTVSPropertyOp46
 70
     1
102
RTVSPropertyOp47
 70
     1
102
RTVSPropertyOp48
 70
     1
102
RTVSPropertyOp49
 70
     1
102
RTVSPropertyOp50
 70
     1
102
RTVSPropertyOp51
 70
     0
102
RTVSPropertyOp52
 70
     0
102
RTVSPropertyOp53
 70
     1
102
RTVSPropertyOp54
 70
     1
102
RTVSPropertyOp55
 70
     1
102
RTVSPropertyOp56
 70
     1
102
RTVSPropertyOp57
 70
     1
102
RTVSPropertyOp58
 70
     1
102
RTVSPropertyOp59
 70
     1
102
RTVSPropertyOp60
 70
     1
102
RTVSPropertyOp61
 70
     1
102
RTVSPropertyOp62
 70
     1
  0
XRECORD
  5
99B6
102
{ACAD_REACTORS
330
99B5
102
}
330
99B5
100
AcDbXrecord
280
     1
102
RTVSPost2010Prop28
280
     0
102
RTVSPost2010PropOp28
 70
     1
102
RTVSPost2010Prop29
280
     1
102
RTVSPost2010PropOp29
 70
     1
102
RTVSPost2010Prop30
280
     1
102
RTVSPost2010PropOp30
 70
     1
102
RTVSPost2010Prop31
280
     0
102
RTVSPost2010PropOp31
 70
     1
102
RTVSPost2010Prop32
280
     0
102
RTVSPost2010PropOp32
 70
     1
102
RTVSPost2010Prop33
280
     0
102
RTVSPost2010PropOp33
 70
     1
102
RTVSPost2010Prop34
280
     0
102
RTVSPost2010PropOp34
 70
     1
102
RTVSPost2010Prop35
280
     0
102
RTVSPost2010PropOp35
 70
     1
102
RTVSPost2010Prop36
280
     0
102
RTVSPost2010PropOp36
 70
     1
102
RTVSPost2010Prop37
 90
       50
102
RTVSPost2010PropOp37
 70
     1
102
RTVSPost2010Prop38
140
0.0
102
RTVSPost2010PropOp38
 70
     1
102
RTVSPost2010Prop39
140
1.0
102
RTVSPost2010PropOp39
 70
     1
102
RTVSPost2010Prop40
 90
        0
102
RTVSPost2010PropOp40
 70
     1
102
RTVSPost2010Prop41ColorIndex
 90
       18
102
RTVSPost2010Prop41ColorRGB
 90
        0
102
RTVSPost2010PropOp41
 70
     1
102
RTVSPost2010Prop42
 90
       50
102
RTVSPost2010PropOp42
 70
     1
102
RTVSPost2010Prop43
 90
        3
102
RTVSPost2010PropOp43
 70
     1
102
RTVSPost2010Prop44ColorIndex
 90
        5
102
RTVSPost2010Prop44ColorRGB
 90
      255
102
RTVSPost2010PropOp44
 70
     1
102
RTVSPost2010Prop45
280
     0
102
RTVSPost2010PropOp45
 70
     1
102
RTVSPost2010Prop46
 90
       50
102
RTVSPost2010PropOp46
 70
     1
102
RTVSPost2010Prop47
 90
       50
102
RTVSPost2010PropOp47
 70
     1
102
RTVSPost2010Prop48
 90
       50
102
RTVSPost2010PropOp48
 70
     1
102
RTVSPost2010Prop49
280
     0
102
RTVSPost2010PropOp49
 70
     1
102
RTVSPost2010Prop50
 90
       50
102
RTVSPost2010PropOp50
 70
     1
102
RTVSPost2010Prop51ColorIndex
 90
      256
102
RTVSPost2010Prop51ColorRGB
 90
-16777216
102
RTVSPost2010PropOp51
 70
     0
102
RTVSPost2010Prop52
140
1.0
102
RTVSPost2010PropOp52
 70
     0
102
RTVSPost2010Prop53
 90
        2
102
RTVSPost2010PropOp53
 70
     1
102
RTVSPost2010Prop54
  1
strokes_ogs.tif
102
RTVSPost2010PropOp54
 70
     1
102
RTVSPost2010Prop55
280
     0
102
RTVSPost2010PropOp55
 70
     1
102
RTVSPost2010Prop56
140
1.0
102
RTVSPost2010PropOp56
 70
     1
102
RTVSPost2010Prop57
140
1.0
102
RTVSPost2010PropOp57
 70
     1
102
RTVSPropertyOp0
 70
     1
102
RTVSPropertyOp1
 70
     1
102
RTVSPropertyOp2
 70
     1
102
RTVSPropertyOp3
 70
     1
102
RTVSPropertyOp4
 70
     1
102
RTVSPropertyOp5
 70
     1
102
RTVSPropertyOp6
 70
     1
102
RTVSPropertyOp7
 70
     1
102
RTVSPropertyOp8
 70
     1
102
RTVSPropertyOp9
 70
     1
102
RTVSPropertyOp10
 70
     1
102
RTVSPropertyOp11
 70
     1
102
RTVSPropertyOp12
 70
     1
102
RTVSPropertyOp13
 70
     1
102
RTVSPropertyOp14
 70
     1
102
RTVSPropertyOp15
 70
     1
102
RTVSPropertyOp16
 70
     1
102
RTVSPropertyOp17
 70
     1
102
RTVSPropertyOp18
 70
     1
102
RTVSPropertyOp19
 70
     1
102
RTVSPropertyOp20
 70
     1
102
RTVSPropertyOp21
 70
     1
102
RTVSPropertyOp22
 70
     1
102
RTVSPropertyOp23
 70
     1
102
RTVSPropertyOp24
 70
     1
102
RTVSPropertyOp25
 70
     1
102
RTVSPropertyOp26
 70
     1
102
RTVSPropertyOp27
 70
     1
102
RTVSPropertyOp28
 70
     1
102
RTVSPropertyOp29
 70
     1
102
RTVSPropertyOp30
 70
     1
102
RTVSPropertyOp31
 70
     1
102
RTVSPropertyOp32
 70
     1
102
RTVSPropertyOp33
 70
     1
102
RTVSPropertyOp34
 70
     1
102
RTVSPropertyOp35
 70
     1
102
RTVSPropertyOp36
 70
     1
102
RTVSPropertyOp37
 70
     1
102
RTVSPropertyOp38
 70
     1
102
RTVSPropertyOp39
 70
     1
102
RTVSPropertyOp40
 70
     1
102
RTVSPropertyOp41
 70
     1
102
RTVSPropertyOp42
 70
     1
102
RTVSPropertyOp43
 70
     1
102
RTVSPropertyOp44
 70
     1
102
RTVSPropertyOp45
 70
     1
102
RTVSPropertyOp46
 70
     1
102
RTVSPropertyOp47
 70
     1
102
RTVSPropertyOp48
 70
     1
102
RTVSPropertyOp49
 70
     1
102
RTVSPropertyOp50
 70
     1
102
RTVSPropertyOp51
 70
     0
102
RTVSPropertyOp52
 70
     0
102
RTVSPropertyOp53
 70
     1
102
RTVSPropertyOp54
 70
     1
102
RTVSPropertyOp55
 70
     1
102
RTVSPropertyOp56
 70
     1
102
RTVSPropertyOp57
 70
     1
102
RTVSPropertyOp58
 70
     1
102
RTVSPropertyOp59
 70
     1
102
RTVSPropertyOp60
 70
     1
102
RTVSPropertyOp61
 70
     1
102
RTVSPropertyOp62
 70
     1
  0
XRECORD
  5
99B8
102
{ACAD_REACTORS
330
99B7
102
}
330
99B7
100
AcDbXrecord
280
     1
102
RTVSPost2010Prop28
280
     0
102
RTVSPost2010PropOp28
 70
     1
102
RTVSPost2010Prop29
280
     1
102
RTVSPost2010PropOp29
 70
     1
102
RTVSPost2010Prop30
280
     1
102
RTVSPost2010PropOp30
 70
     1
102
RTVSPost2010Prop31
280
     0
102
RTVSPost2010PropOp31
 70
     1
102
RTVSPost2010Prop32
280
     0
102
RTVSPost2010PropOp32
 70
     1
102
RTVSPost2010Prop33
280
     0
102
RTVSPost2010PropOp33
 70
     1
102
RTVSPost2010Prop34
280
     0
102
RTVSPost2010PropOp34
 70
     1
102
RTVSPost2010Prop35
280
     0
102
RTVSPost2010PropOp35
 70
     1
102
RTVSPost2010Prop36
280
     0
102
RTVSPost2010PropOp36
 70
     1
102
RTVSPost2010Prop37
 90
       50
102
RTVSPost2010PropOp37
 70
     1
102
RTVSPost2010Prop38
140
0.0
102
RTVSPost2010PropOp38
 70
     1
102
RTVSPost2010Prop39
140
1.0
102
RTVSPost2010PropOp39
 70
     1
102
RTVSPost2010Prop40
 90
        0
102
RTVSPost2010PropOp40
 70
     1
102
RTVSPost2010Prop41ColorIndex
 90
       18
102
RTVSPost2010Prop41ColorRGB
 90
        0
102
RTVSPost2010PropOp41
 70
     1
102
RTVSPost2010Prop42
 90
       50
102
RTVSPost2010PropOp42
 70
     1
102
RTVSPost2010Prop43
 90
        3
102
RTVSPost2010PropOp43
 70
     1
102
RTVSPost2010Prop44ColorIndex
 90
        5
102
RTVSPost2010Prop44ColorRGB
 90
      255
102
RTVSPost2010PropOp44
 70
     1
102
RTVSPost2010Prop45
280
     0
102
RTVSPost2010PropOp45
 70
     1
102
RTVSPost2010Prop46
 90
       50
102
RTVSPost2010PropOp46
 70
     1
102
RTVSPost2010Prop47
 90
       50
102
RTVSPost2010PropOp47
 70
     1
102
RTVSPost2010Prop48
 90
       50
102
RTVSPost2010PropOp48
 70
     1
102
RTVSPost2010Prop49
280
     0
102
RTVSPost2010PropOp49
 70
     1
102
RTVSPost2010Prop50
 90
       50
102
RTVSPost2010PropOp50
 70
     1
102
RTVSPost2010Prop51ColorIndex
 90
      256
102
RTVSPost2010Prop51ColorRGB
 90
-16777216
102
RTVSPost2010PropOp51
 70
     0
102
RTVSPost2010Prop52
140
1.0
102
RTVSPost2010PropOp52
 70
     0
102
RTVSPost2010Prop53
 90
        2
102
RTVSPost2010PropOp53
 70
     1
102
RTVSPost2010Prop54
  1
strokes_ogs.tif
102
RTVSPost2010PropOp54
 70
     1
102
RTVSPost2010Prop55
280
     0
102
RTVSPost2010PropOp55
 70
     1
102
RTVSPost2010Prop56
140
1.0
102
RTVSPost2010PropOp56
 70
     1
102
RTVSPost2010Prop57
140
1.0
102
RTVSPost2010PropOp57
 70
     1
102
RTVSPropertyOp0
 70
     1
102
RTVSPropertyOp1
 70
     1
102
RTVSPropertyOp2
 70
     1
102
RTVSPropertyOp3
 70
     1
102
RTVSPropertyOp4
 70
     1
102
RTVSPropertyOp5
 70
     1
102
RTVSPropertyOp6
 70
     1
102
RTVSPropertyOp7
 70
     1
102
RTVSPropertyOp8
 70
     1
102
RTVSPropertyOp9
 70
     1
102
RTVSPropertyOp10
 70
     1
102
RTVSPropertyOp11
 70
     1
102
RTVSPropertyOp12
 70
     1
102
RTVSPropertyOp13
 70
     1
102
RTVSPropertyOp14
 70
     1
102
RTVSPropertyOp15
 70
     1
102
RTVSPropertyOp16
 70
     1
102
RTVSPropertyOp17
 70
     1
102
RTVSPropertyOp18
 70
     1
102
RTVSPropertyOp19
 70
     1
102
RTVSPropertyOp20
 70
     1
102
RTVSPropertyOp21
 70
     1
102
RTVSPropertyOp22
 70
     1
102
RTVSPropertyOp23
 70
     1
102
RTVSPropertyOp24
 70
     1
102
RTVSPropertyOp25
 70
     1
102
RTVSPropertyOp26
 70
     1
102
RTVSPropertyOp27
 70
     1
102
RTVSPropertyOp28
 70
     1
102
RTVSPropertyOp29
 70
     1
102
RTVSPropertyOp30
 70
     1
102
RTVSPropertyOp31
 70
     1
102
RTVSPropertyOp32
 70
     1
102
RTVSPropertyOp33
 70
     1
102
RTVSPropertyOp34
 70
     1
102
RTVSPropertyOp35
 70
     1
102
RTVSPropertyOp36
 70
     1
102
RTVSPropertyOp37
 70
     1
102
RTVSPropertyOp38
 70
     1
102
RTVSPropertyOp39
 70
     1
102
RTVSPropertyOp40
 70
     1
102
RTVSPropertyOp41
 70
     1
102
RTVSPropertyOp42
 70
     1
102
RTVSPropertyOp43
 70
     1
102
RTVSPropertyOp44
 70
     1
102
RTVSPropertyOp45
 70
     1
102
RTVSPropertyOp46
 70
     1
102
RTVSPropertyOp47
 70
     1
102
RTVSPropertyOp48
 70
     1
102
RTVSPropertyOp49
 70
     1
102
RTVSPropertyOp50
 70
     1
102
RTVSPropertyOp51
 70
     0
102
RTVSPropertyOp52
 70
     0
102
RTVSPropertyOp53
 70
     1
102
RTVSPropertyOp54
 70
     1
102
RTVSPropertyOp55
 70
     1
102
RTVSPropertyOp56
 70
     1
102
RTVSPropertyOp57
 70
     1
102
RTVSPropertyOp58
 70
     1
102
RTVSPropertyOp59
 70
     1
102
RTVSPropertyOp60
 70
     1
102
RTVSPropertyOp61
 70
     1
102
RTVSPropertyOp62
 70
     1
  0
XRECORD
  5
99C0
102
{ACAD_REACTORS
330
99BF
102
}
330
99BF
100
AcDbXrecord
280
     1
102
RTVSPost2010Prop28
280
     0
102
RTVSPost2010PropOp28
 70
     1
102
RTVSPost2010Prop29
280
     1
102
RTVSPost2010PropOp29
 70
     1
102
RTVSPost2010Prop30
280
     1
102
RTVSPost2010PropOp30
 70
     1
102
RTVSPost2010Prop31
280
     0
102
RTVSPost2010PropOp31
 70
     1
102
RTVSPost2010Prop32
280
     0
102
RTVSPost2010PropOp32
 70
     1
102
RTVSPost2010Prop33
280
     0
102
RTVSPost2010PropOp33
 70
     1
102
RTVSPost2010Prop34
280
     0
102
RTVSPost2010PropOp34
 70
     1
102
RTVSPost2010Prop35
280
     0
102
RTVSPost2010PropOp35
 70
     1
102
RTVSPost2010Prop36
280
     0
102
RTVSPost2010PropOp36
 70
     1
102
RTVSPost2010Prop37
 90
       50
102
RTVSPost2010PropOp37
 70
     1
102
RTVSPost2010Prop38
140
0.0
102
RTVSPost2010PropOp38
 70
     1
102
RTVSPost2010Prop39
140
1.0
102
RTVSPost2010PropOp39
 70
     1
102
RTVSPost2010Prop40
 90
        0
102
RTVSPost2010PropOp40
 70
     1
102
RTVSPost2010Prop41ColorIndex
 90
       18
102
RTVSPost2010Prop41ColorRGB
 90
        0
102
RTVSPost2010PropOp41
 70
     1
102
RTVSPost2010Prop42
 90
       50
102
RTVSPost2010PropOp42
 70
     1
102
RTVSPost2010Prop43
 90
        3
102
RTVSPost2010PropOp43
 70
     1
102
RTVSPost2010Prop44ColorIndex
 90
        5
102
RTVSPost2010Prop44ColorRGB
 90
      255
102
RTVSPost2010PropOp44
 70
     1
102
RTVSPost2010Prop45
280
     0
102
RTVSPost2010PropOp45
 70
     1
102
RTVSPost2010Prop46
 90
       50
102
RTVSPost2010PropOp46
 70
     1
102
RTVSPost2010Prop47
 90
       50
102
RTVSPost2010PropOp47
 70
     1
102
RTVSPost2010Prop48
 90
       50
102
RTVSPost2010PropOp48
 70
     1
102
RTVSPost2010Prop49
280
     0
102
RTVSPost2010PropOp49
 70
     1
102
RTVSPost2010Prop50
 90
       50
102
RTVSPost2010PropOp50
 70
     1
102
RTVSPost2010Prop51ColorIndex
 90
      256
102
RTVSPost2010Prop51ColorRGB
 90
-16777216
102
RTVSPost2010PropOp51
 70
     0
102
RTVSPost2010Prop52
140
1.0
102
RTVSPost2010PropOp52
 70
     0
102
RTVSPost2010Prop53
 90
        2
102
RTVSPost2010PropOp53
 70
     1
102
RTVSPost2010Prop54
  1
strokes_ogs.tif
102
RTVSPost2010PropOp54
 70
     1
102
RTVSPost2010Prop55
280
     0
102
RTVSPost2010PropOp55
 70
     1
102
RTVSPost2010Prop56
140
1.0
102
RTVSPost2010PropOp56
 70
     1
102
RTVSPost2010Prop57
140
1.0
102
RTVSPost2010PropOp57
 70
     1
102
RTVSPropertyOp0
 70
     1
102
RTVSPropertyOp1
 70
     1
102
RTVSPropertyOp2
 70
     1
102
RTVSPropertyOp3
 70
     1
102
RTVSPropertyOp4
 70
     1
102
RTVSPropertyOp5
 70
     1
102
RTVSPropertyOp6
 70
     1
102
RTVSPropertyOp7
 70
     1
102
RTVSPropertyOp8
 70
     1
102
RTVSPropertyOp9
 70
     1
102
RTVSPropertyOp10
 70
     1
102
RTVSPropertyOp11
 70
     1
102
RTVSPropertyOp12
 70
     1
102
RTVSPropertyOp13
 70
     1
102
RTVSPropertyOp14
 70
     1
102
RTVSPropertyOp15
 70
     1
102
RTVSPropertyOp16
 70
     1
102
RTVSPropertyOp17
 70
     1
102
RTVSPropertyOp18
 70
     1
102
RTVSPropertyOp19
 70
     1
102
RTVSPropertyOp20
 70
     1
102
RTVSPropertyOp21
 70
     1
102
RTVSPropertyOp22
 70
     1
102
RTVSPropertyOp23
 70
     1
102
RTVSPropertyOp24
 70
     1
102
RTVSPropertyOp25
 70
     1
102
RTVSPropertyOp26
 70
     1
102
RTVSPropertyOp27
 70
     1
102
RTVSPropertyOp28
 70
     1
102
RTVSPropertyOp29
 70
     1
102
RTVSPropertyOp30
 70
     1
102
RTVSPropertyOp31
 70
     1
102
RTVSPropertyOp32
 70
     1
102
RTVSPropertyOp33
 70
     1
102
RTVSPropertyOp34
 70
     1
102
RTVSPropertyOp35
 70
     1
102
RTVSPropertyOp36
 70
     1
102
RTVSPropertyOp37
 70
     1
102
RTVSPropertyOp38
 70
     1
102
RTVSPropertyOp39
 70
     1
102
RTVSPropertyOp40
 70
     1
102
RTVSPropertyOp41
 70
     1
102
RTVSPropertyOp42
 70
     1
102
RTVSPropertyOp43
 70
     1
102
RTVSPropertyOp44
 70
     1
102
RTVSPropertyOp45
 70
     1
102
RTVSPropertyOp46
 70
     1
102
RTVSPropertyOp47
 70
     1
102
RTVSPropertyOp48
 70
     1
102
RTVSPropertyOp49
 70
     1
102
RTVSPropertyOp50
 70
     1
102
RTVSPropertyOp51
 70
     0
102
RTVSPropertyOp52
 70
     0
102
RTVSPropertyOp53
 70
     1
102
RTVSPropertyOp54
 70
     1
102
RTVSPropertyOp55
 70
     1
102
RTVSPropertyOp56
 70
     1
102
RTVSPropertyOp57
 70
     1
102
RTVSPropertyOp58
 70
     1
102
RTVSPropertyOp59
 70
     1
102
RTVSPropertyOp60
 70
     1
102
RTVSPropertyOp61
 70
     1
102
RTVSPropertyOp62
 70
     1
  0
XRECORD
  5
99DC
102
{ACAD_REACTORS
330
99DB
102
}
330
99DB
100
AcDbXrecord
280
     1
102
RTVSPost2010Prop28
280
     0
102
RTVSPost2010PropOp28
 70
     1
102
RTVSPost2010Prop29
280
     1
102
RTVSPost2010PropOp29
 70
     1
102
RTVSPost2010Prop30
280
     1
102
RTVSPost2010PropOp30
 70
     1
102
RTVSPost2010Prop31
280
     0
102
RTVSPost2010PropOp31
 70
     1
102
RTVSPost2010Prop32
280
     0
102
RTVSPost2010PropOp32
 70
     1
102
RTVSPost2010Prop33
280
     0
102
RTVSPost2010PropOp33
 70
     1
102
RTVSPost2010Prop34
280
     0
102
RTVSPost2010PropOp34
 70
     1
102
RTVSPost2010Prop35
280
     0
102
RTVSPost2010PropOp35
 70
     1
102
RTVSPost2010Prop36
280
     0
102
RTVSPost2010PropOp36
 70
     1
102
RTVSPost2010Prop37
 90
       50
102
RTVSPost2010PropOp37
 70
     0
102
RTVSPost2010Prop38
140
0.0
102
RTVSPost2010PropOp38
 70
     0
102
RTVSPost2010Prop39
140
1.0
102
RTVSPost2010PropOp39
 70
     0
102
RTVSPost2010Prop40
 90
        0
102
RTVSPost2010PropOp40
 70
     0
102
RTVSPost2010Prop41ColorIndex
 90
       18
102
RTVSPost2010Prop41ColorRGB
 90
        0
102
RTVSPost2010PropOp41
 70
     0
102
RTVSPost2010Prop42
 90
       50
102
RTVSPost2010PropOp42
 70
     0
102
RTVSPost2010Prop43
 90
        3
102
RTVSPost2010PropOp43
 70
     0
102
RTVSPost2010Prop44ColorIndex
 90
        5
102
RTVSPost2010Prop44ColorRGB
 90
      255
102
RTVSPost2010PropOp44
 70
     0
102
RTVSPost2010Prop45
280
     0
102
RTVSPost2010PropOp45
 70
     1
102
RTVSPost2010Prop46
 90
       50
102
RTVSPost2010PropOp46
 70
     0
102
RTVSPost2010Prop47
 90
       50
102
RTVSPost2010PropOp47
 70
     0
102
RTVSPost2010Prop48
 90
       50
102
RTVSPost2010PropOp48
 70
     0
102
RTVSPost2010Prop49
280
     0
102
RTVSPost2010PropOp49
 70
     1
102
RTVSPost2010Prop50
 90
       50
102
RTVSPost2010PropOp50
 70
     0
102
RTVSPost2010Prop51ColorIndex
 90
      256
102
RTVSPost2010Prop51ColorRGB
 90
-16777216
102
RTVSPost2010PropOp51
 70
     0
102
RTVSPost2010Prop52
140
1.0
102
RTVSPost2010PropOp52
 70
     0
102
RTVSPost2010Prop53
 90
        2
102
RTVSPost2010PropOp53
 70
     0
102
RTVSPost2010Prop54
  1
strokes_ogs.tif
102
RTVSPost2010PropOp54
 70
     0
102
RTVSPost2010Prop55
280
     0
102
RTVSPost2010PropOp55
 70
     1
102
RTVSPost2010Prop56
140
1.0
102
RTVSPost2010PropOp56
 70
     0
102
RTVSPost2010Prop57
140
1.0
102
RTVSPost2010PropOp57
 70
     0
102
RTVSPropertyOp0
 70
     0
102
RTVSPropertyOp1
 70
     0
102
RTVSPropertyOp2
 70
     0
102
RTVSPropertyOp3
 70
     0
102
RTVSPropertyOp4
 70
     0
102
RTVSPropertyOp5
 70
     0
102
RTVSPropertyOp6
 70
     0
102
RTVSPropertyOp7
 70
     0
102
RTVSPropertyOp8
 70
     0
102
RTVSPropertyOp9
 70
     0
102
RTVSPropertyOp10
 70
     0
102
RTVSPropertyOp11
 70
     0
102
RTVSPropertyOp12
 70
     0
102
RTVSPropertyOp13
 70
     0
102
RTVSPropertyOp14
 70
     2
102
RTVSPropertyOp15
 70
     0
102
RTVSPropertyOp16
 70
     0
102
RTVSPropertyOp17
 70
     0
102
RTVSPropertyOp18
 70
     0
102
RTVSPropertyOp19
 70
     0
102
RTVSPropertyOp20
 70
     0
102
RTVSPropertyOp21
 70
     0
102
RTVSPropertyOp22
 70
     0
102
RTVSPropertyOp23
 70
     0
102
RTVSPropertyOp24
 70
     0
102
RTVSPropertyOp25
 70
     0
102
RTVSPropertyOp26
 70
     0
102
RTVSPropertyOp27
 70
     0
102
RTVSPropertyOp28
 70
     1
102
RTVSPropertyOp29
 70
     1
102
RTVSPropertyOp30
 70
     1
102
RTVSPropertyOp31
 70
     1
102
RTVSPropertyOp32
 70
     1
102
RTVSPropertyOp33
 70
     1
102
RTVSPropertyOp34
 70
     1
102
RTVSPropertyOp35
 70
     1
102
RTVSPropertyOp36
 70
     1
102
RTVSPropertyOp37
 70
     0
102
RTVSPropertyOp38
 70
     0
102
RTVSPropertyOp39
 70
     0
102
RTVSPropertyOp40
 70
     0
102
RTVSPropertyOp41
 70
     0
102
RTVSPropertyOp42
 70
     0
102
RTVSPropertyOp43
 70
     0
102
RTVSPropertyOp44
 70
     0
102
RTVSPropertyOp45
 70
     1
102
RTVSPropertyOp46
 70
     0
102
RTVSPropertyOp47
 70
     0
102
RTVSPropertyOp48
 70
     0
102
RTVSPropertyOp49
 70
     1
102
RTVSPropertyOp50
 70
     0
102
RTVSPropertyOp51
 70
     0
102
RTVSPropertyOp52
 70
     0
102
RTVSPropertyOp53
 70
     0
102
RTVSPropertyOp54
 70
     0
102
RTVSPropertyOp55
 70
     1
102
RTVSPropertyOp56
 70
     0
102
RTVSPropertyOp57
 70
     0
102
RTVSPropertyOp58
 70
     0
102
RTVSPropertyOp59
 70
     0
102
RTVSPropertyOp60
 70
     0
102
RTVSPropertyOp61
 70
     0
102
RTVSPropertyOp62
 70
     0
  0
XRECORD
  5
99CC
102
{ACAD_REACTORS
330
99CB
102
}
330
99CB
100
AcDbXrecord
280
     1
102
RTVSPost2010Prop28
280
     0
102
RTVSPost2010PropOp28
 70
     1
102
RTVSPost2010Prop29
280
     1
102
RTVSPost2010PropOp29
 70
     1
102
RTVSPost2010Prop30
280
     1
102
RTVSPost2010PropOp30
 70
     1
102
RTVSPost2010Prop31
280
     0
102
RTVSPost2010PropOp31
 70
     1
102
RTVSPost2010Prop32
280
     0
102
RTVSPost2010PropOp32
 70
     1
102
RTVSPost2010Prop33
280
     0
102
RTVSPost2010PropOp33
 70
     1
102
RTVSPost2010Prop34
280
     0
102
RTVSPost2010PropOp34
 70
     1
102
RTVSPost2010Prop35
280
     0
102
RTVSPost2010PropOp35
 70
     1
102
RTVSPost2010Prop36
280
     0
102
RTVSPost2010PropOp36
 70
     1
102
RTVSPost2010Prop37
 90
       50
102
RTVSPost2010PropOp37
 70
     1
102
RTVSPost2010Prop38
140
0.0
102
RTVSPost2010PropOp38
 70
     1
102
RTVSPost2010Prop39
140
1.0
102
RTVSPost2010PropOp39
 70
     1
102
RTVSPost2010Prop40
 90
        0
102
RTVSPost2010PropOp40
 70
     1
102
RTVSPost2010Prop41ColorIndex
 90
       18
102
RTVSPost2010Prop41ColorRGB
 90
        0
102
RTVSPost2010PropOp41
 70
     1
102
RTVSPost2010Prop42
 90
       50
102
RTVSPost2010PropOp42
 70
     1
102
RTVSPost2010Prop43
 90
        3
102
RTVSPost2010PropOp43
 70
     1
102
RTVSPost2010Prop44ColorIndex
 90
        5
102
RTVSPost2010Prop44ColorRGB
 90
      255
102
RTVSPost2010PropOp44
 70
     1
102
RTVSPost2010Prop45
280
     0
102
RTVSPost2010PropOp45
 70
     1
102
RTVSPost2010Prop46
 90
       50
102
RTVSPost2010PropOp46
 70
     1
102
RTVSPost2010Prop47
 90
       50
102
RTVSPost2010PropOp47
 70
     1
102
RTVSPost2010Prop48
 90
       50
102
RTVSPost2010PropOp48
 70
     1
102
RTVSPost2010Prop49
280
     0
102
RTVSPost2010PropOp49
 70
     1
102
RTVSPost2010Prop50
 90
       50
102
RTVSPost2010PropOp50
 70
     1
102
RTVSPost2010Prop51ColorIndex
 90
      256
102
RTVSPost2010Prop51ColorRGB
 90
-16777216
102
RTVSPost2010PropOp51
 70
     0
102
RTVSPost2010Prop52
140
1.0
102
RTVSPost2010PropOp52
 70
     0
102
RTVSPost2010Prop53
 90
        2
102
RTVSPost2010PropOp53
 70
     1
102
RTVSPost2010Prop54
  1
strokes_ogs.tif
102
RTVSPost2010PropOp54
 70
     1
102
RTVSPost2010Prop55
280
     0
102
RTVSPost2010PropOp55
 70
     1
102
RTVSPost2010Prop56
140
1.0
102
RTVSPost2010PropOp56
 70
     1
102
RTVSPost2010Prop57
140
1.0
102
RTVSPost2010PropOp57
 70
     1
102
RTVSPropertyOp0
 70
     1
102
RTVSPropertyOp1
 70
     1
102
RTVSPropertyOp2
 70
     1
102
RTVSPropertyOp3
 70
     1
102
RTVSPropertyOp4
 70
     1
102
RTVSPropertyOp5
 70
     1
102
RTVSPropertyOp6
 70
     1
102
RTVSPropertyOp7
 70
     1
102
RTVSPropertyOp8
 70
     1
102
RTVSPropertyOp9
 70
     1
102
RTVSPropertyOp10
 70
     1
102
RTVSPropertyOp11
 70
     1
102
RTVSPropertyOp12
 70
     1
102
RTVSPropertyOp13
 70
     1
102
RTVSPropertyOp14
 70
     1
102
RTVSPropertyOp15
 70
     1
102
RTVSPropertyOp16
 70
     1
102
RTVSPropertyOp17
 70
     1
102
RTVSPropertyOp18
 70
     1
102
RTVSPropertyOp19
 70
     1
102
RTVSPropertyOp20
 70
     1
102
RTVSPropertyOp21
 70
     1
102
RTVSPropertyOp22
 70
     1
102
RTVSPropertyOp23
 70
     1
102
RTVSPropertyOp24
 70
     1
102
RTVSPropertyOp25
 70
     1
102
RTVSPropertyOp26
 70
     1
102
RTVSPropertyOp27
 70
     1
102
RTVSPropertyOp28
 70
     1
102
RTVSPropertyOp29
 70
     1
102
RTVSPropertyOp30
 70
     1
102
RTVSPropertyOp31
 70
     1
102
RTVSPropertyOp32
 70
     1
102
RTVSPropertyOp33
 70
     1
102
RTVSPropertyOp34
 70
     1
102
RTVSPropertyOp35
 70
     1
102
RTVSPropertyOp36
 70
     1
102
RTVSPropertyOp37
 70
     1
102
RTVSPropertyOp38
 70
     1
102
RTVSPropertyOp39
 70
     1
102
RTVSPropertyOp40
 70
     1
102
RTVSPropertyOp41
 70
     1
102
RTVSPropertyOp42
 70
     1
102
RTVSPropertyOp43
 70
     1
102
RTVSPropertyOp44
 70
     1
102
RTVSPropertyOp45
 70
     1
102
RTVSPropertyOp46
 70
     1
102
RTVSPropertyOp47
 70
     1
102
RTVSPropertyOp48
 70
     1
102
RTVSPropertyOp49
 70
     1
102
RTVSPropertyOp50
 70
     1
102
RTVSPropertyOp51
 70
     0
102
RTVSPropertyOp52
 70
     0
102
RTVSPropertyOp53
 70
     1
102
RTVSPropertyOp54
 70
     1
102
RTVSPropertyOp55
 70
     1
102
RTVSPropertyOp56
 70
     1
102
RTVSPropertyOp57
 70
     1
102
RTVSPropertyOp58
 70
     1
102
RTVSPropertyOp59
 70
     1
102
RTVSPropertyOp60
 70
     1
102
RTVSPropertyOp61
 70
     1
102
RTVSPropertyOp62
 70
     1
  0
XRECORD
  5
99DE
102
{ACAD_REACTORS
330
99DD
102
}
330
99DD
100
AcDbXrecord
280
     1
102
RTVSPost2010Prop28
280
     0
102
RTVSPost2010PropOp28
 70
     1
102
RTVSPost2010Prop29
280
     1
102
RTVSPost2010PropOp29
 70
     1
102
RTVSPost2010Prop30
280
     1
102
RTVSPost2010PropOp30
 70
     1
102
RTVSPost2010Prop31
280
     0
102
RTVSPost2010PropOp31
 70
     1
102
RTVSPost2010Prop32
280
     0
102
RTVSPost2010PropOp32
 70
     1
102
RTVSPost2010Prop33
280
     0
102
RTVSPost2010PropOp33
 70
     1
102
RTVSPost2010Prop34
280
     0
102
RTVSPost2010PropOp34
 70
     1
102
RTVSPost2010Prop35
280
     0
102
RTVSPost2010PropOp35
 70
     1
102
RTVSPost2010Prop36
280
     0
102
RTVSPost2010PropOp36
 70
     1
102
RTVSPost2010Prop37
 90
       50
102
RTVSPost2010PropOp37
 70
     0
102
RTVSPost2010Prop38
140
0.0
102
RTVSPost2010PropOp38
 70
     0
102
RTVSPost2010Prop39
140
1.0
102
RTVSPost2010PropOp39
 70
     0
102
RTVSPost2010Prop40
 90
        0
102
RTVSPost2010PropOp40
 70
     0
102
RTVSPost2010Prop41ColorIndex
 90
       18
102
RTVSPost2010Prop41ColorRGB
 90
        0
102
RTVSPost2010PropOp41
 70
     0
102
RTVSPost2010Prop42
 90
       50
102
RTVSPost2010PropOp42
 70
     0
102
RTVSPost2010Prop43
 90
        3
102
RTVSPost2010PropOp43
 70
     0
102
RTVSPost2010Prop44ColorIndex
 90
        5
102
RTVSPost2010Prop44ColorRGB
 90
      255
102
RTVSPost2010PropOp44
 70
     0
102
RTVSPost2010Prop45
280
     0
102
RTVSPost2010PropOp45
 70
     1
102
RTVSPost2010Prop46
 90
       50
102
RTVSPost2010PropOp46
 70
     0
102
RTVSPost2010Prop47
 90
       50
102
RTVSPost2010PropOp47
 70
     0
102
RTVSPost2010Prop48
 90
       50
102
RTVSPost2010PropOp48
 70
     0
102
RTVSPost2010Prop49
280
     0
102
RTVSPost2010PropOp49
 70
     1
102
RTVSPost2010Prop50
 90
       50
102
RTVSPost2010PropOp50
 70
     0
102
RTVSPost2010Prop51ColorIndex
 90
      256
102
RTVSPost2010Prop51ColorRGB
 90
-16777216
102
RTVSPost2010PropOp51
 70
     0
102
RTVSPost2010Prop52
140
1.0
102
RTVSPost2010PropOp52
 70
     0
102
RTVSPost2010Prop53
 90
        2
102
RTVSPost2010PropOp53
 70
     0
102
RTVSPost2010Prop54
  1
strokes_ogs.tif
102
RTVSPost2010PropOp54
 70
     0
102
RTVSPost2010Prop55
280
     0
102
RTVSPost2010PropOp55
 70
     1
102
RTVSPost2010Prop56
140
1.0
102
RTVSPost2010PropOp56
 70
     0
102
RTVSPost2010Prop57
140
1.0
102
RTVSPost2010PropOp57
 70
     0
102
RTVSPropertyOp0
 70
     0
102
RTVSPropertyOp1
 70
     0
102
RTVSPropertyOp2
 70
     0
102
RTVSPropertyOp3
 70
     0
102
RTVSPropertyOp4
 70
     0
102
RTVSPropertyOp5
 70
     0
102
RTVSPropertyOp6
 70
     0
102
RTVSPropertyOp7
 70
     0
102
RTVSPropertyOp8
 70
     0
102
RTVSPropertyOp9
 70
     0
102
RTVSPropertyOp10
 70
     0
102
RTVSPropertyOp11
 70
     0
102
RTVSPropertyOp12
 70
     0
102
RTVSPropertyOp13
 70
     0
102
RTVSPropertyOp14
 70
     2
102
RTVSPropertyOp15
 70
     0
102
RTVSPropertyOp16
 70
     0
102
RTVSPropertyOp17
 70
     0
102
RTVSPropertyOp18
 70
     0
102
RTVSPropertyOp19
 70
     0
102
RTVSPropertyOp20
 70
     0
102
RTVSPropertyOp21
 70
     0
102
RTVSPropertyOp22
 70
     0
102
RTVSPropertyOp23
 70
     0
102
RTVSPropertyOp24
 70
     0
102
RTVSPropertyOp25
 70
     0
102
RTVSPropertyOp26
 70
     0
102
RTVSPropertyOp27
 70
     0
102
RTVSPropertyOp28
 70
     1
102
RTVSPropertyOp29
 70
     1
102
RTVSPropertyOp30
 70
     1
102
RTVSPropertyOp31
 70
     1
102
RTVSPropertyOp32
 70
     1
102
RTVSPropertyOp33
 70
     1
102
RTVSPropertyOp34
 70
     1
102
RTVSPropertyOp35
 70
     1
102
RTVSPropertyOp36
 70
     1
102
RTVSPropertyOp37
 70
     0
102
RTVSPropertyOp38
 70
     0
102
RTVSPropertyOp39
 70
     0
102
RTVSPropertyOp40
 70
     0
102
RTVSPropertyOp41
 70
     0
102
RTVSPropertyOp42
 70
     0
102
RTVSPropertyOp43
 70
     0
102
RTVSPropertyOp44
 70
     0
102
RTVSPropertyOp45
 70
     1
102
RTVSPropertyOp46
 70
     0
102
RTVSPropertyOp47
 70
     0
102
RTVSPropertyOp48
 70
     0
102
RTVSPropertyOp49
 70
     1
102
RTVSPropertyOp50
 70
     0
102
RTVSPropertyOp51
 70
     0
102
RTVSPropertyOp52
 70
     0
102
RTVSPropertyOp53
 70
     0
102
RTVSPropertyOp54
 70
     0
102
RTVSPropertyOp55
 70
     1
102
RTVSPropertyOp56
 70
     0
102
RTVSPropertyOp57
 70
     0
102
RTVSPropertyOp58
 70
     0
102
RTVSPropertyOp59
 70
     0
102
RTVSPropertyOp60
 70
     0
102
RTVSPropertyOp61
 70
     0
102
RTVSPropertyOp62
 70
     0
  0
XRECORD
  5
99C4
102
{ACAD_REACTORS
330
99C3
102
}
330
99C3
100
AcDbXrecord
280
     1
102
RTVSPost2010Prop28
280
     0
102
RTVSPost2010PropOp28
 70
     1
102
RTVSPost2010Prop29
280
     1
102
RTVSPost2010PropOp29
 70
     1
102
RTVSPost2010Prop30
280
     1
102
RTVSPost2010PropOp30
 70
     1
102
RTVSPost2010Prop31
280
     0
102
RTVSPost2010PropOp31
 70
     1
102
RTVSPost2010Prop32
280
     0
102
RTVSPost2010PropOp32
 70
     1
102
RTVSPost2010Prop33
280
     0
102
RTVSPost2010PropOp33
 70
     1
102
RTVSPost2010Prop34
280
     0
102
RTVSPost2010PropOp34
 70
     1
102
RTVSPost2010Prop35
280
     0
102
RTVSPost2010PropOp35
 70
     1
102
RTVSPost2010Prop36
280
     0
102
RTVSPost2010PropOp36
 70
     1
102
RTVSPost2010Prop37
 90
       50
102
RTVSPost2010PropOp37
 70
     1
102
RTVSPost2010Prop38
140
0.0
102
RTVSPost2010PropOp38
 70
     1
102
RTVSPost2010Prop39
140
1.0
102
RTVSPost2010PropOp39
 70
     1
102
RTVSPost2010Prop40
 90
        0
102
RTVSPost2010PropOp40
 70
     1
102
RTVSPost2010Prop41ColorIndex
 90
       18
102
RTVSPost2010Prop41ColorRGB
 90
        0
102
RTVSPost2010PropOp41
 70
     1
102
RTVSPost2010Prop42
 90
       50
102
RTVSPost2010PropOp42
 70
     1
102
RTVSPost2010Prop43
 90
        3
102
RTVSPost2010PropOp43
 70
     1
102
RTVSPost2010Prop44ColorIndex
 90
        5
102
RTVSPost2010Prop44ColorRGB
 90
      255
102
RTVSPost2010PropOp44
 70
     1
102
RTVSPost2010Prop45
280
     0
102
RTVSPost2010PropOp45
 70
     1
102
RTVSPost2010Prop46
 90
       50
102
RTVSPost2010PropOp46
 70
     1
102
RTVSPost2010Prop47
 90
       50
102
RTVSPost2010PropOp47
 70
     1
102
RTVSPost2010Prop48
 90
       50
102
RTVSPost2010PropOp48
 70
     1
102
RTVSPost2010Prop49
280
     0
102
RTVSPost2010PropOp49
 70
     1
102
RTVSPost2010Prop50
 90
       50
102
RTVSPost2010PropOp50
 70
     1
102
RTVSPost2010Prop51ColorIndex
 90
      256
102
RTVSPost2010Prop51ColorRGB
 90
-16777216
102
RTVSPost2010PropOp51
 70
     0
102
RTVSPost2010Prop52
140
1.0
102
RTVSPost2010PropOp52
 70
     0
102
RTVSPost2010Prop53
 90
        2
102
RTVSPost2010PropOp53
 70
     1
102
RTVSPost2010Prop54
  1
strokes_ogs.tif
102
RTVSPost2010PropOp54
 70
     1
102
RTVSPost2010Prop55
280
     0
102
RTVSPost2010PropOp55
 70
     1
102
RTVSPost2010Prop56
140
1.0
102
RTVSPost2010PropOp56
 70
     1
102
RTVSPost2010Prop57
140
1.0
102
RTVSPost2010PropOp57
 70
     1
102
RTVSPropertyOp0
 70
     1
102
RTVSPropertyOp1
 70
     1
102
RTVSPropertyOp2
 70
     1
102
RTVSPropertyOp3
 70
     1
102
RTVSPropertyOp4
 70
     1
102
RTVSPropertyOp5
 70
     1
102
RTVSPropertyOp6
 70
     1
102
RTVSPropertyOp7
 70
     1
102
RTVSPropertyOp8
 70
     1
102
RTVSPropertyOp9
 70
     1
102
RTVSPropertyOp10
 70
     1
102
RTVSPropertyOp11
 70
     1
102
RTVSPropertyOp12
 70
     1
102
RTVSPropertyOp13
 70
     1
102
RTVSPropertyOp14
 70
     1
102
RTVSPropertyOp15
 70
     1
102
RTVSPropertyOp16
 70
     1
102
RTVSPropertyOp17
 70
     1
102
RTVSPropertyOp18
 70
     1
102
RTVSPropertyOp19
 70
     1
102
RTVSPropertyOp20
 70
     1
102
RTVSPropertyOp21
 70
     1
102
RTVSPropertyOp22
 70
     1
102
RTVSPropertyOp23
 70
     1
102
RTVSPropertyOp24
 70
     1
102
RTVSPropertyOp25
 70
     1
102
RTVSPropertyOp26
 70
     1
102
RTVSPropertyOp27
 70
     1
102
RTVSPropertyOp28
 70
     1
102
RTVSPropertyOp29
 70
     1
102
RTVSPropertyOp30
 70
     1
102
RTVSPropertyOp31
 70
     1
102
RTVSPropertyOp32
 70
     1
102
RTVSPropertyOp33
 70
     1
102
RTVSPropertyOp34
 70
     1
102
RTVSPropertyOp35
 70
     1
102
RTVSPropertyOp36
 70
     1
102
RTVSPropertyOp37
 70
     1
102
RTVSPropertyOp38
 70
     1
102
RTVSPropertyOp39
 70
     1
102
RTVSPropertyOp40
 70
     1
102
RTVSPropertyOp41
 70
     1
102
RTVSPropertyOp42
 70
     1
102
RTVSPropertyOp43
 70
     1
102
RTVSPropertyOp44
 70
     1
102
RTVSPropertyOp45
 70
     1
102
RTVSPropertyOp46
 70
     1
102
RTVSPropertyOp47
 70
     1
102
RTVSPropertyOp48
 70
     1
102
RTVSPropertyOp49
 70
     1
102
RTVSPropertyOp50
 70
     1
102
RTVSPropertyOp51
 70
     0
102
RTVSPropertyOp52
 70
     0
102
RTVSPropertyOp53
 70
     1
102
RTVSPropertyOp54
 70
     1
102
RTVSPropertyOp55
 70
     1
102
RTVSPropertyOp56
 70
     1
102
RTVSPropertyOp57
 70
     1
102
RTVSPropertyOp58
 70
     1
102
RTVSPropertyOp59
 70
     1
102
RTVSPropertyOp60
 70
     1
102
RTVSPropertyOp61
 70
     1
102
RTVSPropertyOp62
 70
     1
  0
XRECORD
  5
99DA
102
{ACAD_REACTORS
330
99D9
102
}
330
99D9
100
AcDbXrecord
280
     1
102
RTVSPost2010Prop28
280
     0
102
RTVSPost2010PropOp28
 70
     1
102
RTVSPost2010Prop29
280
     1
102
RTVSPost2010PropOp29
 70
     1
102
RTVSPost2010Prop30
280
     1
102
RTVSPost2010PropOp30
 70
     1
102
RTVSPost2010Prop31
280
     0
102
RTVSPost2010PropOp31
 70
     1
102
RTVSPost2010Prop32
280
     0
102
RTVSPost2010PropOp32
 70
     1
102
RTVSPost2010Prop33
280
     0
102
RTVSPost2010PropOp33
 70
     1
102
RTVSPost2010Prop34
280
     0
102
RTVSPost2010PropOp34
 70
     1
102
RTVSPost2010Prop35
280
     0
102
RTVSPost2010PropOp35
 70
     1
102
RTVSPost2010Prop36
280
     0
102
RTVSPost2010PropOp36
 70
     1
102
RTVSPost2010Prop37
 90
       50
102
RTVSPost2010PropOp37
 70
     1
102
RTVSPost2010Prop38
140
0.0
102
RTVSPost2010PropOp38
 70
     1
102
RTVSPost2010Prop39
140
1.0
102
RTVSPost2010PropOp39
 70
     1
102
RTVSPost2010Prop40
 90
        0
102
RTVSPost2010PropOp40
 70
     1
102
RTVSPost2010Prop41ColorIndex
 90
       18
102
RTVSPost2010Prop41ColorRGB
 90
        0
102
RTVSPost2010PropOp41
 70
     1
102
RTVSPost2010Prop42
 90
       50
102
RTVSPost2010PropOp42
 70
     1
102
RTVSPost2010Prop43
 90
        3
102
RTVSPost2010PropOp43
 70
     1
102
RTVSPost2010Prop44ColorIndex
 90
        5
102
RTVSPost2010Prop44ColorRGB
 90
      255
102
RTVSPost2010PropOp44
 70
     1
102
RTVSPost2010Prop45
280
     0
102
RTVSPost2010PropOp45
 70
     1
102
RTVSPost2010Prop46
 90
       50
102
RTVSPost2010PropOp46
 70
     1
102
RTVSPost2010Prop47
 90
       50
102
RTVSPost2010PropOp47
 70
     1
102
RTVSPost2010Prop48
 90
       50
102
RTVSPost2010PropOp48
 70
     1
102
RTVSPost2010Prop49
280
     0
102
RTVSPost2010PropOp49
 70
     1
102
RTVSPost2010Prop50
 90
       50
102
RTVSPost2010PropOp50
 70
     1
102
RTVSPost2010Prop51ColorIndex
 90
      256
102
RTVSPost2010Prop51ColorRGB
 90
-16777216
102
RTVSPost2010PropOp51
 70
     0
102
RTVSPost2010Prop52
140
1.0
102
RTVSPost2010PropOp52
 70
     0
102
RTVSPost2010Prop53
 90
        2
102
RTVSPost2010PropOp53
 70
     1
102
RTVSPost2010Prop54
  1
strokes_ogs.tif
102
RTVSPost2010PropOp54
 70
     1
102
RTVSPost2010Prop55
280
     0
102
RTVSPost2010PropOp55
 70
     1
102
RTVSPost2010Prop56
140
1.0
102
RTVSPost2010PropOp56
 70
     1
102
RTVSPost2010Prop57
140
1.0
102
RTVSPost2010PropOp57
 70
     1
102
RTVSPropertyOp0
 70
     1
102
RTVSPropertyOp1
 70
     1
102
RTVSPropertyOp2
 70
     1
102
RTVSPropertyOp3
 70
     1
102
RTVSPropertyOp4
 70
     1
102
RTVSPropertyOp5
 70
     1
102
RTVSPropertyOp6
 70
     1
102
RTVSPropertyOp7
 70
     1
102
RTVSPropertyOp8
 70
     1
102
RTVSPropertyOp9
 70
     1
102
RTVSPropertyOp10
 70
     1
102
RTVSPropertyOp11
 70
     1
102
RTVSPropertyOp12
 70
     1
102
RTVSPropertyOp13
 70
     1
102
RTVSPropertyOp14
 70
     1
102
RTVSPropertyOp15
 70
     1
102
RTVSPropertyOp16
 70
     1
102
RTVSPropertyOp17
 70
     1
102
RTVSPropertyOp18
 70
     1
102
RTVSPropertyOp19
 70
     1
102
RTVSPropertyOp20
 70
     1
102
RTVSPropertyOp21
 70
     1
102
RTVSPropertyOp22
 70
     1
102
RTVSPropertyOp23
 70
     1
102
RTVSPropertyOp24
 70
     1
102
RTVSPropertyOp25
 70
     1
102
RTVSPropertyOp26
 70
     1
102
RTVSPropertyOp27
 70
     1
102
RTVSPropertyOp28
 70
     1
102
RTVSPropertyOp29
 70
     1
102
RTVSPropertyOp30
 70
     1
102
RTVSPropertyOp31
 70
     1
102
RTVSPropertyOp32
 70
     1
102
RTVSPropertyOp33
 70
     1
102
RTVSPropertyOp34
 70
     1
102
RTVSPropertyOp35
 70
     1
102
RTVSPropertyOp36
 70
     1
102
RTVSPropertyOp37
 70
     1
102
RTVSPropertyOp38
 70
     1
102
RTVSPropertyOp39
 70
     1
102
RTVSPropertyOp40
 70
     1
102
RTVSPropertyOp41
 70
     1
102
RTVSPropertyOp42
 70
     1
102
RTVSPropertyOp43
 70
     1
102
RTVSPropertyOp44
 70
     1
102
RTVSPropertyOp45
 70
     1
102
RTVSPropertyOp46
 70
     1
102
RTVSPropertyOp47
 70
     1
102
RTVSPropertyOp48
 70
     1
102
RTVSPropertyOp49
 70
     1
102
RTVSPropertyOp50
 70
     1
102
RTVSPropertyOp51
 70
     0
102
RTVSPropertyOp52
 70
     0
102
RTVSPropertyOp53
 70
     1
102
RTVSPropertyOp54
 70
     1
102
RTVSPropertyOp55
 70
     1
102
RTVSPropertyOp56
 70
     1
102
RTVSPropertyOp57
 70
     1
102
RTVSPropertyOp58
 70
     1
102
RTVSPropertyOp59
 70
     1
102
RTVSPropertyOp60
 70
     1
102
RTVSPropertyOp61
 70
     1
102
RTVSPropertyOp62
 70
     1
  0
XRECORD
  5
99D8
102
{ACAD_REACTORS
330
99D7
102
}
330
99D7
100
AcDbXrecord
280
     1
102
RTVSPost2010Prop28
280
     0
102
RTVSPost2010PropOp28
 70
     1
102
RTVSPost2010Prop29
280
     1
102
RTVSPost2010PropOp29
 70
     1
102
RTVSPost2010Prop30
280
     1
102
RTVSPost2010PropOp30
 70
     1
102
RTVSPost2010Prop31
280
     0
102
RTVSPost2010PropOp31
 70
     1
102
RTVSPost2010Prop32
280
     0
102
RTVSPost2010PropOp32
 70
     1
102
RTVSPost2010Prop33
280
     0
102
RTVSPost2010PropOp33
 70
     1
102
RTVSPost2010Prop34
280
     0
102
RTVSPost2010PropOp34
 70
     1
102
RTVSPost2010Prop35
280
     0
102
RTVSPost2010PropOp35
 70
     1
102
RTVSPost2010Prop36
280
     0
102
RTVSPost2010PropOp36
 70
     1
102
RTVSPost2010Prop37
 90
       50
102
RTVSPost2010PropOp37
 70
     1
102
RTVSPost2010Prop38
140
0.0
102
RTVSPost2010PropOp38
 70
     1
102
RTVSPost2010Prop39
140
1.0
102
RTVSPost2010PropOp39
 70
     1
102
RTVSPost2010Prop40
 90
        0
102
RTVSPost2010PropOp40
 70
     1
102
RTVSPost2010Prop41ColorIndex
 90
       18
102
RTVSPost2010Prop41ColorRGB
 90
        0
102
RTVSPost2010PropOp41
 70
     1
102
RTVSPost2010Prop42
 90
       50
102
RTVSPost2010PropOp42
 70
     1
102
RTVSPost2010Prop43
 90
        3
102
RTVSPost2010PropOp43
 70
     1
102
RTVSPost2010Prop44ColorIndex
 90
        5
102
RTVSPost2010Prop44ColorRGB
 90
      255
102
RTVSPost2010PropOp44
 70
     1
102
RTVSPost2010Prop45
280
     0
102
RTVSPost2010PropOp45
 70
     1
102
RTVSPost2010Prop46
 90
       50
102
RTVSPost2010PropOp46
 70
     1
102
RTVSPost2010Prop47
 90
       50
102
RTVSPost2010PropOp47
 70
     1
102
RTVSPost2010Prop48
 90
       50
102
RTVSPost2010PropOp48
 70
     1
102
RTVSPost2010Prop49
280
     0
102
RTVSPost2010PropOp49
 70
     1
102
RTVSPost2010Prop50
 90
       50
102
RTVSPost2010PropOp50
 70
     1
102
RTVSPost2010Prop51ColorIndex
 90
      256
102
RTVSPost2010Prop51ColorRGB
 90
-16777216
102
RTVSPost2010PropOp51
 70
     0
102
RTVSPost2010Prop52
140
1.0
102
RTVSPost2010PropOp52
 70
     0
102
RTVSPost2010Prop53
 90
        2
102
RTVSPost2010PropOp53
 70
     1
102
RTVSPost2010Prop54
  1
strokes_ogs.tif
102
RTVSPost2010PropOp54
 70
     1
102
RTVSPost2010Prop55
280
     0
102
RTVSPost2010PropOp55
 70
     1
102
RTVSPost2010Prop56
140
1.0
102
RTVSPost2010PropOp56
 70
     1
102
RTVSPost2010Prop57
140
1.0
102
RTVSPost2010PropOp57
 70
     1
102
RTVSPropertyOp0
 70
     1
102
RTVSPropertyOp1
 70
     1
102
RTVSPropertyOp2
 70
     1
102
RTVSPropertyOp3
 70
     1
102
RTVSPropertyOp4
 70
     1
102
RTVSPropertyOp5
 70
     1
102
RTVSPropertyOp6
 70
     1
102
RTVSPropertyOp7
 70
     1
102
RTVSPropertyOp8
 70
     1
102
RTVSPropertyOp9
 70
     1
102
RTVSPropertyOp10
 70
     1
102
RTVSPropertyOp11
 70
     1
102
RTVSPropertyOp12
 70
     1
102
RTVSPropertyOp13
 70
     1
102
RTVSPropertyOp14
 70
     1
102
RTVSPropertyOp15
 70
     1
102
RTVSPropertyOp16
 70
     1
102
RTVSPropertyOp17
 70
     1
102
RTVSPropertyOp18
 70
     1
102
RTVSPropertyOp19
 70
     1
102
RTVSPropertyOp20
 70
     1
102
RTVSPropertyOp21
 70
     1
102
RTVSPropertyOp22
 70
     1
102
RTVSPropertyOp23
 70
     1
102
RTVSPropertyOp24
 70
     1
102
RTVSPropertyOp25
 70
     1
102
RTVSPropertyOp26
 70
     1
102
RTVSPropertyOp27
 70
     1
102
RTVSPropertyOp28
 70
     1
102
RTVSPropertyOp29
 70
     1
102
RTVSPropertyOp30
 70
     1
102
RTVSPropertyOp31
 70
     1
102
RTVSPropertyOp32
 70
     1
102
RTVSPropertyOp33
 70
     1
102
RTVSPropertyOp34
 70
     1
102
RTVSPropertyOp35
 70
     1
102
RTVSPropertyOp36
 70
     1
102
RTVSPropertyOp37
 70
     1
102
RTVSPropertyOp38
 70
     1
102
RTVSPropertyOp39
 70
     1
102
RTVSPropertyOp40
 70
     1
102
RTVSPropertyOp41
 70
     1
102
RTVSPropertyOp42
 70
     1
102
RTVSPropertyOp43
 70
     1
102
RTVSPropertyOp44
 70
     1
102
RTVSPropertyOp45
 70
     1
102
RTVSPropertyOp46
 70
     1
102
RTVSPropertyOp47
 70
     1
102
RTVSPropertyOp48
 70
     1
102
RTVSPropertyOp49
 70
     1
102
RTVSPropertyOp50
 70
     1
102
RTVSPropertyOp51
 70
     0
102
RTVSPropertyOp52
 70
     0
102
RTVSPropertyOp53
 70
     1
102
RTVSPropertyOp54
 70
     1
102
RTVSPropertyOp55
 70
     1
102
RTVSPropertyOp56
 70
     1
102
RTVSPropertyOp57
 70
     1
102
RTVSPropertyOp58
 70
     1
102
RTVSPropertyOp59
 70
     1
102
RTVSPropertyOp60
 70
     1
102
RTVSPropertyOp61
 70
     1
102
RTVSPropertyOp62
 70
     1
  0
XRECORD
  5
99D2
102
{ACAD_REACTORS
330
99D1
102
}
330
99D1
100
AcDbXrecord
280
     1
102
RTVSPost2010Prop28
280
     0
102
RTVSPost2010PropOp28
 70
     1
102
RTVSPost2010Prop29
280
     1
102
RTVSPost2010PropOp29
 70
     1
102
RTVSPost2010Prop30
280
     1
102
RTVSPost2010PropOp30
 70
     1
102
RTVSPost2010Prop31
280
     0
102
RTVSPost2010PropOp31
 70
     1
102
RTVSPost2010Prop32
280
     0
102
RTVSPost2010PropOp32
 70
     1
102
RTVSPost2010Prop33
280
     0
102
RTVSPost2010PropOp33
 70
     1
102
RTVSPost2010Prop34
280
     0
102
RTVSPost2010PropOp34
 70
     1
102
RTVSPost2010Prop35
280
     0
102
RTVSPost2010PropOp35
 70
     1
102
RTVSPost2010Prop36
280
     0
102
RTVSPost2010PropOp36
 70
     1
102
RTVSPost2010Prop37
 90
       50
102
RTVSPost2010PropOp37
 70
     1
102
RTVSPost2010Prop38
140
0.0
102
RTVSPost2010PropOp38
 70
     1
102
RTVSPost2010Prop39
140
1.0
102
RTVSPost2010PropOp39
 70
     1
102
RTVSPost2010Prop40
 90
        0
102
RTVSPost2010PropOp40
 70
     1
102
RTVSPost2010Prop41ColorIndex
 90
       18
102
RTVSPost2010Prop41ColorRGB
 90
        0
102
RTVSPost2010PropOp41
 70
     1
102
RTVSPost2010Prop42
 90
       50
102
RTVSPost2010PropOp42
 70
     1
102
RTVSPost2010Prop43
 90
        3
102
RTVSPost2010PropOp43
 70
     1
102
RTVSPost2010Prop44ColorIndex
 90
        5
102
RTVSPost2010Prop44ColorRGB
 90
      255
102
RTVSPost2010PropOp44
 70
     1
102
RTVSPost2010Prop45
280
     0
102
RTVSPost2010PropOp45
 70
     1
102
RTVSPost2010Prop46
 90
       50
102
RTVSPost2010PropOp46
 70
     1
102
RTVSPost2010Prop47
 90
       50
102
RTVSPost2010PropOp47
 70
     1
102
RTVSPost2010Prop48
 90
       50
102
RTVSPost2010PropOp48
 70
     1
102
RTVSPost2010Prop49
280
     0
102
RTVSPost2010PropOp49
 70
     1
102
RTVSPost2010Prop50
 90
       50
102
RTVSPost2010PropOp50
 70
     1
102
RTVSPost2010Prop51ColorIndex
 90
      256
102
RTVSPost2010Prop51ColorRGB
 90
-16777216
102
RTVSPost2010PropOp51
 70
     0
102
RTVSPost2010Prop52
140
1.0
102
RTVSPost2010PropOp52
 70
     0
102
RTVSPost2010Prop53
 90
        2
102
RTVSPost2010PropOp53
 70
     1
102
RTVSPost2010Prop54
  1
strokes_ogs.tif
102
RTVSPost2010PropOp54
 70
     1
102
RTVSPost2010Prop55
280
     0
102
RTVSPost2010PropOp55
 70
     1
102
RTVSPost2010Prop56
140
1.0
102
RTVSPost2010PropOp56
 70
     1
102
RTVSPost2010Prop57
140
1.0
102
RTVSPost2010PropOp57
 70
     1
102
RTVSPropertyOp0
 70
     1
102
RTVSPropertyOp1
 70
     1
102
RTVSPropertyOp2
 70
     1
102
RTVSPropertyOp3
 70
     1
102
RTVSPropertyOp4
 70
     1
102
RTVSPropertyOp5
 70
     1
102
RTVSPropertyOp6
 70
     1
102
RTVSPropertyOp7
 70
     1
102
RTVSPropertyOp8
 70
     1
102
RTVSPropertyOp9
 70
     1
102
RTVSPropertyOp10
 70
     1
102
RTVSPropertyOp11
 70
     1
102
RTVSPropertyOp12
 70
     1
102
RTVSPropertyOp13
 70
     1
102
RTVSPropertyOp14
 70
     1
102
RTVSPropertyOp15
 70
     1
102
RTVSPropertyOp16
 70
     1
102
RTVSPropertyOp17
 70
     1
102
RTVSPropertyOp18
 70
     1
102
RTVSPropertyOp19
 70
     1
102
RTVSPropertyOp20
 70
     1
102
RTVSPropertyOp21
 70
     1
102
RTVSPropertyOp22
 70
     1
102
RTVSPropertyOp23
 70
     1
102
RTVSPropertyOp24
 70
     1
102
RTVSPropertyOp25
 70
     1
102
RTVSPropertyOp26
 70
     1
102
RTVSPropertyOp27
 70
     1
102
RTVSPropertyOp28
 70
     1
102
RTVSPropertyOp29
 70
     1
102
RTVSPropertyOp30
 70
     1
102
RTVSPropertyOp31
 70
     1
102
RTVSPropertyOp32
 70
     1
102
RTVSPropertyOp33
 70
     1
102
RTVSPropertyOp34
 70
     1
102
RTVSPropertyOp35
 70
     1
102
RTVSPropertyOp36
 70
     1
102
RTVSPropertyOp37
 70
     1
102
RTVSPropertyOp38
 70
     1
102
RTVSPropertyOp39
 70
     1
102
RTVSPropertyOp40
 70
     1
102
RTVSPropertyOp41
 70
     1
102
RTVSPropertyOp42
 70
     1
102
RTVSPropertyOp43
 70
     1
102
RTVSPropertyOp44
 70
     1
102
RTVSPropertyOp45
 70
     1
102
RTVSPropertyOp46
 70
     1
102
RTVSPropertyOp47
 70
     1
102
RTVSPropertyOp48
 70
     1
102
RTVSPropertyOp49
 70
     1
102
RTVSPropertyOp50
 70
     1
102
RTVSPropertyOp51
 70
     0
102
RTVSPropertyOp52
 70
     0
102
RTVSPropertyOp53
 70
     1
102
RTVSPropertyOp54
 70
     1
102
RTVSPropertyOp55
 70
     1
102
RTVSPropertyOp56
 70
     1
102
RTVSPropertyOp57
 70
     1
102
RTVSPropertyOp58
 70
     1
102
RTVSPropertyOp59
 70
     1
102
RTVSPropertyOp60
 70
     1
102
RTVSPropertyOp61
 70
     1
102
RTVSPropertyOp62
 70
     1
  0
XRECORD
  5
99D4
102
{ACAD_REACTORS
330
99D3
102
}
330
99D3
100
AcDbXrecord
280
     1
102
RTVSPost2010Prop28
280
     0
102
RTVSPost2010PropOp28
 70
     1
102
RTVSPost2010Prop29
280
     1
102
RTVSPost2010PropOp29
 70
     1
102
RTVSPost2010Prop30
280
     1
102
RTVSPost2010PropOp30
 70
     1
102
RTVSPost2010Prop31
280
     0
102
RTVSPost2010PropOp31
 70
     1
102
RTVSPost2010Prop32
280
     0
102
RTVSPost2010PropOp32
 70
     1
102
RTVSPost2010Prop33
280
     0
102
RTVSPost2010PropOp33
 70
     1
102
RTVSPost2010Prop34
280
     0
102
RTVSPost2010PropOp34
 70
     1
102
RTVSPost2010Prop35
280
     0
102
RTVSPost2010PropOp35
 70
     1
102
RTVSPost2010Prop36
280
     0
102
RTVSPost2010PropOp36
 70
     1
102
RTVSPost2010Prop37
 90
       50
102
RTVSPost2010PropOp37
 70
     1
102
RTVSPost2010Prop38
140
0.0
102
RTVSPost2010PropOp38
 70
     1
102
RTVSPost2010Prop39
140
1.0
102
RTVSPost2010PropOp39
 70
     1
102
RTVSPost2010Prop40
 90
        0
102
RTVSPost2010PropOp40
 70
     1
102
RTVSPost2010Prop41ColorIndex
 90
       18
102
RTVSPost2010Prop41ColorRGB
 90
        0
102
RTVSPost2010PropOp41
 70
     1
102
RTVSPost2010Prop42
 90
       50
102
RTVSPost2010PropOp42
 70
     1
102
RTVSPost2010Prop43
 90
        3
102
RTVSPost2010PropOp43
 70
     1
102
RTVSPost2010Prop44ColorIndex
 90
        5
102
RTVSPost2010Prop44ColorRGB
 90
      255
102
RTVSPost2010PropOp44
 70
     1
102
RTVSPost2010Prop45
280
     0
102
RTVSPost2010PropOp45
 70
     1
102
RTVSPost2010Prop46
 90
       50
102
RTVSPost2010PropOp46
 70
     1
102
RTVSPost2010Prop47
 90
       50
102
RTVSPost2010PropOp47
 70
     1
102
RTVSPost2010Prop48
 90
       50
102
RTVSPost2010PropOp48
 70
     1
102
RTVSPost2010Prop49
280
     0
102
RTVSPost2010PropOp49
 70
     1
102
RTVSPost2010Prop50
 90
       50
102
RTVSPost2010PropOp50
 70
     1
102
RTVSPost2010Prop51ColorIndex
 90
      256
102
RTVSPost2010Prop51ColorRGB
 90
-16777216
102
RTVSPost2010PropOp51
 70
     0
102
RTVSPost2010Prop52
140
1.0
102
RTVSPost2010PropOp52
 70
     0
102
RTVSPost2010Prop53
 90
        2
102
RTVSPost2010PropOp53
 70
     1
102
RTVSPost2010Prop54
  1
strokes_ogs.tif
102
RTVSPost2010PropOp54
 70
     1
102
RTVSPost2010Prop55
280
     0
102
RTVSPost2010PropOp55
 70
     1
102
RTVSPost2010Prop56
140
1.0
102
RTVSPost2010PropOp56
 70
     1
102
RTVSPost2010Prop57
140
1.0
102
RTVSPost2010PropOp57
 70
     1
102
RTVSPropertyOp0
 70
     1
102
RTVSPropertyOp1
 70
     1
102
RTVSPropertyOp2
 70
     1
102
RTVSPropertyOp3
 70
     1
102
RTVSPropertyOp4
 70
     1
102
RTVSPropertyOp5
 70
     1
102
RTVSPropertyOp6
 70
     1
102
RTVSPropertyOp7
 70
     1
102
RTVSPropertyOp8
 70
     1
102
RTVSPropertyOp9
 70
     1
102
RTVSPropertyOp10
 70
     1
102
RTVSPropertyOp11
 70
     1
102
RTVSPropertyOp12
 70
     1
102
RTVSPropertyOp13
 70
     1
102
RTVSPropertyOp14
 70
     1
102
RTVSPropertyOp15
 70
     1
102
RTVSPropertyOp16
 70
     1
102
RTVSPropertyOp17
 70
     1
102
RTVSPropertyOp18
 70
     1
102
RTVSPropertyOp19
 70
     1
102
RTVSPropertyOp20
 70
     1
102
RTVSPropertyOp21
 70
     1
102
RTVSPropertyOp22
 70
     1
102
RTVSPropertyOp23
 70
     1
102
RTVSPropertyOp24
 70
     1
102
RTVSPropertyOp25
 70
     1
102
RTVSPropertyOp26
 70
     1
102
RTVSPropertyOp27
 70
     1
102
RTVSPropertyOp28
 70
     1
102
RTVSPropertyOp29
 70
     1
102
RTVSPropertyOp30
 70
     1
102
RTVSPropertyOp31
 70
     1
102
RTVSPropertyOp32
 70
     1
102
RTVSPropertyOp33
 70
     1
102
RTVSPropertyOp34
 70
     1
102
RTVSPropertyOp35
 70
     1
102
RTVSPropertyOp36
 70
     1
102
RTVSPropertyOp37
 70
     1
102
RTVSPropertyOp38
 70
     1
102
RTVSPropertyOp39
 70
     1
102
RTVSPropertyOp40
 70
     1
102
RTVSPropertyOp41
 70
     1
102
RTVSPropertyOp42
 70
     1
102
RTVSPropertyOp43
 70
     1
102
RTVSPropertyOp44
 70
     1
102
RTVSPropertyOp45
 70
     1
102
RTVSPropertyOp46
 70
     1
102
RTVSPropertyOp47
 70
     1
102
RTVSPropertyOp48
 70
     1
102
RTVSPropertyOp49
 70
     1
102
RTVSPropertyOp50
 70
     1
102
RTVSPropertyOp51
 70
     0
102
RTVSPropertyOp52
 70
     0
102
RTVSPropertyOp53
 70
     1
102
RTVSPropertyOp54
 70
     1
102
RTVSPropertyOp55
 70
     1
102
RTVSPropertyOp56
 70
     1
102
RTVSPropertyOp57
 70
     1
102
RTVSPropertyOp58
 70
     1
102
RTVSPropertyOp59
 70
     1
102
RTVSPropertyOp60
 70
     1
102
RTVSPropertyOp61
 70
     1
102
RTVSPropertyOp62
 70
     1
  0
XRECORD
  5
99CA
102
{ACAD_REACTORS
330
99C9
102
}
330
99C9
100
AcDbXrecord
280
     1
102
RTVSPost2010Prop28
280
     0
102
RTVSPost2010PropOp28
 70
     1
102
RTVSPost2010Prop29
280
     1
102
RTVSPost2010PropOp29
 70
     1
102
RTVSPost2010Prop30
280
     1
102
RTVSPost2010PropOp30
 70
     1
102
RTVSPost2010Prop31
280
     0
102
RTVSPost2010PropOp31
 70
     1
102
RTVSPost2010Prop32
280
     0
102
RTVSPost2010PropOp32
 70
     1
102
RTVSPost2010Prop33
280
     0
102
RTVSPost2010PropOp33
 70
     1
102
RTVSPost2010Prop34
280
     0
102
RTVSPost2010PropOp34
 70
     1
102
RTVSPost2010Prop35
280
     0
102
RTVSPost2010PropOp35
 70
     1
102
RTVSPost2010Prop36
280
     0
102
RTVSPost2010PropOp36
 70
     1
102
RTVSPost2010Prop37
 90
       50
102
RTVSPost2010PropOp37
 70
     1
102
RTVSPost2010Prop38
140
0.0
102
RTVSPost2010PropOp38
 70
     1
102
RTVSPost2010Prop39
140
1.0
102
RTVSPost2010PropOp39
 70
     1
102
RTVSPost2010Prop40
 90
        0
102
RTVSPost2010PropOp40
 70
     1
102
RTVSPost2010Prop41ColorIndex
 90
       18
102
RTVSPost2010Prop41ColorRGB
 90
        0
102
RTVSPost2010PropOp41
 70
     1
102
RTVSPost2010Prop42
 90
       50
102
RTVSPost2010PropOp42
 70
     1
102
RTVSPost2010Prop43
 90
        3
102
RTVSPost2010PropOp43
 70
     1
102
RTVSPost2010Prop44ColorIndex
 90
        5
102
RTVSPost2010Prop44ColorRGB
 90
      255
102
RTVSPost2010PropOp44
 70
     1
102
RTVSPost2010Prop45
280
     0
102
RTVSPost2010PropOp45
 70
     1
102
RTVSPost2010Prop46
 90
       50
102
RTVSPost2010PropOp46
 70
     1
102
RTVSPost2010Prop47
 90
       50
102
RTVSPost2010PropOp47
 70
     1
102
RTVSPost2010Prop48
 90
       50
102
RTVSPost2010PropOp48
 70
     1
102
RTVSPost2010Prop49
280
     0
102
RTVSPost2010PropOp49
 70
     1
102
RTVSPost2010Prop50
 90
       50
102
RTVSPost2010PropOp50
 70
     1
102
RTVSPost2010Prop51ColorIndex
 90
      256
102
RTVSPost2010Prop51ColorRGB
 90
-16777216
102
RTVSPost2010PropOp51
 70
     0
102
RTVSPost2010Prop52
140
1.0
102
RTVSPost2010PropOp52
 70
     0
102
RTVSPost2010Prop53
 90
        2
102
RTVSPost2010PropOp53
 70
     1
102
RTVSPost2010Prop54
  1
strokes_ogs.tif
102
RTVSPost2010PropOp54
 70
     1
102
RTVSPost2010Prop55
280
     0
102
RTVSPost2010PropOp55
 70
     1
102
RTVSPost2010Prop56
140
1.0
102
RTVSPost2010PropOp56
 70
     1
102
RTVSPost2010Prop57
140
1.0
102
RTVSPost2010PropOp57
 70
     1
102
RTVSPropertyOp0
 70
     1
102
RTVSPropertyOp1
 70
     1
102
RTVSPropertyOp2
 70
     1
102
RTVSPropertyOp3
 70
     1
102
RTVSPropertyOp4
 70
     1
102
RTVSPropertyOp5
 70
     1
102
RTVSPropertyOp6
 70
     1
102
RTVSPropertyOp7
 70
     1
102
RTVSPropertyOp8
 70
     1
102
RTVSPropertyOp9
 70
     1
102
RTVSPropertyOp10
 70
     1
102
RTVSPropertyOp11
 70
     1
102
RTVSPropertyOp12
 70
     1
102
RTVSPropertyOp13
 70
     1
102
RTVSPropertyOp14
 70
     1
102
RTVSPropertyOp15
 70
     1
102
RTVSPropertyOp16
 70
     1
102
RTVSPropertyOp17
 70
     1
102
RTVSPropertyOp18
 70
     1
102
RTVSPropertyOp19
 70
     1
102
RTVSPropertyOp20
 70
     1
102
RTVSPropertyOp21
 70
     1
102
RTVSPropertyOp22
 70
     1
102
RTVSPropertyOp23
 70
     1
102
RTVSPropertyOp24
 70
     1
102
RTVSPropertyOp25
 70
     1
102
RTVSPropertyOp26
 70
     1
102
RTVSPropertyOp27
 70
     1
102
RTVSPropertyOp28
 70
     1
102
RTVSPropertyOp29
 70
     1
102
RTVSPropertyOp30
 70
     1
102
RTVSPropertyOp31
 70
     1
102
RTVSPropertyOp32
 70
     1
102
RTVSPropertyOp33
 70
     1
102
RTVSPropertyOp34
 70
     1
102
RTVSPropertyOp35
 70
     1
102
RTVSPropertyOp36
 70
     1
102
RTVSPropertyOp37
 70
     1
102
RTVSPropertyOp38
 70
     1
102
RTVSPropertyOp39
 70
     1
102
RTVSPropertyOp40
 70
     1
102
RTVSPropertyOp41
 70
     1
102
RTVSPropertyOp42
 70
     1
102
RTVSPropertyOp43
 70
     1
102
RTVSPropertyOp44
 70
     1
102
RTVSPropertyOp45
 70
     1
102
RTVSPropertyOp46
 70
     1
102
RTVSPropertyOp47
 70
     1
102
RTVSPropertyOp48
 70
     1
102
RTVSPropertyOp49
 70
     1
102
RTVSPropertyOp50
 70
     1
102
RTVSPropertyOp51
 70
     0
102
RTVSPropertyOp52
 70
     0
102
RTVSPropertyOp53
 70
     1
102
RTVSPropertyOp54
 70
     1
102
RTVSPropertyOp55
 70
     1
102
RTVSPropertyOp56
 70
     1
102
RTVSPropertyOp57
 70
     1
102
RTVSPropertyOp58
 70
     1
102
RTVSPropertyOp59
 70
     1
102
RTVSPropertyOp60
 70
     1
102
RTVSPropertyOp61
 70
     1
102
RTVSPropertyOp62
 70
     1
  0
XRECORD
  5
99BE
102
{ACAD_REACTORS
330
99BD
102
}
330
99BD
100
AcDbXrecord
280
     1
102
RTVSPost2010Prop28
280
     0
102
RTVSPost2010PropOp28
 70
     1
102
RTVSPost2010Prop29
280
     1
102
RTVSPost2010PropOp29
 70
     1
102
RTVSPost2010Prop30
280
     1
102
RTVSPost2010PropOp30
 70
     1
102
RTVSPost2010Prop31
280
     0
102
RTVSPost2010PropOp31
 70
     1
102
RTVSPost2010Prop32
280
     0
102
RTVSPost2010PropOp32
 70
     1
102
RTVSPost2010Prop33
280
     0
102
RTVSPost2010PropOp33
 70
     1
102
RTVSPost2010Prop34
280
     0
102
RTVSPost2010PropOp34
 70
     1
102
RTVSPost2010Prop35
280
     0
102
RTVSPost2010PropOp35
 70
     1
102
RTVSPost2010Prop36
280
     0
102
RTVSPost2010PropOp36
 70
     1
102
RTVSPost2010Prop37
 90
       50
102
RTVSPost2010PropOp37
 70
     1
102
RTVSPost2010Prop38
140
0.0
102
RTVSPost2010PropOp38
 70
     1
102
RTVSPost2010Prop39
140
1.0
102
RTVSPost2010PropOp39
 70
     1
102
RTVSPost2010Prop40
 90
        0
102
RTVSPost2010PropOp40
 70
     1
102
RTVSPost2010Prop41ColorIndex
 90
       18
102
RTVSPost2010Prop41ColorRGB
 90
        0
102
RTVSPost2010PropOp41
 70
     1
102
RTVSPost2010Prop42
 90
       50
102
RTVSPost2010PropOp42
 70
     1
102
RTVSPost2010Prop43
 90
        3
102
RTVSPost2010PropOp43
 70
     1
102
RTVSPost2010Prop44ColorIndex
 90
        5
102
RTVSPost2010Prop44ColorRGB
 90
      255
102
RTVSPost2010PropOp44
 70
     1
102
RTVSPost2010Prop45
280
     0
102
RTVSPost2010PropOp45
 70
     1
102
RTVSPost2010Prop46
 90
       50
102
RTVSPost2010PropOp46
 70
     1
102
RTVSPost2010Prop47
 90
       50
102
RTVSPost2010PropOp47
 70
     1
102
RTVSPost2010Prop48
 90
       50
102
RTVSPost2010PropOp48
 70
     1
102
RTVSPost2010Prop49
280
     0
102
RTVSPost2010PropOp49
 70
     1
102
RTVSPost2010Prop50
 90
       50
102
RTVSPost2010PropOp50
 70
     1
102
RTVSPost2010Prop51ColorIndex
 90
      256
102
RTVSPost2010Prop51ColorRGB
 90
-16777216
102
RTVSPost2010PropOp51
 70
     0
102
RTVSPost2010Prop52
140
1.0
102
RTVSPost2010PropOp52
 70
     0
102
RTVSPost2010Prop53
 90
        2
102
RTVSPost2010PropOp53
 70
     1
102
RTVSPost2010Prop54
  1
strokes_ogs.tif
102
RTVSPost2010PropOp54
 70
     1
102
RTVSPost2010Prop55
280
     0
102
RTVSPost2010PropOp55
 70
     1
102
RTVSPost2010Prop56
140
1.0
102
RTVSPost2010PropOp56
 70
     1
102
RTVSPost2010Prop57
140
1.0
102
RTVSPost2010PropOp57
 70
     1
102
RTVSPropertyOp0
 70
     1
102
RTVSPropertyOp1
 70
     1
102
RTVSPropertyOp2
 70
     1
102
RTVSPropertyOp3
 70
     1
102
RTVSPropertyOp4
 70
     1
102
RTVSPropertyOp5
 70
     1
102
RTVSPropertyOp6
 70
     1
102
RTVSPropertyOp7
 70
     1
102
RTVSPropertyOp8
 70
     1
102
RTVSPropertyOp9
 70
     1
102
RTVSPropertyOp10
 70
     1
102
RTVSPropertyOp11
 70
     1
102
RTVSPropertyOp12
 70
     1
102
RTVSPropertyOp13
 70
     1
102
RTVSPropertyOp14
 70
     1
102
RTVSPropertyOp15
 70
     1
102
RTVSPropertyOp16
 70
     1
102
RTVSPropertyOp17
 70
     1
102
RTVSPropertyOp18
 70
     1
102
RTVSPropertyOp19
 70
     1
102
RTVSPropertyOp20
 70
     1
102
RTVSPropertyOp21
 70
     1
102
RTVSPropertyOp22
 70
     1
102
RTVSPropertyOp23
 70
     1
102
RTVSPropertyOp24
 70
     1
102
RTVSPropertyOp25
 70
     1
102
RTVSPropertyOp26
 70
     1
102
RTVSPropertyOp27
 70
     1
102
RTVSPropertyOp28
 70
     1
102
RTVSPropertyOp29
 70
     1
102
RTVSPropertyOp30
 70
     1
102
RTVSPropertyOp31
 70
     1
102
RTVSPropertyOp32
 70
     1
102
RTVSPropertyOp33
 70
     1
102
RTVSPropertyOp34
 70
     1
102
RTVSPropertyOp35
 70
     1
102
RTVSPropertyOp36
 70
     1
102
RTVSPropertyOp37
 70
     1
102
RTVSPropertyOp38
 70
     1
102
RTVSPropertyOp39
 70
     1
102
RTVSPropertyOp40
 70
     1
102
RTVSPropertyOp41
 70
     1
102
RTVSPropertyOp42
 70
     1
102
RTVSPropertyOp43
 70
     1
102
RTVSPropertyOp44
 70
     1
102
RTVSPropertyOp45
 70
     1
102
RTVSPropertyOp46
 70
     1
102
RTVSPropertyOp47
 70
     1
102
RTVSPropertyOp48
 70
     1
102
RTVSPropertyOp49
 70
     1
102
RTVSPropertyOp50
 70
     1
102
RTVSPropertyOp51
 70
     0
102
RTVSPropertyOp52
 70
     0
102
RTVSPropertyOp53
 70
     1
102
RTVSPropertyOp54
 70
     1
102
RTVSPropertyOp55
 70
     1
102
RTVSPropertyOp56
 70
     1
102
RTVSPropertyOp57
 70
     1
102
RTVSPropertyOp58
 70
     1
102
RTVSPropertyOp59
 70
     1
102
RTVSPropertyOp60
 70
     1
102
RTVSPropertyOp61
 70
     1
102
RTVSPropertyOp62
 70
     1
  0
XRECORD
  5
99D6
102
{ACAD_REACTORS
330
99D5
102
}
330
99D5
100
AcDbXrecord
280
     1
102
RTVSPost2010Prop28
280
     0
102
RTVSPost2010PropOp28
 70
     1
102
RTVSPost2010Prop29
280
     1
102
RTVSPost2010PropOp29
 70
     1
102
RTVSPost2010Prop30
280
     1
102
RTVSPost2010PropOp30
 70
     1
102
RTVSPost2010Prop31
280
     0
102
RTVSPost2010PropOp31
 70
     1
102
RTVSPost2010Prop32
280
     0
102
RTVSPost2010PropOp32
 70
     1
102
RTVSPost2010Prop33
280
     0
102
RTVSPost2010PropOp33
 70
     1
102
RTVSPost2010Prop34
280
     0
102
RTVSPost2010PropOp34
 70
     1
102
RTVSPost2010Prop35
280
     0
102
RTVSPost2010PropOp35
 70
     1
102
RTVSPost2010Prop36
280
     0
102
RTVSPost2010PropOp36
 70
     1
102
RTVSPost2010Prop37
 90
       50
102
RTVSPost2010PropOp37
 70
     1
102
RTVSPost2010Prop38
140
0.0
102
RTVSPost2010PropOp38
 70
     1
102
RTVSPost2010Prop39
140
1.0
102
RTVSPost2010PropOp39
 70
     1
102
RTVSPost2010Prop40
 90
        0
102
RTVSPost2010PropOp40
 70
     1
102
RTVSPost2010Prop41ColorIndex
 90
       18
102
RTVSPost2010Prop41ColorRGB
 90
        0
102
RTVSPost2010PropOp41
 70
     1
102
RTVSPost2010Prop42
 90
       50
102
RTVSPost2010PropOp42
 70
     1
102
RTVSPost2010Prop43
 90
        3
102
RTVSPost2010PropOp43
 70
     1
102
RTVSPost2010Prop44ColorIndex
 90
        5
102
RTVSPost2010Prop44ColorRGB
 90
      255
102
RTVSPost2010PropOp44
 70
     1
102
RTVSPost2010Prop45
280
     0
102
RTVSPost2010PropOp45
 70
     1
102
RTVSPost2010Prop46
 90
       50
102
RTVSPost2010PropOp46
 70
     1
102
RTVSPost2010Prop47
 90
       50
102
RTVSPost2010PropOp47
 70
     1
102
RTVSPost2010Prop48
 90
       50
102
RTVSPost2010PropOp48
 70
     1
102
RTVSPost2010Prop49
280
     0
102
RTVSPost2010PropOp49
 70
     1
102
RTVSPost2010Prop50
 90
       50
102
RTVSPost2010PropOp50
 70
     1
102
RTVSPost2010Prop51ColorIndex
 90
      256
102
RTVSPost2010Prop51ColorRGB
 90
-16777216
102
RTVSPost2010PropOp51
 70
     0
102
RTVSPost2010Prop52
140
1.0
102
RTVSPost2010PropOp52
 70
     0
102
RTVSPost2010Prop53
 90
        2
102
RTVSPost2010PropOp53
 70
     1
102
RTVSPost2010Prop54
  1
strokes_ogs.tif
102
RTVSPost2010PropOp54
 70
     1
102
RTVSPost2010Prop55
280
     0
102
RTVSPost2010PropOp55
 70
     1
102
RTVSPost2010Prop56
140
1.0
102
RTVSPost2010PropOp56
 70
     1
102
RTVSPost2010Prop57
140
1.0
102
RTVSPost2010PropOp57
 70
     1
102
RTVSPropertyOp0
 70
     1
102
RTVSPropertyOp1
 70
     1
102
RTVSPropertyOp2
 70
     1
102
RTVSPropertyOp3
 70
     1
102
RTVSPropertyOp4
 70
     1
102
RTVSPropertyOp5
 70
     1
102
RTVSPropertyOp6
 70
     1
102
RTVSPropertyOp7
 70
     1
102
RTVSPropertyOp8
 70
     1
102
RTVSPropertyOp9
 70
     1
102
RTVSPropertyOp10
 70
     1
102
RTVSPropertyOp11
 70
     1
102
RTVSPropertyOp12
 70
     1
102
RTVSPropertyOp13
 70
     1
102
RTVSPropertyOp14
 70
     1
102
RTVSPropertyOp15
 70
     1
102
RTVSPropertyOp16
 70
     1
102
RTVSPropertyOp17
 70
     1
102
RTVSPropertyOp18
 70
     1
102
RTVSPropertyOp19
 70
     1
102
RTVSPropertyOp20
 70
     1
102
RTVSPropertyOp21
 70
     1
102
RTVSPropertyOp22
 70
     1
102
RTVSPropertyOp23
 70
     1
102
RTVSPropertyOp24
 70
     1
102
RTVSPropertyOp25
 70
     1
102
RTVSPropertyOp26
 70
     1
102
RTVSPropertyOp27
 70
     1
102
RTVSPropertyOp28
 70
     1
102
RTVSPropertyOp29
 70
     1
102
RTVSPropertyOp30
 70
     1
102
RTVSPropertyOp31
 70
     1
102
RTVSPropertyOp32
 70
     1
102
RTVSPropertyOp33
 70
     1
102
RTVSPropertyOp34
 70
     1
102
RTVSPropertyOp35
 70
     1
102
RTVSPropertyOp36
 70
     1
102
RTVSPropertyOp37
 70
     1
102
RTVSPropertyOp38
 70
     1
102
RTVSPropertyOp39
 70
     1
102
RTVSPropertyOp40
 70
     1
102
RTVSPropertyOp41
 70
     1
102
RTVSPropertyOp42
 70
     1
102
RTVSPropertyOp43
 70
     1
102
RTVSPropertyOp44
 70
     1
102
RTVSPropertyOp45
 70
     1
102
RTVSPropertyOp46
 70
     1
102
RTVSPropertyOp47
 70
     1
102
RTVSPropertyOp48
 70
     1
102
RTVSPropertyOp49
 70
     1
102
RTVSPropertyOp50
 70
     1
102
RTVSPropertyOp51
 70
     0
102
RTVSPropertyOp52
 70
     0
102
RTVSPropertyOp53
 70
     1
102
RTVSPropertyOp54
 70
     1
102
RTVSPropertyOp55
 70
     1
102
RTVSPropertyOp56
 70
     1
102
RTVSPropertyOp57
 70
     1
102
RTVSPropertyOp58
 70
     1
102
RTVSPropertyOp59
 70
     1
102
RTVSPropertyOp60
 70
     1
102
RTVSPropertyOp61
 70
     1
102
RTVSPropertyOp62
 70
     1
  0
ENDSEC
  0
EOF
