------------------------------------------------------------------------S      1
1H,,1H;,7HUnknown,58HC:\iCADMX\tmp\trans3d_spg\PC017.7836.TM_244_3_20_15G      1
132.igs,6HspGate,31Hver18.9.1 (****-****-****-****),32,38,6,308,15,7HUnkG      2
nown,1.,2,2HMM,100,1.,13H221201.143249,0.01,10000.,7HUnknown,7HUnknown, G      3
8,7,13H971011.100908;                                                   G      4
     502       1       0       0       0       0       0       000010000D      1
     502       0       1       6       1       0       0  VERTEX       0D      2
     126       7       0       1       0       0       0       000010000D      3
     126       0       8       3       0       0       0 NBS-CRV       0D      4
     126      10       0       1       0       0       0       000010000D      5
     126       0       8       3       0       0       0 NBS-CRV       0D      6
     126      13       0       1       0       0       0       000010000D      7
     126       0       8       3       0       0       0 NBS-CRV       0D      8
     126      16       0       1       0       0       0       000010000D      9
     126       0       8       3       0       0       0 NBS-CRV       0D     10
     126      19       0       1       0       0       0       000010000D     11
     126       0       8       3       0       0       0 NBS-CRV       0D     12
     126      22       0       1       0       0       0       000010000D     13
     126       0       8       3       0       0       0 NBS-CRV       0D     14
     126      25       0       1       0       0       0       000010000D     15
     126       0       8       3       0       0       0 NBS-CRV       0D     16
     126      28       0       1       0       0       0       000010000D     17
     126       0       8       3       0       0       0 NBS-CRV       0D     18
     126      31       0       1       0       0       0       000010000D     19
     126       0       8       3       0       0       0 NBS-CRV       0D     20
     126      34       0       1       0       0       0       000010000D     21
     126       0       8       3       0       0       0 NBS-CRV       0D     22
     126      37       0       1       0       0       0       000010000D     23
     126       0       8       3       0       0       0 NBS-CRV       0D     24
     126      40       0       1       0       0       0       000010000D     25
     126       0       8       3       0       0       0 NBS-CRV       0D     26
     504      43       0       0       0       0       0       000010001D     27
     504       0       0       3       1       0       0    EDGE       0D     28
     314      46       0       0       0       0       0       000000200D     29
     314       0       0       1       0       0       0   COLOR       0D     30
     128      47       0       1       0       0       0       000010000D     31
     128       0     -29       4       0       0       0 NBS-SRF       0D     32
     126      51       0       0       0       0       0       000010501D     33
     126       0       8       4       0       0       0 NBS-CRV       0D     34
     126      55       0       0       0       0       0       000010501D     35
     126       0       8       4       0       0       0 NBS-CRV       0D     36
     126      59       0       0       0       0       0       000010501D     37
     126       0       8       4       0       0       0 NBS-CRV       0D     38
     126      63       0       0       0       0       0       000010501D     39
     126       0       8       3       0       0       0 NBS-CRV       0D     40
     508      66       0       0       0       0       0       000010000D     41
     508       0       0       2       1       0       0    LOOP       0D     42
     510      68       0       1       0       0       0       000010001D     43
     510       0     -29       1       1       0       0    FACE       0D     44
     128      69       0       1       0       0       0       000010000D     45
     128       0     -29       4       0       0       0 NBS-SRF       0D     46
     126      73       0       0       0       0       0       000010501D     47
     126       0       8       4       0       0       0 NBS-CRV       0D     48
     126      77       0       0       0       0       0       000010501D     49
     126       0       8       4       0       0       0 NBS-CRV       0D     50
     126      81       0       0       0       0       0       000010501D     51
     126       0       8       3       0       0       0 NBS-CRV       0D     52
     126      84       0       0       0       0       0       000010501D     53
     126       0       8       4       0       0       0 NBS-CRV       0D     54
     508      88       0       0       0       0       0       000010000D     55
     508       0       0       2       1       0       0    LOOP       0D     56
     510      90       0       1       0       0       0       000010001D     57
     510       0     -29       1       1       0       0    FACE       0D     58
     128      91       0       1       0       0       0       000010000D     59
     128       0     -29       4       0       0       0 NBS-SRF       0D     60
     126      95       0       0       0       0       0       000010501D     61
     126       0       8       4       0       0       0 NBS-CRV       0D     62
     126      99       0       0       0       0       0       000010501D     63
     126       0       8       4       0       0       0 NBS-CRV       0D     64
     126     103       0       0       0       0       0       000010501D     65
     126       0       8       3       0       0       0 NBS-CRV       0D     66
     126     106       0       0       0       0       0       000010501D     67
     126       0       8       3       0       0       0 NBS-CRV       0D     68
     508     109       0       0       0       0       0       000010000D     69
     508       0       0       2       1       0       0    LOOP       0D     70
     510     111       0       1       0       0       0       000010001D     71
     510       0     -29       1       1       0       0    FACE       0D     72
     128     112       0       1       0       0       0       000010000D     73
     128       0     -29       4       0       0       0 NBS-SRF       0D     74
     126     116       0       0       0       0       0       000010501D     75
     126       0       8       4       0       0       0 NBS-CRV       0D     76
     126     120       0       0       0       0       0       000010501D     77
     126       0       8       4       0       0       0 NBS-CRV       0D     78
     126     124       0       0       0       0       0       000010501D     79
     126       0       8       3       0       0       0 NBS-CRV       0D     80
     126     127       0       0       0       0       0       000010501D     81
     126       0       8       3       0       0       0 NBS-CRV       0D     82
     508     130       0       0       0       0       0       000010000D     83
     508       0       0       2       1       0       0    LOOP       0D     84
     510     132       0       1       0       0       0       000010001D     85
     510       0     -29       1       1       0       0    FACE       0D     86
     128     133       0       1       0       0       0       000010000D     87
     128       0     -29       4       0       0       0 NBS-SRF       0D     88
     126     137       0       0       0       0       0       000010501D     89
     126       0       8       4       0       0       0 NBS-CRV       0D     90
     126     141       0       0       0       0       0       000010501D     91
     126       0       8       4       0       0       0 NBS-CRV       0D     92
     126     145       0       0       0       0       0       000010501D     93
     126       0       8       4       0       0       0 NBS-CRV       0D     94
     126     149       0       0       0       0       0       000010501D     95
     126       0       8       3       0       0       0 NBS-CRV       0D     96
     508     152       0       0       0       0       0       000010000D     97
     508       0       0       2       1       0       0    LOOP       0D     98
     510     154       0       1       0       0       0       000010001D     99
     510       0     -29       1       1       0       0    FACE       0D    100
     128     155       0       1       0       0       0       000010000D    101
     128       0     -29       4       0       0       0 NBS-SRF       0D    102
     126     159       0       0       0       0       0       000010501D    103
     126       0       8       4       0       0       0 NBS-CRV       0D    104
     126     163       0       0       0       0       0       000010501D    105
     126       0       8       4       0       0       0 NBS-CRV       0D    106
     126     167       0       0       0       0       0       000010501D    107
     126       0       8       3       0       0       0 NBS-CRV       0D    108
     126     170       0       0       0       0       0       000010501D    109
     126       0       8       4       0       0       0 NBS-CRV       0D    110
     508     174       0       0       0       0       0       000010000D    111
     508       0       0       2       1       0       0    LOOP       0D    112
     510     176       0       1       0       0       0       000010001D    113
     510       0     -29       1       1       0       0    FACE       0D    114
     514     177       0       0       0       0       0       000010000D    115
     514       0       0       1       1       0       0   SHELL       0D    116
     406     178       0       0       0       0       0       000000000D    117
     406       0       0       1      15       0       0PROPERTY       0D    118
     186     179       0       0       0       0       0       000000001D    119
     186       0       1       3       0       0       0  B-REPS       0D    120
502,8,-58.3984348922968,200.,-18.5317700058222,                        1P      1
-38.3984348922968,200.,-18.5317700058222,-58.3984348922968,200.,       1P      2
-15.5317700058222,-38.3984348922968,200.,-15.5317700058222,            1P      3
-58.3984348922968,0.,-18.5317700058222,-38.3984348922968,0.,           1P      4
-18.5317700058222,-38.3984348922968,0.,-15.5317700058222,              1P      5
-58.3984348922968,0.,-15.5317700058222;                                1P      6
126,1,1,0,0,1,0,0.,0.,1.,1.,1.,1.,-58.3984348922968,200.,              3P      7
-18.5317700058222,-38.3984348922968,200.,-18.5317700058222,0.,         3P      8
1.,0.,0.,0.;                                                           3P      9
126,1,1,0,0,1,0,0.,0.,1.,1.,1.,1.,-58.3984348922968,200.,              5P     10
-15.5317700058222,-58.3984348922968,200.,-18.5317700058222,0.,         5P     11
1.,0.,0.,0.;                                                           5P     12
126,1,1,0,0,1,0,0.,0.,1.,1.,1.,1.,-38.3984348922968,200.,              7P     13
-15.5317700058222,-58.3984348922968,200.,-15.5317700058222,0.,         7P     14
1.,0.,0.,0.;                                                           7P     15
126,1,1,0,0,1,0,0.,0.,1.,1.,1.,1.,-38.3984348922968,200.,              9P     16
-18.5317700058222,-38.3984348922968,200.,-15.5317700058222,0.,         9P     17
1.,0.,0.,0.;                                                           9P     18
126,1,1,0,0,1,0,0.,0.,1.,1.,1.,1.,-58.3984348922968,0.,               11P     19
-18.5317700058222,-38.3984348922968,0.,-18.5317700058222,0.,1.,       11P     20
0.,0.,0.;                                                             11P     21
126,1,1,0,0,1,0,0.,0.,1.,1.,1.,1.,-38.3984348922968,0.,               13P     22
-18.5317700058222,-38.3984348922968,0.,-15.5317700058222,0.,1.,       13P     23
0.,0.,0.;                                                             13P     24
126,1,1,0,0,1,0,0.,0.,1.,1.,1.,1.,-38.3984348922968,0.,               15P     25
-15.5317700058222,-58.3984348922968,0.,-15.5317700058222,0.,1.,       15P     26
0.,0.,0.;                                                             15P     27
126,1,1,0,0,1,0,0.,0.,1.,1.,1.,1.,-58.3984348922968,0.,               17P     28
-15.5317700058222,-58.3984348922968,0.,-18.5317700058222,0.,1.,       17P     29
0.,0.,0.;                                                             17P     30
126,1,1,0,0,1,0,0.,0.,1.,1.,1.,1.,-58.3984348922968,200.,             19P     31
-15.5317700058222,-58.3984348922968,0.,-15.5317700058222,0.,1.,       19P     32
0.,0.,0.;                                                             19P     33
126,1,1,0,0,1,0,0.,0.,1.,1.,1.,1.,-58.3984348922968,200.,             21P     34
-18.5317700058222,-58.3984348922968,0.,-18.5317700058222,0.,1.,       21P     35
0.,0.,0.;                                                             21P     36
126,1,1,0,0,1,0,0.,0.,1.,1.,1.,1.,-38.3984348922968,200.,             23P     37
-18.5317700058222,-38.3984348922968,0.,-18.5317700058222,0.,1.,       23P     38
0.,0.,0.;                                                             23P     39
126,1,1,0,0,1,0,0.,0.,1.,1.,1.,1.,-38.3984348922968,200.,             25P     40
-15.5317700058222,-38.3984348922968,0.,-15.5317700058222,0.,1.,       25P     41
0.,0.,0.;                                                             25P     42
504,12,3,1,1,1,2,5,1,3,1,1,7,1,4,1,3,9,1,2,1,4,11,1,5,1,6,13,1,       27P     43
6,1,7,15,1,7,1,8,17,1,8,1,5,19,1,3,1,8,21,1,1,1,5,23,1,2,1,6,25,      27P     44
1,4,1,7;                                                              27P     45
314,65.8823529411765,65.8823529411765,65.8823529411765,0H;            29P     46
128,1,1,1,1,0,0,1,0,0,0.,0.,1.,1.,0.,0.,1.,1.,1.,1.,1.,1.,            31P     47
-60.3984348922968,200.,-18.8317700058222,-60.3984348922968,200.,      31P     48
-15.2317700058222,-36.3984348922968,200.,-18.8317700058222,           31P     49
-36.3984348922968,200.,-15.2317700058222,0.,1.,0.,1.;                 31P     50
126,3,3,0,0,1,0,0.,0.,0.,0.,1.,1.,1.,1.,1.,1.,1.,1.,                  33P     51
0.0833333333333341,0.0833333333333335,0.,0.0833333333333341,          33P     52
0.361111111111111,0.,0.0833333333333341,0.638888888888889,0.,         33P     53
0.0833333333333341,0.916666666666667,0.,0.,1.,0.,0.,0.;               33P     54
126,3,3,0,0,1,0,0.,0.,0.,0.,1.,1.,1.,1.,1.,1.,1.,1.,                  35P     55
0.916666666666667,0.0833333333333335,0.,0.638888888888889,            35P     56
0.0833333333333335,0.,0.361111111111111,0.0833333333333335,0.,        35P     57
0.0833333333333341,0.0833333333333335,0.,0.,1.,0.,0.,0.;              35P     58
126,3,3,0,0,1,0,0.,0.,0.,0.,1.,1.,1.,1.,1.,1.,1.,1.,                  37P     59
0.916666666666667,0.916666666666667,0.,0.916666666666667,             37P     60
0.638888888888889,0.,0.916666666666667,0.361111111111111,0.,          37P     61
0.916666666666667,0.0833333333333335,0.,0.,1.,0.,0.,0.;               37P     62
126,1,1,0,0,1,0,0.,0.,1.,1.,1.,1.,0.0833333333333341,                 39P     63
0.916666666666667,0.,0.916666666666667,0.916666666666667,0.,0.,       39P     64
1.,0.,0.,0.;                                                          39P     65
508,4,0,27,1,0,1,0,33,0,27,2,0,1,0,35,0,27,3,0,1,0,37,0,27,4,0,       41P     66
1,0,39;                                                               41P     67
510,31,1,1,41;                                                        43P     68
128,1,1,1,1,0,0,1,0,0,0.,0.,1.,1.,0.,0.,1.,1.,1.,1.,1.,1.,            45P     69
-60.3984348922968,0.,-18.8317700058222,-36.3984348922968,0.,          45P     70
-18.8317700058222,-60.3984348922968,0.,-15.2317700058222,             45P     71
-36.3984348922968,0.,-15.2317700058222,0.,1.,0.,1.;                   45P     72
126,3,3,0,0,1,0,0.,0.,0.,0.,1.,1.,1.,1.,1.,1.,1.,1.,                  47P     73
0.0833333333333331,0.083333333333333,0.,0.361111111111111,            47P     74
0.0833333333333341,0.,0.638888888888889,0.0833333333333341,0.,        47P     75
0.916666666666667,0.0833333333333341,0.,0.,1.,0.,0.,0.;               47P     76
126,3,3,0,0,1,0,0.,0.,0.,0.,1.,1.,1.,1.,1.,1.,1.,1.,                  49P     77
0.916666666666667,0.0833333333333341,0.,0.916666666666667,            49P     78
0.361111111111112,0.,0.916666666666667,0.638888888888889,0.,          49P     79
0.916666666666667,0.916666666666667,0.,0.,1.,0.,0.,0.;                49P     80
126,1,1,0,0,1,0,0.,0.,1.,1.,1.,1.,0.916666666666667,                  51P     81
0.916666666666667,0.,0.0833333333333332,0.916666666666667,0.,0.,      51P     82
1.,0.,0.,0.;                                                          51P     83
126,3,3,0,0,1,0,0.,0.,0.,0.,1.,1.,1.,1.,1.,1.,1.,1.,                  53P     84
0.0833333333333332,0.916666666666667,0.,0.0833333333333331,           53P     85
0.638888888888889,0.,0.0833333333333331,0.361111111111111,0.,         53P     86
0.0833333333333331,0.083333333333333,0.,0.,1.,0.,0.,0.;               53P     87
508,4,0,27,5,1,1,0,47,0,27,6,1,1,0,49,0,27,7,1,1,0,51,0,27,8,1,       55P     88
1,0,53;                                                               55P     89
510,45,1,1,55;                                                        57P     90
128,1,1,1,1,0,0,1,0,0,0.,0.,1.,1.,0.,0.,1.,1.,1.,1.,1.,1.,            59P     91
-58.3984348922968,-10.,-18.8317700058222,-58.3984348922968,-10.,      59P     92
-15.2317700058222,-58.3984348922968,210.,-18.8317700058222,           59P     93
-58.3984348922968,210.,-15.2317700058222,0.,1.,0.,1.;                 59P     94
126,3,3,0,0,1,0,0.,0.,0.,0.,1.,1.,1.,1.,1.,1.,1.,1.,                  61P     95
0.916666666666667,0.0454545454545455,0.,0.638888888888889,            61P     96
0.0454545454545455,0.,0.361111111111111,0.0454545454545455,0.,        61P     97
0.0833333333333337,0.0454545454545455,0.,0.,1.,0.,0.,0.;              61P     98
126,3,3,0,0,1,0,0.,0.,0.,0.,1.,1.,1.,1.,1.,1.,1.,1.,                  63P     99
0.916666666666667,0.954545454545455,0.,0.916666666666667,             63P    100
0.651515151515151,0.,0.916666666666667,0.348484848484848,0.,          63P    101
0.916666666666667,0.0454545454545455,0.,0.,1.,0.,0.,0.;               63P    102
126,1,1,0,0,1,0,0.,0.,1.,1.,1.,1.,0.916666666666667,                  65P    103
0.954545454545455,0.,0.0833333333333337,0.954545454545455,0.,0.,      65P    104
1.,0.,0.,0.;                                                          65P    105
126,1,1,0,0,1,0,0.,0.,1.,1.,1.,1.,0.0833333333333337,                 67P    106
0.954545454545455,0.,0.0833333333333337,0.0454545454545455,0.,        67P    107
0.,1.,0.,0.,0.;                                                       67P    108
508,4,0,27,8,0,1,0,61,0,27,9,0,1,0,63,0,27,2,1,1,0,65,0,27,10,1,      69P    109
1,0,67;                                                               69P    110
510,59,1,1,69;                                                        71P    111
128,1,1,1,1,0,0,1,0,0,0.,0.,1.,1.,0.,0.,1.,1.,1.,1.,1.,1.,            73P    112
-36.3984348922968,-10.,-18.5317700058222,-60.3984348922968,-10.,      73P    113
-18.5317700058222,-36.3984348922968,210.,-18.5317700058222,           73P    114
-60.3984348922968,210.,-18.5317700058222,0.,1.,0.,1.;                 73P    115
126,3,3,0,0,1,0,0.,0.,0.,0.,1.,1.,1.,1.,1.,1.,1.,1.,                  75P    116
0.916666666666667,0.0454545454545455,0.,0.638888888888889,            75P    117
0.0454545454545455,0.,0.361111111111111,0.0454545454545455,0.,        75P    118
0.0833333333333334,0.0454545454545455,0.,0.,1.,0.,0.,0.;              75P    119
126,3,3,0,0,1,0,0.,0.,0.,0.,1.,1.,1.,1.,1.,1.,1.,1.,                  77P    120
0.916666666666667,0.954545454545455,0.,0.916666666666667,             77P    121
0.651515151515151,0.,0.916666666666667,0.348484848484848,0.,          77P    122
0.916666666666667,0.0454545454545455,0.,0.,1.,0.,0.,0.;               77P    123
126,1,1,0,0,1,0,0.,0.,1.,1.,1.,1.,0.916666666666667,                  79P    124
0.954545454545455,0.,0.0833333333333334,0.954545454545455,0.,0.,      79P    125
1.,0.,0.,0.;                                                          79P    126
126,1,1,0,0,1,0,0.,0.,1.,1.,1.,1.,0.0833333333333334,                 81P    127
0.954545454545455,0.,0.0833333333333334,0.0454545454545455,0.,        81P    128
0.,1.,0.,0.,0.;                                                       81P    129
508,4,0,27,5,0,1,0,75,0,27,10,0,1,0,77,0,27,1,1,1,0,79,0,27,11,       83P    130
1,1,0,81;                                                             83P    131
510,73,1,1,83;                                                        85P    132
128,1,1,1,1,0,0,1,0,0,0.,0.,1.,1.,0.,0.,1.,1.,1.,1.,1.,1.,            87P    133
-38.3984348922968,-10.,-15.2317700058222,-38.3984348922968,-10.,      87P    134
-18.8317700058222,-38.3984348922968,210.,-15.2317700058222,           87P    135
-38.3984348922968,210.,-18.8317700058222,0.,1.,0.,1.;                 87P    136
126,3,3,0,0,1,0,0.,0.,0.,0.,1.,1.,1.,1.,1.,1.,1.,1.,                  89P    137
0.916666666666668,0.0454545454545455,0.,0.63888888888889,             89P    138
0.0454545454545455,0.,0.361111111111111,0.0454545454545455,0.,        89P    139
0.0833333333333333,0.0454545454545455,0.,0.,1.,0.,0.,0.;              89P    140
126,3,3,0,0,1,0,0.,0.,0.,0.,1.,1.,1.,1.,1.,1.,1.,1.,                  91P    141
0.916666666666668,0.954545454545455,0.,0.916666666666668,             91P    142
0.651515151515151,0.,0.916666666666668,0.348484848484848,0.,          91P    143
0.916666666666668,0.0454545454545455,0.,0.,1.,0.,0.,0.;               91P    144
126,3,3,0,0,1,0,0.,0.,0.,0.,1.,1.,1.,1.,1.,1.,1.,1.,                  93P    145
0.916666666666668,0.954545454545455,0.,0.63888888888889,              93P    146
0.954545454545455,0.,0.361111111111111,0.954545454545455,0.,          93P    147
0.0833333333333333,0.954545454545455,0.,0.,1.,0.,0.,0.;               93P    148
126,1,1,0,0,1,0,0.,0.,1.,1.,1.,1.,0.0833333333333333,                 95P    149
0.954545454545455,0.,0.0833333333333333,0.0454545454545455,0.,        95P    150
0.,1.,0.,0.,0.;                                                       95P    151
508,4,0,27,6,0,1,0,89,0,27,11,0,1,0,91,0,27,4,1,1,0,93,0,27,12,       97P    152
1,1,0,95;                                                             97P    153
510,87,1,1,97;                                                        99P    154
128,1,1,1,1,0,0,1,0,0,0.,0.,1.,1.,0.,0.,1.,1.,1.,1.,1.,1.,           101P    155
-60.3984348922968,-10.,-15.5317700058222,-36.3984348922968,-10.,     101P    156
-15.5317700058222,-60.3984348922968,210.,-15.5317700058222,          101P    157
-36.3984348922968,210.,-15.5317700058222,0.,1.,0.,1.;                101P    158
126,3,3,0,0,1,0,0.,0.,0.,0.,1.,1.,1.,1.,1.,1.,1.,1.,                 103P    159
0.916666666666667,0.0454545454545455,0.,0.638888888888889,           103P    160
0.0454545454545455,0.,0.361111111111111,0.0454545454545455,0.,       103P    161
0.0833333333333331,0.0454545454545455,0.,0.,1.,0.,0.,0.;             103P    162
126,3,3,0,0,1,0,0.,0.,0.,0.,1.,1.,1.,1.,1.,1.,1.,1.,                 105P    163
0.916666666666667,0.954545454545455,0.,0.916666666666667,            105P    164
0.651515151515151,0.,0.916666666666667,0.348484848484848,0.,         105P    165
0.916666666666667,0.0454545454545455,0.,0.,1.,0.,0.,0.;              105P    166
126,1,1,0,0,1,0,0.,0.,1.,1.,1.,1.,0.916666666666667,                 107P    167
0.954545454545455,0.,0.0833333333333333,0.954545454545455,0.,0.,     107P    168
1.,0.,0.,0.;                                                         107P    169
126,3,3,0,0,1,0,0.,0.,0.,0.,1.,1.,1.,1.,1.,1.,1.,1.,                 109P    170
0.0833333333333333,0.954545454545455,0.,0.0833333333333331,          109P    171
0.651515151515151,0.,0.0833333333333331,0.348484848484848,0.,        109P    172
0.0833333333333331,0.0454545454545455,0.,0.,1.,0.,0.,0.;             109P    173
508,4,0,27,7,0,1,0,103,0,27,12,0,1,0,105,0,27,3,1,1,0,107,0,27,      111P    174
9,1,1,0,109;                                                         111P    175
510,101,1,1,111;                                                     113P    176
514,6,43,1,57,1,71,1,85,1,99,1,113,1;                                115P    177
406,1,11HTM_244_3_20;                                                117P    178
186,115,1,0,0,                                                       119P    179
1,                                                                   119P    180
117;                                                                 119P    181
S      1G      4D    120P    181                                        T      1
