  0
SECTION
  2
HEADER
  9
$ACADVER
  1
AC1027
  9
$DWGCODEPAGE
  3
ANSI_932
  9
$LTSCALE
 40
20.0
  9
$FILLMODE
 70
     1
  9
$CLAYER
  8
0
  9
$PDMODE
 70
     0
  9
$SPLFRAME
 70
     0
  9
$SPLINETYPE
 70
     6
  9
$SPLINESEGS
 70
     8
  9
$DIMASZ
 40
2.000000
  9
$DIMEXE
 40
1.500000
  9
$DIMEXO
 40
0.800000
  9
$DIMTAD
 70
     1
  9
$DIMTIH
 70
     0
  9
$DIMTOH
 70
     0
  9
$DIMTVP
 40
0.500000
  9
$DIMTXT
 40
3.100000
  9
$EXTMIN
 10
0.000000
 20
0.000000
 30
0.000000
  9
$EXTMAX
 10
297.000000
 20
420.000000
 30
0.000000
  9
$MEASUREMENT
 70
  1
  9
$LIMMIN
 10
0.000000
 20
0.000000
  9
$LIMMAX
 10
297.000000
 20
420.000000
  9
$HANDSEED
  5
13A
  9
$LWDISPLAY
290
     0
  9
$DIMBLK
  1
_OPEN
  9
$DIMDEC
 70
     2
  9
$DIMADEC
 70
     2
  9
$DIMAUNIT
 70
     0
  9
$DIMZIN
 70
     8
  9
$DIMAZIN
 70
     2
  9
$DIMTOFL
 70
     1
  0
ENDSEC
  0
SECTION
  2
CLASSES
  0
ENDSEC
  0
SECTION
  2
TABLES
  0
TABLE
  2
VPORT
  5
FE
100
AcDbSymbolTable
 70
     1
  0
VPORT
  5
FF
100
AcDbSymbolTableRecord
100
AcDbViewportTableRecord
  2
*ACTIVE
 70
     0
 12
73.817505
 22
125.534334
 40
215.068667
 41
0.593462
  0
ENDTAB
  0
TABLE
  2
LTYPE
  5
100
100
AcDbSymbolTable
 70
     2
  0
LTYPE
  5
101
100
AcDbSymbolTableRecord
100
AcDbLinetypeTableRecord
  2
BYBLOCK
 70
     0
  3

 72
    65
 73
     0
 40
0.0
  0
LTYPE
  5
102
100
AcDbSymbolTableRecord
100
AcDbLinetypeTableRecord
  2
BYLAYER
 70
     0
  3

 72
    65
 73
     0
 40
0.0
  0
LTYPE
  5
103
100
AcDbSymbolTableRecord
100
AcDbLinetypeTableRecord
  2
CONTINUOUS
 70
     0
  3
Solid line (NEC CAE2D for Win R18.0 : 2025.04.24)
 72
    65
 73
     0
 40
0.0
  0
LTYPE
  5
104
100
AcDbSymbolTableRecord
100
AcDbLinetypeTableRecord
  2
CENTER
 70
     0
  3
____ _ ____ _ ____ _ ____ _ ____ _ ____
 72
    65
 73
     4
 40
2.0
 49
1.25
 74
     0
 49
-0.25
 74
     0
 49
0.25
 74
     0
 49
-0.25
 74
     0
  0
ENDTAB
  0
TABLE
  2
LAYER
  5
105
100
AcDbSymbolTable
 70
    22
  0
LAYER
  5
106
100
AcDbSymbolTableRecord
100
AcDbLayerTableRecord
  2
0
 70
     0
 62
     7
  6
CONTINUOUS
370
    -3
390

  0
LAYER
  5
107
100
AcDbSymbolTableRecord
100
AcDbLayerTableRecord
  2
A0
 70
     0
 62
     9
  6
CONTINUOUS
370
    -3
390

  0
LAYER
  5
108
100
AcDbSymbolTableRecord
100
AcDbLayerTableRecord
  2
A1
 70
     0
 62
    12
  6
CONTINUOUS
370
    -3
390

  0
LAYER
  5
109
100
AcDbSymbolTableRecord
100
AcDbLayerTableRecord
  2
A2
 70
     0
 62
    12
  6
CONTINUOUS
370
    -3
390

  0
LAYER
  5
10A
100
AcDbSymbolTableRecord
100
AcDbLayerTableRecord
  2
A4
 70
     0
 62
     9
  6
CONTINUOUS
370
    -3
390

  0
LAYER
  5
10B
100
AcDbSymbolTableRecord
100
AcDbLayerTableRecord
  2
A5
 70
     0
 62
     8
  6
CONTINUOUS
370
    -3
390

  0
LAYER
  5
10C
100
AcDbSymbolTableRecord
100
AcDbLayerTableRecord
  2
A6
 70
     0
 62
    12
  6
CONTINUOUS
370
    -3
390

  0
LAYER
  5
10D
100
AcDbSymbolTableRecord
100
AcDbLayerTableRecord
  2
A7
 70
     0
 62
    10
  6
CONTINUOUS
370
    -3
390

  0
LAYER
  5
10E
100
AcDbSymbolTableRecord
100
AcDbLayerTableRecord
  2
A8
 70
     0
 62
    10
  6
CONTINUOUS
370
    -3
390

  0
LAYER
  5
10F
100
AcDbSymbolTableRecord
100
AcDbLayerTableRecord
  2
A9
 70
     0
 62
     9
  6
CONTINUOUS
370
    -3
390

  0
LAYER
  5
110
100
AcDbSymbolTableRecord
100
AcDbLayerTableRecord
  2
A10
 70
     0
 62
     6
  6
CONTINUOUS
370
    -3
390

  0
LAYER
  5
111
100
AcDbSymbolTableRecord
100
AcDbLayerTableRecord
  2
A16
 70
     0
 62
     5
  6
CONTINUOUS
370
    -3
390

  0
LAYER
  5
112
100
AcDbSymbolTableRecord
100
AcDbLayerTableRecord
  2
A17
 70
     0
 62
     9
  6
CONTINUOUS
370
    -3
390

  0
LAYER
  5
113
100
AcDbSymbolTableRecord
100
AcDbLayerTableRecord
  2
A19
 70
     0
 62
     5
  6
CONTINUOUS
370
    -3
390

  0
LAYER
  5
114
100
AcDbSymbolTableRecord
100
AcDbLayerTableRecord
  2
A20
 70
     0
 62
     1
  6
CONTINUOUS
370
    -3
390

  0
LAYER
  5
115
100
AcDbSymbolTableRecord
100
AcDbLayerTableRecord
  2
A22
 70
     0
 62
    81
  6
CONTINUOUS
370
    -3
390

  0
LAYER
  5
116
100
AcDbSymbolTableRecord
100
AcDbLayerTableRecord
  2
A30
 70
     0
 62
     1
  6
CONTINUOUS
370
    -3
390

  0
LAYER
  5
117
100
AcDbSymbolTableRecord
100
AcDbLayerTableRecord
  2
A33
 70
     0
 62
   244
  6
CONTINUOUS
370
    -3
390

  0
LAYER
  5
118
100
AcDbSymbolTableRecord
100
AcDbLayerTableRecord
  2
A34
 70
     0
 62
    42
  6
CONTINUOUS
370
    -3
390

  0
LAYER
  5
119
100
AcDbSymbolTableRecord
100
AcDbLayerTableRecord
  2
A40
 70
     0
 62
     9
  6
CONTINUOUS
370
    -3
390

  0
LAYER
  5
11A
100
AcDbSymbolTableRecord
100
AcDbLayerTableRecord
  2
A50
 70
     0
 62
    12
  6
CONTINUOUS
370
    -3
390

  0
LAYER
  5
11B
100
AcDbSymbolTableRecord
100
AcDbLayerTableRecord
  2
A1023
 70
     0
 62
    16
  6
CONTINUOUS
370
    -3
390

  0
ENDTAB
  0
TABLE
  2
STYLE
  5
11C
100
AcDbSymbolTable
 70
     4
  0
STYLE
  5
11D
100
AcDbSymbolTableRecord
100
AcDbTextStyleTableRecord
  2
STANDARD
 70
    64
 40
0.0
 41
1.0
 50
0.0
 71
     0
 42
1.406250000000000
  3
TXT
  4

  0
STYLE
  5
11E
100
AcDbSymbolTableRecord
100
AcDbTextStyleTableRecord
  2
ANKTATE
 70
    68
 40
0.0
 41
1.0
 50
0.0
 71
     0
 42
1.406250000000000
  3
TXT
  4

  0
STYLE
  5
11F
100
AcDbSymbolTableRecord
100
AcDbTextStyleTableRecord
  2
KNJYOKO
 70
    64
 40
0.0
 41
1.0
 50
0.0
 71
     0
 42
1.406250000000000
  3
TXT
  4
BIGFONT
  0
STYLE
  5
120
100
AcDbSymbolTableRecord
100
AcDbTextStyleTableRecord
  2
KNJTATE
 70
    68
 40
0.0
 41
1.0
 50
0.0
 71
     0
 42
1.406250000000000
  3
TXT
  4
BIGFONT
  0
ENDTAB
  0
TABLE
  2
VIEW
  5
121
100
AcDbSymbolTable
 70
     0
  0
ENDTAB
  0
TABLE
  2
UCS
  5
122
100
AcDbSymbolTable
 70
     0
  0
ENDTAB
  0
TABLE
  2
APPID
  5
123
100
AcDbSymbolTable
 70
     1
  0
APPID
  5
124
100
AcDbSymbolTableRecord
100
AcDbRegAppTableRecord
  2
ACAD
 70
     0
  0
ENDTAB
  0
TABLE
  2
DIMSTYLE
  5
125
100
AcDbSymbolTable
 70
     2
100
AcDbDimStyleTable
  0
DIMSTYLE
105
126
100
AcDbSymbolTableRecord
100
AcDbDimStyleTableRecord
  2
STANDARD
 70
     0
 41
2.000000
 44
1.500000
 42
0.800000
145
0.661290
140
3.100000
144
1.000000
146
0.645161
340
11D
  0
DIMSTYLE
105
127
100
AcDbSymbolTableRecord
100
AcDbDimStyleTableRecord
  2
A001
 70
     0
 41
2.000000
 44
1.500000
 42
0.800000
145
0.661290
140
3.100000
144
1.000000
146
0.645161
 77
     1
 73
     0
 74
     0
271
     2
179
     2
275
     0
 78
     8
 79
     2
172
     1
340
11D
  0
ENDTAB
  0
TABLE
  2
BLOCK_RECORD
  5
128
100
AcDbSymbolTable
 70
    12
  0
BLOCK_RECORD
  5
129
100
AcDbSymbolTableRecord
100
AcDbBlockTableRecord
  2
*MODEL_SPACE
  0
BLOCK_RECORD
  5
12A
100
AcDbSymbolTableRecord
100
AcDbBlockTableRecord
  2
*PAPER_SPACE
  0
BLOCK_RECORD
  5
12B
100
AcDbSymbolTableRecord
100
AcDbBlockTableRecord
  2
*PAPER_SPACE0
  0
BLOCK_RECORD
  5
1
100
AcDbSymbolTableRecord
100
AcDbBlockTableRecord
  2
_NONE
  0
BLOCK_RECORD
  5
4
100
AcDbSymbolTableRecord
100
AcDbBlockTableRecord
  2
_CLOSED
  0
BLOCK_RECORD
  5
B
100
AcDbSymbolTableRecord
100
AcDbBlockTableRecord
  2
_DOT
  0
BLOCK_RECORD
  5
13
100
AcDbSymbolTableRecord
100
AcDbBlockTableRecord
  2
_OPEN
  0
BLOCK_RECORD
  5
19
100
AcDbSymbolTableRecord
100
AcDbBlockTableRecord
  2
_ORIGIN
  0
BLOCK_RECORD
  5
1E
100
AcDbSymbolTableRecord
100
AcDbBlockTableRecord
  2
_OPEN30
  0
BLOCK_RECORD
  5
24
100
AcDbSymbolTableRecord
100
AcDbBlockTableRecord
  2
_BOXFILLED
  0
BLOCK_RECORD
  5
29
100
AcDbSymbolTableRecord
100
AcDbBlockTableRecord
  2
_BOXBLANK
  0
BLOCK_RECORD
  5
31
100
AcDbSymbolTableRecord
100
AcDbBlockTableRecord
  2
_OBLIQUE
  0
BLOCK_RECORD
  5
35
100
AcDbSymbolTableRecord
100
AcDbBlockTableRecord
  2
_OPEN90
  0
BLOCK_RECORD
  5
3B
100
AcDbSymbolTableRecord
100
AcDbBlockTableRecord
  2
_CLOSEDBLANK
  0
BLOCK_RECORD
  5
41
100
AcDbSymbolTableRecord
100
AcDbBlockTableRecord
  2
_DOTBLANK
  0
ENDTAB
  0
ENDSEC
  0
SECTION
  2
BLOCKS
  0
BLOCK
  5
12C
100
AcDbEntity
  8
0
100
AcDbBlockBegin
  2
*MODEL_SPACE
 70
     0
 10
0.0
 20
0.0
 30
0.0
  3
*MODEL_SPACE
  1

  0
ENDBLK
  5
12D
100
AcDbEntity
  8
0
100
AcDbBlockEnd
  0
BLOCK
  5
12E
100
AcDbEntity
  8
0
100
AcDbBlockBegin
  2
*PAPER_SPACE
 70
     0
 10
0.0
 20
0.0
 30
0.0
  3
*PAPER_SPACE
  1

  0
ENDBLK
  5
12F
100
AcDbEntity
  8
0
100
AcDbBlockEnd
  0
BLOCK
  5
130
100
AcDbEntity
  8
0
100
AcDbBlockBegin
  2
*PAPER_SPACE0
 70
     0
 10
0.0
 20
0.0
 30
0.0
  3
*PAPER_SPACE0
  1

  0
ENDBLK
  5
131
100
AcDbEntity
  8
0
100
AcDbBlockEnd
  0
BLOCK
  5
2
330
1
100
AcDbEntity
  8
0
100
AcDbBlockBegin
  2
_NONE
 70
     0
 10
0.0
 20
0.0
 30
0.0
  3
_NONE
  1

  0
ENDBLK
  5
3
330
1
100
AcDbEntity
  8
0
100
AcDbBlockEnd
  0
BLOCK
  5
5
330
4
100
AcDbEntity
  8
0
100
AcDbBlockBegin
  2
_CLOSED
 70
     0
 10
0.0
 20
0.0
 30
0.0
  3
_CLOSED
  1

  0
LINE
  5
6
330
4
100
AcDbEntity
  8
0
  6
BYBLOCK
 62
     0
370
    -2
100
AcDbLine
 10
-1.0
 20
0.166667
 30
0.0
 11
0.0
 21
0.0
 31
0.0
  0
LINE
  5
7
330
4
100
AcDbEntity
  8
0
  6
BYBLOCK
 62
     0
370
    -2
100
AcDbLine
 10
0.0
 20
0.0
 30
0.0
 11
-1.0
 21
-0.166667
 31
0.0
  0
LINE
  5
8
330
4
100
AcDbEntity
  8
0
  6
BYBLOCK
 62
     0
370
    -2
100
AcDbLine
 10
-1.0
 20
0.166667
 30
0.0
 11
-1.0
 21
-0.166667
 31
0.0
  0
LINE
  5
9
330
4
100
AcDbEntity
  8
0
  6
BYBLOCK
 62
     0
370
    -2
100
AcDbLine
 10
0.0
 20
0.0
 30
0.0
 11
-1.0
 21
0.0
 31
0.0
  0
ENDBLK
  5
A
330
4
100
AcDbEntity
  8
0
100
AcDbBlockEnd
  0
BLOCK
  5
C
330
B
100
AcDbEntity
  8
0
100
AcDbBlockBegin
  2
_DOT
 70
     0
 10
0.0
 20
0.0
 30
0.0
  3
_DOT
  1

  0
POLYLINE
  5
D
330
B
100
AcDbEntity
  8
0
  6
BYBLOCK
 62
     0
370
    -2
100
AcDb2dPolyline
 66
     1
 10
0.0
 20
0.0
 30
0.0
 70
     1
 40
0.5
 41
0.5
  0
VERTEX
  5
E
330
B
100
AcDbEntity
  8
0
  6
BYBLOCK
 62
     0
370
    -2
100
AcDbVertex
100
AcDb2dVertex
 10
-0.25
 20
0.0
 30
0.0
 42
1.0
  0
VERTEX
  5
F
330
B
100
AcDbEntity
  8
0
  6
BYBLOCK
 62
     0
370
    -2
100
AcDbVertex
100
AcDb2dVertex
 10
0.25
 20
0.0
 30
0.0
 42
1.0
  0
SEQEND
  5
10
330
B
100
AcDbEntity
  8
0
  6
BYBLOCK
 62
     0
370
    -2
  0
LINE
  5
11
330
B
100
AcDbEntity
  8
0
  6
BYBLOCK
 62
     0
370
    -2
100
AcDbLine
 10
-0.5
 20
0.0
 30
0.0
 11
-1.0
 21
0.0
 31
0.0
  0
ENDBLK
  5
12
330
B
100
AcDbEntity
  8
0
100
AcDbBlockEnd
  0
BLOCK
  5
14
330
13
100
AcDbEntity
  8
0
100
AcDbBlockBegin
  2
_OPEN
 70
     0
 10
0.0
 20
0.0
 30
0.0
  3
_OPEN
  1

  0
LINE
  5
15
330
13
100
AcDbEntity
  8
0
  6
BYBLOCK
 62
     0
370
    -2
100
AcDbLine
 10
-1.0
 20
0.166667
 30
0.0
 11
0.0
 21
0.0
 31
0.0
  0
LINE
  5
16
330
13
100
AcDbEntity
  8
0
  6
BYBLOCK
 62
     0
370
    -2
100
AcDbLine
 10
0.0
 20
0.0
 30
0.0
 11
-1.0
 21
-0.166667
 31
0.0
  0
LINE
  5
17
330
13
100
AcDbEntity
  8
0
  6
BYBLOCK
 62
     0
370
    -2
100
AcDbLine
 10
0.0
 20
0.0
 30
0.0
 11
-1.0
 21
0.0
 31
0.0
  0
ENDBLK
  5
18
330
13
100
AcDbEntity
  8
0
100
AcDbBlockEnd
  0
BLOCK
  5
1A
330
19
100
AcDbEntity
  8
0
100
AcDbBlockBegin
  2
_ORIGIN
 70
     0
 10
0.0
 20
0.0
 30
0.0
  3
_ORIGIN
  1

  0
CIRCLE
  5
1B
330
19
100
AcDbEntity
  8
0
  6
BYBLOCK
 62
     0
370
    -2
100
AcDbCircle
 10
0.0
 20
0.0
 30
0.0
 40
0.5
  0
LINE
  5
1C
330
19
100
AcDbEntity
  8
0
  6
BYBLOCK
 62
     0
370
    -2
100
AcDbLine
 10
0.0
 20
0.0
 30
0.0
 11
-1.0
 21
0.0
 31
0.0
  0
ENDBLK
  5
1D
330
19
100
AcDbEntity
  8
0
100
AcDbBlockEnd
  0
BLOCK
  5
1F
330
1E
100
AcDbEntity
  8
0
100
AcDbBlockBegin
  2
_OPEN30
 70
     0
 10
0.0
 20
0.0
 30
0.0
  3
_OPEN30
  1

  0
LINE
  5
20
330
1E
100
AcDbEntity
  8
0
  6
BYBLOCK
 62
     0
370
    -2
100
AcDbLine
 10
-1.0
 20
0.267949
 30
0.0
 11
0.0
 21
0.0
 31
0.0
  0
LINE
  5
21
330
1E
100
AcDbEntity
  8
0
  6
BYBLOCK
 62
     0
370
    -2
100
AcDbLine
 10
0.0
 20
0.0
 30
0.0
 11
-1.0
 21
-0.267949
 31
0.0
  0
LINE
  5
22
330
1E
100
AcDbEntity
  8
0
  6
BYBLOCK
 62
     0
370
    -2
100
AcDbLine
 10
0.0
 20
0.0
 30
0.0
 11
-1.0
 21
0.0
 31
0.0
  0
ENDBLK
  5
23
330
1E
100
AcDbEntity
  8
0
100
AcDbBlockEnd
  0
BLOCK
  5
25
330
24
100
AcDbEntity
  8
0
100
AcDbBlockBegin
  2
_BOXFILLED
 70
     0
 10
0.0
 20
0.0
 30
0.0
  3
_BOXFILLED
  1

  0
SOLID
  5
26
330
24
100
AcDbEntity
  8
0
  6
BYBLOCK
 62
     0
370
    -2
100
AcDbTrace
 10
-0.5
 20
0.5
 30
0.0
 11
0.5
 21
0.5
 31
0.0
 12
-0.5
 22
-0.5
 32
0.0
 13
0.5
 23
-0.5
 33
0.0
  0
LINE
  5
27
330
24
100
AcDbEntity
  8
0
  6
BYBLOCK
 62
     0
370
    -2
100
AcDbLine
 10
-0.5
 20
0.0
 30
0.0
 11
-1.0
 21
0.0
 31
0.0
  0
ENDBLK
  5
28
330
24
100
AcDbEntity
  8
0
100
AcDbBlockEnd
  0
BLOCK
  5
2A
330
29
100
AcDbEntity
  8
0
100
AcDbBlockBegin
  2
_BOXBLANK
 70
     0
 10
0.0
 20
0.0
 30
0.0
  3
_BOXBLANK
  1

  0
LINE
  5
2B
330
29
100
AcDbEntity
  8
0
  6
BYBLOCK
 62
     0
370
    -2
100
AcDbLine
 10
-0.5
 20
-0.5
 30
0.0
 11
0.5
 21
-0.5
 31
0.0
  0
LINE
  5
2C
330
29
100
AcDbEntity
  8
0
  6
BYBLOCK
 62
     0
370
    -2
100
AcDbLine
 10
0.5
 20
-0.5
 30
0.0
 11
0.5
 21
0.5
 31
0.0
  0
LINE
  5
2D
330
29
100
AcDbEntity
  8
0
  6
BYBLOCK
 62
     0
370
    -2
100
AcDbLine
 10
0.5
 20
0.5
 30
0.0
 11
-0.5
 21
0.5
 31
0.0
  0
LINE
  5
2E
330
29
100
AcDbEntity
  8
0
  6
BYBLOCK
 62
     0
370
    -2
100
AcDbLine
 10
-0.5
 20
0.5
 30
0.0
 11
-0.5
 21
-0.5
 31
0.0
  0
LINE
  5
2F
330
29
100
AcDbEntity
  8
0
  6
BYBLOCK
 62
     0
370
    -2
100
AcDbLine
 10
-0.5
 20
0.0
 30
0.0
 11
-1.0
 21
0.0
 31
0.0
  0
ENDBLK
  5
30
330
29
100
AcDbEntity
  8
0
100
AcDbBlockEnd
  0
BLOCK
  5
32
330
31
100
AcDbEntity
  8
0
100
AcDbBlockBegin
  2
_OBLIQUE
 70
     0
 10
0.0
 20
0.0
 30
0.0
  3
_OBLIQUE
  1

  0
LINE
  5
33
330
31
100
AcDbEntity
  8
0
  6
BYBLOCK
 62
     0
370
    -2
100
AcDbLine
 10
-0.5
 20
-0.5
 30
0.0
 11
0.5
 21
0.5
 31
0.0
  0
ENDBLK
  5
34
330
31
100
AcDbEntity
  8
0
100
AcDbBlockEnd
  0
BLOCK
  5
36
330
35
100
AcDbEntity
  8
0
100
AcDbBlockBegin
  2
_OPEN90
 70
     0
 10
0.0
 20
0.0
 30
0.0
  3
_OPEN90
  1

  0
LINE
  5
37
330
35
100
AcDbEntity
  8
0
  6
BYBLOCK
 62
     0
370
    -2
100
AcDbLine
 10
-0.5
 20
0.5
 30
0.0
 11
0.0
 21
0.0
 31
0.0
  0
LINE
  5
38
330
35
100
AcDbEntity
  8
0
  6
BYBLOCK
 62
     0
370
    -2
100
AcDbLine
 10
0.0
 20
0.0
 30
0.0
 11
-0.5
 21
-0.5
 31
0.0
  0
LINE
  5
39
330
35
100
AcDbEntity
  8
0
  6
BYBLOCK
 62
     0
370
    -2
100
AcDbLine
 10
0.0
 20
0.0
 30
0.0
 11
-1.0
 21
0.0
 31
0.0
  0
ENDBLK
  5
3A
330
35
100
AcDbEntity
  8
0
100
AcDbBlockEnd
  0
BLOCK
  5
3C
330
3B
100
AcDbEntity
  8
0
100
AcDbBlockBegin
  2
_CLOSEDBLANK
 70
     0
 10
0.0
 20
0.0
 30
0.0
  3
_CLOSEDBLANK
  1

  0
LINE
  5
3D
330
3B
100
AcDbEntity
  8
0
  6
BYBLOCK
 62
     0
370
    -2
100
AcDbLine
 10
-1.0
 20
0.1666666666666666
 30
0.0
 11
0.0
 21
0.0
 31
0.0
  0
LINE
  5
3E
330
3B
100
AcDbEntity
  8
0
  6
BYBLOCK
 62
     0
370
    -2
100
AcDbLine
 10
0.0
 20
0.0
 30
0.0
 11
-1.0
 21
-0.1666666666666666
 31
0.0
  0
LINE
  5
3F
330
3B
100
AcDbEntity
  8
0
  6
BYBLOCK
 62
     0
370
    -2
100
AcDbLine
 10
-1.0
 20
0.1666666666666666
 30
0.0
 11
-1.0
 21
-0.1666666666666666
 31
0.0
  0
ENDBLK
  5
40
330
3B
100
AcDbEntity
  8
0
100
AcDbBlockEnd
  0
BLOCK
  5
42
330
41
100
AcDbEntity
  8
0
100
AcDbBlockBegin
  2
_DOTBLANK
 70
     0
 10
0.0
 20
0.0
 30
0.0
  3
_DOTBLANK
  1

  0
CIRCLE
  5
43
330
41
100
AcDbEntity
  8
0
  6
BYBLOCK
 62
     0
370
    -2
100
AcDbCircle
 10
0.0
 20
0.0
 30
0.0
 40
0.5
  0
LINE
  5
44
330
41
100
AcDbEntity
  8
0
  6
BYBLOCK
 62
     0
370
    -2
100
AcDbLine
 10
-0.5
 20
0.0
 30
0.0
 11
-1.0
 21
0.0
 31
0.0
  0
ENDBLK
  5
45
330
41
100
AcDbEntity
  8
0
100
AcDbBlockEnd
  0
ENDSEC
  0
SECTION
  2
ENTITIES
  0
MTEXT
  5
46
100
AcDbEntity
  8
A8
  6
CONTINUOUS
 62
3
100
AcDbMText
 10
9.999997526638502
 20
18.00000076076889
 30
0.000000000000000
 40
3.000000000000000
 41
0.000000000000000
 44
0.6739999771118164
 71
     7
 72
     1
  1
{\H0.94x;{TYPE No.TM-246-M10-15}}
 11
1.000000000000000
 21
0.000000000000000
 31
0.000000000000000
  7
STANDARD
  0
POINT
  5
47
100
AcDbEntity
  8
A0
  6
CONTINUOUS
 62
3
100
AcDbPoint
 10
9.999997526638502
 20
18.00000076076889
 30
0.000000000000000
  0
LINE
  5
48
100
AcDbEntity
  8
A4
  6
CENTER
 62
1
100
AcDbLine
 10
137.6350126807627
 20
80.56866761954859
 30
0.000000000000000
 11
94.63501268076274
 21
80.56866761954859
 31
0.000000000000000
  0
LINE
  5
49
100
AcDbEntity
  8
A4
  6
CENTER
 62
1
100
AcDbLine
 10
116.1350126807627
 20
102.0686676195486
 30
0.000000000000000
 11
116.1350126807627
 21
59.06866761954859
 31
0.000000000000000
  0
CIRCLE
  5
4A
100
AcDbEntity
  8
A1
  6
CONTINUOUS
 62
7
100
AcDbCircle
 10
116.1350126807627
 20
80.56866761954859
 30
0.000000000000000
 40
20.00000000000000
  0
CIRCLE
  5
4B
100
AcDbEntity
  8
A1
  6
CONTINUOUS
 62
7
100
AcDbCircle
 10
116.1350126807627
 20
80.56866761954859
 30
0.000000000000000
 40
2.000000000000000
  0
ARC
  5
4C
100
AcDbEntity
  8
A1
  6
CONTINUOUS
 62
7
100
AcDbCircle
 10
121.5991142959005
 20
75.10456600441080
 30
0.000000000000000
 40
0.5000000000000000
100
AcDbArc
 50
59.99999999999996
 51
209.9999999999989
  0
ARC
  5
4D
100
AcDbEntity
  8
A1
  6
CONTINUOUS
 62
7
100
AcDbCircle
 10
110.6709110656250
 20
75.10456600441080
 30
0.000000000000000
 40
0.5000000000000000
100
AcDbArc
 50
329.9999999999977
 51
480.0000000000020
  0
ARC
  5
4E
100
AcDbEntity
  8
A1
  6
CONTINUOUS
 62
7
100
AcDbCircle
 10
108.6709110656250
 20
78.56866761954859
 30
0.000000000000000
 40
0.5000000000000000
100
AcDbArc
 50
300.0000000000001
 51
450.0000000000000
  0
ARC
  5
4F
100
AcDbEntity
  8
A1
  6
CONTINUOUS
 62
7
100
AcDbCircle
 10
108.6709110656250
 20
82.56866761954859
 30
0.000000000000000
 40
0.5000000000000000
100
AcDbArc
 50
270.0000000000000
 51
420.0000000000000
  0
ARC
  5
50
100
AcDbEntity
  8
A1
  6
CONTINUOUS
 62
7
100
AcDbCircle
 10
110.6709110656250
 20
86.03276923468638
 30
0.000000000000000
 40
0.5000000000000000
100
AcDbArc
 50
239.9999999999999
 51
390.0000000000006
  0
ARC
  5
51
100
AcDbEntity
  8
A1
  6
CONTINUOUS
 62
7
100
AcDbCircle
 10
123.5991142959005
 20
78.56866761954859
 30
0.000000000000000
 40
0.5000000000000000
100
AcDbArc
 50
90.00000000000000
 51
239.9999999999998
  0
ARC
  5
52
100
AcDbEntity
  8
A1
  6
CONTINUOUS
 62
7
100
AcDbCircle
 10
131.2904572469905
 20
89.31866761954859
 30
0.000000000000000
 40
1.500000000000002
100
AcDbArc
 50
299.9999999999990
 51
480.0000000000009
  0
ARC
  5
53
100
AcDbEntity
  8
A1
  6
CONTINUOUS
 62
7
100
AcDbCircle
 10
124.8850126807628
 20
95.72411218577628
 30
0.000000000000000
 40
1.500000000000002
100
AcDbArc
 50
329.9999999999999
 51
510.0000000000005
  0
ARC
  5
54
100
AcDbEntity
  8
A1
  6
CONTINUOUS
 62
7
100
AcDbCircle
 10
116.1350126807628
 20
98.06866761954859
 30
0.000000000000000
 40
1.500000000000002
100
AcDbArc
 50
0.000000000000000
 51
179.9999999999998
  0
ARC
  5
55
100
AcDbEntity
  8
A1
  6
CONTINUOUS
 62
7
100
AcDbCircle
 10
107.3850126807628
 20
95.72411218577628
 30
0.000000000000000
 40
1.500000000000002
100
AcDbArc
 50
30.00000000000006
 51
209.9999999999999
  0
ARC
  5
56
100
AcDbEntity
  8
A1
  6
CONTINUOUS
 62
7
100
AcDbCircle
 10
100.9795681145351
 20
89.31866761954859
 30
0.000000000000000
 40
1.500000000000002
100
AcDbArc
 50
60.00000000000001
 51
240.0000000000000
  0
ARC
  5
57
100
AcDbEntity
  8
A1
  6
CONTINUOUS
 62
7
100
AcDbCircle
 10
98.63501268076277
 20
80.56866761954859
 30
0.000000000000000
 40
1.500000000000002
100
AcDbArc
 50
90.00000000000000
 51
270.0000000000000
  0
ARC
  5
58
100
AcDbEntity
  8
A1
  6
CONTINUOUS
 62
7
100
AcDbCircle
 10
100.9795681145351
 20
71.81866761954859
 30
0.000000000000000
 40
1.500000000000002
100
AcDbArc
 50
120.0000000000000
 51
299.9999999999998
  0
ARC
  5
59
100
AcDbEntity
  8
A1
  6
CONTINUOUS
 62
7
100
AcDbCircle
 10
107.3850126807627
 20
65.41322305332091
 30
0.000000000000000
 40
1.500000000000002
100
AcDbArc
 50
149.9999999999995
 51
329.9999999999999
  0
ARC
  5
5A
100
AcDbEntity
  8
A1
  6
CONTINUOUS
 62
7
100
AcDbCircle
 10
116.1350126807627
 20
63.06866761954859
 30
0.000000000000000
 40
1.500000000000002
100
AcDbArc
 50
180.0000000000000
 51
359.9999999999998
  0
ARC
  5
5B
100
AcDbEntity
  8
A1
  6
CONTINUOUS
 62
7
100
AcDbCircle
 10
124.8850126807627
 20
65.41322305332091
 30
0.000000000000000
 40
1.500000000000002
100
AcDbArc
 50
209.9999999999995
 51
390.0000000000006
  0
ARC
  5
5C
100
AcDbEntity
  8
A1
  6
CONTINUOUS
 62
7
100
AcDbCircle
 10
131.2904572469904
 20
71.81866761954859
 30
0.000000000000000
 40
1.500000000000002
100
AcDbArc
 50
240.0000000000000
 51
420.0000000000000
  0
ARC
  5
5D
100
AcDbEntity
  8
A1
  6
CONTINUOUS
 62
7
100
AcDbCircle
 10
133.6350126807627
 20
80.56866761954859
 30
0.000000000000000
 40
1.500000000000002
100
AcDbArc
 50
270.0000000000000
 51
450.0000000000000
  0
ARC
  5
5E
100
AcDbEntity
  8
A1
  6
CONTINUOUS
 62
7
100
AcDbCircle
 10
123.5991142959005
 20
82.56866761954859
 30
0.000000000000000
 40
0.5000000000000000
100
AcDbArc
 50
120.0000000000000
 51
270.0000000000000
  0
ARC
  5
5F
100
AcDbEntity
  8
A1
  6
CONTINUOUS
 62
7
100
AcDbCircle
 10
114.1350126807627
 20
88.03276923468638
 30
0.000000000000000
 40
0.5000000000000000
100
AcDbArc
 50
210.0000000000005
 51
359.9999999999998
  0
ARC
  5
60
100
AcDbEntity
  8
A1
  6
CONTINUOUS
 62
7
100
AcDbCircle
 10
118.1350126807627
 20
88.03276923468638
 30
0.000000000000000
 40
0.5000000000000000
100
AcDbArc
 50
180.0000000000000
 51
330.0000000000007
  0
ARC
  5
61
100
AcDbEntity
  8
A1
  6
CONTINUOUS
 62
7
100
AcDbCircle
 10
121.5991142959005
 20
86.03276923468630
 30
0.000000000000000
 40
0.5000000000000000
100
AcDbArc
 50
150.0000000000010
 51
300.0000000000001
  0
ARC
  5
62
100
AcDbEntity
  8
A1
  6
CONTINUOUS
 62
7
100
AcDbCircle
 10
114.1350126807627
 20
73.10456600441088
 30
0.000000000000000
 40
0.5000000000000000
100
AcDbArc
 50
0.000000000000000
 51
149.9999999999982
  0
ARC
  5
63
100
AcDbEntity
  8
A1
  6
CONTINUOUS
 62
7
100
AcDbCircle
 10
118.1350126807627
 20
73.10456600441080
 30
0.000000000000000
 40
0.5000000000000000
100
AcDbArc
 50
29.99999999999874
 51
180.0000000000000
  0
ARC
  5
64
100
AcDbEntity
  8
A1
  6
CONTINUOUS
 62
7
100
AcDbCircle
 10
116.1350126807627
 20
80.56866761954859
 30
0.000000000000000
 40
11.50000000000000
100
AcDbArc
 50
157.4947174539266
 51
172.5052825460732
  0
ARC
  5
65
100
AcDbEntity
  8
A1
  6
CONTINUOUS
 62
7
100
AcDbCircle
 10
116.1350126807627
 20
80.56866761954859
 30
0.000000000000000
 40
11.50000000000000
100
AcDbArc
 50
127.4947174539265
 51
142.5052825460732
  0
ARC
  5
66
100
AcDbEntity
  8
A1
  6
CONTINUOUS
 62
7
100
AcDbCircle
 10
116.1350126807627
 20
80.56866761954859
 30
0.000000000000000
 40
11.50000000000000
100
AcDbArc
 50
217.4947174539267
 51
232.5052825460733
  0
ARC
  5
67
100
AcDbEntity
  8
A1
  6
CONTINUOUS
 62
7
100
AcDbCircle
 10
116.1350126807627
 20
80.56866761954859
 30
0.000000000000000
 40
11.50000000000000
100
AcDbArc
 50
187.4947174539267
 51
202.5052825460733
  0
ARC
  5
68
100
AcDbEntity
  8
A1
  6
CONTINUOUS
 62
7
100
AcDbCircle
 10
116.1350126807627
 20
80.56866761954859
 30
0.000000000000000
 40
11.50000000000000
100
AcDbArc
 50
307.4947174539265
 51
322.5052825460732
  0
ARC
  5
69
100
AcDbEntity
  8
A1
  6
CONTINUOUS
 62
7
100
AcDbCircle
 10
116.1350126807627
 20
80.56866761954859
 30
0.000000000000000
 40
11.50000000000000
100
AcDbArc
 50
337.4947174539266
 51
352.5052825460733
  0
ARC
  5
6A
100
AcDbEntity
  8
A1
  6
CONTINUOUS
 62
7
100
AcDbCircle
 10
116.1350126807627
 20
80.56866761954859
 30
0.000000000000000
 40
11.50000000000000
100
AcDbArc
 50
277.4947174539265
 51
292.5052825460734
  0
ARC
  5
6B
100
AcDbEntity
  8
A1
  6
CONTINUOUS
 62
7
100
AcDbCircle
 10
116.1350126807627
 20
80.56866761954859
 30
0.000000000000000
 40
11.50000000000000
100
AcDbArc
 50
247.4947174539266
 51
262.5052825460733
  0
ARC
  5
6C
100
AcDbEntity
  8
A1
  6
CONTINUOUS
 62
7
100
AcDbCircle
 10
116.1350126807627
 20
80.56866761954859
 30
0.000000000000000
 40
11.50000000000000
100
AcDbArc
 50
37.49471745392678
 51
52.50528254607323
  0
ARC
  5
6D
100
AcDbEntity
  8
A1
  6
CONTINUOUS
 62
7
100
AcDbCircle
 10
116.1350126807627
 20
80.56866761954859
 30
0.000000000000000
 40
11.50000000000000
100
AcDbArc
 50
67.49471745392644
 51
82.50528254607332
  0
ARC
  5
6E
100
AcDbEntity
  8
A1
  6
CONTINUOUS
 62
7
100
AcDbCircle
 10
116.1350126807627
 20
80.56866761954859
 30
0.000000000000000
 40
11.50000000000000
100
AcDbArc
 50
97.49471745392654
 51
112.5052825460733
  0
ARC
  5
6F
100
AcDbEntity
  8
A1
  6
CONTINUOUS
 62
7
100
AcDbCircle
 10
116.1350126807627
 20
80.56866761954859
 30
0.000000000000000
 40
11.50000000000000
100
AcDbArc
 50
7.494717453926570
 51
22.50528254607323
  0
ARC
  5
70
100
AcDbEntity
  8
A1
  6
CONTINUOUS
 62
7
100
AcDbCircle
 10
116.1350126807627
 20
80.56866761954859
 30
0.000000000000000
 40
17.00000000000000
100
AcDbArc
 50
35.06209296428482
 51
54.93790703571522
  0
ARC
  5
71
100
AcDbEntity
  8
A1
  6
CONTINUOUS
 62
7
100
AcDbCircle
 10
116.1350126807627
 20
80.56866761954859
 30
0.000000000000000
 40
17.00000000000000
100
AcDbArc
 50
65.06209296428452
 51
84.93790703571526
  0
ARC
  5
72
100
AcDbEntity
  8
A1
  6
CONTINUOUS
 62
7
100
AcDbCircle
 10
116.1350126807627
 20
80.56866761954859
 30
0.000000000000000
 40
17.00000000000000
100
AcDbArc
 50
95.06209296428459
 51
114.9379070357152
  0
ARC
  5
73
100
AcDbEntity
  8
A1
  6
CONTINUOUS
 62
7
100
AcDbCircle
 10
116.1350126807627
 20
80.56866761954859
 30
0.000000000000000
 40
17.00000000000000
100
AcDbArc
 50
155.0620929642846
 51
174.9379070357153
  0
ARC
  5
74
100
AcDbEntity
  8
A1
  6
CONTINUOUS
 62
7
100
AcDbCircle
 10
116.1350126807627
 20
80.56866761954859
 30
0.000000000000000
 40
17.00000000000000
100
AcDbArc
 50
185.0620929642845
 51
204.9379070357153
  0
ARC
  5
75
100
AcDbEntity
  8
A1
  6
CONTINUOUS
 62
7
100
AcDbCircle
 10
116.1350126807627
 20
80.56866761954859
 30
0.000000000000000
 40
17.00000000000000
100
AcDbArc
 50
335.0620929642845
 51
354.9379070357152
  0
ARC
  5
76
100
AcDbEntity
  8
A1
  6
CONTINUOUS
 62
7
100
AcDbCircle
 10
116.1350126807627
 20
80.56866761954859
 30
0.000000000000000
 40
17.00000000000000
100
AcDbArc
 50
5.062092964284534
 51
24.93790703571529
  0
ARC
  5
77
100
AcDbEntity
  8
A1
  6
CONTINUOUS
 62
7
100
AcDbCircle
 10
116.1350126807627
 20
80.56866761954859
 30
0.000000000000000
 40
17.00000000000000
100
AcDbArc
 50
125.0620929642846
 51
144.9379070357152
  0
ARC
  5
78
100
AcDbEntity
  8
A1
  6
CONTINUOUS
 62
7
100
AcDbCircle
 10
116.1350126807627
 20
80.56866761954859
 30
0.000000000000000
 40
17.00000000000000
100
AcDbArc
 50
245.0620929642846
 51
264.9379070357152
  0
ARC
  5
79
100
AcDbEntity
  8
A1
  6
CONTINUOUS
 62
7
100
AcDbCircle
 10
116.1350126807627
 20
80.56866761954859
 30
0.000000000000000
 40
17.00000000000000
100
AcDbArc
 50
275.0620929642844
 51
294.9379070357153
  0
ARC
  5
7A
100
AcDbEntity
  8
A1
  6
CONTINUOUS
 62
7
100
AcDbCircle
 10
116.1350126807627
 20
80.56866761954859
 30
0.000000000000000
 40
17.00000000000000
100
AcDbArc
 50
305.0620929642845
 51
324.9379070357152
  0
ARC
  5
7B
100
AcDbEntity
  8
A1
  6
CONTINUOUS
 62
7
100
AcDbCircle
 10
116.1350126807627
 20
80.56866761954859
 30
0.000000000000000
 40
17.00000000000000
100
AcDbArc
 50
215.0620929642846
 51
234.9379070357153
  0
LINE
  5
7C
100
AcDbEntity
  8
A1
  6
CONTINUOUS
 62
7
100
AcDbLine
 10
106.0859745750861
 20
94.97411218577628
 30
0.000000000000000
 11
111.1039237675172
 21
86.28276923468638
 31
0.000000000000000
  0
LINE
  5
7D
100
AcDbEntity
  8
A1
  6
CONTINUOUS
 62
7
100
AcDbLine
 10
110.4209110656250
 20
85.59975653279416
 30
0.000000000000000
 11
101.7295681145350
 21
90.61770572522524
 31
0.000000000000000
  0
LINE
  5
7E
100
AcDbEntity
  8
A1
  6
CONTINUOUS
 62
7
100
AcDbLine
 10
114.6350126807628
 20
98.06866761954861
 30
0.000000000000000
 11
114.6350126807628
 21
88.03276923468640
 31
0.000000000000000
  0
LINE
  5
7F
100
AcDbEntity
  8
A1
  6
CONTINUOUS
 62
7
100
AcDbLine
 10
113.7019999788705
 20
87.78276923468638
 30
0.000000000000000
 11
108.6840507864394
 21
96.47411218577628
 31
0.000000000000000
  0
LINE
  5
80
100
AcDbEntity
  8
A1
  6
CONTINUOUS
 62
7
100
AcDbLine
 10
123.5859745750861
 20
96.47411218577625
 30
0.000000000000000
 11
118.5680253826550
 21
87.78276923468636
 31
0.000000000000000
  0
LINE
  5
81
100
AcDbEntity
  8
A1
  6
CONTINUOUS
 62
7
100
AcDbLine
 10
117.6350126807628
 20
88.03276923468640
 30
0.000000000000000
 11
117.6350126807628
 21
98.06866761954861
 31
0.000000000000000
  0
LINE
  5
82
100
AcDbEntity
  8
A1
  6
CONTINUOUS
 62
7
100
AcDbLine
 10
130.5404572469904
 20
90.61770572522518
 30
0.000000000000000
 11
121.8491142959005
 21
85.59975653279407
 31
0.000000000000000
  0
LINE
  5
83
100
AcDbEntity
  8
A1
  6
CONTINUOUS
 62
7
100
AcDbLine
 10
121.1661015940083
 20
86.28276923468636
 30
0.000000000000000
 11
126.1840507864394
 21
94.97411218577631
 31
0.000000000000000
  0
LINE
  5
84
100
AcDbEntity
  8
A1
  6
CONTINUOUS
 62
7
100
AcDbLine
 10
123.3491142959005
 20
83.00168032144080
 30
0.000000000000000
 11
132.0404572469904
 21
88.01962951387189
 31
0.000000000000000
  0
LINE
  5
85
100
AcDbEntity
  8
A1
  6
CONTINUOUS
 62
7
100
AcDbLine
 10
133.6350126807627
 20
82.06866761954859
 30
0.000000000000000
 11
123.5991142959005
 21
82.06866761954859
 31
0.000000000000000
  0
LINE
  5
86
100
AcDbEntity
  8
A1
  6
CONTINUOUS
 62
7
100
AcDbLine
 10
132.0404572469904
 20
73.11770572522519
 30
0.000000000000000
 11
123.3491142959005
 21
78.13565491765638
 31
0.000000000000000
  0
LINE
  5
87
100
AcDbEntity
  8
A1
  6
CONTINUOUS
 62
7
100
AcDbLine
 10
123.5991142959005
 20
79.06866761954859
 30
0.000000000000000
 11
133.6350126807627
 21
79.06866761954859
 31
0.000000000000000
  0
LINE
  5
88
100
AcDbEntity
  8
A1
  6
CONTINUOUS
 62
7
100
AcDbLine
 10
126.1840507864393
 20
66.16322305332088
 30
0.000000000000000
 11
121.1661015940082
 21
74.85456600441076
 31
0.000000000000000
  0
LINE
  5
89
100
AcDbEntity
  8
A1
  6
CONTINUOUS
 62
7
100
AcDbLine
 10
121.8491142959004
 20
75.53757870630298
 30
0.000000000000000
 11
130.5404572469903
 21
70.51962951387193
 31
0.000000000000000
  0
LINE
  5
8A
100
AcDbEntity
  8
A1
  6
CONTINUOUS
 62
7
100
AcDbLine
 10
117.6350126807627
 20
63.06866761954860
 30
0.000000000000000
 11
117.6350126807628
 21
73.10456600441081
 31
0.000000000000000
  0
LINE
  5
8B
100
AcDbEntity
  8
A1
  6
CONTINUOUS
 62
7
100
AcDbLine
 10
118.5680253826549
 20
73.35456600441078
 30
0.000000000000000
 11
123.5859745750860
 21
64.66322305332089
 31
0.000000000000000
  0
LINE
  5
8C
100
AcDbEntity
  8
A1
  6
CONTINUOUS
 62
7
100
AcDbLine
 10
108.6840507864393
 20
64.66322305332089
 30
0.000000000000000
 11
113.7019999788705
 21
73.35456600441078
 31
0.000000000000000
  0
LINE
  5
8D
100
AcDbEntity
  8
A1
  6
CONTINUOUS
 62
7
100
AcDbLine
 10
114.6350126807627
 20
73.10456600441088
 30
0.000000000000000
 11
114.6350126807627
 21
63.06866761954859
 31
0.000000000000000
  0
LINE
  5
8E
100
AcDbEntity
  8
A1
  6
CONTINUOUS
 62
7
100
AcDbLine
 10
101.7295681145350
 20
70.51962951387200
 30
0.000000000000000
 11
110.4209110656250
 21
75.53757870630314
 31
0.000000000000000
  0
LINE
  5
8F
100
AcDbEntity
  8
A1
  6
CONTINUOUS
 62
7
100
AcDbLine
 10
111.1039237675172
 20
74.85456600441077
 30
0.000000000000000
 11
106.0859745750861
 21
66.16322305332088
 31
0.000000000000000
  0
LINE
  5
90
100
AcDbEntity
  8
A1
  6
CONTINUOUS
 62
7
100
AcDbLine
 10
98.63501268076277
 20
79.06866761954859
 30
0.000000000000000
 11
108.6709110656250
 21
79.06866761954859
 31
0.000000000000000
  0
LINE
  5
91
100
AcDbEntity
  8
A1
  6
CONTINUOUS
 62
7
100
AcDbLine
 10
108.9209110656250
 20
78.13565491765638
 30
0.000000000000000
 11
100.2295681145351
 21
73.11770572522526
 31
0.000000000000000
  0
LINE
  5
92
100
AcDbEntity
  8
A1
  6
CONTINUOUS
 62
7
100
AcDbLine
 10
100.2295681145351
 20
88.01962951387196
 30
0.000000000000000
 11
108.9209110656250
 21
83.00168032144077
 31
0.000000000000000
  0
LINE
  5
93
100
AcDbEntity
  8
A1
  6
CONTINUOUS
 62
7
100
AcDbLine
 10
108.6709110656250
 20
82.06866761954859
 30
0.000000000000000
 11
98.63501268076277
 21
82.06866761954859
 31
0.000000000000000
  0
LINE
  5
94
100
AcDbEntity
  8
A1
  6
CONTINUOUS
 62
7
100
AcDbLine
 10
96.13501268076271
 20
132.0686676195487
 30
0.000000000000000
 11
136.1350126807627
 21
132.0686676195487
 31
0.000000000000000
  0
LINE
  5
95
100
AcDbEntity
  8
A1
  6
CONTINUOUS
 62
7
100
AcDbLine
 10
98.57274138800743
 20
146.5686676195486
 30
0.000000000000000
 11
133.6972839735180
 21
146.5686676195486
 31
0.000000000000000
  0
CIRCLE
  5
96
100
AcDbEntity
  8
A1
  6
CONTINUOUS
 62
7
100
AcDbCircle
 10
116.1350126807627
 20
211.5686676195488
 30
0.000000000000000
 40
20.00000000000000
  0
LINE
  5
97
100
AcDbEntity
  8
A4
  6
CENTER
 62
1
100
AcDbLine
 10
137.6350126807627
 20
211.5686676195488
 30
0.000000000000000
 11
94.63501268076270
 21
211.5686676195488
 31
0.000000000000000
  0
LINE
  5
98
100
AcDbEntity
  8
A4
  6
CENTER
 62
1
100
AcDbLine
 10
116.1350126807627
 20
129.0686676195486
 30
0.000000000000000
 11
116.1350126807627
 21
163.0686676195488
 31
0.000000000000000
  0
MTEXT
  5
99
100
AcDbEntity
  8
A7
  6
CONTINUOUS
 62
3
100
AcDbMText
 10
112.3644119953129
 20
202.1946796857353
 30
0.000000000000000
 40
1.745689630508423
 41
0.000000000000000
 44
0.6720000114723490
 71
     1
 72
     1
  1
{\H0.92x;{>TPU<}}
 11
1.000000000000000
 21
0.000000000000000
 31
0.000000000000000
  7
STANDARD
  0
LINE
  5
9A
100
AcDbEntity
  8
A1
  6
CONTINUOUS
 62
7
100
AcDbLine
 10
112.1350126807627
 20
202.5686917346201
 30
0.000000000000000
 11
120.1350126807627
 21
202.5686917346201
 31
0.000000000000000
  0
LINE
  5
9B
100
AcDbEntity
  8
A1
  6
CONTINUOUS
 62
7
100
AcDbLine
 10
111.6350126807627
 20
200.5686917346201
 30
0.000000000000000
 11
111.6350126807627
 21
202.0686917346201
 31
0.000000000000000
  0
LINE
  5
9C
100
AcDbEntity
  8
A1
  6
CONTINUOUS
 62
7
100
AcDbLine
 10
120.6350126807627
 20
200.5686917346201
 30
0.000000000000000
 11
120.6350126807627
 21
202.0686917346201
 31
0.000000000000000
  0
LINE
  5
9D
100
AcDbEntity
  8
A1
  6
CONTINUOUS
 62
7
100
AcDbLine
 10
111.6350126807627
 20
220.5686917071002
 30
0.000000000000000
 11
120.6350126807627
 21
220.5686917071002
 31
0.000000000000000
  0
LINE
  5
9E
100
AcDbEntity
  8
A1
  6
CONTINUOUS
 62
7
100
AcDbLine
 10
120.6350126807627
 20
226.5686435319975
 30
0.000000000000000
 11
111.6350126807627
 21
226.5686435319975
 31
0.000000000000000
  0
LINE
  5
9F
100
AcDbEntity
  8
A1
  6
CONTINUOUS
 62
7
100
AcDbLine
 10
110.6350126807627
 20
221.5686917071002
 30
0.000000000000000
 11
110.6350126807627
 21
225.5686435319975
 31
0.000000000000000
  0
LINE
  5
A0
100
AcDbEntity
  8
A1
  6
CONTINUOUS
 62
7
100
AcDbLine
 10
121.6350126807627
 20
221.5686917071002
 30
0.000000000000000
 11
121.6350126807627
 21
225.5686435319975
 31
0.000000000000000
  0
ARC
  5
A1
100
AcDbEntity
  8
A2
  6
CONTINUOUS
 62
4
100
AcDbCircle
 10
112.8017194933423
 20
223.5686676195488
 30
0.000000000000000
 40
1.431765911236078
100
AcDbArc
 50
125.5376777920008
 51
166.5374393917331
  0
ARC
  5
A2
100
AcDbEntity
  8
A2
  6
CONTINUOUS
 62
4
100
AcDbCircle
 10
116.1350126807627
 20
218.9020571571648
 30
0.000000000000000
 40
7.166580352953972
100
AcDbArc
 50
54.46232220799912
 51
125.5376777920008
  0
ARC
  5
A3
100
AcDbEntity
  8
A2
  6
CONTINUOUS
 62
4
100
AcDbCircle
 10
119.4683058681832
 20
223.5686676195488
 30
0.000000000000000
 40
1.431765911236079
100
AcDbArc
 50
332.2496545546281
 51
414.4623222079991
  0
ARC
  5
A4
100
AcDbEntity
  8
A2
  6
CONTINUOUS
 62
4
100
AcDbCircle
 10
112.8017194933423
 20
223.5686676195488
 30
0.000000000000000
 40
1.431765911236078
100
AcDbArc
 50
180.0000000000000
 51
234.4623222080521
  0
ARC
  5
A5
100
AcDbEntity
  8
A2
  6
CONTINUOUS
 62
4
100
AcDbCircle
 10
116.1350126807627
 20
228.2352780819421
 30
0.000000000000000
 40
7.166580352953972
100
AcDbArc
 50
234.4623222080520
 51
305.5376777919479
  0
ARC
  5
A6
100
AcDbEntity
  8
A2
  6
CONTINUOUS
 62
4
100
AcDbCircle
 10
119.4683058681832
 20
223.5686676195488
 30
0.000000000000000
 40
1.431765911236079
100
AcDbArc
 50
305.5376777919479
 51
315.6988392796171
  0
LINE
  5
A7
100
AcDbEntity
  8
A2
  6
CONTINUOUS
 62
4
100
AcDbLine
 10
112.5239450610572
 20
225.0923773913095
 30
0.000000000000000
 11
112.5239450610572
 21
222.6975955353963
 31
0.000000000000000
  0
LINE
  5
A8
100
AcDbEntity
  8
A2
  6
CONTINUOUS
 62
4
100
AcDbLine
 10
113.0794939256273
 20
222.5436806422510
 30
0.000000000000000
 11
113.0794939256273
 21
224.5936545968559
 31
0.000000000000000
  0
ARC
  5
A9
100
AcDbEntity
  8
A2
  6
CONTINUOUS
 62
4
100
AcDbCircle
 10
113.3572683579123
 20
224.5936545968559
 30
0.000000000000000
 40
0.2777744322850376
100
AcDbArc
 50
116.0143659996366
 51
180.0000000000000
  0
ARC
  5
AA
100
AcDbEntity
  8
A2
  6
CONTINUOUS
 62
4
100
AcDbCircle
 10
116.1350126807627
 20
218.9020571571648
 30
0.000000000000000
 40
6.611031488383896
100
AcDbArc
 50
112.9439535565378
 51
116.0143659996366
  0
ARC
  5
AB
100
AcDbEntity
  8
A2
  6
CONTINUOUS
 62
4
100
AcDbCircle
 10
113.5794879037404
 20
224.9389078752492
 30
0.000000000000000
 40
0.05555488645700751
100
AcDbArc
 50
0.000000000000000
 51
112.9439535565375
  0
LINE
  5
AC
100
AcDbEntity
  8
A2
  6
CONTINUOUS
 62
4
100
AcDbLine
 10
113.6350427901973
 20
224.9389078752492
 30
0.000000000000000
 11
113.6350427901973
 21
222.1984273638575
 31
0.000000000000000
  0
ARC
  5
AD
100
AcDbEntity
  8
A2
  6
CONTINUOUS
 62
4
100
AcDbCircle
 10
113.5794879037404
 20
222.1984273638575
 30
0.000000000000000
 40
0.05555488645700751
100
AcDbArc
 50
247.0560464434623
 51
360.0000000000000
  0
ARC
  5
AE
100
AcDbEntity
  8
A2
  6
CONTINUOUS
 62
4
100
AcDbCircle
 10
116.1350126807627
 20
228.2352780819421
 30
0.000000000000000
 40
6.611031488383896
100
AcDbArc
 50
243.9856340003634
 51
247.0560464434622
  0
ARC
  5
AF
100
AcDbEntity
  8
A2
  6
CONTINUOUS
 62
4
100
AcDbCircle
 10
113.3572683579123
 20
222.5436806422510
 30
0.000000000000000
 40
0.2777744322850376
100
AcDbArc
 50
180.0000000000000
 51
243.9856340003634
  0
LINE
  5
B0
100
AcDbEntity
  8
A2
  6
CONTINUOUS
 62
4
100
AcDbLine
 10
114.7461405193375
 20
224.2353262570329
 30
0.000000000000000
 11
114.7461405193375
 21
225.2964221750346
 31
0.000000000000000
  0
ARC
  5
B1
100
AcDbEntity
  8
A2
  6
CONTINUOUS
 62
4
100
AcDbCircle
 10
114.6905856328805
 20
225.2964221750346
 30
0.000000000000000
 40
0.05555488645700751
100
AcDbArc
 50
0.000000000000000
 51
102.7289438731227
  0
ARC
  5
B2
100
AcDbEntity
  8
A2
  6
CONTINUOUS
 62
4
100
AcDbCircle
 10
116.1350126807627
 20
218.9020571571648
 30
0.000000000000000
 40
6.611031488383896
100
AcDbArc
 50
102.7289438731226
 51
103.2681189705562
  0
ARC
  5
B3
100
AcDbEntity
  8
A2
  6
CONTINUOUS
 62
4
100
AcDbCircle
 10
116.1350126807627
 20
218.9020571571648
 30
0.000000000000000
 40
6.611031488383896
100
AcDbArc
 50
103.2681189705562
 51
105.2575232904564
  0
ARC
  5
B4
100
AcDbEntity
  8
A2
  6
CONTINUOUS
 62
4
100
AcDbCircle
 10
114.4683660870525
 20
225.0120844950987
 30
0.000000000000000
 40
0.2777744322850376
100
AcDbArc
 50
105.2575232904564
 51
180.0000000000000
  0
LINE
  5
B5
100
AcDbEntity
  8
A2
  6
CONTINUOUS
 62
4
100
AcDbLine
 10
114.1905916547674
 20
225.0120844950987
 30
0.000000000000000
 11
114.1905916547674
 21
222.1252507440081
 31
0.000000000000000
  0
ARC
  5
B6
100
AcDbEntity
  8
A2
  6
CONTINUOUS
 62
4
100
AcDbCircle
 10
114.4683660870525
 20
222.1252507440081
 30
0.000000000000000
 40
0.2777744322850376
100
AcDbArc
 50
180.0000000000000
 51
254.7424767095436
  0
ARC
  5
B7
100
AcDbEntity
  8
A2
  6
CONTINUOUS
 62
4
100
AcDbCircle
 10
116.1350126807627
 20
228.2352780819421
 30
0.000000000000000
 40
6.611031488383896
100
AcDbArc
 50
254.7424767095436
 51
254.7937121239420
  0
ARC
  5
B8
100
AcDbEntity
  8
A2
  6
CONTINUOUS
 62
4
100
AcDbCircle
 10
116.1350126807627
 20
228.2352780819421
 30
0.000000000000000
 40
6.611031488383896
100
AcDbArc
 50
254.7937121239420
 51
257.2710561268773
  0
ARC
  5
B9
100
AcDbEntity
  8
A2
  6
CONTINUOUS
 62
4
100
AcDbCircle
 10
114.6905856328805
 20
221.8409130640722
 30
0.000000000000000
 40
0.05555488645700751
100
AcDbArc
 50
257.2710561268775
 51
360.0000000000000
  0
LINE
  5
BA
100
AcDbEntity
  8
A2
  6
CONTINUOUS
 62
4
100
AcDbLine
 10
114.7461405193375
 20
221.8409130640722
 30
0.000000000000000
 11
114.7461405193375
 21
222.9020089820648
 31
0.000000000000000
  0
LINE
  5
BB
100
AcDbEntity
  8
A2
  6
CONTINUOUS
 62
4
100
AcDbLine
 10
115.3016893839076
 20
225.4603579754653
 30
0.000000000000000
 11
115.3016893839076
 21
221.6769772636415
 31
0.000000000000000
  0
LINE
  5
BC
100
AcDbEntity
  8
A2
  6
CONTINUOUS
 62
4
100
AcDbLine
 10
115.8572382484777
 20
225.5072504703973
 30
0.000000000000000
 11
115.8572382484777
 21
221.6300847687095
 31
0.000000000000000
  0
LINE
  5
BD
100
AcDbEntity
  8
A2
  6
CONTINUOUS
 62
4
100
AcDbLine
 10
115.8572382484777
 20
223.5686676195488
 30
0.000000000000000
 11
115.3016893839076
 21
223.5686676195488
 31
0.000000000000000
  0
LINE
  5
BE
100
AcDbEntity
  8
A2
  6
CONTINUOUS
 62
4
100
AcDbLine
 10
116.4127871130477
 20
225.5072504703973
 30
0.000000000000000
 11
116.4127871130477
 21
221.6300847687095
 31
0.000000000000000
  0
LINE
  5
BF
100
AcDbEntity
  8
A2
  6
CONTINUOUS
 62
4
100
AcDbLine
 10
117.5238848421879
 20
224.2353262570329
 30
0.000000000000000
 11
117.5238848421879
 21
225.1370877725608
 31
0.000000000000000
  0
ARC
  5
C0
100
AcDbEntity
  8
A2
  6
CONTINUOUS
 62
4
100
AcDbCircle
 10
117.2461104099029
 20
225.1370877725608
 30
0.000000000000000
 40
0.2777744322850376
100
AcDbArc
 50
0.000000000000000
 51
79.89581728387491
  0
ARC
  5
C1
100
AcDbEntity
  8
A2
  6
CONTINUOUS
 62
4
100
AcDbCircle
 10
116.1350126807627
 20
218.9020571571648
 30
0.000000000000000
 40
6.611031488383896
100
AcDbArc
 50
79.89581728387498
 51
82.20707566457760
  0
ARC
  5
C2
100
AcDbEntity
  8
A2
  6
CONTINUOUS
 62
4
100
AcDbCircle
 10
117.0238908640748
 20
225.3969912641163
 30
0.000000000000000
 40
0.05555488645700751
100
AcDbArc
 50
82.20707566457730
 51
180.0000000000000
  0
LINE
  5
C3
100
AcDbEntity
  8
A2
  6
CONTINUOUS
 62
4
100
AcDbLine
 10
116.9683359776178
 20
225.3969912641163
 30
0.000000000000000
 11
116.9683359776178
 21
221.7403439749905
 31
0.000000000000000
  0
ARC
  5
C4
100
AcDbEntity
  8
A2
  6
CONTINUOUS
 62
4
100
AcDbCircle
 10
117.0238908640748
 20
221.7403439749905
 30
0.000000000000000
 40
0.05555488645700751
100
AcDbArc
 50
180.0000000000000
 51
277.7929243354228
  0
ARC
  5
C5
100
AcDbEntity
  8
A2
  6
CONTINUOUS
 62
4
100
AcDbCircle
 10
116.1350126807627
 20
228.2352780819421
 30
0.000000000000000
 40
6.611031488383896
100
AcDbArc
 50
277.7929243354224
 51
280.1041827161250
  0
ARC
  5
C6
100
AcDbEntity
  8
A2
  6
CONTINUOUS
 62
4
100
AcDbCircle
 10
117.2461104099029
 20
222.0002474665461
 30
0.000000000000000
 40
0.2777744322850376
100
AcDbArc
 50
280.1041827161250
 51
360.0000000000000
  0
LINE
  5
C7
100
AcDbEntity
  8
A2
  6
CONTINUOUS
 62
4
100
AcDbLine
 10
117.5238848421879
 20
222.0002474665461
 30
0.000000000000000
 11
117.5238848421879
 21
223.5686676195488
 31
0.000000000000000
  0
LINE
  5
C8
100
AcDbEntity
  8
A2
  6
CONTINUOUS
 62
4
100
AcDbLine
 10
117.5238848421879
 20
223.5686676195488
 30
0.000000000000000
 11
117.2461104099029
 21
223.5686676195488
 31
0.000000000000000
  0
LINE
  5
C9
100
AcDbEntity
  8
A2
  6
CONTINUOUS
 62
4
100
AcDbLine
 10
118.0794337067581
 20
225.3948525447432
 30
0.000000000000000
 11
118.0794337067581
 21
221.9166576459551
 31
0.000000000000000
  0
LINE
  5
CA
100
AcDbEntity
  8
A2
  6
CONTINUOUS
 62
4
100
AcDbLine
 10
118.6349825713281
 20
225.1331265074752
 30
0.000000000000000
 11
118.6349825713281
 21
223.8464420518339
 31
0.000000000000000
  0
ARC
  5
CB
100
AcDbEntity
  8
A2
  6
CONTINUOUS
 62
4
100
AcDbCircle
 10
118.9127570036131
 20
223.8464420518339
 30
0.000000000000000
 40
0.2777744322850389
100
AcDbArc
 50
180.0000000000000
 51
360.0000000000000
  0
LINE
  5
CC
100
AcDbEntity
  8
A2
  6
CONTINUOUS
 62
4
100
AcDbLine
 10
119.1905314358982
 20
223.8464420518339
 30
0.000000000000000
 11
119.1905314358982
 21
225.0332631628930
 31
0.000000000000000
  0
LINE
  5
CD
100
AcDbEntity
  8
A2
  6
CONTINUOUS
 62
4
100
AcDbLine
 10
118.9127570036131
 20
223.5686676195488
 30
0.000000000000000
 11
118.9127570036131
 21
222.2361219898508
 31
0.000000000000000
  0
LINE
  5
CE
100
AcDbEntity
  8
A2
  6
CONTINUOUS
 62
4
100
AcDbLine
 10
119.4733976025087
 20
222.5290601177680
 30
0.000000000000000
 11
120.1009792109713
 21
224.8712265664387
 31
0.000000000000000
  0
LINE
  5
CF
100
AcDbEntity
  8
A2
  6
CONTINUOUS
 62
4
100
AcDbLine
 10
120.9000717794192
 20
223.5686676195488
 30
0.000000000000000
 11
119.7519595930572
 21
223.5686676195488
 31
0.000000000000000
  0
ARC
  5
D0
100
AcDbEntity
  8
A1
  6
CONTINUOUS
 62
7
100
AcDbCircle
 10
120.1350126807627
 20
200.5686917346201
 30
0.000000000000000
 40
0.5000000000000000
100
AcDbArc
 50
270.0000000000000
 51
360.0000000000000
  0
ARC
  5
D1
100
AcDbEntity
  8
A1
  6
CONTINUOUS
 62
7
100
AcDbCircle
 10
120.1350126807627
 20
202.0686917346201
 30
0.000000000000000
 40
0.5000000000000000
100
AcDbArc
 50
0.000000000000000
 51
90.00000000000000
  0
ARC
  5
D2
100
AcDbEntity
  8
A1
  6
CONTINUOUS
 62
7
100
AcDbCircle
 10
112.1350126807627
 20
202.0686917346201
 30
0.000000000000000
 40
0.5000000000000000
100
AcDbArc
 50
90.00000000000000
 51
180.0000000000000
  0
ARC
  5
D3
100
AcDbEntity
  8
A1
  6
CONTINUOUS
 62
7
100
AcDbCircle
 10
112.1350126807627
 20
200.5686917346201
 30
0.000000000000000
 40
0.5000000000000000
100
AcDbArc
 50
180.0000000000000
 51
270.0000000000000
  0
ARC
  5
D4
100
AcDbEntity
  8
A1
  6
CONTINUOUS
 62
7
100
AcDbCircle
 10
120.6350126807627
 20
221.5686917071002
 30
0.000000000000000
 40
1.000000000000000
100
AcDbArc
 50
270.0000000000000
 51
360.0000000000000
  0
ARC
  5
D5
100
AcDbEntity
  8
A1
  6
CONTINUOUS
 62
7
100
AcDbCircle
 10
120.6350126807627
 20
225.5686435319975
 30
0.000000000000000
 40
1.000000000000000
100
AcDbArc
 50
0.000000000000000
 51
90.00000000000000
  0
ARC
  5
D6
100
AcDbEntity
  8
A1
  6
CONTINUOUS
 62
7
100
AcDbCircle
 10
111.6350126807627
 20
225.5686435319975
 30
0.000000000000000
 40
1.000000000000000
100
AcDbArc
 50
90.00000000000000
 51
180.0000000000000
  0
ARC
  5
D7
100
AcDbEntity
  8
A1
  6
CONTINUOUS
 62
7
100
AcDbCircle
 10
111.6350126807627
 20
221.5686917071002
 30
0.000000000000000
 40
1.000000000000000
100
AcDbArc
 50
180.0000000000000
 51
270.0000000000000
  0
MTEXT
  5
D8
100
AcDbEntity
  8
A7
  6
CONTINUOUS
 62
3
100
AcDbMText
 10
115.4849009888096
 20
199.5218167346201
 30
0.000000000000000
 40
1.406250000000000
 41
0.000000000000000
 44
0.6720000203450521
 71
     1
 72
     1
  1
{\H0.81x;{1}}
 11
1.000000000000000
 21
0.000000000000000
 31
0.000000000000000
  7
STANDARD
  0
LINE
  5
D9
100
AcDbEntity
  8
A1
  6
CONTINUOUS
 62
7
100
AcDbLine
 10
117.3850126807627
 20
198.0686917346201
 30
0.000000000000000
 11
117.3850126807627
 21
199.5686917346199
 31
0.000000000000000
  0
LINE
  5
DA
100
AcDbEntity
  8
A1
  6
CONTINUOUS
 62
7
100
AcDbLine
 10
114.8850126807627
 20
198.0686917346201
 30
0.000000000000000
 11
114.8850126807627
 21
199.5686917346201
 31
0.000000000000000
  0
LINE
  5
DB
100
AcDbEntity
  8
A1
  6
CONTINUOUS
 62
7
100
AcDbLine
 10
116.8850126807627
 20
197.5686917346201
 30
0.000000000000000
 11
115.3850126807627
 21
197.5686917346201
 31
0.000000000000000
  0
ARC
  5
DC
100
AcDbEntity
  8
A1
  6
CONTINUOUS
 62
7
100
AcDbCircle
 10
115.3850126807627
 20
198.0686917346201
 30
0.000000000000000
 40
0.5000000000000000
100
AcDbArc
 50
180.0000000000000
 51
270.0000000000000
  0
ARC
  5
DD
100
AcDbEntity
  8
A1
  6
CONTINUOUS
 62
7
100
AcDbCircle
 10
116.8850126807627
 20
198.0686917346201
 30
0.000000000000000
 40
0.5000000000000000
100
AcDbArc
 50
270.0000000000000
 51
360.0000000000000
  0
LINE
  5
DE
100
AcDbEntity
  8
A1
  6
CONTINUOUS
 62
7
100
AcDbLine
 10
120.1350126807627
 20
200.0686917346200
 30
0.000000000000000
 11
117.8850126807627
 21
200.0686917346198
 31
0.000000000000000
  0
LINE
  5
DF
100
AcDbEntity
  8
A1
  6
CONTINUOUS
 62
7
100
AcDbLine
 10
112.1350126807627
 20
200.0686917346201
 30
0.000000000000000
 11
114.3850126807627
 21
200.0686917346201
 31
0.000000000000000
  0
ARC
  5
E0
100
AcDbEntity
  8
A1
  6
CONTINUOUS
 62
7
100
AcDbCircle
 10
117.8850126807628
 20
199.5686917346199
 30
0.000000000000000
 40
0.5000000000000000
100
AcDbArc
 50
90.00000000000000
 51
180.0000000000000
  0
ARC
  5
E1
100
AcDbEntity
  8
A1
  6
CONTINUOUS
 62
7
100
AcDbCircle
 10
114.3850126807627
 20
199.5686917346201
 30
0.000000000000000
 40
0.5000000000000000
100
AcDbArc
 50
0.000000000000000
 51
90.00000000000000
  0
CIRCLE
  5
E2
100
AcDbEntity
  8
A1
  6
CONTINUOUS
 62
7
100
AcDbCircle
 10
116.1350126807627
 20
211.5686676195488
 30
0.000000000000000
 40
5.000000000000000
  0
CIRCLE
  5
E3
100
AcDbEntity
  8
A2
  6
CONTINUOUS
 62
4
100
AcDbCircle
 10
116.1350126807627
 20
211.5686676195488
 30
0.000000000000000
 40
4.187999999999846
  0
CIRCLE
  5
E4
100
AcDbEntity
  8
A1
  6
CONTINUOUS
 62
7
100
AcDbCircle
 10
116.1350126807627
 20
211.5686676195488
 30
0.000000000000000
 40
3.500000000000000
  0
LINE
  5
E5
100
AcDbEntity
  8
A1
  6
CONTINUOUS
 62
7
100
AcDbLine
 10
121.1350126807627
 20
146.5686676195486
 30
0.000000000000000
 11
121.1350126807627
 21
160.0686676195488
 31
0.000000000000000
  0
LINE
  5
E6
100
AcDbEntity
  8
A1
  6
CONTINUOUS
 62
7
100
AcDbLine
 10
111.1350126807627
 20
146.5686676195486
 30
0.000000000000000
 11
111.1350126807627
 21
160.0686676195488
 31
0.000000000000000
  0
LINE
  5
E7
100
AcDbEntity
  8
A2
  6
CONTINUOUS
 62
4
100
AcDbLine
 10
120.3230126807626
 20
146.5686676195486
 30
0.000000000000000
 11
120.3230126807626
 21
160.8806676195490
 31
0.000000000000000
  0
LINE
  5
E8
100
AcDbEntity
  8
A2
  6
CONTINUOUS
 62
4
100
AcDbLine
 10
111.9470126807625
 20
146.5686676195486
 30
0.000000000000000
 11
111.9470126807625
 21
160.8806676195486
 31
0.000000000000000
  0
LINE
  5
E9
100
AcDbEntity
  8
A1
  6
CONTINUOUS
 62
7
100
AcDbLine
 10
121.1350126807627
 20
160.0686676195488
 30
0.000000000000000
 11
119.6350126807627
 21
161.5686676195488
 31
0.000000000000000
  0
LINE
  5
EA
100
AcDbEntity
  8
A1
  6
CONTINUOUS
 62
7
100
AcDbLine
 10
112.6350126807627
 20
161.5686676195488
 30
0.000000000000000
 11
111.1350126807627
 21
160.0686676195489
 31
0.000000000000000
  0
LINE
  5
EB
100
AcDbEntity
  8
A1
  6
CONTINUOUS
 62
7
100
AcDbLine
 10
121.1350126807627
 20
160.0686676195488
 30
0.000000000000000
 11
111.1350126807627
 21
160.0686676195488
 31
0.000000000000000
  0
LINE
  5
EC
100
AcDbEntity
  8
A1
  6
CONTINUOUS
 62
7
100
AcDbLine
 10
112.6350126807627
 20
161.5686676195488
 30
0.000000000000000
 11
119.6350126807627
 21
161.5686676195488
 31
0.000000000000000
  0
CIRCLE
  5
ED
100
AcDbEntity
  8
A1
  6
CONTINUOUS
 62
7
100
AcDbCircle
 10
116.1350126807627
 20
211.5686676195488
 30
0.000000000000000
 40
6.000000000000000
  0
LINE
  5
EE
100
AcDbEntity
  8
A4
  6
CENTER
 62
1
100
AcDbLine
 10
116.1350126807627
 20
190.0686676195488
 30
0.000000000000000
 11
116.1350126807627
 21
196.6155667346201
 31
0.000000000000000
  0
LINE
  5
EF
100
AcDbEntity
  8
A4
  6
CENTER
 62
1
100
AcDbLine
 10
116.1350126807627
 20
203.6946796857353
 30
0.000000000000000
 11
116.1350126807627
 21
219.8186977289880
 31
0.000000000000000
  0
LINE
  5
F0
100
AcDbEntity
  8
A4
  6
CENTER
 62
1
100
AcDbLine
 10
116.1350126807627
 20
227.3186375101096
 30
0.000000000000000
 11
116.1350126807627
 21
233.0686676195487
 31
0.000000000000000
  0
LINE
  5
F1
100
AcDbEntity
  8
A1
  6
CONTINUOUS
 62
7
100
AcDbLine
 10
114.6088300833704
 20
132.0686676195486
 30
0.000000000000000
 11
114.6350126807627
 21
130.5686676195486
 31
0.000000000000000
  0
LINE
  5
F2
100
AcDbEntity
  8
A1
  6
CONTINUOUS
 62
7
100
AcDbLine
 10
117.6611952781551
 20
132.0686676195486
 30
0.000000000000000
 11
117.6350126807627
 21
130.5686676195486
 31
0.000000000000000
  0
LINE
  5
F3
100
AcDbEntity
  8
A1
  6
CONTINUOUS
 62
7
100
AcDbLine
 10
105.8588300833704
 20
132.0686676195486
 30
0.000000000000000
 11
105.8850126807627
 21
130.5686676195486
 31
0.000000000000000
  0
LINE
  5
F4
100
AcDbEntity
  8
A1
  6
CONTINUOUS
 62
7
100
AcDbLine
 10
126.3850126807627
 20
130.5686676195485
 30
0.000000000000000
 11
126.4111952781550
 21
132.0686676195486
 31
0.000000000000000
  0
LINE
  5
F5
100
AcDbEntity
  8
A1
  6
CONTINUOUS
 62
7
100
AcDbLine
 10
99.45338551714275
 20
132.0686676195486
 30
0.000000000000000
 11
99.47956811453506
 21
130.5686676195486
 31
0.000000000000000
  0
LINE
  5
F6
100
AcDbEntity
  8
A1
  6
CONTINUOUS
 62
7
100
AcDbLine
 10
132.7904572469905
 20
130.5686676195486
 30
0.000000000000000
 11
132.8166398443828
 21
132.0686676195486
 31
0.000000000000000
  0
LINE
  5
F7
100
AcDbEntity
  8
A1
  6
CONTINUOUS
 62
7
100
AcDbLine
 10
97.10883008337039
 20
132.0686676195486
 30
0.000000000000000
 11
97.13501268076273
 21
130.5686676195486
 31
0.000000000000000
  0
LINE
  5
F8
100
AcDbEntity
  8
A1
  6
CONTINUOUS
 62
7
100
AcDbLine
 10
135.1350126807627
 20
130.5686676195486
 30
0.000000000000000
 11
97.13501268076274
 21
130.5686676195486
 31
0.000000000000000
  0
LINE
  5
F9
100
AcDbEntity
  8
A1
  6
CONTINUOUS
 62
7
100
AcDbLine
 10
135.1350126807627
 20
130.5686676195486
 30
0.000000000000000
 11
135.1611952781550
 21
132.0686676195486
 31
0.000000000000000
  0
LINE
  5
FA
100
AcDbEntity
  8
A1
  6
CONTINUOUS
 62
7
100
AcDbLine
 10
135.6960656275562
 20
144.6384666129537
 30
0.000000000000000
 11
136.1350126807627
 21
132.0686676195487
 31
0.000000000000000
  0
ARC
  5
FB
100
AcDbEntity
  8
A1
  6
CONTINUOUS
 62
7
100
AcDbCircle
 10
133.6972839735180
 20
144.5686676195487
 30
0.000000000000000
 40
2.000000000000000
100
AcDbArc
 50
2.000000000000588
 51
90.00000000000020
  0
LINE
  5
FC
100
AcDbEntity
  8
A1
  6
CONTINUOUS
 62
7
100
AcDbLine
 10
96.57395973396928
 20
144.6384666129537
 30
0.000000000000000
 11
96.13501268076286
 21
132.0686676195486
 31
0.000000000000000
  0
ARC
  5
FD
100
AcDbEntity
  8
A1
  6
CONTINUOUS
 62
7
100
AcDbCircle
 10
98.57274138800743
 20
144.5686676195486
 30
0.000000000000000
 40
2.000000000000000
100
AcDbArc
 50
90.00000000000000
 51
177.9999999999996
  0
ENDSEC
  0
SECTION
  2
OBJECTS
  0
DICTIONARY
  5
132
100
AcDbDictionary
  3
ACAD_GROUP
350
133
  3
ACAD_LAYOUT
350
134
  3
ACAD_MLINESTYLE
350
135
  0
DICTIONARY
  5
133
102
{ACAD_REACTORS
330
132
102
}
330
132
100
AcDbDictionary
  0
DICTIONARY
  5
134
102
{ACAD_REACTORS
330
132
102
}
330
132
100
AcDbDictionary
  3
Model
350
136
  3
ﾚｲｱｳﾄ1
350
137
  3
ﾚｲｱｳﾄ2
350
138
  0
DICTIONARY
  5
135
102
{ACAD_REACTORS
330
132
102
}
330
132
100
AcDbDictionary
  3
STANDARD
350
139
  0
LAYOUT
  5
136
102
{ACAD_REACTORS
330
134
102
}
330
134
100
AcDbPlotSettings
 70
11952
  4
A3
 44
297.000000
 45
420.000000
 73
  1
 72
  1
100
AcDbLayout
  1
Model
 71
0
330
129
  0
LAYOUT
  5
137
102
{ACAD_REACTORS
330
134
102
}
330
134
100
AcDbPlotSettings
100
AcDbLayout
  1
ﾚｲｱｳﾄ1
 71
1
330
12A
  0
LAYOUT
  5
138
102
{ACAD_REACTORS
330
134
102
}
330
134
100
AcDbPlotSettings
100
AcDbLayout
  1
ﾚｲｱｳﾄ2
 71
2
330
12B
  0
MLINESTYLE
  5
139
102
{ACAD_REACTORS
330
135
102
}
330
135
100
AcDbMlineStyle
  2
STANDARD
 70
     0
  3

 62
   256
 51
90.00
 52
90.00
 71
     2
 49
0.50
 62
   256
  6
BYLAYER
 49
-0.50
 62
   256
  6
BYLAYER
  0
ENDSEC
  0
EOF
