  0
SECTION
  2
HEADER
  9
$ACADVER
  1
AC1015
  9
$ACADMAINTVER
 70
    20
  9
$DWGCODEPAGE
  3
ANSI_932
  9
$INSBASE
 10
0.0
 20
0.0
 30
0.0
  9
$EXTMIN
 10
9.999999064246615
 20
9.999999806846744
 30
0.0
  9
$EXTMAX
 10
1219.613865378345
 20
322.4075054827898
 30
0.0
  9
$LIMMIN
 10
0.0000015376081137
 20
-0.0000001931532552
  9
$LIMMAX
 10
1242.000001537608
 20
856.2272725341189
  9
$ORTHOMODE
 70
     0
  9
$REGENMODE
 70
     1
  9
$FILLMODE
 70
     1
  9
$QTEXTMODE
 70
     0
  9
$MIRRTEXT
 70
     1
  9
$LTSCALE
 40
1.0
  9
$ATTMODE
 70
     1
  9
$TEXTSIZE
 40
2.5
  9
$TRACEWID
 40
1.0
  9
$TEXTSTYLE
  7
STANDARD
  9
$CLAYER
  8
0
  9
$CELTYPE
  6
ByLayer
  9
$CECOLOR
 62
   256
  9
$CELTSCALE
 40
1.0
  9
$DISPSILH
 70
     0
  9
$DIMSCALE
 40
1.0
  9
$DIMASZ
 40
3.0
  9
$DIMEXO
 40
1.0
  9
$DIMDLI
 40
10.0
  9
$DIMRND
 40
0.0
  9
$DIMDLE
 40
0.0
  9
$DIMEXE
 40
1.0
  9
$DIMTP
 40
0.0
  9
$DIMTM
 40
0.0
  9
$DIMTXT
 40
3.2
  9
$DIMCEN
 40
0.0
  9
$DIMTSZ
 40
0.0
  9
$DIMTOL
 70
     0
  9
$DIMLIM
 70
     0
  9
$DIMTIH
 70
     0
  9
$DIMTOH
 70
     0
  9
$DIMSE1
 70
     0
  9
$DIMSE2
 70
     0
  9
$DIMTAD
 70
     3
  9
$DIMZIN
 70
     8
  9
$DIMBLK
  1

  9
$DIMASO
 70
     1
  9
$DIMSHO
 70
     1
  9
$DIMPOST
  1

  9
$DIMAPOST
  1

  9
$DIMALT
 70
     0
  9
$DIMALTD
 70
     2
  9
$DIMALTF
 40
25.4
  9
$DIMLFAC
 40
1.0
  9
$DIMTOFL
 70
     1
  9
$DIMTVP
 40
0.0
  9
$DIMTIX
 70
     0
  9
$DIMSOXD
 70
     0
  9
$DIMSAH
 70
     1
  9
$DIMBLK1
  1
OPEN
  9
$DIMBLK2
  1
OPEN
  9
$DIMSTYLE
  2
STANDARD
  9
$DIMCLRD
 70
     0
  9
$DIMCLRE
 70
     0
  9
$DIMCLRT
 70
     0
  9
$DIMTFAC
 40
1.0
  9
$DIMGAP
 40
1.0
  9
$DIMJUST
 70
     0
  9
$DIMSD1
 70
     0
  9
$DIMSD2
 70
     0
  9
$DIMTOLJ
 70
     1
  9
$DIMTZIN
 70
     0
  9
$DIMALTZ
 70
     0
  9
$DIMALTTZ
 70
     0
  9
$DIMUPT
 70
     0
  9
$DIMDEC
 70
     4
  9
$DIMTDEC
 70
     4
  9
$DIMALTU
 70
     2
  9
$DIMALTTD
 70
     2
  9
$DIMTXSTY
  7
STANDARD
  9
$DIMAUNIT
 70
     0
  9
$DIMADEC
 70
     0
  9
$DIMALTRND
 40
0.0
  9
$DIMAZIN
 70
     0
  9
$DIMDSEP
 70
    46
  9
$DIMATFIT
 70
     3
  9
$DIMFRAC
 70
     0
  9
$DIMLDRBLK
  1
OPEN
  9
$DIMLUNIT
 70
     2
  9
$DIMLWD
 70
    -2
  9
$DIMLWE
 70
    -2
  9
$DIMTMOVE
 70
     0
  9
$LUNITS
 70
     2
  9
$LUPREC
 70
     4
  9
$SKETCHINC
 40
1.0
  9
$FILLETRAD
 40
0.0
  9
$AUNITS
 70
     0
  9
$AUPREC
 70
     0
  9
$MENU
  1
.
  9
$ELEVATION
 40
0.0
  9
$PELEVATION
 40
0.0
  9
$THICKNESS
 40
0.0
  9
$LIMCHECK
 70
     0
  9
$CHAMFERA
 40
10.0
  9
$CHAMFERB
 40
10.0
  9
$CHAMFERC
 40
0.0
  9
$CHAMFERD
 40
0.0
  9
$SKPOLY
 70
     0
  9
$TDCREATE
 40
2456276.683721007
  9
$TDUCREATE
 40
2456276.308721007
  9
$TDUPDATE
 40
2457192.664134236
  9
$TDUUPDATE
 40
2457192.289134236
  9
$TDINDWG
 40
0.0176483333
  9
$TDUSRTIMER
 40
0.0176483333
  9
$USRTIMER
 70
     1
  9
$ANGBASE
 50
0.0
  9
$ANGDIR
 70
     0
  9
$PDMODE
 70
     0
  9
$PDSIZE
 40
0.0
  9
$PLINEWID
 40
0.0
  9
$SPLFRAME
 70
     0
  9
$SPLINETYPE
 70
     6
  9
$SPLINESEGS
 70
     8
  9
$HANDSEED
  5
A08
  9
$SURFTAB1
 70
     6
  9
$SURFTAB2
 70
     6
  9
$SURFTYPE
 70
     6
  9
$SURFU
 70
     6
  9
$SURFV
 70
     6
  9
$UCSBASE
  2

  9
$UCSNAME
  2

  9
$UCSORG
 10
0.0
 20
0.0
 30
0.0
  9
$UCSXDIR
 10
1.0
 20
0.0
 30
0.0
  9
$UCSYDIR
 10
0.0
 20
1.0
 30
0.0
  9
$UCSORTHOREF
  2

  9
$UCSORTHOVIEW
 70
     0
  9
$UCSORGTOP
 10
0.0
 20
0.0
 30
0.0
  9
$UCSORGBOTTOM
 10
0.0
 20
0.0
 30
0.0
  9
$UCSORGLEFT
 10
0.0
 20
0.0
 30
0.0
  9
$UCSORGRIGHT
 10
0.0
 20
0.0
 30
0.0
  9
$UCSORGFRONT
 10
0.0
 20
0.0
 30
0.0
  9
$UCSORGBACK
 10
0.0
 20
0.0
 30
0.0
  9
$PUCSBASE
  2

  9
$PUCSNAME
  2

  9
$PUCSORG
 10
0.0
 20
0.0
 30
0.0
  9
$PUCSXDIR
 10
1.0
 20
0.0
 30
0.0
  9
$PUCSYDIR
 10
0.0
 20
1.0
 30
0.0
  9
$PUCSORTHOREF
  2

  9
$PUCSORTHOVIEW
 70
     0
  9
$PUCSORGTOP
 10
0.0
 20
0.0
 30
0.0
  9
$PUCSORGBOTTOM
 10
0.0
 20
0.0
 30
0.0
  9
$PUCSORGLEFT
 10
0.0
 20
0.0
 30
0.0
  9
$PUCSORGRIGHT
 10
0.0
 20
0.0
 30
0.0
  9
$PUCSORGFRONT
 10
0.0
 20
0.0
 30
0.0
  9
$PUCSORGBACK
 10
0.0
 20
0.0
 30
0.0
  9
$USERI1
 70
     0
  9
$USERI2
 70
     0
  9
$USERI3
 70
     0
  9
$USERI4
 70
     0
  9
$USERI5
 70
     0
  9
$USERR1
 40
0.0
  9
$USERR2
 40
0.0
  9
$USERR3
 40
0.0
  9
$USERR4
 40
0.0
  9
$USERR5
 40
0.0
  9
$WORLDVIEW
 70
     1
  9
$SHADEDGE
 70
     3
  9
$SHADEDIF
 70
    70
  9
$TILEMODE
 70
     1
  9
$MAXACTVP
 70
    48
  9
$PINSBASE
 10
0.0
 20
0.0
 30
0.0
  9
$PLIMCHECK
 70
     0
  9
$PEXTMIN
 10
1.000000000000000E+20
 20
1.000000000000000E+20
 30
1.000000000000000E+20
  9
$PEXTMAX
 10
-1.000000000000000E+20
 20
-1.000000000000000E+20
 30
-1.000000000000000E+20
  9
$PLIMMIN
 10
0.0
 20
0.0
  9
$PLIMMAX
 10
420.0
 20
297.0
  9
$UNITMODE
 70
     0
  9
$VISRETAIN
 70
     1
  9
$PLINEGEN
 70
     0
  9
$PSLTSCALE
 70
     1
  9
$TREEDEPTH
 70
  3020
  9
$CMLSTYLE
  2
Standard
  9
$CMLJUST
 70
     0
  9
$CMLSCALE
 40
1.0
  9
$PROXYGRAPHICS
 70
     1
  9
$MEASUREMENT
 70
     0
  9
$CELWEIGHT
370
    -1
  9
$ENDCAPS
280
     0
  9
$JOINSTYLE
280
     0
  9
$LWDISPLAY
290
     0
  9
$INSUNITS
 70
     0
  9
$HYPERLINKBASE
  1

  9
$STYLESHEET
  1

  9
$XEDIT
290
     1
  9
$CEPSNTYPE
380
     0
  9
$PSTYLEMODE
290
     1
  9
$FINGERPRINTGUID
  2
{AD9A22BB-7873-470C-AB71-1FA40287A7FE}
  9
$VERSIONGUID
  2
{FDBC991A-0293-4C54-BEE1-D5D5B624DA3C}
  9
$EXTNAMES
290
     1
  9
$PSVPSCALE
 40
0.0
  9
$OLESTARTUP
290
     0
  0
ENDSEC
  0
SECTION
  2
CLASSES
  0
CLASS
  1
ACDBDICTIONARYWDFLT
  2
AcDbDictionaryWithDefault
  3
ObjectDBX Classes
 90
        0
280
     0
281
     0
  0
CLASS
  1
MATERIAL
  2
AcDbMaterial
  3
ObjectDBX Classes
 90
     1153
280
     0
281
     0
  0
CLASS
  1
VISUALSTYLE
  2
AcDbVisualStyle
  3
ObjectDBX Classes
 90
     4095
280
     0
281
     0
  0
CLASS
  1
SCALE
  2
AcDbScale
  3
ObjectDBX Classes
 90
     1153
280
     0
281
     0
  0
CLASS
  1
TABLESTYLE
  2
AcDbTableStyle
  3
ObjectDBX Classes
 90
     4095
280
     0
281
     0
  0
CLASS
  1
MLEADERSTYLE
  2
AcDbMLeaderStyle
  3
ACDB_MLEADERSTYLE_CLASS
 90
     4095
280
     0
281
     0
  0
CLASS
  1
ACDBSECTIONVIEWSTYLE
  2
AcDbSectionViewStyle
  3
ObjectDBX Classes
 90
     1025
280
     0
281
     0
  0
CLASS
  1
ACDBDETAILVIEWSTYLE
  2
AcDbDetailViewStyle
  3
ObjectDBX Classes
 90
     1025
280
     0
281
     0
  0
CLASS
  1
DICTIONARYVAR
  2
AcDbDictionaryVar
  3
ObjectDBX Classes
 90
        0
280
     0
281
     0
  0
CLASS
  1
CELLSTYLEMAP
  2
AcDbCellStyleMap
  3
ObjectDBX Classes
 90
     1152
280
     0
281
     0
  0
CLASS
  1
ACDBPLACEHOLDER
  2
AcDbPlaceHolder
  3
ObjectDBX Classes
 90
        0
280
     0
281
     0
  0
CLASS
  1
LAYOUT
  2
AcDbLayout
  3
ObjectDBX Classes
 90
        0
280
     0
281
     0
  0
ENDSEC
  0
SECTION
  2
TABLES
  0
TABLE
  2
VPORT
  5
92B
330
0
100
AcDbSymbolTable
 70
     1
  0
VPORT
  5
996
330
92B
100
AcDbSymbolTableRecord
100
AcDbViewportTableRecord
  2
*ACTIVE
 70
     0
 10
0.0
 20
0.0
 11
1.0
 21
1.0
 12
941.8900195248172
 22
166.1932238881798
 13
0.0
 23
0.0
 14
10.0
 24
10.0
 15
10.0
 25
10.0
 16
0.0
 26
0.0
 36
1.0
 17
0.0
 27
0.0
 37
0.0
 40
795.8189312565365
 41
1.899603698811096
 42
50.0
 43
0.0
 44
0.0
 50
0.0
 51
0.0
 71
     0
 72
   100
 73
     1
 74
     0
 75
     0
 76
     0
 77
     0
 78
     0
281
     0
 65
     1
110
0.0
120
0.0
130
0.0
111
1.0
121
0.0
131
0.0
112
0.0
122
1.0
132
0.0
 79
     0
146
0.0
1001
ACAD_NAV_VCDISPLAY
1070
     3
  0
ENDTAB
  0
TABLE
  2
LTYPE
  5
928
330
0
100
AcDbSymbolTable
 70
     4
  0
LTYPE
  5
97D
330
928
100
AcDbSymbolTableRecord
100
AcDbLinetypeTableRecord
  2
ByBlock
 70
     0
  3

 72
    65
 73
     0
 40
0.0
  0
LTYPE
  5
97E
330
928
100
AcDbSymbolTableRecord
100
AcDbLinetypeTableRecord
  2
ByLayer
 70
     0
  3

 72
    65
 73
     0
 40
0.0
  0
LTYPE
  5
97F
330
928
100
AcDbSymbolTableRecord
100
AcDbLinetypeTableRecord
  2
CONTINUOUS
 70
     0
  3
Solid line
 72
    65
 73
     0
 40
0.0
  0
LTYPE
  5
997
330
928
100
AcDbSymbolTableRecord
100
AcDbLinetypeTableRecord
  2
DASHED
 70
     0
  3
Dashed __ __ __ __ __ __ __ __ __ __ __ __ __ _
 72
    65
 73
     2
 40
19.04999999999999
 49
12.7
 74
     0
 49
-6.349999999999998
 74
     0
  0
LTYPE
  5
998
330
928
100
AcDbSymbolTableRecord
100
AcDbLinetypeTableRecord
  2
CENTER
 70
     0
  3
Center ____ _ ____ _ ____ _ ____ _ ____ _ ____
 72
    65
 73
     4
 40
50.8
 49
31.75
 74
     0
 49
-6.349999999999998
 74
     0
 49
6.349999999999998
 74
     0
 49
-6.349999999999998
 74
     0
  0
LTYPE
  5
999
330
928
100
AcDbSymbolTableRecord
100
AcDbLinetypeTableRecord
  2
PHANTOM
 70
     0
  3
Phantom ______  __  __  ______  __  __  ______
 72
    65
 73
     6
 40
63.5
 49
31.75
 74
     0
 49
-6.349999999999998
 74
     0
 49
6.349999999999998
 74
     0
 49
-6.349999999999998
 74
     0
 49
6.349999999999998
 74
     0
 49
-6.349999999999998
 74
     0
  0
ENDTAB
  0
TABLE
  2
LAYER
  5
925
330
0
100
AcDbSymbolTable
 70
     8
  0
LAYER
  5
977
102
{ACAD_XDICTIONARY
360
9AC
102
}
330
925
100
AcDbSymbolTableRecord
100
AcDbLayerTableRecord
  2
0
 70
     0
 62
     7
  6
CONTINUOUS
370
    -3
390
932
  0
LAYER
  5
99A
102
{ACAD_XDICTIONARY
360
9AE
102
}
330
925
100
AcDbSymbolTableRecord
100
AcDbLayerTableRecord
  2
4
 70
     0
 62
     1
  6
CENTER
370
    -3
390
932
  0
LAYER
  5
99B
102
{ACAD_XDICTIONARY
360
9B0
102
}
330
925
100
AcDbSymbolTableRecord
100
AcDbLayerTableRecord
  2
5
 70
     0
 62
     6
  6
PHANTOM
370
    -3
390
932
  0
LAYER
  5
99C
102
{ACAD_XDICTIONARY
360
9B2
102
}
330
925
100
AcDbSymbolTableRecord
100
AcDbLayerTableRecord
  2
1
 70
     0
 62
     7
  6
CONTINUOUS
370
    -3
390
932
  0
LAYER
  5
99D
102
{ACAD_XDICTIONARY
360
9B4
102
}
330
925
100
AcDbSymbolTableRecord
100
AcDbLayerTableRecord
  2
2
 70
     0
 62
     4
  6
CONTINUOUS
370
    -3
390
932
  0
LAYER
  5
99E
102
{ACAD_XDICTIONARY
360
9B6
102
}
330
925
100
AcDbSymbolTableRecord
100
AcDbLayerTableRecord
  2
3
 70
     0
 62
     2
  6
DASHED
370
    -3
390
932
  0
LAYER
  5
99F
102
{ACAD_XDICTIONARY
360
9B8
102
}
330
925
100
AcDbSymbolTableRecord
100
AcDbLayerTableRecord
  2
6
 70
     0
 62
     5
  6
CONTINUOUS
370
    -3
390
932
  0
LAYER
  5
9A0
102
{ACAD_XDICTIONARY
360
9BA
102
}
330
925
100
AcDbSymbolTableRecord
100
AcDbLayerTableRecord
  2
7
 70
     0
 62
     3
  6
CONTINUOUS
370
    -3
390
932
  0
ENDTAB
  0
TABLE
  2
STYLE
  5
926
330
0
100
AcDbSymbolTable
 70
     2
  0
STYLE
  5
978
330
926
100
AcDbSymbolTableRecord
100
AcDbTextStyleTableRecord
  2
STANDARD
 70
     0
 40
0.0
 41
1.0
 50
0.0
 71
     0
 42
2.5
  3
simplex.shx
  4

  0
STYLE
  5
97C
330
926
100
AcDbSymbolTableRecord
100
AcDbTextStyleTableRecord
  2
Annotative
 70
     0
 40
0.0
 41
1.0
 50
0.0
 71
     0
 42
0.2
  3
txt
  4

1001
AcadAnnotative
1000
AnnotativeData
1002
{
1070
     1
1070
     1
1002
}
  0
ENDTAB
  0
TABLE
  2
VIEW
  5
929
330
0
100
AcDbSymbolTable
 70
     0
  0
ENDTAB
  0
TABLE
  2
UCS
  5
92A
330
0
100
AcDbSymbolTable
 70
     0
  0
ENDTAB
  0
TABLE
  2
APPID
  5
92C
330
0
100
AcDbSymbolTable
 70
     6
  0
APPID
  5
979
330
92C
100
AcDbSymbolTableRecord
100
AcDbRegAppTableRecord
  2
ACAD
 70
     0
  0
APPID
  5
980
330
92C
100
AcDbSymbolTableRecord
100
AcDbRegAppTableRecord
  2
AcadAnnotative
 70
     0
  0
APPID
  5
9A1
330
92C
100
AcDbSymbolTableRecord
100
AcDbRegAppTableRecord
  2
CONTENTTABDATA
 70
     0
  0
APPID
  5
9A2
330
92C
100
AcDbSymbolTableRecord
100
AcDbRegAppTableRecord
  2
CONTENTCURRENTTAB
 70
     0
  0
APPID
  5
9C6
330
92C
100
AcDbSymbolTableRecord
100
AcDbRegAppTableRecord
  2
ACAD_NAV_VCDISPLAY
 70
     0
  0
APPID
  5
9FF
330
92C
100
AcDbSymbolTableRecord
100
AcDbRegAppTableRecord
  2
ACAD_MLEADERVER
 70
     0
  0
ENDTAB
  0
TABLE
  2
DIMSTYLE
  5
92D
330
0
100
AcDbSymbolTable
 70
     2
100
AcDbDimStyleTable
 71
     0
  0
DIMSTYLE
105
97A
330
92D
100
AcDbSymbolTableRecord
100
AcDbDimStyleTableRecord
  2
STANDARD
 70
     0
 41
3.0
 42
1.0
 43
10.0
 44
1.0
 73
     0
 74
     0
 77
     3
 78
     8
140
3.2
141
0.0
147
1.0
172
     1
173
     1
279
     2
284
     8
285
     8
286
     8
340
978
  0
DIMSTYLE
105
97B
330
92D
100
AcDbSymbolTableRecord
100
AcDbDimStyleTableRecord
  2
Annotative
 70
     0
340
978
1001
AcadAnnotative
1000
AnnotativeData
1002
{
1070
     1
1070
     1
1002
}
  0
ENDTAB
  0
TABLE
  2
BLOCK_RECORD
  5
924
330
0
100
AcDbSymbolTable
 70
     3
  0
BLOCK_RECORD
  5
992
330
924
100
AcDbSymbolTableRecord
100
AcDbBlockTableRecord
  2
*Model_Space
340
995
  0
BLOCK_RECORD
  5
98E
330
924
100
AcDbSymbolTableRecord
100
AcDbBlockTableRecord
  2
*Paper_Space
340
991
  0
BLOCK_RECORD
  5
9A5
330
924
100
AcDbSymbolTableRecord
100
AcDbBlockTableRecord
  2
$MODEL_SPACE
340
0
  0
BLOCK_RECORD
  5
9A7
330
924
100
AcDbSymbolTableRecord
100
AcDbBlockTableRecord
  2
$PAPER_SPACE
340
0
  0
BLOCK_RECORD
  5
9A9
330
924
100
AcDbSymbolTableRecord
100
AcDbBlockTableRecord
  2
_OPEN
340
0
  0
ENDTAB
  0
ENDSEC
  0
SECTION
  2
BLOCKS
  0
BLOCK
  5
993
330
992
100
AcDbEntity
  8
0
100
AcDbBlockBegin
  2
*Model_Space
 70
     0
 10
0.0
 20
0.0
 30
0.0
  3
*Model_Space
  1

  0
ENDBLK
  5
994
330
992
100
AcDbEntity
  8
0
100
AcDbBlockEnd
  0
BLOCK
  5
98F
330
98E
100
AcDbEntity
 67
     1
  8
0
100
AcDbBlockBegin
  2
*Paper_Space
 70
     0
 10
0.0
 20
0.0
 30
0.0
  3
*Paper_Space
  1

  0
ENDBLK
  5
990
330
98E
100
AcDbEntity
 67
     1
  8
0
100
AcDbBlockEnd
  0
BLOCK
  5
9A6
330
9A5
100
AcDbEntity
  8
0
100
AcDbBlockBegin
  2
$MODEL_SPACE
 70
     0
 10
0.0
 20
0.0
 30
0.0
  3
$MODEL_SPACE
  1

  0
ENDBLK
  5
1A
330
9A5
100
AcDbEntity
  8
0
100
AcDbBlockEnd
  0
BLOCK
  5
9A8
330
9A7
100
AcDbEntity
  8
0
100
AcDbBlockBegin
  2
$PAPER_SPACE
 70
     0
 10
0.0
 20
0.0
 30
0.0
  3
$PAPER_SPACE
  1

  0
ENDBLK
  5
17
330
9A7
100
AcDbEntity
  8
0
100
AcDbBlockEnd
  0
BLOCK
  5
9AA
330
9A9
100
AcDbEntity
  8
0
100
AcDbBlockBegin
  2
_OPEN
 70
     0
 10
0.0
 20
0.0
 30
0.0
  3
_OPEN
  1

  0
LINE
  5
30
330
9A9
100
AcDbEntity
  8
0
  6
ByBlock
 62
     0
100
AcDbLine
 10
-1.0
 20
0.1666666666666666
 30
0.0
 11
0.0
 21
0.0
 31
0.0
  0
LINE
  5
31
330
9A9
100
AcDbEntity
  8
0
  6
ByBlock
 62
     0
100
AcDbLine
 10
0.0
 20
0.0
 30
0.0
 11
-1.0
 21
-0.1666666666666666
 31
0.0
  0
LINE
  5
32
330
9A9
100
AcDbEntity
  8
0
  6
ByBlock
 62
     0
100
AcDbLine
 10
0.0
 20
0.0
 30
0.0
 11
-1.0
 21
0.0
 31
0.0
  0
ENDBLK
  5
33
330
9A9
100
AcDbEntity
  8
0
100
AcDbBlockEnd
  0
ENDSEC
  0
SECTION
  2
ENTITIES
  0
LINE
  5
45E
330
992
100
AcDbEntity
  8
1
  6
Continuous
100
AcDbLine
 10
156.0460936622803
 20
317.3526614832675
 30
0.0
 11
1091.046093662233
 21
317.3526614833194
 31
0.0
  0
LINE
  5
45F
330
992
100
AcDbEntity
  8
1
  6
Continuous
100
AcDbLine
 10
156.0460936622803
 20
297.3526614832675
 30
0.0
 11
1091.046093662233
 21
297.3526614833197
 31
0.0
  0
LINE
  5
460
330
992
100
AcDbEntity
  8
4
  6
CENTER
100
AcDbLine
 10
98.90672397093796
 20
307.3526614827305
 30
0.0
 11
1148.179216310901
 21
307.3526614833145
 31
0.0
  0
LINE
  5
461
330
992
100
AcDbEntity
  8
1
  6
Continuous
100
AcDbLine
 10
220.1732886348545
 20
225.32985680423
 30
0.0
 11
1079.695912505191
 21
225.3298568042691
 31
0.0
  0
LINE
  5
462
330
992
100
AcDbEntity
  8
1
  6
Continuous
100
AcDbLine
 10
220.1732886348541
 20
226.5298568042298
 30
0.0
 11
1079.695912505192
 21
226.5298568042689
 31
0.0
  0
LINE
  5
463
330
992
100
AcDbEntity
  8
1
  6
Continuous
100
AcDbLine
 10
216.4932685454691
 20
156.7070521251752
 30
0.0
 11
1091.046093662233
 21
156.7070521251365
 31
0.0
  0
LINE
  5
464
330
992
100
AcDbEntity
  8
1
  6
Continuous
100
AcDbLine
 10
216.4932675193626
 20
136.7070521251753
 30
0.0
 11
1091.046093662233
 21
136.7070521251368
 31
0.0
  0
LINE
  5
465
330
992
100
AcDbEntity
  8
1
  6
Continuous
100
AcDbLine
 10
220.1732886348541
 20
66.88424744722169
 30
0.0
 11
1079.695912505192
 21
66.88424744718256
 31
0.0
  0
LINE
  5
466
330
992
100
AcDbEntity
  8
1
  6
Continuous
100
AcDbLine
 10
220.1732886348545
 20
68.08424744722152
 30
0.0
 11
1079.695912505191
 21
68.08424744718236
 31
0.0
  0
LINE
  5
467
330
992
100
AcDbEntity
  8
4
  6
CENTER
100
AcDbLine
 10
98.90672397093796
 20
146.7070521257257
 30
0.0
 11
1148.179216310901
 21
146.7070521251417
 31
0.0
  0
LINE
  5
468
330
992
100
AcDbEntity
  8
4
  6
CENTER
100
AcDbLine
 10
40.4720749034942
 20
163.2070591257311
 30
0.0
 11
40.4720749034942
 21
130.2070521257313
 31
0.0
  0
ARC
  5
469
330
992
100
AcDbEntity
  8
1
  6
Continuous
100
AcDbCircle
 10
45.07333335248485
 20
159.3570566257301
 30
0.0
 40
0.8
100
AcDbArc
 50
90.0
 51
180.0
  0
ARC
  5
46A
330
992
100
AcDbEntity
  8
1
  6
Continuous
100
AcDbCircle
 10
48.67333785248496
 20
159.3570566257301
 30
0.0
 40
0.8
100
AcDbArc
 50
0.0
 51
90.0
  0
ARC
  5
46B
330
992
100
AcDbEntity
  8
1
  6
Continuous
100
AcDbCircle
 10
41.17207230446861
 20
159.4070591257311
 30
0.0
 40
0.8
100
AcDbArc
 50
359.999999999996
 51
90.00000000000101
  0
ARC
  5
46C
330
992
100
AcDbEntity
  8
1
  6
Continuous
100
AcDbCircle
 10
39.77207750251955
 20
159.4070591257311
 30
0.0
 40
0.8
100
AcDbArc
 50
89.99999999999898
 51
180.0000000000038
  0
ARC
  5
46D
330
992
100
AcDbEntity
  8
1
  6
Continuous
100
AcDbCircle
 10
42.92207490349409
 20
159.4070591257311
 30
0.0
 40
0.8
100
AcDbArc
 50
0.0
 51
90.0
  0
ARC
  5
46E
330
992
100
AcDbEntity
  8
1
  6
Continuous
100
AcDbCircle
 10
38.0220749034941
 20
159.4070591257311
 30
0.0
 40
0.8
100
AcDbArc
 50
90.0
 51
180.0
  0
ARC
  5
46F
330
992
100
AcDbEntity
  8
1
  6
Continuous
100
AcDbCircle
 10
198.9068508458506
 20
155.3570536257302
 30
0.0
 40
4.799999999999998
100
AcDbArc
 50
90.00000500000011
 51
176.99999
  0
ARC
  5
470
330
992
100
AcDbEntity
  8
1
  6
Continuous
100
AcDbCircle
 10
157.1134199709377
 20
315.7681274827888
 30
0.0
 40
5.0
100
AcDbArc
 50
18.47596401431738
 51
87.58278700000003
  0
ARC
  5
471
330
992
100
AcDbEntity
  8
1
  6
Continuous
100
AcDbCircle
 10
147.106705970938
 20
316.6649774827888
 30
0.0
 40
4.0
100
AcDbArc
 50
93.58331999999977
 51
168.6063289999998
  0
LINE
  5
472
330
992
100
AcDbEntity
  8
4
  6
CENTER
100
AcDbLine
 10
146.4067239709379
 20
131.7070521251385
 30
0.0
 11
146.4067239709379
 21
161.7070591251385
 31
0.0
  0
LINE
  5
473
330
992
100
AcDbEntity
  8
4
  6
CENTER
100
AcDbLine
 10
205.3969403458507
 20
131.6522081256664
 30
0.0
 11
205.3969403458507
 21
161.7618961256665
 31
0.0
  0
ARC
  5
474
330
992
100
AcDbEntity
  8
1
  6
Continuous
100
AcDbCircle
 10
211.8870223458509
 20
155.3570536257302
 30
0.0
 40
4.799999999999998
100
AcDbArc
 50
2.999998999999986
 51
90.00000500000011
  0
ARC
  5
475
330
992
100
AcDbEntity
  8
1
  6
Continuous
100
AcDbCircle
 10
39.77207750251955
 20
134.0070521257312
 30
0.0
 40
0.8
100
AcDbArc
 50
179.9999999999917
 51
270.0000000000015
  0
LINE
  5
476
330
992
100
AcDbEntity
  8
1
  6
Continuous
100
AcDbLine
 10
42.92207490349409
 20
133.2070521257313
 30
0.0
 11
38.0220749034941
 21
133.2070521257313
 31
0.0
  0
LINE
  5
477
330
992
100
AcDbEntity
  8
1
  6
Continuous
100
AcDbLine
 10
42.92207490349409
 20
160.2070591257311
 30
0.0
 11
38.0220749034941
 21
160.2070591257311
 31
0.0
  0
LINE
  5
478
330
992
100
AcDbEntity
  8
1
  6
Continuous
100
AcDbLine
 10
45.5128919034941
 20
137.7070521257311
 30
0.0
 11
35.77207790349414
 21
137.7070521257311
 31
0.0
  0
LINE
  5
479
330
992
100
AcDbEntity
  8
1
  6
Continuous
100
AcDbLine
 10
45.5128919034941
 20
155.707052125731
 30
0.0
 11
35.77207790349414
 21
155.707052125731
 31
0.0
  0
LINE
  5
47A
330
992
100
AcDbEntity
  8
1
  6
Continuous
100
AcDbLine
 10
29.677495081062
 20
148.7753734173496
 30
0.0
 11
45.32260958357207
 21
150.2498560806037
 31
0.0
  0
LINE
  5
47B
330
992
100
AcDbEntity
  8
1
  6
Continuous
100
AcDbLine
 10
29.677495081062
 20
144.6387308330085
 30
0.0
 11
45.32260958357207
 21
143.1642481697545
 31
0.0
  0
LINE
  5
47C
330
992
100
AcDbEntity
  8
1
  6
Continuous
100
AcDbLine
 10
31.18719120717344
 20
148.2070521257311
 30
0.0
 11
49.6720749034942
 21
148.2070521257311
 31
0.0
  0
LINE
  5
47D
330
992
100
AcDbEntity
  8
1
  6
Continuous
100
AcDbLine
 10
31.18719120717344
 20
145.207052125731
 30
0.0
 11
49.6720749034942
 21
145.207052125731
 31
0.0
  0
LINE
  5
47E
330
992
100
AcDbEntity
  8
4
  6
CENTER
100
AcDbLine
 10
27.47207490349421
 20
146.7070521252201
 30
0.0
 11
55.86007229879207
 21
146.7070521251726
 31
0.0
  0
TEXT
  5
47F
330
992
100
AcDbEntity
  8
7
  6
Continuous
100
AcDbText
 10
9.999999064246617
 20
18.00000056761563
 30
0.0
 40
3.0
  1
TYPE No.TM-293-1
100
AcDbText
  0
TEXT
  5
480
330
992
100
AcDbEntity
  8
7
  6
Continuous
100
AcDbText
 10
9.999999064246617
 20
26.00000056761564
 30
0.0
 40
3.0
  1
CODE No.35075
100
AcDbText
  0
TEXT
  5
481
330
992
100
AcDbEntity
  8
1
  6
Continuous
100
AcDbText
 10
9.999999064246617
 20
10.00000056761563
 30
0.0
 40
1.399999999999999
  1
LAYER
100
AcDbText
  0
TEXT
  5
482
330
992
100
AcDbEntity
  8
7
  6
Continuous
100
AcDbText
 10
29.97951006424661
 20
9.999999806846744
 30
0.0
 40
1.399999999999999
  1
7
100
AcDbText
  0
TEXT
  5
483
330
992
100
AcDbEntity
  8
6
  6
Continuous
100
AcDbText
 10
27.97951006424661
 20
9.999999806846744
 30
0.0
 40
1.399999999999999
  1
6
100
AcDbText
  0
TEXT
  5
484
330
992
100
AcDbEntity
  8
5
  6
PHANTOM
100
AcDbText
 10
25.97951006424661
 20
9.999999806846744
 30
0.0
 40
1.399999999999999
  1
5
100
AcDbText
  0
TEXT
  5
485
330
992
100
AcDbEntity
  8
1
  6
Continuous
100
AcDbText
 10
17.97951006424661
 20
9.999999806846744
 30
0.0
 40
1.399999999999999
  1
1
100
AcDbText
  0
TEXT
  5
486
330
992
100
AcDbEntity
  8
3
  6
DASHED
100
AcDbText
 10
21.97951006424661
 20
9.999999806846744
 30
0.0
 40
1.399999999999999
  1
3
100
AcDbText
  0
TEXT
  5
487
330
992
100
AcDbEntity
  8
2
  6
Continuous
100
AcDbText
 10
19.97951006424661
 20
9.999999806846744
 30
0.0
 40
1.399999999999999
  1
2
100
AcDbText
  0
TEXT
  5
488
330
992
100
AcDbEntity
  8
4
  6
CENTER
100
AcDbText
 10
23.9795100642466
 20
9.999999806846744
 30
0.0
 40
1.399999999999999
  1
4
100
AcDbText
  0
ARC
  5
489
330
992
100
AcDbEntity
  8
1
  6
Continuous
100
AcDbCircle
 10
45.47207490349421
 20
143.9501617261592
 30
0.0
 40
0.8
100
AcDbArc
 50
259.2320596519862
 51
349.0687859213168
  0
LINE
  5
48A
330
992
100
AcDbEntity
  8
1
  6
Continuous
100
AcDbLine
 10
37.2220749034941
 20
136.7070521251771
 30
0.0
 11
35.97207490349421
 21
136.7070521251771
 31
0.0
  0
LINE
  5
48B
330
992
100
AcDbEntity
  8
1
  6
Continuous
100
AcDbLine
 10
35.97207490349421
 20
137.7070521257311
 30
0.0
 11
35.97207490349421
 21
136.7070521251771
 31
0.0
  0
LINE
  5
48C
330
992
100
AcDbEntity
  8
1
  6
Continuous
100
AcDbLine
 10
37.97207490349418
 20
140.8201354307058
 30
0.0
 11
35.7720779034941
 21
140.8201354307058
 31
0.0
  0
LINE
  5
48D
330
992
100
AcDbEntity
  8
1
  6
Continuous
100
AcDbLine
 10
37.2220749034941
 20
137.7070521257311
 30
0.0
 11
37.2220749034941
 21
134.0070521257312
 31
0.0
  0
ARC
  5
48E
330
992
100
AcDbEntity
  8
1
  6
Continuous
100
AcDbCircle
 10
38.0220749034941
 20
134.0070521257312
 30
0.0
 40
0.8
100
AcDbArc
 50
180.0
 51
270.0
  0
LINE
  5
48F
330
992
100
AcDbEntity
  8
1
  6
Continuous
100
AcDbLine
 10
38.47207490349418
 20
143.8098806845037
 30
0.0
 11
38.47207490349418
 21
138.2070521257311
 31
0.0
  0
LINE
  5
490
330
992
100
AcDbEntity
  8
1
  6
Continuous
100
AcDbLine
 10
35.2720779034941
 20
144.1114662112958
 30
0.0
 11
35.27207790349414
 21
138.2070521257311
 31
0.0
  0
ARC
  5
491
330
992
100
AcDbEntity
  8
1
  6
Continuous
100
AcDbCircle
 10
35.77207790349414
 20
138.2070521257311
 30
0.0
 40
0.5
100
AcDbArc
 50
180.0
 51
270.0
  0
ARC
  5
492
330
992
100
AcDbEntity
  8
1
  6
Continuous
100
AcDbCircle
 10
37.97207490349418
 20
138.2070521257311
 30
0.0
 40
0.5
100
AcDbArc
 50
270.0
 51
0.0
  0
LINE
  5
493
330
992
100
AcDbEntity
  8
1
  6
Continuous
100
AcDbLine
 10
37.2220749034941
 20
156.7070521251771
 30
0.0
 11
35.97207490349421
 21
156.707052125177
 31
0.0
  0
LINE
  5
494
330
992
100
AcDbEntity
  8
1
  6
Continuous
100
AcDbLine
 10
35.97207490349421
 20
156.707052125177
 30
0.0
 11
35.97207490349421
 21
155.7070521257311
 31
0.0
  0
LINE
  5
495
330
992
100
AcDbEntity
  8
1
  6
Continuous
100
AcDbLine
 10
37.97207490349418
 20
152.5939688196524
 30
0.0
 11
35.7720779034941
 21
152.5939688196524
 31
0.0
  0
LINE
  5
496
330
992
100
AcDbEntity
  8
1
  6
Continuous
100
AcDbLine
 10
37.2220749034941
 20
159.4070591257311
 30
0.0
 11
37.2220749034941
 21
155.707052125731
 31
0.0
  0
ARC
  5
497
330
992
100
AcDbEntity
  8
1
  6
Continuous
100
AcDbCircle
 10
37.97207490349418
 20
155.207052125731
 30
0.0
 40
0.5
100
AcDbArc
 50
0.0
 51
89.99999999999856
  0
ARC
  5
498
330
992
100
AcDbEntity
  8
1
  6
Continuous
100
AcDbCircle
 10
35.77207790349414
 20
155.2070521257311
 30
0.0
 40
0.5
100
AcDbArc
 50
90.0
 51
180.0
  0
LINE
  5
499
330
992
100
AcDbEntity
  8
1
  6
Continuous
100
AcDbLine
 10
35.27207790349414
 20
155.2070521257311
 30
0.0
 11
35.27207790349411
 21
149.3026380390622
 31
0.0
  0
LINE
  5
49A
330
992
100
AcDbEntity
  8
1
  6
Continuous
100
AcDbLine
 10
38.47207490349418
 20
155.207052125731
 30
0.0
 11
38.47207490349418
 21
149.6042235658545
 31
0.0
  0
ARC
  5
49B
330
992
100
AcDbEntity
  8
1
  6
Continuous
100
AcDbCircle
 10
47.96423303893596
 20
149.9452647318893
 30
0.0
 40
1.738212607262112
100
AcDbArc
 50
190.9312140786828
 51
270.0
  0
ARC
  5
49C
330
992
100
AcDbEntity
  8
1
  6
Continuous
100
AcDbCircle
 10
45.47207490349421
 20
149.463942524199
 30
0.0
 40
0.8
100
AcDbArc
 50
10.93121407868333
 51
100.7679403480138
  0
ARC
  5
49D
330
992
100
AcDbEntity
  8
1
  6
Continuous
100
AcDbCircle
 10
47.96423303893596
 20
143.4688395184689
 30
0.0
 40
1.738212607262112
100
AcDbArc
 50
90.0
 51
169.0687859213172
  0
ARC
  5
49E
330
992
100
AcDbEntity
  8
1
  6
Continuous
100
AcDbCircle
 10
49.6720749034942
 20
146.007052125731
 30
0.0
 40
0.8
100
AcDbArc
 50
270.0
 51
0.0000000000000833
  0
ARC
  5
49F
330
992
100
AcDbEntity
  8
1
  6
Continuous
100
AcDbCircle
 10
49.6720749034942
 20
147.407052125731
 30
0.0
 40
0.8
100
AcDbArc
 50
0.000000000000007
 51
90.0
  0
LINE
  5
4A0
330
992
100
AcDbEntity
  8
1
  6
Continuous
100
AcDbLine
 10
50.47207490349421
 20
147.407052125731
 30
0.0
 11
50.47207490349421
 21
146.007052125731
 31
0.0
  0
LINE
  5
4A1
330
992
100
AcDbEntity
  8
1
  6
Continuous
100
AcDbLine
 10
151.606705970938
 20
308.8526614827888
 30
0.0
 11
125.4156049709379
 21
308.8526614827888
 31
0.0
  0
LINE
  5
4A2
330
992
100
AcDbEntity
  8
1
  6
Continuous
100
AcDbLine
 10
141.7435159709379
 20
310.7068024827889
 30
0.0
 11
121.838272970938
 21
309.1305994827888
 31
0.0
  0
LINE
  5
4A3
330
992
100
AcDbEntity
  8
1
  6
Continuous
100
AcDbLine
 10
141.320129970938
 20
310.7045134827889
 30
0.0
 11
121.8355879709378
 21
309.1351474827889
 31
0.0
  0
LINE
  5
4A4
330
992
100
AcDbEntity
  8
1
  6
Continuous
100
AcDbLine
 10
136.7577069709378
 20
312.0739284827887
 30
0.0
 11
109.6139079709378
 21
310.8021234827887
 31
0.0
  0
LINE
  5
4A5
330
992
100
AcDbEntity
  8
1
  6
Continuous
100
AcDbLine
 10
151.606705970938
 20
305.8526614827889
 30
0.0
 11
125.4156049709379
 21
305.8526614827889
 31
0.0
  0
LINE
  5
4A6
330
992
100
AcDbEntity
  8
1
  6
Continuous
100
AcDbLine
 10
125.4156049709379
 20
58.49520944722336
 30
0.0
 11
146.9378219709378
 21
60.40779144722336
 31
0.0
  0
LINE
  5
4A7
330
992
100
AcDbEntity
  8
1
  6
Continuous
100
AcDbLine
 10
141.7435159709379
 20
303.9985354827889
 30
0.0
 11
121.838272970938
 21
305.5747374827888
 31
0.0
  0
LINE
  5
4A8
330
992
100
AcDbEntity
  8
1
  6
Continuous
100
AcDbLine
 10
141.3201299709378
 20
304.0008234827888
 30
0.0
 11
121.8355879709378
 21
305.5701904827888
 31
0.0
  0
LINE
  5
4A9
330
992
100
AcDbEntity
  8
1
  6
Continuous
100
AcDbLine
 10
136.7577069709378
 20
302.6314084827887
 30
0.0
 11
109.6139079709378
 21
303.9032134827887
 31
0.0
  0
LINE
  5
4AA
330
992
100
AcDbEntity
  8
1
  6
Continuous
100
AcDbLine
 10
147.102371970938
 20
72.34378144722348
 30
0.0
 11
113.066132970938
 21
76.31680344722347
 31
0.0
  0
LINE
  5
4AB
330
992
100
AcDbEntity
  8
1
  6
Continuous
100
AcDbLine
 10
142.806717970938
 20
71.38424744722337
 30
0.0
 11
111.9067239709379
 21
71.38424744722337
 31
0.0
  0
LINE
  5
4AC
330
992
100
AcDbEntity
  8
1
  6
Continuous
100
AcDbLine
 10
142.7067119709379
 20
68.88424744722337
 30
0.0
 11
111.9067239709379
 21
68.88424744722337
 31
0.0
  0
LINE
  5
4AD
330
992
100
AcDbEntity
  8
1
  6
Continuous
100
AcDbLine
 10
147.0574809709377
 20
61.22512944722338
 30
0.0
 11
119.228592970938
 21
57.71476844722339
 31
0.0
  0
LINE
  5
4AE
330
992
100
AcDbEntity
  8
1
  6
Continuous
100
AcDbLine
 10
143.166321970938
 20
63.31181444722346
 30
0.0
 11
118.9974069709378
 21
59.29766944722349
 31
0.0
  0
LINE
  5
4AF
330
992
100
AcDbEntity
  8
4
  6
CENTER
100
AcDbLine
 10
167.1659705846852
 20
66.38424744722337
 30
0.0
 11
98.90672397093796
 21
66.38424744722337
 31
0.0
  0
LINE
  5
4B0
330
992
100
AcDbEntity
  8
4
  6
CENTER
100
AcDbLine
 10
111.9067239709379
 20
53.84425044722345
 30
0.0
 11
111.9067239709379
 21
78.92424444722331
 31
0.0
  0
ARC
  5
4B1
330
992
100
AcDbEntity
  8
1
  6
Continuous
100
AcDbCircle
 10
111.9067239709379
 20
66.38424744722337
 30
0.0
 40
10.0
100
AcDbArc
 50
83.34204100000006
 51
257.517962
  0
LINE
  5
4B2
330
992
100
AcDbEntity
  8
1
  6
Continuous
100
AcDbLine
 10
113.4426129709378
 20
62.61074144722346
 30
0.0
 11
110.6567239709379
 21
64.21917844722347
 31
0.0
  0
LINE
  5
4B3
330
992
100
AcDbEntity
  8
1
  6
Continuous
100
AcDbLine
 10
112.0765849709377
 20
60.51266544722359
 30
0.0
 11
109.4067239709379
 21
62.05411644722357
 31
0.0
  0
LINE
  5
4B4
330
992
100
AcDbEntity
  8
1
  6
Continuous
100
AcDbLine
 10
117.1435099709378
 20
54.98291044722339
 30
0.0
 11
109.745377970938
 21
56.62060644722338
 31
0.0
  0
ARC
  5
4B5
330
992
100
AcDbEntity
  8
1
  6
Continuous
100
AcDbCircle
 10
111.9067239709379
 20
66.38424744722337
 30
0.0
 40
2.5
100
AcDbArc
 50
90.0000010000002
 51
240.000003
  0
ARC
  5
4B6
330
992
100
AcDbEntity
  8
1
  6
Continuous
100
AcDbCircle
 10
111.9067239709379
 20
66.38424744722337
 30
0.0
 40
5.0
100
AcDbArc
 50
90.0000010000002
 51
240.000003
  0
ARC
  5
4B7
330
992
100
AcDbEntity
  8
1
  6
Continuous
100
AcDbCircle
 10
118.2241679709379
 20
59.86473144722347
 30
0.0
 40
5.0
100
AcDbArc
 50
210.0
 51
285.0
  0
ARC
  5
4B8
330
992
100
AcDbEntity
  8
1
  6
Continuous
100
AcDbCircle
 10
120.6567239709378
 20
56.63424744722338
 30
0.0
 40
1.25
100
AcDbArc
 50
285.0
 51
104.9999979999999
  0
LINE
  5
4B9
330
992
100
AcDbEntity
  8
1
  6
Continuous
100
AcDbLine
 10
120.333191970938
 20
57.84165244722339
 30
0.0
 11
118.8712319709378
 21
57.44992144722337
 31
0.0
  0
ARC
  5
4BA
330
992
100
AcDbEntity
  8
1
  6
Continuous
100
AcDbCircle
 10
119.1284799709378
 20
58.50848444722339
 30
0.0
 40
0.8
100
AcDbArc
 50
99.43000600000036
 51
277.1893640000001
  0
ARC
  5
4BB
330
992
100
AcDbEntity
  8
1
  6
Continuous
100
AcDbCircle
 10
112.4426129709378
 20
60.87869344722346
 30
0.0
 40
2.0
100
AcDbArc
 50
29.99999900000021
 51
60.00000600000022
  0
LINE
  5
4BC
330
992
100
AcDbEntity
  8
1
  6
Continuous
100
AcDbLine
 10
116.0591139709381
 20
58.61473144722347
 30
0.0
 11
114.1746679709381
 21
61.87869344722346
 31
0.0
  0
LINE
  5
4BD
330
992
100
AcDbEntity
  8
1
  6
Continuous
100
AcDbLine
 10
113.8940439709381
 20
57.36473144722339
 30
0.0
 11
112.076584970938
 21
60.51266544722337
 31
0.0
  0
ARC
  5
4BE
330
992
100
AcDbEntity
  8
1
  6
Continuous
100
AcDbCircle
 10
118.2241679709379
 20
59.86473144722347
 30
0.0
 40
2.5
100
AcDbArc
 50
210.0
 51
285.0
  0
LINE
  5
4BF
330
992
100
AcDbEntity
  8
1
  6
Continuous
100
AcDbLine
 10
120.9802409709378
 20
55.42683444722347
 30
0.0
 11
119.518265970938
 21
55.03510344722346
 31
0.0
  0
LINE
  5
4C0
330
992
100
AcDbEntity
  8
1
  6
Continuous
100
AcDbLine
 10
47.20500216058189
 20
138.248739536799
 30
0.0
 11
47.20500216058189
 21
145.0324736001512
 31
0.0
  0
LINE
  5
4C1
330
992
100
AcDbEntity
  8
1
  6
Continuous
100
AcDbLine
 10
48.84349913877866
 20
145.207052125731
 30
0.0
 11
48.84349913877866
 21
136.707052125177
 31
0.0
  0
LINE
  5
4C2
330
992
100
AcDbEntity
  8
1
  6
Continuous
100
AcDbLine
 10
52.86007229879206
 20
156.707052125177
 30
0.0
 11
52.86007229879206
 21
136.7070521251772
 31
0.0
  0
LINE
  5
4C3
330
992
100
AcDbEntity
  8
1
  6
Continuous
100
AcDbLine
 10
46.0128919034941
 20
143.3606560243114
 30
0.0
 11
46.0128919034941
 21
138.2070521257311
 31
0.0
  0
LINE
  5
4C4
330
992
100
AcDbEntity
  8
1
  6
Continuous
100
AcDbLine
 10
42.79874990349409
 20
143.40211075249
 30
0.0
 11
42.79874990349409
 21
138.2070521257311
 31
0.0
  0
LINE
  5
4C5
330
992
100
AcDbEntity
  8
1
  6
Continuous
100
AcDbLine
 10
52.86007229879206
 20
136.7070521251772
 30
0.0
 11
48.84349913877866
 21
136.707052125177
 31
0.0
  0
ARC
  5
4C6
330
992
100
AcDbEntity
  8
1
  6
Continuous
100
AcDbCircle
 10
53.78553389903391
 20
138.248739536799
 30
0.0
 40
6.580531738452007
100
AcDbArc
 50
180.0
 51
226.298350199282
  0
ARC
  5
4C7
330
992
100
AcDbEntity
  8
1
  6
Continuous
100
AcDbCircle
 10
45.07333335248489
 20
134.0570471257302
 30
0.0
 40
0.8
100
AcDbArc
 50
180.0
 51
269.9999999999988
  0
ARC
  5
4C8
330
992
100
AcDbEntity
  8
1
  6
Continuous
100
AcDbCircle
 10
48.67333785248496
 20
134.0570471257302
 30
0.0
 40
0.8
100
AcDbArc
 50
269.9999999999992
 51
0.0
  0
LINE
  5
4C9
330
992
100
AcDbEntity
  8
1
  6
Continuous
100
AcDbLine
 10
44.2733333524849
 20
136.7070521251771
 30
0.0
 11
44.2733333524849
 21
134.0570471257302
 31
0.0
  0
LINE
  5
4CA
330
992
100
AcDbEntity
  8
1
  6
Continuous
100
AcDbLine
 10
49.47333785248494
 20
136.707052125177
 30
0.0
 11
49.47333785248494
 21
134.0570471257302
 31
0.0
  0
LINE
  5
4CB
330
992
100
AcDbEntity
  8
1
  6
Continuous
100
AcDbLine
 10
48.67333785248494
 20
133.2570471257301
 30
0.0
 11
45.07333335248485
 21
133.2570471257302
 31
0.0
  0
LINE
  5
4CC
330
992
100
AcDbEntity
  8
1
  6
Continuous
100
AcDbLine
 10
44.97207490349419
 20
137.7070521257311
 30
0.0
 11
44.97207490349419
 21
136.7070521251771
 31
0.0
  0
LINE
  5
4CD
330
992
100
AcDbEntity
  8
1
  6
Continuous
100
AcDbLine
 10
44.97207490349419
 20
136.7070521251771
 30
0.0
 11
43.72207490349409
 21
136.7070521251771
 31
0.0
  0
LINE
  5
4CE
330
992
100
AcDbEntity
  8
1
  6
Continuous
100
AcDbLine
 10
45.5128919034941
 20
140.8201354307058
 30
0.0
 11
43.29874990349408
 21
140.8201354307058
 31
0.0
  0
LINE
  5
4CF
330
992
100
AcDbEntity
  8
1
  6
Continuous
100
AcDbLine
 10
42.9220749034942
 20
137.7070521246271
 30
0.0
 11
42.9220749034942
 21
137.8782422336946
 31
0.0
  0
LINE
  5
4D0
330
992
100
AcDbEntity
  8
1
  6
Continuous
100
AcDbLine
 10
43.72207490349409
 20
137.7070521257311
 30
0.0
 11
43.72207490349409
 21
134.0070521257312
 31
0.0
  0
LINE
  5
4D1
330
992
100
AcDbEntity
  8
1
  6
Continuous
100
AcDbLine
 10
41.97207230446858
 20
137.7070521257311
 30
0.0
 11
41.97207230446858
 21
134.0070521257312
 31
0.0
  0
LINE
  5
4D2
330
992
100
AcDbEntity
  8
1
  6
Continuous
100
AcDbLine
 10
38.97207750251957
 20
137.7070521257311
 30
0.0
 11
38.97207750251957
 21
134.0070521257312
 31
0.0
  0
ARC
  5
4D3
330
992
100
AcDbEntity
  8
1
  6
Continuous
100
AcDbCircle
 10
41.17207230446861
 20
134.0070521257312
 30
0.0
 40
0.8
100
AcDbArc
 50
269.9999999999989
 51
0.0000000000101778
  0
ARC
  5
4D4
330
992
100
AcDbEntity
  8
1
  6
Continuous
100
AcDbCircle
 10
42.92207490349409
 20
134.0070521257312
 30
0.0
 40
0.8
100
AcDbArc
 50
270.0
 51
0.0
  0
ARC
  5
4D5
330
992
100
AcDbEntity
  8
1
  6
Continuous
100
AcDbCircle
 10
43.29874990349407
 20
138.207052125731
 30
0.0
 40
0.5
100
AcDbArc
 50
179.9999999999901
 51
270.0000000000023
  0
ARC
  5
4D6
330
992
100
AcDbEntity
  8
1
  6
Continuous
100
AcDbCircle
 10
45.5128919034941
 20
138.2070521257311
 30
0.0
 40
0.5
100
AcDbArc
 50
270.0
 51
359.9999999999967
  0
LINE
  5
4D7
330
992
100
AcDbEntity
  8
1
  6
Continuous
100
AcDbLine
 10
52.86007229879206
 20
156.707052125177
 30
0.0
 11
48.84349913877866
 21
156.7070521251772
 31
0.0
  0
LINE
  5
4D8
330
992
100
AcDbEntity
  8
1
  6
Continuous
100
AcDbLine
 10
47.20500216058189
 20
148.3816306502068
 30
0.0
 11
47.20500216058189
 21
155.1653647134845
 31
0.0
  0
ARC
  5
4D9
330
992
100
AcDbEntity
  8
1
  6
Continuous
100
AcDbCircle
 10
53.78553389903391
 20
155.1653647134845
 30
0.0
 40
6.580531738452007
100
AcDbArc
 50
133.7016498007178
 51
180.0
  0
LINE
  5
4DA
330
992
100
AcDbEntity
  8
1
  6
Continuous
100
AcDbLine
 10
48.84349913877866
 20
156.7070521251772
 30
0.0
 11
48.84349913877866
 21
148.2070521257311
 31
0.0
  0
LINE
  5
4DB
330
992
100
AcDbEntity
  8
1
  6
Continuous
100
AcDbLine
 10
48.67333785248496
 20
160.1570566257301
 30
0.0
 11
45.07333335248485
 21
160.1570566257301
 31
0.0
  0
LINE
  5
4DC
330
992
100
AcDbEntity
  8
1
  6
Continuous
100
AcDbLine
 10
44.2733333524849
 20
159.3570566257301
 30
0.0
 11
44.2733333524849
 21
156.707052125177
 31
0.0
  0
LINE
  5
4DD
330
992
100
AcDbEntity
  8
1
  6
Continuous
100
AcDbLine
 10
49.47333785248494
 20
159.3570566257301
 30
0.0
 11
49.47333785248494
 21
156.7070521251772
 31
0.0
  0
LINE
  5
4DE
330
992
100
AcDbEntity
  8
1
  6
Continuous
100
AcDbLine
 10
44.97207490349419
 20
156.707052125177
 30
0.0
 11
43.72207490349409
 21
156.707052125177
 31
0.0
  0
LINE
  5
4DF
330
992
100
AcDbEntity
  8
1
  6
Continuous
100
AcDbLine
 10
44.97207490349419
 20
156.707052125177
 30
0.0
 11
44.97207490349419
 21
155.7070521257311
 31
0.0
  0
LINE
  5
4E0
330
992
100
AcDbEntity
  8
1
  6
Continuous
100
AcDbLine
 10
45.5128919034941
 20
152.5939688196524
 30
0.0
 11
43.29874990349408
 21
152.5939688196524
 31
0.0
  0
LINE
  5
4E1
330
992
100
AcDbEntity
  8
1
  6
Continuous
100
AcDbLine
 10
42.9220749034942
 20
155.707052125731
 30
0.0
 11
42.9220749034942
 21
155.5358620166636
 31
0.0
  0
LINE
  5
4E2
330
992
100
AcDbEntity
  8
1
  6
Continuous
100
AcDbLine
 10
41.97207230446858
 20
159.4070591257311
 30
0.0
 11
41.97207230446858
 21
155.707052125731
 31
0.0
  0
LINE
  5
4E3
330
992
100
AcDbEntity
  8
1
  6
Continuous
100
AcDbLine
 10
38.97207750251957
 20
159.4070591257311
 30
0.0
 11
38.97207750251957
 21
155.707052125731
 31
0.0
  0
LINE
  5
4E4
330
992
100
AcDbEntity
  8
1
  6
Continuous
100
AcDbLine
 10
43.72207490349409
 20
159.4070591257311
 30
0.0
 11
43.72207490349409
 21
155.707052125731
 31
0.0
  0
ARC
  5
4E5
330
992
100
AcDbEntity
  8
1
  6
Continuous
100
AcDbCircle
 10
45.51289190349407
 20
155.207052125731
 30
0.0
 40
0.5
100
AcDbArc
 50
0.0
 51
89.99999999999799
  0
ARC
  5
4E6
330
992
100
AcDbEntity
  8
1
  6
Continuous
100
AcDbCircle
 10
43.29874990349408
 20
155.2070521257311
 30
0.0
 40
0.5
100
AcDbArc
 50
90.0
 51
180.0000000000064
  0
LINE
  5
4E7
330
992
100
AcDbEntity
  8
1
  6
Continuous
100
AcDbLine
 10
46.0128919034941
 20
155.207052125731
 30
0.0
 11
46.0128919034941
 21
150.0534482260469
 31
0.0
  0
LINE
  5
4E8
330
992
100
AcDbEntity
  8
1
  6
Continuous
100
AcDbLine
 10
42.79874990349409
 20
155.207052125731
 30
0.0
 11
42.79874990349409
 21
150.0119934978681
 31
0.0
  0
ARC
  5
4E9
330
992
100
AcDbEntity
  8
1
  6
Continuous
100
AcDbCircle
 10
29.75255890349439
 20
145.4352014367108
 30
0.0
 40
0.8
100
AcDbArc
 50
180.0
 51
264.6160298259973
  0
ARC
  5
4EA
330
992
100
AcDbEntity
  8
1
  6
Continuous
100
AcDbCircle
 10
29.75255890349439
 20
147.9789028136474
 30
0.0
 40
0.8
100
AcDbArc
 50
95.38397017400257
 51
180.0
  0
LINE
  5
4EB
330
992
100
AcDbEntity
  8
1
  6
Continuous
100
AcDbLine
 10
28.95255890349438
 20
147.9789028136474
 30
0.0
 11
28.95255890349438
 21
145.4352014367108
 31
0.0
  0
LINE
  5
4EC
330
992
100
AcDbEntity
  8
1
  6
Continuous
100
AcDbLine
 10
117.1435099709378
 20
308.8526614827888
 30
0.0
 11
102.7067119709379
 21
308.8526614827888
 31
0.0
  0
LINE
  5
4ED
330
992
100
AcDbEntity
  8
1
  6
Continuous
100
AcDbLine
 10
121.4327859709378
 20
309.3774104827888
 30
0.0
 11
109.413879970938
 21
310.0050964827887
 31
0.0
  0
LINE
  5
4EE
330
992
100
AcDbEntity
  8
1
  6
Continuous
100
AcDbLine
 10
121.4327859709378
 20
305.3279114827888
 30
0.0
 11
109.413879970938
 21
304.7002414827888
 31
0.0
  0
LINE
  5
4EF
330
992
100
AcDbEntity
  8
1
  6
Continuous
100
AcDbLine
 10
117.1435099709378
 20
305.8526614827889
 30
0.0
 11
102.7067119709379
 21
305.8526614827889
 31
0.0
  0
ARC
  5
4F0
330
992
100
AcDbEntity
  8
1
  6
Continuous
100
AcDbCircle
 10
107.3919989709379
 20
304.6217194827888
 30
0.0
 40
0.5
100
AcDbArc
 50
210.3606719999999
 51
259.0774350000001
  0
LINE
  5
4F1
330
992
100
AcDbEntity
  8
1
  6
Continuous
100
AcDbLine
 10
109.6139379709379
 20
303.9032134827888
 30
0.0
 11
108.2125869709379
 21
304.0007324827888
 31
0.0
  0
LINE
  5
4F2
330
992
100
AcDbEntity
  8
1
  6
Continuous
100
AcDbLine
 10
108.2125869709379
 20
304.0007324827888
 30
0.0
 11
107.688324970938
 21
304.0629424827888
 31
0.0
  0
LINE
  5
4F3
330
992
100
AcDbEntity
  8
1
  6
Continuous
100
AcDbLine
 10
107.289658970938
 20
304.1324154827889
 30
0.0
 11
107.2718059709379
 21
304.1363834827889
 31
0.0
  0
LINE
  5
4F4
330
992
100
AcDbEntity
  8
1
  6
Continuous
100
AcDbLine
 10
107.688324970938
 20
304.0629424827888
 30
0.0
 11
107.289658970938
 21
304.1324154827888
 31
0.0
  0
LINE
  5
4F5
330
992
100
AcDbEntity
  8
1
  6
Continuous
100
AcDbLine
 10
107.9118049709379
 20
310.6716764827888
 30
0.0
 11
109.0885939709378
 21
310.7736814827887
 31
0.0
  0
LINE
  5
4F6
330
992
100
AcDbEntity
  8
1
  6
Continuous
100
AcDbLine
 10
109.088593970938
 20
310.7736814827889
 30
0.0
 11
109.6139379709379
 21
310.8021234827889
 31
0.0
  0
LINE
  5
4F7
330
992
100
AcDbEntity
  8
1
  6
Continuous
100
AcDbLine
 10
109.414353970938
 20
310.0050814827888
 30
0.0
 11
108.619522970938
 21
310.0565644827888
 31
0.0
  0
LINE
  5
4F8
330
992
100
AcDbEntity
  8
1
  6
Continuous
100
AcDbLine
 10
108.619522970938
 20
310.0565644827889
 30
0.0
 11
107.950028970938
 21
310.1210934827889
 31
0.0
  0
ARC
  5
4F9
330
992
100
AcDbEntity
  8
1
  6
Continuous
100
AcDbCircle
 10
107.3919989709379
 20
310.0836184827889
 30
0.0
 40
0.5
100
AcDbArc
 50
100.9225759999999
 51
149.639328
  0
LINE
  5
4FA
330
992
100
AcDbEntity
  8
1
  6
Continuous
100
AcDbLine
 10
107.502274970938
 20
310.1837614827887
 30
0.0
 11
107.173798970938
 21
310.2522584827888
 31
0.0
  0
LINE
  5
4FB
330
992
100
AcDbEntity
  8
1
  6
Continuous
100
AcDbLine
 10
107.1737989709379
 20
310.2522584827887
 30
0.0
 11
106.958801970938
 21
310.3332974827888
 31
0.0
  0
LINE
  5
4FC
330
992
100
AcDbEntity
  8
1
  6
Continuous
100
AcDbLine
 10
107.2718059709379
 20
310.5689694827888
 30
0.0
 11
107.9118049709379
 21
310.6716764827888
 31
0.0
  0
LINE
  5
4FD
330
992
100
AcDbEntity
  8
1
  6
Continuous
100
AcDbLine
 10
107.950028970938
 20
310.1210934827887
 30
0.0
 11
107.5022749709378
 21
310.1837614827887
 31
0.0
  0
ARC
  5
4FE
330
992
100
AcDbEntity
  8
1
  6
Continuous
100
AcDbCircle
 10
104.3719949709378
 20
311.8526614827889
 30
0.0
 40
3.0
100
AcDbArc
 50
269.9999989999997
 51
329.6393249999997
  0
LINE
  5
4FF
330
992
100
AcDbEntity
  8
1
  6
Continuous
100
AcDbLine
 10
107.6736309709381
 20
304.5483094827889
 30
0.0
 11
108.679504970938
 21
304.6534574827889
 31
0.0
  0
LINE
  5
500
330
992
100
AcDbEntity
  8
1
  6
Continuous
100
AcDbLine
 10
108.6795049709378
 20
304.6534574827889
 30
0.0
 11
109.414353970938
 21
304.7002564827888
 31
0.0
  0
LINE
  5
501
330
992
100
AcDbEntity
  8
1
  6
Continuous
100
AcDbLine
 10
106.9588019709378
 20
304.3720394827888
 30
0.0
 11
107.1615309709379
 21
304.4497684827888
 31
0.0
  0
LINE
  5
502
330
992
100
AcDbEntity
  8
1
  6
Continuous
100
AcDbLine
 10
107.1615309709379
 20
304.4497684827888
 30
0.0
 11
107.6736309709381
 21
304.5483094827888
 31
0.0
  0
LINE
  5
503
330
992
100
AcDbEntity
  8
1
  6
Continuous
100
AcDbLine
 10
101.9067239709378
 20
308.0526734827888
 30
0.0
 11
101.9067239709378
 21
306.6526644827888
 31
0.0
  0
ARC
  5
504
330
992
100
AcDbEntity
  8
1
  6
Continuous
100
AcDbCircle
 10
102.7067119709379
 20
306.6526644827888
 30
0.0
 40
0.8
100
AcDbArc
 50
180.0
 51
269.9999989999997
  0
ARC
  5
505
330
992
100
AcDbEntity
  8
1
  6
Continuous
100
AcDbCircle
 10
104.3719949709378
 20
302.8526614827889
 30
0.0
 40
3.0
100
AcDbArc
 50
30.36068000000004
 51
89.99999699999987
  0
ARC
  5
506
330
992
100
AcDbEntity
  8
1
  6
Continuous
100
AcDbCircle
 10
102.7067119709379
 20
308.0526734827888
 30
0.0
 40
0.8
100
AcDbArc
 50
89.99999699999987
 51
180.0
  0
LINE
  5
507
330
992
100
AcDbEntity
  8
4
  6
CENTER
100
AcDbLine
 10
111.9067239709379
 20
301.2941394896227
 30
0.0
 11
111.9067239709379
 21
313.4111974759548
 31
0.0
  0
ARC
  5
508
330
992
100
AcDbEntity
  8
1
  6
Continuous
100
AcDbCircle
 10
121.4067239709379
 20
308.8780974827888
 30
0.0
 40
0.5
100
AcDbArc
 50
359.9999950000003
 51
87.01046500000011
  0
LINE
  5
509
330
992
100
AcDbEntity
  8
1
  6
Continuous
100
AcDbLine
 10
115.8123639709378
 20
308.8526614827888
 30
0.0
 11
115.8123639709378
 21
309.6709444827888
 31
0.0
  0
LINE
  5
50A
330
992
100
AcDbEntity
  8
1
  6
Continuous
100
AcDbLine
 10
112.076584970938
 20
308.8526614827888
 30
0.0
 11
112.076584970938
 21
309.8660434827888
 31
0.0
  0
ARC
  5
50B
330
992
100
AcDbEntity
  8
1
  6
Continuous
100
AcDbCircle
 10
121.4067239709379
 20
305.8272394827888
 30
0.0
 40
0.5
100
AcDbArc
 50
272.9895460000001
 51
359.9999950000003
  0
LINE
  5
50C
330
992
100
AcDbEntity
  8
1
  6
Continuous
100
AcDbLine
 10
115.8123639709378
 20
305.8526614827889
 30
0.0
 11
115.8123639709378
 21
305.0343934827888
 31
0.0
  0
LINE
  5
50D
330
992
100
AcDbEntity
  8
1
  6
Continuous
100
AcDbLine
 10
112.076584970938
 20
305.8526614827889
 30
0.0
 11
112.076584970938
 21
304.8392944827889
 31
0.0
  0
LINE
  5
50E
330
992
100
AcDbEntity
  8
1
  6
Continuous
100
AcDbLine
 10
121.9067239709379
 20
309.0933534827888
 30
0.0
 11
121.9067239709379
 21
305.8272394827888
 31
0.0
  0
LINE
  5
50F
330
992
100
AcDbEntity
  8
1
  6
Continuous
100
AcDbLine
 10
125.4156049709379
 20
308.8526614827888
 30
0.0
 11
125.4156049709379
 21
305.8526614827889
 31
0.0
  0
LINE
  5
510
330
992
100
AcDbEntity
  8
1
  6
Continuous
100
AcDbLine
 10
190.6205920565908
 20
68.08424744722336
 30
0.0
 11
170.2744028678924
 21
68.08424744722336
 31
0.0
  0
LINE
  5
511
330
992
100
AcDbEntity
  8
1
  6
Continuous
100
AcDbLine
 10
190.6205920565908
 20
66.88424744722336
 30
0.0
 11
170.2744028678924
 21
66.88424744722336
 31
0.0
  0
LINE
  5
512
330
992
100
AcDbEntity
  8
1
  6
Continuous
100
AcDbLine
 10
191.7263340814329
 20
63.08424744722335
 30
0.0
 11
160.5460936622803
 21
63.08424744722335
 31
0.0
  0
LINE
  5
513
330
992
100
AcDbEntity
  8
1
  6
Continuous
100
AcDbLine
 10
184.4728713259364
 20
64.28424744722339
 30
0.0
 11
163.106705970938
 21
64.28424744722339
 31
0.0
  0
LINE
  5
514
330
992
100
AcDbEntity
  8
1
  6
Continuous
100
AcDbLine
 10
191.7263340814329
 20
61.88424744722336
 30
0.0
 11
160.5460936622803
 21
61.88424744722336
 31
0.0
  0
ARC
  5
515
330
992
100
AcDbEntity
  8
1
  6
Continuous
100
AcDbCircle
 10
146.4067239709379
 20
66.38424744722337
 30
0.0
 40
6.0
100
AcDbArc
 50
31.07100100000038
 51
83.34204100000006
  0
LINE
  5
516
330
992
100
AcDbEntity
  8
4
  6
CENTER
100
AcDbLine
 10
146.4067239709379
 20
58.42805894722339
 30
0.0
 11
146.4067239709379
 21
74.34043594722338
 31
0.0
  0
ARC
  5
517
330
992
100
AcDbEntity
  8
1
  6
Continuous
100
AcDbCircle
 10
160.5460936622803
 20
66.38424744722337
 30
0.0
 40
3.299999999999998
100
AcDbArc
 50
57.88626778724283
 51
138.8645970082639
  0
ARC
  5
518
330
992
100
AcDbEntity
  8
1
  6
Continuous
100
AcDbCircle
 10
160.5460936622803
 20
66.38424744722337
 30
0.0
 40
3.299999999999998
100
AcDbArc
 50
221.1353043000796
 51
270.0
  0
LINE
  5
519
330
992
100
AcDbEntity
  8
1
  6
Continuous
100
AcDbLine
 10
161.5039839709379
 20
67.90368744722325
 30
0.0
 11
152.356705970938
 21
69.63424744722326
 31
0.0
  0
LINE
  5
51A
330
992
100
AcDbEntity
  8
1
  6
Continuous
100
AcDbLine
 10
152.356705970938
 20
63.13424744722328
 30
0.0
 11
161.5039839709379
 21
64.86481544722329
 31
0.0
  0
ARC
  5
51B
330
992
100
AcDbEntity
  8
1
  6
Continuous
100
AcDbCircle
 10
160.5460936622803
 20
66.38424744722337
 30
0.0
 40
4.5
100
AcDbArc
 50
212.5111786147724
 51
270.0
  0
ARC
  5
51C
330
992
100
AcDbEntity
  8
1
  6
Continuous
100
AcDbCircle
 10
160.5460936622803
 20
66.38424744722337
 30
0.0
 40
4.5
100
AcDbArc
 50
56.64647616208485
 51
147.4887695995056
  0
ARC
  5
51D
330
992
100
AcDbEntity
  8
1
  6
Continuous
100
AcDbCircle
 10
146.4067239709379
 20
66.38424744722337
 30
0.0
 40
5.2
100
AcDbArc
 50
277.1893640000001
 51
325.62093
  0
ARC
  5
51E
330
992
100
AcDbEntity
  8
1
  6
Continuous
100
AcDbCircle
 10
146.4067239709379
 20
66.38424744722337
 30
0.0
 40
6.0
100
AcDbArc
 50
275.078303
 51
328.9289960000004
  0
ARC
  5
51F
330
992
100
AcDbEntity
  8
1
  6
Continuous
100
AcDbCircle
 10
146.4067239709379
 20
66.38424744722337
 30
0.0
 40
5.2
100
AcDbArc
 50
34.37906500000016
 51
90.0000010000002
  0
LINE
  5
520
330
992
100
AcDbEntity
  8
1
  6
Continuous
100
AcDbLine
 10
152.356705970938
 20
69.63424744722326
 30
0.0
 11
143.7580119709376
 21
68.00746244722327
 31
0.0
  0
LINE
  5
521
330
992
100
AcDbEntity
  8
1
  6
Continuous
100
AcDbLine
 10
143.7580119709376
 20
64.76103244722327
 30
0.0
 11
152.356705970938
 21
63.13424744722328
 31
0.0
  0
ARC
  5
522
330
992
100
AcDbEntity
  8
1
  6
Continuous
100
AcDbCircle
 10
146.4067239709379
 20
66.38424744722337
 30
0.0
 40
2.649999999999999
100
AcDbArc
 50
260.0599599999999
 51
297.3195490000003
  0
ARC
  5
523
330
992
100
AcDbEntity
  8
1
  6
Continuous
100
AcDbCircle
 10
146.4067239709379
 20
66.38424744722337
 30
0.0
 40
2.649999999999999
100
AcDbArc
 50
62.6804460000002
 51
109.3700339999999
  0
LINE
  5
524
330
992
100
AcDbEntity
  8
1
  6
Continuous
100
AcDbLine
 10
143.5068519709379
 20
61.26150544722347
 30
0.0
 11
143.166321970938
 21
63.31181444722346
 31
0.0
  0
LINE
  5
525
330
992
100
AcDbEntity
  8
1
  6
Continuous
100
AcDbLine
 10
144.5641339709379
 20
64.05081244722348
 30
0.0
 11
143.577652970938
 21
63.88697844722347
 31
0.0
  0
ARC
  5
526
330
992
100
AcDbEntity
  8
1
  6
Continuous
100
AcDbCircle
 10
143.9067239709379
 20
67.22140544722336
 30
0.0
 40
0.8
100
AcDbArc
 50
100.7131219999997
 51
180.0
  0
ARC
  5
527
330
992
100
AcDbEntity
  8
1
  6
Continuous
100
AcDbCircle
 10
143.6595619709378
 20
63.39373144722348
 30
0.0
 40
0.5
100
AcDbArc
 50
99.43000600000036
 51
189.4300000000004
  0
ARC
  5
528
330
992
100
AcDbEntity
  8
1
  6
Continuous
100
AcDbCircle
 10
144.6460429709379
 20
63.55757244722347
 30
0.0
 40
0.5
100
AcDbArc
 50
9.429996000000326
 51
99.43000600000036
  0
ARC
  5
529
330
992
100
AcDbEntity
  8
1
  6
Continuous
100
AcDbCircle
 10
144.0000929709378
 20
61.34343044722339
 30
0.0
 40
0.5
100
AcDbArc
 50
189.4300000000004
 51
277.1893640000001
  0
LINE
  5
52A
330
992
100
AcDbEntity
  8
1
  6
Continuous
100
AcDbLine
 10
142.7067119709379
 20
68.88424744722337
 30
0.0
 11
142.7067119709379
 21
71.08424444722341
 31
0.0
  0
LINE
  5
52B
330
992
100
AcDbEntity
  8
1
  6
Continuous
100
AcDbLine
 10
144.2067119709379
 20
68.38424744722337
 30
0.0
 11
143.2067119709379
 21
68.38424744722337
 31
0.0
  0
ARC
  5
52C
330
992
100
AcDbEntity
  8
1
  6
Continuous
100
AcDbCircle
 10
143.9067239709379
 20
65.54708944722327
 30
0.0
 40
0.8
100
AcDbArc
 50
180.0
 51
259.2868749999999
  0
ARC
  5
52D
330
992
100
AcDbEntity
  8
1
  6
Continuous
100
AcDbCircle
 10
144.2067119709379
 20
68.88424744722337
 30
0.0
 40
0.5
100
AcDbArc
 50
270.000003
 51
0.000004999999703
  0
ARC
  5
52E
330
992
100
AcDbEntity
  8
1
  6
Continuous
100
AcDbCircle
 10
143.2067119709379
 20
68.88424744722337
 30
0.0
 40
0.5
100
AcDbArc
 50
180.0
 51
270.000003
  0
ARC
  5
52F
330
992
100
AcDbEntity
  8
1
  6
Continuous
100
AcDbCircle
 10
143.2067119709379
 20
71.08424444722341
 30
0.0
 40
0.5
100
AcDbArc
 50
90.0000010000002
 51
180.0
  0
LINE
  5
530
330
992
100
AcDbEntity
  8
1
  6
Continuous
100
AcDbLine
 10
143.1067209709377
 20
67.22140544722336
 30
0.0
 11
143.1067209709377
 21
65.54708944722327
 31
0.0
  0
LINE
  5
531
330
992
100
AcDbEntity
  8
1
  6
Continuous
100
AcDbLine
 10
145.5277869709379
 20
68.88424744722337
 30
0.0
 11
144.7067119709379
 21
68.88424744722337
 31
0.0
  0
LINE
  5
532
330
992
100
AcDbEntity
  8
1
  6
Continuous
100
AcDbLine
 10
146.4067239709379
 20
71.58424444722339
 30
0.0
 11
143.2067119709379
 21
71.58424444722339
 31
0.0
  0
LINE
  5
533
330
992
100
AcDbEntity
  8
1
  6
Continuous
100
AcDbLine
 10
145.9492809709379
 20
63.77401844722349
 30
0.0
 11
145.1392989709379
 21
63.63949644722335
 31
0.0
  0
ARC
  5
534
330
992
100
AcDbEntity
  8
1
  6
Continuous
100
AcDbCircle
 10
146.4067239709379
 20
66.38424744722337
 30
0.0
 40
2.45
100
AcDbArc
 50
69.13844500000023
 51
132.2878040000002
  0
ARC
  5
535
330
992
100
AcDbEntity
  8
1
  6
Continuous
100
AcDbCircle
 10
146.4067239709379
 20
66.38424744722337
 30
0.0
 40
2.45
100
AcDbArc
 50
227.7121860000004
 51
290.861566
  0
LINE
  5
536
330
992
100
AcDbEntity
  8
1
  6
Continuous
100
AcDbLine
 10
162.306717970938
 20
67.88424744722338
 30
0.0
 11
161.576447970938
 21
67.88424744722338
 31
0.0
  0
ARC
  5
537
330
992
100
AcDbEntity
  8
1
  6
Continuous
100
AcDbCircle
 10
161.4110579709379
 20
67.41239944722327
 30
0.0
 40
0.5
100
AcDbArc
 50
359.9999950000003
 51
79.28687999999969
  0
ARC
  5
538
330
992
100
AcDbEntity
  8
1
  6
Continuous
100
AcDbCircle
 10
162.306717970938
 20
67.08425144722338
 30
0.0
 40
0.8
100
AcDbArc
 50
359.9999950000003
 51
89.99999699999987
  0
LINE
  5
539
330
992
100
AcDbEntity
  8
1
  6
Continuous
100
AcDbLine
 10
163.106705970938
 20
64.28424744722339
 30
0.0
 11
163.106705970938
 21
63.08424744722335
 31
0.0
  0
LINE
  5
53A
330
992
100
AcDbEntity
  8
1
  6
Continuous
100
AcDbLine
 10
162.306717970938
 20
64.88424744722337
 30
0.0
 11
161.576447970938
 21
64.88424744722337
 31
0.0
  0
ARC
  5
53B
330
992
100
AcDbEntity
  8
1
  6
Continuous
100
AcDbCircle
 10
161.4110579709379
 20
65.35610244722334
 30
0.0
 40
0.5
100
AcDbArc
 50
280.7131229999998
 51
359.9999950000003
  0
ARC
  5
53C
330
992
100
AcDbEntity
  8
1
  6
Continuous
100
AcDbCircle
 10
162.306717970938
 20
65.68425044722335
 30
0.0
 40
0.8
100
AcDbArc
 50
269.9999989999997
 51
359.9999950000003
  0
LINE
  5
53D
330
992
100
AcDbEntity
  8
1
  6
Continuous
100
AcDbLine
 10
163.106705970938
 20
67.08425144722338
 30
0.0
 11
163.106705970938
 21
65.68425044722335
 31
0.0
  0
LINE
  5
53E
330
992
100
AcDbEntity
  8
1
  6
Continuous
100
AcDbLine
 10
161.9110579709379
 20
67.41239944722327
 30
0.0
 11
161.9110579709379
 21
65.35610244722334
 31
0.0
  0
ARC
  5
53F
330
992
100
AcDbEntity
  8
1
  6
Continuous
100
AcDbCircle
 10
170.2744028678924
 20
81.88424744722338
 30
0.0
 40
15.0
100
AcDbArc
 50
237.8862677872423
 51
270.0
  0
ARC
  5
540
330
992
100
AcDbEntity
  8
1
  6
Continuous
100
AcDbCircle
 10
170.2744028678924
 20
81.88424744722338
 30
0.0
 40
13.8
100
AcDbArc
 50
237.8862677872423
 51
270.0
  0
ARC
  5
541
330
992
100
AcDbEntity
  8
1
  6
Continuous
100
AcDbCircle
 10
191.7263340814329
 20
84.4062149244632
 30
0.0
 40
22.52196747723979
100
AcDbArc
 50
270.0
 51
319.8965571814653
  0
ARC
  5
542
330
992
100
AcDbEntity
  8
1
  6
Continuous
100
AcDbCircle
 10
205.3969403457236
 20
50.38551039621418
 30
0.0
 40
25.0
100
AcDbArc
 50
74.99999500000014
 51
105.0393049913374
  0
ARC
  5
543
330
992
100
AcDbEntity
  8
1
  6
Continuous
100
AcDbCircle
 10
205.3969403457236
 20
72.89309152596477
 30
0.0
 40
5.879153316556476
100
AcDbArc
 50
18.24222094680492
 51
161.7577790531951
  0
ARC
  5
544
330
992
100
AcDbEntity
  8
1
  6
Continuous
100
AcDbCircle
 10
205.3969403457236
 20
72.89309152596477
 30
0.0
 40
4.649153316556476
100
AcDbArc
 50
27.54887306232406
 51
152.4511269376768
  0
LINE
  5
545
330
992
100
AcDbEntity
  8
1
  6
Continuous
100
AcDbLine
 10
216.2969418457236
 20
70.18550589621416
 30
0.0
 11
194.4969388457238
 21
70.18550589621407
 31
0.0
  0
LINE
  5
546
330
992
100
AcDbEntity
  8
4
  6
CENTER
100
AcDbLine
 10
205.3969403457236
 20
80.88157703064144
 30
0.0
 11
205.3969403457236
 21
68.83244880179721
 31
0.0
  0
LINE
  5
547
330
992
100
AcDbEntity
  8
1
  6
Continuous
100
AcDbLine
 10
198.9264658457238
 20
74.5336503962142
 30
0.0
 11
194.8328303457236
 21
73.43676489621419
 31
0.0
  0
ARC
  5
548
330
992
100
AcDbEntity
  8
1
  6
Continuous
100
AcDbCircle
 10
191.7263340814329
 20
84.4062149244632
 30
0.0
 40
21.3219674772398
100
AcDbArc
 50
270.0
 51
318.1678191693947
  0
ARC
  5
549
330
992
100
AcDbEntity
  8
1
  6
Continuous
100
AcDbCircle
 10
190.6205920565908
 20
77.76337622895657
 30
0.0
 40
9.679128781733162
100
AcDbArc
 50
270.0000000000004
 51
308.4723659794643
  0
ARC
  5
54A
330
992
100
AcDbEntity
  8
1
  6
Continuous
100
AcDbCircle
 10
190.6205920565908
 20
77.76337622895657
 30
0.0
 40
10.87912878173317
100
AcDbArc
 50
270.0000000000004
 51
315.8490420372081
  0
ARC
  5
54B
330
992
100
AcDbEntity
  8
1
  6
Continuous
100
AcDbCircle
 10
184.4728713259364
 20
83.73154357167198
 30
0.0
 40
19.44729612444859
100
AcDbArc
 50
270.0
 51
315.8490420372081
  0
ARC
  5
54C
330
992
100
AcDbEntity
  8
1
  6
Continuous
100
AcDbCircle
 10
184.4728713259364
 20
83.73154357167198
 30
0.0
 40
20.64729612444859
100
AcDbArc
 50
270.0
 51
315.8490420372081
  0
LINE
  5
54D
330
992
100
AcDbEntity
  8
1
  6
Continuous
100
AcDbLine
 10
194.9700223457238
 20
70.18550589621416
 30
0.0
 11
195.2469388457238
 21
70.18550589621416
 31
0.0
  0
LINE
  5
54E
330
992
100
AcDbEntity
  8
1
  6
Continuous
100
AcDbLine
 10
195.2469388457238
 20
70.18550589621416
 30
0.0
 11
195.2469388457238
 21
69.86789439621418
 31
0.0
  0
LINE
  5
54F
330
992
100
AcDbEntity
  8
1
  6
Continuous
100
AcDbLine
 10
195.9969388457238
 20
70.18550589621416
 30
0.0
 11
195.9969388457238
 21
70.06885239621407
 31
0.0
  0
LINE
  5
550
330
992
100
AcDbEntity
  8
1
  6
Continuous
100
AcDbLine
 10
195.2469388457238
 20
69.867894396214
 30
0.0
 11
195.5366852416623
 21
70.18550589621416
 31
0.0
  0
LINE
  5
551
330
992
100
AcDbEntity
  8
1
  6
Continuous
100
AcDbLine
 10
195.9969388457238
 20
70.0688523962142
 30
0.0
 11
196.10335788484
 21
70.18550589621416
 31
0.0
  0
LINE
  5
552
330
992
100
AcDbEntity
  8
1
  6
Continuous
100
AcDbLine
 10
195.5366878457239
 20
70.18550589621416
 30
0.0
 11
195.9969388457238
 21
70.18550589621416
 31
0.0
  0
LINE
  5
553
330
992
100
AcDbEntity
  8
1
  6
Continuous
100
AcDbLine
 10
194.4469358457234
 20
70.18550589621407
 30
0.0
 11
194.4969388457238
 21
70.18550589621407
 31
0.0
  0
LINE
  5
554
330
992
100
AcDbEntity
  8
1
  6
Continuous
100
AcDbLine
 10
193.6469403457238
 20
71.89128589621418
 30
0.0
 11
193.6469403457238
 21
70.98550889621418
 31
0.0
  0
LINE
  5
555
330
992
100
AcDbEntity
  8
1
  6
Continuous
100
AcDbLine
 10
194.4969388457238
 20
70.18550589621416
 30
0.0
 11
194.4969388457238
 21
69.66692839621417
 31
0.0
  0
ARC
  5
556
330
992
100
AcDbEntity
  8
1
  6
Continuous
100
AcDbCircle
 10
194.4469358457238
 20
70.98550889621418
 30
0.0
 40
0.8
100
AcDbArc
 50
180.0000009999996
 51
270.0
  0
LINE
  5
557
330
992
100
AcDbEntity
  8
1
  6
Continuous
100
AcDbLine
 10
194.4969388457238
 20
69.66692839621408
 30
0.0
 11
194.9700195441791
 21
70.18550589621416
 31
0.0
  0
ARC
  5
558
330
992
100
AcDbEntity
  8
1
  6
Continuous
100
AcDbCircle
 10
195.2469388457238
 20
71.89128589621418
 30
0.0
 40
1.6
100
AcDbArc
 50
105.0000019999999
 51
180.0000009999996
  0
LINE
  5
559
330
992
100
AcDbEntity
  8
1
  6
Continuous
100
AcDbLine
 10
207.646940345724
 20
75.50731389621418
 30
0.0
 11
207.4414002809439
 21
75.30177383143419
 31
0.0
  0
LINE
  5
55A
330
992
100
AcDbEntity
  8
1
  6
Continuous
100
AcDbLine
 10
206.8969403457237
 20
75.70827989621405
 30
0.0
 11
206.8969403457237
 21
75.3404698231497
 31
0.0
  0
LINE
  5
55B
330
992
100
AcDbEntity
  8
1
  6
Continuous
100
AcDbLine
 10
207.6469403457236
 20
75.50731389621418
 30
0.0
 11
207.6469403457236
 21
75.28405453035979
 31
0.0
  0
LINE
  5
55C
330
992
100
AcDbEntity
  8
1
  6
Continuous
100
AcDbLine
 10
206.8969403457237
 20
75.70827989621405
 30
0.0
 11
206.5476796236426
 21
75.35901233555485
 31
0.0
  0
LINE
  5
55D
330
992
100
AcDbEntity
  8
1
  6
Continuous
100
AcDbLine
 10
206.146940345724
 20
75.90923789621419
 30
0.0
 11
205.6221980048658
 21
75.38449555535606
 31
0.0
  0
LINE
  5
55E
330
992
100
AcDbEntity
  8
1
  6
Continuous
100
AcDbLine
 10
206.1469403457237
 20
75.90923789621419
 30
0.0
 11
206.1469403457237
 21
75.44112139621418
 31
0.0
  0
LINE
  5
55F
330
992
100
AcDbEntity
  8
1
  6
Continuous
100
AcDbLine
 10
204.6469403457237
 20
75.90923789621408
 30
0.0
 11
205.1716826865817
 21
75.38449555535606
 31
0.0
  0
LINE
  5
560
330
992
100
AcDbEntity
  8
1
  6
Continuous
100
AcDbLine
 10
204.6469403457237
 20
75.90923789621419
 30
0.0
 11
204.6469403457237
 21
75.44112139621418
 31
0.0
  0
LINE
  5
561
330
992
100
AcDbEntity
  8
1
  6
Continuous
100
AcDbLine
 10
203.8969403457236
 20
75.70827989621405
 30
0.0
 11
203.8969403457236
 21
75.3404698231497
 31
0.0
  0
LINE
  5
562
330
992
100
AcDbEntity
  8
1
  6
Continuous
100
AcDbLine
 10
203.8969403457236
 20
75.7082718962142
 30
0.0
 11
204.2461999575423
 21
75.3590122843958
 31
0.0
  0
ARC
  5
563
330
992
100
AcDbEntity
  8
1
  6
Continuous
100
AcDbCircle
 10
206.3469373457237
 20
75.44112139621418
 30
0.0
 40
0.2
100
AcDbArc
 50
180.0000009999996
 51
199.638012713592
  0
ARC
  5
564
330
992
100
AcDbEntity
  8
1
  6
Continuous
100
AcDbCircle
 10
204.4469358457237
 20
75.44112139621418
 30
0.0
 40
0.2
100
AcDbArc
 50
340.3619169894584
 51
0.0000030000001391
  0
LINE
  5
565
330
992
100
AcDbEntity
  8
1
  6
Continuous
100
AcDbLine
 10
203.1469403457236
 20
75.50731389621418
 30
0.0
 11
203.1469403457236
 21
75.28405453035979
 31
0.0
  0
ARC
  5
566
330
992
100
AcDbEntity
  8
1
  6
Continuous
100
AcDbCircle
 10
190.6205920565908
 20
77.76337622895657
 30
0.0
 40
12.07912878173316
100
AcDbArc
 50
315.8490420372081
 51
321.1449441885353
  0
LINE
  5
567
330
992
100
AcDbEntity
  8
1
  6
Continuous
100
AcDbLine
 10
203.1469403457236
 20
75.50731389621407
 30
0.0
 11
203.3524804105037
 21
75.30177383143406
 31
0.0
  0
ARC
  5
568
330
992
100
AcDbEntity
  8
1
  6
Continuous
100
AcDbCircle
 10
205.3969403457236
 20
72.89309152596477
 30
0.0
 40
3.449153316556476
100
AcDbArc
 50
43.31475597995547
 51
136.6852440200453
  0
LINE
  5
569
330
992
100
AcDbEntity
  8
1
  6
Continuous
100
AcDbLine
 10
216.2969418457236
 20
70.18550589621416
 30
0.0
 11
216.2969418457236
 21
69.66692839621417
 31
0.0
  0
LINE
  5
56A
330
992
100
AcDbEntity
  8
1
  6
Continuous
100
AcDbLine
 10
216.2969418457236
 20
69.66692839621408
 30
0.0
 11
215.8238611472684
 21
70.18550589621416
 31
0.0
  0
LINE
  5
56B
330
992
100
AcDbEntity
  8
1
  6
Continuous
100
AcDbLine
 10
216.3469373457236
 20
70.18550589621416
 30
0.0
 11
216.2969418457236
 21
70.18550589621416
 31
0.0
  0
LINE
  5
56C
330
992
100
AcDbEntity
  8
1
  6
Continuous
100
AcDbLine
 10
217.1469403457237
 20
71.89128589621418
 30
0.0
 11
217.1469403457237
 21
70.98550889621418
 31
0.0
  0
LINE
  5
56D
330
992
100
AcDbEntity
  8
1
  6
Continuous
100
AcDbLine
 10
215.8238583457237
 20
70.18550589621416
 30
0.0
 11
215.5469418457236
 21
70.18550589621416
 31
0.0
  0
LINE
  5
56E
330
992
100
AcDbEntity
  8
1
  6
Continuous
100
AcDbLine
 10
215.5469418457236
 20
70.18550589621416
 30
0.0
 11
215.5469418457236
 21
69.86789439621418
 31
0.0
  0
LINE
  5
56F
330
992
100
AcDbEntity
  8
1
  6
Continuous
100
AcDbLine
 10
215.5469418457239
 20
69.86789439621418
 30
0.0
 11
215.2571954497854
 21
70.18550589621416
 31
0.0
  0
ARC
  5
570
330
992
100
AcDbEntity
  8
1
  6
Continuous
100
AcDbCircle
 10
215.5469418457236
 20
71.89128589621418
 30
0.0
 40
1.6
100
AcDbArc
 50
0.0000030000001391
 51
74.99999500000014
  0
ARC
  5
571
330
992
100
AcDbEntity
  8
1
  6
Continuous
100
AcDbCircle
 10
216.3469373457236
 20
70.98550889621418
 30
0.0
 40
0.8
100
AcDbArc
 50
270.0
 51
0.0000030000001391
  0
LINE
  5
572
330
992
100
AcDbEntity
  8
1
  6
Continuous
100
AcDbLine
 10
214.7969418457237
 20
70.18550589621416
 30
0.0
 11
214.7969418457237
 21
70.0688523962142
 31
0.0
  0
LINE
  5
573
330
992
100
AcDbEntity
  8
1
  6
Continuous
100
AcDbLine
 10
214.7969418457237
 20
70.0688523962142
 30
0.0
 11
214.6905228066075
 21
70.18550589621416
 31
0.0
  0
ARC
  5
574
330
992
100
AcDbEntity
  8
1
  6
Continuous
100
AcDbCircle
 10
205.3969403457236
 20
72.89309152596477
 30
0.0
 40
4.649153316556476
100
AcDbArc
 50
319.8965571814653
 51
324.3817084455053
  0
LINE
  5
575
330
992
100
AcDbEntity
  8
1
  6
Continuous
100
AcDbLine
 10
211.8674143457236
 20
74.53365039621427
 30
0.0
 11
215.9610503457237
 21
73.43676489621427
 31
0.0
  0
LINE
  5
576
330
992
100
AcDbEntity
  8
1
  6
Continuous
100
AcDbLine
 10
215.2571928457239
 20
70.18550589621416
 30
0.0
 11
214.7969418457237
 21
70.18550589621416
 31
0.0
  0
ARC
  5
577
330
992
100
AcDbEntity
  8
1
  6
Continuous
100
AcDbCircle
 10
220.1732886348568
 20
77.7633762289567
 30
0.0
 40
9.679128781733162
100
AcDbArc
 50
231.5276340205363
 51
270.0
  0
ARC
  5
578
330
992
100
AcDbEntity
  8
1
  6
Continuous
100
AcDbCircle
 10
220.1732886348568
 20
77.7633762289567
 30
0.0
 40
10.87912878173317
100
AcDbArc
 50
224.150957962792
 51
270.0
  0
LINE
  5
579
330
992
100
AcDbEntity
  8
1
  6
Continuous
100
AcDbLine
 10
194.3006046462332
 20
156.707052125177
 30
0.0
 11
156.0460936622803
 21
156.707052125177
 31
0.0
  0
LINE
  5
57A
330
992
100
AcDbEntity
  8
1
  6
Continuous
100
AcDbLine
 10
194.3006056723388
 20
136.7070521251771
 30
0.0
 11
156.0460936622803
 21
136.7070521251771
 31
0.0
  0
ARC
  5
57B
330
992
100
AcDbEntity
  8
1
  6
Continuous
100
AcDbCircle
 10
157.1134199709377
 20
298.9371944827888
 30
0.0
 40
5.0
100
AcDbArc
 50
272.4172029999999
 51
341.5240480675793
  0
LINE
  5
57C
330
992
100
AcDbEntity
  8
1
  6
Continuous
100
AcDbLine
 10
151.606705970938
 20
305.8526614827889
 30
0.0
 11
151.606705970938
 21
298.8526614827889
 31
0.0
  0
ARC
  5
57D
330
992
100
AcDbEntity
  8
1
  6
Continuous
100
AcDbCircle
 10
141.5856329709379
 20
302.0047754827889
 30
0.0
 40
2.0
100
AcDbArc
 50
359.9999950000003
 51
85.47245599999994
  0
ARC
  5
57E
330
992
100
AcDbEntity
  8
1
  6
Continuous
100
AcDbCircle
 10
141.1595619709378
 20
302.0072784827888
 30
0.0
 40
2.0
100
AcDbArc
 50
359.9999950000003
 51
85.39509800000002
  0
LINE
  5
57F
330
992
100
AcDbEntity
  8
1
  6
Continuous
100
AcDbLine
 10
156.0460936622803
 20
297.3526614822348
 30
0.0
 11
156.0460936622803
 21
317.3526614822347
 31
0.0
  0
ARC
  5
580
330
992
100
AcDbEntity
  8
1
  6
Continuous
100
AcDbCircle
 10
153.106705970938
 20
393.8526614827889
 30
0.0
 40
100.0
100
AcDbArc
 50
266.416691
 51
272.4172029999999
  0
LINE
  5
581
330
992
100
AcDbEntity
  8
1
  6
Continuous
100
AcDbLine
 10
148.356705970938
 20
298.1026614827888
 30
0.0
 11
144.4567119709379
 21
298.1026614827888
 31
0.0
  0
LINE
  5
582
330
992
100
AcDbEntity
  8
1
  6
Continuous
100
AcDbLine
 10
151.106705970938
 20
298.3526614827889
 30
0.0
 11
143.2067119709379
 21
298.3526614827889
 31
0.0
  0
ARC
  5
583
330
992
100
AcDbEntity
  8
1
  6
Continuous
100
AcDbCircle
 10
143.4567119709379
 20
298.6026614827888
 30
0.0
 40
0.5
100
AcDbArc
 50
293.2449909999999
 51
330.0000009999998
  0
ARC
  5
584
330
992
100
AcDbEntity
  8
1
  6
Continuous
100
AcDbCircle
 10
144.4567119709379
 20
298.6026614827888
 30
0.0
 40
0.5
100
AcDbArc
 50
210.0000109999994
 51
269.9999989999997
  0
ARC
  5
585
330
992
100
AcDbEntity
  8
1
  6
Continuous
100
AcDbCircle
 10
144.0856329709379
 20
298.8526614827889
 30
0.0
 40
0.5
100
AcDbArc
 50
180.0
 51
269.9999989999997
  0
ARC
  5
586
330
992
100
AcDbEntity
  8
1
  6
Continuous
100
AcDbCircle
 10
143.6595619709378
 20
298.8526614827889
 30
0.0
 40
0.5
100
AcDbArc
 50
180.0
 51
269.9999989999997
  0
ARC
  5
587
330
992
100
AcDbEntity
  8
1
  6
Continuous
100
AcDbCircle
 10
143.2067119709379
 20
298.8526614827889
 30
0.0
 40
0.5
100
AcDbArc
 50
205.3710559999998
 51
269.9999989999997
  0
ARC
  5
588
330
992
100
AcDbEntity
  8
1
  6
Continuous
100
AcDbCircle
 10
143.9697729709379
 20
297.4082034827888
 30
0.0
 40
0.8
100
AcDbArc
 50
113.2449820000001
 51
191.3936749999999
  0
LINE
  5
589
330
992
100
AcDbEntity
  8
1
  6
Continuous
100
AcDbLine
 10
143.5856329709379
 20
302.0047754827889
 30
0.0
 11
143.5856329709379
 21
298.8526614827889
 31
0.0
  0
LINE
  5
58A
330
992
100
AcDbEntity
  8
1
  6
Continuous
100
AcDbLine
 10
143.1595619709377
 20
302.0072784827888
 30
0.0
 11
143.1595619709377
 21
298.8526614827889
 31
0.0
  0
ARC
  5
58B
330
992
100
AcDbEntity
  8
1
  6
Continuous
100
AcDbCircle
 10
136.4300699709378
 20
295.6390834827888
 30
0.0
 40
7.0
100
AcDbArc
 50
25.37106000000015
 51
87.3173930000002
  0
ARC
  5
58C
330
992
100
AcDbEntity
  8
1
  6
Continuous
100
AcDbCircle
 10
147.106705970938
 20
298.0403444827889
 30
0.0
 40
4.0
100
AcDbArc
 50
191.3936749999999
 51
266.416691
  0
ARC
  5
58D
330
992
100
AcDbEntity
  8
1
  6
Continuous
100
AcDbCircle
 10
156.106705970938
 20
298.6506804827888
 30
0.0
 40
1.5
100
AcDbArc
 50
271.8337679999997
 51
300.0777625621385
  0
LINE
  5
58E
330
992
100
AcDbEntity
  8
1
  6
Continuous
100
AcDbLine
 10
152.356705970938
 20
297.1056214827888
 30
0.0
 11
152.356705970938
 21
293.8554834827888
 31
0.0
  0
ARC
  5
58F
330
992
100
AcDbEntity
  8
1
  6
Continuous
100
AcDbCircle
 10
152.606705970938
 20
298.6040034827888
 30
0.0
 40
1.5
100
AcDbArc
 50
210.0441089999995
 51
269.694417
  0
LINE
  5
590
330
992
100
AcDbEntity
  8
1
  6
Continuous
100
AcDbLine
 10
150.875443970938
 20
298.1026614827888
 30
0.0
 11
149.356705970938
 21
298.1026614827888
 31
0.0
  0
ARC
  5
591
330
992
100
AcDbEntity
  8
1
  6
Continuous
100
AcDbCircle
 10
149.356705970938
 20
298.6026614827888
 30
0.0
 40
0.5
100
AcDbArc
 50
210.0000109999994
 51
269.9999989999997
  0
ARC
  5
592
330
992
100
AcDbEntity
  8
1
  6
Continuous
100
AcDbCircle
 10
148.356705970938
 20
298.6026614827888
 30
0.0
 40
0.5
100
AcDbArc
 50
269.9999989999997
 51
330.0000009999998
  0
ARC
  5
593
330
992
100
AcDbEntity
  8
1
  6
Continuous
100
AcDbCircle
 10
151.106705970938
 20
298.8526614827889
 30
0.0
 40
0.5
100
AcDbArc
 50
269.9999989999997
 51
359.9999950000003
  0
ARC
  5
594
330
992
100
AcDbEntity
  8
1
  6
Continuous
100
AcDbCircle
 10
150.875443970938
 20
297.6026614827889
 30
0.0
 40
0.5
100
AcDbArc
 50
30.04411200000022
 51
89.99999699999987
  0
ARC
  5
595
330
992
100
AcDbEntity
  8
1
  6
Continuous
100
AcDbCircle
 10
153.106705970938
 20
392.3526614827888
 30
0.0
 40
95.25
100
AcDbArc
 50
269.694417
 51
274.152122692901
  0
ARC
  5
596
330
992
100
AcDbEntity
  8
1
  6
Continuous
100
AcDbCircle
 10
153.106705970938
 20
220.8526684827889
 30
0.0
 40
100.0
100
AcDbArc
 50
87.58278700000003
 51
93.58331999999977
  0
LINE
  5
597
330
992
100
AcDbEntity
  8
1
  6
Continuous
100
AcDbLine
 10
148.356705970938
 20
316.6026614827888
 30
0.0
 11
144.4567119709379
 21
316.6026614827888
 31
0.0
  0
LINE
  5
598
330
992
100
AcDbEntity
  8
1
  6
Continuous
100
AcDbLine
 10
151.106705970938
 20
316.3526614827887
 30
0.0
 11
143.2067119709379
 21
316.3526614827887
 31
0.0
  0
LINE
  5
599
330
992
100
AcDbEntity
  8
1
  6
Continuous
100
AcDbLine
 10
143.5856329709379
 20
312.7005614827889
 30
0.0
 11
143.5856329709379
 21
315.8526614827887
 31
0.0
  0
LINE
  5
59A
330
992
100
AcDbEntity
  8
1
  6
Continuous
100
AcDbLine
 10
143.1595619709377
 20
312.6980594827888
 30
0.0
 11
143.1595619709377
 21
315.8526614827887
 31
0.0
  0
ARC
  5
59B
330
992
100
AcDbEntity
  8
1
  6
Continuous
100
AcDbCircle
 10
143.4567119709379
 20
316.1026614827889
 30
0.0
 40
0.5
100
AcDbArc
 50
30.00000300000047
 51
66.75501999999989
  0
ARC
  5
59C
330
992
100
AcDbEntity
  8
1
  6
Continuous
100
AcDbCircle
 10
144.0856329709379
 20
315.8526614827887
 30
0.0
 40
0.5
100
AcDbArc
 50
89.99999699999987
 51
180.0
  0
ARC
  5
59D
330
992
100
AcDbEntity
  8
1
  6
Continuous
100
AcDbCircle
 10
143.6595619709378
 20
315.8526614827887
 30
0.0
 40
0.5
100
AcDbArc
 50
89.99999699999987
 51
180.0
  0
ARC
  5
59E
330
992
100
AcDbEntity
  8
1
  6
Continuous
100
AcDbCircle
 10
143.2067119709379
 20
315.8526614827887
 30
0.0
 40
0.5
100
AcDbArc
 50
89.99999699999987
 51
154.6289519999994
  0
ARC
  5
59F
330
992
100
AcDbEntity
  8
1
  6
Continuous
100
AcDbCircle
 10
141.5856329709379
 20
312.7005614827889
 30
0.0
 40
2.0
100
AcDbArc
 50
274.5275400000001
 51
359.9999950000003
  0
ARC
  5
5A0
330
992
100
AcDbEntity
  8
1
  6
Continuous
100
AcDbCircle
 10
141.1595619709378
 20
312.6980594827888
 30
0.0
 40
2.0
100
AcDbArc
 50
274.604913
 51
359.9999950000003
  0
ARC
  5
5A1
330
992
100
AcDbEntity
  8
1
  6
Continuous
100
AcDbCircle
 10
144.4567119709379
 20
316.1026614827889
 30
0.0
 40
0.5
100
AcDbArc
 50
89.99999699999987
 51
150.0
  0
ARC
  5
5A2
330
992
100
AcDbEntity
  8
1
  6
Continuous
100
AcDbCircle
 10
143.9697729709379
 20
317.2971494827888
 30
0.0
 40
0.8
100
AcDbArc
 50
168.6063289999998
 51
246.755008
  0
ARC
  5
5A3
330
992
100
AcDbEntity
  8
1
  6
Continuous
100
AcDbCircle
 10
136.4300699709378
 20
319.0662534827888
 30
0.0
 40
7.0
100
AcDbArc
 50
272.6825969999999
 51
334.6289440000003
  0
ARC
  5
5A4
330
992
100
AcDbEntity
  8
1
  6
Continuous
100
AcDbCircle
 10
156.106705970938
 20
316.0546564827888
 30
0.0
 40
1.5
100
AcDbArc
 50
59.9211704411055
 51
88.16622199999997
  0
LINE
  5
5A5
330
992
100
AcDbEntity
  8
1
  6
Continuous
100
AcDbLine
 10
152.356705970938
 20
317.5997164827888
 30
0.0
 11
152.356705970938
 21
320.8498534827888
 31
0.0
  0
ARC
  5
5A6
330
992
100
AcDbEntity
  8
1
  6
Continuous
100
AcDbCircle
 10
152.606705970938
 20
316.1013334827888
 30
0.0
 40
1.5
100
AcDbArc
 50
90.30558000000009
 51
149.9558830000002
  0
LINE
  5
5A7
330
992
100
AcDbEntity
  8
1
  6
Continuous
100
AcDbLine
 10
151.606705970938
 20
308.8526614827888
 30
0.0
 11
151.606705970938
 21
315.8526614827887
 31
0.0
  0
LINE
  5
5A8
330
992
100
AcDbEntity
  8
1
  6
Continuous
100
AcDbLine
 10
150.875443970938
 20
316.6026614827888
 30
0.0
 11
149.356705970938
 21
316.6026614827888
 31
0.0
  0
ARC
  5
5A9
330
992
100
AcDbEntity
  8
1
  6
Continuous
100
AcDbCircle
 10
149.356705970938
 20
316.1026614827889
 30
0.0
 40
0.5
100
AcDbArc
 50
89.99999699999987
 51
150.0
  0
ARC
  5
5AA
330
992
100
AcDbEntity
  8
1
  6
Continuous
100
AcDbCircle
 10
148.356705970938
 20
316.1026614827889
 30
0.0
 40
0.5
100
AcDbArc
 50
30.00000300000047
 51
89.99999699999987
  0
ARC
  5
5AB
330
992
100
AcDbEntity
  8
1
  6
Continuous
100
AcDbCircle
 10
151.106705970938
 20
315.8526614827887
 30
0.0
 40
0.5
100
AcDbArc
 50
359.9999950000003
 51
89.99999699999987
  0
ARC
  5
5AC
330
992
100
AcDbEntity
  8
1
  6
Continuous
100
AcDbCircle
 10
150.875443970938
 20
317.1026614827888
 30
0.0
 40
0.5
100
AcDbArc
 50
269.9999989999997
 51
329.9558910000004
  0
ARC
  5
5AD
330
992
100
AcDbEntity
  8
1
  6
Continuous
100
AcDbCircle
 10
153.106705970938
 20
222.3526684827888
 30
0.0
 40
95.25
100
AcDbArc
 50
85.84781915233397
 51
90.30558000000009
  0
LINE
  5
5AE
330
992
100
AcDbEntity
  8
1
  6
Continuous
100
AcDbLine
 10
152.4067239709379
 20
308.0526734827888
 30
0.0
 11
152.4067239709379
 21
306.6526644827888
 31
0.0
  0
ARC
  5
5AF
330
992
100
AcDbEntity
  8
1
  6
Continuous
100
AcDbCircle
 10
151.606705970938
 20
306.6526644827888
 30
0.0
 40
0.8
100
AcDbArc
 50
269.9999989999997
 51
359.9999950000003
  0
ARC
  5
5B0
330
992
100
AcDbEntity
  8
1
  6
Continuous
100
AcDbCircle
 10
151.606705970938
 20
308.0526734827888
 30
0.0
 40
0.8
100
AcDbArc
 50
359.9999950000003
 51
89.99999699999987
  0
LINE
  5
5B1
330
992
100
AcDbEntity
  8
1
  6
Continuous
100
AcDbLine
 10
211.8870223458509
 20
160.1570566257302
 30
0.0
 11
198.9068508458506
 21
160.1570566257301
 31
0.0
  0
LINE
  5
5B2
330
992
100
AcDbEntity
  8
1
  6
Continuous
100
AcDbLine
 10
211.4325990187403
 20
156.7070521251761
 30
0.0
 11
199.3612816729612
 21
156.7070521251761
 31
0.0
  0
LINE
  5
5B3
330
992
100
AcDbEntity
  8
1
  6
Continuous
100
AcDbLine
 10
211.8870223458509
 20
133.2570471257302
 30
0.0
 11
198.9068508458506
 21
133.2570471257302
 31
0.0
  0
LINE
  5
5B4
330
992
100
AcDbEntity
  8
1
  6
Continuous
100
AcDbLine
 10
211.4325990165207
 20
136.7070521251761
 30
0.0
 11
199.361281675181
 21
136.7070521251761
 31
0.0
  0
LINE
  5
5B5
330
992
100
AcDbEntity
  8
1
  6
Continuous
100
AcDbLine
 10
193.6469403458509
 20
146.70705212573
 30
0.0
 11
194.1134318458509
 21
137.8058411257301
 31
0.0
  0
LINE
  5
5B6
330
992
100
AcDbEntity
  8
1
  6
Continuous
100
AcDbLine
 10
198.046941845851
 20
154.5820521257302
 30
0.0
 11
198.046941845851
 21
138.8320521257302
 31
0.0
  0
ARC
  5
5B7
330
992
100
AcDbEntity
  8
1
  6
Continuous
100
AcDbCircle
 10
198.906850845851
 20
138.0570541257302
 30
0.0
 40
4.799999999999998
100
AcDbArc
 50
183.0000109999996
 51
270.0000100000002
  0
ARC
  5
5B8
330
992
100
AcDbEntity
  8
1
  6
Continuous
100
AcDbCircle
 10
200.421941845851
 20
138.8320521257302
 30
0.0
 40
2.375
100
AcDbArc
 50
180.0000009999996
 51
296.5253519866739
  0
LINE
  5
5B9
330
992
100
AcDbEntity
  8
1
  6
Continuous
100
AcDbLine
 10
193.6469403458509
 20
146.7070521257302
 30
0.0
 11
194.1134318458509
 21
155.6082666257301
 31
0.0
  0
ARC
  5
5BA
330
992
100
AcDbEntity
  8
1
  6
Continuous
100
AcDbCircle
 10
200.421941845851
 20
154.5820521257302
 30
0.0
 40
2.375
100
AcDbArc
 50
63.47464795346255
 51
180.0000009999996
  0
LINE
  5
5BB
330
992
100
AcDbEntity
  8
1
  6
Continuous
100
AcDbLine
 10
217.1469403458512
 20
146.7070521257302
 30
0.0
 11
216.680448845851
 21
137.8058411257303
 31
0.0
  0
LINE
  5
5BC
330
992
100
AcDbEntity
  8
1
  6
Continuous
100
AcDbLine
 10
212.7469388458507
 20
154.5820521257302
 30
0.0
 11
212.746938845851
 21
138.8320521257302
 31
0.0
  0
ARC
  5
5BD
330
992
100
AcDbEntity
  8
1
  6
Continuous
100
AcDbCircle
 10
210.3719388458509
 20
138.8320521257302
 30
0.0
 40
2.375
100
AcDbArc
 50
243.4746480133195
 51
0.0000030000001391
  0
ARC
  5
5BE
330
992
100
AcDbEntity
  8
1
  6
Continuous
100
AcDbCircle
 10
211.8870223458511
 20
138.0570541257302
 30
0.0
 40
4.799999999999998
100
AcDbArc
 50
270.0
 51
356.9999990000001
  0
LINE
  5
5BF
330
992
100
AcDbEntity
  8
1
  6
Continuous
100
AcDbLine
 10
217.1469403458512
 20
146.7070521257302
 30
0.0
 11
216.680448845851
 21
155.6082666257301
 31
0.0
  0
ARC
  5
5C0
330
992
100
AcDbEntity
  8
1
  6
Continuous
100
AcDbCircle
 10
210.3719388458509
 20
154.5820521257302
 30
0.0
 40
2.375
100
AcDbArc
 50
0.0000030000001391
 51
116.525352046532
  0
ARC
  5
5C1
330
992
100
AcDbEntity
  8
1
  6
Continuous
100
AcDbCircle
 10
211.8870223458509
 20
298.702659982726
 30
0.0
 40
4.799999999999998
100
AcDbArc
 50
269.9999949999999
 51
343.6651958842878
  0
ARC
  5
5C2
330
992
100
AcDbEntity
  8
1
  6
Continuous
100
AcDbCircle
 10
198.9068508458506
 20
298.702659982726
 30
0.0
 40
4.799999999999998
100
AcDbArc
 50
196.3348041157728
 51
269.9999949999999
  0
LINE
  5
5C3
330
992
100
AcDbEntity
  8
4
  6
CENTER
100
AcDbLine
 10
205.3969403458507
 20
322.4075054827898
 30
0.0
 11
205.3969403458507
 21
292.2978174827897
 31
0.0
  0
LINE
  5
5C6
330
992
100
AcDbEntity
  8
4
  6
CENTER
100
AcDbLine
 10
146.4067239709379
 20
322.3526614833176
 30
0.0
 11
146.4067239709379
 21
292.3526544833176
 31
0.0
  0
LINE
  5
5C7
330
992
100
AcDbEntity
  8
1
  6
Continuous
100
AcDbLine
 10
143.166321970938
 20
230.102289804228
 30
0.0
 11
118.9974069709378
 21
234.1164348042279
 31
0.0
  0
LINE
  5
5C8
330
992
100
AcDbEntity
  8
1
  6
Continuous
100
AcDbLine
 10
147.0574809709377
 20
232.1889748042281
 30
0.0
 11
119.228592970938
 21
235.6993358042281
 31
0.0
  0
LINE
  5
5C9
330
992
100
AcDbEntity
  8
1
  6
Continuous
100
AcDbLine
 10
125.4156049709379
 20
234.9188948042281
 30
0.0
 11
146.9378219709378
 21
233.0063128042281
 31
0.0
  0
LINE
  5
5CA
330
992
100
AcDbEntity
  8
1
  6
Continuous
100
AcDbLine
 10
142.7067119709379
 20
224.5298568042281
 30
0.0
 11
111.9067239709379
 21
224.5298568042281
 31
0.0
  0
LINE
  5
5CB
330
992
100
AcDbEntity
  8
1
  6
Continuous
100
AcDbLine
 10
142.806717970938
 20
222.0298568042281
 30
0.0
 11
111.9067239709379
 21
222.0298568042281
 31
0.0
  0
LINE
  5
5CC
330
992
100
AcDbEntity
  8
1
  6
Continuous
100
AcDbLine
 10
147.102371970938
 20
221.070322804228
 30
0.0
 11
113.066132970938
 21
217.0973008042279
 31
0.0
  0
LINE
  5
5CD
330
992
100
AcDbEntity
  8
4
  6
CENTER
100
AcDbLine
 10
167.1659705846852
 20
227.0298568042281
 30
0.0
 11
98.90672397093796
 21
227.0298568042281
 31
0.0
  0
ARC
  5
5CE
330
992
100
AcDbEntity
  8
1
  6
Continuous
100
AcDbCircle
 10
111.9067239709379
 20
227.0298568042281
 30
0.0
 40
2.5
100
AcDbArc
 50
119.9999969999999
 51
269.9999989999997
  0
ARC
  5
5CF
330
992
100
AcDbEntity
  8
1
  6
Continuous
100
AcDbCircle
 10
111.9067239709379
 20
227.0298568042281
 30
0.0
 40
5.0
100
AcDbArc
 50
119.9999969999999
 51
269.9999989999997
  0
ARC
  5
5D0
330
992
100
AcDbEntity
  8
1
  6
Continuous
100
AcDbCircle
 10
111.9067239709379
 20
227.0298568042281
 30
0.0
 40
10.0
100
AcDbArc
 50
102.482038
 51
276.6579589999999
  0
LINE
  5
5D1
330
992
100
AcDbEntity
  8
4
  6
CENTER
100
AcDbLine
 10
111.9067239709379
 20
239.5698538042279
 30
0.0
 11
111.9067239709379
 21
214.4898598042281
 31
0.0
  0
LINE
  5
5D2
330
992
100
AcDbEntity
  8
1
  6
Continuous
100
AcDbLine
 10
112.0765849709377
 20
232.9014388042279
 30
0.0
 11
109.4067239709379
 21
231.3599878042278
 31
0.0
  0
LINE
  5
5D3
330
992
100
AcDbEntity
  8
1
  6
Continuous
100
AcDbLine
 10
113.4426129709378
 20
230.803362804228
 30
0.0
 11
110.6567239709379
 21
229.194925804228
 31
0.0
  0
LINE
  5
5D4
330
992
100
AcDbEntity
  8
1
  6
Continuous
100
AcDbLine
 10
117.1435099709378
 20
238.4311938042281
 30
0.0
 11
109.745377970938
 21
236.7934978042281
 31
0.0
  0
ARC
  5
5D5
330
992
100
AcDbEntity
  8
1
  6
Continuous
100
AcDbCircle
 10
120.6567239709378
 20
236.7798568042281
 30
0.0
 40
1.25
100
AcDbArc
 50
255.0000020000001
 51
75.00000000000003
  0
ARC
  5
5D6
330
992
100
AcDbEntity
  8
1
  6
Continuous
100
AcDbCircle
 10
119.1284799709378
 20
234.9056198042281
 30
0.0
 40
0.8
100
AcDbArc
 50
82.81063599999979
 51
260.5699939999997
  0
LINE
  5
5D7
330
992
100
AcDbEntity
  8
1
  6
Continuous
100
AcDbLine
 10
120.333191970938
 20
235.5724518042281
 30
0.0
 11
118.8712319709378
 21
235.964182804228
 31
0.0
  0
LINE
  5
5D8
330
992
100
AcDbEntity
  8
1
  6
Continuous
100
AcDbLine
 10
120.9802409709378
 20
237.987269804228
 30
0.0
 11
119.518265970938
 21
238.379000804228
 31
0.0
  0
LINE
  5
5D9
330
992
100
AcDbEntity
  8
1
  6
Continuous
100
AcDbLine
 10
113.8940439709381
 20
236.0493728042281
 30
0.0
 11
112.076584970938
 21
232.9014388042281
 31
0.0
  0
LINE
  5
5DA
330
992
100
AcDbEntity
  8
1
  6
Continuous
100
AcDbLine
 10
116.0591139709381
 20
234.7993728042279
 30
0.0
 11
114.1746679709381
 21
231.5354108042279
 31
0.0
  0
ARC
  5
5DB
330
992
100
AcDbEntity
  8
1
  6
Continuous
100
AcDbCircle
 10
112.4426129709378
 20
232.5354108042279
 30
0.0
 40
2.0
100
AcDbArc
 50
299.9999939999997
 51
330.0000009999998
  0
ARC
  5
5DC
330
992
100
AcDbEntity
  8
1
  6
Continuous
100
AcDbCircle
 10
118.2241679709379
 20
233.5493728042278
 30
0.0
 40
5.0
100
AcDbArc
 50
75.00000000000003
 51
150.0
  0
ARC
  5
5DD
330
992
100
AcDbEntity
  8
1
  6
Continuous
100
AcDbCircle
 10
118.2241679709379
 20
233.5493728042278
 30
0.0
 40
2.5
100
AcDbArc
 50
75.00000000000003
 51
150.0
  0
ARC
  5
5DE
330
992
100
AcDbEntity
  8
1
  6
Continuous
100
AcDbCircle
 10
220.1732886348568
 20
215.6507280224948
 30
0.0
 40
10.87912878173317
100
AcDbArc
 50
90.00000000000005
 51
135.8490420372078
  0
ARC
  5
5DF
330
992
100
AcDbEntity
  8
1
  6
Continuous
100
AcDbCircle
 10
184.4728713259364
 20
209.6825606797795
 30
0.0
 40
20.64729612444859
100
AcDbArc
 50
44.15095796279184
 51
90.00000000000005
  0
ARC
  5
5E0
330
992
100
AcDbEntity
  8
1
  6
Continuous
100
AcDbCircle
 10
184.4728713259364
 20
209.6825606797795
 30
0.0
 40
19.44729612444859
100
AcDbArc
 50
44.15095796279184
 51
90.00000000000005
  0
ARC
  5
5E1
330
992
100
AcDbEntity
  8
1
  6
Continuous
100
AcDbCircle
 10
190.6205920565908
 20
215.6507280224949
 30
0.0
 40
10.87912878173317
100
AcDbArc
 50
44.15095796279184
 51
89.9999999999996
  0
LINE
  5
5E2
330
992
100
AcDbEntity
  8
1
  6
Continuous
100
AcDbLine
 10
161.9110579709379
 20
226.0017048042282
 30
0.0
 11
161.9110579709379
 21
228.0580018042282
 31
0.0
  0
LINE
  5
5E3
330
992
100
AcDbEntity
  8
1
  6
Continuous
100
AcDbLine
 10
163.106705970938
 20
226.3298528042281
 30
0.0
 11
163.106705970938
 21
227.7298538042282
 31
0.0
  0
ARC
  5
5E4
330
992
100
AcDbEntity
  8
1
  6
Continuous
100
AcDbCircle
 10
170.2744028678924
 20
211.5298568042281
 30
0.0
 40
15.0
100
AcDbArc
 50
90.00000000000005
 51
122.1137322127574
  0
ARC
  5
5E5
330
992
100
AcDbEntity
  8
1
  6
Continuous
100
AcDbCircle
 10
191.7263340814329
 20
209.0078893269883
 30
0.0
 40
21.3219674772398
100
AcDbArc
 50
41.83218083060523
 51
90.00000000000005
  0
ARC
  5
5E6
330
992
100
AcDbEntity
  8
1
  6
Continuous
100
AcDbCircle
 10
191.7263340814329
 20
209.0078893269883
 30
0.0
 40
22.52196747723979
100
AcDbArc
 50
40.10344281853471
 51
90.00000000000005
  0
LINE
  5
5E7
330
992
100
AcDbEntity
  8
1
  6
Continuous
100
AcDbLine
 10
143.1067209709377
 20
226.1926988042282
 30
0.0
 11
143.1067209709377
 21
227.8670148042283
 31
0.0
  0
LINE
  5
5E8
330
992
100
AcDbEntity
  8
4
  6
CENTER
100
AcDbLine
 10
146.4067239709379
 20
219.0736683042282
 30
0.0
 11
146.4067239709379
 21
234.9860453042282
 31
0.0
  0
LINE
  5
5E9
330
992
100
AcDbEntity
  8
1
  6
Continuous
100
AcDbLine
 10
190.6205920565908
 20
226.5298568042281
 30
0.0
 11
170.2744028678924
 21
226.5298568042281
 31
0.0
  0
LINE
  5
5EA
330
992
100
AcDbEntity
  8
1
  6
Continuous
100
AcDbLine
 10
190.6205920565908
 20
225.3298568042282
 30
0.0
 11
170.2744028678924
 21
225.3298568042282
 31
0.0
  0
ARC
  5
5EB
330
992
100
AcDbEntity
  8
1
  6
Continuous
100
AcDbCircle
 10
160.5460936622803
 20
227.0298568042281
 30
0.0
 40
4.5
100
AcDbArc
 50
212.511230400494
 51
303.3535238379152
  0
LINE
  5
5EC
330
992
100
AcDbEntity
  8
1
  6
Continuous
100
AcDbLine
 10
161.5039839709379
 20
225.5104168042282
 30
0.0
 11
152.356705970938
 21
223.7798568042282
 31
0.0
  0
ARC
  5
5ED
330
992
100
AcDbEntity
  8
1
  6
Continuous
100
AcDbCircle
 10
160.5460936622803
 20
227.0298568042281
 30
0.0
 40
3.299999999999998
100
AcDbArc
 50
221.1354029917359
 51
302.1137322127572
  0
ARC
  5
5EE
330
992
100
AcDbEntity
  8
1
  6
Continuous
100
AcDbCircle
 10
146.4067239709379
 20
227.0298568042281
 30
0.0
 40
6.0
100
AcDbArc
 50
31.07100399999961
 51
84.92169699999994
  0
ARC
  5
5EF
330
992
100
AcDbEntity
  8
1
  6
Continuous
100
AcDbCircle
 10
146.4067239709379
 20
227.0298568042281
 30
0.0
 40
5.2
100
AcDbArc
 50
34.37907
 51
82.81063599999979
  0
LINE
  5
5F0
330
992
100
AcDbEntity
  8
1
  6
Continuous
100
AcDbLine
 10
152.356705970938
 20
223.7798568042282
 30
0.0
 11
143.7580119709376
 21
225.4066418042283
 31
0.0
  0
ARC
  5
5F1
330
992
100
AcDbEntity
  8
1
  6
Continuous
100
AcDbCircle
 10
144.0000929709378
 20
232.0706738042281
 30
0.0
 40
0.5
100
AcDbArc
 50
82.81063599999979
 51
170.5699999999997
  0
LINE
  5
5F2
330
992
100
AcDbEntity
  8
1
  6
Continuous
100
AcDbLine
 10
143.5068519709379
 20
232.152598804228
 30
0.0
 11
143.166321970938
 21
230.102289804228
 31
0.0
  0
ARC
  5
5F3
330
992
100
AcDbEntity
  8
1
  6
Continuous
100
AcDbCircle
 10
146.4067239709379
 20
227.0298568042281
 30
0.0
 40
2.45
100
AcDbArc
 50
69.13843399999993
 51
132.2878139999996
  0
ARC
  5
5F4
330
992
100
AcDbEntity
  8
1
  6
Continuous
100
AcDbCircle
 10
143.9067239709379
 20
226.1926988042282
 30
0.0
 40
0.8
100
AcDbArc
 50
180.0
 51
259.286878
  0
LINE
  5
5F5
330
992
100
AcDbEntity
  8
1
  6
Continuous
100
AcDbLine
 10
144.5641339709379
 20
229.363291804228
 30
0.0
 11
143.577652970938
 21
229.527125804228
 31
0.0
  0
LINE
  5
5F6
330
992
100
AcDbEntity
  8
1
  6
Continuous
100
AcDbLine
 10
145.9492809709379
 20
229.640085804228
 30
0.0
 11
145.1392989709379
 21
229.7746078042279
 31
0.0
  0
ARC
  5
5F7
330
992
100
AcDbEntity
  8
1
  6
Continuous
100
AcDbCircle
 10
144.6460429709379
 20
229.856531804228
 30
0.0
 40
0.5
100
AcDbArc
 50
260.5699939999997
 51
350.5700039999997
  0
ARC
  5
5F8
330
992
100
AcDbEntity
  8
1
  6
Continuous
100
AcDbCircle
 10
143.6595619709378
 20
230.020372804228
 30
0.0
 40
0.5
100
AcDbArc
 50
170.5699999999997
 51
260.5699939999997
  0
ARC
  5
5F9
330
992
100
AcDbEntity
  8
1
  6
Continuous
100
AcDbCircle
 10
146.4067239709379
 20
227.0298568042281
 30
0.0
 40
2.649999999999999
100
AcDbArc
 50
62.68045099999984
 51
99.94004000000005
  0
ARC
  5
5FA
330
992
100
AcDbEntity
  8
1
  6
Continuous
100
AcDbCircle
 10
162.306717970938
 20
226.3298528042281
 30
0.0
 40
0.8
100
AcDbArc
 50
270.000003
 51
0.000004999999703
  0
ARC
  5
5FB
330
992
100
AcDbEntity
  8
1
  6
Continuous
100
AcDbCircle
 10
161.4110579709379
 20
226.0017048042282
 30
0.0
 40
0.5
100
AcDbArc
 50
280.7131200000002
 51
0.000004999999703
  0
LINE
  5
5FC
330
992
100
AcDbEntity
  8
1
  6
Continuous
100
AcDbLine
 10
162.306717970938
 20
225.5298568042281
 30
0.0
 11
161.576447970938
 21
225.5298568042281
 31
0.0
  0
ARC
  5
5FD
330
992
100
AcDbEntity
  8
1
  6
Continuous
100
AcDbCircle
 10
170.2744028678924
 20
211.5298568042281
 30
0.0
 40
13.8
100
AcDbArc
 50
90.00000000000005
 51
122.1137322127574
  0
LINE
  5
5FE
330
992
100
AcDbEntity
  8
1
  6
Continuous
100
AcDbLine
 10
216.2969418457236
 20
223.2285983552373
 30
0.0
 11
194.4969388457238
 21
223.2285983552374
 31
0.0
  0
ARC
  5
5FF
330
992
100
AcDbEntity
  8
1
  6
Continuous
100
AcDbCircle
 10
205.3969403457236
 20
220.5210127254867
 30
0.0
 40
4.649153316556476
100
AcDbArc
 50
207.5488730623232
 51
332.4511269376757
  0
ARC
  5
600
330
992
100
AcDbEntity
  8
1
  6
Continuous
100
AcDbCircle
 10
205.3969403457236
 20
220.5210127254867
 30
0.0
 40
5.879153316556476
100
AcDbArc
 50
198.2422209468048
 51
341.757779053195
  0
ARC
  5
601
330
992
100
AcDbEntity
  8
1
  6
Continuous
100
AcDbCircle
 10
205.3969403457236
 20
243.0285938552373
 30
0.0
 40
25.0
100
AcDbArc
 50
254.9606950086626
 51
285.0000049999998
  0
LINE
  5
602
330
992
100
AcDbEntity
  8
1
  6
Continuous
100
AcDbLine
 10
198.9264658457238
 20
218.8804538552373
 30
0.0
 11
194.8328303457236
 21
219.9773393552373
 31
0.0
  0
ARC
  5
603
330
992
100
AcDbEntity
  8
1
  6
Continuous
100
AcDbCircle
 10
190.6205920565908
 20
215.6507280224949
 30
0.0
 40
9.679128781733162
100
AcDbArc
 50
51.52763402053572
 51
89.9999999999996
  0
ARC
  5
604
330
992
100
AcDbEntity
  8
1
  6
Continuous
100
AcDbCircle
 10
195.2469388457238
 20
221.5228183552373
 30
0.0
 40
1.6
100
AcDbArc
 50
179.9999990000002
 51
254.9999979999998
  0
LINE
  5
605
330
992
100
AcDbEntity
  8
1
  6
Continuous
100
AcDbLine
 10
194.4969388457238
 20
223.7471758552374
 30
0.0
 11
194.9700195441791
 21
223.2285983552373
 31
0.0
  0
ARC
  5
606
330
992
100
AcDbEntity
  8
1
  6
Continuous
100
AcDbCircle
 10
194.4469358457238
 20
222.4285953552373
 30
0.0
 40
0.8
100
AcDbArc
 50
90.00000000000005
 51
179.9999990000002
  0
LINE
  5
607
330
992
100
AcDbEntity
  8
1
  6
Continuous
100
AcDbLine
 10
194.4969388457238
 20
223.2285983552373
 30
0.0
 11
194.4969388457238
 21
223.7471758552373
 31
0.0
  0
LINE
  5
608
330
992
100
AcDbEntity
  8
1
  6
Continuous
100
AcDbLine
 10
193.6469403457238
 20
221.5228183552373
 30
0.0
 11
193.6469403457238
 21
222.4285953552373
 31
0.0
  0
LINE
  5
609
330
992
100
AcDbEntity
  8
1
  6
Continuous
100
AcDbLine
 10
194.4469358457234
 20
223.2285983552374
 30
0.0
 11
194.4969388457238
 21
223.2285983552374
 31
0.0
  0
LINE
  5
60A
330
992
100
AcDbEntity
  8
1
  6
Continuous
100
AcDbLine
 10
195.5366878457239
 20
223.2285983552373
 30
0.0
 11
195.9969388457238
 21
223.2285983552373
 31
0.0
  0
LINE
  5
60B
330
992
100
AcDbEntity
  8
1
  6
Continuous
100
AcDbLine
 10
195.9969388457238
 20
223.3452518552373
 30
0.0
 11
196.10335788484
 21
223.2285983552373
 31
0.0
  0
LINE
  5
60C
330
992
100
AcDbEntity
  8
1
  6
Continuous
100
AcDbLine
 10
195.2469388457238
 20
223.5462098552375
 30
0.0
 11
195.5366852416623
 21
223.2285983552373
 31
0.0
  0
LINE
  5
60D
330
992
100
AcDbEntity
  8
1
  6
Continuous
100
AcDbLine
 10
195.9969388457238
 20
223.2285983552373
 30
0.0
 11
195.9969388457238
 21
223.3452518552374
 31
0.0
  0
LINE
  5
60E
330
992
100
AcDbEntity
  8
1
  6
Continuous
100
AcDbLine
 10
195.2469388457238
 20
223.2285983552373
 30
0.0
 11
195.2469388457238
 21
223.5462098552372
 31
0.0
  0
LINE
  5
60F
330
992
100
AcDbEntity
  8
1
  6
Continuous
100
AcDbLine
 10
194.9700223457238
 20
223.2285983552373
 30
0.0
 11
195.2469388457238
 21
223.2285983552373
 31
0.0
  0
ARC
  5
610
330
992
100
AcDbEntity
  8
1
  6
Continuous
100
AcDbCircle
 10
204.4469358457237
 20
217.9729828552374
 30
0.0
 40
0.2
100
AcDbArc
 50
359.9999969999998
 51
19.63808301054162
  0
ARC
  5
611
330
992
100
AcDbEntity
  8
1
  6
Continuous
100
AcDbCircle
 10
206.3469373457237
 20
217.9729828552374
 30
0.0
 40
0.2
100
AcDbArc
 50
160.3619872864078
 51
179.9999990000002
  0
LINE
  5
612
330
992
100
AcDbEntity
  8
1
  6
Continuous
100
AcDbLine
 10
204.6469403457237
 20
217.5048663552373
 30
0.0
 11
204.6469403457237
 21
217.9729828552374
 31
0.0
  0
LINE
  5
613
330
992
100
AcDbEntity
  8
1
  6
Continuous
100
AcDbLine
 10
204.6469403457237
 20
217.5048663552374
 30
0.0
 11
205.1716826865817
 21
218.0296086960954
 31
0.0
  0
LINE
  5
614
330
992
100
AcDbEntity
  8
1
  6
Continuous
100
AcDbLine
 10
206.1469403457237
 20
217.5048663552373
 30
0.0
 11
206.1469403457237
 21
217.9729828552374
 31
0.0
  0
LINE
  5
615
330
992
100
AcDbEntity
  8
1
  6
Continuous
100
AcDbLine
 10
206.146940345724
 20
217.5048663552373
 30
0.0
 11
205.6221980048658
 21
218.0296086960954
 31
0.0
  0
LINE
  5
616
330
992
100
AcDbEntity
  8
1
  6
Continuous
100
AcDbLine
 10
206.8969403457237
 20
217.7058243552374
 30
0.0
 11
206.5476796236426
 21
218.0550919158966
 31
0.0
  0
LINE
  5
617
330
992
100
AcDbEntity
  8
1
  6
Continuous
100
AcDbLine
 10
207.6469403457236
 20
217.9067903552373
 30
0.0
 11
207.6469403457236
 21
218.1300497210918
 31
0.0
  0
LINE
  5
618
330
992
100
AcDbEntity
  8
1
  6
Continuous
100
AcDbLine
 10
206.8969403457237
 20
217.7058243552374
 30
0.0
 11
206.8969403457237
 21
218.0736344283018
 31
0.0
  0
LINE
  5
619
330
992
100
AcDbEntity
  8
1
  6
Continuous
100
AcDbLine
 10
207.646940345724
 20
217.9067903552373
 30
0.0
 11
207.4414002809439
 21
218.1123304200174
 31
0.0
  0
LINE
  5
61A
330
992
100
AcDbEntity
  8
1
  6
Continuous
100
AcDbLine
 10
203.1469403457236
 20
217.9067903552374
 30
0.0
 11
203.3524804105037
 21
218.1123304200174
 31
0.0
  0
ARC
  5
61B
330
992
100
AcDbEntity
  8
1
  6
Continuous
100
AcDbCircle
 10
190.6205920565908
 20
215.6507280224949
 30
0.0
 40
12.07912878173316
100
AcDbArc
 50
38.85505581146468
 51
44.15095796279184
  0
LINE
  5
61C
330
992
100
AcDbEntity
  8
1
  6
Continuous
100
AcDbLine
 10
203.1469403457236
 20
217.9067903552373
 30
0.0
 11
203.1469403457236
 21
218.1300497210918
 31
0.0
  0
LINE
  5
61D
330
992
100
AcDbEntity
  8
1
  6
Continuous
100
AcDbLine
 10
203.8969403457236
 20
217.7058243552374
 30
0.0
 11
203.8969403457236
 21
218.0736344283018
 31
0.0
  0
ARC
  5
61E
330
992
100
AcDbEntity
  8
1
  6
Continuous
100
AcDbCircle
 10
205.3969403457236
 20
220.5210127254867
 30
0.0
 40
3.449153316556476
100
AcDbArc
 50
223.3147559799546
 51
316.6852440200445
  0
LINE
  5
61F
330
992
100
AcDbEntity
  8
1
  6
Continuous
100
AcDbLine
 10
203.8969403457236
 20
217.7058323552373
 30
0.0
 11
204.2461999575423
 21
218.0550919670557
 31
0.0
  0
LINE
  5
620
330
992
100
AcDbEntity
  8
4
  6
CENTER
100
AcDbLine
 10
205.3969403457236
 20
212.5325272208101
 30
0.0
 11
205.3969403457236
 21
224.5816554496543
 31
0.0
  0
ARC
  5
621
330
992
100
AcDbEntity
  8
1
  6
Continuous
100
AcDbCircle
 10
216.3469373457236
 20
222.4285953552373
 30
0.0
 40
0.8
100
AcDbArc
 50
359.9999969999998
 51
90.00000000000005
  0
ARC
  5
622
330
992
100
AcDbEntity
  8
1
  6
Continuous
100
AcDbCircle
 10
215.5469418457236
 20
221.5228183552373
 30
0.0
 40
1.6
100
AcDbArc
 50
285.0000049999998
 51
359.9999969999998
  0
LINE
  5
623
330
992
100
AcDbEntity
  8
1
  6
Continuous
100
AcDbLine
 10
215.5469418457239
 20
223.5462098552372
 30
0.0
 11
215.2571954497854
 21
223.2285983552373
 31
0.0
  0
LINE
  5
624
330
992
100
AcDbEntity
  8
1
  6
Continuous
100
AcDbLine
 10
215.5469418457236
 20
223.2285983552373
 30
0.0
 11
215.5469418457236
 21
223.5462098552372
 31
0.0
  0
LINE
  5
625
330
992
100
AcDbEntity
  8
1
  6
Continuous
100
AcDbLine
 10
215.8238583457237
 20
223.2285983552373
 30
0.0
 11
215.5469418457236
 21
223.2285983552373
 31
0.0
  0
LINE
  5
626
330
992
100
AcDbEntity
  8
1
  6
Continuous
100
AcDbLine
 10
217.1469403457237
 20
221.5228183552373
 30
0.0
 11
217.1469403457237
 21
222.4285953552373
 31
0.0
  0
LINE
  5
627
330
992
100
AcDbEntity
  8
1
  6
Continuous
100
AcDbLine
 10
216.3469373457236
 20
223.2285983552373
 30
0.0
 11
216.2969418457236
 21
223.2285983552373
 31
0.0
  0
LINE
  5
628
330
992
100
AcDbEntity
  8
1
  6
Continuous
100
AcDbLine
 10
216.2969418457236
 20
223.7471758552374
 30
0.0
 11
215.8238611472684
 21
223.2285983552373
 31
0.0
  0
LINE
  5
629
330
992
100
AcDbEntity
  8
1
  6
Continuous
100
AcDbLine
 10
216.2969418457236
 20
223.2285983552373
 30
0.0
 11
216.2969418457236
 21
223.7471758552373
 31
0.0
  0
ARC
  5
62A
330
992
100
AcDbEntity
  8
1
  6
Continuous
100
AcDbCircle
 10
205.3969403457236
 20
220.5210127254867
 30
0.0
 40
4.649153316556476
100
AcDbArc
 50
35.61829155449457
 51
40.10344281853471
  0
LINE
  5
62B
330
992
100
AcDbEntity
  8
1
  6
Continuous
100
AcDbLine
 10
214.7969418457237
 20
223.3452518552373
 30
0.0
 11
214.6905228066075
 21
223.2285983552373
 31
0.0
  0
LINE
  5
62C
330
992
100
AcDbEntity
  8
1
  6
Continuous
100
AcDbLine
 10
214.7969418457237
 20
223.2285983552373
 30
0.0
 11
214.7969418457237
 21
223.3452518552373
 31
0.0
  0
LINE
  5
62D
330
992
100
AcDbEntity
  8
1
  6
Continuous
100
AcDbLine
 10
215.2571928457239
 20
223.2285983552373
 30
0.0
 11
214.7969418457237
 21
223.2285983552373
 31
0.0
  0
LINE
  5
62E
330
992
100
AcDbEntity
  8
1
  6
Continuous
100
AcDbLine
 10
211.8674143457236
 20
218.8804538552372
 30
0.0
 11
215.9610503457237
 21
219.9773393552372
 31
0.0
  0
ARC
  5
62F
330
992
100
AcDbEntity
  8
1
  6
Continuous
100
AcDbCircle
 10
220.1732886348568
 20
215.6507280224948
 30
0.0
 40
9.679128781733162
100
AcDbArc
 50
90.00000000000005
 51
128.4723659794636
  0
LINE
  5
630
330
992
100
AcDbEntity
  8
1
  6
Continuous
100
AcDbLine
 10
191.7263340814329
 20
231.5298568042281
 30
0.0
 11
160.5460936622803
 21
231.5298568042281
 31
0.0
  0
LINE
  5
631
330
992
100
AcDbEntity
  8
1
  6
Continuous
100
AcDbLine
 10
184.4728713259364
 20
229.1298568042281
 30
0.0
 11
163.106705970938
 21
229.1298568042281
 31
0.0
  0
LINE
  5
632
330
992
100
AcDbEntity
  8
1
  6
Continuous
100
AcDbLine
 10
191.7263340814329
 20
230.3298568042282
 30
0.0
 11
160.5460936622803
 21
230.3298568042282
 31
0.0
  0
ARC
  5
633
330
992
100
AcDbEntity
  8
1
  6
Continuous
100
AcDbCircle
 10
160.5460936622803
 20
227.0298568042281
 30
0.0
 40
4.5
100
AcDbArc
 50
90.00000000000005
 51
147.4888213852276
  0
LINE
  5
634
330
992
100
AcDbEntity
  8
1
  6
Continuous
100
AcDbLine
 10
152.356705970938
 20
230.2798568042282
 30
0.0
 11
161.5039839709379
 21
228.5492888042282
 31
0.0
  0
ARC
  5
635
330
992
100
AcDbEntity
  8
1
  6
Continuous
100
AcDbCircle
 10
160.5460936622803
 20
227.0298568042281
 30
0.0
 40
3.299999999999998
100
AcDbArc
 50
90.00000000000005
 51
138.8646956999203
  0
LINE
  5
636
330
992
100
AcDbEntity
  8
1
  6
Continuous
100
AcDbLine
 10
143.7580119709376
 20
228.6530718042282
 30
0.0
 11
152.356705970938
 21
230.2798568042282
 31
0.0
  0
ARC
  5
637
330
992
100
AcDbEntity
  8
1
  6
Continuous
100
AcDbCircle
 10
146.4067239709379
 20
227.0298568042281
 30
0.0
 40
6.0
100
AcDbArc
 50
276.6579589999999
 51
328.9289989999996
  0
ARC
  5
638
330
992
100
AcDbEntity
  8
1
  6
Continuous
100
AcDbCircle
 10
146.4067239709379
 20
227.0298568042281
 30
0.0
 40
5.2
100
AcDbArc
 50
269.9999989999997
 51
325.6209349999999
  0
ARC
  5
639
330
992
100
AcDbEntity
  8
1
  6
Continuous
100
AcDbCircle
 10
146.4067239709379
 20
227.0298568042281
 30
0.0
 40
2.45
100
AcDbArc
 50
227.7121959999997
 51
290.8615549999997
  0
LINE
  5
63A
330
992
100
AcDbEntity
  8
1
  6
Continuous
100
AcDbLine
 10
146.4067239709379
 20
221.829859804228
 30
0.0
 11
143.2067119709379
 21
221.829859804228
 31
0.0
  0
LINE
  5
63B
330
992
100
AcDbEntity
  8
1
  6
Continuous
100
AcDbLine
 10
145.5277869709379
 20
224.5298568042281
 30
0.0
 11
144.7067119709379
 21
224.5298568042281
 31
0.0
  0
ARC
  5
63C
330
992
100
AcDbEntity
  8
1
  6
Continuous
100
AcDbCircle
 10
143.2067119709379
 20
222.3298598042279
 30
0.0
 40
0.5
100
AcDbArc
 50
180.0
 51
269.9999989999997
  0
ARC
  5
63D
330
992
100
AcDbEntity
  8
1
  6
Continuous
100
AcDbCircle
 10
143.2067119709379
 20
224.5298568042281
 30
0.0
 40
0.5
100
AcDbArc
 50
89.99999699999998
 51
180.0
  0
ARC
  5
63E
330
992
100
AcDbEntity
  8
1
  6
Continuous
100
AcDbCircle
 10
144.2067119709379
 20
224.5298568042281
 30
0.0
 40
0.5
100
AcDbArc
 50
359.9999950000003
 51
89.99999699999998
  0
ARC
  5
63F
330
992
100
AcDbEntity
  8
1
  6
Continuous
100
AcDbCircle
 10
143.9067239709379
 20
227.8670148042283
 30
0.0
 40
0.8
100
AcDbArc
 50
100.713125
 51
180.0
  0
LINE
  5
640
330
992
100
AcDbEntity
  8
1
  6
Continuous
100
AcDbLine
 10
144.2067119709379
 20
225.0298568042281
 30
0.0
 11
143.2067119709379
 21
225.0298568042281
 31
0.0
  0
LINE
  5
641
330
992
100
AcDbEntity
  8
1
  6
Continuous
100
AcDbLine
 10
142.7067119709379
 20
224.5298568042281
 30
0.0
 11
142.7067119709379
 21
222.3298598042279
 31
0.0
  0
ARC
  5
642
330
992
100
AcDbEntity
  8
1
  6
Continuous
100
AcDbCircle
 10
146.4067239709379
 20
227.0298568042281
 30
0.0
 40
2.649999999999999
100
AcDbArc
 50
250.6299660000002
 51
297.3195539999998
  0
ARC
  5
643
330
992
100
AcDbEntity
  8
1
  6
Continuous
100
AcDbCircle
 10
162.306717970938
 20
227.7298538042282
 30
0.0
 40
0.8
100
AcDbArc
 50
0.000004999999703
 51
90.0000010000002
  0
ARC
  5
644
330
992
100
AcDbEntity
  8
1
  6
Continuous
100
AcDbCircle
 10
161.4110579709379
 20
228.0580018042282
 30
0.0
 40
0.5
100
AcDbArc
 50
0.000004999999703
 51
79.28687700000015
  0
LINE
  5
645
330
992
100
AcDbEntity
  8
1
  6
Continuous
100
AcDbLine
 10
162.306717970938
 20
228.5298568042281
 30
0.0
 11
161.576447970938
 21
228.5298568042281
 31
0.0
  0
LINE
  5
646
330
992
100
AcDbEntity
  8
1
  6
Continuous
100
AcDbLine
 10
163.106705970938
 20
229.1298568042281
 30
0.0
 11
163.106705970938
 21
230.3298568042282
 31
0.0
  0
LINE
  5
684
330
992
100
AcDbEntity
  8
1
  6
Continuous
100
AcDbLine
 10
211.8870223458509
 20
293.902656982726
 30
0.0
 11
198.9068508458506
 21
293.9026569827261
 31
0.0
  0
LINE
  5
685
330
992
100
AcDbEntity
  8
1
  6
Continuous
100
AcDbLine
 10
211.8870223458509
 20
320.802666482726
 30
0.0
 11
198.9068508458506
 21
320.802666482726
 31
0.0
  0
ARC
  5
686
330
992
100
AcDbEntity
  8
1
  6
Continuous
100
AcDbCircle
 10
200.421941845851
 20
299.477661482726
 30
0.0
 40
2.375
100
AcDbArc
 50
243.474647953618
 51
296.5253520465373
  0
ARC
  5
687
330
992
100
AcDbEntity
  8
1
  6
Continuous
100
AcDbCircle
 10
198.906850845851
 20
316.0026594827261
 30
0.0
 40
4.799999999999998
100
AcDbArc
 50
89.99998999999981
 51
163.6651523350415
  0
ARC
  5
688
330
992
100
AcDbEntity
  8
1
  6
Continuous
100
AcDbCircle
 10
200.421941845851
 20
315.227661482726
 30
0.0
 40
2.375
100
AcDbArc
 50
63.47464801332611
 51
116.5253519868421
  0
LINE
  5
689
330
992
100
AcDbEntity
  8
1
  6
Continuous
100
AcDbLine
 10
210.7428124518769
 20
297.3526614832796
 30
0.0
 11
210.7428124518769
 21
317.3526614832795
 31
0.0
  0
ARC
  5
68A
330
992
100
AcDbEntity
  8
1
  6
Continuous
100
AcDbCircle
 10
210.3719388458509
 20
299.477661482726
 30
0.0
 40
2.375
100
AcDbArc
 50
243.474647953468
 51
296.5253520465271
  0
ARC
  5
68B
330
992
100
AcDbEntity
  8
1
  6
Continuous
100
AcDbCircle
 10
210.3719388458509
 20
315.227661482726
 30
0.0
 40
2.375
100
AcDbArc
 50
63.4746480133001
 51
116.5253519866804
  0
ARC
  5
68C
330
992
100
AcDbEntity
  8
1
  6
Continuous
100
AcDbCircle
 10
211.8870223458511
 20
316.0026594827261
 30
0.0
 40
4.799999999999998
100
AcDbArc
 50
16.33484766501991
 51
90.00000000000005
  0
ARC
  5
68D
330
992
100
AcDbEntity
  8
1
  6
Continuous
100
AcDbCircle
 10
1207.31386277932
 20
159.4070591257311
 30
0.0
 40
0.8
100
AcDbArc
 50
359.999999999996
 51
90.00000000000101
  0
ARC
  5
68E
330
992
100
AcDbEntity
  8
1
  6
Continuous
100
AcDbCircle
 10
1209.063865378345
 20
159.4070591257311
 30
0.0
 40
0.8
100
AcDbArc
 50
0.000000000000007
 51
90.0
  0
ARC
  5
68F
330
992
100
AcDbEntity
  8
1
  6
Continuous
100
AcDbCircle
 10
1202.012606929354
 20
159.3570566257301
 30
0.0
 40
0.8
100
AcDbArc
 50
0.000000000000007
 51
90.0
  0
ARC
  5
690
330
992
100
AcDbEntity
  8
1
  6
Continuous
100
AcDbCircle
 10
1198.412602429354
 20
159.3570566257301
 30
0.0
 40
0.8
100
AcDbArc
 50
90.0
 51
180.0
  0
ARC
  5
691
330
992
100
AcDbEntity
  8
1
  6
Continuous
100
AcDbCircle
 10
1205.913867977371
 20
159.4070591257311
 30
0.0
 40
0.8
100
AcDbArc
 50
89.99999999999898
 51
180.0000000000038
  0
ARC
  5
692
330
992
100
AcDbEntity
  8
1
  6
Continuous
100
AcDbCircle
 10
1204.163865378345
 20
159.4070591257311
 30
0.0
 40
0.8
100
AcDbArc
 50
90.0
 51
180.0
  0
LINE
  5
693
330
992
100
AcDbEntity
  8
4
  6
CENTER
100
AcDbLine
 10
1206.613865378345
 20
163.2070591257311
 30
0.0
 11
1206.613865378345
 21
130.2070521257313
 31
0.0
  0
LINE
  5
696
330
992
100
AcDbEntity
  8
4
  6
CENTER
100
AcDbLine
 10
1100.679216310901
 20
131.7070521251367
 30
0.0
 11
1100.679216310901
 21
161.7070591251367
 31
0.0
  0
LINE
  5
697
330
992
100
AcDbEntity
  8
1
  6
Continuous
100
AcDbLine
 10
1201.573048378345
 20
155.707052125731
 30
0.0
 11
1211.313862378345
 21
155.707052125731
 31
0.0
  0
LINE
  5
698
330
992
100
AcDbEntity
  8
1
  6
Continuous
100
AcDbLine
 10
1202.113865378345
 20
156.707052125177
 30
0.0
 11
1203.363865378345
 21
156.707052125177
 31
0.0
  0
LINE
  5
699
330
992
100
AcDbEntity
  8
1
  6
Continuous
100
AcDbLine
 10
1201.573048378345
 20
152.5939688196524
 30
0.0
 11
1203.787190378345
 21
152.5939688196524
 31
0.0
  0
LINE
  5
69A
330
992
100
AcDbEntity
  8
1
  6
Continuous
100
AcDbLine
 10
1215.898749074666
 20
148.2070521257311
 30
0.0
 11
1197.413865378345
 21
148.2070521257311
 31
0.0
  0
LINE
  5
69B
330
992
100
AcDbEntity
  8
1
  6
Continuous
100
AcDbLine
 10
1215.898749074666
 20
145.207052125731
 30
0.0
 11
1197.413865378345
 21
145.207052125731
 31
0.0
  0
LINE
  5
69C
330
992
100
AcDbEntity
  8
1
  6
Continuous
100
AcDbLine
 10
1217.408445200776
 20
148.7753734173496
 30
0.0
 11
1201.763330698267
 21
150.2498560806037
 31
0.0
  0
LINE
  5
69D
330
992
100
AcDbEntity
  8
4
  6
CENTER
100
AcDbLine
 10
1219.613865378345
 20
146.7070521252201
 30
0.0
 11
1191.225867983047
 21
146.7070521251726
 31
0.0
  0
LINE
  5
69E
330
992
100
AcDbEntity
  8
1
  6
Continuous
100
AcDbLine
 10
1201.573048378345
 20
137.7070521257311
 30
0.0
 11
1211.313862378345
 21
137.7070521257311
 31
0.0
  0
LINE
  5
69F
330
992
100
AcDbEntity
  8
1
  6
Continuous
100
AcDbLine
 10
1202.113865378345
 20
136.7070521251771
 30
0.0
 11
1203.363865378345
 21
136.7070521251771
 31
0.0
  0
LINE
  5
6A0
330
992
100
AcDbEntity
  8
1
  6
Continuous
100
AcDbLine
 10
1201.573048378345
 20
140.8201354307058
 30
0.0
 11
1203.787190378345
 21
140.8201354307058
 31
0.0
  0
LINE
  5
6A1
330
992
100
AcDbEntity
  8
1
  6
Continuous
100
AcDbLine
 10
1217.408445200776
 20
144.6387308330085
 30
0.0
 11
1201.763330698267
 21
143.1642481697545
 31
0.0
  0
LINE
  5
6A9
330
992
100
AcDbEntity
  8
1
  6
Continuous
100
AcDbLine
 10
1099.983568310901
 20
72.84378144718306
 30
0.0
 11
1134.019807310902
 21
76.81680344718315
 31
0.0
  0
LINE
  5
6AA
330
992
100
AcDbEntity
  8
1
  6
Continuous
100
AcDbLine
 10
1104.279222310901
 20
71.88424744718307
 30
0.0
 11
1135.179216310901
 21
71.88424744718307
 31
0.0
  0
LINE
  5
6AB
330
992
100
AcDbEntity
  8
1
  6
Continuous
100
AcDbLine
 10
1104.379228310901
 20
69.38424744718307
 30
0.0
 11
1135.179216310901
 21
69.38424744718307
 31
0.0
  0
LINE
  5
6AC
330
992
100
AcDbEntity
  8
1
  6
Continuous
100
AcDbLine
 10
1100.028459310901
 20
61.72512944718294
 30
0.0
 11
1127.857347310901
 21
58.2147684471831
 31
0.0
  0
LINE
  5
6AD
330
992
100
AcDbEntity
  8
1
  6
Continuous
100
AcDbLine
 10
1121.670335310902
 20
58.99520944718296
 30
0.0
 11
1100.148118310902
 21
60.90779144718297
 31
0.0
  0
LINE
  5
6AE
330
992
100
AcDbEntity
  8
1
  6
Continuous
100
AcDbLine
 10
1103.919618310901
 20
63.81181444718308
 30
0.0
 11
1128.088533310902
 21
59.79766944718317
 31
0.0
  0
LINE
  5
6AF
330
992
100
AcDbEntity
  8
4
  6
CENTER
100
AcDbLine
 10
1081.468889310902
 20
66.88424744718307
 30
0.0
 11
1148.179216310902
 21
66.88424744718307
 31
0.0
  0
LINE
  5
6B1
330
992
100
AcDbEntity
  8
4
  6
CENTER
100
AcDbLine
 10
1100.679216310901
 20
58.92805894718307
 30
0.0
 11
1100.679216310901
 21
74.84043594718309
 31
0.0
  0
ARC
  5
6B2
330
992
100
AcDbEntity
  8
1
  6
Continuous
100
AcDbCircle
 10
1079.695912505192
 20
72.58424744718237
 30
0.0
 40
4.5
100
AcDbArc
 50
270.0
 51
320.4410706379864
  0
ARC
  5
6B3
330
992
100
AcDbEntity
  8
1
  6
Continuous
100
AcDbCircle
 10
1079.69591250519
 20
61.18424744718288
 30
0.0
 40
4.5
100
AcDbArc
 50
39.55892936198608
 51
89.99999999997273
  0
ARC
  5
6B4
330
992
100
AcDbEntity
  8
1
  6
Continuous
100
AcDbCircle
 10
1079.695912505192
 20
72.58424744718237
 30
0.0
 40
5.7
100
AcDbArc
 50
270.0
 51
320.4410706379864
  0
ARC
  5
6B5
330
992
100
AcDbEntity
  8
1
  6
Continuous
100
AcDbCircle
 10
1079.69591250519
 20
61.18424744718288
 30
0.0
 40
5.7
100
AcDbArc
 50
39.55892936198608
 51
89.99999999997273
  0
LINE
  5
6B6
330
992
100
AcDbEntity
  8
1
  6
Continuous
100
AcDbLine
 10
1079.695912505192
 20
65.68424744718298
 30
0.0
 11
1061.046093662233
 21
65.68424744718298
 31
0.0
  0
LINE
  5
6B7
330
992
100
AcDbEntity
  8
1
  6
Continuous
100
AcDbLine
 10
1061.046093662233
 20
66.88424744718696
 30
0.0
 11
1061.046093662233
 21
65.68424744718298
 31
0.0
  0
LINE
  5
6B8
330
992
100
AcDbEntity
  8
1
  6
Continuous
100
AcDbLine
 10
1085.581956310902
 20
68.40368744718308
 30
0.0
 11
1094.7292343109
 21
70.13424744718307
 31
0.0
  0
LINE
  5
6B9
330
992
100
AcDbEntity
  8
1
  6
Continuous
100
AcDbLine
 10
1094.7292343109
 20
63.63424744718298
 30
0.0
 11
1085.581956310902
 21
65.36481544718299
 31
0.0
  0
LINE
  5
6BA
330
992
100
AcDbEntity
  8
1
  6
Continuous
100
AcDbLine
 10
1083.979234310902
 20
67.58425144718308
 30
0.0
 11
1083.979234310902
 21
66.18425044718307
 31
0.0
  0
LINE
  5
6BB
330
992
100
AcDbEntity
  8
1
  6
Continuous
100
AcDbLine
 10
1084.779222310902
 20
68.38424744718307
 30
0.0
 11
1085.509492310902
 21
68.38424744718307
 31
0.0
  0
LINE
  5
6BC
330
992
100
AcDbEntity
  8
1
  6
Continuous
100
AcDbLine
 10
1085.174882310902
 20
67.91239944718308
 30
0.0
 11
1085.174882310902
 21
65.85610244718307
 31
0.0
  0
ARC
  5
6BD
330
992
100
AcDbEntity
  8
1
  6
Continuous
100
AcDbCircle
 10
1085.674882310902
 20
67.91239944718308
 30
0.0
 40
0.5
100
AcDbArc
 50
100.7131199999997
 51
180.0000049999995
  0
ARC
  5
6BE
330
992
100
AcDbEntity
  8
1
  6
Continuous
100
AcDbCircle
 10
1086.596093662232
 20
66.88424744718087
 30
0.0
 40
3.25
100
AcDbArc
 50
41.86956628255741
 51
140.4410706379875
  0
LINE
  5
6BF
330
992
100
AcDbEntity
  8
1
  6
Continuous
100
AcDbLine
 10
1084.779222310902
 20
65.38424744718307
 30
0.0
 11
1085.509492310902
 21
65.38424744718307
 31
0.0
  0
ARC
  5
6C0
330
992
100
AcDbEntity
  8
1
  6
Continuous
100
AcDbCircle
 10
1086.596093662232
 20
66.88424744718087
 30
0.0
 40
3.25
100
AcDbArc
 50
219.558929361984
 51
318.1305348550221
  0
ARC
  5
6C1
330
992
100
AcDbEntity
  8
1
  6
Continuous
100
AcDbCircle
 10
1085.674882310902
 20
65.85610244718307
 30
0.0
 40
0.5
100
AcDbArc
 50
180.0000049999995
 51
259.286877
  0
ARC
  5
6C2
330
992
100
AcDbEntity
  8
1
  6
Continuous
100
AcDbCircle
 10
1084.779222310902
 20
66.18425044718307
 30
0.0
 40
0.8
100
AcDbArc
 50
180.0000049999995
 51
270.0000009999997
  0
ARC
  5
6C3
330
992
100
AcDbEntity
  8
1
  6
Continuous
100
AcDbCircle
 10
1084.779222310902
 20
67.58425144718308
 30
0.0
 40
0.8
100
AcDbArc
 50
90.00000300000015
 51
180.0000049999995
  0
ARC
  5
6C4
330
992
100
AcDbEntity
  8
1
  6
Continuous
100
AcDbCircle
 10
1086.596093662232
 20
66.88424744718087
 30
0.0
 40
4.45
100
AcDbArc
 50
219.5589293619836
 51
327.0857947633252
  0
ARC
  5
6C5
330
992
100
AcDbEntity
  8
1
  6
Continuous
100
AcDbCircle
 10
1086.596093662232
 20
66.88424744718087
 30
0.0
 40
4.45
100
AcDbArc
 50
32.9142577872204
 51
140.4410706379864
  0
LINE
  5
6C6
330
992
100
AcDbEntity
  8
1
  6
Continuous
100
AcDbLine
 10
1103.979219310902
 20
66.04708944718307
 30
0.0
 11
1103.979219310902
 21
67.72140544718308
 31
0.0
  0
LINE
  5
6C7
330
992
100
AcDbEntity
  8
1
  6
Continuous
100
AcDbLine
 10
1103.5790883109
 20
61.76150544718307
 30
0.0
 11
1103.919618310901
 21
63.81181444718308
 31
0.0
  0
LINE
  5
6C8
330
992
100
AcDbEntity
  8
1
  6
Continuous
100
AcDbLine
 10
1102.521806310902
 20
64.55081244718312
 30
0.0
 11
1103.508287310902
 21
64.38697844718307
 31
0.0
  0
ARC
  5
6C9
330
992
100
AcDbEntity
  8
1
  6
Continuous
100
AcDbCircle
 10
1103.179216310901
 20
66.04708944718307
 30
0.0
 40
0.8
100
AcDbArc
 50
280.7131219999999
 51
0.0
  0
ARC
  5
6CA
330
992
100
AcDbEntity
  8
1
  6
Continuous
100
AcDbCircle
 10
1103.426378310902
 20
63.89373144718309
 30
0.0
 40
0.5
100
AcDbArc
 50
350.5699999999996
 51
80.56999399999979
  0
ARC
  5
6CB
330
992
100
AcDbEntity
  8
1
  6
Continuous
100
AcDbCircle
 10
1102.439897310901
 20
64.05757244718308
 30
0.0
 40
0.5
100
AcDbArc
 50
80.56999399999979
 51
170.5700039999998
  0
ARC
  5
6CC
330
992
100
AcDbEntity
  8
1
  6
Continuous
100
AcDbCircle
 10
1103.085847310902
 20
61.84343044718307
 30
0.0
 40
0.5
100
AcDbArc
 50
262.8106359999997
 51
350.5699999999996
  0
ARC
  5
6CD
330
992
100
AcDbEntity
  8
1
  6
Continuous
100
AcDbCircle
 10
1100.679216310902
 20
66.88424744718307
 30
0.0
 40
2.649999999999999
100
AcDbArc
 50
242.6804509999998
 51
279.94004
  0
ARC
  5
6CE
330
992
100
AcDbEntity
  8
1
  6
Continuous
100
AcDbCircle
 10
1100.679216310902
 20
66.88424744718307
 30
0.0
 40
5.2
100
AcDbArc
 50
214.3790699999999
 51
262.8106359999997
  0
LINE
  5
6CF
330
992
100
AcDbEntity
  8
1
  6
Continuous
100
AcDbLine
 10
1101.136659310902
 20
64.27401844718294
 30
0.0
 11
1101.946641310902
 21
64.13949644718297
 31
0.0
  0
ARC
  5
6D0
330
992
100
AcDbEntity
  8
1
  6
Continuous
100
AcDbCircle
 10
1100.679216310902
 20
66.88424744718307
 30
0.0
 40
2.45
100
AcDbArc
 50
249.1384340000004
 51
312.2878139999996
  0
LINE
  5
6D1
330
992
100
AcDbEntity
  8
1
  6
Continuous
100
AcDbLine
 10
1104.379228310901
 20
69.38424744718307
 30
0.0
 11
1104.379228310901
 21
71.5842444471831
 31
0.0
  0
LINE
  5
6D2
330
992
100
AcDbEntity
  8
1
  6
Continuous
100
AcDbLine
 10
1101.5581533109
 20
69.38424744718307
 30
0.0
 11
1102.379228310902
 21
69.38424744718307
 31
0.0
  0
LINE
  5
6D3
330
992
100
AcDbEntity
  8
1
  6
Continuous
100
AcDbLine
 10
1102.879228310902
 20
68.88424744718307
 30
0.0
 11
1103.879228310902
 21
68.88424744718307
 31
0.0
  0
ARC
  5
6D4
330
992
100
AcDbEntity
  8
1
  6
Continuous
100
AcDbCircle
 10
1102.879228310902
 20
69.38424744718307
 30
0.0
 40
0.5
100
AcDbArc
 50
179.9999950000004
 51
269.9999969999997
  0
ARC
  5
6D5
330
992
100
AcDbEntity
  8
1
  6
Continuous
100
AcDbCircle
 10
1103.879228310902
 20
69.38424744718307
 30
0.0
 40
0.5
100
AcDbArc
 50
269.9999969999997
 51
0.0
  0
ARC
  5
6D6
330
992
100
AcDbEntity
  8
1
  6
Continuous
100
AcDbCircle
 10
1103.879228310902
 20
71.5842444471831
 30
0.0
 40
0.5
100
AcDbArc
 50
0.0
 51
89.9999990000003
  0
ARC
  5
6D7
330
992
100
AcDbEntity
  8
1
  6
Continuous
100
AcDbCircle
 10
1100.679216310902
 20
66.88424744718307
 30
0.0
 40
5.2
100
AcDbArc
 50
89.9999990000003
 51
145.6209349999998
  0
LINE
  5
6D8
330
992
100
AcDbEntity
  8
1
  6
Continuous
100
AcDbLine
 10
1100.679216310902
 20
72.0842444471831
 30
0.0
 11
1103.879228310902
 21
72.0842444471831
 31
0.0
  0
ARC
  5
6D9
330
992
100
AcDbEntity
  8
1
  6
Continuous
100
AcDbCircle
 10
1100.679216310902
 20
66.88424744718307
 30
0.0
 40
2.45
100
AcDbArc
 50
47.71219599999988
 51
110.8615549999999
  0
ARC
  5
6DA
330
992
100
AcDbEntity
  8
1
  6
Continuous
100
AcDbCircle
 10
1100.679216310902
 20
66.88424744718307
 30
0.0
 40
2.649999999999999
100
AcDbArc
 50
70.62996600000023
 51
117.3195539999998
  0
ARC
  5
6DB
330
992
100
AcDbEntity
  8
1
  6
Continuous
100
AcDbCircle
 10
1103.179216310901
 20
67.72140544718308
 30
0.0
 40
0.8
100
AcDbArc
 50
0.0
 51
79.28687499999998
  0
LINE
  5
6DC
330
992
100
AcDbEntity
  8
1
  6
Continuous
100
AcDbLine
 10
1094.729234310902
 20
63.63424744718308
 30
0.0
 11
1103.327928310902
 21
65.2610324471831
 31
0.0
  0
LINE
  5
6DD
330
992
100
AcDbEntity
  8
1
  6
Continuous
100
AcDbLine
 10
1103.327928310902
 20
68.50746244718306
 30
0.0
 11
1094.729234310902
 21
70.13424744718307
 31
0.0
  0
ARC
  5
6DE
330
992
100
AcDbEntity
  8
1
  6
Continuous
100
AcDbCircle
 10
1100.679216310902
 20
66.88424744718307
 30
0.0
 40
6.0
100
AcDbArc
 50
211.0710039999995
 51
264.9216969999998
  0
ARC
  5
6DF
330
992
100
AcDbEntity
  8
1
  6
Continuous
100
AcDbCircle
 10
1100.679216310902
 20
66.88424744718307
 30
0.0
 40
6.0
100
AcDbArc
 50
96.657959
 51
148.9289989999998
  0
LINE
  5
714
330
992
100
AcDbEntity
  8
4
  6
CENTER
100
AcDbLine
 10
1135.179216310901
 20
54.34424644718305
 30
0.0
 11
1135.179216310901
 21
79.42424044718295
 31
0.0
  0
ARC
  5
715
330
992
100
AcDbEntity
  8
1
  6
Continuous
100
AcDbCircle
 10
1135.179216310901
 20
66.88424744718307
 30
0.0
 40
10.0
100
AcDbArc
 50
282.4820379999999
 51
96.657959
  0
LINE
  5
716
330
992
100
AcDbEntity
  8
1
  6
Continuous
100
AcDbLine
 10
1129.942430310902
 20
55.48291044718308
 30
0.0
 11
1137.340562310902
 21
57.12060644718306
 31
0.0
  0
ARC
  5
717
330
992
100
AcDbEntity
  8
1
  6
Continuous
100
AcDbCircle
 10
1128.861772310902
 20
60.36473144718311
 30
0.0
 40
2.5
100
AcDbArc
 50
255.0000000000001
 51
330.0
  0
ARC
  5
718
330
992
100
AcDbEntity
  8
1
  6
Continuous
100
AcDbCircle
 10
1128.861772310902
 20
60.36473144718311
 30
0.0
 40
5.0
100
AcDbArc
 50
255.0000000000001
 51
330.0
  0
ARC
  5
719
330
992
100
AcDbEntity
  8
1
  6
Continuous
100
AcDbCircle
 10
1126.429216310901
 20
57.13424744718309
 30
0.0
 40
1.25
100
AcDbArc
 50
75.00000200000012
 51
255.0000000000001
  0
ARC
  5
71A
330
992
100
AcDbEntity
  8
1
  6
Continuous
100
AcDbCircle
 10
1127.957460310902
 20
59.00848444718306
 30
0.0
 40
0.8
100
AcDbArc
 50
262.8106359999997
 51
80.56999399999979
  0
LINE
  5
71B
330
992
100
AcDbEntity
  8
1
  6
Continuous
100
AcDbLine
 10
1126.752748310902
 20
58.34165244718295
 30
0.0
 11
1128.214708310901
 21
57.94992144718296
 31
0.0
  0
LINE
  5
71C
330
992
100
AcDbEntity
  8
1
  6
Continuous
100
AcDbLine
 10
1126.105699310902
 20
55.92683444718296
 30
0.0
 11
1127.567674310902
 21
55.53510344718296
 31
0.0
  0
ARC
  5
71D
330
992
100
AcDbEntity
  8
1
  6
Continuous
100
AcDbCircle
 10
1134.643327310901
 20
61.37869344718307
 30
0.0
 40
2.0
100
AcDbArc
 50
119.9999939999999
 51
150.0000009999999
  0
LINE
  5
71E
330
992
100
AcDbEntity
  8
1
  6
Continuous
100
AcDbLine
 10
1131.026826310901
 20
59.11473144718314
 30
0.0
 11
1132.911272310902
 21
62.37869344718316
 31
0.0
  0
LINE
  5
71F
330
992
100
AcDbEntity
  8
1
  6
Continuous
100
AcDbLine
 10
1133.191896310902
 20
57.86473144718296
 30
0.0
 11
1135.009355310902
 21
61.01266544718296
 31
0.0
  0
LINE
  5
720
330
992
100
AcDbEntity
  8
1
  6
Continuous
100
AcDbLine
 10
1133.643327310901
 20
63.11074144718316
 30
0.0
 11
1136.429216310901
 21
64.71917844718307
 31
0.0
  0
LINE
  5
721
330
992
100
AcDbEntity
  8
1
  6
Continuous
100
AcDbLine
 10
1135.009355310902
 20
61.01266544718328
 30
0.0
 11
1137.679216310901
 21
62.55411644718316
 31
0.0
  0
ARC
  5
722
330
992
100
AcDbEntity
  8
1
  6
Continuous
100
AcDbCircle
 10
1135.179216310901
 20
66.88424744718307
 30
0.0
 40
2.5
100
AcDbArc
 50
299.9999969999999
 51
89.9999990000003
  0
ARC
  5
723
330
992
100
AcDbEntity
  8
1
  6
Continuous
100
AcDbCircle
 10
1135.179216310901
 20
66.88424744718307
 30
0.0
 40
5.0
100
AcDbArc
 50
299.9999969999999
 51
89.9999990000003
  0
LINE
  5
74A
330
992
100
AcDbEntity
  8
1
  6
Continuous
100
AcDbLine
 10
1199.880938121257
 20
138.248739536799
 30
0.0
 11
1199.880938121257
 21
145.0324736001512
 31
0.0
  0
LINE
  5
74B
330
992
100
AcDbEntity
  8
1
  6
Continuous
100
AcDbLine
 10
1198.24244114306
 20
145.207052125731
 30
0.0
 11
1198.24244114306
 21
136.707052125177
 31
0.0
  0
LINE
  5
74C
330
992
100
AcDbEntity
  8
1
  6
Continuous
100
AcDbLine
 10
1201.073048378345
 20
143.3606560243113
 30
0.0
 11
1201.073048378345
 21
138.2070521257311
 31
0.0
  0
LINE
  5
74D
330
992
100
AcDbEntity
  8
1
  6
Continuous
100
AcDbLine
 10
1194.225867983047
 20
156.707052125177
 30
0.0
 11
1194.225867983047
 21
136.7070521251772
 31
0.0
  0
LINE
  5
74E
330
992
100
AcDbEntity
  8
1
  6
Continuous
100
AcDbLine
 10
1202.113865378345
 20
137.7070521257311
 30
0.0
 11
1202.113865378345
 21
136.7070521251771
 31
0.0
  0
ARC
  5
74F
330
992
100
AcDbEntity
  8
1
  6
Continuous
100
AcDbCircle
 10
1201.573048378345
 20
138.2070521257311
 30
0.0
 40
0.5
100
AcDbArc
 50
180.0000000000032
 51
270.0
  0
ARC
  5
750
330
992
100
AcDbEntity
  8
1
  6
Continuous
100
AcDbCircle
 10
1202.012606929354
 20
134.0570471257302
 30
0.0
 40
0.8
100
AcDbArc
 50
270.0000000000012
 51
0.000000000000007
  0
ARC
  5
751
330
992
100
AcDbEntity
  8
1
  6
Continuous
100
AcDbCircle
 10
1198.412602429354
 20
134.0570471257302
 30
0.0
 40
0.8
100
AcDbArc
 50
180.0
 51
270.0000000000008
  0
LINE
  5
752
330
992
100
AcDbEntity
  8
1
  6
Continuous
100
AcDbLine
 10
1198.412602429354
 20
133.2570471257301
 30
0.0
 11
1202.012606929354
 21
133.2570471257302
 31
0.0
  0
ARC
  5
753
330
992
100
AcDbEntity
  8
1
  6
Continuous
100
AcDbCircle
 10
1193.300406382805
 20
138.248739536799
 30
0.0
 40
6.580531738452007
100
AcDbArc
 50
313.7016498007178
 51
0.000000000000007
  0
LINE
  5
754
330
992
100
AcDbEntity
  8
1
  6
Continuous
100
AcDbLine
 10
1202.812606929354
 20
136.7070521251771
 30
0.0
 11
1202.812606929354
 21
134.0570471257302
 31
0.0
  0
LINE
  5
755
330
992
100
AcDbEntity
  8
1
  6
Continuous
100
AcDbLine
 10
1197.612602429354
 20
136.707052125177
 30
0.0
 11
1197.612602429354
 21
134.0570471257302
 31
0.0
  0
LINE
  5
756
330
992
100
AcDbEntity
  8
1
  6
Continuous
100
AcDbLine
 10
1194.225867983047
 20
136.7070521251772
 30
0.0
 11
1198.24244114306
 21
136.707052125177
 31
0.0
  0
ARC
  5
757
330
992
100
AcDbEntity
  8
1
  6
Continuous
100
AcDbCircle
 10
1217.333381378344
 20
147.9789028136474
 30
0.0
 40
0.8
100
AcDbArc
 50
0.000000000000007
 51
84.61602982599748
  0
LINE
  5
758
330
992
100
AcDbEntity
  8
1
  6
Continuous
100
AcDbLine
 10
1218.133381378345
 20
147.9789028136474
 30
0.0
 11
1218.133381378345
 21
145.4352014367108
 31
0.0
  0
LINE
  5
759
330
992
100
AcDbEntity
  8
1
  6
Continuous
100
AcDbLine
 10
1198.412602429354
 20
160.1570566257301
 30
0.0
 11
1202.012606929354
 21
160.1570566257301
 31
0.0
  0
LINE
  5
75A
330
992
100
AcDbEntity
  8
1
  6
Continuous
100
AcDbLine
 10
1202.812606929354
 20
159.3570566257301
 30
0.0
 11
1202.812606929354
 21
156.707052125177
 31
0.0
  0
LINE
  5
75B
330
992
100
AcDbEntity
  8
1
  6
Continuous
100
AcDbLine
 10
1197.612602429354
 20
159.3570566257301
 30
0.0
 11
1197.612602429354
 21
156.7070521251772
 31
0.0
  0
LINE
  5
75C
330
992
100
AcDbEntity
  8
1
  6
Continuous
100
AcDbLine
 10
1202.113865378345
 20
156.707052125177
 30
0.0
 11
1202.113865378345
 21
155.7070521257311
 31
0.0
  0
LINE
  5
75D
330
992
100
AcDbEntity
  8
1
  6
Continuous
100
AcDbLine
 10
1199.880938121257
 20
148.3816306502068
 30
0.0
 11
1199.880938121257
 21
155.1653647134845
 31
0.0
  0
LINE
  5
75E
330
992
100
AcDbEntity
  8
1
  6
Continuous
100
AcDbLine
 10
1201.073048378345
 20
155.207052125731
 30
0.0
 11
1201.073048378345
 21
150.0534482260469
 31
0.0
  0
LINE
  5
75F
330
992
100
AcDbEntity
  8
1
  6
Continuous
100
AcDbLine
 10
1198.24244114306
 20
156.7070521251772
 30
0.0
 11
1198.24244114306
 21
148.2070521257311
 31
0.0
  0
ARC
  5
760
330
992
100
AcDbEntity
  8
1
  6
Continuous
100
AcDbCircle
 10
1193.300406382805
 20
155.1653647134845
 30
0.0
 40
6.580531738452007
100
AcDbArc
 50
0.000000000000007
 51
46.29835019928202
  0
ARC
  5
761
330
992
100
AcDbEntity
  8
1
  6
Continuous
100
AcDbCircle
 10
1201.573048378345
 20
155.207052125731
 30
0.0
 40
0.5
100
AcDbArc
 50
90.00000000000204
 51
180.0
  0
LINE
  5
762
330
992
100
AcDbEntity
  8
1
  6
Continuous
100
AcDbLine
 10
1194.225867983047
 20
156.707052125177
 30
0.0
 11
1198.24244114306
 21
156.7070521251772
 31
0.0
  0
ARC
  5
763
330
992
100
AcDbEntity
  8
1
  6
Continuous
100
AcDbCircle
 10
1217.333381378344
 20
145.4352014367108
 30
0.0
 40
0.8
100
AcDbArc
 50
275.3839701740026
 51
0.000000000000007
  0
LINE
  5
764
330
992
100
AcDbEntity
  8
1
  6
Continuous
100
AcDbLine
 10
1204.287190378344
 20
143.4021107524901
 30
0.0
 11
1204.287190378344
 21
138.2070521257311
 31
0.0
  0
ARC
  5
765
330
992
100
AcDbEntity
  8
1
  6
Continuous
100
AcDbCircle
 10
1201.613865378345
 20
143.9501617261592
 30
0.0
 40
0.8
100
AcDbArc
 50
190.9312140786833
 51
280.7679403480138
  0
LINE
  5
766
330
992
100
AcDbEntity
  8
1
  6
Continuous
100
AcDbLine
 10
1209.863865378345
 20
136.7070521251771
 30
0.0
 11
1211.113865378345
 21
136.7070521251771
 31
0.0
  0
LINE
  5
767
330
992
100
AcDbEntity
  8
1
  6
Continuous
100
AcDbLine
 10
1211.113865378345
 20
137.7070521257311
 30
0.0
 11
1211.113865378345
 21
136.7070521251771
 31
0.0
  0
LINE
  5
768
330
992
100
AcDbEntity
  8
1
  6
Continuous
100
AcDbLine
 10
1209.113865378345
 20
140.8201354307058
 30
0.0
 11
1211.313862378345
 21
140.8201354307058
 31
0.0
  0
LINE
  5
769
330
992
100
AcDbEntity
  8
1
  6
Continuous
100
AcDbLine
 10
1208.613865378345
 20
143.8098806845037
 30
0.0
 11
1208.613865378345
 21
138.2070521257311
 31
0.0
  0
ARC
  5
76A
330
992
100
AcDbEntity
  8
1
  6
Continuous
100
AcDbCircle
 10
1209.113865378345
 20
138.2070521257311
 30
0.0
 40
0.5
100
AcDbArc
 50
180.0
 51
270.0
  0
LINE
  5
76B
330
992
100
AcDbEntity
  8
1
  6
Continuous
100
AcDbLine
 10
1204.163865378345
 20
137.7070521246271
 30
0.0
 11
1204.163865378345
 21
137.8782422336946
 31
0.0
  0
ARC
  5
76C
330
992
100
AcDbEntity
  8
1
  6
Continuous
100
AcDbCircle
 10
1203.787190378345
 20
138.207052125731
 30
0.0
 40
0.5
100
AcDbArc
 50
269.9999999999974
 51
0.0000000000097777
  0
LINE
  5
76D
330
992
100
AcDbEntity
  8
1
  6
Continuous
100
AcDbLine
 10
1211.813862378344
 20
144.111466211296
 30
0.0
 11
1211.813862378345
 21
138.2070521257311
 31
0.0
  0
ARC
  5
76E
330
992
100
AcDbEntity
  8
1
  6
Continuous
100
AcDbCircle
 10
1211.313862378345
 20
138.2070521257311
 30
0.0
 40
0.5
100
AcDbArc
 50
270.0
 51
359.9999999999998
  0
ARC
  5
76F
330
992
100
AcDbEntity
  8
1
  6
Continuous
100
AcDbCircle
 10
1207.31386277932
 20
134.0070521257312
 30
0.0
 40
0.8
100
AcDbArc
 50
269.9999999999983
 51
0.0000000000081492
  0
LINE
  5
770
330
992
100
AcDbEntity
  8
1
  6
Continuous
100
AcDbLine
 10
1204.163865378345
 20
133.2070521257313
 30
0.0
 11
1209.063865378345
 21
133.2070521257313
 31
0.0
  0
ARC
  5
771
330
992
100
AcDbEntity
  8
1
  6
Continuous
100
AcDbCircle
 10
1209.063865378345
 20
134.0070521257312
 30
0.0
 40
0.8
100
AcDbArc
 50
269.9999999999997
 51
0.000000000000007
  0
ARC
  5
772
330
992
100
AcDbEntity
  8
1
  6
Continuous
100
AcDbCircle
 10
1205.913867977371
 20
134.0070521257312
 30
0.0
 40
0.8
100
AcDbArc
 50
179.9999999999898
 51
270.0000000000009
  0
ARC
  5
773
330
992
100
AcDbEntity
  8
1
  6
Continuous
100
AcDbCircle
 10
1204.163865378345
 20
134.0070521257312
 30
0.0
 40
0.8
100
AcDbArc
 50
180.0
 51
270.0
  0
LINE
  5
774
330
992
100
AcDbEntity
  8
1
  6
Continuous
100
AcDbLine
 10
1209.863865378345
 20
137.7070521257311
 30
0.0
 11
1209.863865378345
 21
134.0070521257312
 31
0.0
  0
LINE
  5
775
330
992
100
AcDbEntity
  8
1
  6
Continuous
100
AcDbLine
 10
1208.11386277932
 20
137.7070521257311
 30
0.0
 11
1208.11386277932
 21
134.0070521257312
 31
0.0
  0
LINE
  5
776
330
992
100
AcDbEntity
  8
1
  6
Continuous
100
AcDbLine
 10
1203.363865378345
 20
137.7070521257311
 30
0.0
 11
1203.363865378345
 21
134.0070521257312
 31
0.0
  0
LINE
  5
777
330
992
100
AcDbEntity
  8
1
  6
Continuous
100
AcDbLine
 10
1205.113867977371
 20
137.7070521257311
 30
0.0
 11
1205.113867977371
 21
134.0070521257312
 31
0.0
  0
LINE
  5
778
330
992
100
AcDbEntity
  8
1
  6
Continuous
100
AcDbLine
 10
1204.163865378345
 20
160.2070591257311
 30
0.0
 11
1209.063865378345
 21
160.2070591257311
 31
0.0
  0
LINE
  5
779
330
992
100
AcDbEntity
  8
1
  6
Continuous
100
AcDbLine
 10
1209.863865378345
 20
156.7070521251771
 30
0.0
 11
1211.113865378345
 21
156.707052125177
 31
0.0
  0
LINE
  5
77A
330
992
100
AcDbEntity
  8
1
  6
Continuous
100
AcDbLine
 10
1211.113865378345
 20
156.707052125177
 30
0.0
 11
1211.113865378345
 21
155.7070521257311
 31
0.0
  0
LINE
  5
77B
330
992
100
AcDbEntity
  8
1
  6
Continuous
100
AcDbLine
 10
1208.11386277932
 20
159.4070591257311
 30
0.0
 11
1208.11386277932
 21
155.707052125731
 31
0.0
  0
LINE
  5
77C
330
992
100
AcDbEntity
  8
1
  6
Continuous
100
AcDbLine
 10
1209.863865378345
 20
159.4070591257311
 30
0.0
 11
1209.863865378345
 21
155.707052125731
 31
0.0
  0
LINE
  5
77D
330
992
100
AcDbEntity
  8
1
  6
Continuous
100
AcDbLine
 10
1205.113867977371
 20
159.4070591257311
 30
0.0
 11
1205.113867977371
 21
155.707052125731
 31
0.0
  0
LINE
  5
77E
330
992
100
AcDbEntity
  8
1
  6
Continuous
100
AcDbLine
 10
1203.363865378345
 20
159.4070591257311
 30
0.0
 11
1203.363865378345
 21
155.707052125731
 31
0.0
  0
LINE
  5
77F
330
992
100
AcDbEntity
  8
1
  6
Continuous
100
AcDbLine
 10
1208.613865378345
 20
155.207052125731
 30
0.0
 11
1208.613865378345
 21
149.6042235658544
 31
0.0
  0
LINE
  5
780
330
992
100
AcDbEntity
  8
1
  6
Continuous
100
AcDbLine
 10
1209.113865378345
 20
152.5939688196524
 30
0.0
 11
1211.313862378345
 21
152.5939688196524
 31
0.0
  0
LINE
  5
781
330
992
100
AcDbEntity
  8
1
  6
Continuous
100
AcDbLine
 10
1204.287190378344
 20
155.207052125731
 30
0.0
 11
1204.287190378344
 21
150.0119934978681
 31
0.0
  0
LINE
  5
782
330
992
100
AcDbEntity
  8
1
  6
Continuous
100
AcDbLine
 10
1211.813862378345
 20
155.2070521257311
 30
0.0
 11
1211.813862378345
 21
149.3026380390622
 31
0.0
  0
ARC
  5
783
330
992
100
AcDbEntity
  8
1
  6
Continuous
100
AcDbCircle
 10
1199.121707242903
 20
149.9452647318893
 30
0.0
 40
1.738212607262112
100
AcDbArc
 50
270.0
 51
349.0687859213172
  0
ARC
  5
784
330
992
100
AcDbEntity
  8
1
  6
Continuous
100
AcDbCircle
 10
1201.613865378345
 20
149.463942524199
 30
0.0
 40
0.8
100
AcDbArc
 50
79.2320596519862
 51
169.0687859213167
  0
ARC
  5
785
330
992
100
AcDbEntity
  8
1
  6
Continuous
100
AcDbCircle
 10
1209.113865378345
 20
155.207052125731
 30
0.0
 40
0.5
100
AcDbArc
 50
90.00000000000143
 51
180.0
  0
ARC
  5
786
330
992
100
AcDbEntity
  8
1
  6
Continuous
100
AcDbCircle
 10
1211.313862378345
 20
155.2070521257311
 30
0.0
 40
0.5
100
AcDbArc
 50
0.000000000000007
 51
90.0
  0
LINE
  5
787
330
992
100
AcDbEntity
  8
1
  6
Continuous
100
AcDbLine
 10
1204.163865378345
 20
155.707052125731
 30
0.0
 11
1204.163865378345
 21
155.5358620166636
 31
0.0
  0
ARC
  5
788
330
992
100
AcDbEntity
  8
1
  6
Continuous
100
AcDbCircle
 10
1203.787190378345
 20
155.2070521257311
 30
0.0
 40
0.5
100
AcDbArc
 50
359.9999999999933
 51
90.0
  0
ARC
  5
789
330
992
100
AcDbEntity
  8
1
  6
Continuous
100
AcDbCircle
 10
1199.121707242903
 20
143.4688395184689
 30
0.0
 40
1.738212607262112
100
AcDbArc
 50
10.9312140786828
 51
90.0
  0
ARC
  5
78A
330
992
100
AcDbEntity
  8
1
  6
Continuous
100
AcDbCircle
 10
1197.413865378345
 20
146.007052125731
 30
0.0
 40
0.8
100
AcDbArc
 50
179.9999999999999
 51
270.0
  0
ARC
  5
78B
330
992
100
AcDbEntity
  8
1
  6
Continuous
100
AcDbCircle
 10
1197.413865378345
 20
147.407052125731
 30
0.0
 40
0.8
100
AcDbArc
 50
90.0
 51
180.0
  0
LINE
  5
78C
330
992
100
AcDbEntity
  8
1
  6
Continuous
100
AcDbLine
 10
1196.613865378345
 20
147.407052125731
 30
0.0
 11
1196.613865378345
 21
146.007052125731
 31
0.0
  0
LINE
  5
78F
330
992
100
AcDbEntity
  8
4
  6
CENTER
100
AcDbLine
 10
1100.679216310901
 20
322.3526614833196
 30
0.0
 11
1100.679216310901
 21
292.3526544833195
 31
0.0
  0
LINE
  5
790
330
992
100
AcDbEntity
  8
1
  6
Continuous
100
AcDbLine
 10
1121.670335310902
 20
234.4188948042687
 30
0.0
 11
1100.148118310902
 21
232.5063128042685
 31
0.0
  0
LINE
  5
791
330
992
100
AcDbEntity
  8
4
  6
CENTER
100
AcDbLine
 10
1081.468889310902
 20
226.5298568042684
 30
0.0
 11
1148.179216310902
 21
226.5298568042684
 31
0.0
  0
LINE
  5
792
330
992
100
AcDbEntity
  8
1
  6
Continuous
100
AcDbLine
 10
1103.919618310901
 20
229.6022898042686
 30
0.0
 11
1128.088533310902
 21
233.6164348042685
 31
0.0
  0
LINE
  5
793
330
992
100
AcDbEntity
  8
1
  6
Continuous
100
AcDbLine
 10
1100.028459310901
 20
231.6889748042687
 30
0.0
 11
1127.857347310901
 21
235.1993358042686
 31
0.0
  0
LINE
  5
794
330
992
100
AcDbEntity
  8
1
  6
Continuous
100
AcDbLine
 10
1104.379228310901
 20
224.0298568042686
 30
0.0
 11
1135.179216310901
 21
224.0298568042686
 31
0.0
  0
LINE
  5
795
330
992
100
AcDbEntity
  8
1
  6
Continuous
100
AcDbLine
 10
1104.279222310901
 20
221.5298568042686
 30
0.0
 11
1135.179216310901
 21
221.5298568042686
 31
0.0
  0
LINE
  5
796
330
992
100
AcDbEntity
  8
1
  6
Continuous
100
AcDbLine
 10
1099.983568310901
 20
220.5703228042686
 30
0.0
 11
1134.019807310902
 21
216.5973008042684
 31
0.0
  0
LINE
  5
797
330
992
100
AcDbEntity
  8
1
  6
Continuous
100
AcDbLine
 10
1103.979219310902
 20
225.6926988042684
 30
0.0
 11
1103.979219310902
 21
227.3670148042684
 31
0.0
  0
LINE
  5
798
330
992
100
AcDbEntity
  8
1
  6
Continuous
100
AcDbLine
 10
1085.174882310902
 20
225.5017048042684
 30
0.0
 11
1085.174882310902
 21
227.5580018042684
 31
0.0
  0
LINE
  5
799
330
992
100
AcDbEntity
  8
1
  6
Continuous
100
AcDbLine
 10
1083.979234310902
 20
225.8298528042684
 30
0.0
 11
1083.979234310902
 21
227.2298538042684
 31
0.0
  0
LINE
  5
79A
330
992
100
AcDbEntity
  8
4
  6
CENTER
100
AcDbLine
 10
1100.679216310901
 20
218.5736683042684
 30
0.0
 11
1100.679216310901
 21
234.4860453042684
 31
0.0
  0
LINE
  5
79B
330
992
100
AcDbEntity
  8
1
  6
Continuous
100
AcDbLine
 10
1061.046093662233
 20
226.5298568042644
 30
0.0
 11
1061.046093662233
 21
227.7298568042684
 31
0.0
  0
ARC
  5
79C
330
992
100
AcDbEntity
  8
1
  6
Continuous
100
AcDbCircle
 10
1079.69591250519
 20
232.2298568042686
 30
0.0
 40
5.7
100
AcDbArc
 50
270.0000000000271
 51
320.4410706380138
  0
ARC
  5
79D
330
992
100
AcDbEntity
  8
1
  6
Continuous
100
AcDbCircle
 10
1079.695912505192
 20
220.8298568042691
 30
0.0
 40
5.7
100
AcDbArc
 50
39.5589293620136
 51
90.00000000000005
  0
ARC
  5
79E
330
992
100
AcDbEntity
  8
1
  6
Continuous
100
AcDbCircle
 10
1079.695912505192
 20
220.8298568042691
 30
0.0
 40
4.5
100
AcDbArc
 50
39.5589293620136
 51
90.00000000000005
  0
LINE
  5
79F
330
992
100
AcDbEntity
  8
1
  6
Continuous
100
AcDbLine
 10
1085.581956310902
 20
225.0104168042684
 30
0.0
 11
1094.7292343109
 21
223.2798568042684
 31
0.0
  0
ARC
  5
7A0
330
992
100
AcDbEntity
  8
1
  6
Continuous
100
AcDbCircle
 10
1086.596093662232
 20
226.5298568042706
 30
0.0
 40
4.45
100
AcDbArc
 50
219.5589293620135
 51
327.0857422127795
  0
ARC
  5
7A1
330
992
100
AcDbEntity
  8
1
  6
Continuous
100
AcDbCircle
 10
1084.779222310902
 20
225.8298528042684
 30
0.0
 40
0.8
100
AcDbArc
 50
179.9999950000001
 51
269.9999969999997
  0
ARC
  5
7A2
330
992
100
AcDbEntity
  8
1
  6
Continuous
100
AcDbCircle
 10
1085.674882310902
 20
225.5017048042684
 30
0.0
 40
0.5
100
AcDbArc
 50
179.9999950000001
 51
259.28688
  0
LINE
  5
7A3
330
992
100
AcDbEntity
  8
1
  6
Continuous
100
AcDbLine
 10
1084.779222310902
 20
225.0298568042684
 30
0.0
 11
1085.509492310902
 21
225.0298568042684
 31
0.0
  0
ARC
  5
7A4
330
992
100
AcDbEntity
  8
1
  6
Continuous
100
AcDbCircle
 10
1086.596093662232
 20
226.5298568042706
 30
0.0
 40
3.25
100
AcDbArc
 50
219.5589293620124
 51
318.1304337174424
  0
ARC
  5
7A5
330
992
100
AcDbEntity
  8
1
  6
Continuous
100
AcDbCircle
 10
1103.085847310902
 20
231.5706738042686
 30
0.0
 40
0.5
100
AcDbArc
 50
9.430000000000394
 51
97.18936400000037
  0
ARC
  5
7A6
330
992
100
AcDbEntity
  8
1
  6
Continuous
100
AcDbCircle
 10
1103.426378310902
 20
229.5203728042686
 30
0.0
 40
0.5
100
AcDbArc
 50
279.4300060000003
 51
9.430000000000394
  0
LINE
  5
7A7
330
992
100
AcDbEntity
  8
1
  6
Continuous
100
AcDbLine
 10
1103.5790883109
 20
231.6525988042684
 30
0.0
 11
1103.919618310901
 21
229.6022898042686
 31
0.0
  0
ARC
  5
7A8
330
992
100
AcDbEntity
  8
1
  6
Continuous
100
AcDbCircle
 10
1103.179216310901
 20
225.6926988042684
 30
0.0
 40
0.8
100
AcDbArc
 50
280.7131219999999
 51
0.0
  0
ARC
  5
7A9
330
992
100
AcDbEntity
  8
1
  6
Continuous
100
AcDbCircle
 10
1100.679216310902
 20
226.5298568042684
 30
0.0
 40
6.0
100
AcDbArc
 50
95.07830300000021
 51
148.9289960000006
  0
LINE
  5
7AA
330
992
100
AcDbEntity
  8
1
  6
Continuous
100
AcDbLine
 10
1101.136659310902
 20
229.1400858042687
 30
0.0
 11
1101.946641310902
 21
229.2746078042687
 31
0.0
  0
ARC
  5
7AB
330
992
100
AcDbEntity
  8
1
  6
Continuous
100
AcDbCircle
 10
1100.679216310902
 20
226.5298568042684
 30
0.0
 40
5.2
100
AcDbArc
 50
97.18936400000037
 51
145.6209299999999
  0
ARC
  5
7AC
330
992
100
AcDbEntity
  8
1
  6
Continuous
100
AcDbCircle
 10
1100.679216310902
 20
226.5298568042684
 30
0.0
 40
2.649999999999999
100
AcDbArc
 50
80.05996000000001
 51
117.3195490000002
  0
ARC
  5
7AD
330
992
100
AcDbEntity
  8
1
  6
Continuous
100
AcDbCircle
 10
1102.439897310901
 20
229.3565318042686
 30
0.0
 40
0.5
100
AcDbArc
 50
189.4299960000003
 51
279.4300060000003
  0
ARC
  5
7AE
330
992
100
AcDbEntity
  8
1
  6
Continuous
100
AcDbCircle
 10
1100.679216310902
 20
226.5298568042684
 30
0.0
 40
2.45
100
AcDbArc
 50
47.71218600000039
 51
110.8615659999997
  0
LINE
  5
7AF
330
992
100
AcDbEntity
  8
1
  6
Continuous
100
AcDbLine
 10
1094.729234310902
 20
223.2798568042684
 30
0.0
 11
1103.327928310902
 21
224.9066418042685
 31
0.0
  0
LINE
  5
7B0
330
992
100
AcDbEntity
  8
1
  6
Continuous
100
AcDbLine
 10
1102.521806310902
 20
228.8632918042686
 30
0.0
 11
1103.508287310902
 21
229.0271258042686
 31
0.0
  0
ARC
  5
7B1
330
992
100
AcDbEntity
  8
1
  6
Continuous
100
AcDbCircle
 10
1079.69591250519
 20
232.2298568042686
 30
0.0
 40
4.5
100
AcDbArc
 50
270.0000000000271
 51
320.4410706380138
  0
LINE
  5
7B2
330
992
100
AcDbEntity
  8
1
  6
Continuous
100
AcDbLine
 10
1079.695912505192
 20
227.7298568042684
 30
0.0
 11
1061.046093662233
 21
227.7298568042684
 31
0.0
  0
LINE
  5
7B3
330
992
100
AcDbEntity
  8
1
  6
Continuous
100
AcDbLine
 10
1094.7292343109
 20
229.7798568042685
 30
0.0
 11
1085.581956310902
 21
228.0492888042684
 31
0.0
  0
ARC
  5
7B4
330
992
100
AcDbEntity
  8
1
  6
Continuous
100
AcDbCircle
 10
1086.596093662232
 20
226.5298568042706
 30
0.0
 40
4.45
100
AcDbArc
 50
32.91420523667476
 51
140.4410706380162
  0
ARC
  5
7B5
330
992
100
AcDbEntity
  8
1
  6
Continuous
100
AcDbCircle
 10
1084.779222310902
 20
227.2298538042684
 30
0.0
 40
0.8
100
AcDbArc
 50
89.99999900000023
 51
179.9999950000001
  0
ARC
  5
7B6
330
992
100
AcDbEntity
  8
1
  6
Continuous
100
AcDbCircle
 10
1085.674882310902
 20
227.5580018042684
 30
0.0
 40
0.5
100
AcDbArc
 50
100.7131229999997
 51
179.9999950000001
  0
ARC
  5
7B7
330
992
100
AcDbEntity
  8
1
  6
Continuous
100
AcDbCircle
 10
1086.596093662232
 20
226.5298568042706
 30
0.0
 40
3.25
100
AcDbArc
 50
41.86946514497772
 51
140.4410706380159
  0
LINE
  5
7B8
330
992
100
AcDbEntity
  8
1
  6
Continuous
100
AcDbLine
 10
1084.779222310902
 20
228.0298568042685
 30
0.0
 11
1085.509492310902
 21
228.0298568042685
 31
0.0
  0
ARC
  5
7B9
330
992
100
AcDbEntity
  8
1
  6
Continuous
100
AcDbCircle
 10
1103.179216310901
 20
227.3670148042684
 30
0.0
 40
0.8
100
AcDbArc
 50
0.0
 51
79.28687499999995
  0
ARC
  5
7BA
330
992
100
AcDbEntity
  8
1
  6
Continuous
100
AcDbCircle
 10
1103.879228310902
 20
221.8298598042686
 30
0.0
 40
0.5
100
AcDbArc
 50
270.0000009999997
 51
0.0
  0
ARC
  5
7BB
330
992
100
AcDbEntity
  8
1
  6
Continuous
100
AcDbCircle
 10
1103.879228310902
 20
224.0298568042686
 30
0.0
 40
0.5
100
AcDbArc
 50
0.0
 51
90.00000300000015
  0
LINE
  5
7BC
330
992
100
AcDbEntity
  8
1
  6
Continuous
100
AcDbLine
 10
1102.879228310902
 20
224.5298568042684
 30
0.0
 11
1103.879228310902
 21
224.5298568042684
 31
0.0
  0
LINE
  5
7BD
330
992
100
AcDbEntity
  8
1
  6
Continuous
100
AcDbLine
 10
1104.379228310901
 20
224.0298568042686
 30
0.0
 11
1104.379228310901
 21
221.8298598042686
 31
0.0
  0
ARC
  5
7BE
330
992
100
AcDbEntity
  8
1
  6
Continuous
100
AcDbCircle
 10
1100.679216310902
 20
226.5298568042684
 30
0.0
 40
6.0
100
AcDbArc
 50
211.0710010000003
 51
263.3420409999999
  0
ARC
  5
7BF
330
992
100
AcDbEntity
  8
1
  6
Continuous
100
AcDbCircle
 10
1100.679216310902
 20
226.5298568042684
 30
0.0
 40
2.649999999999999
100
AcDbArc
 50
242.6804460000002
 51
289.3700339999998
  0
ARC
  5
7C0
330
992
100
AcDbEntity
  8
1
  6
Continuous
100
AcDbCircle
 10
1100.679216310902
 20
226.5298568042684
 30
0.0
 40
2.45
100
AcDbArc
 50
249.1384450000002
 51
312.2878040000001
  0
ARC
  5
7C1
330
992
100
AcDbEntity
  8
1
  6
Continuous
100
AcDbCircle
 10
1100.679216310902
 20
226.5298568042684
 30
0.0
 40
5.2
100
AcDbArc
 50
214.3790650000001
 51
270.0000009999997
  0
LINE
  5
7C2
330
992
100
AcDbEntity
  8
1
  6
Continuous
100
AcDbLine
 10
1101.5581533109
 20
224.0298568042686
 30
0.0
 11
1102.379228310902
 21
224.0298568042686
 31
0.0
  0
LINE
  5
7C3
330
992
100
AcDbEntity
  8
1
  6
Continuous
100
AcDbLine
 10
1103.327928310902
 20
228.1530718042684
 30
0.0
 11
1094.729234310902
 21
229.7798568042685
 31
0.0
  0
LINE
  5
7C4
330
992
100
AcDbEntity
  8
1
  6
Continuous
100
AcDbLine
 10
1100.679216310902
 20
221.3298598042686
 30
0.0
 11
1103.879228310902
 21
221.3298598042686
 31
0.0
  0
ARC
  5
7C5
330
992
100
AcDbEntity
  8
1
  6
Continuous
100
AcDbCircle
 10
1102.879228310902
 20
224.0298568042686
 30
0.0
 40
0.5
100
AcDbArc
 50
90.00000300000015
 51
180.0000049999998
  0
ARC
  5
7C6
330
992
100
AcDbEntity
  8
1
  6
Continuous
100
AcDbCircle
 10
1135.179216310901
 20
226.5298568042684
 30
0.0
 40
2.5
100
AcDbArc
 50
270.0000009999997
 51
60.00000300000015
  0
ARC
  5
7C7
330
992
100
AcDbEntity
  8
1
  6
Continuous
100
AcDbCircle
 10
1135.179216310901
 20
226.5298568042684
 30
0.0
 40
5.0
100
AcDbArc
 50
270.0000009999997
 51
60.00000300000015
  0
ARC
  5
7C8
330
992
100
AcDbEntity
  8
1
  6
Continuous
100
AcDbCircle
 10
1135.179216310901
 20
226.5298568042684
 30
0.0
 40
10.0
100
AcDbArc
 50
263.3420409999999
 51
77.51796200000011
  0
LINE
  5
7C9
330
992
100
AcDbEntity
  8
4
  6
CENTER
100
AcDbLine
 10
1135.179216310901
 20
239.0698578042687
 30
0.0
 11
1135.179216310901
 21
213.9898638042687
 31
0.0
  0
ARC
  5
7CA
330
992
100
AcDbEntity
  8
1
  6
Continuous
100
AcDbCircle
 10
1128.861772310902
 20
233.0493728042685
 30
0.0
 40
5.0
100
AcDbArc
 50
30.00000000000003
 51
104.9999999999999
  0
ARC
  5
7CB
330
992
100
AcDbEntity
  8
1
  6
Continuous
100
AcDbCircle
 10
1128.861772310902
 20
233.0493728042685
 30
0.0
 40
2.5
100
AcDbArc
 50
30.00000000000003
 51
104.9999999999999
  0
LINE
  5
7CC
330
992
100
AcDbEntity
  8
1
  6
Continuous
100
AcDbLine
 10
1129.942430310902
 20
237.9311938042686
 30
0.0
 11
1137.340562310902
 21
236.2934978042686
 31
0.0
  0
LINE
  5
7CD
330
992
100
AcDbEntity
  8
1
  6
Continuous
100
AcDbLine
 10
1126.105699310902
 20
237.4872698042687
 30
0.0
 11
1127.567674310902
 21
237.8790008042687
 31
0.0
  0
LINE
  5
7CE
330
992
100
AcDbEntity
  8
1
  6
Continuous
100
AcDbLine
 10
1126.752748310902
 20
235.0724518042687
 30
0.0
 11
1128.214708310901
 21
235.4641828042687
 31
0.0
  0
ARC
  5
7CF
330
992
100
AcDbEntity
  8
1
  6
Continuous
100
AcDbCircle
 10
1126.429216310901
 20
236.2798568042686
 30
0.0
 40
1.25
100
AcDbArc
 50
104.9999999999999
 51
284.9999979999999
  0
ARC
  5
7D0
330
992
100
AcDbEntity
  8
1
  6
Continuous
100
AcDbCircle
 10
1127.957460310902
 20
234.4056198042686
 30
0.0
 40
0.8
100
AcDbArc
 50
279.4300060000003
 51
97.18936400000037
  0
LINE
  5
7D1
330
992
100
AcDbEntity
  8
1
  6
Continuous
100
AcDbLine
 10
1133.191896310902
 20
235.5493728042687
 30
0.0
 11
1135.009355310902
 21
232.4014388042687
 31
0.0
  0
LINE
  5
7D2
330
992
100
AcDbEntity
  8
1
  6
Continuous
100
AcDbLine
 10
1131.026826310901
 20
234.2993728042685
 30
0.0
 11
1132.911272310902
 21
231.0354108042684
 31
0.0
  0
ARC
  5
7D3
330
992
100
AcDbEntity
  8
1
  6
Continuous
100
AcDbCircle
 10
1134.643327310901
 20
232.0354108042685
 30
0.0
 40
2.0
100
AcDbArc
 50
209.9999990000001
 51
240.0000060000002
  0
LINE
  5
7D4
330
992
100
AcDbEntity
  8
1
  6
Continuous
100
AcDbLine
 10
1135.009355310902
 20
232.4014388042683
 30
0.0
 11
1137.679216310901
 21
230.8599878042684
 31
0.0
  0
LINE
  5
7D5
330
992
100
AcDbEntity
  8
1
  6
Continuous
100
AcDbLine
 10
1133.643327310901
 20
230.3033628042685
 30
0.0
 11
1136.429216310901
 21
228.6949258042684
 31
0.0
  0
LINE
  5
7DA
330
992
100
AcDbEntity
  8
1
  6
Continuous
100
AcDbLine
 10
1061.046093662233
 20
317.3526614833194
 30
0.0
 11
1061.046093662233
 21
297.3526614833195
 31
0.0
  0
ARC
  5
821
330
992
100
AcDbEntity
  8
1
  6
Continuous
100
AcDbCircle
 10
1089.972520310901
 20
315.7681274832566
 30
0.0
 40
5.0
100
AcDbArc
 50
92.41721299999994
 51
161.524035985667
  0
ARC
  5
822
330
992
100
AcDbEntity
  8
1
  6
Continuous
100
AcDbCircle
 10
1099.9792343109
 20
316.6649774832567
 30
0.0
 40
4.0
100
AcDbArc
 50
11.39367100000008
 51
86.41668000000022
  0
LINE
  5
823
330
992
100
AcDbEntity
  8
1
  6
Continuous
100
AcDbLine
 10
1095.4792343109
 20
305.8526614832566
 30
0.0
 11
1121.6703353109
 21
305.8526614832566
 31
0.0
  0
LINE
  5
824
330
992
100
AcDbEntity
  8
1
  6
Continuous
100
AcDbLine
 10
1105.765810310902
 20
304.0008234832566
 30
0.0
 11
1125.250352310901
 21
305.5701904832567
 31
0.0
  0
LINE
  5
825
330
992
100
AcDbEntity
  8
1
  6
Continuous
100
AcDbLine
 10
1105.3424243109
 20
303.9985354832568
 30
0.0
 11
1125.247667310901
 21
305.5747374832567
 31
0.0
  0
ARC
  5
826
330
992
100
AcDbEntity
  8
1
  6
Continuous
100
AcDbCircle
 10
1110.655870310901
 20
295.6390834832566
 30
0.0
 40
7.0
100
AcDbArc
 50
92.68260699999979
 51
154.6289399999998
  0
LINE
  5
827
330
992
100
AcDbEntity
  8
1
  6
Continuous
100
AcDbLine
 10
1095.4792343109
 20
308.8526614832566
 30
0.0
 11
1121.6703353109
 21
308.8526614832566
 31
0.0
  0
LINE
  5
828
330
992
100
AcDbEntity
  8
1
  6
Continuous
100
AcDbLine
 10
1105.765810310902
 20
310.7045134832566
 30
0.0
 11
1125.250352310901
 21
309.1351474832565
 31
0.0
  0
LINE
  5
829
330
992
100
AcDbEntity
  8
1
  6
Continuous
100
AcDbLine
 10
1105.3424243109
 20
310.7068024832566
 30
0.0
 11
1125.247667310901
 21
309.1305994832565
 31
0.0
  0
ARC
  5
82A
330
992
100
AcDbEntity
  8
1
  6
Continuous
100
AcDbCircle
 10
1110.655870310901
 20
319.0662534832565
 30
0.0
 40
7.0
100
AcDbArc
 50
205.3710559999998
 51
267.3174029999999
  0
LINE
  5
82B
330
992
100
AcDbEntity
  8
1
  6
Continuous
100
AcDbLine
 10
1091.046093662233
 20
297.3526614832568
 30
0.0
 11
1091.046093662233
 21
317.3526614832566
 31
0.0
  0
LINE
  5
82C
330
992
100
AcDbEntity
  8
1
  6
Continuous
100
AcDbLine
 10
1095.4792343109
 20
305.8526614832566
 30
0.0
 11
1095.4792343109
 21
298.8526614832566
 31
0.0
  0
ARC
  5
82D
330
992
100
AcDbEntity
  8
1
  6
Continuous
100
AcDbCircle
 10
1093.9792343109
 20
393.8526614832566
 30
0.0
 40
100.0
100
AcDbArc
 50
267.5827969999999
 51
273.5833090000002
  0
ARC
  5
82E
330
992
100
AcDbEntity
  8
1
  6
Continuous
100
AcDbCircle
 10
1093.9792343109
 20
392.3526614832566
 30
0.0
 40
95.25
100
AcDbArc
 50
265.8478773070988
 51
270.3055829999997
  0
ARC
  5
82F
330
992
100
AcDbEntity
  8
1
  6
Continuous
100
AcDbCircle
 10
1089.972520310901
 20
298.9371944832567
 30
0.0
 40
5.0
100
AcDbArc
 50
198.4759519324051
 51
267.5827969999999
  0
ARC
  5
830
330
992
100
AcDbEntity
  8
1
  6
Continuous
100
AcDbCircle
 10
1090.979234310901
 20
298.6506804832566
 30
0.0
 40
1.5
100
AcDbArc
 50
239.9222374378614
 51
268.166232
  0
ARC
  5
831
330
992
100
AcDbEntity
  8
1
  6
Continuous
100
AcDbCircle
 10
1095.9792343109
 20
298.8526614832566
 30
0.0
 40
0.5
100
AcDbArc
 50
180.0000049999995
 51
270.0000009999997
  0
ARC
  5
832
330
992
100
AcDbEntity
  8
1
  6
Continuous
100
AcDbCircle
 10
1094.479234310901
 20
298.6040034832566
 30
0.0
 40
1.5
100
AcDbArc
 50
270.3055829999997
 51
329.9558910000004
  0
LINE
  5
833
330
992
100
AcDbEntity
  8
1
  6
Continuous
100
AcDbLine
 10
1094.7292343109
 20
297.1056214832566
 30
0.0
 11
1094.7292343109
 21
293.8554834832566
 31
0.0
  0
ARC
  5
834
330
992
100
AcDbEntity
  8
1
  6
Continuous
100
AcDbCircle
 10
1099.9792343109
 20
298.0403444832566
 30
0.0
 40
4.0
100
AcDbArc
 50
273.5833090000002
 51
348.6063250000001
  0
LINE
  5
835
330
992
100
AcDbEntity
  8
1
  6
Continuous
100
AcDbLine
 10
1095.9792343109
 20
298.3526614832566
 30
0.0
 11
1103.879228310901
 21
298.3526614832566
 31
0.0
  0
LINE
  5
836
330
992
100
AcDbEntity
  8
1
  6
Continuous
100
AcDbLine
 10
1098.7292343109
 20
298.1026614832566
 30
0.0
 11
1102.629228310901
 21
298.1026614832566
 31
0.0
  0
ARC
  5
837
330
992
100
AcDbEntity
  8
1
  6
Continuous
100
AcDbCircle
 10
1098.7292343109
 20
298.6026614832566
 30
0.0
 40
0.5
100
AcDbArc
 50
209.9999990000001
 51
270.0000009999997
  0
ARC
  5
838
330
992
100
AcDbEntity
  8
1
  6
Continuous
100
AcDbCircle
 10
1096.2104963109
 20
297.6026614832566
 30
0.0
 40
0.5
100
AcDbArc
 50
90.00000300000015
 51
149.9558879999996
  0
ARC
  5
839
330
992
100
AcDbEntity
  8
1
  6
Continuous
100
AcDbCircle
 10
1097.7292343109
 20
298.6026614832566
 30
0.0
 40
0.5
100
AcDbArc
 50
270.0000009999997
 51
329.9999890000003
  0
LINE
  5
83A
330
992
100
AcDbEntity
  8
1
  6
Continuous
100
AcDbLine
 10
1096.2104963109
 20
298.1026614832566
 30
0.0
 11
1097.7292343109
 21
298.1026614832566
 31
0.0
  0
LINE
  5
83B
330
992
100
AcDbEntity
  8
1
  6
Continuous
100
AcDbLine
 10
1103.926378310901
 20
302.0072784832565
 30
0.0
 11
1103.926378310901
 21
298.8526614832565
 31
0.0
  0
LINE
  5
83C
330
992
100
AcDbEntity
  8
1
  6
Continuous
100
AcDbLine
 10
1103.500307310901
 20
302.0047754832568
 30
0.0
 11
1103.500307310901
 21
298.8526614832566
 31
0.0
  0
ARC
  5
83D
330
992
100
AcDbEntity
  8
1
  6
Continuous
100
AcDbCircle
 10
1103.879228310901
 20
298.8526614832566
 30
0.0
 40
0.5
100
AcDbArc
 50
270.0000009999997
 51
334.6289440000003
  0
ARC
  5
83E
330
992
100
AcDbEntity
  8
1
  6
Continuous
100
AcDbCircle
 10
1103.116167310901
 20
297.4082034832566
 30
0.0
 40
0.8
100
AcDbArc
 50
348.6063250000001
 51
66.75501799999985
  0
ARC
  5
83F
330
992
100
AcDbEntity
  8
1
  6
Continuous
100
AcDbCircle
 10
1103.426378310901
 20
298.8526614832566
 30
0.0
 40
0.5
100
AcDbArc
 50
270.0000009999997
 51
0.0
  0
ARC
  5
840
330
992
100
AcDbEntity
  8
1
  6
Continuous
100
AcDbCircle
 10
1103.000307310901
 20
298.8526614832566
 30
0.0
 40
0.5
100
AcDbArc
 50
270.0000009999997
 51
0.0
  0
ARC
  5
841
330
992
100
AcDbEntity
  8
1
  6
Continuous
100
AcDbCircle
 10
1102.629228310901
 20
298.6026614832566
 30
0.0
 40
0.5
100
AcDbArc
 50
270.0000009999997
 51
329.9999890000003
  0
ARC
  5
842
330
992
100
AcDbEntity
  8
1
  6
Continuous
100
AcDbCircle
 10
1103.629228310901
 20
298.6026614832566
 30
0.0
 40
0.5
100
AcDbArc
 50
209.9999990000001
 51
246.7550089999999
  0
ARC
  5
843
330
992
100
AcDbEntity
  8
1
  6
Continuous
100
AcDbCircle
 10
1105.926378310901
 20
302.0072784832566
 30
0.0
 40
2.0
100
AcDbArc
 50
94.604902
 51
180.0000049999995
  0
ARC
  5
844
330
992
100
AcDbEntity
  8
1
  6
Continuous
100
AcDbCircle
 10
1105.500307310901
 20
302.0047754832568
 30
0.0
 40
2.0
100
AcDbArc
 50
94.52754400000003
 51
180.0000049999995
  0
ARC
  5
845
330
992
100
AcDbEntity
  8
1
  6
Continuous
100
AcDbCircle
 10
1093.9792343109
 20
220.8526684832567
 30
0.0
 40
100.0
100
AcDbArc
 50
86.41668000000022
 51
92.41721299999994
  0
ARC
  5
846
330
992
100
AcDbEntity
  8
1
  6
Continuous
100
AcDbCircle
 10
1093.9792343109
 20
222.3526684832567
 30
0.0
 40
95.25
100
AcDbArc
 50
89.69441999999981
 51
94.15218084766596
  0
ARC
  5
847
330
992
100
AcDbEntity
  8
1
  6
Continuous
100
AcDbCircle
 10
1090.979234310901
 20
316.0546564832567
 30
0.0
 40
1.5
100
AcDbArc
 50
91.83377799999998
 51
120.0788295588944
  0
ARC
  5
848
330
992
100
AcDbEntity
  8
1
  6
Continuous
100
AcDbCircle
 10
1095.4792343109
 20
308.0526734832567
 30
0.0
 40
0.8
100
AcDbArc
 50
90.00000300000015
 51
180.0000049999995
  0
ARC
  5
849
330
992
100
AcDbEntity
  8
1
  6
Continuous
100
AcDbCircle
 10
1095.4792343109
 20
306.6526644832565
 30
0.0
 40
0.8
100
AcDbArc
 50
180.0000049999995
 51
270.0000009999997
  0
LINE
  5
84A
330
992
100
AcDbEntity
  8
1
  6
Continuous
100
AcDbLine
 10
1094.679216310901
 20
308.0526734832567
 30
0.0
 11
1094.679216310901
 21
306.6526644832565
 31
0.0
  0
ARC
  5
84B
330
992
100
AcDbEntity
  8
1
  6
Continuous
100
AcDbCircle
 10
1095.9792343109
 20
315.8526614832566
 30
0.0
 40
0.5
100
AcDbArc
 50
90.00000300000015
 51
180.0000049999995
  0
ARC
  5
84C
330
992
100
AcDbEntity
  8
1
  6
Continuous
100
AcDbCircle
 10
1094.479234310901
 20
316.1013334832565
 30
0.0
 40
1.5
100
AcDbArc
 50
30.04411699999979
 51
89.69441999999981
  0
LINE
  5
84D
330
992
100
AcDbEntity
  8
1
  6
Continuous
100
AcDbLine
 10
1095.4792343109
 20
308.8526614832566
 30
0.0
 11
1095.4792343109
 21
315.8526614832566
 31
0.0
  0
LINE
  5
84E
330
992
100
AcDbEntity
  8
1
  6
Continuous
100
AcDbLine
 10
1094.7292343109
 20
317.5997164832566
 30
0.0
 11
1094.7292343109
 21
320.8498534832566
 31
0.0
  0
LINE
  5
84F
330
992
100
AcDbEntity
  8
1
  6
Continuous
100
AcDbLine
 10
1095.9792343109
 20
316.3526614832566
 30
0.0
 11
1103.879228310901
 21
316.3526614832566
 31
0.0
  0
LINE
  5
850
330
992
100
AcDbEntity
  8
1
  6
Continuous
100
AcDbLine
 10
1098.7292343109
 20
316.6026614832566
 30
0.0
 11
1102.629228310901
 21
316.6026614832566
 31
0.0
  0
ARC
  5
851
330
992
100
AcDbEntity
  8
1
  6
Continuous
100
AcDbCircle
 10
1096.2104963109
 20
317.1026614832566
 30
0.0
 40
0.5
100
AcDbArc
 50
210.0441089999995
 51
270.0000009999997
  0
ARC
  5
852
330
992
100
AcDbEntity
  8
1
  6
Continuous
100
AcDbCircle
 10
1098.7292343109
 20
316.1026614832566
 30
0.0
 40
0.5
100
AcDbArc
 50
90.00000300000015
 51
149.9999969999995
  0
ARC
  5
853
330
992
100
AcDbEntity
  8
1
  6
Continuous
100
AcDbCircle
 10
1097.7292343109
 20
316.1026614832566
 30
0.0
 40
0.5
100
AcDbArc
 50
29.99999999999993
 51
90.00000300000015
  0
LINE
  5
854
330
992
100
AcDbEntity
  8
1
  6
Continuous
100
AcDbLine
 10
1096.2104963109
 20
316.6026614832566
 30
0.0
 11
1097.7292343109
 21
316.6026614832566
 31
0.0
  0
ARC
  5
855
330
992
100
AcDbEntity
  8
1
  6
Continuous
100
AcDbCircle
 10
1103.116167310901
 20
317.2971494832566
 30
0.0
 40
0.8
100
AcDbArc
 50
293.2449919999999
 51
11.39367100000008
  0
ARC
  5
856
330
992
100
AcDbEntity
  8
1
  6
Continuous
100
AcDbCircle
 10
1102.629228310901
 20
316.1026614832566
 30
0.0
 40
0.5
100
AcDbArc
 50
29.99999999999993
 51
90.00000300000015
  0
ARC
  5
857
330
992
100
AcDbEntity
  8
1
  6
Continuous
100
AcDbCircle
 10
1105.926378310901
 20
312.6980594832566
 30
0.0
 40
2.0
100
AcDbArc
 50
180.0000049999995
 51
265.395087
  0
ARC
  5
858
330
992
100
AcDbEntity
  8
1
  6
Continuous
100
AcDbCircle
 10
1105.500307310901
 20
312.7005614832568
 30
0.0
 40
2.0
100
AcDbArc
 50
180.0000049999995
 51
265.4724599999997
  0
ARC
  5
859
330
992
100
AcDbEntity
  8
1
  6
Continuous
100
AcDbCircle
 10
1103.879228310901
 20
315.8526614832566
 30
0.0
 40
0.5
100
AcDbArc
 50
25.3710480000003
 51
90.00000300000015
  0
ARC
  5
85A
330
992
100
AcDbEntity
  8
1
  6
Continuous
100
AcDbCircle
 10
1103.426378310901
 20
315.8526614832566
 30
0.0
 40
0.5
100
AcDbArc
 50
0.0
 51
90.00000300000015
  0
ARC
  5
85B
330
992
100
AcDbEntity
  8
1
  6
Continuous
100
AcDbCircle
 10
1103.000307310901
 20
315.8526614832566
 30
0.0
 40
0.5
100
AcDbArc
 50
0.0
 51
90.00000300000015
  0
ARC
  5
85C
330
992
100
AcDbEntity
  8
1
  6
Continuous
100
AcDbCircle
 10
1103.629228310901
 20
316.1026614832566
 30
0.0
 40
0.5
100
AcDbArc
 50
113.2449799999996
 51
149.9999969999995
  0
LINE
  5
85D
330
992
100
AcDbEntity
  8
1
  6
Continuous
100
AcDbLine
 10
1103.926378310901
 20
312.6980594832565
 30
0.0
 11
1103.926378310901
 21
315.8526614832566
 31
0.0
  0
LINE
  5
85E
330
992
100
AcDbEntity
  8
1
  6
Continuous
100
AcDbLine
 10
1103.500307310901
 20
312.7005614832568
 30
0.0
 11
1103.500307310901
 21
315.8526614832566
 31
0.0
  0
LINE
  5
85F
330
992
100
AcDbEntity
  8
1
  6
Continuous
100
AcDbLine
 10
1129.942430310901
 20
305.8526614832564
 30
0.0
 11
1144.379228310901
 21
305.8526614832564
 31
0.0
  0
LINE
  5
860
330
992
100
AcDbEntity
  8
1
  6
Continuous
100
AcDbLine
 10
1110.328233310901
 20
302.6314084832565
 30
0.0
 11
1137.472032310901
 21
303.9032134832566
 31
0.0
  0
LINE
  5
861
330
992
100
AcDbEntity
  8
1
  6
Continuous
100
AcDbLine
 10
1125.653154310901
 20
305.3279114832566
 30
0.0
 11
1137.672060310901
 21
304.7002414832566
 31
0.0
  0
LINE
  5
862
330
992
100
AcDbEntity
  8
1
  6
Continuous
100
AcDbLine
 10
1129.942430310901
 20
308.8526614832565
 30
0.0
 11
1144.379228310901
 21
308.8526614832565
 31
0.0
  0
LINE
  5
863
330
992
100
AcDbEntity
  8
1
  6
Continuous
100
AcDbLine
 10
1110.328233310901
 20
312.0739284832566
 30
0.0
 11
1137.472032310901
 21
310.8021234832566
 31
0.0
  0
LINE
  5
864
330
992
100
AcDbEntity
  8
1
  6
Continuous
100
AcDbLine
 10
1125.653154310901
 20
309.3774104832565
 30
0.0
 11
1137.672060310901
 21
310.0050964832565
 31
0.0
  0
LINE
  5
865
330
992
100
AcDbEntity
  8
1
  6
Continuous
100
AcDbLine
 10
1125.179216310901
 20
309.0933534832566
 30
0.0
 11
1125.179216310901
 21
305.8272394832565
 31
0.0
  0
LINE
  5
866
330
992
100
AcDbEntity
  8
1
  6
Continuous
100
AcDbLine
 10
1121.6703353109
 20
308.8526614832566
 30
0.0
 11
1121.6703353109
 21
305.8526614832566
 31
0.0
  0
ARC
  5
867
330
992
100
AcDbEntity
  8
1
  6
Continuous
100
AcDbCircle
 10
1125.679216310901
 20
305.8272394832565
 30
0.0
 40
0.5
100
AcDbArc
 50
180.0000049999995
 51
267.0104539999997
  0
ARC
  5
868
330
992
100
AcDbEntity
  8
1
  6
Continuous
100
AcDbCircle
 10
1125.679216310901
 20
308.8780974832566
 30
0.0
 40
0.5
100
AcDbArc
 50
92.98953499999983
 51
180.0000049999995
  0
LINE
  5
869
330
992
100
AcDbEntity
  8
1
  6
Continuous
100
AcDbLine
 10
1139.924409310901
 20
304.4497684832566
 30
0.0
 11
1139.412309310901
 21
304.5483094832566
 31
0.0
  0
ARC
  5
86A
330
992
100
AcDbEntity
  8
1
  6
Continuous
100
AcDbCircle
 10
1142.713945310901
 20
302.8526614832566
 30
0.0
 40
3.0
100
AcDbArc
 50
90.00000300000015
 51
149.6393199999999
  0
LINE
  5
86B
330
992
100
AcDbEntity
  8
4
  6
CENTER
100
AcDbLine
 10
1135.1792163109
 20
301.2941394906822
 30
0.0
 11
1135.1792163109
 21
313.4111974770143
 31
0.0
  0
LINE
  5
86C
330
992
100
AcDbEntity
  8
1
  6
Continuous
100
AcDbLine
 10
1140.127138310901
 20
304.3720394832567
 30
0.0
 11
1139.924409310901
 21
304.4497684832568
 31
0.0
  0
LINE
  5
86D
330
992
100
AcDbEntity
  8
1
  6
Continuous
100
AcDbLine
 10
1138.873353310901
 20
304.0007324832566
 30
0.0
 11
1139.397615310901
 21
304.0629424832566
 31
0.0
  0
LINE
  5
86E
330
992
100
AcDbEntity
  8
1
  6
Continuous
100
AcDbLine
 10
1137.472002310901
 20
303.9032134832566
 30
0.0
 11
1138.873353310901
 21
304.0007324832566
 31
0.0
  0
LINE
  5
86F
330
992
100
AcDbEntity
  8
1
  6
Continuous
100
AcDbLine
 10
1139.796281310901
 20
304.1324154832567
 30
0.0
 11
1139.814134310901
 21
304.1363834832568
 31
0.0
  0
LINE
  5
870
330
992
100
AcDbEntity
  8
1
  6
Continuous
100
AcDbLine
 10
1139.397615310901
 20
304.0629424832566
 30
0.0
 11
1139.796281310901
 21
304.1324154832566
 31
0.0
  0
ARC
  5
871
330
992
100
AcDbEntity
  8
1
  6
Continuous
100
AcDbCircle
 10
1139.693941310901
 20
304.6217194832566
 30
0.0
 40
0.5
100
AcDbArc
 50
280.9225649999997
 51
329.6393279999998
  0
ARC
  5
872
330
992
100
AcDbEntity
  8
1
  6
Continuous
100
AcDbCircle
 10
1142.713945310901
 20
311.8526614832566
 30
0.0
 40
3.0
100
AcDbArc
 50
210.3606750000001
 51
270.0000009999997
  0
LINE
  5
873
330
992
100
AcDbEntity
  8
1
  6
Continuous
100
AcDbLine
 10
1131.273576310901
 20
305.8526614832566
 30
0.0
 11
1131.273576310901
 21
305.0343934832566
 31
0.0
  0
LINE
  5
874
330
992
100
AcDbEntity
  8
1
  6
Continuous
100
AcDbLine
 10
1135.0093553109
 20
305.8526614832566
 30
0.0
 11
1135.0093553109
 21
304.8392944832567
 31
0.0
  0
LINE
  5
875
330
992
100
AcDbEntity
  8
1
  6
Continuous
100
AcDbLine
 10
1139.412309310901
 20
304.5483094832566
 30
0.0
 11
1138.406435310901
 21
304.6534574832568
 31
0.0
  0
LINE
  5
876
330
992
100
AcDbEntity
  8
1
  6
Continuous
100
AcDbLine
 10
1138.406435310901
 20
304.6534574832566
 30
0.0
 11
1137.671586310901
 21
304.7002564832566
 31
0.0
  0
LINE
  5
877
330
992
100
AcDbEntity
  8
1
  6
Continuous
100
AcDbLine
 10
1131.273576310901
 20
308.8526614832566
 30
0.0
 11
1131.273576310901
 21
309.6709444832565
 31
0.0
  0
LINE
  5
878
330
992
100
AcDbEntity
  8
1
  6
Continuous
100
AcDbLine
 10
1135.0093553109
 20
308.8526614832566
 30
0.0
 11
1135.0093553109
 21
309.8660434832567
 31
0.0
  0
LINE
  5
879
330
992
100
AcDbEntity
  8
1
  6
Continuous
100
AcDbLine
 10
1138.466417310901
 20
310.0565644832566
 30
0.0
 11
1139.135911310902
 21
310.1210934832568
 31
0.0
  0
LINE
  5
87A
330
992
100
AcDbEntity
  8
1
  6
Continuous
100
AcDbLine
 10
1139.174135310901
 20
310.6716764832565
 30
0.0
 11
1137.9973463109
 21
310.7736814832566
 31
0.0
  0
LINE
  5
87B
330
992
100
AcDbEntity
  8
1
  6
Continuous
100
AcDbLine
 10
1137.671586310901
 20
310.0050814832566
 30
0.0
 11
1138.466417310901
 21
310.0565644832566
 31
0.0
  0
LINE
  5
87C
330
992
100
AcDbEntity
  8
1
  6
Continuous
100
AcDbLine
 10
1137.9973463109
 20
310.7736814832566
 30
0.0
 11
1137.472002310901
 21
310.8021234832567
 31
0.0
  0
LINE
  5
87D
330
992
100
AcDbEntity
  8
1
  6
Continuous
100
AcDbLine
 10
1139.912141310901
 20
310.2522584832566
 30
0.0
 11
1140.127138310901
 21
310.3332974832566
 31
0.0
  0
LINE
  5
87E
330
992
100
AcDbEntity
  8
1
  6
Continuous
100
AcDbLine
 10
1139.583665310901
 20
310.1837614832565
 30
0.0
 11
1139.912141310901
 21
310.2522584832566
 31
0.0
  0
LINE
  5
87F
330
992
100
AcDbEntity
  8
1
  6
Continuous
100
AcDbLine
 10
1139.135911310901
 20
310.1210934832564
 30
0.0
 11
1139.583665310901
 21
310.1837614832563
 31
0.0
  0
LINE
  5
880
330
992
100
AcDbEntity
  8
1
  6
Continuous
100
AcDbLine
 10
1139.814134310901
 20
310.5689694832566
 30
0.0
 11
1139.174135310901
 21
310.6716764832566
 31
0.0
  0
ARC
  5
881
330
992
100
AcDbEntity
  8
1
  6
Continuous
100
AcDbCircle
 10
1139.693941310901
 20
310.0836184832568
 30
0.0
 40
0.5
100
AcDbArc
 50
30.36067199999997
 51
79.07742400000005
  0
ARC
  5
882
330
992
100
AcDbEntity
  8
1
  6
Continuous
100
AcDbCircle
 10
1144.379228310901
 20
308.0526734832567
 30
0.0
 40
0.8
100
AcDbArc
 50
0.0
 51
90.00000300000015
  0
ARC
  5
883
330
992
100
AcDbEntity
  8
1
  6
Continuous
100
AcDbCircle
 10
1144.379228310901
 20
306.6526644832565
 30
0.0
 40
0.8
100
AcDbArc
 50
270.0000009999997
 51
0.0
  0
LINE
  5
884
330
992
100
AcDbEntity
  8
1
  6
Continuous
100
AcDbLine
 10
1145.179216310901
 20
308.0526734832567
 30
0.0
 11
1145.179216310901
 21
306.6526644832565
 31
0.0
  0
LINE
  5
889
330
992
100
AcDbEntity
  8
1
  6
Continuous
100
AcDbLine
 10
1094.7292343109
 20
136.4599971251995
 30
0.0
 11
1094.7292343109
 21
133.2098601251995
 31
0.0
  0
ARC
  5
88A
330
992
100
AcDbEntity
  8
1
  6
Continuous
100
AcDbCircle
 10
1089.972520310901
 20
138.2915861251995
 30
0.0
 40
5.0
100
AcDbArc
 50
198.4759640143328
 51
267.5827869999999
  0
ARC
  5
88B
330
992
100
AcDbEntity
  8
1
  6
Continuous
100
AcDbCircle
 10
1099.9792343109
 20
137.3947361251996
 30
0.0
 40
4.0
100
AcDbArc
 50
273.5833199999996
 51
348.6063289999998
  0
ARC
  5
88C
330
992
100
AcDbEntity
  8
1
  6
Continuous
100
AcDbCircle
 10
1093.9792343109
 20
233.2070451251995
 30
0.0
 40
100.0
100
AcDbArc
 50
267.5827869999999
 51
273.5833199999996
  0
ARC
  5
88D
330
992
100
AcDbEntity
  8
1
  6
Continuous
100
AcDbCircle
 10
1110.655870310901
 20
134.9934601251996
 30
0.0
 40
7.0
100
AcDbArc
 50
92.68259699999992
 51
154.6289440000002
  0
ARC
  5
88E
330
992
100
AcDbEntity
  8
1
  6
Continuous
100
AcDbCircle
 10
1110.655870310901
 20
158.4206301251994
 30
0.0
 40
7.0
100
AcDbArc
 50
205.3710600000001
 51
267.3173930000002
  0
LINE
  5
88F
330
992
100
AcDbEntity
  8
1
  6
Continuous
100
AcDbLine
 10
1095.474852546823
 20
145.2070521251999
 30
0.0
 11
1144.379228310901
 21
145.2070521251997
 31
0.0
  0
LINE
  5
890
330
992
100
AcDbEntity
  8
1
  6
Continuous
100
AcDbLine
 10
1095.4792343109
 20
148.2070521251995
 30
0.0
 11
1144.379228310901
 21
148.2070521251998
 31
0.0
  0
LINE
  5
891
330
992
100
AcDbEntity
  8
1
  6
Continuous
100
AcDbLine
 10
1095.4792343109
 20
148.2070521251995
 30
0.0
 11
1095.4792343109
 21
155.2070521251995
 31
0.0
  0
LINE
  5
892
330
992
100
AcDbEntity
  8
1
  6
Continuous
100
AcDbLine
 10
1091.046093662233
 20
156.7070521251994
 30
0.0
 11
1091.046093662233
 21
136.7070521251995
 31
0.0
  0
ARC
  5
893
330
992
100
AcDbEntity
  8
1
  6
Continuous
100
AcDbCircle
 10
1093.9792343109
 20
231.7070451251995
 30
0.0
 40
95.25
100
AcDbArc
 50
265.8478191523339
 51
270.30558
  0
ARC
  5
894
330
992
100
AcDbEntity
  8
1
  6
Continuous
100
AcDbCircle
 10
1090.979234310901
 20
138.0050571251996
 30
0.0
 40
1.5
100
AcDbArc
 50
239.9211704411055
 51
268.166222
  0
LINE
  5
895
330
992
100
AcDbEntity
  8
1
  6
Continuous
100
AcDbLine
 10
1095.4792343109
 20
145.2070521251995
 30
0.0
 11
1095.4792343109
 21
138.2070521251995
 31
0.0
  0
ARC
  5
896
330
992
100
AcDbEntity
  8
1
  6
Continuous
100
AcDbCircle
 10
1095.4792343109
 20
147.4070491251996
 30
0.0
 40
0.8
100
AcDbArc
 50
89.99999900000023
 51
179.9999950000001
  0
ARC
  5
897
330
992
100
AcDbEntity
  8
1
  6
Continuous
100
AcDbCircle
 10
1095.4792343109
 20
146.0070401251996
 30
0.0
 40
0.8
100
AcDbArc
 50
179.9999950000001
 51
269.9999969999997
  0
LINE
  5
898
330
992
100
AcDbEntity
  8
1
  6
Continuous
100
AcDbLine
 10
1094.679216310901
 20
146.0070401251996
 30
0.0
 11
1094.679216310901
 21
147.4070491251996
 31
0.0
  0
ARC
  5
899
330
992
100
AcDbEntity
  8
1
  6
Continuous
100
AcDbCircle
 10
1094.479234310901
 20
137.9583801251996
 30
0.0
 40
1.5
100
AcDbArc
 50
270.30558
 51
329.9558830000002
  0
ARC
  5
89A
330
992
100
AcDbEntity
  8
1
  6
Continuous
100
AcDbCircle
 10
1103.629228310901
 20
137.9570521251995
 30
0.0
 40
0.5
100
AcDbArc
 50
210.0000030000004
 51
246.7550200000002
  0
ARC
  5
89B
330
992
100
AcDbEntity
  8
1
  6
Continuous
100
AcDbCircle
 10
1103.879228310901
 20
138.2070521251995
 30
0.0
 40
0.5
100
AcDbArc
 50
269.9999969999997
 51
334.6289519999996
  0
ARC
  5
89C
330
992
100
AcDbEntity
  8
1
  6
Continuous
100
AcDbCircle
 10
1102.629228310901
 20
137.9570521251995
 30
0.0
 40
0.5
100
AcDbArc
 50
269.9999969999997
 51
330.0
  0
ARC
  5
89D
330
992
100
AcDbEntity
  8
1
  6
Continuous
100
AcDbCircle
 10
1103.116167310901
 20
136.7625641251995
 30
0.0
 40
0.8
100
AcDbArc
 50
348.6063289999998
 51
66.75500800000005
  0
LINE
  5
89E
330
992
100
AcDbEntity
  8
1
  6
Continuous
100
AcDbLine
 10
1096.2104963109
 20
137.4570521251995
 30
0.0
 11
1097.7292343109
 21
137.4570521251995
 31
0.0
  0
ARC
  5
89F
330
992
100
AcDbEntity
  8
1
  6
Continuous
100
AcDbCircle
 10
1097.7292343109
 20
137.9570521251995
 30
0.0
 40
0.5
100
AcDbArc
 50
269.9999969999997
 51
330.0
  0
ARC
  5
8A0
330
992
100
AcDbEntity
  8
1
  6
Continuous
100
AcDbCircle
 10
1096.2104963109
 20
136.9570521251995
 30
0.0
 40
0.5
100
AcDbArc
 50
89.99999900000023
 51
149.9558910000004
  0
ARC
  5
8A1
330
992
100
AcDbEntity
  8
1
  6
Continuous
100
AcDbCircle
 10
1095.9792343109
 20
138.2070521251995
 30
0.0
 40
0.5
100
AcDbArc
 50
179.9999950000001
 51
269.9999969999997
  0
ARC
  5
8A2
330
992
100
AcDbEntity
  8
1
  6
Continuous
100
AcDbCircle
 10
1098.7292343109
 20
137.9570521251995
 30
0.0
 40
0.5
100
AcDbArc
 50
210.0000030000004
 51
269.9999969999997
  0
LINE
  5
8A3
330
992
100
AcDbEntity
  8
1
  6
Continuous
100
AcDbLine
 10
1098.7292343109
 20
137.4570521251995
 30
0.0
 11
1102.629228310901
 21
137.4570521251995
 31
0.0
  0
LINE
  5
8A4
330
992
100
AcDbEntity
  8
1
  6
Continuous
100
AcDbLine
 10
1095.9792343109
 20
137.7070521251995
 30
0.0
 11
1103.879228310901
 21
137.7070521251995
 31
0.0
  0
ARC
  5
8A5
330
992
100
AcDbEntity
  8
1
  6
Continuous
100
AcDbCircle
 10
1093.9792343109
 20
60.2070521251996
 30
0.0
 40
100.0
100
AcDbArc
 50
86.41669099999978
 51
92.41720300000011
  0
ARC
  5
8A6
330
992
100
AcDbEntity
  8
1
  6
Continuous
100
AcDbCircle
 10
1093.9792343109
 20
61.70705212519959
 30
0.0
 40
95.25
100
AcDbArc
 50
89.69441700000016
 51
94.15212269290121
  0
ARC
  5
8A7
330
992
100
AcDbEntity
  8
1
  6
Continuous
100
AcDbCircle
 10
1089.972520310901
 20
155.1225191251996
 30
0.0
 40
5.0
100
AcDbArc
 50
92.41720300000011
 51
161.5240480675947
  0
ARC
  5
8A8
330
992
100
AcDbEntity
  8
1
  6
Continuous
100
AcDbCircle
 10
1090.979234310901
 20
155.4090331251996
 30
0.0
 40
1.5
100
AcDbArc
 50
91.83376799999999
 51
120.0777625621385
  0
ARC
  5
8A9
330
992
100
AcDbEntity
  8
1
  6
Continuous
100
AcDbCircle
 10
1099.9792343109
 20
156.0193691251994
 30
0.0
 40
4.0
100
AcDbArc
 50
11.3936749999999
 51
86.41669099999978
  0
ARC
  5
8AA
330
992
100
AcDbEntity
  8
1
  6
Continuous
100
AcDbCircle
 10
1094.479234310901
 20
155.4557101251996
 30
0.0
 40
1.5
100
AcDbArc
 50
30.04410899999955
 51
89.69441700000016
  0
LINE
  5
8AB
330
992
100
AcDbEntity
  8
1
  6
Continuous
100
AcDbLine
 10
1094.7292343109
 20
156.9540921251995
 30
0.0
 11
1094.7292343109
 21
160.2042301251995
 31
0.0
  0
ARC
  5
8AC
330
992
100
AcDbEntity
  8
1
  6
Continuous
100
AcDbCircle
 10
1103.629228310901
 20
155.4570521251995
 30
0.0
 40
0.5
100
AcDbArc
 50
113.2449909999998
 51
150.0000009999997
  0
ARC
  5
8AD
330
992
100
AcDbEntity
  8
1
  6
Continuous
100
AcDbCircle
 10
1102.629228310901
 20
155.4570521251995
 30
0.0
 40
0.5
100
AcDbArc
 50
30.00001099999954
 51
89.99999900000023
  0
ARC
  5
8AE
330
992
100
AcDbEntity
  8
1
  6
Continuous
100
AcDbCircle
 10
1103.116167310901
 20
156.6515101251995
 30
0.0
 40
0.8
100
AcDbArc
 50
293.244982
 51
11.3936749999999
  0
ARC
  5
8AF
330
992
100
AcDbEntity
  8
1
  6
Continuous
100
AcDbCircle
 10
1103.879228310901
 20
155.2070521251995
 30
0.0
 40
0.5
100
AcDbArc
 50
25.3710559999998
 51
89.99999900000023
  0
LINE
  5
8B0
330
992
100
AcDbEntity
  8
1
  6
Continuous
100
AcDbLine
 10
1096.2104963109
 20
155.9570521251995
 30
0.0
 11
1097.7292343109
 21
155.9570521251995
 31
0.0
  0
ARC
  5
8B1
330
992
100
AcDbEntity
  8
1
  6
Continuous
100
AcDbCircle
 10
1097.7292343109
 20
155.4570521251995
 30
0.0
 40
0.5
100
AcDbArc
 50
30.00001099999954
 51
89.99999900000023
  0
ARC
  5
8B2
330
992
100
AcDbEntity
  8
1
  6
Continuous
100
AcDbCircle
 10
1096.2104963109
 20
156.4570521251995
 30
0.0
 40
0.5
100
AcDbArc
 50
210.044112
 51
269.9999969999997
  0
ARC
  5
8B3
330
992
100
AcDbEntity
  8
1
  6
Continuous
100
AcDbCircle
 10
1095.9792343109
 20
155.2070521251995
 30
0.0
 40
0.5
100
AcDbArc
 50
89.99999900000023
 51
179.9999950000001
  0
ARC
  5
8B4
330
992
100
AcDbEntity
  8
1
  6
Continuous
100
AcDbCircle
 10
1098.7292343109
 20
155.4570521251995
 30
0.0
 40
0.5
100
AcDbArc
 50
89.99999900000023
 51
150.0000009999997
  0
LINE
  5
8B5
330
992
100
AcDbEntity
  8
1
  6
Continuous
100
AcDbLine
 10
1098.7292343109
 20
155.9570521251995
 30
0.0
 11
1102.629228310901
 21
155.9570521251995
 31
0.0
  0
LINE
  5
8B6
330
992
100
AcDbEntity
  8
1
  6
Continuous
100
AcDbLine
 10
1095.9792343109
 20
155.7070521251995
 30
0.0
 11
1103.879228310901
 21
155.7070521251995
 31
0.0
  0
LINE
  5
8B7
330
992
100
AcDbEntity
  8
1
  6
Continuous
100
AcDbLine
 10
1110.328233310901
 20
151.4283051251996
 30
0.0
 11
1137.472032310901
 21
150.1565001251996
 31
0.0
  0
LINE
  5
8B8
330
992
100
AcDbEntity
  8
1
  6
Continuous
100
AcDbLine
 10
1110.328233310901
 20
141.9857851251996
 30
0.0
 11
1137.472032310901
 21
143.2575901251996
 31
0.0
  0
LINE
  5
8B9
330
992
100
AcDbEntity
  8
4
  6
CENTER
100
AcDbLine
 10
1135.1792163109
 20
152.765574117774
 30
0.0
 11
1135.1792163109
 21
140.6485161314419
 31
0.0
  0
ARC
  5
8BA
330
992
100
AcDbEntity
  8
1
  6
Continuous
100
AcDbCircle
 10
1142.713945310901
 20
142.2070521251995
 30
0.0
 40
3.0
100
AcDbArc
 50
89.99999900000023
 51
149.6393249999997
  0
ARC
  5
8BB
330
992
100
AcDbEntity
  8
1
  6
Continuous
100
AcDbCircle
 10
1142.713945310901
 20
151.2070521251995
 30
0.0
 40
3.0
100
AcDbArc
 50
210.36068
 51
269.9999969999997
  0
LINE
  5
8BC
330
992
100
AcDbEntity
  8
1
  6
Continuous
100
AcDbLine
 10
1138.873353310901
 20
150.0589811251995
 30
0.0
 11
1139.397615310901
 21
149.9967711251995
 31
0.0
  0
LINE
  5
8BD
330
992
100
AcDbEntity
  8
1
  6
Continuous
100
AcDbLine
 10
1137.472002310901
 20
150.1565001251995
 30
0.0
 11
1138.873353310901
 21
150.0589811251995
 31
0.0
  0
LINE
  5
8BE
330
992
100
AcDbEntity
  8
1
  6
Continuous
100
AcDbLine
 10
1139.397615310901
 20
149.9967711251995
 30
0.0
 11
1139.796281310901
 21
149.9272981251996
 31
0.0
  0
LINE
  5
8BF
330
992
100
AcDbEntity
  8
1
  6
Continuous
100
AcDbLine
 10
1139.796281310901
 20
149.9272981251994
 30
0.0
 11
1139.814134310901
 21
149.9233301251994
 31
0.0
  0
LINE
  5
8C0
330
992
100
AcDbEntity
  8
1
  6
Continuous
100
AcDbLine
 10
1139.174135310901
 20
143.3880371251996
 30
0.0
 11
1137.9973463109
 21
143.2860321251996
 31
0.0
  0
LINE
  5
8C1
330
992
100
AcDbEntity
  8
1
  6
Continuous
100
AcDbLine
 10
1137.9973463109
 20
143.2860321251995
 30
0.0
 11
1137.472002310901
 21
143.2575901251994
 31
0.0
  0
ARC
  5
8C2
330
992
100
AcDbEntity
  8
1
  6
Continuous
100
AcDbCircle
 10
1139.693941310901
 20
143.9760951251994
 30
0.0
 40
0.5
100
AcDbArc
 50
280.9225759999999
 51
329.6393279999998
  0
LINE
  5
8C3
330
992
100
AcDbEntity
  8
1
  6
Continuous
100
AcDbLine
 10
1139.814134310901
 20
143.4907441251995
 30
0.0
 11
1139.174135310901
 21
143.3880371251995
 31
0.0
  0
ARC
  5
8C4
330
992
100
AcDbEntity
  8
1
  6
Continuous
100
AcDbCircle
 10
1139.693941310901
 20
149.4379941251995
 30
0.0
 40
0.5
100
AcDbArc
 50
30.36067200000001
 51
79.07743500000012
  0
LINE
  5
8C5
330
992
100
AcDbEntity
  8
1
  6
Continuous
100
AcDbLine
 10
1145.179216310901
 20
146.0070401251996
 30
0.0
 11
1145.179216310901
 21
147.4070491251996
 31
0.0
  0
ARC
  5
8C6
330
992
100
AcDbEntity
  8
1
  6
Continuous
100
AcDbCircle
 10
1144.379228310901
 20
147.4070491251996
 30
0.0
 40
0.8
100
AcDbArc
 50
0.0
 51
89.99999900000023
  0
ARC
  5
8C7
330
992
100
AcDbEntity
  8
1
  6
Continuous
100
AcDbCircle
 10
1144.379228310901
 20
146.0070401251996
 30
0.0
 40
0.8
100
AcDbArc
 50
269.9999969999997
 51
0.0
  0
LINE
  5
8CA
330
992
100
AcDbEntity
  8
1
  6
Continuous
100
AcDbLine
 10
152.356705970938
 20
136.4600046256993
 30
0.0
 11
152.356705970938
 21
133.2098676256993
 31
0.0
  0
ARC
  5
8CC
330
992
100
AcDbEntity
  8
1
  6
Continuous
100
AcDbCircle
 10
147.106705970938
 20
137.3947436256993
 30
0.0
 40
4.0
100
AcDbArc
 50
191.393671
 51
266.4166800000001
  0
ARC
  5
8CD
330
992
100
AcDbEntity
  8
1
  6
Continuous
100
AcDbCircle
 10
157.1134199709377
 20
138.2915936256993
 30
0.0
 40
5.0
100
AcDbArc
 50
272.4172129999999
 51
341.5240359856826
  0
ARC
  5
8CE
330
992
100
AcDbEntity
  8
1
  6
Continuous
100
AcDbCircle
 10
153.106705970938
 20
233.2070526256993
 30
0.0
 40
100.0
100
AcDbArc
 50
266.4166800000001
 51
272.4172129999999
  0
LINE
  5
8CF
330
992
100
AcDbEntity
  8
1
  6
Continuous
100
AcDbLine
 10
136.7577069709378
 20
141.9857926256994
 30
0.0
 11
109.6139079709378
 21
143.2575976256994
 31
0.0
  0
LINE
  5
8D0
330
992
100
AcDbEntity
  8
1
  6
Continuous
100
AcDbLine
 10
136.7577069709378
 20
151.4283126256994
 30
0.0
 11
109.6139079709378
 21
150.1565076256994
 31
0.0
  0
LINE
  5
8D1
330
992
100
AcDbEntity
  8
1
  6
Continuous
100
AcDbLine
 10
151.606705970938
 20
145.2070596256994
 30
0.0
 11
102.702330206901
 21
145.2070596256994
 31
0.0
  0
LINE
  5
8D2
330
992
100
AcDbEntity
  8
1
  6
Continuous
100
AcDbLine
 10
151.606705970938
 20
148.2070596256992
 30
0.0
 11
102.7067239709378
 21
148.2070596256992
 31
0.0
  0
LINE
  5
8D3
330
992
100
AcDbEntity
  8
1
  6
Continuous
100
AcDbLine
 10
109.6139379709379
 20
150.1565076256993
 30
0.0
 11
108.2125869709379
 21
150.0589886256993
 31
0.0
  0
LINE
  5
8D4
330
992
100
AcDbEntity
  8
1
  6
Continuous
100
AcDbLine
 10
108.2125869709379
 20
150.0589886256993
 30
0.0
 11
107.688324970938
 21
149.9967786256994
 31
0.0
  0
LINE
  5
8D5
330
992
100
AcDbEntity
  8
1
  6
Continuous
100
AcDbLine
 10
107.289658970938
 20
149.9273056256992
 30
0.0
 11
107.2718059709379
 21
149.9233376256992
 31
0.0
  0
LINE
  5
8D6
330
992
100
AcDbEntity
  8
1
  6
Continuous
100
AcDbLine
 10
107.688324970938
 20
149.9967786256994
 30
0.0
 11
107.289658970938
 21
149.9273056256992
 31
0.0
  0
ARC
  5
8D7
330
992
100
AcDbEntity
  8
1
  6
Continuous
100
AcDbCircle
 10
102.7067119709379
 20
146.0070476256992
 30
0.0
 40
0.8
100
AcDbArc
 50
180.0
 51
270.000003
  0
LINE
  5
8D8
330
992
100
AcDbEntity
  8
1
  6
Continuous
100
AcDbLine
 10
101.9067239709378
 20
146.0070476256992
 30
0.0
 11
101.9067239709378
 21
147.4070596256993
 31
0.0
  0
LINE
  5
8D9
330
992
100
AcDbEntity
  8
1
  6
Continuous
100
AcDbLine
 10
107.9118049709379
 20
143.3880446256992
 30
0.0
 11
109.0885939709378
 21
143.2860396256994
 31
0.0
  0
LINE
  5
8DA
330
992
100
AcDbEntity
  8
1
  6
Continuous
100
AcDbLine
 10
109.088593970938
 20
143.2860396256992
 30
0.0
 11
109.6139379709379
 21
143.2575976256992
 31
0.0
  0
ARC
  5
8DB
330
992
100
AcDbEntity
  8
1
  6
Continuous
100
AcDbCircle
 10
107.3919989709379
 20
143.9761026256993
 30
0.0
 40
0.5
100
AcDbArc
 50
210.3606719999999
 51
259.077424
  0
LINE
  5
8DC
330
992
100
AcDbEntity
  8
1
  6
Continuous
100
AcDbLine
 10
107.2718059709379
 20
143.4907516256992
 30
0.0
 11
107.9118049709379
 21
143.3880446256992
 31
0.0
  0
ARC
  5
8DD
330
992
100
AcDbEntity
  8
1
  6
Continuous
100
AcDbCircle
 10
104.3719949709378
 20
142.2070596256994
 30
0.0
 40
3.0
100
AcDbArc
 50
30.36067500000025
 51
90.0000010000002
  0
ARC
  5
8DE
330
992
100
AcDbEntity
  8
1
  6
Continuous
100
AcDbCircle
 10
104.3719949709378
 20
151.2070596256994
 30
0.0
 40
3.0
100
AcDbArc
 50
270.000003
 51
329.6393199999998
  0
ARC
  5
8DF
330
992
100
AcDbEntity
  8
1
  6
Continuous
100
AcDbCircle
 10
102.7067239709378
 20
147.4070596256993
 30
0.0
 40
0.8
100
AcDbArc
 50
90.0
 51
180.0
  0
ARC
  5
8E0
330
992
100
AcDbEntity
  8
1
  6
Continuous
100
AcDbCircle
 10
107.3919989709379
 20
149.4380016256992
 30
0.0
 40
0.5
100
AcDbArc
 50
100.9225649999997
 51
149.639328
  0
LINE
  5
8E1
330
992
100
AcDbEntity
  8
4
  6
CENTER
100
AcDbLine
 10
111.9067239709379
 20
152.7655816188654
 30
0.0
 11
111.9067239709379
 21
140.6485236325333
 31
0.0
  0
ARC
  5
8E2
330
992
100
AcDbEntity
  8
1
  6
Continuous
100
AcDbCircle
 10
157.1134199709377
 20
155.1225266256992
 30
0.0
 40
5.0
100
AcDbArc
 50
18.47595193242069
 51
87.5827969999999
  0
LINE
  5
8E3
330
992
100
AcDbEntity
  8
1
  6
Continuous
100
AcDbLine
 10
151.606705970938
 20
148.2070596256992
 30
0.0
 11
151.606705970938
 21
155.2070596256994
 31
0.0
  0
LINE
  5
8E4
330
992
100
AcDbEntity
  8
1
  6
Continuous
100
AcDbLine
 10
156.0460936622803
 20
156.7070596262533
 30
0.0
 11
156.0460936622803
 21
136.7070596262534
 31
0.0
  0
LINE
  5
8E5
330
992
100
AcDbEntity
  8
1
  6
Continuous
100
AcDbLine
 10
148.356705970938
 20
137.4570596256992
 30
0.0
 11
144.4567119709379
 21
137.4570596256992
 31
0.0
  0
LINE
  5
8E6
330
992
100
AcDbEntity
  8
1
  6
Continuous
100
AcDbLine
 10
151.106705970938
 20
137.7070596256992
 30
0.0
 11
143.2067119709379
 21
137.7070596256992
 31
0.0
  0
ARC
  5
8E7
330
992
100
AcDbEntity
  8
1
  6
Continuous
100
AcDbCircle
 10
136.4300699709378
 20
134.9934676256993
 30
0.0
 40
7.0
100
AcDbArc
 50
25.3710559999998
 51
87.31740300000005
  0
ARC
  5
8E8
330
992
100
AcDbEntity
  8
1
  6
Continuous
100
AcDbCircle
 10
143.4567119709379
 20
137.9570596256992
 30
0.0
 40
0.5
100
AcDbArc
 50
293.24498
 51
329.9999969999995
  0
ARC
  5
8E9
330
992
100
AcDbEntity
  8
1
  6
Continuous
100
AcDbCircle
 10
143.2067119709379
 20
138.2070596256994
 30
0.0
 40
0.5
100
AcDbArc
 50
205.3710480000003
 51
270.000003
  0
ARC
  5
8EA
330
992
100
AcDbEntity
  8
1
  6
Continuous
100
AcDbCircle
 10
144.4567119709379
 20
137.9570596256992
 30
0.0
 40
0.5
100
AcDbArc
 50
209.9999999999999
 51
270.000003
  0
ARC
  5
8EB
330
992
100
AcDbEntity
  8
1
  6
Continuous
100
AcDbCircle
 10
143.9697729709379
 20
136.7625716256992
 30
0.0
 40
0.8
100
AcDbArc
 50
113.2449919999998
 51
191.393671
  0
LINE
  5
8EC
330
992
100
AcDbEntity
  8
1
  6
Continuous
100
AcDbLine
 10
151.606705970938
 20
145.2070596256994
 30
0.0
 11
151.606705970938
 21
138.2070596256994
 31
0.0
  0
LINE
  5
8ED
330
992
100
AcDbEntity
  8
1
  6
Continuous
100
AcDbLine
 10
152.4067239709379
 20
146.0070476256992
 30
0.0
 11
152.4067239709379
 21
147.4070566256993
 31
0.0
  0
ARC
  5
8EE
330
992
100
AcDbEntity
  8
1
  6
Continuous
100
AcDbCircle
 10
151.606705970938
 20
147.4070566256993
 30
0.0
 40
0.8
100
AcDbArc
 50
0.000004999999703
 51
90.0000010000002
  0
ARC
  5
8EF
330
992
100
AcDbEntity
  8
1
  6
Continuous
100
AcDbCircle
 10
151.606705970938
 20
146.0070476256992
 30
0.0
 40
0.8
100
AcDbArc
 50
270.000003
 51
0.000004999999703
  0
ARC
  5
8F0
330
992
100
AcDbEntity
  8
1
  6
Continuous
100
AcDbCircle
 10
156.106705970938
 20
138.0050646256994
 30
0.0
 40
1.5
100
AcDbArc
 50
271.833778
 51
300.0788295588943
  0
ARC
  5
8F1
330
992
100
AcDbEntity
  8
1
  6
Continuous
100
AcDbCircle
 10
152.606705970938
 20
137.9583876256992
 30
0.0
 40
1.5
100
AcDbArc
 50
210.0441169999997
 51
269.6944199999998
  0
LINE
  5
8F2
330
992
100
AcDbEntity
  8
1
  6
Continuous
100
AcDbLine
 10
150.875443970938
 20
137.4570596256992
 30
0.0
 11
149.356705970938
 21
137.4570596256992
 31
0.0
  0
ARC
  5
8F3
330
992
100
AcDbEntity
  8
1
  6
Continuous
100
AcDbCircle
 10
151.106705970938
 20
138.2070596256994
 30
0.0
 40
0.5
100
AcDbArc
 50
270.000003
 51
0.000004999999703
  0
ARC
  5
8F4
330
992
100
AcDbEntity
  8
1
  6
Continuous
100
AcDbCircle
 10
150.875443970938
 20
136.9570596256994
 30
0.0
 40
0.5
100
AcDbArc
 50
30.04410899999955
 51
90.0000010000002
  0
ARC
  5
8F5
330
992
100
AcDbEntity
  8
1
  6
Continuous
100
AcDbCircle
 10
153.106705970938
 20
231.7070526256993
 30
0.0
 40
95.25
100
AcDbArc
 50
269.6944199999998
 51
274.1521808476659
  0
ARC
  5
8F6
330
992
100
AcDbEntity
  8
1
  6
Continuous
100
AcDbCircle
 10
148.356705970938
 20
137.9570596256992
 30
0.0
 40
0.5
100
AcDbArc
 50
270.000003
 51
329.9999969999995
  0
ARC
  5
8F7
330
992
100
AcDbEntity
  8
1
  6
Continuous
100
AcDbCircle
 10
149.356705970938
 20
137.9570596256992
 30
0.0
 40
0.5
100
AcDbArc
 50
209.9999999999999
 51
270.000003
  0
LINE
  5
8F8
330
992
100
AcDbEntity
  8
1
  6
Continuous
100
AcDbLine
 10
148.356705970938
 20
155.9570596256992
 30
0.0
 11
144.4567119709379
 21
155.9570596256992
 31
0.0
  0
LINE
  5
8F9
330
992
100
AcDbEntity
  8
1
  6
Continuous
100
AcDbLine
 10
151.106705970938
 20
155.7070596256992
 30
0.0
 11
143.2067119709379
 21
155.7070596256992
 31
0.0
  0
ARC
  5
8FA
330
992
100
AcDbEntity
  8
1
  6
Continuous
100
AcDbCircle
 10
153.106705970938
 20
60.20705962569922
 30
0.0
 40
100.0
100
AcDbArc
 50
87.5827969999999
 51
93.58330899999979
  0
ARC
  5
8FB
330
992
100
AcDbEntity
  8
1
  6
Continuous
100
AcDbCircle
 10
147.106705970938
 20
156.0193766256994
 30
0.0
 40
4.0
100
AcDbArc
 50
93.58330899999979
 51
168.606325
  0
ARC
  5
8FC
330
992
100
AcDbEntity
  8
1
  6
Continuous
100
AcDbCircle
 10
143.4567119709379
 20
155.4570596256994
 30
0.0
 40
0.5
100
AcDbArc
 50
29.99999900000014
 51
66.75500900000007
  0
ARC
  5
8FD
330
992
100
AcDbEntity
  8
1
  6
Continuous
100
AcDbCircle
 10
144.4567119709379
 20
155.4570596256994
 30
0.0
 40
0.5
100
AcDbArc
 50
90.0000010000002
 51
149.9999890000004
  0
ARC
  5
8FE
330
992
100
AcDbEntity
  8
1
  6
Continuous
100
AcDbCircle
 10
143.2067119709379
 20
155.2070596256994
 30
0.0
 40
0.5
100
AcDbArc
 50
90.0000010000002
 51
154.6289440000002
  0
ARC
  5
8FF
330
992
100
AcDbEntity
  8
1
  6
Continuous
100
AcDbCircle
 10
143.9697729709379
 20
156.6515176256993
 30
0.0
 40
0.8
100
AcDbArc
 50
168.606325
 51
246.7550179999998
  0
ARC
  5
900
330
992
100
AcDbEntity
  8
1
  6
Continuous
100
AcDbCircle
 10
136.4300699709378
 20
158.4206376256994
 30
0.0
 40
7.0
100
AcDbArc
 50
272.6826069999995
 51
334.6289399999997
  0
ARC
  5
901
330
992
100
AcDbEntity
  8
1
  6
Continuous
100
AcDbCircle
 10
156.106705970938
 20
155.4090406256993
 30
0.0
 40
1.5
100
AcDbArc
 50
59.92223743786143
 51
88.16623200000003
  0
LINE
  5
902
330
992
100
AcDbEntity
  8
1
  6
Continuous
100
AcDbLine
 10
152.356705970938
 20
156.9540996256992
 30
0.0
 11
152.356705970938
 21
160.2042376256993
 31
0.0
  0
ARC
  5
903
330
992
100
AcDbEntity
  8
1
  6
Continuous
100
AcDbCircle
 10
152.606705970938
 20
155.4557176256992
 30
0.0
 40
1.5
100
AcDbArc
 50
90.30558299999983
 51
149.9558910000004
  0
LINE
  5
904
330
992
100
AcDbEntity
  8
1
  6
Continuous
100
AcDbLine
 10
150.875443970938
 20
155.9570596256992
 30
0.0
 11
149.356705970938
 21
155.9570596256992
 31
0.0
  0
ARC
  5
905
330
992
100
AcDbEntity
  8
1
  6
Continuous
100
AcDbCircle
 10
151.106705970938
 20
155.2070596256994
 30
0.0
 40
0.5
100
AcDbArc
 50
0.000004999999703
 51
90.0000010000002
  0
ARC
  5
906
330
992
100
AcDbEntity
  8
1
  6
Continuous
100
AcDbCircle
 10
150.875443970938
 20
156.4570596256992
 30
0.0
 40
0.5
100
AcDbArc
 50
270.000003
 51
329.9558879999997
  0
ARC
  5
907
330
992
100
AcDbEntity
  8
1
  6
Continuous
100
AcDbCircle
 10
153.106705970938
 20
61.70705962569922
 30
0.0
 40
95.25
100
AcDbArc
 50
85.84787730709882
 51
90.30558299999983
  0
ARC
  5
908
330
992
100
AcDbEntity
  8
1
  6
Continuous
100
AcDbCircle
 10
148.356705970938
 20
155.4570596256994
 30
0.0
 40
0.5
100
AcDbArc
 50
29.99999900000014
 51
90.0000010000002
  0
ARC
  5
909
330
992
100
AcDbEntity
  8
1
  6
Continuous
100
AcDbCircle
 10
149.356705970938
 20
155.4570596256994
 30
0.0
 40
0.5
100
AcDbArc
 50
90.0000010000002
 51
149.9999890000004
  0
ENDSEC
  0
SECTION
  2
OBJECTS
  0
DICTIONARY
  5
92F
330
0
100
AcDbDictionary
281
     1
  3
ACAD_CIP_PREVIOUS_PRODUCT_INFO
350
9AB
  3
ACAD_COLOR
350
985
  3
ACAD_DETAILVIEWSTYLE
350
98C
  3
ACAD_GROUP
350
930
  3
ACAD_LAYOUT
350
984
  3
ACAD_MATERIAL
350
933
  3
ACAD_MLEADERSTYLE
350
988
  3
ACAD_MLINESTYLE
350
981
  3
ACAD_PLOTSETTINGS
350
983
  3
ACAD_PLOTSTYLENAME
350
931
  3
ACAD_SCALELIST
350
965
  3
ACAD_SECTIONVIEWSTYLE
350
98A
  3
ACAD_TABLESTYLE
350
986
  3
ACAD_VISUALSTYLE
350
94C
  3
ACDB_RECOMPOSE_DATA
350
9C9
  3
AcDbVariableDictionary
350
9BC
  3
DWGPROPS
350
9CA
  0
DICTIONARY
  5
9AC
330
977
100
AcDbDictionary
280
     1
281
     1
  3
ADSK_XREC_LAYER_RECONCILED
360
9AD
  0
DICTIONARY
  5
9AE
330
99A
100
AcDbDictionary
280
     1
281
     1
  3
ADSK_XREC_LAYER_RECONCILED
360
9AF
  0
DICTIONARY
  5
9B0
330
99B
100
AcDbDictionary
280
     1
281
     1
  3
ADSK_XREC_LAYER_RECONCILED
360
9B1
  0
DICTIONARY
  5
9B2
330
99C
100
AcDbDictionary
280
     1
281
     1
  3
ADSK_XREC_LAYER_RECONCILED
360
9B3
  0
DICTIONARY
  5
9B4
330
99D
100
AcDbDictionary
280
     1
281
     1
  3
ADSK_XREC_LAYER_RECONCILED
360
9B5
  0
DICTIONARY
  5
9B6
330
99E
100
AcDbDictionary
280
     1
281
     1
  3
ADSK_XREC_LAYER_RECONCILED
360
9B7
  0
DICTIONARY
  5
9B8
330
99F
100
AcDbDictionary
280
     1
281
     1
  3
ADSK_XREC_LAYER_RECONCILED
360
9B9
  0
DICTIONARY
  5
9BA
330
9A0
100
AcDbDictionary
280
     1
281
     1
  3
ADSK_XREC_LAYER_RECONCILED
360
9BB
  0
XRECORD
  5
9AB
102
{ACAD_REACTORS
330
92F
102
}
330
92F
100
AcDbXrecord
280
     1
300
ACDLT
300
2014
300
ACDLT_F_S
  0
DICTIONARY
  5
985
102
{ACAD_REACTORS
330
92F
102
}
330
92F
100
AcDbDictionary
281
     1
  0
DICTIONARY
  5
98C
102
{ACAD_REACTORS
330
92F
102
}
330
92F
100
AcDbDictionary
281
     1
  3
Imperial24
350
98D
  0
DICTIONARY
  5
930
102
{ACAD_REACTORS
330
92F
102
}
330
92F
100
AcDbDictionary
281
     1
  0
DICTIONARY
  5
984
102
{ACAD_REACTORS
330
92F
102
}
330
92F
100
AcDbDictionary
281
     1
  3
Model
350
995
  3
レイアウト1
350
991
  0
DICTIONARY
  5
933
102
{ACAD_REACTORS
330
92F
102
}
330
92F
100
AcDbDictionary
281
     1
  3
ByBlock
350
93C
  3
ByLayer
350
934
  3
Global
350
944
  0
DICTIONARY
  5
988
102
{ACAD_REACTORS
330
92F
102
}
330
92F
100
AcDbDictionary
281
     1
  3
Standard
350
989
  0
DICTIONARY
  5
981
102
{ACAD_REACTORS
330
92F
102
}
330
92F
100
AcDbDictionary
281
     1
  3
Standard
350
982
  0
DICTIONARY
  5
983
102
{ACAD_REACTORS
330
92F
102
}
330
92F
100
AcDbDictionary
281
     1
  0
ACDBDICTIONARYWDFLT
  5
931
102
{ACAD_REACTORS
330
92F
102
}
330
92F
100
AcDbDictionary
281
     1
  3
Normal
350
932
100
AcDbDictionaryWithDefault
340
932
  0
DICTIONARY
  5
965
102
{ACAD_REACTORS
330
92F
102
}
330
92F
100
AcDbDictionary
281
     1
  3
A0
350
966
  3
A1
350
967
  3
A2
350
968
  3
A3
350
969
  3
A4
350
96A
  3
A5
350
96B
  3
A6
350
96C
  3
A7
350
96D
  3
A8
350
96E
  3
A9
350
96F
  3
B0
350
970
  3
B1
350
971
  3
B2
350
972
  3
B3
350
973
  3
B4
350
974
  3
B5
350
975
  3
B6
350
976
  0
DICTIONARY
  5
98A
102
{ACAD_REACTORS
330
92F
102
}
330
92F
100
AcDbDictionary
281
     1
  3
Imperial24
350
98B
  0
DICTIONARY
  5
986
102
{ACAD_REACTORS
330
92F
102
}
330
92F
100
AcDbDictionary
281
     1
  3
Standard
350
987
  0
DICTIONARY
  5
94C
102
{ACAD_REACTORS
330
92F
102
}
330
92F
100
AcDbDictionary
281
     1
  3
2dWireframe
350
952
  3
Basic
350
951
  3
Brighten
350
958
  3
ColorChange
350
95C
  3
Conceptual
350
955
  3
Dim
350
957
  3
EdgeColorOff
350
964
  3
Facepattern
350
95B
  3
Flat
350
94D
  3
FlatWithEdges
350
94E
  3
Gouraud
350
94F
  3
GouraudWithEdges
350
950
  3
Hidden
350
954
  3
JitterOff
350
962
  3
Linepattern
350
95A
  3
OverhangOff
350
963
  3
Realistic
350
956
  3
Shaded
350
961
  3
Shaded with edges
350
960
  3
Shades of Gray
350
95D
  3
Sketchy
350
95E
  3
Thicken
350
959
  3
Wireframe
350
953
  3
X-Ray
350
95F
  0
XRECORD
  5
9C9
102
{ACAD_REACTORS
330
92F
102
}
330
92F
100
AcDbXrecord
280
     1
 90
        1
330
987
  0
DICTIONARY
  5
9BC
102
{ACAD_REACTORS
330
92F
102
}
330
92F
100
AcDbDictionary
281
     1
  3
CANNOSCALE
350
9C1
  3
CMLEADERSTYLE
350
9BE
  3
CTABLESTYLE
350
9BD
  3
CVIEWDETAILSTYLE
350
9BF
  3
CVIEWSECTIONSTYLE
350
9C0
  3
DIMASSOC
350
9C4
  3
INDEXCTL
350
9C3
  3
SORTENTS
350
9C2
  3
XCLIPFRAME
350
9C5
  0
XRECORD
  5
9CA
102
{ACAD_REACTORS
330
92F
102
}
330
92F
100
AcDbXrecord
280
     1
  1
DWGPROPS COOKIE
  2

  3

  4

  6

  7

  8
Yoshitsune
  9

300
=
301
=
302
=
303
=
304
=
305
=
306
=
307
=
308
=
309
=
 40
0.0176476157407408
 41
2456276.683721007
 42
2457192.664134236
  1

 90
        0
  0
XRECORD
  5
9AD
102
{ACAD_REACTORS
330
9AC
102
}
330
9AC
100
AcDbXrecord
280
     1
290
     1
  0
XRECORD
  5
9AF
102
{ACAD_REACTORS
330
9AE
102
}
330
9AE
100
AcDbXrecord
280
     1
290
     1
  0
XRECORD
  5
9B1
102
{ACAD_REACTORS
330
9B0
102
}
330
9B0
100
AcDbXrecord
280
     1
290
     1
  0
XRECORD
  5
9B3
102
{ACAD_REACTORS
330
9B2
102
}
330
9B2
100
AcDbXrecord
280
     1
290
     1
  0
XRECORD
  5
9B5
102
{ACAD_REACTORS
330
9B4
102
}
330
9B4
100
AcDbXrecord
280
     1
290
     1
  0
XRECORD
  5
9B7
102
{ACAD_REACTORS
330
9B6
102
}
330
9B6
100
AcDbXrecord
280
     1
290
     1
  0
XRECORD
  5
9B9
102
{ACAD_REACTORS
330
9B8
102
}
330
9B8
100
AcDbXrecord
280
     1
290
     1
  0
XRECORD
  5
9BB
102
{ACAD_REACTORS
330
9BA
102
}
330
9BA
100
AcDbXrecord
280
     1
290
     1
  0
ACDBDETAILVIEWSTYLE
  5
98D
102
{ACAD_XDICTIONARY
360
A02
102
}
102
{ACAD_REACTORS
330
98C
102
}
330
98C
100
AcDbModelDocViewStyle
 70
     0
  3
Imperial24
290
     0
100
AcDbDetailViewStyle
 70
     0
 71
     0
 90
        3
 71
     1
340
978
 40
0.24
340
0
 40
0.24
300

 40
0.36
280
     3
 71
     2
340
97F
 90
       25
 71
     3
340
978
 40
0.24
 90
        1
 40
0.75
 90
        1
300
%<\AcVar ViewType \f "%tc1">% %<\AcVar ViewDetailId>%\PSCALE %<\AcVar ViewScale \f "%sn">%
 71
     4
340
97F
 90
       25
340
97F
 90
       25
280
     0
  0
LAYOUT
  5
995
102
{ACAD_XDICTIONARY
360
A06
102
}
102
{ACAD_REACTORS
330
984
102
}
330
984
100
AcDbPlotSettings
  1

  2
Canon LBP9100C
  4

  6

 40
0.0
 41
0.0
 42
0.0
 43
0.0
 44
0.0
 45
0.0
 46
0.0
 47
0.0
 48
0.0
 49
0.0
140
0.0
141
0.0
142
1.0
143
1.0
 70
  1712
 72
     0
 73
     0
 74
     0
  7

 75
     0
147
1.0
148
0.0
149
0.0
100
AcDbLayout
  1
Model
 70
     1
 71
     0
 10
0.0
 20
0.0
 11
12.0
 21
9.0
 12
0.0
 22
0.0
 32
0.0
 14
0.0
 24
0.0
 34
0.0
 15
0.0
 25
0.0
 35
0.0
146
0.0
 13
0.0
 23
0.0
 33
0.0
 16
1.0
 26
0.0
 36
0.0
 17
0.0
 27
1.0
 37
0.0
 76
     0
330
992
331
996
  0
LAYOUT
  5
991
102
{ACAD_XDICTIONARY
360
A04
102
}
102
{ACAD_REACTORS
330
984
102
}
330
984
100
AcDbPlotSettings
  1

  2
Canon LBP9100C
  4

  6

 40
0.0
 41
0.0
 42
0.0
 43
0.0
 44
0.0
 45
0.0
 46
0.0
 47
0.0
 48
0.0
 49
0.0
140
0.0
141
0.0
142
1.0
143
1.0
 70
   688
 72
     0
 73
     0
 74
     5
  7

 75
    16
147
1.0
148
0.0
149
0.0
100
AcDbLayout
  1
レイアウト1
 70
     1
 71
     1
 10
0.0
 20
0.0
 11
420.0
 21
297.0
 12
0.0
 22
0.0
 32
0.0
 14
1.000000000000000E+20
 24
1.000000000000000E+20
 34
1.000000000000000E+20
 15
-1.000000000000000E+20
 25
-1.000000000000000E+20
 35
-1.000000000000000E+20
146
0.0
 13
0.0
 23
0.0
 33
0.0
 16
1.0
 26
0.0
 36
0.0
 17
0.0
 27
1.0
 37
0.0
 76
     0
330
98E
  0
MATERIAL
  5
93C
102
{ACAD_XDICTIONARY
360
93D
102
}
102
{ACAD_REACTORS
330
933
102
}
330
933
100
AcDbMaterial
  1
ByBlock
 72
     0
 43
0.0208333333333333
 43
0.0
 43
0.0
 43
0.0
 43
0.0
 43
0.0208333333333333
 43
0.0
 43
0.0
 43
0.0
 43
0.0
 43
1.0
 43
0.0
 43
0.0
 43
0.0
 43
0.0
 43
1.0
 77
     0
 47
0.0208333333333333
 47
0.0
 47
0.0
 47
0.0
 47
0.0
 47
0.0208333333333333
 47
0.0
 47
0.0
 47
0.0
 47
0.0
 47
1.0
 47
0.0
 47
0.0
 47
0.0
 47
0.0
 47
1.0
171
     0
 49
0.0208333333333333
 49
0.0
 49
0.0
 49
0.0
 49
0.0
 49
0.0208333333333333
 49
0.0
 49
0.0
 49
0.0
 49
0.0
 49
1.0
 49
0.0
 49
0.0
 49
0.0
 49
0.0
 49
1.0
175
     0
142
0.0208333333333333
142
0.0
142
0.0
142
0.0
142
0.0
142
0.0208333333333333
142
0.0
142
0.0
142
0.0
142
0.0
142
1.0
142
0.0
142
0.0
142
0.0
142
0.0
142
1.0
179
     0
144
0.0208333333333333
144
0.0
144
0.0
144
0.0
144
0.0
144
0.0208333333333333
144
0.0
144
0.0
144
0.0
144
0.0
144
1.0
144
0.0
144
0.0
144
0.0
144
0.0
144
1.0
147
0.0208333333333333
147
0.0
147
0.0
147
0.0
147
0.0
147
0.0208333333333333
147
0.0
147
0.0
147
0.0
147
0.0
147
1.0
147
0.0
147
0.0
147
0.0
147
0.0
147
1.0
  0
MATERIAL
  5
934
102
{ACAD_XDICTIONARY
360
935
102
}
102
{ACAD_REACTORS
330
933
102
}
330
933
100
AcDbMaterial
  1
ByLayer
 72
     0
 43
0.0208333333333333
 43
0.0
 43
0.0
 43
0.0
 43
0.0
 43
0.0208333333333333
 43
0.0
 43
0.0
 43
0.0
 43
0.0
 43
1.0
 43
0.0
 43
0.0
 43
0.0
 43
0.0
 43
1.0
 77
     0
 47
0.0208333333333333
 47
0.0
 47
0.0
 47
0.0
 47
0.0
 47
0.0208333333333333
 47
0.0
 47
0.0
 47
0.0
 47
0.0
 47
1.0
 47
0.0
 47
0.0
 47
0.0
 47
0.0
 47
1.0
171
     0
 49
0.0208333333333333
 49
0.0
 49
0.0
 49
0.0
 49
0.0
 49
0.0208333333333333
 49
0.0
 49
0.0
 49
0.0
 49
0.0
 49
1.0
 49
0.0
 49
0.0
 49
0.0
 49
0.0
 49
1.0
175
     0
142
0.0208333333333333
142
0.0
142
0.0
142
0.0
142
0.0
142
0.0208333333333333
142
0.0
142
0.0
142
0.0
142
0.0
142
1.0
142
0.0
142
0.0
142
0.0
142
0.0
142
1.0
179
     0
144
0.0208333333333333
144
0.0
144
0.0
144
0.0
144
0.0
144
0.0208333333333333
144
0.0
144
0.0
144
0.0
144
0.0
144
1.0
144
0.0
144
0.0
144
0.0
144
0.0
144
1.0
147
0.0208333333333333
147
0.0
147
0.0
147
0.0
147
0.0
147
0.0208333333333333
147
0.0
147
0.0
147
0.0
147
0.0
147
1.0
147
0.0
147
0.0
147
0.0
147
0.0
147
1.0
  0
MATERIAL
  5
944
102
{ACAD_XDICTIONARY
360
945
102
}
102
{ACAD_REACTORS
330
933
102
}
330
933
100
AcDbMaterial
  1
Global
 72
     0
 43
0.0208333333333333
 43
0.0
 43
0.0
 43
0.0
 43
0.0
 43
0.0208333333333333
 43
0.0
 43
0.0
 43
0.0
 43
0.0
 43
1.0
 43
0.0
 43
0.0
 43
0.0
 43
0.0
 43
1.0
 77
     0
 47
0.0208333333333333
 47
0.0
 47
0.0
 47
0.0
 47
0.0
 47
0.0208333333333333
 47
0.0
 47
0.0
 47
0.0
 47
0.0
 47
1.0
 47
0.0
 47
0.0
 47
0.0
 47
0.0
 47
1.0
171
     0
 49
0.0208333333333333
 49
0.0
 49
0.0
 49
0.0
 49
0.0
 49
0.0208333333333333
 49
0.0
 49
0.0
 49
0.0
 49
0.0
 49
1.0
 49
0.0
 49
0.0
 49
0.0
 49
0.0
 49
1.0
175
     0
142
0.0208333333333333
142
0.0
142
0.0
142
0.0
142
0.0
142
0.0208333333333333
142
0.0
142
0.0
142
0.0
142
0.0
142
1.0
142
0.0
142
0.0
142
0.0
142
0.0
142
1.0
179
     0
144
0.0208333333333333
144
0.0
144
0.0
144
0.0
144
0.0
144
0.0208333333333333
144
0.0
144
0.0
144
0.0
144
0.0
144
1.0
144
0.0
144
0.0
144
0.0
144
0.0
144
1.0
147
0.0208333333333333
147
0.0
147
0.0
147
0.0
147
0.0
147
0.0208333333333333
147
0.0
147
0.0
147
0.0
147
0.0
147
1.0
147
0.0
147
0.0
147
0.0
147
0.0
147
1.0
  0
MLEADERSTYLE
  5
989
102
{ACAD_REACTORS
330
988
102
}
330
988
100
AcDbMLeaderStyle
170
     2
171
     1
172
     0
 90
        2
 40
0.0
 41
0.0
173
     1
 91
-1056964608
340
97D
 92
       -2
290
     1
 42
0.09
291
     1
 43
0.36
  3
Standard
 44
0.18
300

342
978
174
     1
178
     6
175
     1
176
     0
 93
-1056964608
 45
0.18
292
     0
297
     0
 46
0.18
 94
-1056964608
 47
1.0
 49
1.0
140
1.0
293
     1
141
0.0
294
     1
177
     0
142
1.0
295
     0
296
     0
143
0.125
1001
ACAD_MLEADERVER
1070
     2
  0
MLINESTYLE
  5
982
102
{ACAD_REACTORS
330
981
102
}
330
981
100
AcDbMlineStyle
  2
STANDARD
 70
     0
  3

 62
   256
 51
90.0
 52
90.0
 71
     2
 49
0.5
 62
   256
  6
BYLAYER
 49
-0.5
 62
   256
  6
BYLAYER
  0
ACDBPLACEHOLDER
  5
932
102
{ACAD_REACTORS
330
931
102
}
330
931
  0
SCALE
  5
966
102
{ACAD_REACTORS
330
965
102
}
330
965
100
AcDbScale
 70
     0
300
1:1
140
1.0
141
1.0
290
     1
  0
SCALE
  5
967
102
{ACAD_REACTORS
330
965
102
}
330
965
100
AcDbScale
 70
     0
300
1/128" = 1'-0"
140
0.0078125
141
12.0
290
     0
  0
SCALE
  5
968
102
{ACAD_REACTORS
330
965
102
}
330
965
100
AcDbScale
 70
     0
300
1/64" = 1'-0"
140
0.015625
141
12.0
290
     0
  0
SCALE
  5
969
102
{ACAD_REACTORS
330
965
102
}
330
965
100
AcDbScale
 70
     0
300
1/32" = 1'-0"
140
0.03125
141
12.0
290
     0
  0
SCALE
  5
96A
102
{ACAD_REACTORS
330
965
102
}
330
965
100
AcDbScale
 70
     0
300
1/16" = 1'-0"
140
0.0625
141
12.0
290
     0
  0
SCALE
  5
96B
102
{ACAD_REACTORS
330
965
102
}
330
965
100
AcDbScale
 70
     0
300
3/32" = 1'-0"
140
0.09375
141
12.0
290
     0
  0
SCALE
  5
96C
102
{ACAD_REACTORS
330
965
102
}
330
965
100
AcDbScale
 70
     0
300
1/8" = 1'-0"
140
0.125
141
12.0
290
     0
  0
SCALE
  5
96D
102
{ACAD_REACTORS
330
965
102
}
330
965
100
AcDbScale
 70
     0
300
3/16" = 1'-0"
140
0.1875
141
12.0
290
     0
  0
SCALE
  5
96E
102
{ACAD_REACTORS
330
965
102
}
330
965
100
AcDbScale
 70
     0
300
1/4" = 1'-0"
140
0.25
141
12.0
290
     0
  0
SCALE
  5
96F
102
{ACAD_REACTORS
330
965
102
}
330
965
100
AcDbScale
 70
     0
300
3/8" = 1'-0"
140
0.375
141
12.0
290
     0
  0
SCALE
  5
970
102
{ACAD_REACTORS
330
965
102
}
330
965
100
AcDbScale
 70
     0
300
1/2" = 1'-0"
140
0.5
141
12.0
290
     0
  0
SCALE
  5
971
102
{ACAD_REACTORS
330
965
102
}
330
965
100
AcDbScale
 70
     0
300
3/4" = 1'-0"
140
0.75
141
12.0
290
     0
  0
SCALE
  5
972
102
{ACAD_REACTORS
330
965
102
}
330
965
100
AcDbScale
 70
     0
300
1" = 1'-0"
140
1.0
141
12.0
290
     0
  0
SCALE
  5
973
102
{ACAD_REACTORS
330
965
102
}
330
965
100
AcDbScale
 70
     0
300
1-1/2" = 1'-0"
140
1.5
141
12.0
290
     0
  0
SCALE
  5
974
102
{ACAD_REACTORS
330
965
102
}
330
965
100
AcDbScale
 70
     0
300
3" = 1'-0"
140
3.0
141
12.0
290
     0
  0
SCALE
  5
975
102
{ACAD_REACTORS
330
965
102
}
330
965
100
AcDbScale
 70
     0
300
6" = 1'-0"
140
6.0
141
12.0
290
     0
  0
SCALE
  5
976
102
{ACAD_REACTORS
330
965
102
}
330
965
100
AcDbScale
 70
     0
300
1'-0" = 1'-0"
140
12.0
141
12.0
290
     0
  0
ACDBSECTIONVIEWSTYLE
  5
98B
102
{ACAD_XDICTIONARY
360
A00
102
}
102
{ACAD_REACTORS
330
98A
102
}
330
98A
100
AcDbModelDocViewStyle
 70
     0
  3
Imperial24
290
     0
100
AcDbSectionViewStyle
 70
     0
 71
     0
 90
       78
 71
     1
340
978
 40
0.24
340
0
340
0
 40
0.24
300
I, O, Q, S, X, Z
 40
0.48
 90
        3
 40
0.18
 90
        1
 71
     2
340
97F
 90
       25
340
97F
 90
       50
 40
0.24
 40
0.0
 40
0.24
 71
     3
340
978
 40
0.24
 90
        1
 40
0.75
 90
        1
300
%<\AcVar ViewType \f "%tc1">% %<\AcVar ViewSectionStartId>%-%<\AcVar ViewSectionEndId>%\PSCALE %<\AcVar ViewScale \f "%sn">%
 71
     4
300
ANSI31
 40
1.0
 90
        0
290
     0
290
     0
 90
        6
 40
0.0
 40
1.570796326794896
 40
0.2617993877991494
 40
1.308996938995747
 40
-0.2617993877991494
 40
1.832595714594046
  0
TABLESTYLE
  5
987
102
{ACAD_XDICTIONARY
360
9C7
102
}
102
{ACAD_REACTORS
330
986
102
}
330
986
100
AcDbTableStyle
  3
Standard
 70
     0
 71
     0
 40
0.06
 41
0.06
280
     0
281
     0
  7
STANDARD
140
0.18
170
     2
 62
     0
 63
     7
283
     0
274
    -2
284
     1
 64
     0
275
    -2
285
     1
 65
     0
276
    -2
286
     1
 66
     0
277
    -2
287
     1
 67
     0
278
    -2
288
     1
 68
     0
279
    -2
289
     1
 69
     0
  7
STANDARD
140
0.25
170
     5
 62
     0
 63
     7
283
     0
274
    -2
284
     1
 64
     0
275
    -2
285
     1
 65
     0
276
    -2
286
     1
 66
     0
277
    -2
287
     1
 67
     0
278
    -2
288
     1
 68
     0
279
    -2
289
     1
 69
     0
  7
STANDARD
140
0.18
170
     5
 62
     0
 63
     7
283
     0
274
    -2
284
     1
 64
     0
275
    -2
285
     1
 65
     0
276
    -2
286
     1
 66
     0
277
    -2
287
     1
 67
     0
278
    -2
288
     1
 68
     0
279
    -2
289
     1
 69
     0
  0
VISUALSTYLE
  5
952
102
{ACAD_XDICTIONARY
360
9D8
102
}
102
{ACAD_REACTORS
330
94C
102
}
330
94C
100
AcDbVisualStyle
  2
2dWireframe
 70
     4
 71
     0
 72
     2
 73
     0
 90
        0
 40
-0.6
 41
-30.0
 62
     5
 63
     7
 74
     1
 91
        4
 64
     7
 65
   257
 75
     1
175
     1
 42
1.0
 92
        0
 66
   257
 43
1.0
 76
     1
 77
     6
 78
     2
 67
     7
 79
     5
170
     0
171
     0
290
     0
174
     0
 93
        1
 44
0.0
173
     0
291
     0
 45
0.0
1001
ACAD
1000
AcDbSavedByObjectVersion
1070
     0
  0
VISUALSTYLE
  5
951
102
{ACAD_XDICTIONARY
360
9D6
102
}
102
{ACAD_REACTORS
330
94C
102
}
330
94C
100
AcDbVisualStyle
  2
Basic
 70
     7
 71
     1
 72
     0
 73
     1
 90
        0
 40
-0.6
 41
-30.0
 62
     5
 63
     7
 74
     0
 91
        4
 64
     7
 65
   257
 75
     1
175
     1
 42
1.0
 92
        8
 66
     7
 43
1.0
 76
     1
 77
     6
 78
     2
 67
     7
 79
     5
170
     0
171
     0
290
     0
174
     0
 93
        1
 44
0.0
173
     0
291
     1
 45
0.0
1001
ACAD
1000
AcDbSavedByObjectVersion
1070
     0
  0
VISUALSTYLE
  5
958
102
{ACAD_XDICTIONARY
360
9E4
102
}
102
{ACAD_REACTORS
330
94C
102
}
330
94C
100
AcDbVisualStyle
  2
Brighten
 70
    12
 71
     2
 72
     2
 73
     0
 90
        0
 40
-0.6
 41
-30.0
 62
     5
 63
     7
 74
     1
 91
        4
 64
     7
 65
   257
 75
     1
175
     1
 42
1.0
 92
        8
 66
     7
 43
1.0
 76
     1
 77
     6
 78
     2
 67
     7
 79
     5
170
     0
171
     0
290
     0
174
     0
 93
        1
 44
50.0
173
     0
291
     1
 45
0.0
1001
ACAD
1000
AcDbSavedByObjectVersion
1070
     0
  0
VISUALSTYLE
  5
95C
102
{ACAD_XDICTIONARY
360
9EC
102
}
102
{ACAD_REACTORS
330
94C
102
}
330
94C
100
AcDbVisualStyle
  2
ColorChange
 70
    16
 71
     2
 72
     2
 73
     3
 90
        0
 40
-0.6
 41
-30.0
 62
     5
 63
     8
 74
     1
 91
        4
 64
     7
 65
   257
 75
     1
175
     1
 42
1.0
 92
        8
 66
     8
 43
1.0
 76
     1
 77
     6
 78
     2
 67
     7
 79
     5
170
     0
171
     0
290
     0
174
     0
 93
        1
 44
0.0
173
     0
291
     1
 45
0.0
1001
ACAD
1000
AcDbSavedByObjectVersion
1070
     0
  0
VISUALSTYLE
  5
955
102
{ACAD_XDICTIONARY
360
9DE
102
}
102
{ACAD_REACTORS
330
94C
102
}
330
94C
100
AcDbVisualStyle
  2
Conceptual
 70
     9
 71
     3
 72
     2
 73
     0
 90
        0
 40
-0.6
 41
-30.0
 62
     5
 63
     7
 74
     2
 91
        2
 64
     7
 65
   257
 75
     1
175
     1
 42
179.0
 92
        8
 66
     7
 43
1.0
 76
     1
 77
     6
 78
     2
 67
     7
 79
     3
170
     0
171
     0
290
     0
174
     0
 93
        1
 44
0.0
173
     0
291
     0
 45
0.0
1001
ACAD
1000
AcDbSavedByObjectVersion
1070
     0
  0
VISUALSTYLE
  5
957
102
{ACAD_XDICTIONARY
360
9E2
102
}
102
{ACAD_REACTORS
330
94C
102
}
330
94C
100
AcDbVisualStyle
  2
Dim
 70
    11
 71
     2
 72
     2
 73
     0
 90
        0
 40
-0.6
 41
-30.0
 62
     5
 63
     7
 74
     1
 91
        4
 64
     7
 65
   257
 75
     1
175
     1
 42
1.0
 92
        8
 66
     7
 43
1.0
 76
     1
 77
     6
 78
     2
 67
     7
 79
     5
170
     0
171
     0
290
     0
174
     0
 93
        1
 44
-50.0
173
     0
291
     1
 45
0.0
1001
ACAD
1000
AcDbSavedByObjectVersion
1070
     0
  0
VISUALSTYLE
  5
964
102
{ACAD_XDICTIONARY
360
9FC
102
}
102
{ACAD_REACTORS
330
94C
102
}
330
94C
100
AcDbVisualStyle
  2
EdgeColorOff
 70
    22
 71
     2
 72
     2
 73
     0
 90
        0
 40
-0.6
 41
-30.0
 62
     5
 63
     7
 74
     1
 91
        4
 64
     7
 65
   257
 75
     1
175
     1
 42
1.0
 92
        8
 66
     7
 43
1.0
 76
     1
 77
     6
 78
     2
 67
     7
 79
     5
170
     0
171
     0
290
     0
174
     0
 93
        1
 44
0.0
173
     0
291
     1
 45
0.0
1001
ACAD
1000
AcDbSavedByObjectVersion
1070
     0
  0
VISUALSTYLE
  5
95B
102
{ACAD_XDICTIONARY
360
9EA
102
}
102
{ACAD_REACTORS
330
94C
102
}
330
94C
100
AcDbVisualStyle
  2
Facepattern
 70
    15
 71
     2
 72
     2
 73
     0
 90
        0
 40
-0.6
 41
-30.0
 62
     5
 63
     7
 74
     1
 91
        4
 64
     7
 65
   257
 75
     1
175
     1
 42
1.0
 92
        8
 66
     7
 43
1.0
 76
     1
 77
     6
 78
     2
 67
     7
 79
     5
170
     0
171
     0
290
     0
174
     0
 93
        1
 44
0.0
173
     0
291
     1
 45
0.0
1001
ACAD
1000
AcDbSavedByObjectVersion
1070
     0
  0
VISUALSTYLE
  5
94D
102
{ACAD_XDICTIONARY
360
9CE
102
}
102
{ACAD_REACTORS
330
94C
102
}
330
94C
100
AcDbVisualStyle
  2
Flat
 70
     0
 71
     2
 72
     1
 73
     1
 90
        2
 40
-0.6
 41
30.0
 62
     5
 63
     7
 74
     0
 91
        0
 64
     7
 65
   257
 75
     1
175
     1
 42
1.0
 92
        8
 66
     7
 43
1.0
 76
     1
 77
     6
 78
     2
 67
     7
 79
     5
170
     0
171
     0
290
     0
174
     0
 93
       13
 44
0.0
173
     0
291
     1
 45
0.0
1001
ACAD
1000
AcDbSavedByObjectVersion
1070
     0
  0
VISUALSTYLE
  5
94E
102
{ACAD_XDICTIONARY
360
9D0
102
}
102
{ACAD_REACTORS
330
94C
102
}
330
94C
100
AcDbVisualStyle
  2
FlatWithEdges
 70
     1
 71
     2
 72
     1
 73
     1
 90
        2
 40
-0.6
 41
30.0
 62
     5
 63
     7
 74
     1
 91
        0
 64
     7
 65
   257
 75
     1
175
     1
 42
1.0
 92
        0
 66
   257
 43
1.0
 76
     1
 77
     6
 78
     2
 67
     7
 79
     5
170
     0
171
     0
290
     0
174
     0
 93
       13
 44
0.0
173
     0
291
     1
 45
0.0
1001
ACAD
1000
AcDbSavedByObjectVersion
1070
     0
  0
VISUALSTYLE
  5
94F
102
{ACAD_XDICTIONARY
360
9D2
102
}
102
{ACAD_REACTORS
330
94C
102
}
330
94C
100
AcDbVisualStyle
  2
Gouraud
 70
     2
 71
     2
 72
     2
 73
     1
 90
        2
 40
-0.6
 41
30.0
 62
     5
 63
     7
 74
     0
 91
        0
 64
     7
 65
   257
 75
     1
175
     1
 42
1.0
 92
        0
 66
     7
 43
1.0
 76
     1
 77
     6
 78
     2
 67
     7
 79
     5
170
     0
171
     0
290
     0
174
     0
 93
       13
 44
0.0
173
     0
291
     1
 45
0.0
1001
ACAD
1000
AcDbSavedByObjectVersion
1070
     0
  0
VISUALSTYLE
  5
950
102
{ACAD_XDICTIONARY
360
9D4
102
}
102
{ACAD_REACTORS
330
94C
102
}
330
94C
100
AcDbVisualStyle
  2
GouraudWithEdges
 70
     3
 71
     2
 72
     2
 73
     1
 90
        2
 40
-0.6
 41
30.0
 62
     5
 63
     7
 74
     1
 91
        0
 64
     7
 65
   257
 75
     1
175
     1
 42
1.0
 92
        0
 66
   257
 43
1.0
 76
     1
 77
     6
 78
     2
 67
     7
 79
     5
170
     0
171
     0
290
     0
174
     0
 93
       13
 44
0.0
173
     0
291
     1
 45
0.0
1001
ACAD
1000
AcDbSavedByObjectVersion
1070
     0
  0
VISUALSTYLE
  5
954
102
{ACAD_XDICTIONARY
360
9DC
102
}
102
{ACAD_REACTORS
330
94C
102
}
330
94C
100
AcDbVisualStyle
  2
Hidden
 70
     6
 71
     1
 72
     2
 73
     2
 90
        0
 40
-0.6
 41
-30.0
 62
     5
 63
     7
 74
     2
 91
        2
 64
     7
 65
   257
 75
     2
175
     1
 42
40.0
 92
        0
 66
   257
 43
1.0
 76
     1
 77
     6
 78
     2
 67
     7
 79
     3
170
     0
171
     0
290
     0
174
     0
 93
        1
 44
0.0
173
     0
291
     0
 45
0.0
1001
ACAD
1000
AcDbSavedByObjectVersion
1070
     0
  0
VISUALSTYLE
  5
962
102
{ACAD_XDICTIONARY
360
9F8
102
}
102
{ACAD_REACTORS
330
94C
102
}
330
94C
100
AcDbVisualStyle
  2
JitterOff
 70
    20
 71
     2
 72
     2
 73
     0
 90
        0
 40
-0.6
 41
-30.0
 62
     5
 63
     7
 74
     1
 91
        4
 64
     7
 65
   257
 75
     1
175
     1
 42
1.0
 92
       10
 66
     7
 43
1.0
 76
     1
 77
     6
 78
     2
 67
     7
 79
     5
170
     0
171
     0
290
     0
174
     0
 93
        1
 44
0.0
173
     0
291
     1
 45
0.0
1001
ACAD
1000
AcDbSavedByObjectVersion
1070
     0
  0
VISUALSTYLE
  5
95A
102
{ACAD_XDICTIONARY
360
9E8
102
}
102
{ACAD_REACTORS
330
94C
102
}
330
94C
100
AcDbVisualStyle
  2
Linepattern
 70
    14
 71
     2
 72
     2
 73
     0
 90
        0
 40
-0.6
 41
-30.0
 62
     5
 63
     7
 74
     1
 91
        4
 64
     7
 65
   257
 75
     7
175
     7
 42
1.0
 92
        8
 66
     7
 43
1.0
 76
     1
 77
     6
 78
     2
 67
     7
 79
     5
170
     0
171
     0
290
     0
174
     0
 93
        1
 44
0.0
173
     0
291
     1
 45
0.0
1001
ACAD
1000
AcDbSavedByObjectVersion
1070
     0
  0
VISUALSTYLE
  5
963
102
{ACAD_XDICTIONARY
360
9FA
102
}
102
{ACAD_REACTORS
330
94C
102
}
330
94C
100
AcDbVisualStyle
  2
OverhangOff
 70
    21
 71
     2
 72
     2
 73
     0
 90
        0
 40
-0.6
 41
-30.0
 62
     5
 63
     7
 74
     1
 91
        4
 64
     7
 65
   257
 75
     1
175
     1
 42
1.0
 92
        9
 66
     7
 43
1.0
 76
     1
 77
     6
 78
     2
 67
     7
 79
     5
170
     0
171
     0
290
     0
174
     0
 93
        1
 44
0.0
173
     0
291
     1
 45
0.0
1001
ACAD
1000
AcDbSavedByObjectVersion
1070
     0
  0
VISUALSTYLE
  5
956
102
{ACAD_XDICTIONARY
360
9E0
102
}
102
{ACAD_REACTORS
330
94C
102
}
330
94C
100
AcDbVisualStyle
  2
Realistic
 70
     8
 71
     2
 72
     3
 73
     0
 90
        2
 40
-0.6
 41
30.0
 62
     5
 63
     7
 74
     0
 91
        0
 64
     7
 65
   257
 75
     1
175
     1
 42
1.0
 92
        8
 66
   257
 43
1.0
 76
     1
 77
     6
 78
     2
 67
     7
 79
     3
170
     0
171
     0
290
     0
174
     0
 93
       13
 44
0.0
173
     0
291
     0
 45
0.0
1001
ACAD
1000
AcDbSavedByObjectVersion
1070
     0
  0
VISUALSTYLE
  5
961
102
{ACAD_XDICTIONARY
360
9F6
102
}
102
{ACAD_REACTORS
330
94C
102
}
330
94C
100
AcDbVisualStyle
  2
Shaded
 70
    27
 71
     2
 72
     2
 73
     1
 90
        2
 40
-0.6
 41
30.0
 62
     5
 63
     7
 74
     0
 91
        4
 64
     7
 65
   257
 75
     1
175
     1
 42
1.0
 92
        8
 66
   257
 43
1.0
 76
     1
 77
     6
 78
     2
 67
     8
 79
     3
170
     0
171
     0
290
     0
174
     0
 93
        5
 44
0.0
173
     0
291
     0
 45
0.0
1001
ACAD
1000
AcDbSavedByObjectVersion
1070
     0
  0
VISUALSTYLE
  5
960
102
{ACAD_XDICTIONARY
360
9F4
102
}
102
{ACAD_REACTORS
330
94C
102
}
330
94C
100
AcDbVisualStyle
  2
Shaded with edges
 70
    26
 71
     2
 72
     2
 73
     1
 90
        2
 40
-0.6
 41
30.0
 62
     5
 63
     7
 74
     1
 91
       10
 64
     7
 65
   257
 75
     2
175
     1
 42
1.0
 92
        8
 66
   257
 43
1.0
 76
     1
 77
     6
 78
     2
 67
     7
 79
     3
170
     0
171
     0
290
     0
174
     0
 93
        5
 44
0.0
173
     0
291
     0
 45
0.0
1001
ACAD
1000
AcDbSavedByObjectVersion
1070
     0
  0
VISUALSTYLE
  5
95D
102
{ACAD_XDICTIONARY
360
9EE
102
}
102
{ACAD_REACTORS
330
94C
102
}
330
94C
100
AcDbVisualStyle
  2
Shades of Gray
 70
    23
 71
     2
 72
     2
 73
     3
 90
        0
 40
-0.6
 41
-30.0
 62
     5
 63
     7
 74
     2
 91
        2
 64
     7
 65
     7
 75
     1
175
     1
 42
40.0
 92
        8
 66
     7
 43
1.0
 76
     1
 77
     6
 78
     2
 67
     7
 79
     3
170
     0
171
     0
290
     0
174
     0
 93
        1
 44
0.0
173
     0
291
     0
 45
0.0
1001
ACAD
1000
AcDbSavedByObjectVersion
1070
     0
  0
VISUALSTYLE
  5
95E
102
{ACAD_XDICTIONARY
360
9F0
102
}
102
{ACAD_REACTORS
330
94C
102
}
330
94C
100
AcDbVisualStyle
  2
Sketchy
 70
    24
 71
     1
 72
     2
 73
     2
 90
        0
 40
-0.6
 41
-30.0
 62
     5
 63
     7
 74
     2
 91
        2
 64
     7
 65
     7
 75
     1
175
     1
 42
40.0
 92
       11
 66
     7
 43
1.0
 76
     1
 77
     6
 78
     2
 67
     7
 79
     6
170
     0
171
     0
290
     0
174
     0
 93
        1
 44
0.0
173
     0
291
     0
 45
0.0
1001
ACAD
1000
AcDbSavedByObjectVersion
1070
     0
  0
VISUALSTYLE
  5
959
102
{ACAD_XDICTIONARY
360
9E6
102
}
102
{ACAD_REACTORS
330
94C
102
}
330
94C
100
AcDbVisualStyle
  2
Thicken
 70
    13
 71
     2
 72
     2
 73
     0
 90
        0
 40
-0.6
 41
-30.0
 62
     5
 63
     7
 74
     1
 91
        4
 64
     7
 65
   257
 75
     1
175
     1
 42
1.0
 92
       12
 66
     7
 43
1.0
 76
     1
 77
     6
 78
     2
 67
     7
 79
     5
170
     0
171
     0
290
     0
174
     0
 93
        1
 44
0.0
173
     0
291
     1
 45
0.0
1001
ACAD
1000
AcDbSavedByObjectVersion
1070
     0
  0
VISUALSTYLE
  5
953
102
{ACAD_XDICTIONARY
360
9DA
102
}
102
{ACAD_REACTORS
330
94C
102
}
330
94C
100
AcDbVisualStyle
  2
Wireframe
 70
     5
 71
     0
 72
     2
 73
     0
 90
        0
 40
-0.6
 41
-30.0
 62
     5
 63
     7
 74
     1
 91
        4
 64
     7
 65
   257
 75
     1
175
     1
 42
1.0
 92
        0
 66
   257
 43
1.0
 76
     1
 77
     6
 78
     2
 67
     7
 79
     3
170
     0
171
     0
290
     0
174
     0
 93
        1
 44
0.0
173
     0
291
     0
 45
0.0
1001
ACAD
1000
AcDbSavedByObjectVersion
1070
     0
  0
VISUALSTYLE
  5
95F
102
{ACAD_XDICTIONARY
360
9F2
102
}
102
{ACAD_REACTORS
330
94C
102
}
330
94C
100
AcDbVisualStyle
  2
X-Ray
 70
    25
 71
     2
 72
     2
 73
     1
 90
        1
 40
0.5
 41
-30.0
 62
     5
 63
     7
 74
     1
 91
        0
 64
     7
 65
   257
 75
     1
175
     1
 42
1.0
 92
        8
 66
     7
 43
1.0
 76
     1
 77
     6
 78
     2
 67
     7
 79
     3
170
     0
171
     0
290
     0
174
     0
 93
       13
 44
0.0
173
     0
291
     0
 45
0.0
1001
ACAD
1000
AcDbSavedByObjectVersion
1070
     0
  0
DICTIONARYVAR
  5
9C1
102
{ACAD_REACTORS
330
9BC
102
}
330
9BC
100
DictionaryVariables
280
     0
  1
1:1
  0
DICTIONARYVAR
  5
9BE
102
{ACAD_REACTORS
330
9BC
102
}
330
9BC
100
DictionaryVariables
280
     0
  1
STANDARD
  0
DICTIONARYVAR
  5
9BD
102
{ACAD_REACTORS
330
9BC
102
}
330
9BC
100
DictionaryVariables
280
     0
  1
STANDARD
  0
DICTIONARYVAR
  5
9BF
102
{ACAD_REACTORS
330
9BC
102
}
330
9BC
100
DictionaryVariables
280
     0
  1
Imperial24
  0
DICTIONARYVAR
  5
9C0
102
{ACAD_REACTORS
330
9BC
102
}
330
9BC
100
DictionaryVariables
280
     0
  1
Imperial24
  0
DICTIONARYVAR
  5
9C4
102
{ACAD_REACTORS
330
9BC
102
}
330
9BC
100
DictionaryVariables
280
     0
  1
1
  0
DICTIONARYVAR
  5
9C3
102
{ACAD_REACTORS
330
9BC
102
}
330
9BC
100
DictionaryVariables
280
     0
  1
0
  0
DICTIONARYVAR
  5
9C2
102
{ACAD_REACTORS
330
9BC
102
}
330
9BC
100
DictionaryVariables
280
     0
  1
127
  0
DICTIONARYVAR
  5
9C5
102
{ACAD_REACTORS
330
9BC
102
}
330
9BC
100
DictionaryVariables
280
     0
  1
2
  0
DICTIONARY
  5
A02
330
98D
100
AcDbDictionary
280
     1
281
     1
  3
ACAD_XREC_ROUNDTRIP
360
A03
  0
DICTIONARY
  5
A06
330
995
100
AcDbDictionary
280
     1
281
     1
  3
ACAD_XREC_ROUNDTRIP
360
A07
  0
DICTIONARY
  5
A04
330
991
100
AcDbDictionary
280
     1
281
     1
  3
ACAD_XREC_ROUNDTRIP
360
A05
  0
DICTIONARY
  5
93D
330
93C
100
AcDbDictionary
280
     1
281
     1
  3
ACAD_XREC_ROUNDTRIP
360
9CC
  3
BUMPTILE
360
93F
  3
DIFFUSETILE
360
93E
  3
OPACITYTILE
360
942
  3
REFLECTIONTILE
360
941
  3
REFRACTIONTILE
360
943
  3
SPECULARTILE
360
940
  0
DICTIONARY
  5
935
330
934
100
AcDbDictionary
280
     1
281
     1
  3
ACAD_XREC_ROUNDTRIP
360
9CB
  3
BUMPTILE
360
937
  3
DIFFUSETILE
360
936
  3
OPACITYTILE
360
93A
  3
REFLECTIONTILE
360
939
  3
REFRACTIONTILE
360
93B
  3
SPECULARTILE
360
938
  0
DICTIONARY
  5
945
330
944
100
AcDbDictionary
280
     1
281
     1
  3
ACAD_XREC_ROUNDTRIP
360
9CD
  3
BUMPTILE
360
947
  3
DIFFUSETILE
360
946
  3
OPACITYTILE
360
94A
  3
REFLECTIONTILE
360
949
  3
REFRACTIONTILE
360
94B
  3
SPECULARTILE
360
948
  0
DICTIONARY
  5
A00
330
98B
100
AcDbDictionary
280
     1
281
     1
  3
ACAD_XREC_ROUNDTRIP
360
A01
  0
DICTIONARY
  5
9C7
330
987
100
AcDbDictionary
280
     1
281
     1
  3
ACAD_ROUNDTRIP_2008_TABLESTYLE_CELLSTYLEMAP
360
9C8
  3
ACAD_XREC_ROUNDTRIP
360
9FE
  0
DICTIONARY
  5
9D8
330
952
100
AcDbDictionary
280
     1
281
     1
  3
ACAD_XREC_ROUNDTRIP
360
9D9
  0
DICTIONARY
  5
9D6
330
951
100
AcDbDictionary
280
     1
281
     1
  3
ACAD_XREC_ROUNDTRIP
360
9D7
  0
DICTIONARY
  5
9E4
330
958
100
AcDbDictionary
280
     1
281
     1
  3
ACAD_XREC_ROUNDTRIP
360
9E5
  0
DICTIONARY
  5
9EC
330
95C
100
AcDbDictionary
280
     1
281
     1
  3
ACAD_XREC_ROUNDTRIP
360
9ED
  0
DICTIONARY
  5
9DE
330
955
100
AcDbDictionary
280
     1
281
     1
  3
ACAD_XREC_ROUNDTRIP
360
9DF
  0
DICTIONARY
  5
9E2
330
957
100
AcDbDictionary
280
     1
281
     1
  3
ACAD_XREC_ROUNDTRIP
360
9E3
  0
DICTIONARY
  5
9FC
330
964
100
AcDbDictionary
280
     1
281
     1
  3
ACAD_XREC_ROUNDTRIP
360
9FD
  0
DICTIONARY
  5
9EA
330
95B
100
AcDbDictionary
280
     1
281
     1
  3
ACAD_XREC_ROUNDTRIP
360
9EB
  0
DICTIONARY
  5
9CE
330
94D
100
AcDbDictionary
280
     1
281
     1
  3
ACAD_XREC_ROUNDTRIP
360
9CF
  0
DICTIONARY
  5
9D0
330
94E
100
AcDbDictionary
280
     1
281
     1
  3
ACAD_XREC_ROUNDTRIP
360
9D1
  0
DICTIONARY
  5
9D2
330
94F
100
AcDbDictionary
280
     1
281
     1
  3
ACAD_XREC_ROUNDTRIP
360
9D3
  0
DICTIONARY
  5
9D4
330
950
100
AcDbDictionary
280
     1
281
     1
  3
ACAD_XREC_ROUNDTRIP
360
9D5
  0
DICTIONARY
  5
9DC
330
954
100
AcDbDictionary
280
     1
281
     1
  3
ACAD_XREC_ROUNDTRIP
360
9DD
  0
DICTIONARY
  5
9F8
330
962
100
AcDbDictionary
280
     1
281
     1
  3
ACAD_XREC_ROUNDTRIP
360
9F9
  0
DICTIONARY
  5
9E8
330
95A
100
AcDbDictionary
280
     1
281
     1
  3
ACAD_XREC_ROUNDTRIP
360
9E9
  0
DICTIONARY
  5
9FA
330
963
100
AcDbDictionary
280
     1
281
     1
  3
ACAD_XREC_ROUNDTRIP
360
9FB
  0
DICTIONARY
  5
9E0
330
956
100
AcDbDictionary
280
     1
281
     1
  3
ACAD_XREC_ROUNDTRIP
360
9E1
  0
DICTIONARY
  5
9F6
330
961
100
AcDbDictionary
280
     1
281
     1
  3
ACAD_XREC_ROUNDTRIP
360
9F7
  0
DICTIONARY
  5
9F4
330
960
100
AcDbDictionary
280
     1
281
     1
  3
ACAD_XREC_ROUNDTRIP
360
9F5
  0
DICTIONARY
  5
9EE
330
95D
100
AcDbDictionary
280
     1
281
     1
  3
ACAD_XREC_ROUNDTRIP
360
9EF
  0
DICTIONARY
  5
9F0
330
95E
100
AcDbDictionary
280
     1
281
     1
  3
ACAD_XREC_ROUNDTRIP
360
9F1
  0
DICTIONARY
  5
9E6
330
959
100
AcDbDictionary
280
     1
281
     1
  3
ACAD_XREC_ROUNDTRIP
360
9E7
  0
DICTIONARY
  5
9DA
330
953
100
AcDbDictionary
280
     1
281
     1
  3
ACAD_XREC_ROUNDTRIP
360
9DB
  0
DICTIONARY
  5
9F2
330
95F
100
AcDbDictionary
280
     1
281
     1
  3
ACAD_XREC_ROUNDTRIP
360
9F3
  0
XRECORD
  5
A03
102
{ACAD_REACTORS
330
A02
102
}
330
A02
100
AcDbXrecord
280
     1
102
DISPLAYNAME
  1
Imperial24
102
FLAGS
 90
        0
  0
XRECORD
  5
A07
102
{ACAD_REACTORS
330
A06
102
}
330
A06
100
AcDbXrecord
280
     1
102
SHADEPLOT
 70
     0
102
SHADEPLOTRESLEVEL
 70
     2
102
SHADEPLOTCUSTOMDPI
 70
   300
  0
XRECORD
  5
A05
102
{ACAD_REACTORS
330
A04
102
}
330
A04
100
AcDbXrecord
280
     1
102
SHADEPLOT
 70
     0
102
SHADEPLOTRESLEVEL
 70
     2
102
SHADEPLOTCUSTOMDPI
 70
   300
  0
XRECORD
  5
9CC
102
{ACAD_REACTORS
330
93D
102
}
330
93D
100
AcDbXrecord
280
     1
102
MATERIAL
148
0.0
149
0.0
149
0.0
 93
        0
 94
      127
282
     0
 72
     0
 77
     0
171
     0
175
     0
179
     0
273
     0
  0
XRECORD
  5
93F
102
{ACAD_REACTORS
330
93D
102
}
330
93D
100
AcDbXrecord
280
     1
270
     1
271
     1
  0
XRECORD
  5
93E
102
{ACAD_REACTORS
330
93D
102
}
330
93D
100
AcDbXrecord
280
     1
270
     1
271
     1
  0
XRECORD
  5
942
102
{ACAD_REACTORS
330
93D
102
}
330
93D
100
AcDbXrecord
280
     1
270
     1
271
     1
  0
XRECORD
  5
941
102
{ACAD_REACTORS
330
93D
102
}
330
93D
100
AcDbXrecord
280
     1
270
     1
271
     1
  0
XRECORD
  5
943
102
{ACAD_REACTORS
330
93D
102
}
330
93D
100
AcDbXrecord
280
     1
270
     1
271
     1
  0
XRECORD
  5
940
102
{ACAD_REACTORS
330
93D
102
}
330
93D
100
AcDbXrecord
280
     1
270
     1
271
     1
  0
XRECORD
  5
9CB
102
{ACAD_REACTORS
330
935
102
}
330
935
100
AcDbXrecord
280
     1
102
MATERIAL
148
0.0
149
0.0
149
0.0
 93
        0
 94
      127
282
     0
 72
     0
 77
     0
171
     0
175
     0
179
     0
273
     0
  0
XRECORD
  5
937
102
{ACAD_REACTORS
330
935
102
}
330
935
100
AcDbXrecord
280
     1
270
     1
271
     1
  0
XRECORD
  5
936
102
{ACAD_REACTORS
330
935
102
}
330
935
100
AcDbXrecord
280
     1
270
     1
271
     1
  0
XRECORD
  5
93A
102
{ACAD_REACTORS
330
935
102
}
330
935
100
AcDbXrecord
280
     1
270
     1
271
     1
  0
XRECORD
  5
939
102
{ACAD_REACTORS
330
935
102
}
330
935
100
AcDbXrecord
280
     1
270
     1
271
     1
  0
XRECORD
  5
93B
102
{ACAD_REACTORS
330
935
102
}
330
935
100
AcDbXrecord
280
     1
270
     1
271
     1
  0
XRECORD
  5
938
102
{ACAD_REACTORS
330
935
102
}
330
935
100
AcDbXrecord
280
     1
270
     1
271
     1
  0
XRECORD
  5
9CD
102
{ACAD_REACTORS
330
945
102
}
330
945
100
AcDbXrecord
280
     1
102
MATERIAL
148
0.0
149
0.0
149
0.0
 93
        0
 94
      127
282
     0
 72
     0
 77
     0
171
     0
175
     0
179
     0
273
     0
  0
XRECORD
  5
947
102
{ACAD_REACTORS
330
945
102
}
330
945
100
AcDbXrecord
280
     1
270
     1
271
     1
  0
XRECORD
  5
946
102
{ACAD_REACTORS
330
945
102
}
330
945
100
AcDbXrecord
280
     1
270
     1
271
     1
  0
XRECORD
  5
94A
102
{ACAD_REACTORS
330
945
102
}
330
945
100
AcDbXrecord
280
     1
270
     1
271
     1
  0
XRECORD
  5
949
102
{ACAD_REACTORS
330
945
102
}
330
945
100
AcDbXrecord
280
     1
270
     1
271
     1
  0
XRECORD
  5
94B
102
{ACAD_REACTORS
330
945
102
}
330
945
100
AcDbXrecord
280
     1
270
     1
271
     1
  0
XRECORD
  5
948
102
{ACAD_REACTORS
330
945
102
}
330
945
100
AcDbXrecord
280
     1
270
     1
271
     1
  0
XRECORD
  5
A01
102
{ACAD_REACTORS
330
A00
102
}
330
A00
100
AcDbXrecord
280
     1
102
DISPLAYNAME
  1
Imperial24
102
FLAGS
 90
        0
  0
CELLSTYLEMAP
  5
9C8
102
{ACAD_REACTORS
330
9C7
102
}
330
9C7
100
AcDbCellStyleMap
 90
        3
300
CELLSTYLE
  1
TABLEFORMAT_BEGIN
 90
        5
170
     1
 91
        0
 92
    32768
 62
   257
 93
        1
300
CONTENTFORMAT
  1
CONTENTFORMAT_BEGIN
 90
        0
 91
        0
 92
      512
 93
        0
300

 40
0.0
140
1.0
 94
        5
 62
     0
340
978
144
0.25
309
CONTENTFORMAT_END
171
     0
 94
        0
309
TABLEFORMAT_END
  1
CELLSTYLE_BEGIN
 90
        1
 91
        1
300
_TITLE
309
CELLSTYLE_END
300
CELLSTYLE
  1
TABLEFORMAT_BEGIN
 90
        5
170
     1
 91
        0
 92
        0
 62
   257
 93
        1
300
CONTENTFORMAT
  1
CONTENTFORMAT_BEGIN
 90
        0
 91
        0
 92
      512
 93
        0
300

 40
0.0
140
1.0
 94
        5
 62
     0
340
978
144
0.18
309
CONTENTFORMAT_END
171
     0
 94
        0
309
TABLEFORMAT_END
  1
CELLSTYLE_BEGIN
 90
        2
 91
        1
300
_HEADER
309
CELLSTYLE_END
300
CELLSTYLE
  1
TABLEFORMAT_BEGIN
 90
        5
170
     1
 91
        0
 92
        0
 62
   257
 93
        1
300
CONTENTFORMAT
  1
CONTENTFORMAT_BEGIN
 90
        0
 91
        0
 92
      512
 93
        0
300

 40
0.0
140
1.0
 94
        2
 62
     0
340
978
144
0.18
309
CONTENTFORMAT_END
171
     0
 94
        0
309
TABLEFORMAT_END
  1
CELLSTYLE_BEGIN
 90
        3
 91
        2
300
_DATA
309
CELLSTYLE_END
  0
XRECORD
  5
9FE
102
{ACAD_REACTORS
330
9C7
102
}
330
9C7
100
AcDbXrecord
280
     1
102
ACAD_ROUNDTRIP_PRE2007_TABLESTYLE
 90
      512
 91
        0
  1

 92
      512
 93
        0
  2

 94
      512
 95
        0
  3

  0
XRECORD
  5
9D9
102
{ACAD_REACTORS
330
9D8
102
}
330
9D8
100
AcDbXrecord
280
     1
102
RTVSPost2010Prop28
280
     1
102
RTVSPost2010PropOp28
 70
     1
102
RTVSPost2010Prop29
280
     1
102
RTVSPost2010PropOp29
 70
     1
102
RTVSPost2010Prop30
280
     0
102
RTVSPost2010PropOp30
 70
     1
102
RTVSPost2010Prop31
280
     0
102
RTVSPost2010PropOp31
 70
     1
102
RTVSPost2010Prop32
280
     0
102
RTVSPost2010PropOp32
 70
     1
102
RTVSPost2010Prop33
280
     0
102
RTVSPost2010PropOp33
 70
     1
102
RTVSPost2010Prop34
280
     0
102
RTVSPost2010PropOp34
 70
     1
102
RTVSPost2010Prop35
280
     0
102
RTVSPost2010PropOp35
 70
     1
102
RTVSPost2010Prop36
280
     0
102
RTVSPost2010PropOp36
 70
     1
102
RTVSPost2010Prop37
 90
       50
102
RTVSPost2010PropOp37
 70
     1
102
RTVSPost2010Prop38
140
0.0
102
RTVSPost2010PropOp38
 70
     1
102
RTVSPost2010Prop39
140
1.0
102
RTVSPost2010PropOp39
 70
     1
102
RTVSPost2010Prop40
 90
        0
102
RTVSPost2010PropOp40
 70
     1
102
RTVSPost2010Prop41ColorIndex
 90
       18
102
RTVSPost2010Prop41ColorRGB
 90
        0
102
RTVSPost2010PropOp41
 70
     1
102
RTVSPost2010Prop42
 90
       50
102
RTVSPost2010PropOp42
 70
     1
102
RTVSPost2010Prop43
 90
        3
102
RTVSPost2010PropOp43
 70
     1
102
RTVSPost2010Prop44ColorIndex
 90
        5
102
RTVSPost2010Prop44ColorRGB
 90
      255
102
RTVSPost2010PropOp44
 70
     1
102
RTVSPost2010Prop45
280
     0
102
RTVSPost2010PropOp45
 70
     1
102
RTVSPost2010Prop46
 90
       50
102
RTVSPost2010PropOp46
 70
     1
102
RTVSPost2010Prop47
 90
       50
102
RTVSPost2010PropOp47
 70
     1
102
RTVSPost2010Prop48
 90
       50
102
RTVSPost2010PropOp48
 70
     1
102
RTVSPost2010Prop49
280
     0
102
RTVSPost2010PropOp49
 70
     1
102
RTVSPost2010Prop50
 90
       50
102
RTVSPost2010PropOp50
 70
     1
102
RTVSPost2010Prop51ColorIndex
 90
      256
102
RTVSPost2010Prop51ColorRGB
 90
-16777216
102
RTVSPost2010PropOp51
 70
     0
102
RTVSPost2010Prop52
140
1.0
102
RTVSPost2010PropOp52
 70
     0
102
RTVSPost2010Prop53
 90
        2
102
RTVSPost2010PropOp53
 70
     1
102
RTVSPost2010Prop54
  1
strokes_ogs.tif
102
RTVSPost2010PropOp54
 70
     1
102
RTVSPost2010Prop55
280
     0
102
RTVSPost2010PropOp55
 70
     1
102
RTVSPost2010Prop56
140
1.0
102
RTVSPost2010PropOp56
 70
     1
102
RTVSPost2010Prop57
140
1.0
102
RTVSPost2010PropOp57
 70
     1
102
RTVSPropertyOp0
 70
     1
102
RTVSPropertyOp1
 70
     1
102
RTVSPropertyOp2
 70
     1
102
RTVSPropertyOp3
 70
     1
102
RTVSPropertyOp4
 70
     1
102
RTVSPropertyOp5
 70
     1
102
RTVSPropertyOp6
 70
     1
102
RTVSPropertyOp7
 70
     1
102
RTVSPropertyOp8
 70
     1
102
RTVSPropertyOp9
 70
     1
102
RTVSPropertyOp10
 70
     1
102
RTVSPropertyOp11
 70
     1
102
RTVSPropertyOp12
 70
     1
102
RTVSPropertyOp13
 70
     1
102
RTVSPropertyOp14
 70
     1
102
RTVSPropertyOp15
 70
     1
102
RTVSPropertyOp16
 70
     1
102
RTVSPropertyOp17
 70
     1
102
RTVSPropertyOp18
 70
     1
102
RTVSPropertyOp19
 70
     1
102
RTVSPropertyOp20
 70
     1
102
RTVSPropertyOp21
 70
     1
102
RTVSPropertyOp22
 70
     1
102
RTVSPropertyOp23
 70
     1
102
RTVSPropertyOp24
 70
     1
102
RTVSPropertyOp25
 70
     1
102
RTVSPropertyOp26
 70
     1
102
RTVSPropertyOp27
 70
     1
102
RTVSPropertyOp28
 70
     1
102
RTVSPropertyOp29
 70
     1
102
RTVSPropertyOp30
 70
     1
102
RTVSPropertyOp31
 70
     1
102
RTVSPropertyOp32
 70
     1
102
RTVSPropertyOp33
 70
     1
102
RTVSPropertyOp34
 70
     1
102
RTVSPropertyOp35
 70
     1
102
RTVSPropertyOp36
 70
     1
102
RTVSPropertyOp37
 70
     1
102
RTVSPropertyOp38
 70
     1
102
RTVSPropertyOp39
 70
     1
102
RTVSPropertyOp40
 70
     1
102
RTVSPropertyOp41
 70
     1
102
RTVSPropertyOp42
 70
     1
102
RTVSPropertyOp43
 70
     1
102
RTVSPropertyOp44
 70
     1
102
RTVSPropertyOp45
 70
     1
102
RTVSPropertyOp46
 70
     1
102
RTVSPropertyOp47
 70
     1
102
RTVSPropertyOp48
 70
     1
102
RTVSPropertyOp49
 70
     1
102
RTVSPropertyOp50
 70
     1
102
RTVSPropertyOp51
 70
     0
102
RTVSPropertyOp52
 70
     0
102
RTVSPropertyOp53
 70
     1
102
RTVSPropertyOp54
 70
     1
102
RTVSPropertyOp55
 70
     1
102
RTVSPropertyOp56
 70
     1
102
RTVSPropertyOp57
 70
     1
102
RTVSPropertyOp58
 70
     1
102
RTVSPropertyOp59
 70
     1
102
RTVSPropertyOp60
 70
     1
102
RTVSPropertyOp61
 70
     1
102
RTVSPropertyOp62
 70
     1
  0
XRECORD
  5
9D7
102
{ACAD_REACTORS
330
9D6
102
}
330
9D6
100
AcDbXrecord
280
     1
102
RTVSPost2010Prop28
280
     0
102
RTVSPost2010PropOp28
 70
     1
102
RTVSPost2010Prop29
280
     1
102
RTVSPost2010PropOp29
 70
     1
102
RTVSPost2010Prop30
280
     1
102
RTVSPost2010PropOp30
 70
     1
102
RTVSPost2010Prop31
280
     0
102
RTVSPost2010PropOp31
 70
     1
102
RTVSPost2010Prop32
280
     0
102
RTVSPost2010PropOp32
 70
     1
102
RTVSPost2010Prop33
280
     0
102
RTVSPost2010PropOp33
 70
     1
102
RTVSPost2010Prop34
280
     0
102
RTVSPost2010PropOp34
 70
     1
102
RTVSPost2010Prop35
280
     0
102
RTVSPost2010PropOp35
 70
     1
102
RTVSPost2010Prop36
280
     0
102
RTVSPost2010PropOp36
 70
     1
102
RTVSPost2010Prop37
 90
       50
102
RTVSPost2010PropOp37
 70
     1
102
RTVSPost2010Prop38
140
0.0
102
RTVSPost2010PropOp38
 70
     1
102
RTVSPost2010Prop39
140
1.0
102
RTVSPost2010PropOp39
 70
     1
102
RTVSPost2010Prop40
 90
        0
102
RTVSPost2010PropOp40
 70
     1
102
RTVSPost2010Prop41ColorIndex
 90
       18
102
RTVSPost2010Prop41ColorRGB
 90
        0
102
RTVSPost2010PropOp41
 70
     1
102
RTVSPost2010Prop42
 90
       50
102
RTVSPost2010PropOp42
 70
     1
102
RTVSPost2010Prop43
 90
        3
102
RTVSPost2010PropOp43
 70
     1
102
RTVSPost2010Prop44ColorIndex
 90
        5
102
RTVSPost2010Prop44ColorRGB
 90
      255
102
RTVSPost2010PropOp44
 70
     1
102
RTVSPost2010Prop45
280
     0
102
RTVSPost2010PropOp45
 70
     1
102
RTVSPost2010Prop46
 90
       50
102
RTVSPost2010PropOp46
 70
     1
102
RTVSPost2010Prop47
 90
       50
102
RTVSPost2010PropOp47
 70
     1
102
RTVSPost2010Prop48
 90
       50
102
RTVSPost2010PropOp48
 70
     1
102
RTVSPost2010Prop49
280
     0
102
RTVSPost2010PropOp49
 70
     1
102
RTVSPost2010Prop50
 90
       50
102
RTVSPost2010PropOp50
 70
     1
102
RTVSPost2010Prop51ColorIndex
 90
      256
102
RTVSPost2010Prop51ColorRGB
 90
-16777216
102
RTVSPost2010PropOp51
 70
     0
102
RTVSPost2010Prop52
140
1.0
102
RTVSPost2010PropOp52
 70
     0
102
RTVSPost2010Prop53
 90
        2
102
RTVSPost2010PropOp53
 70
     1
102
RTVSPost2010Prop54
  1
strokes_ogs.tif
102
RTVSPost2010PropOp54
 70
     1
102
RTVSPost2010Prop55
280
     0
102
RTVSPost2010PropOp55
 70
     1
102
RTVSPost2010Prop56
140
1.0
102
RTVSPost2010PropOp56
 70
     1
102
RTVSPost2010Prop57
140
1.0
102
RTVSPost2010PropOp57
 70
     1
102
RTVSPropertyOp0
 70
     1
102
RTVSPropertyOp1
 70
     1
102
RTVSPropertyOp2
 70
     1
102
RTVSPropertyOp3
 70
     1
102
RTVSPropertyOp4
 70
     1
102
RTVSPropertyOp5
 70
     1
102
RTVSPropertyOp6
 70
     1
102
RTVSPropertyOp7
 70
     1
102
RTVSPropertyOp8
 70
     1
102
RTVSPropertyOp9
 70
     1
102
RTVSPropertyOp10
 70
     1
102
RTVSPropertyOp11
 70
     1
102
RTVSPropertyOp12
 70
     1
102
RTVSPropertyOp13
 70
     1
102
RTVSPropertyOp14
 70
     1
102
RTVSPropertyOp15
 70
     1
102
RTVSPropertyOp16
 70
     1
102
RTVSPropertyOp17
 70
     1
102
RTVSPropertyOp18
 70
     1
102
RTVSPropertyOp19
 70
     1
102
RTVSPropertyOp20
 70
     1
102
RTVSPropertyOp21
 70
     1
102
RTVSPropertyOp22
 70
     1
102
RTVSPropertyOp23
 70
     1
102
RTVSPropertyOp24
 70
     1
102
RTVSPropertyOp25
 70
     1
102
RTVSPropertyOp26
 70
     1
102
RTVSPropertyOp27
 70
     1
102
RTVSPropertyOp28
 70
     1
102
RTVSPropertyOp29
 70
     1
102
RTVSPropertyOp30
 70
     1
102
RTVSPropertyOp31
 70
     1
102
RTVSPropertyOp32
 70
     1
102
RTVSPropertyOp33
 70
     1
102
RTVSPropertyOp34
 70
     1
102
RTVSPropertyOp35
 70
     1
102
RTVSPropertyOp36
 70
     1
102
RTVSPropertyOp37
 70
     1
102
RTVSPropertyOp38
 70
     1
102
RTVSPropertyOp39
 70
     1
102
RTVSPropertyOp40
 70
     1
102
RTVSPropertyOp41
 70
     1
102
RTVSPropertyOp42
 70
     1
102
RTVSPropertyOp43
 70
     1
102
RTVSPropertyOp44
 70
     1
102
RTVSPropertyOp45
 70
     1
102
RTVSPropertyOp46
 70
     1
102
RTVSPropertyOp47
 70
     1
102
RTVSPropertyOp48
 70
     1
102
RTVSPropertyOp49
 70
     1
102
RTVSPropertyOp50
 70
     1
102
RTVSPropertyOp51
 70
     0
102
RTVSPropertyOp52
 70
     0
102
RTVSPropertyOp53
 70
     1
102
RTVSPropertyOp54
 70
     1
102
RTVSPropertyOp55
 70
     1
102
RTVSPropertyOp56
 70
     1
102
RTVSPropertyOp57
 70
     1
102
RTVSPropertyOp58
 70
     1
102
RTVSPropertyOp59
 70
     1
102
RTVSPropertyOp60
 70
     1
102
RTVSPropertyOp61
 70
     1
102
RTVSPropertyOp62
 70
     1
  0
XRECORD
  5
9E5
102
{ACAD_REACTORS
330
9E4
102
}
330
9E4
100
AcDbXrecord
280
     1
102
RTVSPost2010Prop28
280
     0
102
RTVSPost2010PropOp28
 70
     1
102
RTVSPost2010Prop29
280
     1
102
RTVSPost2010PropOp29
 70
     1
102
RTVSPost2010Prop30
280
     1
102
RTVSPost2010PropOp30
 70
     1
102
RTVSPost2010Prop31
280
     0
102
RTVSPost2010PropOp31
 70
     1
102
RTVSPost2010Prop32
280
     0
102
RTVSPost2010PropOp32
 70
     1
102
RTVSPost2010Prop33
280
     0
102
RTVSPost2010PropOp33
 70
     1
102
RTVSPost2010Prop34
280
     0
102
RTVSPost2010PropOp34
 70
     1
102
RTVSPost2010Prop35
280
     0
102
RTVSPost2010PropOp35
 70
     1
102
RTVSPost2010Prop36
280
     0
102
RTVSPost2010PropOp36
 70
     1
102
RTVSPost2010Prop37
 90
       50
102
RTVSPost2010PropOp37
 70
     1
102
RTVSPost2010Prop38
140
0.0
102
RTVSPost2010PropOp38
 70
     1
102
RTVSPost2010Prop39
140
1.0
102
RTVSPost2010PropOp39
 70
     1
102
RTVSPost2010Prop40
 90
        0
102
RTVSPost2010PropOp40
 70
     1
102
RTVSPost2010Prop41ColorIndex
 90
       18
102
RTVSPost2010Prop41ColorRGB
 90
        0
102
RTVSPost2010PropOp41
 70
     1
102
RTVSPost2010Prop42
 90
       50
102
RTVSPost2010PropOp42
 70
     1
102
RTVSPost2010Prop43
 90
        3
102
RTVSPost2010PropOp43
 70
     1
102
RTVSPost2010Prop44ColorIndex
 90
        5
102
RTVSPost2010Prop44ColorRGB
 90
      255
102
RTVSPost2010PropOp44
 70
     1
102
RTVSPost2010Prop45
280
     0
102
RTVSPost2010PropOp45
 70
     1
102
RTVSPost2010Prop46
 90
       50
102
RTVSPost2010PropOp46
 70
     1
102
RTVSPost2010Prop47
 90
       50
102
RTVSPost2010PropOp47
 70
     1
102
RTVSPost2010Prop48
 90
       50
102
RTVSPost2010PropOp48
 70
     1
102
RTVSPost2010Prop49
280
     0
102
RTVSPost2010PropOp49
 70
     1
102
RTVSPost2010Prop50
 90
       50
102
RTVSPost2010PropOp50
 70
     1
102
RTVSPost2010Prop51ColorIndex
 90
      256
102
RTVSPost2010Prop51ColorRGB
 90
-16777216
102
RTVSPost2010PropOp51
 70
     0
102
RTVSPost2010Prop52
140
1.0
102
RTVSPost2010PropOp52
 70
     0
102
RTVSPost2010Prop53
 90
        2
102
RTVSPost2010PropOp53
 70
     1
102
RTVSPost2010Prop54
  1
strokes_ogs.tif
102
RTVSPost2010PropOp54
 70
     1
102
RTVSPost2010Prop55
280
     0
102
RTVSPost2010PropOp55
 70
     1
102
RTVSPost2010Prop56
140
1.0
102
RTVSPost2010PropOp56
 70
     1
102
RTVSPost2010Prop57
140
1.0
102
RTVSPost2010PropOp57
 70
     1
102
RTVSPropertyOp0
 70
     1
102
RTVSPropertyOp1
 70
     1
102
RTVSPropertyOp2
 70
     1
102
RTVSPropertyOp3
 70
     1
102
RTVSPropertyOp4
 70
     1
102
RTVSPropertyOp5
 70
     1
102
RTVSPropertyOp6
 70
     1
102
RTVSPropertyOp7
 70
     1
102
RTVSPropertyOp8
 70
     1
102
RTVSPropertyOp9
 70
     1
102
RTVSPropertyOp10
 70
     1
102
RTVSPropertyOp11
 70
     1
102
RTVSPropertyOp12
 70
     1
102
RTVSPropertyOp13
 70
     1
102
RTVSPropertyOp14
 70
     1
102
RTVSPropertyOp15
 70
     1
102
RTVSPropertyOp16
 70
     1
102
RTVSPropertyOp17
 70
     1
102
RTVSPropertyOp18
 70
     1
102
RTVSPropertyOp19
 70
     1
102
RTVSPropertyOp20
 70
     1
102
RTVSPropertyOp21
 70
     1
102
RTVSPropertyOp22
 70
     1
102
RTVSPropertyOp23
 70
     1
102
RTVSPropertyOp24
 70
     1
102
RTVSPropertyOp25
 70
     1
102
RTVSPropertyOp26
 70
     1
102
RTVSPropertyOp27
 70
     1
102
RTVSPropertyOp28
 70
     1
102
RTVSPropertyOp29
 70
     1
102
RTVSPropertyOp30
 70
     1
102
RTVSPropertyOp31
 70
     1
102
RTVSPropertyOp32
 70
     1
102
RTVSPropertyOp33
 70
     1
102
RTVSPropertyOp34
 70
     1
102
RTVSPropertyOp35
 70
     1
102
RTVSPropertyOp36
 70
     1
102
RTVSPropertyOp37
 70
     1
102
RTVSPropertyOp38
 70
     1
102
RTVSPropertyOp39
 70
     1
102
RTVSPropertyOp40
 70
     1
102
RTVSPropertyOp41
 70
     1
102
RTVSPropertyOp42
 70
     1
102
RTVSPropertyOp43
 70
     1
102
RTVSPropertyOp44
 70
     1
102
RTVSPropertyOp45
 70
     1
102
RTVSPropertyOp46
 70
     1
102
RTVSPropertyOp47
 70
     1
102
RTVSPropertyOp48
 70
     1
102
RTVSPropertyOp49
 70
     1
102
RTVSPropertyOp50
 70
     1
102
RTVSPropertyOp51
 70
     0
102
RTVSPropertyOp52
 70
     0
102
RTVSPropertyOp53
 70
     1
102
RTVSPropertyOp54
 70
     1
102
RTVSPropertyOp55
 70
     1
102
RTVSPropertyOp56
 70
     1
102
RTVSPropertyOp57
 70
     1
102
RTVSPropertyOp58
 70
     1
102
RTVSPropertyOp59
 70
     1
102
RTVSPropertyOp60
 70
     1
102
RTVSPropertyOp61
 70
     1
102
RTVSPropertyOp62
 70
     1
  0
XRECORD
  5
9ED
102
{ACAD_REACTORS
330
9EC
102
}
330
9EC
100
AcDbXrecord
280
     1
102
RTVSPost2010Prop28
280
     0
102
RTVSPost2010PropOp28
 70
     1
102
RTVSPost2010Prop29
280
     1
102
RTVSPost2010PropOp29
 70
     1
102
RTVSPost2010Prop30
280
     1
102
RTVSPost2010PropOp30
 70
     1
102
RTVSPost2010Prop31
280
     0
102
RTVSPost2010PropOp31
 70
     1
102
RTVSPost2010Prop32
280
     0
102
RTVSPost2010PropOp32
 70
     1
102
RTVSPost2010Prop33
280
     0
102
RTVSPost2010PropOp33
 70
     1
102
RTVSPost2010Prop34
280
     0
102
RTVSPost2010PropOp34
 70
     1
102
RTVSPost2010Prop35
280
     0
102
RTVSPost2010PropOp35
 70
     1
102
RTVSPost2010Prop36
280
     0
102
RTVSPost2010PropOp36
 70
     1
102
RTVSPost2010Prop37
 90
       50
102
RTVSPost2010PropOp37
 70
     1
102
RTVSPost2010Prop38
140
0.0
102
RTVSPost2010PropOp38
 70
     1
102
RTVSPost2010Prop39
140
1.0
102
RTVSPost2010PropOp39
 70
     1
102
RTVSPost2010Prop40
 90
        0
102
RTVSPost2010PropOp40
 70
     1
102
RTVSPost2010Prop41ColorIndex
 90
       18
102
RTVSPost2010Prop41ColorRGB
 90
        0
102
RTVSPost2010PropOp41
 70
     1
102
RTVSPost2010Prop42
 90
       50
102
RTVSPost2010PropOp42
 70
     1
102
RTVSPost2010Prop43
 90
        3
102
RTVSPost2010PropOp43
 70
     1
102
RTVSPost2010Prop44ColorIndex
 90
        5
102
RTVSPost2010Prop44ColorRGB
 90
      255
102
RTVSPost2010PropOp44
 70
     1
102
RTVSPost2010Prop45
280
     0
102
RTVSPost2010PropOp45
 70
     1
102
RTVSPost2010Prop46
 90
       50
102
RTVSPost2010PropOp46
 70
     1
102
RTVSPost2010Prop47
 90
       50
102
RTVSPost2010PropOp47
 70
     1
102
RTVSPost2010Prop48
 90
       50
102
RTVSPost2010PropOp48
 70
     1
102
RTVSPost2010Prop49
280
     0
102
RTVSPost2010PropOp49
 70
     1
102
RTVSPost2010Prop50
 90
       50
102
RTVSPost2010PropOp50
 70
     1
102
RTVSPost2010Prop51ColorIndex
 90
      256
102
RTVSPost2010Prop51ColorRGB
 90
-16777216
102
RTVSPost2010PropOp51
 70
     0
102
RTVSPost2010Prop52
140
1.0
102
RTVSPost2010PropOp52
 70
     0
102
RTVSPost2010Prop53
 90
        2
102
RTVSPost2010PropOp53
 70
     1
102
RTVSPost2010Prop54
  1
strokes_ogs.tif
102
RTVSPost2010PropOp54
 70
     1
102
RTVSPost2010Prop55
280
     0
102
RTVSPost2010PropOp55
 70
     1
102
RTVSPost2010Prop56
140
1.0
102
RTVSPost2010PropOp56
 70
     1
102
RTVSPost2010Prop57
140
1.0
102
RTVSPost2010PropOp57
 70
     1
102
RTVSPropertyOp0
 70
     1
102
RTVSPropertyOp1
 70
     1
102
RTVSPropertyOp2
 70
     1
102
RTVSPropertyOp3
 70
     1
102
RTVSPropertyOp4
 70
     1
102
RTVSPropertyOp5
 70
     1
102
RTVSPropertyOp6
 70
     1
102
RTVSPropertyOp7
 70
     1
102
RTVSPropertyOp8
 70
     1
102
RTVSPropertyOp9
 70
     1
102
RTVSPropertyOp10
 70
     1
102
RTVSPropertyOp11
 70
     1
102
RTVSPropertyOp12
 70
     1
102
RTVSPropertyOp13
 70
     1
102
RTVSPropertyOp14
 70
     1
102
RTVSPropertyOp15
 70
     1
102
RTVSPropertyOp16
 70
     1
102
RTVSPropertyOp17
 70
     1
102
RTVSPropertyOp18
 70
     1
102
RTVSPropertyOp19
 70
     1
102
RTVSPropertyOp20
 70
     1
102
RTVSPropertyOp21
 70
     1
102
RTVSPropertyOp22
 70
     1
102
RTVSPropertyOp23
 70
     1
102
RTVSPropertyOp24
 70
     1
102
RTVSPropertyOp25
 70
     1
102
RTVSPropertyOp26
 70
     1
102
RTVSPropertyOp27
 70
     1
102
RTVSPropertyOp28
 70
     1
102
RTVSPropertyOp29
 70
     1
102
RTVSPropertyOp30
 70
     1
102
RTVSPropertyOp31
 70
     1
102
RTVSPropertyOp32
 70
     1
102
RTVSPropertyOp33
 70
     1
102
RTVSPropertyOp34
 70
     1
102
RTVSPropertyOp35
 70
     1
102
RTVSPropertyOp36
 70
     1
102
RTVSPropertyOp37
 70
     1
102
RTVSPropertyOp38
 70
     1
102
RTVSPropertyOp39
 70
     1
102
RTVSPropertyOp40
 70
     1
102
RTVSPropertyOp41
 70
     1
102
RTVSPropertyOp42
 70
     1
102
RTVSPropertyOp43
 70
     1
102
RTVSPropertyOp44
 70
     1
102
RTVSPropertyOp45
 70
     1
102
RTVSPropertyOp46
 70
     1
102
RTVSPropertyOp47
 70
     1
102
RTVSPropertyOp48
 70
     1
102
RTVSPropertyOp49
 70
     1
102
RTVSPropertyOp50
 70
     1
102
RTVSPropertyOp51
 70
     0
102
RTVSPropertyOp52
 70
     0
102
RTVSPropertyOp53
 70
     1
102
RTVSPropertyOp54
 70
     1
102
RTVSPropertyOp55
 70
     1
102
RTVSPropertyOp56
 70
     1
102
RTVSPropertyOp57
 70
     1
102
RTVSPropertyOp58
 70
     1
102
RTVSPropertyOp59
 70
     1
102
RTVSPropertyOp60
 70
     1
102
RTVSPropertyOp61
 70
     1
102
RTVSPropertyOp62
 70
     1
  0
XRECORD
  5
9DF
102
{ACAD_REACTORS
330
9DE
102
}
330
9DE
100
AcDbXrecord
280
     1
102
RTVSPost2010Prop28
280
     0
102
RTVSPost2010PropOp28
 70
     1
102
RTVSPost2010Prop29
280
     1
102
RTVSPost2010PropOp29
 70
     1
102
RTVSPost2010Prop30
280
     1
102
RTVSPost2010PropOp30
 70
     1
102
RTVSPost2010Prop31
280
     0
102
RTVSPost2010PropOp31
 70
     1
102
RTVSPost2010Prop32
280
     0
102
RTVSPost2010PropOp32
 70
     1
102
RTVSPost2010Prop33
280
     0
102
RTVSPost2010PropOp33
 70
     1
102
RTVSPost2010Prop34
280
     0
102
RTVSPost2010PropOp34
 70
     1
102
RTVSPost2010Prop35
280
     0
102
RTVSPost2010PropOp35
 70
     1
102
RTVSPost2010Prop36
280
     0
102
RTVSPost2010PropOp36
 70
     1
102
RTVSPost2010Prop37
 90
       50
102
RTVSPost2010PropOp37
 70
     1
102
RTVSPost2010Prop38
140
0.0
102
RTVSPost2010PropOp38
 70
     1
102
RTVSPost2010Prop39
140
1.0
102
RTVSPost2010PropOp39
 70
     1
102
RTVSPost2010Prop40
 90
        0
102
RTVSPost2010PropOp40
 70
     1
102
RTVSPost2010Prop41ColorIndex
 90
       18
102
RTVSPost2010Prop41ColorRGB
 90
        0
102
RTVSPost2010PropOp41
 70
     1
102
RTVSPost2010Prop42
 90
       50
102
RTVSPost2010PropOp42
 70
     1
102
RTVSPost2010Prop43
 90
        3
102
RTVSPost2010PropOp43
 70
     1
102
RTVSPost2010Prop44ColorIndex
 90
        5
102
RTVSPost2010Prop44ColorRGB
 90
      255
102
RTVSPost2010PropOp44
 70
     1
102
RTVSPost2010Prop45
280
     0
102
RTVSPost2010PropOp45
 70
     1
102
RTVSPost2010Prop46
 90
       50
102
RTVSPost2010PropOp46
 70
     1
102
RTVSPost2010Prop47
 90
       50
102
RTVSPost2010PropOp47
 70
     1
102
RTVSPost2010Prop48
 90
       50
102
RTVSPost2010PropOp48
 70
     1
102
RTVSPost2010Prop49
280
     0
102
RTVSPost2010PropOp49
 70
     1
102
RTVSPost2010Prop50
 90
       50
102
RTVSPost2010PropOp50
 70
     1
102
RTVSPost2010Prop51ColorIndex
 90
      256
102
RTVSPost2010Prop51ColorRGB
 90
-16777216
102
RTVSPost2010PropOp51
 70
     0
102
RTVSPost2010Prop52
140
1.0
102
RTVSPost2010PropOp52
 70
     0
102
RTVSPost2010Prop53
 90
        2
102
RTVSPost2010PropOp53
 70
     1
102
RTVSPost2010Prop54
  1
strokes_ogs.tif
102
RTVSPost2010PropOp54
 70
     1
102
RTVSPost2010Prop55
280
     0
102
RTVSPost2010PropOp55
 70
     1
102
RTVSPost2010Prop56
140
1.0
102
RTVSPost2010PropOp56
 70
     1
102
RTVSPost2010Prop57
140
1.0
102
RTVSPost2010PropOp57
 70
     1
102
RTVSPropertyOp0
 70
     1
102
RTVSPropertyOp1
 70
     1
102
RTVSPropertyOp2
 70
     1
102
RTVSPropertyOp3
 70
     1
102
RTVSPropertyOp4
 70
     1
102
RTVSPropertyOp5
 70
     1
102
RTVSPropertyOp6
 70
     1
102
RTVSPropertyOp7
 70
     1
102
RTVSPropertyOp8
 70
     1
102
RTVSPropertyOp9
 70
     1
102
RTVSPropertyOp10
 70
     1
102
RTVSPropertyOp11
 70
     1
102
RTVSPropertyOp12
 70
     1
102
RTVSPropertyOp13
 70
     1
102
RTVSPropertyOp14
 70
     1
102
RTVSPropertyOp15
 70
     1
102
RTVSPropertyOp16
 70
     1
102
RTVSPropertyOp17
 70
     1
102
RTVSPropertyOp18
 70
     1
102
RTVSPropertyOp19
 70
     1
102
RTVSPropertyOp20
 70
     1
102
RTVSPropertyOp21
 70
     1
102
RTVSPropertyOp22
 70
     1
102
RTVSPropertyOp23
 70
     1
102
RTVSPropertyOp24
 70
     1
102
RTVSPropertyOp25
 70
     1
102
RTVSPropertyOp26
 70
     1
102
RTVSPropertyOp27
 70
     1
102
RTVSPropertyOp28
 70
     1
102
RTVSPropertyOp29
 70
     1
102
RTVSPropertyOp30
 70
     1
102
RTVSPropertyOp31
 70
     1
102
RTVSPropertyOp32
 70
     1
102
RTVSPropertyOp33
 70
     1
102
RTVSPropertyOp34
 70
     1
102
RTVSPropertyOp35
 70
     1
102
RTVSPropertyOp36
 70
     1
102
RTVSPropertyOp37
 70
     1
102
RTVSPropertyOp38
 70
     1
102
RTVSPropertyOp39
 70
     1
102
RTVSPropertyOp40
 70
     1
102
RTVSPropertyOp41
 70
     1
102
RTVSPropertyOp42
 70
     1
102
RTVSPropertyOp43
 70
     1
102
RTVSPropertyOp44
 70
     1
102
RTVSPropertyOp45
 70
     1
102
RTVSPropertyOp46
 70
     1
102
RTVSPropertyOp47
 70
     1
102
RTVSPropertyOp48
 70
     1
102
RTVSPropertyOp49
 70
     1
102
RTVSPropertyOp50
 70
     1
102
RTVSPropertyOp51
 70
     0
102
RTVSPropertyOp52
 70
     0
102
RTVSPropertyOp53
 70
     1
102
RTVSPropertyOp54
 70
     1
102
RTVSPropertyOp55
 70
     1
102
RTVSPropertyOp56
 70
     1
102
RTVSPropertyOp57
 70
     1
102
RTVSPropertyOp58
 70
     1
102
RTVSPropertyOp59
 70
     1
102
RTVSPropertyOp60
 70
     1
102
RTVSPropertyOp61
 70
     1
102
RTVSPropertyOp62
 70
     1
  0
XRECORD
  5
9E3
102
{ACAD_REACTORS
330
9E2
102
}
330
9E2
100
AcDbXrecord
280
     1
102
RTVSPost2010Prop28
280
     0
102
RTVSPost2010PropOp28
 70
     1
102
RTVSPost2010Prop29
280
     1
102
RTVSPost2010PropOp29
 70
     1
102
RTVSPost2010Prop30
280
     1
102
RTVSPost2010PropOp30
 70
     1
102
RTVSPost2010Prop31
280
     0
102
RTVSPost2010PropOp31
 70
     1
102
RTVSPost2010Prop32
280
     0
102
RTVSPost2010PropOp32
 70
     1
102
RTVSPost2010Prop33
280
     0
102
RTVSPost2010PropOp33
 70
     1
102
RTVSPost2010Prop34
280
     0
102
RTVSPost2010PropOp34
 70
     1
102
RTVSPost2010Prop35
280
     0
102
RTVSPost2010PropOp35
 70
     1
102
RTVSPost2010Prop36
280
     0
102
RTVSPost2010PropOp36
 70
     1
102
RTVSPost2010Prop37
 90
       50
102
RTVSPost2010PropOp37
 70
     1
102
RTVSPost2010Prop38
140
0.0
102
RTVSPost2010PropOp38
 70
     1
102
RTVSPost2010Prop39
140
1.0
102
RTVSPost2010PropOp39
 70
     1
102
RTVSPost2010Prop40
 90
        0
102
RTVSPost2010PropOp40
 70
     1
102
RTVSPost2010Prop41ColorIndex
 90
       18
102
RTVSPost2010Prop41ColorRGB
 90
        0
102
RTVSPost2010PropOp41
 70
     1
102
RTVSPost2010Prop42
 90
       50
102
RTVSPost2010PropOp42
 70
     1
102
RTVSPost2010Prop43
 90
        3
102
RTVSPost2010PropOp43
 70
     1
102
RTVSPost2010Prop44ColorIndex
 90
        5
102
RTVSPost2010Prop44ColorRGB
 90
      255
102
RTVSPost2010PropOp44
 70
     1
102
RTVSPost2010Prop45
280
     0
102
RTVSPost2010PropOp45
 70
     1
102
RTVSPost2010Prop46
 90
       50
102
RTVSPost2010PropOp46
 70
     1
102
RTVSPost2010Prop47
 90
       50
102
RTVSPost2010PropOp47
 70
     1
102
RTVSPost2010Prop48
 90
       50
102
RTVSPost2010PropOp48
 70
     1
102
RTVSPost2010Prop49
280
     0
102
RTVSPost2010PropOp49
 70
     1
102
RTVSPost2010Prop50
 90
       50
102
RTVSPost2010PropOp50
 70
     1
102
RTVSPost2010Prop51ColorIndex
 90
      256
102
RTVSPost2010Prop51ColorRGB
 90
-16777216
102
RTVSPost2010PropOp51
 70
     0
102
RTVSPost2010Prop52
140
1.0
102
RTVSPost2010PropOp52
 70
     0
102
RTVSPost2010Prop53
 90
        2
102
RTVSPost2010PropOp53
 70
     1
102
RTVSPost2010Prop54
  1
strokes_ogs.tif
102
RTVSPost2010PropOp54
 70
     1
102
RTVSPost2010Prop55
280
     0
102
RTVSPost2010PropOp55
 70
     1
102
RTVSPost2010Prop56
140
1.0
102
RTVSPost2010PropOp56
 70
     1
102
RTVSPost2010Prop57
140
1.0
102
RTVSPost2010PropOp57
 70
     1
102
RTVSPropertyOp0
 70
     1
102
RTVSPropertyOp1
 70
     1
102
RTVSPropertyOp2
 70
     1
102
RTVSPropertyOp3
 70
     1
102
RTVSPropertyOp4
 70
     1
102
RTVSPropertyOp5
 70
     1
102
RTVSPropertyOp6
 70
     1
102
RTVSPropertyOp7
 70
     1
102
RTVSPropertyOp8
 70
     1
102
RTVSPropertyOp9
 70
     1
102
RTVSPropertyOp10
 70
     1
102
RTVSPropertyOp11
 70
     1
102
RTVSPropertyOp12
 70
     1
102
RTVSPropertyOp13
 70
     1
102
RTVSPropertyOp14
 70
     1
102
RTVSPropertyOp15
 70
     1
102
RTVSPropertyOp16
 70
     1
102
RTVSPropertyOp17
 70
     1
102
RTVSPropertyOp18
 70
     1
102
RTVSPropertyOp19
 70
     1
102
RTVSPropertyOp20
 70
     1
102
RTVSPropertyOp21
 70
     1
102
RTVSPropertyOp22
 70
     1
102
RTVSPropertyOp23
 70
     1
102
RTVSPropertyOp24
 70
     1
102
RTVSPropertyOp25
 70
     1
102
RTVSPropertyOp26
 70
     1
102
RTVSPropertyOp27
 70
     1
102
RTVSPropertyOp28
 70
     1
102
RTVSPropertyOp29
 70
     1
102
RTVSPropertyOp30
 70
     1
102
RTVSPropertyOp31
 70
     1
102
RTVSPropertyOp32
 70
     1
102
RTVSPropertyOp33
 70
     1
102
RTVSPropertyOp34
 70
     1
102
RTVSPropertyOp35
 70
     1
102
RTVSPropertyOp36
 70
     1
102
RTVSPropertyOp37
 70
     1
102
RTVSPropertyOp38
 70
     1
102
RTVSPropertyOp39
 70
     1
102
RTVSPropertyOp40
 70
     1
102
RTVSPropertyOp41
 70
     1
102
RTVSPropertyOp42
 70
     1
102
RTVSPropertyOp43
 70
     1
102
RTVSPropertyOp44
 70
     1
102
RTVSPropertyOp45
 70
     1
102
RTVSPropertyOp46
 70
     1
102
RTVSPropertyOp47
 70
     1
102
RTVSPropertyOp48
 70
     1
102
RTVSPropertyOp49
 70
     1
102
RTVSPropertyOp50
 70
     1
102
RTVSPropertyOp51
 70
     0
102
RTVSPropertyOp52
 70
     0
102
RTVSPropertyOp53
 70
     1
102
RTVSPropertyOp54
 70
     1
102
RTVSPropertyOp55
 70
     1
102
RTVSPropertyOp56
 70
     1
102
RTVSPropertyOp57
 70
     1
102
RTVSPropertyOp58
 70
     1
102
RTVSPropertyOp59
 70
     1
102
RTVSPropertyOp60
 70
     1
102
RTVSPropertyOp61
 70
     1
102
RTVSPropertyOp62
 70
     1
  0
XRECORD
  5
9FD
102
{ACAD_REACTORS
330
9FC
102
}
330
9FC
100
AcDbXrecord
280
     1
102
RTVSPost2010Prop28
280
     0
102
RTVSPost2010PropOp28
 70
     1
102
RTVSPost2010Prop29
280
     1
102
RTVSPost2010PropOp29
 70
     1
102
RTVSPost2010Prop30
280
     1
102
RTVSPost2010PropOp30
 70
     1
102
RTVSPost2010Prop31
280
     0
102
RTVSPost2010PropOp31
 70
     1
102
RTVSPost2010Prop32
280
     0
102
RTVSPost2010PropOp32
 70
     1
102
RTVSPost2010Prop33
280
     0
102
RTVSPost2010PropOp33
 70
     1
102
RTVSPost2010Prop34
280
     0
102
RTVSPost2010PropOp34
 70
     1
102
RTVSPost2010Prop35
280
     0
102
RTVSPost2010PropOp35
 70
     1
102
RTVSPost2010Prop36
280
     0
102
RTVSPost2010PropOp36
 70
     1
102
RTVSPost2010Prop37
 90
       50
102
RTVSPost2010PropOp37
 70
     0
102
RTVSPost2010Prop38
140
0.0
102
RTVSPost2010PropOp38
 70
     0
102
RTVSPost2010Prop39
140
1.0
102
RTVSPost2010PropOp39
 70
     0
102
RTVSPost2010Prop40
 90
        0
102
RTVSPost2010PropOp40
 70
     0
102
RTVSPost2010Prop41ColorIndex
 90
       18
102
RTVSPost2010Prop41ColorRGB
 90
        0
102
RTVSPost2010PropOp41
 70
     0
102
RTVSPost2010Prop42
 90
       50
102
RTVSPost2010PropOp42
 70
     0
102
RTVSPost2010Prop43
 90
        3
102
RTVSPost2010PropOp43
 70
     0
102
RTVSPost2010Prop44ColorIndex
 90
        5
102
RTVSPost2010Prop44ColorRGB
 90
      255
102
RTVSPost2010PropOp44
 70
     0
102
RTVSPost2010Prop45
280
     0
102
RTVSPost2010PropOp45
 70
     1
102
RTVSPost2010Prop46
 90
       50
102
RTVSPost2010PropOp46
 70
     0
102
RTVSPost2010Prop47
 90
       50
102
RTVSPost2010PropOp47
 70
     0
102
RTVSPost2010Prop48
 90
       50
102
RTVSPost2010PropOp48
 70
     0
102
RTVSPost2010Prop49
280
     0
102
RTVSPost2010PropOp49
 70
     1
102
RTVSPost2010Prop50
 90
       50
102
RTVSPost2010PropOp50
 70
     0
102
RTVSPost2010Prop51ColorIndex
 90
      256
102
RTVSPost2010Prop51ColorRGB
 90
-16777216
102
RTVSPost2010PropOp51
 70
     0
102
RTVSPost2010Prop52
140
1.0
102
RTVSPost2010PropOp52
 70
     0
102
RTVSPost2010Prop53
 90
        2
102
RTVSPost2010PropOp53
 70
     0
102
RTVSPost2010Prop54
  1
strokes_ogs.tif
102
RTVSPost2010PropOp54
 70
     0
102
RTVSPost2010Prop55
280
     0
102
RTVSPost2010PropOp55
 70
     1
102
RTVSPost2010Prop56
140
1.0
102
RTVSPost2010PropOp56
 70
     0
102
RTVSPost2010Prop57
140
1.0
102
RTVSPost2010PropOp57
 70
     0
102
RTVSPropertyOp0
 70
     0
102
RTVSPropertyOp1
 70
     0
102
RTVSPropertyOp2
 70
     0
102
RTVSPropertyOp3
 70
     0
102
RTVSPropertyOp4
 70
     0
102
RTVSPropertyOp5
 70
     0
102
RTVSPropertyOp6
 70
     0
102
RTVSPropertyOp7
 70
     0
102
RTVSPropertyOp8
 70
     0
102
RTVSPropertyOp9
 70
     0
102
RTVSPropertyOp10
 70
     0
102
RTVSPropertyOp11
 70
     0
102
RTVSPropertyOp12
 70
     0
102
RTVSPropertyOp13
 70
     0
102
RTVSPropertyOp14
 70
     2
102
RTVSPropertyOp15
 70
     0
102
RTVSPropertyOp16
 70
     0
102
RTVSPropertyOp17
 70
     0
102
RTVSPropertyOp18
 70
     0
102
RTVSPropertyOp19
 70
     0
102
RTVSPropertyOp20
 70
     0
102
RTVSPropertyOp21
 70
     0
102
RTVSPropertyOp22
 70
     0
102
RTVSPropertyOp23
 70
     0
102
RTVSPropertyOp24
 70
     0
102
RTVSPropertyOp25
 70
     0
102
RTVSPropertyOp26
 70
     0
102
RTVSPropertyOp27
 70
     0
102
RTVSPropertyOp28
 70
     1
102
RTVSPropertyOp29
 70
     1
102
RTVSPropertyOp30
 70
     1
102
RTVSPropertyOp31
 70
     1
102
RTVSPropertyOp32
 70
     1
102
RTVSPropertyOp33
 70
     1
102
RTVSPropertyOp34
 70
     1
102
RTVSPropertyOp35
 70
     1
102
RTVSPropertyOp36
 70
     1
102
RTVSPropertyOp37
 70
     0
102
RTVSPropertyOp38
 70
     0
102
RTVSPropertyOp39
 70
     0
102
RTVSPropertyOp40
 70
     0
102
RTVSPropertyOp41
 70
     0
102
RTVSPropertyOp42
 70
     0
102
RTVSPropertyOp43
 70
     0
102
RTVSPropertyOp44
 70
     0
102
RTVSPropertyOp45
 70
     1
102
RTVSPropertyOp46
 70
     0
102
RTVSPropertyOp47
 70
     0
102
RTVSPropertyOp48
 70
     0
102
RTVSPropertyOp49
 70
     1
102
RTVSPropertyOp50
 70
     0
102
RTVSPropertyOp51
 70
     0
102
RTVSPropertyOp52
 70
     0
102
RTVSPropertyOp53
 70
     0
102
RTVSPropertyOp54
 70
     0
102
RTVSPropertyOp55
 70
     1
102
RTVSPropertyOp56
 70
     0
102
RTVSPropertyOp57
 70
     0
102
RTVSPropertyOp58
 70
     0
102
RTVSPropertyOp59
 70
     0
102
RTVSPropertyOp60
 70
     0
102
RTVSPropertyOp61
 70
     0
102
RTVSPropertyOp62
 70
     0
  0
XRECORD
  5
9EB
102
{ACAD_REACTORS
330
9EA
102
}
330
9EA
100
AcDbXrecord
280
     1
102
RTVSPost2010Prop28
280
     0
102
RTVSPost2010PropOp28
 70
     1
102
RTVSPost2010Prop29
280
     1
102
RTVSPost2010PropOp29
 70
     1
102
RTVSPost2010Prop30
280
     1
102
RTVSPost2010PropOp30
 70
     1
102
RTVSPost2010Prop31
280
     0
102
RTVSPost2010PropOp31
 70
     1
102
RTVSPost2010Prop32
280
     0
102
RTVSPost2010PropOp32
 70
     1
102
RTVSPost2010Prop33
280
     0
102
RTVSPost2010PropOp33
 70
     1
102
RTVSPost2010Prop34
280
     0
102
RTVSPost2010PropOp34
 70
     1
102
RTVSPost2010Prop35
280
     0
102
RTVSPost2010PropOp35
 70
     1
102
RTVSPost2010Prop36
280
     0
102
RTVSPost2010PropOp36
 70
     1
102
RTVSPost2010Prop37
 90
       50
102
RTVSPost2010PropOp37
 70
     1
102
RTVSPost2010Prop38
140
0.0
102
RTVSPost2010PropOp38
 70
     1
102
RTVSPost2010Prop39
140
1.0
102
RTVSPost2010PropOp39
 70
     1
102
RTVSPost2010Prop40
 90
        0
102
RTVSPost2010PropOp40
 70
     1
102
RTVSPost2010Prop41ColorIndex
 90
       18
102
RTVSPost2010Prop41ColorRGB
 90
        0
102
RTVSPost2010PropOp41
 70
     1
102
RTVSPost2010Prop42
 90
       50
102
RTVSPost2010PropOp42
 70
     1
102
RTVSPost2010Prop43
 90
        3
102
RTVSPost2010PropOp43
 70
     1
102
RTVSPost2010Prop44ColorIndex
 90
        5
102
RTVSPost2010Prop44ColorRGB
 90
      255
102
RTVSPost2010PropOp44
 70
     1
102
RTVSPost2010Prop45
280
     0
102
RTVSPost2010PropOp45
 70
     1
102
RTVSPost2010Prop46
 90
       50
102
RTVSPost2010PropOp46
 70
     1
102
RTVSPost2010Prop47
 90
       50
102
RTVSPost2010PropOp47
 70
     1
102
RTVSPost2010Prop48
 90
       50
102
RTVSPost2010PropOp48
 70
     1
102
RTVSPost2010Prop49
280
     0
102
RTVSPost2010PropOp49
 70
     1
102
RTVSPost2010Prop50
 90
       50
102
RTVSPost2010PropOp50
 70
     1
102
RTVSPost2010Prop51ColorIndex
 90
      256
102
RTVSPost2010Prop51ColorRGB
 90
-16777216
102
RTVSPost2010PropOp51
 70
     0
102
RTVSPost2010Prop52
140
1.0
102
RTVSPost2010PropOp52
 70
     0
102
RTVSPost2010Prop53
 90
        2
102
RTVSPost2010PropOp53
 70
     1
102
RTVSPost2010Prop54
  1
strokes_ogs.tif
102
RTVSPost2010PropOp54
 70
     1
102
RTVSPost2010Prop55
280
     0
102
RTVSPost2010PropOp55
 70
     1
102
RTVSPost2010Prop56
140
1.0
102
RTVSPost2010PropOp56
 70
     1
102
RTVSPost2010Prop57
140
1.0
102
RTVSPost2010PropOp57
 70
     1
102
RTVSPropertyOp0
 70
     1
102
RTVSPropertyOp1
 70
     1
102
RTVSPropertyOp2
 70
     1
102
RTVSPropertyOp3
 70
     1
102
RTVSPropertyOp4
 70
     1
102
RTVSPropertyOp5
 70
     1
102
RTVSPropertyOp6
 70
     1
102
RTVSPropertyOp7
 70
     1
102
RTVSPropertyOp8
 70
     1
102
RTVSPropertyOp9
 70
     1
102
RTVSPropertyOp10
 70
     1
102
RTVSPropertyOp11
 70
     1
102
RTVSPropertyOp12
 70
     1
102
RTVSPropertyOp13
 70
     1
102
RTVSPropertyOp14
 70
     1
102
RTVSPropertyOp15
 70
     1
102
RTVSPropertyOp16
 70
     1
102
RTVSPropertyOp17
 70
     1
102
RTVSPropertyOp18
 70
     1
102
RTVSPropertyOp19
 70
     1
102
RTVSPropertyOp20
 70
     1
102
RTVSPropertyOp21
 70
     1
102
RTVSPropertyOp22
 70
     1
102
RTVSPropertyOp23
 70
     1
102
RTVSPropertyOp24
 70
     1
102
RTVSPropertyOp25
 70
     1
102
RTVSPropertyOp26
 70
     1
102
RTVSPropertyOp27
 70
     1
102
RTVSPropertyOp28
 70
     1
102
RTVSPropertyOp29
 70
     1
102
RTVSPropertyOp30
 70
     1
102
RTVSPropertyOp31
 70
     1
102
RTVSPropertyOp32
 70
     1
102
RTVSPropertyOp33
 70
     1
102
RTVSPropertyOp34
 70
     1
102
RTVSPropertyOp35
 70
     1
102
RTVSPropertyOp36
 70
     1
102
RTVSPropertyOp37
 70
     1
102
RTVSPropertyOp38
 70
     1
102
RTVSPropertyOp39
 70
     1
102
RTVSPropertyOp40
 70
     1
102
RTVSPropertyOp41
 70
     1
102
RTVSPropertyOp42
 70
     1
102
RTVSPropertyOp43
 70
     1
102
RTVSPropertyOp44
 70
     1
102
RTVSPropertyOp45
 70
     1
102
RTVSPropertyOp46
 70
     1
102
RTVSPropertyOp47
 70
     1
102
RTVSPropertyOp48
 70
     1
102
RTVSPropertyOp49
 70
     1
102
RTVSPropertyOp50
 70
     1
102
RTVSPropertyOp51
 70
     0
102
RTVSPropertyOp52
 70
     0
102
RTVSPropertyOp53
 70
     1
102
RTVSPropertyOp54
 70
     1
102
RTVSPropertyOp55
 70
     1
102
RTVSPropertyOp56
 70
     1
102
RTVSPropertyOp57
 70
     1
102
RTVSPropertyOp58
 70
     1
102
RTVSPropertyOp59
 70
     1
102
RTVSPropertyOp60
 70
     1
102
RTVSPropertyOp61
 70
     1
102
RTVSPropertyOp62
 70
     1
  0
XRECORD
  5
9CF
102
{ACAD_REACTORS
330
9CE
102
}
330
9CE
100
AcDbXrecord
280
     1
102
RTVSPost2010Prop28
280
     0
102
RTVSPost2010PropOp28
 70
     1
102
RTVSPost2010Prop29
280
     1
102
RTVSPost2010PropOp29
 70
     1
102
RTVSPost2010Prop30
280
     1
102
RTVSPost2010PropOp30
 70
     1
102
RTVSPost2010Prop31
280
     0
102
RTVSPost2010PropOp31
 70
     1
102
RTVSPost2010Prop32
280
     0
102
RTVSPost2010PropOp32
 70
     1
102
RTVSPost2010Prop33
280
     0
102
RTVSPost2010PropOp33
 70
     1
102
RTVSPost2010Prop34
280
     0
102
RTVSPost2010PropOp34
 70
     1
102
RTVSPost2010Prop35
280
     0
102
RTVSPost2010PropOp35
 70
     1
102
RTVSPost2010Prop36
280
     0
102
RTVSPost2010PropOp36
 70
     1
102
RTVSPost2010Prop37
 90
       50
102
RTVSPost2010PropOp37
 70
     1
102
RTVSPost2010Prop38
140
0.0
102
RTVSPost2010PropOp38
 70
     1
102
RTVSPost2010Prop39
140
1.0
102
RTVSPost2010PropOp39
 70
     1
102
RTVSPost2010Prop40
 90
        0
102
RTVSPost2010PropOp40
 70
     1
102
RTVSPost2010Prop41ColorIndex
 90
       18
102
RTVSPost2010Prop41ColorRGB
 90
        0
102
RTVSPost2010PropOp41
 70
     1
102
RTVSPost2010Prop42
 90
       50
102
RTVSPost2010PropOp42
 70
     1
102
RTVSPost2010Prop43
 90
        3
102
RTVSPost2010PropOp43
 70
     1
102
RTVSPost2010Prop44ColorIndex
 90
        5
102
RTVSPost2010Prop44ColorRGB
 90
      255
102
RTVSPost2010PropOp44
 70
     1
102
RTVSPost2010Prop45
280
     0
102
RTVSPost2010PropOp45
 70
     1
102
RTVSPost2010Prop46
 90
       50
102
RTVSPost2010PropOp46
 70
     1
102
RTVSPost2010Prop47
 90
       50
102
RTVSPost2010PropOp47
 70
     1
102
RTVSPost2010Prop48
 90
       50
102
RTVSPost2010PropOp48
 70
     1
102
RTVSPost2010Prop49
280
     0
102
RTVSPost2010PropOp49
 70
     1
102
RTVSPost2010Prop50
 90
       50
102
RTVSPost2010PropOp50
 70
     1
102
RTVSPost2010Prop51ColorIndex
 90
      256
102
RTVSPost2010Prop51ColorRGB
 90
-16777216
102
RTVSPost2010PropOp51
 70
     0
102
RTVSPost2010Prop52
140
1.0
102
RTVSPost2010PropOp52
 70
     0
102
RTVSPost2010Prop53
 90
        2
102
RTVSPost2010PropOp53
 70
     1
102
RTVSPost2010Prop54
  1
strokes_ogs.tif
102
RTVSPost2010PropOp54
 70
     1
102
RTVSPost2010Prop55
280
     0
102
RTVSPost2010PropOp55
 70
     1
102
RTVSPost2010Prop56
140
1.0
102
RTVSPost2010PropOp56
 70
     1
102
RTVSPost2010Prop57
140
1.0
102
RTVSPost2010PropOp57
 70
     1
102
RTVSPropertyOp0
 70
     1
102
RTVSPropertyOp1
 70
     1
102
RTVSPropertyOp2
 70
     1
102
RTVSPropertyOp3
 70
     1
102
RTVSPropertyOp4
 70
     1
102
RTVSPropertyOp5
 70
     1
102
RTVSPropertyOp6
 70
     1
102
RTVSPropertyOp7
 70
     1
102
RTVSPropertyOp8
 70
     1
102
RTVSPropertyOp9
 70
     1
102
RTVSPropertyOp10
 70
     1
102
RTVSPropertyOp11
 70
     1
102
RTVSPropertyOp12
 70
     1
102
RTVSPropertyOp13
 70
     1
102
RTVSPropertyOp14
 70
     1
102
RTVSPropertyOp15
 70
     1
102
RTVSPropertyOp16
 70
     1
102
RTVSPropertyOp17
 70
     1
102
RTVSPropertyOp18
 70
     1
102
RTVSPropertyOp19
 70
     1
102
RTVSPropertyOp20
 70
     1
102
RTVSPropertyOp21
 70
     1
102
RTVSPropertyOp22
 70
     1
102
RTVSPropertyOp23
 70
     1
102
RTVSPropertyOp24
 70
     1
102
RTVSPropertyOp25
 70
     1
102
RTVSPropertyOp26
 70
     1
102
RTVSPropertyOp27
 70
     1
102
RTVSPropertyOp28
 70
     1
102
RTVSPropertyOp29
 70
     1
102
RTVSPropertyOp30
 70
     1
102
RTVSPropertyOp31
 70
     1
102
RTVSPropertyOp32
 70
     1
102
RTVSPropertyOp33
 70
     1
102
RTVSPropertyOp34
 70
     1
102
RTVSPropertyOp35
 70
     1
102
RTVSPropertyOp36
 70
     1
102
RTVSPropertyOp37
 70
     1
102
RTVSPropertyOp38
 70
     1
102
RTVSPropertyOp39
 70
     1
102
RTVSPropertyOp40
 70
     1
102
RTVSPropertyOp41
 70
     1
102
RTVSPropertyOp42
 70
     1
102
RTVSPropertyOp43
 70
     1
102
RTVSPropertyOp44
 70
     1
102
RTVSPropertyOp45
 70
     1
102
RTVSPropertyOp46
 70
     1
102
RTVSPropertyOp47
 70
     1
102
RTVSPropertyOp48
 70
     1
102
RTVSPropertyOp49
 70
     1
102
RTVSPropertyOp50
 70
     1
102
RTVSPropertyOp51
 70
     0
102
RTVSPropertyOp52
 70
     0
102
RTVSPropertyOp53
 70
     1
102
RTVSPropertyOp54
 70
     1
102
RTVSPropertyOp55
 70
     1
102
RTVSPropertyOp56
 70
     1
102
RTVSPropertyOp57
 70
     1
102
RTVSPropertyOp58
 70
     1
102
RTVSPropertyOp59
 70
     1
102
RTVSPropertyOp60
 70
     1
102
RTVSPropertyOp61
 70
     1
102
RTVSPropertyOp62
 70
     1
  0
XRECORD
  5
9D1
102
{ACAD_REACTORS
330
9D0
102
}
330
9D0
100
AcDbXrecord
280
     1
102
RTVSPost2010Prop28
280
     0
102
RTVSPost2010PropOp28
 70
     1
102
RTVSPost2010Prop29
280
     1
102
RTVSPost2010PropOp29
 70
     1
102
RTVSPost2010Prop30
280
     1
102
RTVSPost2010PropOp30
 70
     1
102
RTVSPost2010Prop31
280
     0
102
RTVSPost2010PropOp31
 70
     1
102
RTVSPost2010Prop32
280
     0
102
RTVSPost2010PropOp32
 70
     1
102
RTVSPost2010Prop33
280
     0
102
RTVSPost2010PropOp33
 70
     1
102
RTVSPost2010Prop34
280
     0
102
RTVSPost2010PropOp34
 70
     1
102
RTVSPost2010Prop35
280
     0
102
RTVSPost2010PropOp35
 70
     1
102
RTVSPost2010Prop36
280
     0
102
RTVSPost2010PropOp36
 70
     1
102
RTVSPost2010Prop37
 90
       50
102
RTVSPost2010PropOp37
 70
     1
102
RTVSPost2010Prop38
140
0.0
102
RTVSPost2010PropOp38
 70
     1
102
RTVSPost2010Prop39
140
1.0
102
RTVSPost2010PropOp39
 70
     1
102
RTVSPost2010Prop40
 90
        0
102
RTVSPost2010PropOp40
 70
     1
102
RTVSPost2010Prop41ColorIndex
 90
       18
102
RTVSPost2010Prop41ColorRGB
 90
        0
102
RTVSPost2010PropOp41
 70
     1
102
RTVSPost2010Prop42
 90
       50
102
RTVSPost2010PropOp42
 70
     1
102
RTVSPost2010Prop43
 90
        3
102
RTVSPost2010PropOp43
 70
     1
102
RTVSPost2010Prop44ColorIndex
 90
        5
102
RTVSPost2010Prop44ColorRGB
 90
      255
102
RTVSPost2010PropOp44
 70
     1
102
RTVSPost2010Prop45
280
     0
102
RTVSPost2010PropOp45
 70
     1
102
RTVSPost2010Prop46
 90
       50
102
RTVSPost2010PropOp46
 70
     1
102
RTVSPost2010Prop47
 90
       50
102
RTVSPost2010PropOp47
 70
     1
102
RTVSPost2010Prop48
 90
       50
102
RTVSPost2010PropOp48
 70
     1
102
RTVSPost2010Prop49
280
     0
102
RTVSPost2010PropOp49
 70
     1
102
RTVSPost2010Prop50
 90
       50
102
RTVSPost2010PropOp50
 70
     1
102
RTVSPost2010Prop51ColorIndex
 90
      256
102
RTVSPost2010Prop51ColorRGB
 90
-16777216
102
RTVSPost2010PropOp51
 70
     0
102
RTVSPost2010Prop52
140
1.0
102
RTVSPost2010PropOp52
 70
     0
102
RTVSPost2010Prop53
 90
        2
102
RTVSPost2010PropOp53
 70
     1
102
RTVSPost2010Prop54
  1
strokes_ogs.tif
102
RTVSPost2010PropOp54
 70
     1
102
RTVSPost2010Prop55
280
     0
102
RTVSPost2010PropOp55
 70
     1
102
RTVSPost2010Prop56
140
1.0
102
RTVSPost2010PropOp56
 70
     1
102
RTVSPost2010Prop57
140
1.0
102
RTVSPost2010PropOp57
 70
     1
102
RTVSPropertyOp0
 70
     1
102
RTVSPropertyOp1
 70
     1
102
RTVSPropertyOp2
 70
     1
102
RTVSPropertyOp3
 70
     1
102
RTVSPropertyOp4
 70
     1
102
RTVSPropertyOp5
 70
     1
102
RTVSPropertyOp6
 70
     1
102
RTVSPropertyOp7
 70
     1
102
RTVSPropertyOp8
 70
     1
102
RTVSPropertyOp9
 70
     1
102
RTVSPropertyOp10
 70
     1
102
RTVSPropertyOp11
 70
     1
102
RTVSPropertyOp12
 70
     1
102
RTVSPropertyOp13
 70
     1
102
RTVSPropertyOp14
 70
     1
102
RTVSPropertyOp15
 70
     1
102
RTVSPropertyOp16
 70
     1
102
RTVSPropertyOp17
 70
     1
102
RTVSPropertyOp18
 70
     1
102
RTVSPropertyOp19
 70
     1
102
RTVSPropertyOp20
 70
     1
102
RTVSPropertyOp21
 70
     1
102
RTVSPropertyOp22
 70
     1
102
RTVSPropertyOp23
 70
     1
102
RTVSPropertyOp24
 70
     1
102
RTVSPropertyOp25
 70
     1
102
RTVSPropertyOp26
 70
     1
102
RTVSPropertyOp27
 70
     1
102
RTVSPropertyOp28
 70
     1
102
RTVSPropertyOp29
 70
     1
102
RTVSPropertyOp30
 70
     1
102
RTVSPropertyOp31
 70
     1
102
RTVSPropertyOp32
 70
     1
102
RTVSPropertyOp33
 70
     1
102
RTVSPropertyOp34
 70
     1
102
RTVSPropertyOp35
 70
     1
102
RTVSPropertyOp36
 70
     1
102
RTVSPropertyOp37
 70
     1
102
RTVSPropertyOp38
 70
     1
102
RTVSPropertyOp39
 70
     1
102
RTVSPropertyOp40
 70
     1
102
RTVSPropertyOp41
 70
     1
102
RTVSPropertyOp42
 70
     1
102
RTVSPropertyOp43
 70
     1
102
RTVSPropertyOp44
 70
     1
102
RTVSPropertyOp45
 70
     1
102
RTVSPropertyOp46
 70
     1
102
RTVSPropertyOp47
 70
     1
102
RTVSPropertyOp48
 70
     1
102
RTVSPropertyOp49
 70
     1
102
RTVSPropertyOp50
 70
     1
102
RTVSPropertyOp51
 70
     0
102
RTVSPropertyOp52
 70
     0
102
RTVSPropertyOp53
 70
     1
102
RTVSPropertyOp54
 70
     1
102
RTVSPropertyOp55
 70
     1
102
RTVSPropertyOp56
 70
     1
102
RTVSPropertyOp57
 70
     1
102
RTVSPropertyOp58
 70
     1
102
RTVSPropertyOp59
 70
     1
102
RTVSPropertyOp60
 70
     1
102
RTVSPropertyOp61
 70
     1
102
RTVSPropertyOp62
 70
     1
  0
XRECORD
  5
9D3
102
{ACAD_REACTORS
330
9D2
102
}
330
9D2
100
AcDbXrecord
280
     1
102
RTVSPost2010Prop28
280
     0
102
RTVSPost2010PropOp28
 70
     1
102
RTVSPost2010Prop29
280
     1
102
RTVSPost2010PropOp29
 70
     1
102
RTVSPost2010Prop30
280
     1
102
RTVSPost2010PropOp30
 70
     1
102
RTVSPost2010Prop31
280
     0
102
RTVSPost2010PropOp31
 70
     1
102
RTVSPost2010Prop32
280
     0
102
RTVSPost2010PropOp32
 70
     1
102
RTVSPost2010Prop33
280
     0
102
RTVSPost2010PropOp33
 70
     1
102
RTVSPost2010Prop34
280
     0
102
RTVSPost2010PropOp34
 70
     1
102
RTVSPost2010Prop35
280
     0
102
RTVSPost2010PropOp35
 70
     1
102
RTVSPost2010Prop36
280
     0
102
RTVSPost2010PropOp36
 70
     1
102
RTVSPost2010Prop37
 90
       50
102
RTVSPost2010PropOp37
 70
     1
102
RTVSPost2010Prop38
140
0.0
102
RTVSPost2010PropOp38
 70
     1
102
RTVSPost2010Prop39
140
1.0
102
RTVSPost2010PropOp39
 70
     1
102
RTVSPost2010Prop40
 90
        0
102
RTVSPost2010PropOp40
 70
     1
102
RTVSPost2010Prop41ColorIndex
 90
       18
102
RTVSPost2010Prop41ColorRGB
 90
        0
102
RTVSPost2010PropOp41
 70
     1
102
RTVSPost2010Prop42
 90
       50
102
RTVSPost2010PropOp42
 70
     1
102
RTVSPost2010Prop43
 90
        3
102
RTVSPost2010PropOp43
 70
     1
102
RTVSPost2010Prop44ColorIndex
 90
        5
102
RTVSPost2010Prop44ColorRGB
 90
      255
102
RTVSPost2010PropOp44
 70
     1
102
RTVSPost2010Prop45
280
     0
102
RTVSPost2010PropOp45
 70
     1
102
RTVSPost2010Prop46
 90
       50
102
RTVSPost2010PropOp46
 70
     1
102
RTVSPost2010Prop47
 90
       50
102
RTVSPost2010PropOp47
 70
     1
102
RTVSPost2010Prop48
 90
       50
102
RTVSPost2010PropOp48
 70
     1
102
RTVSPost2010Prop49
280
     0
102
RTVSPost2010PropOp49
 70
     1
102
RTVSPost2010Prop50
 90
       50
102
RTVSPost2010PropOp50
 70
     1
102
RTVSPost2010Prop51ColorIndex
 90
      256
102
RTVSPost2010Prop51ColorRGB
 90
-16777216
102
RTVSPost2010PropOp51
 70
     0
102
RTVSPost2010Prop52
140
1.0
102
RTVSPost2010PropOp52
 70
     0
102
RTVSPost2010Prop53
 90
        2
102
RTVSPost2010PropOp53
 70
     1
102
RTVSPost2010Prop54
  1
strokes_ogs.tif
102
RTVSPost2010PropOp54
 70
     1
102
RTVSPost2010Prop55
280
     0
102
RTVSPost2010PropOp55
 70
     1
102
RTVSPost2010Prop56
140
1.0
102
RTVSPost2010PropOp56
 70
     1
102
RTVSPost2010Prop57
140
1.0
102
RTVSPost2010PropOp57
 70
     1
102
RTVSPropertyOp0
 70
     1
102
RTVSPropertyOp1
 70
     1
102
RTVSPropertyOp2
 70
     1
102
RTVSPropertyOp3
 70
     1
102
RTVSPropertyOp4
 70
     1
102
RTVSPropertyOp5
 70
     1
102
RTVSPropertyOp6
 70
     1
102
RTVSPropertyOp7
 70
     1
102
RTVSPropertyOp8
 70
     1
102
RTVSPropertyOp9
 70
     1
102
RTVSPropertyOp10
 70
     1
102
RTVSPropertyOp11
 70
     1
102
RTVSPropertyOp12
 70
     1
102
RTVSPropertyOp13
 70
     1
102
RTVSPropertyOp14
 70
     1
102
RTVSPropertyOp15
 70
     1
102
RTVSPropertyOp16
 70
     1
102
RTVSPropertyOp17
 70
     1
102
RTVSPropertyOp18
 70
     1
102
RTVSPropertyOp19
 70
     1
102
RTVSPropertyOp20
 70
     1
102
RTVSPropertyOp21
 70
     1
102
RTVSPropertyOp22
 70
     1
102
RTVSPropertyOp23
 70
     1
102
RTVSPropertyOp24
 70
     1
102
RTVSPropertyOp25
 70
     1
102
RTVSPropertyOp26
 70
     1
102
RTVSPropertyOp27
 70
     1
102
RTVSPropertyOp28
 70
     1
102
RTVSPropertyOp29
 70
     1
102
RTVSPropertyOp30
 70
     1
102
RTVSPropertyOp31
 70
     1
102
RTVSPropertyOp32
 70
     1
102
RTVSPropertyOp33
 70
     1
102
RTVSPropertyOp34
 70
     1
102
RTVSPropertyOp35
 70
     1
102
RTVSPropertyOp36
 70
     1
102
RTVSPropertyOp37
 70
     1
102
RTVSPropertyOp38
 70
     1
102
RTVSPropertyOp39
 70
     1
102
RTVSPropertyOp40
 70
     1
102
RTVSPropertyOp41
 70
     1
102
RTVSPropertyOp42
 70
     1
102
RTVSPropertyOp43
 70
     1
102
RTVSPropertyOp44
 70
     1
102
RTVSPropertyOp45
 70
     1
102
RTVSPropertyOp46
 70
     1
102
RTVSPropertyOp47
 70
     1
102
RTVSPropertyOp48
 70
     1
102
RTVSPropertyOp49
 70
     1
102
RTVSPropertyOp50
 70
     1
102
RTVSPropertyOp51
 70
     0
102
RTVSPropertyOp52
 70
     0
102
RTVSPropertyOp53
 70
     1
102
RTVSPropertyOp54
 70
     1
102
RTVSPropertyOp55
 70
     1
102
RTVSPropertyOp56
 70
     1
102
RTVSPropertyOp57
 70
     1
102
RTVSPropertyOp58
 70
     1
102
RTVSPropertyOp59
 70
     1
102
RTVSPropertyOp60
 70
     1
102
RTVSPropertyOp61
 70
     1
102
RTVSPropertyOp62
 70
     1
  0
XRECORD
  5
9D5
102
{ACAD_REACTORS
330
9D4
102
}
330
9D4
100
AcDbXrecord
280
     1
102
RTVSPost2010Prop28
280
     0
102
RTVSPost2010PropOp28
 70
     1
102
RTVSPost2010Prop29
280
     1
102
RTVSPost2010PropOp29
 70
     1
102
RTVSPost2010Prop30
280
     1
102
RTVSPost2010PropOp30
 70
     1
102
RTVSPost2010Prop31
280
     0
102
RTVSPost2010PropOp31
 70
     1
102
RTVSPost2010Prop32
280
     0
102
RTVSPost2010PropOp32
 70
     1
102
RTVSPost2010Prop33
280
     0
102
RTVSPost2010PropOp33
 70
     1
102
RTVSPost2010Prop34
280
     0
102
RTVSPost2010PropOp34
 70
     1
102
RTVSPost2010Prop35
280
     0
102
RTVSPost2010PropOp35
 70
     1
102
RTVSPost2010Prop36
280
     0
102
RTVSPost2010PropOp36
 70
     1
102
RTVSPost2010Prop37
 90
       50
102
RTVSPost2010PropOp37
 70
     1
102
RTVSPost2010Prop38
140
0.0
102
RTVSPost2010PropOp38
 70
     1
102
RTVSPost2010Prop39
140
1.0
102
RTVSPost2010PropOp39
 70
     1
102
RTVSPost2010Prop40
 90
        0
102
RTVSPost2010PropOp40
 70
     1
102
RTVSPost2010Prop41ColorIndex
 90
       18
102
RTVSPost2010Prop41ColorRGB
 90
        0
102
RTVSPost2010PropOp41
 70
     1
102
RTVSPost2010Prop42
 90
       50
102
RTVSPost2010PropOp42
 70
     1
102
RTVSPost2010Prop43
 90
        3
102
RTVSPost2010PropOp43
 70
     1
102
RTVSPost2010Prop44ColorIndex
 90
        5
102
RTVSPost2010Prop44ColorRGB
 90
      255
102
RTVSPost2010PropOp44
 70
     1
102
RTVSPost2010Prop45
280
     0
102
RTVSPost2010PropOp45
 70
     1
102
RTVSPost2010Prop46
 90
       50
102
RTVSPost2010PropOp46
 70
     1
102
RTVSPost2010Prop47
 90
       50
102
RTVSPost2010PropOp47
 70
     1
102
RTVSPost2010Prop48
 90
       50
102
RTVSPost2010PropOp48
 70
     1
102
RTVSPost2010Prop49
280
     0
102
RTVSPost2010PropOp49
 70
     1
102
RTVSPost2010Prop50
 90
       50
102
RTVSPost2010PropOp50
 70
     1
102
RTVSPost2010Prop51ColorIndex
 90
      256
102
RTVSPost2010Prop51ColorRGB
 90
-16777216
102
RTVSPost2010PropOp51
 70
     0
102
RTVSPost2010Prop52
140
1.0
102
RTVSPost2010PropOp52
 70
     0
102
RTVSPost2010Prop53
 90
        2
102
RTVSPost2010PropOp53
 70
     1
102
RTVSPost2010Prop54
  1
strokes_ogs.tif
102
RTVSPost2010PropOp54
 70
     1
102
RTVSPost2010Prop55
280
     0
102
RTVSPost2010PropOp55
 70
     1
102
RTVSPost2010Prop56
140
1.0
102
RTVSPost2010PropOp56
 70
     1
102
RTVSPost2010Prop57
140
1.0
102
RTVSPost2010PropOp57
 70
     1
102
RTVSPropertyOp0
 70
     1
102
RTVSPropertyOp1
 70
     1
102
RTVSPropertyOp2
 70
     1
102
RTVSPropertyOp3
 70
     1
102
RTVSPropertyOp4
 70
     1
102
RTVSPropertyOp5
 70
     1
102
RTVSPropertyOp6
 70
     1
102
RTVSPropertyOp7
 70
     1
102
RTVSPropertyOp8
 70
     1
102
RTVSPropertyOp9
 70
     1
102
RTVSPropertyOp10
 70
     1
102
RTVSPropertyOp11
 70
     1
102
RTVSPropertyOp12
 70
     1
102
RTVSPropertyOp13
 70
     1
102
RTVSPropertyOp14
 70
     1
102
RTVSPropertyOp15
 70
     1
102
RTVSPropertyOp16
 70
     1
102
RTVSPropertyOp17
 70
     1
102
RTVSPropertyOp18
 70
     1
102
RTVSPropertyOp19
 70
     1
102
RTVSPropertyOp20
 70
     1
102
RTVSPropertyOp21
 70
     1
102
RTVSPropertyOp22
 70
     1
102
RTVSPropertyOp23
 70
     1
102
RTVSPropertyOp24
 70
     1
102
RTVSPropertyOp25
 70
     1
102
RTVSPropertyOp26
 70
     1
102
RTVSPropertyOp27
 70
     1
102
RTVSPropertyOp28
 70
     1
102
RTVSPropertyOp29
 70
     1
102
RTVSPropertyOp30
 70
     1
102
RTVSPropertyOp31
 70
     1
102
RTVSPropertyOp32
 70
     1
102
RTVSPropertyOp33
 70
     1
102
RTVSPropertyOp34
 70
     1
102
RTVSPropertyOp35
 70
     1
102
RTVSPropertyOp36
 70
     1
102
RTVSPropertyOp37
 70
     1
102
RTVSPropertyOp38
 70
     1
102
RTVSPropertyOp39
 70
     1
102
RTVSPropertyOp40
 70
     1
102
RTVSPropertyOp41
 70
     1
102
RTVSPropertyOp42
 70
     1
102
RTVSPropertyOp43
 70
     1
102
RTVSPropertyOp44
 70
     1
102
RTVSPropertyOp45
 70
     1
102
RTVSPropertyOp46
 70
     1
102
RTVSPropertyOp47
 70
     1
102
RTVSPropertyOp48
 70
     1
102
RTVSPropertyOp49
 70
     1
102
RTVSPropertyOp50
 70
     1
102
RTVSPropertyOp51
 70
     0
102
RTVSPropertyOp52
 70
     0
102
RTVSPropertyOp53
 70
     1
102
RTVSPropertyOp54
 70
     1
102
RTVSPropertyOp55
 70
     1
102
RTVSPropertyOp56
 70
     1
102
RTVSPropertyOp57
 70
     1
102
RTVSPropertyOp58
 70
     1
102
RTVSPropertyOp59
 70
     1
102
RTVSPropertyOp60
 70
     1
102
RTVSPropertyOp61
 70
     1
102
RTVSPropertyOp62
 70
     1
  0
XRECORD
  5
9DD
102
{ACAD_REACTORS
330
9DC
102
}
330
9DC
100
AcDbXrecord
280
     1
102
RTVSPost2010Prop28
280
     0
102
RTVSPost2010PropOp28
 70
     1
102
RTVSPost2010Prop29
280
     1
102
RTVSPost2010PropOp29
 70
     1
102
RTVSPost2010Prop30
280
     1
102
RTVSPost2010PropOp30
 70
     1
102
RTVSPost2010Prop31
280
     0
102
RTVSPost2010PropOp31
 70
     1
102
RTVSPost2010Prop32
280
     0
102
RTVSPost2010PropOp32
 70
     1
102
RTVSPost2010Prop33
280
     0
102
RTVSPost2010PropOp33
 70
     1
102
RTVSPost2010Prop34
280
     0
102
RTVSPost2010PropOp34
 70
     1
102
RTVSPost2010Prop35
280
     0
102
RTVSPost2010PropOp35
 70
     1
102
RTVSPost2010Prop36
280
     0
102
RTVSPost2010PropOp36
 70
     1
102
RTVSPost2010Prop37
 90
       50
102
RTVSPost2010PropOp37
 70
     1
102
RTVSPost2010Prop38
140
0.0
102
RTVSPost2010PropOp38
 70
     1
102
RTVSPost2010Prop39
140
1.0
102
RTVSPost2010PropOp39
 70
     1
102
RTVSPost2010Prop40
 90
        0
102
RTVSPost2010PropOp40
 70
     1
102
RTVSPost2010Prop41ColorIndex
 90
       18
102
RTVSPost2010Prop41ColorRGB
 90
        0
102
RTVSPost2010PropOp41
 70
     1
102
RTVSPost2010Prop42
 90
       50
102
RTVSPost2010PropOp42
 70
     1
102
RTVSPost2010Prop43
 90
        3
102
RTVSPost2010PropOp43
 70
     1
102
RTVSPost2010Prop44ColorIndex
 90
        5
102
RTVSPost2010Prop44ColorRGB
 90
      255
102
RTVSPost2010PropOp44
 70
     1
102
RTVSPost2010Prop45
280
     0
102
RTVSPost2010PropOp45
 70
     1
102
RTVSPost2010Prop46
 90
       50
102
RTVSPost2010PropOp46
 70
     1
102
RTVSPost2010Prop47
 90
       50
102
RTVSPost2010PropOp47
 70
     1
102
RTVSPost2010Prop48
 90
       50
102
RTVSPost2010PropOp48
 70
     1
102
RTVSPost2010Prop49
280
     0
102
RTVSPost2010PropOp49
 70
     1
102
RTVSPost2010Prop50
 90
       50
102
RTVSPost2010PropOp50
 70
     1
102
RTVSPost2010Prop51ColorIndex
 90
      256
102
RTVSPost2010Prop51ColorRGB
 90
-16777216
102
RTVSPost2010PropOp51
 70
     0
102
RTVSPost2010Prop52
140
1.0
102
RTVSPost2010PropOp52
 70
     0
102
RTVSPost2010Prop53
 90
        2
102
RTVSPost2010PropOp53
 70
     1
102
RTVSPost2010Prop54
  1
strokes_ogs.tif
102
RTVSPost2010PropOp54
 70
     1
102
RTVSPost2010Prop55
280
     0
102
RTVSPost2010PropOp55
 70
     1
102
RTVSPost2010Prop56
140
1.0
102
RTVSPost2010PropOp56
 70
     1
102
RTVSPost2010Prop57
140
1.0
102
RTVSPost2010PropOp57
 70
     1
102
RTVSPropertyOp0
 70
     1
102
RTVSPropertyOp1
 70
     1
102
RTVSPropertyOp2
 70
     1
102
RTVSPropertyOp3
 70
     1
102
RTVSPropertyOp4
 70
     1
102
RTVSPropertyOp5
 70
     1
102
RTVSPropertyOp6
 70
     1
102
RTVSPropertyOp7
 70
     1
102
RTVSPropertyOp8
 70
     1
102
RTVSPropertyOp9
 70
     1
102
RTVSPropertyOp10
 70
     1
102
RTVSPropertyOp11
 70
     1
102
RTVSPropertyOp12
 70
     1
102
RTVSPropertyOp13
 70
     1
102
RTVSPropertyOp14
 70
     1
102
RTVSPropertyOp15
 70
     1
102
RTVSPropertyOp16
 70
     1
102
RTVSPropertyOp17
 70
     1
102
RTVSPropertyOp18
 70
     1
102
RTVSPropertyOp19
 70
     1
102
RTVSPropertyOp20
 70
     1
102
RTVSPropertyOp21
 70
     1
102
RTVSPropertyOp22
 70
     1
102
RTVSPropertyOp23
 70
     1
102
RTVSPropertyOp24
 70
     1
102
RTVSPropertyOp25
 70
     1
102
RTVSPropertyOp26
 70
     1
102
RTVSPropertyOp27
 70
     1
102
RTVSPropertyOp28
 70
     1
102
RTVSPropertyOp29
 70
     1
102
RTVSPropertyOp30
 70
     1
102
RTVSPropertyOp31
 70
     1
102
RTVSPropertyOp32
 70
     1
102
RTVSPropertyOp33
 70
     1
102
RTVSPropertyOp34
 70
     1
102
RTVSPropertyOp35
 70
     1
102
RTVSPropertyOp36
 70
     1
102
RTVSPropertyOp37
 70
     1
102
RTVSPropertyOp38
 70
     1
102
RTVSPropertyOp39
 70
     1
102
RTVSPropertyOp40
 70
     1
102
RTVSPropertyOp41
 70
     1
102
RTVSPropertyOp42
 70
     1
102
RTVSPropertyOp43
 70
     1
102
RTVSPropertyOp44
 70
     1
102
RTVSPropertyOp45
 70
     1
102
RTVSPropertyOp46
 70
     1
102
RTVSPropertyOp47
 70
     1
102
RTVSPropertyOp48
 70
     1
102
RTVSPropertyOp49
 70
     1
102
RTVSPropertyOp50
 70
     1
102
RTVSPropertyOp51
 70
     0
102
RTVSPropertyOp52
 70
     0
102
RTVSPropertyOp53
 70
     1
102
RTVSPropertyOp54
 70
     1
102
RTVSPropertyOp55
 70
     1
102
RTVSPropertyOp56
 70
     1
102
RTVSPropertyOp57
 70
     1
102
RTVSPropertyOp58
 70
     1
102
RTVSPropertyOp59
 70
     1
102
RTVSPropertyOp60
 70
     1
102
RTVSPropertyOp61
 70
     1
102
RTVSPropertyOp62
 70
     1
  0
XRECORD
  5
9F9
102
{ACAD_REACTORS
330
9F8
102
}
330
9F8
100
AcDbXrecord
280
     1
102
RTVSPost2010Prop28
280
     0
102
RTVSPost2010PropOp28
 70
     1
102
RTVSPost2010Prop29
280
     1
102
RTVSPost2010PropOp29
 70
     1
102
RTVSPost2010Prop30
280
     1
102
RTVSPost2010PropOp30
 70
     1
102
RTVSPost2010Prop31
280
     0
102
RTVSPost2010PropOp31
 70
     1
102
RTVSPost2010Prop32
280
     0
102
RTVSPost2010PropOp32
 70
     1
102
RTVSPost2010Prop33
280
     0
102
RTVSPost2010PropOp33
 70
     1
102
RTVSPost2010Prop34
280
     0
102
RTVSPost2010PropOp34
 70
     1
102
RTVSPost2010Prop35
280
     0
102
RTVSPost2010PropOp35
 70
     1
102
RTVSPost2010Prop36
280
     0
102
RTVSPost2010PropOp36
 70
     1
102
RTVSPost2010Prop37
 90
       50
102
RTVSPost2010PropOp37
 70
     0
102
RTVSPost2010Prop38
140
0.0
102
RTVSPost2010PropOp38
 70
     0
102
RTVSPost2010Prop39
140
1.0
102
RTVSPost2010PropOp39
 70
     0
102
RTVSPost2010Prop40
 90
        0
102
RTVSPost2010PropOp40
 70
     0
102
RTVSPost2010Prop41ColorIndex
 90
       18
102
RTVSPost2010Prop41ColorRGB
 90
        0
102
RTVSPost2010PropOp41
 70
     0
102
RTVSPost2010Prop42
 90
       50
102
RTVSPost2010PropOp42
 70
     0
102
RTVSPost2010Prop43
 90
        3
102
RTVSPost2010PropOp43
 70
     0
102
RTVSPost2010Prop44ColorIndex
 90
        5
102
RTVSPost2010Prop44ColorRGB
 90
      255
102
RTVSPost2010PropOp44
 70
     0
102
RTVSPost2010Prop45
280
     0
102
RTVSPost2010PropOp45
 70
     1
102
RTVSPost2010Prop46
 90
       50
102
RTVSPost2010PropOp46
 70
     0
102
RTVSPost2010Prop47
 90
       50
102
RTVSPost2010PropOp47
 70
     0
102
RTVSPost2010Prop48
 90
       50
102
RTVSPost2010PropOp48
 70
     0
102
RTVSPost2010Prop49
280
     0
102
RTVSPost2010PropOp49
 70
     1
102
RTVSPost2010Prop50
 90
       50
102
RTVSPost2010PropOp50
 70
     0
102
RTVSPost2010Prop51ColorIndex
 90
      256
102
RTVSPost2010Prop51ColorRGB
 90
-16777216
102
RTVSPost2010PropOp51
 70
     0
102
RTVSPost2010Prop52
140
1.0
102
RTVSPost2010PropOp52
 70
     0
102
RTVSPost2010Prop53
 90
        2
102
RTVSPost2010PropOp53
 70
     0
102
RTVSPost2010Prop54
  1
strokes_ogs.tif
102
RTVSPost2010PropOp54
 70
     0
102
RTVSPost2010Prop55
280
     0
102
RTVSPost2010PropOp55
 70
     1
102
RTVSPost2010Prop56
140
1.0
102
RTVSPost2010PropOp56
 70
     0
102
RTVSPost2010Prop57
140
1.0
102
RTVSPost2010PropOp57
 70
     0
102
RTVSPropertyOp0
 70
     0
102
RTVSPropertyOp1
 70
     0
102
RTVSPropertyOp2
 70
     0
102
RTVSPropertyOp3
 70
     0
102
RTVSPropertyOp4
 70
     0
102
RTVSPropertyOp5
 70
     0
102
RTVSPropertyOp6
 70
     0
102
RTVSPropertyOp7
 70
     0
102
RTVSPropertyOp8
 70
     0
102
RTVSPropertyOp9
 70
     0
102
RTVSPropertyOp10
 70
     0
102
RTVSPropertyOp11
 70
     0
102
RTVSPropertyOp12
 70
     0
102
RTVSPropertyOp13
 70
     0
102
RTVSPropertyOp14
 70
     2
102
RTVSPropertyOp15
 70
     0
102
RTVSPropertyOp16
 70
     0
102
RTVSPropertyOp17
 70
     0
102
RTVSPropertyOp18
 70
     0
102
RTVSPropertyOp19
 70
     0
102
RTVSPropertyOp20
 70
     0
102
RTVSPropertyOp21
 70
     0
102
RTVSPropertyOp22
 70
     0
102
RTVSPropertyOp23
 70
     0
102
RTVSPropertyOp24
 70
     0
102
RTVSPropertyOp25
 70
     0
102
RTVSPropertyOp26
 70
     0
102
RTVSPropertyOp27
 70
     0
102
RTVSPropertyOp28
 70
     1
102
RTVSPropertyOp29
 70
     1
102
RTVSPropertyOp30
 70
     1
102
RTVSPropertyOp31
 70
     1
102
RTVSPropertyOp32
 70
     1
102
RTVSPropertyOp33
 70
     1
102
RTVSPropertyOp34
 70
     1
102
RTVSPropertyOp35
 70
     1
102
RTVSPropertyOp36
 70
     1
102
RTVSPropertyOp37
 70
     0
102
RTVSPropertyOp38
 70
     0
102
RTVSPropertyOp39
 70
     0
102
RTVSPropertyOp40
 70
     0
102
RTVSPropertyOp41
 70
     0
102
RTVSPropertyOp42
 70
     0
102
RTVSPropertyOp43
 70
     0
102
RTVSPropertyOp44
 70
     0
102
RTVSPropertyOp45
 70
     1
102
RTVSPropertyOp46
 70
     0
102
RTVSPropertyOp47
 70
     0
102
RTVSPropertyOp48
 70
     0
102
RTVSPropertyOp49
 70
     1
102
RTVSPropertyOp50
 70
     0
102
RTVSPropertyOp51
 70
     0
102
RTVSPropertyOp52
 70
     0
102
RTVSPropertyOp53
 70
     0
102
RTVSPropertyOp54
 70
     0
102
RTVSPropertyOp55
 70
     1
102
RTVSPropertyOp56
 70
     0
102
RTVSPropertyOp57
 70
     0
102
RTVSPropertyOp58
 70
     0
102
RTVSPropertyOp59
 70
     0
102
RTVSPropertyOp60
 70
     0
102
RTVSPropertyOp61
 70
     0
102
RTVSPropertyOp62
 70
     0
  0
XRECORD
  5
9E9
102
{ACAD_REACTORS
330
9E8
102
}
330
9E8
100
AcDbXrecord
280
     1
102
RTVSPost2010Prop28
280
     0
102
RTVSPost2010PropOp28
 70
     1
102
RTVSPost2010Prop29
280
     1
102
RTVSPost2010PropOp29
 70
     1
102
RTVSPost2010Prop30
280
     1
102
RTVSPost2010PropOp30
 70
     1
102
RTVSPost2010Prop31
280
     0
102
RTVSPost2010PropOp31
 70
     1
102
RTVSPost2010Prop32
280
     0
102
RTVSPost2010PropOp32
 70
     1
102
RTVSPost2010Prop33
280
     0
102
RTVSPost2010PropOp33
 70
     1
102
RTVSPost2010Prop34
280
     0
102
RTVSPost2010PropOp34
 70
     1
102
RTVSPost2010Prop35
280
     0
102
RTVSPost2010PropOp35
 70
     1
102
RTVSPost2010Prop36
280
     0
102
RTVSPost2010PropOp36
 70
     1
102
RTVSPost2010Prop37
 90
       50
102
RTVSPost2010PropOp37
 70
     1
102
RTVSPost2010Prop38
140
0.0
102
RTVSPost2010PropOp38
 70
     1
102
RTVSPost2010Prop39
140
1.0
102
RTVSPost2010PropOp39
 70
     1
102
RTVSPost2010Prop40
 90
        0
102
RTVSPost2010PropOp40
 70
     1
102
RTVSPost2010Prop41ColorIndex
 90
       18
102
RTVSPost2010Prop41ColorRGB
 90
        0
102
RTVSPost2010PropOp41
 70
     1
102
RTVSPost2010Prop42
 90
       50
102
RTVSPost2010PropOp42
 70
     1
102
RTVSPost2010Prop43
 90
        3
102
RTVSPost2010PropOp43
 70
     1
102
RTVSPost2010Prop44ColorIndex
 90
        5
102
RTVSPost2010Prop44ColorRGB
 90
      255
102
RTVSPost2010PropOp44
 70
     1
102
RTVSPost2010Prop45
280
     0
102
RTVSPost2010PropOp45
 70
     1
102
RTVSPost2010Prop46
 90
       50
102
RTVSPost2010PropOp46
 70
     1
102
RTVSPost2010Prop47
 90
       50
102
RTVSPost2010PropOp47
 70
     1
102
RTVSPost2010Prop48
 90
       50
102
RTVSPost2010PropOp48
 70
     1
102
RTVSPost2010Prop49
280
     0
102
RTVSPost2010PropOp49
 70
     1
102
RTVSPost2010Prop50
 90
       50
102
RTVSPost2010PropOp50
 70
     1
102
RTVSPost2010Prop51ColorIndex
 90
      256
102
RTVSPost2010Prop51ColorRGB
 90
-16777216
102
RTVSPost2010PropOp51
 70
     0
102
RTVSPost2010Prop52
140
1.0
102
RTVSPost2010PropOp52
 70
     0
102
RTVSPost2010Prop53
 90
        2
102
RTVSPost2010PropOp53
 70
     1
102
RTVSPost2010Prop54
  1
strokes_ogs.tif
102
RTVSPost2010PropOp54
 70
     1
102
RTVSPost2010Prop55
280
     0
102
RTVSPost2010PropOp55
 70
     1
102
RTVSPost2010Prop56
140
1.0
102
RTVSPost2010PropOp56
 70
     1
102
RTVSPost2010Prop57
140
1.0
102
RTVSPost2010PropOp57
 70
     1
102
RTVSPropertyOp0
 70
     1
102
RTVSPropertyOp1
 70
     1
102
RTVSPropertyOp2
 70
     1
102
RTVSPropertyOp3
 70
     1
102
RTVSPropertyOp4
 70
     1
102
RTVSPropertyOp5
 70
     1
102
RTVSPropertyOp6
 70
     1
102
RTVSPropertyOp7
 70
     1
102
RTVSPropertyOp8
 70
     1
102
RTVSPropertyOp9
 70
     1
102
RTVSPropertyOp10
 70
     1
102
RTVSPropertyOp11
 70
     1
102
RTVSPropertyOp12
 70
     1
102
RTVSPropertyOp13
 70
     1
102
RTVSPropertyOp14
 70
     1
102
RTVSPropertyOp15
 70
     1
102
RTVSPropertyOp16
 70
     1
102
RTVSPropertyOp17
 70
     1
102
RTVSPropertyOp18
 70
     1
102
RTVSPropertyOp19
 70
     1
102
RTVSPropertyOp20
 70
     1
102
RTVSPropertyOp21
 70
     1
102
RTVSPropertyOp22
 70
     1
102
RTVSPropertyOp23
 70
     1
102
RTVSPropertyOp24
 70
     1
102
RTVSPropertyOp25
 70
     1
102
RTVSPropertyOp26
 70
     1
102
RTVSPropertyOp27
 70
     1
102
RTVSPropertyOp28
 70
     1
102
RTVSPropertyOp29
 70
     1
102
RTVSPropertyOp30
 70
     1
102
RTVSPropertyOp31
 70
     1
102
RTVSPropertyOp32
 70
     1
102
RTVSPropertyOp33
 70
     1
102
RTVSPropertyOp34
 70
     1
102
RTVSPropertyOp35
 70
     1
102
RTVSPropertyOp36
 70
     1
102
RTVSPropertyOp37
 70
     1
102
RTVSPropertyOp38
 70
     1
102
RTVSPropertyOp39
 70
     1
102
RTVSPropertyOp40
 70
     1
102
RTVSPropertyOp41
 70
     1
102
RTVSPropertyOp42
 70
     1
102
RTVSPropertyOp43
 70
     1
102
RTVSPropertyOp44
 70
     1
102
RTVSPropertyOp45
 70
     1
102
RTVSPropertyOp46
 70
     1
102
RTVSPropertyOp47
 70
     1
102
RTVSPropertyOp48
 70
     1
102
RTVSPropertyOp49
 70
     1
102
RTVSPropertyOp50
 70
     1
102
RTVSPropertyOp51
 70
     0
102
RTVSPropertyOp52
 70
     0
102
RTVSPropertyOp53
 70
     1
102
RTVSPropertyOp54
 70
     1
102
RTVSPropertyOp55
 70
     1
102
RTVSPropertyOp56
 70
     1
102
RTVSPropertyOp57
 70
     1
102
RTVSPropertyOp58
 70
     1
102
RTVSPropertyOp59
 70
     1
102
RTVSPropertyOp60
 70
     1
102
RTVSPropertyOp61
 70
     1
102
RTVSPropertyOp62
 70
     1
  0
XRECORD
  5
9FB
102
{ACAD_REACTORS
330
9FA
102
}
330
9FA
100
AcDbXrecord
280
     1
102
RTVSPost2010Prop28
280
     0
102
RTVSPost2010PropOp28
 70
     1
102
RTVSPost2010Prop29
280
     1
102
RTVSPost2010PropOp29
 70
     1
102
RTVSPost2010Prop30
280
     1
102
RTVSPost2010PropOp30
 70
     1
102
RTVSPost2010Prop31
280
     0
102
RTVSPost2010PropOp31
 70
     1
102
RTVSPost2010Prop32
280
     0
102
RTVSPost2010PropOp32
 70
     1
102
RTVSPost2010Prop33
280
     0
102
RTVSPost2010PropOp33
 70
     1
102
RTVSPost2010Prop34
280
     0
102
RTVSPost2010PropOp34
 70
     1
102
RTVSPost2010Prop35
280
     0
102
RTVSPost2010PropOp35
 70
     1
102
RTVSPost2010Prop36
280
     0
102
RTVSPost2010PropOp36
 70
     1
102
RTVSPost2010Prop37
 90
       50
102
RTVSPost2010PropOp37
 70
     0
102
RTVSPost2010Prop38
140
0.0
102
RTVSPost2010PropOp38
 70
     0
102
RTVSPost2010Prop39
140
1.0
102
RTVSPost2010PropOp39
 70
     0
102
RTVSPost2010Prop40
 90
        0
102
RTVSPost2010PropOp40
 70
     0
102
RTVSPost2010Prop41ColorIndex
 90
       18
102
RTVSPost2010Prop41ColorRGB
 90
        0
102
RTVSPost2010PropOp41
 70
     0
102
RTVSPost2010Prop42
 90
       50
102
RTVSPost2010PropOp42
 70
     0
102
RTVSPost2010Prop43
 90
        3
102
RTVSPost2010PropOp43
 70
     0
102
RTVSPost2010Prop44ColorIndex
 90
        5
102
RTVSPost2010Prop44ColorRGB
 90
      255
102
RTVSPost2010PropOp44
 70
     0
102
RTVSPost2010Prop45
280
     0
102
RTVSPost2010PropOp45
 70
     1
102
RTVSPost2010Prop46
 90
       50
102
RTVSPost2010PropOp46
 70
     0
102
RTVSPost2010Prop47
 90
       50
102
RTVSPost2010PropOp47
 70
     0
102
RTVSPost2010Prop48
 90
       50
102
RTVSPost2010PropOp48
 70
     0
102
RTVSPost2010Prop49
280
     0
102
RTVSPost2010PropOp49
 70
     1
102
RTVSPost2010Prop50
 90
       50
102
RTVSPost2010PropOp50
 70
     0
102
RTVSPost2010Prop51ColorIndex
 90
      256
102
RTVSPost2010Prop51ColorRGB
 90
-16777216
102
RTVSPost2010PropOp51
 70
     0
102
RTVSPost2010Prop52
140
1.0
102
RTVSPost2010PropOp52
 70
     0
102
RTVSPost2010Prop53
 90
        2
102
RTVSPost2010PropOp53
 70
     0
102
RTVSPost2010Prop54
  1
strokes_ogs.tif
102
RTVSPost2010PropOp54
 70
     0
102
RTVSPost2010Prop55
280
     0
102
RTVSPost2010PropOp55
 70
     1
102
RTVSPost2010Prop56
140
1.0
102
RTVSPost2010PropOp56
 70
     0
102
RTVSPost2010Prop57
140
1.0
102
RTVSPost2010PropOp57
 70
     0
102
RTVSPropertyOp0
 70
     0
102
RTVSPropertyOp1
 70
     0
102
RTVSPropertyOp2
 70
     0
102
RTVSPropertyOp3
 70
     0
102
RTVSPropertyOp4
 70
     0
102
RTVSPropertyOp5
 70
     0
102
RTVSPropertyOp6
 70
     0
102
RTVSPropertyOp7
 70
     0
102
RTVSPropertyOp8
 70
     0
102
RTVSPropertyOp9
 70
     0
102
RTVSPropertyOp10
 70
     0
102
RTVSPropertyOp11
 70
     0
102
RTVSPropertyOp12
 70
     0
102
RTVSPropertyOp13
 70
     0
102
RTVSPropertyOp14
 70
     2
102
RTVSPropertyOp15
 70
     0
102
RTVSPropertyOp16
 70
     0
102
RTVSPropertyOp17
 70
     0
102
RTVSPropertyOp18
 70
     0
102
RTVSPropertyOp19
 70
     0
102
RTVSPropertyOp20
 70
     0
102
RTVSPropertyOp21
 70
     0
102
RTVSPropertyOp22
 70
     0
102
RTVSPropertyOp23
 70
     0
102
RTVSPropertyOp24
 70
     0
102
RTVSPropertyOp25
 70
     0
102
RTVSPropertyOp26
 70
     0
102
RTVSPropertyOp27
 70
     0
102
RTVSPropertyOp28
 70
     1
102
RTVSPropertyOp29
 70
     1
102
RTVSPropertyOp30
 70
     1
102
RTVSPropertyOp31
 70
     1
102
RTVSPropertyOp32
 70
     1
102
RTVSPropertyOp33
 70
     1
102
RTVSPropertyOp34
 70
     1
102
RTVSPropertyOp35
 70
     1
102
RTVSPropertyOp36
 70
     1
102
RTVSPropertyOp37
 70
     0
102
RTVSPropertyOp38
 70
     0
102
RTVSPropertyOp39
 70
     0
102
RTVSPropertyOp40
 70
     0
102
RTVSPropertyOp41
 70
     0
102
RTVSPropertyOp42
 70
     0
102
RTVSPropertyOp43
 70
     0
102
RTVSPropertyOp44
 70
     0
102
RTVSPropertyOp45
 70
     1
102
RTVSPropertyOp46
 70
     0
102
RTVSPropertyOp47
 70
     0
102
RTVSPropertyOp48
 70
     0
102
RTVSPropertyOp49
 70
     1
102
RTVSPropertyOp50
 70
     0
102
RTVSPropertyOp51
 70
     0
102
RTVSPropertyOp52
 70
     0
102
RTVSPropertyOp53
 70
     0
102
RTVSPropertyOp54
 70
     0
102
RTVSPropertyOp55
 70
     1
102
RTVSPropertyOp56
 70
     0
102
RTVSPropertyOp57
 70
     0
102
RTVSPropertyOp58
 70
     0
102
RTVSPropertyOp59
 70
     0
102
RTVSPropertyOp60
 70
     0
102
RTVSPropertyOp61
 70
     0
102
RTVSPropertyOp62
 70
     0
  0
XRECORD
  5
9E1
102
{ACAD_REACTORS
330
9E0
102
}
330
9E0
100
AcDbXrecord
280
     1
102
RTVSPost2010Prop28
280
     0
102
RTVSPost2010PropOp28
 70
     1
102
RTVSPost2010Prop29
280
     1
102
RTVSPost2010PropOp29
 70
     1
102
RTVSPost2010Prop30
280
     1
102
RTVSPost2010PropOp30
 70
     1
102
RTVSPost2010Prop31
280
     0
102
RTVSPost2010PropOp31
 70
     1
102
RTVSPost2010Prop32
280
     0
102
RTVSPost2010PropOp32
 70
     1
102
RTVSPost2010Prop33
280
     0
102
RTVSPost2010PropOp33
 70
     1
102
RTVSPost2010Prop34
280
     0
102
RTVSPost2010PropOp34
 70
     1
102
RTVSPost2010Prop35
280
     0
102
RTVSPost2010PropOp35
 70
     1
102
RTVSPost2010Prop36
280
     0
102
RTVSPost2010PropOp36
 70
     1
102
RTVSPost2010Prop37
 90
       50
102
RTVSPost2010PropOp37
 70
     1
102
RTVSPost2010Prop38
140
0.0
102
RTVSPost2010PropOp38
 70
     1
102
RTVSPost2010Prop39
140
1.0
102
RTVSPost2010PropOp39
 70
     1
102
RTVSPost2010Prop40
 90
        0
102
RTVSPost2010PropOp40
 70
     1
102
RTVSPost2010Prop41ColorIndex
 90
       18
102
RTVSPost2010Prop41ColorRGB
 90
        0
102
RTVSPost2010PropOp41
 70
     1
102
RTVSPost2010Prop42
 90
       50
102
RTVSPost2010PropOp42
 70
     1
102
RTVSPost2010Prop43
 90
        3
102
RTVSPost2010PropOp43
 70
     1
102
RTVSPost2010Prop44ColorIndex
 90
        5
102
RTVSPost2010Prop44ColorRGB
 90
      255
102
RTVSPost2010PropOp44
 70
     1
102
RTVSPost2010Prop45
280
     0
102
RTVSPost2010PropOp45
 70
     1
102
RTVSPost2010Prop46
 90
       50
102
RTVSPost2010PropOp46
 70
     1
102
RTVSPost2010Prop47
 90
       50
102
RTVSPost2010PropOp47
 70
     1
102
RTVSPost2010Prop48
 90
       50
102
RTVSPost2010PropOp48
 70
     1
102
RTVSPost2010Prop49
280
     0
102
RTVSPost2010PropOp49
 70
     1
102
RTVSPost2010Prop50
 90
       50
102
RTVSPost2010PropOp50
 70
     1
102
RTVSPost2010Prop51ColorIndex
 90
      256
102
RTVSPost2010Prop51ColorRGB
 90
-16777216
102
RTVSPost2010PropOp51
 70
     0
102
RTVSPost2010Prop52
140
1.0
102
RTVSPost2010PropOp52
 70
     0
102
RTVSPost2010Prop53
 90
        2
102
RTVSPost2010PropOp53
 70
     1
102
RTVSPost2010Prop54
  1
strokes_ogs.tif
102
RTVSPost2010PropOp54
 70
     1
102
RTVSPost2010Prop55
280
     0
102
RTVSPost2010PropOp55
 70
     1
102
RTVSPost2010Prop56
140
1.0
102
RTVSPost2010PropOp56
 70
     1
102
RTVSPost2010Prop57
140
1.0
102
RTVSPost2010PropOp57
 70
     1
102
RTVSPropertyOp0
 70
     1
102
RTVSPropertyOp1
 70
     1
102
RTVSPropertyOp2
 70
     1
102
RTVSPropertyOp3
 70
     1
102
RTVSPropertyOp4
 70
     1
102
RTVSPropertyOp5
 70
     1
102
RTVSPropertyOp6
 70
     1
102
RTVSPropertyOp7
 70
     1
102
RTVSPropertyOp8
 70
     1
102
RTVSPropertyOp9
 70
     1
102
RTVSPropertyOp10
 70
     1
102
RTVSPropertyOp11
 70
     1
102
RTVSPropertyOp12
 70
     1
102
RTVSPropertyOp13
 70
     1
102
RTVSPropertyOp14
 70
     1
102
RTVSPropertyOp15
 70
     1
102
RTVSPropertyOp16
 70
     1
102
RTVSPropertyOp17
 70
     1
102
RTVSPropertyOp18
 70
     1
102
RTVSPropertyOp19
 70
     1
102
RTVSPropertyOp20
 70
     1
102
RTVSPropertyOp21
 70
     1
102
RTVSPropertyOp22
 70
     1
102
RTVSPropertyOp23
 70
     1
102
RTVSPropertyOp24
 70
     1
102
RTVSPropertyOp25
 70
     1
102
RTVSPropertyOp26
 70
     1
102
RTVSPropertyOp27
 70
     1
102
RTVSPropertyOp28
 70
     1
102
RTVSPropertyOp29
 70
     1
102
RTVSPropertyOp30
 70
     1
102
RTVSPropertyOp31
 70
     1
102
RTVSPropertyOp32
 70
     1
102
RTVSPropertyOp33
 70
     1
102
RTVSPropertyOp34
 70
     1
102
RTVSPropertyOp35
 70
     1
102
RTVSPropertyOp36
 70
     1
102
RTVSPropertyOp37
 70
     1
102
RTVSPropertyOp38
 70
     1
102
RTVSPropertyOp39
 70
     1
102
RTVSPropertyOp40
 70
     1
102
RTVSPropertyOp41
 70
     1
102
RTVSPropertyOp42
 70
     1
102
RTVSPropertyOp43
 70
     1
102
RTVSPropertyOp44
 70
     1
102
RTVSPropertyOp45
 70
     1
102
RTVSPropertyOp46
 70
     1
102
RTVSPropertyOp47
 70
     1
102
RTVSPropertyOp48
 70
     1
102
RTVSPropertyOp49
 70
     1
102
RTVSPropertyOp50
 70
     1
102
RTVSPropertyOp51
 70
     0
102
RTVSPropertyOp52
 70
     0
102
RTVSPropertyOp53
 70
     1
102
RTVSPropertyOp54
 70
     1
102
RTVSPropertyOp55
 70
     1
102
RTVSPropertyOp56
 70
     1
102
RTVSPropertyOp57
 70
     1
102
RTVSPropertyOp58
 70
     1
102
RTVSPropertyOp59
 70
     1
102
RTVSPropertyOp60
 70
     1
102
RTVSPropertyOp61
 70
     1
102
RTVSPropertyOp62
 70
     1
  0
XRECORD
  5
9F7
102
{ACAD_REACTORS
330
9F6
102
}
330
9F6
100
AcDbXrecord
280
     1
102
RTVSPost2010Prop28
280
     0
102
RTVSPost2010PropOp28
 70
     1
102
RTVSPost2010Prop29
280
     1
102
RTVSPost2010PropOp29
 70
     1
102
RTVSPost2010Prop30
280
     1
102
RTVSPost2010PropOp30
 70
     1
102
RTVSPost2010Prop31
280
     0
102
RTVSPost2010PropOp31
 70
     1
102
RTVSPost2010Prop32
280
     0
102
RTVSPost2010PropOp32
 70
     1
102
RTVSPost2010Prop33
280
     0
102
RTVSPost2010PropOp33
 70
     1
102
RTVSPost2010Prop34
280
     0
102
RTVSPost2010PropOp34
 70
     1
102
RTVSPost2010Prop35
280
     0
102
RTVSPost2010PropOp35
 70
     1
102
RTVSPost2010Prop36
280
     0
102
RTVSPost2010PropOp36
 70
     1
102
RTVSPost2010Prop37
 90
       50
102
RTVSPost2010PropOp37
 70
     1
102
RTVSPost2010Prop38
140
0.0
102
RTVSPost2010PropOp38
 70
     1
102
RTVSPost2010Prop39
140
1.0
102
RTVSPost2010PropOp39
 70
     1
102
RTVSPost2010Prop40
 90
        0
102
RTVSPost2010PropOp40
 70
     1
102
RTVSPost2010Prop41ColorIndex
 90
       18
102
RTVSPost2010Prop41ColorRGB
 90
        0
102
RTVSPost2010PropOp41
 70
     1
102
RTVSPost2010Prop42
 90
       50
102
RTVSPost2010PropOp42
 70
     1
102
RTVSPost2010Prop43
 90
        3
102
RTVSPost2010PropOp43
 70
     1
102
RTVSPost2010Prop44ColorIndex
 90
        5
102
RTVSPost2010Prop44ColorRGB
 90
      255
102
RTVSPost2010PropOp44
 70
     1
102
RTVSPost2010Prop45
280
     0
102
RTVSPost2010PropOp45
 70
     1
102
RTVSPost2010Prop46
 90
       50
102
RTVSPost2010PropOp46
 70
     1
102
RTVSPost2010Prop47
 90
       50
102
RTVSPost2010PropOp47
 70
     1
102
RTVSPost2010Prop48
 90
       50
102
RTVSPost2010PropOp48
 70
     1
102
RTVSPost2010Prop49
280
     0
102
RTVSPost2010PropOp49
 70
     1
102
RTVSPost2010Prop50
 90
       50
102
RTVSPost2010PropOp50
 70
     1
102
RTVSPost2010Prop51ColorIndex
 90
      256
102
RTVSPost2010Prop51ColorRGB
 90
-16777216
102
RTVSPost2010PropOp51
 70
     0
102
RTVSPost2010Prop52
140
1.0
102
RTVSPost2010PropOp52
 70
     0
102
RTVSPost2010Prop53
 90
        2
102
RTVSPost2010PropOp53
 70
     1
102
RTVSPost2010Prop54
  1
strokes_ogs.tif
102
RTVSPost2010PropOp54
 70
     1
102
RTVSPost2010Prop55
280
     0
102
RTVSPost2010PropOp55
 70
     1
102
RTVSPost2010Prop56
140
1.0
102
RTVSPost2010PropOp56
 70
     1
102
RTVSPost2010Prop57
140
1.0
102
RTVSPost2010PropOp57
 70
     1
102
RTVSPropertyOp0
 70
     1
102
RTVSPropertyOp1
 70
     1
102
RTVSPropertyOp2
 70
     1
102
RTVSPropertyOp3
 70
     1
102
RTVSPropertyOp4
 70
     1
102
RTVSPropertyOp5
 70
     1
102
RTVSPropertyOp6
 70
     1
102
RTVSPropertyOp7
 70
     1
102
RTVSPropertyOp8
 70
     1
102
RTVSPropertyOp9
 70
     1
102
RTVSPropertyOp10
 70
     1
102
RTVSPropertyOp11
 70
     1
102
RTVSPropertyOp12
 70
     1
102
RTVSPropertyOp13
 70
     1
102
RTVSPropertyOp14
 70
     1
102
RTVSPropertyOp15
 70
     1
102
RTVSPropertyOp16
 70
     1
102
RTVSPropertyOp17
 70
     1
102
RTVSPropertyOp18
 70
     1
102
RTVSPropertyOp19
 70
     1
102
RTVSPropertyOp20
 70
     1
102
RTVSPropertyOp21
 70
     1
102
RTVSPropertyOp22
 70
     1
102
RTVSPropertyOp23
 70
     1
102
RTVSPropertyOp24
 70
     1
102
RTVSPropertyOp25
 70
     1
102
RTVSPropertyOp26
 70
     1
102
RTVSPropertyOp27
 70
     1
102
RTVSPropertyOp28
 70
     1
102
RTVSPropertyOp29
 70
     1
102
RTVSPropertyOp30
 70
     1
102
RTVSPropertyOp31
 70
     1
102
RTVSPropertyOp32
 70
     1
102
RTVSPropertyOp33
 70
     1
102
RTVSPropertyOp34
 70
     1
102
RTVSPropertyOp35
 70
     1
102
RTVSPropertyOp36
 70
     1
102
RTVSPropertyOp37
 70
     1
102
RTVSPropertyOp38
 70
     1
102
RTVSPropertyOp39
 70
     1
102
RTVSPropertyOp40
 70
     1
102
RTVSPropertyOp41
 70
     1
102
RTVSPropertyOp42
 70
     1
102
RTVSPropertyOp43
 70
     1
102
RTVSPropertyOp44
 70
     1
102
RTVSPropertyOp45
 70
     1
102
RTVSPropertyOp46
 70
     1
102
RTVSPropertyOp47
 70
     1
102
RTVSPropertyOp48
 70
     1
102
RTVSPropertyOp49
 70
     1
102
RTVSPropertyOp50
 70
     1
102
RTVSPropertyOp51
 70
     0
102
RTVSPropertyOp52
 70
     0
102
RTVSPropertyOp53
 70
     1
102
RTVSPropertyOp54
 70
     1
102
RTVSPropertyOp55
 70
     1
102
RTVSPropertyOp56
 70
     1
102
RTVSPropertyOp57
 70
     1
102
RTVSPropertyOp58
 70
     1
102
RTVSPropertyOp59
 70
     1
102
RTVSPropertyOp60
 70
     1
102
RTVSPropertyOp61
 70
     1
102
RTVSPropertyOp62
 70
     1
  0
XRECORD
  5
9F5
102
{ACAD_REACTORS
330
9F4
102
}
330
9F4
100
AcDbXrecord
280
     1
102
RTVSPost2010Prop28
280
     0
102
RTVSPost2010PropOp28
 70
     1
102
RTVSPost2010Prop29
280
     1
102
RTVSPost2010PropOp29
 70
     1
102
RTVSPost2010Prop30
280
     1
102
RTVSPost2010PropOp30
 70
     1
102
RTVSPost2010Prop31
280
     0
102
RTVSPost2010PropOp31
 70
     1
102
RTVSPost2010Prop32
280
     0
102
RTVSPost2010PropOp32
 70
     1
102
RTVSPost2010Prop33
280
     0
102
RTVSPost2010PropOp33
 70
     1
102
RTVSPost2010Prop34
280
     0
102
RTVSPost2010PropOp34
 70
     1
102
RTVSPost2010Prop35
280
     0
102
RTVSPost2010PropOp35
 70
     1
102
RTVSPost2010Prop36
280
     0
102
RTVSPost2010PropOp36
 70
     1
102
RTVSPost2010Prop37
 90
       50
102
RTVSPost2010PropOp37
 70
     1
102
RTVSPost2010Prop38
140
0.0
102
RTVSPost2010PropOp38
 70
     1
102
RTVSPost2010Prop39
140
1.0
102
RTVSPost2010PropOp39
 70
     1
102
RTVSPost2010Prop40
 90
        0
102
RTVSPost2010PropOp40
 70
     1
102
RTVSPost2010Prop41ColorIndex
 90
       18
102
RTVSPost2010Prop41ColorRGB
 90
        0
102
RTVSPost2010PropOp41
 70
     1
102
RTVSPost2010Prop42
 90
       50
102
RTVSPost2010PropOp42
 70
     1
102
RTVSPost2010Prop43
 90
        3
102
RTVSPost2010PropOp43
 70
     1
102
RTVSPost2010Prop44ColorIndex
 90
        5
102
RTVSPost2010Prop44ColorRGB
 90
      255
102
RTVSPost2010PropOp44
 70
     1
102
RTVSPost2010Prop45
280
     0
102
RTVSPost2010PropOp45
 70
     1
102
RTVSPost2010Prop46
 90
       50
102
RTVSPost2010PropOp46
 70
     1
102
RTVSPost2010Prop47
 90
       50
102
RTVSPost2010PropOp47
 70
     1
102
RTVSPost2010Prop48
 90
       50
102
RTVSPost2010PropOp48
 70
     1
102
RTVSPost2010Prop49
280
     0
102
RTVSPost2010PropOp49
 70
     1
102
RTVSPost2010Prop50
 90
       50
102
RTVSPost2010PropOp50
 70
     1
102
RTVSPost2010Prop51ColorIndex
 90
      256
102
RTVSPost2010Prop51ColorRGB
 90
-16777216
102
RTVSPost2010PropOp51
 70
     0
102
RTVSPost2010Prop52
140
1.0
102
RTVSPost2010PropOp52
 70
     0
102
RTVSPost2010Prop53
 90
        2
102
RTVSPost2010PropOp53
 70
     1
102
RTVSPost2010Prop54
  1
strokes_ogs.tif
102
RTVSPost2010PropOp54
 70
     1
102
RTVSPost2010Prop55
280
     0
102
RTVSPost2010PropOp55
 70
     1
102
RTVSPost2010Prop56
140
1.0
102
RTVSPost2010PropOp56
 70
     1
102
RTVSPost2010Prop57
140
1.0
102
RTVSPost2010PropOp57
 70
     1
102
RTVSPropertyOp0
 70
     1
102
RTVSPropertyOp1
 70
     1
102
RTVSPropertyOp2
 70
     1
102
RTVSPropertyOp3
 70
     1
102
RTVSPropertyOp4
 70
     1
102
RTVSPropertyOp5
 70
     1
102
RTVSPropertyOp6
 70
     1
102
RTVSPropertyOp7
 70
     1
102
RTVSPropertyOp8
 70
     1
102
RTVSPropertyOp9
 70
     1
102
RTVSPropertyOp10
 70
     1
102
RTVSPropertyOp11
 70
     1
102
RTVSPropertyOp12
 70
     1
102
RTVSPropertyOp13
 70
     1
102
RTVSPropertyOp14
 70
     1
102
RTVSPropertyOp15
 70
     1
102
RTVSPropertyOp16
 70
     1
102
RTVSPropertyOp17
 70
     1
102
RTVSPropertyOp18
 70
     1
102
RTVSPropertyOp19
 70
     1
102
RTVSPropertyOp20
 70
     1
102
RTVSPropertyOp21
 70
     1
102
RTVSPropertyOp22
 70
     1
102
RTVSPropertyOp23
 70
     1
102
RTVSPropertyOp24
 70
     1
102
RTVSPropertyOp25
 70
     1
102
RTVSPropertyOp26
 70
     1
102
RTVSPropertyOp27
 70
     1
102
RTVSPropertyOp28
 70
     1
102
RTVSPropertyOp29
 70
     1
102
RTVSPropertyOp30
 70
     1
102
RTVSPropertyOp31
 70
     1
102
RTVSPropertyOp32
 70
     1
102
RTVSPropertyOp33
 70
     1
102
RTVSPropertyOp34
 70
     1
102
RTVSPropertyOp35
 70
     1
102
RTVSPropertyOp36
 70
     1
102
RTVSPropertyOp37
 70
     1
102
RTVSPropertyOp38
 70
     1
102
RTVSPropertyOp39
 70
     1
102
RTVSPropertyOp40
 70
     1
102
RTVSPropertyOp41
 70
     1
102
RTVSPropertyOp42
 70
     1
102
RTVSPropertyOp43
 70
     1
102
RTVSPropertyOp44
 70
     1
102
RTVSPropertyOp45
 70
     1
102
RTVSPropertyOp46
 70
     1
102
RTVSPropertyOp47
 70
     1
102
RTVSPropertyOp48
 70
     1
102
RTVSPropertyOp49
 70
     1
102
RTVSPropertyOp50
 70
     1
102
RTVSPropertyOp51
 70
     0
102
RTVSPropertyOp52
 70
     0
102
RTVSPropertyOp53
 70
     1
102
RTVSPropertyOp54
 70
     1
102
RTVSPropertyOp55
 70
     1
102
RTVSPropertyOp56
 70
     1
102
RTVSPropertyOp57
 70
     1
102
RTVSPropertyOp58
 70
     1
102
RTVSPropertyOp59
 70
     1
102
RTVSPropertyOp60
 70
     1
102
RTVSPropertyOp61
 70
     1
102
RTVSPropertyOp62
 70
     1
  0
XRECORD
  5
9EF
102
{ACAD_REACTORS
330
9EE
102
}
330
9EE
100
AcDbXrecord
280
     1
102
RTVSPost2010Prop28
280
     0
102
RTVSPost2010PropOp28
 70
     1
102
RTVSPost2010Prop29
280
     1
102
RTVSPost2010PropOp29
 70
     1
102
RTVSPost2010Prop30
280
     1
102
RTVSPost2010PropOp30
 70
     1
102
RTVSPost2010Prop31
280
     0
102
RTVSPost2010PropOp31
 70
     1
102
RTVSPost2010Prop32
280
     0
102
RTVSPost2010PropOp32
 70
     1
102
RTVSPost2010Prop33
280
     0
102
RTVSPost2010PropOp33
 70
     1
102
RTVSPost2010Prop34
280
     0
102
RTVSPost2010PropOp34
 70
     1
102
RTVSPost2010Prop35
280
     0
102
RTVSPost2010PropOp35
 70
     1
102
RTVSPost2010Prop36
280
     0
102
RTVSPost2010PropOp36
 70
     1
102
RTVSPost2010Prop37
 90
       50
102
RTVSPost2010PropOp37
 70
     1
102
RTVSPost2010Prop38
140
0.0
102
RTVSPost2010PropOp38
 70
     1
102
RTVSPost2010Prop39
140
1.0
102
RTVSPost2010PropOp39
 70
     1
102
RTVSPost2010Prop40
 90
        0
102
RTVSPost2010PropOp40
 70
     1
102
RTVSPost2010Prop41ColorIndex
 90
       18
102
RTVSPost2010Prop41ColorRGB
 90
        0
102
RTVSPost2010PropOp41
 70
     1
102
RTVSPost2010Prop42
 90
       50
102
RTVSPost2010PropOp42
 70
     1
102
RTVSPost2010Prop43
 90
        3
102
RTVSPost2010PropOp43
 70
     1
102
RTVSPost2010Prop44ColorIndex
 90
        5
102
RTVSPost2010Prop44ColorRGB
 90
      255
102
RTVSPost2010PropOp44
 70
     1
102
RTVSPost2010Prop45
280
     0
102
RTVSPost2010PropOp45
 70
     1
102
RTVSPost2010Prop46
 90
       50
102
RTVSPost2010PropOp46
 70
     1
102
RTVSPost2010Prop47
 90
       50
102
RTVSPost2010PropOp47
 70
     1
102
RTVSPost2010Prop48
 90
       50
102
RTVSPost2010PropOp48
 70
     1
102
RTVSPost2010Prop49
280
     0
102
RTVSPost2010PropOp49
 70
     1
102
RTVSPost2010Prop50
 90
       50
102
RTVSPost2010PropOp50
 70
     1
102
RTVSPost2010Prop51ColorIndex
 90
      256
102
RTVSPost2010Prop51ColorRGB
 90
-16777216
102
RTVSPost2010PropOp51
 70
     0
102
RTVSPost2010Prop52
140
1.0
102
RTVSPost2010PropOp52
 70
     0
102
RTVSPost2010Prop53
 90
        2
102
RTVSPost2010PropOp53
 70
     1
102
RTVSPost2010Prop54
  1
strokes_ogs.tif
102
RTVSPost2010PropOp54
 70
     1
102
RTVSPost2010Prop55
280
     0
102
RTVSPost2010PropOp55
 70
     1
102
RTVSPost2010Prop56
140
1.0
102
RTVSPost2010PropOp56
 70
     1
102
RTVSPost2010Prop57
140
1.0
102
RTVSPost2010PropOp57
 70
     1
102
RTVSPropertyOp0
 70
     1
102
RTVSPropertyOp1
 70
     1
102
RTVSPropertyOp2
 70
     1
102
RTVSPropertyOp3
 70
     1
102
RTVSPropertyOp4
 70
     1
102
RTVSPropertyOp5
 70
     1
102
RTVSPropertyOp6
 70
     1
102
RTVSPropertyOp7
 70
     1
102
RTVSPropertyOp8
 70
     1
102
RTVSPropertyOp9
 70
     1
102
RTVSPropertyOp10
 70
     1
102
RTVSPropertyOp11
 70
     1
102
RTVSPropertyOp12
 70
     1
102
RTVSPropertyOp13
 70
     1
102
RTVSPropertyOp14
 70
     1
102
RTVSPropertyOp15
 70
     1
102
RTVSPropertyOp16
 70
     1
102
RTVSPropertyOp17
 70
     1
102
RTVSPropertyOp18
 70
     1
102
RTVSPropertyOp19
 70
     1
102
RTVSPropertyOp20
 70
     1
102
RTVSPropertyOp21
 70
     1
102
RTVSPropertyOp22
 70
     1
102
RTVSPropertyOp23
 70
     1
102
RTVSPropertyOp24
 70
     1
102
RTVSPropertyOp25
 70
     1
102
RTVSPropertyOp26
 70
     1
102
RTVSPropertyOp27
 70
     1
102
RTVSPropertyOp28
 70
     1
102
RTVSPropertyOp29
 70
     1
102
RTVSPropertyOp30
 70
     1
102
RTVSPropertyOp31
 70
     1
102
RTVSPropertyOp32
 70
     1
102
RTVSPropertyOp33
 70
     1
102
RTVSPropertyOp34
 70
     1
102
RTVSPropertyOp35
 70
     1
102
RTVSPropertyOp36
 70
     1
102
RTVSPropertyOp37
 70
     1
102
RTVSPropertyOp38
 70
     1
102
RTVSPropertyOp39
 70
     1
102
RTVSPropertyOp40
 70
     1
102
RTVSPropertyOp41
 70
     1
102
RTVSPropertyOp42
 70
     1
102
RTVSPropertyOp43
 70
     1
102
RTVSPropertyOp44
 70
     1
102
RTVSPropertyOp45
 70
     1
102
RTVSPropertyOp46
 70
     1
102
RTVSPropertyOp47
 70
     1
102
RTVSPropertyOp48
 70
     1
102
RTVSPropertyOp49
 70
     1
102
RTVSPropertyOp50
 70
     1
102
RTVSPropertyOp51
 70
     0
102
RTVSPropertyOp52
 70
     0
102
RTVSPropertyOp53
 70
     1
102
RTVSPropertyOp54
 70
     1
102
RTVSPropertyOp55
 70
     1
102
RTVSPropertyOp56
 70
     1
102
RTVSPropertyOp57
 70
     1
102
RTVSPropertyOp58
 70
     1
102
RTVSPropertyOp59
 70
     1
102
RTVSPropertyOp60
 70
     1
102
RTVSPropertyOp61
 70
     1
102
RTVSPropertyOp62
 70
     1
  0
XRECORD
  5
9F1
102
{ACAD_REACTORS
330
9F0
102
}
330
9F0
100
AcDbXrecord
280
     1
102
RTVSPost2010Prop28
280
     0
102
RTVSPost2010PropOp28
 70
     1
102
RTVSPost2010Prop29
280
     1
102
RTVSPost2010PropOp29
 70
     1
102
RTVSPost2010Prop30
280
     1
102
RTVSPost2010PropOp30
 70
     1
102
RTVSPost2010Prop31
280
     0
102
RTVSPost2010PropOp31
 70
     1
102
RTVSPost2010Prop32
280
     0
102
RTVSPost2010PropOp32
 70
     1
102
RTVSPost2010Prop33
280
     0
102
RTVSPost2010PropOp33
 70
     1
102
RTVSPost2010Prop34
280
     0
102
RTVSPost2010PropOp34
 70
     1
102
RTVSPost2010Prop35
280
     0
102
RTVSPost2010PropOp35
 70
     1
102
RTVSPost2010Prop36
280
     0
102
RTVSPost2010PropOp36
 70
     1
102
RTVSPost2010Prop37
 90
       50
102
RTVSPost2010PropOp37
 70
     1
102
RTVSPost2010Prop38
140
0.0
102
RTVSPost2010PropOp38
 70
     1
102
RTVSPost2010Prop39
140
1.0
102
RTVSPost2010PropOp39
 70
     1
102
RTVSPost2010Prop40
 90
        0
102
RTVSPost2010PropOp40
 70
     1
102
RTVSPost2010Prop41ColorIndex
 90
       18
102
RTVSPost2010Prop41ColorRGB
 90
        0
102
RTVSPost2010PropOp41
 70
     1
102
RTVSPost2010Prop42
 90
       50
102
RTVSPost2010PropOp42
 70
     1
102
RTVSPost2010Prop43
 90
        3
102
RTVSPost2010PropOp43
 70
     1
102
RTVSPost2010Prop44ColorIndex
 90
        5
102
RTVSPost2010Prop44ColorRGB
 90
      255
102
RTVSPost2010PropOp44
 70
     1
102
RTVSPost2010Prop45
280
     0
102
RTVSPost2010PropOp45
 70
     1
102
RTVSPost2010Prop46
 90
       50
102
RTVSPost2010PropOp46
 70
     1
102
RTVSPost2010Prop47
 90
       50
102
RTVSPost2010PropOp47
 70
     1
102
RTVSPost2010Prop48
 90
       50
102
RTVSPost2010PropOp48
 70
     1
102
RTVSPost2010Prop49
280
     0
102
RTVSPost2010PropOp49
 70
     1
102
RTVSPost2010Prop50
 90
       50
102
RTVSPost2010PropOp50
 70
     1
102
RTVSPost2010Prop51ColorIndex
 90
      256
102
RTVSPost2010Prop51ColorRGB
 90
-16777216
102
RTVSPost2010PropOp51
 70
     0
102
RTVSPost2010Prop52
140
1.0
102
RTVSPost2010PropOp52
 70
     0
102
RTVSPost2010Prop53
 90
        2
102
RTVSPost2010PropOp53
 70
     1
102
RTVSPost2010Prop54
  1
strokes_ogs.tif
102
RTVSPost2010PropOp54
 70
     1
102
RTVSPost2010Prop55
280
     0
102
RTVSPost2010PropOp55
 70
     1
102
RTVSPost2010Prop56
140
1.0
102
RTVSPost2010PropOp56
 70
     1
102
RTVSPost2010Prop57
140
1.0
102
RTVSPost2010PropOp57
 70
     1
102
RTVSPropertyOp0
 70
     1
102
RTVSPropertyOp1
 70
     1
102
RTVSPropertyOp2
 70
     1
102
RTVSPropertyOp3
 70
     1
102
RTVSPropertyOp4
 70
     1
102
RTVSPropertyOp5
 70
     1
102
RTVSPropertyOp6
 70
     1
102
RTVSPropertyOp7
 70
     1
102
RTVSPropertyOp8
 70
     1
102
RTVSPropertyOp9
 70
     1
102
RTVSPropertyOp10
 70
     1
102
RTVSPropertyOp11
 70
     1
102
RTVSPropertyOp12
 70
     1
102
RTVSPropertyOp13
 70
     1
102
RTVSPropertyOp14
 70
     1
102
RTVSPropertyOp15
 70
     1
102
RTVSPropertyOp16
 70
     1
102
RTVSPropertyOp17
 70
     1
102
RTVSPropertyOp18
 70
     1
102
RTVSPropertyOp19
 70
     1
102
RTVSPropertyOp20
 70
     1
102
RTVSPropertyOp21
 70
     1
102
RTVSPropertyOp22
 70
     1
102
RTVSPropertyOp23
 70
     1
102
RTVSPropertyOp24
 70
     1
102
RTVSPropertyOp25
 70
     1
102
RTVSPropertyOp26
 70
     1
102
RTVSPropertyOp27
 70
     1
102
RTVSPropertyOp28
 70
     1
102
RTVSPropertyOp29
 70
     1
102
RTVSPropertyOp30
 70
     1
102
RTVSPropertyOp31
 70
     1
102
RTVSPropertyOp32
 70
     1
102
RTVSPropertyOp33
 70
     1
102
RTVSPropertyOp34
 70
     1
102
RTVSPropertyOp35
 70
     1
102
RTVSPropertyOp36
 70
     1
102
RTVSPropertyOp37
 70
     1
102
RTVSPropertyOp38
 70
     1
102
RTVSPropertyOp39
 70
     1
102
RTVSPropertyOp40
 70
     1
102
RTVSPropertyOp41
 70
     1
102
RTVSPropertyOp42
 70
     1
102
RTVSPropertyOp43
 70
     1
102
RTVSPropertyOp44
 70
     1
102
RTVSPropertyOp45
 70
     1
102
RTVSPropertyOp46
 70
     1
102
RTVSPropertyOp47
 70
     1
102
RTVSPropertyOp48
 70
     1
102
RTVSPropertyOp49
 70
     1
102
RTVSPropertyOp50
 70
     1
102
RTVSPropertyOp51
 70
     0
102
RTVSPropertyOp52
 70
     0
102
RTVSPropertyOp53
 70
     1
102
RTVSPropertyOp54
 70
     1
102
RTVSPropertyOp55
 70
     1
102
RTVSPropertyOp56
 70
     1
102
RTVSPropertyOp57
 70
     1
102
RTVSPropertyOp58
 70
     1
102
RTVSPropertyOp59
 70
     1
102
RTVSPropertyOp60
 70
     1
102
RTVSPropertyOp61
 70
     1
102
RTVSPropertyOp62
 70
     1
  0
XRECORD
  5
9E7
102
{ACAD_REACTORS
330
9E6
102
}
330
9E6
100
AcDbXrecord
280
     1
102
RTVSPost2010Prop28
280
     0
102
RTVSPost2010PropOp28
 70
     1
102
RTVSPost2010Prop29
280
     1
102
RTVSPost2010PropOp29
 70
     1
102
RTVSPost2010Prop30
280
     1
102
RTVSPost2010PropOp30
 70
     1
102
RTVSPost2010Prop31
280
     0
102
RTVSPost2010PropOp31
 70
     1
102
RTVSPost2010Prop32
280
     0
102
RTVSPost2010PropOp32
 70
     1
102
RTVSPost2010Prop33
280
     0
102
RTVSPost2010PropOp33
 70
     1
102
RTVSPost2010Prop34
280
     0
102
RTVSPost2010PropOp34
 70
     1
102
RTVSPost2010Prop35
280
     0
102
RTVSPost2010PropOp35
 70
     1
102
RTVSPost2010Prop36
280
     0
102
RTVSPost2010PropOp36
 70
     1
102
RTVSPost2010Prop37
 90
       50
102
RTVSPost2010PropOp37
 70
     1
102
RTVSPost2010Prop38
140
0.0
102
RTVSPost2010PropOp38
 70
     1
102
RTVSPost2010Prop39
140
1.0
102
RTVSPost2010PropOp39
 70
     1
102
RTVSPost2010Prop40
 90
        0
102
RTVSPost2010PropOp40
 70
     1
102
RTVSPost2010Prop41ColorIndex
 90
       18
102
RTVSPost2010Prop41ColorRGB
 90
        0
102
RTVSPost2010PropOp41
 70
     1
102
RTVSPost2010Prop42
 90
       50
102
RTVSPost2010PropOp42
 70
     1
102
RTVSPost2010Prop43
 90
        3
102
RTVSPost2010PropOp43
 70
     1
102
RTVSPost2010Prop44ColorIndex
 90
        5
102
RTVSPost2010Prop44ColorRGB
 90
      255
102
RTVSPost2010PropOp44
 70
     1
102
RTVSPost2010Prop45
280
     0
102
RTVSPost2010PropOp45
 70
     1
102
RTVSPost2010Prop46
 90
       50
102
RTVSPost2010PropOp46
 70
     1
102
RTVSPost2010Prop47
 90
       50
102
RTVSPost2010PropOp47
 70
     1
102
RTVSPost2010Prop48
 90
       50
102
RTVSPost2010PropOp48
 70
     1
102
RTVSPost2010Prop49
280
     0
102
RTVSPost2010PropOp49
 70
     1
102
RTVSPost2010Prop50
 90
       50
102
RTVSPost2010PropOp50
 70
     1
102
RTVSPost2010Prop51ColorIndex
 90
      256
102
RTVSPost2010Prop51ColorRGB
 90
-16777216
102
RTVSPost2010PropOp51
 70
     0
102
RTVSPost2010Prop52
140
1.0
102
RTVSPost2010PropOp52
 70
     0
102
RTVSPost2010Prop53
 90
        2
102
RTVSPost2010PropOp53
 70
     1
102
RTVSPost2010Prop54
  1
strokes_ogs.tif
102
RTVSPost2010PropOp54
 70
     1
102
RTVSPost2010Prop55
280
     0
102
RTVSPost2010PropOp55
 70
     1
102
RTVSPost2010Prop56
140
1.0
102
RTVSPost2010PropOp56
 70
     1
102
RTVSPost2010Prop57
140
1.0
102
RTVSPost2010PropOp57
 70
     1
102
RTVSPropertyOp0
 70
     1
102
RTVSPropertyOp1
 70
     1
102
RTVSPropertyOp2
 70
     1
102
RTVSPropertyOp3
 70
     1
102
RTVSPropertyOp4
 70
     1
102
RTVSPropertyOp5
 70
     1
102
RTVSPropertyOp6
 70
     1
102
RTVSPropertyOp7
 70
     1
102
RTVSPropertyOp8
 70
     1
102
RTVSPropertyOp9
 70
     1
102
RTVSPropertyOp10
 70
     1
102
RTVSPropertyOp11
 70
     1
102
RTVSPropertyOp12
 70
     1
102
RTVSPropertyOp13
 70
     1
102
RTVSPropertyOp14
 70
     1
102
RTVSPropertyOp15
 70
     1
102
RTVSPropertyOp16
 70
     1
102
RTVSPropertyOp17
 70
     1
102
RTVSPropertyOp18
 70
     1
102
RTVSPropertyOp19
 70
     1
102
RTVSPropertyOp20
 70
     1
102
RTVSPropertyOp21
 70
     1
102
RTVSPropertyOp22
 70
     1
102
RTVSPropertyOp23
 70
     1
102
RTVSPropertyOp24
 70
     1
102
RTVSPropertyOp25
 70
     1
102
RTVSPropertyOp26
 70
     1
102
RTVSPropertyOp27
 70
     1
102
RTVSPropertyOp28
 70
     1
102
RTVSPropertyOp29
 70
     1
102
RTVSPropertyOp30
 70
     1
102
RTVSPropertyOp31
 70
     1
102
RTVSPropertyOp32
 70
     1
102
RTVSPropertyOp33
 70
     1
102
RTVSPropertyOp34
 70
     1
102
RTVSPropertyOp35
 70
     1
102
RTVSPropertyOp36
 70
     1
102
RTVSPropertyOp37
 70
     1
102
RTVSPropertyOp38
 70
     1
102
RTVSPropertyOp39
 70
     1
102
RTVSPropertyOp40
 70
     1
102
RTVSPropertyOp41
 70
     1
102
RTVSPropertyOp42
 70
     1
102
RTVSPropertyOp43
 70
     1
102
RTVSPropertyOp44
 70
     1
102
RTVSPropertyOp45
 70
     1
102
RTVSPropertyOp46
 70
     1
102
RTVSPropertyOp47
 70
     1
102
RTVSPropertyOp48
 70
     1
102
RTVSPropertyOp49
 70
     1
102
RTVSPropertyOp50
 70
     1
102
RTVSPropertyOp51
 70
     0
102
RTVSPropertyOp52
 70
     0
102
RTVSPropertyOp53
 70
     1
102
RTVSPropertyOp54
 70
     1
102
RTVSPropertyOp55
 70
     1
102
RTVSPropertyOp56
 70
     1
102
RTVSPropertyOp57
 70
     1
102
RTVSPropertyOp58
 70
     1
102
RTVSPropertyOp59
 70
     1
102
RTVSPropertyOp60
 70
     1
102
RTVSPropertyOp61
 70
     1
102
RTVSPropertyOp62
 70
     1
  0
XRECORD
  5
9DB
102
{ACAD_REACTORS
330
9DA
102
}
330
9DA
100
AcDbXrecord
280
     1
102
RTVSPost2010Prop28
280
     0
102
RTVSPost2010PropOp28
 70
     1
102
RTVSPost2010Prop29
280
     1
102
RTVSPost2010PropOp29
 70
     1
102
RTVSPost2010Prop30
280
     1
102
RTVSPost2010PropOp30
 70
     1
102
RTVSPost2010Prop31
280
     0
102
RTVSPost2010PropOp31
 70
     1
102
RTVSPost2010Prop32
280
     0
102
RTVSPost2010PropOp32
 70
     1
102
RTVSPost2010Prop33
280
     0
102
RTVSPost2010PropOp33
 70
     1
102
RTVSPost2010Prop34
280
     0
102
RTVSPost2010PropOp34
 70
     1
102
RTVSPost2010Prop35
280
     0
102
RTVSPost2010PropOp35
 70
     1
102
RTVSPost2010Prop36
280
     0
102
RTVSPost2010PropOp36
 70
     1
102
RTVSPost2010Prop37
 90
       50
102
RTVSPost2010PropOp37
 70
     1
102
RTVSPost2010Prop38
140
0.0
102
RTVSPost2010PropOp38
 70
     1
102
RTVSPost2010Prop39
140
1.0
102
RTVSPost2010PropOp39
 70
     1
102
RTVSPost2010Prop40
 90
        0
102
RTVSPost2010PropOp40
 70
     1
102
RTVSPost2010Prop41ColorIndex
 90
       18
102
RTVSPost2010Prop41ColorRGB
 90
        0
102
RTVSPost2010PropOp41
 70
     1
102
RTVSPost2010Prop42
 90
       50
102
RTVSPost2010PropOp42
 70
     1
102
RTVSPost2010Prop43
 90
        3
102
RTVSPost2010PropOp43
 70
     1
102
RTVSPost2010Prop44ColorIndex
 90
        5
102
RTVSPost2010Prop44ColorRGB
 90
      255
102
RTVSPost2010PropOp44
 70
     1
102
RTVSPost2010Prop45
280
     0
102
RTVSPost2010PropOp45
 70
     1
102
RTVSPost2010Prop46
 90
       50
102
RTVSPost2010PropOp46
 70
     1
102
RTVSPost2010Prop47
 90
       50
102
RTVSPost2010PropOp47
 70
     1
102
RTVSPost2010Prop48
 90
       50
102
RTVSPost2010PropOp48
 70
     1
102
RTVSPost2010Prop49
280
     0
102
RTVSPost2010PropOp49
 70
     1
102
RTVSPost2010Prop50
 90
       50
102
RTVSPost2010PropOp50
 70
     1
102
RTVSPost2010Prop51ColorIndex
 90
      256
102
RTVSPost2010Prop51ColorRGB
 90
-16777216
102
RTVSPost2010PropOp51
 70
     0
102
RTVSPost2010Prop52
140
1.0
102
RTVSPost2010PropOp52
 70
     0
102
RTVSPost2010Prop53
 90
        2
102
RTVSPost2010PropOp53
 70
     1
102
RTVSPost2010Prop54
  1
strokes_ogs.tif
102
RTVSPost2010PropOp54
 70
     1
102
RTVSPost2010Prop55
280
     0
102
RTVSPost2010PropOp55
 70
     1
102
RTVSPost2010Prop56
140
1.0
102
RTVSPost2010PropOp56
 70
     1
102
RTVSPost2010Prop57
140
1.0
102
RTVSPost2010PropOp57
 70
     1
102
RTVSPropertyOp0
 70
     1
102
RTVSPropertyOp1
 70
     1
102
RTVSPropertyOp2
 70
     1
102
RTVSPropertyOp3
 70
     1
102
RTVSPropertyOp4
 70
     1
102
RTVSPropertyOp5
 70
     1
102
RTVSPropertyOp6
 70
     1
102
RTVSPropertyOp7
 70
     1
102
RTVSPropertyOp8
 70
     1
102
RTVSPropertyOp9
 70
     1
102
RTVSPropertyOp10
 70
     1
102
RTVSPropertyOp11
 70
     1
102
RTVSPropertyOp12
 70
     1
102
RTVSPropertyOp13
 70
     1
102
RTVSPropertyOp14
 70
     1
102
RTVSPropertyOp15
 70
     1
102
RTVSPropertyOp16
 70
     1
102
RTVSPropertyOp17
 70
     1
102
RTVSPropertyOp18
 70
     1
102
RTVSPropertyOp19
 70
     1
102
RTVSPropertyOp20
 70
     1
102
RTVSPropertyOp21
 70
     1
102
RTVSPropertyOp22
 70
     1
102
RTVSPropertyOp23
 70
     1
102
RTVSPropertyOp24
 70
     1
102
RTVSPropertyOp25
 70
     1
102
RTVSPropertyOp26
 70
     1
102
RTVSPropertyOp27
 70
     1
102
RTVSPropertyOp28
 70
     1
102
RTVSPropertyOp29
 70
     1
102
RTVSPropertyOp30
 70
     1
102
RTVSPropertyOp31
 70
     1
102
RTVSPropertyOp32
 70
     1
102
RTVSPropertyOp33
 70
     1
102
RTVSPropertyOp34
 70
     1
102
RTVSPropertyOp35
 70
     1
102
RTVSPropertyOp36
 70
     1
102
RTVSPropertyOp37
 70
     1
102
RTVSPropertyOp38
 70
     1
102
RTVSPropertyOp39
 70
     1
102
RTVSPropertyOp40
 70
     1
102
RTVSPropertyOp41
 70
     1
102
RTVSPropertyOp42
 70
     1
102
RTVSPropertyOp43
 70
     1
102
RTVSPropertyOp44
 70
     1
102
RTVSPropertyOp45
 70
     1
102
RTVSPropertyOp46
 70
     1
102
RTVSPropertyOp47
 70
     1
102
RTVSPropertyOp48
 70
     1
102
RTVSPropertyOp49
 70
     1
102
RTVSPropertyOp50
 70
     1
102
RTVSPropertyOp51
 70
     0
102
RTVSPropertyOp52
 70
     0
102
RTVSPropertyOp53
 70
     1
102
RTVSPropertyOp54
 70
     1
102
RTVSPropertyOp55
 70
     1
102
RTVSPropertyOp56
 70
     1
102
RTVSPropertyOp57
 70
     1
102
RTVSPropertyOp58
 70
     1
102
RTVSPropertyOp59
 70
     1
102
RTVSPropertyOp60
 70
     1
102
RTVSPropertyOp61
 70
     1
102
RTVSPropertyOp62
 70
     1
  0
XRECORD
  5
9F3
102
{ACAD_REACTORS
330
9F2
102
}
330
9F2
100
AcDbXrecord
280
     1
102
RTVSPost2010Prop28
280
     0
102
RTVSPost2010PropOp28
 70
     1
102
RTVSPost2010Prop29
280
     1
102
RTVSPost2010PropOp29
 70
     1
102
RTVSPost2010Prop30
280
     1
102
RTVSPost2010PropOp30
 70
     1
102
RTVSPost2010Prop31
280
     0
102
RTVSPost2010PropOp31
 70
     1
102
RTVSPost2010Prop32
280
     0
102
RTVSPost2010PropOp32
 70
     1
102
RTVSPost2010Prop33
280
     0
102
RTVSPost2010PropOp33
 70
     1
102
RTVSPost2010Prop34
280
     0
102
RTVSPost2010PropOp34
 70
     1
102
RTVSPost2010Prop35
280
     0
102
RTVSPost2010PropOp35
 70
     1
102
RTVSPost2010Prop36
280
     0
102
RTVSPost2010PropOp36
 70
     1
102
RTVSPost2010Prop37
 90
       50
102
RTVSPost2010PropOp37
 70
     1
102
RTVSPost2010Prop38
140
0.0
102
RTVSPost2010PropOp38
 70
     1
102
RTVSPost2010Prop39
140
1.0
102
RTVSPost2010PropOp39
 70
     1
102
RTVSPost2010Prop40
 90
        0
102
RTVSPost2010PropOp40
 70
     1
102
RTVSPost2010Prop41ColorIndex
 90
       18
102
RTVSPost2010Prop41ColorRGB
 90
        0
102
RTVSPost2010PropOp41
 70
     1
102
RTVSPost2010Prop42
 90
       50
102
RTVSPost2010PropOp42
 70
     1
102
RTVSPost2010Prop43
 90
        3
102
RTVSPost2010PropOp43
 70
     1
102
RTVSPost2010Prop44ColorIndex
 90
        5
102
RTVSPost2010Prop44ColorRGB
 90
      255
102
RTVSPost2010PropOp44
 70
     1
102
RTVSPost2010Prop45
280
     0
102
RTVSPost2010PropOp45
 70
     1
102
RTVSPost2010Prop46
 90
       50
102
RTVSPost2010PropOp46
 70
     1
102
RTVSPost2010Prop47
 90
       50
102
RTVSPost2010PropOp47
 70
     1
102
RTVSPost2010Prop48
 90
       50
102
RTVSPost2010PropOp48
 70
     1
102
RTVSPost2010Prop49
280
     0
102
RTVSPost2010PropOp49
 70
     1
102
RTVSPost2010Prop50
 90
       50
102
RTVSPost2010PropOp50
 70
     1
102
RTVSPost2010Prop51ColorIndex
 90
      256
102
RTVSPost2010Prop51ColorRGB
 90
-16777216
102
RTVSPost2010PropOp51
 70
     0
102
RTVSPost2010Prop52
140
1.0
102
RTVSPost2010PropOp52
 70
     0
102
RTVSPost2010Prop53
 90
        2
102
RTVSPost2010PropOp53
 70
     1
102
RTVSPost2010Prop54
  1
strokes_ogs.tif
102
RTVSPost2010PropOp54
 70
     1
102
RTVSPost2010Prop55
280
     0
102
RTVSPost2010PropOp55
 70
     1
102
RTVSPost2010Prop56
140
1.0
102
RTVSPost2010PropOp56
 70
     1
102
RTVSPost2010Prop57
140
1.0
102
RTVSPost2010PropOp57
 70
     1
102
RTVSPropertyOp0
 70
     1
102
RTVSPropertyOp1
 70
     1
102
RTVSPropertyOp2
 70
     1
102
RTVSPropertyOp3
 70
     1
102
RTVSPropertyOp4
 70
     1
102
RTVSPropertyOp5
 70
     1
102
RTVSPropertyOp6
 70
     1
102
RTVSPropertyOp7
 70
     1
102
RTVSPropertyOp8
 70
     1
102
RTVSPropertyOp9
 70
     1
102
RTVSPropertyOp10
 70
     1
102
RTVSPropertyOp11
 70
     1
102
RTVSPropertyOp12
 70
     1
102
RTVSPropertyOp13
 70
     1
102
RTVSPropertyOp14
 70
     1
102
RTVSPropertyOp15
 70
     1
102
RTVSPropertyOp16
 70
     1
102
RTVSPropertyOp17
 70
     1
102
RTVSPropertyOp18
 70
     1
102
RTVSPropertyOp19
 70
     1
102
RTVSPropertyOp20
 70
     1
102
RTVSPropertyOp21
 70
     1
102
RTVSPropertyOp22
 70
     1
102
RTVSPropertyOp23
 70
     1
102
RTVSPropertyOp24
 70
     1
102
RTVSPropertyOp25
 70
     1
102
RTVSPropertyOp26
 70
     1
102
RTVSPropertyOp27
 70
     1
102
RTVSPropertyOp28
 70
     1
102
RTVSPropertyOp29
 70
     1
102
RTVSPropertyOp30
 70
     1
102
RTVSPropertyOp31
 70
     1
102
RTVSPropertyOp32
 70
     1
102
RTVSPropertyOp33
 70
     1
102
RTVSPropertyOp34
 70
     1
102
RTVSPropertyOp35
 70
     1
102
RTVSPropertyOp36
 70
     1
102
RTVSPropertyOp37
 70
     1
102
RTVSPropertyOp38
 70
     1
102
RTVSPropertyOp39
 70
     1
102
RTVSPropertyOp40
 70
     1
102
RTVSPropertyOp41
 70
     1
102
RTVSPropertyOp42
 70
     1
102
RTVSPropertyOp43
 70
     1
102
RTVSPropertyOp44
 70
     1
102
RTVSPropertyOp45
 70
     1
102
RTVSPropertyOp46
 70
     1
102
RTVSPropertyOp47
 70
     1
102
RTVSPropertyOp48
 70
     1
102
RTVSPropertyOp49
 70
     1
102
RTVSPropertyOp50
 70
     1
102
RTVSPropertyOp51
 70
     0
102
RTVSPropertyOp52
 70
     0
102
RTVSPropertyOp53
 70
     1
102
RTVSPropertyOp54
 70
     1
102
RTVSPropertyOp55
 70
     1
102
RTVSPropertyOp56
 70
     1
102
RTVSPropertyOp57
 70
     1
102
RTVSPropertyOp58
 70
     1
102
RTVSPropertyOp59
 70
     1
102
RTVSPropertyOp60
 70
     1
102
RTVSPropertyOp61
 70
     1
102
RTVSPropertyOp62
 70
     1
  0
ENDSEC
  0
EOF
