  0
SECTION
  2
HEADER
  9
$ACADVER
  1
AC1015
  9
$ACADMAINTVER
 70
    20
  9
$DWGCODEPAGE
  3
ANSI_932
  9
$INSBASE
 10
0.0
 20
0.0
 30
0.0
  9
$EXTMIN
 10
9.999999064246615
 20
9.999999806846744
 30
0.0
  9
$EXTMAX
 10
1385.888327172133
 20
378.7718813890412
 30
0.0
  9
$LIMMIN
 10
0.0000015376081137
 20
-0.0000001931532552
  9
$LIMMAX
 10
1402.000001537607
 20
966.5303028371496
  9
$ORTHOMODE
 70
     0
  9
$REGENMODE
 70
     1
  9
$FILLMODE
 70
     1
  9
$QTEXTMODE
 70
     0
  9
$MIRRTEXT
 70
     1
  9
$LTSCALE
 40
1.0
  9
$ATTMODE
 70
     1
  9
$TEXTSIZE
 40
2.5
  9
$TRACEWID
 40
1.0
  9
$TEXTSTYLE
  7
STANDARD
  9
$CLAYER
  8
0
  9
$CELTYPE
  6
ByLayer
  9
$CECOLOR
 62
   256
  9
$CELTSCALE
 40
1.0
  9
$DISPSILH
 70
     0
  9
$DIMSCALE
 40
1.0
  9
$DIMASZ
 40
3.0
  9
$DIMEXO
 40
1.0
  9
$DIMDLI
 40
10.0
  9
$DIMRND
 40
0.0
  9
$DIMDLE
 40
0.0
  9
$DIMEXE
 40
1.0
  9
$DIMTP
 40
0.0
  9
$DIMTM
 40
0.0
  9
$DIMTXT
 40
3.2
  9
$DIMCEN
 40
0.0
  9
$DIMTSZ
 40
0.0
  9
$DIMTOL
 70
     0
  9
$DIMLIM
 70
     0
  9
$DIMTIH
 70
     0
  9
$DIMTOH
 70
     0
  9
$DIMSE1
 70
     0
  9
$DIMSE2
 70
     0
  9
$DIMTAD
 70
     3
  9
$DIMZIN
 70
     8
  9
$DIMBLK
  1

  9
$DIMASO
 70
     1
  9
$DIMSHO
 70
     1
  9
$DIMPOST
  1

  9
$DIMAPOST
  1

  9
$DIMALT
 70
     0
  9
$DIMALTD
 70
     2
  9
$DIMALTF
 40
25.4
  9
$DIMLFAC
 40
1.0
  9
$DIMTOFL
 70
     1
  9
$DIMTVP
 40
0.0
  9
$DIMTIX
 70
     0
  9
$DIMSOXD
 70
     0
  9
$DIMSAH
 70
     1
  9
$DIMBLK1
  1
OPEN
  9
$DIMBLK2
  1
OPEN
  9
$DIMSTYLE
  2
STANDARD
  9
$DIMCLRD
 70
     0
  9
$DIMCLRE
 70
     0
  9
$DIMCLRT
 70
     0
  9
$DIMTFAC
 40
1.0
  9
$DIMGAP
 40
1.0
  9
$DIMJUST
 70
     0
  9
$DIMSD1
 70
     0
  9
$DIMSD2
 70
     0
  9
$DIMTOLJ
 70
     1
  9
$DIMTZIN
 70
     0
  9
$DIMALTZ
 70
     0
  9
$DIMALTTZ
 70
     0
  9
$DIMUPT
 70
     0
  9
$DIMDEC
 70
     4
  9
$DIMTDEC
 70
     4
  9
$DIMALTU
 70
     2
  9
$DIMALTTD
 70
     2
  9
$DIMTXSTY
  7
STANDARD
  9
$DIMAUNIT
 70
     0
  9
$DIMADEC
 70
     0
  9
$DIMALTRND
 40
0.0
  9
$DIMAZIN
 70
     0
  9
$DIMDSEP
 70
    46
  9
$DIMATFIT
 70
     3
  9
$DIMFRAC
 70
     0
  9
$DIMLDRBLK
  1
OPEN
  9
$DIMLUNIT
 70
     2
  9
$DIMLWD
 70
    -2
  9
$DIMLWE
 70
    -2
  9
$DIMTMOVE
 70
     0
  9
$LUNITS
 70
     2
  9
$LUPREC
 70
     4
  9
$SKETCHINC
 40
1.0
  9
$FILLETRAD
 40
0.0
  9
$AUNITS
 70
     0
  9
$AUPREC
 70
     0
  9
$MENU
  1
.
  9
$ELEVATION
 40
0.0
  9
$PELEVATION
 40
0.0
  9
$THICKNESS
 40
0.0
  9
$LIMCHECK
 70
     0
  9
$CHAMFERA
 40
10.0
  9
$CHAMFERB
 40
10.0
  9
$CHAMFERC
 40
0.0
  9
$CHAMFERD
 40
0.0
  9
$SKPOLY
 70
     0
  9
$TDCREATE
 40
2456276.685587500
  9
$TDUCREATE
 40
2456276.310587500
  9
$TDUPDATE
 40
2457192.664144792
  9
$TDUUPDATE
 40
2457192.289144792
  9
$TDINDWG
 40
0.0299185764
  9
$TDUSRTIMER
 40
0.0299185417
  9
$USRTIMER
 70
     1
  9
$ANGBASE
 50
0.0
  9
$ANGDIR
 70
     0
  9
$PDMODE
 70
     0
  9
$PDSIZE
 40
0.0
  9
$PLINEWID
 40
0.0
  9
$SPLFRAME
 70
     0
  9
$SPLINETYPE
 70
     6
  9
$SPLINESEGS
 70
     8
  9
$HANDSEED
  5
A13
  9
$SURFTAB1
 70
     6
  9
$SURFTAB2
 70
     6
  9
$SURFTYPE
 70
     6
  9
$SURFU
 70
     6
  9
$SURFV
 70
     6
  9
$UCSBASE
  2

  9
$UCSNAME
  2

  9
$UCSORG
 10
0.0
 20
0.0
 30
0.0
  9
$UCSXDIR
 10
1.0
 20
0.0
 30
0.0
  9
$UCSYDIR
 10
0.0
 20
1.0
 30
0.0
  9
$UCSORTHOREF
  2

  9
$UCSORTHOVIEW
 70
     0
  9
$UCSORGTOP
 10
0.0
 20
0.0
 30
0.0
  9
$UCSORGBOTTOM
 10
0.0
 20
0.0
 30
0.0
  9
$UCSORGLEFT
 10
0.0
 20
0.0
 30
0.0
  9
$UCSORGRIGHT
 10
0.0
 20
0.0
 30
0.0
  9
$UCSORGFRONT
 10
0.0
 20
0.0
 30
0.0
  9
$UCSORGBACK
 10
0.0
 20
0.0
 30
0.0
  9
$PUCSBASE
  2

  9
$PUCSNAME
  2

  9
$PUCSORG
 10
0.0
 20
0.0
 30
0.0
  9
$PUCSXDIR
 10
1.0
 20
0.0
 30
0.0
  9
$PUCSYDIR
 10
0.0
 20
1.0
 30
0.0
  9
$PUCSORTHOREF
  2

  9
$PUCSORTHOVIEW
 70
     0
  9
$PUCSORGTOP
 10
0.0
 20
0.0
 30
0.0
  9
$PUCSORGBOTTOM
 10
0.0
 20
0.0
 30
0.0
  9
$PUCSORGLEFT
 10
0.0
 20
0.0
 30
0.0
  9
$PUCSORGRIGHT
 10
0.0
 20
0.0
 30
0.0
  9
$PUCSORGFRONT
 10
0.0
 20
0.0
 30
0.0
  9
$PUCSORGBACK
 10
0.0
 20
0.0
 30
0.0
  9
$USERI1
 70
     0
  9
$USERI2
 70
     0
  9
$USERI3
 70
     0
  9
$USERI4
 70
     0
  9
$USERI5
 70
     0
  9
$USERR1
 40
0.0
  9
$USERR2
 40
0.0
  9
$USERR3
 40
0.0
  9
$USERR4
 40
0.0
  9
$USERR5
 40
0.0
  9
$WORLDVIEW
 70
     1
  9
$SHADEDGE
 70
     3
  9
$SHADEDIF
 70
    70
  9
$TILEMODE
 70
     1
  9
$MAXACTVP
 70
    48
  9
$PINSBASE
 10
0.0
 20
0.0
 30
0.0
  9
$PLIMCHECK
 70
     0
  9
$PEXTMIN
 10
1.000000000000000E+20
 20
1.000000000000000E+20
 30
1.000000000000000E+20
  9
$PEXTMAX
 10
-1.000000000000000E+20
 20
-1.000000000000000E+20
 30
-1.000000000000000E+20
  9
$PLIMMIN
 10
0.0
 20
0.0
  9
$PLIMMAX
 10
420.0
 20
297.0
  9
$UNITMODE
 70
     0
  9
$VISRETAIN
 70
     1
  9
$PLINEGEN
 70
     0
  9
$PSLTSCALE
 70
     1
  9
$TREEDEPTH
 70
  3020
  9
$CMLSTYLE
  2
Standard
  9
$CMLJUST
 70
     0
  9
$CMLSCALE
 40
1.0
  9
$PROXYGRAPHICS
 70
     1
  9
$MEASUREMENT
 70
     0
  9
$CELWEIGHT
370
    -1
  9
$ENDCAPS
280
     0
  9
$JOINSTYLE
280
     0
  9
$LWDISPLAY
290
     0
  9
$INSUNITS
 70
     0
  9
$HYPERLINKBASE
  1

  9
$STYLESHEET
  1

  9
$XEDIT
290
     1
  9
$CEPSNTYPE
380
     0
  9
$PSTYLEMODE
290
     1
  9
$FINGERPRINTGUID
  2
{D5AB32FC-96D3-4B68-B1D4-B73AB1023530}
  9
$VERSIONGUID
  2
{CDD724DA-6CC1-440E-B258-0519B632D277}
  9
$EXTNAMES
290
     1
  9
$PSVPSCALE
 40
0.0
  9
$OLESTARTUP
290
     0
  0
ENDSEC
  0
SECTION
  2
CLASSES
  0
CLASS
  1
ACDBDICTIONARYWDFLT
  2
AcDbDictionaryWithDefault
  3
ObjectDBX Classes
 90
        0
280
     0
281
     0
  0
CLASS
  1
MATERIAL
  2
AcDbMaterial
  3
ObjectDBX Classes
 90
     1153
280
     0
281
     0
  0
CLASS
  1
VISUALSTYLE
  2
AcDbVisualStyle
  3
ObjectDBX Classes
 90
     4095
280
     0
281
     0
  0
CLASS
  1
SCALE
  2
AcDbScale
  3
ObjectDBX Classes
 90
     1153
280
     0
281
     0
  0
CLASS
  1
TABLESTYLE
  2
AcDbTableStyle
  3
ObjectDBX Classes
 90
     4095
280
     0
281
     0
  0
CLASS
  1
MLEADERSTYLE
  2
AcDbMLeaderStyle
  3
ACDB_MLEADERSTYLE_CLASS
 90
     4095
280
     0
281
     0
  0
CLASS
  1
ACDBSECTIONVIEWSTYLE
  2
AcDbSectionViewStyle
  3
ObjectDBX Classes
 90
     1025
280
     0
281
     0
  0
CLASS
  1
ACDBDETAILVIEWSTYLE
  2
AcDbDetailViewStyle
  3
ObjectDBX Classes
 90
     1025
280
     0
281
     0
  0
CLASS
  1
DICTIONARYVAR
  2
AcDbDictionaryVar
  3
ObjectDBX Classes
 90
        0
280
     0
281
     0
  0
CLASS
  1
CELLSTYLEMAP
  2
AcDbCellStyleMap
  3
ObjectDBX Classes
 90
     1152
280
     0
281
     0
  0
CLASS
  1
ACDBPLACEHOLDER
  2
AcDbPlaceHolder
  3
ObjectDBX Classes
 90
        0
280
     0
281
     0
  0
CLASS
  1
LAYOUT
  2
AcDbLayout
  3
ObjectDBX Classes
 90
        0
280
     0
281
     0
  0
ENDSEC
  0
SECTION
  2
TABLES
  0
TABLE
  2
VPORT
  5
936
330
0
100
AcDbSymbolTable
 70
     1
  0
VPORT
  5
9A1
330
936
100
AcDbSymbolTableRecord
100
AcDbViewportTableRecord
  2
*ACTIVE
 70
     0
 10
0.0
 20
0.0
 11
1.0
 21
1.0
 12
1069.938037092182
 22
194.3870967387937
 13
0.0
 23
0.0
 14
10.0
 24
10.0
 15
10.0
 25
10.0
 16
0.0
 26
0.0
 36
1.0
 17
0.0
 27
0.0
 37
0.0
 40
905.1652171106916
 41
1.899603698811096
 42
50.0
 43
0.0
 44
0.0
 50
0.0
 51
0.0
 71
     0
 72
   100
 73
     1
 74
     0
 75
     0
 76
     0
 77
     0
 78
     0
281
     0
 65
     1
110
0.0
120
0.0
130
0.0
111
1.0
121
0.0
131
0.0
112
0.0
122
1.0
132
0.0
 79
     0
146
0.0
1001
ACAD_NAV_VCDISPLAY
1070
     3
  0
ENDTAB
  0
TABLE
  2
LTYPE
  5
933
330
0
100
AcDbSymbolTable
 70
     4
  0
LTYPE
  5
988
330
933
100
AcDbSymbolTableRecord
100
AcDbLinetypeTableRecord
  2
ByBlock
 70
     0
  3

 72
    65
 73
     0
 40
0.0
  0
LTYPE
  5
989
330
933
100
AcDbSymbolTableRecord
100
AcDbLinetypeTableRecord
  2
ByLayer
 70
     0
  3

 72
    65
 73
     0
 40
0.0
  0
LTYPE
  5
98A
330
933
100
AcDbSymbolTableRecord
100
AcDbLinetypeTableRecord
  2
CONTINUOUS
 70
     0
  3
Solid line
 72
    65
 73
     0
 40
0.0
  0
LTYPE
  5
9A2
330
933
100
AcDbSymbolTableRecord
100
AcDbLinetypeTableRecord
  2
DASHED
 70
     0
  3
Dashed __ __ __ __ __ __ __ __ __ __ __ __ __ _
 72
    65
 73
     2
 40
19.04999999999999
 49
12.7
 74
     0
 49
-6.349999999999998
 74
     0
  0
LTYPE
  5
9A3
330
933
100
AcDbSymbolTableRecord
100
AcDbLinetypeTableRecord
  2
CENTER
 70
     0
  3
Center ____ _ ____ _ ____ _ ____ _ ____ _ ____
 72
    65
 73
     4
 40
50.8
 49
31.75
 74
     0
 49
-6.349999999999998
 74
     0
 49
6.349999999999998
 74
     0
 49
-6.349999999999998
 74
     0
  0
LTYPE
  5
9A4
330
933
100
AcDbSymbolTableRecord
100
AcDbLinetypeTableRecord
  2
PHANTOM
 70
     0
  3
Phantom ______  __  __  ______  __  __  ______
 72
    65
 73
     6
 40
63.5
 49
31.75
 74
     0
 49
-6.349999999999998
 74
     0
 49
6.349999999999998
 74
     0
 49
-6.349999999999998
 74
     0
 49
6.349999999999998
 74
     0
 49
-6.349999999999998
 74
     0
  0
ENDTAB
  0
TABLE
  2
LAYER
  5
930
330
0
100
AcDbSymbolTable
 70
     8
  0
LAYER
  5
982
102
{ACAD_XDICTIONARY
360
9B7
102
}
330
930
100
AcDbSymbolTableRecord
100
AcDbLayerTableRecord
  2
0
 70
     0
 62
     7
  6
CONTINUOUS
370
    -3
390
93D
  0
LAYER
  5
9A5
102
{ACAD_XDICTIONARY
360
9B9
102
}
330
930
100
AcDbSymbolTableRecord
100
AcDbLayerTableRecord
  2
4
 70
     0
 62
     1
  6
CENTER
370
    -3
390
93D
  0
LAYER
  5
9A6
102
{ACAD_XDICTIONARY
360
9BB
102
}
330
930
100
AcDbSymbolTableRecord
100
AcDbLayerTableRecord
  2
5
 70
     0
 62
     6
  6
PHANTOM
370
    -3
390
93D
  0
LAYER
  5
9A7
102
{ACAD_XDICTIONARY
360
9BD
102
}
330
930
100
AcDbSymbolTableRecord
100
AcDbLayerTableRecord
  2
1
 70
     0
 62
     7
  6
CONTINUOUS
370
    -3
390
93D
  0
LAYER
  5
9A8
102
{ACAD_XDICTIONARY
360
9BF
102
}
330
930
100
AcDbSymbolTableRecord
100
AcDbLayerTableRecord
  2
2
 70
     0
 62
     4
  6
CONTINUOUS
370
    -3
390
93D
  0
LAYER
  5
9A9
102
{ACAD_XDICTIONARY
360
9C1
102
}
330
930
100
AcDbSymbolTableRecord
100
AcDbLayerTableRecord
  2
3
 70
     0
 62
     2
  6
DASHED
370
    -3
390
93D
  0
LAYER
  5
9AA
102
{ACAD_XDICTIONARY
360
9C3
102
}
330
930
100
AcDbSymbolTableRecord
100
AcDbLayerTableRecord
  2
6
 70
     0
 62
     5
  6
CONTINUOUS
370
    -3
390
93D
  0
LAYER
  5
9AB
102
{ACAD_XDICTIONARY
360
9C5
102
}
330
930
100
AcDbSymbolTableRecord
100
AcDbLayerTableRecord
  2
7
 70
     0
 62
     3
  6
CONTINUOUS
370
    -3
390
93D
  0
ENDTAB
  0
TABLE
  2
STYLE
  5
931
330
0
100
AcDbSymbolTable
 70
     2
  0
STYLE
  5
983
330
931
100
AcDbSymbolTableRecord
100
AcDbTextStyleTableRecord
  2
STANDARD
 70
     0
 40
0.0
 41
1.0
 50
0.0
 71
     0
 42
2.5
  3
simplex.shx
  4

  0
STYLE
  5
987
330
931
100
AcDbSymbolTableRecord
100
AcDbTextStyleTableRecord
  2
Annotative
 70
     0
 40
0.0
 41
1.0
 50
0.0
 71
     0
 42
0.2
  3
txt
  4

1001
AcadAnnotative
1000
AnnotativeData
1002
{
1070
     1
1070
     1
1002
}
  0
ENDTAB
  0
TABLE
  2
VIEW
  5
934
330
0
100
AcDbSymbolTable
 70
     0
  0
ENDTAB
  0
TABLE
  2
UCS
  5
935
330
0
100
AcDbSymbolTable
 70
     0
  0
ENDTAB
  0
TABLE
  2
APPID
  5
937
330
0
100
AcDbSymbolTable
 70
     6
  0
APPID
  5
984
330
937
100
AcDbSymbolTableRecord
100
AcDbRegAppTableRecord
  2
ACAD
 70
     0
  0
APPID
  5
98B
330
937
100
AcDbSymbolTableRecord
100
AcDbRegAppTableRecord
  2
AcadAnnotative
 70
     0
  0
APPID
  5
9AC
330
937
100
AcDbSymbolTableRecord
100
AcDbRegAppTableRecord
  2
CONTENTTABDATA
 70
     0
  0
APPID
  5
9AD
330
937
100
AcDbSymbolTableRecord
100
AcDbRegAppTableRecord
  2
CONTENTCURRENTTAB
 70
     0
  0
APPID
  5
9D1
330
937
100
AcDbSymbolTableRecord
100
AcDbRegAppTableRecord
  2
ACAD_NAV_VCDISPLAY
 70
     0
  0
APPID
  5
A0A
330
937
100
AcDbSymbolTableRecord
100
AcDbRegAppTableRecord
  2
ACAD_MLEADERVER
 70
     0
  0
ENDTAB
  0
TABLE
  2
DIMSTYLE
  5
938
330
0
100
AcDbSymbolTable
 70
     2
100
AcDbDimStyleTable
 71
     0
  0
DIMSTYLE
105
985
330
938
100
AcDbSymbolTableRecord
100
AcDbDimStyleTableRecord
  2
STANDARD
 70
     0
 41
3.0
 42
1.0
 43
10.0
 44
1.0
 73
     0
 74
     0
 77
     3
 78
     8
140
3.2
141
0.0
147
1.0
172
     1
173
     1
279
     2
284
     8
285
     8
286
     8
340
983
  0
DIMSTYLE
105
986
330
938
100
AcDbSymbolTableRecord
100
AcDbDimStyleTableRecord
  2
Annotative
 70
     0
340
983
1001
AcadAnnotative
1000
AnnotativeData
1002
{
1070
     1
1070
     1
1002
}
  0
ENDTAB
  0
TABLE
  2
BLOCK_RECORD
  5
92F
330
0
100
AcDbSymbolTable
 70
     3
  0
BLOCK_RECORD
  5
99D
330
92F
100
AcDbSymbolTableRecord
100
AcDbBlockTableRecord
  2
*Model_Space
340
9A0
  0
BLOCK_RECORD
  5
999
330
92F
100
AcDbSymbolTableRecord
100
AcDbBlockTableRecord
  2
*Paper_Space
340
99C
  0
BLOCK_RECORD
  5
9B0
330
92F
100
AcDbSymbolTableRecord
100
AcDbBlockTableRecord
  2
$MODEL_SPACE
340
0
  0
BLOCK_RECORD
  5
9B2
330
92F
100
AcDbSymbolTableRecord
100
AcDbBlockTableRecord
  2
$PAPER_SPACE
340
0
  0
BLOCK_RECORD
  5
9B4
330
92F
100
AcDbSymbolTableRecord
100
AcDbBlockTableRecord
  2
_OPEN
340
0
  0
ENDTAB
  0
ENDSEC
  0
SECTION
  2
BLOCKS
  0
BLOCK
  5
99E
330
99D
100
AcDbEntity
  8
0
100
AcDbBlockBegin
  2
*Model_Space
 70
     0
 10
0.0
 20
0.0
 30
0.0
  3
*Model_Space
  1

  0
ENDBLK
  5
99F
330
99D
100
AcDbEntity
  8
0
100
AcDbBlockEnd
  0
BLOCK
  5
99A
330
999
100
AcDbEntity
 67
     1
  8
0
100
AcDbBlockBegin
  2
*Paper_Space
 70
     0
 10
0.0
 20
0.0
 30
0.0
  3
*Paper_Space
  1

  0
ENDBLK
  5
99B
330
999
100
AcDbEntity
 67
     1
  8
0
100
AcDbBlockEnd
  0
BLOCK
  5
9B1
330
9B0
100
AcDbEntity
  8
0
100
AcDbBlockBegin
  2
$MODEL_SPACE
 70
     0
 10
0.0
 20
0.0
 30
0.0
  3
$MODEL_SPACE
  1

  0
ENDBLK
  5
1A
330
9B0
100
AcDbEntity
  8
0
100
AcDbBlockEnd
  0
BLOCK
  5
9B3
330
9B2
100
AcDbEntity
  8
0
100
AcDbBlockBegin
  2
$PAPER_SPACE
 70
     0
 10
0.0
 20
0.0
 30
0.0
  3
$PAPER_SPACE
  1

  0
ENDBLK
  5
17
330
9B2
100
AcDbEntity
  8
0
100
AcDbBlockEnd
  0
BLOCK
  5
9B5
330
9B4
100
AcDbEntity
  8
0
100
AcDbBlockBegin
  2
_OPEN
 70
     0
 10
0.0
 20
0.0
 30
0.0
  3
_OPEN
  1

  0
LINE
  5
30
330
9B4
100
AcDbEntity
  8
0
  6
ByBlock
 62
     0
100
AcDbLine
 10
-1.0
 20
0.1666666666666666
 30
0.0
 11
0.0
 21
0.0
 31
0.0
  0
LINE
  5
31
330
9B4
100
AcDbEntity
  8
0
  6
ByBlock
 62
     0
100
AcDbLine
 10
0.0
 20
0.0
 30
0.0
 11
-1.0
 21
-0.1666666666666666
 31
0.0
  0
LINE
  5
32
330
9B4
100
AcDbEntity
  8
0
  6
ByBlock
 62
     0
100
AcDbLine
 10
0.0
 20
0.0
 30
0.0
 11
-1.0
 21
0.0
 31
0.0
  0
ENDBLK
  5
33
330
9B4
100
AcDbEntity
  8
0
100
AcDbBlockEnd
  0
ENDSEC
  0
SECTION
  2
ENTITIES
  0
LINE
  5
474
330
99D
100
AcDbEntity
  8
1
  6
Continuous
100
AcDbLine
 10
171.1708340249687
 20
370.9218828890412
 30
0.0
 11
1241.170834024968
 21
370.9218828890412
 31
0.0
  0
LINE
  5
475
330
99D
100
AcDbEntity
  8
1
  6
Continuous
100
AcDbLine
 10
171.1708340249689
 20
332.9218828890411
 30
0.0
 11
1241.170834024968
 21
332.9218828890411
 31
0.0
  0
LINE
  5
476
330
99D
100
AcDbEntity
  8
4
  6
CENTER
100
AcDbLine
 10
114.644193219948
 20
351.9218828893465
 30
0.0
 11
1297.703956673636
 21
351.9218828893465
 31
0.0
  0
LINE
  5
477
330
99D
100
AcDbEntity
  8
1
  6
Continuous
100
AcDbLine
 10
261.2176917881454
 20
263.1165658649663
 30
0.0
 11
1226.437730183743
 21
263.116565864968
 31
0.0
  0
LINE
  5
478
330
99D
100
AcDbEntity
  8
1
  6
Continuous
100
AcDbLine
 10
261.2176917881456
 20
261.3165658649661
 30
0.0
 11
1226.437730183741
 21
261.3165658649663
 31
0.0
  0
LINE
  5
479
330
99D
100
AcDbEntity
  8
1
  6
Continuous
100
AcDbLine
 10
254.7581520418784
 20
196.1112488408916
 30
0.0
 11
1241.170834024968
 21
196.1112488408916
 31
0.0
  0
LINE
  5
47A
330
99D
100
AcDbEntity
  8
1
  6
Continuous
100
AcDbLine
 10
261.2176917881456
 20
92.90593181620643
 30
0.0
 11
1226.437730183741
 21
92.90593181620621
 31
0.0
  0
LINE
  5
47B
330
99D
100
AcDbEntity
  8
1
  6
Continuous
100
AcDbLine
 10
261.2176917881454
 20
91.10593181620622
 30
0.0
 11
1226.437730183743
 21
91.10593181620444
 31
0.0
  0
LINE
  5
47C
330
99D
100
AcDbEntity
  8
1
  6
Continuous
100
AcDbLine
 10
254.7581520418785
 20
158.1112488408915
 30
0.0
 11
1241.170834024968
 21
158.1112488408915
 31
0.0
  0
LINE
  5
47D
330
99D
100
AcDbEntity
  8
4
  6
CENTER
100
AcDbLine
 10
114.644193219948
 20
177.1112488405862
 30
0.0
 11
1297.703956673636
 21
177.1112488405861
 31
0.0
  0
LINE
  5
47E
330
99D
100
AcDbEntity
  8
1
  6
Continuous
100
AcDbLine
 10
52.28711009070991
 20
196.3612488408916
 30
0.0
 11
52.28711009071002
 21
157.8612488408915
 31
0.0
  0
LINE
  5
480
330
99D
100
AcDbEntity
  8
1
  6
Continuous
100
AcDbLine
 10
46.65982272145174
 20
200.1612473408914
 30
0.0
 11
46.65982272145174
 21
178.960054927583
 31
0.0
  0
LINE
  5
481
330
99D
100
AcDbEntity
  8
1
  6
Continuous
100
AcDbLine
 10
45.00063972145152
 20
191.3612488408917
 30
0.0
 11
45.00063972145142
 21
180.9960554353916
 31
0.0
  0
LINE
  5
482
330
99D
100
AcDbEntity
  8
1
  6
Continuous
100
AcDbLine
 10
41.78649772145148
 20
191.3612488408917
 30
0.0
 11
41.78649772145148
 21
180.9483865061158
 31
0.0
  0
LINE
  5
483
330
99D
100
AcDbEntity
  8
1
  6
Continuous
100
AcDbLine
 10
37.45982272145147
 20
191.3612488408917
 30
0.0
 11
37.45982272145158
 21
180.5305591255942
 31
0.0
  0
LINE
  5
484
330
99D
100
AcDbEntity
  8
1
  6
Continuous
100
AcDbLine
 10
34.25982572145153
 20
191.3612488408917
 30
0.0
 11
34.25982572145153
 21
180.2215351373844
 31
0.0
  0
LINE
  5
485
330
99D
100
AcDbEntity
  8
1
  6
Continuous
100
AcDbLine
 10
58.75031923968629
 20
196.1112488408921
 30
0.0
 11
58.75031923968617
 21
158.1112488402805
 31
0.0
  0
LINE
  5
486
330
99D
100
AcDbEntity
  8
4
  6
CENTER
100
AcDbLine
 10
39.45982272145135
 20
204.1112488408916
 30
0.0
 11
39.45982272145135
 21
150.1112488402809
 31
0.0
  0
LINE
  5
487
330
99D
100
AcDbEntity
  8
1
  6
Continuous
100
AcDbLine
 10
255.2937360249752
 20
193.8472258408916
 30
0.0
 11
256.170834024975
 21
177.1112488408916
 31
0.0
  0
LINE
  5
488
330
99D
100
AcDbEntity
  8
1
  6
Continuous
100
AcDbLine
 10
249.7708325249752
 20
193.1612518408914
 30
0.0
 11
249.7708325249752
 21
161.0612498408914
 31
0.0
  0
LINE
  5
489
330
99D
100
AcDbEntity
  8
4
  6
CENTER
100
AcDbLine
 10
238.3708310249687
 20
203.9612473408914
 30
0.0
 11
238.3708310249687
 21
150.2612503408915
 31
0.0
  0
LINE
  5
48F
330
99D
100
AcDbEntity
  8
1
  6
Continuous
100
AcDbLine
 10
221.4479260249752
 20
193.8472258408914
 30
0.0
 11
220.5708280249752
 21
177.1112488408915
 31
0.0
  0
LINE
  5
490
330
99D
100
AcDbEntity
  8
1
  6
Continuous
100
AcDbLine
 10
226.970829524975
 20
193.1612518408914
 30
0.0
 11
226.970829524975
 21
161.0612498408914
 31
0.0
  0
LINE
  5
491
330
99D
100
AcDbEntity
  8
4
  6
CENTER
100
AcDbLine
 10
162.1441932199481
 20
195.9795958408916
 30
0.0
 11
162.1441932199481
 21
158.2429318408917
 31
0.0
  0
LINE
  5
494
330
99D
100
AcDbEntity
  8
1
  6
Continuous
100
AcDbLine
 10
46.65982272145162
 20
158.1112488402804
 30
0.0
 11
42.7098227214517
 21
158.1112488402808
 31
0.0
  0
LINE
  5
495
330
99D
100
AcDbEntity
  8
1
  6
Continuous
100
AcDbLine
 10
44.50063972145152
 20
162.3612488408916
 30
0.0
 11
34.75982572145142
 21
162.3612488408916
 31
0.0
  0
LINE
  5
496
330
99D
100
AcDbEntity
  8
1
  6
Continuous
100
AcDbLine
 10
44.3067382151739
 20
173.030731331695
 30
0.0
 11
28.6634083883964
 21
174.5414090516899
 31
0.0
  0
LINE
  5
497
330
99D
100
AcDbEntity
  8
1
  6
Continuous
100
AcDbLine
 10
44.3067382151739
 20
181.1917663494774
 30
0.0
 11
28.66340838839651
 21
179.6810886294825
 31
0.0
  0
LINE
  5
498
330
99D
100
AcDbEntity
  8
4
  6
CENTER
100
AcDbLine
 10
61.75031923968617
 20
177.1112488405862
 30
0.0
 11
26.45982272145134
 21
177.1112488405862
 31
0.0
  0
LINE
  5
499
330
99D
100
AcDbEntity
  8
1
  6
Continuous
100
AcDbLine
 10
29.81666705386213
 20
175.6112488408915
 30
0.0
 11
48.65983472145124
 21
175.6112488408915
 31
0.0
  0
LINE
  5
49A
330
99D
100
AcDbEntity
  8
1
  6
Continuous
100
AcDbLine
 10
29.81666705386213
 20
178.6112488408915
 30
0.0
 11
48.65983472145124
 21
178.6112488408915
 31
0.0
  0
TEXT
  5
49B
330
99D
100
AcDbEntity
  8
7
  6
Continuous
100
AcDbText
 10
9.999999064246617
 20
18.00000056761563
 30
0.0
 40
3.0
  1
TYPE No.TM-293-2
100
AcDbText
  0
TEXT
  5
49C
330
99D
100
AcDbEntity
  8
7
  6
Continuous
100
AcDbText
 10
9.999999064246617
 20
26.00000056761564
 30
0.0
 40
3.0
  1
CODE No.35076
100
AcDbText
  0
TEXT
  5
49D
330
99D
100
AcDbEntity
  8
1
  6
Continuous
100
AcDbText
 10
9.999999064246617
 20
10.00000056761563
 30
0.0
 40
1.399999999999999
  1
LAYER
100
AcDbText
  0
TEXT
  5
49E
330
99D
100
AcDbEntity
  8
7
  6
Continuous
100
AcDbText
 10
29.97951006424661
 20
9.999999806846744
 30
0.0
 40
1.399999999999999
  1
7
100
AcDbText
  0
TEXT
  5
49F
330
99D
100
AcDbEntity
  8
6
  6
Continuous
100
AcDbText
 10
27.97951006424661
 20
9.999999806846744
 30
0.0
 40
1.399999999999999
  1
6
100
AcDbText
  0
TEXT
  5
4A0
330
99D
100
AcDbEntity
  8
5
  6
PHANTOM
100
AcDbText
 10
25.97951006424661
 20
9.999999806846744
 30
0.0
 40
1.399999999999999
  1
5
100
AcDbText
  0
TEXT
  5
4A1
330
99D
100
AcDbEntity
  8
1
  6
Continuous
100
AcDbText
 10
17.97951006424661
 20
9.999999806846744
 30
0.0
 40
1.399999999999999
  1
1
100
AcDbText
  0
TEXT
  5
4A2
330
99D
100
AcDbEntity
  8
3
  6
DASHED
100
AcDbText
 10
21.97951006424661
 20
9.999999806846744
 30
0.0
 40
1.399999999999999
  1
3
100
AcDbText
  0
TEXT
  5
4A3
330
99D
100
AcDbEntity
  8
2
  6
Continuous
100
AcDbText
 10
19.97951006424661
 20
9.999999806846744
 30
0.0
 40
1.399999999999999
  1
2
100
AcDbText
  0
TEXT
  5
4A4
330
99D
100
AcDbEntity
  8
4
  6
CENTER
100
AcDbText
 10
23.9795100642466
 20
9.999999806846744
 30
0.0
 40
1.399999999999999
  1
4
100
AcDbText
  0
LINE
  5
4A5
330
99D
100
AcDbEntity
  8
1
  6
Continuous
100
AcDbLine
 10
41.78649772145138
 20
173.2741111750567
 30
0.0
 11
41.78649772145138
 21
162.8612488408917
 31
0.0
  0
LINE
  5
4A6
330
99D
100
AcDbEntity
  8
1
  6
Continuous
100
AcDbLine
 10
37.45982272145147
 20
173.6919385555783
 30
0.0
 11
37.45982272145147
 21
162.8612488408916
 31
0.0
  0
LINE
  5
4A7
330
99D
100
AcDbEntity
  8
1
  6
Continuous
100
AcDbLine
 10
34.25982572145155
 20
174.000962543788
 30
0.0
 11
34.25982572145142
 21
162.8612488408916
 31
0.0
  0
ARC
  5
4A8
330
99D
100
AcDbEntity
  8
1
  6
Continuous
100
AcDbCircle
 10
38.75982532047713
 20
153.9112488402809
 30
0.0
 40
0.8
100
AcDbArc
 50
179.9999999999998
 51
270.0
  0
ARC
  5
4A9
330
99D
100
AcDbEntity
  8
1
  6
Continuous
100
AcDbCircle
 10
37.00982272145153
 20
153.9112488402809
 30
0.0
 40
0.8
100
AcDbArc
 50
180.0
 51
269.9999999999999
  0
ARC
  5
4AA
330
99D
100
AcDbEntity
  8
1
  6
Continuous
100
AcDbCircle
 10
40.15982012242601
 20
153.9112488402809
 30
0.0
 40
0.8
100
AcDbArc
 50
269.9999999999999
 51
359.9999999999998
  0
LINE
  5
4AB
330
99D
100
AcDbEntity
  8
1
  6
Continuous
100
AcDbLine
 10
41.90982272145163
 20
153.111248840281
 30
0.0
 11
37.00982272145153
 21
153.111248840281
 31
0.0
  0
ARC
  5
4AC
330
99D
100
AcDbEntity
  8
1
  6
Continuous
100
AcDbCircle
 10
41.90982272145163
 20
153.9112488402809
 30
0.0
 40
0.8
100
AcDbArc
 50
270.0
 51
0.0
  0
LINE
  5
4AD
330
99D
100
AcDbEntity
  8
1
  6
Continuous
100
AcDbLine
 10
36.20982272145158
 20
153.9112488402809
 30
0.0
 11
36.20982272145158
 21
162.3612488402807
 31
0.0
  0
LINE
  5
4AE
330
99D
100
AcDbEntity
  8
1
  6
Continuous
100
AcDbLine
 10
36.20982272145158
 20
158.1112488402808
 30
0.0
 11
34.45982272145124
 21
158.1112488402808
 31
0.0
  0
LINE
  5
4AF
330
99D
100
AcDbEntity
  8
1
  6
Continuous
100
AcDbLine
 10
34.45982272145145
 20
158.1112488402808
 30
0.0
 11
34.45982272145136
 21
162.4612510902985
 31
0.0
  0
LINE
  5
4B0
330
99D
100
AcDbEntity
  8
1
  6
Continuous
100
AcDbLine
 10
37.95982532047717
 20
153.9112488402809
 30
0.0
 11
37.95982532047729
 21
162.3612488402805
 31
0.0
  0
LINE
  5
4B1
330
99D
100
AcDbEntity
  8
1
  6
Continuous
100
AcDbLine
 10
40.95982012242599
 20
153.9112488402809
 30
0.0
 11
40.95982012242607
 21
162.3612488402805
 31
0.0
  0
LINE
  5
4B2
330
99D
100
AcDbEntity
  8
1
  6
Continuous
100
AcDbLine
 10
42.70982272145158
 20
153.9112488402809
 30
0.0
 11
42.70982272145158
 21
162.3612488402807
 31
0.0
  0
LINE
  5
4B3
330
99D
100
AcDbEntity
  8
1
  6
Continuous
100
AcDbLine
 10
41.9098227214515
 20
162.3612488408916
 30
0.0
 11
41.9098227214515
 21
162.5324389499591
 31
0.0
  0
ARC
  5
4B4
330
99D
100
AcDbEntity
  8
1
  6
Continuous
100
AcDbCircle
 10
36.95982272145145
 20
162.8612488408916
 30
0.0
 40
0.5
100
AcDbArc
 50
270.0000000000006
 51
0.0
  0
ARC
  5
4B5
330
99D
100
AcDbEntity
  8
1
  6
Continuous
100
AcDbCircle
 10
34.75982572145142
 20
162.8612488408916
 30
0.0
 40
0.5
100
AcDbArc
 50
180.0
 51
270.0
  0
ARC
  5
4B6
330
99D
100
AcDbEntity
  8
1
  6
Continuous
100
AcDbCircle
 10
42.28649772145137
 20
162.8612488408917
 30
0.0
 40
0.5
100
AcDbArc
 50
180.0
 51
270.0
  0
ARC
  5
4B7
330
99D
100
AcDbEntity
  8
1
  6
Continuous
100
AcDbCircle
 10
48.65983472145124
 20
177.8112608408916
 30
0.0
 40
0.8
100
AcDbArc
 50
0.000000000000007
 51
90.00000299999769
  0
LINE
  5
4B8
330
99D
100
AcDbEntity
  8
1
  6
Continuous
100
AcDbLine
 10
49.45982272145124
 20
177.8112608408916
 30
0.0
 11
49.45982272145124
 21
176.4112518408916
 31
0.0
  0
ARC
  5
4B9
330
99D
100
AcDbEntity
  8
1
  6
Continuous
100
AcDbCircle
 10
48.65983472145124
 20
176.4112518408916
 30
0.0
 40
0.8
100
AcDbArc
 50
270.0000009999949
 51
0.000000000000007
  0
ARC
  5
4BA
330
99D
100
AcDbEntity
  8
1
  6
Continuous
100
AcDbCircle
 10
48.06380663661467
 20
172.611248840281
 30
0.0
 40
3.0
100
AcDbArc
 50
89.99999999999998
 51
161.516830137711
  0
ARC
  5
4BB
330
99D
100
AcDbEntity
  8
1
  6
Continuous
100
AcDbCircle
 10
44.45982272145124
 20
173.8159479476283
 30
0.0
 40
0.8
100
AcDbArc
 50
258.96809204411
 51
341.5168301377141
  0
ARC
  5
4BC
330
99D
100
AcDbEntity
  8
1
  6
Continuous
100
AcDbCircle
 10
48.06380663661467
 20
181.6112488408915
 30
0.0
 40
3.0
100
AcDbArc
 50
198.4831698622888
 51
270.0
  0
ARC
  5
4BD
330
99D
100
AcDbEntity
  8
1
  6
Continuous
100
AcDbCircle
 10
44.45982272145124
 20
180.4065497335441
 30
0.0
 40
0.8
100
AcDbArc
 50
18.48316986228599
 51
101.03190795589
  0
LINE
  5
4C5
330
99D
100
AcDbEntity
  8
1
  6
Continuous
100
AcDbLine
 10
141.1530742199483
 20
81.81689381620612
 30
0.0
 11
162.6752912199482
 21
83.72947581620609
 31
0.0
  0
LINE
  5
4C6
330
99D
100
AcDbEntity
  8
1
  6
Continuous
100
AcDbLine
 10
162.8398412199482
 20
95.66546581620633
 30
0.0
 11
128.8036022199481
 21
99.63848781620628
 31
0.0
  0
LINE
  5
4C7
330
99D
100
AcDbEntity
  8
1
  6
Continuous
100
AcDbLine
 10
158.5441872199482
 20
94.70593181620628
 30
0.0
 11
127.6441932199481
 21
94.70593181620628
 31
0.0
  0
LINE
  5
4C8
330
99D
100
AcDbEntity
  8
1
  6
Continuous
100
AcDbLine
 10
158.4441812199482
 20
92.20593181620628
 30
0.0
 11
127.6441932199481
 21
92.20593181620628
 31
0.0
  0
LINE
  5
4C9
330
99D
100
AcDbEntity
  8
1
  6
Continuous
100
AcDbLine
 10
162.7949502199481
 20
84.54681381620629
 30
0.0
 11
134.9660622199482
 21
81.03645281620622
 31
0.0
  0
LINE
  5
4CA
330
99D
100
AcDbEntity
  8
1
  6
Continuous
100
AcDbLine
 10
158.9037912199481
 20
86.63349881620634
 30
0.0
 11
134.7348762199482
 21
82.61935381620634
 31
0.0
  0
LINE
  5
4CB
330
99D
100
AcDbEntity
  8
4
  6
CENTER
100
AcDbLine
 10
180.3441752199482
 20
89.70593181620627
 30
0.0
 11
114.644193219948
 21
89.70593181620627
 31
0.0
  0
LINE
  5
4CC
330
99D
100
AcDbEntity
  8
1
  6
Continuous
100
AcDbLine
 10
127.8140542199484
 20
83.83434981620622
 30
0.0
 11
125.1441932199483
 21
85.37580081620626
 31
0.0
  0
LINE
  5
4CD
330
99D
100
AcDbEntity
  8
1
  6
Continuous
100
AcDbLine
 10
132.8809792199483
 20
78.30459481620619
 30
0.0
 11
125.4828472199483
 21
79.94229081620611
 31
0.0
  0
ARC
  5
4CE
330
99D
100
AcDbEntity
  8
1
  6
Continuous
100
AcDbCircle
 10
127.6441932199481
 20
89.70593181620627
 30
0.0
 40
2.5
100
AcDbArc
 50
90.00000099999489
 51
240.0000029999965
  0
LINE
  5
4CF
330
99D
100
AcDbEntity
  8
1
  6
Continuous
100
AcDbLine
 10
129.1800822199484
 20
85.93242581620634
 30
0.0
 11
126.3941932199484
 21
87.54086281620638
 31
0.0
  0
ARC
  5
4D0
330
99D
100
AcDbEntity
  8
1
  6
Continuous
100
AcDbCircle
 10
127.6441932199481
 20
89.70593181620627
 30
0.0
 40
5.0
100
AcDbArc
 50
90.00000099999489
 51
240.0000029999965
  0
ARC
  5
4D1
330
99D
100
AcDbEntity
  8
1
  6
Continuous
100
AcDbCircle
 10
127.6441932199481
 20
89.70593181620627
 30
0.0
 40
10.0
100
AcDbArc
 50
83.34204100000555
 51
257.5179619999942
  0
LINE
  5
4D2
330
99D
100
AcDbEntity
  8
4
  6
CENTER
100
AcDbLine
 10
127.6441932199481
 20
77.16593081620634
 30
0.0
 11
127.6441932199481
 21
102.2459248162062
 31
0.0
  0
ARC
  5
4D3
330
99D
100
AcDbEntity
  8
1
  6
Continuous
100
AcDbCircle
 10
136.3941932199481
 20
79.95593181620626
 30
0.0
 40
1.25
100
AcDbArc
 50
284.9999999999944
 51
104.9999980000034
  0
ARC
  5
4D4
330
99D
100
AcDbEntity
  8
1
  6
Continuous
100
AcDbCircle
 10
134.8659492199483
 20
81.83016881620627
 30
0.0
 40
0.8
100
AcDbArc
 50
99.43000599999908
 51
277.1893639999967
  0
LINE
  5
4D5
330
99D
100
AcDbEntity
  8
1
  6
Continuous
100
AcDbLine
 10
131.7965832199483
 20
81.93641581620637
 30
0.0
 11
129.9121372199482
 21
85.20037781620635
 31
0.0
  0
ARC
  5
4D6
330
99D
100
AcDbEntity
  8
1
  6
Continuous
100
AcDbCircle
 10
133.9616372199481
 20
83.18641581620637
 30
0.0
 40
2.5
100
AcDbArc
 50
209.9999999999972
 51
284.9999999999944
  0
LINE
  5
4D7
330
99D
100
AcDbEntity
  8
1
  6
Continuous
100
AcDbLine
 10
129.6315132199482
 20
80.68641581620637
 30
0.0
 11
127.8140542199482
 21
83.83434981620622
 31
0.0
  0
ARC
  5
4D8
330
99D
100
AcDbEntity
  8
1
  6
Continuous
100
AcDbCircle
 10
128.180082219948
 20
84.20037781620633
 30
0.0
 40
2.0
100
AcDbArc
 50
29.99999899999811
 51
60.00000600000332
  0
ARC
  5
4D9
330
99D
100
AcDbEntity
  8
1
  6
Continuous
100
AcDbCircle
 10
133.9616372199481
 20
83.18641581620637
 30
0.0
 40
5.0
100
AcDbArc
 50
209.9999999999972
 51
284.9999999999944
  0
LINE
  5
4DA
330
99D
100
AcDbEntity
  8
1
  6
Continuous
100
AcDbLine
 10
136.0706612199483
 20
81.16333681620629
 30
0.0
 11
134.6087012199484
 21
80.77160581620637
 31
0.0
  0
LINE
  5
4DB
330
99D
100
AcDbEntity
  8
1
  6
Continuous
100
AcDbLine
 10
136.7177102199484
 20
78.74851881620627
 30
0.0
 11
135.2557352199482
 21
78.35678781620626
 31
0.0
  0
LINE
  5
4DC
330
99D
100
AcDbEntity
  8
1
  6
Continuous
100
AcDbLine
 10
46.65982272145162
 20
175.2624427535894
 30
0.0
 11
46.65982272145174
 21
154.0612503408914
 31
0.0
  0
LINE
  5
4DD
330
99D
100
AcDbEntity
  8
1
  6
Continuous
100
AcDbLine
 10
50.57223549787384
 20
195.5416338818207
 30
0.0
 11
50.57223549787386
 21
158.6808637993518
 31
0.0
  0
LINE
  5
4DE
330
99D
100
AcDbEntity
  8
1
  6
Continuous
100
AcDbLine
 10
45.00063972145142
 20
173.2264422457807
 30
0.0
 11
45.00063972145152
 21
162.8612488408917
 31
0.0
  0
LINE
  5
4DF
330
99D
100
AcDbEntity
  8
1
  6
Continuous
100
AcDbLine
 10
58.75031923968617
 20
158.1112488402805
 30
0.0
 11
52.28711009071002
 21
158.1112488402808
 31
0.0
  0
ARC
  5
4E0
330
99D
100
AcDbEntity
  8
1
  6
Continuous
100
AcDbCircle
 10
56.07876598606218
 20
158.6808637993518
 30
0.0
 40
5.506530488188332
100
AcDbArc
 50
180.0
 51
250.3328261317312
  0
LINE
  5
4E1
330
99D
100
AcDbEntity
  8
1
  6
Continuous
100
AcDbLine
 10
54.4598257214518
 20
157.8612488408914
 30
0.0
 11
52.28711009071002
 21
157.8612488408915
 31
0.0
  0
LINE
  5
4E2
330
99D
100
AcDbEntity
  8
1
  6
Continuous
100
AcDbLine
 10
54.45982572145169
 20
158.1112488402808
 30
0.0
 11
54.45982572145169
 21
154.0612503408914
 31
0.0
  0
ARC
  5
4E3
330
99D
100
AcDbEntity
  8
1
  6
Continuous
100
AcDbCircle
 10
53.65982572145162
 20
154.0612503408914
 30
0.0
 40
0.8
100
AcDbArc
 50
270.000000000008
 51
0.0
  0
ARC
  5
4E4
330
99D
100
AcDbEntity
  8
1
  6
Continuous
100
AcDbCircle
 10
47.45982272145158
 20
154.0612503408914
 30
0.0
 40
0.8
100
AcDbArc
 50
180.0
 51
270.000000000008
  0
LINE
  5
4E5
330
99D
100
AcDbEntity
  8
1
  6
Continuous
100
AcDbLine
 10
53.65982572145172
 20
153.2612503408915
 30
0.0
 11
47.45982272145168
 21
153.2612503408915
 31
0.0
  0
LINE
  5
4E6
330
99D
100
AcDbEntity
  8
1
  6
Continuous
100
AcDbLine
 10
44.45982272145134
 20
158.1112488402806
 30
0.0
 11
44.45982272145134
 21
162.3612488402807
 31
0.0
  0
ARC
  5
4E7
330
99D
100
AcDbEntity
  8
1
  6
Continuous
100
AcDbCircle
 10
44.50063972145152
 20
162.8612488408917
 30
0.0
 40
0.5
100
AcDbArc
 50
270.0
 51
359.9999999999997
  0
ARC
  5
4E8
330
99D
100
AcDbEntity
  8
1
  6
Continuous
100
AcDbCircle
 10
28.74030672145123
 20
175.337704628956
 30
0.0
 40
0.8
100
AcDbArc
 50
180.0
 51
264.4840460220758
  0
ARC
  5
4E9
330
99D
100
AcDbEntity
  8
1
  6
Continuous
100
AcDbCircle
 10
28.74030672145135
 20
178.8847930522164
 30
0.0
 40
0.8
100
AcDbArc
 50
95.5159539779242
 51
179.9999999999986
  0
LINE
  5
4EA
330
99D
100
AcDbEntity
  8
1
  6
Continuous
100
AcDbLine
 10
27.94030672145139
 20
178.8847930522164
 30
0.0
 11
27.94030672145127
 21
175.337704628956
 31
0.0
  0
LINE
  5
50D
330
99D
100
AcDbEntity
  8
4
  6
CENTER
100
AcDbLine
 10
238.3708310249687
 20
110.57295054539
 30
0.0
 11
238.3708310249687
 21
92.62925344400946
 31
0.0
  0
ARC
  5
50E
330
99D
100
AcDbEntity
  8
1
  6
Continuous
100
AcDbCircle
 10
238.3705835789744
 20
98.72147807177185
 30
0.0
 40
10.27495026564869
100
AcDbArc
 50
25.2029946551731
 51
154.7979023545995
  0
ARC
  5
50F
330
99D
100
AcDbEntity
  8
1
  6
Continuous
100
AcDbCircle
 10
238.3705835789744
 20
98.72147807177185
 30
0.0
 40
8.474950265648693
100
AcDbArc
 50
36.49879179081226
 51
143.5025231816385
  0
LINE
  5
510
330
99D
100
AcDbEntity
  8
1
  6
Continuous
100
AcDbLine
 10
184.4629990016196
 20
91.1059318162062
 30
0.0
 11
215.5239702617917
 21
91.1059318162062
 31
0.0
  0
LINE
  5
511
330
99D
100
AcDbEntity
  8
1
  6
Continuous
100
AcDbLine
 10
184.4629990016196
 20
92.90593181620621
 30
0.0
 11
215.5252470115501
 21
92.90593181620621
 31
0.0
  0
LINE
  5
512
330
99D
100
AcDbEntity
  8
1
  6
Continuous
100
AcDbLine
 10
178.8441752199481
 20
88.30593181620601
 30
0.0
 11
212.3409241533576
 21
88.30593181620601
 31
0.0
  0
LINE
  5
513
330
99D
100
AcDbEntity
  8
1
  6
Continuous
100
AcDbLine
 10
176.1708340249688
 20
84.70593181620598
 30
0.0
 11
231.0468670925174
 21
84.70593181620609
 31
0.0
  0
LINE
  5
514
330
99D
100
AcDbEntity
  8
1
  6
Continuous
100
AcDbLine
 10
176.1708340249688
 20
86.50593181620607
 30
0.0
 11
231.0468670925174
 21
86.50593181620607
 31
0.0
  0
ARC
  5
515
330
99D
100
AcDbEntity
  8
1
  6
Continuous
100
AcDbCircle
 10
184.4629990016196
 20
107.9059318162061
 30
0.0
 40
15.0
100
AcDbArc
 50
245.5053515285805
 51
270.0
  0
ARC
  5
516
330
99D
100
AcDbEntity
  8
1
  6
Continuous
100
AcDbCircle
 10
184.4629990016196
 20
107.9059318162061
 30
0.0
 40
16.8
100
AcDbArc
 50
245.5053515285805
 51
270.0
  0
LINE
  5
517
330
99D
100
AcDbEntity
  8
1
  6
Continuous
100
AcDbLine
 10
178.8441752199481
 20
88.30593181620589
 30
0.0
 11
178.8441752199481
 21
86.50593181620607
 31
0.0
  0
ARC
  5
518
330
99D
100
AcDbEntity
  8
1
  6
Continuous
100
AcDbCircle
 10
176.1708340249688
 20
89.70593181620609
 30
0.0
 40
3.2
100
AcDbArc
 50
222.633495958762
 51
270.0
  0
ARC
  5
519
330
99D
100
AcDbEntity
  8
1
  6
Continuous
100
AcDbCircle
 10
159.9441812199482
 20
92.20593181620628
 30
0.0
 40
0.5
100
AcDbArc
 50
270.0000029999976
 51
0.0000050000005681
  0
ARC
  5
51A
330
99D
100
AcDbEntity
  8
1
  6
Continuous
100
AcDbCircle
 10
162.1441932199481
 20
89.70593181620627
 30
0.0
 40
2.45
100
AcDbArc
 50
69.138445000005
 51
132.2878040000038
  0
ARC
  5
51B
330
99D
100
AcDbEntity
  8
1
  6
Continuous
100
AcDbCircle
 10
162.1441932199481
 20
89.70593181620627
 30
0.0
 40
2.649999999999999
100
AcDbArc
 50
62.6804459999991
 51
109.3700340000066
  0
LINE
  5
51C
330
99D
100
AcDbEntity
  8
1
  6
Continuous
100
AcDbLine
 10
159.4954812199484
 20
88.08271681620622
 30
0.0
 11
168.0941752199485
 21
86.45593181620624
 31
0.0
  0
LINE
  5
51D
330
99D
100
AcDbEntity
  8
1
  6
Continuous
100
AcDbLine
 10
168.0941752199485
 20
86.45593181620624
 30
0.0
 11
177.2414532199484
 21
88.18649981620637
 31
0.0
  0
LINE
  5
51E
330
99D
100
AcDbEntity
  8
4
  6
CENTER
100
AcDbLine
 10
162.1441932199481
 20
97.00559181620615
 30
0.0
 11
162.1441932199481
 21
81.09321481620623
 31
0.0
  0
ARC
  5
51F
330
99D
100
AcDbEntity
  8
1
  6
Continuous
100
AcDbCircle
 10
158.9441812199482
 20
92.20593181620628
 30
0.0
 40
0.5
100
AcDbArc
 50
180.0
 51
270.0000029999976
  0
LINE
  5
520
330
99D
100
AcDbEntity
  8
1
  6
Continuous
100
AcDbLine
 10
161.2652562199482
 20
92.20593181620628
 30
0.0
 11
160.4441812199484
 21
92.20593181620628
 31
0.0
  0
LINE
  5
521
330
99D
100
AcDbEntity
  8
1
  6
Continuous
100
AcDbLine
 10
162.1441932199481
 20
94.90592881620639
 30
0.0
 11
158.9441812199482
 21
94.90592881620639
 31
0.0
  0
ARC
  5
522
330
99D
100
AcDbEntity
  8
1
  6
Continuous
100
AcDbCircle
 10
162.1441932199481
 20
89.70593181620627
 30
0.0
 40
5.2
100
AcDbArc
 50
34.37906499999736
 51
90.00000099999489
  0
ARC
  5
523
330
99D
100
AcDbEntity
  8
1
  6
Continuous
100
AcDbCircle
 10
162.1441932199481
 20
89.70593181620627
 30
0.0
 40
6.0
100
AcDbArc
 50
31.07100100000263
 51
83.34204100000555
  0
LINE
  5
524
330
99D
100
AcDbEntity
  8
1
  6
Continuous
100
AcDbLine
 10
158.4441812199482
 20
92.20593181620628
 30
0.0
 11
158.4441812199482
 21
94.40592881620636
 31
0.0
  0
ARC
  5
525
330
99D
100
AcDbEntity
  8
1
  6
Continuous
100
AcDbCircle
 10
158.9441812199482
 20
94.40592881620636
 30
0.0
 40
0.5
100
AcDbArc
 50
90.00000099999489
 51
180.0
  0
ARC
  5
526
330
99D
100
AcDbEntity
  8
1
  6
Continuous
100
AcDbCircle
 10
176.1708340249688
 20
89.70593181620609
 30
0.0
 40
5.0
100
AcDbArc
 50
210.4921683395515
 51
270.0
  0
LINE
  5
527
330
99D
100
AcDbEntity
  8
1
  6
Continuous
100
AcDbLine
 10
177.241453219948
 20
91.22537181620614
 30
0.0
 11
168.0941752199482
 21
92.95593181620615
 31
0.0
  0
LINE
  5
528
330
99D
100
AcDbEntity
  8
1
  6
Continuous
100
AcDbLine
 10
159.2443212199482
 20
84.58318981620626
 30
0.0
 11
158.9037912199481
 21
86.63349881620618
 31
0.0
  0
ARC
  5
529
330
99D
100
AcDbEntity
  8
1
  6
Continuous
100
AcDbCircle
 10
159.7375622199483
 20
84.66511481620639
 30
0.0
 40
0.5
100
AcDbArc
 50
189.429999999999
 51
277.1893639999967
  0
ARC
  5
52A
330
99D
100
AcDbEntity
  8
1
  6
Continuous
100
AcDbCircle
 10
162.1441932199481
 20
89.70593181620627
 30
0.0
 40
6.0
100
AcDbArc
 50
275.0783029999943
 51
328.9289959999965
  0
ARC
  5
52B
330
99D
100
AcDbEntity
  8
1
  6
Continuous
100
AcDbCircle
 10
162.1441932199481
 20
89.70593181620627
 30
0.0
 40
2.649999999999999
100
AcDbArc
 50
260.0599599999966
 51
297.3195490000003
  0
LINE
  5
52C
330
99D
100
AcDbEntity
  8
1
  6
Continuous
100
AcDbLine
 10
158.8441902199483
 20
90.54308981620623
 30
0.0
 11
158.8441902199483
 21
88.86877381620614
 31
0.0
  0
LINE
  5
52D
330
99D
100
AcDbEntity
  8
1
  6
Continuous
100
AcDbLine
 10
159.9441812199482
 20
91.70593181620626
 30
0.0
 11
158.9441812199482
 21
91.70593181620626
 31
0.0
  0
LINE
  5
52E
330
99D
100
AcDbEntity
  8
1
  6
Continuous
100
AcDbLine
 10
160.3016032199484
 20
87.37249681620637
 30
0.0
 11
159.3151222199481
 21
87.20866281620638
 31
0.0
  0
ARC
  5
52F
330
99D
100
AcDbEntity
  8
1
  6
Continuous
100
AcDbCircle
 10
160.3835122199482
 20
86.87925681620626
 30
0.0
 40
0.5
100
AcDbArc
 50
9.429996000001548
 51
99.43000599999908
  0
LINE
  5
530
330
99D
100
AcDbEntity
  8
1
  6
Continuous
100
AcDbLine
 10
161.686750219948
 20
87.0957028162063
 30
0.0
 11
160.8767682199481
 21
86.96118081620637
 31
0.0
  0
ARC
  5
531
330
99D
100
AcDbEntity
  8
1
  6
Continuous
100
AcDbCircle
 10
162.1441932199481
 20
89.70593181620627
 30
0.0
 40
2.45
100
AcDbArc
 50
227.7121860000021
 51
290.8615659999968
  0
LINE
  5
532
330
99D
100
AcDbEntity
  8
1
  6
Continuous
100
AcDbLine
 10
168.0941752199482
 20
92.95593181620615
 30
0.0
 11
159.4954812199484
 21
91.32914681620615
 31
0.0
  0
ARC
  5
533
330
99D
100
AcDbEntity
  8
1
  6
Continuous
100
AcDbCircle
 10
162.1441932199481
 20
89.70593181620627
 30
0.0
 40
5.2
100
AcDbArc
 50
277.1893639999967
 51
325.620930000002
  0
ARC
  5
534
330
99D
100
AcDbEntity
  8
1
  6
Continuous
100
AcDbCircle
 10
159.3970312199481
 20
86.71541581620637
 30
0.0
 40
0.5
100
AcDbArc
 50
99.43000599999908
 51
189.429999999999
  0
ARC
  5
535
330
99D
100
AcDbEntity
  8
1
  6
Continuous
100
AcDbCircle
 10
159.6441932199481
 20
88.86877381620614
 30
0.0
 40
0.8
100
AcDbArc
 50
180.0
 51
259.2868749999976
  0
ARC
  5
536
330
99D
100
AcDbEntity
  8
1
  6
Continuous
100
AcDbCircle
 10
159.6441932199481
 20
90.54308981620623
 30
0.0
 40
0.8
100
AcDbArc
 50
100.7131219999944
 51
180.0
  0
LINE
  5
537
330
99D
100
AcDbEntity
  8
1
  6
Continuous
100
AcDbLine
 10
178.8441752199481
 20
90.40593581620623
 30
0.0
 11
178.8441752199481
 21
89.00593481620616
 31
0.0
  0
LINE
  5
538
330
99D
100
AcDbEntity
  8
1
  6
Continuous
100
AcDbLine
 10
178.0441872199482
 20
88.20593181620626
 30
0.0
 11
177.3139172199481
 21
88.20593181620626
 31
0.0
  0
LINE
  5
539
330
99D
100
AcDbEntity
  8
1
  6
Continuous
100
AcDbLine
 10
178.0441872199482
 20
91.20593181620623
 30
0.0
 11
177.3139172199481
 21
91.20593181620623
 31
0.0
  0
LINE
  5
53A
330
99D
100
AcDbEntity
  8
1
  6
Continuous
100
AcDbLine
 10
177.6485272199483
 20
90.73408381620629
 30
0.0
 11
177.6485272199483
 21
88.67778681620626
 31
0.0
  0
ARC
  5
53B
330
99D
100
AcDbEntity
  8
1
  6
Continuous
100
AcDbCircle
 10
178.0441872199482
 20
89.00593481620616
 30
0.0
 40
0.8
100
AcDbArc
 50
269.9999990000051
 51
359.9999949999994
  0
ARC
  5
53C
330
99D
100
AcDbEntity
  8
1
  6
Continuous
100
AcDbCircle
 10
178.0441872199482
 20
90.40593581620623
 30
0.0
 40
0.8
100
AcDbArc
 50
359.9999949999994
 51
89.99999700000229
  0
ARC
  5
53D
330
99D
100
AcDbEntity
  8
1
  6
Continuous
100
AcDbCircle
 10
177.1485272199483
 20
90.73408381620629
 30
0.0
 40
0.5
100
AcDbArc
 50
359.9999949999994
 51
79.28688000000605
  0
ARC
  5
53E
330
99D
100
AcDbEntity
  8
1
  6
Continuous
100
AcDbCircle
 10
177.1485272199483
 20
88.67778681620626
 30
0.0
 40
0.5
100
AcDbArc
 50
280.7131230000015
 51
359.9999949999994
  0
ARC
  5
53F
330
99D
100
AcDbEntity
  8
1
  6
Continuous
100
AcDbCircle
 10
176.1708340249688
 20
89.70593181620609
 30
0.0
 40
3.2
100
AcDbArc
 50
65.50535152858055
 51
137.3664003081945
  0
ARC
  5
540
330
99D
100
AcDbEntity
  8
1
  6
Continuous
100
AcDbCircle
 10
176.1708340249688
 20
89.70593181620609
 30
0.0
 40
5.0
100
AcDbArc
 50
65.50535152858055
 51
149.5077922280768
  0
ARC
  5
541
330
99D
100
AcDbEntity
  8
1
  6
Continuous
100
AcDbCircle
 10
238.3708310249687
 20
79.70593481620642
 30
0.0
 40
25.0
100
AcDbArc
 50
74.99999499999498
 51
97.40382099999578
  0
ARC
  5
542
330
99D
100
AcDbEntity
  8
1
  6
Continuous
100
AcDbCircle
 10
238.3705835789744
 20
98.72147807177185
 30
0.0
 40
6.674950265648695
100
AcDbArc
 50
59.55627049629443
 51
120.4452206639516
  0
ARC
  5
543
330
99D
100
AcDbEntity
  8
1
  6
Continuous
100
AcDbCircle
 10
231.0468670925174
 20
100.7915278725749
 30
0.0
 40
14.28559605636888
100
AcDbArc
 50
270.0
 51
344.2170455039221
  0
ARC
  5
544
330
99D
100
AcDbEntity
  8
1
  6
Continuous
100
AcDbCircle
 10
231.0468670925174
 20
100.7915278725749
 30
0.0
 40
16.08559605636888
100
AcDbArc
 50
270.0
 51
344.2170455039221
  0
LINE
  5
545
330
99D
100
AcDbEntity
  8
1
  6
Continuous
100
AcDbLine
 10
221.3708310249687
 20
96.90593181620636
 30
0.0
 11
253.3208280249688
 21
96.90593181620636
 31
0.0
  0
ARC
  5
546
330
99D
100
AcDbEntity
  8
1
  6
Continuous
100
AcDbCircle
 10
212.3409241533576
 20
107.3059318162059
 30
0.0
 40
19.0
100
AcDbArc
 50
270.0
 51
326.8133376955963
  0
ARC
  5
547
330
99D
100
AcDbEntity
  8
1
  6
Continuous
100
AcDbCircle
 10
212.3409241533576
 20
107.3059318162059
 30
0.0
 40
20.8
100
AcDbArc
 50
270.0
 51
330.0000000000026
  0
LINE
  5
548
330
99D
100
AcDbEntity
  8
1
  6
Continuous
100
AcDbLine
 10
222.8383605249685
 20
96.90593181620636
 30
0.0
 11
223.4050260249687
 21
96.90593181620636
 31
0.0
  0
ARC
  5
549
330
99D
100
AcDbEntity
  8
1
  6
Continuous
100
AcDbCircle
 10
215.5252470115501
 20
106.8941694561837
 30
0.0
 40
13.9882376399776
100
AcDbArc
 50
270.0
 51
314.4349739807561
  0
LINE
  5
54A
330
99D
100
AcDbEntity
  8
1
  6
Continuous
100
AcDbLine
 10
231.9003570249685
 20
103.8540823162063
 30
0.0
 11
221.7567180249686
 21
101.1361028162062
 31
0.0
  0
ARC
  5
54B
330
99D
100
AcDbEntity
  8
1
  6
Continuous
100
AcDbCircle
 10
215.5239702617917
 20
106.8966849361316
 30
0.0
 40
15.79075311992539
100
AcDbArc
 50
270.0
 51
320.7506584123549
  0
LINE
  5
54C
330
99D
100
AcDbEntity
  8
1
  6
Continuous
100
AcDbLine
 10
222.6708340249687
 20
96.90593181620622
 30
0.0
 11
222.6708340249687
 21
96.72229231620628
 31
0.0
  0
LINE
  5
54D
330
99D
100
AcDbEntity
  8
1
  6
Continuous
100
AcDbLine
 10
222.6708265249687
 20
96.72229231620628
 30
0.0
 11
222.8383564014554
 21
96.90593181620622
 31
0.0
  0
LINE
  5
54E
330
99D
100
AcDbEntity
  8
1
  6
Continuous
100
AcDbLine
 10
220.5708280249689
 20
99.5906163162064
 30
0.0
 11
220.5708280249689
 21
97.70593481620636
 31
0.0
  0
LINE
  5
54F
330
99D
100
AcDbEntity
  8
1
  6
Continuous
100
AcDbLine
 10
221.9208340249688
 20
96.90593181620622
 30
0.0
 11
221.9208340249688
 21
96.5213263162064
 31
0.0
  0
LINE
  5
550
330
99D
100
AcDbEntity
  8
1
  6
Continuous
100
AcDbLine
 10
221.9208340249688
 20
96.52133381620622
 30
0.0
 11
222.2716897610245
 21
96.90593181620622
 31
0.0
  0
ARC
  5
551
330
99D
100
AcDbEntity
  8
1
  6
Continuous
100
AcDbCircle
 10
221.3708310249687
 20
97.70593481620636
 30
0.0
 40
0.8
100
AcDbArc
 50
180.000000999998
 51
270.0
  0
ARC
  5
552
330
99D
100
AcDbEntity
  8
1
  6
Continuous
100
AcDbCircle
 10
222.1708340249687
 20
99.5906163162064
 30
0.0
 40
1.6
100
AcDbArc
 50
105.0000019999987
 51
180.000000999998
  0
LINE
  5
553
330
99D
100
AcDbEntity
  8
1
  6
Continuous
100
AcDbLine
 10
236.6492810249687
 20
104.9693398162063
 30
0.0
 11
236.6492810249687
 21
104.6465896912792
 31
0.0
  0
LINE
  5
554
330
99D
100
AcDbEntity
  8
1
  6
Continuous
100
AcDbLine
 10
235.8992810249687
 20
104.7683813162062
 30
0.0
 11
235.8992810249687
 21
104.5834636443978
 31
0.0
  0
LINE
  5
555
330
99D
100
AcDbEntity
  8
1
  6
Continuous
100
AcDbLine
 10
235.1492810249687
 20
104.5674153162063
 30
0.0
 11
235.1492810249687
 21
104.4974982117952
 31
0.0
  0
LINE
  5
556
330
99D
100
AcDbEntity
  8
1
  6
Continuous
100
AcDbLine
 10
236.6492885249687
 20
104.9693398162062
 30
0.0
 11
236.9529292473744
 21
104.6656935199496
 31
0.0
  0
LINE
  5
557
330
99D
100
AcDbEntity
  8
1
  6
Continuous
100
AcDbLine
 10
235.8992810249687
 20
104.7683738162064
 30
0.0
 11
236.0680060193508
 21
104.5996488218243
 31
0.0
  0
LINE
  5
558
330
99D
100
AcDbEntity
  8
1
  6
Continuous
100
AcDbLine
 10
235.149281024969
 20
104.5674153162064
 30
0.0
 11
235.2112271832984
 21
104.505469157877
 31
0.0
  0
ARC
  5
559
330
99D
100
AcDbEntity
  8
1
  6
Continuous
100
AcDbCircle
 10
238.3708310249687
 20
79.70593481620642
 30
0.0
 40
25.0
100
AcDbArc
 50
97.40382099999578
 51
105.0000019999987
  0
LINE
  5
55A
330
99D
100
AcDbEntity
  8
1
  6
Continuous
100
AcDbLine
 10
244.8413050249687
 20
103.8540748162062
 30
0.0
 11
254.9849440249686
 21
101.1361028162062
 31
0.0
  0
ARC
  5
55B
330
99D
100
AcDbEntity
  8
1
  6
Continuous
100
AcDbCircle
 10
261.2176917881456
 20
106.8966849361317
 30
0.0
 40
15.79075311992539
100
AcDbArc
 50
219.2493415876449
 51
270.0
  0
ARC
  5
55C
330
99D
100
AcDbEntity
  8
1
  6
Continuous
100
AcDbCircle
 10
238.3705835789744
 20
98.72147807177185
 30
0.0
 40
8.474950265648693
100
AcDbArc
 50
344.2170455039221
 51
347.6299360179351
  0
LINE
  5
55D
330
99D
100
AcDbEntity
  8
1
  6
Continuous
100
AcDbLine
 10
240.8297240249687
 20
104.7557243162063
 30
0.0
 11
240.8423810249687
 21
104.7430668162064
 31
0.0
  0
LINE
  5
55E
330
99D
100
AcDbEntity
  8
1
  6
Continuous
100
AcDbLine
 10
240.0923810249687
 20
104.9693398162063
 30
0.0
 11
240.0923810249687
 21
104.6465896912793
 31
0.0
  0
LINE
  5
55F
330
99D
100
AcDbEntity
  8
1
  6
Continuous
100
AcDbLine
 10
240.8423810249687
 20
104.7683813162062
 30
0.0
 11
240.8423810249687
 21
104.5834636443978
 31
0.0
  0
LINE
  5
560
330
99D
100
AcDbEntity
  8
1
  6
Continuous
100
AcDbLine
 10
241.5923810249687
 20
104.5674153162063
 30
0.0
 11
241.5923810249687
 21
104.4974982117952
 31
0.0
  0
LINE
  5
561
330
99D
100
AcDbEntity
  8
1
  6
Continuous
100
AcDbLine
 10
240.8423810249689
 20
104.7683738162064
 30
0.0
 11
240.6736560305869
 21
104.5996488218243
 31
0.0
  0
LINE
  5
562
330
99D
100
AcDbEntity
  8
1
  6
Continuous
100
AcDbLine
 10
241.5923810249688
 20
104.5674153162064
 30
0.0
 11
241.5304348666392
 21
104.505469157877
 31
0.0
  0
LINE
  5
563
330
99D
100
AcDbEntity
  8
1
  6
Continuous
100
AcDbLine
 10
239.3174940249686
 20
105.1454183162063
 30
0.0
 11
239.3423810249687
 21
105.1205313162063
 31
0.0
  0
LINE
  5
564
330
99D
100
AcDbEntity
  8
1
  6
Continuous
100
AcDbLine
 10
239.3423810249688
 20
105.1702978162063
 30
0.0
 11
238.8729745537665
 21
104.7008913450041
 31
0.0
  0
LINE
  5
565
330
99D
100
AcDbEntity
  8
1
  6
Continuous
100
AcDbLine
 10
239.3423810249687
 20
105.1702978162063
 30
0.0
 11
239.3423810249687
 21
104.7021813162063
 31
0.0
  0
LINE
  5
566
330
99D
100
AcDbEntity
  8
1
  6
Continuous
100
AcDbLine
 10
237.3992810249687
 20
105.1702978162063
 30
0.0
 11
237.8686874961709
 21
104.7008913450039
 31
0.0
  0
LINE
  5
567
330
99D
100
AcDbEntity
  8
1
  6
Continuous
100
AcDbLine
 10
237.3992810249687
 20
105.1702978162063
 30
0.0
 11
237.3992810249687
 21
104.7021813162063
 31
0.0
  0
ARC
  5
568
330
99D
100
AcDbEntity
  8
1
  6
Continuous
100
AcDbCircle
 10
237.1992840249688
 20
104.7021813162063
 30
0.0
 40
0.2
100
AcDbArc
 50
355.6545135663266
 51
0.0000030000009533
  0
LINE
  5
569
330
99D
100
AcDbEntity
  8
1
  6
Continuous
100
AcDbLine
 10
240.0923810249687
 20
104.9693398162064
 30
0.0
 11
239.788734625174
 21
104.6656934164117
 31
0.0
  0
LINE
  5
56A
330
99D
100
AcDbEntity
  8
1
  6
Continuous
100
AcDbLine
 10
256.1708340249688
 20
99.59061631620645
 30
0.0
 11
256.1708340249688
 21
97.70593481620636
 31
0.0
  0
LINE
  5
56B
330
99D
100
AcDbEntity
  8
1
  6
Continuous
100
AcDbLine
 10
254.8208280249689
 20
96.90593181620636
 30
0.0
 11
254.8208280249689
 21
96.5213263162065
 31
0.0
  0
ARC
  5
56C
330
99D
100
AcDbEntity
  8
1
  6
Continuous
100
AcDbCircle
 10
255.3708310249687
 20
97.70593481620636
 30
0.0
 40
0.8
100
AcDbArc
 50
270.0
 51
0.0000030000009533
  0
LINE
  5
56D
330
99D
100
AcDbEntity
  8
1
  6
Continuous
100
AcDbLine
 10
254.0708280249689
 20
96.90593181620636
 30
0.0
 11
254.0708280249689
 21
96.7222923162064
 31
0.0
  0
LINE
  5
56E
330
99D
100
AcDbEntity
  8
1
  6
Continuous
100
AcDbLine
 10
254.0708280249689
 20
96.72229231620644
 30
0.0
 11
253.9032998237641
 21
96.90593181620636
 31
0.0
  0
LINE
  5
56F
330
99D
100
AcDbEntity
  8
1
  6
Continuous
100
AcDbLine
 10
254.4699675249689
 20
96.90593181620636
 30
0.0
 11
253.9033015249688
 21
96.90593181620636
 31
0.0
  0
LINE
  5
570
330
99D
100
AcDbEntity
  8
1
  6
Continuous
100
AcDbLine
 10
253.9033015249688
 20
96.90593181620636
 30
0.0
 11
253.3366360249688
 21
96.90593181620636
 31
0.0
  0
LINE
  5
571
330
99D
100
AcDbEntity
  8
1
  6
Continuous
100
AcDbLine
 10
255.3708310249687
 20
96.90593181620636
 30
0.0
 11
254.4699675249689
 21
96.90593181620636
 31
0.0
  0
LINE
  5
572
330
99D
100
AcDbEntity
  8
1
  6
Continuous
100
AcDbLine
 10
254.8208280249689
 20
96.5213263162065
 30
0.0
 11
254.469965446917
 21
96.90593181620622
 31
0.0
  0
ARC
  5
573
330
99D
100
AcDbEntity
  8
1
  6
Continuous
100
AcDbCircle
 10
254.5708280249689
 20
99.5906163162064
 30
0.0
 40
1.6
100
AcDbArc
 50
0.0000030000009533
 51
74.99999499999498
  0
ARC
  5
574
330
99D
100
AcDbEntity
  8
1
  6
Continuous
100
AcDbCircle
 10
261.2176917881456
 20
106.8966849361317
 30
0.0
 40
13.99075311992539
100
AcDbArc
 50
225.5692338279796
 51
270.0
  0
LINE
  5
575
330
99D
100
AcDbEntity
  8
1
  6
Continuous
100
AcDbLine
 10
221.9835100080717
 20
158.1112488408915
 30
0.0
 11
171.1708340249687
 21
158.1112488408915
 31
0.0
  0
LINE
  5
595
330
99D
100
AcDbEntity
  8
1
  6
Continuous
100
AcDbLine
 10
246.5708280249752
 20
157.8612488408915
 30
0.0
 11
230.1708340249752
 21
157.8612488408915
 31
0.0
  0
LINE
  5
596
330
99D
100
AcDbEntity
  8
1
  6
Continuous
100
AcDbLine
 10
228.9308767273241
 20
158.1112488408912
 30
0.0
 11
247.8107853226259
 21
158.1112488408912
 31
0.0
  0
ARC
  5
597
330
99D
100
AcDbEntity
  8
1
  6
Continuous
100
AcDbCircle
 10
238.3708310249751
 20
217.2612503408915
 30
0.0
 40
64.0
100
AcDbArc
 50
259.5473620000016
 51
280.4526469999967
  0
LINE
  5
598
330
99D
100
AcDbEntity
  8
1
  6
Continuous
100
AcDbLine
 10
220.5708280249752
 20
177.1112488408915
 30
0.0
 11
221.4479260249754
 21
160.3752678408914
 31
0.0
  0
ARC
  5
599
330
99D
100
AcDbEntity
  8
1
  6
Continuous
100
AcDbCircle
 10
227.9390225249751
 20
160.7154513408914
 30
0.0
 40
6.5
100
AcDbArc
 50
183.0000110000004
 51
259.5473620000016
  0
ARC
  5
59A
330
99D
100
AcDbEntity
  8
1
  6
Continuous
100
AcDbCircle
 10
230.970829524975
 20
161.0612498408914
 30
0.0
 40
3.2
100
AcDbArc
 50
270.0
 51
292.7982018918906
  0
ARC
  5
59B
330
99D
100
AcDbEntity
  8
1
  6
Continuous
100
AcDbCircle
 10
230.1708340249752
 20
161.0612498408914
 30
0.0
 40
3.2
100
AcDbArc
 50
180.000000999998
 51
270.0
  0
LINE
  5
59C
330
99D
100
AcDbEntity
  8
1
  6
Continuous
100
AcDbLine
 10
256.170834024975
 20
177.1112488408915
 30
0.0
 11
255.293728524975
 21
160.3752638408916
 31
0.0
  0
ARC
  5
59D
330
99D
100
AcDbEntity
  8
1
  6
Continuous
100
AcDbCircle
 10
248.8026395249752
 20
160.7154513408914
 30
0.0
 40
6.5
100
AcDbArc
 50
280.4526469999967
 51
356.9999989999998
  0
ARC
  5
59E
330
99D
100
AcDbEntity
  8
1
  6
Continuous
100
AcDbCircle
 10
245.7708325249752
 20
161.0612498408914
 30
0.0
 40
3.2
100
AcDbArc
 50
247.2017981081092
 51
270.0
  0
ARC
  5
59F
330
99D
100
AcDbEntity
  8
1
  6
Continuous
100
AcDbCircle
 10
246.5708280249752
 20
161.0612498408914
 30
0.0
 40
3.2
100
AcDbArc
 50
270.0
 51
0.0000030000009533
  0
LINE
  5
5A0
330
99D
100
AcDbEntity
  8
1
  6
Continuous
100
AcDbLine
 10
46.65982272145185
 20
196.1112488408921
 30
0.0
 11
42.7098227214517
 21
196.1112488408917
 31
0.0
  0
LINE
  5
5A1
330
99D
100
AcDbEntity
  8
1
  6
Continuous
100
AcDbLine
 10
44.50063972145152
 20
191.8612488408917
 30
0.0
 11
34.75982572145153
 21
191.8612488408917
 31
0.0
  0
ARC
  5
5A2
330
99D
100
AcDbEntity
  8
1
  6
Continuous
100
AcDbCircle
 10
41.90982272145163
 20
200.3112488408915
 30
0.0
 40
0.8
100
AcDbArc
 50
0.0
 51
90.0
  0
ARC
  5
5A3
330
99D
100
AcDbEntity
  8
1
  6
Continuous
100
AcDbCircle
 10
40.15982012242601
 20
200.3112488408915
 30
0.0
 40
0.8
100
AcDbArc
 50
0.0000000000001272
 51
90.00000000000005
  0
ARC
  5
5A4
330
99D
100
AcDbEntity
  8
1
  6
Continuous
100
AcDbCircle
 10
37.00982272145153
 20
200.3112488408915
 30
0.0
 40
0.8
100
AcDbArc
 50
90.00000000000005
 51
180.0
  0
ARC
  5
5A5
330
99D
100
AcDbEntity
  8
1
  6
Continuous
100
AcDbCircle
 10
38.75982532047713
 20
200.3112488408915
 30
0.0
 40
0.8
100
AcDbArc
 50
90.0
 51
180.0000000000001
  0
LINE
  5
5A6
330
99D
100
AcDbEntity
  8
1
  6
Continuous
100
AcDbLine
 10
36.20982272145158
 20
196.1112488408917
 30
0.0
 11
34.45982272145124
 21
196.1112488408917
 31
0.0
  0
LINE
  5
5A7
330
99D
100
AcDbEntity
  8
1
  6
Continuous
100
AcDbLine
 10
34.45982272145145
 20
196.1112488408916
 30
0.0
 11
34.45982272145136
 21
191.761246590874
 31
0.0
  0
LINE
  5
5A8
330
99D
100
AcDbEntity
  8
1
  6
Continuous
100
AcDbLine
 10
41.90982272145163
 20
201.1112488408915
 30
0.0
 11
37.00982272145153
 21
201.1112488408915
 31
0.0
  0
LINE
  5
5A9
330
99D
100
AcDbEntity
  8
1
  6
Continuous
100
AcDbLine
 10
37.95982532047717
 20
200.3112488408915
 30
0.0
 11
37.95982532047729
 21
191.8612488408918
 31
0.0
  0
LINE
  5
5AA
330
99D
100
AcDbEntity
  8
1
  6
Continuous
100
AcDbLine
 10
40.95982012242599
 20
200.3112488408915
 30
0.0
 11
40.95982012242607
 21
191.8612488408918
 31
0.0
  0
LINE
  5
5AB
330
99D
100
AcDbEntity
  8
1
  6
Continuous
100
AcDbLine
 10
36.20982272145158
 20
200.3112488408915
 30
0.0
 11
36.20982272145158
 21
191.8612488408917
 31
0.0
  0
LINE
  5
5AC
330
99D
100
AcDbEntity
  8
1
  6
Continuous
100
AcDbLine
 10
42.70982272145158
 20
200.3112488408915
 30
0.0
 11
42.70982272145158
 21
191.8612488408917
 31
0.0
  0
LINE
  5
5AD
330
99D
100
AcDbEntity
  8
1
  6
Continuous
100
AcDbLine
 10
41.9098227214515
 20
191.6900587318241
 30
0.0
 11
41.9098227214515
 21
191.8612488408917
 31
0.0
  0
ARC
  5
5AE
330
99D
100
AcDbEntity
  8
1
  6
Continuous
100
AcDbCircle
 10
42.28649772145149
 20
191.3612488408917
 30
0.0
 40
0.5
100
AcDbArc
 50
90.0
 51
180.0
  0
ARC
  5
5AF
330
99D
100
AcDbEntity
  8
1
  6
Continuous
100
AcDbCircle
 10
36.95982272145145
 20
191.3612488408917
 30
0.0
 40
0.5
100
AcDbArc
 50
0.0000000000002544
 51
90.0
  0
ARC
  5
5B0
330
99D
100
AcDbEntity
  8
1
  6
Continuous
100
AcDbCircle
 10
34.75982572145153
 20
191.3612488408917
 30
0.0
 40
0.5
100
AcDbArc
 50
90.0
 51
180.0
  0
LINE
  5
5B1
330
99D
100
AcDbEntity
  8
1
  6
Continuous
100
AcDbLine
 10
247.1029193389354
 20
332.9218828890412
 30
0.0
 11
247.1029193389356
 21
370.9218828890412
 31
0.0
  0
LINE
  5
5B2
330
99D
100
AcDbEntity
  8
1
  6
Continuous
100
AcDbLine
 10
158.8441902199483
 20
158.2429018402807
 30
0.0
 11
158.8441902199483
 21
162.1112488402807
 31
0.0
  0
ARC
  5
5B3
330
99D
100
AcDbEntity
  8
1
  6
Continuous
100
AcDbCircle
 10
168.3441752199481
 20
159.3625768402807
 30
0.0
 40
1.5
100
AcDbArc
 50
180.0
 51
269.6944199999961
  0
LINE
  5
5B4
330
99D
100
AcDbEntity
  8
1
  6
Continuous
100
AcDbLine
 10
171.1708340249687
 20
196.1112488402808
 30
0.0
 11
171.1708340249687
 21
158.1112488402807
 31
0.0
  0
LINE
  5
5B5
330
99D
100
AcDbEntity
  8
4
  6
CENTER
100
AcDbLine
 10
162.1441932199481
 20
333.053535889041
 30
0.0
 11
162.1441932199481
 21
370.790199889041
 31
0.0
  0
LINE
  5
5B6
330
99D
100
AcDbEntity
  8
4
  6
CENTER
100
AcDbLine
 10
238.3708310249687
 20
325.0718843890412
 30
0.0
 11
238.3708310249687
 21
378.7718813890412
 31
0.0
  0
LINE
  5
5B7
330
99D
100
AcDbEntity
  8
1
  6
Continuous
100
AcDbLine
 10
158.9037912199481
 20
267.5889988649663
 30
0.0
 11
134.7348762199482
 21
271.6031438649661
 31
0.0
  0
LINE
  5
5B8
330
99D
100
AcDbEntity
  8
1
  6
Continuous
100
AcDbLine
 10
162.7949502199481
 20
269.6756838649662
 30
0.0
 11
134.9660622199482
 21
273.1860448649663
 31
0.0
  0
LINE
  5
5B9
330
99D
100
AcDbEntity
  8
1
  6
Continuous
100
AcDbLine
 10
158.4441812199482
 20
262.0165658649663
 30
0.0
 11
127.6441932199481
 21
262.0165658649663
 31
0.0
  0
LINE
  5
5BA
330
99D
100
AcDbEntity
  8
1
  6
Continuous
100
AcDbLine
 10
141.1530742199483
 20
272.4056038649664
 30
0.0
 11
162.6752912199482
 21
270.4930218649664
 31
0.0
  0
LINE
  5
5BB
330
99D
100
AcDbEntity
  8
1
  6
Continuous
100
AcDbLine
 10
158.5441872199482
 20
259.5165658649662
 30
0.0
 11
127.6441932199481
 21
259.5165658649662
 31
0.0
  0
LINE
  5
5BC
330
99D
100
AcDbEntity
  8
1
  6
Continuous
100
AcDbLine
 10
162.8398412199482
 20
258.5570318649661
 30
0.0
 11
128.8036022199481
 21
254.5840098649662
 31
0.0
  0
LINE
  5
5BD
330
99D
100
AcDbEntity
  8
4
  6
CENTER
100
AcDbLine
 10
180.3441752199482
 20
264.5165658649663
 30
0.0
 11
114.644193219948
 21
264.5165658649663
 31
0.0
  0
LINE
  5
5BE
330
99D
100
AcDbEntity
  8
1
  6
Continuous
100
AcDbLine
 10
129.6315132199482
 20
273.5360818649661
 30
0.0
 11
127.8140542199482
 21
270.3881478649663
 31
0.0
  0
LINE
  5
5BF
330
99D
100
AcDbEntity
  8
1
  6
Continuous
100
AcDbLine
 10
131.7965832199483
 20
272.2860818649661
 30
0.0
 11
129.9121372199482
 21
269.0221198649661
 31
0.0
  0
LINE
  5
5C0
330
99D
100
AcDbEntity
  8
4
  6
CENTER
100
AcDbLine
 10
127.6441932199481
 20
277.0565668649661
 30
0.0
 11
127.6441932199481
 21
251.9765728649663
 31
0.0
  0
ARC
  5
5C1
330
99D
100
AcDbEntity
  8
1
  6
Continuous
100
AcDbCircle
 10
127.6441932199481
 20
264.5165658649663
 30
0.0
 40
10.0
100
AcDbArc
 50
102.4820380000058
 51
276.6579589999945
  0
ARC
  5
5C2
330
99D
100
AcDbEntity
  8
1
  6
Continuous
100
AcDbCircle
 10
56.07876598606218
 20
195.5416338818207
 30
0.0
 40
5.506530488188332
100
AcDbArc
 50
109.6671738682687
 51
180.0
  0
LINE
  5
5C3
330
99D
100
AcDbEntity
  8
1
  6
Continuous
100
AcDbLine
 10
58.75031923968629
 20
196.1112488408921
 30
0.0
 11
52.28711009071002
 21
196.1112488408915
 31
0.0
  0
LINE
  5
5C4
330
99D
100
AcDbEntity
  8
1
  6
Continuous
100
AcDbLine
 10
54.45982572145156
 20
196.3612488408915
 30
0.0
 11
52.28711009071002
 21
196.3612488408915
 31
0.0
  0
ARC
  5
5C5
330
99D
100
AcDbEntity
  8
1
  6
Continuous
100
AcDbCircle
 10
47.45982272145193
 20
200.1612473408913
 30
0.0
 40
0.8
100
AcDbArc
 50
90.00000000001627
 51
179.9999999999836
  0
ARC
  5
5C6
330
99D
100
AcDbEntity
  8
1
  6
Continuous
100
AcDbCircle
 10
53.65982572145162
 20
200.1612473408914
 30
0.0
 40
0.8
100
AcDbArc
 50
0.0000000000081422
 51
89.99999999999186
  0
LINE
  5
5C7
330
99D
100
AcDbEntity
  8
1
  6
Continuous
100
AcDbLine
 10
53.65982572145172
 20
200.9612473408915
 30
0.0
 11
47.45982272145168
 21
200.9612473408915
 31
0.0
  0
LINE
  5
5C8
330
99D
100
AcDbEntity
  8
1
  6
Continuous
100
AcDbLine
 10
54.45982572145169
 20
200.1612473408914
 30
0.0
 11
54.45982572145156
 21
196.1112488408916
 31
0.0
  0
LINE
  5
5C9
330
99D
100
AcDbEntity
  8
1
  6
Continuous
100
AcDbLine
 10
44.45982272145134
 20
196.1112488408917
 30
0.0
 11
44.45982272145134
 21
191.8612488408917
 31
0.0
  0
ARC
  5
5CA
330
99D
100
AcDbEntity
  8
1
  6
Continuous
100
AcDbCircle
 10
44.50063972145152
 20
191.3612488408917
 30
0.0
 40
0.5
100
AcDbArc
 50
0.0
 51
90.0
  0
LINE
  5
5CB
330
99D
100
AcDbEntity
  8
1
  6
Continuous
100
AcDbLine
 10
132.8809792199483
 20
275.9179028649664
 30
0.0
 11
125.4828472199483
 21
274.2802068649664
 31
0.0
  0
LINE
  5
5CC
330
99D
100
AcDbEntity
  8
1
  6
Continuous
100
AcDbLine
 10
136.7177102199484
 20
275.4739788649662
 30
0.0
 11
135.2557352199482
 21
275.8657098649663
 31
0.0
  0
LINE
  5
5CD
330
99D
100
AcDbEntity
  8
1
  6
Continuous
100
AcDbLine
 10
136.0706612199483
 20
273.0591608649663
 30
0.0
 11
134.6087012199484
 21
273.4508918649661
 31
0.0
  0
ARC
  5
5CE
330
99D
100
AcDbEntity
  8
1
  6
Continuous
100
AcDbCircle
 10
133.9616372199481
 20
271.0360818649661
 30
0.0
 40
5.0
100
AcDbArc
 50
75.00000000000563
 51
150.0000000000028
  0
ARC
  5
5CF
330
99D
100
AcDbEntity
  8
1
  6
Continuous
100
AcDbCircle
 10
133.9616372199481
 20
271.0360818649661
 30
0.0
 40
2.5
100
AcDbArc
 50
75.00000000000563
 51
150.0000000000028
  0
ARC
  5
5D0
330
99D
100
AcDbEntity
  8
1
  6
Continuous
100
AcDbCircle
 10
136.3941932199481
 20
274.2665658649662
 30
0.0
 40
1.25
100
AcDbArc
 50
255.0000019999965
 51
75.00000000000563
  0
ARC
  5
5D1
330
99D
100
AcDbEntity
  8
1
  6
Continuous
100
AcDbCircle
 10
134.8659492199483
 20
272.3923288649663
 30
0.0
 40
0.8
100
AcDbArc
 50
82.81063600000333
 51
260.5699940000008
  0
ARC
  5
5D2
330
99D
100
AcDbEntity
  8
1
  6
Continuous
100
AcDbCircle
 10
127.6441932199481
 20
264.5165658649663
 30
0.0
 40
5.0
100
AcDbArc
 50
119.9999970000034
 51
269.9999990000051
  0
LINE
  5
5D3
330
99D
100
AcDbEntity
  8
1
  6
Continuous
100
AcDbLine
 10
129.1800822199484
 20
268.2900718649662
 30
0.0
 11
126.3941932199484
 21
266.6816348649661
 31
0.0
  0
ARC
  5
5D4
330
99D
100
AcDbEntity
  8
1
  6
Continuous
100
AcDbCircle
 10
127.6441932199481
 20
264.5165658649663
 30
0.0
 40
2.5
100
AcDbArc
 50
119.9999970000034
 51
269.9999990000051
  0
LINE
  5
5D5
330
99D
100
AcDbEntity
  8
1
  6
Continuous
100
AcDbLine
 10
127.8140542199484
 20
270.3881478649663
 30
0.0
 11
125.1441932199483
 21
268.8466968649663
 31
0.0
  0
ARC
  5
5D6
330
99D
100
AcDbEntity
  8
1
  6
Continuous
100
AcDbCircle
 10
128.180082219948
 20
270.0221198649661
 30
0.0
 40
2.0
100
AcDbArc
 50
299.9999939999966
 51
330.0000010000019
  0
ARC
  5
5D7
330
99D
100
AcDbEntity
  8
1
  6
Continuous
100
AcDbCircle
 10
261.2176917881456
 20
247.3258127450407
 30
0.0
 40
15.79075311992539
100
AcDbArc
 50
90.00000000000005
 51
140.7506584123549
  0
ARC
  5
5D8
330
99D
100
AcDbEntity
  8
1
  6
Continuous
100
AcDbCircle
 10
261.2176917881456
 20
247.3258127450407
 30
0.0
 40
13.99075311992539
100
AcDbArc
 50
90.00000000000005
 51
134.4307661720202
  0
ARC
  5
5D9
330
99D
100
AcDbEntity
  8
1
  6
Continuous
100
AcDbCircle
 10
215.5252470115501
 20
247.3283282249887
 30
0.0
 40
13.9882376399776
100
AcDbArc
 50
45.56502601924377
 51
90.00000000000005
  0
ARC
  5
5DA
330
99D
100
AcDbEntity
  8
1
  6
Continuous
100
AcDbCircle
 10
212.3409241533576
 20
246.9165658649664
 30
0.0
 40
19.0
100
AcDbArc
 50
33.18666230440356
 51
90.00000000000005
  0
ARC
  5
5DB
330
99D
100
AcDbEntity
  8
1
  6
Continuous
100
AcDbCircle
 10
215.5239702617917
 20
247.3258127450409
 30
0.0
 40
15.79075311992539
100
AcDbArc
 50
39.24934158764503
 51
90.00000000000005
  0
ARC
  5
5DC
330
99D
100
AcDbEntity
  8
1
  6
Continuous
100
AcDbCircle
 10
212.3409241533576
 20
246.9165658649664
 30
0.0
 40
20.8
100
AcDbArc
 50
29.99999999999729
 51
90.00000000000005
  0
ARC
  5
5DD
330
99D
100
AcDbEntity
  8
1
  6
Continuous
100
AcDbCircle
 10
162.1441932199481
 20
264.5165658649663
 30
0.0
 40
6.0
100
AcDbArc
 50
31.07100400000348
 51
84.92169700000571
  0
LINE
  5
5DE
330
99D
100
AcDbEntity
  8
4
  6
CENTER
100
AcDbLine
 10
162.1441932199481
 20
257.2169058649664
 30
0.0
 11
162.1441932199481
 21
273.1292828649663
 31
0.0
  0
LINE
  5
5DF
330
99D
100
AcDbEntity
  8
4
  6
CENTER
100
AcDbLine
 10
238.3708310249687
 20
243.6495471357825
 30
0.0
 11
238.3708310249687
 21
261.5932442371631
 31
0.0
  0
ARC
  5
5E0
330
99D
100
AcDbEntity
  8
1
  6
Continuous
100
AcDbCircle
 10
231.0468670925174
 20
253.4309698085975
 30
0.0
 40
16.08559605636888
100
AcDbArc
 50
15.7829544960779
 51
90.00000000000005
  0
ARC
  5
5E1
330
99D
100
AcDbEntity
  8
1
  6
Continuous
100
AcDbCircle
 10
231.0468670925174
 20
253.4309698085975
 30
0.0
 40
14.28559605636888
100
AcDbArc
 50
15.7829544960779
 51
90.00000000000005
  0
LINE
  5
5E2
330
99D
100
AcDbEntity
  8
1
  6
Continuous
100
AcDbLine
 10
221.9835100080717
 20
196.1112488408916
 30
0.0
 11
171.1708340249687
 21
196.1112488408916
 31
0.0
  0
LINE
  5
5FC
330
99D
100
AcDbEntity
  8
1
  6
Continuous
100
AcDbLine
 10
246.5708280249752
 20
196.3612488408915
 30
0.0
 11
230.1708340249752
 21
196.3612488408915
 31
0.0
  0
LINE
  5
5FD
330
99D
100
AcDbEntity
  8
1
  6
Continuous
100
AcDbLine
 10
228.9308672109063
 20
196.1112488408916
 30
0.0
 11
247.8107948390441
 21
196.1112488408916
 31
0.0
  0
ARC
  5
5FE
330
99D
100
AcDbEntity
  8
1
  6
Continuous
100
AcDbCircle
 10
238.3708310249752
 20
136.9612473408915
 30
0.0
 40
64.0
100
AcDbArc
 50
79.54735700000009
 51
100.4526390000035
  0
ARC
  5
5FF
330
99D
100
AcDbEntity
  8
1
  6
Continuous
100
AcDbCircle
 10
227.9390225249751
 20
193.5070463408914
 30
0.0
 40
6.5
100
AcDbArc
 50
100.4526390000035
 51
176.9999899999999
  0
ARC
  5
600
330
99D
100
AcDbEntity
  8
1
  6
Continuous
100
AcDbCircle
 10
230.970829524975
 20
193.1612518408916
 30
0.0
 40
3.2
100
AcDbArc
 50
67.20161327734381
 51
90.00000500000046
  0
ARC
  5
601
330
99D
100
AcDbEntity
  8
1
  6
Continuous
100
AcDbCircle
 10
230.1708340249752
 20
193.1612518408916
 30
0.0
 40
3.2
100
AcDbArc
 50
89.9999909999939
 51
180.000000999998
  0
ARC
  5
602
330
99D
100
AcDbEntity
  8
1
  6
Continuous
100
AcDbCircle
 10
248.802639524975
 20
193.5070463408914
 30
0.0
 40
6.5
100
AcDbArc
 50
2.999998999998423
 51
79.54735700000009
  0
ARC
  5
603
330
99D
100
AcDbEntity
  8
1
  6
Continuous
100
AcDbCircle
 10
246.5708280249752
 20
193.1612518408916
 30
0.0
 40
3.2
100
AcDbArc
 50
0.0000030000009533
 51
90.00000500000046
  0
ARC
  5
604
330
99D
100
AcDbEntity
  8
1
  6
Continuous
100
AcDbCircle
 10
245.7708325249752
 20
193.1612518408916
 30
0.0
 40
3.2
100
AcDbArc
 50
89.9999909999939
 51
112.798386722656
  0
LINE
  5
605
330
99D
100
AcDbEntity
  8
1
  6
Continuous
100
AcDbLine
 10
221.3708310249687
 20
257.3165658649662
 30
0.0
 11
253.3208280249688
 21
257.3165658649662
 31
0.0
  0
ARC
  5
606
330
99D
100
AcDbEntity
  8
1
  6
Continuous
100
AcDbCircle
 10
238.3705835789744
 20
255.5010196094008
 30
0.0
 40
8.474950265648693
100
AcDbArc
 50
216.4974768183613
 51
323.5012082091877
  0
ARC
  5
607
330
99D
100
AcDbEntity
  8
1
  6
Continuous
100
AcDbCircle
 10
238.3705835789744
 20
255.5010196094008
 30
0.0
 40
10.27495026564869
100
AcDbArc
 50
205.2020976454004
 51
334.7970053448269
  0
ARC
  5
608
330
99D
100
AcDbEntity
  8
1
  6
Continuous
100
AcDbCircle
 10
238.3705835789744
 20
255.5010196094008
 30
0.0
 40
6.674950265648695
100
AcDbArc
 50
239.5547793360483
 51
300.4437295037054
  0
ARC
  5
609
330
99D
100
AcDbEntity
  8
1
  6
Continuous
100
AcDbCircle
 10
238.3708310249687
 20
274.5165628649661
 30
0.0
 40
25.0
100
AcDbArc
 50
262.5961790000042
 51
285.0000050000048
  0
LINE
  5
60A
330
99D
100
AcDbEntity
  8
1
  6
Continuous
100
AcDbLine
 10
231.9003570249685
 20
250.3684153649662
 30
0.0
 11
221.7567180249686
 21
253.0863948649663
 31
0.0
  0
LINE
  5
60B
330
99D
100
AcDbEntity
  8
1
  6
Continuous
100
AcDbLine
 10
222.8383605249685
 20
257.3165658649662
 30
0.0
 11
223.4050260249687
 21
257.3165658649662
 31
0.0
  0
ARC
  5
60C
330
99D
100
AcDbEntity
  8
1
  6
Continuous
100
AcDbCircle
 10
222.1708340249687
 20
254.6318813649662
 30
0.0
 40
1.6
100
AcDbArc
 50
179.9999990000018
 51
254.9999980000011
  0
LINE
  5
60D
330
99D
100
AcDbEntity
  8
1
  6
Continuous
100
AcDbLine
 10
220.5708280249689
 20
254.6318813649662
 30
0.0
 11
220.5708280249689
 21
256.5165628649662
 31
0.0
  0
LINE
  5
60E
330
99D
100
AcDbEntity
  8
1
  6
Continuous
100
AcDbLine
 10
221.9208340249688
 20
257.7011638649663
 30
0.0
 11
222.2716897610245
 21
257.3165658649663
 31
0.0
  0
LINE
  5
60F
330
99D
100
AcDbEntity
  8
1
  6
Continuous
100
AcDbLine
 10
221.9208340249688
 20
257.3165658649663
 30
0.0
 11
221.9208340249688
 21
257.7011713649662
 31
0.0
  0
LINE
  5
610
330
99D
100
AcDbEntity
  8
1
  6
Continuous
100
AcDbLine
 10
222.6708265249687
 20
257.5002053649663
 30
0.0
 11
222.8383564014554
 21
257.3165658649663
 31
0.0
  0
LINE
  5
611
330
99D
100
AcDbEntity
  8
1
  6
Continuous
100
AcDbLine
 10
222.6708340249687
 20
257.3165658649663
 30
0.0
 11
222.6708340249687
 21
257.5002053649663
 31
0.0
  0
ARC
  5
612
330
99D
100
AcDbEntity
  8
1
  6
Continuous
100
AcDbCircle
 10
221.3708310249687
 20
256.5165628649662
 30
0.0
 40
0.8
100
AcDbArc
 50
90.00000000000005
 51
179.9999990000018
  0
ARC
  5
613
330
99D
100
AcDbEntity
  8
1
  6
Continuous
100
AcDbCircle
 10
238.3708310249687
 20
274.5165628649661
 30
0.0
 40
25.0
100
AcDbArc
 50
254.9999980000011
 51
262.5961790000042
  0
LINE
  5
614
330
99D
100
AcDbEntity
  8
1
  6
Continuous
100
AcDbLine
 10
235.149281024969
 20
249.655082364966
 30
0.0
 11
235.2112271832984
 21
249.7170285232954
 31
0.0
  0
LINE
  5
615
330
99D
100
AcDbEntity
  8
1
  6
Continuous
100
AcDbLine
 10
235.8992810249687
 20
249.4541238649661
 30
0.0
 11
236.0680060193508
 21
249.6228488593481
 31
0.0
  0
LINE
  5
616
330
99D
100
AcDbEntity
  8
1
  6
Continuous
100
AcDbLine
 10
236.6492885249687
 20
249.2531578649663
 30
0.0
 11
236.9529292473744
 21
249.5568041612228
 31
0.0
  0
LINE
  5
617
330
99D
100
AcDbEntity
  8
1
  6
Continuous
100
AcDbLine
 10
235.1492810249687
 20
249.6550823649662
 30
0.0
 11
235.1492810249687
 21
249.7249994693772
 31
0.0
  0
LINE
  5
618
330
99D
100
AcDbEntity
  8
1
  6
Continuous
100
AcDbLine
 10
235.8992810249687
 20
249.4541163649663
 30
0.0
 11
235.8992810249687
 21
249.6390340367747
 31
0.0
  0
LINE
  5
619
330
99D
100
AcDbEntity
  8
1
  6
Continuous
100
AcDbLine
 10
236.6492810249687
 20
249.2531578649661
 30
0.0
 11
236.6492810249687
 21
249.5759079898932
 31
0.0
  0
LINE
  5
61A
330
99D
100
AcDbEntity
  8
1
  6
Continuous
100
AcDbLine
 10
244.8413050249687
 20
250.3684228649662
 30
0.0
 11
254.9849440249686
 21
253.0863948649663
 31
0.0
  0
LINE
  5
61B
330
99D
100
AcDbEntity
  8
1
  6
Continuous
100
AcDbLine
 10
241.5923810249688
 20
249.655082364966
 30
0.0
 11
241.5304348666392
 21
249.7170285232954
 31
0.0
  0
LINE
  5
61C
330
99D
100
AcDbEntity
  8
1
  6
Continuous
100
AcDbLine
 10
240.8423810249689
 20
249.4541238649661
 30
0.0
 11
240.6736560305869
 21
249.6228488593481
 31
0.0
  0
LINE
  5
61D
330
99D
100
AcDbEntity
  8
1
  6
Continuous
100
AcDbLine
 10
241.5923810249687
 20
249.6550823649662
 30
0.0
 11
241.5923810249687
 21
249.7249994693772
 31
0.0
  0
LINE
  5
61E
330
99D
100
AcDbEntity
  8
1
  6
Continuous
100
AcDbLine
 10
240.8423810249687
 20
249.4541163649663
 30
0.0
 11
240.8423810249687
 21
249.6390340367747
 31
0.0
  0
LINE
  5
61F
330
99D
100
AcDbEntity
  8
1
  6
Continuous
100
AcDbLine
 10
240.8297240249687
 20
249.4667733649661
 30
0.0
 11
240.8423810249687
 21
249.4794308649661
 31
0.0
  0
ARC
  5
620
330
99D
100
AcDbEntity
  8
1
  6
Continuous
100
AcDbCircle
 10
238.3705835789744
 20
255.5010196094008
 30
0.0
 40
8.474950265648693
100
AcDbArc
 50
12.37006398206488
 51
15.7829544960779
  0
LINE
  5
621
330
99D
100
AcDbEntity
  8
1
  6
Continuous
100
AcDbLine
 10
240.0923810249687
 20
249.2531578649661
 30
0.0
 11
239.788734625174
 21
249.5568042647607
 31
0.0
  0
ARC
  5
622
330
99D
100
AcDbEntity
  8
1
  6
Continuous
100
AcDbCircle
 10
237.1992840249688
 20
249.5203163649661
 30
0.0
 40
0.2
100
AcDbArc
 50
359.9999969999989
 51
4.345486433673269
  0
LINE
  5
623
330
99D
100
AcDbEntity
  8
1
  6
Continuous
100
AcDbLine
 10
237.3992810249687
 20
249.0521998649662
 30
0.0
 11
237.3992810249687
 21
249.5203163649661
 31
0.0
  0
LINE
  5
624
330
99D
100
AcDbEntity
  8
1
  6
Continuous
100
AcDbLine
 10
237.3992810249687
 20
249.0521998649662
 30
0.0
 11
237.8686874961709
 21
249.5216063361685
 31
0.0
  0
LINE
  5
625
330
99D
100
AcDbEntity
  8
1
  6
Continuous
100
AcDbLine
 10
239.3423810249687
 20
249.0521998649662
 30
0.0
 11
239.3423810249687
 21
249.5203163649661
 31
0.0
  0
LINE
  5
626
330
99D
100
AcDbEntity
  8
1
  6
Continuous
100
AcDbLine
 10
239.3423810249688
 20
249.0521998649662
 30
0.0
 11
238.8729745537665
 21
249.5216063361684
 31
0.0
  0
LINE
  5
627
330
99D
100
AcDbEntity
  8
1
  6
Continuous
100
AcDbLine
 10
239.3174940249686
 20
249.0770793649662
 30
0.0
 11
239.3423810249687
 21
249.1019663649661
 31
0.0
  0
LINE
  5
628
330
99D
100
AcDbEntity
  8
1
  6
Continuous
100
AcDbLine
 10
240.0923810249687
 20
249.2531578649661
 30
0.0
 11
240.0923810249687
 21
249.5759079898932
 31
0.0
  0
ARC
  5
629
330
99D
100
AcDbEntity
  8
1
  6
Continuous
100
AcDbCircle
 10
254.5708280249689
 20
254.6318813649662
 30
0.0
 40
1.6
100
AcDbArc
 50
285.0000050000048
 51
359.9999969999989
  0
LINE
  5
62A
330
99D
100
AcDbEntity
  8
1
  6
Continuous
100
AcDbLine
 10
256.1708340249688
 20
254.631881364966
 30
0.0
 11
256.1708340249688
 21
256.5165628649662
 31
0.0
  0
LINE
  5
62B
330
99D
100
AcDbEntity
  8
1
  6
Continuous
100
AcDbLine
 10
254.8208280249689
 20
257.7011713649661
 30
0.0
 11
254.469965446917
 21
257.3165658649663
 31
0.0
  0
LINE
  5
62C
330
99D
100
AcDbEntity
  8
1
  6
Continuous
100
AcDbLine
 10
255.3708310249687
 20
257.3165658649662
 30
0.0
 11
254.4699675249689
 21
257.3165658649662
 31
0.0
  0
LINE
  5
62D
330
99D
100
AcDbEntity
  8
1
  6
Continuous
100
AcDbLine
 10
254.8208280249689
 20
257.3165658649662
 30
0.0
 11
254.8208280249689
 21
257.7011713649661
 31
0.0
  0
LINE
  5
62E
330
99D
100
AcDbEntity
  8
1
  6
Continuous
100
AcDbLine
 10
253.9033015249688
 20
257.3165658649662
 30
0.0
 11
253.3366360249688
 21
257.3165658649662
 31
0.0
  0
LINE
  5
62F
330
99D
100
AcDbEntity
  8
1
  6
Continuous
100
AcDbLine
 10
254.0708280249689
 20
257.5002053649661
 30
0.0
 11
253.9032998237641
 21
257.3165658649662
 31
0.0
  0
LINE
  5
630
330
99D
100
AcDbEntity
  8
1
  6
Continuous
100
AcDbLine
 10
254.0708280249689
 20
257.3165658649662
 30
0.0
 11
254.0708280249689
 21
257.5002053649661
 31
0.0
  0
LINE
  5
631
330
99D
100
AcDbEntity
  8
1
  6
Continuous
100
AcDbLine
 10
254.4699675249689
 20
257.3165658649662
 30
0.0
 11
253.9033015249688
 21
257.3165658649662
 31
0.0
  0
ARC
  5
632
330
99D
100
AcDbEntity
  8
1
  6
Continuous
100
AcDbCircle
 10
255.3708310249687
 20
256.5165628649662
 30
0.0
 40
0.8
100
AcDbArc
 50
359.9999969999989
 51
90.00000000000005
  0
LINE
  5
633
330
99D
100
AcDbEntity
  8
1
  6
Continuous
100
AcDbLine
 10
184.4629990016196
 20
261.3165658649663
 30
0.0
 11
215.5252470115501
 21
261.3165658649663
 31
0.0
  0
LINE
  5
634
330
99D
100
AcDbEntity
  8
1
  6
Continuous
100
AcDbLine
 10
184.4629990016196
 20
263.1165658649664
 30
0.0
 11
215.5239702617917
 21
263.1165658649664
 31
0.0
  0
LINE
  5
635
330
99D
100
AcDbEntity
  8
1
  6
Continuous
100
AcDbLine
 10
176.1708340249688
 20
267.7165658649664
 30
0.0
 11
231.0468670925174
 21
267.7165658649664
 31
0.0
  0
LINE
  5
636
330
99D
100
AcDbEntity
  8
1
  6
Continuous
100
AcDbLine
 10
176.1708340249688
 20
269.5165658649665
 30
0.0
 11
231.0468670925174
 21
269.5165658649663
 31
0.0
  0
LINE
  5
637
330
99D
100
AcDbEntity
  8
1
  6
Continuous
100
AcDbLine
 10
178.8441752199481
 20
265.9165658649665
 30
0.0
 11
212.3409241533576
 21
265.9165658649665
 31
0.0
  0
ARC
  5
638
330
99D
100
AcDbEntity
  8
1
  6
Continuous
100
AcDbCircle
 10
184.4629990016196
 20
246.3165658649663
 30
0.0
 40
16.8
100
AcDbArc
 50
90.00000000000005
 51
114.4946484714195
  0
ARC
  5
639
330
99D
100
AcDbEntity
  8
1
  6
Continuous
100
AcDbCircle
 10
184.4629990016196
 20
246.3165658649663
 30
0.0
 40
15.0
100
AcDbArc
 50
90.00000000000005
 51
114.4946484714195
  0
LINE
  5
63A
330
99D
100
AcDbEntity
  8
1
  6
Continuous
100
AcDbLine
 10
177.241453219948
 20
262.9971258649663
 30
0.0
 11
168.0941752199482
 21
261.2665658649663
 31
0.0
  0
LINE
  5
63B
330
99D
100
AcDbEntity
  8
1
  6
Continuous
100
AcDbLine
 10
168.0941752199485
 20
267.7665658649664
 30
0.0
 11
177.2414532199484
 21
266.0359978649662
 31
0.0
  0
ARC
  5
63C
330
99D
100
AcDbEntity
  8
1
  6
Continuous
100
AcDbCircle
 10
158.9441812199482
 20
262.0165658649663
 30
0.0
 40
0.5
100
AcDbArc
 50
89.99999700000238
 51
180.0
  0
ARC
  5
63D
330
99D
100
AcDbEntity
  8
1
  6
Continuous
100
AcDbCircle
 10
159.6441932199481
 20
263.6794078649663
 30
0.0
 40
0.8
100
AcDbArc
 50
180.0
 51
259.2868780000054
  0
ARC
  5
63E
330
99D
100
AcDbEntity
  8
1
  6
Continuous
100
AcDbCircle
 10
159.6441932199481
 20
265.3537238649664
 30
0.0
 40
0.8
100
AcDbArc
 50
100.7131250000022
 51
180.0
  0
ARC
  5
63F
330
99D
100
AcDbEntity
  8
1
  6
Continuous
100
AcDbCircle
 10
159.3970312199481
 20
267.5070818649661
 30
0.0
 40
0.5
100
AcDbArc
 50
170.5700000000011
 51
260.5699940000008
  0
ARC
  5
640
330
99D
100
AcDbEntity
  8
1
  6
Continuous
100
AcDbCircle
 10
162.1441932199481
 20
264.5165658649663
 30
0.0
 40
5.2
100
AcDbArc
 50
34.37906999999801
 51
82.81063600000333
  0
LINE
  5
641
330
99D
100
AcDbEntity
  8
1
  6
Continuous
100
AcDbLine
 10
168.0941752199482
 20
261.2665658649663
 30
0.0
 11
159.4954812199484
 21
262.8933508649664
 31
0.0
  0
LINE
  5
642
330
99D
100
AcDbEntity
  8
1
  6
Continuous
100
AcDbLine
 10
159.4954812199484
 20
266.1397808649664
 30
0.0
 11
168.0941752199485
 21
267.7665658649664
 31
0.0
  0
ARC
  5
643
330
99D
100
AcDbEntity
  8
1
  6
Continuous
100
AcDbCircle
 10
162.1441932199481
 20
264.5165658649663
 30
0.0
 40
2.649999999999999
100
AcDbArc
 50
250.6299659999935
 51
297.3195540000009
  0
ARC
  5
644
330
99D
100
AcDbEntity
  8
1
  6
Continuous
100
AcDbCircle
 10
162.1441932199481
 20
264.5165658649663
 30
0.0
 40
2.45
100
AcDbArc
 50
69.13843400000323
 51
132.287813999998
  0
ARC
  5
645
330
99D
100
AcDbEntity
  8
1
  6
Continuous
100
AcDbCircle
 10
162.1441932199481
 20
264.5165658649663
 30
0.0
 40
2.45
100
AcDbArc
 50
227.7121959999961
 51
290.861554999995
  0
LINE
  5
646
330
99D
100
AcDbEntity
  8
1
  6
Continuous
100
AcDbLine
 10
161.686750219948
 20
267.1267948649663
 30
0.0
 11
160.8767682199481
 21
267.2613168649661
 31
0.0
  0
ARC
  5
647
330
99D
100
AcDbEntity
  8
1
  6
Continuous
100
AcDbCircle
 10
160.3835122199482
 20
267.3432408649663
 30
0.0
 40
0.5
100
AcDbArc
 50
260.5699940000008
 51
350.5700039999985
  0
ARC
  5
648
330
99D
100
AcDbEntity
  8
1
  6
Continuous
100
AcDbCircle
 10
159.9441812199482
 20
262.0165658649663
 30
0.0
 40
0.5
100
AcDbArc
 50
359.9999949999995
 51
89.99999700000238
  0
LINE
  5
649
330
99D
100
AcDbEntity
  8
1
  6
Continuous
100
AcDbLine
 10
160.3016032199484
 20
266.8500008649663
 30
0.0
 11
159.3151222199481
 21
267.0138348649661
 31
0.0
  0
LINE
  5
64A
330
99D
100
AcDbEntity
  8
1
  6
Continuous
100
AcDbLine
 10
159.9441812199482
 20
262.5165658649663
 30
0.0
 11
158.9441812199482
 21
262.5165658649663
 31
0.0
  0
LINE
  5
64B
330
99D
100
AcDbEntity
  8
1
  6
Continuous
100
AcDbLine
 10
161.2652562199482
 20
262.0165658649663
 30
0.0
 11
160.4441812199484
 21
262.0165658649663
 31
0.0
  0
LINE
  5
64C
330
99D
100
AcDbEntity
  8
1
  6
Continuous
100
AcDbLine
 10
158.8441902199483
 20
263.6794078649663
 30
0.0
 11
158.8441902199483
 21
265.3537238649664
 31
0.0
  0
ARC
  5
64D
330
99D
100
AcDbEntity
  8
1
  6
Continuous
100
AcDbCircle
 10
162.1441932199481
 20
264.5165658649663
 30
0.0
 40
2.649999999999999
100
AcDbArc
 50
62.68045099999984
 51
99.94004000000343
  0
ARC
  5
64E
330
99D
100
AcDbEntity
  8
1
  6
Continuous
100
AcDbCircle
 10
159.7375622199483
 20
269.5573828649662
 30
0.0
 40
0.5
100
AcDbArc
 50
82.81063600000333
 51
170.5700000000011
  0
LINE
  5
64F
330
99D
100
AcDbEntity
  8
1
  6
Continuous
100
AcDbLine
 10
159.2443212199482
 20
269.6393078649662
 30
0.0
 11
158.9037912199481
 21
267.5889988649663
 31
0.0
  0
ARC
  5
650
330
99D
100
AcDbEntity
  8
1
  6
Continuous
100
AcDbCircle
 10
158.9441812199482
 20
259.8165688649662
 30
0.0
 40
0.5
100
AcDbArc
 50
180.0
 51
269.9999990000051
  0
LINE
  5
651
330
99D
100
AcDbEntity
  8
1
  6
Continuous
100
AcDbLine
 10
162.1441932199481
 20
259.3165688649662
 30
0.0
 11
158.9441812199482
 21
259.3165688649662
 31
0.0
  0
LINE
  5
652
330
99D
100
AcDbEntity
  8
1
  6
Continuous
100
AcDbLine
 10
158.4441812199482
 20
262.0165658649663
 30
0.0
 11
158.4441812199482
 21
259.8165688649662
 31
0.0
  0
ARC
  5
653
330
99D
100
AcDbEntity
  8
1
  6
Continuous
100
AcDbCircle
 10
162.1441932199481
 20
264.5165658649663
 30
0.0
 40
6.0
100
AcDbArc
 50
276.6579589999945
 51
328.9289989999974
  0
ARC
  5
654
330
99D
100
AcDbEntity
  8
1
  6
Continuous
100
AcDbCircle
 10
162.1441932199481
 20
264.5165658649663
 30
0.0
 40
5.2
100
AcDbArc
 50
269.9999990000051
 51
325.6209350000025
  0
ARC
  5
655
330
99D
100
AcDbEntity
  8
1
  6
Continuous
100
AcDbCircle
 10
176.1708340249688
 20
264.5165658649665
 30
0.0
 40
5.0
100
AcDbArc
 50
210.492207771923
 51
294.4946484714193
  0
ARC
  5
656
330
99D
100
AcDbEntity
  8
1
  6
Continuous
100
AcDbCircle
 10
176.1708340249688
 20
264.5165658649665
 30
0.0
 40
3.2
100
AcDbArc
 50
222.6335996918053
 51
294.4946484714193
  0
LINE
  5
657
330
99D
100
AcDbEntity
  8
1
  6
Continuous
100
AcDbLine
 10
178.8441752199481
 20
265.9165658649667
 30
0.0
 11
178.8441752199481
 21
267.7165658649664
 31
0.0
  0
ARC
  5
658
330
99D
100
AcDbEntity
  8
1
  6
Continuous
100
AcDbCircle
 10
177.1485272199483
 20
265.5447108649663
 30
0.0
 40
0.5
100
AcDbArc
 50
0.0000050000005172
 51
79.28687699999844
  0
ARC
  5
659
330
99D
100
AcDbEntity
  8
1
  6
Continuous
100
AcDbCircle
 10
177.1485272199483
 20
263.4884138649663
 30
0.0
 40
0.5
100
AcDbArc
 50
280.7131199999939
 51
0.0000050000005172
  0
ARC
  5
65A
330
99D
100
AcDbEntity
  8
1
  6
Continuous
100
AcDbCircle
 10
178.0441872199482
 20
263.8165618649663
 30
0.0
 40
0.8
100
AcDbArc
 50
270.0000029999976
 51
0.0000050000005172
  0
ARC
  5
65B
330
99D
100
AcDbEntity
  8
1
  6
Continuous
100
AcDbCircle
 10
178.0441872199482
 20
265.2165628649664
 30
0.0
 40
0.8
100
AcDbArc
 50
0.0000050000005172
 51
90.00000099999486
  0
LINE
  5
65C
330
99D
100
AcDbEntity
  8
1
  6
Continuous
100
AcDbLine
 10
177.6485272199483
 20
263.4884138649663
 30
0.0
 11
177.6485272199483
 21
265.5447108649663
 31
0.0
  0
LINE
  5
65D
330
99D
100
AcDbEntity
  8
1
  6
Continuous
100
AcDbLine
 10
178.0441872199482
 20
263.0165658649663
 30
0.0
 11
177.3139172199481
 21
263.0165658649663
 31
0.0
  0
LINE
  5
65E
330
99D
100
AcDbEntity
  8
1
  6
Continuous
100
AcDbLine
 10
178.0441872199482
 20
266.0165658649663
 30
0.0
 11
177.3139172199481
 21
266.0165658649663
 31
0.0
  0
LINE
  5
65F
330
99D
100
AcDbEntity
  8
1
  6
Continuous
100
AcDbLine
 10
178.8441752199481
 20
263.8165618649663
 30
0.0
 11
178.8441752199481
 21
265.2165628649664
 31
0.0
  0
ARC
  5
660
330
99D
100
AcDbEntity
  8
1
  6
Continuous
100
AcDbCircle
 10
176.1708340249688
 20
264.5165658649665
 30
0.0
 40
5.0
100
AcDbArc
 50
90.00000000000005
 51
149.5078316604482
  0
ARC
  5
661
330
99D
100
AcDbEntity
  8
1
  6
Continuous
100
AcDbCircle
 10
176.1708340249688
 20
264.5165658649665
 30
0.0
 40
3.2
100
AcDbArc
 50
90.00000000000005
 51
137.3665040412378
  0
ARC
  5
662
330
99D
100
AcDbEntity
  8
1
  6
Continuous
100
AcDbCircle
 10
168.8441752199482
 20
253.1112488402807
 30
0.0
 40
100.0
100
AcDbArc
 50
266.9830399999964
 51
272.2858410000047
  0
ARC
  5
663
330
99D
100
AcDbEntity
  8
1
  6
Continuous
100
AcDbCircle
 10
163.8441752199482
 20
158.2429018402807
 30
0.0
 40
5.0
100
AcDbArc
 50
180.0
 51
266.9830399999964
  0
LINE
  5
664
330
99D
100
AcDbEntity
  8
1
  6
Continuous
100
AcDbLine
 10
168.0941752199482
 20
153.1140568402807
 30
0.0
 11
168.0941752199482
 21
157.8835578402807
 31
0.0
  0
ARC
  5
665
330
99D
100
AcDbEntity
  8
1
  6
Continuous
100
AcDbCircle
 10
171.8441752199481
 20
159.4092538402807
 30
0.0
 40
1.5
100
AcDbArc
 50
271.8337780000033
 51
300.0788295588911
  0
LINE
  5
666
330
99D
100
AcDbEntity
  8
1
  6
Continuous
100
AcDbLine
 10
177.638494014684
 20
158.1112488402808
 30
0.0
 11
177.6231972199484
 21
157.870190840281
 31
0.0
  0
ARC
  5
667
330
99D
100
AcDbEntity
  8
1
  6
Continuous
100
AcDbCircle
 10
168.8441752199482
 20
253.1112488402807
 30
0.0
 40
95.25
100
AcDbArc
 50
269.6944199999961
 51
274.1521226929015
  0
ARC
  5
668
330
99D
100
AcDbEntity
  8
1
  6
Continuous
100
AcDbCircle
 10
172.6332372199481
 20
158.1868408402807
 30
0.0
 40
5.0
100
AcDbArc
 50
272.2858410000047
 51
356.3690629999996
  0
ARC
  5
669
330
99D
100
AcDbEntity
  8
1
  6
Continuous
100
AcDbCircle
 10
238.3708310249752
 20
392.0718843890412
 30
0.0
 40
64.0
100
AcDbArc
 50
259.5473609999964
 51
280.4526429999999
  0
LINE
  5
66A
330
99D
100
AcDbEntity
  8
1
  6
Continuous
100
AcDbLine
 10
246.5708280249752
 20
332.6718828890412
 30
0.0
 11
230.1708340249752
 21
332.6718828890412
 31
0.0
  0
ARC
  5
66B
330
99D
100
AcDbEntity
  8
1
  6
Continuous
100
AcDbCircle
 10
227.9390225249751
 20
335.5260853890412
 30
0.0
 40
6.5
100
AcDbArc
 50
203.6186029413143
 51
259.5473609999964
  0
ARC
  5
66C
330
99D
100
AcDbEntity
  8
1
  6
Continuous
100
AcDbCircle
 10
230.1708340249752
 20
335.871879889041
 30
0.0
 40
3.2
100
AcDbArc
 50
247.2016132773449
 51
270.0000090000061
  0
ARC
  5
66D
330
99D
100
AcDbEntity
  8
1
  6
Continuous
100
AcDbCircle
 10
230.970829524975
 20
335.871879889041
 30
0.0
 40
3.2
100
AcDbArc
 50
269.9999949999995
 51
292.7983867226561
  0
ARC
  5
66E
330
99D
100
AcDbEntity
  8
1
  6
Continuous
100
AcDbCircle
 10
248.802639524975
 20
335.5260853890412
 30
0.0
 40
6.5
100
AcDbArc
 50
280.4526429999999
 51
336.3813970586856
  0
ARC
  5
66F
330
99D
100
AcDbEntity
  8
1
  6
Continuous
100
AcDbCircle
 10
245.7708325249752
 20
335.871879889041
 30
0.0
 40
3.2
100
AcDbArc
 50
247.2016132773438
 51
270.0000090000061
  0
ARC
  5
670
330
99D
100
AcDbEntity
  8
1
  6
Continuous
100
AcDbCircle
 10
246.5708280249752
 20
335.871879889041
 30
0.0
 40
3.2
100
AcDbArc
 50
269.9999949999995
 51
292.7983867226549
  0
ARC
  5
671
330
99D
100
AcDbEntity
  8
1
  6
Continuous
100
AcDbCircle
 10
150.944181219948
 20
164.0607118402806
 30
0.0
 40
7.5
100
AcDbArc
 50
0.0000050000005172
 51
86.4612800000062
  0
LINE
  5
672
330
99D
100
AcDbEntity
  8
1
  6
Continuous
100
AcDbLine
 10
167.3441752199481
 20
175.6112488402807
 30
0.0
 11
118.439799455923
 21
175.6112488402807
 31
0.0
  0
ARC
  5
673
330
99D
100
AcDbEntity
  8
1
  6
Continuous
100
AcDbCircle
 10
150.944181219948
 20
190.1617558402806
 30
0.0
 40
7.5
100
AcDbArc
 50
273.5387300000024
 51
0.0000050000005172
  0
LINE
  5
674
330
99D
100
AcDbEntity
  8
1
  6
Continuous
100
AcDbLine
 10
167.3441752199481
 20
178.6112488402807
 30
0.0
 11
118.4441812059856
 21
178.6112458402806
 31
0.0
  0
LINE
  5
675
330
99D
100
AcDbEntity
  8
1
  6
Continuous
100
AcDbLine
 10
151.4071022199481
 20
171.5464298402809
 30
0.0
 11
124.8296792199482
 21
173.1899998402809
 31
0.0
  0
LINE
  5
676
330
99D
100
AcDbEntity
  8
1
  6
Continuous
100
AcDbLine
 10
151.4071022199481
 20
182.6760688402806
 30
0.0
 11
124.830793219948
 21
181.0325448402807
 31
0.0
  0
ARC
  5
677
330
99D
100
AcDbEntity
  8
1
  6
Continuous
100
AcDbCircle
 10
120.6441932199481
 20
180.6112488402807
 30
0.0
 40
2.0
100
AcDbArc
 50
270.0000029999976
 51
354.1799190000006
  0
ARC
  5
678
330
99D
100
AcDbEntity
  8
1
  6
Continuous
100
AcDbCircle
 10
118.4441812199481
 20
177.8112458402807
 30
0.0
 40
0.8
100
AcDbArc
 50
90.00000099999486
 51
180.0
  0
LINE
  5
679
330
99D
100
AcDbEntity
  8
1
  6
Continuous
100
AcDbLine
 10
123.6492742199484
 20
173.2922338402806
 30
0.0
 11
124.6927922199483
 21
173.1987738402807
 31
0.0
  0
ARC
  5
67A
330
99D
100
AcDbEntity
  8
1
  6
Continuous
100
AcDbCircle
 10
118.4441812199481
 20
176.4112368402807
 30
0.0
 40
0.8
100
AcDbArc
 50
180.0
 51
270.0000029999976
  0
LINE
  5
67B
330
99D
100
AcDbEntity
  8
1
  6
Continuous
100
AcDbLine
 10
117.6441932199481
 20
176.4112368402807
 30
0.0
 11
117.6441932199481
 21
177.8112458402807
 31
0.0
  0
ARC
  5
67C
330
99D
100
AcDbEntity
  8
1
  6
Continuous
100
AcDbCircle
 10
120.6441932199481
 20
173.6112488402807
 30
0.0
 40
2.0
100
AcDbArc
 50
5.820076999999881
 51
90.00000099999486
  0
LINE
  5
67D
330
99D
100
AcDbEntity
  8
1
  6
Continuous
100
AcDbLine
 10
123.0092752199481
 20
173.3949408402807
 30
0.0
 11
123.6492742199481
 21
173.2922338402806
 31
0.0
  0
ARC
  5
67E
330
99D
100
AcDbEntity
  8
1
  6
Continuous
100
AcDbCircle
 10
123.1294682199481
 20
173.8802918402807
 30
0.0
 40
0.5
100
AcDbArc
 50
187.6124599999996
 51
256.0907050000023
  0
LINE
  5
67F
330
99D
100
AcDbEntity
  8
1
  6
Continuous
100
AcDbLine
 10
124.6927922199483
 20
173.1987738402808
 30
0.0
 11
124.8296792199482
 21
173.1899998402809
 31
0.0
  0
LINE
  5
680
330
99D
100
AcDbEntity
  8
1
  6
Continuous
100
AcDbLine
 10
124.8296792199482
 20
181.0324838402808
 30
0.0
 11
123.7522562199482
 21
180.9422578402807
 31
0.0
  0
LINE
  5
681
330
99D
100
AcDbEntity
  8
1
  6
Continuous
100
AcDbLine
 10
123.7522562199482
 20
180.9422578402807
 30
0.0
 11
123.0092752199481
 21
180.8275268402809
 31
0.0
  0
ARC
  5
682
330
99D
100
AcDbEntity
  8
1
  6
Continuous
100
AcDbCircle
 10
123.1294682199481
 20
180.3421908402807
 30
0.0
 40
0.5
100
AcDbArc
 50
103.9092980000006
 51
172.3875460000004
  0
LINE
  5
683
330
99D
100
AcDbEntity
  8
4
  6
CENTER
100
AcDbLine
 10
127.6441932199481
 20
182.7093958247834
 30
0.0
 11
127.6441932199481
 21
171.5130824680703
 31
0.0
  0
ARC
  5
684
330
99D
100
AcDbEntity
  8
1
  6
Continuous
100
AcDbCircle
 10
163.8441752199482
 20
195.9795658402807
 30
0.0
 40
5.0
100
AcDbArc
 50
93.01695000000385
 51
180.0
  0
LINE
  5
685
330
99D
100
AcDbEntity
  8
1
  6
Continuous
100
AcDbLine
 10
168.0941752199482
 20
196.3389258402806
 30
0.0
 11
168.0941752199482
 21
201.1084268402806
 31
0.0
  0
ARC
  5
686
330
99D
100
AcDbEntity
  8
1
  6
Continuous
100
AcDbCircle
 10
172.6332372199481
 20
196.0356568402807
 30
0.0
 40
5.0
100
AcDbArc
 50
3.630973928763589
 51
87.71415499999834
  0
ARC
  5
687
330
99D
100
AcDbEntity
  8
1
  6
Continuous
100
AcDbCircle
 10
167.3441752199481
 20
177.8112458402807
 30
0.0
 40
0.8
100
AcDbArc
 50
0.0000050000005172
 51
90.00000099999486
  0
ARC
  5
688
330
99D
100
AcDbEntity
  8
1
  6
Continuous
100
AcDbCircle
 10
167.3441752199481
 20
176.4112368402807
 30
0.0
 40
0.8
100
AcDbArc
 50
270.0000029999976
 51
0.0000050000005172
  0
LINE
  5
689
330
99D
100
AcDbEntity
  8
1
  6
Continuous
100
AcDbLine
 10
158.444181219948
 20
162.8612488402807
 30
0.0
 11
158.444181219948
 21
164.0607118402806
 31
0.0
  0
ARC
  5
68A
330
99D
100
AcDbEntity
  8
1
  6
Continuous
100
AcDbCircle
 10
158.944181219948
 20
162.8612488402807
 30
0.0
 40
0.5
100
AcDbArc
 50
180.0
 51
270.0000029999976
  0
LINE
  5
68B
330
99D
100
AcDbEntity
  8
1
  6
Continuous
100
AcDbLine
 10
166.8441752199482
 20
162.3612488402807
 30
0.0
 11
158.944181219948
 21
162.3612488402807
 31
0.0
  0
LINE
  5
68C
330
99D
100
AcDbEntity
  8
1
  6
Continuous
100
AcDbLine
 10
164.0941752199482
 20
162.1112488402807
 30
0.0
 11
160.1941812199481
 21
162.1112488402807
 31
0.0
  0
ARC
  5
68D
330
99D
100
AcDbEntity
  8
1
  6
Continuous
100
AcDbCircle
 10
160.1941812199481
 20
162.6112488402807
 30
0.0
 40
0.5
100
AcDbArc
 50
209.9999999999971
 51
270.0000029999976
  0
ARC
  5
68E
330
99D
100
AcDbEntity
  8
1
  6
Continuous
100
AcDbCircle
 10
159.1941812199481
 20
162.6112488402807
 30
0.0
 40
0.5
100
AcDbArc
 50
270.0000029999976
 51
329.9999970000011
  0
LINE
  5
68F
330
99D
100
AcDbEntity
  8
1
  6
Continuous
100
AcDbLine
 10
159.1941812199481
 20
162.1112488402807
 30
0.0
 11
158.8441902199483
 21
162.1112488402807
 31
0.0
  0
ARC
  5
690
330
99D
100
AcDbEntity
  8
1
  6
Continuous
100
AcDbCircle
 10
164.0941752199482
 20
162.6112488402807
 30
0.0
 40
0.5
100
AcDbArc
 50
270.0000029999976
 51
329.9999970000011
  0
ARC
  5
691
330
99D
100
AcDbEntity
  8
1
  6
Continuous
100
AcDbCircle
 10
166.8441752199482
 20
162.8612488402807
 30
0.0
 40
0.5
100
AcDbArc
 50
270.0000029999976
 51
0.0000050000005172
  0
ARC
  5
692
330
99D
100
AcDbEntity
  8
1
  6
Continuous
100
AcDbCircle
 10
165.0941752199481
 20
162.6112488402807
 30
0.0
 40
0.5
100
AcDbArc
 50
209.9999999999971
 51
270.0000029999976
  0
LINE
  5
693
330
99D
100
AcDbEntity
  8
1
  6
Continuous
100
AcDbLine
 10
166.8441752199482
 20
162.1112488402807
 30
0.0
 11
165.0941752199481
 21
162.1112488402807
 31
0.0
  0
LINE
  5
694
330
99D
100
AcDbEntity
  8
1
  6
Continuous
100
AcDbLine
 10
166.8441752199482
 20
159.3625768402807
 30
0.0
 11
166.8441752199482
 21
162.1112488402807
 31
0.0
  0
LINE
  5
695
330
99D
100
AcDbEntity
  8
1
  6
Continuous
100
AcDbLine
 10
168.1441932199481
 20
176.4112368402807
 30
0.0
 11
168.1441932199481
 21
177.8112458402807
 31
0.0
  0
LINE
  5
696
330
99D
100
AcDbEntity
  8
1
  6
Continuous
100
AcDbLine
 10
167.3441752199481
 20
162.8612488402807
 30
0.0
 11
167.3441752199481
 21
175.6112488402807
 31
0.0
  0
ARC
  5
697
330
99D
100
AcDbEntity
  8
1
  6
Continuous
100
AcDbCircle
 10
168.3441752199481
 20
194.8599068402806
 30
0.0
 40
1.5
100
AcDbArc
 50
90.30558300000512
 51
180.0
  0
ARC
  5
698
330
99D
100
AcDbEntity
  8
1
  6
Continuous
100
AcDbCircle
 10
158.944181219948
 20
191.3612488402807
 30
0.0
 40
0.5
100
AcDbArc
 50
90.00000099999486
 51
180.0
  0
LINE
  5
699
330
99D
100
AcDbEntity
  8
1
  6
Continuous
100
AcDbLine
 10
158.444181219948
 20
190.1617558402806
 30
0.0
 11
158.444181219948
 21
191.3612488402807
 31
0.0
  0
LINE
  5
69A
330
99D
100
AcDbEntity
  8
1
  6
Continuous
100
AcDbLine
 10
158.8441902199481
 20
192.1112488402807
 30
0.0
 11
158.8441902199481
 21
195.9795658402807
 31
0.0
  0
LINE
  5
69B
330
99D
100
AcDbEntity
  8
1
  6
Continuous
100
AcDbLine
 10
166.8441752199482
 20
191.8612488402807
 30
0.0
 11
158.944181219948
 21
191.8612488402807
 31
0.0
  0
LINE
  5
69C
330
99D
100
AcDbEntity
  8
1
  6
Continuous
100
AcDbLine
 10
164.0941752199482
 20
192.1112488402807
 30
0.0
 11
160.1941812199481
 21
192.1112488402807
 31
0.0
  0
ARC
  5
69D
330
99D
100
AcDbEntity
  8
1
  6
Continuous
100
AcDbCircle
 10
160.1941812199481
 20
191.6112488402807
 30
0.0
 40
0.5
100
AcDbArc
 50
90.00000099999486
 51
149.9999889999994
  0
ARC
  5
69E
330
99D
100
AcDbEntity
  8
1
  6
Continuous
100
AcDbCircle
 10
159.1941812199481
 20
191.6112488402807
 30
0.0
 40
0.5
100
AcDbArc
 50
29.99999899999802
 51
90.00000099999486
  0
LINE
  5
69F
330
99D
100
AcDbEntity
  8
1
  6
Continuous
100
AcDbLine
 10
159.1941812199481
 20
192.1112488402807
 30
0.0
 11
158.8441902199481
 21
192.1112488402807
 31
0.0
  0
ARC
  5
6A0
330
99D
100
AcDbEntity
  8
1
  6
Continuous
100
AcDbCircle
 10
164.0941752199482
 20
191.6112488402807
 30
0.0
 40
0.5
100
AcDbArc
 50
29.99999899999802
 51
90.00000099999486
  0
ARC
  5
6A1
330
99D
100
AcDbEntity
  8
1
  6
Continuous
100
AcDbCircle
 10
166.8441752199482
 20
191.3612488402807
 30
0.0
 40
0.5
100
AcDbArc
 50
0.0000050000005172
 51
90.00000099999486
  0
ARC
  5
6A2
330
99D
100
AcDbEntity
  8
1
  6
Continuous
100
AcDbCircle
 10
165.0941752199481
 20
191.6112488402807
 30
0.0
 40
0.5
100
AcDbArc
 50
90.00000099999486
 51
149.9999889999994
  0
LINE
  5
6A3
330
99D
100
AcDbEntity
  8
1
  6
Continuous
100
AcDbLine
 10
166.8441752199482
 20
192.1112488402807
 30
0.0
 11
166.8441752199482
 21
194.8599068402806
 31
0.0
  0
LINE
  5
6A4
330
99D
100
AcDbEntity
  8
1
  6
Continuous
100
AcDbLine
 10
166.8441752199482
 20
192.1112488402807
 30
0.0
 11
165.0941752199481
 21
192.1112488402807
 31
0.0
  0
LINE
  5
6A5
330
99D
100
AcDbEntity
  8
1
  6
Continuous
100
AcDbLine
 10
167.3441752199481
 20
178.6112488402807
 30
0.0
 11
167.3441752199481
 21
191.3612488402807
 31
0.0
  0
ARC
  5
6A6
330
99D
100
AcDbEntity
  8
1
  6
Continuous
100
AcDbCircle
 10
171.8441752199481
 20
194.8132298402807
 30
0.0
 40
1.5
100
AcDbArc
 50
59.92223743785501
 51
88.16623199999915
  0
LINE
  5
6A7
330
99D
100
AcDbEntity
  8
1
  6
Continuous
100
AcDbLine
 10
177.638494014684
 20
196.1112488408915
 30
0.0
 11
177.6231972199484
 21
196.3523068408914
 31
0.0
  0
ARC
  5
6A8
330
99D
100
AcDbEntity
  8
1
  6
Continuous
100
AcDbCircle
 10
168.8441752199482
 20
101.1112488402808
 30
0.0
 40
95.25
100
AcDbArc
 50
85.84787730709845
 51
90.30558300000512
  0
ARC
  5
6A9
330
99D
100
AcDbEntity
  8
1
  6
Continuous
100
AcDbCircle
 10
168.8441752199482
 20
101.1112488402808
 30
0.0
 40
100.0
100
AcDbArc
 50
87.71415499999834
 51
93.01695000000385
  0
ARC
  5
6AA
330
99D
100
AcDbEntity
  8
1
  6
Continuous
100
AcDbCircle
 10
248.8026395249752
 20
368.3176803890412
 30
0.0
 40
6.5
100
AcDbArc
 50
23.61860294131436
 51
79.5473530000032
  0
ARC
  5
6AB
330
99D
100
AcDbEntity
  8
1
  6
Continuous
100
AcDbCircle
 10
227.9390225249751
 20
368.3176803890412
 30
0.0
 40
6.5
100
AcDbArc
 50
100.4526379999983
 51
156.3813970586855
  0
LINE
  5
6AC
330
99D
100
AcDbEntity
  8
1
  6
Continuous
100
AcDbLine
 10
246.5708280249752
 20
371.1718828890412
 30
0.0
 11
230.1708340249752
 21
371.1718828890412
 31
0.0
  0
ARC
  5
6AD
330
99D
100
AcDbEntity
  8
1
  6
Continuous
100
AcDbCircle
 10
230.1708340249752
 20
367.9718818890411
 30
0.0
 40
3.2
100
AcDbArc
 50
90.00000000000005
 51
112.7982018919027
  0
ARC
  5
6AE
330
99D
100
AcDbEntity
  8
1
  6
Continuous
100
AcDbCircle
 10
230.970829524975
 20
367.9718818890411
 30
0.0
 40
3.2
100
AcDbArc
 50
67.20179810810937
 51
90.00000000000005
  0
ARC
  5
6AF
330
99D
100
AcDbEntity
  8
1
  6
Continuous
100
AcDbCircle
 10
246.5708280249752
 20
367.9718818890411
 30
0.0
 40
3.2
100
AcDbArc
 50
67.20179810809728
 51
90.00000000000005
  0
ARC
  5
6B0
330
99D
100
AcDbEntity
  8
1
  6
Continuous
100
AcDbCircle
 10
245.7708325249752
 20
367.9718818890411
 30
0.0
 40
3.2
100
AcDbArc
 50
90.00000000000005
 51
112.7982018918905
  0
ARC
  5
6B1
330
99D
100
AcDbEntity
  8
1
  6
Continuous
100
AcDbCircle
 10
238.3708310249751
 20
311.7718813890412
 30
0.0
 40
64.0
100
AcDbArc
 50
79.5473530000032
 51
100.4526379999983
  0
LINE
  5
6B2
330
99D
100
AcDbEntity
  8
1
  6
Continuous
100
AcDbLine
 10
1360.061039802874
 20
196.3612488408916
 30
0.0
 11
1360.061039802874
 21
157.8612488408915
 31
0.0
  0
LINE
  5
6B4
330
99D
100
AcDbEntity
  8
1
  6
Continuous
100
AcDbLine
 10
1365.688327172133
 20
200.1612473408914
 30
0.0
 11
1365.688327172133
 21
178.9600549275831
 31
0.0
  0
LINE
  5
6B5
330
99D
100
AcDbEntity
  8
1
  6
Continuous
100
AcDbLine
 10
1353.597830653898
 20
196.1112488408921
 30
0.0
 11
1353.597830653898
 21
158.1112488402805
 31
0.0
  0
LINE
  5
6B6
330
99D
100
AcDbEntity
  8
1
  6
Continuous
100
AcDbLine
 10
1367.347510172133
 20
191.3612488408917
 30
0.0
 11
1367.347510172133
 21
180.996055435392
 31
0.0
  0
LINE
  5
6B7
330
99D
100
AcDbEntity
  8
1
  6
Continuous
100
AcDbLine
 10
1370.561652172133
 20
191.3612488408917
 30
0.0
 11
1370.561652172133
 21
180.9483865061159
 31
0.0
  0
LINE
  5
6B8
330
99D
100
AcDbEntity
  8
1
  6
Continuous
100
AcDbLine
 10
1374.888327172133
 20
191.3612488408917
 30
0.0
 11
1374.888327172133
 21
180.5305591255942
 31
0.0
  0
LINE
  5
6B9
330
99D
100
AcDbEntity
  8
1
  6
Continuous
100
AcDbLine
 10
1378.088324172133
 20
191.3612488408917
 30
0.0
 11
1378.088324172133
 21
180.2215351373844
 31
0.0
  0
LINE
  5
6BA
330
99D
100
AcDbEntity
  8
4
  6
CENTER
100
AcDbLine
 10
1372.888327172133
 20
204.1112488408916
 30
0.0
 11
1372.888327172133
 21
150.1112488402809
 31
0.0
  0
LINE
  5
6C0
330
99D
100
AcDbEntity
  8
4
  6
CENTER
100
AcDbLine
 10
1250.203956673636
 20
195.9795958408914
 30
0.0
 11
1250.203956673636
 21
158.2429318408917
 31
0.0
  0
LINE
  5
6C3
330
99D
100
AcDbEntity
  8
1
  6
Continuous
100
AcDbLine
 10
1367.847510172133
 20
162.3612488408916
 30
0.0
 11
1377.588324172133
 21
162.3612488408916
 31
0.0
  0
LINE
  5
6C4
330
99D
100
AcDbEntity
  8
1
  6
Continuous
100
AcDbLine
 10
1368.041411678411
 20
173.030731331695
 30
0.0
 11
1383.684741505188
 21
174.5414090516899
 31
0.0
  0
LINE
  5
6C5
330
99D
100
AcDbEntity
  8
1
  6
Continuous
100
AcDbLine
 10
1368.041411678411
 20
181.1917663494774
 30
0.0
 11
1383.684741505188
 21
179.6810886294825
 31
0.0
  0
LINE
  5
6C6
330
99D
100
AcDbEntity
  8
4
  6
CENTER
100
AcDbLine
 10
1350.597830653898
 20
177.1112488405862
 30
0.0
 11
1385.888327172133
 21
177.1112488405862
 31
0.0
  0
LINE
  5
6C7
330
99D
100
AcDbEntity
  8
1
  6
Continuous
100
AcDbLine
 10
1382.531482839722
 20
178.6112488408915
 30
0.0
 11
1363.688315172132
 21
178.6112488408915
 31
0.0
  0
LINE
  5
6C8
330
99D
100
AcDbEntity
  8
1
  6
Continuous
100
AcDbLine
 10
1382.531482839722
 20
175.6112488408915
 30
0.0
 11
1363.688315172132
 21
175.6112488408915
 31
0.0
  0
LINE
  5
6C9
330
99D
100
AcDbEntity
  8
1
  6
Continuous
100
AcDbLine
 10
1365.688327172133
 20
158.1112488402804
 30
0.0
 11
1369.638327172133
 21
158.1112488402808
 31
0.0
  0
LINE
  5
6CF
330
99D
100
AcDbEntity
  8
1
  6
Continuous
100
AcDbLine
 10
1271.195075673636
 20
83.21689381620641
 30
0.0
 11
1249.672858673636
 21
85.12947581620641
 31
0.0
  0
LINE
  5
6D0
330
99D
100
AcDbEntity
  8
1
  6
Continuous
100
AcDbLine
 10
1249.508308673636
 20
97.06546581620642
 30
0.0
 11
1283.544547673636
 21
101.0384878162064
 31
0.0
  0
LINE
  5
6D1
330
99D
100
AcDbEntity
  8
1
  6
Continuous
100
AcDbLine
 10
1253.803962673636
 20
96.1059318162064
 30
0.0
 11
1284.703956673636
 21
96.1059318162064
 31
0.0
  0
LINE
  5
6D2
330
99D
100
AcDbEntity
  8
1
  6
Continuous
100
AcDbLine
 10
1253.903968673636
 20
93.6059318162064
 30
0.0
 11
1284.703956673636
 21
93.6059318162064
 31
0.0
  0
LINE
  5
6D3
330
99D
100
AcDbEntity
  8
1
  6
Continuous
100
AcDbLine
 10
1249.553199673636
 20
85.94681381620629
 30
0.0
 11
1277.382087673636
 21
82.43645281620642
 31
0.0
  0
LINE
  5
6D4
330
99D
100
AcDbEntity
  8
1
  6
Continuous
100
AcDbLine
 10
1253.444358673636
 20
88.03349881620643
 30
0.0
 11
1277.613273673636
 21
84.01935381620644
 31
0.0
  0
LINE
  5
6D7
330
99D
100
AcDbEntity
  8
4
  6
CENTER
100
AcDbLine
 10
1297.703956673636
 20
91.1059318162064
 30
0.0
 11
1232.003974673636
 21
91.1059318162064
 31
0.0
  0
LINE
  5
6D8
330
99D
100
AcDbEntity
  8
1
  6
Continuous
100
AcDbLine
 10
1226.437730183743
 20
89.30593181620468
 30
0.0
 11
1191.170834024968
 21
89.30593181620468
 31
0.0
  0
LINE
  5
6D9
330
99D
100
AcDbEntity
  8
1
  6
Continuous
100
AcDbLine
 10
1191.170834024968
 20
91.10593181620499
 30
0.0
 11
1191.170834024968
 21
89.30593181620468
 31
0.0
  0
ARC
  5
6DA
330
99D
100
AcDbEntity
  8
1
  6
Continuous
100
AcDbCircle
 10
1226.437730183743
 20
78.30593181620462
 30
0.0
 40
11.0
100
AcDbArc
 50
52.89276837384479
 51
90.0
  0
ARC
  5
6DB
330
99D
100
AcDbEntity
  8
1
  6
Continuous
100
AcDbCircle
 10
1226.437730183743
 20
78.30593181620462
 30
0.0
 40
12.8
100
AcDbArc
 50
52.89276837384479
 51
90.0
  0
ARC
  5
6DC
330
99D
100
AcDbEntity
  8
1
  6
Continuous
100
AcDbCircle
 10
1226.437730183741
 20
103.9059318162062
 30
0.0
 40
11.0
100
AcDbArc
 50
270.0
 51
307.1072316261695
  0
ARC
  5
6DD
330
99D
100
AcDbEntity
  8
1
  6
Continuous
100
AcDbCircle
 10
1226.437730183741
 20
103.9059318162062
 30
0.0
 40
12.8
100
AcDbArc
 50
270.0
 51
307.1072316261695
  0
LINE
  5
6DE
330
99D
100
AcDbEntity
  8
1
  6
Continuous
100
AcDbLine
 10
1227.258980241572
 20
89.30593181620459
 30
0.0
 11
1227.258980241572
 21
89.29729842394227
 31
0.0
  0
LINE
  5
6DF
330
99D
100
AcDbEntity
  8
1
  6
Continuous
100
AcDbLine
 10
1253.903968673636
 20
93.6059318162064
 30
0.0
 11
1253.903968673636
 21
95.80592881620644
 31
0.0
  0
LINE
  5
6E0
330
99D
100
AcDbEntity
  8
4
  6
CENTER
100
AcDbLine
 10
1250.203956673636
 20
98.40559181620641
 30
0.0
 11
1250.203956673636
 21
82.49321481620638
 31
0.0
  0
ARC
  5
6E1
330
99D
100
AcDbEntity
  8
1
  6
Continuous
100
AcDbCircle
 10
1236.120834024968
 20
91.1059318162064
 30
0.0
 40
5.049999999999998
100
AcDbArc
 50
232.8927683738448
 51
329.8380846238225
  0
ARC
  5
6E2
330
99D
100
AcDbEntity
  8
1
  6
Continuous
100
AcDbCircle
 10
1250.203956673636
 20
91.1059318162064
 30
0.0
 40
5.2
100
AcDbArc
 50
89.99999900000513
 51
145.6209350000026
  0
ARC
  5
6E3
330
99D
100
AcDbEntity
  8
1
  6
Continuous
100
AcDbCircle
 10
1250.203956673636
 20
91.1059318162064
 30
0.0
 40
6.0
100
AcDbArc
 50
96.6579589999946
 51
148.9289989999975
  0
ARC
  5
6E4
330
99D
100
AcDbEntity
  8
1
  6
Continuous
100
AcDbCircle
 10
1253.403968673636
 20
95.80592881620644
 30
0.0
 40
0.5
100
AcDbArc
 50
0.0
 51
89.99999900000513
  0
LINE
  5
6E5
330
99D
100
AcDbEntity
  8
1
  6
Continuous
100
AcDbLine
 10
1250.203956673636
 20
96.30592881620646
 30
0.0
 11
1253.403968673636
 21
96.30592881620646
 31
0.0
  0
LINE
  5
6E6
330
99D
100
AcDbEntity
  8
1
  6
Continuous
100
AcDbLine
 10
1244.253974673636
 20
87.85593181620638
 30
0.0
 11
1235.106696673636
 21
89.58649981620634
 31
0.0
  0
LINE
  5
6E7
330
99D
100
AcDbEntity
  8
1
  6
Continuous
100
AcDbLine
 10
1235.106696673636
 20
92.6253718162064
 30
0.0
 11
1244.253974673636
 21
94.35593181620644
 31
0.0
  0
ARC
  5
6E8
330
99D
100
AcDbEntity
  8
1
  6
Continuous
100
AcDbCircle
 10
1236.120834024968
 20
91.1059318162064
 30
0.0
 40
3.25
100
AcDbArc
 50
41.86956628251307
 51
127.1072316261675
  0
ARC
  5
6E9
330
99D
100
AcDbEntity
  8
1
  6
Continuous
100
AcDbCircle
 10
1236.120834024968
 20
91.1059318162064
 30
0.0
 40
5.049999999999998
100
AcDbArc
 50
30.16195432456487
 51
127.1072316261695
  0
LINE
  5
6EA
330
99D
100
AcDbEntity
  8
1
  6
Continuous
100
AcDbLine
 10
1234.699622673636
 20
92.13408381620638
 30
0.0
 11
1234.699622673636
 21
90.0777868162064
 31
0.0
  0
ARC
  5
6EB
330
99D
100
AcDbEntity
  8
1
  6
Continuous
100
AcDbCircle
 10
1235.199622673636
 20
90.0777868162064
 30
0.0
 40
0.5
100
AcDbArc
 50
180.0000050000005
 51
259.2868769999984
  0
LINE
  5
6EC
330
99D
100
AcDbEntity
  8
1
  6
Continuous
100
AcDbLine
 10
1233.503974673636
 20
91.80593581620639
 30
0.0
 11
1233.503974673636
 21
90.40593481620634
 31
0.0
  0
ARC
  5
6ED
330
99D
100
AcDbEntity
  8
1
  6
Continuous
100
AcDbCircle
 10
1234.303962673636
 20
90.40593481620634
 30
0.0
 40
0.8
100
AcDbArc
 50
180.0000050000005
 51
270.0000009999949
  0
LINE
  5
6EE
330
99D
100
AcDbEntity
  8
1
  6
Continuous
100
AcDbLine
 10
1234.303962673636
 20
89.60593181620639
 30
0.0
 11
1235.034232673636
 21
89.60593181620639
 31
0.0
  0
LINE
  5
6EF
330
99D
100
AcDbEntity
  8
1
  6
Continuous
100
AcDbLine
 10
1234.303962673636
 20
92.6059318162064
 30
0.0
 11
1235.034232673636
 21
92.6059318162064
 31
0.0
  0
ARC
  5
6F0
330
99D
100
AcDbEntity
  8
1
  6
Continuous
100
AcDbCircle
 10
1236.120834024968
 20
91.1059318162064
 30
0.0
 40
3.25
100
AcDbArc
 50
232.8927683738448
 51
318.1305348549766
  0
ARC
  5
6F1
330
99D
100
AcDbEntity
  8
1
  6
Continuous
100
AcDbCircle
 10
1234.303962673636
 20
91.80593581620639
 30
0.0
 40
0.8
100
AcDbArc
 50
90.00000299999769
 51
180.0000050000005
  0
ARC
  5
6F2
330
99D
100
AcDbEntity
  8
1
  6
Continuous
100
AcDbCircle
 10
1235.199622673636
 20
92.13408381620638
 30
0.0
 40
0.5
100
AcDbArc
 50
100.7131199999939
 51
180.0000050000005
  0
LINE
  5
6F3
330
99D
100
AcDbEntity
  8
1
  6
Continuous
100
AcDbLine
 10
1253.103828673636
 20
85.98318981620643
 30
0.0
 11
1253.444358673636
 21
88.03349881620635
 31
0.0
  0
LINE
  5
6F4
330
99D
100
AcDbEntity
  8
1
  6
Continuous
100
AcDbLine
 10
1252.046546673636
 20
88.77249681620638
 30
0.0
 11
1253.033027673636
 21
88.60866281620642
 31
0.0
  0
ARC
  5
6F5
330
99D
100
AcDbEntity
  8
1
  6
Continuous
100
AcDbCircle
 10
1252.951118673636
 20
88.11541581620643
 30
0.0
 40
0.5
100
AcDbArc
 50
350.5700000000011
 51
80.56999400000099
  0
ARC
  5
6F6
330
99D
100
AcDbEntity
  8
1
  6
Continuous
100
AcDbCircle
 10
1252.610587673636
 20
86.06511481620646
 30
0.0
 40
0.5
100
AcDbArc
 50
262.8106360000032
 51
350.5700000000011
  0
LINE
  5
6F7
330
99D
100
AcDbEntity
  8
1
  6
Continuous
100
AcDbLine
 10
1250.661399673637
 20
88.49570281620641
 30
0.0
 11
1251.471381673636
 21
88.3611808162065
 31
0.0
  0
ARC
  5
6F8
330
99D
100
AcDbEntity
  8
1
  6
Continuous
100
AcDbCircle
 10
1251.964637673636
 20
88.27925681620641
 30
0.0
 40
0.5
100
AcDbArc
 50
80.56999400000099
 51
170.5700039999985
  0
ARC
  5
6F9
330
99D
100
AcDbEntity
  8
1
  6
Continuous
100
AcDbCircle
 10
1250.203956673636
 20
91.1059318162064
 30
0.0
 40
2.45
100
AcDbArc
 50
249.138434000003
 51
312.2878139999979
  0
LINE
  5
6FA
330
99D
100
AcDbEntity
  8
1
  6
Continuous
100
AcDbLine
 10
1253.503959673636
 20
91.9430898162064
 30
0.0
 11
1253.503959673636
 21
90.26877381620636
 31
0.0
  0
LINE
  5
6FB
330
99D
100
AcDbEntity
  8
1
  6
Continuous
100
AcDbLine
 10
1252.403968673636
 20
93.10593181620639
 30
0.0
 11
1253.403968673636
 21
93.10593181620639
 31
0.0
  0
ARC
  5
6FC
330
99D
100
AcDbEntity
  8
1
  6
Continuous
100
AcDbCircle
 10
1252.703956673636
 20
90.26877381620636
 30
0.0
 40
0.8
100
AcDbArc
 50
280.7131250000021
 51
0.0
  0
ARC
  5
6FD
330
99D
100
AcDbEntity
  8
1
  6
Continuous
100
AcDbCircle
 10
1253.403968673636
 20
93.6059318162064
 30
0.0
 40
0.5
100
AcDbArc
 50
269.9999970000023
 51
0.0
  0
LINE
  5
6FE
330
99D
100
AcDbEntity
  8
1
  6
Continuous
100
AcDbLine
 10
1251.082893673636
 20
93.6059318162064
 30
0.0
 11
1251.903968673636
 21
93.6059318162064
 31
0.0
  0
ARC
  5
6FF
330
99D
100
AcDbEntity
  8
1
  6
Continuous
100
AcDbCircle
 10
1250.203956673636
 20
91.1059318162064
 30
0.0
 40
2.45
100
AcDbArc
 50
47.71219599999612
 51
110.8615549999951
  0
ARC
  5
700
330
99D
100
AcDbEntity
  8
1
  6
Continuous
100
AcDbCircle
 10
1252.403968673636
 20
93.6059318162064
 30
0.0
 40
0.5
100
AcDbArc
 50
179.9999949999994
 51
269.9999970000023
  0
ARC
  5
701
330
99D
100
AcDbEntity
  8
1
  6
Continuous
100
AcDbCircle
 10
1252.703956673636
 20
91.9430898162064
 30
0.0
 40
0.8
100
AcDbArc
 50
0.0
 51
79.28687800000543
  0
LINE
  5
702
330
99D
100
AcDbEntity
  8
1
  6
Continuous
100
AcDbLine
 10
1244.253974673636
 20
94.35593181620644
 30
0.0
 11
1252.852668673636
 21
92.72914681620632
 31
0.0
  0
LINE
  5
703
330
99D
100
AcDbEntity
  8
1
  6
Continuous
100
AcDbLine
 10
1252.852668673636
 20
89.48271681620639
 30
0.0
 11
1244.253974673636
 21
87.85593181620638
 31
0.0
  0
ARC
  5
704
330
99D
100
AcDbEntity
  8
1
  6
Continuous
100
AcDbCircle
 10
1250.203956673636
 20
91.1059318162064
 30
0.0
 40
5.2
100
AcDbArc
 50
214.3790699999979
 51
262.8106360000032
  0
ARC
  5
705
330
99D
100
AcDbEntity
  8
1
  6
Continuous
100
AcDbCircle
 10
1250.203956673636
 20
91.1059318162064
 30
0.0
 40
6.0
100
AcDbArc
 50
211.0710040000034
 51
264.9216970000056
  0
ARC
  5
706
330
99D
100
AcDbEntity
  8
1
  6
Continuous
100
AcDbCircle
 10
1250.203956673636
 20
91.1059318162064
 30
0.0
 40
2.649999999999999
100
AcDbArc
 50
242.6804509999998
 51
279.9400400000034
  0
ARC
  5
707
330
99D
100
AcDbEntity
  8
1
  6
Continuous
100
AcDbCircle
 10
1250.203956673636
 20
91.1059318162064
 30
0.0
 40
2.649999999999999
100
AcDbArc
 50
70.6299660000058
 51
117.319554000001
  0
LINE
  5
727
330
99D
100
AcDbEntity
  8
1
  6
Continuous
100
AcDbLine
 10
1284.534095673636
 20
85.2343498162063
 30
0.0
 11
1287.203956673636
 21
86.77580081620634
 31
0.0
  0
LINE
  5
728
330
99D
100
AcDbEntity
  8
1
  6
Continuous
100
AcDbLine
 10
1283.168067673636
 20
87.33242581620649
 30
0.0
 11
1285.953956673636
 21
88.94086281620657
 31
0.0
  0
LINE
  5
729
330
99D
100
AcDbEntity
  8
1
  6
Continuous
100
AcDbLine
 10
1279.467170673636
 20
79.70459481620648
 30
0.0
 11
1286.865302673636
 21
81.34229081620649
 31
0.0
  0
ARC
  5
72A
330
99D
100
AcDbEntity
  8
1
  6
Continuous
100
AcDbCircle
 10
1284.703956673636
 20
91.1059318162064
 30
0.0
 40
2.5
100
AcDbArc
 50
299.9999970000034
 51
89.99999900000513
  0
ARC
  5
72B
330
99D
100
AcDbEntity
  8
1
  6
Continuous
100
AcDbCircle
 10
1284.703956673636
 20
91.1059318162064
 30
0.0
 40
5.0
100
AcDbArc
 50
299.9999970000034
 51
89.99999900000513
  0
ARC
  5
72C
330
99D
100
AcDbEntity
  8
1
  6
Continuous
100
AcDbCircle
 10
1284.703956673636
 20
91.1059318162064
 30
0.0
 40
10.0
100
AcDbArc
 50
282.4820380000057
 51
96.6579589999946
  0
LINE
  5
72D
330
99D
100
AcDbEntity
  8
4
  6
CENTER
100
AcDbLine
 10
1284.703956673636
 20
78.56593081620646
 30
0.0
 11
1284.703956673636
 21
103.6459248162063
 31
0.0
  0
ARC
  5
72E
330
99D
100
AcDbEntity
  8
1
  6
Continuous
100
AcDbCircle
 10
1284.168067673636
 20
85.60037781620641
 30
0.0
 40
2.0
100
AcDbArc
 50
119.9999939999967
 51
150.0000010000019
  0
LINE
  5
72F
330
99D
100
AcDbEntity
  8
1
  6
Continuous
100
AcDbLine
 10
1280.551566673636
 20
83.33641581620659
 30
0.0
 11
1282.436012673636
 21
86.60037781620642
 31
0.0
  0
LINE
  5
730
330
99D
100
AcDbEntity
  8
1
  6
Continuous
100
AcDbLine
 10
1275.630439673636
 20
80.14851881620646
 30
0.0
 11
1277.092414673637
 21
79.75678781620648
 31
0.0
  0
LINE
  5
731
330
99D
100
AcDbEntity
  8
1
  6
Continuous
100
AcDbLine
 10
1276.277488673636
 20
82.56333681620636
 30
0.0
 11
1277.739448673636
 21
82.17160581620648
 31
0.0
  0
ARC
  5
732
330
99D
100
AcDbEntity
  8
1
  6
Continuous
100
AcDbCircle
 10
1275.953956673636
 20
81.35593181620645
 30
0.0
 40
1.25
100
AcDbArc
 50
75.00000199999663
 51
255.0000000000056
  0
ARC
  5
733
330
99D
100
AcDbEntity
  8
1
  6
Continuous
100
AcDbCircle
 10
1278.386512673636
 20
84.58641581620645
 30
0.0
 40
2.5
100
AcDbArc
 50
255.0000000000056
 51
330.0000000000027
  0
ARC
  5
734
330
99D
100
AcDbEntity
  8
1
  6
Continuous
100
AcDbCircle
 10
1278.386512673636
 20
84.58641581620645
 30
0.0
 40
5.0
100
AcDbArc
 50
255.0000000000056
 51
330.0000000000027
  0
ARC
  5
735
330
99D
100
AcDbEntity
  8
1
  6
Continuous
100
AcDbCircle
 10
1277.482200673636
 20
83.23016881620636
 30
0.0
 40
0.8
100
AcDbArc
 50
262.8106360000032
 51
80.56999400000099
  0
LINE
  5
736
330
99D
100
AcDbEntity
  8
1
  6
Continuous
100
AcDbLine
 10
1282.716636673636
 20
82.08641581620648
 30
0.0
 11
1284.534095673636
 21
85.23434981620644
 31
0.0
  0
LINE
  5
759
330
99D
100
AcDbEntity
  8
1
  6
Continuous
100
AcDbLine
 10
1361.775914395709
 20
195.5416338818207
 30
0.0
 11
1361.77591439571
 21
158.6808637993518
 31
0.0
  0
LINE
  5
75A
330
99D
100
AcDbEntity
  8
1
  6
Continuous
100
AcDbLine
 10
1367.347510172132
 20
173.2264422457804
 30
0.0
 11
1367.347510172133
 21
162.8612488408917
 31
0.0
  0
LINE
  5
75B
330
99D
100
AcDbEntity
  8
1
  6
Continuous
100
AcDbLine
 10
1365.688327172133
 20
175.2624427535894
 30
0.0
 11
1365.688327172133
 21
154.0612503408914
 31
0.0
  0
LINE
  5
75C
330
99D
100
AcDbEntity
  8
1
  6
Continuous
100
AcDbLine
 10
1353.597830653898
 20
158.1112488402805
 30
0.0
 11
1360.061039802874
 21
158.1112488402808
 31
0.0
  0
LINE
  5
75D
330
99D
100
AcDbEntity
  8
1
  6
Continuous
100
AcDbLine
 10
1357.888324172133
 20
157.8612488408914
 30
0.0
 11
1360.061039802874
 21
157.8612488408915
 31
0.0
  0
ARC
  5
75E
330
99D
100
AcDbEntity
  8
1
  6
Continuous
100
AcDbCircle
 10
1367.847510172133
 20
162.8612488408917
 30
0.0
 40
0.5
100
AcDbArc
 50
180.0000000000002
 51
270.0
  0
ARC
  5
75F
330
99D
100
AcDbEntity
  8
1
  6
Continuous
100
AcDbCircle
 10
1358.688324172133
 20
154.0612503408914
 30
0.0
 40
0.8
100
AcDbArc
 50
180.0
 51
269.9999999999917
  0
ARC
  5
760
330
99D
100
AcDbEntity
  8
1
  6
Continuous
100
AcDbCircle
 10
1364.888327172133
 20
154.0612503408914
 30
0.0
 40
0.8
100
AcDbArc
 50
269.9999999999917
 51
0.000000000000007
  0
LINE
  5
761
330
99D
100
AcDbEntity
  8
1
  6
Continuous
100
AcDbLine
 10
1358.688324172132
 20
153.2612503408915
 30
0.0
 11
1364.888327172133
 21
153.2612503408915
 31
0.0
  0
ARC
  5
762
330
99D
100
AcDbEntity
  8
1
  6
Continuous
100
AcDbCircle
 10
1356.269383907522
 20
158.6808637993518
 30
0.0
 40
5.506530488188332
100
AcDbArc
 50
289.6671738682688
 51
0.000000000000007
  0
LINE
  5
763
330
99D
100
AcDbEntity
  8
1
  6
Continuous
100
AcDbLine
 10
1357.888324172133
 20
158.1112488402808
 30
0.0
 11
1357.888324172133
 21
154.0612503408914
 31
0.0
  0
ARC
  5
764
330
99D
100
AcDbEntity
  8
1
  6
Continuous
100
AcDbCircle
 10
1383.607843172133
 20
175.337704628956
 30
0.0
 40
0.8
100
AcDbArc
 50
275.5159539779242
 51
0.000000000000007
  0
ARC
  5
765
330
99D
100
AcDbEntity
  8
1
  6
Continuous
100
AcDbCircle
 10
1383.607843172133
 20
178.8847930522164
 30
0.0
 40
0.8
100
AcDbArc
 50
0.0000000000014319
 51
84.48404602207585
  0
LINE
  5
766
330
99D
100
AcDbEntity
  8
1
  6
Continuous
100
AcDbLine
 10
1384.407843172133
 20
178.8847930522164
 30
0.0
 11
1384.407843172133
 21
175.337704628956
 31
0.0
  0
LINE
  5
767
330
99D
100
AcDbEntity
  8
1
  6
Continuous
100
AcDbLine
 10
1370.561652172133
 20
173.2741111750566
 30
0.0
 11
1370.561652172133
 21
162.8612488408917
 31
0.0
  0
LINE
  5
768
330
99D
100
AcDbEntity
  8
1
  6
Continuous
100
AcDbLine
 10
1374.888327172133
 20
173.6919385555783
 30
0.0
 11
1374.888327172133
 21
162.8612488408916
 31
0.0
  0
LINE
  5
769
330
99D
100
AcDbEntity
  8
1
  6
Continuous
100
AcDbLine
 10
1378.088324172133
 20
174.000962543788
 30
0.0
 11
1378.088324172133
 21
162.8612488408916
 31
0.0
  0
ARC
  5
76A
330
99D
100
AcDbEntity
  8
1
  6
Continuous
100
AcDbCircle
 10
1370.061652172133
 20
162.8612488408917
 30
0.0
 40
0.5
100
AcDbArc
 50
270.0
 51
0.000000000000007
  0
LINE
  5
76B
330
99D
100
AcDbEntity
  8
1
  6
Continuous
100
AcDbLine
 10
1376.138327172133
 20
158.1112488402808
 30
0.0
 11
1377.888327172133
 21
158.1112488402808
 31
0.0
  0
LINE
  5
76C
330
99D
100
AcDbEntity
  8
1
  6
Continuous
100
AcDbLine
 10
1377.888327172133
 20
158.1112488402808
 30
0.0
 11
1377.888327172133
 21
162.4612510902985
 31
0.0
  0
LINE
  5
76D
330
99D
100
AcDbEntity
  8
1
  6
Continuous
100
AcDbLine
 10
1370.438327172133
 20
162.3612488408916
 30
0.0
 11
1370.438327172133
 21
162.5324389499591
 31
0.0
  0
ARC
  5
76E
330
99D
100
AcDbEntity
  8
1
  6
Continuous
100
AcDbCircle
 10
1375.388327172133
 20
162.8612488408916
 30
0.0
 40
0.5
100
AcDbArc
 50
180.0
 51
269.9999999999993
  0
ARC
  5
76F
330
99D
100
AcDbEntity
  8
1
  6
Continuous
100
AcDbCircle
 10
1377.588324172133
 20
162.8612488408916
 30
0.0
 40
0.5
100
AcDbArc
 50
270.0
 51
0.000000000000007
  0
LINE
  5
770
330
99D
100
AcDbEntity
  8
1
  6
Continuous
100
AcDbLine
 10
1367.888327172132
 20
158.1112488402806
 30
0.0
 11
1367.888327172132
 21
162.3612488402807
 31
0.0
  0
ARC
  5
771
330
99D
100
AcDbEntity
  8
1
  6
Continuous
100
AcDbCircle
 10
1370.438327172133
 20
153.9112488402809
 30
0.0
 40
0.8
100
AcDbArc
 50
180.0
 51
270.0
  0
ARC
  5
772
330
99D
100
AcDbEntity
  8
1
  6
Continuous
100
AcDbCircle
 10
1373.588324573107
 20
153.9112488402809
 30
0.0
 40
0.8
100
AcDbArc
 50
270.0
 51
0.0000000000001342
  0
ARC
  5
773
330
99D
100
AcDbEntity
  8
1
  6
Continuous
100
AcDbCircle
 10
1375.338327172133
 20
153.9112488402809
 30
0.0
 40
0.8
100
AcDbArc
 50
270.0
 51
0.000000000000007
  0
ARC
  5
774
330
99D
100
AcDbEntity
  8
1
  6
Continuous
100
AcDbCircle
 10
1372.188329771158
 20
153.9112488402809
 30
0.0
 40
0.8
100
AcDbArc
 50
180.0000000000001
 51
270.0
  0
LINE
  5
775
330
99D
100
AcDbEntity
  8
1
  6
Continuous
100
AcDbLine
 10
1370.438327172133
 20
153.111248840281
 30
0.0
 11
1375.338327172133
 21
153.111248840281
 31
0.0
  0
LINE
  5
776
330
99D
100
AcDbEntity
  8
1
  6
Continuous
100
AcDbLine
 10
1376.138327172133
 20
153.9112488402809
 30
0.0
 11
1376.138327172133
 21
162.3612488402807
 31
0.0
  0
LINE
  5
777
330
99D
100
AcDbEntity
  8
1
  6
Continuous
100
AcDbLine
 10
1374.388324573107
 20
153.9112488402809
 30
0.0
 11
1374.388324573107
 21
162.3612488402805
 31
0.0
  0
LINE
  5
778
330
99D
100
AcDbEntity
  8
1
  6
Continuous
100
AcDbLine
 10
1371.388329771158
 20
153.9112488402809
 30
0.0
 11
1371.388329771158
 21
162.3612488402805
 31
0.0
  0
LINE
  5
779
330
99D
100
AcDbEntity
  8
1
  6
Continuous
100
AcDbLine
 10
1369.638327172133
 20
153.9112488402809
 30
0.0
 11
1369.638327172133
 21
162.3612488402807
 31
0.0
  0
ARC
  5
77A
330
99D
100
AcDbEntity
  8
1
  6
Continuous
100
AcDbCircle
 10
1367.888327172132
 20
173.8159479476283
 30
0.0
 40
0.8
100
AcDbArc
 50
198.483169862286
 51
281.03190795589
  0
ARC
  5
77B
330
99D
100
AcDbEntity
  8
1
  6
Continuous
100
AcDbCircle
 10
1367.888327172132
 20
180.4065497335441
 30
0.0
 40
0.8
100
AcDbArc
 50
78.96809204411001
 51
161.516830137714
  0
ARC
  5
77C
330
99D
100
AcDbEntity
  8
1
  6
Continuous
100
AcDbCircle
 10
1364.28434325697
 20
172.611248840281
 30
0.0
 40
3.0
100
AcDbArc
 50
18.48316986228899
 51
90.00000000000005
  0
ARC
  5
77D
330
99D
100
AcDbEntity
  8
1
  6
Continuous
100
AcDbCircle
 10
1364.28434325697
 20
181.6112488408915
 30
0.0
 40
3.0
100
AcDbArc
 50
270.0
 51
341.5168301377112
  0
ARC
  5
77E
330
99D
100
AcDbEntity
  8
1
  6
Continuous
100
AcDbCircle
 10
1363.688315172132
 20
177.8112608408916
 30
0.0
 40
0.8
100
AcDbArc
 50
89.99999700000229
 51
180.0
  0
LINE
  5
77F
330
99D
100
AcDbEntity
  8
1
  6
Continuous
100
AcDbLine
 10
1362.888327172133
 20
177.8112608408916
 30
0.0
 11
1362.888327172133
 21
176.4112518408916
 31
0.0
  0
ARC
  5
780
330
99D
100
AcDbEntity
  8
1
  6
Continuous
100
AcDbCircle
 10
1363.688315172132
 20
176.4112518408916
 30
0.0
 40
0.8
100
AcDbArc
 50
180.0
 51
269.9999990000051
  0
LINE
  5
781
330
99D
100
AcDbEntity
  8
1
  6
Continuous
100
AcDbLine
 10
1367.847510172133
 20
191.8612488408917
 30
0.0
 11
1377.588324172133
 21
191.8612488408917
 31
0.0
  0
LINE
  5
782
330
99D
100
AcDbEntity
  8
1
  6
Continuous
100
AcDbLine
 10
1365.688327172133
 20
196.1112488408921
 30
0.0
 11
1369.638327172133
 21
196.1112488408917
 31
0.0
  0
LINE
  5
783
330
99D
100
AcDbEntity
  8
1
  6
Continuous
100
AcDbLine
 10
1253.503959673636
 20
158.2429018402808
 30
0.0
 11
1253.503959673636
 21
162.1112488402806
 31
0.0
  0
ARC
  5
784
330
99D
100
AcDbEntity
  8
1
  6
Continuous
100
AcDbCircle
 10
1244.003974673636
 20
159.3625768402806
 30
0.0
 40
1.5
100
AcDbArc
 50
270.3055800000037
 51
0.0
  0
LINE
  5
785
330
99D
100
AcDbEntity
  8
1
  6
Continuous
100
AcDbLine
 10
1241.170834024968
 20
158.1112488402808
 30
0.0
 11
1241.170834024968
 21
196.1112488402808
 31
0.0
  0
LINE
  5
786
330
99D
100
AcDbEntity
  8
4
  6
CENTER
100
AcDbLine
 10
1250.203956673636
 20
333.0535358890412
 30
0.0
 11
1250.203956673636
 21
370.790199889041
 31
0.0
  0
LINE
  5
787
330
99D
100
AcDbEntity
  8
1
  6
Continuous
100
AcDbLine
 10
1191.170834024968
 20
332.9218828890412
 30
0.0
 11
1191.170834024968
 21
370.9218828890412
 31
0.0
  0
LINE
  5
788
330
99D
100
AcDbEntity
  8
4
  6
CENTER
100
AcDbLine
 10
1297.703956673636
 20
263.1165658649661
 30
0.0
 11
1232.003974673636
 21
263.1165658649661
 31
0.0
  0
LINE
  5
789
330
99D
100
AcDbEntity
  8
1
  6
Continuous
100
AcDbLine
 10
1253.444358673636
 20
266.1889988649661
 30
0.0
 11
1277.613273673636
 21
270.2031438649661
 31
0.0
  0
LINE
  5
78A
330
99D
100
AcDbEntity
  8
1
  6
Continuous
100
AcDbLine
 10
1249.553199673636
 20
268.2756838649662
 30
0.0
 11
1277.382087673636
 21
271.7860448649661
 31
0.0
  0
LINE
  5
78B
330
99D
100
AcDbEntity
  8
1
  6
Continuous
100
AcDbLine
 10
1253.903968673636
 20
260.6165658649661
 30
0.0
 11
1284.703956673636
 21
260.6165658649661
 31
0.0
  0
LINE
  5
78C
330
99D
100
AcDbEntity
  8
1
  6
Continuous
100
AcDbLine
 10
1253.803962673636
 20
258.1165658649661
 30
0.0
 11
1284.703956673636
 21
258.1165658649661
 31
0.0
  0
LINE
  5
78D
330
99D
100
AcDbEntity
  8
1
  6
Continuous
100
AcDbLine
 10
1249.508308673636
 20
257.1570318649662
 30
0.0
 11
1283.544547673636
 21
253.184009864966
 31
0.0
  0
LINE
  5
78E
330
99D
100
AcDbEntity
  8
1
  6
Continuous
100
AcDbLine
 10
1271.195075673636
 20
271.005603864966
 30
0.0
 11
1249.672858673636
 21
269.0930218649662
 31
0.0
  0
LINE
  5
78F
330
99D
100
AcDbEntity
  8
1
  6
Continuous
100
AcDbLine
 10
1253.103828673636
 20
268.239307864966
 30
0.0
 11
1253.444358673636
 21
266.1889988649662
 31
0.0
  0
ARC
  5
790
330
99D
100
AcDbEntity
  8
1
  6
Continuous
100
AcDbCircle
 10
1250.203956673636
 20
263.1165658649661
 30
0.0
 40
5.2
100
AcDbArc
 50
97.1893639999968
 51
145.6209300000021
  0
ARC
  5
791
330
99D
100
AcDbEntity
  8
1
  6
Continuous
100
AcDbCircle
 10
1250.203956673636
 20
263.1165658649661
 30
0.0
 40
6.0
100
AcDbArc
 50
95.07830299999435
 51
148.9289959999966
  0
ARC
  5
792
330
99D
100
AcDbEntity
  8
1
  6
Continuous
100
AcDbCircle
 10
1236.120834024968
 20
263.1165658649661
 30
0.0
 40
5.049999999999998
100
AcDbArc
 50
232.8927683738304
 51
329.8380456754352
  0
LINE
  5
793
330
99D
100
AcDbEntity
  8
4
  6
CENTER
100
AcDbLine
 10
1250.203956673636
 20
255.8169058649661
 30
0.0
 11
1250.203956673636
 21
271.7292828649661
 31
0.0
  0
ARC
  5
7AD
330
99D
100
AcDbEntity
  8
1
  6
Continuous
100
AcDbCircle
 10
1252.610587673636
 20
268.157382864966
 30
0.0
 40
0.5
100
AcDbArc
 50
9.429999999998967
 51
97.1893639999968
  0
LINE
  5
7AE
330
99D
100
AcDbEntity
  8
1
  6
Continuous
100
AcDbLine
 10
1226.437730183743
 20
264.9165658649678
 30
0.0
 11
1191.170834024968
 21
264.9165658649678
 31
0.0
  0
LINE
  5
7AF
330
99D
100
AcDbEntity
  8
1
  6
Continuous
100
AcDbLine
 10
1191.170834024968
 20
263.1165658649676
 30
0.0
 11
1191.170834024968
 21
264.9165658649678
 31
0.0
  0
ARC
  5
7B0
330
99D
100
AcDbEntity
  8
1
  6
Continuous
100
AcDbCircle
 10
1226.437730183741
 20
250.3165658649663
 30
0.0
 40
12.8
100
AcDbArc
 50
52.89276837383047
 51
90.00000000000005
  0
ARC
  5
7B1
330
99D
100
AcDbEntity
  8
1
  6
Continuous
100
AcDbCircle
 10
1226.437730183741
 20
250.3165658649663
 30
0.0
 40
11.0
100
AcDbArc
 50
52.89276837383047
 51
90.00000000000005
  0
ARC
  5
7B2
330
99D
100
AcDbEntity
  8
1
  6
Continuous
100
AcDbCircle
 10
1226.437730183743
 20
275.9165658649679
 30
0.0
 40
12.8
100
AcDbArc
 50
270.0
 51
307.1072316261551
  0
ARC
  5
7B3
330
99D
100
AcDbEntity
  8
1
  6
Continuous
100
AcDbCircle
 10
1226.437730183743
 20
275.9165658649679
 30
0.0
 40
11.0
100
AcDbArc
 50
270.0
 51
307.1072316261551
  0
LINE
  5
7B4
330
99D
100
AcDbEntity
  8
1
  6
Continuous
100
AcDbLine
 10
1227.258980241572
 20
264.916565864968
 30
0.0
 11
1227.258980241572
 21
264.9251992572303
 31
0.0
  0
LINE
  5
7B5
330
99D
100
AcDbEntity
  8
1
  6
Continuous
100
AcDbLine
 10
1235.106696673636
 20
261.5971258649662
 30
0.0
 11
1244.253974673636
 21
259.8665658649661
 31
0.0
  0
LINE
  5
7B6
330
99D
100
AcDbEntity
  8
1
  6
Continuous
100
AcDbLine
 10
1244.253974673636
 20
266.3665658649661
 30
0.0
 11
1235.106696673636
 21
264.6359978649662
 31
0.0
  0
ARC
  5
7B7
330
99D
100
AcDbEntity
  8
1
  6
Continuous
100
AcDbCircle
 10
1235.199622673636
 20
262.0884138649661
 30
0.0
 40
0.5
100
AcDbArc
 50
179.9999949999993
 51
259.2868800000061
  0
ARC
  5
7B8
330
99D
100
AcDbEntity
  8
1
  6
Continuous
100
AcDbCircle
 10
1234.303962673636
 20
262.4165618649662
 30
0.0
 40
0.8
100
AcDbArc
 50
179.9999949999993
 51
269.9999970000023
  0
LINE
  5
7B9
330
99D
100
AcDbEntity
  8
1
  6
Continuous
100
AcDbLine
 10
1234.303962673636
 20
261.6165658649661
 30
0.0
 11
1235.034232673636
 21
261.6165658649661
 31
0.0
  0
LINE
  5
7BA
330
99D
100
AcDbEntity
  8
1
  6
Continuous
100
AcDbLine
 10
1234.303962673636
 20
264.6165658649661
 30
0.0
 11
1235.034232673636
 21
264.6165658649661
 31
0.0
  0
ARC
  5
7BB
330
99D
100
AcDbEntity
  8
1
  6
Continuous
100
AcDbCircle
 10
1234.303962673636
 20
263.8165628649662
 30
0.0
 40
0.8
100
AcDbArc
 50
89.99999900000515
 51
179.9999949999993
  0
LINE
  5
7BC
330
99D
100
AcDbEntity
  8
1
  6
Continuous
100
AcDbLine
 10
1233.503974673636
 20
262.4165618649662
 30
0.0
 11
1233.503974673636
 21
263.8165628649662
 31
0.0
  0
ARC
  5
7BD
330
99D
100
AcDbEntity
  8
1
  6
Continuous
100
AcDbCircle
 10
1235.199622673636
 20
264.1447108649661
 30
0.0
 40
0.5
100
AcDbArc
 50
100.7131230000016
 51
179.9999949999993
  0
LINE
  5
7BE
330
99D
100
AcDbEntity
  8
1
  6
Continuous
100
AcDbLine
 10
1234.699622673636
 20
262.0884138649661
 30
0.0
 11
1234.699622673636
 21
264.1447108649661
 31
0.0
  0
ARC
  5
7BF
330
99D
100
AcDbEntity
  8
1
  6
Continuous
100
AcDbCircle
 10
1236.120834024968
 20
263.1165658649661
 30
0.0
 40
3.25
100
AcDbArc
 50
41.86946514502326
 51
127.107231626155
  0
ARC
  5
7C0
330
99D
100
AcDbEntity
  8
1
  6
Continuous
100
AcDbCircle
 10
1236.120834024968
 20
263.1165658649661
 30
0.0
 40
3.25
100
AcDbArc
 50
232.8927683738323
 51
318.1304337174868
  0
ARC
  5
7C1
330
99D
100
AcDbEntity
  8
1
  6
Continuous
100
AcDbCircle
 10
1236.120834024968
 20
263.1165658649661
 30
0.0
 40
5.049999999999998
100
AcDbArc
 50
30.16191537617741
 51
127.107231626155
  0
ARC
  5
7C2
330
99D
100
AcDbEntity
  8
1
  6
Continuous
100
AcDbCircle
 10
1252.703956673636
 20
262.2794078649662
 30
0.0
 40
0.8
100
AcDbArc
 50
280.7131219999945
 51
0.0
  0
ARC
  5
7C3
330
99D
100
AcDbEntity
  8
1
  6
Continuous
100
AcDbCircle
 10
1253.403968673636
 20
260.6165658649661
 30
0.0
 40
0.5
100
AcDbArc
 50
0.0
 51
90.0000029999976
  0
ARC
  5
7C4
330
99D
100
AcDbEntity
  8
1
  6
Continuous
100
AcDbCircle
 10
1252.703956673636
 20
263.9537238649662
 30
0.0
 40
0.8
100
AcDbArc
 50
0.0
 51
79.28687499999782
  0
LINE
  5
7C5
330
99D
100
AcDbEntity
  8
1
  6
Continuous
100
AcDbLine
 10
1253.903968673636
 20
260.6165658649661
 30
0.0
 11
1253.903968673636
 21
258.416568864966
 31
0.0
  0
LINE
  5
7C6
330
99D
100
AcDbEntity
  8
1
  6
Continuous
100
AcDbLine
 10
1253.503959673636
 20
262.2794078649662
 30
0.0
 11
1253.503959673636
 21
263.9537238649662
 31
0.0
  0
ARC
  5
7C7
330
99D
100
AcDbEntity
  8
1
  6
Continuous
100
AcDbCircle
 10
1252.951118673636
 20
266.107081864966
 30
0.0
 40
0.5
100
AcDbArc
 50
279.430005999999
 51
9.429999999998967
  0
ARC
  5
7C8
330
99D
100
AcDbEntity
  8
1
  6
Continuous
100
AcDbCircle
 10
1250.203956673636
 20
263.1165658649661
 30
0.0
 40
2.649999999999999
100
AcDbArc
 50
242.680445999999
 51
289.3700339999942
  0
ARC
  5
7C9
330
99D
100
AcDbEntity
  8
1
  6
Continuous
100
AcDbCircle
 10
1250.203956673636
 20
263.1165658649661
 30
0.0
 40
2.649999999999999
100
AcDbArc
 50
80.0599599999966
 51
117.3195490000002
  0
ARC
  5
7CA
330
99D
100
AcDbEntity
  8
1
  6
Continuous
100
AcDbCircle
 10
1252.403968673636
 20
260.6165658649661
 30
0.0
 40
0.5
100
AcDbArc
 50
90.0000029999976
 51
180.0000050000006
  0
ARC
  5
7CB
330
99D
100
AcDbEntity
  8
1
  6
Continuous
100
AcDbCircle
 10
1250.203956673636
 20
263.1165658649661
 30
0.0
 40
2.45
100
AcDbArc
 50
249.1384450000049
 51
312.2878040000039
  0
LINE
  5
7CC
330
99D
100
AcDbEntity
  8
1
  6
Continuous
100
AcDbLine
 10
1251.082893673636
 20
260.6165658649661
 30
0.0
 11
1251.903968673636
 21
260.6165658649661
 31
0.0
  0
ARC
  5
7CD
330
99D
100
AcDbEntity
  8
1
  6
Continuous
100
AcDbCircle
 10
1250.203956673636
 20
263.1165658649661
 30
0.0
 40
2.45
100
AcDbArc
 50
47.71218600000213
 51
110.861565999997
  0
ARC
  5
7CE
330
99D
100
AcDbEntity
  8
1
  6
Continuous
100
AcDbCircle
 10
1251.964637673636
 20
265.943240864966
 30
0.0
 40
0.5
100
AcDbArc
 50
189.4299960000014
 51
279.430005999999
  0
LINE
  5
7CF
330
99D
100
AcDbEntity
  8
1
  6
Continuous
100
AcDbLine
 10
1250.661399673637
 20
265.7267948649661
 30
0.0
 11
1251.471381673636
 21
265.861316864966
 31
0.0
  0
LINE
  5
7D0
330
99D
100
AcDbEntity
  8
1
  6
Continuous
100
AcDbLine
 10
1252.852668673636
 20
264.7397808649661
 30
0.0
 11
1244.253974673636
 21
266.3665658649661
 31
0.0
  0
LINE
  5
7D1
330
99D
100
AcDbEntity
  8
1
  6
Continuous
100
AcDbLine
 10
1244.253974673636
 20
259.8665658649661
 30
0.0
 11
1252.852668673636
 21
261.4933508649662
 31
0.0
  0
LINE
  5
7D2
330
99D
100
AcDbEntity
  8
1
  6
Continuous
100
AcDbLine
 10
1252.403968673636
 20
261.1165658649661
 30
0.0
 11
1253.403968673636
 21
261.1165658649661
 31
0.0
  0
LINE
  5
7D3
330
99D
100
AcDbEntity
  8
1
  6
Continuous
100
AcDbLine
 10
1252.046546673636
 20
265.4500008649661
 30
0.0
 11
1253.033027673636
 21
265.613834864966
 31
0.0
  0
LINE
  5
7D4
330
99D
100
AcDbEntity
  8
1
  6
Continuous
100
AcDbLine
 10
1250.203956673636
 20
257.916568864966
 30
0.0
 11
1253.403968673636
 21
257.916568864966
 31
0.0
  0
ARC
  5
7D5
330
99D
100
AcDbEntity
  8
1
  6
Continuous
100
AcDbCircle
 10
1250.203956673636
 20
263.1165658649661
 30
0.0
 40
6.0
100
AcDbArc
 50
211.0710010000025
 51
263.3420410000054
  0
ARC
  5
7D6
330
99D
100
AcDbEntity
  8
1
  6
Continuous
100
AcDbCircle
 10
1250.203956673636
 20
263.1165658649661
 30
0.0
 40
5.2
100
AcDbArc
 50
214.3790649999973
 51
270.0000009999949
  0
ARC
  5
7D7
330
99D
100
AcDbEntity
  8
1
  6
Continuous
100
AcDbCircle
 10
1253.403968673636
 20
258.416568864966
 30
0.0
 40
0.5
100
AcDbArc
 50
270.0000009999949
 51
0.0
  0
ARC
  5
7D8
330
99D
100
AcDbEntity
  8
1
  6
Continuous
100
AcDbCircle
 10
1243.503974673636
 20
253.1112488402806
 30
0.0
 40
100.0
100
AcDbArc
 50
267.7141589999951
 51
273.0169600000035
  0
ARC
  5
7D9
330
99D
100
AcDbEntity
  8
1
  6
Continuous
100
AcDbCircle
 10
1243.503974673636
 20
253.1112488402806
 30
0.0
 40
95.25
100
AcDbArc
 50
265.8478773070983
 51
270.3055800000037
  0
ARC
  5
7DA
330
99D
100
AcDbEntity
  8
1
  6
Continuous
100
AcDbCircle
 10
1240.503974673636
 20
159.4092538402806
 30
0.0
 40
1.5
100
AcDbArc
 50
239.9211704411088
 51
268.1662219999967
  0
LINE
  5
7DB
330
99D
100
AcDbEntity
  8
1
  6
Continuous
100
AcDbLine
 10
1234.7096558789
 20
158.1112488402808
 30
0.0
 11
1234.724952673636
 21
157.8701908402809
 31
0.0
  0
ARC
  5
7DC
330
99D
100
AcDbEntity
  8
1
  6
Continuous
100
AcDbCircle
 10
1239.714912673636
 20
158.1868408402808
 30
0.0
 40
5.0
100
AcDbArc
 50
183.6309370000003
 51
267.7141589999951
  0
ARC
  5
7DD
330
99D
100
AcDbEntity
  8
1
  6
Continuous
100
AcDbCircle
 10
1248.503974673636
 20
158.2429018402808
 30
0.0
 40
5.0
100
AcDbArc
 50
273.0169600000035
 51
0.0
  0
LINE
  5
7DE
330
99D
100
AcDbEntity
  8
1
  6
Continuous
100
AcDbLine
 10
1244.253974673636
 20
153.1140568402806
 30
0.0
 11
1244.253974673636
 21
157.8835578402806
 31
0.0
  0
LINE
  5
7DF
330
99D
100
AcDbEntity
  8
1
  6
Continuous
100
AcDbLine
 10
1284.534095673636
 20
268.9881478649662
 30
0.0
 11
1287.203956673636
 21
267.4466968649662
 31
0.0
  0
LINE
  5
7E0
330
99D
100
AcDbEntity
  8
1
  6
Continuous
100
AcDbLine
 10
1280.551566673636
 20
270.886081864966
 30
0.0
 11
1282.436012673636
 21
267.622119864966
 31
0.0
  0
ARC
  5
7E1
330
99D
100
AcDbEntity
  8
1
  6
Continuous
100
AcDbCircle
 10
1284.703956673636
 20
263.1165658649661
 30
0.0
 40
10.0
100
AcDbArc
 50
263.3420410000054
 51
77.5179619999943
  0
LINE
  5
7E2
330
99D
100
AcDbEntity
  8
4
  6
CENTER
100
AcDbLine
 10
1284.703956673636
 20
275.656566864966
 30
0.0
 11
1284.703956673636
 21
250.5765728649661
 31
0.0
  0
LINE
  5
7E3
330
99D
100
AcDbEntity
  8
1
  6
Continuous
100
AcDbLine
 10
1279.467170673636
 20
274.5179028649662
 30
0.0
 11
1286.865302673636
 21
272.8802068649662
 31
0.0
  0
ARC
  5
7E4
330
99D
100
AcDbEntity
  8
1
  6
Continuous
100
AcDbCircle
 10
1277.482200673636
 20
270.9923288649662
 30
0.0
 40
0.8
100
AcDbArc
 50
279.430005999999
 51
97.1893639999968
  0
ARC
  5
7E5
330
99D
100
AcDbEntity
  8
1
  6
Continuous
100
AcDbCircle
 10
1278.386512673636
 20
269.636081864966
 30
0.0
 40
2.5
100
AcDbArc
 50
29.99999999999733
 51
104.9999999999944
  0
ARC
  5
7E6
330
99D
100
AcDbEntity
  8
1
  6
Continuous
100
AcDbCircle
 10
1275.953956673636
 20
272.8665658649662
 30
0.0
 40
1.25
100
AcDbArc
 50
104.9999999999944
 51
284.9999980000034
  0
LINE
  5
7E7
330
99D
100
AcDbEntity
  8
1
  6
Continuous
100
AcDbLine
 10
1276.277488673636
 20
271.6591608649662
 30
0.0
 11
1277.739448673636
 21
272.050891864966
 31
0.0
  0
LINE
  5
7E8
330
99D
100
AcDbEntity
  8
1
  6
Continuous
100
AcDbLine
 10
1275.630439673636
 20
274.0739788649662
 30
0.0
 11
1277.092414673637
 21
274.465709864966
 31
0.0
  0
ARC
  5
7E9
330
99D
100
AcDbEntity
  8
1
  6
Continuous
100
AcDbCircle
 10
1278.386512673636
 20
269.636081864966
 30
0.0
 40
5.0
100
AcDbArc
 50
29.99999999999733
 51
104.9999999999944
  0
LINE
  5
7EA
330
99D
100
AcDbEntity
  8
1
  6
Continuous
100
AcDbLine
 10
1282.716636673636
 20
272.136081864966
 30
0.0
 11
1284.534095673636
 21
268.988147864966
 31
0.0
  0
ARC
  5
7EB
330
99D
100
AcDbEntity
  8
1
  6
Continuous
100
AcDbCircle
 10
1356.269383907522
 20
195.5416338818207
 30
0.0
 40
5.506530488188332
100
AcDbArc
 50
0.000000000000007
 51
70.33282613173115
  0
LINE
  5
7EC
330
99D
100
AcDbEntity
  8
1
  6
Continuous
100
AcDbLine
 10
1353.597830653898
 20
196.1112488408921
 30
0.0
 11
1360.061039802874
 21
196.1112488408915
 31
0.0
  0
LINE
  5
7ED
330
99D
100
AcDbEntity
  8
1
  6
Continuous
100
AcDbLine
 10
1357.888324172133
 20
196.3612488408915
 30
0.0
 11
1360.061039802874
 21
196.3612488408915
 31
0.0
  0
ARC
  5
7EE
330
99D
100
AcDbEntity
  8
1
  6
Continuous
100
AcDbCircle
 10
1364.888327172133
 20
200.1612473408913
 30
0.0
 40
0.8
100
AcDbArc
 50
0.0000000000162915
 51
89.99999999998371
  0
ARC
  5
7EF
330
99D
100
AcDbEntity
  8
1
  6
Continuous
100
AcDbCircle
 10
1358.688324172133
 20
200.1612473408914
 30
0.0
 40
0.8
100
AcDbArc
 50
90.00000000000811
 51
179.9999999999917
  0
LINE
  5
7F0
330
99D
100
AcDbEntity
  8
1
  6
Continuous
100
AcDbLine
 10
1358.688324172132
 20
200.9612473408915
 30
0.0
 11
1364.888327172133
 21
200.9612473408915
 31
0.0
  0
LINE
  5
7F1
330
99D
100
AcDbEntity
  8
1
  6
Continuous
100
AcDbLine
 10
1357.888324172133
 20
200.1612473408914
 30
0.0
 11
1357.888324172133
 21
196.1112488408916
 31
0.0
  0
ARC
  5
7F2
330
99D
100
AcDbEntity
  8
1
  6
Continuous
100
AcDbCircle
 10
1367.847510172133
 20
191.3612488408917
 30
0.0
 40
0.5
100
AcDbArc
 50
90.0
 51
180.0
  0
ARC
  5
7F3
330
99D
100
AcDbEntity
  8
1
  6
Continuous
100
AcDbCircle
 10
1284.703956673636
 20
263.1165658649661
 30
0.0
 40
2.5
100
AcDbArc
 50
270.0000009999949
 51
60.00000299999662
  0
LINE
  5
7F4
330
99D
100
AcDbEntity
  8
1
  6
Continuous
100
AcDbLine
 10
1283.168067673636
 20
266.890071864966
 30
0.0
 11
1285.953956673636
 21
265.2816348649657
 31
0.0
  0
ARC
  5
7F5
330
99D
100
AcDbEntity
  8
1
  6
Continuous
100
AcDbCircle
 10
1284.703956673636
 20
263.1165658649661
 30
0.0
 40
5.0
100
AcDbArc
 50
270.0000009999949
 51
60.00000299999662
  0
ARC
  5
7F6
330
99D
100
AcDbEntity
  8
1
  6
Continuous
100
AcDbCircle
 10
1284.168067673636
 20
268.622119864966
 30
0.0
 40
2.0
100
AcDbArc
 50
209.9999989999981
 51
240.0000060000034
  0
ARC
  5
7F7
330
99D
100
AcDbEntity
  8
1
  6
Continuous
100
AcDbCircle
 10
1261.403968673636
 20
164.0607118402806
 30
0.0
 40
7.5
100
AcDbArc
 50
93.5387199999938
 51
179.9999949999993
  0
ARC
  5
7F8
330
99D
100
AcDbEntity
  8
1
  6
Continuous
100
AcDbCircle
 10
1261.403968673636
 20
190.1617558402805
 30
0.0
 40
7.5
100
AcDbArc
 50
179.9999949999993
 51
266.4612699999974
  0
LINE
  5
7F9
330
99D
100
AcDbEntity
  8
1
  6
Continuous
100
AcDbLine
 10
1245.003974673636
 20
175.6112488402806
 30
0.0
 11
1293.908350437686
 21
175.6112488402808
 31
0.0
  0
LINE
  5
7FA
330
99D
100
AcDbEntity
  8
1
  6
Continuous
100
AcDbLine
 10
1245.003974673636
 20
178.6112488402806
 30
0.0
 11
1293.903968687599
 21
178.6112458402805
 31
0.0
  0
ARC
  5
7FB
330
99D
100
AcDbEntity
  8
1
  6
Continuous
100
AcDbCircle
 10
1248.503974673636
 20
195.9795658402804
 30
0.0
 40
5.0
100
AcDbArc
 50
0.0
 51
86.98304999999619
  0
ARC
  5
7FC
330
99D
100
AcDbEntity
  8
1
  6
Continuous
100
AcDbCircle
 10
1239.714912673636
 20
196.0356568402808
 30
0.0
 40
5.0
100
AcDbArc
 50
92.2858450000017
 51
176.3690660000009
  0
LINE
  5
7FD
330
99D
100
AcDbEntity
  8
1
  6
Continuous
100
AcDbLine
 10
1244.253974673636
 20
196.3389258402808
 30
0.0
 11
1244.253974673636
 21
201.1084268402805
 31
0.0
  0
ARC
  5
7FE
330
99D
100
AcDbEntity
  8
1
  6
Continuous
100
AcDbCircle
 10
1245.003974673636
 20
177.8112458402806
 30
0.0
 40
0.8
100
AcDbArc
 50
89.99999900000515
 51
179.9999949999993
  0
LINE
  5
7FF
330
99D
100
AcDbEntity
  8
1
  6
Continuous
100
AcDbLine
 10
1253.903968673636
 20
162.8612488402806
 30
0.0
 11
1253.903968673636
 21
164.0607118402806
 31
0.0
  0
ARC
  5
800
330
99D
100
AcDbEntity
  8
1
  6
Continuous
100
AcDbCircle
 10
1253.403968673636
 20
162.8612488402806
 30
0.0
 40
0.5
100
AcDbArc
 50
269.9999970000023
 51
0.0
  0
ARC
  5
801
330
99D
100
AcDbEntity
  8
1
  6
Continuous
100
AcDbCircle
 10
1253.153968673637
 20
162.6112488402806
 30
0.0
 40
0.5
100
AcDbArc
 50
210.0000029999988
 51
269.9999970000023
  0
LINE
  5
802
330
99D
100
AcDbEntity
  8
1
  6
Continuous
100
AcDbLine
 10
1253.153968673637
 20
162.1112488402806
 30
0.0
 11
1253.503959673636
 21
162.1112488402806
 31
0.0
  0
LINE
  5
803
330
99D
100
AcDbEntity
  8
1
  6
Continuous
100
AcDbLine
 10
1248.253974673636
 20
162.1112488402806
 30
0.0
 11
1252.153968673636
 21
162.1112488402806
 31
0.0
  0
LINE
  5
804
330
99D
100
AcDbEntity
  8
1
  6
Continuous
100
AcDbLine
 10
1245.503974673636
 20
162.1112488402806
 30
0.0
 11
1247.253974673636
 21
162.1112488402806
 31
0.0
  0
ARC
  5
805
330
99D
100
AcDbEntity
  8
1
  6
Continuous
100
AcDbCircle
 10
1245.503974673636
 20
162.8612488402806
 30
0.0
 40
0.5
100
AcDbArc
 50
179.9999949999993
 51
269.9999970000023
  0
LINE
  5
806
330
99D
100
AcDbEntity
  8
1
  6
Continuous
100
AcDbLine
 10
1245.503974673636
 20
159.3625768402806
 30
0.0
 11
1245.503974673636
 21
162.1112488402806
 31
0.0
  0
ARC
  5
807
330
99D
100
AcDbEntity
  8
1
  6
Continuous
100
AcDbCircle
 10
1248.253974673636
 20
162.6112488402806
 30
0.0
 40
0.5
100
AcDbArc
 50
210.0000029999988
 51
269.9999970000023
  0
ARC
  5
808
330
99D
100
AcDbEntity
  8
1
  6
Continuous
100
AcDbCircle
 10
1247.253974673636
 20
162.6112488402806
 30
0.0
 40
0.5
100
AcDbArc
 50
269.9999970000023
 51
330.0000000000026
  0
LINE
  5
809
330
99D
100
AcDbEntity
  8
1
  6
Continuous
100
AcDbLine
 10
1245.503974673636
 20
162.3612488402805
 30
0.0
 11
1253.403968673636
 21
162.3612488402805
 31
0.0
  0
ARC
  5
80A
330
99D
100
AcDbEntity
  8
1
  6
Continuous
100
AcDbCircle
 10
1252.153968673636
 20
162.6112488402806
 30
0.0
 40
0.5
100
AcDbArc
 50
269.9999970000023
 51
330.0000000000026
  0
ARC
  5
80B
330
99D
100
AcDbEntity
  8
1
  6
Continuous
100
AcDbCircle
 10
1245.003974673636
 20
176.4112368402806
 30
0.0
 40
0.8
100
AcDbArc
 50
179.9999949999993
 51
269.9999970000023
  0
LINE
  5
80C
330
99D
100
AcDbEntity
  8
1
  6
Continuous
100
AcDbLine
 10
1244.203956673636
 20
176.4112368402806
 30
0.0
 11
1244.203956673636
 21
177.8112458402806
 31
0.0
  0
LINE
  5
80D
330
99D
100
AcDbEntity
  8
1
  6
Continuous
100
AcDbLine
 10
1245.003974673636
 20
162.8612488402806
 30
0.0
 11
1245.003974673636
 21
175.6112488402806
 31
0.0
  0
ARC
  5
80E
330
99D
100
AcDbEntity
  8
1
  6
Continuous
100
AcDbCircle
 10
1243.503974673636
 20
101.1112488402808
 30
0.0
 40
95.25
100
AcDbArc
 50
89.69441699999485
 51
94.15212269290167
  0
ARC
  5
80F
330
99D
100
AcDbEntity
  8
1
  6
Continuous
100
AcDbCircle
 10
1240.503974673636
 20
194.8132298402804
 30
0.0
 40
1.5
100
AcDbArc
 50
91.83376800000083
 51
120.0777625621449
  0
LINE
  5
810
330
99D
100
AcDbEntity
  8
1
  6
Continuous
100
AcDbLine
 10
1234.709656818829
 20
196.1112488402808
 30
0.0
 11
1234.724952673636
 21
196.3522918402808
 31
0.0
  0
LINE
  5
811
330
99D
100
AcDbEntity
  8
1
  6
Continuous
100
AcDbLine
 10
1253.503959673636
 20
192.1112488402806
 30
0.0
 11
1253.503959673636
 21
195.9795658402804
 31
0.0
  0
ARC
  5
812
330
99D
100
AcDbEntity
  8
1
  6
Continuous
100
AcDbCircle
 10
1253.403968673636
 20
191.3612488402806
 30
0.0
 40
0.5
100
AcDbArc
 50
0.0
 51
89.99999900000515
  0
ARC
  5
813
330
99D
100
AcDbEntity
  8
1
  6
Continuous
100
AcDbCircle
 10
1253.153968673637
 20
191.6112488402806
 30
0.0
 40
0.5
100
AcDbArc
 50
89.99999900000515
 51
150.0000010000019
  0
LINE
  5
814
330
99D
100
AcDbEntity
  8
1
  6
Continuous
100
AcDbLine
 10
1253.903968673636
 20
190.1617558402805
 30
0.0
 11
1253.903968673636
 21
191.3612488402806
 31
0.0
  0
LINE
  5
815
330
99D
100
AcDbEntity
  8
1
  6
Continuous
100
AcDbLine
 10
1253.153968673637
 20
192.1112488402806
 30
0.0
 11
1253.503959673636
 21
192.1112488402806
 31
0.0
  0
LINE
  5
816
330
99D
100
AcDbEntity
  8
1
  6
Continuous
100
AcDbLine
 10
1248.253974673636
 20
192.1112488402806
 30
0.0
 11
1252.153968673636
 21
192.1112488402806
 31
0.0
  0
ARC
  5
817
330
99D
100
AcDbEntity
  8
1
  6
Continuous
100
AcDbCircle
 10
1244.003974673636
 20
194.8599068402808
 30
0.0
 40
1.5
100
AcDbArc
 50
0.0
 51
89.69441699999485
  0
LINE
  5
818
330
99D
100
AcDbEntity
  8
1
  6
Continuous
100
AcDbLine
 10
1245.503974673636
 20
192.1112488402806
 30
0.0
 11
1247.253974673636
 21
192.1112488402806
 31
0.0
  0
ARC
  5
819
330
99D
100
AcDbEntity
  8
1
  6
Continuous
100
AcDbCircle
 10
1245.503974673636
 20
191.3612488402806
 30
0.0
 40
0.5
100
AcDbArc
 50
89.99999900000515
 51
179.9999949999993
  0
LINE
  5
81A
330
99D
100
AcDbEntity
  8
1
  6
Continuous
100
AcDbLine
 10
1245.503974673636
 20
192.1112488402806
 30
0.0
 11
1245.503974673636
 21
194.8599068402808
 31
0.0
  0
ARC
  5
81B
330
99D
100
AcDbEntity
  8
1
  6
Continuous
100
AcDbCircle
 10
1248.253974673636
 20
191.6112488402806
 30
0.0
 40
0.5
100
AcDbArc
 50
89.99999900000515
 51
150.0000010000019
  0
ARC
  5
81C
330
99D
100
AcDbEntity
  8
1
  6
Continuous
100
AcDbCircle
 10
1247.253974673636
 20
191.6112488402806
 30
0.0
 40
0.5
100
AcDbArc
 50
30.00001100000341
 51
89.99999900000515
  0
LINE
  5
81D
330
99D
100
AcDbEntity
  8
1
  6
Continuous
100
AcDbLine
 10
1245.503974673636
 20
191.8612488402806
 30
0.0
 11
1253.403968673636
 21
191.8612488402806
 31
0.0
  0
ARC
  5
81E
330
99D
100
AcDbEntity
  8
1
  6
Continuous
100
AcDbCircle
 10
1252.153968673636
 20
191.6112488402806
 30
0.0
 40
0.5
100
AcDbArc
 50
30.00001100000341
 51
89.99999900000515
  0
LINE
  5
81F
330
99D
100
AcDbEntity
  8
1
  6
Continuous
100
AcDbLine
 10
1245.003974673636
 20
178.6112488402806
 30
0.0
 11
1245.003974673636
 21
191.3612488402806
 31
0.0
  0
ARC
  5
820
330
99D
100
AcDbEntity
  8
1
  6
Continuous
100
AcDbCircle
 10
1243.503974673636
 20
101.1112488402808
 30
0.0
 40
100.0
100
AcDbArc
 50
86.98304999999619
 51
92.2858450000017
  0
LINE
  5
821
330
99D
100
AcDbEntity
  8
1
  6
Continuous
100
AcDbLine
 10
1260.941047673636
 20
171.5464298402808
 30
0.0
 11
1287.518470673636
 21
173.1899998402807
 31
0.0
  0
LINE
  5
822
330
99D
100
AcDbEntity
  8
1
  6
Continuous
100
AcDbLine
 10
1260.941047673636
 20
182.6760688402806
 30
0.0
 11
1287.517356673636
 21
181.0325448402806
 31
0.0
  0
LINE
  5
823
330
99D
100
AcDbEntity
  8
4
  6
CENTER
100
AcDbLine
 10
1284.703956673636
 20
182.7093958247833
 30
0.0
 11
1284.703956673636
 21
171.5130824680704
 31
0.0
  0
ARC
  5
824
330
99D
100
AcDbEntity
  8
1
  6
Continuous
100
AcDbCircle
 10
1291.703956673636
 20
180.6112488402806
 30
0.0
 40
2.0
100
AcDbArc
 50
185.8200809999992
 51
269.9999970000023
  0
ARC
  5
825
330
99D
100
AcDbEntity
  8
1
  6
Continuous
100
AcDbCircle
 10
1293.903968673636
 20
177.8112458402806
 30
0.0
 40
0.8
100
AcDbArc
 50
0.0
 51
89.99999900000515
  0
ARC
  5
826
330
99D
100
AcDbEntity
  8
1
  6
Continuous
100
AcDbCircle
 10
1289.218681673636
 20
173.8802918402806
 30
0.0
 40
0.5
100
AcDbArc
 50
283.9092949999976
 51
352.3875400000004
  0
ARC
  5
827
330
99D
100
AcDbEntity
  8
1
  6
Continuous
100
AcDbCircle
 10
1291.703956673636
 20
173.6112488402806
 30
0.0
 40
2.0
100
AcDbArc
 50
89.99999900000515
 51
174.179923
  0
LINE
  5
828
330
99D
100
AcDbEntity
  8
1
  6
Continuous
100
AcDbLine
 10
1287.655357673636
 20
173.1987738402808
 30
0.0
 11
1287.518470673636
 21
173.1899998402807
 31
0.0
  0
LINE
  5
829
330
99D
100
AcDbEntity
  8
1
  6
Continuous
100
AcDbLine
 10
1288.698875673636
 20
173.2922338402804
 30
0.0
 11
1287.655357673636
 21
173.1987738402808
 31
0.0
  0
LINE
  5
82A
330
99D
100
AcDbEntity
  8
1
  6
Continuous
100
AcDbLine
 10
1289.338874673636
 20
173.3949408402808
 30
0.0
 11
1288.698875673636
 21
173.2922338402808
 31
0.0
  0
ARC
  5
82B
330
99D
100
AcDbEntity
  8
1
  6
Continuous
100
AcDbCircle
 10
1293.903968673636
 20
176.4112368402806
 30
0.0
 40
0.8
100
AcDbArc
 50
269.9999970000023
 51
0.0
  0
LINE
  5
82C
330
99D
100
AcDbEntity
  8
1
  6
Continuous
100
AcDbLine
 10
1294.703956673636
 20
176.4112368402806
 30
0.0
 11
1294.703956673636
 21
177.8112458402806
 31
0.0
  0
ARC
  5
82D
330
99D
100
AcDbEntity
  8
1
  6
Continuous
100
AcDbCircle
 10
1289.218681673636
 20
180.3421908402808
 30
0.0
 40
0.5
100
AcDbArc
 50
7.612453999999624
 51
76.09070199999928
  0
LINE
  5
82E
330
99D
100
AcDbEntity
  8
1
  6
Continuous
100
AcDbLine
 10
1288.595893673636
 20
180.9422578402808
 30
0.0
 11
1289.338874673636
 21
180.8275268402809
 31
0.0
  0
LINE
  5
82F
330
99D
100
AcDbEntity
  8
1
  6
Continuous
100
AcDbLine
 10
1287.518470673636
 20
181.0324838402807
 30
0.0
 11
1288.595893673636
 21
180.9422578402806
 31
0.0
  0
ARC
  5
830
330
99D
100
AcDbEntity
  8
1
  6
Continuous
100
AcDbCircle
 10
1370.438327172133
 20
200.3112488408915
 30
0.0
 40
0.8
100
AcDbArc
 50
90.0
 51
180.0
  0
ARC
  5
831
330
99D
100
AcDbEntity
  8
1
  6
Continuous
100
AcDbCircle
 10
1372.188329771158
 20
200.3112488408915
 30
0.0
 40
0.8
100
AcDbArc
 50
89.99999999999994
 51
179.9999999999998
  0
ARC
  5
832
330
99D
100
AcDbEntity
  8
1
  6
Continuous
100
AcDbCircle
 10
1375.338327172133
 20
200.3112488408915
 30
0.0
 40
0.8
100
AcDbArc
 50
0.000000000000007
 51
89.99999999999994
  0
ARC
  5
833
330
99D
100
AcDbEntity
  8
1
  6
Continuous
100
AcDbCircle
 10
1373.588324573107
 20
200.3112488408915
 30
0.0
 40
0.8
100
AcDbArc
 50
359.9999999999998
 51
90.0
  0
ARC
  5
834
330
99D
100
AcDbEntity
  8
1
  6
Continuous
100
AcDbCircle
 10
1370.061652172133
 20
191.3612488408917
 30
0.0
 40
0.5
100
AcDbArc
 50
0.000000000000007
 51
90.0
  0
LINE
  5
835
330
99D
100
AcDbEntity
  8
1
  6
Continuous
100
AcDbLine
 10
1376.138327172133
 20
196.1112488408917
 30
0.0
 11
1377.888327172133
 21
196.1112488408917
 31
0.0
  0
LINE
  5
836
330
99D
100
AcDbEntity
  8
1
  6
Continuous
100
AcDbLine
 10
1377.888327172133
 20
196.1112488408916
 30
0.0
 11
1377.888327172133
 21
191.761246590874
 31
0.0
  0
LINE
  5
837
330
99D
100
AcDbEntity
  8
1
  6
Continuous
100
AcDbLine
 10
1370.438327172133
 20
201.1112488408915
 30
0.0
 11
1375.338327172133
 21
201.1112488408915
 31
0.0
  0
LINE
  5
838
330
99D
100
AcDbEntity
  8
1
  6
Continuous
100
AcDbLine
 10
1374.388324573107
 20
200.3112488408915
 30
0.0
 11
1374.388324573107
 21
191.8612488408918
 31
0.0
  0
LINE
  5
839
330
99D
100
AcDbEntity
  8
1
  6
Continuous
100
AcDbLine
 10
1371.388329771158
 20
200.3112488408915
 30
0.0
 11
1371.388329771158
 21
191.8612488408918
 31
0.0
  0
LINE
  5
83A
330
99D
100
AcDbEntity
  8
1
  6
Continuous
100
AcDbLine
 10
1376.138327172133
 20
200.3112488408915
 30
0.0
 11
1376.138327172133
 21
191.8612488408917
 31
0.0
  0
LINE
  5
83B
330
99D
100
AcDbEntity
  8
1
  6
Continuous
100
AcDbLine
 10
1370.438327172133
 20
191.6900587318241
 30
0.0
 11
1370.438327172133
 21
191.8612488408917
 31
0.0
  0
ARC
  5
83C
330
99D
100
AcDbEntity
  8
1
  6
Continuous
100
AcDbCircle
 10
1375.388327172133
 20
191.3612488408917
 30
0.0
 40
0.5
100
AcDbArc
 50
90.0
 51
179.9999999999996
  0
ARC
  5
83D
330
99D
100
AcDbEntity
  8
1
  6
Continuous
100
AcDbCircle
 10
1377.588324172133
 20
191.3612488408917
 30
0.0
 40
0.5
100
AcDbArc
 50
0.000000000000007
 51
90.0
  0
LINE
  5
83E
330
99D
100
AcDbEntity
  8
1
  6
Continuous
100
AcDbLine
 10
1367.888327172132
 20
196.1112488408917
 30
0.0
 11
1367.888327172132
 21
191.8612488408917
 31
0.0
  0
LINE
  5
83F
330
99D
100
AcDbEntity
  8
1
  6
Continuous
100
AcDbLine
 10
1369.638327172133
 20
200.3112488408915
 30
0.0
 11
1369.638327172133
 21
191.8612488408917
 31
0.0
  0
LINE
  5
84B
330
99D
100
AcDbEntity
  8
1
  6
Continuous
100
AcDbLine
 10
158.8970312199482
 20
366.1718678893465
 30
0.0
 11
158.8970312199482
 21
357.7672658893464
 31
0.0
  0
LINE
  5
84C
330
99D
100
AcDbEntity
  8
1
  6
Continuous
100
AcDbLine
 10
159.3231022199481
 20
366.1718678893465
 30
0.0
 11
159.3231022199481
 21
357.7697678893465
 31
0.0
  0
LINE
  5
84D
330
99D
100
AcDbEntity
  8
1
  6
Continuous
100
AcDbLine
 10
171.1708340249687
 20
332.9218678893464
 30
0.0
 11
171.1708340249687
 21
370.9218678893464
 31
0.0
  0
LINE
  5
84E
330
99D
100
AcDbEntity
  8
1
  6
Continuous
100
AcDbLine
 10
167.3441752199481
 20
366.1718678893465
 30
0.0
 11
167.3441752199481
 21
353.4218678893465
 31
0.0
  0
ARC
  5
850
330
99D
100
AcDbEntity
  8
1
  6
Continuous
100
AcDbCircle
 10
150.944181219948
 20
364.9724048893465
 30
0.0
 40
7.5
100
AcDbArc
 50
273.5387199999939
 51
359.9999949999994
  0
ARC
  5
851
330
99D
100
AcDbEntity
  8
1
  6
Continuous
100
AcDbCircle
 10
150.944181219948
 20
338.8713608893464
 30
0.0
 40
7.5
100
AcDbArc
 50
359.9999949999994
 51
86.46126999999754
  0
LINE
  5
852
330
99D
100
AcDbEntity
  8
1
  6
Continuous
100
AcDbLine
 10
167.3441752199481
 20
353.4218678893465
 30
0.0
 11
141.1530742199481
 21
353.4218678893465
 31
0.0
  0
LINE
  5
853
330
99D
100
AcDbEntity
  8
1
  6
Continuous
100
AcDbLine
 10
167.3441752199481
 20
350.4218678893465
 30
0.0
 11
141.1530742199481
 21
350.4218678893465
 31
0.0
  0
LINE
  5
854
330
99D
100
AcDbEntity
  8
1
  6
Continuous
100
AcDbLine
 10
157.0575992199481
 20
355.7737198893465
 30
0.0
 11
137.4423192199482
 21
354.1938248893464
 31
0.0
  0
LINE
  5
855
330
99D
100
AcDbEntity
  8
1
  6
Continuous
100
AcDbLine
 10
157.0575992199481
 20
348.0700298893464
 30
0.0
 11
137.4423192199482
 21
349.6499248893465
 31
0.0
  0
LINE
  5
856
330
99D
100
AcDbEntity
  8
1
  6
Continuous
100
AcDbLine
 10
137.446104219948
 20
354.1895368893464
 30
0.0
 11
157.4809852199481
 21
355.7760088893464
 31
0.0
  0
LINE
  5
857
330
99D
100
AcDbEntity
  8
1
  6
Continuous
100
AcDbLine
 10
157.4809852199481
 20
348.0677418893464
 30
0.0
 11
137.446104219948
 21
349.6542128893465
 31
0.0
  0
LINE
  5
858
330
99D
100
AcDbEntity
  8
1
  6
Continuous
100
AcDbLine
 10
124.8296792199482
 20
348.0006328893465
 30
0.0
 11
123.7522562199482
 21
348.0908588893464
 31
0.0
  0
LINE
  5
859
330
99D
100
AcDbEntity
  8
1
  6
Continuous
100
AcDbLine
 10
123.6492742199484
 20
355.7408828893465
 30
0.0
 11
124.6927922199483
 21
355.8343428893464
 31
0.0
  0
LINE
  5
85A
330
99D
100
AcDbEntity
  8
1
  6
Continuous
100
AcDbLine
 10
124.4169742199481
 20
348.7226638893466
 30
0.0
 11
125.1518232199481
 21
348.7694628893465
 31
0.0
  0
LINE
  5
85B
330
99D
100
AcDbEntity
  8
1
  6
Continuous
100
AcDbLine
 10
125.1518232199481
 20
355.0742878893464
 30
0.0
 11
124.3569922199483
 21
355.1257708893463
 31
0.0
  0
LINE
  5
85C
330
99D
100
AcDbEntity
  8
1
  6
Continuous
100
AcDbLine
 10
132.8809792199483
 20
353.4218678893464
 30
0.0
 11
118.4441812199481
 21
353.4218678893464
 31
0.0
  0
LINE
  5
85D
330
99D
100
AcDbEntity
  8
1
  6
Continuous
100
AcDbLine
 10
132.8809792199483
 20
350.4218678893464
 30
0.0
 11
118.4441812199481
 21
350.4218678893464
 31
0.0
  0
LINE
  5
85E
330
99D
100
AcDbEntity
  8
1
  6
Continuous
100
AcDbLine
 10
117.6441932199481
 20
352.6218798893465
 30
0.0
 11
117.6441932199481
 21
351.2218708893465
 31
0.0
  0
LINE
  5
85F
330
99D
100
AcDbEntity
  8
1
  6
Continuous
100
AcDbLine
 10
123.4111002199483
 20
348.6175158893465
 30
0.0
 11
124.4169742199481
 21
348.7226638893466
 31
0.0
  0
ARC
  5
860
330
99D
100
AcDbEntity
  8
1
  6
Continuous
100
AcDbCircle
 10
120.6441932199481
 20
348.4218678893465
 30
0.0
 40
2.0
100
AcDbArc
 50
5.820080999999309
 51
89.99999700000229
  0
LINE
  5
861
330
99D
100
AcDbEntity
  8
1
  6
Continuous
100
AcDbLine
 10
123.7522562199482
 20
348.0908588893464
 30
0.0
 11
123.0092752199481
 21
348.2055898893464
 31
0.0
  0
LINE
  5
862
330
99D
100
AcDbEntity
  8
1
  6
Continuous
100
AcDbLine
 10
122.8990002199482
 20
348.5189748893465
 30
0.0
 11
123.4111002199481
 21
348.6175158893465
 31
0.0
  0
LINE
  5
863
330
99D
100
AcDbEntity
  8
1
  6
Continuous
100
AcDbLine
 10
122.6962712199483
 20
348.4412458893465
 30
0.0
 11
122.8990002199482
 21
348.5189748893465
 31
0.0
  0
ARC
  5
864
330
99D
100
AcDbEntity
  8
1
  6
Continuous
100
AcDbCircle
 10
123.1294682199481
 20
348.6909258893465
 30
0.0
 40
0.5
100
AcDbArc
 50
187.6124539999995
 51
256.0907019999993
  0
ARC
  5
865
330
99D
100
AcDbEntity
  8
1
  6
Continuous
100
AcDbCircle
 10
118.4441812199481
 20
351.2218708893465
 30
0.0
 40
0.8
100
AcDbArc
 50
180.0
 51
269.9999990000051
  0
LINE
  5
866
330
99D
100
AcDbEntity
  8
1
  6
Continuous
100
AcDbLine
 10
124.3569922199485
 20
355.1257708893465
 30
0.0
 11
123.6874822199482
 21
355.1902998893464
 31
0.0
  0
ARC
  5
867
330
99D
100
AcDbEntity
  8
1
  6
Continuous
100
AcDbCircle
 10
118.4441812199481
 20
352.6218798893465
 30
0.0
 40
0.8
100
AcDbArc
 50
89.99999700000229
 51
180.0
  0
ARC
  5
868
330
99D
100
AcDbEntity
  8
1
  6
Continuous
100
AcDbCircle
 10
120.6441932199481
 20
355.4218678893465
 30
0.0
 40
2.0
100
AcDbArc
 50
269.9999990000051
 51
354.1799230000001
  0
LINE
  5
869
330
99D
100
AcDbEntity
  8
1
  6
Continuous
100
AcDbLine
 10
123.0092752199481
 20
355.6381758893465
 30
0.0
 11
123.6492742199481
 21
355.7408828893465
 31
0.0
  0
LINE
  5
86A
330
99D
100
AcDbEntity
  8
1
  6
Continuous
100
AcDbLine
 10
122.9112522199482
 20
355.3214648893466
 30
0.0
 11
122.6962712199483
 21
355.4025038893465
 31
0.0
  0
LINE
  5
86B
330
99D
100
AcDbEntity
  8
1
  6
Continuous
100
AcDbLine
 10
123.2397442199482
 20
355.2529828893467
 30
0.0
 11
122.9112522199482
 21
355.3214648893466
 31
0.0
  0
LINE
  5
86C
330
99D
100
AcDbEntity
  8
1
  6
Continuous
100
AcDbLine
 10
123.687482219948
 20
355.1902998893464
 30
0.0
 11
123.239744219948
 21
355.2529828893464
 31
0.0
  0
ARC
  5
86D
330
99D
100
AcDbEntity
  8
1
  6
Continuous
100
AcDbCircle
 10
123.1294682199481
 20
355.1528248893465
 30
0.0
 40
0.5
100
AcDbArc
 50
103.9092949999976
 51
172.3875400000004
  0
LINE
  5
86E
330
99D
100
AcDbEntity
  8
1
  6
Continuous
100
AcDbLine
 10
141.1530742199481
 20
353.4218678893465
 30
0.0
 11
141.1530742199481
 21
350.4218678893465
 31
0.0
  0
LINE
  5
86F
330
99D
100
AcDbEntity
  8
1
  6
Continuous
100
AcDbLine
 10
137.6441932199481
 20
353.6625598893463
 30
0.0
 11
137.6441932199481
 21
350.1811908893464
 31
0.0
  0
LINE
  5
870
330
99D
100
AcDbEntity
  8
4
  6
CENTER
100
AcDbLine
 10
127.6441932199481
 20
346.3237209048439
 30
0.0
 11
127.6441932199481
 21
357.5200342615568
 31
0.0
  0
LINE
  5
871
330
99D
100
AcDbEntity
  8
1
  6
Continuous
100
AcDbLine
 10
151.4071022199481
 20
346.3570478893467
 30
0.0
 11
124.830793219948
 21
348.0005718893465
 31
0.0
  0
LINE
  5
872
330
99D
100
AcDbEntity
  8
1
  6
Continuous
100
AcDbLine
 10
127.8140542199482
 20
350.4218678893465
 30
0.0
 11
127.8140542199482
 21
348.9085008893464
 31
0.0
  0
LINE
  5
873
330
99D
100
AcDbEntity
  8
1
  6
Continuous
100
AcDbLine
 10
131.5498332199481
 20
350.4218678893465
 30
0.0
 11
131.5498332199481
 21
349.1035998893465
 31
0.0
  0
ARC
  5
874
330
99D
100
AcDbEntity
  8
1
  6
Continuous
100
AcDbCircle
 10
136.8441902199481
 20
350.1811908893464
 30
0.0
 40
0.8
100
AcDbArc
 50
272.9895460000001
 51
359.9999949999994
  0
LINE
  5
875
330
99D
100
AcDbEntity
  8
1
  6
Continuous
100
AcDbLine
 10
136.8859082199481
 20
349.3822708893465
 30
0.0
 11
125.1513492199481
 21
348.7694478893465
 31
0.0
  0
LINE
  5
876
330
99D
100
AcDbEntity
  8
1
  6
Continuous
100
AcDbLine
 10
151.4071022199481
 20
357.4866868893462
 30
0.0
 11
124.8296792199482
 21
355.8431168893464
 31
0.0
  0
LINE
  5
877
330
99D
100
AcDbEntity
  8
1
  6
Continuous
100
AcDbLine
 10
127.8140542199482
 20
354.9352498893465
 30
0.0
 11
127.8140542199482
 21
353.4218678893465
 31
0.0
  0
LINE
  5
878
330
99D
100
AcDbEntity
  8
1
  6
Continuous
100
AcDbLine
 10
131.5498332199483
 20
354.7401508893465
 30
0.0
 11
131.5498332199483
 21
353.4218678893464
 31
0.0
  0
ARC
  5
879
330
99D
100
AcDbEntity
  8
1
  6
Continuous
100
AcDbCircle
 10
136.8441902199481
 20
353.6625598893465
 30
0.0
 40
0.8
100
AcDbArc
 50
359.9999949999994
 51
87.01046499999725
  0
LINE
  5
87A
330
99D
100
AcDbEntity
  8
1
  6
Continuous
100
AcDbLine
 10
124.6927922199483
 20
355.8343428893463
 30
0.0
 11
124.8296792199482
 21
355.8431168893464
 31
0.0
  0
LINE
  5
87B
330
99D
100
AcDbEntity
  8
1
  6
Continuous
100
AcDbLine
 10
136.8859082199481
 20
354.4614788893464
 30
0.0
 11
125.1518232199481
 21
355.0742878893465
 31
0.0
  0
LINE
  5
87C
330
99D
100
AcDbEntity
  8
1
  6
Continuous
100
AcDbLine
 10
167.3441752199481
 20
350.4218678893465
 30
0.0
 11
167.3441752199481
 21
337.6718678893465
 31
0.0
  0
LINE
  5
87D
330
99D
100
AcDbEntity
  8
1
  6
Continuous
100
AcDbLine
 10
158.8970312199482
 20
346.0764848893465
 30
0.0
 11
158.8970312199482
 21
337.6718678893464
 31
0.0
  0
LINE
  5
87E
330
99D
100
AcDbEntity
  8
1
  6
Continuous
100
AcDbLine
 10
159.3231022199481
 20
346.0739818893464
 30
0.0
 11
159.3231022199481
 21
337.6718678893465
 31
0.0
  0
ARC
  5
87F
330
99D
100
AcDbEntity
  8
1
  6
Continuous
100
AcDbCircle
 10
172.6332372199481
 20
332.9974598893465
 30
0.0
 40
5.0
100
AcDbArc
 50
272.2858450000015
 51
356.3690260712363
  0
ARC
  5
880
330
99D
100
AcDbEntity
  8
1
  6
Continuous
100
AcDbCircle
 10
163.8441752199482
 20
333.0535508893466
 30
0.0
 40
5.0
100
AcDbArc
 50
180.0
 51
266.9830499999961
  0
LINE
  5
881
330
99D
100
AcDbEntity
  8
1
  6
Continuous
100
AcDbLine
 10
168.0941752199482
 20
332.6941908893465
 30
0.0
 11
168.0941752199482
 21
327.9246898893465
 31
0.0
  0
ARC
  5
882
330
99D
100
AcDbEntity
  8
1
  6
Continuous
100
AcDbCircle
 10
168.8441752199482
 20
427.9218678893465
 30
0.0
 40
100.0
100
AcDbArc
 50
266.9830499999961
 51
272.2858450000015
  0
LINE
  5
883
330
99D
100
AcDbEntity
  8
1
  6
Continuous
100
AcDbLine
 10
166.8441752199482
 20
337.1718678893466
 30
0.0
 11
158.944181219948
 21
337.1718678893466
 31
0.0
  0
LINE
  5
884
330
99D
100
AcDbEntity
  8
1
  6
Continuous
100
AcDbLine
 10
166.8441752199482
 20
336.9218678893466
 30
0.0
 11
165.0941752199481
 21
336.9218678893466
 31
0.0
  0
ARC
  5
885
330
99D
100
AcDbEntity
  8
1
  6
Continuous
100
AcDbCircle
 10
158.944181219948
 20
337.6718678893465
 30
0.0
 40
0.5
100
AcDbArc
 50
180.0
 51
269.9999990000051
  0
LINE
  5
886
330
99D
100
AcDbEntity
  8
1
  6
Continuous
100
AcDbLine
 10
158.8441902199481
 20
336.9218678893465
 30
0.0
 11
158.8441902199481
 21
333.0535508893466
 31
0.0
  0
LINE
  5
887
330
99D
100
AcDbEntity
  8
1
  6
Continuous
100
AcDbLine
 10
164.0941752199482
 20
336.9218678893466
 30
0.0
 11
160.1941812199481
 21
336.9218678893466
 31
0.0
  0
ARC
  5
888
330
99D
100
AcDbEntity
  8
1
  6
Continuous
100
AcDbCircle
 10
159.3970312199481
 20
337.6718678893465
 30
0.0
 40
0.5
100
AcDbArc
 50
180.0
 51
269.9999990000051
  0
ARC
  5
889
330
99D
100
AcDbEntity
  8
1
  6
Continuous
100
AcDbCircle
 10
159.8231022199481
 20
337.6718678893465
 30
0.0
 40
0.5
100
AcDbArc
 50
180.0
 51
269.9999990000051
  0
ARC
  5
88A
330
99D
100
AcDbEntity
  8
1
  6
Continuous
100
AcDbCircle
 10
160.1941812199481
 20
337.4218678893465
 30
0.0
 40
0.5
100
AcDbArc
 50
210.0000110000004
 51
269.9999990000051
  0
ARC
  5
88B
330
99D
100
AcDbEntity
  8
1
  6
Continuous
100
AcDbCircle
 10
159.1941812199481
 20
337.4218678893465
 30
0.0
 40
0.5
100
AcDbArc
 50
269.9999990000051
 51
330.0000010000018
  0
LINE
  5
88C
330
99D
100
AcDbEntity
  8
1
  6
Continuous
100
AcDbLine
 10
159.1941812199481
 20
336.9218678893466
 30
0.0
 11
158.8441902199481
 21
336.9218678893466
 31
0.0
  0
ARC
  5
88D
330
99D
100
AcDbEntity
  8
1
  6
Continuous
100
AcDbCircle
 10
164.0941752199482
 20
337.4218678893465
 30
0.0
 40
0.5
100
AcDbArc
 50
269.9999990000051
 51
330.0000010000018
  0
ARC
  5
88E
330
99D
100
AcDbEntity
  8
1
  6
Continuous
100
AcDbCircle
 10
165.0941752199481
 20
337.4218678893465
 30
0.0
 40
0.5
100
AcDbArc
 50
210.0000110000004
 51
269.9999990000051
  0
LINE
  5
88F
330
99D
100
AcDbEntity
  8
1
  6
Continuous
100
AcDbLine
 10
158.444181219948
 20
338.8713608893464
 30
0.0
 11
158.444181219948
 21
337.6718678893465
 31
0.0
  0
ARC
  5
890
330
99D
100
AcDbEntity
  8
1
  6
Continuous
100
AcDbCircle
 10
168.8441752199482
 20
427.9218678893465
 30
0.0
 40
95.25
100
AcDbArc
 50
269.6944169999948
 51
274.1521226929015
  0
ARC
  5
891
330
99D
100
AcDbEntity
  8
1
  6
Continuous
100
AcDbCircle
 10
171.8441752199481
 20
334.2198868893466
 30
0.0
 40
1.5
100
AcDbArc
 50
271.8337680000008
 51
300.0777625621449
  0
LINE
  5
892
330
99D
100
AcDbEntity
  8
1
  6
Continuous
100
AcDbLine
 10
177.638494014684
 20
332.9218678887357
 30
0.0
 11
177.6231972199484
 21
332.6808098887357
 31
0.0
  0
ARC
  5
893
330
99D
100
AcDbEntity
  8
1
  6
Continuous
100
AcDbCircle
 10
166.8441752199482
 20
337.6718678893465
 30
0.0
 40
0.5
100
AcDbArc
 50
269.9999990000051
 51
359.9999949999994
  0
LINE
  5
894
330
99D
100
AcDbEntity
  8
1
  6
Continuous
100
AcDbLine
 10
166.8441752199482
 20
336.9218678893465
 30
0.0
 11
166.8441752199482
 21
334.1732098893466
 31
0.0
  0
ARC
  5
895
330
99D
100
AcDbEntity
  8
1
  6
Continuous
100
AcDbCircle
 10
168.3441752199481
 20
334.1732098893466
 30
0.0
 40
1.5
100
AcDbArc
 50
180.0
 51
269.6944169999948
  0
LINE
  5
896
330
99D
100
AcDbEntity
  8
1
  6
Continuous
100
AcDbLine
 10
168.1441932199481
 20
352.6218798893465
 30
0.0
 11
168.1441932199481
 21
351.2218708893465
 31
0.0
  0
ARC
  5
897
330
99D
100
AcDbEntity
  8
1
  6
Continuous
100
AcDbCircle
 10
156.8970312199482
 20
346.0764848893465
 30
0.0
 40
2.0
100
AcDbArc
 50
359.9999949999994
 51
85.39509799999434
  0
ARC
  5
898
330
99D
100
AcDbEntity
  8
1
  6
Continuous
100
AcDbCircle
 10
157.3231022199481
 20
346.0739818893464
 30
0.0
 40
2.0
100
AcDbArc
 50
359.9999949999994
 51
85.47245599999389
  0
ARC
  5
899
330
99D
100
AcDbEntity
  8
1
  6
Continuous
100
AcDbCircle
 10
167.3441752199481
 20
351.2218708893465
 30
0.0
 40
0.8
100
AcDbArc
 50
269.9999990000051
 51
359.9999949999994
  0
ARC
  5
89A
330
99D
100
AcDbEntity
  8
1
  6
Continuous
100
AcDbCircle
 10
156.8970312199482
 20
357.7672658893464
 30
0.0
 40
2.0
100
AcDbArc
 50
274.6049129999964
 51
359.9999949999994
  0
ARC
  5
89B
330
99D
100
AcDbEntity
  8
1
  6
Continuous
100
AcDbCircle
 10
157.3231022199481
 20
357.7697678893465
 30
0.0
 40
2.0
100
AcDbArc
 50
274.527539999999
 51
359.9999949999994
  0
ARC
  5
89C
330
99D
100
AcDbEntity
  8
1
  6
Continuous
100
AcDbCircle
 10
167.3441752199481
 20
352.6218798893465
 30
0.0
 40
0.8
100
AcDbArc
 50
359.9999949999994
 51
89.99999700000229
  0
LINE
  5
89D
330
99D
100
AcDbEntity
  8
1
  6
Continuous
100
AcDbLine
 10
168.0941752199482
 20
375.9190598893464
 30
0.0
 11
168.0941752199482
 21
371.1495588893464
 31
0.0
  0
ARC
  5
89E
330
99D
100
AcDbEntity
  8
1
  6
Continuous
100
AcDbCircle
 10
163.8441752199482
 20
370.7902148893465
 30
0.0
 40
5.0
100
AcDbArc
 50
93.01696000000356
 51
180.0
  0
ARC
  5
89F
330
99D
100
AcDbEntity
  8
1
  6
Continuous
100
AcDbCircle
 10
172.6332372199481
 20
370.8462758893465
 30
0.0
 40
5.0
100
AcDbArc
 50
3.630937000000336
 51
87.71415899999515
  0
LINE
  5
8A0
330
99D
100
AcDbEntity
  8
1
  6
Continuous
100
AcDbLine
 10
166.8441752199482
 20
366.6718678893465
 30
0.0
 11
158.944181219948
 21
366.6718678893465
 31
0.0
  0
LINE
  5
8A1
330
99D
100
AcDbEntity
  8
1
  6
Continuous
100
AcDbLine
 10
166.8441752199482
 20
366.9218678893465
 30
0.0
 11
165.0941752199481
 21
366.9218678893465
 31
0.0
  0
LINE
  5
8A2
330
99D
100
AcDbEntity
  8
1
  6
Continuous
100
AcDbLine
 10
158.444181219948
 20
366.1718678893465
 30
0.0
 11
158.444181219948
 21
364.9724048893465
 31
0.0
  0
ARC
  5
8A3
330
99D
100
AcDbEntity
  8
1
  6
Continuous
100
AcDbCircle
 10
158.944181219948
 20
366.1718678893465
 30
0.0
 40
0.5
100
AcDbArc
 50
89.99999700000229
 51
180.0
  0
LINE
  5
8A4
330
99D
100
AcDbEntity
  8
1
  6
Continuous
100
AcDbLine
 10
164.0941752199482
 20
366.9218678893465
 30
0.0
 11
160.1941812199481
 21
366.9218678893465
 31
0.0
  0
ARC
  5
8A5
330
99D
100
AcDbEntity
  8
1
  6
Continuous
100
AcDbCircle
 10
159.3970312199481
 20
366.1718678893465
 30
0.0
 40
0.5
100
AcDbArc
 50
89.99999700000229
 51
180.0
  0
ARC
  5
8A6
330
99D
100
AcDbEntity
  8
1
  6
Continuous
100
AcDbCircle
 10
159.8231022199481
 20
366.1718678893465
 30
0.0
 40
0.5
100
AcDbArc
 50
89.99999700000229
 51
180.0
  0
ARC
  5
8A7
330
99D
100
AcDbEntity
  8
1
  6
Continuous
100
AcDbCircle
 10
160.1941812199481
 20
366.4218678893464
 30
0.0
 40
0.5
100
AcDbArc
 50
89.99999700000229
 51
150.0000000000027
  0
ARC
  5
8A8
330
99D
100
AcDbEntity
  8
1
  6
Continuous
100
AcDbCircle
 10
159.1941812199481
 20
366.4218678893464
 30
0.0
 40
0.5
100
AcDbArc
 50
30.00000299999884
 51
89.99999700000229
  0
LINE
  5
8A9
330
99D
100
AcDbEntity
  8
1
  6
Continuous
100
AcDbLine
 10
159.1941812199481
 20
366.9218678893465
 30
0.0
 11
158.8441902199483
 21
366.9218678893465
 31
0.0
  0
LINE
  5
8AA
330
99D
100
AcDbEntity
  8
1
  6
Continuous
100
AcDbLine
 10
158.8441902199483
 20
370.7902148893465
 30
0.0
 11
158.8441902199483
 21
366.9218678893465
 31
0.0
  0
ARC
  5
8AB
330
99D
100
AcDbEntity
  8
1
  6
Continuous
100
AcDbCircle
 10
164.0941752199482
 20
366.4218678893464
 30
0.0
 40
0.5
100
AcDbArc
 50
30.00000299999884
 51
89.99999700000229
  0
ARC
  5
8AC
330
99D
100
AcDbEntity
  8
1
  6
Continuous
100
AcDbCircle
 10
165.0941752199481
 20
366.4218678893464
 30
0.0
 40
0.5
100
AcDbArc
 50
89.99999700000229
 51
150.0000000000027
  0
ARC
  5
8AD
330
99D
100
AcDbEntity
  8
1
  6
Continuous
100
AcDbCircle
 10
168.8441752199482
 20
275.9218678893465
 30
0.0
 40
95.25
100
AcDbArc
 50
85.84787730709837
 51
90.30558000000384
  0
ARC
  5
8AE
330
99D
100
AcDbEntity
  8
1
  6
Continuous
100
AcDbCircle
 10
171.8441752199481
 20
369.6238628893464
 30
0.0
 40
1.5
100
AcDbArc
 50
59.92117044110886
 51
88.16622199999669
  0
LINE
  5
8AF
330
99D
100
AcDbEntity
  8
1
  6
Continuous
100
AcDbLine
 10
177.638494014684
 20
370.9218678893464
 30
0.0
 11
177.6231972199484
 21
371.1629258893462
 31
0.0
  0
ARC
  5
8B0
330
99D
100
AcDbEntity
  8
1
  6
Continuous
100
AcDbCircle
 10
166.8441752199482
 20
366.1718678893465
 30
0.0
 40
0.5
100
AcDbArc
 50
359.9999949999994
 51
89.99999700000229
  0
LINE
  5
8B1
330
99D
100
AcDbEntity
  8
1
  6
Continuous
100
AcDbLine
 10
166.8441752199482
 20
369.6705398893464
 30
0.0
 11
166.8441752199482
 21
366.9218678893465
 31
0.0
  0
ARC
  5
8B2
330
99D
100
AcDbEntity
  8
1
  6
Continuous
100
AcDbCircle
 10
168.3441752199481
 20
369.6705398893464
 30
0.0
 40
1.5
100
AcDbArc
 50
90.30558000000384
 51
180.0
  0
ARC
  5
8B3
330
99D
100
AcDbEntity
  8
1
  6
Continuous
100
AcDbCircle
 10
168.8441752199482
 20
275.9218678893465
 30
0.0
 40
100.0
100
AcDbArc
 50
87.71415899999515
 51
93.01696000000356
  0
LINE
  5
8B6
330
99D
100
AcDbEntity
  8
1
  6
Continuous
100
AcDbLine
 10
1253.451118673636
 20
366.1718678893465
 30
0.0
 11
1253.451118673636
 21
357.7672658893464
 31
0.0
  0
LINE
  5
8B7
330
99D
100
AcDbEntity
  8
1
  6
Continuous
100
AcDbLine
 10
1253.025047673636
 20
366.1718678893465
 30
0.0
 11
1253.025047673636
 21
357.7697678893466
 31
0.0
  0
LINE
  5
8B8
330
99D
100
AcDbEntity
  8
1
  6
Continuous
100
AcDbLine
 10
1241.170834024968
 20
370.9218678893464
 30
0.0
 11
1241.170834024968
 21
332.9218678893465
 31
0.0
  0
LINE
  5
8B9
330
99D
100
AcDbEntity
  8
1
  6
Continuous
100
AcDbLine
 10
1245.003974673636
 20
366.1718678893465
 30
0.0
 11
1245.003974673636
 21
353.4218678893465
 31
0.0
  0
ARC
  5
8BB
330
99D
100
AcDbEntity
  8
1
  6
Continuous
100
AcDbCircle
 10
1261.403968673636
 20
364.9724048893465
 30
0.0
 40
7.5
100
AcDbArc
 50
180.0000050000005
 51
266.4612800000061
  0
ARC
  5
8BC
330
99D
100
AcDbEntity
  8
1
  6
Continuous
100
AcDbCircle
 10
1239.714912673636
 20
332.9974598893465
 30
0.0
 40
5.0
100
AcDbArc
 50
183.630933999999
 51
267.7141549999983
  0
LINE
  5
8BD
330
99D
100
AcDbEntity
  8
1
  6
Continuous
100
AcDbLine
 10
1287.518470673636
 20
348.0006328893466
 30
0.0
 11
1288.595893673636
 21
348.0908588893465
 31
0.0
  0
LINE
  5
8BE
330
99D
100
AcDbEntity
  8
1
  6
Continuous
100
AcDbLine
 10
1288.937049673636
 20
348.6175158893467
 30
0.0
 11
1287.931175673636
 21
348.7226638893467
 31
0.0
  0
LINE
  5
8BF
330
99D
100
AcDbEntity
  8
1
  6
Continuous
100
AcDbLine
 10
1288.698875673636
 20
355.7408828893466
 30
0.0
 11
1287.655357673636
 21
355.8343428893464
 31
0.0
  0
LINE
  5
8C0
330
99D
100
AcDbEntity
  8
1
  6
Continuous
100
AcDbLine
 10
1287.991157673636
 20
355.1257708893465
 30
0.0
 11
1288.660667673636
 21
355.1902998893464
 31
0.0
  0
LINE
  5
8C1
330
99D
100
AcDbEntity
  8
1
  6
Continuous
100
AcDbLine
 10
1279.467170673636
 20
353.4218678893465
 30
0.0
 11
1293.903968673636
 21
353.4218678893465
 31
0.0
  0
LINE
  5
8C2
330
99D
100
AcDbEntity
  8
1
  6
Continuous
100
AcDbLine
 10
1279.467170673636
 20
350.4218678893465
 30
0.0
 11
1293.903968673636
 21
350.4218678893465
 31
0.0
  0
LINE
  5
8C3
330
99D
100
AcDbEntity
  8
1
  6
Continuous
100
AcDbLine
 10
1245.003974673636
 20
350.4218678893467
 30
0.0
 11
1245.003974673636
 21
337.6718678893467
 31
0.0
  0
LINE
  5
8C4
330
99D
100
AcDbEntity
  8
1
  6
Continuous
100
AcDbLine
 10
1253.451118673636
 20
346.0764848893465
 30
0.0
 11
1253.451118673636
 21
337.6718678893465
 31
0.0
  0
LINE
  5
8C5
330
99D
100
AcDbEntity
  8
1
  6
Continuous
100
AcDbLine
 10
1253.025047673636
 20
346.0739818893466
 30
0.0
 11
1253.025047673636
 21
337.6718678893467
 31
0.0
  0
ARC
  5
8C6
330
99D
100
AcDbEntity
  8
1
  6
Continuous
100
AcDbCircle
 10
1261.403968673636
 20
338.8713608893465
 30
0.0
 40
7.5
100
AcDbArc
 50
93.53873000000247
 51
180.0000050000005
  0
ARC
  5
8C7
330
99D
100
AcDbEntity
  8
1
  6
Continuous
100
AcDbCircle
 10
1248.503974673636
 20
333.0535508893467
 30
0.0
 40
5.0
100
AcDbArc
 50
273.0169500000039
 51
0.0
  0
LINE
  5
8C8
330
99D
100
AcDbEntity
  8
1
  6
Continuous
100
AcDbLine
 10
1244.253974673636
 20
332.6941908893465
 30
0.0
 11
1244.253974673636
 21
327.9246898893466
 31
0.0
  0
ARC
  5
8C9
330
99D
100
AcDbEntity
  8
1
  6
Continuous
100
AcDbCircle
 10
1243.503974673636
 20
427.9218678893465
 30
0.0
 40
100.0
100
AcDbArc
 50
267.7141549999983
 51
273.0169500000039
  0
LINE
  5
8CA
330
99D
100
AcDbEntity
  8
1
  6
Continuous
100
AcDbLine
 10
1245.503974673636
 20
337.1718678893466
 30
0.0
 11
1253.403968673636
 21
337.1718678893466
 31
0.0
  0
ARC
  5
8CB
330
99D
100
AcDbEntity
  8
1
  6
Continuous
100
AcDbCircle
 10
1248.253974673636
 20
337.4218678893466
 30
0.0
 40
0.5
100
AcDbArc
 50
209.999998999998
 51
270.0000009999949
  0
ARC
  5
8CC
330
99D
100
AcDbEntity
  8
1
  6
Continuous
100
AcDbCircle
 10
1244.003974673636
 20
334.1732098893466
 30
0.0
 40
1.5
100
AcDbArc
 50
270.3055830000051
 51
0.0
  0
LINE
  5
8CD
330
99D
100
AcDbEntity
  8
1
  6
Continuous
100
AcDbLine
 10
1245.503974673636
 20
336.9218678893466
 30
0.0
 11
1247.253974673636
 21
336.9218678893466
 31
0.0
  0
ARC
  5
8CE
330
99D
100
AcDbEntity
  8
1
  6
Continuous
100
AcDbCircle
 10
1245.503974673636
 20
337.6718678893467
 30
0.0
 40
0.5
100
AcDbArc
 50
180.0000050000005
 51
270.0000009999949
  0
LINE
  5
8CF
330
99D
100
AcDbEntity
  8
1
  6
Continuous
100
AcDbLine
 10
1245.503974673636
 20
336.9218678893466
 30
0.0
 11
1245.503974673636
 21
334.1732098893466
 31
0.0
  0
ARC
  5
8D0
330
99D
100
AcDbEntity
  8
1
  6
Continuous
100
AcDbCircle
 10
1247.253974673636
 20
337.4218678893466
 30
0.0
 40
0.5
100
AcDbArc
 50
270.0000009999949
 51
329.9999889999966
  0
LINE
  5
8D1
330
99D
100
AcDbEntity
  8
1
  6
Continuous
100
AcDbLine
 10
1234.709656818829
 20
332.9218678893465
 30
0.0
 11
1234.724952673636
 21
332.6808248893466
 31
0.0
  0
ARC
  5
8D2
330
99D
100
AcDbEntity
  8
1
  6
Continuous
100
AcDbCircle
 10
1240.503974673636
 20
334.2198868893467
 30
0.0
 40
1.5
100
AcDbArc
 50
239.9222374378549
 51
268.1662319999992
  0
ARC
  5
8D3
330
99D
100
AcDbEntity
  8
1
  6
Continuous
100
AcDbCircle
 10
1243.503974673636
 20
427.9218678893465
 30
0.0
 40
95.25
100
AcDbArc
 50
265.8478773070983
 51
270.3055830000051
  0
LINE
  5
8D4
330
99D
100
AcDbEntity
  8
1
  6
Continuous
100
AcDbLine
 10
1248.253974673636
 20
336.9218678893466
 30
0.0
 11
1252.153968673636
 21
336.9218678893466
 31
0.0
  0
LINE
  5
8D5
330
99D
100
AcDbEntity
  8
1
  6
Continuous
100
AcDbLine
 10
1253.503959673636
 20
336.9218678893466
 30
0.0
 11
1253.503959673636
 21
333.0535508893467
 31
0.0
  0
ARC
  5
8D6
330
99D
100
AcDbEntity
  8
1
  6
Continuous
100
AcDbCircle
 10
1253.403968673636
 20
337.6718678893467
 30
0.0
 40
0.5
100
AcDbArc
 50
270.0000009999949
 51
0.0
  0
ARC
  5
8D7
330
99D
100
AcDbEntity
  8
1
  6
Continuous
100
AcDbCircle
 10
1252.951118673636
 20
337.6718678893467
 30
0.0
 40
0.5
100
AcDbArc
 50
270.0000009999949
 51
0.0
  0
ARC
  5
8D8
330
99D
100
AcDbEntity
  8
1
  6
Continuous
100
AcDbCircle
 10
1252.525047673636
 20
337.6718678893467
 30
0.0
 40
0.5
100
AcDbArc
 50
270.0000009999949
 51
0.0
  0
ARC
  5
8D9
330
99D
100
AcDbEntity
  8
1
  6
Continuous
100
AcDbCircle
 10
1252.153968673636
 20
337.4218678893466
 30
0.0
 40
0.5
100
AcDbArc
 50
270.0000009999949
 51
329.9999889999966
  0
ARC
  5
8DA
330
99D
100
AcDbEntity
  8
1
  6
Continuous
100
AcDbCircle
 10
1253.153968673637
 20
337.4218678893466
 30
0.0
 40
0.5
100
AcDbArc
 50
209.999998999998
 51
270.0000009999949
  0
LINE
  5
8DB
330
99D
100
AcDbEntity
  8
1
  6
Continuous
100
AcDbLine
 10
1253.153968673637
 20
336.9218678893466
 30
0.0
 11
1253.503959673636
 21
336.9218678893466
 31
0.0
  0
LINE
  5
8DC
330
99D
100
AcDbEntity
  8
1
  6
Continuous
100
AcDbLine
 10
1253.903968673636
 20
338.8713608893465
 30
0.0
 11
1253.903968673636
 21
337.6718678893467
 31
0.0
  0
LINE
  5
8DD
330
99D
100
AcDbEntity
  8
1
  6
Continuous
100
AcDbLine
 10
1260.941047673636
 20
346.3570478893465
 30
0.0
 11
1287.517356673636
 21
348.0005718893467
 31
0.0
  0
LINE
  5
8DE
330
99D
100
AcDbEntity
  8
1
  6
Continuous
100
AcDbLine
 10
1245.003974673636
 20
353.4218678893465
 30
0.0
 11
1271.195075673636
 21
353.4218678893465
 31
0.0
  0
LINE
  5
8DF
330
99D
100
AcDbEntity
  8
1
  6
Continuous
100
AcDbLine
 10
1245.003974673636
 20
350.4218678893467
 30
0.0
 11
1271.195075673636
 21
350.4218678893467
 31
0.0
  0
LINE
  5
8E0
330
99D
100
AcDbEntity
  8
1
  6
Continuous
100
AcDbLine
 10
1255.290550673636
 20
355.7737198893465
 30
0.0
 11
1274.905830673636
 21
354.1938248893464
 31
0.0
  0
LINE
  5
8E1
330
99D
100
AcDbEntity
  8
1
  6
Continuous
100
AcDbLine
 10
1255.290550673636
 20
348.0700298893465
 30
0.0
 11
1274.905830673636
 21
349.6499248893466
 31
0.0
  0
LINE
  5
8E2
330
99D
100
AcDbEntity
  8
1
  6
Continuous
100
AcDbLine
 10
1274.902045673636
 20
354.1895368893464
 30
0.0
 11
1254.867164673636
 21
355.7760088893465
 31
0.0
  0
LINE
  5
8E3
330
99D
100
AcDbEntity
  8
1
  6
Continuous
100
AcDbLine
 10
1254.867164673636
 20
348.0677418893464
 30
0.0
 11
1274.902045673636
 21
349.6542128893465
 31
0.0
  0
LINE
  5
8E4
330
99D
100
AcDbEntity
  8
1
  6
Continuous
100
AcDbLine
 10
1260.941047673636
 20
357.4866868893465
 30
0.0
 11
1287.518470673636
 21
355.8431168893465
 31
0.0
  0
LINE
  5
8E5
330
99D
100
AcDbEntity
  8
1
  6
Continuous
100
AcDbLine
 10
1244.203956673636
 20
352.6218798893467
 30
0.0
 11
1244.203956673636
 21
351.2218708893465
 31
0.0
  0
ARC
  5
8E6
330
99D
100
AcDbEntity
  8
1
  6
Continuous
100
AcDbCircle
 10
1245.003974673636
 20
351.2218708893465
 30
0.0
 40
0.8
100
AcDbArc
 50
180.0000050000005
 51
270.0000009999949
  0
ARC
  5
8E7
330
99D
100
AcDbEntity
  8
1
  6
Continuous
100
AcDbCircle
 10
1255.451118673636
 20
346.0764848893465
 30
0.0
 40
2.0
100
AcDbArc
 50
94.60490200000563
 51
180.0000050000005
  0
ARC
  5
8E8
330
99D
100
AcDbEntity
  8
1
  6
Continuous
100
AcDbCircle
 10
1255.025047673636
 20
346.0739818893466
 30
0.0
 40
2.0
100
AcDbArc
 50
94.52754400000609
 51
180.0000050000005
  0
ARC
  5
8E9
330
99D
100
AcDbEntity
  8
1
  6
Continuous
100
AcDbCircle
 10
1245.003974673636
 20
352.6218798893467
 30
0.0
 40
0.8
100
AcDbArc
 50
90.00000299999769
 51
180.0000050000005
  0
ARC
  5
8EA
330
99D
100
AcDbEntity
  8
1
  6
Continuous
100
AcDbCircle
 10
1255.451118673636
 20
357.7672658893464
 30
0.0
 40
2.0
100
AcDbArc
 50
180.0000050000005
 51
265.3950870000034
  0
ARC
  5
8EB
330
99D
100
AcDbEntity
  8
1
  6
Continuous
100
AcDbCircle
 10
1255.025047673636
 20
357.7697678893466
 30
0.0
 40
2.0
100
AcDbArc
 50
180.0000050000005
 51
265.4724600000009
  0
LINE
  5
8EC
330
99D
100
AcDbEntity
  8
1
  6
Continuous
100
AcDbLine
 10
1274.703956673636
 20
353.6625598893465
 30
0.0
 11
1274.703956673636
 21
350.1811908893464
 31
0.0
  0
LINE
  5
8ED
330
99D
100
AcDbEntity
  8
1
  6
Continuous
100
AcDbLine
 10
1271.195075673636
 20
353.4218678893465
 30
0.0
 11
1271.195075673636
 21
350.4218678893467
 31
0.0
  0
LINE
  5
8EE
330
99D
100
AcDbEntity
  8
4
  6
CENTER
100
AcDbLine
 10
1284.703956673636
 20
346.323720904844
 30
0.0
 11
1284.703956673636
 21
357.5200342615568
 31
0.0
  0
ARC
  5
8EF
330
99D
100
AcDbEntity
  8
1
  6
Continuous
100
AcDbCircle
 10
1275.503959673636
 20
350.1811908893466
 30
0.0
 40
0.8
100
AcDbArc
 50
180.0000050000005
 51
267.0104539999996
  0
LINE
  5
8F0
330
99D
100
AcDbEntity
  8
1
  6
Continuous
100
AcDbLine
 10
1287.931175673636
 20
348.7226638893466
 30
0.0
 11
1287.196326673636
 21
348.7694628893465
 31
0.0
  0
LINE
  5
8F1
330
99D
100
AcDbEntity
  8
1
  6
Continuous
100
AcDbLine
 10
1280.798316673636
 20
350.4218678893467
 30
0.0
 11
1280.798316673636
 21
349.1035998893467
 31
0.0
  0
LINE
  5
8F2
330
99D
100
AcDbEntity
  8
1
  6
Continuous
100
AcDbLine
 10
1284.534095673636
 20
350.4218678893467
 30
0.0
 11
1284.534095673636
 21
348.9085008893466
 31
0.0
  0
LINE
  5
8F3
330
99D
100
AcDbEntity
  8
1
  6
Continuous
100
AcDbLine
 10
1275.462241673636
 20
349.3822708893464
 30
0.0
 11
1287.196800673636
 21
348.7694478893465
 31
0.0
  0
ARC
  5
8F4
330
99D
100
AcDbEntity
  8
1
  6
Continuous
100
AcDbCircle
 10
1275.503959673636
 20
353.6625598893465
 30
0.0
 40
0.8
100
AcDbArc
 50
92.98953500000271
 51
180.0000050000005
  0
LINE
  5
8F5
330
99D
100
AcDbEntity
  8
1
  6
Continuous
100
AcDbLine
 10
1287.655357673636
 20
355.8343428893464
 30
0.0
 11
1287.518470673636
 21
355.8431168893465
 31
0.0
  0
LINE
  5
8F6
330
99D
100
AcDbEntity
  8
1
  6
Continuous
100
AcDbLine
 10
1287.196326673636
 20
355.0742878893465
 30
0.0
 11
1287.991157673636
 21
355.1257708893465
 31
0.0
  0
LINE
  5
8F7
330
99D
100
AcDbEntity
  8
1
  6
Continuous
100
AcDbLine
 10
1280.798316673636
 20
354.7401508893464
 30
0.0
 11
1280.798316673636
 21
353.4218678893465
 31
0.0
  0
LINE
  5
8F8
330
99D
100
AcDbEntity
  8
1
  6
Continuous
100
AcDbLine
 10
1284.534095673636
 20
354.9352498893466
 30
0.0
 11
1284.534095673636
 21
353.4218678893465
 31
0.0
  0
LINE
  5
8F9
330
99D
100
AcDbEntity
  8
1
  6
Continuous
100
AcDbLine
 10
1275.462241673636
 20
354.4614788893464
 30
0.0
 11
1287.196326673636
 21
355.0742878893465
 31
0.0
  0
LINE
  5
8FA
330
99D
100
AcDbEntity
  8
1
  6
Continuous
100
AcDbLine
 10
1294.703956673636
 20
352.6218798893467
 30
0.0
 11
1294.703956673636
 21
351.2218708893465
 31
0.0
  0
ARC
  5
8FB
330
99D
100
AcDbEntity
  8
1
  6
Continuous
100
AcDbCircle
 10
1291.703956673636
 20
348.4218678893467
 30
0.0
 40
2.0
100
AcDbArc
 50
90.00000299999769
 51
174.1799190000006
  0
LINE
  5
8FC
330
99D
100
AcDbEntity
  8
1
  6
Continuous
100
AcDbLine
 10
1289.651878673636
 20
348.4412458893465
 30
0.0
 11
1289.449149673636
 21
348.5189748893466
 31
0.0
  0
ARC
  5
8FD
330
99D
100
AcDbEntity
  8
1
  6
Continuous
100
AcDbCircle
 10
1289.218681673636
 20
348.6909258893465
 30
0.0
 40
0.5
100
AcDbArc
 50
283.9092980000006
 51
352.3875460000004
  0
LINE
  5
8FE
330
99D
100
AcDbEntity
  8
1
  6
Continuous
100
AcDbLine
 10
1288.595893673636
 20
348.0908588893464
 30
0.0
 11
1289.338874673636
 21
348.2055898893464
 31
0.0
  0
LINE
  5
8FF
330
99D
100
AcDbEntity
  8
1
  6
Continuous
100
AcDbLine
 10
1289.449149673636
 20
348.5189748893464
 30
0.0
 11
1288.937049673636
 21
348.6175158893467
 31
0.0
  0
ARC
  5
900
330
99D
100
AcDbEntity
  8
1
  6
Continuous
100
AcDbCircle
 10
1293.903968673636
 20
351.2218708893465
 30
0.0
 40
0.8
100
AcDbArc
 50
270.0000009999949
 51
0.0
  0
LINE
  5
901
330
99D
100
AcDbEntity
  8
1
  6
Continuous
100
AcDbLine
 10
1289.436897673636
 20
355.3214648893466
 30
0.0
 11
1289.651878673636
 21
355.4025038893465
 31
0.0
  0
ARC
  5
902
330
99D
100
AcDbEntity
  8
1
  6
Continuous
100
AcDbCircle
 10
1289.218681673636
 20
355.1528248893466
 30
0.0
 40
0.5
100
AcDbArc
 50
7.612459999999589
 51
76.0907050000023
  0
ARC
  5
903
330
99D
100
AcDbEntity
  8
1
  6
Continuous
100
AcDbCircle
 10
1291.703956673636
 20
355.4218678893465
 30
0.0
 40
2.0
100
AcDbArc
 50
185.8200769999998
 51
270.0000009999949
  0
LINE
  5
904
330
99D
100
AcDbEntity
  8
1
  6
Continuous
100
AcDbLine
 10
1289.338874673636
 20
355.6381758893465
 30
0.0
 11
1288.698875673636
 21
355.7408828893465
 31
0.0
  0
LINE
  5
905
330
99D
100
AcDbEntity
  8
1
  6
Continuous
100
AcDbLine
 10
1289.108405673636
 20
355.2529828893465
 30
0.0
 11
1289.436897673636
 21
355.3214648893466
 31
0.0
  0
LINE
  5
906
330
99D
100
AcDbEntity
  8
1
  6
Continuous
100
AcDbLine
 10
1288.660667673636
 20
355.1902998893465
 30
0.0
 11
1289.108405673636
 21
355.2529828893465
 31
0.0
  0
ARC
  5
907
330
99D
100
AcDbEntity
  8
1
  6
Continuous
100
AcDbCircle
 10
1293.903968673636
 20
352.6218798893467
 30
0.0
 40
0.8
100
AcDbArc
 50
0.0
 51
90.00000299999769
  0
ARC
  5
908
330
99D
100
AcDbEntity
  8
1
  6
Continuous
100
AcDbCircle
 10
1239.714912673636
 20
370.8462758893464
 30
0.0
 40
5.0
100
AcDbArc
 50
92.28584100000487
 51
176.3690629999995
  0
LINE
  5
909
330
99D
100
AcDbEntity
  8
1
  6
Continuous
100
AcDbLine
 10
1244.253974673636
 20
375.9190598893466
 30
0.0
 11
1244.253974673636
 21
371.1495588893466
 31
0.0
  0
ARC
  5
90A
330
99D
100
AcDbEntity
  8
1
  6
Continuous
100
AcDbCircle
 10
1248.503974673636
 20
370.7902148893464
 30
0.0
 40
5.0
100
AcDbArc
 50
0.0
 51
86.98303999999643
  0
LINE
  5
90B
330
99D
100
AcDbEntity
  8
1
  6
Continuous
100
AcDbLine
 10
1245.503974673636
 20
366.6718678893466
 30
0.0
 11
1253.403968673636
 21
366.6718678893466
 31
0.0
  0
ARC
  5
90C
330
99D
100
AcDbEntity
  8
1
  6
Continuous
100
AcDbCircle
 10
1248.253974673636
 20
366.4218678893465
 30
0.0
 40
0.5
100
AcDbArc
 50
90.00000299999769
 51
149.999997000001
  0
LINE
  5
90D
330
99D
100
AcDbEntity
  8
1
  6
Continuous
100
AcDbLine
 10
1245.503974673636
 20
366.9218678893466
 30
0.0
 11
1247.253974673636
 21
366.9218678893466
 31
0.0
  0
ARC
  5
90E
330
99D
100
AcDbEntity
  8
1
  6
Continuous
100
AcDbCircle
 10
1245.503974673636
 20
366.1718678893465
 30
0.0
 40
0.5
100
AcDbArc
 50
90.00000299999769
 51
180.0000050000005
  0
ARC
  5
90F
330
99D
100
AcDbEntity
  8
1
  6
Continuous
100
AcDbCircle
 10
1244.003974673636
 20
369.6705398893465
 30
0.0
 40
1.5
100
AcDbArc
 50
0.0
 51
89.69441999999615
  0
LINE
  5
910
330
99D
100
AcDbEntity
  8
1
  6
Continuous
100
AcDbLine
 10
1245.503974673636
 20
369.6705398893465
 30
0.0
 11
1245.503974673636
 21
366.9218678893466
 31
0.0
  0
ARC
  5
911
330
99D
100
AcDbEntity
  8
1
  6
Continuous
100
AcDbCircle
 10
1247.253974673636
 20
366.4218678893465
 30
0.0
 40
0.5
100
AcDbArc
 50
29.99999999999729
 51
90.00000299999769
  0
LINE
  5
912
330
99D
100
AcDbEntity
  8
1
  6
Continuous
100
AcDbLine
 10
1234.7096558789
 20
370.9218678893464
 30
0.0
 11
1234.724952673636
 21
371.1629258893464
 31
0.0
  0
ARC
  5
913
330
99D
100
AcDbEntity
  8
1
  6
Continuous
100
AcDbCircle
 10
1240.503974673636
 20
369.6238628893467
 30
0.0
 40
1.5
100
AcDbArc
 50
91.83377800000327
 51
120.078829558891
  0
ARC
  5
914
330
99D
100
AcDbEntity
  8
1
  6
Continuous
100
AcDbCircle
 10
1243.503974673636
 20
275.9218678893466
 30
0.0
 40
95.25
100
AcDbArc
 50
89.69441999999615
 51
94.15212269290167
  0
LINE
  5
915
330
99D
100
AcDbEntity
  8
1
  6
Continuous
100
AcDbLine
 10
1253.903968673636
 20
366.1718678893465
 30
0.0
 11
1253.903968673636
 21
364.9724048893465
 31
0.0
  0
LINE
  5
916
330
99D
100
AcDbEntity
  8
1
  6
Continuous
100
AcDbLine
 10
1248.253974673636
 20
366.9218678893466
 30
0.0
 11
1252.153968673636
 21
366.9218678893466
 31
0.0
  0
ARC
  5
917
330
99D
100
AcDbEntity
  8
1
  6
Continuous
100
AcDbCircle
 10
1253.403968673636
 20
366.1718678893465
 30
0.0
 40
0.5
100
AcDbArc
 50
0.0
 51
90.00000299999769
  0
ARC
  5
918
330
99D
100
AcDbEntity
  8
1
  6
Continuous
100
AcDbCircle
 10
1252.951118673636
 20
366.1718678893465
 30
0.0
 40
0.5
100
AcDbArc
 50
0.0
 51
90.00000299999769
  0
ARC
  5
919
330
99D
100
AcDbEntity
  8
1
  6
Continuous
100
AcDbCircle
 10
1252.525047673636
 20
366.1718678893465
 30
0.0
 40
0.5
100
AcDbArc
 50
0.0
 51
90.00000299999769
  0
ARC
  5
91A
330
99D
100
AcDbEntity
  8
1
  6
Continuous
100
AcDbCircle
 10
1252.153968673636
 20
366.4218678893465
 30
0.0
 40
0.5
100
AcDbArc
 50
29.99999999999729
 51
90.00000299999769
  0
ARC
  5
91B
330
99D
100
AcDbEntity
  8
1
  6
Continuous
100
AcDbCircle
 10
1253.153968673637
 20
366.4218678893465
 30
0.0
 40
0.5
100
AcDbArc
 50
90.00000299999769
 51
149.999997000001
  0
LINE
  5
91C
330
99D
100
AcDbEntity
  8
1
  6
Continuous
100
AcDbLine
 10
1253.153968673637
 20
366.9218678893466
 30
0.0
 11
1253.503959673636
 21
366.9218678893466
 31
0.0
  0
LINE
  5
91D
330
99D
100
AcDbEntity
  8
1
  6
Continuous
100
AcDbLine
 10
1253.503959673636
 20
370.7902148893464
 30
0.0
 11
1253.503959673636
 21
366.9218678893466
 31
0.0
  0
ARC
  5
91E
330
99D
100
AcDbEntity
  8
1
  6
Continuous
100
AcDbCircle
 10
1243.503974673636
 20
275.9218678893466
 30
0.0
 40
100.0
100
AcDbArc
 50
86.98303999999643
 51
92.28584100000487
  0
ENDSEC
  0
SECTION
  2
OBJECTS
  0
DICTIONARY
  5
93A
330
0
100
AcDbDictionary
281
     1
  3
ACAD_CIP_PREVIOUS_PRODUCT_INFO
350
9B6
  3
ACAD_COLOR
350
990
  3
ACAD_DETAILVIEWSTYLE
350
997
  3
ACAD_GROUP
350
93B
  3
ACAD_LAYOUT
350
98F
  3
ACAD_MATERIAL
350
93E
  3
ACAD_MLEADERSTYLE
350
993
  3
ACAD_MLINESTYLE
350
98C
  3
ACAD_PLOTSETTINGS
350
98E
  3
ACAD_PLOTSTYLENAME
350
93C
  3
ACAD_SCALELIST
350
970
  3
ACAD_SECTIONVIEWSTYLE
350
995
  3
ACAD_TABLESTYLE
350
991
  3
ACAD_VISUALSTYLE
350
957
  3
ACDB_RECOMPOSE_DATA
350
9D4
  3
AcDbVariableDictionary
350
9C7
  3
DWGPROPS
350
9D5
  0
DICTIONARY
  5
9B7
330
982
100
AcDbDictionary
280
     1
281
     1
  3
ADSK_XREC_LAYER_RECONCILED
360
9B8
  0
DICTIONARY
  5
9B9
330
9A5
100
AcDbDictionary
280
     1
281
     1
  3
ADSK_XREC_LAYER_RECONCILED
360
9BA
  0
DICTIONARY
  5
9BB
330
9A6
100
AcDbDictionary
280
     1
281
     1
  3
ADSK_XREC_LAYER_RECONCILED
360
9BC
  0
DICTIONARY
  5
9BD
330
9A7
100
AcDbDictionary
280
     1
281
     1
  3
ADSK_XREC_LAYER_RECONCILED
360
9BE
  0
DICTIONARY
  5
9BF
330
9A8
100
AcDbDictionary
280
     1
281
     1
  3
ADSK_XREC_LAYER_RECONCILED
360
9C0
  0
DICTIONARY
  5
9C1
330
9A9
100
AcDbDictionary
280
     1
281
     1
  3
ADSK_XREC_LAYER_RECONCILED
360
9C2
  0
DICTIONARY
  5
9C3
330
9AA
100
AcDbDictionary
280
     1
281
     1
  3
ADSK_XREC_LAYER_RECONCILED
360
9C4
  0
DICTIONARY
  5
9C5
330
9AB
100
AcDbDictionary
280
     1
281
     1
  3
ADSK_XREC_LAYER_RECONCILED
360
9C6
  0
XRECORD
  5
9B6
102
{ACAD_REACTORS
330
93A
102
}
330
93A
100
AcDbXrecord
280
     1
300
ACDLT
300
2014
300
ACDLT_F_S
  0
DICTIONARY
  5
990
102
{ACAD_REACTORS
330
93A
102
}
330
93A
100
AcDbDictionary
281
     1
  0
DICTIONARY
  5
997
102
{ACAD_REACTORS
330
93A
102
}
330
93A
100
AcDbDictionary
281
     1
  3
Imperial24
350
998
  0
DICTIONARY
  5
93B
102
{ACAD_REACTORS
330
93A
102
}
330
93A
100
AcDbDictionary
281
     1
  0
DICTIONARY
  5
98F
102
{ACAD_REACTORS
330
93A
102
}
330
93A
100
AcDbDictionary
281
     1
  3
Model
350
9A0
  3
レイアウト1
350
99C
  0
DICTIONARY
  5
93E
102
{ACAD_REACTORS
330
93A
102
}
330
93A
100
AcDbDictionary
281
     1
  3
ByBlock
350
947
  3
ByLayer
350
93F
  3
Global
350
94F
  0
DICTIONARY
  5
993
102
{ACAD_REACTORS
330
93A
102
}
330
93A
100
AcDbDictionary
281
     1
  3
Standard
350
994
  0
DICTIONARY
  5
98C
102
{ACAD_REACTORS
330
93A
102
}
330
93A
100
AcDbDictionary
281
     1
  3
Standard
350
98D
  0
DICTIONARY
  5
98E
102
{ACAD_REACTORS
330
93A
102
}
330
93A
100
AcDbDictionary
281
     1
  0
ACDBDICTIONARYWDFLT
  5
93C
102
{ACAD_REACTORS
330
93A
102
}
330
93A
100
AcDbDictionary
281
     1
  3
Normal
350
93D
100
AcDbDictionaryWithDefault
340
93D
  0
DICTIONARY
  5
970
102
{ACAD_REACTORS
330
93A
102
}
330
93A
100
AcDbDictionary
281
     1
  3
A0
350
971
  3
A1
350
972
  3
A2
350
973
  3
A3
350
974
  3
A4
350
975
  3
A5
350
976
  3
A6
350
977
  3
A7
350
978
  3
A8
350
979
  3
A9
350
97A
  3
B0
350
97B
  3
B1
350
97C
  3
B2
350
97D
  3
B3
350
97E
  3
B4
350
97F
  3
B5
350
980
  3
B6
350
981
  0
DICTIONARY
  5
995
102
{ACAD_REACTORS
330
93A
102
}
330
93A
100
AcDbDictionary
281
     1
  3
Imperial24
350
996
  0
DICTIONARY
  5
991
102
{ACAD_REACTORS
330
93A
102
}
330
93A
100
AcDbDictionary
281
     1
  3
Standard
350
992
  0
DICTIONARY
  5
957
102
{ACAD_REACTORS
330
93A
102
}
330
93A
100
AcDbDictionary
281
     1
  3
2dWireframe
350
95D
  3
Basic
350
95C
  3
Brighten
350
963
  3
ColorChange
350
967
  3
Conceptual
350
960
  3
Dim
350
962
  3
EdgeColorOff
350
96F
  3
Facepattern
350
966
  3
Flat
350
958
  3
FlatWithEdges
350
959
  3
Gouraud
350
95A
  3
GouraudWithEdges
350
95B
  3
Hidden
350
95F
  3
JitterOff
350
96D
  3
Linepattern
350
965
  3
OverhangOff
350
96E
  3
Realistic
350
961
  3
Shaded
350
96C
  3
Shaded with edges
350
96B
  3
Shades of Gray
350
968
  3
Sketchy
350
969
  3
Thicken
350
964
  3
Wireframe
350
95E
  3
X-Ray
350
96A
  0
XRECORD
  5
9D4
102
{ACAD_REACTORS
330
93A
102
}
330
93A
100
AcDbXrecord
280
     1
 90
        1
330
992
  0
DICTIONARY
  5
9C7
102
{ACAD_REACTORS
330
93A
102
}
330
93A
100
AcDbDictionary
281
     1
  3
CANNOSCALE
350
9CC
  3
CMLEADERSTYLE
350
9C9
  3
CTABLESTYLE
350
9C8
  3
CVIEWDETAILSTYLE
350
9CA
  3
CVIEWSECTIONSTYLE
350
9CB
  3
DIMASSOC
350
9CF
  3
INDEXCTL
350
9CE
  3
SORTENTS
350
9CD
  3
XCLIPFRAME
350
9D0
  0
XRECORD
  5
9D5
102
{ACAD_REACTORS
330
93A
102
}
330
93A
100
AcDbXrecord
280
     1
  1
DWGPROPS COOKIE
  2

  3

  4

  6

  7

  8
Yoshitsune
  9

300
=
301
=
302
=
303
=
304
=
305
=
306
=
307
=
308
=
309
=
 40
0.0299179166666667
 41
2456276.6855875
 42
2457192.664144792
  1

 90
        0
  0
XRECORD
  5
9B8
102
{ACAD_REACTORS
330
9B7
102
}
330
9B7
100
AcDbXrecord
280
     1
290
     1
  0
XRECORD
  5
9BA
102
{ACAD_REACTORS
330
9B9
102
}
330
9B9
100
AcDbXrecord
280
     1
290
     1
  0
XRECORD
  5
9BC
102
{ACAD_REACTORS
330
9BB
102
}
330
9BB
100
AcDbXrecord
280
     1
290
     1
  0
XRECORD
  5
9BE
102
{ACAD_REACTORS
330
9BD
102
}
330
9BD
100
AcDbXrecord
280
     1
290
     1
  0
XRECORD
  5
9C0
102
{ACAD_REACTORS
330
9BF
102
}
330
9BF
100
AcDbXrecord
280
     1
290
     1
  0
XRECORD
  5
9C2
102
{ACAD_REACTORS
330
9C1
102
}
330
9C1
100
AcDbXrecord
280
     1
290
     1
  0
XRECORD
  5
9C4
102
{ACAD_REACTORS
330
9C3
102
}
330
9C3
100
AcDbXrecord
280
     1
290
     1
  0
XRECORD
  5
9C6
102
{ACAD_REACTORS
330
9C5
102
}
330
9C5
100
AcDbXrecord
280
     1
290
     1
  0
ACDBDETAILVIEWSTYLE
  5
998
102
{ACAD_XDICTIONARY
360
A0D
102
}
102
{ACAD_REACTORS
330
997
102
}
330
997
100
AcDbModelDocViewStyle
 70
     0
  3
Imperial24
290
     0
100
AcDbDetailViewStyle
 70
     0
 71
     0
 90
        3
 71
     1
340
983
 40
0.24
340
0
 40
0.24
300

 40
0.36
280
     3
 71
     2
340
98A
 90
       25
 71
     3
340
983
 40
0.24
 90
        1
 40
0.75
 90
        1
300
%<\AcVar ViewType \f "%tc1">% %<\AcVar ViewDetailId>%\PSCALE %<\AcVar ViewScale \f "%sn">%
 71
     4
340
98A
 90
       25
340
98A
 90
       25
280
     0
  0
LAYOUT
  5
9A0
102
{ACAD_XDICTIONARY
360
A11
102
}
102
{ACAD_REACTORS
330
98F
102
}
330
98F
100
AcDbPlotSettings
  1

  2
Canon LBP9100C
  4

  6

 40
0.0
 41
0.0
 42
0.0
 43
0.0
 44
0.0
 45
0.0
 46
0.0
 47
0.0
 48
0.0
 49
0.0
140
0.0
141
0.0
142
1.0
143
1.0
 70
  1712
 72
     0
 73
     0
 74
     0
  7

 75
     0
147
1.0
148
0.0
149
0.0
100
AcDbLayout
  1
Model
 70
     1
 71
     0
 10
0.0
 20
0.0
 11
12.0
 21
9.0
 12
0.0
 22
0.0
 32
0.0
 14
0.0
 24
0.0
 34
0.0
 15
0.0
 25
0.0
 35
0.0
146
0.0
 13
0.0
 23
0.0
 33
0.0
 16
1.0
 26
0.0
 36
0.0
 17
0.0
 27
1.0
 37
0.0
 76
     0
330
99D
331
9A1
  0
LAYOUT
  5
99C
102
{ACAD_XDICTIONARY
360
A0F
102
}
102
{ACAD_REACTORS
330
98F
102
}
330
98F
100
AcDbPlotSettings
  1

  2
Canon LBP9100C
  4

  6

 40
0.0
 41
0.0
 42
0.0
 43
0.0
 44
0.0
 45
0.0
 46
0.0
 47
0.0
 48
0.0
 49
0.0
140
0.0
141
0.0
142
1.0
143
1.0
 70
   688
 72
     0
 73
     0
 74
     5
  7

 75
    16
147
1.0
148
0.0
149
0.0
100
AcDbLayout
  1
レイアウト1
 70
     1
 71
     1
 10
0.0
 20
0.0
 11
420.0
 21
297.0
 12
0.0
 22
0.0
 32
0.0
 14
1.000000000000000E+20
 24
1.000000000000000E+20
 34
1.000000000000000E+20
 15
-1.000000000000000E+20
 25
-1.000000000000000E+20
 35
-1.000000000000000E+20
146
0.0
 13
0.0
 23
0.0
 33
0.0
 16
1.0
 26
0.0
 36
0.0
 17
0.0
 27
1.0
 37
0.0
 76
     0
330
999
  0
MATERIAL
  5
947
102
{ACAD_XDICTIONARY
360
948
102
}
102
{ACAD_REACTORS
330
93E
102
}
330
93E
100
AcDbMaterial
  1
ByBlock
 72
     0
 43
0.0208333333333333
 43
0.0
 43
0.0
 43
0.0
 43
0.0
 43
0.0208333333333333
 43
0.0
 43
0.0
 43
0.0
 43
0.0
 43
1.0
 43
0.0
 43
0.0
 43
0.0
 43
0.0
 43
1.0
 77
     0
 47
0.0208333333333333
 47
0.0
 47
0.0
 47
0.0
 47
0.0
 47
0.0208333333333333
 47
0.0
 47
0.0
 47
0.0
 47
0.0
 47
1.0
 47
0.0
 47
0.0
 47
0.0
 47
0.0
 47
1.0
171
     0
 49
0.0208333333333333
 49
0.0
 49
0.0
 49
0.0
 49
0.0
 49
0.0208333333333333
 49
0.0
 49
0.0
 49
0.0
 49
0.0
 49
1.0
 49
0.0
 49
0.0
 49
0.0
 49
0.0
 49
1.0
175
     0
142
0.0208333333333333
142
0.0
142
0.0
142
0.0
142
0.0
142
0.0208333333333333
142
0.0
142
0.0
142
0.0
142
0.0
142
1.0
142
0.0
142
0.0
142
0.0
142
0.0
142
1.0
179
     0
144
0.0208333333333333
144
0.0
144
0.0
144
0.0
144
0.0
144
0.0208333333333333
144
0.0
144
0.0
144
0.0
144
0.0
144
1.0
144
0.0
144
0.0
144
0.0
144
0.0
144
1.0
147
0.0208333333333333
147
0.0
147
0.0
147
0.0
147
0.0
147
0.0208333333333333
147
0.0
147
0.0
147
0.0
147
0.0
147
1.0
147
0.0
147
0.0
147
0.0
147
0.0
147
1.0
  0
MATERIAL
  5
93F
102
{ACAD_XDICTIONARY
360
940
102
}
102
{ACAD_REACTORS
330
93E
102
}
330
93E
100
AcDbMaterial
  1
ByLayer
 72
     0
 43
0.0208333333333333
 43
0.0
 43
0.0
 43
0.0
 43
0.0
 43
0.0208333333333333
 43
0.0
 43
0.0
 43
0.0
 43
0.0
 43
1.0
 43
0.0
 43
0.0
 43
0.0
 43
0.0
 43
1.0
 77
     0
 47
0.0208333333333333
 47
0.0
 47
0.0
 47
0.0
 47
0.0
 47
0.0208333333333333
 47
0.0
 47
0.0
 47
0.0
 47
0.0
 47
1.0
 47
0.0
 47
0.0
 47
0.0
 47
0.0
 47
1.0
171
     0
 49
0.0208333333333333
 49
0.0
 49
0.0
 49
0.0
 49
0.0
 49
0.0208333333333333
 49
0.0
 49
0.0
 49
0.0
 49
0.0
 49
1.0
 49
0.0
 49
0.0
 49
0.0
 49
0.0
 49
1.0
175
     0
142
0.0208333333333333
142
0.0
142
0.0
142
0.0
142
0.0
142
0.0208333333333333
142
0.0
142
0.0
142
0.0
142
0.0
142
1.0
142
0.0
142
0.0
142
0.0
142
0.0
142
1.0
179
     0
144
0.0208333333333333
144
0.0
144
0.0
144
0.0
144
0.0
144
0.0208333333333333
144
0.0
144
0.0
144
0.0
144
0.0
144
1.0
144
0.0
144
0.0
144
0.0
144
0.0
144
1.0
147
0.0208333333333333
147
0.0
147
0.0
147
0.0
147
0.0
147
0.0208333333333333
147
0.0
147
0.0
147
0.0
147
0.0
147
1.0
147
0.0
147
0.0
147
0.0
147
0.0
147
1.0
  0
MATERIAL
  5
94F
102
{ACAD_XDICTIONARY
360
950
102
}
102
{ACAD_REACTORS
330
93E
102
}
330
93E
100
AcDbMaterial
  1
Global
 72
     0
 43
0.0208333333333333
 43
0.0
 43
0.0
 43
0.0
 43
0.0
 43
0.0208333333333333
 43
0.0
 43
0.0
 43
0.0
 43
0.0
 43
1.0
 43
0.0
 43
0.0
 43
0.0
 43
0.0
 43
1.0
 77
     0
 47
0.0208333333333333
 47
0.0
 47
0.0
 47
0.0
 47
0.0
 47
0.0208333333333333
 47
0.0
 47
0.0
 47
0.0
 47
0.0
 47
1.0
 47
0.0
 47
0.0
 47
0.0
 47
0.0
 47
1.0
171
     0
 49
0.0208333333333333
 49
0.0
 49
0.0
 49
0.0
 49
0.0
 49
0.0208333333333333
 49
0.0
 49
0.0
 49
0.0
 49
0.0
 49
1.0
 49
0.0
 49
0.0
 49
0.0
 49
0.0
 49
1.0
175
     0
142
0.0208333333333333
142
0.0
142
0.0
142
0.0
142
0.0
142
0.0208333333333333
142
0.0
142
0.0
142
0.0
142
0.0
142
1.0
142
0.0
142
0.0
142
0.0
142
0.0
142
1.0
179
     0
144
0.0208333333333333
144
0.0
144
0.0
144
0.0
144
0.0
144
0.0208333333333333
144
0.0
144
0.0
144
0.0
144
0.0
144
1.0
144
0.0
144
0.0
144
0.0
144
0.0
144
1.0
147
0.0208333333333333
147
0.0
147
0.0
147
0.0
147
0.0
147
0.0208333333333333
147
0.0
147
0.0
147
0.0
147
0.0
147
1.0
147
0.0
147
0.0
147
0.0
147
0.0
147
1.0
  0
MLEADERSTYLE
  5
994
102
{ACAD_REACTORS
330
993
102
}
330
993
100
AcDbMLeaderStyle
170
     2
171
     1
172
     0
 90
        2
 40
0.0
 41
0.0
173
     1
 91
-1056964608
340
988
 92
       -2
290
     1
 42
0.09
291
     1
 43
0.36
  3
Standard
 44
0.18
300

342
983
174
     1
178
     6
175
     1
176
     0
 93
-1056964608
 45
0.18
292
     0
297
     0
 46
0.18
 94
-1056964608
 47
1.0
 49
1.0
140
1.0
293
     1
141
0.0
294
     1
177
     0
142
1.0
295
     0
296
     0
143
0.125
1001
ACAD_MLEADERVER
1070
     2
  0
MLINESTYLE
  5
98D
102
{ACAD_REACTORS
330
98C
102
}
330
98C
100
AcDbMlineStyle
  2
STANDARD
 70
     0
  3

 62
   256
 51
90.0
 52
90.0
 71
     2
 49
0.5
 62
   256
  6
BYLAYER
 49
-0.5
 62
   256
  6
BYLAYER
  0
ACDBPLACEHOLDER
  5
93D
102
{ACAD_REACTORS
330
93C
102
}
330
93C
  0
SCALE
  5
971
102
{ACAD_REACTORS
330
970
102
}
330
970
100
AcDbScale
 70
     0
300
1:1
140
1.0
141
1.0
290
     1
  0
SCALE
  5
972
102
{ACAD_REACTORS
330
970
102
}
330
970
100
AcDbScale
 70
     0
300
1/128" = 1'-0"
140
0.0078125
141
12.0
290
     0
  0
SCALE
  5
973
102
{ACAD_REACTORS
330
970
102
}
330
970
100
AcDbScale
 70
     0
300
1/64" = 1'-0"
140
0.015625
141
12.0
290
     0
  0
SCALE
  5
974
102
{ACAD_REACTORS
330
970
102
}
330
970
100
AcDbScale
 70
     0
300
1/32" = 1'-0"
140
0.03125
141
12.0
290
     0
  0
SCALE
  5
975
102
{ACAD_REACTORS
330
970
102
}
330
970
100
AcDbScale
 70
     0
300
1/16" = 1'-0"
140
0.0625
141
12.0
290
     0
  0
SCALE
  5
976
102
{ACAD_REACTORS
330
970
102
}
330
970
100
AcDbScale
 70
     0
300
3/32" = 1'-0"
140
0.09375
141
12.0
290
     0
  0
SCALE
  5
977
102
{ACAD_REACTORS
330
970
102
}
330
970
100
AcDbScale
 70
     0
300
1/8" = 1'-0"
140
0.125
141
12.0
290
     0
  0
SCALE
  5
978
102
{ACAD_REACTORS
330
970
102
}
330
970
100
AcDbScale
 70
     0
300
3/16" = 1'-0"
140
0.1875
141
12.0
290
     0
  0
SCALE
  5
979
102
{ACAD_REACTORS
330
970
102
}
330
970
100
AcDbScale
 70
     0
300
1/4" = 1'-0"
140
0.25
141
12.0
290
     0
  0
SCALE
  5
97A
102
{ACAD_REACTORS
330
970
102
}
330
970
100
AcDbScale
 70
     0
300
3/8" = 1'-0"
140
0.375
141
12.0
290
     0
  0
SCALE
  5
97B
102
{ACAD_REACTORS
330
970
102
}
330
970
100
AcDbScale
 70
     0
300
1/2" = 1'-0"
140
0.5
141
12.0
290
     0
  0
SCALE
  5
97C
102
{ACAD_REACTORS
330
970
102
}
330
970
100
AcDbScale
 70
     0
300
3/4" = 1'-0"
140
0.75
141
12.0
290
     0
  0
SCALE
  5
97D
102
{ACAD_REACTORS
330
970
102
}
330
970
100
AcDbScale
 70
     0
300
1" = 1'-0"
140
1.0
141
12.0
290
     0
  0
SCALE
  5
97E
102
{ACAD_REACTORS
330
970
102
}
330
970
100
AcDbScale
 70
     0
300
1-1/2" = 1'-0"
140
1.5
141
12.0
290
     0
  0
SCALE
  5
97F
102
{ACAD_REACTORS
330
970
102
}
330
970
100
AcDbScale
 70
     0
300
3" = 1'-0"
140
3.0
141
12.0
290
     0
  0
SCALE
  5
980
102
{ACAD_REACTORS
330
970
102
}
330
970
100
AcDbScale
 70
     0
300
6" = 1'-0"
140
6.0
141
12.0
290
     0
  0
SCALE
  5
981
102
{ACAD_REACTORS
330
970
102
}
330
970
100
AcDbScale
 70
     0
300
1'-0" = 1'-0"
140
12.0
141
12.0
290
     0
  0
ACDBSECTIONVIEWSTYLE
  5
996
102
{ACAD_XDICTIONARY
360
A0B
102
}
102
{ACAD_REACTORS
330
995
102
}
330
995
100
AcDbModelDocViewStyle
 70
     0
  3
Imperial24
290
     0
100
AcDbSectionViewStyle
 70
     0
 71
     0
 90
       78
 71
     1
340
983
 40
0.24
340
0
340
0
 40
0.24
300
I, O, Q, S, X, Z
 40
0.48
 90
        3
 40
0.18
 90
        1
 71
     2
340
98A
 90
       25
340
98A
 90
       50
 40
0.24
 40
0.0
 40
0.24
 71
     3
340
983
 40
0.24
 90
        1
 40
0.75
 90
        1
300
%<\AcVar ViewType \f "%tc1">% %<\AcVar ViewSectionStartId>%-%<\AcVar ViewSectionEndId>%\PSCALE %<\AcVar ViewScale \f "%sn">%
 71
     4
300
ANSI31
 40
1.0
 90
        0
290
     0
290
     0
 90
        6
 40
0.0
 40
1.570796326794896
 40
0.2617993877991494
 40
1.308996938995747
 40
-0.2617993877991494
 40
1.832595714594046
  0
TABLESTYLE
  5
992
102
{ACAD_XDICTIONARY
360
9D2
102
}
102
{ACAD_REACTORS
330
991
102
}
330
991
100
AcDbTableStyle
  3
Standard
 70
     0
 71
     0
 40
0.06
 41
0.06
280
     0
281
     0
  7
STANDARD
140
0.18
170
     2
 62
     0
 63
     7
283
     0
274
    -2
284
     1
 64
     0
275
    -2
285
     1
 65
     0
276
    -2
286
     1
 66
     0
277
    -2
287
     1
 67
     0
278
    -2
288
     1
 68
     0
279
    -2
289
     1
 69
     0
  7
STANDARD
140
0.25
170
     5
 62
     0
 63
     7
283
     0
274
    -2
284
     1
 64
     0
275
    -2
285
     1
 65
     0
276
    -2
286
     1
 66
     0
277
    -2
287
     1
 67
     0
278
    -2
288
     1
 68
     0
279
    -2
289
     1
 69
     0
  7
STANDARD
140
0.18
170
     5
 62
     0
 63
     7
283
     0
274
    -2
284
     1
 64
     0
275
    -2
285
     1
 65
     0
276
    -2
286
     1
 66
     0
277
    -2
287
     1
 67
     0
278
    -2
288
     1
 68
     0
279
    -2
289
     1
 69
     0
  0
VISUALSTYLE
  5
95D
102
{ACAD_XDICTIONARY
360
9E3
102
}
102
{ACAD_REACTORS
330
957
102
}
330
957
100
AcDbVisualStyle
  2
2dWireframe
 70
     4
 71
     0
 72
     2
 73
     0
 90
        0
 40
-0.6
 41
-30.0
 62
     5
 63
     7
 74
     1
 91
        4
 64
     7
 65
   257
 75
     1
175
     1
 42
1.0
 92
        0
 66
   257
 43
1.0
 76
     1
 77
     6
 78
     2
 67
     7
 79
     5
170
     0
171
     0
290
     0
174
     0
 93
        1
 44
0.0
173
     0
291
     0
 45
0.0
1001
ACAD
1000
AcDbSavedByObjectVersion
1070
     0
  0
VISUALSTYLE
  5
95C
102
{ACAD_XDICTIONARY
360
9E1
102
}
102
{ACAD_REACTORS
330
957
102
}
330
957
100
AcDbVisualStyle
  2
Basic
 70
     7
 71
     1
 72
     0
 73
     1
 90
        0
 40
-0.6
 41
-30.0
 62
     5
 63
     7
 74
     0
 91
        4
 64
     7
 65
   257
 75
     1
175
     1
 42
1.0
 92
        8
 66
     7
 43
1.0
 76
     1
 77
     6
 78
     2
 67
     7
 79
     5
170
     0
171
     0
290
     0
174
     0
 93
        1
 44
0.0
173
     0
291
     1
 45
0.0
1001
ACAD
1000
AcDbSavedByObjectVersion
1070
     0
  0
VISUALSTYLE
  5
963
102
{ACAD_XDICTIONARY
360
9EF
102
}
102
{ACAD_REACTORS
330
957
102
}
330
957
100
AcDbVisualStyle
  2
Brighten
 70
    12
 71
     2
 72
     2
 73
     0
 90
        0
 40
-0.6
 41
-30.0
 62
     5
 63
     7
 74
     1
 91
        4
 64
     7
 65
   257
 75
     1
175
     1
 42
1.0
 92
        8
 66
     7
 43
1.0
 76
     1
 77
     6
 78
     2
 67
     7
 79
     5
170
     0
171
     0
290
     0
174
     0
 93
        1
 44
50.0
173
     0
291
     1
 45
0.0
1001
ACAD
1000
AcDbSavedByObjectVersion
1070
     0
  0
VISUALSTYLE
  5
967
102
{ACAD_XDICTIONARY
360
9F7
102
}
102
{ACAD_REACTORS
330
957
102
}
330
957
100
AcDbVisualStyle
  2
ColorChange
 70
    16
 71
     2
 72
     2
 73
     3
 90
        0
 40
-0.6
 41
-30.0
 62
     5
 63
     8
 74
     1
 91
        4
 64
     7
 65
   257
 75
     1
175
     1
 42
1.0
 92
        8
 66
     8
 43
1.0
 76
     1
 77
     6
 78
     2
 67
     7
 79
     5
170
     0
171
     0
290
     0
174
     0
 93
        1
 44
0.0
173
     0
291
     1
 45
0.0
1001
ACAD
1000
AcDbSavedByObjectVersion
1070
     0
  0
VISUALSTYLE
  5
960
102
{ACAD_XDICTIONARY
360
9E9
102
}
102
{ACAD_REACTORS
330
957
102
}
330
957
100
AcDbVisualStyle
  2
Conceptual
 70
     9
 71
     3
 72
     2
 73
     0
 90
        0
 40
-0.6
 41
-30.0
 62
     5
 63
     7
 74
     2
 91
        2
 64
     7
 65
   257
 75
     1
175
     1
 42
179.0
 92
        8
 66
     7
 43
1.0
 76
     1
 77
     6
 78
     2
 67
     7
 79
     3
170
     0
171
     0
290
     0
174
     0
 93
        1
 44
0.0
173
     0
291
     0
 45
0.0
1001
ACAD
1000
AcDbSavedByObjectVersion
1070
     0
  0
VISUALSTYLE
  5
962
102
{ACAD_XDICTIONARY
360
9ED
102
}
102
{ACAD_REACTORS
330
957
102
}
330
957
100
AcDbVisualStyle
  2
Dim
 70
    11
 71
     2
 72
     2
 73
     0
 90
        0
 40
-0.6
 41
-30.0
 62
     5
 63
     7
 74
     1
 91
        4
 64
     7
 65
   257
 75
     1
175
     1
 42
1.0
 92
        8
 66
     7
 43
1.0
 76
     1
 77
     6
 78
     2
 67
     7
 79
     5
170
     0
171
     0
290
     0
174
     0
 93
        1
 44
-50.0
173
     0
291
     1
 45
0.0
1001
ACAD
1000
AcDbSavedByObjectVersion
1070
     0
  0
VISUALSTYLE
  5
96F
102
{ACAD_XDICTIONARY
360
A07
102
}
102
{ACAD_REACTORS
330
957
102
}
330
957
100
AcDbVisualStyle
  2
EdgeColorOff
 70
    22
 71
     2
 72
     2
 73
     0
 90
        0
 40
-0.6
 41
-30.0
 62
     5
 63
     7
 74
     1
 91
        4
 64
     7
 65
   257
 75
     1
175
     1
 42
1.0
 92
        8
 66
     7
 43
1.0
 76
     1
 77
     6
 78
     2
 67
     7
 79
     5
170
     0
171
     0
290
     0
174
     0
 93
        1
 44
0.0
173
     0
291
     1
 45
0.0
1001
ACAD
1000
AcDbSavedByObjectVersion
1070
     0
  0
VISUALSTYLE
  5
966
102
{ACAD_XDICTIONARY
360
9F5
102
}
102
{ACAD_REACTORS
330
957
102
}
330
957
100
AcDbVisualStyle
  2
Facepattern
 70
    15
 71
     2
 72
     2
 73
     0
 90
        0
 40
-0.6
 41
-30.0
 62
     5
 63
     7
 74
     1
 91
        4
 64
     7
 65
   257
 75
     1
175
     1
 42
1.0
 92
        8
 66
     7
 43
1.0
 76
     1
 77
     6
 78
     2
 67
     7
 79
     5
170
     0
171
     0
290
     0
174
     0
 93
        1
 44
0.0
173
     0
291
     1
 45
0.0
1001
ACAD
1000
AcDbSavedByObjectVersion
1070
     0
  0
VISUALSTYLE
  5
958
102
{ACAD_XDICTIONARY
360
9D9
102
}
102
{ACAD_REACTORS
330
957
102
}
330
957
100
AcDbVisualStyle
  2
Flat
 70
     0
 71
     2
 72
     1
 73
     1
 90
        2
 40
-0.6
 41
30.0
 62
     5
 63
     7
 74
     0
 91
        0
 64
     7
 65
   257
 75
     1
175
     1
 42
1.0
 92
        8
 66
     7
 43
1.0
 76
     1
 77
     6
 78
     2
 67
     7
 79
     5
170
     0
171
     0
290
     0
174
     0
 93
       13
 44
0.0
173
     0
291
     1
 45
0.0
1001
ACAD
1000
AcDbSavedByObjectVersion
1070
     0
  0
VISUALSTYLE
  5
959
102
{ACAD_XDICTIONARY
360
9DB
102
}
102
{ACAD_REACTORS
330
957
102
}
330
957
100
AcDbVisualStyle
  2
FlatWithEdges
 70
     1
 71
     2
 72
     1
 73
     1
 90
        2
 40
-0.6
 41
30.0
 62
     5
 63
     7
 74
     1
 91
        0
 64
     7
 65
   257
 75
     1
175
     1
 42
1.0
 92
        0
 66
   257
 43
1.0
 76
     1
 77
     6
 78
     2
 67
     7
 79
     5
170
     0
171
     0
290
     0
174
     0
 93
       13
 44
0.0
173
     0
291
     1
 45
0.0
1001
ACAD
1000
AcDbSavedByObjectVersion
1070
     0
  0
VISUALSTYLE
  5
95A
102
{ACAD_XDICTIONARY
360
9DD
102
}
102
{ACAD_REACTORS
330
957
102
}
330
957
100
AcDbVisualStyle
  2
Gouraud
 70
     2
 71
     2
 72
     2
 73
     1
 90
        2
 40
-0.6
 41
30.0
 62
     5
 63
     7
 74
     0
 91
        0
 64
     7
 65
   257
 75
     1
175
     1
 42
1.0
 92
        0
 66
     7
 43
1.0
 76
     1
 77
     6
 78
     2
 67
     7
 79
     5
170
     0
171
     0
290
     0
174
     0
 93
       13
 44
0.0
173
     0
291
     1
 45
0.0
1001
ACAD
1000
AcDbSavedByObjectVersion
1070
     0
  0
VISUALSTYLE
  5
95B
102
{ACAD_XDICTIONARY
360
9DF
102
}
102
{ACAD_REACTORS
330
957
102
}
330
957
100
AcDbVisualStyle
  2
GouraudWithEdges
 70
     3
 71
     2
 72
     2
 73
     1
 90
        2
 40
-0.6
 41
30.0
 62
     5
 63
     7
 74
     1
 91
        0
 64
     7
 65
   257
 75
     1
175
     1
 42
1.0
 92
        0
 66
   257
 43
1.0
 76
     1
 77
     6
 78
     2
 67
     7
 79
     5
170
     0
171
     0
290
     0
174
     0
 93
       13
 44
0.0
173
     0
291
     1
 45
0.0
1001
ACAD
1000
AcDbSavedByObjectVersion
1070
     0
  0
VISUALSTYLE
  5
95F
102
{ACAD_XDICTIONARY
360
9E7
102
}
102
{ACAD_REACTORS
330
957
102
}
330
957
100
AcDbVisualStyle
  2
Hidden
 70
     6
 71
     1
 72
     2
 73
     2
 90
        0
 40
-0.6
 41
-30.0
 62
     5
 63
     7
 74
     2
 91
        2
 64
     7
 65
   257
 75
     2
175
     1
 42
40.0
 92
        0
 66
   257
 43
1.0
 76
     1
 77
     6
 78
     2
 67
     7
 79
     3
170
     0
171
     0
290
     0
174
     0
 93
        1
 44
0.0
173
     0
291
     0
 45
0.0
1001
ACAD
1000
AcDbSavedByObjectVersion
1070
     0
  0
VISUALSTYLE
  5
96D
102
{ACAD_XDICTIONARY
360
A03
102
}
102
{ACAD_REACTORS
330
957
102
}
330
957
100
AcDbVisualStyle
  2
JitterOff
 70
    20
 71
     2
 72
     2
 73
     0
 90
        0
 40
-0.6
 41
-30.0
 62
     5
 63
     7
 74
     1
 91
        4
 64
     7
 65
   257
 75
     1
175
     1
 42
1.0
 92
       10
 66
     7
 43
1.0
 76
     1
 77
     6
 78
     2
 67
     7
 79
     5
170
     0
171
     0
290
     0
174
     0
 93
        1
 44
0.0
173
     0
291
     1
 45
0.0
1001
ACAD
1000
AcDbSavedByObjectVersion
1070
     0
  0
VISUALSTYLE
  5
965
102
{ACAD_XDICTIONARY
360
9F3
102
}
102
{ACAD_REACTORS
330
957
102
}
330
957
100
AcDbVisualStyle
  2
Linepattern
 70
    14
 71
     2
 72
     2
 73
     0
 90
        0
 40
-0.6
 41
-30.0
 62
     5
 63
     7
 74
     1
 91
        4
 64
     7
 65
   257
 75
     7
175
     7
 42
1.0
 92
        8
 66
     7
 43
1.0
 76
     1
 77
     6
 78
     2
 67
     7
 79
     5
170
     0
171
     0
290
     0
174
     0
 93
        1
 44
0.0
173
     0
291
     1
 45
0.0
1001
ACAD
1000
AcDbSavedByObjectVersion
1070
     0
  0
VISUALSTYLE
  5
96E
102
{ACAD_XDICTIONARY
360
A05
102
}
102
{ACAD_REACTORS
330
957
102
}
330
957
100
AcDbVisualStyle
  2
OverhangOff
 70
    21
 71
     2
 72
     2
 73
     0
 90
        0
 40
-0.6
 41
-30.0
 62
     5
 63
     7
 74
     1
 91
        4
 64
     7
 65
   257
 75
     1
175
     1
 42
1.0
 92
        9
 66
     7
 43
1.0
 76
     1
 77
     6
 78
     2
 67
     7
 79
     5
170
     0
171
     0
290
     0
174
     0
 93
        1
 44
0.0
173
     0
291
     1
 45
0.0
1001
ACAD
1000
AcDbSavedByObjectVersion
1070
     0
  0
VISUALSTYLE
  5
961
102
{ACAD_XDICTIONARY
360
9EB
102
}
102
{ACAD_REACTORS
330
957
102
}
330
957
100
AcDbVisualStyle
  2
Realistic
 70
     8
 71
     2
 72
     3
 73
     0
 90
        2
 40
-0.6
 41
30.0
 62
     5
 63
     7
 74
     0
 91
        0
 64
     7
 65
   257
 75
     1
175
     1
 42
1.0
 92
        8
 66
   257
 43
1.0
 76
     1
 77
     6
 78
     2
 67
     7
 79
     3
170
     0
171
     0
290
     0
174
     0
 93
       13
 44
0.0
173
     0
291
     0
 45
0.0
1001
ACAD
1000
AcDbSavedByObjectVersion
1070
     0
  0
VISUALSTYLE
  5
96C
102
{ACAD_XDICTIONARY
360
A01
102
}
102
{ACAD_REACTORS
330
957
102
}
330
957
100
AcDbVisualStyle
  2
Shaded
 70
    27
 71
     2
 72
     2
 73
     1
 90
        2
 40
-0.6
 41
30.0
 62
     5
 63
     7
 74
     0
 91
        4
 64
     7
 65
   257
 75
     1
175
     1
 42
1.0
 92
        8
 66
   257
 43
1.0
 76
     1
 77
     6
 78
     2
 67
     8
 79
     3
170
     0
171
     0
290
     0
174
     0
 93
        5
 44
0.0
173
     0
291
     0
 45
0.0
1001
ACAD
1000
AcDbSavedByObjectVersion
1070
     0
  0
VISUALSTYLE
  5
96B
102
{ACAD_XDICTIONARY
360
9FF
102
}
102
{ACAD_REACTORS
330
957
102
}
330
957
100
AcDbVisualStyle
  2
Shaded with edges
 70
    26
 71
     2
 72
     2
 73
     1
 90
        2
 40
-0.6
 41
30.0
 62
     5
 63
     7
 74
     1
 91
       10
 64
     7
 65
   257
 75
     2
175
     1
 42
1.0
 92
        8
 66
   257
 43
1.0
 76
     1
 77
     6
 78
     2
 67
     7
 79
     3
170
     0
171
     0
290
     0
174
     0
 93
        5
 44
0.0
173
     0
291
     0
 45
0.0
1001
ACAD
1000
AcDbSavedByObjectVersion
1070
     0
  0
VISUALSTYLE
  5
968
102
{ACAD_XDICTIONARY
360
9F9
102
}
102
{ACAD_REACTORS
330
957
102
}
330
957
100
AcDbVisualStyle
  2
Shades of Gray
 70
    23
 71
     2
 72
     2
 73
     3
 90
        0
 40
-0.6
 41
-30.0
 62
     5
 63
     7
 74
     2
 91
        2
 64
     7
 65
     7
 75
     1
175
     1
 42
40.0
 92
        8
 66
     7
 43
1.0
 76
     1
 77
     6
 78
     2
 67
     7
 79
     3
170
     0
171
     0
290
     0
174
     0
 93
        1
 44
0.0
173
     0
291
     0
 45
0.0
1001
ACAD
1000
AcDbSavedByObjectVersion
1070
     0
  0
VISUALSTYLE
  5
969
102
{ACAD_XDICTIONARY
360
9FB
102
}
102
{ACAD_REACTORS
330
957
102
}
330
957
100
AcDbVisualStyle
  2
Sketchy
 70
    24
 71
     1
 72
     2
 73
     2
 90
        0
 40
-0.6
 41
-30.0
 62
     5
 63
     7
 74
     2
 91
        2
 64
     7
 65
     7
 75
     1
175
     1
 42
40.0
 92
       11
 66
     7
 43
1.0
 76
     1
 77
     6
 78
     2
 67
     7
 79
     6
170
     0
171
     0
290
     0
174
     0
 93
        1
 44
0.0
173
     0
291
     0
 45
0.0
1001
ACAD
1000
AcDbSavedByObjectVersion
1070
     0
  0
VISUALSTYLE
  5
964
102
{ACAD_XDICTIONARY
360
9F1
102
}
102
{ACAD_REACTORS
330
957
102
}
330
957
100
AcDbVisualStyle
  2
Thicken
 70
    13
 71
     2
 72
     2
 73
     0
 90
        0
 40
-0.6
 41
-30.0
 62
     5
 63
     7
 74
     1
 91
        4
 64
     7
 65
   257
 75
     1
175
     1
 42
1.0
 92
       12
 66
     7
 43
1.0
 76
     1
 77
     6
 78
     2
 67
     7
 79
     5
170
     0
171
     0
290
     0
174
     0
 93
        1
 44
0.0
173
     0
291
     1
 45
0.0
1001
ACAD
1000
AcDbSavedByObjectVersion
1070
     0
  0
VISUALSTYLE
  5
95E
102
{ACAD_XDICTIONARY
360
9E5
102
}
102
{ACAD_REACTORS
330
957
102
}
330
957
100
AcDbVisualStyle
  2
Wireframe
 70
     5
 71
     0
 72
     2
 73
     0
 90
        0
 40
-0.6
 41
-30.0
 62
     5
 63
     7
 74
     1
 91
        4
 64
     7
 65
   257
 75
     1
175
     1
 42
1.0
 92
        0
 66
   257
 43
1.0
 76
     1
 77
     6
 78
     2
 67
     7
 79
     3
170
     0
171
     0
290
     0
174
     0
 93
        1
 44
0.0
173
     0
291
     0
 45
0.0
1001
ACAD
1000
AcDbSavedByObjectVersion
1070
     0
  0
VISUALSTYLE
  5
96A
102
{ACAD_XDICTIONARY
360
9FD
102
}
102
{ACAD_REACTORS
330
957
102
}
330
957
100
AcDbVisualStyle
  2
X-Ray
 70
    25
 71
     2
 72
     2
 73
     1
 90
        1
 40
0.5
 41
-30.0
 62
     5
 63
     7
 74
     1
 91
        0
 64
     7
 65
   257
 75
     1
175
     1
 42
1.0
 92
        8
 66
     7
 43
1.0
 76
     1
 77
     6
 78
     2
 67
     7
 79
     3
170
     0
171
     0
290
     0
174
     0
 93
       13
 44
0.0
173
     0
291
     0
 45
0.0
1001
ACAD
1000
AcDbSavedByObjectVersion
1070
     0
  0
DICTIONARYVAR
  5
9CC
102
{ACAD_REACTORS
330
9C7
102
}
330
9C7
100
DictionaryVariables
280
     0
  1
1:1
  0
DICTIONARYVAR
  5
9C9
102
{ACAD_REACTORS
330
9C7
102
}
330
9C7
100
DictionaryVariables
280
     0
  1
STANDARD
  0
DICTIONARYVAR
  5
9C8
102
{ACAD_REACTORS
330
9C7
102
}
330
9C7
100
DictionaryVariables
280
     0
  1
STANDARD
  0
DICTIONARYVAR
  5
9CA
102
{ACAD_REACTORS
330
9C7
102
}
330
9C7
100
DictionaryVariables
280
     0
  1
Imperial24
  0
DICTIONARYVAR
  5
9CB
102
{ACAD_REACTORS
330
9C7
102
}
330
9C7
100
DictionaryVariables
280
     0
  1
Imperial24
  0
DICTIONARYVAR
  5
9CF
102
{ACAD_REACTORS
330
9C7
102
}
330
9C7
100
DictionaryVariables
280
     0
  1
1
  0
DICTIONARYVAR
  5
9CE
102
{ACAD_REACTORS
330
9C7
102
}
330
9C7
100
DictionaryVariables
280
     0
  1
0
  0
DICTIONARYVAR
  5
9CD
102
{ACAD_REACTORS
330
9C7
102
}
330
9C7
100
DictionaryVariables
280
     0
  1
127
  0
DICTIONARYVAR
  5
9D0
102
{ACAD_REACTORS
330
9C7
102
}
330
9C7
100
DictionaryVariables
280
     0
  1
2
  0
DICTIONARY
  5
A0D
330
998
100
AcDbDictionary
280
     1
281
     1
  3
ACAD_XREC_ROUNDTRIP
360
A0E
  0
DICTIONARY
  5
A11
330
9A0
100
AcDbDictionary
280
     1
281
     1
  3
ACAD_XREC_ROUNDTRIP
360
A12
  0
DICTIONARY
  5
A0F
330
99C
100
AcDbDictionary
280
     1
281
     1
  3
ACAD_XREC_ROUNDTRIP
360
A10
  0
DICTIONARY
  5
948
330
947
100
AcDbDictionary
280
     1
281
     1
  3
ACAD_XREC_ROUNDTRIP
360
9D7
  3
BUMPTILE
360
94A
  3
DIFFUSETILE
360
949
  3
OPACITYTILE
360
94D
  3
REFLECTIONTILE
360
94C
  3
REFRACTIONTILE
360
94E
  3
SPECULARTILE
360
94B
  0
DICTIONARY
  5
940
330
93F
100
AcDbDictionary
280
     1
281
     1
  3
ACAD_XREC_ROUNDTRIP
360
9D6
  3
BUMPTILE
360
942
  3
DIFFUSETILE
360
941
  3
OPACITYTILE
360
945
  3
REFLECTIONTILE
360
944
  3
REFRACTIONTILE
360
946
  3
SPECULARTILE
360
943
  0
DICTIONARY
  5
950
330
94F
100
AcDbDictionary
280
     1
281
     1
  3
ACAD_XREC_ROUNDTRIP
360
9D8
  3
BUMPTILE
360
952
  3
DIFFUSETILE
360
951
  3
OPACITYTILE
360
955
  3
REFLECTIONTILE
360
954
  3
REFRACTIONTILE
360
956
  3
SPECULARTILE
360
953
  0
DICTIONARY
  5
A0B
330
996
100
AcDbDictionary
280
     1
281
     1
  3
ACAD_XREC_ROUNDTRIP
360
A0C
  0
DICTIONARY
  5
9D2
330
992
100
AcDbDictionary
280
     1
281
     1
  3
ACAD_ROUNDTRIP_2008_TABLESTYLE_CELLSTYLEMAP
360
9D3
  3
ACAD_XREC_ROUNDTRIP
360
A09
  0
DICTIONARY
  5
9E3
330
95D
100
AcDbDictionary
280
     1
281
     1
  3
ACAD_XREC_ROUNDTRIP
360
9E4
  0
DICTIONARY
  5
9E1
330
95C
100
AcDbDictionary
280
     1
281
     1
  3
ACAD_XREC_ROUNDTRIP
360
9E2
  0
DICTIONARY
  5
9EF
330
963
100
AcDbDictionary
280
     1
281
     1
  3
ACAD_XREC_ROUNDTRIP
360
9F0
  0
DICTIONARY
  5
9F7
330
967
100
AcDbDictionary
280
     1
281
     1
  3
ACAD_XREC_ROUNDTRIP
360
9F8
  0
DICTIONARY
  5
9E9
330
960
100
AcDbDictionary
280
     1
281
     1
  3
ACAD_XREC_ROUNDTRIP
360
9EA
  0
DICTIONARY
  5
9ED
330
962
100
AcDbDictionary
280
     1
281
     1
  3
ACAD_XREC_ROUNDTRIP
360
9EE
  0
DICTIONARY
  5
A07
330
96F
100
AcDbDictionary
280
     1
281
     1
  3
ACAD_XREC_ROUNDTRIP
360
A08
  0
DICTIONARY
  5
9F5
330
966
100
AcDbDictionary
280
     1
281
     1
  3
ACAD_XREC_ROUNDTRIP
360
9F6
  0
DICTIONARY
  5
9D9
330
958
100
AcDbDictionary
280
     1
281
     1
  3
ACAD_XREC_ROUNDTRIP
360
9DA
  0
DICTIONARY
  5
9DB
330
959
100
AcDbDictionary
280
     1
281
     1
  3
ACAD_XREC_ROUNDTRIP
360
9DC
  0
DICTIONARY
  5
9DD
330
95A
100
AcDbDictionary
280
     1
281
     1
  3
ACAD_XREC_ROUNDTRIP
360
9DE
  0
DICTIONARY
  5
9DF
330
95B
100
AcDbDictionary
280
     1
281
     1
  3
ACAD_XREC_ROUNDTRIP
360
9E0
  0
DICTIONARY
  5
9E7
330
95F
100
AcDbDictionary
280
     1
281
     1
  3
ACAD_XREC_ROUNDTRIP
360
9E8
  0
DICTIONARY
  5
A03
330
96D
100
AcDbDictionary
280
     1
281
     1
  3
ACAD_XREC_ROUNDTRIP
360
A04
  0
DICTIONARY
  5
9F3
330
965
100
AcDbDictionary
280
     1
281
     1
  3
ACAD_XREC_ROUNDTRIP
360
9F4
  0
DICTIONARY
  5
A05
330
96E
100
AcDbDictionary
280
     1
281
     1
  3
ACAD_XREC_ROUNDTRIP
360
A06
  0
DICTIONARY
  5
9EB
330
961
100
AcDbDictionary
280
     1
281
     1
  3
ACAD_XREC_ROUNDTRIP
360
9EC
  0
DICTIONARY
  5
A01
330
96C
100
AcDbDictionary
280
     1
281
     1
  3
ACAD_XREC_ROUNDTRIP
360
A02
  0
DICTIONARY
  5
9FF
330
96B
100
AcDbDictionary
280
     1
281
     1
  3
ACAD_XREC_ROUNDTRIP
360
A00
  0
DICTIONARY
  5
9F9
330
968
100
AcDbDictionary
280
     1
281
     1
  3
ACAD_XREC_ROUNDTRIP
360
9FA
  0
DICTIONARY
  5
9FB
330
969
100
AcDbDictionary
280
     1
281
     1
  3
ACAD_XREC_ROUNDTRIP
360
9FC
  0
DICTIONARY
  5
9F1
330
964
100
AcDbDictionary
280
     1
281
     1
  3
ACAD_XREC_ROUNDTRIP
360
9F2
  0
DICTIONARY
  5
9E5
330
95E
100
AcDbDictionary
280
     1
281
     1
  3
ACAD_XREC_ROUNDTRIP
360
9E6
  0
DICTIONARY
  5
9FD
330
96A
100
AcDbDictionary
280
     1
281
     1
  3
ACAD_XREC_ROUNDTRIP
360
9FE
  0
XRECORD
  5
A0E
102
{ACAD_REACTORS
330
A0D
102
}
330
A0D
100
AcDbXrecord
280
     1
102
DISPLAYNAME
  1
Imperial24
102
FLAGS
 90
        0
  0
XRECORD
  5
A12
102
{ACAD_REACTORS
330
A11
102
}
330
A11
100
AcDbXrecord
280
     1
102
SHADEPLOT
 70
     0
102
SHADEPLOTRESLEVEL
 70
     2
102
SHADEPLOTCUSTOMDPI
 70
   300
  0
XRECORD
  5
A10
102
{ACAD_REACTORS
330
A0F
102
}
330
A0F
100
AcDbXrecord
280
     1
102
SHADEPLOT
 70
     0
102
SHADEPLOTRESLEVEL
 70
     2
102
SHADEPLOTCUSTOMDPI
 70
   300
  0
XRECORD
  5
9D7
102
{ACAD_REACTORS
330
948
102
}
330
948
100
AcDbXrecord
280
     1
102
MATERIAL
148
0.0
149
0.0
149
0.0
 93
        0
 94
      127
282
     0
 72
     0
 77
     0
171
     0
175
     0
179
     0
273
     0
  0
XRECORD
  5
94A
102
{ACAD_REACTORS
330
948
102
}
330
948
100
AcDbXrecord
280
     1
270
     1
271
     1
  0
XRECORD
  5
949
102
{ACAD_REACTORS
330
948
102
}
330
948
100
AcDbXrecord
280
     1
270
     1
271
     1
  0
XRECORD
  5
94D
102
{ACAD_REACTORS
330
948
102
}
330
948
100
AcDbXrecord
280
     1
270
     1
271
     1
  0
XRECORD
  5
94C
102
{ACAD_REACTORS
330
948
102
}
330
948
100
AcDbXrecord
280
     1
270
     1
271
     1
  0
XRECORD
  5
94E
102
{ACAD_REACTORS
330
948
102
}
330
948
100
AcDbXrecord
280
     1
270
     1
271
     1
  0
XRECORD
  5
94B
102
{ACAD_REACTORS
330
948
102
}
330
948
100
AcDbXrecord
280
     1
270
     1
271
     1
  0
XRECORD
  5
9D6
102
{ACAD_REACTORS
330
940
102
}
330
940
100
AcDbXrecord
280
     1
102
MATERIAL
148
0.0
149
0.0
149
0.0
 93
        0
 94
      127
282
     0
 72
     0
 77
     0
171
     0
175
     0
179
     0
273
     0
  0
XRECORD
  5
942
102
{ACAD_REACTORS
330
940
102
}
330
940
100
AcDbXrecord
280
     1
270
     1
271
     1
  0
XRECORD
  5
941
102
{ACAD_REACTORS
330
940
102
}
330
940
100
AcDbXrecord
280
     1
270
     1
271
     1
  0
XRECORD
  5
945
102
{ACAD_REACTORS
330
940
102
}
330
940
100
AcDbXrecord
280
     1
270
     1
271
     1
  0
XRECORD
  5
944
102
{ACAD_REACTORS
330
940
102
}
330
940
100
AcDbXrecord
280
     1
270
     1
271
     1
  0
XRECORD
  5
946
102
{ACAD_REACTORS
330
940
102
}
330
940
100
AcDbXrecord
280
     1
270
     1
271
     1
  0
XRECORD
  5
943
102
{ACAD_REACTORS
330
940
102
}
330
940
100
AcDbXrecord
280
     1
270
     1
271
     1
  0
XRECORD
  5
9D8
102
{ACAD_REACTORS
330
950
102
}
330
950
100
AcDbXrecord
280
     1
102
MATERIAL
148
0.0
149
0.0
149
0.0
 93
        0
 94
      127
282
     0
 72
     0
 77
     0
171
     0
175
     0
179
     0
273
     0
  0
XRECORD
  5
952
102
{ACAD_REACTORS
330
950
102
}
330
950
100
AcDbXrecord
280
     1
270
     1
271
     1
  0
XRECORD
  5
951
102
{ACAD_REACTORS
330
950
102
}
330
950
100
AcDbXrecord
280
     1
270
     1
271
     1
  0
XRECORD
  5
955
102
{ACAD_REACTORS
330
950
102
}
330
950
100
AcDbXrecord
280
     1
270
     1
271
     1
  0
XRECORD
  5
954
102
{ACAD_REACTORS
330
950
102
}
330
950
100
AcDbXrecord
280
     1
270
     1
271
     1
  0
XRECORD
  5
956
102
{ACAD_REACTORS
330
950
102
}
330
950
100
AcDbXrecord
280
     1
270
     1
271
     1
  0
XRECORD
  5
953
102
{ACAD_REACTORS
330
950
102
}
330
950
100
AcDbXrecord
280
     1
270
     1
271
     1
  0
XRECORD
  5
A0C
102
{ACAD_REACTORS
330
A0B
102
}
330
A0B
100
AcDbXrecord
280
     1
102
DISPLAYNAME
  1
Imperial24
102
FLAGS
 90
        0
  0
CELLSTYLEMAP
  5
9D3
102
{ACAD_REACTORS
330
9D2
102
}
330
9D2
100
AcDbCellStyleMap
 90
        3
300
CELLSTYLE
  1
TABLEFORMAT_BEGIN
 90
        5
170
     1
 91
        0
 92
    32768
 62
   257
 93
        1
300
CONTENTFORMAT
  1
CONTENTFORMAT_BEGIN
 90
        0
 91
        0
 92
      512
 93
        0
300

 40
0.0
140
1.0
 94
        5
 62
     0
340
983
144
0.25
309
CONTENTFORMAT_END
171
     0
 94
        0
309
TABLEFORMAT_END
  1
CELLSTYLE_BEGIN
 90
        1
 91
        1
300
_TITLE
309
CELLSTYLE_END
300
CELLSTYLE
  1
TABLEFORMAT_BEGIN
 90
        5
170
     1
 91
        0
 92
        0
 62
   257
 93
        1
300
CONTENTFORMAT
  1
CONTENTFORMAT_BEGIN
 90
        0
 91
        0
 92
      512
 93
        0
300

 40
0.0
140
1.0
 94
        5
 62
     0
340
983
144
0.18
309
CONTENTFORMAT_END
171
     0
 94
        0
309
TABLEFORMAT_END
  1
CELLSTYLE_BEGIN
 90
        2
 91
        1
300
_HEADER
309
CELLSTYLE_END
300
CELLSTYLE
  1
TABLEFORMAT_BEGIN
 90
        5
170
     1
 91
        0
 92
        0
 62
   257
 93
        1
300
CONTENTFORMAT
  1
CONTENTFORMAT_BEGIN
 90
        0
 91
        0
 92
      512
 93
        0
300

 40
0.0
140
1.0
 94
        2
 62
     0
340
983
144
0.18
309
CONTENTFORMAT_END
171
     0
 94
        0
309
TABLEFORMAT_END
  1
CELLSTYLE_BEGIN
 90
        3
 91
        2
300
_DATA
309
CELLSTYLE_END
  0
XRECORD
  5
A09
102
{ACAD_REACTORS
330
9D2
102
}
330
9D2
100
AcDbXrecord
280
     1
102
ACAD_ROUNDTRIP_PRE2007_TABLESTYLE
 90
      512
 91
        0
  1

 92
      512
 93
        0
  2

 94
      512
 95
        0
  3

  0
XRECORD
  5
9E4
102
{ACAD_REACTORS
330
9E3
102
}
330
9E3
100
AcDbXrecord
280
     1
102
RTVSPost2010Prop28
280
     1
102
RTVSPost2010PropOp28
 70
     1
102
RTVSPost2010Prop29
280
     1
102
RTVSPost2010PropOp29
 70
     1
102
RTVSPost2010Prop30
280
     0
102
RTVSPost2010PropOp30
 70
     1
102
RTVSPost2010Prop31
280
     0
102
RTVSPost2010PropOp31
 70
     1
102
RTVSPost2010Prop32
280
     0
102
RTVSPost2010PropOp32
 70
     1
102
RTVSPost2010Prop33
280
     0
102
RTVSPost2010PropOp33
 70
     1
102
RTVSPost2010Prop34
280
     0
102
RTVSPost2010PropOp34
 70
     1
102
RTVSPost2010Prop35
280
     0
102
RTVSPost2010PropOp35
 70
     1
102
RTVSPost2010Prop36
280
     0
102
RTVSPost2010PropOp36
 70
     1
102
RTVSPost2010Prop37
 90
       50
102
RTVSPost2010PropOp37
 70
     1
102
RTVSPost2010Prop38
140
0.0
102
RTVSPost2010PropOp38
 70
     1
102
RTVSPost2010Prop39
140
1.0
102
RTVSPost2010PropOp39
 70
     1
102
RTVSPost2010Prop40
 90
        0
102
RTVSPost2010PropOp40
 70
     1
102
RTVSPost2010Prop41ColorIndex
 90
       18
102
RTVSPost2010Prop41ColorRGB
 90
        0
102
RTVSPost2010PropOp41
 70
     1
102
RTVSPost2010Prop42
 90
       50
102
RTVSPost2010PropOp42
 70
     1
102
RTVSPost2010Prop43
 90
        3
102
RTVSPost2010PropOp43
 70
     1
102
RTVSPost2010Prop44ColorIndex
 90
        5
102
RTVSPost2010Prop44ColorRGB
 90
      255
102
RTVSPost2010PropOp44
 70
     1
102
RTVSPost2010Prop45
280
     0
102
RTVSPost2010PropOp45
 70
     1
102
RTVSPost2010Prop46
 90
       50
102
RTVSPost2010PropOp46
 70
     1
102
RTVSPost2010Prop47
 90
       50
102
RTVSPost2010PropOp47
 70
     1
102
RTVSPost2010Prop48
 90
       50
102
RTVSPost2010PropOp48
 70
     1
102
RTVSPost2010Prop49
280
     0
102
RTVSPost2010PropOp49
 70
     1
102
RTVSPost2010Prop50
 90
       50
102
RTVSPost2010PropOp50
 70
     1
102
RTVSPost2010Prop51ColorIndex
 90
      256
102
RTVSPost2010Prop51ColorRGB
 90
-16777216
102
RTVSPost2010PropOp51
 70
     0
102
RTVSPost2010Prop52
140
1.0
102
RTVSPost2010PropOp52
 70
     0
102
RTVSPost2010Prop53
 90
        2
102
RTVSPost2010PropOp53
 70
     1
102
RTVSPost2010Prop54
  1
strokes_ogs.tif
102
RTVSPost2010PropOp54
 70
     1
102
RTVSPost2010Prop55
280
     0
102
RTVSPost2010PropOp55
 70
     1
102
RTVSPost2010Prop56
140
1.0
102
RTVSPost2010PropOp56
 70
     1
102
RTVSPost2010Prop57
140
1.0
102
RTVSPost2010PropOp57
 70
     1
102
RTVSPropertyOp0
 70
     1
102
RTVSPropertyOp1
 70
     1
102
RTVSPropertyOp2
 70
     1
102
RTVSPropertyOp3
 70
     1
102
RTVSPropertyOp4
 70
     1
102
RTVSPropertyOp5
 70
     1
102
RTVSPropertyOp6
 70
     1
102
RTVSPropertyOp7
 70
     1
102
RTVSPropertyOp8
 70
     1
102
RTVSPropertyOp9
 70
     1
102
RTVSPropertyOp10
 70
     1
102
RTVSPropertyOp11
 70
     1
102
RTVSPropertyOp12
 70
     1
102
RTVSPropertyOp13
 70
     1
102
RTVSPropertyOp14
 70
     1
102
RTVSPropertyOp15
 70
     1
102
RTVSPropertyOp16
 70
     1
102
RTVSPropertyOp17
 70
     1
102
RTVSPropertyOp18
 70
     1
102
RTVSPropertyOp19
 70
     1
102
RTVSPropertyOp20
 70
     1
102
RTVSPropertyOp21
 70
     1
102
RTVSPropertyOp22
 70
     1
102
RTVSPropertyOp23
 70
     1
102
RTVSPropertyOp24
 70
     1
102
RTVSPropertyOp25
 70
     1
102
RTVSPropertyOp26
 70
     1
102
RTVSPropertyOp27
 70
     1
102
RTVSPropertyOp28
 70
     1
102
RTVSPropertyOp29
 70
     1
102
RTVSPropertyOp30
 70
     1
102
RTVSPropertyOp31
 70
     1
102
RTVSPropertyOp32
 70
     1
102
RTVSPropertyOp33
 70
     1
102
RTVSPropertyOp34
 70
     1
102
RTVSPropertyOp35
 70
     1
102
RTVSPropertyOp36
 70
     1
102
RTVSPropertyOp37
 70
     1
102
RTVSPropertyOp38
 70
     1
102
RTVSPropertyOp39
 70
     1
102
RTVSPropertyOp40
 70
     1
102
RTVSPropertyOp41
 70
     1
102
RTVSPropertyOp42
 70
     1
102
RTVSPropertyOp43
 70
     1
102
RTVSPropertyOp44
 70
     1
102
RTVSPropertyOp45
 70
     1
102
RTVSPropertyOp46
 70
     1
102
RTVSPropertyOp47
 70
     1
102
RTVSPropertyOp48
 70
     1
102
RTVSPropertyOp49
 70
     1
102
RTVSPropertyOp50
 70
     1
102
RTVSPropertyOp51
 70
     0
102
RTVSPropertyOp52
 70
     0
102
RTVSPropertyOp53
 70
     1
102
RTVSPropertyOp54
 70
     1
102
RTVSPropertyOp55
 70
     1
102
RTVSPropertyOp56
 70
     1
102
RTVSPropertyOp57
 70
     1
102
RTVSPropertyOp58
 70
     1
102
RTVSPropertyOp59
 70
     1
102
RTVSPropertyOp60
 70
     1
102
RTVSPropertyOp61
 70
     1
102
RTVSPropertyOp62
 70
     1
  0
XRECORD
  5
9E2
102
{ACAD_REACTORS
330
9E1
102
}
330
9E1
100
AcDbXrecord
280
     1
102
RTVSPost2010Prop28
280
     0
102
RTVSPost2010PropOp28
 70
     1
102
RTVSPost2010Prop29
280
     1
102
RTVSPost2010PropOp29
 70
     1
102
RTVSPost2010Prop30
280
     1
102
RTVSPost2010PropOp30
 70
     1
102
RTVSPost2010Prop31
280
     0
102
RTVSPost2010PropOp31
 70
     1
102
RTVSPost2010Prop32
280
     0
102
RTVSPost2010PropOp32
 70
     1
102
RTVSPost2010Prop33
280
     0
102
RTVSPost2010PropOp33
 70
     1
102
RTVSPost2010Prop34
280
     0
102
RTVSPost2010PropOp34
 70
     1
102
RTVSPost2010Prop35
280
     0
102
RTVSPost2010PropOp35
 70
     1
102
RTVSPost2010Prop36
280
     0
102
RTVSPost2010PropOp36
 70
     1
102
RTVSPost2010Prop37
 90
       50
102
RTVSPost2010PropOp37
 70
     1
102
RTVSPost2010Prop38
140
0.0
102
RTVSPost2010PropOp38
 70
     1
102
RTVSPost2010Prop39
140
1.0
102
RTVSPost2010PropOp39
 70
     1
102
RTVSPost2010Prop40
 90
        0
102
RTVSPost2010PropOp40
 70
     1
102
RTVSPost2010Prop41ColorIndex
 90
       18
102
RTVSPost2010Prop41ColorRGB
 90
        0
102
RTVSPost2010PropOp41
 70
     1
102
RTVSPost2010Prop42
 90
       50
102
RTVSPost2010PropOp42
 70
     1
102
RTVSPost2010Prop43
 90
        3
102
RTVSPost2010PropOp43
 70
     1
102
RTVSPost2010Prop44ColorIndex
 90
        5
102
RTVSPost2010Prop44ColorRGB
 90
      255
102
RTVSPost2010PropOp44
 70
     1
102
RTVSPost2010Prop45
280
     0
102
RTVSPost2010PropOp45
 70
     1
102
RTVSPost2010Prop46
 90
       50
102
RTVSPost2010PropOp46
 70
     1
102
RTVSPost2010Prop47
 90
       50
102
RTVSPost2010PropOp47
 70
     1
102
RTVSPost2010Prop48
 90
       50
102
RTVSPost2010PropOp48
 70
     1
102
RTVSPost2010Prop49
280
     0
102
RTVSPost2010PropOp49
 70
     1
102
RTVSPost2010Prop50
 90
       50
102
RTVSPost2010PropOp50
 70
     1
102
RTVSPost2010Prop51ColorIndex
 90
      256
102
RTVSPost2010Prop51ColorRGB
 90
-16777216
102
RTVSPost2010PropOp51
 70
     0
102
RTVSPost2010Prop52
140
1.0
102
RTVSPost2010PropOp52
 70
     0
102
RTVSPost2010Prop53
 90
        2
102
RTVSPost2010PropOp53
 70
     1
102
RTVSPost2010Prop54
  1
strokes_ogs.tif
102
RTVSPost2010PropOp54
 70
     1
102
RTVSPost2010Prop55
280
     0
102
RTVSPost2010PropOp55
 70
     1
102
RTVSPost2010Prop56
140
1.0
102
RTVSPost2010PropOp56
 70
     1
102
RTVSPost2010Prop57
140
1.0
102
RTVSPost2010PropOp57
 70
     1
102
RTVSPropertyOp0
 70
     1
102
RTVSPropertyOp1
 70
     1
102
RTVSPropertyOp2
 70
     1
102
RTVSPropertyOp3
 70
     1
102
RTVSPropertyOp4
 70
     1
102
RTVSPropertyOp5
 70
     1
102
RTVSPropertyOp6
 70
     1
102
RTVSPropertyOp7
 70
     1
102
RTVSPropertyOp8
 70
     1
102
RTVSPropertyOp9
 70
     1
102
RTVSPropertyOp10
 70
     1
102
RTVSPropertyOp11
 70
     1
102
RTVSPropertyOp12
 70
     1
102
RTVSPropertyOp13
 70
     1
102
RTVSPropertyOp14
 70
     1
102
RTVSPropertyOp15
 70
     1
102
RTVSPropertyOp16
 70
     1
102
RTVSPropertyOp17
 70
     1
102
RTVSPropertyOp18
 70
     1
102
RTVSPropertyOp19
 70
     1
102
RTVSPropertyOp20
 70
     1
102
RTVSPropertyOp21
 70
     1
102
RTVSPropertyOp22
 70
     1
102
RTVSPropertyOp23
 70
     1
102
RTVSPropertyOp24
 70
     1
102
RTVSPropertyOp25
 70
     1
102
RTVSPropertyOp26
 70
     1
102
RTVSPropertyOp27
 70
     1
102
RTVSPropertyOp28
 70
     1
102
RTVSPropertyOp29
 70
     1
102
RTVSPropertyOp30
 70
     1
102
RTVSPropertyOp31
 70
     1
102
RTVSPropertyOp32
 70
     1
102
RTVSPropertyOp33
 70
     1
102
RTVSPropertyOp34
 70
     1
102
RTVSPropertyOp35
 70
     1
102
RTVSPropertyOp36
 70
     1
102
RTVSPropertyOp37
 70
     1
102
RTVSPropertyOp38
 70
     1
102
RTVSPropertyOp39
 70
     1
102
RTVSPropertyOp40
 70
     1
102
RTVSPropertyOp41
 70
     1
102
RTVSPropertyOp42
 70
     1
102
RTVSPropertyOp43
 70
     1
102
RTVSPropertyOp44
 70
     1
102
RTVSPropertyOp45
 70
     1
102
RTVSPropertyOp46
 70
     1
102
RTVSPropertyOp47
 70
     1
102
RTVSPropertyOp48
 70
     1
102
RTVSPropertyOp49
 70
     1
102
RTVSPropertyOp50
 70
     1
102
RTVSPropertyOp51
 70
     0
102
RTVSPropertyOp52
 70
     0
102
RTVSPropertyOp53
 70
     1
102
RTVSPropertyOp54
 70
     1
102
RTVSPropertyOp55
 70
     1
102
RTVSPropertyOp56
 70
     1
102
RTVSPropertyOp57
 70
     1
102
RTVSPropertyOp58
 70
     1
102
RTVSPropertyOp59
 70
     1
102
RTVSPropertyOp60
 70
     1
102
RTVSPropertyOp61
 70
     1
102
RTVSPropertyOp62
 70
     1
  0
XRECORD
  5
9F0
102
{ACAD_REACTORS
330
9EF
102
}
330
9EF
100
AcDbXrecord
280
     1
102
RTVSPost2010Prop28
280
     0
102
RTVSPost2010PropOp28
 70
     1
102
RTVSPost2010Prop29
280
     1
102
RTVSPost2010PropOp29
 70
     1
102
RTVSPost2010Prop30
280
     1
102
RTVSPost2010PropOp30
 70
     1
102
RTVSPost2010Prop31
280
     0
102
RTVSPost2010PropOp31
 70
     1
102
RTVSPost2010Prop32
280
     0
102
RTVSPost2010PropOp32
 70
     1
102
RTVSPost2010Prop33
280
     0
102
RTVSPost2010PropOp33
 70
     1
102
RTVSPost2010Prop34
280
     0
102
RTVSPost2010PropOp34
 70
     1
102
RTVSPost2010Prop35
280
     0
102
RTVSPost2010PropOp35
 70
     1
102
RTVSPost2010Prop36
280
     0
102
RTVSPost2010PropOp36
 70
     1
102
RTVSPost2010Prop37
 90
       50
102
RTVSPost2010PropOp37
 70
     1
102
RTVSPost2010Prop38
140
0.0
102
RTVSPost2010PropOp38
 70
     1
102
RTVSPost2010Prop39
140
1.0
102
RTVSPost2010PropOp39
 70
     1
102
RTVSPost2010Prop40
 90
        0
102
RTVSPost2010PropOp40
 70
     1
102
RTVSPost2010Prop41ColorIndex
 90
       18
102
RTVSPost2010Prop41ColorRGB
 90
        0
102
RTVSPost2010PropOp41
 70
     1
102
RTVSPost2010Prop42
 90
       50
102
RTVSPost2010PropOp42
 70
     1
102
RTVSPost2010Prop43
 90
        3
102
RTVSPost2010PropOp43
 70
     1
102
RTVSPost2010Prop44ColorIndex
 90
        5
102
RTVSPost2010Prop44ColorRGB
 90
      255
102
RTVSPost2010PropOp44
 70
     1
102
RTVSPost2010Prop45
280
     0
102
RTVSPost2010PropOp45
 70
     1
102
RTVSPost2010Prop46
 90
       50
102
RTVSPost2010PropOp46
 70
     1
102
RTVSPost2010Prop47
 90
       50
102
RTVSPost2010PropOp47
 70
     1
102
RTVSPost2010Prop48
 90
       50
102
RTVSPost2010PropOp48
 70
     1
102
RTVSPost2010Prop49
280
     0
102
RTVSPost2010PropOp49
 70
     1
102
RTVSPost2010Prop50
 90
       50
102
RTVSPost2010PropOp50
 70
     1
102
RTVSPost2010Prop51ColorIndex
 90
      256
102
RTVSPost2010Prop51ColorRGB
 90
-16777216
102
RTVSPost2010PropOp51
 70
     0
102
RTVSPost2010Prop52
140
1.0
102
RTVSPost2010PropOp52
 70
     0
102
RTVSPost2010Prop53
 90
        2
102
RTVSPost2010PropOp53
 70
     1
102
RTVSPost2010Prop54
  1
strokes_ogs.tif
102
RTVSPost2010PropOp54
 70
     1
102
RTVSPost2010Prop55
280
     0
102
RTVSPost2010PropOp55
 70
     1
102
RTVSPost2010Prop56
140
1.0
102
RTVSPost2010PropOp56
 70
     1
102
RTVSPost2010Prop57
140
1.0
102
RTVSPost2010PropOp57
 70
     1
102
RTVSPropertyOp0
 70
     1
102
RTVSPropertyOp1
 70
     1
102
RTVSPropertyOp2
 70
     1
102
RTVSPropertyOp3
 70
     1
102
RTVSPropertyOp4
 70
     1
102
RTVSPropertyOp5
 70
     1
102
RTVSPropertyOp6
 70
     1
102
RTVSPropertyOp7
 70
     1
102
RTVSPropertyOp8
 70
     1
102
RTVSPropertyOp9
 70
     1
102
RTVSPropertyOp10
 70
     1
102
RTVSPropertyOp11
 70
     1
102
RTVSPropertyOp12
 70
     1
102
RTVSPropertyOp13
 70
     1
102
RTVSPropertyOp14
 70
     1
102
RTVSPropertyOp15
 70
     1
102
RTVSPropertyOp16
 70
     1
102
RTVSPropertyOp17
 70
     1
102
RTVSPropertyOp18
 70
     1
102
RTVSPropertyOp19
 70
     1
102
RTVSPropertyOp20
 70
     1
102
RTVSPropertyOp21
 70
     1
102
RTVSPropertyOp22
 70
     1
102
RTVSPropertyOp23
 70
     1
102
RTVSPropertyOp24
 70
     1
102
RTVSPropertyOp25
 70
     1
102
RTVSPropertyOp26
 70
     1
102
RTVSPropertyOp27
 70
     1
102
RTVSPropertyOp28
 70
     1
102
RTVSPropertyOp29
 70
     1
102
RTVSPropertyOp30
 70
     1
102
RTVSPropertyOp31
 70
     1
102
RTVSPropertyOp32
 70
     1
102
RTVSPropertyOp33
 70
     1
102
RTVSPropertyOp34
 70
     1
102
RTVSPropertyOp35
 70
     1
102
RTVSPropertyOp36
 70
     1
102
RTVSPropertyOp37
 70
     1
102
RTVSPropertyOp38
 70
     1
102
RTVSPropertyOp39
 70
     1
102
RTVSPropertyOp40
 70
     1
102
RTVSPropertyOp41
 70
     1
102
RTVSPropertyOp42
 70
     1
102
RTVSPropertyOp43
 70
     1
102
RTVSPropertyOp44
 70
     1
102
RTVSPropertyOp45
 70
     1
102
RTVSPropertyOp46
 70
     1
102
RTVSPropertyOp47
 70
     1
102
RTVSPropertyOp48
 70
     1
102
RTVSPropertyOp49
 70
     1
102
RTVSPropertyOp50
 70
     1
102
RTVSPropertyOp51
 70
     0
102
RTVSPropertyOp52
 70
     0
102
RTVSPropertyOp53
 70
     1
102
RTVSPropertyOp54
 70
     1
102
RTVSPropertyOp55
 70
     1
102
RTVSPropertyOp56
 70
     1
102
RTVSPropertyOp57
 70
     1
102
RTVSPropertyOp58
 70
     1
102
RTVSPropertyOp59
 70
     1
102
RTVSPropertyOp60
 70
     1
102
RTVSPropertyOp61
 70
     1
102
RTVSPropertyOp62
 70
     1
  0
XRECORD
  5
9F8
102
{ACAD_REACTORS
330
9F7
102
}
330
9F7
100
AcDbXrecord
280
     1
102
RTVSPost2010Prop28
280
     0
102
RTVSPost2010PropOp28
 70
     1
102
RTVSPost2010Prop29
280
     1
102
RTVSPost2010PropOp29
 70
     1
102
RTVSPost2010Prop30
280
     1
102
RTVSPost2010PropOp30
 70
     1
102
RTVSPost2010Prop31
280
     0
102
RTVSPost2010PropOp31
 70
     1
102
RTVSPost2010Prop32
280
     0
102
RTVSPost2010PropOp32
 70
     1
102
RTVSPost2010Prop33
280
     0
102
RTVSPost2010PropOp33
 70
     1
102
RTVSPost2010Prop34
280
     0
102
RTVSPost2010PropOp34
 70
     1
102
RTVSPost2010Prop35
280
     0
102
RTVSPost2010PropOp35
 70
     1
102
RTVSPost2010Prop36
280
     0
102
RTVSPost2010PropOp36
 70
     1
102
RTVSPost2010Prop37
 90
       50
102
RTVSPost2010PropOp37
 70
     1
102
RTVSPost2010Prop38
140
0.0
102
RTVSPost2010PropOp38
 70
     1
102
RTVSPost2010Prop39
140
1.0
102
RTVSPost2010PropOp39
 70
     1
102
RTVSPost2010Prop40
 90
        0
102
RTVSPost2010PropOp40
 70
     1
102
RTVSPost2010Prop41ColorIndex
 90
       18
102
RTVSPost2010Prop41ColorRGB
 90
        0
102
RTVSPost2010PropOp41
 70
     1
102
RTVSPost2010Prop42
 90
       50
102
RTVSPost2010PropOp42
 70
     1
102
RTVSPost2010Prop43
 90
        3
102
RTVSPost2010PropOp43
 70
     1
102
RTVSPost2010Prop44ColorIndex
 90
        5
102
RTVSPost2010Prop44ColorRGB
 90
      255
102
RTVSPost2010PropOp44
 70
     1
102
RTVSPost2010Prop45
280
     0
102
RTVSPost2010PropOp45
 70
     1
102
RTVSPost2010Prop46
 90
       50
102
RTVSPost2010PropOp46
 70
     1
102
RTVSPost2010Prop47
 90
       50
102
RTVSPost2010PropOp47
 70
     1
102
RTVSPost2010Prop48
 90
       50
102
RTVSPost2010PropOp48
 70
     1
102
RTVSPost2010Prop49
280
     0
102
RTVSPost2010PropOp49
 70
     1
102
RTVSPost2010Prop50
 90
       50
102
RTVSPost2010PropOp50
 70
     1
102
RTVSPost2010Prop51ColorIndex
 90
      256
102
RTVSPost2010Prop51ColorRGB
 90
-16777216
102
RTVSPost2010PropOp51
 70
     0
102
RTVSPost2010Prop52
140
1.0
102
RTVSPost2010PropOp52
 70
     0
102
RTVSPost2010Prop53
 90
        2
102
RTVSPost2010PropOp53
 70
     1
102
RTVSPost2010Prop54
  1
strokes_ogs.tif
102
RTVSPost2010PropOp54
 70
     1
102
RTVSPost2010Prop55
280
     0
102
RTVSPost2010PropOp55
 70
     1
102
RTVSPost2010Prop56
140
1.0
102
RTVSPost2010PropOp56
 70
     1
102
RTVSPost2010Prop57
140
1.0
102
RTVSPost2010PropOp57
 70
     1
102
RTVSPropertyOp0
 70
     1
102
RTVSPropertyOp1
 70
     1
102
RTVSPropertyOp2
 70
     1
102
RTVSPropertyOp3
 70
     1
102
RTVSPropertyOp4
 70
     1
102
RTVSPropertyOp5
 70
     1
102
RTVSPropertyOp6
 70
     1
102
RTVSPropertyOp7
 70
     1
102
RTVSPropertyOp8
 70
     1
102
RTVSPropertyOp9
 70
     1
102
RTVSPropertyOp10
 70
     1
102
RTVSPropertyOp11
 70
     1
102
RTVSPropertyOp12
 70
     1
102
RTVSPropertyOp13
 70
     1
102
RTVSPropertyOp14
 70
     1
102
RTVSPropertyOp15
 70
     1
102
RTVSPropertyOp16
 70
     1
102
RTVSPropertyOp17
 70
     1
102
RTVSPropertyOp18
 70
     1
102
RTVSPropertyOp19
 70
     1
102
RTVSPropertyOp20
 70
     1
102
RTVSPropertyOp21
 70
     1
102
RTVSPropertyOp22
 70
     1
102
RTVSPropertyOp23
 70
     1
102
RTVSPropertyOp24
 70
     1
102
RTVSPropertyOp25
 70
     1
102
RTVSPropertyOp26
 70
     1
102
RTVSPropertyOp27
 70
     1
102
RTVSPropertyOp28
 70
     1
102
RTVSPropertyOp29
 70
     1
102
RTVSPropertyOp30
 70
     1
102
RTVSPropertyOp31
 70
     1
102
RTVSPropertyOp32
 70
     1
102
RTVSPropertyOp33
 70
     1
102
RTVSPropertyOp34
 70
     1
102
RTVSPropertyOp35
 70
     1
102
RTVSPropertyOp36
 70
     1
102
RTVSPropertyOp37
 70
     1
102
RTVSPropertyOp38
 70
     1
102
RTVSPropertyOp39
 70
     1
102
RTVSPropertyOp40
 70
     1
102
RTVSPropertyOp41
 70
     1
102
RTVSPropertyOp42
 70
     1
102
RTVSPropertyOp43
 70
     1
102
RTVSPropertyOp44
 70
     1
102
RTVSPropertyOp45
 70
     1
102
RTVSPropertyOp46
 70
     1
102
RTVSPropertyOp47
 70
     1
102
RTVSPropertyOp48
 70
     1
102
RTVSPropertyOp49
 70
     1
102
RTVSPropertyOp50
 70
     1
102
RTVSPropertyOp51
 70
     0
102
RTVSPropertyOp52
 70
     0
102
RTVSPropertyOp53
 70
     1
102
RTVSPropertyOp54
 70
     1
102
RTVSPropertyOp55
 70
     1
102
RTVSPropertyOp56
 70
     1
102
RTVSPropertyOp57
 70
     1
102
RTVSPropertyOp58
 70
     1
102
RTVSPropertyOp59
 70
     1
102
RTVSPropertyOp60
 70
     1
102
RTVSPropertyOp61
 70
     1
102
RTVSPropertyOp62
 70
     1
  0
XRECORD
  5
9EA
102
{ACAD_REACTORS
330
9E9
102
}
330
9E9
100
AcDbXrecord
280
     1
102
RTVSPost2010Prop28
280
     0
102
RTVSPost2010PropOp28
 70
     1
102
RTVSPost2010Prop29
280
     1
102
RTVSPost2010PropOp29
 70
     1
102
RTVSPost2010Prop30
280
     1
102
RTVSPost2010PropOp30
 70
     1
102
RTVSPost2010Prop31
280
     0
102
RTVSPost2010PropOp31
 70
     1
102
RTVSPost2010Prop32
280
     0
102
RTVSPost2010PropOp32
 70
     1
102
RTVSPost2010Prop33
280
     0
102
RTVSPost2010PropOp33
 70
     1
102
RTVSPost2010Prop34
280
     0
102
RTVSPost2010PropOp34
 70
     1
102
RTVSPost2010Prop35
280
     0
102
RTVSPost2010PropOp35
 70
     1
102
RTVSPost2010Prop36
280
     0
102
RTVSPost2010PropOp36
 70
     1
102
RTVSPost2010Prop37
 90
       50
102
RTVSPost2010PropOp37
 70
     1
102
RTVSPost2010Prop38
140
0.0
102
RTVSPost2010PropOp38
 70
     1
102
RTVSPost2010Prop39
140
1.0
102
RTVSPost2010PropOp39
 70
     1
102
RTVSPost2010Prop40
 90
        0
102
RTVSPost2010PropOp40
 70
     1
102
RTVSPost2010Prop41ColorIndex
 90
       18
102
RTVSPost2010Prop41ColorRGB
 90
        0
102
RTVSPost2010PropOp41
 70
     1
102
RTVSPost2010Prop42
 90
       50
102
RTVSPost2010PropOp42
 70
     1
102
RTVSPost2010Prop43
 90
        3
102
RTVSPost2010PropOp43
 70
     1
102
RTVSPost2010Prop44ColorIndex
 90
        5
102
RTVSPost2010Prop44ColorRGB
 90
      255
102
RTVSPost2010PropOp44
 70
     1
102
RTVSPost2010Prop45
280
     0
102
RTVSPost2010PropOp45
 70
     1
102
RTVSPost2010Prop46
 90
       50
102
RTVSPost2010PropOp46
 70
     1
102
RTVSPost2010Prop47
 90
       50
102
RTVSPost2010PropOp47
 70
     1
102
RTVSPost2010Prop48
 90
       50
102
RTVSPost2010PropOp48
 70
     1
102
RTVSPost2010Prop49
280
     0
102
RTVSPost2010PropOp49
 70
     1
102
RTVSPost2010Prop50
 90
       50
102
RTVSPost2010PropOp50
 70
     1
102
RTVSPost2010Prop51ColorIndex
 90
      256
102
RTVSPost2010Prop51ColorRGB
 90
-16777216
102
RTVSPost2010PropOp51
 70
     0
102
RTVSPost2010Prop52
140
1.0
102
RTVSPost2010PropOp52
 70
     0
102
RTVSPost2010Prop53
 90
        2
102
RTVSPost2010PropOp53
 70
     1
102
RTVSPost2010Prop54
  1
strokes_ogs.tif
102
RTVSPost2010PropOp54
 70
     1
102
RTVSPost2010Prop55
280
     0
102
RTVSPost2010PropOp55
 70
     1
102
RTVSPost2010Prop56
140
1.0
102
RTVSPost2010PropOp56
 70
     1
102
RTVSPost2010Prop57
140
1.0
102
RTVSPost2010PropOp57
 70
     1
102
RTVSPropertyOp0
 70
     1
102
RTVSPropertyOp1
 70
     1
102
RTVSPropertyOp2
 70
     1
102
RTVSPropertyOp3
 70
     1
102
RTVSPropertyOp4
 70
     1
102
RTVSPropertyOp5
 70
     1
102
RTVSPropertyOp6
 70
     1
102
RTVSPropertyOp7
 70
     1
102
RTVSPropertyOp8
 70
     1
102
RTVSPropertyOp9
 70
     1
102
RTVSPropertyOp10
 70
     1
102
RTVSPropertyOp11
 70
     1
102
RTVSPropertyOp12
 70
     1
102
RTVSPropertyOp13
 70
     1
102
RTVSPropertyOp14
 70
     1
102
RTVSPropertyOp15
 70
     1
102
RTVSPropertyOp16
 70
     1
102
RTVSPropertyOp17
 70
     1
102
RTVSPropertyOp18
 70
     1
102
RTVSPropertyOp19
 70
     1
102
RTVSPropertyOp20
 70
     1
102
RTVSPropertyOp21
 70
     1
102
RTVSPropertyOp22
 70
     1
102
RTVSPropertyOp23
 70
     1
102
RTVSPropertyOp24
 70
     1
102
RTVSPropertyOp25
 70
     1
102
RTVSPropertyOp26
 70
     1
102
RTVSPropertyOp27
 70
     1
102
RTVSPropertyOp28
 70
     1
102
RTVSPropertyOp29
 70
     1
102
RTVSPropertyOp30
 70
     1
102
RTVSPropertyOp31
 70
     1
102
RTVSPropertyOp32
 70
     1
102
RTVSPropertyOp33
 70
     1
102
RTVSPropertyOp34
 70
     1
102
RTVSPropertyOp35
 70
     1
102
RTVSPropertyOp36
 70
     1
102
RTVSPropertyOp37
 70
     1
102
RTVSPropertyOp38
 70
     1
102
RTVSPropertyOp39
 70
     1
102
RTVSPropertyOp40
 70
     1
102
RTVSPropertyOp41
 70
     1
102
RTVSPropertyOp42
 70
     1
102
RTVSPropertyOp43
 70
     1
102
RTVSPropertyOp44
 70
     1
102
RTVSPropertyOp45
 70
     1
102
RTVSPropertyOp46
 70
     1
102
RTVSPropertyOp47
 70
     1
102
RTVSPropertyOp48
 70
     1
102
RTVSPropertyOp49
 70
     1
102
RTVSPropertyOp50
 70
     1
102
RTVSPropertyOp51
 70
     0
102
RTVSPropertyOp52
 70
     0
102
RTVSPropertyOp53
 70
     1
102
RTVSPropertyOp54
 70
     1
102
RTVSPropertyOp55
 70
     1
102
RTVSPropertyOp56
 70
     1
102
RTVSPropertyOp57
 70
     1
102
RTVSPropertyOp58
 70
     1
102
RTVSPropertyOp59
 70
     1
102
RTVSPropertyOp60
 70
     1
102
RTVSPropertyOp61
 70
     1
102
RTVSPropertyOp62
 70
     1
  0
XRECORD
  5
9EE
102
{ACAD_REACTORS
330
9ED
102
}
330
9ED
100
AcDbXrecord
280
     1
102
RTVSPost2010Prop28
280
     0
102
RTVSPost2010PropOp28
 70
     1
102
RTVSPost2010Prop29
280
     1
102
RTVSPost2010PropOp29
 70
     1
102
RTVSPost2010Prop30
280
     1
102
RTVSPost2010PropOp30
 70
     1
102
RTVSPost2010Prop31
280
     0
102
RTVSPost2010PropOp31
 70
     1
102
RTVSPost2010Prop32
280
     0
102
RTVSPost2010PropOp32
 70
     1
102
RTVSPost2010Prop33
280
     0
102
RTVSPost2010PropOp33
 70
     1
102
RTVSPost2010Prop34
280
     0
102
RTVSPost2010PropOp34
 70
     1
102
RTVSPost2010Prop35
280
     0
102
RTVSPost2010PropOp35
 70
     1
102
RTVSPost2010Prop36
280
     0
102
RTVSPost2010PropOp36
 70
     1
102
RTVSPost2010Prop37
 90
       50
102
RTVSPost2010PropOp37
 70
     1
102
RTVSPost2010Prop38
140
0.0
102
RTVSPost2010PropOp38
 70
     1
102
RTVSPost2010Prop39
140
1.0
102
RTVSPost2010PropOp39
 70
     1
102
RTVSPost2010Prop40
 90
        0
102
RTVSPost2010PropOp40
 70
     1
102
RTVSPost2010Prop41ColorIndex
 90
       18
102
RTVSPost2010Prop41ColorRGB
 90
        0
102
RTVSPost2010PropOp41
 70
     1
102
RTVSPost2010Prop42
 90
       50
102
RTVSPost2010PropOp42
 70
     1
102
RTVSPost2010Prop43
 90
        3
102
RTVSPost2010PropOp43
 70
     1
102
RTVSPost2010Prop44ColorIndex
 90
        5
102
RTVSPost2010Prop44ColorRGB
 90
      255
102
RTVSPost2010PropOp44
 70
     1
102
RTVSPost2010Prop45
280
     0
102
RTVSPost2010PropOp45
 70
     1
102
RTVSPost2010Prop46
 90
       50
102
RTVSPost2010PropOp46
 70
     1
102
RTVSPost2010Prop47
 90
       50
102
RTVSPost2010PropOp47
 70
     1
102
RTVSPost2010Prop48
 90
       50
102
RTVSPost2010PropOp48
 70
     1
102
RTVSPost2010Prop49
280
     0
102
RTVSPost2010PropOp49
 70
     1
102
RTVSPost2010Prop50
 90
       50
102
RTVSPost2010PropOp50
 70
     1
102
RTVSPost2010Prop51ColorIndex
 90
      256
102
RTVSPost2010Prop51ColorRGB
 90
-16777216
102
RTVSPost2010PropOp51
 70
     0
102
RTVSPost2010Prop52
140
1.0
102
RTVSPost2010PropOp52
 70
     0
102
RTVSPost2010Prop53
 90
        2
102
RTVSPost2010PropOp53
 70
     1
102
RTVSPost2010Prop54
  1
strokes_ogs.tif
102
RTVSPost2010PropOp54
 70
     1
102
RTVSPost2010Prop55
280
     0
102
RTVSPost2010PropOp55
 70
     1
102
RTVSPost2010Prop56
140
1.0
102
RTVSPost2010PropOp56
 70
     1
102
RTVSPost2010Prop57
140
1.0
102
RTVSPost2010PropOp57
 70
     1
102
RTVSPropertyOp0
 70
     1
102
RTVSPropertyOp1
 70
     1
102
RTVSPropertyOp2
 70
     1
102
RTVSPropertyOp3
 70
     1
102
RTVSPropertyOp4
 70
     1
102
RTVSPropertyOp5
 70
     1
102
RTVSPropertyOp6
 70
     1
102
RTVSPropertyOp7
 70
     1
102
RTVSPropertyOp8
 70
     1
102
RTVSPropertyOp9
 70
     1
102
RTVSPropertyOp10
 70
     1
102
RTVSPropertyOp11
 70
     1
102
RTVSPropertyOp12
 70
     1
102
RTVSPropertyOp13
 70
     1
102
RTVSPropertyOp14
 70
     1
102
RTVSPropertyOp15
 70
     1
102
RTVSPropertyOp16
 70
     1
102
RTVSPropertyOp17
 70
     1
102
RTVSPropertyOp18
 70
     1
102
RTVSPropertyOp19
 70
     1
102
RTVSPropertyOp20
 70
     1
102
RTVSPropertyOp21
 70
     1
102
RTVSPropertyOp22
 70
     1
102
RTVSPropertyOp23
 70
     1
102
RTVSPropertyOp24
 70
     1
102
RTVSPropertyOp25
 70
     1
102
RTVSPropertyOp26
 70
     1
102
RTVSPropertyOp27
 70
     1
102
RTVSPropertyOp28
 70
     1
102
RTVSPropertyOp29
 70
     1
102
RTVSPropertyOp30
 70
     1
102
RTVSPropertyOp31
 70
     1
102
RTVSPropertyOp32
 70
     1
102
RTVSPropertyOp33
 70
     1
102
RTVSPropertyOp34
 70
     1
102
RTVSPropertyOp35
 70
     1
102
RTVSPropertyOp36
 70
     1
102
RTVSPropertyOp37
 70
     1
102
RTVSPropertyOp38
 70
     1
102
RTVSPropertyOp39
 70
     1
102
RTVSPropertyOp40
 70
     1
102
RTVSPropertyOp41
 70
     1
102
RTVSPropertyOp42
 70
     1
102
RTVSPropertyOp43
 70
     1
102
RTVSPropertyOp44
 70
     1
102
RTVSPropertyOp45
 70
     1
102
RTVSPropertyOp46
 70
     1
102
RTVSPropertyOp47
 70
     1
102
RTVSPropertyOp48
 70
     1
102
RTVSPropertyOp49
 70
     1
102
RTVSPropertyOp50
 70
     1
102
RTVSPropertyOp51
 70
     0
102
RTVSPropertyOp52
 70
     0
102
RTVSPropertyOp53
 70
     1
102
RTVSPropertyOp54
 70
     1
102
RTVSPropertyOp55
 70
     1
102
RTVSPropertyOp56
 70
     1
102
RTVSPropertyOp57
 70
     1
102
RTVSPropertyOp58
 70
     1
102
RTVSPropertyOp59
 70
     1
102
RTVSPropertyOp60
 70
     1
102
RTVSPropertyOp61
 70
     1
102
RTVSPropertyOp62
 70
     1
  0
XRECORD
  5
A08
102
{ACAD_REACTORS
330
A07
102
}
330
A07
100
AcDbXrecord
280
     1
102
RTVSPost2010Prop28
280
     0
102
RTVSPost2010PropOp28
 70
     1
102
RTVSPost2010Prop29
280
     1
102
RTVSPost2010PropOp29
 70
     1
102
RTVSPost2010Prop30
280
     1
102
RTVSPost2010PropOp30
 70
     1
102
RTVSPost2010Prop31
280
     0
102
RTVSPost2010PropOp31
 70
     1
102
RTVSPost2010Prop32
280
     0
102
RTVSPost2010PropOp32
 70
     1
102
RTVSPost2010Prop33
280
     0
102
RTVSPost2010PropOp33
 70
     1
102
RTVSPost2010Prop34
280
     0
102
RTVSPost2010PropOp34
 70
     1
102
RTVSPost2010Prop35
280
     0
102
RTVSPost2010PropOp35
 70
     1
102
RTVSPost2010Prop36
280
     0
102
RTVSPost2010PropOp36
 70
     1
102
RTVSPost2010Prop37
 90
       50
102
RTVSPost2010PropOp37
 70
     0
102
RTVSPost2010Prop38
140
0.0
102
RTVSPost2010PropOp38
 70
     0
102
RTVSPost2010Prop39
140
1.0
102
RTVSPost2010PropOp39
 70
     0
102
RTVSPost2010Prop40
 90
        0
102
RTVSPost2010PropOp40
 70
     0
102
RTVSPost2010Prop41ColorIndex
 90
       18
102
RTVSPost2010Prop41ColorRGB
 90
        0
102
RTVSPost2010PropOp41
 70
     0
102
RTVSPost2010Prop42
 90
       50
102
RTVSPost2010PropOp42
 70
     0
102
RTVSPost2010Prop43
 90
        3
102
RTVSPost2010PropOp43
 70
     0
102
RTVSPost2010Prop44ColorIndex
 90
        5
102
RTVSPost2010Prop44ColorRGB
 90
      255
102
RTVSPost2010PropOp44
 70
     0
102
RTVSPost2010Prop45
280
     0
102
RTVSPost2010PropOp45
 70
     1
102
RTVSPost2010Prop46
 90
       50
102
RTVSPost2010PropOp46
 70
     0
102
RTVSPost2010Prop47
 90
       50
102
RTVSPost2010PropOp47
 70
     0
102
RTVSPost2010Prop48
 90
       50
102
RTVSPost2010PropOp48
 70
     0
102
RTVSPost2010Prop49
280
     0
102
RTVSPost2010PropOp49
 70
     1
102
RTVSPost2010Prop50
 90
       50
102
RTVSPost2010PropOp50
 70
     0
102
RTVSPost2010Prop51ColorIndex
 90
      256
102
RTVSPost2010Prop51ColorRGB
 90
-16777216
102
RTVSPost2010PropOp51
 70
     0
102
RTVSPost2010Prop52
140
1.0
102
RTVSPost2010PropOp52
 70
     0
102
RTVSPost2010Prop53
 90
        2
102
RTVSPost2010PropOp53
 70
     0
102
RTVSPost2010Prop54
  1
strokes_ogs.tif
102
RTVSPost2010PropOp54
 70
     0
102
RTVSPost2010Prop55
280
     0
102
RTVSPost2010PropOp55
 70
     1
102
RTVSPost2010Prop56
140
1.0
102
RTVSPost2010PropOp56
 70
     0
102
RTVSPost2010Prop57
140
1.0
102
RTVSPost2010PropOp57
 70
     0
102
RTVSPropertyOp0
 70
     0
102
RTVSPropertyOp1
 70
     0
102
RTVSPropertyOp2
 70
     0
102
RTVSPropertyOp3
 70
     0
102
RTVSPropertyOp4
 70
     0
102
RTVSPropertyOp5
 70
     0
102
RTVSPropertyOp6
 70
     0
102
RTVSPropertyOp7
 70
     0
102
RTVSPropertyOp8
 70
     0
102
RTVSPropertyOp9
 70
     0
102
RTVSPropertyOp10
 70
     0
102
RTVSPropertyOp11
 70
     0
102
RTVSPropertyOp12
 70
     0
102
RTVSPropertyOp13
 70
     0
102
RTVSPropertyOp14
 70
     2
102
RTVSPropertyOp15
 70
     0
102
RTVSPropertyOp16
 70
     0
102
RTVSPropertyOp17
 70
     0
102
RTVSPropertyOp18
 70
     0
102
RTVSPropertyOp19
 70
     0
102
RTVSPropertyOp20
 70
     0
102
RTVSPropertyOp21
 70
     0
102
RTVSPropertyOp22
 70
     0
102
RTVSPropertyOp23
 70
     0
102
RTVSPropertyOp24
 70
     0
102
RTVSPropertyOp25
 70
     0
102
RTVSPropertyOp26
 70
     0
102
RTVSPropertyOp27
 70
     0
102
RTVSPropertyOp28
 70
     1
102
RTVSPropertyOp29
 70
     1
102
RTVSPropertyOp30
 70
     1
102
RTVSPropertyOp31
 70
     1
102
RTVSPropertyOp32
 70
     1
102
RTVSPropertyOp33
 70
     1
102
RTVSPropertyOp34
 70
     1
102
RTVSPropertyOp35
 70
     1
102
RTVSPropertyOp36
 70
     1
102
RTVSPropertyOp37
 70
     0
102
RTVSPropertyOp38
 70
     0
102
RTVSPropertyOp39
 70
     0
102
RTVSPropertyOp40
 70
     0
102
RTVSPropertyOp41
 70
     0
102
RTVSPropertyOp42
 70
     0
102
RTVSPropertyOp43
 70
     0
102
RTVSPropertyOp44
 70
     0
102
RTVSPropertyOp45
 70
     1
102
RTVSPropertyOp46
 70
     0
102
RTVSPropertyOp47
 70
     0
102
RTVSPropertyOp48
 70
     0
102
RTVSPropertyOp49
 70
     1
102
RTVSPropertyOp50
 70
     0
102
RTVSPropertyOp51
 70
     0
102
RTVSPropertyOp52
 70
     0
102
RTVSPropertyOp53
 70
     0
102
RTVSPropertyOp54
 70
     0
102
RTVSPropertyOp55
 70
     1
102
RTVSPropertyOp56
 70
     0
102
RTVSPropertyOp57
 70
     0
102
RTVSPropertyOp58
 70
     0
102
RTVSPropertyOp59
 70
     0
102
RTVSPropertyOp60
 70
     0
102
RTVSPropertyOp61
 70
     0
102
RTVSPropertyOp62
 70
     0
  0
XRECORD
  5
9F6
102
{ACAD_REACTORS
330
9F5
102
}
330
9F5
100
AcDbXrecord
280
     1
102
RTVSPost2010Prop28
280
     0
102
RTVSPost2010PropOp28
 70
     1
102
RTVSPost2010Prop29
280
     1
102
RTVSPost2010PropOp29
 70
     1
102
RTVSPost2010Prop30
280
     1
102
RTVSPost2010PropOp30
 70
     1
102
RTVSPost2010Prop31
280
     0
102
RTVSPost2010PropOp31
 70
     1
102
RTVSPost2010Prop32
280
     0
102
RTVSPost2010PropOp32
 70
     1
102
RTVSPost2010Prop33
280
     0
102
RTVSPost2010PropOp33
 70
     1
102
RTVSPost2010Prop34
280
     0
102
RTVSPost2010PropOp34
 70
     1
102
RTVSPost2010Prop35
280
     0
102
RTVSPost2010PropOp35
 70
     1
102
RTVSPost2010Prop36
280
     0
102
RTVSPost2010PropOp36
 70
     1
102
RTVSPost2010Prop37
 90
       50
102
RTVSPost2010PropOp37
 70
     1
102
RTVSPost2010Prop38
140
0.0
102
RTVSPost2010PropOp38
 70
     1
102
RTVSPost2010Prop39
140
1.0
102
RTVSPost2010PropOp39
 70
     1
102
RTVSPost2010Prop40
 90
        0
102
RTVSPost2010PropOp40
 70
     1
102
RTVSPost2010Prop41ColorIndex
 90
       18
102
RTVSPost2010Prop41ColorRGB
 90
        0
102
RTVSPost2010PropOp41
 70
     1
102
RTVSPost2010Prop42
 90
       50
102
RTVSPost2010PropOp42
 70
     1
102
RTVSPost2010Prop43
 90
        3
102
RTVSPost2010PropOp43
 70
     1
102
RTVSPost2010Prop44ColorIndex
 90
        5
102
RTVSPost2010Prop44ColorRGB
 90
      255
102
RTVSPost2010PropOp44
 70
     1
102
RTVSPost2010Prop45
280
     0
102
RTVSPost2010PropOp45
 70
     1
102
RTVSPost2010Prop46
 90
       50
102
RTVSPost2010PropOp46
 70
     1
102
RTVSPost2010Prop47
 90
       50
102
RTVSPost2010PropOp47
 70
     1
102
RTVSPost2010Prop48
 90
       50
102
RTVSPost2010PropOp48
 70
     1
102
RTVSPost2010Prop49
280
     0
102
RTVSPost2010PropOp49
 70
     1
102
RTVSPost2010Prop50
 90
       50
102
RTVSPost2010PropOp50
 70
     1
102
RTVSPost2010Prop51ColorIndex
 90
      256
102
RTVSPost2010Prop51ColorRGB
 90
-16777216
102
RTVSPost2010PropOp51
 70
     0
102
RTVSPost2010Prop52
140
1.0
102
RTVSPost2010PropOp52
 70
     0
102
RTVSPost2010Prop53
 90
        2
102
RTVSPost2010PropOp53
 70
     1
102
RTVSPost2010Prop54
  1
strokes_ogs.tif
102
RTVSPost2010PropOp54
 70
     1
102
RTVSPost2010Prop55
280
     0
102
RTVSPost2010PropOp55
 70
     1
102
RTVSPost2010Prop56
140
1.0
102
RTVSPost2010PropOp56
 70
     1
102
RTVSPost2010Prop57
140
1.0
102
RTVSPost2010PropOp57
 70
     1
102
RTVSPropertyOp0
 70
     1
102
RTVSPropertyOp1
 70
     1
102
RTVSPropertyOp2
 70
     1
102
RTVSPropertyOp3
 70
     1
102
RTVSPropertyOp4
 70
     1
102
RTVSPropertyOp5
 70
     1
102
RTVSPropertyOp6
 70
     1
102
RTVSPropertyOp7
 70
     1
102
RTVSPropertyOp8
 70
     1
102
RTVSPropertyOp9
 70
     1
102
RTVSPropertyOp10
 70
     1
102
RTVSPropertyOp11
 70
     1
102
RTVSPropertyOp12
 70
     1
102
RTVSPropertyOp13
 70
     1
102
RTVSPropertyOp14
 70
     1
102
RTVSPropertyOp15
 70
     1
102
RTVSPropertyOp16
 70
     1
102
RTVSPropertyOp17
 70
     1
102
RTVSPropertyOp18
 70
     1
102
RTVSPropertyOp19
 70
     1
102
RTVSPropertyOp20
 70
     1
102
RTVSPropertyOp21
 70
     1
102
RTVSPropertyOp22
 70
     1
102
RTVSPropertyOp23
 70
     1
102
RTVSPropertyOp24
 70
     1
102
RTVSPropertyOp25
 70
     1
102
RTVSPropertyOp26
 70
     1
102
RTVSPropertyOp27
 70
     1
102
RTVSPropertyOp28
 70
     1
102
RTVSPropertyOp29
 70
     1
102
RTVSPropertyOp30
 70
     1
102
RTVSPropertyOp31
 70
     1
102
RTVSPropertyOp32
 70
     1
102
RTVSPropertyOp33
 70
     1
102
RTVSPropertyOp34
 70
     1
102
RTVSPropertyOp35
 70
     1
102
RTVSPropertyOp36
 70
     1
102
RTVSPropertyOp37
 70
     1
102
RTVSPropertyOp38
 70
     1
102
RTVSPropertyOp39
 70
     1
102
RTVSPropertyOp40
 70
     1
102
RTVSPropertyOp41
 70
     1
102
RTVSPropertyOp42
 70
     1
102
RTVSPropertyOp43
 70
     1
102
RTVSPropertyOp44
 70
     1
102
RTVSPropertyOp45
 70
     1
102
RTVSPropertyOp46
 70
     1
102
RTVSPropertyOp47
 70
     1
102
RTVSPropertyOp48
 70
     1
102
RTVSPropertyOp49
 70
     1
102
RTVSPropertyOp50
 70
     1
102
RTVSPropertyOp51
 70
     0
102
RTVSPropertyOp52
 70
     0
102
RTVSPropertyOp53
 70
     1
102
RTVSPropertyOp54
 70
     1
102
RTVSPropertyOp55
 70
     1
102
RTVSPropertyOp56
 70
     1
102
RTVSPropertyOp57
 70
     1
102
RTVSPropertyOp58
 70
     1
102
RTVSPropertyOp59
 70
     1
102
RTVSPropertyOp60
 70
     1
102
RTVSPropertyOp61
 70
     1
102
RTVSPropertyOp62
 70
     1
  0
XRECORD
  5
9DA
102
{ACAD_REACTORS
330
9D9
102
}
330
9D9
100
AcDbXrecord
280
     1
102
RTVSPost2010Prop28
280
     0
102
RTVSPost2010PropOp28
 70
     1
102
RTVSPost2010Prop29
280
     1
102
RTVSPost2010PropOp29
 70
     1
102
RTVSPost2010Prop30
280
     1
102
RTVSPost2010PropOp30
 70
     1
102
RTVSPost2010Prop31
280
     0
102
RTVSPost2010PropOp31
 70
     1
102
RTVSPost2010Prop32
280
     0
102
RTVSPost2010PropOp32
 70
     1
102
RTVSPost2010Prop33
280
     0
102
RTVSPost2010PropOp33
 70
     1
102
RTVSPost2010Prop34
280
     0
102
RTVSPost2010PropOp34
 70
     1
102
RTVSPost2010Prop35
280
     0
102
RTVSPost2010PropOp35
 70
     1
102
RTVSPost2010Prop36
280
     0
102
RTVSPost2010PropOp36
 70
     1
102
RTVSPost2010Prop37
 90
       50
102
RTVSPost2010PropOp37
 70
     1
102
RTVSPost2010Prop38
140
0.0
102
RTVSPost2010PropOp38
 70
     1
102
RTVSPost2010Prop39
140
1.0
102
RTVSPost2010PropOp39
 70
     1
102
RTVSPost2010Prop40
 90
        0
102
RTVSPost2010PropOp40
 70
     1
102
RTVSPost2010Prop41ColorIndex
 90
       18
102
RTVSPost2010Prop41ColorRGB
 90
        0
102
RTVSPost2010PropOp41
 70
     1
102
RTVSPost2010Prop42
 90
       50
102
RTVSPost2010PropOp42
 70
     1
102
RTVSPost2010Prop43
 90
        3
102
RTVSPost2010PropOp43
 70
     1
102
RTVSPost2010Prop44ColorIndex
 90
        5
102
RTVSPost2010Prop44ColorRGB
 90
      255
102
RTVSPost2010PropOp44
 70
     1
102
RTVSPost2010Prop45
280
     0
102
RTVSPost2010PropOp45
 70
     1
102
RTVSPost2010Prop46
 90
       50
102
RTVSPost2010PropOp46
 70
     1
102
RTVSPost2010Prop47
 90
       50
102
RTVSPost2010PropOp47
 70
     1
102
RTVSPost2010Prop48
 90
       50
102
RTVSPost2010PropOp48
 70
     1
102
RTVSPost2010Prop49
280
     0
102
RTVSPost2010PropOp49
 70
     1
102
RTVSPost2010Prop50
 90
       50
102
RTVSPost2010PropOp50
 70
     1
102
RTVSPost2010Prop51ColorIndex
 90
      256
102
RTVSPost2010Prop51ColorRGB
 90
-16777216
102
RTVSPost2010PropOp51
 70
     0
102
RTVSPost2010Prop52
140
1.0
102
RTVSPost2010PropOp52
 70
     0
102
RTVSPost2010Prop53
 90
        2
102
RTVSPost2010PropOp53
 70
     1
102
RTVSPost2010Prop54
  1
strokes_ogs.tif
102
RTVSPost2010PropOp54
 70
     1
102
RTVSPost2010Prop55
280
     0
102
RTVSPost2010PropOp55
 70
     1
102
RTVSPost2010Prop56
140
1.0
102
RTVSPost2010PropOp56
 70
     1
102
RTVSPost2010Prop57
140
1.0
102
RTVSPost2010PropOp57
 70
     1
102
RTVSPropertyOp0
 70
     1
102
RTVSPropertyOp1
 70
     1
102
RTVSPropertyOp2
 70
     1
102
RTVSPropertyOp3
 70
     1
102
RTVSPropertyOp4
 70
     1
102
RTVSPropertyOp5
 70
     1
102
RTVSPropertyOp6
 70
     1
102
RTVSPropertyOp7
 70
     1
102
RTVSPropertyOp8
 70
     1
102
RTVSPropertyOp9
 70
     1
102
RTVSPropertyOp10
 70
     1
102
RTVSPropertyOp11
 70
     1
102
RTVSPropertyOp12
 70
     1
102
RTVSPropertyOp13
 70
     1
102
RTVSPropertyOp14
 70
     1
102
RTVSPropertyOp15
 70
     1
102
RTVSPropertyOp16
 70
     1
102
RTVSPropertyOp17
 70
     1
102
RTVSPropertyOp18
 70
     1
102
RTVSPropertyOp19
 70
     1
102
RTVSPropertyOp20
 70
     1
102
RTVSPropertyOp21
 70
     1
102
RTVSPropertyOp22
 70
     1
102
RTVSPropertyOp23
 70
     1
102
RTVSPropertyOp24
 70
     1
102
RTVSPropertyOp25
 70
     1
102
RTVSPropertyOp26
 70
     1
102
RTVSPropertyOp27
 70
     1
102
RTVSPropertyOp28
 70
     1
102
RTVSPropertyOp29
 70
     1
102
RTVSPropertyOp30
 70
     1
102
RTVSPropertyOp31
 70
     1
102
RTVSPropertyOp32
 70
     1
102
RTVSPropertyOp33
 70
     1
102
RTVSPropertyOp34
 70
     1
102
RTVSPropertyOp35
 70
     1
102
RTVSPropertyOp36
 70
     1
102
RTVSPropertyOp37
 70
     1
102
RTVSPropertyOp38
 70
     1
102
RTVSPropertyOp39
 70
     1
102
RTVSPropertyOp40
 70
     1
102
RTVSPropertyOp41
 70
     1
102
RTVSPropertyOp42
 70
     1
102
RTVSPropertyOp43
 70
     1
102
RTVSPropertyOp44
 70
     1
102
RTVSPropertyOp45
 70
     1
102
RTVSPropertyOp46
 70
     1
102
RTVSPropertyOp47
 70
     1
102
RTVSPropertyOp48
 70
     1
102
RTVSPropertyOp49
 70
     1
102
RTVSPropertyOp50
 70
     1
102
RTVSPropertyOp51
 70
     0
102
RTVSPropertyOp52
 70
     0
102
RTVSPropertyOp53
 70
     1
102
RTVSPropertyOp54
 70
     1
102
RTVSPropertyOp55
 70
     1
102
RTVSPropertyOp56
 70
     1
102
RTVSPropertyOp57
 70
     1
102
RTVSPropertyOp58
 70
     1
102
RTVSPropertyOp59
 70
     1
102
RTVSPropertyOp60
 70
     1
102
RTVSPropertyOp61
 70
     1
102
RTVSPropertyOp62
 70
     1
  0
XRECORD
  5
9DC
102
{ACAD_REACTORS
330
9DB
102
}
330
9DB
100
AcDbXrecord
280
     1
102
RTVSPost2010Prop28
280
     0
102
RTVSPost2010PropOp28
 70
     1
102
RTVSPost2010Prop29
280
     1
102
RTVSPost2010PropOp29
 70
     1
102
RTVSPost2010Prop30
280
     1
102
RTVSPost2010PropOp30
 70
     1
102
RTVSPost2010Prop31
280
     0
102
RTVSPost2010PropOp31
 70
     1
102
RTVSPost2010Prop32
280
     0
102
RTVSPost2010PropOp32
 70
     1
102
RTVSPost2010Prop33
280
     0
102
RTVSPost2010PropOp33
 70
     1
102
RTVSPost2010Prop34
280
     0
102
RTVSPost2010PropOp34
 70
     1
102
RTVSPost2010Prop35
280
     0
102
RTVSPost2010PropOp35
 70
     1
102
RTVSPost2010Prop36
280
     0
102
RTVSPost2010PropOp36
 70
     1
102
RTVSPost2010Prop37
 90
       50
102
RTVSPost2010PropOp37
 70
     1
102
RTVSPost2010Prop38
140
0.0
102
RTVSPost2010PropOp38
 70
     1
102
RTVSPost2010Prop39
140
1.0
102
RTVSPost2010PropOp39
 70
     1
102
RTVSPost2010Prop40
 90
        0
102
RTVSPost2010PropOp40
 70
     1
102
RTVSPost2010Prop41ColorIndex
 90
       18
102
RTVSPost2010Prop41ColorRGB
 90
        0
102
RTVSPost2010PropOp41
 70
     1
102
RTVSPost2010Prop42
 90
       50
102
RTVSPost2010PropOp42
 70
     1
102
RTVSPost2010Prop43
 90
        3
102
RTVSPost2010PropOp43
 70
     1
102
RTVSPost2010Prop44ColorIndex
 90
        5
102
RTVSPost2010Prop44ColorRGB
 90
      255
102
RTVSPost2010PropOp44
 70
     1
102
RTVSPost2010Prop45
280
     0
102
RTVSPost2010PropOp45
 70
     1
102
RTVSPost2010Prop46
 90
       50
102
RTVSPost2010PropOp46
 70
     1
102
RTVSPost2010Prop47
 90
       50
102
RTVSPost2010PropOp47
 70
     1
102
RTVSPost2010Prop48
 90
       50
102
RTVSPost2010PropOp48
 70
     1
102
RTVSPost2010Prop49
280
     0
102
RTVSPost2010PropOp49
 70
     1
102
RTVSPost2010Prop50
 90
       50
102
RTVSPost2010PropOp50
 70
     1
102
RTVSPost2010Prop51ColorIndex
 90
      256
102
RTVSPost2010Prop51ColorRGB
 90
-16777216
102
RTVSPost2010PropOp51
 70
     0
102
RTVSPost2010Prop52
140
1.0
102
RTVSPost2010PropOp52
 70
     0
102
RTVSPost2010Prop53
 90
        2
102
RTVSPost2010PropOp53
 70
     1
102
RTVSPost2010Prop54
  1
strokes_ogs.tif
102
RTVSPost2010PropOp54
 70
     1
102
RTVSPost2010Prop55
280
     0
102
RTVSPost2010PropOp55
 70
     1
102
RTVSPost2010Prop56
140
1.0
102
RTVSPost2010PropOp56
 70
     1
102
RTVSPost2010Prop57
140
1.0
102
RTVSPost2010PropOp57
 70
     1
102
RTVSPropertyOp0
 70
     1
102
RTVSPropertyOp1
 70
     1
102
RTVSPropertyOp2
 70
     1
102
RTVSPropertyOp3
 70
     1
102
RTVSPropertyOp4
 70
     1
102
RTVSPropertyOp5
 70
     1
102
RTVSPropertyOp6
 70
     1
102
RTVSPropertyOp7
 70
     1
102
RTVSPropertyOp8
 70
     1
102
RTVSPropertyOp9
 70
     1
102
RTVSPropertyOp10
 70
     1
102
RTVSPropertyOp11
 70
     1
102
RTVSPropertyOp12
 70
     1
102
RTVSPropertyOp13
 70
     1
102
RTVSPropertyOp14
 70
     1
102
RTVSPropertyOp15
 70
     1
102
RTVSPropertyOp16
 70
     1
102
RTVSPropertyOp17
 70
     1
102
RTVSPropertyOp18
 70
     1
102
RTVSPropertyOp19
 70
     1
102
RTVSPropertyOp20
 70
     1
102
RTVSPropertyOp21
 70
     1
102
RTVSPropertyOp22
 70
     1
102
RTVSPropertyOp23
 70
     1
102
RTVSPropertyOp24
 70
     1
102
RTVSPropertyOp25
 70
     1
102
RTVSPropertyOp26
 70
     1
102
RTVSPropertyOp27
 70
     1
102
RTVSPropertyOp28
 70
     1
102
RTVSPropertyOp29
 70
     1
102
RTVSPropertyOp30
 70
     1
102
RTVSPropertyOp31
 70
     1
102
RTVSPropertyOp32
 70
     1
102
RTVSPropertyOp33
 70
     1
102
RTVSPropertyOp34
 70
     1
102
RTVSPropertyOp35
 70
     1
102
RTVSPropertyOp36
 70
     1
102
RTVSPropertyOp37
 70
     1
102
RTVSPropertyOp38
 70
     1
102
RTVSPropertyOp39
 70
     1
102
RTVSPropertyOp40
 70
     1
102
RTVSPropertyOp41
 70
     1
102
RTVSPropertyOp42
 70
     1
102
RTVSPropertyOp43
 70
     1
102
RTVSPropertyOp44
 70
     1
102
RTVSPropertyOp45
 70
     1
102
RTVSPropertyOp46
 70
     1
102
RTVSPropertyOp47
 70
     1
102
RTVSPropertyOp48
 70
     1
102
RTVSPropertyOp49
 70
     1
102
RTVSPropertyOp50
 70
     1
102
RTVSPropertyOp51
 70
     0
102
RTVSPropertyOp52
 70
     0
102
RTVSPropertyOp53
 70
     1
102
RTVSPropertyOp54
 70
     1
102
RTVSPropertyOp55
 70
     1
102
RTVSPropertyOp56
 70
     1
102
RTVSPropertyOp57
 70
     1
102
RTVSPropertyOp58
 70
     1
102
RTVSPropertyOp59
 70
     1
102
RTVSPropertyOp60
 70
     1
102
RTVSPropertyOp61
 70
     1
102
RTVSPropertyOp62
 70
     1
  0
XRECORD
  5
9DE
102
{ACAD_REACTORS
330
9DD
102
}
330
9DD
100
AcDbXrecord
280
     1
102
RTVSPost2010Prop28
280
     0
102
RTVSPost2010PropOp28
 70
     1
102
RTVSPost2010Prop29
280
     1
102
RTVSPost2010PropOp29
 70
     1
102
RTVSPost2010Prop30
280
     1
102
RTVSPost2010PropOp30
 70
     1
102
RTVSPost2010Prop31
280
     0
102
RTVSPost2010PropOp31
 70
     1
102
RTVSPost2010Prop32
280
     0
102
RTVSPost2010PropOp32
 70
     1
102
RTVSPost2010Prop33
280
     0
102
RTVSPost2010PropOp33
 70
     1
102
RTVSPost2010Prop34
280
     0
102
RTVSPost2010PropOp34
 70
     1
102
RTVSPost2010Prop35
280
     0
102
RTVSPost2010PropOp35
 70
     1
102
RTVSPost2010Prop36
280
     0
102
RTVSPost2010PropOp36
 70
     1
102
RTVSPost2010Prop37
 90
       50
102
RTVSPost2010PropOp37
 70
     1
102
RTVSPost2010Prop38
140
0.0
102
RTVSPost2010PropOp38
 70
     1
102
RTVSPost2010Prop39
140
1.0
102
RTVSPost2010PropOp39
 70
     1
102
RTVSPost2010Prop40
 90
        0
102
RTVSPost2010PropOp40
 70
     1
102
RTVSPost2010Prop41ColorIndex
 90
       18
102
RTVSPost2010Prop41ColorRGB
 90
        0
102
RTVSPost2010PropOp41
 70
     1
102
RTVSPost2010Prop42
 90
       50
102
RTVSPost2010PropOp42
 70
     1
102
RTVSPost2010Prop43
 90
        3
102
RTVSPost2010PropOp43
 70
     1
102
RTVSPost2010Prop44ColorIndex
 90
        5
102
RTVSPost2010Prop44ColorRGB
 90
      255
102
RTVSPost2010PropOp44
 70
     1
102
RTVSPost2010Prop45
280
     0
102
RTVSPost2010PropOp45
 70
     1
102
RTVSPost2010Prop46
 90
       50
102
RTVSPost2010PropOp46
 70
     1
102
RTVSPost2010Prop47
 90
       50
102
RTVSPost2010PropOp47
 70
     1
102
RTVSPost2010Prop48
 90
       50
102
RTVSPost2010PropOp48
 70
     1
102
RTVSPost2010Prop49
280
     0
102
RTVSPost2010PropOp49
 70
     1
102
RTVSPost2010Prop50
 90
       50
102
RTVSPost2010PropOp50
 70
     1
102
RTVSPost2010Prop51ColorIndex
 90
      256
102
RTVSPost2010Prop51ColorRGB
 90
-16777216
102
RTVSPost2010PropOp51
 70
     0
102
RTVSPost2010Prop52
140
1.0
102
RTVSPost2010PropOp52
 70
     0
102
RTVSPost2010Prop53
 90
        2
102
RTVSPost2010PropOp53
 70
     1
102
RTVSPost2010Prop54
  1
strokes_ogs.tif
102
RTVSPost2010PropOp54
 70
     1
102
RTVSPost2010Prop55
280
     0
102
RTVSPost2010PropOp55
 70
     1
102
RTVSPost2010Prop56
140
1.0
102
RTVSPost2010PropOp56
 70
     1
102
RTVSPost2010Prop57
140
1.0
102
RTVSPost2010PropOp57
 70
     1
102
RTVSPropertyOp0
 70
     1
102
RTVSPropertyOp1
 70
     1
102
RTVSPropertyOp2
 70
     1
102
RTVSPropertyOp3
 70
     1
102
RTVSPropertyOp4
 70
     1
102
RTVSPropertyOp5
 70
     1
102
RTVSPropertyOp6
 70
     1
102
RTVSPropertyOp7
 70
     1
102
RTVSPropertyOp8
 70
     1
102
RTVSPropertyOp9
 70
     1
102
RTVSPropertyOp10
 70
     1
102
RTVSPropertyOp11
 70
     1
102
RTVSPropertyOp12
 70
     1
102
RTVSPropertyOp13
 70
     1
102
RTVSPropertyOp14
 70
     1
102
RTVSPropertyOp15
 70
     1
102
RTVSPropertyOp16
 70
     1
102
RTVSPropertyOp17
 70
     1
102
RTVSPropertyOp18
 70
     1
102
RTVSPropertyOp19
 70
     1
102
RTVSPropertyOp20
 70
     1
102
RTVSPropertyOp21
 70
     1
102
RTVSPropertyOp22
 70
     1
102
RTVSPropertyOp23
 70
     1
102
RTVSPropertyOp24
 70
     1
102
RTVSPropertyOp25
 70
     1
102
RTVSPropertyOp26
 70
     1
102
RTVSPropertyOp27
 70
     1
102
RTVSPropertyOp28
 70
     1
102
RTVSPropertyOp29
 70
     1
102
RTVSPropertyOp30
 70
     1
102
RTVSPropertyOp31
 70
     1
102
RTVSPropertyOp32
 70
     1
102
RTVSPropertyOp33
 70
     1
102
RTVSPropertyOp34
 70
     1
102
RTVSPropertyOp35
 70
     1
102
RTVSPropertyOp36
 70
     1
102
RTVSPropertyOp37
 70
     1
102
RTVSPropertyOp38
 70
     1
102
RTVSPropertyOp39
 70
     1
102
RTVSPropertyOp40
 70
     1
102
RTVSPropertyOp41
 70
     1
102
RTVSPropertyOp42
 70
     1
102
RTVSPropertyOp43
 70
     1
102
RTVSPropertyOp44
 70
     1
102
RTVSPropertyOp45
 70
     1
102
RTVSPropertyOp46
 70
     1
102
RTVSPropertyOp47
 70
     1
102
RTVSPropertyOp48
 70
     1
102
RTVSPropertyOp49
 70
     1
102
RTVSPropertyOp50
 70
     1
102
RTVSPropertyOp51
 70
     0
102
RTVSPropertyOp52
 70
     0
102
RTVSPropertyOp53
 70
     1
102
RTVSPropertyOp54
 70
     1
102
RTVSPropertyOp55
 70
     1
102
RTVSPropertyOp56
 70
     1
102
RTVSPropertyOp57
 70
     1
102
RTVSPropertyOp58
 70
     1
102
RTVSPropertyOp59
 70
     1
102
RTVSPropertyOp60
 70
     1
102
RTVSPropertyOp61
 70
     1
102
RTVSPropertyOp62
 70
     1
  0
XRECORD
  5
9E0
102
{ACAD_REACTORS
330
9DF
102
}
330
9DF
100
AcDbXrecord
280
     1
102
RTVSPost2010Prop28
280
     0
102
RTVSPost2010PropOp28
 70
     1
102
RTVSPost2010Prop29
280
     1
102
RTVSPost2010PropOp29
 70
     1
102
RTVSPost2010Prop30
280
     1
102
RTVSPost2010PropOp30
 70
     1
102
RTVSPost2010Prop31
280
     0
102
RTVSPost2010PropOp31
 70
     1
102
RTVSPost2010Prop32
280
     0
102
RTVSPost2010PropOp32
 70
     1
102
RTVSPost2010Prop33
280
     0
102
RTVSPost2010PropOp33
 70
     1
102
RTVSPost2010Prop34
280
     0
102
RTVSPost2010PropOp34
 70
     1
102
RTVSPost2010Prop35
280
     0
102
RTVSPost2010PropOp35
 70
     1
102
RTVSPost2010Prop36
280
     0
102
RTVSPost2010PropOp36
 70
     1
102
RTVSPost2010Prop37
 90
       50
102
RTVSPost2010PropOp37
 70
     1
102
RTVSPost2010Prop38
140
0.0
102
RTVSPost2010PropOp38
 70
     1
102
RTVSPost2010Prop39
140
1.0
102
RTVSPost2010PropOp39
 70
     1
102
RTVSPost2010Prop40
 90
        0
102
RTVSPost2010PropOp40
 70
     1
102
RTVSPost2010Prop41ColorIndex
 90
       18
102
RTVSPost2010Prop41ColorRGB
 90
        0
102
RTVSPost2010PropOp41
 70
     1
102
RTVSPost2010Prop42
 90
       50
102
RTVSPost2010PropOp42
 70
     1
102
RTVSPost2010Prop43
 90
        3
102
RTVSPost2010PropOp43
 70
     1
102
RTVSPost2010Prop44ColorIndex
 90
        5
102
RTVSPost2010Prop44ColorRGB
 90
      255
102
RTVSPost2010PropOp44
 70
     1
102
RTVSPost2010Prop45
280
     0
102
RTVSPost2010PropOp45
 70
     1
102
RTVSPost2010Prop46
 90
       50
102
RTVSPost2010PropOp46
 70
     1
102
RTVSPost2010Prop47
 90
       50
102
RTVSPost2010PropOp47
 70
     1
102
RTVSPost2010Prop48
 90
       50
102
RTVSPost2010PropOp48
 70
     1
102
RTVSPost2010Prop49
280
     0
102
RTVSPost2010PropOp49
 70
     1
102
RTVSPost2010Prop50
 90
       50
102
RTVSPost2010PropOp50
 70
     1
102
RTVSPost2010Prop51ColorIndex
 90
      256
102
RTVSPost2010Prop51ColorRGB
 90
-16777216
102
RTVSPost2010PropOp51
 70
     0
102
RTVSPost2010Prop52
140
1.0
102
RTVSPost2010PropOp52
 70
     0
102
RTVSPost2010Prop53
 90
        2
102
RTVSPost2010PropOp53
 70
     1
102
RTVSPost2010Prop54
  1
strokes_ogs.tif
102
RTVSPost2010PropOp54
 70
     1
102
RTVSPost2010Prop55
280
     0
102
RTVSPost2010PropOp55
 70
     1
102
RTVSPost2010Prop56
140
1.0
102
RTVSPost2010PropOp56
 70
     1
102
RTVSPost2010Prop57
140
1.0
102
RTVSPost2010PropOp57
 70
     1
102
RTVSPropertyOp0
 70
     1
102
RTVSPropertyOp1
 70
     1
102
RTVSPropertyOp2
 70
     1
102
RTVSPropertyOp3
 70
     1
102
RTVSPropertyOp4
 70
     1
102
RTVSPropertyOp5
 70
     1
102
RTVSPropertyOp6
 70
     1
102
RTVSPropertyOp7
 70
     1
102
RTVSPropertyOp8
 70
     1
102
RTVSPropertyOp9
 70
     1
102
RTVSPropertyOp10
 70
     1
102
RTVSPropertyOp11
 70
     1
102
RTVSPropertyOp12
 70
     1
102
RTVSPropertyOp13
 70
     1
102
RTVSPropertyOp14
 70
     1
102
RTVSPropertyOp15
 70
     1
102
RTVSPropertyOp16
 70
     1
102
RTVSPropertyOp17
 70
     1
102
RTVSPropertyOp18
 70
     1
102
RTVSPropertyOp19
 70
     1
102
RTVSPropertyOp20
 70
     1
102
RTVSPropertyOp21
 70
     1
102
RTVSPropertyOp22
 70
     1
102
RTVSPropertyOp23
 70
     1
102
RTVSPropertyOp24
 70
     1
102
RTVSPropertyOp25
 70
     1
102
RTVSPropertyOp26
 70
     1
102
RTVSPropertyOp27
 70
     1
102
RTVSPropertyOp28
 70
     1
102
RTVSPropertyOp29
 70
     1
102
RTVSPropertyOp30
 70
     1
102
RTVSPropertyOp31
 70
     1
102
RTVSPropertyOp32
 70
     1
102
RTVSPropertyOp33
 70
     1
102
RTVSPropertyOp34
 70
     1
102
RTVSPropertyOp35
 70
     1
102
RTVSPropertyOp36
 70
     1
102
RTVSPropertyOp37
 70
     1
102
RTVSPropertyOp38
 70
     1
102
RTVSPropertyOp39
 70
     1
102
RTVSPropertyOp40
 70
     1
102
RTVSPropertyOp41
 70
     1
102
RTVSPropertyOp42
 70
     1
102
RTVSPropertyOp43
 70
     1
102
RTVSPropertyOp44
 70
     1
102
RTVSPropertyOp45
 70
     1
102
RTVSPropertyOp46
 70
     1
102
RTVSPropertyOp47
 70
     1
102
RTVSPropertyOp48
 70
     1
102
RTVSPropertyOp49
 70
     1
102
RTVSPropertyOp50
 70
     1
102
RTVSPropertyOp51
 70
     0
102
RTVSPropertyOp52
 70
     0
102
RTVSPropertyOp53
 70
     1
102
RTVSPropertyOp54
 70
     1
102
RTVSPropertyOp55
 70
     1
102
RTVSPropertyOp56
 70
     1
102
RTVSPropertyOp57
 70
     1
102
RTVSPropertyOp58
 70
     1
102
RTVSPropertyOp59
 70
     1
102
RTVSPropertyOp60
 70
     1
102
RTVSPropertyOp61
 70
     1
102
RTVSPropertyOp62
 70
     1
  0
XRECORD
  5
9E8
102
{ACAD_REACTORS
330
9E7
102
}
330
9E7
100
AcDbXrecord
280
     1
102
RTVSPost2010Prop28
280
     0
102
RTVSPost2010PropOp28
 70
     1
102
RTVSPost2010Prop29
280
     1
102
RTVSPost2010PropOp29
 70
     1
102
RTVSPost2010Prop30
280
     1
102
RTVSPost2010PropOp30
 70
     1
102
RTVSPost2010Prop31
280
     0
102
RTVSPost2010PropOp31
 70
     1
102
RTVSPost2010Prop32
280
     0
102
RTVSPost2010PropOp32
 70
     1
102
RTVSPost2010Prop33
280
     0
102
RTVSPost2010PropOp33
 70
     1
102
RTVSPost2010Prop34
280
     0
102
RTVSPost2010PropOp34
 70
     1
102
RTVSPost2010Prop35
280
     0
102
RTVSPost2010PropOp35
 70
     1
102
RTVSPost2010Prop36
280
     0
102
RTVSPost2010PropOp36
 70
     1
102
RTVSPost2010Prop37
 90
       50
102
RTVSPost2010PropOp37
 70
     1
102
RTVSPost2010Prop38
140
0.0
102
RTVSPost2010PropOp38
 70
     1
102
RTVSPost2010Prop39
140
1.0
102
RTVSPost2010PropOp39
 70
     1
102
RTVSPost2010Prop40
 90
        0
102
RTVSPost2010PropOp40
 70
     1
102
RTVSPost2010Prop41ColorIndex
 90
       18
102
RTVSPost2010Prop41ColorRGB
 90
        0
102
RTVSPost2010PropOp41
 70
     1
102
RTVSPost2010Prop42
 90
       50
102
RTVSPost2010PropOp42
 70
     1
102
RTVSPost2010Prop43
 90
        3
102
RTVSPost2010PropOp43
 70
     1
102
RTVSPost2010Prop44ColorIndex
 90
        5
102
RTVSPost2010Prop44ColorRGB
 90
      255
102
RTVSPost2010PropOp44
 70
     1
102
RTVSPost2010Prop45
280
     0
102
RTVSPost2010PropOp45
 70
     1
102
RTVSPost2010Prop46
 90
       50
102
RTVSPost2010PropOp46
 70
     1
102
RTVSPost2010Prop47
 90
       50
102
RTVSPost2010PropOp47
 70
     1
102
RTVSPost2010Prop48
 90
       50
102
RTVSPost2010PropOp48
 70
     1
102
RTVSPost2010Prop49
280
     0
102
RTVSPost2010PropOp49
 70
     1
102
RTVSPost2010Prop50
 90
       50
102
RTVSPost2010PropOp50
 70
     1
102
RTVSPost2010Prop51ColorIndex
 90
      256
102
RTVSPost2010Prop51ColorRGB
 90
-16777216
102
RTVSPost2010PropOp51
 70
     0
102
RTVSPost2010Prop52
140
1.0
102
RTVSPost2010PropOp52
 70
     0
102
RTVSPost2010Prop53
 90
        2
102
RTVSPost2010PropOp53
 70
     1
102
RTVSPost2010Prop54
  1
strokes_ogs.tif
102
RTVSPost2010PropOp54
 70
     1
102
RTVSPost2010Prop55
280
     0
102
RTVSPost2010PropOp55
 70
     1
102
RTVSPost2010Prop56
140
1.0
102
RTVSPost2010PropOp56
 70
     1
102
RTVSPost2010Prop57
140
1.0
102
RTVSPost2010PropOp57
 70
     1
102
RTVSPropertyOp0
 70
     1
102
RTVSPropertyOp1
 70
     1
102
RTVSPropertyOp2
 70
     1
102
RTVSPropertyOp3
 70
     1
102
RTVSPropertyOp4
 70
     1
102
RTVSPropertyOp5
 70
     1
102
RTVSPropertyOp6
 70
     1
102
RTVSPropertyOp7
 70
     1
102
RTVSPropertyOp8
 70
     1
102
RTVSPropertyOp9
 70
     1
102
RTVSPropertyOp10
 70
     1
102
RTVSPropertyOp11
 70
     1
102
RTVSPropertyOp12
 70
     1
102
RTVSPropertyOp13
 70
     1
102
RTVSPropertyOp14
 70
     1
102
RTVSPropertyOp15
 70
     1
102
RTVSPropertyOp16
 70
     1
102
RTVSPropertyOp17
 70
     1
102
RTVSPropertyOp18
 70
     1
102
RTVSPropertyOp19
 70
     1
102
RTVSPropertyOp20
 70
     1
102
RTVSPropertyOp21
 70
     1
102
RTVSPropertyOp22
 70
     1
102
RTVSPropertyOp23
 70
     1
102
RTVSPropertyOp24
 70
     1
102
RTVSPropertyOp25
 70
     1
102
RTVSPropertyOp26
 70
     1
102
RTVSPropertyOp27
 70
     1
102
RTVSPropertyOp28
 70
     1
102
RTVSPropertyOp29
 70
     1
102
RTVSPropertyOp30
 70
     1
102
RTVSPropertyOp31
 70
     1
102
RTVSPropertyOp32
 70
     1
102
RTVSPropertyOp33
 70
     1
102
RTVSPropertyOp34
 70
     1
102
RTVSPropertyOp35
 70
     1
102
RTVSPropertyOp36
 70
     1
102
RTVSPropertyOp37
 70
     1
102
RTVSPropertyOp38
 70
     1
102
RTVSPropertyOp39
 70
     1
102
RTVSPropertyOp40
 70
     1
102
RTVSPropertyOp41
 70
     1
102
RTVSPropertyOp42
 70
     1
102
RTVSPropertyOp43
 70
     1
102
RTVSPropertyOp44
 70
     1
102
RTVSPropertyOp45
 70
     1
102
RTVSPropertyOp46
 70
     1
102
RTVSPropertyOp47
 70
     1
102
RTVSPropertyOp48
 70
     1
102
RTVSPropertyOp49
 70
     1
102
RTVSPropertyOp50
 70
     1
102
RTVSPropertyOp51
 70
     0
102
RTVSPropertyOp52
 70
     0
102
RTVSPropertyOp53
 70
     1
102
RTVSPropertyOp54
 70
     1
102
RTVSPropertyOp55
 70
     1
102
RTVSPropertyOp56
 70
     1
102
RTVSPropertyOp57
 70
     1
102
RTVSPropertyOp58
 70
     1
102
RTVSPropertyOp59
 70
     1
102
RTVSPropertyOp60
 70
     1
102
RTVSPropertyOp61
 70
     1
102
RTVSPropertyOp62
 70
     1
  0
XRECORD
  5
A04
102
{ACAD_REACTORS
330
A03
102
}
330
A03
100
AcDbXrecord
280
     1
102
RTVSPost2010Prop28
280
     0
102
RTVSPost2010PropOp28
 70
     1
102
RTVSPost2010Prop29
280
     1
102
RTVSPost2010PropOp29
 70
     1
102
RTVSPost2010Prop30
280
     1
102
RTVSPost2010PropOp30
 70
     1
102
RTVSPost2010Prop31
280
     0
102
RTVSPost2010PropOp31
 70
     1
102
RTVSPost2010Prop32
280
     0
102
RTVSPost2010PropOp32
 70
     1
102
RTVSPost2010Prop33
280
     0
102
RTVSPost2010PropOp33
 70
     1
102
RTVSPost2010Prop34
280
     0
102
RTVSPost2010PropOp34
 70
     1
102
RTVSPost2010Prop35
280
     0
102
RTVSPost2010PropOp35
 70
     1
102
RTVSPost2010Prop36
280
     0
102
RTVSPost2010PropOp36
 70
     1
102
RTVSPost2010Prop37
 90
       50
102
RTVSPost2010PropOp37
 70
     0
102
RTVSPost2010Prop38
140
0.0
102
RTVSPost2010PropOp38
 70
     0
102
RTVSPost2010Prop39
140
1.0
102
RTVSPost2010PropOp39
 70
     0
102
RTVSPost2010Prop40
 90
        0
102
RTVSPost2010PropOp40
 70
     0
102
RTVSPost2010Prop41ColorIndex
 90
       18
102
RTVSPost2010Prop41ColorRGB
 90
        0
102
RTVSPost2010PropOp41
 70
     0
102
RTVSPost2010Prop42
 90
       50
102
RTVSPost2010PropOp42
 70
     0
102
RTVSPost2010Prop43
 90
        3
102
RTVSPost2010PropOp43
 70
     0
102
RTVSPost2010Prop44ColorIndex
 90
        5
102
RTVSPost2010Prop44ColorRGB
 90
      255
102
RTVSPost2010PropOp44
 70
     0
102
RTVSPost2010Prop45
280
     0
102
RTVSPost2010PropOp45
 70
     1
102
RTVSPost2010Prop46
 90
       50
102
RTVSPost2010PropOp46
 70
     0
102
RTVSPost2010Prop47
 90
       50
102
RTVSPost2010PropOp47
 70
     0
102
RTVSPost2010Prop48
 90
       50
102
RTVSPost2010PropOp48
 70
     0
102
RTVSPost2010Prop49
280
     0
102
RTVSPost2010PropOp49
 70
     1
102
RTVSPost2010Prop50
 90
       50
102
RTVSPost2010PropOp50
 70
     0
102
RTVSPost2010Prop51ColorIndex
 90
      256
102
RTVSPost2010Prop51ColorRGB
 90
-16777216
102
RTVSPost2010PropOp51
 70
     0
102
RTVSPost2010Prop52
140
1.0
102
RTVSPost2010PropOp52
 70
     0
102
RTVSPost2010Prop53
 90
        2
102
RTVSPost2010PropOp53
 70
     0
102
RTVSPost2010Prop54
  1
strokes_ogs.tif
102
RTVSPost2010PropOp54
 70
     0
102
RTVSPost2010Prop55
280
     0
102
RTVSPost2010PropOp55
 70
     1
102
RTVSPost2010Prop56
140
1.0
102
RTVSPost2010PropOp56
 70
     0
102
RTVSPost2010Prop57
140
1.0
102
RTVSPost2010PropOp57
 70
     0
102
RTVSPropertyOp0
 70
     0
102
RTVSPropertyOp1
 70
     0
102
RTVSPropertyOp2
 70
     0
102
RTVSPropertyOp3
 70
     0
102
RTVSPropertyOp4
 70
     0
102
RTVSPropertyOp5
 70
     0
102
RTVSPropertyOp6
 70
     0
102
RTVSPropertyOp7
 70
     0
102
RTVSPropertyOp8
 70
     0
102
RTVSPropertyOp9
 70
     0
102
RTVSPropertyOp10
 70
     0
102
RTVSPropertyOp11
 70
     0
102
RTVSPropertyOp12
 70
     0
102
RTVSPropertyOp13
 70
     0
102
RTVSPropertyOp14
 70
     2
102
RTVSPropertyOp15
 70
     0
102
RTVSPropertyOp16
 70
     0
102
RTVSPropertyOp17
 70
     0
102
RTVSPropertyOp18
 70
     0
102
RTVSPropertyOp19
 70
     0
102
RTVSPropertyOp20
 70
     0
102
RTVSPropertyOp21
 70
     0
102
RTVSPropertyOp22
 70
     0
102
RTVSPropertyOp23
 70
     0
102
RTVSPropertyOp24
 70
     0
102
RTVSPropertyOp25
 70
     0
102
RTVSPropertyOp26
 70
     0
102
RTVSPropertyOp27
 70
     0
102
RTVSPropertyOp28
 70
     1
102
RTVSPropertyOp29
 70
     1
102
RTVSPropertyOp30
 70
     1
102
RTVSPropertyOp31
 70
     1
102
RTVSPropertyOp32
 70
     1
102
RTVSPropertyOp33
 70
     1
102
RTVSPropertyOp34
 70
     1
102
RTVSPropertyOp35
 70
     1
102
RTVSPropertyOp36
 70
     1
102
RTVSPropertyOp37
 70
     0
102
RTVSPropertyOp38
 70
     0
102
RTVSPropertyOp39
 70
     0
102
RTVSPropertyOp40
 70
     0
102
RTVSPropertyOp41
 70
     0
102
RTVSPropertyOp42
 70
     0
102
RTVSPropertyOp43
 70
     0
102
RTVSPropertyOp44
 70
     0
102
RTVSPropertyOp45
 70
     1
102
RTVSPropertyOp46
 70
     0
102
RTVSPropertyOp47
 70
     0
102
RTVSPropertyOp48
 70
     0
102
RTVSPropertyOp49
 70
     1
102
RTVSPropertyOp50
 70
     0
102
RTVSPropertyOp51
 70
     0
102
RTVSPropertyOp52
 70
     0
102
RTVSPropertyOp53
 70
     0
102
RTVSPropertyOp54
 70
     0
102
RTVSPropertyOp55
 70
     1
102
RTVSPropertyOp56
 70
     0
102
RTVSPropertyOp57
 70
     0
102
RTVSPropertyOp58
 70
     0
102
RTVSPropertyOp59
 70
     0
102
RTVSPropertyOp60
 70
     0
102
RTVSPropertyOp61
 70
     0
102
RTVSPropertyOp62
 70
     0
  0
XRECORD
  5
9F4
102
{ACAD_REACTORS
330
9F3
102
}
330
9F3
100
AcDbXrecord
280
     1
102
RTVSPost2010Prop28
280
     0
102
RTVSPost2010PropOp28
 70
     1
102
RTVSPost2010Prop29
280
     1
102
RTVSPost2010PropOp29
 70
     1
102
RTVSPost2010Prop30
280
     1
102
RTVSPost2010PropOp30
 70
     1
102
RTVSPost2010Prop31
280
     0
102
RTVSPost2010PropOp31
 70
     1
102
RTVSPost2010Prop32
280
     0
102
RTVSPost2010PropOp32
 70
     1
102
RTVSPost2010Prop33
280
     0
102
RTVSPost2010PropOp33
 70
     1
102
RTVSPost2010Prop34
280
     0
102
RTVSPost2010PropOp34
 70
     1
102
RTVSPost2010Prop35
280
     0
102
RTVSPost2010PropOp35
 70
     1
102
RTVSPost2010Prop36
280
     0
102
RTVSPost2010PropOp36
 70
     1
102
RTVSPost2010Prop37
 90
       50
102
RTVSPost2010PropOp37
 70
     1
102
RTVSPost2010Prop38
140
0.0
102
RTVSPost2010PropOp38
 70
     1
102
RTVSPost2010Prop39
140
1.0
102
RTVSPost2010PropOp39
 70
     1
102
RTVSPost2010Prop40
 90
        0
102
RTVSPost2010PropOp40
 70
     1
102
RTVSPost2010Prop41ColorIndex
 90
       18
102
RTVSPost2010Prop41ColorRGB
 90
        0
102
RTVSPost2010PropOp41
 70
     1
102
RTVSPost2010Prop42
 90
       50
102
RTVSPost2010PropOp42
 70
     1
102
RTVSPost2010Prop43
 90
        3
102
RTVSPost2010PropOp43
 70
     1
102
RTVSPost2010Prop44ColorIndex
 90
        5
102
RTVSPost2010Prop44ColorRGB
 90
      255
102
RTVSPost2010PropOp44
 70
     1
102
RTVSPost2010Prop45
280
     0
102
RTVSPost2010PropOp45
 70
     1
102
RTVSPost2010Prop46
 90
       50
102
RTVSPost2010PropOp46
 70
     1
102
RTVSPost2010Prop47
 90
       50
102
RTVSPost2010PropOp47
 70
     1
102
RTVSPost2010Prop48
 90
       50
102
RTVSPost2010PropOp48
 70
     1
102
RTVSPost2010Prop49
280
     0
102
RTVSPost2010PropOp49
 70
     1
102
RTVSPost2010Prop50
 90
       50
102
RTVSPost2010PropOp50
 70
     1
102
RTVSPost2010Prop51ColorIndex
 90
      256
102
RTVSPost2010Prop51ColorRGB
 90
-16777216
102
RTVSPost2010PropOp51
 70
     0
102
RTVSPost2010Prop52
140
1.0
102
RTVSPost2010PropOp52
 70
     0
102
RTVSPost2010Prop53
 90
        2
102
RTVSPost2010PropOp53
 70
     1
102
RTVSPost2010Prop54
  1
strokes_ogs.tif
102
RTVSPost2010PropOp54
 70
     1
102
RTVSPost2010Prop55
280
     0
102
RTVSPost2010PropOp55
 70
     1
102
RTVSPost2010Prop56
140
1.0
102
RTVSPost2010PropOp56
 70
     1
102
RTVSPost2010Prop57
140
1.0
102
RTVSPost2010PropOp57
 70
     1
102
RTVSPropertyOp0
 70
     1
102
RTVSPropertyOp1
 70
     1
102
RTVSPropertyOp2
 70
     1
102
RTVSPropertyOp3
 70
     1
102
RTVSPropertyOp4
 70
     1
102
RTVSPropertyOp5
 70
     1
102
RTVSPropertyOp6
 70
     1
102
RTVSPropertyOp7
 70
     1
102
RTVSPropertyOp8
 70
     1
102
RTVSPropertyOp9
 70
     1
102
RTVSPropertyOp10
 70
     1
102
RTVSPropertyOp11
 70
     1
102
RTVSPropertyOp12
 70
     1
102
RTVSPropertyOp13
 70
     1
102
RTVSPropertyOp14
 70
     1
102
RTVSPropertyOp15
 70
     1
102
RTVSPropertyOp16
 70
     1
102
RTVSPropertyOp17
 70
     1
102
RTVSPropertyOp18
 70
     1
102
RTVSPropertyOp19
 70
     1
102
RTVSPropertyOp20
 70
     1
102
RTVSPropertyOp21
 70
     1
102
RTVSPropertyOp22
 70
     1
102
RTVSPropertyOp23
 70
     1
102
RTVSPropertyOp24
 70
     1
102
RTVSPropertyOp25
 70
     1
102
RTVSPropertyOp26
 70
     1
102
RTVSPropertyOp27
 70
     1
102
RTVSPropertyOp28
 70
     1
102
RTVSPropertyOp29
 70
     1
102
RTVSPropertyOp30
 70
     1
102
RTVSPropertyOp31
 70
     1
102
RTVSPropertyOp32
 70
     1
102
RTVSPropertyOp33
 70
     1
102
RTVSPropertyOp34
 70
     1
102
RTVSPropertyOp35
 70
     1
102
RTVSPropertyOp36
 70
     1
102
RTVSPropertyOp37
 70
     1
102
RTVSPropertyOp38
 70
     1
102
RTVSPropertyOp39
 70
     1
102
RTVSPropertyOp40
 70
     1
102
RTVSPropertyOp41
 70
     1
102
RTVSPropertyOp42
 70
     1
102
RTVSPropertyOp43
 70
     1
102
RTVSPropertyOp44
 70
     1
102
RTVSPropertyOp45
 70
     1
102
RTVSPropertyOp46
 70
     1
102
RTVSPropertyOp47
 70
     1
102
RTVSPropertyOp48
 70
     1
102
RTVSPropertyOp49
 70
     1
102
RTVSPropertyOp50
 70
     1
102
RTVSPropertyOp51
 70
     0
102
RTVSPropertyOp52
 70
     0
102
RTVSPropertyOp53
 70
     1
102
RTVSPropertyOp54
 70
     1
102
RTVSPropertyOp55
 70
     1
102
RTVSPropertyOp56
 70
     1
102
RTVSPropertyOp57
 70
     1
102
RTVSPropertyOp58
 70
     1
102
RTVSPropertyOp59
 70
     1
102
RTVSPropertyOp60
 70
     1
102
RTVSPropertyOp61
 70
     1
102
RTVSPropertyOp62
 70
     1
  0
XRECORD
  5
A06
102
{ACAD_REACTORS
330
A05
102
}
330
A05
100
AcDbXrecord
280
     1
102
RTVSPost2010Prop28
280
     0
102
RTVSPost2010PropOp28
 70
     1
102
RTVSPost2010Prop29
280
     1
102
RTVSPost2010PropOp29
 70
     1
102
RTVSPost2010Prop30
280
     1
102
RTVSPost2010PropOp30
 70
     1
102
RTVSPost2010Prop31
280
     0
102
RTVSPost2010PropOp31
 70
     1
102
RTVSPost2010Prop32
280
     0
102
RTVSPost2010PropOp32
 70
     1
102
RTVSPost2010Prop33
280
     0
102
RTVSPost2010PropOp33
 70
     1
102
RTVSPost2010Prop34
280
     0
102
RTVSPost2010PropOp34
 70
     1
102
RTVSPost2010Prop35
280
     0
102
RTVSPost2010PropOp35
 70
     1
102
RTVSPost2010Prop36
280
     0
102
RTVSPost2010PropOp36
 70
     1
102
RTVSPost2010Prop37
 90
       50
102
RTVSPost2010PropOp37
 70
     0
102
RTVSPost2010Prop38
140
0.0
102
RTVSPost2010PropOp38
 70
     0
102
RTVSPost2010Prop39
140
1.0
102
RTVSPost2010PropOp39
 70
     0
102
RTVSPost2010Prop40
 90
        0
102
RTVSPost2010PropOp40
 70
     0
102
RTVSPost2010Prop41ColorIndex
 90
       18
102
RTVSPost2010Prop41ColorRGB
 90
        0
102
RTVSPost2010PropOp41
 70
     0
102
RTVSPost2010Prop42
 90
       50
102
RTVSPost2010PropOp42
 70
     0
102
RTVSPost2010Prop43
 90
        3
102
RTVSPost2010PropOp43
 70
     0
102
RTVSPost2010Prop44ColorIndex
 90
        5
102
RTVSPost2010Prop44ColorRGB
 90
      255
102
RTVSPost2010PropOp44
 70
     0
102
RTVSPost2010Prop45
280
     0
102
RTVSPost2010PropOp45
 70
     1
102
RTVSPost2010Prop46
 90
       50
102
RTVSPost2010PropOp46
 70
     0
102
RTVSPost2010Prop47
 90
       50
102
RTVSPost2010PropOp47
 70
     0
102
RTVSPost2010Prop48
 90
       50
102
RTVSPost2010PropOp48
 70
     0
102
RTVSPost2010Prop49
280
     0
102
RTVSPost2010PropOp49
 70
     1
102
RTVSPost2010Prop50
 90
       50
102
RTVSPost2010PropOp50
 70
     0
102
RTVSPost2010Prop51ColorIndex
 90
      256
102
RTVSPost2010Prop51ColorRGB
 90
-16777216
102
RTVSPost2010PropOp51
 70
     0
102
RTVSPost2010Prop52
140
1.0
102
RTVSPost2010PropOp52
 70
     0
102
RTVSPost2010Prop53
 90
        2
102
RTVSPost2010PropOp53
 70
     0
102
RTVSPost2010Prop54
  1
strokes_ogs.tif
102
RTVSPost2010PropOp54
 70
     0
102
RTVSPost2010Prop55
280
     0
102
RTVSPost2010PropOp55
 70
     1
102
RTVSPost2010Prop56
140
1.0
102
RTVSPost2010PropOp56
 70
     0
102
RTVSPost2010Prop57
140
1.0
102
RTVSPost2010PropOp57
 70
     0
102
RTVSPropertyOp0
 70
     0
102
RTVSPropertyOp1
 70
     0
102
RTVSPropertyOp2
 70
     0
102
RTVSPropertyOp3
 70
     0
102
RTVSPropertyOp4
 70
     0
102
RTVSPropertyOp5
 70
     0
102
RTVSPropertyOp6
 70
     0
102
RTVSPropertyOp7
 70
     0
102
RTVSPropertyOp8
 70
     0
102
RTVSPropertyOp9
 70
     0
102
RTVSPropertyOp10
 70
     0
102
RTVSPropertyOp11
 70
     0
102
RTVSPropertyOp12
 70
     0
102
RTVSPropertyOp13
 70
     0
102
RTVSPropertyOp14
 70
     2
102
RTVSPropertyOp15
 70
     0
102
RTVSPropertyOp16
 70
     0
102
RTVSPropertyOp17
 70
     0
102
RTVSPropertyOp18
 70
     0
102
RTVSPropertyOp19
 70
     0
102
RTVSPropertyOp20
 70
     0
102
RTVSPropertyOp21
 70
     0
102
RTVSPropertyOp22
 70
     0
102
RTVSPropertyOp23
 70
     0
102
RTVSPropertyOp24
 70
     0
102
RTVSPropertyOp25
 70
     0
102
RTVSPropertyOp26
 70
     0
102
RTVSPropertyOp27
 70
     0
102
RTVSPropertyOp28
 70
     1
102
RTVSPropertyOp29
 70
     1
102
RTVSPropertyOp30
 70
     1
102
RTVSPropertyOp31
 70
     1
102
RTVSPropertyOp32
 70
     1
102
RTVSPropertyOp33
 70
     1
102
RTVSPropertyOp34
 70
     1
102
RTVSPropertyOp35
 70
     1
102
RTVSPropertyOp36
 70
     1
102
RTVSPropertyOp37
 70
     0
102
RTVSPropertyOp38
 70
     0
102
RTVSPropertyOp39
 70
     0
102
RTVSPropertyOp40
 70
     0
102
RTVSPropertyOp41
 70
     0
102
RTVSPropertyOp42
 70
     0
102
RTVSPropertyOp43
 70
     0
102
RTVSPropertyOp44
 70
     0
102
RTVSPropertyOp45
 70
     1
102
RTVSPropertyOp46
 70
     0
102
RTVSPropertyOp47
 70
     0
102
RTVSPropertyOp48
 70
     0
102
RTVSPropertyOp49
 70
     1
102
RTVSPropertyOp50
 70
     0
102
RTVSPropertyOp51
 70
     0
102
RTVSPropertyOp52
 70
     0
102
RTVSPropertyOp53
 70
     0
102
RTVSPropertyOp54
 70
     0
102
RTVSPropertyOp55
 70
     1
102
RTVSPropertyOp56
 70
     0
102
RTVSPropertyOp57
 70
     0
102
RTVSPropertyOp58
 70
     0
102
RTVSPropertyOp59
 70
     0
102
RTVSPropertyOp60
 70
     0
102
RTVSPropertyOp61
 70
     0
102
RTVSPropertyOp62
 70
     0
  0
XRECORD
  5
9EC
102
{ACAD_REACTORS
330
9EB
102
}
330
9EB
100
AcDbXrecord
280
     1
102
RTVSPost2010Prop28
280
     0
102
RTVSPost2010PropOp28
 70
     1
102
RTVSPost2010Prop29
280
     1
102
RTVSPost2010PropOp29
 70
     1
102
RTVSPost2010Prop30
280
     1
102
RTVSPost2010PropOp30
 70
     1
102
RTVSPost2010Prop31
280
     0
102
RTVSPost2010PropOp31
 70
     1
102
RTVSPost2010Prop32
280
     0
102
RTVSPost2010PropOp32
 70
     1
102
RTVSPost2010Prop33
280
     0
102
RTVSPost2010PropOp33
 70
     1
102
RTVSPost2010Prop34
280
     0
102
RTVSPost2010PropOp34
 70
     1
102
RTVSPost2010Prop35
280
     0
102
RTVSPost2010PropOp35
 70
     1
102
RTVSPost2010Prop36
280
     0
102
RTVSPost2010PropOp36
 70
     1
102
RTVSPost2010Prop37
 90
       50
102
RTVSPost2010PropOp37
 70
     1
102
RTVSPost2010Prop38
140
0.0
102
RTVSPost2010PropOp38
 70
     1
102
RTVSPost2010Prop39
140
1.0
102
RTVSPost2010PropOp39
 70
     1
102
RTVSPost2010Prop40
 90
        0
102
RTVSPost2010PropOp40
 70
     1
102
RTVSPost2010Prop41ColorIndex
 90
       18
102
RTVSPost2010Prop41ColorRGB
 90
        0
102
RTVSPost2010PropOp41
 70
     1
102
RTVSPost2010Prop42
 90
       50
102
RTVSPost2010PropOp42
 70
     1
102
RTVSPost2010Prop43
 90
        3
102
RTVSPost2010PropOp43
 70
     1
102
RTVSPost2010Prop44ColorIndex
 90
        5
102
RTVSPost2010Prop44ColorRGB
 90
      255
102
RTVSPost2010PropOp44
 70
     1
102
RTVSPost2010Prop45
280
     0
102
RTVSPost2010PropOp45
 70
     1
102
RTVSPost2010Prop46
 90
       50
102
RTVSPost2010PropOp46
 70
     1
102
RTVSPost2010Prop47
 90
       50
102
RTVSPost2010PropOp47
 70
     1
102
RTVSPost2010Prop48
 90
       50
102
RTVSPost2010PropOp48
 70
     1
102
RTVSPost2010Prop49
280
     0
102
RTVSPost2010PropOp49
 70
     1
102
RTVSPost2010Prop50
 90
       50
102
RTVSPost2010PropOp50
 70
     1
102
RTVSPost2010Prop51ColorIndex
 90
      256
102
RTVSPost2010Prop51ColorRGB
 90
-16777216
102
RTVSPost2010PropOp51
 70
     0
102
RTVSPost2010Prop52
140
1.0
102
RTVSPost2010PropOp52
 70
     0
102
RTVSPost2010Prop53
 90
        2
102
RTVSPost2010PropOp53
 70
     1
102
RTVSPost2010Prop54
  1
strokes_ogs.tif
102
RTVSPost2010PropOp54
 70
     1
102
RTVSPost2010Prop55
280
     0
102
RTVSPost2010PropOp55
 70
     1
102
RTVSPost2010Prop56
140
1.0
102
RTVSPost2010PropOp56
 70
     1
102
RTVSPost2010Prop57
140
1.0
102
RTVSPost2010PropOp57
 70
     1
102
RTVSPropertyOp0
 70
     1
102
RTVSPropertyOp1
 70
     1
102
RTVSPropertyOp2
 70
     1
102
RTVSPropertyOp3
 70
     1
102
RTVSPropertyOp4
 70
     1
102
RTVSPropertyOp5
 70
     1
102
RTVSPropertyOp6
 70
     1
102
RTVSPropertyOp7
 70
     1
102
RTVSPropertyOp8
 70
     1
102
RTVSPropertyOp9
 70
     1
102
RTVSPropertyOp10
 70
     1
102
RTVSPropertyOp11
 70
     1
102
RTVSPropertyOp12
 70
     1
102
RTVSPropertyOp13
 70
     1
102
RTVSPropertyOp14
 70
     1
102
RTVSPropertyOp15
 70
     1
102
RTVSPropertyOp16
 70
     1
102
RTVSPropertyOp17
 70
     1
102
RTVSPropertyOp18
 70
     1
102
RTVSPropertyOp19
 70
     1
102
RTVSPropertyOp20
 70
     1
102
RTVSPropertyOp21
 70
     1
102
RTVSPropertyOp22
 70
     1
102
RTVSPropertyOp23
 70
     1
102
RTVSPropertyOp24
 70
     1
102
RTVSPropertyOp25
 70
     1
102
RTVSPropertyOp26
 70
     1
102
RTVSPropertyOp27
 70
     1
102
RTVSPropertyOp28
 70
     1
102
RTVSPropertyOp29
 70
     1
102
RTVSPropertyOp30
 70
     1
102
RTVSPropertyOp31
 70
     1
102
RTVSPropertyOp32
 70
     1
102
RTVSPropertyOp33
 70
     1
102
RTVSPropertyOp34
 70
     1
102
RTVSPropertyOp35
 70
     1
102
RTVSPropertyOp36
 70
     1
102
RTVSPropertyOp37
 70
     1
102
RTVSPropertyOp38
 70
     1
102
RTVSPropertyOp39
 70
     1
102
RTVSPropertyOp40
 70
     1
102
RTVSPropertyOp41
 70
     1
102
RTVSPropertyOp42
 70
     1
102
RTVSPropertyOp43
 70
     1
102
RTVSPropertyOp44
 70
     1
102
RTVSPropertyOp45
 70
     1
102
RTVSPropertyOp46
 70
     1
102
RTVSPropertyOp47
 70
     1
102
RTVSPropertyOp48
 70
     1
102
RTVSPropertyOp49
 70
     1
102
RTVSPropertyOp50
 70
     1
102
RTVSPropertyOp51
 70
     0
102
RTVSPropertyOp52
 70
     0
102
RTVSPropertyOp53
 70
     1
102
RTVSPropertyOp54
 70
     1
102
RTVSPropertyOp55
 70
     1
102
RTVSPropertyOp56
 70
     1
102
RTVSPropertyOp57
 70
     1
102
RTVSPropertyOp58
 70
     1
102
RTVSPropertyOp59
 70
     1
102
RTVSPropertyOp60
 70
     1
102
RTVSPropertyOp61
 70
     1
102
RTVSPropertyOp62
 70
     1
  0
XRECORD
  5
A02
102
{ACAD_REACTORS
330
A01
102
}
330
A01
100
AcDbXrecord
280
     1
102
RTVSPost2010Prop28
280
     0
102
RTVSPost2010PropOp28
 70
     1
102
RTVSPost2010Prop29
280
     1
102
RTVSPost2010PropOp29
 70
     1
102
RTVSPost2010Prop30
280
     1
102
RTVSPost2010PropOp30
 70
     1
102
RTVSPost2010Prop31
280
     0
102
RTVSPost2010PropOp31
 70
     1
102
RTVSPost2010Prop32
280
     0
102
RTVSPost2010PropOp32
 70
     1
102
RTVSPost2010Prop33
280
     0
102
RTVSPost2010PropOp33
 70
     1
102
RTVSPost2010Prop34
280
     0
102
RTVSPost2010PropOp34
 70
     1
102
RTVSPost2010Prop35
280
     0
102
RTVSPost2010PropOp35
 70
     1
102
RTVSPost2010Prop36
280
     0
102
RTVSPost2010PropOp36
 70
     1
102
RTVSPost2010Prop37
 90
       50
102
RTVSPost2010PropOp37
 70
     1
102
RTVSPost2010Prop38
140
0.0
102
RTVSPost2010PropOp38
 70
     1
102
RTVSPost2010Prop39
140
1.0
102
RTVSPost2010PropOp39
 70
     1
102
RTVSPost2010Prop40
 90
        0
102
RTVSPost2010PropOp40
 70
     1
102
RTVSPost2010Prop41ColorIndex
 90
       18
102
RTVSPost2010Prop41ColorRGB
 90
        0
102
RTVSPost2010PropOp41
 70
     1
102
RTVSPost2010Prop42
 90
       50
102
RTVSPost2010PropOp42
 70
     1
102
RTVSPost2010Prop43
 90
        3
102
RTVSPost2010PropOp43
 70
     1
102
RTVSPost2010Prop44ColorIndex
 90
        5
102
RTVSPost2010Prop44ColorRGB
 90
      255
102
RTVSPost2010PropOp44
 70
     1
102
RTVSPost2010Prop45
280
     0
102
RTVSPost2010PropOp45
 70
     1
102
RTVSPost2010Prop46
 90
       50
102
RTVSPost2010PropOp46
 70
     1
102
RTVSPost2010Prop47
 90
       50
102
RTVSPost2010PropOp47
 70
     1
102
RTVSPost2010Prop48
 90
       50
102
RTVSPost2010PropOp48
 70
     1
102
RTVSPost2010Prop49
280
     0
102
RTVSPost2010PropOp49
 70
     1
102
RTVSPost2010Prop50
 90
       50
102
RTVSPost2010PropOp50
 70
     1
102
RTVSPost2010Prop51ColorIndex
 90
      256
102
RTVSPost2010Prop51ColorRGB
 90
-16777216
102
RTVSPost2010PropOp51
 70
     0
102
RTVSPost2010Prop52
140
1.0
102
RTVSPost2010PropOp52
 70
     0
102
RTVSPost2010Prop53
 90
        2
102
RTVSPost2010PropOp53
 70
     1
102
RTVSPost2010Prop54
  1
strokes_ogs.tif
102
RTVSPost2010PropOp54
 70
     1
102
RTVSPost2010Prop55
280
     0
102
RTVSPost2010PropOp55
 70
     1
102
RTVSPost2010Prop56
140
1.0
102
RTVSPost2010PropOp56
 70
     1
102
RTVSPost2010Prop57
140
1.0
102
RTVSPost2010PropOp57
 70
     1
102
RTVSPropertyOp0
 70
     1
102
RTVSPropertyOp1
 70
     1
102
RTVSPropertyOp2
 70
     1
102
RTVSPropertyOp3
 70
     1
102
RTVSPropertyOp4
 70
     1
102
RTVSPropertyOp5
 70
     1
102
RTVSPropertyOp6
 70
     1
102
RTVSPropertyOp7
 70
     1
102
RTVSPropertyOp8
 70
     1
102
RTVSPropertyOp9
 70
     1
102
RTVSPropertyOp10
 70
     1
102
RTVSPropertyOp11
 70
     1
102
RTVSPropertyOp12
 70
     1
102
RTVSPropertyOp13
 70
     1
102
RTVSPropertyOp14
 70
     1
102
RTVSPropertyOp15
 70
     1
102
RTVSPropertyOp16
 70
     1
102
RTVSPropertyOp17
 70
     1
102
RTVSPropertyOp18
 70
     1
102
RTVSPropertyOp19
 70
     1
102
RTVSPropertyOp20
 70
     1
102
RTVSPropertyOp21
 70
     1
102
RTVSPropertyOp22
 70
     1
102
RTVSPropertyOp23
 70
     1
102
RTVSPropertyOp24
 70
     1
102
RTVSPropertyOp25
 70
     1
102
RTVSPropertyOp26
 70
     1
102
RTVSPropertyOp27
 70
     1
102
RTVSPropertyOp28
 70
     1
102
RTVSPropertyOp29
 70
     1
102
RTVSPropertyOp30
 70
     1
102
RTVSPropertyOp31
 70
     1
102
RTVSPropertyOp32
 70
     1
102
RTVSPropertyOp33
 70
     1
102
RTVSPropertyOp34
 70
     1
102
RTVSPropertyOp35
 70
     1
102
RTVSPropertyOp36
 70
     1
102
RTVSPropertyOp37
 70
     1
102
RTVSPropertyOp38
 70
     1
102
RTVSPropertyOp39
 70
     1
102
RTVSPropertyOp40
 70
     1
102
RTVSPropertyOp41
 70
     1
102
RTVSPropertyOp42
 70
     1
102
RTVSPropertyOp43
 70
     1
102
RTVSPropertyOp44
 70
     1
102
RTVSPropertyOp45
 70
     1
102
RTVSPropertyOp46
 70
     1
102
RTVSPropertyOp47
 70
     1
102
RTVSPropertyOp48
 70
     1
102
RTVSPropertyOp49
 70
     1
102
RTVSPropertyOp50
 70
     1
102
RTVSPropertyOp51
 70
     0
102
RTVSPropertyOp52
 70
     0
102
RTVSPropertyOp53
 70
     1
102
RTVSPropertyOp54
 70
     1
102
RTVSPropertyOp55
 70
     1
102
RTVSPropertyOp56
 70
     1
102
RTVSPropertyOp57
 70
     1
102
RTVSPropertyOp58
 70
     1
102
RTVSPropertyOp59
 70
     1
102
RTVSPropertyOp60
 70
     1
102
RTVSPropertyOp61
 70
     1
102
RTVSPropertyOp62
 70
     1
  0
XRECORD
  5
A00
102
{ACAD_REACTORS
330
9FF
102
}
330
9FF
100
AcDbXrecord
280
     1
102
RTVSPost2010Prop28
280
     0
102
RTVSPost2010PropOp28
 70
     1
102
RTVSPost2010Prop29
280
     1
102
RTVSPost2010PropOp29
 70
     1
102
RTVSPost2010Prop30
280
     1
102
RTVSPost2010PropOp30
 70
     1
102
RTVSPost2010Prop31
280
     0
102
RTVSPost2010PropOp31
 70
     1
102
RTVSPost2010Prop32
280
     0
102
RTVSPost2010PropOp32
 70
     1
102
RTVSPost2010Prop33
280
     0
102
RTVSPost2010PropOp33
 70
     1
102
RTVSPost2010Prop34
280
     0
102
RTVSPost2010PropOp34
 70
     1
102
RTVSPost2010Prop35
280
     0
102
RTVSPost2010PropOp35
 70
     1
102
RTVSPost2010Prop36
280
     0
102
RTVSPost2010PropOp36
 70
     1
102
RTVSPost2010Prop37
 90
       50
102
RTVSPost2010PropOp37
 70
     1
102
RTVSPost2010Prop38
140
0.0
102
RTVSPost2010PropOp38
 70
     1
102
RTVSPost2010Prop39
140
1.0
102
RTVSPost2010PropOp39
 70
     1
102
RTVSPost2010Prop40
 90
        0
102
RTVSPost2010PropOp40
 70
     1
102
RTVSPost2010Prop41ColorIndex
 90
       18
102
RTVSPost2010Prop41ColorRGB
 90
        0
102
RTVSPost2010PropOp41
 70
     1
102
RTVSPost2010Prop42
 90
       50
102
RTVSPost2010PropOp42
 70
     1
102
RTVSPost2010Prop43
 90
        3
102
RTVSPost2010PropOp43
 70
     1
102
RTVSPost2010Prop44ColorIndex
 90
        5
102
RTVSPost2010Prop44ColorRGB
 90
      255
102
RTVSPost2010PropOp44
 70
     1
102
RTVSPost2010Prop45
280
     0
102
RTVSPost2010PropOp45
 70
     1
102
RTVSPost2010Prop46
 90
       50
102
RTVSPost2010PropOp46
 70
     1
102
RTVSPost2010Prop47
 90
       50
102
RTVSPost2010PropOp47
 70
     1
102
RTVSPost2010Prop48
 90
       50
102
RTVSPost2010PropOp48
 70
     1
102
RTVSPost2010Prop49
280
     0
102
RTVSPost2010PropOp49
 70
     1
102
RTVSPost2010Prop50
 90
       50
102
RTVSPost2010PropOp50
 70
     1
102
RTVSPost2010Prop51ColorIndex
 90
      256
102
RTVSPost2010Prop51ColorRGB
 90
-16777216
102
RTVSPost2010PropOp51
 70
     0
102
RTVSPost2010Prop52
140
1.0
102
RTVSPost2010PropOp52
 70
     0
102
RTVSPost2010Prop53
 90
        2
102
RTVSPost2010PropOp53
 70
     1
102
RTVSPost2010Prop54
  1
strokes_ogs.tif
102
RTVSPost2010PropOp54
 70
     1
102
RTVSPost2010Prop55
280
     0
102
RTVSPost2010PropOp55
 70
     1
102
RTVSPost2010Prop56
140
1.0
102
RTVSPost2010PropOp56
 70
     1
102
RTVSPost2010Prop57
140
1.0
102
RTVSPost2010PropOp57
 70
     1
102
RTVSPropertyOp0
 70
     1
102
RTVSPropertyOp1
 70
     1
102
RTVSPropertyOp2
 70
     1
102
RTVSPropertyOp3
 70
     1
102
RTVSPropertyOp4
 70
     1
102
RTVSPropertyOp5
 70
     1
102
RTVSPropertyOp6
 70
     1
102
RTVSPropertyOp7
 70
     1
102
RTVSPropertyOp8
 70
     1
102
RTVSPropertyOp9
 70
     1
102
RTVSPropertyOp10
 70
     1
102
RTVSPropertyOp11
 70
     1
102
RTVSPropertyOp12
 70
     1
102
RTVSPropertyOp13
 70
     1
102
RTVSPropertyOp14
 70
     1
102
RTVSPropertyOp15
 70
     1
102
RTVSPropertyOp16
 70
     1
102
RTVSPropertyOp17
 70
     1
102
RTVSPropertyOp18
 70
     1
102
RTVSPropertyOp19
 70
     1
102
RTVSPropertyOp20
 70
     1
102
RTVSPropertyOp21
 70
     1
102
RTVSPropertyOp22
 70
     1
102
RTVSPropertyOp23
 70
     1
102
RTVSPropertyOp24
 70
     1
102
RTVSPropertyOp25
 70
     1
102
RTVSPropertyOp26
 70
     1
102
RTVSPropertyOp27
 70
     1
102
RTVSPropertyOp28
 70
     1
102
RTVSPropertyOp29
 70
     1
102
RTVSPropertyOp30
 70
     1
102
RTVSPropertyOp31
 70
     1
102
RTVSPropertyOp32
 70
     1
102
RTVSPropertyOp33
 70
     1
102
RTVSPropertyOp34
 70
     1
102
RTVSPropertyOp35
 70
     1
102
RTVSPropertyOp36
 70
     1
102
RTVSPropertyOp37
 70
     1
102
RTVSPropertyOp38
 70
     1
102
RTVSPropertyOp39
 70
     1
102
RTVSPropertyOp40
 70
     1
102
RTVSPropertyOp41
 70
     1
102
RTVSPropertyOp42
 70
     1
102
RTVSPropertyOp43
 70
     1
102
RTVSPropertyOp44
 70
     1
102
RTVSPropertyOp45
 70
     1
102
RTVSPropertyOp46
 70
     1
102
RTVSPropertyOp47
 70
     1
102
RTVSPropertyOp48
 70
     1
102
RTVSPropertyOp49
 70
     1
102
RTVSPropertyOp50
 70
     1
102
RTVSPropertyOp51
 70
     0
102
RTVSPropertyOp52
 70
     0
102
RTVSPropertyOp53
 70
     1
102
RTVSPropertyOp54
 70
     1
102
RTVSPropertyOp55
 70
     1
102
RTVSPropertyOp56
 70
     1
102
RTVSPropertyOp57
 70
     1
102
RTVSPropertyOp58
 70
     1
102
RTVSPropertyOp59
 70
     1
102
RTVSPropertyOp60
 70
     1
102
RTVSPropertyOp61
 70
     1
102
RTVSPropertyOp62
 70
     1
  0
XRECORD
  5
9FA
102
{ACAD_REACTORS
330
9F9
102
}
330
9F9
100
AcDbXrecord
280
     1
102
RTVSPost2010Prop28
280
     0
102
RTVSPost2010PropOp28
 70
     1
102
RTVSPost2010Prop29
280
     1
102
RTVSPost2010PropOp29
 70
     1
102
RTVSPost2010Prop30
280
     1
102
RTVSPost2010PropOp30
 70
     1
102
RTVSPost2010Prop31
280
     0
102
RTVSPost2010PropOp31
 70
     1
102
RTVSPost2010Prop32
280
     0
102
RTVSPost2010PropOp32
 70
     1
102
RTVSPost2010Prop33
280
     0
102
RTVSPost2010PropOp33
 70
     1
102
RTVSPost2010Prop34
280
     0
102
RTVSPost2010PropOp34
 70
     1
102
RTVSPost2010Prop35
280
     0
102
RTVSPost2010PropOp35
 70
     1
102
RTVSPost2010Prop36
280
     0
102
RTVSPost2010PropOp36
 70
     1
102
RTVSPost2010Prop37
 90
       50
102
RTVSPost2010PropOp37
 70
     1
102
RTVSPost2010Prop38
140
0.0
102
RTVSPost2010PropOp38
 70
     1
102
RTVSPost2010Prop39
140
1.0
102
RTVSPost2010PropOp39
 70
     1
102
RTVSPost2010Prop40
 90
        0
102
RTVSPost2010PropOp40
 70
     1
102
RTVSPost2010Prop41ColorIndex
 90
       18
102
RTVSPost2010Prop41ColorRGB
 90
        0
102
RTVSPost2010PropOp41
 70
     1
102
RTVSPost2010Prop42
 90
       50
102
RTVSPost2010PropOp42
 70
     1
102
RTVSPost2010Prop43
 90
        3
102
RTVSPost2010PropOp43
 70
     1
102
RTVSPost2010Prop44ColorIndex
 90
        5
102
RTVSPost2010Prop44ColorRGB
 90
      255
102
RTVSPost2010PropOp44
 70
     1
102
RTVSPost2010Prop45
280
     0
102
RTVSPost2010PropOp45
 70
     1
102
RTVSPost2010Prop46
 90
       50
102
RTVSPost2010PropOp46
 70
     1
102
RTVSPost2010Prop47
 90
       50
102
RTVSPost2010PropOp47
 70
     1
102
RTVSPost2010Prop48
 90
       50
102
RTVSPost2010PropOp48
 70
     1
102
RTVSPost2010Prop49
280
     0
102
RTVSPost2010PropOp49
 70
     1
102
RTVSPost2010Prop50
 90
       50
102
RTVSPost2010PropOp50
 70
     1
102
RTVSPost2010Prop51ColorIndex
 90
      256
102
RTVSPost2010Prop51ColorRGB
 90
-16777216
102
RTVSPost2010PropOp51
 70
     0
102
RTVSPost2010Prop52
140
1.0
102
RTVSPost2010PropOp52
 70
     0
102
RTVSPost2010Prop53
 90
        2
102
RTVSPost2010PropOp53
 70
     1
102
RTVSPost2010Prop54
  1
strokes_ogs.tif
102
RTVSPost2010PropOp54
 70
     1
102
RTVSPost2010Prop55
280
     0
102
RTVSPost2010PropOp55
 70
     1
102
RTVSPost2010Prop56
140
1.0
102
RTVSPost2010PropOp56
 70
     1
102
RTVSPost2010Prop57
140
1.0
102
RTVSPost2010PropOp57
 70
     1
102
RTVSPropertyOp0
 70
     1
102
RTVSPropertyOp1
 70
     1
102
RTVSPropertyOp2
 70
     1
102
RTVSPropertyOp3
 70
     1
102
RTVSPropertyOp4
 70
     1
102
RTVSPropertyOp5
 70
     1
102
RTVSPropertyOp6
 70
     1
102
RTVSPropertyOp7
 70
     1
102
RTVSPropertyOp8
 70
     1
102
RTVSPropertyOp9
 70
     1
102
RTVSPropertyOp10
 70
     1
102
RTVSPropertyOp11
 70
     1
102
RTVSPropertyOp12
 70
     1
102
RTVSPropertyOp13
 70
     1
102
RTVSPropertyOp14
 70
     1
102
RTVSPropertyOp15
 70
     1
102
RTVSPropertyOp16
 70
     1
102
RTVSPropertyOp17
 70
     1
102
RTVSPropertyOp18
 70
     1
102
RTVSPropertyOp19
 70
     1
102
RTVSPropertyOp20
 70
     1
102
RTVSPropertyOp21
 70
     1
102
RTVSPropertyOp22
 70
     1
102
RTVSPropertyOp23
 70
     1
102
RTVSPropertyOp24
 70
     1
102
RTVSPropertyOp25
 70
     1
102
RTVSPropertyOp26
 70
     1
102
RTVSPropertyOp27
 70
     1
102
RTVSPropertyOp28
 70
     1
102
RTVSPropertyOp29
 70
     1
102
RTVSPropertyOp30
 70
     1
102
RTVSPropertyOp31
 70
     1
102
RTVSPropertyOp32
 70
     1
102
RTVSPropertyOp33
 70
     1
102
RTVSPropertyOp34
 70
     1
102
RTVSPropertyOp35
 70
     1
102
RTVSPropertyOp36
 70
     1
102
RTVSPropertyOp37
 70
     1
102
RTVSPropertyOp38
 70
     1
102
RTVSPropertyOp39
 70
     1
102
RTVSPropertyOp40
 70
     1
102
RTVSPropertyOp41
 70
     1
102
RTVSPropertyOp42
 70
     1
102
RTVSPropertyOp43
 70
     1
102
RTVSPropertyOp44
 70
     1
102
RTVSPropertyOp45
 70
     1
102
RTVSPropertyOp46
 70
     1
102
RTVSPropertyOp47
 70
     1
102
RTVSPropertyOp48
 70
     1
102
RTVSPropertyOp49
 70
     1
102
RTVSPropertyOp50
 70
     1
102
RTVSPropertyOp51
 70
     0
102
RTVSPropertyOp52
 70
     0
102
RTVSPropertyOp53
 70
     1
102
RTVSPropertyOp54
 70
     1
102
RTVSPropertyOp55
 70
     1
102
RTVSPropertyOp56
 70
     1
102
RTVSPropertyOp57
 70
     1
102
RTVSPropertyOp58
 70
     1
102
RTVSPropertyOp59
 70
     1
102
RTVSPropertyOp60
 70
     1
102
RTVSPropertyOp61
 70
     1
102
RTVSPropertyOp62
 70
     1
  0
XRECORD
  5
9FC
102
{ACAD_REACTORS
330
9FB
102
}
330
9FB
100
AcDbXrecord
280
     1
102
RTVSPost2010Prop28
280
     0
102
RTVSPost2010PropOp28
 70
     1
102
RTVSPost2010Prop29
280
     1
102
RTVSPost2010PropOp29
 70
     1
102
RTVSPost2010Prop30
280
     1
102
RTVSPost2010PropOp30
 70
     1
102
RTVSPost2010Prop31
280
     0
102
RTVSPost2010PropOp31
 70
     1
102
RTVSPost2010Prop32
280
     0
102
RTVSPost2010PropOp32
 70
     1
102
RTVSPost2010Prop33
280
     0
102
RTVSPost2010PropOp33
 70
     1
102
RTVSPost2010Prop34
280
     0
102
RTVSPost2010PropOp34
 70
     1
102
RTVSPost2010Prop35
280
     0
102
RTVSPost2010PropOp35
 70
     1
102
RTVSPost2010Prop36
280
     0
102
RTVSPost2010PropOp36
 70
     1
102
RTVSPost2010Prop37
 90
       50
102
RTVSPost2010PropOp37
 70
     1
102
RTVSPost2010Prop38
140
0.0
102
RTVSPost2010PropOp38
 70
     1
102
RTVSPost2010Prop39
140
1.0
102
RTVSPost2010PropOp39
 70
     1
102
RTVSPost2010Prop40
 90
        0
102
RTVSPost2010PropOp40
 70
     1
102
RTVSPost2010Prop41ColorIndex
 90
       18
102
RTVSPost2010Prop41ColorRGB
 90
        0
102
RTVSPost2010PropOp41
 70
     1
102
RTVSPost2010Prop42
 90
       50
102
RTVSPost2010PropOp42
 70
     1
102
RTVSPost2010Prop43
 90
        3
102
RTVSPost2010PropOp43
 70
     1
102
RTVSPost2010Prop44ColorIndex
 90
        5
102
RTVSPost2010Prop44ColorRGB
 90
      255
102
RTVSPost2010PropOp44
 70
     1
102
RTVSPost2010Prop45
280
     0
102
RTVSPost2010PropOp45
 70
     1
102
RTVSPost2010Prop46
 90
       50
102
RTVSPost2010PropOp46
 70
     1
102
RTVSPost2010Prop47
 90
       50
102
RTVSPost2010PropOp47
 70
     1
102
RTVSPost2010Prop48
 90
       50
102
RTVSPost2010PropOp48
 70
     1
102
RTVSPost2010Prop49
280
     0
102
RTVSPost2010PropOp49
 70
     1
102
RTVSPost2010Prop50
 90
       50
102
RTVSPost2010PropOp50
 70
     1
102
RTVSPost2010Prop51ColorIndex
 90
      256
102
RTVSPost2010Prop51ColorRGB
 90
-16777216
102
RTVSPost2010PropOp51
 70
     0
102
RTVSPost2010Prop52
140
1.0
102
RTVSPost2010PropOp52
 70
     0
102
RTVSPost2010Prop53
 90
        2
102
RTVSPost2010PropOp53
 70
     1
102
RTVSPost2010Prop54
  1
strokes_ogs.tif
102
RTVSPost2010PropOp54
 70
     1
102
RTVSPost2010Prop55
280
     0
102
RTVSPost2010PropOp55
 70
     1
102
RTVSPost2010Prop56
140
1.0
102
RTVSPost2010PropOp56
 70
     1
102
RTVSPost2010Prop57
140
1.0
102
RTVSPost2010PropOp57
 70
     1
102
RTVSPropertyOp0
 70
     1
102
RTVSPropertyOp1
 70
     1
102
RTVSPropertyOp2
 70
     1
102
RTVSPropertyOp3
 70
     1
102
RTVSPropertyOp4
 70
     1
102
RTVSPropertyOp5
 70
     1
102
RTVSPropertyOp6
 70
     1
102
RTVSPropertyOp7
 70
     1
102
RTVSPropertyOp8
 70
     1
102
RTVSPropertyOp9
 70
     1
102
RTVSPropertyOp10
 70
     1
102
RTVSPropertyOp11
 70
     1
102
RTVSPropertyOp12
 70
     1
102
RTVSPropertyOp13
 70
     1
102
RTVSPropertyOp14
 70
     1
102
RTVSPropertyOp15
 70
     1
102
RTVSPropertyOp16
 70
     1
102
RTVSPropertyOp17
 70
     1
102
RTVSPropertyOp18
 70
     1
102
RTVSPropertyOp19
 70
     1
102
RTVSPropertyOp20
 70
     1
102
RTVSPropertyOp21
 70
     1
102
RTVSPropertyOp22
 70
     1
102
RTVSPropertyOp23
 70
     1
102
RTVSPropertyOp24
 70
     1
102
RTVSPropertyOp25
 70
     1
102
RTVSPropertyOp26
 70
     1
102
RTVSPropertyOp27
 70
     1
102
RTVSPropertyOp28
 70
     1
102
RTVSPropertyOp29
 70
     1
102
RTVSPropertyOp30
 70
     1
102
RTVSPropertyOp31
 70
     1
102
RTVSPropertyOp32
 70
     1
102
RTVSPropertyOp33
 70
     1
102
RTVSPropertyOp34
 70
     1
102
RTVSPropertyOp35
 70
     1
102
RTVSPropertyOp36
 70
     1
102
RTVSPropertyOp37
 70
     1
102
RTVSPropertyOp38
 70
     1
102
RTVSPropertyOp39
 70
     1
102
RTVSPropertyOp40
 70
     1
102
RTVSPropertyOp41
 70
     1
102
RTVSPropertyOp42
 70
     1
102
RTVSPropertyOp43
 70
     1
102
RTVSPropertyOp44
 70
     1
102
RTVSPropertyOp45
 70
     1
102
RTVSPropertyOp46
 70
     1
102
RTVSPropertyOp47
 70
     1
102
RTVSPropertyOp48
 70
     1
102
RTVSPropertyOp49
 70
     1
102
RTVSPropertyOp50
 70
     1
102
RTVSPropertyOp51
 70
     0
102
RTVSPropertyOp52
 70
     0
102
RTVSPropertyOp53
 70
     1
102
RTVSPropertyOp54
 70
     1
102
RTVSPropertyOp55
 70
     1
102
RTVSPropertyOp56
 70
     1
102
RTVSPropertyOp57
 70
     1
102
RTVSPropertyOp58
 70
     1
102
RTVSPropertyOp59
 70
     1
102
RTVSPropertyOp60
 70
     1
102
RTVSPropertyOp61
 70
     1
102
RTVSPropertyOp62
 70
     1
  0
XRECORD
  5
9F2
102
{ACAD_REACTORS
330
9F1
102
}
330
9F1
100
AcDbXrecord
280
     1
102
RTVSPost2010Prop28
280
     0
102
RTVSPost2010PropOp28
 70
     1
102
RTVSPost2010Prop29
280
     1
102
RTVSPost2010PropOp29
 70
     1
102
RTVSPost2010Prop30
280
     1
102
RTVSPost2010PropOp30
 70
     1
102
RTVSPost2010Prop31
280
     0
102
RTVSPost2010PropOp31
 70
     1
102
RTVSPost2010Prop32
280
     0
102
RTVSPost2010PropOp32
 70
     1
102
RTVSPost2010Prop33
280
     0
102
RTVSPost2010PropOp33
 70
     1
102
RTVSPost2010Prop34
280
     0
102
RTVSPost2010PropOp34
 70
     1
102
RTVSPost2010Prop35
280
     0
102
RTVSPost2010PropOp35
 70
     1
102
RTVSPost2010Prop36
280
     0
102
RTVSPost2010PropOp36
 70
     1
102
RTVSPost2010Prop37
 90
       50
102
RTVSPost2010PropOp37
 70
     1
102
RTVSPost2010Prop38
140
0.0
102
RTVSPost2010PropOp38
 70
     1
102
RTVSPost2010Prop39
140
1.0
102
RTVSPost2010PropOp39
 70
     1
102
RTVSPost2010Prop40
 90
        0
102
RTVSPost2010PropOp40
 70
     1
102
RTVSPost2010Prop41ColorIndex
 90
       18
102
RTVSPost2010Prop41ColorRGB
 90
        0
102
RTVSPost2010PropOp41
 70
     1
102
RTVSPost2010Prop42
 90
       50
102
RTVSPost2010PropOp42
 70
     1
102
RTVSPost2010Prop43
 90
        3
102
RTVSPost2010PropOp43
 70
     1
102
RTVSPost2010Prop44ColorIndex
 90
        5
102
RTVSPost2010Prop44ColorRGB
 90
      255
102
RTVSPost2010PropOp44
 70
     1
102
RTVSPost2010Prop45
280
     0
102
RTVSPost2010PropOp45
 70
     1
102
RTVSPost2010Prop46
 90
       50
102
RTVSPost2010PropOp46
 70
     1
102
RTVSPost2010Prop47
 90
       50
102
RTVSPost2010PropOp47
 70
     1
102
RTVSPost2010Prop48
 90
       50
102
RTVSPost2010PropOp48
 70
     1
102
RTVSPost2010Prop49
280
     0
102
RTVSPost2010PropOp49
 70
     1
102
RTVSPost2010Prop50
 90
       50
102
RTVSPost2010PropOp50
 70
     1
102
RTVSPost2010Prop51ColorIndex
 90
      256
102
RTVSPost2010Prop51ColorRGB
 90
-16777216
102
RTVSPost2010PropOp51
 70
     0
102
RTVSPost2010Prop52
140
1.0
102
RTVSPost2010PropOp52
 70
     0
102
RTVSPost2010Prop53
 90
        2
102
RTVSPost2010PropOp53
 70
     1
102
RTVSPost2010Prop54
  1
strokes_ogs.tif
102
RTVSPost2010PropOp54
 70
     1
102
RTVSPost2010Prop55
280
     0
102
RTVSPost2010PropOp55
 70
     1
102
RTVSPost2010Prop56
140
1.0
102
RTVSPost2010PropOp56
 70
     1
102
RTVSPost2010Prop57
140
1.0
102
RTVSPost2010PropOp57
 70
     1
102
RTVSPropertyOp0
 70
     1
102
RTVSPropertyOp1
 70
     1
102
RTVSPropertyOp2
 70
     1
102
RTVSPropertyOp3
 70
     1
102
RTVSPropertyOp4
 70
     1
102
RTVSPropertyOp5
 70
     1
102
RTVSPropertyOp6
 70
     1
102
RTVSPropertyOp7
 70
     1
102
RTVSPropertyOp8
 70
     1
102
RTVSPropertyOp9
 70
     1
102
RTVSPropertyOp10
 70
     1
102
RTVSPropertyOp11
 70
     1
102
RTVSPropertyOp12
 70
     1
102
RTVSPropertyOp13
 70
     1
102
RTVSPropertyOp14
 70
     1
102
RTVSPropertyOp15
 70
     1
102
RTVSPropertyOp16
 70
     1
102
RTVSPropertyOp17
 70
     1
102
RTVSPropertyOp18
 70
     1
102
RTVSPropertyOp19
 70
     1
102
RTVSPropertyOp20
 70
     1
102
RTVSPropertyOp21
 70
     1
102
RTVSPropertyOp22
 70
     1
102
RTVSPropertyOp23
 70
     1
102
RTVSPropertyOp24
 70
     1
102
RTVSPropertyOp25
 70
     1
102
RTVSPropertyOp26
 70
     1
102
RTVSPropertyOp27
 70
     1
102
RTVSPropertyOp28
 70
     1
102
RTVSPropertyOp29
 70
     1
102
RTVSPropertyOp30
 70
     1
102
RTVSPropertyOp31
 70
     1
102
RTVSPropertyOp32
 70
     1
102
RTVSPropertyOp33
 70
     1
102
RTVSPropertyOp34
 70
     1
102
RTVSPropertyOp35
 70
     1
102
RTVSPropertyOp36
 70
     1
102
RTVSPropertyOp37
 70
     1
102
RTVSPropertyOp38
 70
     1
102
RTVSPropertyOp39
 70
     1
102
RTVSPropertyOp40
 70
     1
102
RTVSPropertyOp41
 70
     1
102
RTVSPropertyOp42
 70
     1
102
RTVSPropertyOp43
 70
     1
102
RTVSPropertyOp44
 70
     1
102
RTVSPropertyOp45
 70
     1
102
RTVSPropertyOp46
 70
     1
102
RTVSPropertyOp47
 70
     1
102
RTVSPropertyOp48
 70
     1
102
RTVSPropertyOp49
 70
     1
102
RTVSPropertyOp50
 70
     1
102
RTVSPropertyOp51
 70
     0
102
RTVSPropertyOp52
 70
     0
102
RTVSPropertyOp53
 70
     1
102
RTVSPropertyOp54
 70
     1
102
RTVSPropertyOp55
 70
     1
102
RTVSPropertyOp56
 70
     1
102
RTVSPropertyOp57
 70
     1
102
RTVSPropertyOp58
 70
     1
102
RTVSPropertyOp59
 70
     1
102
RTVSPropertyOp60
 70
     1
102
RTVSPropertyOp61
 70
     1
102
RTVSPropertyOp62
 70
     1
  0
XRECORD
  5
9E6
102
{ACAD_REACTORS
330
9E5
102
}
330
9E5
100
AcDbXrecord
280
     1
102
RTVSPost2010Prop28
280
     0
102
RTVSPost2010PropOp28
 70
     1
102
RTVSPost2010Prop29
280
     1
102
RTVSPost2010PropOp29
 70
     1
102
RTVSPost2010Prop30
280
     1
102
RTVSPost2010PropOp30
 70
     1
102
RTVSPost2010Prop31
280
     0
102
RTVSPost2010PropOp31
 70
     1
102
RTVSPost2010Prop32
280
     0
102
RTVSPost2010PropOp32
 70
     1
102
RTVSPost2010Prop33
280
     0
102
RTVSPost2010PropOp33
 70
     1
102
RTVSPost2010Prop34
280
     0
102
RTVSPost2010PropOp34
 70
     1
102
RTVSPost2010Prop35
280
     0
102
RTVSPost2010PropOp35
 70
     1
102
RTVSPost2010Prop36
280
     0
102
RTVSPost2010PropOp36
 70
     1
102
RTVSPost2010Prop37
 90
       50
102
RTVSPost2010PropOp37
 70
     1
102
RTVSPost2010Prop38
140
0.0
102
RTVSPost2010PropOp38
 70
     1
102
RTVSPost2010Prop39
140
1.0
102
RTVSPost2010PropOp39
 70
     1
102
RTVSPost2010Prop40
 90
        0
102
RTVSPost2010PropOp40
 70
     1
102
RTVSPost2010Prop41ColorIndex
 90
       18
102
RTVSPost2010Prop41ColorRGB
 90
        0
102
RTVSPost2010PropOp41
 70
     1
102
RTVSPost2010Prop42
 90
       50
102
RTVSPost2010PropOp42
 70
     1
102
RTVSPost2010Prop43
 90
        3
102
RTVSPost2010PropOp43
 70
     1
102
RTVSPost2010Prop44ColorIndex
 90
        5
102
RTVSPost2010Prop44ColorRGB
 90
      255
102
RTVSPost2010PropOp44
 70
     1
102
RTVSPost2010Prop45
280
     0
102
RTVSPost2010PropOp45
 70
     1
102
RTVSPost2010Prop46
 90
       50
102
RTVSPost2010PropOp46
 70
     1
102
RTVSPost2010Prop47
 90
       50
102
RTVSPost2010PropOp47
 70
     1
102
RTVSPost2010Prop48
 90
       50
102
RTVSPost2010PropOp48
 70
     1
102
RTVSPost2010Prop49
280
     0
102
RTVSPost2010PropOp49
 70
     1
102
RTVSPost2010Prop50
 90
       50
102
RTVSPost2010PropOp50
 70
     1
102
RTVSPost2010Prop51ColorIndex
 90
      256
102
RTVSPost2010Prop51ColorRGB
 90
-16777216
102
RTVSPost2010PropOp51
 70
     0
102
RTVSPost2010Prop52
140
1.0
102
RTVSPost2010PropOp52
 70
     0
102
RTVSPost2010Prop53
 90
        2
102
RTVSPost2010PropOp53
 70
     1
102
RTVSPost2010Prop54
  1
strokes_ogs.tif
102
RTVSPost2010PropOp54
 70
     1
102
RTVSPost2010Prop55
280
     0
102
RTVSPost2010PropOp55
 70
     1
102
RTVSPost2010Prop56
140
1.0
102
RTVSPost2010PropOp56
 70
     1
102
RTVSPost2010Prop57
140
1.0
102
RTVSPost2010PropOp57
 70
     1
102
RTVSPropertyOp0
 70
     1
102
RTVSPropertyOp1
 70
     1
102
RTVSPropertyOp2
 70
     1
102
RTVSPropertyOp3
 70
     1
102
RTVSPropertyOp4
 70
     1
102
RTVSPropertyOp5
 70
     1
102
RTVSPropertyOp6
 70
     1
102
RTVSPropertyOp7
 70
     1
102
RTVSPropertyOp8
 70
     1
102
RTVSPropertyOp9
 70
     1
102
RTVSPropertyOp10
 70
     1
102
RTVSPropertyOp11
 70
     1
102
RTVSPropertyOp12
 70
     1
102
RTVSPropertyOp13
 70
     1
102
RTVSPropertyOp14
 70
     1
102
RTVSPropertyOp15
 70
     1
102
RTVSPropertyOp16
 70
     1
102
RTVSPropertyOp17
 70
     1
102
RTVSPropertyOp18
 70
     1
102
RTVSPropertyOp19
 70
     1
102
RTVSPropertyOp20
 70
     1
102
RTVSPropertyOp21
 70
     1
102
RTVSPropertyOp22
 70
     1
102
RTVSPropertyOp23
 70
     1
102
RTVSPropertyOp24
 70
     1
102
RTVSPropertyOp25
 70
     1
102
RTVSPropertyOp26
 70
     1
102
RTVSPropertyOp27
 70
     1
102
RTVSPropertyOp28
 70
     1
102
RTVSPropertyOp29
 70
     1
102
RTVSPropertyOp30
 70
     1
102
RTVSPropertyOp31
 70
     1
102
RTVSPropertyOp32
 70
     1
102
RTVSPropertyOp33
 70
     1
102
RTVSPropertyOp34
 70
     1
102
RTVSPropertyOp35
 70
     1
102
RTVSPropertyOp36
 70
     1
102
RTVSPropertyOp37
 70
     1
102
RTVSPropertyOp38
 70
     1
102
RTVSPropertyOp39
 70
     1
102
RTVSPropertyOp40
 70
     1
102
RTVSPropertyOp41
 70
     1
102
RTVSPropertyOp42
 70
     1
102
RTVSPropertyOp43
 70
     1
102
RTVSPropertyOp44
 70
     1
102
RTVSPropertyOp45
 70
     1
102
RTVSPropertyOp46
 70
     1
102
RTVSPropertyOp47
 70
     1
102
RTVSPropertyOp48
 70
     1
102
RTVSPropertyOp49
 70
     1
102
RTVSPropertyOp50
 70
     1
102
RTVSPropertyOp51
 70
     0
102
RTVSPropertyOp52
 70
     0
102
RTVSPropertyOp53
 70
     1
102
RTVSPropertyOp54
 70
     1
102
RTVSPropertyOp55
 70
     1
102
RTVSPropertyOp56
 70
     1
102
RTVSPropertyOp57
 70
     1
102
RTVSPropertyOp58
 70
     1
102
RTVSPropertyOp59
 70
     1
102
RTVSPropertyOp60
 70
     1
102
RTVSPropertyOp61
 70
     1
102
RTVSPropertyOp62
 70
     1
  0
XRECORD
  5
9FE
102
{ACAD_REACTORS
330
9FD
102
}
330
9FD
100
AcDbXrecord
280
     1
102
RTVSPost2010Prop28
280
     0
102
RTVSPost2010PropOp28
 70
     1
102
RTVSPost2010Prop29
280
     1
102
RTVSPost2010PropOp29
 70
     1
102
RTVSPost2010Prop30
280
     1
102
RTVSPost2010PropOp30
 70
     1
102
RTVSPost2010Prop31
280
     0
102
RTVSPost2010PropOp31
 70
     1
102
RTVSPost2010Prop32
280
     0
102
RTVSPost2010PropOp32
 70
     1
102
RTVSPost2010Prop33
280
     0
102
RTVSPost2010PropOp33
 70
     1
102
RTVSPost2010Prop34
280
     0
102
RTVSPost2010PropOp34
 70
     1
102
RTVSPost2010Prop35
280
     0
102
RTVSPost2010PropOp35
 70
     1
102
RTVSPost2010Prop36
280
     0
102
RTVSPost2010PropOp36
 70
     1
102
RTVSPost2010Prop37
 90
       50
102
RTVSPost2010PropOp37
 70
     1
102
RTVSPost2010Prop38
140
0.0
102
RTVSPost2010PropOp38
 70
     1
102
RTVSPost2010Prop39
140
1.0
102
RTVSPost2010PropOp39
 70
     1
102
RTVSPost2010Prop40
 90
        0
102
RTVSPost2010PropOp40
 70
     1
102
RTVSPost2010Prop41ColorIndex
 90
       18
102
RTVSPost2010Prop41ColorRGB
 90
        0
102
RTVSPost2010PropOp41
 70
     1
102
RTVSPost2010Prop42
 90
       50
102
RTVSPost2010PropOp42
 70
     1
102
RTVSPost2010Prop43
 90
        3
102
RTVSPost2010PropOp43
 70
     1
102
RTVSPost2010Prop44ColorIndex
 90
        5
102
RTVSPost2010Prop44ColorRGB
 90
      255
102
RTVSPost2010PropOp44
 70
     1
102
RTVSPost2010Prop45
280
     0
102
RTVSPost2010PropOp45
 70
     1
102
RTVSPost2010Prop46
 90
       50
102
RTVSPost2010PropOp46
 70
     1
102
RTVSPost2010Prop47
 90
       50
102
RTVSPost2010PropOp47
 70
     1
102
RTVSPost2010Prop48
 90
       50
102
RTVSPost2010PropOp48
 70
     1
102
RTVSPost2010Prop49
280
     0
102
RTVSPost2010PropOp49
 70
     1
102
RTVSPost2010Prop50
 90
       50
102
RTVSPost2010PropOp50
 70
     1
102
RTVSPost2010Prop51ColorIndex
 90
      256
102
RTVSPost2010Prop51ColorRGB
 90
-16777216
102
RTVSPost2010PropOp51
 70
     0
102
RTVSPost2010Prop52
140
1.0
102
RTVSPost2010PropOp52
 70
     0
102
RTVSPost2010Prop53
 90
        2
102
RTVSPost2010PropOp53
 70
     1
102
RTVSPost2010Prop54
  1
strokes_ogs.tif
102
RTVSPost2010PropOp54
 70
     1
102
RTVSPost2010Prop55
280
     0
102
RTVSPost2010PropOp55
 70
     1
102
RTVSPost2010Prop56
140
1.0
102
RTVSPost2010PropOp56
 70
     1
102
RTVSPost2010Prop57
140
1.0
102
RTVSPost2010PropOp57
 70
     1
102
RTVSPropertyOp0
 70
     1
102
RTVSPropertyOp1
 70
     1
102
RTVSPropertyOp2
 70
     1
102
RTVSPropertyOp3
 70
     1
102
RTVSPropertyOp4
 70
     1
102
RTVSPropertyOp5
 70
     1
102
RTVSPropertyOp6
 70
     1
102
RTVSPropertyOp7
 70
     1
102
RTVSPropertyOp8
 70
     1
102
RTVSPropertyOp9
 70
     1
102
RTVSPropertyOp10
 70
     1
102
RTVSPropertyOp11
 70
     1
102
RTVSPropertyOp12
 70
     1
102
RTVSPropertyOp13
 70
     1
102
RTVSPropertyOp14
 70
     1
102
RTVSPropertyOp15
 70
     1
102
RTVSPropertyOp16
 70
     1
102
RTVSPropertyOp17
 70
     1
102
RTVSPropertyOp18
 70
     1
102
RTVSPropertyOp19
 70
     1
102
RTVSPropertyOp20
 70
     1
102
RTVSPropertyOp21
 70
     1
102
RTVSPropertyOp22
 70
     1
102
RTVSPropertyOp23
 70
     1
102
RTVSPropertyOp24
 70
     1
102
RTVSPropertyOp25
 70
     1
102
RTVSPropertyOp26
 70
     1
102
RTVSPropertyOp27
 70
     1
102
RTVSPropertyOp28
 70
     1
102
RTVSPropertyOp29
 70
     1
102
RTVSPropertyOp30
 70
     1
102
RTVSPropertyOp31
 70
     1
102
RTVSPropertyOp32
 70
     1
102
RTVSPropertyOp33
 70
     1
102
RTVSPropertyOp34
 70
     1
102
RTVSPropertyOp35
 70
     1
102
RTVSPropertyOp36
 70
     1
102
RTVSPropertyOp37
 70
     1
102
RTVSPropertyOp38
 70
     1
102
RTVSPropertyOp39
 70
     1
102
RTVSPropertyOp40
 70
     1
102
RTVSPropertyOp41
 70
     1
102
RTVSPropertyOp42
 70
     1
102
RTVSPropertyOp43
 70
     1
102
RTVSPropertyOp44
 70
     1
102
RTVSPropertyOp45
 70
     1
102
RTVSPropertyOp46
 70
     1
102
RTVSPropertyOp47
 70
     1
102
RTVSPropertyOp48
 70
     1
102
RTVSPropertyOp49
 70
     1
102
RTVSPropertyOp50
 70
     1
102
RTVSPropertyOp51
 70
     0
102
RTVSPropertyOp52
 70
     0
102
RTVSPropertyOp53
 70
     1
102
RTVSPropertyOp54
 70
     1
102
RTVSPropertyOp55
 70
     1
102
RTVSPropertyOp56
 70
     1
102
RTVSPropertyOp57
 70
     1
102
RTVSPropertyOp58
 70
     1
102
RTVSPropertyOp59
 70
     1
102
RTVSPropertyOp60
 70
     1
102
RTVSPropertyOp61
 70
     1
102
RTVSPropertyOp62
 70
     1
  0
ENDSEC
  0
EOF
