  0
SECTION
  2
HEADER
  9
$ACADVER
  1
AC1015
  9
$DWGCODEPAGE
  3
ANSI_932
  9
$LTSCALE
 40
20.0
  9
$FILLMODE
 70
     1
  9
$CLAYER
  8
0
  9
$PDMODE
 70
     0
  9
$SPLFRAME
 70
     0
  9
$SPLINETYPE
 70
     6
  9
$SPLINESEGS
 70
     8
  9
$DIMASZ
 40
2.000000
  9
$DIMEXE
 40
1.500000
  9
$DIMEXO
 40
0.800000
  9
$DIMTAD
 70
     1
  9
$DIMTIH
 70
     0
  9
$DIMTOH
 70
     0
  9
$DIMTVP
 40
0.500000
  9
$DIMTXT
 40
3.100000
  9
$EXTMIN
 10
0.000000
 20
0.000000
 30
0.000000
  9
$EXTMAX
 10
297.000000
 20
420.000000
 30
0.000000
  9
$MEASUREMENT
 70
  1
  9
$LIMMIN
 10
0.000000
 20
0.000000
  9
$LIMMAX
 10
297.000000
 20
420.000000
  9
$HANDSEED
  5
14A
  9
$LWDISPLAY
290
     0
  9
$DIMBLK
  1
_OPEN
  9
$DIMDEC
 70
     2
  9
$DIMADEC
 70
     2
  9
$DIMAUNIT
 70
     0
  9
$DIMZIN
 70
     8
  9
$DIMAZIN
 70
     2
  9
$DIMTOFL
 70
     1
  0
ENDSEC
  0
SECTION
  2
CLASSES
  0
ENDSEC
  0
SECTION
  2
TABLES
  0
TABLE
  2
VPORT
  5
114
100
AcDbSymbolTable
 70
     1
  0
VPORT
  5
115
100
AcDbSymbolTableRecord
100
AcDbViewportTableRecord
  2
*ACTIVE
 70
     0
 12
169.567585
 22
150.884783
 40
265.769564
 41
1.200797
  0
ENDTAB
  0
TABLE
  2
LTYPE
  5
116
100
AcDbSymbolTable
 70
     3
  0
LTYPE
  5
117
100
AcDbSymbolTableRecord
100
AcDbLinetypeTableRecord
  2
BYBLOCK
 70
     0
  3

 72
    65
 73
     0
 40
0.0
  0
LTYPE
  5
118
100
AcDbSymbolTableRecord
100
AcDbLinetypeTableRecord
  2
BYLAYER
 70
     0
  3

 72
    65
 73
     0
 40
0.0
  0
LTYPE
  5
119
100
AcDbSymbolTableRecord
100
AcDbLinetypeTableRecord
  2
CONTINUOUS
 70
     0
  3
Solid line (NEC CAE2D for Win R16.0 : 2021.03.16)
 72
    65
 73
     0
 40
0.0
  0
LTYPE
  5
11A
100
AcDbSymbolTableRecord
100
AcDbLinetypeTableRecord
  2
DASHED
 70
     0
  3
__ __ __ __ __ __ __ __ __ __ __ __ __ _
 72
    65
 73
     2
 40
0.75
 49
0.5
 74
     0
 49
-0.25
 74
     0
  0
LTYPE
  5
11B
100
AcDbSymbolTableRecord
100
AcDbLinetypeTableRecord
  2
CENTER
 70
     0
  3
____ _ ____ _ ____ _ ____ _ ____ _ ____
 72
    65
 73
     4
 40
2.0
 49
1.25
 74
     0
 49
-0.25
 74
     0
 49
0.25
 74
     0
 49
-0.25
 74
     0
  0
ENDTAB
  0
TABLE
  2
LAYER
  5
11C
100
AcDbSymbolTable
 70
    15
  0
LAYER
  5
11D
100
AcDbSymbolTableRecord
100
AcDbLayerTableRecord
  2
0
 70
     0
 62
     7
  6
CONTINUOUS
370
    -3
390

  0
LAYER
  5
11E
100
AcDbSymbolTableRecord
100
AcDbLayerTableRecord
  2
A0
 70
     0
 62
     9
  6
CONTINUOUS
370
    -3
390

  0
LAYER
  5
11F
100
AcDbSymbolTableRecord
100
AcDbLayerTableRecord
  2
A4
 70
     0
 62
     9
  6
CONTINUOUS
370
    -3
390

  0
LAYER
  5
120
100
AcDbSymbolTableRecord
100
AcDbLayerTableRecord
  2
A5
 70
     0
 62
     8
  6
CONTINUOUS
370
    -3
390

  0
LAYER
  5
121
100
AcDbSymbolTableRecord
100
AcDbLayerTableRecord
  2
A6
 70
     0
 62
    12
  6
CONTINUOUS
370
    -3
390

  0
LAYER
  5
122
100
AcDbSymbolTableRecord
100
AcDbLayerTableRecord
  2
A7
 70
     0
 62
    12
  6
CONTINUOUS
370
    -3
390

  0
LAYER
  5
123
100
AcDbSymbolTableRecord
100
AcDbLayerTableRecord
  2
A8
 70
     0
 62
    10
  6
CONTINUOUS
370
    -3
390

  0
LAYER
  5
124
100
AcDbSymbolTableRecord
100
AcDbLayerTableRecord
  2
A9
 70
     0
 62
     9
  6
CONTINUOUS
370
    -3
390

  0
LAYER
  5
125
100
AcDbSymbolTableRecord
100
AcDbLayerTableRecord
  2
A10
 70
     0
 62
     6
  6
CONTINUOUS
370
    -3
390

  0
LAYER
  5
126
100
AcDbSymbolTableRecord
100
AcDbLayerTableRecord
  2
A11
 70
     0
 62
    10
  6
CONTINUOUS
370
    -3
390

  0
LAYER
  5
127
100
AcDbSymbolTableRecord
100
AcDbLayerTableRecord
  2
A20
 70
     0
 62
     1
  6
CONTINUOUS
370
    -3
390

  0
LAYER
  5
128
100
AcDbSymbolTableRecord
100
AcDbLayerTableRecord
  2
A30
 70
     0
 62
     1
  6
CONTINUOUS
370
    -3
390

  0
LAYER
  5
129
100
AcDbSymbolTableRecord
100
AcDbLayerTableRecord
  2
A40
 70
     0
 62
     9
  6
CONTINUOUS
370
    -3
390

  0
LAYER
  5
12A
100
AcDbSymbolTableRecord
100
AcDbLayerTableRecord
  2
A50
 70
     0
 62
    12
  6
CONTINUOUS
370
    -3
390

  0
LAYER
  5
12B
100
AcDbSymbolTableRecord
100
AcDbLayerTableRecord
  2
A1023
 70
     0
 62
    16
  6
CONTINUOUS
370
    -3
390

  0
ENDTAB
  0
TABLE
  2
STYLE
  5
12C
100
AcDbSymbolTable
 70
     4
  0
STYLE
  5
12D
100
AcDbSymbolTableRecord
100
AcDbTextStyleTableRecord
  2
STANDARD
 70
    64
 40
0.0
 41
1.0
 50
0.0
 71
     0
 42
3.000000000000000
  3
TXT
  4

  0
STYLE
  5
12E
100
AcDbSymbolTableRecord
100
AcDbTextStyleTableRecord
  2
ANKTATE
 70
    68
 40
0.0
 41
1.0
 50
0.0
 71
     0
 42
3.000000000000000
  3
TXT
  4

  0
STYLE
  5
12F
100
AcDbSymbolTableRecord
100
AcDbTextStyleTableRecord
  2
KNJYOKO
 70
    64
 40
0.0
 41
1.0
 50
0.0
 71
     0
 42
3.000000000000000
  3
TXT
  4
BIGFONT
  0
STYLE
  5
130
100
AcDbSymbolTableRecord
100
AcDbTextStyleTableRecord
  2
KNJTATE
 70
    68
 40
0.0
 41
1.0
 50
0.0
 71
     0
 42
3.000000000000000
  3
TXT
  4
BIGFONT
  0
ENDTAB
  0
TABLE
  2
VIEW
  5
131
100
AcDbSymbolTable
 70
     0
  0
ENDTAB
  0
TABLE
  2
UCS
  5
132
100
AcDbSymbolTable
 70
     0
  0
ENDTAB
  0
TABLE
  2
APPID
  5
133
100
AcDbSymbolTable
 70
     1
  0
APPID
  5
134
100
AcDbSymbolTableRecord
100
AcDbRegAppTableRecord
  2
ACAD
 70
     0
  0
ENDTAB
  0
TABLE
  2
DIMSTYLE
  5
135
100
AcDbSymbolTable
 70
     2
100
AcDbDimStyleTable
  0
DIMSTYLE
105
136
100
AcDbSymbolTableRecord
100
AcDbDimStyleTableRecord
  2
STANDARD
 70
     0
 41
2.000000
 44
1.500000
 42
0.800000
145
0.661290
140
3.100000
144
1.000000
146
0.645161
340
12D
  0
DIMSTYLE
105
137
100
AcDbSymbolTableRecord
100
AcDbDimStyleTableRecord
  2
A001
 70
     0
 41
2.000000
 44
1.500000
 42
0.800000
145
0.661290
140
3.100000
144
1.000000
146
0.645161
 77
     1
 73
     0
 74
     0
271
     2
179
     2
275
     0
 78
     8
 79
     2
172
     1
340
12D
  0
ENDTAB
  0
TABLE
  2
BLOCK_RECORD
  5
138
100
AcDbSymbolTable
 70
    12
  0
BLOCK_RECORD
  5
139
100
AcDbSymbolTableRecord
100
AcDbBlockTableRecord
  2
*MODEL_SPACE
  0
BLOCK_RECORD
  5
13A
100
AcDbSymbolTableRecord
100
AcDbBlockTableRecord
  2
*PAPER_SPACE
  0
BLOCK_RECORD
  5
13B
100
AcDbSymbolTableRecord
100
AcDbBlockTableRecord
  2
*PAPER_SPACE0
  0
BLOCK_RECORD
  5
1
100
AcDbSymbolTableRecord
100
AcDbBlockTableRecord
  2
_NONE
  0
BLOCK_RECORD
  5
4
100
AcDbSymbolTableRecord
100
AcDbBlockTableRecord
  2
_CLOSED
  0
BLOCK_RECORD
  5
B
100
AcDbSymbolTableRecord
100
AcDbBlockTableRecord
  2
_DOT
  0
BLOCK_RECORD
  5
13
100
AcDbSymbolTableRecord
100
AcDbBlockTableRecord
  2
_OPEN
  0
BLOCK_RECORD
  5
19
100
AcDbSymbolTableRecord
100
AcDbBlockTableRecord
  2
_ORIGIN
  0
BLOCK_RECORD
  5
1E
100
AcDbSymbolTableRecord
100
AcDbBlockTableRecord
  2
_OPEN30
  0
BLOCK_RECORD
  5
24
100
AcDbSymbolTableRecord
100
AcDbBlockTableRecord
  2
_BOXFILLED
  0
BLOCK_RECORD
  5
29
100
AcDbSymbolTableRecord
100
AcDbBlockTableRecord
  2
_BOXBLANK
  0
BLOCK_RECORD
  5
31
100
AcDbSymbolTableRecord
100
AcDbBlockTableRecord
  2
_OBLIQUE
  0
BLOCK_RECORD
  5
35
100
AcDbSymbolTableRecord
100
AcDbBlockTableRecord
  2
_OPEN90
  0
BLOCK_RECORD
  5
3B
100
AcDbSymbolTableRecord
100
AcDbBlockTableRecord
  2
_CLOSEDBLANK
  0
BLOCK_RECORD
  5
41
100
AcDbSymbolTableRecord
100
AcDbBlockTableRecord
  2
_DOTBLANK
  0
ENDTAB
  0
ENDSEC
  0
SECTION
  2
BLOCKS
  0
BLOCK
  5
13C
100
AcDbEntity
  8
0
100
AcDbBlockBegin
  2
*MODEL_SPACE
 70
     0
 10
0.0
 20
0.0
 30
0.0
  3
*MODEL_SPACE
  1

  0
ENDBLK
  5
13D
100
AcDbEntity
  8
0
100
AcDbBlockEnd
  0
BLOCK
  5
13E
100
AcDbEntity
  8
0
100
AcDbBlockBegin
  2
*PAPER_SPACE
 70
     0
 10
0.0
 20
0.0
 30
0.0
  3
*PAPER_SPACE
  1

  0
ENDBLK
  5
13F
100
AcDbEntity
  8
0
100
AcDbBlockEnd
  0
BLOCK
  5
140
100
AcDbEntity
  8
0
100
AcDbBlockBegin
  2
*PAPER_SPACE0
 70
     0
 10
0.0
 20
0.0
 30
0.0
  3
*PAPER_SPACE0
  1

  0
ENDBLK
  5
141
100
AcDbEntity
  8
0
100
AcDbBlockEnd
  0
BLOCK
  5
2
330
1
100
AcDbEntity
  8
0
100
AcDbBlockBegin
  2
_NONE
 70
     0
 10
0.0
 20
0.0
 30
0.0
  3
_NONE
  1

  0
ENDBLK
  5
3
330
1
100
AcDbEntity
  8
0
100
AcDbBlockEnd
  0
BLOCK
  5
5
330
4
100
AcDbEntity
  8
0
100
AcDbBlockBegin
  2
_CLOSED
 70
     0
 10
0.0
 20
0.0
 30
0.0
  3
_CLOSED
  1

  0
LINE
  5
6
330
4
100
AcDbEntity
  8
0
  6
BYBLOCK
 62
     0
370
    -2
100
AcDbLine
 10
-1.0
 20
0.166667
 30
0.0
 11
0.0
 21
0.0
 31
0.0
  0
LINE
  5
7
330
4
100
AcDbEntity
  8
0
  6
BYBLOCK
 62
     0
370
    -2
100
AcDbLine
 10
0.0
 20
0.0
 30
0.0
 11
-1.0
 21
-0.166667
 31
0.0
  0
LINE
  5
8
330
4
100
AcDbEntity
  8
0
  6
BYBLOCK
 62
     0
370
    -2
100
AcDbLine
 10
-1.0
 20
0.166667
 30
0.0
 11
-1.0
 21
-0.166667
 31
0.0
  0
LINE
  5
9
330
4
100
AcDbEntity
  8
0
  6
BYBLOCK
 62
     0
370
    -2
100
AcDbLine
 10
0.0
 20
0.0
 30
0.0
 11
-1.0
 21
0.0
 31
0.0
  0
ENDBLK
  5
A
330
4
100
AcDbEntity
  8
0
100
AcDbBlockEnd
  0
BLOCK
  5
C
330
B
100
AcDbEntity
  8
0
100
AcDbBlockBegin
  2
_DOT
 70
     0
 10
0.0
 20
0.0
 30
0.0
  3
_DOT
  1

  0
POLYLINE
  5
D
330
B
100
AcDbEntity
  8
0
  6
BYBLOCK
 62
     0
370
    -2
100
AcDb2dPolyline
 66
     1
 10
0.0
 20
0.0
 30
0.0
 70
     1
 40
0.5
 41
0.5
  0
VERTEX
  5
E
330
B
100
AcDbEntity
  8
0
  6
BYBLOCK
 62
     0
370
    -2
100
AcDbVertex
100
AcDb2dVertex
 10
-0.25
 20
0.0
 30
0.0
 42
1.0
  0
VERTEX
  5
F
330
B
100
AcDbEntity
  8
0
  6
BYBLOCK
 62
     0
370
    -2
100
AcDbVertex
100
AcDb2dVertex
 10
0.25
 20
0.0
 30
0.0
 42
1.0
  0
SEQEND
  5
10
330
B
100
AcDbEntity
  8
0
  6
BYBLOCK
 62
     0
370
    -2
  0
LINE
  5
11
330
B
100
AcDbEntity
  8
0
  6
BYBLOCK
 62
     0
370
    -2
100
AcDbLine
 10
-0.5
 20
0.0
 30
0.0
 11
-1.0
 21
0.0
 31
0.0
  0
ENDBLK
  5
12
330
B
100
AcDbEntity
  8
0
100
AcDbBlockEnd
  0
BLOCK
  5
14
330
13
100
AcDbEntity
  8
0
100
AcDbBlockBegin
  2
_OPEN
 70
     0
 10
0.0
 20
0.0
 30
0.0
  3
_OPEN
  1

  0
LINE
  5
15
330
13
100
AcDbEntity
  8
0
  6
BYBLOCK
 62
     0
370
    -2
100
AcDbLine
 10
-1.0
 20
0.166667
 30
0.0
 11
0.0
 21
0.0
 31
0.0
  0
LINE
  5
16
330
13
100
AcDbEntity
  8
0
  6
BYBLOCK
 62
     0
370
    -2
100
AcDbLine
 10
0.0
 20
0.0
 30
0.0
 11
-1.0
 21
-0.166667
 31
0.0
  0
LINE
  5
17
330
13
100
AcDbEntity
  8
0
  6
BYBLOCK
 62
     0
370
    -2
100
AcDbLine
 10
0.0
 20
0.0
 30
0.0
 11
-1.0
 21
0.0
 31
0.0
  0
ENDBLK
  5
18
330
13
100
AcDbEntity
  8
0
100
AcDbBlockEnd
  0
BLOCK
  5
1A
330
19
100
AcDbEntity
  8
0
100
AcDbBlockBegin
  2
_ORIGIN
 70
     0
 10
0.0
 20
0.0
 30
0.0
  3
_ORIGIN
  1

  0
CIRCLE
  5
1B
330
19
100
AcDbEntity
  8
0
  6
BYBLOCK
 62
     0
370
    -2
100
AcDbCircle
 10
0.0
 20
0.0
 30
0.0
 40
0.5
  0
LINE
  5
1C
330
19
100
AcDbEntity
  8
0
  6
BYBLOCK
 62
     0
370
    -2
100
AcDbLine
 10
0.0
 20
0.0
 30
0.0
 11
-1.0
 21
0.0
 31
0.0
  0
ENDBLK
  5
1D
330
19
100
AcDbEntity
  8
0
100
AcDbBlockEnd
  0
BLOCK
  5
1F
330
1E
100
AcDbEntity
  8
0
100
AcDbBlockBegin
  2
_OPEN30
 70
     0
 10
0.0
 20
0.0
 30
0.0
  3
_OPEN30
  1

  0
LINE
  5
20
330
1E
100
AcDbEntity
  8
0
  6
BYBLOCK
 62
     0
370
    -2
100
AcDbLine
 10
-1.0
 20
0.267949
 30
0.0
 11
0.0
 21
0.0
 31
0.0
  0
LINE
  5
21
330
1E
100
AcDbEntity
  8
0
  6
BYBLOCK
 62
     0
370
    -2
100
AcDbLine
 10
0.0
 20
0.0
 30
0.0
 11
-1.0
 21
-0.267949
 31
0.0
  0
LINE
  5
22
330
1E
100
AcDbEntity
  8
0
  6
BYBLOCK
 62
     0
370
    -2
100
AcDbLine
 10
0.0
 20
0.0
 30
0.0
 11
-1.0
 21
0.0
 31
0.0
  0
ENDBLK
  5
23
330
1E
100
AcDbEntity
  8
0
100
AcDbBlockEnd
  0
BLOCK
  5
25
330
24
100
AcDbEntity
  8
0
100
AcDbBlockBegin
  2
_BOXFILLED
 70
     0
 10
0.0
 20
0.0
 30
0.0
  3
_BOXFILLED
  1

  0
SOLID
  5
26
330
24
100
AcDbEntity
  8
0
  6
BYBLOCK
 62
     0
370
    -2
100
AcDbTrace
 10
-0.5
 20
0.5
 30
0.0
 11
0.5
 21
0.5
 31
0.0
 12
-0.5
 22
-0.5
 32
0.0
 13
0.5
 23
-0.5
 33
0.0
  0
LINE
  5
27
330
24
100
AcDbEntity
  8
0
  6
BYBLOCK
 62
     0
370
    -2
100
AcDbLine
 10
-0.5
 20
0.0
 30
0.0
 11
-1.0
 21
0.0
 31
0.0
  0
ENDBLK
  5
28
330
24
100
AcDbEntity
  8
0
100
AcDbBlockEnd
  0
BLOCK
  5
2A
330
29
100
AcDbEntity
  8
0
100
AcDbBlockBegin
  2
_BOXBLANK
 70
     0
 10
0.0
 20
0.0
 30
0.0
  3
_BOXBLANK
  1

  0
LINE
  5
2B
330
29
100
AcDbEntity
  8
0
  6
BYBLOCK
 62
     0
370
    -2
100
AcDbLine
 10
-0.5
 20
-0.5
 30
0.0
 11
0.5
 21
-0.5
 31
0.0
  0
LINE
  5
2C
330
29
100
AcDbEntity
  8
0
  6
BYBLOCK
 62
     0
370
    -2
100
AcDbLine
 10
0.5
 20
-0.5
 30
0.0
 11
0.5
 21
0.5
 31
0.0
  0
LINE
  5
2D
330
29
100
AcDbEntity
  8
0
  6
BYBLOCK
 62
     0
370
    -2
100
AcDbLine
 10
0.5
 20
0.5
 30
0.0
 11
-0.5
 21
0.5
 31
0.0
  0
LINE
  5
2E
330
29
100
AcDbEntity
  8
0
  6
BYBLOCK
 62
     0
370
    -2
100
AcDbLine
 10
-0.5
 20
0.5
 30
0.0
 11
-0.5
 21
-0.5
 31
0.0
  0
LINE
  5
2F
330
29
100
AcDbEntity
  8
0
  6
BYBLOCK
 62
     0
370
    -2
100
AcDbLine
 10
-0.5
 20
0.0
 30
0.0
 11
-1.0
 21
0.0
 31
0.0
  0
ENDBLK
  5
30
330
29
100
AcDbEntity
  8
0
100
AcDbBlockEnd
  0
BLOCK
  5
32
330
31
100
AcDbEntity
  8
0
100
AcDbBlockBegin
  2
_OBLIQUE
 70
     0
 10
0.0
 20
0.0
 30
0.0
  3
_OBLIQUE
  1

  0
LINE
  5
33
330
31
100
AcDbEntity
  8
0
  6
BYBLOCK
 62
     0
370
    -2
100
AcDbLine
 10
-0.5
 20
-0.5
 30
0.0
 11
0.5
 21
0.5
 31
0.0
  0
ENDBLK
  5
34
330
31
100
AcDbEntity
  8
0
100
AcDbBlockEnd
  0
BLOCK
  5
36
330
35
100
AcDbEntity
  8
0
100
AcDbBlockBegin
  2
_OPEN90
 70
     0
 10
0.0
 20
0.0
 30
0.0
  3
_OPEN90
  1

  0
LINE
  5
37
330
35
100
AcDbEntity
  8
0
  6
BYBLOCK
 62
     0
370
    -2
100
AcDbLine
 10
-0.5
 20
0.5
 30
0.0
 11
0.0
 21
0.0
 31
0.0
  0
LINE
  5
38
330
35
100
AcDbEntity
  8
0
  6
BYBLOCK
 62
     0
370
    -2
100
AcDbLine
 10
0.0
 20
0.0
 30
0.0
 11
-0.5
 21
-0.5
 31
0.0
  0
LINE
  5
39
330
35
100
AcDbEntity
  8
0
  6
BYBLOCK
 62
     0
370
    -2
100
AcDbLine
 10
0.0
 20
0.0
 30
0.0
 11
-1.0
 21
0.0
 31
0.0
  0
ENDBLK
  5
3A
330
35
100
AcDbEntity
  8
0
100
AcDbBlockEnd
  0
BLOCK
  5
3C
330
3B
100
AcDbEntity
  8
0
100
AcDbBlockBegin
  2
_CLOSEDBLANK
 70
     0
 10
0.0
 20
0.0
 30
0.0
  3
_CLOSEDBLANK
  1

  0
LINE
  5
3D
330
3B
100
AcDbEntity
  8
0
  6
BYBLOCK
 62
     0
370
    -2
100
AcDbLine
 10
-1.0
 20
0.1666666666666666
 30
0.0
 11
0.0
 21
0.0
 31
0.0
  0
LINE
  5
3E
330
3B
100
AcDbEntity
  8
0
  6
BYBLOCK
 62
     0
370
    -2
100
AcDbLine
 10
0.0
 20
0.0
 30
0.0
 11
-1.0
 21
-0.1666666666666666
 31
0.0
  0
LINE
  5
3F
330
3B
100
AcDbEntity
  8
0
  6
BYBLOCK
 62
     0
370
    -2
100
AcDbLine
 10
-1.0
 20
0.1666666666666666
 30
0.0
 11
-1.0
 21
-0.1666666666666666
 31
0.0
  0
ENDBLK
  5
40
330
3B
100
AcDbEntity
  8
0
100
AcDbBlockEnd
  0
BLOCK
  5
42
330
41
100
AcDbEntity
  8
0
100
AcDbBlockBegin
  2
_DOTBLANK
 70
     0
 10
0.0
 20
0.0
 30
0.0
  3
_DOTBLANK
  1

  0
CIRCLE
  5
43
330
41
100
AcDbEntity
  8
0
  6
BYBLOCK
 62
     0
370
    -2
100
AcDbCircle
 10
0.0
 20
0.0
 30
0.0
 40
0.5
  0
LINE
  5
44
330
41
100
AcDbEntity
  8
0
  6
BYBLOCK
 62
     0
370
    -2
100
AcDbLine
 10
-0.5
 20
0.0
 30
0.0
 11
-1.0
 21
0.0
 31
0.0
  0
ENDBLK
  5
45
330
41
100
AcDbEntity
  8
0
100
AcDbBlockEnd
  0
ENDSEC
  0
SECTION
  2
ENTITIES
  0
MTEXT
  5
46
100
AcDbEntity
  8
A8
  6
CONTINUOUS
 62
7
100
AcDbMText
 10
9.999997526638502
 20
18.00000076076889
 30
0.000000000000000
 40
3.000000000000000
 41
0.000000000000000
 44
0.6739999771118164
 71
     7
 72
     1
  1
{\H0.94x;{TYPE No.TM-322-100}}
 11
1.000000000000000
 21
0.000000000000000
 31
0.000000000000000
  7
STANDARD
  0
POINT
  5
47
100
AcDbEntity
  8
A0
  6
CONTINUOUS
 62
5
100
AcDbPoint
 10
9.999997526638502
 20
18.00000076076889
 30
0.000000000000000
  0
POINT
  5
48
100
AcDbEntity
  8
A10
  6
CONTINUOUS
 62
5
100
AcDbPoint
 10
50.00000000000000
 20
50.00000000000000
 30
0.000000000000000
  0
SPLINE
  5
49
100
AcDbEntity
  8
A4
  6
CONTINUOUS
 62
7
100
AcDbSpline
210
0.000000000000000
220
0.000000000000000
230
1.000000000000000
 70
     8
 71
     3
 72
    21
 73
    17
 74
     0
 42
1.000000000000000e-07
 43
1.000000000000000e-07
 12
0.9048470135066964
 22
0.4257368696125923
 32
0.000000000000000
 13
0.5161622237348524
 23
0.8564908398745956
 33
0.000000000000000
 40
0.000000000000000
 40
0.000000000000000
 40
0.000000000000000
 40
0.000000000000000
 40
0.02881988468413210
 40
0.1204593985090973
 40
0.2264607469984947
 40
0.3650921319777689
 40
0.5347842223281811
 40
0.7575389295811851
 40
1.014826614477858
 40
1.300028539024618
 40
1.592546610432467
 40
1.902478603169895
 40
2.222990171555383
 40
2.649212639250890
 40
3.083255973538981
 40
3.518435408913553
 40
3.518435408913553
 40
3.518435408913553
 40
3.518435408913553
 10
50.07308008392191
 20
180.4248231825165
 30
0.000000000000000
 10
50.08177261278392
 20
180.4289130783459
 30
0.000000000000000
 10
50.11805652132743
 20
180.4461117090942
 30
0.000000000000000
 10
50.18573823852101
 20
180.4795495019634
 30
0.000000000000000
 10
50.28565941774910
 20
180.5303523949349
 30
0.000000000000000
 10
50.40733230396113
 20
180.5957263894501
 30
0.000000000000000
 10
50.56111001082898
 20
180.6834672296624
 30
0.000000000000000
 10
50.74561589127659
 20
180.7969842334300
 30
0.000000000000000
 10
50.95748010599725
 20
180.9391704459986
 30
0.000000000000000
 10
51.18161954100349
 20
181.1043797353157
 30
0.000000000000000
 10
51.41072394765449
 20
181.2918109863552
 30
0.000000000000000
 10
51.63914279741191
 20
181.4980941887016
 30
0.000000000000000
 10
51.88825348475255
 20
181.7473379947276
 30
0.000000000000000
 10
52.14795349969567
 20
182.0435708506640
 30
0.000000000000000
 10
52.40951238106679
 20
182.3875774781633
 30
0.000000000000000
 10
52.56797439392265
 20
182.6305033626484
 30
0.000000000000000
 10
52.64284878895153
 20
182.7547457626818
 30
0.000000000000000
  0
SPLINE
  5
4A
100
AcDbEntity
  8
A4
  6
CONTINUOUS
 62
7
100
AcDbSpline
210
0.000000000000000
220
0.000000000000000
230
1.000000000000000
 70
     8
 71
     3
 72
    19
 73
    15
 74
     0
 42
1.000000000000000e-07
 43
1.000000000000000e-07
 12
-0.5147339924022845
 22
0.8573499385113337
 32
0.000000000000000
 13
-0.9049551253165191
 23
0.4255070165927464
 33
0.000000000000000
 40
0.000000000000000
 40
0.000000000000000
 40
0.000000000000000
 40
0.000000000000000
 40
0.4813007892719093
 40
0.8879964687654862
 40
1.290203441036425
 40
1.679615961463709
 40
2.068805638789645
 40
2.427271049822309
 40
2.742011977557046
 40
3.008777225395997
 40
3.228882318688673
 40
3.388318054242118
 40
3.487124594305152
 40
3.518395587575402
 40
3.518395587575402
 40
3.518395587575402
 40
3.518395587575402
 10
52.64284878895153
 20
188.9359456798696
 30
0.000000000000000
 10
52.56026816334877
 20
189.0734934138989
 30
0.000000000000000
 10
52.39759985019701
 20
189.3212687992101
 30
0.000000000000000
 10
52.13488063251963
 20
189.6621455053065
 30
0.000000000000000
 10
51.87049104976653
 20
189.9619376462047
 30
0.000000000000000
 10
51.59157390153443
 20
190.2400619606028
 30
0.000000000000000
 10
51.30542616123664
 20
190.4890303251662
 30
0.000000000000000
 10
51.02463590513302
 20
190.7051559876161
 30
0.000000000000000
 10
50.76563799880277
 20
190.8817550147881
 30
0.000000000000000
 10
50.53783971093098
 20
191.0215714085678
 30
0.000000000000000
 10
50.34984564266158
 20
191.1269017694996
 30
0.000000000000000
 10
50.20814700976034
 20
191.2000474942625
 30
0.000000000000000
 10
50.12166013688328
 20
191.2428754507538
 30
0.000000000000000
 10
50.08247970526951
 20
191.2614487402379
 30
0.000000000000000
 10
50.07304675672496
 20
191.2658840825886
 30
0.000000000000000
  0
SPLINE
  5
4B
100
AcDbEntity
  8
A4
  6
CONTINUOUS
 62
7
100
AcDbSpline
210
0.000000000000000
220
0.000000000000000
230
1.000000000000000
 70
     8
 71
     3
 72
    21
 73
    17
 74
     0
 42
1.000000000000000e-07
 43
1.000000000000000e-07
 12
0.9048470135066964
 22
0.4257368696089543
 32
0.000000000000000
 13
0.5161622237344545
 23
0.8564908398745956
 33
0.000000000000000
 40
0.000000000000000
 40
0.000000000000000
 40
0.000000000000000
 40
0.000000000000000
 40
0.02881988468411580
 40
0.1204593985090780
 40
0.2264607469984752
 40
0.3650921319777529
 40
0.5347842223281508
 40
0.7575389295811624
 40
1.014826614477839
 40
1.300028539024586
 40
1.592546610432445
 40
1.902478603169867
 40
2.222990171555356
 40
2.649212639250873
 40
3.083255973538981
 40
3.518435408913540
 40
3.518435408913540
 40
3.518435408913540
 40
3.518435408913540
 10
50.07308008392191
 20
167.4248231825165
 30
0.000000000000000
 10
50.08177261278392
 20
167.4289130783458
 30
0.000000000000000
 10
50.11805652132743
 20
167.4461117090943
 30
0.000000000000000
 10
50.18573823852101
 20
167.4795495019633
 30
0.000000000000000
 10
50.28565941774910
 20
167.5303523949349
 30
0.000000000000000
 10
50.40733230396113
 20
167.5957263894501
 30
0.000000000000000
 10
50.56111001082898
 20
167.6834672296623
 30
0.000000000000000
 10
50.74561589127659
 20
167.7969842334300
 30
0.000000000000000
 10
50.95748010599725
 20
167.9391704459986
 30
0.000000000000000
 10
51.18161954100349
 20
168.1043797353156
 30
0.000000000000000
 10
51.41072394765449
 20
168.2918109863552
 30
0.000000000000000
 10
51.63914279741191
 20
168.4980941887015
 30
0.000000000000000
 10
51.88825348475255
 20
168.7473379947276
 30
0.000000000000000
 10
52.14795349969567
 20
169.0435708506640
 30
0.000000000000000
 10
52.40951238106679
 20
169.3875774781633
 30
0.000000000000000
 10
52.56797439392271
 20
169.6305033626484
 30
0.000000000000000
 10
52.64284878895153
 20
169.7547457626818
 30
0.000000000000000
  0
SPLINE
  5
4C
100
AcDbEntity
  8
A4
  6
CONTINUOUS
 62
7
100
AcDbSpline
210
0.000000000000000
220
0.000000000000000
230
1.000000000000000
 70
     8
 71
     3
 72
    19
 73
    15
 74
     0
 42
1.000000000000000e-07
 43
1.000000000000000e-07
 12
-0.5147339924022845
 22
0.8573499385117884
 32
0.000000000000000
 13
-0.9049551253156096
 23
0.4255070165927464
 33
0.000000000000000
 40
0.000000000000000
 40
0.000000000000000
 40
0.000000000000000
 40
0.000000000000000
 40
0.4813007892718718
 40
0.8879964687654530
 40
1.290203441036392
 40
1.679615961463691
 40
2.068805638789633
 40
2.427271049822288
 40
2.742011977557023
 40
3.008777225395962
 40
3.228882318688638
 40
3.388318054242089
 40
3.487124594305123
 40
3.518395587575379
 40
3.518395587575379
 40
3.518395587575379
 40
3.518395587575379
 10
52.64284878895153
 20
175.9359456798696
 30
0.000000000000000
 10
52.56026816334877
 20
176.0734934138989
 30
0.000000000000000
 10
52.39759985019701
 20
176.3212687992102
 30
0.000000000000000
 10
52.13488063251963
 20
176.6621455053065
 30
0.000000000000000
 10
51.87049104976658
 20
176.9619376462047
 30
0.000000000000000
 10
51.59157390153443
 20
177.2400619606028
 30
0.000000000000000
 10
51.30542616123664
 20
177.4890303251662
 30
0.000000000000000
 10
51.02463590513302
 20
177.7051559876161
 30
0.000000000000000
 10
50.76563799880277
 20
177.8817550147881
 30
0.000000000000000
 10
50.53783971093098
 20
178.0215714085678
 30
0.000000000000000
 10
50.34984564266158
 20
178.1269017694996
 30
0.000000000000000
 10
50.20814700976040
 20
178.2000474942626
 30
0.000000000000000
 10
50.12166013688328
 20
178.2428754507538
 30
0.000000000000000
 10
50.08247970526951
 20
178.2614487402379
 30
0.000000000000000
 10
50.07304675672496
 20
178.2658840825886
 30
0.000000000000000
  0
SPLINE
  5
4D
100
AcDbEntity
  8
A4
  6
CONTINUOUS
 62
7
100
AcDbSpline
210
0.000000000000000
220
0.000000000000000
230
1.000000000000000
 70
     8
 71
     3
 72
    21
 73
    17
 74
     0
 42
1.000000000000000e-07
 43
1.000000000000000e-07
 12
0.9048470135066964
 22
0.4257368696125923
 32
0.000000000000000
 13
0.5161622237344545
 23
0.8564908398748230
 33
0.000000000000000
 40
0.000000000000000
 40
0.000000000000000
 40
0.000000000000000
 40
0.000000000000000
 40
0.02881988468415060
 40
0.1204593985091099
 40
0.2264607469985009
 40
0.3650921319777688
 40
0.5347842223281801
 40
0.7575389295811781
 40
1.014826614477859
 40
1.300028539024617
 40
1.592546610432460
 40
1.902478603169878
 40
2.222990171555372
 40
2.649212639250889
 40
3.083255973538985
 40
3.518435408913552
 40
3.518435408913552
 40
3.518435408913552
 40
3.518435408913552
 10
50.07308008392191
 20
193.4248231825165
 30
0.000000000000000
 10
50.08177261278392
 20
193.4289130783459
 30
0.000000000000000
 10
50.11805652132743
 20
193.4461117090943
 30
0.000000000000000
 10
50.18573823852101
 20
193.4795495019634
 30
0.000000000000000
 10
50.28565941774910
 20
193.5303523949349
 30
0.000000000000000
 10
50.40733230396113
 20
193.5957263894501
 30
0.000000000000000
 10
50.56111001082898
 20
193.6834672296623
 30
0.000000000000000
 10
50.74561589127653
 20
193.7969842334300
 30
0.000000000000000
 10
50.95748010599719
 20
193.9391704459986
 30
0.000000000000000
 10
51.18161954100349
 20
194.1043797353156
 30
0.000000000000000
 10
51.41072394765449
 20
194.2918109863552
 30
0.000000000000000
 10
51.63914279741191
 20
194.4980941887016
 30
0.000000000000000
 10
51.88825348475255
 20
194.7473379947275
 30
0.000000000000000
 10
52.14795349969567
 20
195.0435708506640
 30
0.000000000000000
 10
52.40951238106673
 20
195.3875774781633
 30
0.000000000000000
 10
52.56797439392265
 20
195.6305033626484
 30
0.000000000000000
 10
52.64284878895147
 20
195.7547457626818
 30
0.000000000000000
  0
SPLINE
  5
4E
100
AcDbEntity
  8
A4
  6
CONTINUOUS
 62
7
100
AcDbSpline
210
0.000000000000000
220
0.000000000000000
230
1.000000000000000
 70
     8
 71
     3
 72
    19
 73
    15
 74
     0
 42
1.000000000000000e-07
 43
1.000000000000000e-07
 12
-0.5147339924022276
 22
0.8573499385113337
 32
0.000000000000000
 13
-0.9049551253119716
 23
0.4255070165927464
 33
0.000000000000000
 40
0.000000000000000
 40
0.000000000000000
 40
0.000000000000000
 40
0.000000000000000
 40
0.4813007892718935
 40
0.8879964687654703
 40
1.290203441036409
 40
1.679615961463708
 40
2.068805638789644
 40
2.427271049822299
 40
2.742011977557042
 40
3.008777225395987
 40
3.228882318688657
 40
3.388318054242108
 40
3.487124594305142
 40
3.518395587575348
 40
3.518395587575348
 40
3.518395587575348
 40
3.518395587575348
 10
52.64284878895147
 20
201.9359456798696
 30
0.000000000000000
 10
52.56026816334871
 20
202.0734934138989
 30
0.000000000000000
 10
52.39759985019701
 20
202.3212687992102
 30
0.000000000000000
 10
52.13488063251963
 20
202.6621455053065
 30
0.000000000000000
 10
51.87049104976653
 20
202.9619376462047
 30
0.000000000000000
 10
51.59157390153443
 20
203.2400619606028
 30
0.000000000000000
 10
51.30542616123664
 20
203.4890303251662
 30
0.000000000000000
 10
51.02463590513302
 20
203.7051559876160
 30
0.000000000000000
 10
50.76563799880272
 20
203.8817550147881
 30
0.000000000000000
 10
50.53783971093098
 20
204.0215714085678
 30
0.000000000000000
 10
50.34984564266158
 20
204.1269017694996
 30
0.000000000000000
 10
50.20814700976034
 20
204.2000474942626
 30
0.000000000000000
 10
50.12166013688328
 20
204.2428754507538
 30
0.000000000000000
 10
50.08247970526951
 20
204.2614487402379
 30
0.000000000000000
 10
50.07304675672502
 20
204.2658840825886
 30
0.000000000000000
  0
ARC
  5
4F
100
AcDbEntity
  8
A4
  6
CONTINUOUS
 62
7
100
AcDbCircle
 10
74.00000000003000
 20
115.8452210365489
 30
0.000000000000000
 40
2.000000000000000
100
AcDbArc
 50
270.0000000000000
 51
360.0000000000000
  0
ARC
  5
50
100
AcDbEntity
  8
A4
  6
CONTINUOUS
 62
7
100
AcDbCircle
 10
47.49959063603909
 20
185.8453457212757
 30
0.000000000000000
 40
6.000409363665156
100
AcDbArc
 50
328.9982101426013
 51
391.0017898573988
  0
CIRCLE
  5
51
100
AcDbEntity
  8
A4
  6
CONTINUOUS
 62
7
100
AcDbCircle
 10
99.49999999993007
 20
208.3452210365557
 30
0.000000000000000
 40
2.500000000000000
  0
ARC
  5
52
100
AcDbEntity
  8
A4
  6
CONTINUOUS
 62
7
100
AcDbCircle
 10
50.50000000000999
 20
179.5205315020684
 30
0.000000000000000
 40
1.000000000000000
100
AcDbArc
 50
115.3790525832348
 51
179.9999999999996
  0
ARC
  5
53
100
AcDbEntity
  8
A4
  6
CONTINUOUS
 62
7
100
AcDbCircle
 10
50.50000000000999
 20
192.1701599404830
 30
0.000000000000000
 40
1.000000000000000
100
AcDbArc
 50
180.0000000000004
 51
244.6209474167650
  0
ARC
  5
54
100
AcDbEntity
  8
A4
  6
CONTINUOUS
 62
7
100
AcDbCircle
 10
50.50000000000999
 20
166.5205315020684
 30
0.000000000000000
 40
1.000000000000000
100
AcDbArc
 50
115.3790525832346
 51
180.0000000000000
  0
ARC
  5
55
100
AcDbEntity
  8
A4
  6
CONTINUOUS
 62
7
100
AcDbCircle
 10
47.49959063603909
 20
172.8453457212757
 30
0.000000000000000
 40
6.000409363665156
100
AcDbArc
 50
328.9982101426011
 51
391.0017898573992
  0
ARC
  5
56
100
AcDbEntity
  8
A4
  6
CONTINUOUS
 62
7
100
AcDbCircle
 10
50.50000000000999
 20
179.1701599404830
 30
0.000000000000000
 40
1.000000000000000
100
AcDbArc
 50
180.0000000000000
 51
244.6209474167652
  0
ARC
  5
57
100
AcDbEntity
  8
A4
  6
CONTINUOUS
 62
7
100
AcDbCircle
 10
51.50000000001005
 20
115.8452210365489
 30
0.000000000000000
 40
2.000000000000000
100
AcDbArc
 50
180.0000000000000
 51
270.0000000000000
  0
ARC
  5
58
100
AcDbEntity
  8
A4
  6
CONTINUOUS
 62
7
100
AcDbCircle
 10
53.50000000000999
 20
209.8452210365510
 30
0.000000000000000
 40
4.000000000000000
100
AcDbArc
 50
90.00000000000000
 51
180.0000000000000
  0
ARC
  5
59
100
AcDbEntity
  8
A4
  6
CONTINUOUS
 62
7
100
AcDbCircle
 10
50.50000000000999
 20
192.5205315020684
 30
0.000000000000000
 40
1.000000000000000
100
AcDbArc
 50
115.3790525832346
 51
180.0000000000002
  0
ARC
  5
5A
100
AcDbEntity
  8
A4
  6
CONTINUOUS
 62
7
100
AcDbCircle
 10
47.49959063603909
 20
198.8453457212757
 30
0.000000000000000
 40
6.000409363665156
100
AcDbArc
 50
328.9982101426011
 51
391.0017898573988
  0
ARC
  5
5B
100
AcDbEntity
  8
A4
  6
CONTINUOUS
 62
7
100
AcDbCircle
 10
50.50000000000999
 20
205.1701599404830
 30
0.000000000000000
 40
1.000000000000000
100
AcDbArc
 50
179.9999999999998
 51
244.6209474167650
  0
LINE
  5
5C
100
AcDbEntity
  8
A4
  6
CONTINUOUS
 62
7
100
AcDbLine
 10
118.9999999998458
 20
187.3452210365496
 30
0.000000000000000
 11
80.00000000002989
 21
187.3452210365496
 31
0.000000000000000
  0
LINE
  5
5D
100
AcDbEntity
  8
A4
  6
CONTINUOUS
 62
7
100
AcDbLine
 10
76.00000000002994
 20
183.3452210365496
 30
0.000000000000000
 11
76.00000000003004
 21
115.8452210365489
 31
0.000000000000000
  0
LINE
  5
5E
100
AcDbEntity
  8
A4
  6
CONTINUOUS
 62
7
100
AcDbLine
 10
53.50000000000999
 20
213.8452210365510
 30
0.000000000000000
 11
145.4999999999088
 21
213.8452210365510
 31
0.000000000000000
  0
ARC
  5
5F
100
AcDbEntity
  8
A5
  6
CONTINUOUS
 62
7
100
AcDbCircle
 10
197.1986020568693
 20
114.3452210365489
 30
0.000000000000000
 40
0.5000000000000000
100
AcDbArc
 50
269.9999999999937
 51
360.0000000000000
  0
ARC
  5
60
100
AcDbEntity
  8
A5
  6
CONTINUOUS
 62
7
100
AcDbCircle
 10
197.1986020568693
 20
213.3452210365510
 30
0.000000000000000
 40
0.5000000000000000
100
AcDbArc
 50
0.000000000000000
 51
90.00000000000632
  0
LINE
  5
61
100
AcDbEntity
  8
A5
  6
CONTINUOUS
 62
7
100
AcDbLine
 10
196.6986020568693
 20
213.8452210365510
 30
0.000000000000000
 11
197.1986020568692
 21
213.8452210365510
 31
0.000000000000000
  0
LINE
  5
62
100
AcDbEntity
  8
A5
  6
CONTINUOUS
 62
7
100
AcDbLine
 10
197.1986020568692
 20
113.8452210365489
 30
0.000000000000000
 11
196.6986020568693
 21
113.8452210365489
 31
0.000000000000000
  0
ARC
  5
63
100
AcDbEntity
  8
A5
  6
CONTINUOUS
 62
7
100
AcDbCircle
 10
196.1986020568693
 20
114.3452210365489
 30
0.000000000000000
 40
0.5000000000000000
100
AcDbArc
 50
270.0000000000063
 51
360.0000000000000
  0
ARC
  5
64
100
AcDbEntity
  8
A5
  6
CONTINUOUS
 62
7
100
AcDbCircle
 10
196.1986020568693
 20
213.3452210365510
 30
0.000000000000000
 40
0.5000000000000000
100
AcDbArc
 50
0.000000000000000
 51
89.99999999999369
  0
ARC
  5
65
100
AcDbEntity
  8
A5
  6
CONTINUOUS
 62
7
100
AcDbCircle
 10
182.1986020568694
 20
115.8452210365489
 30
0.000000000000000
 40
2.000000000000000
100
AcDbArc
 50
180.0000000000000
 51
269.9999999999999
  0
ARC
  5
66
100
AcDbEntity
  8
A5
  6
CONTINUOUS
 62
7
100
AcDbCircle
 10
184.1986020568694
 20
209.8452210365510
 30
0.000000000000000
 40
4.000000000000000
100
AcDbArc
 50
90.00000000000000
 51
180.0000000000000
  0
LINE
  5
67
100
AcDbEntity
  8
A5
  6
CONTINUOUS
 62
7
100
AcDbLine
 10
184.1986020568694
 20
213.8452210365510
 30
0.000000000000000
 11
196.1986020568693
 21
213.8452210365510
 31
0.000000000000000
  0
ARC
  5
68
100
AcDbEntity
  8
A6
  6
CONTINUOUS
 62
7
100
AcDbCircle
 10
75.50000000006851
 20
263.9297641389539
 30
0.000000000000000
 40
0.5000000000000000
100
AcDbArc
 50
359.9999999999937
 51
450.0000000000000
  0
ARC
  5
69
100
AcDbEntity
  8
A6
  6
CONTINUOUS
 62
7
100
AcDbCircle
 10
50.00000000000598
 20
263.9297641389539
 30
0.000000000000000
 40
0.5000000000000000
100
AcDbArc
 50
90.00000000000000
 51
180.0000000000064
  0
LINE
  5
6A
100
AcDbEntity
  8
A6
  6
CONTINUOUS
 62
7
100
AcDbLine
 10
49.50000000000598
 20
263.4297641389539
 30
0.000000000000000
 11
49.50000000000598
 21
263.9297641389538
 31
0.000000000000000
  0
LINE
  5
6B
100
AcDbEntity
  8
A6
  6
CONTINUOUS
 62
7
100
AcDbLine
 10
76.00000000006851
 20
263.9297641389538
 30
0.000000000000000
 11
76.00000000006851
 21
263.4297641389539
 31
0.000000000000000
  0
ARC
  5
6C
100
AcDbEntity
  8
A6
  6
CONTINUOUS
 62
7
100
AcDbCircle
 10
123.4999999998416
 20
263.9297641389538
 30
0.000000000000000
 40
0.5000000000000000
100
AcDbArc
 50
90.00000000000000
 51
180.0000000000000
  0
ARC
  5
6D
100
AcDbEntity
  8
A6
  6
CONTINUOUS
 62
7
100
AcDbCircle
 10
148.9999999999048
 20
258.9297641389539
 30
0.000000000000000
 40
0.5000000000000000
100
AcDbArc
 50
359.9999999999937
 51
450.0000000000000
  0
LINE
  5
6E
100
AcDbEntity
  8
A6
  6
CONTINUOUS
 62
7
100
AcDbLine
 10
122.9999999998416
 20
263.4297641389539
 30
0.000000000000000
 11
122.9999999998416
 21
263.9297641389538
 31
0.000000000000000
  0
LINE
  5
6F
100
AcDbEntity
  8
A6
  6
CONTINUOUS
 62
7
100
AcDbLine
 10
149.4999999999048
 20
258.9297641389538
 30
0.000000000000000
 11
149.4999999999048
 21
258.4297641389539
 31
0.000000000000000
  0
SPLINE
  5
70
100
AcDbEntity
  8
A6
  6
CONTINUOUS
 62
7
100
AcDbSpline
210
0.000000000000000
220
0.000000000000000
230
1.000000000000000
 70
     8
 71
     3
 72
    33
 73
    29
 74
     0
 42
1.000000000000000e-07
 43
1.000000000000000e-07
 12
0.9979365623148624
 22
0.06420761327899527
 32
0.000000000000000
 13
0.9970844341892189
 23
-0.07630616682126856
 33
0.000000000000000
 40
0.000000000000000
 40
0.000000000000000
 40
0.000000000000000
 40
0.000000000000000
 40
0.01975591330970430
 40
0.2026023746789732
 40
0.4016960291161730
 40
0.6023165483946247
 40
0.8028114432391186
 40
0.9915050444865230
 40
1.197947112188119
 40
1.409858729681122
 40
1.624935644451690
 40
1.840699647144465
 40
2.054781936257433
 40
2.265146318563626
 40
2.470232189914499
 40
2.670207245369384
 40
2.869560835936752
 40
3.073555372489205
 40
3.281257505278937
 40
3.490936261783014
 40
3.700436278195252
 40
3.907288656100482
 40
4.108914626583696
 40
4.304137895647366
 40
4.501539222964418
 40
4.686908677891270
 40
4.871728248095281
 40
4.979181060567914
 40
4.979181060567914
 40
4.979181060567914
 40
4.979181060567914
 10
97.02609951477835
 20
246.9355222413558
 30
0.000000000000000
 10
97.03267123084957
 20
246.9359450680365
 30
0.000000000000000
 10
97.10005234501300
 20
246.9404984075442
 30
0.000000000000000
 10
97.23324813454268
 20
246.9551420775539
 30
0.000000000000000
 10
97.42508735322194
 20
246.9854456593037
 30
0.000000000000000
 10
97.62180798542452
 20
247.0219782264846
 30
0.000000000000000
 10
97.81458663931987
 20
247.0605673704393
 30
0.000000000000000
 10
98.00942857661583
 20
247.0987339838745
 30
0.000000000000000
 10
98.20838682895105
 20
247.1356520044149
 30
0.000000000000000
 10
98.41655206126687
 20
247.1710536331192
 30
0.000000000000000
 10
98.62845512775554
 20
247.2028011734141
 30
0.000000000000000
 10
98.84178890926158
 20
247.2295088810681
 30
0.000000000000000
 10
99.05424137652146
 20
247.2499875770209
 30
0.000000000000000
 10
99.26370469954547
 20
247.2632866731797
 30
0.000000000000000
 10
99.46882731284016
 20
247.2687921807652
 30
0.000000000000000
 10
99.67033137575326
 20
247.2658181828990
 30
0.000000000000000
 10
99.87120747165874
 20
247.2553826536857
 30
0.000000000000000
 10
100.0741979111304
 20
247.2382116020394
 30
0.000000000000000
 10
100.2800207776137
 20
247.2147975735390
 30
0.000000000000000
 10
100.4870018204506
 20
247.1859700735490
 30
0.000000000000000
 10
100.6930409392657
 20
247.1528129067185
 30
0.000000000000000
 10
100.8958325833946
 20
247.1165988959763
 30
0.000000000000000
 10
101.0934948804348
 20
247.0788314310710
 30
0.000000000000000
 10
101.2877148609862
 20
247.0399040128571
 30
0.000000000000000
 10
101.4768657324317
 20
247.0032376218692
 30
0.000000000000000
 10
101.6632822283368
 20
246.9708618550100
 30
0.000000000000000
 10
101.8210070495580
 20
246.9486433949949
 30
0.000000000000000
 10
101.9180514369813
 20
246.9397911205708
 30
0.000000000000000
 10
101.9537646125568
 20
246.9370580164928
 30
0.000000000000000
  0
ARC
  5
71
100
AcDbEntity
  8
A6
  6
CONTINUOUS
 62
7
100
AcDbCircle
 10
50.00000000000598
 20
262.9297641389539
 30
0.000000000000000
 40
0.5000000000000000
100
AcDbArc
 50
90.00000000000000
 51
179.9999999999937
  0
ARC
  5
72
100
AcDbEntity
  8
A6
  6
CONTINUOUS
 62
7
100
AcDbCircle
 10
145.4999999999048
 20
250.9297641389541
 30
0.000000000000000
 40
4.000000000000000
100
AcDbArc
 50
270.0000000000000
 51
360.0000000000007
  0
ARC
  5
73
100
AcDbEntity
  8
A6
  6
CONTINUOUS
 62
7
100
AcDbCircle
 10
53.50000000000598
 20
250.9297641389541
 30
0.000000000000000
 40
4.000000000000000
100
AcDbArc
 50
180.0000000000000
 51
270.0000000000001
  0
ARC
  5
74
100
AcDbEntity
  8
A6
  6
CONTINUOUS
 62
7
100
AcDbCircle
 10
148.9999999999048
 20
262.9297641389539
 30
0.000000000000000
 40
0.5000000000000000
100
AcDbArc
 50
6.310200000000000e-12
 51
90.00000000000000
  0
ARC
  5
75
100
AcDbEntity
  8
A6
  6
CONTINUOUS
 62
7
100
AcDbCircle
 10
97.93945122130150
 20
256.4297641389539
 30
0.000000000000000
 40
1.000000000000000
100
AcDbArc
 50
183.5763343749974
 51
270.0000000000000
  0
ARC
  5
76
100
AcDbEntity
  8
A6
  6
CONTINUOUS
 62
7
100
AcDbCircle
 10
101.0605487785664
 20
256.4297641389539
 30
0.000000000000000
 40
1.000000000000000
100
AcDbArc
 50
270.0000000000000
 51
356.4236656250027
  0
ARC
  5
77
100
AcDbEntity
  8
A6
  6
CONTINUOUS
 62
7
100
AcDbCircle
 10
103.4394512213015
 20
262.4297641389539
 30
0.000000000000000
 40
1.000000000000000
100
AcDbArc
 50
90.00000000000000
 51
176.4236656250026
  0
ARC
  5
78
100
AcDbEntity
  8
A6
  6
CONTINUOUS
 62
7
100
AcDbCircle
 10
95.56054877856637
 20
262.4297641389539
 30
0.000000000000000
 40
1.000000000000000
100
AcDbArc
 50
3.576334374997360
 51
90.00000000000000
  0
LINE
  5
79
100
AcDbEntity
  8
A6
  6
CONTINUOUS
 62
7
100
AcDbLine
 10
149.4999999999048
 20
262.9297641389539
 30
0.000000000000000
 11
149.4999999999048
 21
250.9297641389541
 31
0.000000000000000
  0
LINE
  5
7A
100
AcDbEntity
  8
A6
  6
CONTINUOUS
 62
7
100
AcDbLine
 10
49.50000000000598
 20
250.9297641389541
 30
0.000000000000000
 11
49.50000000000598
 21
262.9297641389539
 31
0.000000000000000
  0
LINE
  5
7B
100
AcDbEntity
  8
A6
  6
CONTINUOUS
 62
7
100
AcDbLine
 10
97.93945122130150
 20
255.4297641389539
 30
0.000000000000000
 11
101.0605487785664
 21
255.4297641389539
 31
0.000000000000000
  0
LINE
  5
7C
100
AcDbEntity
  8
A6
  6
CONTINUOUS
 62
7
100
AcDbLine
 10
102.0586013570493
 20
256.3673858527989
 30
0.000000000000000
 11
102.4413986428187
 21
262.4921424251092
 31
0.000000000000000
  0
LINE
  5
7D
100
AcDbEntity
  8
A6
  6
CONTINUOUS
 62
7
100
AcDbLine
 10
96.55860135704924
 20
262.4921424251091
 30
0.000000000000000
 11
96.94139864281864
 21
256.3673858527987
 31
0.000000000000000
  0
ARC
  5
7E
100
AcDbEntity
  8
A7
  6
CONTINUOUS
 62
7
100
AcDbCircle
 10
307.6351718111588
 20
208.8452210365509
 30
0.000000000000000
 40
5.000000000000000
100
AcDbArc
 50
89.99999999999994
 51
179.9999999999995
  0
ARC
  5
7F
100
AcDbEntity
  8
A7
  6
CONTINUOUS
 62
7
100
AcDbCircle
 10
324.1351718112213
 20
118.8452210365488
 30
0.000000000000000
 40
5.000000000000000
100
AcDbArc
 50
270.0000000000000
 51
360.0000000000000
  0
ARC
  5
80
100
AcDbEntity
  8
A7
  6
CONTINUOUS
 62
7
100
AcDbCircle
 10
307.6351718111582
 20
118.8452210365488
 30
0.000000000000000
 40
5.000000000000000
100
AcDbArc
 50
179.9999999999995
 51
270.0000000000000
  0
ARC
  5
81
100
AcDbEntity
  8
A7
  6
CONTINUOUS
 62
7
100
AcDbCircle
 10
324.1351718112213
 20
208.8452210365509
 30
0.000000000000000
 40
5.000000000000000
100
AcDbArc
 50
0.000000000000000
 51
90.00000000000000
  0
ARC
  5
82
100
AcDbEntity
  8
A7
  6
CONTINUOUS
 62
7
100
AcDbCircle
 10
250.6351718113858
 20
208.8452210365510
 30
0.000000000000000
 40
5.000000000000000
100
AcDbArc
 50
359.9999999999997
 51
450.0000000000000
  0
ARC
  5
83
100
AcDbEntity
  8
A7
  6
CONTINUOUS
 62
7
100
AcDbCircle
 10
250.6351718113850
 20
118.8452210365489
 30
0.000000000000000
 40
5.000000000000000
100
AcDbArc
 50
270.0000000000000
 51
359.9999999999997
  0
ARC
  5
84
100
AcDbEntity
  8
A7
  6
CONTINUOUS
 62
7
100
AcDbCircle
 10
234.1351718113226
 20
118.8452210365489
 30
0.000000000000000
 40
5.000000000000000
100
AcDbArc
 50
180.0000000000000
 51
270.0000000000000
  0
ARC
  5
85
100
AcDbEntity
  8
A7
  6
CONTINUOUS
 62
7
100
AcDbCircle
 10
234.1351718113226
 20
208.8452210365510
 30
0.000000000000000
 40
5.000000000000000
100
AcDbArc
 50
90.00000000000000
 51
180.0000000000000
  0
ARC
  5
86
100
AcDbEntity
  8
A7
  6
CONTINUOUS
 62
7
100
AcDbCircle
 10
259.6351718113856
 20
183.3452210365496
 30
0.000000000000000
 40
6.500000000000001
100
AcDbArc
 50
90.00000000000006
 51
127.9798724448515
  0
ARC
  5
87
100
AcDbEntity
  8
A7
  6
CONTINUOUS
 62
7
100
AcDbCircle
 10
298.6351718112014
 20
183.3452210365496
 30
0.000000000000000
 40
6.500000000000001
100
AcDbArc
 50
52.02012755563067
 51
90.00000000000006
  0
ARC
  5
88
100
AcDbEntity
  8
A7
  6
CONTINUOUS
 62
7
100
AcDbCircle
 10
233.1351718113226
 20
209.8452210365510
 30
0.000000000000000
 40
4.000000000000000
100
AcDbArc
 50
90.00000000000000
 51
180.0000000000000
  0
ARC
  5
89
100
AcDbEntity
  8
A7
  6
CONTINUOUS
 62
7
100
AcDbCircle
 10
325.1351718112213
 20
209.8452210365510
 30
0.000000000000000
 40
4.000000000000000
100
AcDbArc
 50
359.9999999999999
 51
450.0000000000000
  0
ARC
  5
8A
100
AcDbEntity
  8
A7
  6
CONTINUOUS
 62
7
100
AcDbCircle
 10
327.1351718112212
 20
115.8452210365489
 30
0.000000000000000
 40
2.000000000000000
100
AcDbArc
 50
270.0000000000000
 51
360.0000000000000
  0
ARC
  5
8B
100
AcDbEntity
  8
A7
  6
CONTINUOUS
 62
7
100
AcDbCircle
 10
298.6351718112014
 20
183.3452210365496
 30
0.000000000000000
 40
4.000000000000000
100
AcDbArc
 50
46.84703937771332
 51
90.00000000000006
  0
ARC
  5
8C
100
AcDbEntity
  8
A7
  6
CONTINUOUS
 62
7
100
AcDbCircle
 10
259.6351718113856
 20
183.3452210365496
 30
0.000000000000000
 40
4.000000000000000
100
AcDbArc
 50
136.8470394631752
 51
179.9999999999996
  0
ARC
  5
8D
100
AcDbEntity
  8
A7
  6
CONTINUOUS
 62
7
100
AcDbCircle
 10
298.6351718112014
 20
183.3452210365496
 30
0.000000000000000
 40
4.000000000000000
100
AcDbArc
 50
359.9999999999998
 51
403.1529606143682
  0
ARC
  5
8E
100
AcDbEntity
  8
A7
  6
CONTINUOUS
 62
7
100
AcDbCircle
 10
259.6351718113856
 20
183.3452210365496
 30
0.000000000000000
 40
4.000000000000000
100
AcDbArc
 50
90.00000000000006
 51
133.1529605370661
  0
ARC
  5
8F
100
AcDbEntity
  8
A7
  6
CONTINUOUS
 62
7
100
AcDbCircle
 10
231.1351718113226
 20
115.8452210365489
 30
0.000000000000000
 40
2.000000000000000
100
AcDbArc
 50
180.0000000000000
 51
270.0000000000000
  0
ARC
  5
90
100
AcDbEntity
  8
A7
  6
CONTINUOUS
 62
7
100
AcDbCircle
 10
253.6351718113850
 20
115.8452210365489
 30
0.000000000000000
 40
2.000000000000000
100
AcDbArc
 50
270.0000000000000
 51
359.9999999999996
  0
ARC
  5
91
100
AcDbEntity
  8
A7
  6
CONTINUOUS
 62
7
100
AcDbCircle
 10
304.6351718112014
 20
115.8452210365489
 30
0.000000000000000
 40
2.000000000000000
100
AcDbArc
 50
180.0000000000000
 51
270.0000000000001
  0
LINE
  5
92
100
AcDbEntity
  8
A7
  6
CONTINUOUS
 62
7
100
AcDbLine
 10
298.6351718112014
 20
189.8452210365496
 30
0.000000000000000
 11
297.6351718113100
 21
189.8452210365496
 31
0.000000000000000
  0
LINE
  5
93
100
AcDbEntity
  8
A7
  6
CONTINUOUS
 62
7
100
AcDbLine
 10
260.6351718113100
 20
211.3452210365510
 30
0.000000000000000
 11
255.6351718113856
 21
211.3452210365510
 31
0.000000000000000
  0
LINE
  5
94
100
AcDbEntity
  8
A7
  6
CONTINUOUS
 62
7
100
AcDbLine
 10
260.6351718113100
 20
189.8452210365496
 30
0.000000000000000
 11
259.6351718113856
 21
189.8452210365496
 31
0.000000000000000
  0
LINE
  5
95
100
AcDbEntity
  8
A7
  6
CONTINUOUS
 62
7
100
AcDbLine
 10
302.6351718111580
 20
211.3452210365510
 30
0.000000000000000
 11
297.6351718113099
 21
211.3452210365510
 31
0.000000000000000
  0
LINE
  5
96
100
AcDbEntity
  8
A7
  6
CONTINUOUS
 62
7
100
AcDbLine
 10
298.6351718112014
 20
187.3452210365496
 30
0.000000000000000
 11
259.6351718113856
 21
187.3452210365496
 31
0.000000000000000
  0
LINE
  5
97
100
AcDbEntity
  8
A7
  6
CONTINUOUS
 62
7
100
AcDbLine
 10
301.5532933691734
 20
186.0810146276285
 30
0.000000000000000
 11
301.3709654026808
 21
186.2633425941402
 31
0.000000000000000
  0
LINE
  5
98
100
AcDbEntity
  8
A7
  6
CONTINUOUS
 62
7
100
AcDbLine
 10
256.8993782242683
 20
186.2633425981861
 30
0.000000000000000
 11
256.7170502497272
 21
186.0810146236641
 31
0.000000000000000
  0
ARC
  5
99
100
AcDbEntity
  8
A8
  6
CONTINUOUS
 62
7
100
AcDbCircle
 10
50.00000000000006
 20
50.50000000000000
 30
0.000000000000000
 40
0.5000000000000000
100
AcDbArc
 50
179.9999999999937
 51
270.0000000000000
  0
ARC
  5
9A
100
AcDbEntity
  8
A8
  6
CONTINUOUS
 62
7
100
AcDbCircle
 10
75.50000000006321
 20
50.50000000000006
 30
0.000000000000000
 40
0.5000000000000000
100
AcDbArc
 50
270.0000000000000
 51
360.0000000000000
  0
LINE
  5
9B
100
AcDbEntity
  8
A8
  6
CONTINUOUS
 62
7
100
AcDbLine
 10
76.00000000006321
 20
51.00000000000000
 30
0.000000000000000
 11
76.00000000006321
 21
50.50000000000006
 31
0.000000000000000
  0
LINE
  5
9C
100
AcDbEntity
  8
A8
  6
CONTINUOUS
 62
7
100
AcDbLine
 10
49.50000000000006
 20
50.50000000000006
 30
0.000000000000000
 11
49.50000000000006
 21
51.00000000000000
 31
0.000000000000000
  0
ARC
  5
9D
100
AcDbEntity
  8
A8
  6
CONTINUOUS
 62
7
100
AcDbCircle
 10
123.4999999998362
 20
50.50000000000000
 30
0.000000000000000
 40
0.5000000000000000
100
AcDbArc
 50
179.9999999999937
 51
270.0000000000000
  0
ARC
  5
9E
100
AcDbEntity
  8
A8
  6
CONTINUOUS
 62
7
100
AcDbCircle
 10
148.9999999998988
 20
50.50000000000000
 30
0.000000000000000
 40
0.5000000000000000
100
AcDbArc
 50
270.0000000000000
 51
360.0000000000063
  0
LINE
  5
9F
100
AcDbEntity
  8
A8
  6
CONTINUOUS
 62
7
100
AcDbLine
 10
149.4999999998988
 20
51.00000000000000
 30
0.000000000000000
 11
149.4999999998988
 21
50.50000000000006
 31
0.000000000000000
  0
LINE
  5
A0
100
AcDbEntity
  8
A8
  6
CONTINUOUS
 62
7
100
AcDbLine
 10
122.9999999998362
 20
50.50000000000006
 30
0.000000000000000
 11
122.9999999998362
 21
51.00000000000000
 31
0.000000000000000
  0
ARC
  5
A1
100
AcDbEntity
  8
A8
  6
CONTINUOUS
 62
7
100
AcDbCircle
 10
53.50000000000006
 20
63.49999999999984
 30
0.000000000000000
 40
4.000000000000000
100
AcDbArc
 50
90.00000000000000
 51
180.0000000000000
  0
ARC
  5
A2
100
AcDbEntity
  8
A8
  6
CONTINUOUS
 62
7
100
AcDbCircle
 10
50.00000000000006
 20
51.50000000000000
 30
0.000000000000000
 40
0.5000000000000000
100
AcDbArc
 50
180.0000000000063
 51
270.0000000000000
  0
ARC
  5
A3
100
AcDbEntity
  8
A8
  6
CONTINUOUS
 62
7
100
AcDbCircle
 10
145.4999999998988
 20
63.49999999999984
 30
0.000000000000000
 40
4.000000000000000
100
AcDbArc
 50
0.000000000000000
 51
90.00000000000000
  0
ARC
  5
A4
100
AcDbEntity
  8
A8
  6
CONTINUOUS
 62
7
100
AcDbCircle
 10
75.50000000002001
 20
51.49999999998818
 30
0.000000000000000
 40
0.5000000000000000
100
AcDbArc
 50
270.0000000000000
 51
360.0000000000000
  0
ARC
  5
A5
100
AcDbEntity
  8
A8
  6
CONTINUOUS
 62
7
100
AcDbCircle
 10
123.4999999998363
 20
51.49999999998818
 30
0.000000000000000
 40
0.5000000000000000
100
AcDbArc
 50
180.0000000000000
 51
270.0000000000000
  0
ARC
  5
A6
100
AcDbEntity
  8
A8
  6
CONTINUOUS
 62
7
100
AcDbCircle
 10
58.62051180721522
 20
63.49999999999989
 30
0.000000000000000
 40
4.000000000000000
100
AcDbArc
 50
47.49999999999909
 51
90.00000000000000
  0
ARC
  5
A7
100
AcDbEntity
  8
A8
  6
CONTINUOUS
 62
7
100
AcDbCircle
 10
148.9999999998988
 20
51.49999999999994
 30
0.000000000000000
 40
0.5000000000000000
100
AcDbArc
 50
270.0000000000000
 51
360.0000000000000
  0
ARC
  5
A8
100
AcDbEntity
  8
A8
  6
CONTINUOUS
 62
7
100
AcDbCircle
 10
124.9999999998464
 20
52.11997893812446
 30
0.000000000000000
 40
2.000000000000000
100
AcDbArc
 50
132.5000000000006
 51
179.9999999996821
  0
ARC
  5
A9
100
AcDbEntity
  8
A8
  6
CONTINUOUS
 62
7
100
AcDbCircle
 10
140.3794881928627
 20
63.49999999999989
 30
0.000000000000000
 40
4.000000000000000
100
AcDbArc
 50
90.00000000000000
 51
132.5000000000005
  0
ARC
  5
AA
100
AcDbEntity
  8
A8
  6
CONTINUOUS
 62
7
100
AcDbCircle
 10
74.00000000002001
 20
52.11997893831811
 30
0.000000000000000
 40
2.000000000000000
100
AcDbArc
 50
0.000000000000000
 51
47.49999999999928
  0
LINE
  5
AB
100
AcDbEntity
  8
A8
  6
CONTINUOUS
 62
7
100
AcDbLine
 10
149.4999999998988
 20
63.49999999999984
 30
0.000000000000000
 11
149.4999999998988
 21
51.49999999999994
 31
0.000000000000000
  0
LINE
  5
AC
100
AcDbEntity
  8
A8
  6
CONTINUOUS
 62
7
100
AcDbLine
 10
49.50000000000006
 20
51.49999999999994
 30
0.000000000000000
 11
49.50000000000006
 21
63.49999999999984
 31
0.000000000000000
  0
LINE
  5
AD
100
AcDbEntity
  8
A8
  6
CONTINUOUS
 62
7
100
AcDbLine
 10
122.9999999998363
 20
51.49999999998818
 30
0.000000000000000
 11
122.9999999998363
 21
52.11997893813555
 31
0.000000000000000
  0
LINE
  5
AE
100
AcDbEntity
  8
A8
  6
CONTINUOUS
 62
7
100
AcDbLine
 10
123.6488195846151
 20
53.59453361174476
 30
0.000000000000000
 11
137.6771273624000
 21
66.44910934724044
 31
0.000000000000000
  0
LINE
  5
AF
100
AcDbEntity
  8
A8
  6
CONTINUOUS
 62
7
100
AcDbLine
 10
76.00000000002001
 20
52.11997893831811
 30
0.000000000000000
 11
76.00000000002001
 21
51.49999999998818
 31
0.000000000000000
  0
LINE
  5
B0
100
AcDbEntity
  8
A8
  6
CONTINUOUS
 62
7
100
AcDbLine
 10
61.32287263767790
 20
66.44910934724027
 30
0.000000000000000
 11
75.35118041525125
 21
53.59453361193832
 31
0.000000000000000
  0
LINE
  5
B1
100
AcDbEntity
  8
A10
  6
CONTINUOUS
 62
7
100
AcDbLine
 10
49.50000000000999
 20
209.8452210365510
 30
0.000000000000000
 11
49.50000000000999
 21
115.8452210365489
 31
0.000000000000000
  0
LINE
  5
B2
100
AcDbEntity
  8
A10
  6
CONTINUOUS
 62
7
100
AcDbLine
 10
51.50000000001005
 20
113.8452210365489
 30
0.000000000000000
 11
74.00000000003000
 21
113.8452210365489
 31
0.000000000000000
  0
SPLINE
  5
B3
100
AcDbEntity
  8
A4
  6
CONTINUOUS
 62
7
100
AcDbSpline
210
0.000000000000000
220
0.000000000000000
230
1.000000000000000
 70
     8
 71
     3
 72
    21
 73
    17
 74
     0
 42
1.000000000000000e-07
 43
1.000000000000000e-07
 12
-0.9048470135057869
 22
0.4257368696125923
 32
0.000000000000000
 13
-0.5161622237349093
 23
0.8564908398745956
 33
0.000000000000000
 40
0.000000000000000
 40
0.000000000000000
 40
0.000000000000000
 40
0.000000000000000
 40
0.02881988468413210
 40
0.1204593985090973
 40
0.2264607469984947
 40
0.3650921319777689
 40
0.5347842223281811
 40
0.7575389295811851
 40
1.014826614477858
 40
1.300028539024618
 40
1.592546610432467
 40
1.902478603169895
 40
2.222990171555383
 40
2.649212639250890
 40
3.083255973538981
 40
3.518435408913553
 40
3.518435408913553
 40
3.518435408913553
 40
3.518435408913553
 10
148.9269199159379
 20
180.4248231825165
 30
0.000000000000000
 10
148.9182273870759
 20
180.4289130783459
 30
0.000000000000000
 10
148.8819434785324
 20
180.4461117090942
 30
0.000000000000000
 10
148.8142617613388
 20
180.4795495019634
 30
0.000000000000000
 10
148.7143405821107
 20
180.5303523949349
 30
0.000000000000000
 10
148.5926676958987
 20
180.5957263894501
 30
0.000000000000000
 10
148.4388899890308
 20
180.6834672296624
 30
0.000000000000000
 10
148.2543841085832
 20
180.7969842334300
 30
0.000000000000000
 10
148.0425198938626
 20
180.9391704459986
 30
0.000000000000000
 10
147.8183804588563
 20
181.1043797353157
 30
0.000000000000000
 10
147.5892760522053
 20
181.2918109863552
 30
0.000000000000000
 10
147.3608572024479
 20
181.4980941887016
 30
0.000000000000000
 10
147.1117465151073
 20
181.7473379947276
 30
0.000000000000000
 10
146.8520465001641
 20
182.0435708506640
 30
0.000000000000000
 10
146.5904876187930
 20
182.3875774781633
 30
0.000000000000000
 10
146.4320256059372
 20
182.6305033626484
 30
0.000000000000000
 10
146.3571512109083
 20
182.7547457626818
 30
0.000000000000000
  0
SPLINE
  5
B4
100
AcDbEntity
  8
A4
  6
CONTINUOUS
 62
7
100
AcDbSpline
210
0.000000000000000
220
0.000000000000000
230
1.000000000000000
 70
     8
 71
     3
 72
    19
 73
    15
 74
     0
 42
1.000000000000000e-07
 43
1.000000000000000e-07
 12
0.5147339924022845
 22
0.8573499385113337
 32
0.000000000000000
 13
0.9049551253156096
 23
0.4255070165927464
 33
0.000000000000000
 40
0.000000000000000
 40
0.000000000000000
 40
0.000000000000000
 40
0.000000000000000
 40
0.4813007892719093
 40
0.8879964687654862
 40
1.290203441036425
 40
1.679615961463709
 40
2.068805638789645
 40
2.427271049822309
 40
2.742011977557046
 40
3.008777225395997
 40
3.228882318688673
 40
3.388318054242118
 40
3.487124594305152
 40
3.518395587575402
 40
3.518395587575402
 40
3.518395587575402
 40
3.518395587575402
 10
146.3571512109083
 20
188.9359456798696
 30
0.000000000000000
 10
146.4397318365110
 20
189.0734934138989
 30
0.000000000000000
 10
146.6024001496628
 20
189.3212687992101
 30
0.000000000000000
 10
146.8651193673402
 20
189.6621455053065
 30
0.000000000000000
 10
147.1295089500933
 20
189.9619376462047
 30
0.000000000000000
 10
147.4084260983254
 20
190.2400619606028
 30
0.000000000000000
 10
147.6945738386232
 20
190.4890303251662
 30
0.000000000000000
 10
147.9753640947268
 20
190.7051559876161
 30
0.000000000000000
 10
148.2343620010570
 20
190.8817550147881
 30
0.000000000000000
 10
148.4621602889288
 20
191.0215714085678
 30
0.000000000000000
 10
148.6501543571982
 20
191.1269017694996
 30
0.000000000000000
 10
148.7918529900995
 20
191.2000474942625
 30
0.000000000000000
 10
148.8783398629765
 20
191.2428754507538
 30
0.000000000000000
 10
148.9175202945903
 20
191.2614487402379
 30
0.000000000000000
 10
148.9269532431348
 20
191.2658840825886
 30
0.000000000000000
  0
SPLINE
  5
B5
100
AcDbEntity
  8
A4
  6
CONTINUOUS
 62
7
100
AcDbSpline
210
0.000000000000000
220
0.000000000000000
230
1.000000000000000
 70
     8
 71
     3
 72
    21
 73
    17
 74
     0
 42
1.000000000000000e-07
 43
1.000000000000000e-07
 12
-0.9048470135057869
 22
0.4257368696089543
 32
0.000000000000000
 13
-0.5161622237344545
 23
0.8564908398745956
 33
0.000000000000000
 40
0.000000000000000
 40
0.000000000000000
 40
0.000000000000000
 40
0.000000000000000
 40
0.02881988468411580
 40
0.1204593985090780
 40
0.2264607469984752
 40
0.3650921319777529
 40
0.5347842223281508
 40
0.7575389295811624
 40
1.014826614477839
 40
1.300028539024586
 40
1.592546610432445
 40
1.902478603169867
 40
2.222990171555356
 40
2.649212639250873
 40
3.083255973538981
 40
3.518435408913540
 40
3.518435408913540
 40
3.518435408913540
 40
3.518435408913540
 10
148.9269199159379
 20
167.4248231825165
 30
0.000000000000000
 10
148.9182273870759
 20
167.4289130783458
 30
0.000000000000000
 10
148.8819434785324
 20
167.4461117090943
 30
0.000000000000000
 10
148.8142617613388
 20
167.4795495019633
 30
0.000000000000000
 10
148.7143405821107
 20
167.5303523949349
 30
0.000000000000000
 10
148.5926676958987
 20
167.5957263894501
 30
0.000000000000000
 10
148.4388899890308
 20
167.6834672296623
 30
0.000000000000000
 10
148.2543841085832
 20
167.7969842334300
 30
0.000000000000000
 10
148.0425198938626
 20
167.9391704459986
 30
0.000000000000000
 10
147.8183804588563
 20
168.1043797353156
 30
0.000000000000000
 10
147.5892760522053
 20
168.2918109863552
 30
0.000000000000000
 10
147.3608572024479
 20
168.4980941887015
 30
0.000000000000000
 10
147.1117465151073
 20
168.7473379947276
 30
0.000000000000000
 10
146.8520465001641
 20
169.0435708506640
 30
0.000000000000000
 10
146.5904876187930
 20
169.3875774781633
 30
0.000000000000000
 10
146.4320256059371
 20
169.6305033626484
 30
0.000000000000000
 10
146.3571512109083
 20
169.7547457626818
 30
0.000000000000000
  0
SPLINE
  5
B6
100
AcDbEntity
  8
A4
  6
CONTINUOUS
 62
7
100
AcDbSpline
210
0.000000000000000
220
0.000000000000000
230
1.000000000000000
 70
     8
 71
     3
 72
    19
 73
    15
 74
     0
 42
1.000000000000000e-07
 43
1.000000000000000e-07
 12
0.5147339924022845
 22
0.8573499385117884
 32
0.000000000000000
 13
0.9049551253156096
 23
0.4255070165927464
 33
0.000000000000000
 40
0.000000000000000
 40
0.000000000000000
 40
0.000000000000000
 40
0.000000000000000
 40
0.4813007892718718
 40
0.8879964687654530
 40
1.290203441036392
 40
1.679615961463691
 40
2.068805638789633
 40
2.427271049822288
 40
2.742011977557023
 40
3.008777225395962
 40
3.228882318688638
 40
3.388318054242089
 40
3.487124594305123
 40
3.518395587575379
 40
3.518395587575379
 40
3.518395587575379
 40
3.518395587575379
 10
146.3571512109083
 20
175.9359456798696
 30
0.000000000000000
 10
146.4397318365110
 20
176.0734934138989
 30
0.000000000000000
 10
146.6024001496628
 20
176.3212687992102
 30
0.000000000000000
 10
146.8651193673402
 20
176.6621455053065
 30
0.000000000000000
 10
147.1295089500932
 20
176.9619376462047
 30
0.000000000000000
 10
147.4084260983254
 20
177.2400619606028
 30
0.000000000000000
 10
147.6945738386232
 20
177.4890303251662
 30
0.000000000000000
 10
147.9753640947268
 20
177.7051559876161
 30
0.000000000000000
 10
148.2343620010570
 20
177.8817550147881
 30
0.000000000000000
 10
148.4621602889288
 20
178.0215714085678
 30
0.000000000000000
 10
148.6501543571982
 20
178.1269017694996
 30
0.000000000000000
 10
148.7918529900994
 20
178.2000474942626
 30
0.000000000000000
 10
148.8783398629765
 20
178.2428754507538
 30
0.000000000000000
 10
148.9175202945903
 20
178.2614487402379
 30
0.000000000000000
 10
148.9269532431348
 20
178.2658840825886
 30
0.000000000000000
  0
SPLINE
  5
B7
100
AcDbEntity
  8
A4
  6
CONTINUOUS
 62
7
100
AcDbSpline
210
0.000000000000000
220
0.000000000000000
230
1.000000000000000
 70
     8
 71
     3
 72
    21
 73
    17
 74
     0
 42
1.000000000000000e-07
 43
1.000000000000000e-07
 12
-0.9048470135057869
 22
0.4257368696125923
 32
0.000000000000000
 13
-0.5161622237344545
 23
0.8564908398748230
 33
0.000000000000000
 40
0.000000000000000
 40
0.000000000000000
 40
0.000000000000000
 40
0.000000000000000
 40
0.02881988468415060
 40
0.1204593985091099
 40
0.2264607469985009
 40
0.3650921319777688
 40
0.5347842223281801
 40
0.7575389295811781
 40
1.014826614477859
 40
1.300028539024617
 40
1.592546610432460
 40
1.902478603169878
 40
2.222990171555372
 40
2.649212639250889
 40
3.083255973538985
 40
3.518435408913552
 40
3.518435408913552
 40
3.518435408913552
 40
3.518435408913552
 10
148.9269199159379
 20
193.4248231825165
 30
0.000000000000000
 10
148.9182273870759
 20
193.4289130783459
 30
0.000000000000000
 10
148.8819434785324
 20
193.4461117090943
 30
0.000000000000000
 10
148.8142617613388
 20
193.4795495019634
 30
0.000000000000000
 10
148.7143405821107
 20
193.5303523949349
 30
0.000000000000000
 10
148.5926676958987
 20
193.5957263894501
 30
0.000000000000000
 10
148.4388899890308
 20
193.6834672296623
 30
0.000000000000000
 10
148.2543841085833
 20
193.7969842334300
 30
0.000000000000000
 10
148.0425198938626
 20
193.9391704459986
 30
0.000000000000000
 10
147.8183804588563
 20
194.1043797353156
 30
0.000000000000000
 10
147.5892760522053
 20
194.2918109863552
 30
0.000000000000000
 10
147.3608572024479
 20
194.4980941887016
 30
0.000000000000000
 10
147.1117465151073
 20
194.7473379947275
 30
0.000000000000000
 10
146.8520465001641
 20
195.0435708506640
 30
0.000000000000000
 10
146.5904876187931
 20
195.3875774781633
 30
0.000000000000000
 10
146.4320256059372
 20
195.6305033626484
 30
0.000000000000000
 10
146.3571512109083
 20
195.7547457626818
 30
0.000000000000000
  0
SPLINE
  5
B8
100
AcDbEntity
  8
A4
  6
CONTINUOUS
 62
7
100
AcDbSpline
210
0.000000000000000
220
0.000000000000000
230
1.000000000000000
 70
     8
 71
     3
 72
    19
 73
    15
 74
     0
 42
1.000000000000000e-07
 43
1.000000000000000e-07
 12
0.5147339924022845
 22
0.8573499385113337
 32
0.000000000000000
 13
0.9049551253119716
 23
0.4255070165927464
 33
0.000000000000000
 40
0.000000000000000
 40
0.000000000000000
 40
0.000000000000000
 40
0.000000000000000
 40
0.4813007892718935
 40
0.8879964687654703
 40
1.290203441036409
 40
1.679615961463708
 40
2.068805638789644
 40
2.427271049822299
 40
2.742011977557042
 40
3.008777225395987
 40
3.228882318688657
 40
3.388318054242108
 40
3.487124594305142
 40
3.518395587575348
 40
3.518395587575348
 40
3.518395587575348
 40
3.518395587575348
 10
146.3571512109083
 20
201.9359456798696
 30
0.000000000000000
 10
146.4397318365111
 20
202.0734934138989
 30
0.000000000000000
 10
146.6024001496628
 20
202.3212687992102
 30
0.000000000000000
 10
146.8651193673402
 20
202.6621455053065
 30
0.000000000000000
 10
147.1295089500933
 20
202.9619376462047
 30
0.000000000000000
 10
147.4084260983254
 20
203.2400619606028
 30
0.000000000000000
 10
147.6945738386232
 20
203.4890303251662
 30
0.000000000000000
 10
147.9753640947268
 20
203.7051559876160
 30
0.000000000000000
 10
148.2343620010571
 20
203.8817550147881
 30
0.000000000000000
 10
148.4621602889288
 20
204.0215714085678
 30
0.000000000000000
 10
148.6501543571982
 20
204.1269017694996
 30
0.000000000000000
 10
148.7918529900995
 20
204.2000474942626
 30
0.000000000000000
 10
148.8783398629765
 20
204.2428754507538
 30
0.000000000000000
 10
148.9175202945903
 20
204.2614487402379
 30
0.000000000000000
 10
148.9269532431348
 20
204.2658840825886
 30
0.000000000000000
  0
ARC
  5
B9
100
AcDbEntity
  8
A4
  6
CONTINUOUS
 62
7
100
AcDbCircle
 10
124.9999999998298
 20
115.8452210365489
 30
0.000000000000000
 40
2.000000000000000
100
AcDbArc
 50
180.0000000000000
 51
270.0000000000000
  0
ARC
  5
BA
100
AcDbEntity
  8
A4
  6
CONTINUOUS
 62
7
100
AcDbCircle
 10
151.5004093638207
 20
185.8453457212757
 30
0.000000000000000
 40
6.000409363665156
100
AcDbArc
 50
148.9982101426011
 51
211.0017898573987
  0
ARC
  5
BB
100
AcDbEntity
  8
A4
  6
CONTINUOUS
 62
7
100
AcDbCircle
 10
148.4999999998498
 20
179.5205315020684
 30
0.000000000000000
 40
1.000000000000000
100
AcDbArc
 50
4.071109992273301e-13
 51
64.62094741676519
  0
ARC
  5
BC
100
AcDbEntity
  8
A4
  6
CONTINUOUS
 62
7
100
AcDbCircle
 10
148.4999999998498
 20
192.1701599404830
 30
0.000000000000000
 40
1.000000000000000
100
AcDbArc
 50
295.3790525832350
 51
359.9999999999996
  0
ARC
  5
BD
100
AcDbEntity
  8
A4
  6
CONTINUOUS
 62
7
100
AcDbCircle
 10
148.4999999998498
 20
166.5205315020684
 30
0.000000000000000
 40
1.000000000000000
100
AcDbArc
 50
0.000000000000000
 51
64.62094741676539
  0
ARC
  5
BE
100
AcDbEntity
  8
A4
  6
CONTINUOUS
 62
7
100
AcDbCircle
 10
151.5004093638207
 20
172.8453457212757
 30
0.000000000000000
 40
6.000409363665156
100
AcDbArc
 50
148.9982101426009
 51
211.0017898573989
  0
ARC
  5
BF
100
AcDbEntity
  8
A4
  6
CONTINUOUS
 62
7
100
AcDbCircle
 10
148.4999999998498
 20
179.1701599404830
 30
0.000000000000000
 40
1.000000000000000
100
AcDbArc
 50
295.3790525832347
 51
360.0000000000000
  0
ARC
  5
C0
100
AcDbEntity
  8
A4
  6
CONTINUOUS
 62
7
100
AcDbCircle
 10
147.4999999998498
 20
115.8452210365489
 30
0.000000000000000
 40
2.000000000000000
100
AcDbArc
 50
270.0000000000000
 51
360.0000000000000
  0
ARC
  5
C1
100
AcDbEntity
  8
A4
  6
CONTINUOUS
 62
7
100
AcDbCircle
 10
145.4999999998498
 20
209.8452210365510
 30
0.000000000000000
 40
4.000000000000000
100
AcDbArc
 50
0.000000000000000
 51
90.00000000000000
  0
ARC
  5
C2
100
AcDbEntity
  8
A4
  6
CONTINUOUS
 62
7
100
AcDbCircle
 10
148.4999999998498
 20
192.5205315020684
 30
0.000000000000000
 40
1.000000000000000
100
AcDbArc
 50
359.9999999999998
 51
424.6209474167654
  0
ARC
  5
C3
100
AcDbEntity
  8
A4
  6
CONTINUOUS
 62
7
100
AcDbCircle
 10
151.5004093638207
 20
198.8453457212757
 30
0.000000000000000
 40
6.000409363665156
100
AcDbArc
 50
148.9982101426011
 51
211.0017898573989
  0
ARC
  5
C4
100
AcDbEntity
  8
A4
  6
CONTINUOUS
 62
7
100
AcDbCircle
 10
148.4999999998498
 20
205.1701599404830
 30
0.000000000000000
 40
1.000000000000000
100
AcDbArc
 50
295.3790525832350
 51
360.0000000000002
  0
LINE
  5
C5
100
AcDbEntity
  8
A4
  6
CONTINUOUS
 62
7
100
AcDbLine
 10
122.9999999998299
 20
183.3452210365496
 30
0.000000000000000
 11
122.9999999998298
 21
115.8452210365489
 31
0.000000000000000
  0
LINE
  5
C6
100
AcDbEntity
  8
A10
  6
CONTINUOUS
 62
7
100
AcDbLine
 10
149.4999999998498
 20
209.8452210365510
 30
0.000000000000000
 11
149.4999999998498
 21
115.8452210365489
 31
0.000000000000000
  0
LINE
  5
C7
100
AcDbEntity
  8
A10
  6
CONTINUOUS
 62
7
100
AcDbLine
 10
147.4999999998498
 20
113.8452210365489
 30
0.000000000000000
 11
124.9999999998298
 21
113.8452210365489
 31
0.000000000000000
  0
ARC
  5
C8
100
AcDbEntity
  8
A4
  6
CONTINUOUS
 62
7
100
AcDbCircle
 10
80.00000000002989
 20
183.3452210365496
 30
0.000000000000000
 40
4.000000000000000
100
AcDbArc
 50
90.00000000000000
 51
180.0000000000000
  0
ARC
  5
C9
100
AcDbEntity
  8
A4
  6
CONTINUOUS
 62
7
100
AcDbCircle
 10
118.9999999998300
 20
183.3452210365496
 30
0.000000000000000
 40
4.000000000000000
100
AcDbArc
 50
0.000000000000000
 51
90.00000000000000
  0
LINE
  5
CA
100
AcDbEntity
  8
A4
  6
CENTER
 62
1
100
AcDbLine
 10
103.4999999999301
 20
208.3452210365557
 30
0.000000000000000
 11
95.49999999993007
 21
208.3452210365557
 31
0.000000000000000
  0
LINE
  5
CB
100
AcDbEntity
  8
A4
  6
CENTER
 62
1
100
AcDbLine
 10
99.49999999993007
 20
216.8452210365510
 30
0.000000000000000
 11
99.49999999993007
 21
110.8452210365488
 31
0.000000000000000
  0
SPLINE
  5
CC
100
AcDbEntity
  8
A11
  6
CONTINUOUS
 62
7
100
AcDbSpline
210
0.000000000000000
220
0.000000000000000
230
1.000000000000000
 70
     8
 71
     3
 72
    26
 73
    22
 74
     0
 42
1.000000000000000e-07
 43
1.000000000000000e-07
 12
0.9999999281287728
 22
0.0003791343096963828
 32
0.000000000000000
 13
-0.01029680553983781
 23
0.9999469864927732
 33
0.000000000000000
 40
0.000000000000000
 40
0.000000000000000
 40
0.000000000000000
 40
0.000000000000000
 40
0.4011699549647132
 40
0.6756468784728216
 40
0.9501253284130908
 40
1.232496830138615
 40
1.514871589963225
 40
1.790923471710384
 40
2.066979984514667
 40
2.350677827666045
 40
2.634383113458832
 40
2.917458035784025
 40
3.200543257137206
 40
3.490973578098927
 40
3.781419598386851
 40
4.081579590857395
 40
4.381764084159536
 40
4.688597892809987
 40
4.995467577726133
 40
5.539945964941211
 40
6.089229605735126
 40
6.089229605735126
 40
6.089229605735126
 40
6.089229605735126
 10
189.1986020568693
 20
167.1883667905925
 30
0.000000000000000
 10
189.3323253655800
 20
167.1884174896904
 30
0.000000000000000
 10
189.5578305278418
 20
167.2020710371804
 30
0.000000000000000
 10
189.8706164597747
 20
167.2536514669879
 30
0.000000000000000
 10
190.1397102257741
 20
167.3211868481842
 30
0.000000000000000
 10
190.4046473904534
 20
167.4120201116531
 30
0.000000000000000
 10
190.6614805488676
 20
167.5250424366217
 30
0.000000000000000
 10
190.9060823887067
 20
167.6581483507092
 30
0.000000000000000
 10
191.1394176641003
 20
167.8109400136007
 30
0.000000000000000
 10
191.3613520816787
 20
167.9840724581401
 30
0.000000000000000
 10
191.5700587397804
 20
168.1764001654151
 30
0.000000000000000
 10
191.7621947662214
 20
168.3849928271726
 30
0.000000000000000
 10
191.9385063816630
 20
168.6099645426735
 30
0.000000000000000
 10
192.0976218430262
 20
168.8503724330840
 30
0.000000000000000
 10
192.2402006008675
 20
169.1074544514155
 30
0.000000000000000
 10
192.3635958755020
 20
169.3778610192684
 30
0.000000000000000
 10
192.4680831373425
 20
169.6619265453037
 30
0.000000000000000
 10
192.5518806990642
 20
169.9550751337450
 30
0.000000000000000
 10
192.6323052247162
 20
170.3329729043288
 30
0.000000000000000
 10
192.6872349128370
 20
170.7974087238050
 30
0.000000000000000
 10
192.7004873458145
 20
171.1622157366706
 30
0.000000000000000
 10
192.6986020568693
 20
171.3453005771179
 30
0.000000000000000
  0
SPLINE
  5
CD
100
AcDbEntity
  8
A11
  6
CONTINUOUS
 62
7
100
AcDbSpline
210
0.000000000000000
220
0.000000000000000
230
1.000000000000000
 70
     8
 71
     3
 72
    25
 73
    21
 74
     0
 42
1.000000000000000e-07
 43
1.000000000000000e-07
 12
0.008075478840282813
 22
0.9999673927891308
 32
0.000000000000000
 13
-0.9999998284461071
 23
0.0005857543342244753
 33
0.000000000000000
 40
0.000000000000000
 40
0.000000000000000
 40
0.000000000000000
 40
0.000000000000000
 40
0.5107079750380716
 40
0.8755623513549511
 40
1.240329647782004
 40
1.614029534692688
 40
1.987657840295940
 40
2.292415001715729
 40
2.597149731025814
 40
2.910456837081114
 40
3.223746037179715
 40
3.528760881620521
 40
3.833764440965303
 40
4.148936107840931
 40
4.464099054235128
 40
4.749296185198737
 40
5.034489588769391
 40
5.328515289027610
 40
5.622538714746462
 40
6.089011366782631
 40
6.089011366782631
 40
6.089011366782631
 40
6.089011366782631
 10
192.6986020568693
 20
174.3454424293212
 30
0.000000000000000
 10
192.6999767940180
 20
174.5156728700797
 30
0.000000000000000
 10
192.6903960595025
 20
174.8077242840799
 30
0.000000000000000
 10
192.6503988339404
 20
175.2194484884667
 30
0.000000000000000
 10
192.5887081028660
 20
175.5823926074194
 30
0.000000000000000
 10
192.4971112319699
 20
175.9420477477773
 30
0.000000000000000
 10
192.3808098090899
 20
176.2734425437603
 30
0.000000000000000
 10
192.2458397937872
 20
176.5724238689298
 30
0.000000000000000
 10
192.0972285405501
 20
176.8421319632615
 30
0.000000000000000
 10
191.9248200874249
 20
177.1007614860852
 30
0.000000000000000
 10
191.7306317939895
 20
177.3436089536606
 30
0.000000000000000
 10
191.5177051143160
 20
177.5663738151989
 30
0.000000000000000
 10
191.2856730897803
 20
177.7701329153209
 30
0.000000000000000
 10
191.0332834709342
 20
177.9539376823612
 30
0.000000000000000
 10
190.7706753188388
 20
178.1102884782853
 30
0.000000000000000
 10
190.5041828355428
 20
178.2380547920608
 30
0.000000000000000
 10
190.2344100524836
 20
178.3402638921274
 30
0.000000000000000
 10
189.9538335063315
 20
178.4192575760344
 30
0.000000000000000
 10
189.6080448200992
 20
178.4844241290187
 30
0.000000000000000
 10
189.3540929142063
 20
178.5022851363874
 30
0.000000000000000
 10
189.1986020568693
 20
178.5023762158467
 30
0.000000000000000
  0
SPLINE
  5
CE
100
AcDbEntity
  8
A11
  6
CONTINUOUS
 62
7
100
AcDbSpline
210
0.000000000000000
220
0.000000000000000
230
1.000000000000000
 70
     8
 71
     3
 72
    25
 73
    21
 74
     0
 42
1.000000000000000e-07
 43
1.000000000000000e-07
 12
0.008075478840282813
 22
0.9999673927891308
 32
0.000000000000000
 13
-0.9999998284461071
 23
0.0005857543344518490
 33
0.000000000000000
 40
0.000000000000000
 40
0.000000000000000
 40
0.000000000000000
 40
0.000000000000000
 40
0.5107079750380663
 40
0.8755623513549458
 40
1.240329647781997
 40
1.614029534692689
 40
1.987657840295936
 40
2.292415001715726
 40
2.597149731025810
 40
2.910456837081107
 40
3.223746037179710
 40
3.528760881620517
 40
3.833764440965303
 40
4.148936107840925
 40
4.464099054235124
 40
4.749296185198734
 40
5.034489588769383
 40
5.328515289027607
 40
5.622538714746455
 40
6.089011366782628
 40
6.089011366782628
 40
6.089011366782628
 40
6.089011366782628
 10
192.6986020568693
 20
200.3454424293212
 30
0.000000000000000
 10
192.6999767940180
 20
200.5156728700797
 30
0.000000000000000
 10
192.6903960595025
 20
200.8077242840799
 30
0.000000000000000
 10
192.6503988339404
 20
201.2194484884667
 30
0.000000000000000
 10
192.5887081028660
 20
201.5823926074194
 30
0.000000000000000
 10
192.4971112319699
 20
201.9420477477773
 30
0.000000000000000
 10
192.3808098090899
 20
202.2734425437603
 30
0.000000000000000
 10
192.2458397937872
 20
202.5724238689298
 30
0.000000000000000
 10
192.0972285405501
 20
202.8421319632615
 30
0.000000000000000
 10
191.9248200874249
 20
203.1007614860852
 30
0.000000000000000
 10
191.7306317939895
 20
203.3436089536606
 30
0.000000000000000
 10
191.5177051143160
 20
203.5663738151989
 30
0.000000000000000
 10
191.2856730897803
 20
203.7701329153209
 30
0.000000000000000
 10
191.0332834709342
 20
203.9539376823612
 30
0.000000000000000
 10
190.7706753188388
 20
204.1102884782853
 30
0.000000000000000
 10
190.5041828355428
 20
204.2380547920608
 30
0.000000000000000
 10
190.2344100524836
 20
204.3402638921274
 30
0.000000000000000
 10
189.9538335063315
 20
204.4192575760344
 30
0.000000000000000
 10
189.6080448200992
 20
204.4844241290187
 30
0.000000000000000
 10
189.3540929142063
 20
204.5022851363874
 30
0.000000000000000
 10
189.1986020568693
 20
204.5023762158467
 30
0.000000000000000
  0
SPLINE
  5
CF
100
AcDbEntity
  8
A11
  6
CONTINUOUS
 62
7
100
AcDbSpline
210
0.000000000000000
220
0.000000000000000
230
1.000000000000000
 70
     8
 71
     3
 72
    26
 73
    22
 74
     0
 42
1.000000000000000e-07
 43
1.000000000000000e-07
 12
0.9999999281290002
 22
0.0003791343096963828
 32
0.000000000000000
 13
-0.01029680553983781
 23
0.9999469864928869
 33
0.000000000000000
 40
0.000000000000000
 40
0.000000000000000
 40
0.000000000000000
 40
0.000000000000000
 40
0.4011699549647093
 40
0.6756468784728209
 40
0.9501253284130867
 40
1.232496830138614
 40
1.514871589963226
 40
1.790923471710383
 40
2.066979984514664
 40
2.350677827666043
 40
2.634383113458831
 40
2.917458035784026
 40
3.200543257137204
 40
3.490973578098930
 40
3.781419598386850
 40
4.081579590857393
 40
4.381764084159530
 40
4.688597892809987
 40
4.995467577726132
 40
5.539945964941203
 40
6.089229605735122
 40
6.089229605735122
 40
6.089229605735122
 40
6.089229605735122
 10
189.1986020568693
 20
193.1883667905925
 30
0.000000000000000
 10
189.3323253655800
 20
193.1884174896904
 30
0.000000000000000
 10
189.5578305278418
 20
193.2020710371804
 30
0.000000000000000
 10
189.8706164597747
 20
193.2536514669878
 30
0.000000000000000
 10
190.1397102257741
 20
193.3211868481842
 30
0.000000000000000
 10
190.4046473904534
 20
193.4120201116531
 30
0.000000000000000
 10
190.6614805488676
 20
193.5250424366217
 30
0.000000000000000
 10
190.9060823887067
 20
193.6581483507092
 30
0.000000000000000
 10
191.1394176641003
 20
193.8109400136007
 30
0.000000000000000
 10
191.3613520816787
 20
193.9840724581401
 30
0.000000000000000
 10
191.5700587397804
 20
194.1764001654151
 30
0.000000000000000
 10
191.7621947662213
 20
194.3849928271726
 30
0.000000000000000
 10
191.9385063816630
 20
194.6099645426735
 30
0.000000000000000
 10
192.0976218430262
 20
194.8503724330840
 30
0.000000000000000
 10
192.2402006008675
 20
195.1074544514155
 30
0.000000000000000
 10
192.3635958755020
 20
195.3778610192684
 30
0.000000000000000
 10
192.4680831373425
 20
195.6619265453037
 30
0.000000000000000
 10
192.5518806990642
 20
195.9550751337450
 30
0.000000000000000
 10
192.6323052247162
 20
196.3329729043288
 30
0.000000000000000
 10
192.6872349128370
 20
196.7974087238050
 30
0.000000000000000
 10
192.7004873458145
 20
197.1622157366706
 30
0.000000000000000
 10
192.6986020568693
 20
197.3453005771179
 30
0.000000000000000
  0
SPLINE
  5
D0
100
AcDbEntity
  8
A11
  6
CONTINUOUS
 62
7
100
AcDbSpline
210
0.000000000000000
220
0.000000000000000
230
1.000000000000000
 70
     8
 71
     3
 72
    28
 73
    24
 74
     0
 42
1.000000000000000e-07
 43
1.000000000000000e-07
 12
-0.9999992981172454
 22
0.001184805630600749
 32
0.000000000000000
 13
0.002026153930501096
 23
-0.9999979473481062
 33
0.000000000000000
 40
0.000000000000000
 40
0.000000000000000
 40
0.000000000000000
 40
0.000000000000000
 40
0.4167891900658566
 40
0.8303445828303218
 40
1.233780391184765
 40
1.624606695762392
 40
2.000620436127894
 40
2.357265609333748
 40
2.687590916638912
 40
3.003181271509702
 40
3.305925227437152
 40
3.596098717874544
 40
3.887376583334659
 40
4.183620252002326
 40
4.514707807740275
 40
4.860996275295699
 40
5.222010585105775
 40
5.676197280457653
 40
6.151026923191028
 40
6.641335314393863
 40
7.207437696415100
 40
7.785848459729132
 40
8.368387182617228
 40
8.368387182617228
 40
8.368387182617228
 40
8.368387182617228
 10
184.1986020568693
 20
191.5022114407069
 30
0.000000000000000
 10
184.0596724243597
 20
191.5023760454333
 30
0.000000000000000
 10
183.7828607616443
 20
191.4971723638959
 30
0.000000000000000
 10
183.3721508992643
 20
191.4739916853695
 30
0.000000000000000
 10
182.9714100469417
 20
191.4337454362862
 30
0.000000000000000
 10
182.5856168982233
 20
191.3745174598902
 30
0.000000000000000
 10
182.2196360779938
 20
191.2936510255153
 30
0.000000000000000
 10
181.8804371842902
 20
191.1894542557133
 30
0.000000000000000
 10
181.5723619509665
 20
191.0581330472633
 30
0.000000000000000
 10
181.2977536455776
 20
190.8996086615716
 30
0.000000000000000
 10
181.0579539039506
 20
190.7127738060872
 30
0.000000000000000
 10
180.8558354348761
 20
190.4966825146745
 30
0.000000000000000
 10
180.6886621023249
 20
190.2554196091485
 30
0.000000000000000
 10
180.5493523028152
 20
189.9817943375175
 30
0.000000000000000
 10
180.4390947831731
 20
189.6757812638931
 30
0.000000000000000
 10
180.3547471718543
 20
189.3396392687902
 30
0.000000000000000
 10
180.2900272833766
 20
188.9576271239330
 30
0.000000000000000
 10
180.2454151311422
 20
188.5296899125757
 30
0.000000000000000
 10
180.2184127665217
 20
188.0572479318746
 30
0.000000000000000
 10
180.2047904082855
 20
187.5469760317777
 30
0.000000000000000
 10
180.1989053070804
 20
187.0020552777825
 30
0.000000000000000
 10
180.1982105951401
 20
186.4263689837439
 30
0.000000000000000
 10
180.1982086191616
 20
186.0393859037928
 30
0.000000000000000
 10
180.1986020568693
 20
185.8452067280798
 30
0.000000000000000
  0
SPLINE
  5
D1
100
AcDbEntity
  8
A11
  6
CONTINUOUS
 62
7
100
AcDbSpline
210
0.000000000000000
220
0.000000000000000
230
1.000000000000000
 70
     8
 71
     3
 72
    33
 73
    29
 74
     0
 42
1.000000000000000e-07
 43
1.000000000000000e-07
 12
-3.487629237497458e-05
 22
-0.9999999993897291
 32
0.000000000000000
 13
0.9999999680671863
 23
0.0002527143442421220
 33
0.000000000000000
 40
0.000000000000000
 40
0.000000000000000
 40
0.000000000000000
 40
0.000000000000000
 40
0.1346083344976401
 40
0.6311888057327490
 40
1.123434523327676
 40
1.621901624770192
 40
2.108575545773878
 40
2.565557634050408
 40
3.005340784302285
 40
3.440768998093571
 40
3.854234188009368
 40
4.108110846961888
 40
4.354750012964529
 40
4.602568897378676
 40
4.847777411884061
 40
5.087805114448860
 40
5.332135110570215
 40
5.593071384343806
 40
5.864531853580418
 40
6.111870216411995
 40
6.368775492925344
 40
6.642894683398416
 40
6.926131763178618
 40
7.210174590676439
 40
7.500490290534308
 40
7.803665031536794
 40
8.110166195226302
 40
8.369217431324062
 40
8.369217431324062
 40
8.369217431324062
 40
8.369217431324062
 10
180.1986020568693
 20
185.8452067280798
 30
0.000000000000000
 10
180.1986004919894
 20
185.8003372832746
 30
0.000000000000000
 10
180.1986165976408
 20
185.5899410233451
 30
0.000000000000000
 10
180.1984879086131
 20
185.2154627191131
 30
0.000000000000000
 10
180.1995289574518
 20
184.7196988881977
 30
0.000000000000000
 10
180.2034994369608
 20
184.2272451041167
 30
0.000000000000000
 10
180.2146156983096
 20
183.7466357372327
 30
0.000000000000000
 10
180.2368628079154
 20
183.2859536076872
 30
0.000000000000000
 10
180.2760068764389
 20
182.8434404637597
 30
0.000000000000000
 10
180.3394611496581
 20
182.4182481343106
 30
0.000000000000000
 10
180.4254154301743
 20
182.0600870244173
 30
0.000000000000000
 10
180.5259443567220
 20
181.7721190972331
 30
0.000000000000000
 10
180.6295078672861
 20
181.5447372634086
 30
0.000000000000000
 10
180.7555970686849
 20
181.3322318773763
 30
0.000000000000000
 10
180.9048326397761
 20
181.1379443516274
 30
0.000000000000000
 10
181.0765079294330
 20
180.9648237364202
 30
0.000000000000000
 10
181.2719689597791
 20
180.8105287426775
 30
0.000000000000000
 10
181.4932284738487
 20
180.6749935447809
 30
0.000000000000000
 10
181.7283437450130
 20
180.5632022886145
 30
0.000000000000000
 10
181.9708218594830
 20
180.4727466217771
 30
0.000000000000000
 10
182.2197370094027
 20
180.3989281784039
 30
0.000000000000000
 10
182.4842550864691
 20
180.3374811242428
 30
0.000000000000000
 10
182.7604210031179
 20
180.2879764670041
 30
0.000000000000000
 10
183.0437710757733
 20
180.2495979656194
 30
0.000000000000000
 10
183.3349224108069
 20
180.2208601682602
 30
0.000000000000000
 10
183.6343096594974
 20
180.2009992561949
 30
0.000000000000000
 10
183.9237279438400
 20
180.1903697330059
 30
0.000000000000000
 10
184.1122516475941
 20
180.1881801934651
 30
0.000000000000000
 10
184.1986020568693
 20
180.1882020154528
 30
0.000000000000000
  0
SPLINE
  5
D2
100
AcDbEntity
  8
A11
  6
CONTINUOUS
 62
7
100
AcDbSpline
210
0.000000000000000
220
0.000000000000000
230
1.000000000000000
 70
     8
 71
     3
 72
    35
 73
    31
 74
     0
 42
1.000000000000000e-07
 43
1.000000000000000e-07
 12
-0.9999999128847321
 22
0.0004174086609509686
 32
0.000000000000000
 13
0.0006024802294177789
 23
-0.9999998185089680
 33
0.000000000000000
 40
0.000000000000000
 40
0.000000000000000
 40
0.000000000000000
 40
0.000000000000000
 40
0.3088013341832064
 40
0.6157670055177464
 40
0.9276514356571728
 40
1.233815355813377
 40
1.524420189863584
 40
1.806609142251261
 40
2.087393924584302
 40
2.357434516916853
 40
2.603586844372225
 40
2.840629317742291
 40
3.076650653241952
 40
3.306490844908782
 40
3.521967912249694
 40
3.736738655448339
 40
3.958661710815816
 40
4.184593868524432
 40
4.429355744082830
 40
4.681815393826507
 40
4.948030309021921
 40
5.223164086323518
 40
5.558728178868225
 40
5.905519569759632
 40
6.269530285237157
 40
6.642525613007823
 40
7.061579432675429
 40
7.487443302547766
 40
7.927307776729256
 40
8.369575472387712
 40
8.369575472387712
 40
8.369575472387712
 40
8.369575472387712
 10
184.1986020568693
 20
178.5023762158467
 30
0.000000000000000
 10
184.0956682877753
 20
178.5024191812971
 30
0.000000000000000
 10
183.8904009549221
 20
178.4995779424962
 30
0.000000000000000
 10
183.5814097497367
 20
178.4867769903988
 30
0.000000000000000
 10
183.2738106901137
 20
178.4646676018858
 30
0.000000000000000
 10
182.9725653692335
 20
178.4325419768463
 30
0.000000000000000
 10
182.6825952574621
 20
178.3900245952382
 30
0.000000000000000
 10
182.4031285988477
 20
178.3359933694528
 30
0.000000000000000
 10
182.1336486758875
 20
178.2683558950977
 30
0.000000000000000
 10
181.8805726110505
 20
178.1867943482920
 30
0.000000000000000
 10
181.6479907000697
 20
178.0915071188834
 30
0.000000000000000
 10
181.4344170180179
 20
177.9818590044096
 30
0.000000000000000
 10
181.2372958137324
 20
177.8544072136524
 30
0.000000000000000
 10
181.0607719404683
 20
177.7107260866783
 30
0.000000000000000
 10
180.9067310584876
 20
177.5529820689593
 30
0.000000000000000
 10
180.7725529747462
 20
177.3813958514139
 30
0.000000000000000
 10
180.6559107280395
 20
177.1933477241275
 30
0.000000000000000
 10
180.5541883881264
 20
176.9857129602916
 30
0.000000000000000
 10
180.4683575687324
 20
176.7601284964535
 30
0.000000000000000
 10
180.3970455900297
 20
176.5156133563712
 30
0.000000000000000
 10
180.3402584417365
 20
176.2570035841563
 30
0.000000000000000
 10
180.2933975451577
 20
175.9683630686900
 30
0.000000000000000
 10
180.2574619645926
 20
175.6511148627214
 30
0.000000000000000
 10
180.2317218933260
 20
175.3032166808762
 30
0.000000000000000
 10
180.2152857613978
 20
174.9422899114159
 30
0.000000000000000
 10
180.2055022510621
 20
174.5570449482344
 30
0.000000000000000
 10
180.2005892853548
 20
174.1510959108701
 30
0.000000000000000
 10
180.1988929993664
 20
173.7228367387910
 30
0.000000000000000
 10
180.1985581750383
 20
173.2868381557583
 30
0.000000000000000
 10
180.1985132376884
 20
172.9927940416832
 30
0.000000000000000
 10
180.1986020568693
 20
172.8453715032196
 30
0.000000000000000
  0
SPLINE
  5
D3
100
AcDbEntity
  8
A11
  6
CONTINUOUS
 62
7
100
AcDbSpline
210
0.000000000000000
220
0.000000000000000
230
1.000000000000000
 70
     8
 71
     3
 72
    25
 73
    21
 74
     0
 42
1.000000000000000e-07
 43
1.000000000000000e-07
 12
0.008075478840282813
 22
0.9999673927891308
 32
0.000000000000000
 13
-0.9999998284461071
 23
0.0005857543335423543
 33
0.000000000000000
 40
0.000000000000000
 40
0.000000000000000
 40
0.000000000000000
 40
0.000000000000000
 40
0.5107079750380663
 40
0.8755623513549466
 40
1.240329647781999
 40
1.614029534692686
 40
1.987657840295937
 40
2.292415001715724
 40
2.597149731025808
 40
2.910456837081107
 40
3.223746037179709
 40
3.528760881620514
 40
3.833764440965297
 40
4.148936107840924
 40
4.464099054235121
 40
4.749296185198733
 40
5.034489588769381
 40
5.328515289027608
 40
5.622538714746455
 40
6.089011366782627
 40
6.089011366782627
 40
6.089011366782627
 40
6.089011366782627
 10
192.6986020568693
 20
187.3452776541815
 30
0.000000000000000
 10
192.6999767940180
 20
187.5155080949399
 30
0.000000000000000
 10
192.6903960595025
 20
187.8075595089401
 30
0.000000000000000
 10
192.6503988339404
 20
188.2192837133269
 30
0.000000000000000
 10
192.5887081028660
 20
188.5822278322797
 30
0.000000000000000
 10
192.4971112319699
 20
188.9418829726376
 30
0.000000000000000
 10
192.3808098090899
 20
189.2732777686206
 30
0.000000000000000
 10
192.2458397937872
 20
189.5722590937901
 30
0.000000000000000
 10
192.0972285405501
 20
189.8419671881219
 30
0.000000000000000
 10
191.9248200874249
 20
190.1005967109455
 30
0.000000000000000
 10
191.7306317939895
 20
190.3434441785209
 30
0.000000000000000
 10
191.5177051143160
 20
190.5662090400591
 30
0.000000000000000
 10
191.2856730897803
 20
190.7699681401813
 30
0.000000000000000
 10
191.0332834709342
 20
190.9537729072215
 30
0.000000000000000
 10
190.7706753188388
 20
191.1101237031455
 30
0.000000000000000
 10
190.5041828355428
 20
191.2378900169211
 30
0.000000000000000
 10
190.2344100524836
 20
191.3400991169877
 30
0.000000000000000
 10
189.9538335063315
 20
191.4190928008946
 30
0.000000000000000
 10
189.6080448200992
 20
191.4842593538791
 30
0.000000000000000
 10
189.3540929142063
 20
191.5021203612478
 30
0.000000000000000
 10
189.1986020568693
 20
191.5022114407069
 30
0.000000000000000
  0
SPLINE
  5
D4
100
AcDbEntity
  8
A11
  6
CONTINUOUS
 62
7
100
AcDbSpline
210
0.000000000000000
220
0.000000000000000
230
1.000000000000000
 70
     8
 71
     3
 72
    26
 73
    22
 74
     0
 42
1.000000000000000e-07
 43
1.000000000000000e-07
 12
0.9999999281290002
 22
0.0003791343087868881
 32
0.000000000000000
 13
-0.01029680553983781
 23
0.9999469864922048
 33
0.000000000000000
 40
0.000000000000000
 40
0.000000000000000
 40
0.000000000000000
 40
0.000000000000000
 40
0.4011699549647094
 40
0.6756468784728209
 40
0.9501253284130867
 40
1.232496830138614
 40
1.514871589963225
 40
1.790923471710380
 40
2.066979984514667
 40
2.350677827666046
 40
2.634383113458830
 40
2.917458035784026
 40
3.200543257137203
 40
3.490973578098929
 40
3.781419598386850
 40
4.081579590857396
 40
4.381764084159532
 40
4.688597892809986
 40
4.995467577726131
 40
5.539945964941203
 40
6.089229605735121
 40
6.089229605735121
 40
6.089229605735121
 40
6.089229605735121
 10
189.1986020568693
 20
180.1882020154528
 30
0.000000000000000
 10
189.3323253655800
 20
180.1882527145507
 30
0.000000000000000
 10
189.5578305278418
 20
180.2019062620407
 30
0.000000000000000
 10
189.8706164597747
 20
180.2534866918481
 30
0.000000000000000
 10
190.1397102257741
 20
180.3210220730444
 30
0.000000000000000
 10
190.4046473904534
 20
180.4118553365133
 30
0.000000000000000
 10
190.6614805488676
 20
180.5248776614819
 30
0.000000000000000
 10
190.9060823887067
 20
180.6579835755695
 30
0.000000000000000
 10
191.1394176641003
 20
180.8107752384609
 30
0.000000000000000
 10
191.3613520816787
 20
180.9839076830003
 30
0.000000000000000
 10
191.5700587397803
 20
181.1762353902753
 30
0.000000000000000
 10
191.7621947662214
 20
181.3848280520328
 30
0.000000000000000
 10
191.9385063816630
 20
181.6097997675339
 30
0.000000000000000
 10
192.0976218430262
 20
181.8502076579442
 30
0.000000000000000
 10
192.2402006008675
 20
182.1072896762757
 30
0.000000000000000
 10
192.3635958755020
 20
182.3776962441286
 30
0.000000000000000
 10
192.4680831373425
 20
182.6617617701640
 30
0.000000000000000
 10
192.5518806990642
 20
182.9549103586054
 30
0.000000000000000
 10
192.6323052247162
 20
183.3328081291892
 30
0.000000000000000
 10
192.6872349128370
 20
183.7972439486654
 30
0.000000000000000
 10
192.7004873458145
 20
184.1620509615310
 30
0.000000000000000
 10
192.6986020568693
 20
184.3451358019781
 30
0.000000000000000
  0
SPLINE
  5
D5
100
AcDbEntity
  8
A11
  6
CONTINUOUS
 62
7
100
AcDbSpline
210
0.000000000000000
220
0.000000000000000
230
1.000000000000000
 70
     8
 71
     3
 72
    33
 73
    29
 74
     0
 42
1.000000000000000e-07
 43
1.000000000000000e-07
 12
-3.487629237497458e-05
 22
-0.9999999993924575
 32
0.000000000000000
 13
0.9999999680671863
 23
0.0002527143451516167
 33
0.000000000000000
 40
0.000000000000000
 40
0.000000000000000
 40
0.000000000000000
 40
0.000000000000000
 40
0.1346083344976419
 40
0.6311888057327535
 40
1.123434523327679
 40
1.621901624770197
 40
2.108575545773880
 40
2.565557634050409
 40
3.005340784302291
 40
3.440768998093576
 40
3.854234188009371
 40
4.108110846961889
 40
4.354750012964535
 40
4.602568897378682
 40
4.847777411884077
 40
5.087805114448877
 40
5.332135110570231
 40
5.593071384343823
 40
5.864531853580441
 40
6.111870216412022
 40
6.368775492925365
 40
6.642894683398437
 40
6.926131763178637
 40
7.210174590676458
 40
7.500490290534327
 40
7.803665031536814
 40
8.110166195226329
 40
8.369217431324060
 40
8.369217431324060
 40
8.369217431324060
 40
8.369217431324060
 10
180.1986020568693
 20
172.8453715032196
 30
0.000000000000000
 10
180.1986004919894
 20
172.8005020584143
 30
0.000000000000000
 10
180.1986165976408
 20
172.5901057984848
 30
0.000000000000000
 10
180.1984879086131
 20
172.2156274942529
 30
0.000000000000000
 10
180.1995289574518
 20
171.7198636633375
 30
0.000000000000000
 10
180.2034994369608
 20
171.2274098792564
 30
0.000000000000000
 10
180.2146156983096
 20
170.7468005123724
 30
0.000000000000000
 10
180.2368628079154
 20
170.2861183828270
 30
0.000000000000000
 10
180.2760068764389
 20
169.8436052388995
 30
0.000000000000000
 10
180.3394611496581
 20
169.4184129094504
 30
0.000000000000000
 10
180.4254154301743
 20
169.0602517995570
 30
0.000000000000000
 10
180.5259443567220
 20
168.7722838723729
 30
0.000000000000000
 10
180.6295078672861
 20
168.5449020385483
 30
0.000000000000000
 10
180.7555970686849
 20
168.3323966525161
 30
0.000000000000000
 10
180.9048326397761
 20
168.1381091267672
 30
0.000000000000000
 10
181.0765079294331
 20
167.9649885115599
 30
0.000000000000000
 10
181.2719689597791
 20
167.8106935178173
 30
0.000000000000000
 10
181.4932284738487
 20
167.6751583199207
 30
0.000000000000000
 10
181.7283437450130
 20
167.5633670637543
 30
0.000000000000000
 10
181.9708218594830
 20
167.4729113969169
 30
0.000000000000000
 10
182.2197370094027
 20
167.3990929535437
 30
0.000000000000000
 10
182.4842550864692
 20
167.3376458993826
 30
0.000000000000000
 10
182.7604210031179
 20
167.2881412421438
 30
0.000000000000000
 10
183.0437710757733
 20
167.2497627407590
 30
0.000000000000000
 10
183.3349224108069
 20
167.2210249433999
 30
0.000000000000000
 10
183.6343096594974
 20
167.2011640313347
 30
0.000000000000000
 10
183.9237279438400
 20
167.1905345081456
 30
0.000000000000000
 10
184.1122516475941
 20
167.1883449686047
 30
0.000000000000000
 10
184.1986020568693
 20
167.1883667905926
 30
0.000000000000000
  0
SPLINE
  5
D6
100
AcDbEntity
  8
A11
  6
CONTINUOUS
 62
7
100
AcDbSpline
210
0.000000000000000
220
0.000000000000000
230
1.000000000000000
 70
     8
 71
     3
 72
    28
 73
    24
 74
     0
 42
1.000000000000000e-07
 43
1.000000000000000e-07
 12
-0.9999992981172454
 22
0.001184805630373376
 32
0.000000000000000
 13
0.002026153930614782
 23
-0.9999979473479925
 33
0.000000000000000
 40
0.000000000000000
 40
0.000000000000000
 40
0.000000000000000
 40
0.000000000000000
 40
0.4167891900658566
 40
0.8303445828303218
 40
1.233780391184765
 40
1.624606695762392
 40
2.000620436127894
 40
2.357265609333748
 40
2.687590916638918
 40
3.003181271509704
 40
3.305925227437151
 40
3.596098717874542
 40
3.887376583334661
 40
4.183620252002330
 40
4.514707807740277
 40
4.860996275295701
 40
5.222010585105777
 40
5.676197280457653
 40
6.151026923191030
 40
6.641335314393868
 40
7.207437696415105
 40
7.785848459729136
 40
8.368387182617230
 40
8.368387182617230
 40
8.368387182617230
 40
8.368387182617230
 10
184.1986020568693
 20
204.5023762158467
 30
0.000000000000000
 10
184.0596724243597
 20
204.5025408205730
 30
0.000000000000000
 10
183.7828607616443
 20
204.4973371390356
 30
0.000000000000000
 10
183.3721508992643
 20
204.4741564605091
 30
0.000000000000000
 10
182.9714100469417
 20
204.4339102114260
 30
0.000000000000000
 10
182.5856168982233
 20
204.3746822350298
 30
0.000000000000000
 10
182.2196360779938
 20
204.2938158006550
 30
0.000000000000000
 10
181.8804371842902
 20
204.1896190308529
 30
0.000000000000000
 10
181.5723619509665
 20
204.0582978224030
 30
0.000000000000000
 10
181.2977536455776
 20
203.8997734367114
 30
0.000000000000000
 10
181.0579539039506
 20
203.7129385812269
 30
0.000000000000000
 10
180.8558354348761
 20
203.4968472898142
 30
0.000000000000000
 10
180.6886621023248
 20
203.2555843842882
 30
0.000000000000000
 10
180.5493523028152
 20
202.9819591126573
 30
0.000000000000000
 10
180.4390947831730
 20
202.6759460390329
 30
0.000000000000000
 10
180.3547471718543
 20
202.3398040439299
 30
0.000000000000000
 10
180.2900272833766
 20
201.9577918990727
 30
0.000000000000000
 10
180.2454151311422
 20
201.5298546877154
 30
0.000000000000000
 10
180.2184127665217
 20
201.0574127070144
 30
0.000000000000000
 10
180.2047904082855
 20
200.5471408069175
 30
0.000000000000000
 10
180.1989053070804
 20
200.0022200529221
 30
0.000000000000000
 10
180.1982105951401
 20
199.4265337588837
 30
0.000000000000000
 10
180.1982086191616
 20
199.0395506789325
 30
0.000000000000000
 10
180.1986020568693
 20
198.8453715032196
 30
0.000000000000000
  0
SPLINE
  5
D7
100
AcDbEntity
  8
A11
  6
CONTINUOUS
 62
7
100
AcDbSpline
210
0.000000000000000
220
0.000000000000000
230
1.000000000000000
 70
     8
 71
     3
 72
    28
 73
    24
 74
     0
 42
1.000000000000000e-07
 43
1.000000000000000e-07
 12
6.926307696630829e-05
 22
-0.9999999976007530
 32
0.000000000000000
 13
0.9999999550464054
 23
0.0002998440709234274
 33
0.000000000000000
 40
0.000000000000000
 40
0.000000000000000
 40
0.000000000000000
 40
0.000000000000000
 40
0.1346083345242348
 40
0.8047461894072967
 40
1.466886740715395
 40
2.108580939450207
 40
2.572749570729823
 40
3.021142864472732
 40
3.449262098753700
 40
3.854256553970087
 40
4.195022010529845
 40
4.524796266912369
 40
4.847329658063801
 40
5.173449549652601
 40
5.510830772602315
 40
5.863465536019645
 40
6.199998562521322
 40
6.554949858239236
 40
6.924912700100194
 40
7.309977940851664
 40
7.706679282135094
 40
8.108907236273243
 40
8.367958471810573
 40
8.367958471810573
 40
8.367958471810573
 40
8.367958471810573
 10
180.1986020568693
 20
198.8453715032196
 30
0.000000000000000
 10
180.1986051646651
 20
198.8005020584858
 30
0.000000000000000
 10
180.1986477839965
 20
198.5322532837467
 30
0.000000000000000
 10
180.1976777481246
 20
198.0432919277060
 30
0.000000000000000
 10
180.2002566772329
 20
197.3852975882178
 30
0.000000000000000
 10
180.2123310651506
 20
196.7960317677083
 30
0.000000000000000
 10
180.2371487271148
 20
196.2784613066904
 30
0.000000000000000
 10
180.2770619674789
 20
195.8331575968084
 30
0.000000000000000
 10
180.3412366386086
 20
195.4104852383584
 30
0.000000000000000
 10
180.4330155691836
 20
195.0293772750800
 30
0.000000000000000
 10
180.5563561444463
 20
194.6918533798815
 30
0.000000000000000
 10
180.7098750106471
 20
194.3973724737690
 30
0.000000000000000
 10
180.9034493051959
 20
194.1330224800407
 30
0.000000000000000
 10
181.1420556272903
 20
193.9046296466055
 30
0.000000000000000
 10
181.4220607786625
 20
193.7117816991129
 30
0.000000000000000
 10
181.7296570931495
 20
193.5594754390235
 30
0.000000000000000
 10
182.0581784444514
 20
193.4428881497024
 30
0.000000000000000
 10
182.4009170327364
 20
193.3536547357687
 30
0.000000000000000
 10
182.7648964684590
 20
193.2858478158811
 30
0.000000000000000
 10
183.1458728264844
 20
193.2371556896355
 30
0.000000000000000
 10
183.5393688313071
 20
193.2052929333687
 30
0.000000000000000
 10
183.8918206697967
 20
193.1909178463135
 30
0.000000000000000
 10
184.1122516489053
 20
193.1883408989335
 30
0.000000000000000
 10
184.1986020568693
 20
193.1883667905925
 30
0.000000000000000
  0
LINE
  5
D8
100
AcDbEntity
  8
A11
  6
CONTINUOUS
 62
7
100
AcDbLine
 10
192.6986020568693
 20
174.3454424293212
 30
0.000000000000000
 11
192.6986020568693
 21
171.3453005771179
 31
0.000000000000000
  0
LINE
  5
D9
100
AcDbEntity
  8
A11
  6
CONTINUOUS
 62
7
100
AcDbLine
 10
192.6986020568693
 20
187.3452776541815
 30
0.000000000000000
 11
192.6986020568693
 21
184.3451358019781
 31
0.000000000000000
  0
LINE
  5
DA
100
AcDbEntity
  8
A11
  6
CONTINUOUS
 62
7
100
AcDbLine
 10
192.6986020568693
 20
200.3454424293212
 30
0.000000000000000
 11
192.6986020568693
 21
197.3453005771179
 31
0.000000000000000
  0
LINE
  5
DB
100
AcDbEntity
  8
A11
  6
CONTINUOUS
 62
7
100
AcDbLine
 10
189.1986020568693
 20
180.1882020154528
 30
0.000000000000000
 11
184.1986020568693
 21
180.1882020154528
 31
0.000000000000000
  0
LINE
  5
DC
100
AcDbEntity
  8
A11
  6
CONTINUOUS
 62
7
100
AcDbLine
 10
184.1986020568693
 20
191.5022114407069
 30
0.000000000000000
 11
189.1986020568693
 21
191.5022114407069
 31
0.000000000000000
  0
LINE
  5
DD
100
AcDbEntity
  8
A11
  6
CONTINUOUS
 62
7
100
AcDbLine
 10
189.1986020568693
 20
167.1883667905925
 30
0.000000000000000
 11
184.1986020568693
 21
167.1883667905925
 31
0.000000000000000
  0
LINE
  5
DE
100
AcDbEntity
  8
A11
  6
CONTINUOUS
 62
7
100
AcDbLine
 10
184.1986020568693
 20
178.5023762158467
 30
0.000000000000000
 11
189.1986020568693
 21
178.5023762158467
 31
0.000000000000000
  0
LINE
  5
DF
100
AcDbEntity
  8
A11
  6
CONTINUOUS
 62
7
100
AcDbLine
 10
189.1986020568693
 20
193.1883667905927
 30
0.000000000000000
 11
184.1986020568693
 21
193.1883667905927
 31
0.000000000000000
  0
LINE
  5
E0
100
AcDbEntity
  8
A11
  6
CONTINUOUS
 62
7
100
AcDbLine
 10
184.1986020568693
 20
204.5023762158467
 30
0.000000000000000
 11
189.1986020568693
 21
204.5023762158467
 31
0.000000000000000
  0
LINE
  5
E1
100
AcDbEntity
  8
A9
  6
DASHED
 62
4
100
AcDbLine
 10
194.1040684450327
 20
187.9940406212573
 30
0.000000000000000
 11
181.2494927096290
 21
202.0223483989419
 31
0.000000000000000
  0
ARC
  5
E2
100
AcDbEntity
  8
A9
  6
DASHED
 62
4
100
AcDbCircle
 10
184.1986020568692
 20
204.7247092294044
 30
0.000000000000000
 40
4.000000000000000
100
AcDbArc
 50
180.0000000000000
 51
222.5000000000005
  0
LINE
  5
E3
100
AcDbEntity
  8
A9
  6
DASHED
 62
4
100
AcDbLine
 10
196.6986020568694
 20
187.3452210364885
 30
0.000000000000000
 11
195.5786231186528
 21
187.3452210364885
 31
0.000000000000000
  0
ARC
  5
E4
100
AcDbEntity
  8
A9
  6
DASHED
 62
4
100
AcDbCircle
 10
195.5786231186528
 20
189.3452210364885
 30
0.000000000000000
 40
2.000000000000000
100
AcDbArc
 50
222.5000000000004
 51
269.9999999999996
  0
LINE
  5
E5
100
AcDbEntity
  8
A6
  6
CONTINUOUS
 62
7
100
AcDbLine
 10
50.00000000000598
 20
264.4297641389539
 30
0.000000000000000
 11
75.50000000006851
 21
264.4297641389539
 31
0.000000000000000
  0
LINE
  5
E6
100
AcDbEntity
  8
A6
  6
CONTINUOUS
 62
7
100
AcDbLine
 10
49.50000000000598
 20
263.4297641389539
 30
0.000000000000000
 11
149.4999999999048
 21
263.4297641389539
 31
0.000000000000000
  0
LINE
  5
E7
100
AcDbEntity
  8
A6
  6
CONTINUOUS
 62
7
100
AcDbLine
 10
123.4999999998416
 20
264.4297641389539
 30
0.000000000000000
 11
148.9999999999048
 21
264.4297641389539
 31
0.000000000000000
  0
LINE
  5
E8
100
AcDbEntity
  8
A8
  6
CONTINUOUS
 62
7
100
AcDbLine
 10
123.4999999998362
 20
50.00000000000000
 30
0.000000000000000
 11
148.9999999998988
 21
50.00000000000000
 31
0.000000000000000
  0
LINE
  5
E9
100
AcDbEntity
  8
A8
  6
CONTINUOUS
 62
7
100
AcDbLine
 10
49.50000000000000
 20
51.00000000000000
 30
0.000000000000000
 11
149.4999999998988
 21
51.00000000000000
 31
0.000000000000000
  0
LINE
  5
EA
100
AcDbEntity
  8
A8
  6
CONTINUOUS
 62
7
100
AcDbLine
 10
50.00000000000000
 20
50.00000000000000
 30
0.000000000000000
 11
75.50000000006321
 21
50.00000000000000
 31
0.000000000000000
  0
LINE
  5
EB
100
AcDbEntity
  8
A8
  6
CONTINUOUS
 62
7
100
AcDbLine
 10
53.50000000000006
 20
67.49999999999989
 30
0.000000000000000
 11
145.4999999998988
 21
67.49999999999989
 31
0.000000000000000
  0
LINE
  5
EC
100
AcDbEntity
  8
A6
  6
CONTINUOUS
 62
7
100
AcDbLine
 10
53.50000000000598
 20
246.9297641389541
 30
0.000000000000000
 11
145.4999999999048
 21
246.9297641389541
 31
0.000000000000000
  0
LINE
  5
ED
100
AcDbEntity
  8
A5
  6
CONTINUOUS
 62
7
100
AcDbLine
 10
196.6986020568693
 20
113.8452210365489
 30
0.000000000000000
 11
196.6986020568693
 21
213.8452210365510
 31
0.000000000000000
  0
LINE
  5
EE
100
AcDbEntity
  8
A5
  6
CONTINUOUS
 62
7
100
AcDbLine
 10
197.6986020568693
 20
114.3452210365489
 30
0.000000000000000
 11
197.6986020568693
 21
213.3452210365510
 31
0.000000000000000
  0
LINE
  5
EF
100
AcDbEntity
  8
A5
  6
CONTINUOUS
 62
7
100
AcDbLine
 10
182.1986020568694
 20
113.8452210365489
 30
0.000000000000000
 11
196.1986020568693
 21
113.8452210365489
 31
0.000000000000000
  0
LINE
  5
F0
100
AcDbEntity
  8
A5
  6
CONTINUOUS
 62
7
100
AcDbLine
 10
180.1986020568694
 20
115.8452210365489
 30
0.000000000000000
 11
180.1986020568694
 21
209.8452210365510
 31
0.000000000000000
  0
LINE
  5
F1
100
AcDbEntity
  8
A7
  6
CONTINUOUS
 62
7
100
AcDbLine
 10
229.1351718113226
 20
115.8452210365489
 30
0.000000000000000
 11
229.1351718113226
 21
209.8452210365510
 31
0.000000000000000
  0
LINE
  5
F2
100
AcDbEntity
  8
A7
  6
CONTINUOUS
 62
7
100
AcDbLine
 10
255.6351718113850
 20
115.8452210365488
 30
0.000000000000000
 11
255.6351718113856
 21
211.3452210365510
 31
0.000000000000000
  0
LINE
  5
F3
100
AcDbEntity
  8
A7
  6
CONTINUOUS
 62
7
100
AcDbLine
 10
231.1351718113226
 20
113.8452210365489
 30
0.000000000000000
 11
253.6351718113850
 21
113.8452210365489
 31
0.000000000000000
  0
LINE
  5
F4
100
AcDbEntity
  8
A7
  6
CONTINUOUS
 62
7
100
AcDbLine
 10
233.1351718113226
 20
213.8452210365510
 30
0.000000000000000
 11
325.1351718112213
 21
213.8452210365510
 31
0.000000000000000
  0
LINE
  5
F5
100
AcDbEntity
  8
A7
  6
CONTINUOUS
 62
7
100
AcDbLine
 10
329.1351718112211
 20
115.8452210365489
 30
0.000000000000000
 11
329.1351718112213
 21
209.8452210365510
 31
0.000000000000000
  0
LINE
  5
F6
100
AcDbEntity
  8
A7
  6
CONTINUOUS
 62
7
100
AcDbLine
 10
304.6351718112014
 20
113.8452210365489
 30
0.000000000000000
 11
327.1351718112212
 21
113.8452210365489
 31
0.000000000000000
  0
LINE
  5
F7
100
AcDbEntity
  8
A7
  6
CONTINUOUS
 62
7
100
AcDbLine
 10
302.6351718112015
 20
115.8452210365489
 30
0.000000000000000
 11
302.6351718111583
 21
211.3452210365511
 31
0.000000000000000
  0
LINE
  5
F8
100
AcDbEntity
  8
A10
  6
CENTER
 62
1
100
AcDbLine
 10
99.49999999992377
 20
243.9297641389541
 30
0.000000000000000
 11
99.49999999991935
 21
267.4297641389437
 31
0.000000000000000
  0
LINE
  5
F9
100
AcDbEntity
  8
A7
  6
CENTER
 62
1
100
AcDbLine
 10
279.1351718113012
 20
216.8452210365510
 30
0.000000000000000
 11
279.1351718113012
 21
110.8452210365488
 31
0.000000000000000
  0
LINE
  5
FA
100
AcDbEntity
  8
A10
  6
CONTINUOUS
 62
7
100
AcDbLine
 10
60.17602673452625
 20
115.8452210365489
 30
0.000000000000000
 11
60.17602673452625
 21
199.1691943020620
 31
0.000000000000000
  0
ARC
  5
FB
100
AcDbEntity
  8
A10
  6
CONTINUOUS
 62
7
100
AcDbCircle
 10
64.17602673452625
 20
199.1691943020620
 30
0.000000000000000
 40
4.000000000000000
100
AcDbArc
 50
90.00000000000000
 51
180.0000000000000
  0
LINE
  5
FC
100
AcDbEntity
  8
A10
  6
CONTINUOUS
 62
7
100
AcDbLine
 10
134.8239732653333
 20
203.1691943020620
 30
0.000000000000000
 11
64.17602673452625
 21
203.1691943020620
 31
0.000000000000000
  0
LINE
  5
FD
100
AcDbEntity
  8
A10
  6
CONTINUOUS
 62
7
100
AcDbLine
 10
136.5917402183014
 20
200.9369612550266
 30
0.000000000000000
 11
122.8890872963719
 21
187.2343083330756
 31
0.000000000000000
  0
LINE
  5
FE
100
AcDbEntity
  8
A10
  6
CONTINUOUS
 62
7
100
AcDbLine
 10
138.8239732653334
 20
115.8452210365492
 30
0.000000000000000
 11
138.8239732653333
 21
199.1691943020621
 31
0.000000000000000
  0
ARC
  5
FF
100
AcDbEntity
  8
A10
  6
CONTINUOUS
 62
7
100
AcDbCircle
 10
134.8239732653333
 20
199.1691943020620
 30
0.000000000000000
 40
4.000000000000000
100
AcDbArc
 50
0.000000000000000
 51
90.00000000000000
  0
LINE
  5
100
100
AcDbEntity
  8
A10
  6
CONTINUOUS
 62
7
100
AcDbLine
 10
62.40825978155829
 20
200.9369612550266
 30
0.000000000000000
 11
76.11091270348786
 21
187.2343083330756
 31
0.000000000000000
  0
LINE
  5
101
100
AcDbEntity
  8
A10
  6
CENTER
 62
1
100
AcDbLine
 10
99.49999999991329
 20
46.99999999998069
 30
0.000000000000000
 11
99.49999999992117
 21
77.58914130055649
 31
0.000000000000000
  0
LINE
  5
102
100
AcDbEntity
  8
A7
  6
CONTINUOUS
 62
7
100
AcDbLine
 10
262.1351718113100
 20
191.3452210365510
 30
0.000000000000000
 11
296.1351718113100
 21
191.3452210365510
 31
0.000000000000000
  0
LINE
  5
103
100
AcDbEntity
  8
A7
  6
CONTINUOUS
 62
7
100
AcDbLine
 10
296.1351718113100
 20
211.3452210365510
 30
0.000000000000000
 11
262.1351718113100
 21
211.3452210365510
 31
0.000000000000000
  0
LINE
  5
104
100
AcDbEntity
  8
A7
  6
CONTINUOUS
 62
7
100
AcDbLine
 10
262.1351718113100
 20
189.9543806177857
 30
0.000000000000000
 11
296.1351718113100
 21
189.9543806177857
 31
0.000000000000000
  0
LINE
  5
105
100
AcDbEntity
  8
A7
  6
CONTINUOUS
 62
7
100
AcDbLine
 10
296.1351718113100
 20
189.8452210365496
 30
0.000000000000000
 11
262.1351718113100
 21
189.8452210365496
 31
0.000000000000000
  0
LINE
  5
106
100
AcDbEntity
  8
A7
  6
CONTINUOUS
 62
7
100
AcDbLine
 10
260.6351718113100
 20
211.3452210365510
 30
0.000000000000000
 11
260.6351718113100
 21
189.8452210365496
 31
0.000000000000000
  0
LINE
  5
107
100
AcDbEntity
  8
A7
  6
CONTINUOUS
 62
7
100
AcDbLine
 10
297.6351718113100
 20
189.8452210365496
 30
0.000000000000000
 11
297.6351718113100
 21
211.3452210365510
 31
0.000000000000000
  0
LINE
  5
108
100
AcDbEntity
  8
A10
  6
CONTINUOUS
 62
7
100
AcDbLine
 10
276.0775441649454
 20
213.8452210365510
 30
0.000000000000000
 11
276.0775441649450
 21
211.3452210365506
 31
0.000000000000000
  0
LINE
  5
109
100
AcDbEntity
  8
A10
  6
CONTINUOUS
 62
7
100
AcDbLine
 10
282.1927994576590
 20
213.8452210365510
 30
0.000000000000000
 11
282.1927994576593
 21
211.3452210365505
 31
0.000000000000000
  0
LINE
  5
10A
100
AcDbEntity
  8
A7
  6
CONTINUOUS
 62
7
100
AcDbLine
 10
262.1351718113100
 20
189.8452210365496
 30
0.000000000000000
 11
262.1351718113100
 21
211.3452210365510
 31
0.000000000000000
  0
LINE
  5
10B
100
AcDbEntity
  8
A7
  6
CONTINUOUS
 62
7
100
AcDbLine
 10
296.1351718113100
 20
189.8452210365496
 30
0.000000000000000
 11
296.1351718113100
 21
211.3452210365510
 31
0.000000000000000
  0
LINE
  5
10C
100
AcDbEntity
  8
A6
  6
CONTINUOUS
 62
7
100
AcDbLine
 10
82.49999999992606
 20
264.4297641389539
 30
0.000000000000000
 11
116.4999999999261
 21
264.4297641389539
 31
0.000000000000000
  0
LINE
  5
10D
100
AcDbEntity
  8
A6
  6
CONTINUOUS
 62
7
100
AcDbLine
 10
82.49999999992606
 20
264.4297641389539
 30
0.000000000000000
 11
82.49999999992606
 21
263.4297641389539
 31
0.000000000000000
  0
LINE
  5
10E
100
AcDbEntity
  8
A6
  6
CONTINUOUS
 62
7
100
AcDbLine
 10
116.4999999999261
 20
264.4297641389539
 30
0.000000000000000
 11
116.4999999999261
 21
263.4297641389539
 31
0.000000000000000
  0
LINE
  5
10F
100
AcDbEntity
  8
A8
  6
CONTINUOUS
 62
7
100
AcDbLine
 10
116.4999999999201
 20
50.00000000000000
 30
0.000000000000000
 11
82.49999999992013
 21
50.00000000000000
 31
0.000000000000000
  0
LINE
  5
110
100
AcDbEntity
  8
A8
  6
CONTINUOUS
 62
7
100
AcDbLine
 10
82.49999999992013
 20
50.00000000000000
 30
0.000000000000000
 11
82.49999999992013
 21
51.00000000000000
 31
0.000000000000000
  0
LINE
  5
111
100
AcDbEntity
  8
A8
  6
CONTINUOUS
 62
7
100
AcDbLine
 10
116.4999999999201
 20
50.00000000000000
 30
0.000000000000000
 11
116.4999999999201
 21
51.00000000000000
 31
0.000000000000000
  0
LINE
  5
112
100
AcDbEntity
  8
A6
  6
CONTINUOUS
 62
7
100
AcDbLine
 10
102.4374999999340
 20
262.4297641389539
 30
0.000000000000000
 11
96.56249999993399
 21
262.4297641389539
 31
0.000000000000000
  0
LINE
  5
113
100
AcDbEntity
  8
A6
  6
CONTINUOUS
 62
7
100
AcDbLine
 10
102.4444664305298
 20
262.5297904661524
 30
0.000000000000000
 11
96.55553356933818
 21
262.5297904661524
 31
0.000000000000000
  0
ENDSEC
  0
SECTION
  2
OBJECTS
  0
DICTIONARY
  5
142
100
AcDbDictionary
  3
ACAD_GROUP
350
143
  3
ACAD_LAYOUT
350
144
  3
ACAD_MLINESTYLE
350
145
  0
DICTIONARY
  5
143
102
{ACAD_REACTORS
330
142
102
}
330
142
100
AcDbDictionary
  0
DICTIONARY
  5
144
102
{ACAD_REACTORS
330
142
102
}
330
142
100
AcDbDictionary
  3
Model
350
146
  3
ﾚｲｱｳﾄ1
350
147
  3
ﾚｲｱｳﾄ2
350
148
  0
DICTIONARY
  5
145
102
{ACAD_REACTORS
330
142
102
}
330
142
100
AcDbDictionary
  3
STANDARD
350
149
  0
LAYOUT
  5
146
102
{ACAD_REACTORS
330
144
102
}
330
144
100
AcDbPlotSettings
 70
11952
  4
A3
 44
297.000000
 45
420.000000
 73
  1
 72
  1
100
AcDbLayout
  1
Model
 71
0
330
139
  0
LAYOUT
  5
147
102
{ACAD_REACTORS
330
144
102
}
330
144
100
AcDbPlotSettings
100
AcDbLayout
  1
ﾚｲｱｳﾄ1
 71
1
330
13A
  0
LAYOUT
  5
148
102
{ACAD_REACTORS
330
144
102
}
330
144
100
AcDbPlotSettings
100
AcDbLayout
  1
ﾚｲｱｳﾄ2
 71
2
330
13B
  0
MLINESTYLE
  5
149
102
{ACAD_REACTORS
330
145
102
}
330
145
100
AcDbMlineStyle
  2
STANDARD
 70
     0
  3

 62
   256
 51
90.00
 52
90.00
 71
     2
 49
0.50
 62
   256
  6
BYLAYER
 49
-0.50
 62
   256
  6
BYLAYER
  0
ENDSEC
  0
EOF
