ISO-10303-21;
HEADER;
FILE_DESCRIPTION (( 'STEP AP214' ),
    '1' );
FILE_NAME ('TM_339_10_10.STEP',
    '2016-05-09T04:32:51',
    ( '' ),
    ( '' ),
    'SwSTEP 2.0',
    'SolidWorks 2015',
    '' );
FILE_SCHEMA (( 'AUTOMOTIVE_DESIGN' ));
ENDSEC;

DATA;
#1 = AXIS2_PLACEMENT_3D ( 'NONE', #30, #128, #105 ) ;
#2 = PRODUCT_DEFINITION_SHAPE ( 'NONE', 'NONE',  #194 ) ;
#3 = VECTOR ( 'NONE', #130, 1000.000000000000000 ) ;
#4 = CONTEXT_DEPENDENT_SHAPE_REPRESENTATION ( #146, #37 ) ;
#5 = PRODUCT_DEFINITION_FORMATION_WITH_SPECIFIED_SOURCE ( 'ANY', '', #41, .NOT_KNOWN. ) ;
#6 = DIRECTION ( 'NONE',  ( -1.000000000000000000, 0.0000000000000000000, 0.0000000000000000000 ) ) ;
#7 = ORIENTED_EDGE ( 'NONE', *, *, #117, .T. ) ;
#8 = DIRECTION ( 'NONE',  ( 0.0000000000000000000, 0.0000000000000000000, 1.000000000000000000 ) ) ;
#9 = PLANE ( 'NONE',  #152 ) ;
#10 = CARTESIAN_POINT ( 'NONE',  ( 0.0000000000000000000, 0.0000000000000000000, 10.00000000000000000 ) ) ;
#11 = LINE ( 'NONE', #45, #3 ) ;
#12 = CARTESIAN_POINT ( 'NONE',  ( 0.0000000000000000000, 200.0000000000000000, 10.00000000000000000 ) ) ;
#13 = SURFACE_STYLE_USAGE ( .BOTH. , #106 ) ;
#14 = UNCERTAINTY_MEASURE_WITH_UNIT (LENGTH_MEASURE( 1.000000000000000100E-005 ), #110, 'distance_accuracy_value', 'NONE');
#15 =( NAMED_UNIT ( * ) SI_UNIT ( $, .STERADIAN. ) SOLID_ANGLE_UNIT ( ) );
#16 = ORIENTED_EDGE ( 'NONE', *, *, #24, .T. ) ;
#17 = DIRECTION ( 'NONE',  ( 0.0000000000000000000, 0.0000000000000000000, 1.000000000000000000 ) ) ;
#18 = DIRECTION ( 'NONE',  ( 0.0000000000000000000, -1.000000000000000000, 0.0000000000000000000 ) ) ;
#19 = DIRECTION ( 'NONE',  ( 1.000000000000000000, 0.0000000000000000000, 0.0000000000000000000 ) ) ;
#20 = AXIS2_PLACEMENT_3D ( 'NONE', #131, #200, #33 ) ;
#21 = CARTESIAN_POINT ( 'NONE',  ( 0.0000000000000000000, 0.0000000000000000000, 0.0000000000000000000 ) ) ;
#22 = LINE ( 'NONE', #47, #68 ) ;
#23 = CARTESIAN_POINT ( 'NONE',  ( 0.0000000000000000000, 200.0000000000000000, 0.0000000000000000000 ) ) ;
#24 = EDGE_CURVE ( 'NONE', #195, #176, #120, .T. ) ;
#25 = ORIENTED_EDGE ( 'NONE', *, *, #71, .T. ) ;
#26 = PRODUCT_RELATED_PRODUCT_CATEGORY ( 'part', '', ( #41 ) ) ;
#27 = VECTOR ( 'NONE', #73, 1000.000000000000000 ) ;
#28 = SURFACE_STYLE_FILL_AREA ( #96 ) ;
#29 =( LENGTH_UNIT ( ) NAMED_UNIT ( * ) SI_UNIT ( .MILLI., .METRE. ) );
#30 = CARTESIAN_POINT ( 'NONE',  ( 10.00000000000000000, 1000.000000000000000, 0.0000000000000000000 ) ) ;
#31 = ITEM_DEFINED_TRANSFORMATION ( 'NONE', 'NONE', #150,  #66 ) ;
#32 = CARTESIAN_POINT ( 'NONE',  ( 0.0000000000000000000, 0.0000000000000000000, 0.0000000000000000000 ) ) ;
#33 = DIRECTION ( 'NONE',  ( 1.000000000000000000, 0.0000000000000000000, 0.0000000000000000000 ) ) ;
#34 = VECTOR ( 'NONE', #113, 1000.000000000000000 ) ;
#35 = DIRECTION ( 'NONE',  ( 1.000000000000000000, 0.0000000000000000000, 0.0000000000000000000 ) ) ;
#36 = PLANE ( 'NONE',  #1 ) ;
#37 = PRODUCT_DEFINITION_SHAPE ( 'NONE', 'NONE',  #239 ) ;
#38 = SURFACE_SIDE_STYLE ('',( #28 ) ) ;
#39 = STYLED_ITEM ( 'NONE', ( #181 ), #125 ) ;
#40 = SHAPE_REPRESENTATION ( 'TM_339_10_10', ( #179, #150 ), #165 ) ;
#41 = PRODUCT ( 'rubber foam', 'rubber foam', '', ( #139 ) ) ;
#42 =( NAMED_UNIT ( * ) PLANE_ANGLE_UNIT ( ) SI_UNIT ( $, .RADIAN. ) );
#43 = ORIENTED_EDGE ( 'NONE', *, *, #229, .F. ) ;
#44 = DIRECTION ( 'NONE',  ( 1.000000000000000000, -0.0000000000000000000, -0.0000000000000000000 ) ) ;
#45 = CARTESIAN_POINT ( 'NONE',  ( 0.0000000000000000000, 1000.000000000000000, 10.00000000000000000 ) ) ;
#46 = SURFACE_STYLE_FILL_AREA ( #168 ) ;
#47 = CARTESIAN_POINT ( 'NONE',  ( 0.0000000000000000000, 0.0000000000000000000, 0.0000000000000000000 ) ) ;
#48 = PLANE ( 'NONE',  #220 ) ;
#49 = PRESENTATION_LAYER_ASSIGNMENT (  '', '', ( #39 ) ) ;
#50 = DIRECTION ( 'NONE',  ( 0.0000000000000000000, -1.000000000000000000, 0.0000000000000000000 ) ) ;
#51 = STYLED_ITEM ( 'NONE', ( #180 ), #158 ) ;
#52 = CARTESIAN_POINT ( 'NONE',  ( 10.00000000000000000, 200.0000000000000000, 0.0000000000000000000 ) ) ;
#53 = ORIENTED_EDGE ( 'NONE', *, *, #81, .T. ) ;
#54 = DIRECTION ( 'NONE',  ( -0.0000000000000000000, -0.0000000000000000000, -1.000000000000000000 ) ) ;
#55 = EDGE_CURVE ( 'NONE', #151, #134, #80, .T. ) ;
#56 = COLOUR_RGB ( '',0.7921568627450980000, 0.8196078431372548800, 0.9333333333333333500 ) ;
#57 = EDGE_LOOP ( 'NONE', ( #129, #209, #114, #202 ) ) ;
#58 = ORIENTED_EDGE ( 'NONE', *, *, #81, .F. ) ;
#59 = SHAPE_REPRESENTATION_RELATIONSHIP ( 'NONE' , 'NONE' ,  #126, #158 ) ;
#60 =( GEOMETRIC_REPRESENTATION_CONTEXT ( 3 ) GLOBAL_UNCERTAINTY_ASSIGNED_CONTEXT ( ( #14 ) ) GLOBAL_UNIT_ASSIGNED_CONTEXT ( ( #110, #42, #15 ) ) REPRESENTATION_CONTEXT ( 'NONE', 'WORKASPACE' ) );
#61 = PRODUCT ( 'TM_339_10_10', 'TM_339_10_10', '', ( #203 ) ) ;
#62 = VERTEX_POINT ( 'NONE', #121 ) ;
#63 = PRESENTATION_LAYER_ASSIGNMENT (  '', '', ( #51 ) ) ;
#64 = CARTESIAN_POINT ( 'NONE',  ( 10.00000000000000000, 0.0000000000000000000, 10.00000000000000000 ) ) ;
#65 = CARTESIAN_POINT ( 'NONE',  ( 0.0000000000000000000, 1000.000000000000000, 10.00000000000000000 ) ) ;
#66 = AXIS2_PLACEMENT_3D ( 'NONE', #21, #8, #19 ) ;
#67 = MECHANICAL_DESIGN_GEOMETRIC_PRESENTATION_REPRESENTATION (  '', ( #51 ), #118 ) ;
#68 = VECTOR ( 'NONE', #44, 1000.000000000000000 ) ;
#69 = APPLICATION_PROTOCOL_DEFINITION ( 'draft international standard', 'automotive_design', 1998, #133 ) ;
#70 = VECTOR ( 'NONE', #18, 1000.000000000000000 ) ;
#71 = EDGE_CURVE ( 'NONE', #207, #176, #22, .T. ) ;
#72 = APPLICATION_CONTEXT ( 'automotive_design' ) ;
#73 = DIRECTION ( 'NONE',  ( 1.000000000000000000, -0.0000000000000000000, -0.0000000000000000000 ) ) ;
#74 = ORIENTED_EDGE ( 'NONE', *, *, #140, .T. ) ;
#75 = CARTESIAN_POINT ( 'NONE',  ( 10.00000000000000000, 0.0000000000000000000, 0.0000000000000000000 ) ) ;
#76 = PLANE ( 'NONE',  #99 ) ;
#77 =( NAMED_UNIT ( * ) PLANE_ANGLE_UNIT ( ) SI_UNIT ( $, .RADIAN. ) );
#78 = ORIENTED_EDGE ( 'NONE', *, *, #185, .T. ) ;
#79 = PRODUCT_DEFINITION_CONTEXT ( 'detailed design', #160, 'design' ) ;
#80 = LINE ( 'NONE', #186, #111 ) ;
#81 = EDGE_CURVE ( 'NONE', #176, #151, #102, .T. ) ;
#82 = EDGE_CURVE ( 'NONE', #161, #134, #11, .T. ) ;
#83 = CARTESIAN_POINT ( 'NONE',  ( 0.0000000000000000000, 0.0000000000000000000, 0.0000000000000000000 ) ) ;
#84 = DIRECTION ( 'NONE',  ( 0.0000000000000000000, 0.0000000000000000000, -1.000000000000000000 ) ) ;
#85 = FACE_OUTER_BOUND ( 'NONE', #57, .T. ) ;
#86 = CARTESIAN_POINT ( 'NONE',  ( 0.0000000000000000000, 200.0000000000000000, 0.0000000000000000000 ) ) ;
#87 = PLANE ( 'NONE',  #20 ) ;
#88 = VECTOR ( 'NONE', #198, 1000.000000000000000 ) ;
#89 = DIRECTION ( 'NONE',  ( 1.000000000000000000, 0.0000000000000000000, 0.0000000000000000000 ) ) ;
#90 = COLOUR_RGB ( '',0.7921568627450980000, 0.8196078431372548800, 0.9333333333333333500 ) ;
#91 = DIRECTION ( 'NONE',  ( 1.000000000000000000, 0.0000000000000000000, 0.0000000000000000000 ) ) ;
#92 = CLOSED_SHELL ( 'NONE', ( #197, #144, #166, #157, #159, #154 ) ) ;
#93 = FACE_OUTER_BOUND ( 'NONE', #174, .T. ) ;
#94 = DIRECTION ( 'NONE',  ( 0.0000000000000000000, 0.0000000000000000000, 1.000000000000000000 ) ) ;
#95 = APPLICATION_PROTOCOL_DEFINITION ( 'draft international standard', 'automotive_design', 1998, #192 ) ;
#96 = FILL_AREA_STYLE ('',( #104 ) ) ;
#97 = ORIENTED_EDGE ( 'NONE', *, *, #140, .F. ) ;
#98 = VECTOR ( 'NONE', #201, 1000.000000000000000 ) ;
#99 = AXIS2_PLACEMENT_3D ( 'NONE', #86, #136, #89 ) ;
#100 = ORIENTED_EDGE ( 'NONE', *, *, #117, .F. ) ;
#101 =( GEOMETRIC_REPRESENTATION_CONTEXT ( 3 ) GLOBAL_UNCERTAINTY_ASSIGNED_CONTEXT ( ( #173 ) ) GLOBAL_UNIT_ASSIGNED_CONTEXT ( ( #231, #236, #164 ) ) REPRESENTATION_CONTEXT ( 'NONE', 'WORKASPACE' ) );
#102 = LINE ( 'NONE', #75, #34 ) ;
#103 = DIRECTION ( 'NONE',  ( -1.000000000000000000, -0.0000000000000000000, -0.0000000000000000000 ) ) ;
#104 = FILL_AREA_STYLE_COLOUR ( '', #90 ) ;
#105 = DIRECTION ( 'NONE',  ( 0.0000000000000000000, 0.0000000000000000000, -1.000000000000000000 ) ) ;
#106 = SURFACE_SIDE_STYLE ('',( #46 ) ) ;
#107 = CARTESIAN_POINT ( 'NONE',  ( 0.0000000000000000000, 0.0000000000000000000, 0.0000000000000000000 ) ) ;
#108 = ORIENTED_EDGE ( 'NONE', *, *, #148, .F. ) ;
#109 = CARTESIAN_POINT ( 'NONE',  ( 0.0000000000000000000, 0.0000000000000000000, 0.0000000000000000000 ) ) ;
#110 =( LENGTH_UNIT ( ) NAMED_UNIT ( * ) SI_UNIT ( .MILLI., .METRE. ) );
#111 = VECTOR ( 'NONE', #103, 1000.000000000000000 ) ;
#112 = FACE_OUTER_BOUND ( 'NONE', #205, .T. ) ;
#113 = DIRECTION ( 'NONE',  ( -0.0000000000000000000, -0.0000000000000000000, 1.000000000000000000 ) ) ;
#114 = ORIENTED_EDGE ( 'NONE', *, *, #148, .T. ) ;
#115 = VERTEX_POINT ( 'NONE', #143 ) ;
#116 = FACE_OUTER_BOUND ( 'NONE', #169, .T. ) ;
#117 = EDGE_CURVE ( 'NONE', #195, #62, #149, .T. ) ;
#118 =( GEOMETRIC_REPRESENTATION_CONTEXT ( 3 ) GLOBAL_UNCERTAINTY_ASSIGNED_CONTEXT ( ( #223 ) ) GLOBAL_UNIT_ASSIGNED_CONTEXT ( ( #230, #77, #124 ) ) REPRESENTATION_CONTEXT ( 'NONE', 'WORKASPACE' ) );
#119 = ORIENTED_EDGE ( 'NONE', *, *, #24, .F. ) ;
#120 = LINE ( 'NONE', #138, #204 ) ;
#121 = CARTESIAN_POINT ( 'NONE',  ( 10.00000000000000000, 200.0000000000000000, 10.00000000000000000 ) ) ;
#122 = CARTESIAN_POINT ( 'NONE',  ( 10.00000000000000000, 1000.000000000000000, 10.00000000000000000 ) ) ;
#123 = SURFACE_STYLE_USAGE ( .BOTH. , #38 ) ;
#124 =( NAMED_UNIT ( * ) SI_UNIT ( $, .STERADIAN. ) SOLID_ANGLE_UNIT ( ) );
#125 = MANIFOLD_SOLID_BREP ( '²ÝÎß°Ä1', #92 ) ;
#126 = SHAPE_REPRESENTATION ( 'rubber foam', ( #66 ), #101 ) ;
#127 = CARTESIAN_POINT ( 'NONE',  ( 0.0000000000000000000, 1000.000000000000000, 0.0000000000000000000 ) ) ;
#128 = DIRECTION ( 'NONE',  ( 1.000000000000000000, 0.0000000000000000000, 0.0000000000000000000 ) ) ;
#129 = ORIENTED_EDGE ( 'NONE', *, *, #162, .F. ) ;
#130 = DIRECTION ( 'NONE',  ( 0.0000000000000000000, -1.000000000000000000, 0.0000000000000000000 ) ) ;
#131 = CARTESIAN_POINT ( 'NONE',  ( 0.0000000000000000000, 0.0000000000000000000, 0.0000000000000000000 ) ) ;
#132 = AXIS2_PLACEMENT_3D ( 'NONE', #83, #218, #35 ) ;
#133 = APPLICATION_CONTEXT ( 'automotive_design' ) ;
#134 = VERTEX_POINT ( 'NONE', #10 ) ;
#135 = UNCERTAINTY_MEASURE_WITH_UNIT (LENGTH_MEASURE( 1.000000000000000100E-005 ), #29, 'distance_accuracy_value', 'NONE');
#136 = DIRECTION ( 'NONE',  ( -0.0000000000000000000, 1.000000000000000000, 0.0000000000000000000 ) ) ;
#137 = PRODUCT_DEFINITION_CONTEXT ( 'detailed design', #72, 'design' ) ;
#138 = CARTESIAN_POINT ( 'NONE',  ( 10.00000000000000000, 1000.000000000000000, 0.0000000000000000000 ) ) ;
#139 = PRODUCT_CONTEXT ( 'NONE', #133, 'mechanical' ) ;
#140 = EDGE_CURVE ( 'NONE', #62, #151, #196, .T. ) ;
#141 = CARTESIAN_POINT ( 'NONE',  ( 10.00000000000000000, 200.0000000000000000, 0.0000000000000000000 ) ) ;
#142 = APPLICATION_PROTOCOL_DEFINITION ( 'draft international standard', 'automotive_design', 1998, #160 ) ;
#143 = CARTESIAN_POINT ( 'NONE',  ( 0.0000000000000000000, 200.0000000000000000, 0.0000000000000000000 ) ) ;
#144 = ADVANCED_FACE ( 'NONE', ( #206 ), #36, .T. ) ;
#145 = ORIENTED_EDGE ( 'NONE', *, *, #55, .F. ) ;
#146 =( REPRESENTATION_RELATIONSHIP ('NONE','NONE', #40, #126 ) REPRESENTATION_RELATIONSHIP_WITH_TRANSFORMATION ( #31 )SHAPE_REPRESENTATION_RELATIONSHIP( ) );
#147 = FACE_OUTER_BOUND ( 'NONE', #238, .T. ) ;
#148 = EDGE_CURVE ( 'NONE', #161, #115, #232, .T. ) ;
#149 = LINE ( 'NONE', #52, #98 ) ;
#150 = AXIS2_PLACEMENT_3D ( 'NONE', #187, #184, #156 ) ;
#151 = VERTEX_POINT ( 'NONE', #64 ) ;
#152 = AXIS2_PLACEMENT_3D ( 'NONE', #191, #226, #213 ) ;
#153 = ORIENTED_EDGE ( 'NONE', *, *, #162, .T. ) ;
#154 = ADVANCED_FACE ( 'NONE', ( #116 ), #87, .F. ) ;
#155 = ORIENTED_EDGE ( 'NONE', *, *, #229, .T. ) ;
#156 = DIRECTION ( 'NONE',  ( 1.000000000000000000, 0.0000000000000000000, 0.0000000000000000000 ) ) ;
#157 = ADVANCED_FACE ( 'NONE', ( #85 ), #48, .T. ) ;
#158 = ADVANCED_BREP_SHAPE_REPRESENTATION ( '', ( #125, #66 ), #101 ) ;
#159 = ADVANCED_FACE ( 'NONE', ( #112 ), #76, .T. ) ;
#160 = APPLICATION_CONTEXT ( 'automotive_design' ) ;
#161 = VERTEX_POINT ( 'NONE', #12 ) ;
#162 = EDGE_CURVE ( 'NONE', #134, #207, #171, .T. ) ;
#163 = CARTESIAN_POINT ( 'NONE',  ( 10.00000000000000000, 0.0000000000000000000, 0.0000000000000000000 ) ) ;
#164 =( NAMED_UNIT ( * ) SI_UNIT ( $, .STERADIAN. ) SOLID_ANGLE_UNIT ( ) );
#165 =( GEOMETRIC_REPRESENTATION_CONTEXT ( 3 ) GLOBAL_UNCERTAINTY_ASSIGNED_CONTEXT ( ( #135 ) ) GLOBAL_UNIT_ASSIGNED_CONTEXT ( ( #29, #193, #188 ) ) REPRESENTATION_CONTEXT ( 'NONE', 'WORKASPACE' ) );
#166 = ADVANCED_FACE ( 'NONE', ( #93 ), #9, .T. ) ;
#167 = ORIENTED_EDGE ( 'NONE', *, *, #225, .F. ) ;
#168 = FILL_AREA_STYLE ('',( #189 ) ) ;
#169 = EDGE_LOOP ( 'NONE', ( #25, #53, #227, #153 ) ) ;
#170 = DIRECTION ( 'NONE',  ( -0.0000000000000000000, -0.0000000000000000000, -1.000000000000000000 ) ) ;
#171 = LINE ( 'NONE', #109, #177 ) ;
#172 = CARTESIAN_POINT ( 'NONE',  ( 0.0000000000000000000, 200.0000000000000000, 10.00000000000000000 ) ) ;
#173 = UNCERTAINTY_MEASURE_WITH_UNIT (LENGTH_MEASURE( 1.000000000000000100E-005 ), #231, 'distance_accuracy_value', 'NONE');
#174 = EDGE_LOOP ( 'NONE', ( #145, #97, #78, #199 ) ) ;
#175 = LINE ( 'NONE', #233, #27 ) ;
#176 = VERTEX_POINT ( 'NONE', #163 ) ;
#177 = VECTOR ( 'NONE', #54, 1000.000000000000000 ) ;
#178 = PRODUCT_DEFINITION_SHAPE ( 'NONE', 'NONE',  #208 ) ;
#179 = AXIS2_PLACEMENT_3D ( 'NONE', #107, #17, #91 ) ;
#180 = PRESENTATION_STYLE_ASSIGNMENT (( #123 ) ) ;
#181 = PRESENTATION_STYLE_ASSIGNMENT (( #13 ) ) ;
#182 = LINE ( 'NONE', #127, #70 ) ;
#183 = DIRECTION ( 'NONE',  ( 0.0000000000000000000, -1.000000000000000000, 0.0000000000000000000 ) ) ;
#184 = DIRECTION ( 'NONE',  ( 0.0000000000000000000, 0.0000000000000000000, 1.000000000000000000 ) ) ;
#185 = EDGE_CURVE ( 'NONE', #62, #161, #217, .T. ) ;
#186 = CARTESIAN_POINT ( 'NONE',  ( 0.0000000000000000000, 0.0000000000000000000, 10.00000000000000000 ) ) ;
#187 = CARTESIAN_POINT ( 'NONE',  ( 0.0000000000000000000, 0.0000000000000000000, 0.0000000000000000000 ) ) ;
#188 =( NAMED_UNIT ( * ) SI_UNIT ( $, .STERADIAN. ) SOLID_ANGLE_UNIT ( ) );
#189 = FILL_AREA_STYLE_COLOUR ( '', #56 ) ;
#190 = ORIENTED_EDGE ( 'NONE', *, *, #185, .F. ) ;
#191 = CARTESIAN_POINT ( 'NONE',  ( 10.00000000000000000, 1000.000000000000000, 10.00000000000000000 ) ) ;
#192 = APPLICATION_CONTEXT ( 'automotive_design' ) ;
#193 =( NAMED_UNIT ( * ) PLANE_ANGLE_UNIT ( ) SI_UNIT ( $, .RADIAN. ) );
#194 = PRODUCT_DEFINITION ( 'UNKNOWN', '', #5, #79 ) ;
#195 = VERTEX_POINT ( 'NONE', #141 ) ;
#196 = LINE ( 'NONE', #122, #228 ) ;
#197 = ADVANCED_FACE ( 'NONE', ( #147 ), #211, .T. ) ;
#198 = DIRECTION ( 'NONE',  ( -1.000000000000000000, -0.0000000000000000000, -0.0000000000000000000 ) ) ;
#199 = ORIENTED_EDGE ( 'NONE', *, *, #82, .T. ) ;
#200 = DIRECTION ( 'NONE',  ( -0.0000000000000000000, 1.000000000000000000, 0.0000000000000000000 ) ) ;
#201 = DIRECTION ( 'NONE',  ( -0.0000000000000000000, -0.0000000000000000000, 1.000000000000000000 ) ) ;
#202 = ORIENTED_EDGE ( 'NONE', *, *, #225, .T. ) ;
#203 = PRODUCT_CONTEXT ( 'NONE', #192, 'mechanical' ) ;
#204 = VECTOR ( 'NONE', #183, 1000.000000000000000 ) ;
#205 = EDGE_LOOP ( 'NONE', ( #43, #108, #190, #100 ) ) ;
#206 = FACE_OUTER_BOUND ( 'NONE', #212, .T. ) ;
#207 = VERTEX_POINT ( 'NONE', #32 ) ;
#208 = PRODUCT_DEFINITION ( 'UNKNOWN', '', #219, #137 ) ;
#209 = ORIENTED_EDGE ( 'NONE', *, *, #82, .F. ) ;
#210 = SHAPE_DEFINITION_REPRESENTATION ( #178, #40 ) ;
#211 = PLANE ( 'NONE',  #216 ) ;
#212 = EDGE_LOOP ( 'NONE', ( #58, #119, #7, #74 ) ) ;
#213 = DIRECTION ( 'NONE',  ( 1.000000000000000000, 0.0000000000000000000, 0.0000000000000000000 ) ) ;
#214 = APPLICATION_PROTOCOL_DEFINITION ( 'draft international standard', 'automotive_design', 1998, #72 ) ;
#215 = CARTESIAN_POINT ( 'NONE',  ( 0.0000000000000000000, 1000.000000000000000, 0.0000000000000000000 ) ) ;
#216 = AXIS2_PLACEMENT_3D ( 'NONE', #215, #84, #237 ) ;
#217 = LINE ( 'NONE', #172, #88 ) ;
#218 = DIRECTION ( 'NONE',  ( 0.0000000000000000000, 0.0000000000000000000, 1.000000000000000000 ) ) ;
#219 = PRODUCT_DEFINITION_FORMATION_WITH_SPECIFIED_SOURCE ( 'ANY', '', #61, .NOT_KNOWN. ) ;
#220 = AXIS2_PLACEMENT_3D ( 'NONE', #65, #6, #94 ) ;
#221 = VECTOR ( 'NONE', #170, 1000.000000000000000 ) ;
#222 = SHAPE_DEFINITION_REPRESENTATION ( #2, #126 ) ;
#223 = UNCERTAINTY_MEASURE_WITH_UNIT (LENGTH_MEASURE( 1.000000000000000100E-005 ), #230, 'distance_accuracy_value', 'NONE');
#224 = MECHANICAL_DESIGN_GEOMETRIC_PRESENTATION_REPRESENTATION (  '', ( #39 ), #60 ) ;
#225 = EDGE_CURVE ( 'NONE', #115, #207, #182, .T. ) ;
#226 = DIRECTION ( 'NONE',  ( 0.0000000000000000000, 0.0000000000000000000, 1.000000000000000000 ) ) ;
#227 = ORIENTED_EDGE ( 'NONE', *, *, #55, .T. ) ;
#228 = VECTOR ( 'NONE', #50, 1000.000000000000000 ) ;
#229 = EDGE_CURVE ( 'NONE', #115, #195, #175, .T. ) ;
#230 =( LENGTH_UNIT ( ) NAMED_UNIT ( * ) SI_UNIT ( .MILLI., .METRE. ) );
#231 =( LENGTH_UNIT ( ) NAMED_UNIT ( * ) SI_UNIT ( .MILLI., .METRE. ) );
#232 = LINE ( 'NONE', #23, #221 ) ;
#233 = CARTESIAN_POINT ( 'NONE',  ( 0.0000000000000000000, 200.0000000000000000, 0.0000000000000000000 ) ) ;
#234 = PRODUCT_RELATED_PRODUCT_CATEGORY ( 'part', '', ( #61 ) ) ;
#235 = ORIENTED_EDGE ( 'NONE', *, *, #71, .F. ) ;
#236 =( NAMED_UNIT ( * ) PLANE_ANGLE_UNIT ( ) SI_UNIT ( $, .RADIAN. ) );
#237 = DIRECTION ( 'NONE',  ( -1.000000000000000000, 0.0000000000000000000, 0.0000000000000000000 ) ) ;
#238 = EDGE_LOOP ( 'NONE', ( #235, #167, #155, #16 ) ) ;
#239 = NEXT_ASSEMBLY_USAGE_OCCURRENCE ( 'NAUO1', ' ', ' ', #208, #194, $ ) ;
ENDSEC;
END-ISO-10303-21;
