ISO-10303-21;
HEADER;
FILE_DESCRIPTION (( 'STEP AP214' ),
    '1' );
FILE_NAME ('TM_339_20_10.STEP',
    '2016-05-09T04:45:52',
    ( '' ),
    ( '' ),
    'SwSTEP 2.0',
    'SolidWorks 2015',
    '' );
FILE_SCHEMA (( 'AUTOMOTIVE_DESIGN' ));
ENDSEC;

DATA;
#1 = DIRECTION ( 'NONE',  ( -1.000000000000000000, -0.0000000000000000000, -0.0000000000000000000 ) ) ;
#2 = DIRECTION ( 'NONE',  ( 0.0000000000000000000, 0.0000000000000000000, -1.000000000000000000 ) ) ;
#3 = ORIENTED_EDGE ( 'NONE', *, *, #68, .F. ) ;
#4 = VERTEX_POINT ( 'NONE', #147 ) ;
#5 = CARTESIAN_POINT ( 'NONE',  ( 10.00000000000000000, 0.0000000000000000000, 0.0000000000000000000 ) ) ;
#6 =( LENGTH_UNIT ( ) NAMED_UNIT ( * ) SI_UNIT ( .MILLI., .METRE. ) );
#7 = ADVANCED_BREP_SHAPE_REPRESENTATION ( '', ( #56, #233 ), #145 ) ;
#8 = LINE ( 'NONE', #206, #75 ) ;
#9 = ADVANCED_FACE ( 'NONE', ( #35 ), #101, .T. ) ;
#10 = ORIENTED_EDGE ( 'NONE', *, *, #76, .F. ) ;
#11 = PRODUCT_DEFINITION_SHAPE ( 'NONE', 'NONE',  #39 ) ;
#12 = APPLICATION_CONTEXT ( 'automotive_design' ) ;
#13 = ORIENTED_EDGE ( 'NONE', *, *, #105, .F. ) ;
#14 = ORIENTED_EDGE ( 'NONE', *, *, #42, .F. ) ;
#15 = PRODUCT_DEFINITION_CONTEXT ( 'detailed design', #162, 'design' ) ;
#16 = CARTESIAN_POINT ( 'NONE',  ( 0.0000000000000000000, 200.0000000000000000, 20.00000000000000000 ) ) ;
#17 = ORIENTED_EDGE ( 'NONE', *, *, #32, .T. ) ;
#18 = DIRECTION ( 'NONE',  ( -0.0000000000000000000, 1.000000000000000000, 0.0000000000000000000 ) ) ;
#19 = UNCERTAINTY_MEASURE_WITH_UNIT (LENGTH_MEASURE( 1.000000000000000100E-005 ), #6, 'distance_accuracy_value', 'NONE');
#20 = LINE ( 'NONE', #46, #175 ) ;
#21 = CARTESIAN_POINT ( 'NONE',  ( 0.0000000000000000000, 200.0000000000000000, 20.00000000000000000 ) ) ;
#22 = VERTEX_POINT ( 'NONE', #168 ) ;
#23 = LINE ( 'NONE', #51, #238 ) ;
#24 = APPLICATION_PROTOCOL_DEFINITION ( 'draft international standard', 'automotive_design', 1998, #162 ) ;
#25 = CONTEXT_DEPENDENT_SHAPE_REPRESENTATION ( #26, #157 ) ;
#26 =( REPRESENTATION_RELATIONSHIP ('NONE','NONE', #121, #117 ) REPRESENTATION_RELATIONSHIP_WITH_TRANSFORMATION ( #60 )SHAPE_REPRESENTATION_RELATIONSHIP( ) );
#27 = PRODUCT_DEFINITION_FORMATION_WITH_SPECIFIED_SOURCE ( 'ANY', '', #146, .NOT_KNOWN. ) ;
#28 = DIRECTION ( 'NONE',  ( 1.000000000000000000, 0.0000000000000000000, 0.0000000000000000000 ) ) ;
#29 = LINE ( 'NONE', #67, #167 ) ;
#30 = ORIENTED_EDGE ( 'NONE', *, *, #95, .T. ) ;
#31 = DIRECTION ( 'NONE',  ( 0.0000000000000000000, -1.000000000000000000, 0.0000000000000000000 ) ) ;
#32 = EDGE_CURVE ( 'NONE', #230, #38, #208, .T. ) ;
#33 = PRESENTATION_LAYER_ASSIGNMENT (  '', '', ( #135 ) ) ;
#34 = ORIENTED_EDGE ( 'NONE', *, *, #125, .F. ) ;
#35 = FACE_OUTER_BOUND ( 'NONE', #210, .T. ) ;
#36 = COLOUR_RGB ( '',0.7921568627450980000, 0.8196078431372548800, 0.9333333333333333500 ) ;
#37 = VECTOR ( 'NONE', #204, 1000.000000000000000 ) ;
#38 = VERTEX_POINT ( 'NONE', #185 ) ;
#39 = PRODUCT_DEFINITION ( 'UNKNOWN', '', #27, #15 ) ;
#40 = LINE ( 'NONE', #78, #92 ) ;
#41 = EDGE_LOOP ( 'NONE', ( #178, #55, #209, #17 ) ) ;
#42 = EDGE_CURVE ( 'NONE', #22, #230, #23, .T. ) ;
#43 = APPLICATION_CONTEXT ( 'automotive_design' ) ;
#44 =( NAMED_UNIT ( * ) PLANE_ANGLE_UNIT ( ) SI_UNIT ( $, .RADIAN. ) );
#45 = SHAPE_DEFINITION_REPRESENTATION ( #11, #117 ) ;
#46 = CARTESIAN_POINT ( 'NONE',  ( 10.00000000000000000, 1000.000000000000000, 20.00000000000000000 ) ) ;
#47 = CARTESIAN_POINT ( 'NONE',  ( 0.0000000000000000000, 200.0000000000000000, 0.0000000000000000000 ) ) ;
#48 = DIRECTION ( 'NONE',  ( -0.0000000000000000000, -0.0000000000000000000, 1.000000000000000000 ) ) ;
#49 = DIRECTION ( 'NONE',  ( 0.0000000000000000000, 0.0000000000000000000, -1.000000000000000000 ) ) ;
#50 = CARTESIAN_POINT ( 'NONE',  ( 0.0000000000000000000, 0.0000000000000000000, 0.0000000000000000000 ) ) ;
#51 = CARTESIAN_POINT ( 'NONE',  ( 0.0000000000000000000, 1000.000000000000000, 0.0000000000000000000 ) ) ;
#52 = EDGE_CURVE ( 'NONE', #96, #22, #8, .T. ) ;
#53 = DIRECTION ( 'NONE',  ( 1.000000000000000000, 0.0000000000000000000, 0.0000000000000000000 ) ) ;
#54 = ORIENTED_EDGE ( 'NONE', *, *, #42, .T. ) ;
#55 = ORIENTED_EDGE ( 'NONE', *, *, #83, .T. ) ;
#56 = MANIFOLD_SOLID_BREP ( '²ÝÎß°Ä1', #192 ) ;
#57 = FACE_OUTER_BOUND ( 'NONE', #224, .T. ) ;
#58 = APPLICATION_CONTEXT ( 'automotive_design' ) ;
#59 = PRODUCT_CONTEXT ( 'NONE', #58, 'mechanical' ) ;
#60 = ITEM_DEFINED_TRANSFORMATION ( 'NONE', 'NONE', #183,  #233 ) ;
#61 = DIRECTION ( 'NONE',  ( 0.0000000000000000000, -1.000000000000000000, 0.0000000000000000000 ) ) ;
#62 = FACE_OUTER_BOUND ( 'NONE', #41, .T. ) ;
#63 = PRODUCT ( 'TM_339_20_10', 'TM_339_20_10', '', ( #100 ) ) ;
#64 = EDGE_CURVE ( 'NONE', #201, #4, #20, .T. ) ;
#65 = CARTESIAN_POINT ( 'NONE',  ( 10.00000000000000000, 200.0000000000000000, 20.00000000000000000 ) ) ;
#66 = FILL_AREA_STYLE_COLOUR ( '', #219 ) ;
#67 = CARTESIAN_POINT ( 'NONE',  ( 10.00000000000000000, 200.0000000000000000, 0.0000000000000000000 ) ) ;
#68 = EDGE_CURVE ( 'NONE', #22, #170, #69, .T. ) ;
#69 = LINE ( 'NONE', #188, #226 ) ;
#70 = SURFACE_STYLE_USAGE ( .BOTH. , #134 ) ;
#71 = AXIS2_PLACEMENT_3D ( 'NONE', #225, #177, #191 ) ;
#72 = VECTOR ( 'NONE', #189, 1000.000000000000000 ) ;
#73 = ORIENTED_EDGE ( 'NONE', *, *, #64, .F. ) ;
#74 = ORIENTED_EDGE ( 'NONE', *, *, #83, .F. ) ;
#75 = VECTOR ( 'NONE', #203, 1000.000000000000000 ) ;
#76 = EDGE_CURVE ( 'NONE', #201, #96, #214, .T. ) ;
#77 = APPLICATION_PROTOCOL_DEFINITION ( 'draft international standard', 'automotive_design', 1998, #43 ) ;
#78 = CARTESIAN_POINT ( 'NONE',  ( 10.00000000000000000, 1000.000000000000000, 0.0000000000000000000 ) ) ;
#79 = FILL_AREA_STYLE_COLOUR ( '', #36 ) ;
#80 = PRODUCT_DEFINITION_FORMATION_WITH_SPECIFIED_SOURCE ( 'ANY', '', #63, .NOT_KNOWN. ) ;
#81 = DIRECTION ( 'NONE',  ( 1.000000000000000000, 0.0000000000000000000, 0.0000000000000000000 ) ) ;
#82 = VERTEX_POINT ( 'NONE', #236 ) ;
#83 = EDGE_CURVE ( 'NONE', #4, #82, #202, .T. ) ;
#84 = SURFACE_STYLE_FILL_AREA ( #196 ) ;
#85 = DIRECTION ( 'NONE',  ( -1.000000000000000000, 0.0000000000000000000, 0.0000000000000000000 ) ) ;
#86 = UNCERTAINTY_MEASURE_WITH_UNIT (LENGTH_MEASURE( 1.000000000000000100E-005 ), #123, 'distance_accuracy_value', 'NONE');
#87 =( NAMED_UNIT ( * ) SI_UNIT ( $, .STERADIAN. ) SOLID_ANGLE_UNIT ( ) );
#88 = DIRECTION ( 'NONE',  ( 0.0000000000000000000, 0.0000000000000000000, 1.000000000000000000 ) ) ;
#89 = CARTESIAN_POINT ( 'NONE',  ( 0.0000000000000000000, 1000.000000000000000, 20.00000000000000000 ) ) ;
#90 = ORIENTED_EDGE ( 'NONE', *, *, #95, .F. ) ;
#91 = AXIS2_PLACEMENT_3D ( 'NONE', #207, #94, #81 ) ;
#92 = VECTOR ( 'NONE', #180, 1000.000000000000000 ) ;
#93 =( GEOMETRIC_REPRESENTATION_CONTEXT ( 3 ) GLOBAL_UNCERTAINTY_ASSIGNED_CONTEXT ( ( #19 ) ) GLOBAL_UNIT_ASSIGNED_CONTEXT ( ( #6, #187, #141 ) ) REPRESENTATION_CONTEXT ( 'NONE', 'WORKASPACE' ) );
#94 = DIRECTION ( 'NONE',  ( -0.0000000000000000000, 1.000000000000000000, 0.0000000000000000000 ) ) ;
#95 = EDGE_CURVE ( 'NONE', #170, #38, #40, .T. ) ;
#96 = VERTEX_POINT ( 'NONE', #16 ) ;
#97 = FACE_OUTER_BOUND ( 'NONE', #160, .T. ) ;
#98 = AXIS2_PLACEMENT_3D ( 'NONE', #114, #228, #200 ) ;
#99 =( LENGTH_UNIT ( ) NAMED_UNIT ( * ) SI_UNIT ( .MILLI., .METRE. ) );
#100 = PRODUCT_CONTEXT ( 'NONE', #43, 'mechanical' ) ;
#101 = PLANE ( 'NONE',  #148 ) ;
#102 = LINE ( 'NONE', #5, #182 ) ;
#103 = UNCERTAINTY_MEASURE_WITH_UNIT (LENGTH_MEASURE( 1.000000000000000100E-005 ), #99, 'distance_accuracy_value', 'NONE');
#104 = DIRECTION ( 'NONE',  ( 1.000000000000000000, 0.0000000000000000000, 0.0000000000000000000 ) ) ;
#105 = EDGE_CURVE ( 'NONE', #38, #4, #102, .T. ) ;
#106 = DIRECTION ( 'NONE',  ( 0.0000000000000000000, -1.000000000000000000, 0.0000000000000000000 ) ) ;
#107 = ORIENTED_EDGE ( 'NONE', *, *, #52, .F. ) ;
#108 =( NAMED_UNIT ( * ) PLANE_ANGLE_UNIT ( ) SI_UNIT ( $, .RADIAN. ) );
#109 = FILL_AREA_STYLE ('',( #66 ) ) ;
#110 = EDGE_LOOP ( 'NONE', ( #139, #3, #107, #10 ) ) ;
#111 = PLANE ( 'NONE',  #98 ) ;
#112 = PRODUCT_RELATED_PRODUCT_CATEGORY ( 'part', '', ( #63 ) ) ;
#113 = EDGE_CURVE ( 'NONE', #170, #201, #29, .T. ) ;
#114 = CARTESIAN_POINT ( 'NONE',  ( 0.0000000000000000000, 1000.000000000000000, 20.00000000000000000 ) ) ;
#115 = LINE ( 'NONE', #89, #176 ) ;
#116 = PRODUCT_DEFINITION_CONTEXT ( 'detailed design', #12, 'design' ) ;
#117 = SHAPE_REPRESENTATION ( 'rubber foam', ( #233 ), #145 ) ;
#118 = AXIS2_PLACEMENT_3D ( 'NONE', #143, #154, #49 ) ;
#119 = ORIENTED_EDGE ( 'NONE', *, *, #138, .F. ) ;
#120 = APPLICATION_PROTOCOL_DEFINITION ( 'draft international standard', 'automotive_design', 1998, #12 ) ;
#121 = SHAPE_REPRESENTATION ( 'TM_339_20_10', ( #71, #183 ), #217 ) ;
#122 = CARTESIAN_POINT ( 'NONE',  ( 0.0000000000000000000, 0.0000000000000000000, 0.0000000000000000000 ) ) ;
#123 =( LENGTH_UNIT ( ) NAMED_UNIT ( * ) SI_UNIT ( .MILLI., .METRE. ) );
#124 = ADVANCED_FACE ( 'NONE', ( #62 ), #166, .F. ) ;
#125 = EDGE_CURVE ( 'NONE', #82, #230, #156, .T. ) ;
#126 = ORIENTED_EDGE ( 'NONE', *, *, #68, .T. ) ;
#127 = SURFACE_SIDE_STYLE ('',( #84 ) ) ;
#128 =( NAMED_UNIT ( * ) PLANE_ANGLE_UNIT ( ) SI_UNIT ( $, .RADIAN. ) );
#129 = CARTESIAN_POINT ( 'NONE',  ( 0.0000000000000000000, 0.0000000000000000000, 0.0000000000000000000 ) ) ;
#130 =( LENGTH_UNIT ( ) NAMED_UNIT ( * ) SI_UNIT ( .MILLI., .METRE. ) );
#131 = CARTESIAN_POINT ( 'NONE',  ( 0.0000000000000000000, 1000.000000000000000, 0.0000000000000000000 ) ) ;
#132 = PRESENTATION_STYLE_ASSIGNMENT (( #169 ) ) ;
#133 = PRESENTATION_STYLE_ASSIGNMENT (( #70 ) ) ;
#134 = SURFACE_SIDE_STYLE ('',( #232 ) ) ;
#135 = STYLED_ITEM ( 'NONE', ( #133 ), #56 ) ;
#136 = ORIENTED_EDGE ( 'NONE', *, *, #113, .T. ) ;
#137 = MECHANICAL_DESIGN_GEOMETRIC_PRESENTATION_REPRESENTATION (  '', ( #135 ), #155 ) ;
#138 = EDGE_CURVE ( 'NONE', #96, #82, #115, .T. ) ;
#139 = ORIENTED_EDGE ( 'NONE', *, *, #113, .F. ) ;
#140 = DIRECTION ( 'NONE',  ( 0.0000000000000000000, 0.0000000000000000000, 1.000000000000000000 ) ) ;
#141 =( NAMED_UNIT ( * ) SI_UNIT ( $, .STERADIAN. ) SOLID_ANGLE_UNIT ( ) );
#142 = PRODUCT_RELATED_PRODUCT_CATEGORY ( 'part', '', ( #146 ) ) ;
#143 = CARTESIAN_POINT ( 'NONE',  ( 10.00000000000000000, 1000.000000000000000, 0.0000000000000000000 ) ) ;
#144 = PRODUCT_DEFINITION_SHAPE ( 'NONE', 'NONE',  #213 ) ;
#145 =( GEOMETRIC_REPRESENTATION_CONTEXT ( 3 ) GLOBAL_UNCERTAINTY_ASSIGNED_CONTEXT ( ( #212 ) ) GLOBAL_UNIT_ASSIGNED_CONTEXT ( ( #130, #108, #198 ) ) REPRESENTATION_CONTEXT ( 'NONE', 'WORKASPACE' ) );
#146 = PRODUCT ( 'rubber foam', 'rubber foam', '', ( #59 ) ) ;
#147 = CARTESIAN_POINT ( 'NONE',  ( 10.00000000000000000, 0.0000000000000000000, 20.00000000000000000 ) ) ;
#148 = AXIS2_PLACEMENT_3D ( 'NONE', #131, #2, #85 ) ;
#149 = DIRECTION ( 'NONE',  ( -1.000000000000000000, -0.0000000000000000000, -0.0000000000000000000 ) ) ;
#150 = ORIENTED_EDGE ( 'NONE', *, *, #76, .T. ) ;
#151 = VECTOR ( 'NONE', #1, 1000.000000000000000 ) ;
#152 = CARTESIAN_POINT ( 'NONE',  ( 0.0000000000000000000, 0.0000000000000000000, 0.0000000000000000000 ) ) ;
#153 = VECTOR ( 'NONE', #149, 1000.000000000000000 ) ;
#154 = DIRECTION ( 'NONE',  ( 1.000000000000000000, 0.0000000000000000000, 0.0000000000000000000 ) ) ;
#155 =( GEOMETRIC_REPRESENTATION_CONTEXT ( 3 ) GLOBAL_UNCERTAINTY_ASSIGNED_CONTEXT ( ( #86 ) ) GLOBAL_UNIT_ASSIGNED_CONTEXT ( ( #123, #128, #87 ) ) REPRESENTATION_CONTEXT ( 'NONE', 'WORKASPACE' ) );
#156 = LINE ( 'NONE', #152, #37 ) ;
#157 = PRODUCT_DEFINITION_SHAPE ( 'NONE', 'NONE',  #239 ) ;
#158 = AXIS2_PLACEMENT_3D ( 'NONE', #122, #235, #215 ) ;
#159 = AXIS2_PLACEMENT_3D ( 'NONE', #47, #18, #104 ) ;
#160 = EDGE_LOOP ( 'NONE', ( #13, #90, #136, #163 ) ) ;
#161 = PRESENTATION_LAYER_ASSIGNMENT (  '', '', ( #181 ) ) ;
#162 = APPLICATION_CONTEXT ( 'automotive_design' ) ;
#163 = ORIENTED_EDGE ( 'NONE', *, *, #64, .T. ) ;
#164 =( NAMED_UNIT ( * ) SI_UNIT ( $, .STERADIAN. ) SOLID_ANGLE_UNIT ( ) );
#165 = DIRECTION ( 'NONE',  ( 1.000000000000000000, -0.0000000000000000000, -0.0000000000000000000 ) ) ;
#166 = PLANE ( 'NONE',  #91 ) ;
#167 = VECTOR ( 'NONE', #218, 1000.000000000000000 ) ;
#168 = CARTESIAN_POINT ( 'NONE',  ( 0.0000000000000000000, 200.0000000000000000, 0.0000000000000000000 ) ) ;
#169 = SURFACE_STYLE_USAGE ( .BOTH. , #127 ) ;
#170 = VERTEX_POINT ( 'NONE', #229 ) ;
#171 = DIRECTION ( 'NONE',  ( 0.0000000000000000000, 0.0000000000000000000, 1.000000000000000000 ) ) ;
#172 = PLANE ( 'NONE',  #118 ) ;
#173 = ADVANCED_FACE ( 'NONE', ( #223 ), #179, .T. ) ;
#174 = ADVANCED_FACE ( 'NONE', ( #57 ), #111, .T. ) ;
#175 = VECTOR ( 'NONE', #61, 1000.000000000000000 ) ;
#176 = VECTOR ( 'NONE', #31, 1000.000000000000000 ) ;
#177 = DIRECTION ( 'NONE',  ( 0.0000000000000000000, 0.0000000000000000000, 1.000000000000000000 ) ) ;
#178 = ORIENTED_EDGE ( 'NONE', *, *, #105, .T. ) ;
#179 = PLANE ( 'NONE',  #159 ) ;
#180 = DIRECTION ( 'NONE',  ( 0.0000000000000000000, -1.000000000000000000, 0.0000000000000000000 ) ) ;
#181 = STYLED_ITEM ( 'NONE', ( #132 ), #7 ) ;
#182 = VECTOR ( 'NONE', #48, 1000.000000000000000 ) ;
#183 = AXIS2_PLACEMENT_3D ( 'NONE', #234, #140, #216 ) ;
#184 = EDGE_LOOP ( 'NONE', ( #74, #73, #150, #195 ) ) ;
#185 = CARTESIAN_POINT ( 'NONE',  ( 10.00000000000000000, 0.0000000000000000000, 0.0000000000000000000 ) ) ;
#186 = ORIENTED_EDGE ( 'NONE', *, *, #52, .T. ) ;
#187 =( NAMED_UNIT ( * ) PLANE_ANGLE_UNIT ( ) SI_UNIT ( $, .RADIAN. ) );
#188 = CARTESIAN_POINT ( 'NONE',  ( 0.0000000000000000000, 200.0000000000000000, 0.0000000000000000000 ) ) ;
#189 = DIRECTION ( 'NONE',  ( 1.000000000000000000, -0.0000000000000000000, -0.0000000000000000000 ) ) ;
#190 = ADVANCED_FACE ( 'NONE', ( #211 ), #199, .T. ) ;
#191 = DIRECTION ( 'NONE',  ( 1.000000000000000000, 0.0000000000000000000, 0.0000000000000000000 ) ) ;
#192 = CLOSED_SHELL ( 'NONE', ( #197, #190, #174, #9, #173, #124 ) ) ;
#193 = APPLICATION_PROTOCOL_DEFINITION ( 'draft international standard', 'automotive_design', 1998, #58 ) ;
#194 = SHAPE_DEFINITION_REPRESENTATION ( #144, #121 ) ;
#195 = ORIENTED_EDGE ( 'NONE', *, *, #138, .T. ) ;
#196 = FILL_AREA_STYLE ('',( #79 ) ) ;
#197 = ADVANCED_FACE ( 'NONE', ( #97 ), #172, .T. ) ;
#198 =( NAMED_UNIT ( * ) SI_UNIT ( $, .STERADIAN. ) SOLID_ANGLE_UNIT ( ) );
#199 = PLANE ( 'NONE',  #221 ) ;
#200 = DIRECTION ( 'NONE',  ( 0.0000000000000000000, 0.0000000000000000000, 1.000000000000000000 ) ) ;
#201 = VERTEX_POINT ( 'NONE', #65 ) ;
#202 = LINE ( 'NONE', #227, #151 ) ;
#203 = DIRECTION ( 'NONE',  ( -0.0000000000000000000, -0.0000000000000000000, -1.000000000000000000 ) ) ;
#204 = DIRECTION ( 'NONE',  ( -0.0000000000000000000, -0.0000000000000000000, -1.000000000000000000 ) ) ;
#205 = MECHANICAL_DESIGN_GEOMETRIC_PRESENTATION_REPRESENTATION (  '', ( #181 ), #93 ) ;
#206 = CARTESIAN_POINT ( 'NONE',  ( 0.0000000000000000000, 200.0000000000000000, 0.0000000000000000000 ) ) ;
#207 = CARTESIAN_POINT ( 'NONE',  ( 0.0000000000000000000, 0.0000000000000000000, 0.0000000000000000000 ) ) ;
#208 = LINE ( 'NONE', #222, #72 ) ;
#209 = ORIENTED_EDGE ( 'NONE', *, *, #125, .T. ) ;
#210 = EDGE_LOOP ( 'NONE', ( #231, #14, #126, #30 ) ) ;
#211 = FACE_OUTER_BOUND ( 'NONE', #184, .T. ) ;
#212 = UNCERTAINTY_MEASURE_WITH_UNIT (LENGTH_MEASURE( 1.000000000000000100E-005 ), #130, 'distance_accuracy_value', 'NONE');
#213 = PRODUCT_DEFINITION ( 'UNKNOWN', '', #80, #116 ) ;
#214 = LINE ( 'NONE', #21, #153 ) ;
#215 = DIRECTION ( 'NONE',  ( 1.000000000000000000, 0.0000000000000000000, 0.0000000000000000000 ) ) ;
#216 = DIRECTION ( 'NONE',  ( 1.000000000000000000, 0.0000000000000000000, 0.0000000000000000000 ) ) ;
#217 =( GEOMETRIC_REPRESENTATION_CONTEXT ( 3 ) GLOBAL_UNCERTAINTY_ASSIGNED_CONTEXT ( ( #103 ) ) GLOBAL_UNIT_ASSIGNED_CONTEXT ( ( #99, #44, #164 ) ) REPRESENTATION_CONTEXT ( 'NONE', 'WORKASPACE' ) );
#218 = DIRECTION ( 'NONE',  ( -0.0000000000000000000, -0.0000000000000000000, 1.000000000000000000 ) ) ;
#219 = COLOUR_RGB ( '',0.7921568627450980000, 0.8196078431372548800, 0.9333333333333333500 ) ;
#220 = CARTESIAN_POINT ( 'NONE',  ( 10.00000000000000000, 1000.000000000000000, 20.00000000000000000 ) ) ;
#221 = AXIS2_PLACEMENT_3D ( 'NONE', #220, #171, #53 ) ;
#222 = CARTESIAN_POINT ( 'NONE',  ( 0.0000000000000000000, 0.0000000000000000000, 0.0000000000000000000 ) ) ;
#223 = FACE_OUTER_BOUND ( 'NONE', #110, .T. ) ;
#224 = EDGE_LOOP ( 'NONE', ( #34, #119, #186, #54 ) ) ;
#225 = CARTESIAN_POINT ( 'NONE',  ( 0.0000000000000000000, 0.0000000000000000000, 0.0000000000000000000 ) ) ;
#226 = VECTOR ( 'NONE', #165, 1000.000000000000000 ) ;
#227 = CARTESIAN_POINT ( 'NONE',  ( 0.0000000000000000000, 0.0000000000000000000, 20.00000000000000000 ) ) ;
#228 = DIRECTION ( 'NONE',  ( -1.000000000000000000, 0.0000000000000000000, 0.0000000000000000000 ) ) ;
#229 = CARTESIAN_POINT ( 'NONE',  ( 10.00000000000000000, 200.0000000000000000, 0.0000000000000000000 ) ) ;
#230 = VERTEX_POINT ( 'NONE', #50 ) ;
#231 = ORIENTED_EDGE ( 'NONE', *, *, #32, .F. ) ;
#232 = SURFACE_STYLE_FILL_AREA ( #109 ) ;
#233 = AXIS2_PLACEMENT_3D ( 'NONE', #129, #88, #28 ) ;
#234 = CARTESIAN_POINT ( 'NONE',  ( 0.0000000000000000000, 0.0000000000000000000, 0.0000000000000000000 ) ) ;
#235 = DIRECTION ( 'NONE',  ( 0.0000000000000000000, 0.0000000000000000000, 1.000000000000000000 ) ) ;
#236 = CARTESIAN_POINT ( 'NONE',  ( 0.0000000000000000000, 0.0000000000000000000, 20.00000000000000000 ) ) ;
#237 = SHAPE_REPRESENTATION_RELATIONSHIP ( 'NONE' , 'NONE' ,  #117, #7 ) ;
#238 = VECTOR ( 'NONE', #106, 1000.000000000000000 ) ;
#239 = NEXT_ASSEMBLY_USAGE_OCCURRENCE ( 'NAUO1', ' ', ' ', #213, #39, $ ) ;
ENDSEC;
END-ISO-10303-21;
