ISO-10303-21;
HEADER;
FILE_DESCRIPTION (( 'STEP AP214' ),
    '1' );
FILE_NAME ('TM_340W_11.STEP',
    '2016-05-09T07:48:24',
    ( '' ),
    ( '' ),
    'SwSTEP 2.0',
    'SolidWorks 2015',
    '' );
FILE_SCHEMA (( 'AUTOMOTIVE_DESIGN' ));
ENDSEC;

DATA;
#1 = ORIENTED_EDGE ( 'NONE', *, *, #204, .T. ) ;
#2 = EDGE_CURVE ( 'NONE', #199, #52, #48, .T. ) ;
#3 = DIRECTION ( 'NONE',  ( 1.000000000000000000, 0.0000000000000000000, 0.0000000000000000000 ) ) ;
#4 = ORIENTED_EDGE ( 'NONE', *, *, #115, .F. ) ;
#5 = PLANE ( 'NONE',  #175 ) ;
#6 = VERTEX_POINT ( 'NONE', #13 ) ;
#7 = LINE ( 'NONE', #15, #200 ) ;
#8 = ADVANCED_FACE ( 'NONE', ( #192 ), #27, .F. ) ;
#9 = PRODUCT_DEFINITION ( 'UNKNOWN', '', #71, #212 ) ;
#10 =( LENGTH_UNIT ( ) NAMED_UNIT ( * ) SI_UNIT ( .MILLI., .METRE. ) );
#11 = DIRECTION ( 'NONE',  ( 0.0000000000000000000, 0.0000000000000000000, -1.000000000000000000 ) ) ;
#12 = VECTOR ( 'NONE', #172, 1000.000000000000000 ) ;
#13 = CARTESIAN_POINT ( 'NONE',  ( 30.00000000000000000, 0.0000000000000000000, 0.0000000000000000000 ) ) ;
#14 = ORIENTED_EDGE ( 'NONE', *, *, #78, .F. ) ;
#15 = CARTESIAN_POINT ( 'NONE',  ( 30.00000000000000000, 1000.000000000000000, 0.0000000000000000000 ) ) ;
#16 = DIRECTION ( 'NONE',  ( 1.000000000000000000, 0.0000000000000000000, 0.0000000000000000000 ) ) ;
#17 = SHAPE_REPRESENTATION ( 'rubber foam', ( #226 ), #187 ) ;
#18 = MECHANICAL_DESIGN_GEOMETRIC_PRESENTATION_REPRESENTATION (  '', ( #190 ), #26 ) ;
#19 = ORIENTED_EDGE ( 'NONE', *, *, #233, .T. ) ;
#20 = VECTOR ( 'NONE', #220, 1000.000000000000000 ) ;
#21 = LINE ( 'NONE', #79, #74 ) ;
#22 = VECTOR ( 'NONE', #134, 1000.000000000000000 ) ;
#23 = SURFACE_STYLE_FILL_AREA ( #41 ) ;
#24 = DIRECTION ( 'NONE',  ( 0.0000000000000000000, 0.0000000000000000000, 1.000000000000000000 ) ) ;
#25 = ORIENTED_EDGE ( 'NONE', *, *, #233, .F. ) ;
#26 =( GEOMETRIC_REPRESENTATION_CONTEXT ( 3 ) GLOBAL_UNCERTAINTY_ASSIGNED_CONTEXT ( ( #62 ) ) GLOBAL_UNIT_ASSIGNED_CONTEXT ( ( #10, #102, #156 ) ) REPRESENTATION_CONTEXT ( 'NONE', 'WORKASPACE' ) );
#27 = PLANE ( 'NONE',  #124 ) ;
#28 = PLANE ( 'NONE',  #147 ) ;
#29 = COLOUR_RGB ( '',0.7921568627450980000, 0.8196078431372548800, 0.9333333333333333500 ) ;
#30 = CARTESIAN_POINT ( 'NONE',  ( 0.0000000000000000000, 200.0000000000000000, 10.00000000000000000 ) ) ;
#31 = CONTEXT_DEPENDENT_SHAPE_REPRESENTATION ( #168, #75 ) ;
#32 = DIRECTION ( 'NONE',  ( 1.000000000000000000, 0.0000000000000000000, 0.0000000000000000000 ) ) ;
#33 = DIRECTION ( 'NONE',  ( 0.0000000000000000000, -1.000000000000000000, 0.0000000000000000000 ) ) ;
#34 = EDGE_CURVE ( 'NONE', #35, #6, #162, .T. ) ;
#35 = VERTEX_POINT ( 'NONE', #216 ) ;
#36 = VECTOR ( 'NONE', #144, 1000.000000000000000 ) ;
#37 = COLOUR_RGB ( '',0.7921568627450980000, 0.8196078431372548800, 0.9333333333333333500 ) ;
#38 = CARTESIAN_POINT ( 'NONE',  ( 0.0000000000000000000, 0.0000000000000000000, 0.0000000000000000000 ) ) ;
#39 = LINE ( 'NONE', #96, #22 ) ;
#40 = PRODUCT_DEFINITION ( 'UNKNOWN', '', #53, #179 ) ;
#41 = FILL_AREA_STYLE ('',( #50 ) ) ;
#42 = EDGE_LOOP ( 'NONE', ( #97, #25, #223, #1 ) ) ;
#43 = FACE_OUTER_BOUND ( 'NONE', #116, .T. ) ;
#44 = VECTOR ( 'NONE', #219, 1000.000000000000000 ) ;
#45 = EDGE_CURVE ( 'NONE', #72, #104, #195, .T. ) ;
#46 = ORIENTED_EDGE ( 'NONE', *, *, #176, .F. ) ;
#47 = DIRECTION ( 'NONE',  ( 0.0000000000000000000, 0.0000000000000000000, -1.000000000000000000 ) ) ;
#48 = LINE ( 'NONE', #214, #93 ) ;
#49 = PRODUCT_DEFINITION_SHAPE ( 'NONE', 'NONE',  #40 ) ;
#50 = FILL_AREA_STYLE_COLOUR ( '', #29 ) ;
#51 = FACE_OUTER_BOUND ( 'NONE', #138, .T. ) ;
#52 = VERTEX_POINT ( 'NONE', #117 ) ;
#53 = PRODUCT_DEFINITION_FORMATION_WITH_SPECIFIED_SOURCE ( 'ANY', '', #109, .NOT_KNOWN. ) ;
#54 = DIRECTION ( 'NONE',  ( 1.000000000000000000, 0.0000000000000000000, 0.0000000000000000000 ) ) ;
#55 = ADVANCED_BREP_SHAPE_REPRESENTATION ( '', ( #133, #226 ), #187 ) ;
#56 = EDGE_LOOP ( 'NONE', ( #210, #14, #174, #121 ) ) ;
#57 = DIRECTION ( 'NONE',  ( 0.0000000000000000000, 0.0000000000000000000, 1.000000000000000000 ) ) ;
#58 = CARTESIAN_POINT ( 'NONE',  ( 30.00000000000000000, 1000.000000000000000, 10.00000000000000000 ) ) ;
#59 = ORIENTED_EDGE ( 'NONE', *, *, #140, .T. ) ;
#60 =( LENGTH_UNIT ( ) NAMED_UNIT ( * ) SI_UNIT ( .MILLI., .METRE. ) );
#61 = VERTEX_POINT ( 'NONE', #196 ) ;
#62 = UNCERTAINTY_MEASURE_WITH_UNIT (LENGTH_MEASURE( 1.000000000000000100E-005 ), #10, 'distance_accuracy_value', 'NONE');
#63 = SURFACE_STYLE_FILL_AREA ( #126 ) ;
#64 = PRODUCT_RELATED_PRODUCT_CATEGORY ( 'part', '', ( #109 ) ) ;
#65 = ADVANCED_FACE ( 'NONE', ( #100 ), #159, .F. ) ;
#66 = ORIENTED_EDGE ( 'NONE', *, *, #204, .F. ) ;
#67 = APPLICATION_PROTOCOL_DEFINITION ( 'draft international standard', 'automotive_design', 1998, #206 ) ;
#68 = DIRECTION ( 'NONE',  ( 0.0000000000000000000, 0.0000000000000000000, 1.000000000000000000 ) ) ;
#69 = EDGE_CURVE ( 'NONE', #185, #6, #7, .T. ) ;
#70 = APPLICATION_PROTOCOL_DEFINITION ( 'draft international standard', 'automotive_design', 1998, #145 ) ;
#71 = PRODUCT_DEFINITION_FORMATION_WITH_SPECIFIED_SOURCE ( 'ANY', '', #91, .NOT_KNOWN. ) ;
#72 = VERTEX_POINT ( 'NONE', #89 ) ;
#73 =( LENGTH_UNIT ( ) NAMED_UNIT ( * ) SI_UNIT ( .MILLI., .METRE. ) );
#74 = VECTOR ( 'NONE', #122, 1000.000000000000000 ) ;
#75 = PRODUCT_DEFINITION_SHAPE ( 'NONE', 'NONE',  #239 ) ;
#76 = FACE_OUTER_BOUND ( 'NONE', #56, .T. ) ;
#77 = EDGE_LOOP ( 'NONE', ( #182, #66, #203, #217 ) ) ;
#78 = EDGE_CURVE ( 'NONE', #72, #199, #161, .T. ) ;
#79 = CARTESIAN_POINT ( 'NONE',  ( 30.00000000000000000, 0.0000000000000000000, 0.0000000000000000000 ) ) ;
#80 = DIRECTION ( 'NONE',  ( -0.0000000000000000000, 1.000000000000000000, 0.0000000000000000000 ) ) ;
#81 = PRODUCT_RELATED_PRODUCT_CATEGORY ( 'part', '', ( #91 ) ) ;
#82 = CARTESIAN_POINT ( 'NONE',  ( 0.0000000000000000000, 0.0000000000000000000, 0.0000000000000000000 ) ) ;
#83 = ORIENTED_EDGE ( 'NONE', *, *, #2, .F. ) ;
#84 = CARTESIAN_POINT ( 'NONE',  ( 0.0000000000000000000, 1000.000000000000000, 10.00000000000000000 ) ) ;
#85 = LINE ( 'NONE', #86, #20 ) ;
#86 = CARTESIAN_POINT ( 'NONE',  ( 0.0000000000000000000, 200.0000000000000000, 10.00000000000000000 ) ) ;
#87 = ADVANCED_FACE ( 'NONE', ( #149 ), #5, .F. ) ;
#88 = CARTESIAN_POINT ( 'NONE',  ( 30.00000000000000000, 1000.000000000000000, 0.0000000000000000000 ) ) ;
#89 = CARTESIAN_POINT ( 'NONE',  ( 0.0000000000000000000, 200.0000000000000000, 0.0000000000000000000 ) ) ;
#90 =( NAMED_UNIT ( * ) SI_UNIT ( $, .STERADIAN. ) SOLID_ANGLE_UNIT ( ) );
#91 = PRODUCT ( 'rubber foam', 'rubber foam', '', ( #108 ) ) ;
#92 =( NAMED_UNIT ( * ) PLANE_ANGLE_UNIT ( ) SI_UNIT ( $, .RADIAN. ) );
#93 = VECTOR ( 'NONE', #158, 1000.000000000000000 ) ;
#94 = SHAPE_REPRESENTATION ( 'TM_340W_11', ( #238, #213 ), #225 ) ;
#95 = UNCERTAINTY_MEASURE_WITH_UNIT (LENGTH_MEASURE( 1.000000000000000100E-005 ), #73, 'distance_accuracy_value', 'NONE');
#96 = CARTESIAN_POINT ( 'NONE',  ( 0.0000000000000000000, 1000.000000000000000, 10.00000000000000000 ) ) ;
#97 = ORIENTED_EDGE ( 'NONE', *, *, #176, .T. ) ;
#98 = CARTESIAN_POINT ( 'NONE',  ( 0.0000000000000000000, 0.0000000000000000000, 0.0000000000000000000 ) ) ;
#99 = CARTESIAN_POINT ( 'NONE',  ( 0.0000000000000000000, 1000.000000000000000, 0.0000000000000000000 ) ) ;
#100 = FACE_OUTER_BOUND ( 'NONE', #230, .T. ) ;
#101 = AXIS2_PLACEMENT_3D ( 'NONE', #118, #237, #54 ) ;
#102 =( NAMED_UNIT ( * ) PLANE_ANGLE_UNIT ( ) SI_UNIT ( $, .RADIAN. ) );
#103 = MECHANICAL_DESIGN_GEOMETRIC_PRESENTATION_REPRESENTATION (  '', ( #209 ), #131 ) ;
#104 = VERTEX_POINT ( 'NONE', #30 ) ;
#105 = CARTESIAN_POINT ( 'NONE',  ( 0.0000000000000000000, 1000.000000000000000, 0.0000000000000000000 ) ) ;
#106 = LINE ( 'NONE', #170, #207 ) ;
#107 = ORIENTED_EDGE ( 'NONE', *, *, #34, .T. ) ;
#108 = PRODUCT_CONTEXT ( 'NONE', #206, 'mechanical' ) ;
#109 = PRODUCT ( 'TM_340W_11', 'TM_340W_11', '', ( #152 ) ) ;
#110 = ADVANCED_FACE ( 'NONE', ( #51 ), #157, .T. ) ;
#111 =( NAMED_UNIT ( * ) PLANE_ANGLE_UNIT ( ) SI_UNIT ( $, .RADIAN. ) );
#112 = ORIENTED_EDGE ( 'NONE', *, *, #45, .T. ) ;
#113 = PRESENTATION_LAYER_ASSIGNMENT (  '', '', ( #190 ) ) ;
#114 =( NAMED_UNIT ( * ) PLANE_ANGLE_UNIT ( ) SI_UNIT ( $, .RADIAN. ) );
#115 = EDGE_CURVE ( 'NONE', #6, #199, #21, .T. ) ;
#116 = EDGE_LOOP ( 'NONE', ( #46, #83, #4, #128 ) ) ;
#117 = CARTESIAN_POINT ( 'NONE',  ( 0.0000000000000000000, 0.0000000000000000000, 10.00000000000000000 ) ) ;
#118 = CARTESIAN_POINT ( 'NONE',  ( 0.0000000000000000000, 200.0000000000000000, 0.0000000000000000000 ) ) ;
#119 = PRESENTATION_LAYER_ASSIGNMENT (  '', '', ( #209 ) ) ;
#120 = CARTESIAN_POINT ( 'NONE',  ( 30.00000000000000000, 200.0000000000000000, 0.0000000000000000000 ) ) ;
#121 = ORIENTED_EDGE ( 'NONE', *, *, #69, .T. ) ;
#122 = DIRECTION ( 'NONE',  ( -1.000000000000000000, 0.0000000000000000000, 0.0000000000000000000 ) ) ;
#123 = PLANE ( 'NONE',  #150 ) ;
#124 = AXIS2_PLACEMENT_3D ( 'NONE', #99, #231, #184 ) ;
#125 = APPLICATION_PROTOCOL_DEFINITION ( 'draft international standard', 'automotive_design', 1998, #181 ) ;
#126 = FILL_AREA_STYLE ('',( #151 ) ) ;
#127 = APPLICATION_PROTOCOL_DEFINITION ( 'draft international standard', 'automotive_design', 1998, #129 ) ;
#128 = ORIENTED_EDGE ( 'NONE', *, *, #34, .F. ) ;
#129 = APPLICATION_CONTEXT ( 'automotive_design' ) ;
#130 =( NAMED_UNIT ( * ) SI_UNIT ( $, .STERADIAN. ) SOLID_ANGLE_UNIT ( ) );
#131 =( GEOMETRIC_REPRESENTATION_CONTEXT ( 3 ) GLOBAL_UNCERTAINTY_ASSIGNED_CONTEXT ( ( #95 ) ) GLOBAL_UNIT_ASSIGNED_CONTEXT ( ( #73, #111, #221 ) ) REPRESENTATION_CONTEXT ( 'NONE', 'WORKASPACE' ) );
#132 = CLOSED_SHELL ( 'NONE', ( #87, #65, #183, #8, #110, #136 ) ) ;
#133 = MANIFOLD_SOLID_BREP ( '²ÝÎß°Ä1', #132 ) ;
#134 = DIRECTION ( 'NONE',  ( 0.0000000000000000000, -1.000000000000000000, 0.0000000000000000000 ) ) ;
#135 = DIRECTION ( 'NONE',  ( 0.0000000000000000000, 0.0000000000000000000, -1.000000000000000000 ) ) ;
#136 = ADVANCED_FACE ( 'NONE', ( #43 ), #28, .F. ) ;
#137 = AXIS2_PLACEMENT_3D ( 'NONE', #58, #178, #57 ) ;
#138 = EDGE_LOOP ( 'NONE', ( #59, #232, #235, #112 ) ) ;
#139 = CARTESIAN_POINT ( 'NONE',  ( 0.0000000000000000000, 0.0000000000000000000, 0.0000000000000000000 ) ) ;
#140 = EDGE_CURVE ( 'NONE', #104, #61, #85, .T. ) ;
#141 = DIRECTION ( 'NONE',  ( 0.0000000000000000000, 0.0000000000000000000, 1.000000000000000000 ) ) ;
#142 = SURFACE_STYLE_USAGE ( .BOTH. , #227 ) ;
#143 = SHAPE_DEFINITION_REPRESENTATION ( #148, #17 ) ;
#144 = DIRECTION ( 'NONE',  ( -1.000000000000000000, 0.0000000000000000000, 0.0000000000000000000 ) ) ;
#145 = APPLICATION_CONTEXT ( 'automotive_design' ) ;
#146 = CARTESIAN_POINT ( 'NONE',  ( 0.0000000000000000000, 200.0000000000000000, 0.0000000000000000000 ) ) ;
#147 = AXIS2_PLACEMENT_3D ( 'NONE', #139, #80, #32 ) ;
#148 = PRODUCT_DEFINITION_SHAPE ( 'NONE', 'NONE',  #9 ) ;
#149 = FACE_OUTER_BOUND ( 'NONE', #42, .T. ) ;
#150 = AXIS2_PLACEMENT_3D ( 'NONE', #88, #68, #16 ) ;
#151 = FILL_AREA_STYLE_COLOUR ( '', #37 ) ;
#152 = PRODUCT_CONTEXT ( 'NONE', #129, 'mechanical' ) ;
#153 = UNCERTAINTY_MEASURE_WITH_UNIT (LENGTH_MEASURE( 1.000000000000000100E-005 ), #60, 'distance_accuracy_value', 'NONE');
#154 = ORIENTED_EDGE ( 'NONE', *, *, #69, .F. ) ;
#155 = CARTESIAN_POINT ( 'NONE',  ( 30.00000000000000000, 0.0000000000000000000, 10.00000000000000000 ) ) ;
#156 =( NAMED_UNIT ( * ) SI_UNIT ( $, .STERADIAN. ) SOLID_ANGLE_UNIT ( ) );
#157 = PLANE ( 'NONE',  #101 ) ;
#158 = DIRECTION ( 'NONE',  ( 0.0000000000000000000, 0.0000000000000000000, 1.000000000000000000 ) ) ;
#159 = PLANE ( 'NONE',  #137 ) ;
#160 = DIRECTION ( 'NONE',  ( 0.0000000000000000000, -1.000000000000000000, 0.0000000000000000000 ) ) ;
#161 = LINE ( 'NONE', #105, #211 ) ;
#162 = LINE ( 'NONE', #155, #188 ) ;
#163 = PRESENTATION_STYLE_ASSIGNMENT (( #142 ) ) ;
#164 = CARTESIAN_POINT ( 'NONE',  ( 0.0000000000000000000, 0.0000000000000000000, 0.0000000000000000000 ) ) ;
#165 = EDGE_CURVE ( 'NONE', #185, #72, #229, .T. ) ;
#166 = VECTOR ( 'NONE', #141, 1000.000000000000000 ) ;
#167 = DIRECTION ( 'NONE',  ( 0.0000000000000000000, 0.0000000000000000000, 1.000000000000000000 ) ) ;
#168 =( REPRESENTATION_RELATIONSHIP ('NONE','NONE', #94, #17 ) REPRESENTATION_RELATIONSHIP_WITH_TRANSFORMATION ( #236 )SHAPE_REPRESENTATION_RELATIONSHIP( ) );
#169 = DIRECTION ( 'NONE',  ( 0.0000000000000000000, 0.0000000000000000000, 1.000000000000000000 ) ) ;
#170 = CARTESIAN_POINT ( 'NONE',  ( 30.00000000000000000, 200.0000000000000000, 10.00000000000000000 ) ) ;
#171 = CARTESIAN_POINT ( 'NONE',  ( 0.0000000000000000000, 0.0000000000000000000, 10.00000000000000000 ) ) ;
#172 = DIRECTION ( 'NONE',  ( 1.000000000000000000, 0.0000000000000000000, 0.0000000000000000000 ) ) ;
#173 = SHAPE_REPRESENTATION_RELATIONSHIP ( 'NONE' , 'NONE' ,  #17, #55 ) ;
#174 = ORIENTED_EDGE ( 'NONE', *, *, #165, .F. ) ;
#175 = AXIS2_PLACEMENT_3D ( 'NONE', #84, #11, #234 ) ;
#176 = EDGE_CURVE ( 'NONE', #52, #35, #180, .T. ) ;
#177 = SURFACE_SIDE_STYLE ('',( #23 ) ) ;
#178 = DIRECTION ( 'NONE',  ( -1.000000000000000000, 0.0000000000000000000, 0.0000000000000000000 ) ) ;
#179 = PRODUCT_DEFINITION_CONTEXT ( 'detailed design', #145, 'design' ) ;
#180 = LINE ( 'NONE', #171, #12 ) ;
#181 = APPLICATION_CONTEXT ( 'automotive_design' ) ;
#182 = ORIENTED_EDGE ( 'NONE', *, *, #2, .T. ) ;
#183 = ADVANCED_FACE ( 'NONE', ( #76 ), #123, .F. ) ;
#184 = DIRECTION ( 'NONE',  ( 0.0000000000000000000, 0.0000000000000000000, -1.000000000000000000 ) ) ;
#185 = VERTEX_POINT ( 'NONE', #194 ) ;
#186 = DIRECTION ( 'NONE',  ( 0.0000000000000000000, 0.0000000000000000000, 1.000000000000000000 ) ) ;
#187 =( GEOMETRIC_REPRESENTATION_CONTEXT ( 3 ) GLOBAL_UNCERTAINTY_ASSIGNED_CONTEXT ( ( #205 ) ) GLOBAL_UNIT_ASSIGNED_CONTEXT ( ( #191, #114, #130 ) ) REPRESENTATION_CONTEXT ( 'NONE', 'WORKASPACE' ) );
#188 = VECTOR ( 'NONE', #135, 1000.000000000000000 ) ;
#189 = DIRECTION ( 'NONE',  ( 1.000000000000000000, 0.0000000000000000000, 0.0000000000000000000 ) ) ;
#190 = STYLED_ITEM ( 'NONE', ( #215 ), #133 ) ;
#191 =( LENGTH_UNIT ( ) NAMED_UNIT ( * ) SI_UNIT ( .MILLI., .METRE. ) );
#192 = FACE_OUTER_BOUND ( 'NONE', #77, .T. ) ;
#193 = SHAPE_DEFINITION_REPRESENTATION ( #49, #94 ) ;
#194 = CARTESIAN_POINT ( 'NONE',  ( 30.00000000000000000, 200.0000000000000000, 0.0000000000000000000 ) ) ;
#195 = LINE ( 'NONE', #146, #166 ) ;
#196 = CARTESIAN_POINT ( 'NONE',  ( 30.00000000000000000, 200.0000000000000000, 10.00000000000000000 ) ) ;
#197 = LINE ( 'NONE', #222, #44 ) ;
#198 = SURFACE_STYLE_USAGE ( .BOTH. , #177 ) ;
#199 = VERTEX_POINT ( 'NONE', #82 ) ;
#200 = VECTOR ( 'NONE', #160, 1000.000000000000000 ) ;
#201 = AXIS2_PLACEMENT_3D ( 'NONE', #164, #169, #208 ) ;
#202 = DIRECTION ( 'NONE',  ( 1.000000000000000000, 0.0000000000000000000, 0.0000000000000000000 ) ) ;
#203 = ORIENTED_EDGE ( 'NONE', *, *, #45, .F. ) ;
#204 = EDGE_CURVE ( 'NONE', #104, #52, #39, .T. ) ;
#205 = UNCERTAINTY_MEASURE_WITH_UNIT (LENGTH_MEASURE( 1.000000000000000100E-005 ), #191, 'distance_accuracy_value', 'NONE');
#206 = APPLICATION_CONTEXT ( 'automotive_design' ) ;
#207 = VECTOR ( 'NONE', #47, 1000.000000000000000 ) ;
#208 = DIRECTION ( 'NONE',  ( 1.000000000000000000, 0.0000000000000000000, 0.0000000000000000000 ) ) ;
#209 = STYLED_ITEM ( 'NONE', ( #163 ), #55 ) ;
#210 = ORIENTED_EDGE ( 'NONE', *, *, #115, .T. ) ;
#211 = VECTOR ( 'NONE', #33, 1000.000000000000000 ) ;
#212 = PRODUCT_DEFINITION_CONTEXT ( 'detailed design', #181, 'design' ) ;
#213 = AXIS2_PLACEMENT_3D ( 'NONE', #224, #186, #189 ) ;
#214 = CARTESIAN_POINT ( 'NONE',  ( 0.0000000000000000000, 0.0000000000000000000, 0.0000000000000000000 ) ) ;
#215 = PRESENTATION_STYLE_ASSIGNMENT (( #198 ) ) ;
#216 = CARTESIAN_POINT ( 'NONE',  ( 30.00000000000000000, 0.0000000000000000000, 10.00000000000000000 ) ) ;
#217 = ORIENTED_EDGE ( 'NONE', *, *, #78, .T. ) ;
#218 = EDGE_CURVE ( 'NONE', #61, #185, #106, .T. ) ;
#219 = DIRECTION ( 'NONE',  ( 0.0000000000000000000, -1.000000000000000000, 0.0000000000000000000 ) ) ;
#220 = DIRECTION ( 'NONE',  ( 1.000000000000000000, 0.0000000000000000000, 0.0000000000000000000 ) ) ;
#221 =( NAMED_UNIT ( * ) SI_UNIT ( $, .STERADIAN. ) SOLID_ANGLE_UNIT ( ) );
#222 = CARTESIAN_POINT ( 'NONE',  ( 30.00000000000000000, 1000.000000000000000, 10.00000000000000000 ) ) ;
#223 = ORIENTED_EDGE ( 'NONE', *, *, #140, .F. ) ;
#224 = CARTESIAN_POINT ( 'NONE',  ( 0.0000000000000000000, 0.0000000000000000000, 0.0000000000000000000 ) ) ;
#225 =( GEOMETRIC_REPRESENTATION_CONTEXT ( 3 ) GLOBAL_UNCERTAINTY_ASSIGNED_CONTEXT ( ( #153 ) ) GLOBAL_UNIT_ASSIGNED_CONTEXT ( ( #60, #92, #90 ) ) REPRESENTATION_CONTEXT ( 'NONE', 'WORKASPACE' ) );
#226 = AXIS2_PLACEMENT_3D ( 'NONE', #38, #24, #3 ) ;
#227 = SURFACE_SIDE_STYLE ('',( #63 ) ) ;
#228 = ORIENTED_EDGE ( 'NONE', *, *, #218, .F. ) ;
#229 = LINE ( 'NONE', #120, #36 ) ;
#230 = EDGE_LOOP ( 'NONE', ( #107, #154, #228, #19 ) ) ;
#231 = DIRECTION ( 'NONE',  ( 1.000000000000000000, 0.0000000000000000000, 0.0000000000000000000 ) ) ;
#232 = ORIENTED_EDGE ( 'NONE', *, *, #218, .T. ) ;
#233 = EDGE_CURVE ( 'NONE', #61, #35, #197, .T. ) ;
#234 = DIRECTION ( 'NONE',  ( -1.000000000000000000, 0.0000000000000000000, 0.0000000000000000000 ) ) ;
#235 = ORIENTED_EDGE ( 'NONE', *, *, #165, .T. ) ;
#236 = ITEM_DEFINED_TRANSFORMATION ( 'NONE', 'NONE', #213,  #226 ) ;
#237 = DIRECTION ( 'NONE',  ( -0.0000000000000000000, 1.000000000000000000, 0.0000000000000000000 ) ) ;
#238 = AXIS2_PLACEMENT_3D ( 'NONE', #98, #167, #202 ) ;
#239 = NEXT_ASSEMBLY_USAGE_OCCURRENCE ( 'NAUO1', ' ', ' ', #40, #9, $ ) ;
ENDSEC;
END-ISO-10303-21;
