ISO-10303-21;
HEADER;
FILE_DESCRIPTION (( 'STEP AP214' ),
    '1' );
FILE_NAME ('TM_340W_7.STEP',
    '2016-05-09T07:28:10',
    ( '' ),
    ( '' ),
    'SwSTEP 2.0',
    'SolidWorks 2015',
    '' );
FILE_SCHEMA (( 'AUTOMOTIVE_DESIGN' ));
ENDSEC;

DATA;
#1 = DIRECTION ( 'NONE',  ( 0.0000000000000000000, -1.000000000000000000, 0.0000000000000000000 ) ) ;
#2 =( NAMED_UNIT ( * ) SI_UNIT ( $, .STERADIAN. ) SOLID_ANGLE_UNIT ( ) );
#3 = EDGE_CURVE ( 'NONE', #54, #128, #233, .T. ) ;
#4 = ADVANCED_FACE ( 'NONE', ( #104 ), #99, .T. ) ;
#5 = VECTOR ( 'NONE', #214, 1000.000000000000000 ) ;
#6 = VECTOR ( 'NONE', #122, 1000.000000000000000 ) ;
#7 = FACE_OUTER_BOUND ( 'NONE', #94, .T. ) ;
#8 = COLOUR_RGB ( '',0.7921568627450980000, 0.8196078431372548800, 0.9333333333333333500 ) ;
#9 = ORIENTED_EDGE ( 'NONE', *, *, #206, .T. ) ;
#10 = AXIS2_PLACEMENT_3D ( 'NONE', #158, #32, #144 ) ;
#11 = VERTEX_POINT ( 'NONE', #33 ) ;
#12 = CARTESIAN_POINT ( 'NONE',  ( 10.00000000000000000, 1000.000000000000000, 0.0000000000000000000 ) ) ;
#13 = EDGE_CURVE ( 'NONE', #117, #54, #102, .T. ) ;
#14 =( NAMED_UNIT ( * ) SI_UNIT ( $, .STERADIAN. ) SOLID_ANGLE_UNIT ( ) );
#15 = LINE ( 'NONE', #216, #6 ) ;
#16 = ORIENTED_EDGE ( 'NONE', *, *, #45, .T. ) ;
#17 = CARTESIAN_POINT ( 'NONE',  ( 0.0000000000000000000, 1000.000000000000000, 0.0000000000000000000 ) ) ;
#18 =( REPRESENTATION_RELATIONSHIP ('NONE','NONE', #28, #187 ) REPRESENTATION_RELATIONSHIP_WITH_TRANSFORMATION ( #174 )SHAPE_REPRESENTATION_RELATIONSHIP( ) );
#19 = LINE ( 'NONE', #197, #193 ) ;
#20 = CARTESIAN_POINT ( 'NONE',  ( 0.0000000000000000000, 200.0000000000000000, 0.0000000000000000000 ) ) ;
#21 = CARTESIAN_POINT ( 'NONE',  ( 0.0000000000000000000, 0.0000000000000000000, 0.0000000000000000000 ) ) ;
#22 =( LENGTH_UNIT ( ) NAMED_UNIT ( * ) SI_UNIT ( .MILLI., .METRE. ) );
#23 = ORIENTED_EDGE ( 'NONE', *, *, #30, .T. ) ;
#24 = ADVANCED_FACE ( 'NONE', ( #7 ), #116, .T. ) ;
#25 = DIRECTION ( 'NONE',  ( 0.0000000000000000000, 0.0000000000000000000, 1.000000000000000000 ) ) ;
#26 = SHAPE_REPRESENTATION_RELATIONSHIP ( 'NONE' , 'NONE' ,  #187, #61 ) ;
#27 = AXIS2_PLACEMENT_3D ( 'NONE', #55, #25, #120 ) ;
#28 = SHAPE_REPRESENTATION ( 'TM_340W_7', ( #141, #114 ), #129 ) ;
#29 = ORIENTED_EDGE ( 'NONE', *, *, #137, .F. ) ;
#30 = EDGE_CURVE ( 'NONE', #210, #117, #195, .T. ) ;
#31 = PRODUCT_DEFINITION_SHAPE ( 'NONE', 'NONE',  #157 ) ;
#32 = DIRECTION ( 'NONE',  ( -1.000000000000000000, 0.0000000000000000000, 0.0000000000000000000 ) ) ;
#33 = CARTESIAN_POINT ( 'NONE',  ( 0.0000000000000000000, 0.0000000000000000000, 0.0000000000000000000 ) ) ;
#34 = LINE ( 'NONE', #70, #134 ) ;
#35 = SURFACE_STYLE_FILL_AREA ( #179 ) ;
#36 = CARTESIAN_POINT ( 'NONE',  ( 10.00000000000000000, 0.0000000000000000000, 0.0000000000000000000 ) ) ;
#37 = SHAPE_DEFINITION_REPRESENTATION ( #53, #28 ) ;
#38 = STYLED_ITEM ( 'NONE', ( #105 ), #61 ) ;
#39 = ORIENTED_EDGE ( 'NONE', *, *, #13, .F. ) ;
#40 = CARTESIAN_POINT ( 'NONE',  ( 0.0000000000000000000, 200.0000000000000000, 0.0000000000000000000 ) ) ;
#41 = APPLICATION_CONTEXT ( 'automotive_design' ) ;
#42 = CARTESIAN_POINT ( 'NONE',  ( 0.0000000000000000000, 200.0000000000000000, 0.0000000000000000000 ) ) ;
#43 = ORIENTED_EDGE ( 'NONE', *, *, #212, .T. ) ;
#44 = UNCERTAINTY_MEASURE_WITH_UNIT (LENGTH_MEASURE( 1.000000000000000100E-005 ), #168, 'distance_accuracy_value', 'NONE');
#45 = EDGE_CURVE ( 'NONE', #11, #54, #180, .T. ) ;
#46 = ORIENTED_EDGE ( 'NONE', *, *, #171, .F. ) ;
#47 = ORIENTED_EDGE ( 'NONE', *, *, #30, .F. ) ;
#48 = PRESENTATION_LAYER_ASSIGNMENT (  '', '', ( #38 ) ) ;
#49 = DIRECTION ( 'NONE',  ( 1.000000000000000000, -0.0000000000000000000, -0.0000000000000000000 ) ) ;
#50 = ORIENTED_EDGE ( 'NONE', *, *, #137, .T. ) ;
#51 = DIRECTION ( 'NONE',  ( 1.000000000000000000, 0.0000000000000000000, 0.0000000000000000000 ) ) ;
#52 = CARTESIAN_POINT ( 'NONE',  ( 10.00000000000000000, 1000.000000000000000, 10.00000000000000000 ) ) ;
#53 = PRODUCT_DEFINITION_SHAPE ( 'NONE', 'NONE',  #181 ) ;
#54 = VERTEX_POINT ( 'NONE', #36 ) ;
#55 = CARTESIAN_POINT ( 'NONE',  ( 0.0000000000000000000, 0.0000000000000000000, 0.0000000000000000000 ) ) ;
#56 = APPLICATION_PROTOCOL_DEFINITION ( 'draft international standard', 'automotive_design', 1998, #205 ) ;
#57 = DIRECTION ( 'NONE',  ( 1.000000000000000000, 0.0000000000000000000, 0.0000000000000000000 ) ) ;
#58 = DIRECTION ( 'NONE',  ( 1.000000000000000000, 0.0000000000000000000, 0.0000000000000000000 ) ) ;
#59 = APPLICATION_CONTEXT ( 'automotive_design' ) ;
#60 = PLANE ( 'NONE',  #119 ) ;
#61 = ADVANCED_BREP_SHAPE_REPRESENTATION ( '', ( #145, #27 ), #236 ) ;
#62 = DIRECTION ( 'NONE',  ( 0.0000000000000000000, 0.0000000000000000000, 1.000000000000000000 ) ) ;
#63 = FILL_AREA_STYLE_COLOUR ( '', #8 ) ;
#64 = VECTOR ( 'NONE', #138, 1000.000000000000000 ) ;
#65 = MECHANICAL_DESIGN_GEOMETRIC_PRESENTATION_REPRESENTATION (  '', ( #38 ), #76 ) ;
#66 = COLOUR_RGB ( '',0.7921568627450980000, 0.8196078431372548800, 0.9333333333333333500 ) ;
#67 = EDGE_LOOP ( 'NONE', ( #50, #87, #16, #88 ) ) ;
#68 = DIRECTION ( 'NONE',  ( 0.0000000000000000000, 0.0000000000000000000, 1.000000000000000000 ) ) ;
#69 = LINE ( 'NONE', #232, #64 ) ;
#70 = CARTESIAN_POINT ( 'NONE',  ( 10.00000000000000000, 200.0000000000000000, 0.0000000000000000000 ) ) ;
#71 = DIRECTION ( 'NONE',  ( -0.0000000000000000000, -0.0000000000000000000, 1.000000000000000000 ) ) ;
#72 = VECTOR ( 'NONE', #1, 1000.000000000000000 ) ;
#73 = CARTESIAN_POINT ( 'NONE',  ( 0.0000000000000000000, 0.0000000000000000000, 10.00000000000000000 ) ) ;
#74 = PRODUCT_DEFINITION_SHAPE ( 'NONE', 'NONE',  #239 ) ;
#75 = UNCERTAINTY_MEASURE_WITH_UNIT (LENGTH_MEASURE( 1.000000000000000100E-005 ), #234, 'distance_accuracy_value', 'NONE');
#76 =( GEOMETRIC_REPRESENTATION_CONTEXT ( 3 ) GLOBAL_UNCERTAINTY_ASSIGNED_CONTEXT ( ( #44 ) ) GLOBAL_UNIT_ASSIGNED_CONTEXT ( ( #168, #220, #81 ) ) REPRESENTATION_CONTEXT ( 'NONE', 'WORKASPACE' ) );
#77 = LINE ( 'NONE', #80, #173 ) ;
#78 = APPLICATION_CONTEXT ( 'automotive_design' ) ;
#79 = PLANE ( 'NONE',  #152 ) ;
#80 = CARTESIAN_POINT ( 'NONE',  ( 0.0000000000000000000, 200.0000000000000000, 0.0000000000000000000 ) ) ;
#81 =( NAMED_UNIT ( * ) SI_UNIT ( $, .STERADIAN. ) SOLID_ANGLE_UNIT ( ) );
#82 = EDGE_LOOP ( 'NONE', ( #225, #46, #9, #43 ) ) ;
#83 = AXIS2_PLACEMENT_3D ( 'NONE', #17, #176, #222 ) ;
#84 = CARTESIAN_POINT ( 'NONE',  ( 10.00000000000000000, 200.0000000000000000, 10.00000000000000000 ) ) ;
#85 = ORIENTED_EDGE ( 'NONE', *, *, #194, .F. ) ;
#86 = ADVANCED_FACE ( 'NONE', ( #90 ), #60, .T. ) ;
#87 = ORIENTED_EDGE ( 'NONE', *, *, #156, .T. ) ;
#88 = ORIENTED_EDGE ( 'NONE', *, *, #3, .T. ) ;
#89 = DIRECTION ( 'NONE',  ( 1.000000000000000000, 0.0000000000000000000, 0.0000000000000000000 ) ) ;
#90 = FACE_OUTER_BOUND ( 'NONE', #133, .T. ) ;
#91 = ORIENTED_EDGE ( 'NONE', *, *, #228, .F. ) ;
#92 = DIRECTION ( 'NONE',  ( 1.000000000000000000, -0.0000000000000000000, -0.0000000000000000000 ) ) ;
#93 = CARTESIAN_POINT ( 'NONE',  ( 0.0000000000000000000, 0.0000000000000000000, 0.0000000000000000000 ) ) ;
#94 = EDGE_LOOP ( 'NONE', ( #29, #85, #112, #130 ) ) ;
#95 = VERTEX_POINT ( 'NONE', #213 ) ;
#96 = DIRECTION ( 'NONE',  ( 1.000000000000000000, 0.0000000000000000000, 0.0000000000000000000 ) ) ;
#97 = PLANE ( 'NONE',  #10 ) ;
#98 = PRODUCT_CONTEXT ( 'NONE', #59, 'mechanical' ) ;
#99 = PLANE ( 'NONE',  #83 ) ;
#100 = PRESENTATION_STYLE_ASSIGNMENT (( #185 ) ) ;
#101 = AXIS2_PLACEMENT_3D ( 'NONE', #172, #136, #51 ) ;
#102 = LINE ( 'NONE', #12, #238 ) ;
#103 = CONTEXT_DEPENDENT_SHAPE_REPRESENTATION ( #18, #74 ) ;
#104 = FACE_OUTER_BOUND ( 'NONE', #226, .T. ) ;
#105 = PRESENTATION_STYLE_ASSIGNMENT (( #182 ) ) ;
#106 = CARTESIAN_POINT ( 'NONE',  ( 0.0000000000000000000, 1000.000000000000000, 10.00000000000000000 ) ) ;
#107 = AXIS2_PLACEMENT_3D ( 'NONE', #231, #68, #57 ) ;
#108 = CARTESIAN_POINT ( 'NONE',  ( 0.0000000000000000000, 1000.000000000000000, 0.0000000000000000000 ) ) ;
#109 = SURFACE_SIDE_STYLE ('',( #35 ) ) ;
#110 = SURFACE_SIDE_STYLE ('',( #184 ) ) ;
#111 = DIRECTION ( 'NONE',  ( -1.000000000000000000, -0.0000000000000000000, -0.0000000000000000000 ) ) ;
#112 = ORIENTED_EDGE ( 'NONE', *, *, #178, .T. ) ;
#113 = ADVANCED_FACE ( 'NONE', ( #209 ), #79, .F. ) ;
#114 = AXIS2_PLACEMENT_3D ( 'NONE', #170, #62, #149 ) ;
#115 = VERTEX_POINT ( 'NONE', #73 ) ;
#116 = PLANE ( 'NONE',  #101 ) ;
#117 = VERTEX_POINT ( 'NONE', #221 ) ;
#118 = ORIENTED_EDGE ( 'NONE', *, *, #206, .F. ) ;
#119 = AXIS2_PLACEMENT_3D ( 'NONE', #40, #217, #89 ) ;
#120 = DIRECTION ( 'NONE',  ( 1.000000000000000000, 0.0000000000000000000, 0.0000000000000000000 ) ) ;
#121 = LINE ( 'NONE', #52, #72 ) ;
#122 = DIRECTION ( 'NONE',  ( -0.0000000000000000000, -0.0000000000000000000, -1.000000000000000000 ) ) ;
#123 = DIRECTION ( 'NONE',  ( -0.0000000000000000000, -0.0000000000000000000, -1.000000000000000000 ) ) ;
#124 =( NAMED_UNIT ( * ) PLANE_ANGLE_UNIT ( ) SI_UNIT ( $, .RADIAN. ) );
#125 = FACE_OUTER_BOUND ( 'NONE', #82, .T. ) ;
#126 = DIRECTION ( 'NONE',  ( 0.0000000000000000000, -1.000000000000000000, 0.0000000000000000000 ) ) ;
#127 = VECTOR ( 'NONE', #203, 1000.000000000000000 ) ;
#128 = VERTEX_POINT ( 'NONE', #142 ) ;
#129 =( GEOMETRIC_REPRESENTATION_CONTEXT ( 3 ) GLOBAL_UNCERTAINTY_ASSIGNED_CONTEXT ( ( #224 ) ) GLOBAL_UNIT_ASSIGNED_CONTEXT ( ( #22, #124, #2 ) ) REPRESENTATION_CONTEXT ( 'NONE', 'WORKASPACE' ) );
#130 = ORIENTED_EDGE ( 'NONE', *, *, #171, .T. ) ;
#131 = SHAPE_DEFINITION_REPRESENTATION ( #31, #187 ) ;
#132 = STYLED_ITEM ( 'NONE', ( #100 ), #145 ) ;
#133 = EDGE_LOOP ( 'NONE', ( #198, #91, #47, #118 ) ) ;
#134 = VECTOR ( 'NONE', #71, 1000.000000000000000 ) ;
#135 = VECTOR ( 'NONE', #126, 1000.000000000000000 ) ;
#136 = DIRECTION ( 'NONE',  ( 0.0000000000000000000, 0.0000000000000000000, 1.000000000000000000 ) ) ;
#137 = EDGE_CURVE ( 'NONE', #128, #115, #19, .T. ) ;
#138 = DIRECTION ( 'NONE',  ( -1.000000000000000000, -0.0000000000000000000, -0.0000000000000000000 ) ) ;
#139 = CARTESIAN_POINT ( 'NONE',  ( 10.00000000000000000, 0.0000000000000000000, 0.0000000000000000000 ) ) ;
#140 = ORIENTED_EDGE ( 'NONE', *, *, #45, .F. ) ;
#141 = AXIS2_PLACEMENT_3D ( 'NONE', #162, #218, #96 ) ;
#142 = CARTESIAN_POINT ( 'NONE',  ( 10.00000000000000000, 0.0000000000000000000, 10.00000000000000000 ) ) ;
#143 = APPLICATION_PROTOCOL_DEFINITION ( 'draft international standard', 'automotive_design', 1998, #41 ) ;
#144 = DIRECTION ( 'NONE',  ( 0.0000000000000000000, 0.0000000000000000000, 1.000000000000000000 ) ) ;
#145 = MANIFOLD_SOLID_BREP ( '²ÝÎß°Ä1', #177 ) ;
#146 = ORIENTED_EDGE ( 'NONE', *, *, #212, .F. ) ;
#147 = LINE ( 'NONE', #106, #135 ) ;
#148 = DIRECTION ( 'NONE',  ( 0.0000000000000000000, -1.000000000000000000, 0.0000000000000000000 ) ) ;
#149 = DIRECTION ( 'NONE',  ( 1.000000000000000000, 0.0000000000000000000, 0.0000000000000000000 ) ) ;
#150 = PRODUCT_DEFINITION_CONTEXT ( 'detailed design', #41, 'design' ) ;
#151 = VECTOR ( 'NONE', #49, 1000.000000000000000 ) ;
#152 = AXIS2_PLACEMENT_3D ( 'NONE', #93, #191, #159 ) ;
#153 = ADVANCED_FACE ( 'NONE', ( #154 ), #200, .T. ) ;
#154 = FACE_OUTER_BOUND ( 'NONE', #219, .T. ) ;
#155 = FILL_AREA_STYLE_COLOUR ( '', #66 ) ;
#156 = EDGE_CURVE ( 'NONE', #115, #11, #15, .T. ) ;
#157 = PRODUCT_DEFINITION ( 'UNKNOWN', '', #215, #150 ) ;
#158 = CARTESIAN_POINT ( 'NONE',  ( 0.0000000000000000000, 1000.000000000000000, 10.00000000000000000 ) ) ;
#159 = DIRECTION ( 'NONE',  ( 1.000000000000000000, 0.0000000000000000000, 0.0000000000000000000 ) ) ;
#160 = PRESENTATION_LAYER_ASSIGNMENT (  '', '', ( #132 ) ) ;
#161 =( NAMED_UNIT ( * ) SI_UNIT ( $, .STERADIAN. ) SOLID_ANGLE_UNIT ( ) );
#162 = CARTESIAN_POINT ( 'NONE',  ( 0.0000000000000000000, 0.0000000000000000000, 0.0000000000000000000 ) ) ;
#163 = ADVANCED_FACE ( 'NONE', ( #125 ), #97, .T. ) ;
#164 =( NAMED_UNIT ( * ) PLANE_ANGLE_UNIT ( ) SI_UNIT ( $, .RADIAN. ) );
#165 = PRODUCT_CONTEXT ( 'NONE', #205, 'mechanical' ) ;
#166 = ORIENTED_EDGE ( 'NONE', *, *, #3, .F. ) ;
#167 = ORIENTED_EDGE ( 'NONE', *, *, #228, .T. ) ;
#168 =( LENGTH_UNIT ( ) NAMED_UNIT ( * ) SI_UNIT ( .MILLI., .METRE. ) );
#169 = APPLICATION_PROTOCOL_DEFINITION ( 'draft international standard', 'automotive_design', 1998, #59 ) ;
#170 = CARTESIAN_POINT ( 'NONE',  ( 0.0000000000000000000, 0.0000000000000000000, 0.0000000000000000000 ) ) ;
#171 = EDGE_CURVE ( 'NONE', #95, #115, #147, .T. ) ;
#172 = CARTESIAN_POINT ( 'NONE',  ( 10.00000000000000000, 1000.000000000000000, 10.00000000000000000 ) ) ;
#173 = VECTOR ( 'NONE', #123, 1000.000000000000000 ) ;
#174 = ITEM_DEFINED_TRANSFORMATION ( 'NONE', 'NONE', #114,  #27 ) ;
#175 = MECHANICAL_DESIGN_GEOMETRIC_PRESENTATION_REPRESENTATION (  '', ( #132 ), #189 ) ;
#176 = DIRECTION ( 'NONE',  ( 0.0000000000000000000, 0.0000000000000000000, -1.000000000000000000 ) ) ;
#177 = CLOSED_SHELL ( 'NONE', ( #24, #163, #4, #153, #86, #113 ) ) ;
#178 = EDGE_CURVE ( 'NONE', #190, #95, #69, .T. ) ;
#179 = FILL_AREA_STYLE ('',( #63 ) ) ;
#180 = LINE ( 'NONE', #21, #201 ) ;
#181 = PRODUCT_DEFINITION ( 'UNKNOWN', '', #196, #237 ) ;
#182 = SURFACE_STYLE_USAGE ( .BOTH. , #110 ) ;
#183 = APPLICATION_PROTOCOL_DEFINITION ( 'draft international standard', 'automotive_design', 1998, #78 ) ;
#184 = SURFACE_STYLE_FILL_AREA ( #199 ) ;
#185 = SURFACE_STYLE_USAGE ( .BOTH. , #109 ) ;
#186 =( NAMED_UNIT ( * ) PLANE_ANGLE_UNIT ( ) SI_UNIT ( $, .RADIAN. ) );
#187 = SHAPE_REPRESENTATION ( 'rubber foam', ( #27 ), #236 ) ;
#188 = CARTESIAN_POINT ( 'NONE',  ( 10.00000000000000000, 1000.000000000000000, 0.0000000000000000000 ) ) ;
#189 =( GEOMETRIC_REPRESENTATION_CONTEXT ( 3 ) GLOBAL_UNCERTAINTY_ASSIGNED_CONTEXT ( ( #75 ) ) GLOBAL_UNIT_ASSIGNED_CONTEXT ( ( #234, #186, #14 ) ) REPRESENTATION_CONTEXT ( 'NONE', 'WORKASPACE' ) );
#190 = VERTEX_POINT ( 'NONE', #84 ) ;
#191 = DIRECTION ( 'NONE',  ( -0.0000000000000000000, 1.000000000000000000, 0.0000000000000000000 ) ) ;
#192 = PRODUCT ( 'rubber foam', 'rubber foam', '', ( #165 ) ) ;
#193 = VECTOR ( 'NONE', #111, 1000.000000000000000 ) ;
#194 = EDGE_CURVE ( 'NONE', #190, #128, #121, .T. ) ;
#195 = LINE ( 'NONE', #42, #151 ) ;
#196 = PRODUCT_DEFINITION_FORMATION_WITH_SPECIFIED_SOURCE ( 'ANY', '', #211, .NOT_KNOWN. ) ;
#197 = CARTESIAN_POINT ( 'NONE',  ( 0.0000000000000000000, 0.0000000000000000000, 10.00000000000000000 ) ) ;
#198 = ORIENTED_EDGE ( 'NONE', *, *, #178, .F. ) ;
#199 = FILL_AREA_STYLE ('',( #155 ) ) ;
#200 = PLANE ( 'NONE',  #223 ) ;
#201 = VECTOR ( 'NONE', #92, 1000.000000000000000 ) ;
#202 = DIRECTION ( 'NONE',  ( 0.0000000000000000000, 0.0000000000000000000, -1.000000000000000000 ) ) ;
#203 = DIRECTION ( 'NONE',  ( 0.0000000000000000000, -1.000000000000000000, 0.0000000000000000000 ) ) ;
#204 =( LENGTH_UNIT ( ) NAMED_UNIT ( * ) SI_UNIT ( .MILLI., .METRE. ) );
#205 = APPLICATION_CONTEXT ( 'automotive_design' ) ;
#206 = EDGE_CURVE ( 'NONE', #95, #210, #77, .T. ) ;
#207 = UNCERTAINTY_MEASURE_WITH_UNIT (LENGTH_MEASURE( 1.000000000000000100E-005 ), #204, 'distance_accuracy_value', 'NONE');
#208 = PRODUCT_RELATED_PRODUCT_CATEGORY ( 'part', '', ( #211 ) ) ;
#209 = FACE_OUTER_BOUND ( 'NONE', #67, .T. ) ;
#210 = VERTEX_POINT ( 'NONE', #20 ) ;
#211 = PRODUCT ( 'TM_340W_7', 'TM_340W_7', '', ( #98 ) ) ;
#212 = EDGE_CURVE ( 'NONE', #210, #11, #227, .T. ) ;
#213 = CARTESIAN_POINT ( 'NONE',  ( 0.0000000000000000000, 200.0000000000000000, 10.00000000000000000 ) ) ;
#214 = DIRECTION ( 'NONE',  ( -0.0000000000000000000, -0.0000000000000000000, 1.000000000000000000 ) ) ;
#215 = PRODUCT_DEFINITION_FORMATION_WITH_SPECIFIED_SOURCE ( 'ANY', '', #192, .NOT_KNOWN. ) ;
#216 = CARTESIAN_POINT ( 'NONE',  ( 0.0000000000000000000, 0.0000000000000000000, 0.0000000000000000000 ) ) ;
#217 = DIRECTION ( 'NONE',  ( -0.0000000000000000000, 1.000000000000000000, 0.0000000000000000000 ) ) ;
#218 = DIRECTION ( 'NONE',  ( 0.0000000000000000000, 0.0000000000000000000, 1.000000000000000000 ) ) ;
#219 = EDGE_LOOP ( 'NONE', ( #166, #39, #167, #229 ) ) ;
#220 =( NAMED_UNIT ( * ) PLANE_ANGLE_UNIT ( ) SI_UNIT ( $, .RADIAN. ) );
#221 = CARTESIAN_POINT ( 'NONE',  ( 10.00000000000000000, 200.0000000000000000, 0.0000000000000000000 ) ) ;
#222 = DIRECTION ( 'NONE',  ( -1.000000000000000000, 0.0000000000000000000, 0.0000000000000000000 ) ) ;
#223 = AXIS2_PLACEMENT_3D ( 'NONE', #188, #58, #202 ) ;
#224 = UNCERTAINTY_MEASURE_WITH_UNIT (LENGTH_MEASURE( 1.000000000000000100E-005 ), #22, 'distance_accuracy_value', 'NONE');
#225 = ORIENTED_EDGE ( 'NONE', *, *, #156, .F. ) ;
#226 = EDGE_LOOP ( 'NONE', ( #140, #146, #23, #235 ) ) ;
#227 = LINE ( 'NONE', #108, #127 ) ;
#228 = EDGE_CURVE ( 'NONE', #117, #190, #34, .T. ) ;
#229 = ORIENTED_EDGE ( 'NONE', *, *, #194, .T. ) ;
#230 = PRODUCT_RELATED_PRODUCT_CATEGORY ( 'part', '', ( #192 ) ) ;
#231 = CARTESIAN_POINT ( 'NONE',  ( 0.0000000000000000000, 0.0000000000000000000, 0.0000000000000000000 ) ) ;
#232 = CARTESIAN_POINT ( 'NONE',  ( 0.0000000000000000000, 200.0000000000000000, 10.00000000000000000 ) ) ;
#233 = LINE ( 'NONE', #139, #5 ) ;
#234 =( LENGTH_UNIT ( ) NAMED_UNIT ( * ) SI_UNIT ( .MILLI., .METRE. ) );
#235 = ORIENTED_EDGE ( 'NONE', *, *, #13, .T. ) ;
#236 =( GEOMETRIC_REPRESENTATION_CONTEXT ( 3 ) GLOBAL_UNCERTAINTY_ASSIGNED_CONTEXT ( ( #207 ) ) GLOBAL_UNIT_ASSIGNED_CONTEXT ( ( #204, #164, #161 ) ) REPRESENTATION_CONTEXT ( 'NONE', 'WORKASPACE' ) );
#237 = PRODUCT_DEFINITION_CONTEXT ( 'detailed design', #78, 'design' ) ;
#238 = VECTOR ( 'NONE', #148, 1000.000000000000000 ) ;
#239 = NEXT_ASSEMBLY_USAGE_OCCURRENCE ( 'NAUO1', ' ', ' ', #181, #157, $ ) ;
ENDSEC;
END-ISO-10303-21;
