ISO-10303-21;
HEADER;
FILE_DESCRIPTION (( 'STEP AP214' ),
    '1' );
FILE_NAME ('TM_340_11.STEP',
    '2016-05-09T05:40:36',
    ( '' ),
    ( '' ),
    'SwSTEP 2.0',
    'SolidWorks 2015',
    '' );
FILE_SCHEMA (( 'AUTOMOTIVE_DESIGN' ));
ENDSEC;

DATA;
#1 = CARTESIAN_POINT ( 'NONE',  ( 30.00000000000000000, 1000.000000000000000, 0.0000000000000000000 ) ) ;
#2 = PRESENTATION_LAYER_ASSIGNMENT (  '', '', ( #190 ) ) ;
#3 = VERTEX_POINT ( 'NONE', #140 ) ;
#4 = EDGE_LOOP ( 'NONE', ( #233, #211, #104, #53 ) ) ;
#5 = EDGE_CURVE ( 'NONE', #23, #125, #48, .T. ) ;
#6 = ORIENTED_EDGE ( 'NONE', *, *, #225, .T. ) ;
#7 = SURFACE_SIDE_STYLE ('',( #176 ) ) ;
#8 = PRESENTATION_STYLE_ASSIGNMENT (( #179 ) ) ;
#9 = FILL_AREA_STYLE ('',( #59 ) ) ;
#10 = PRODUCT_DEFINITION_CONTEXT ( 'detailed design', #171, 'design' ) ;
#11 = CARTESIAN_POINT ( 'NONE',  ( 0.0000000000000000000, 200.0000000000000000, 0.0000000000000000000 ) ) ;
#12 = EDGE_CURVE ( 'NONE', #136, #100, #35, .T. ) ;
#13 = CARTESIAN_POINT ( 'NONE',  ( 30.00000000000000000, 200.0000000000000000, 10.00000000000000000 ) ) ;
#14 = ORIENTED_EDGE ( 'NONE', *, *, #169, .F. ) ;
#15 = DIRECTION ( 'NONE',  ( 0.0000000000000000000, -1.000000000000000000, 0.0000000000000000000 ) ) ;
#16 = CARTESIAN_POINT ( 'NONE',  ( 0.0000000000000000000, 0.0000000000000000000, 10.00000000000000000 ) ) ;
#17 = DIRECTION ( 'NONE',  ( 0.0000000000000000000, 0.0000000000000000000, -1.000000000000000000 ) ) ;
#18 = VECTOR ( 'NONE', #234, 1000.000000000000000 ) ;
#19 = SHAPE_DEFINITION_REPRESENTATION ( #61, #155 ) ;
#20 = DIRECTION ( 'NONE',  ( 1.000000000000000000, 0.0000000000000000000, 0.0000000000000000000 ) ) ;
#21 = VECTOR ( 'NONE', #50, 1000.000000000000000 ) ;
#22 = COLOUR_RGB ( '',0.7921568627450980000, 0.8196078431372548800, 0.9333333333333333500 ) ;
#23 = VERTEX_POINT ( 'NONE', #168 ) ;
#24 = AXIS2_PLACEMENT_3D ( 'NONE', #124, #75, #205 ) ;
#25 = ADVANCED_FACE ( 'NONE', ( #238 ), #158, .F. ) ;
#26 = CARTESIAN_POINT ( 'NONE',  ( 0.0000000000000000000, 0.0000000000000000000, 0.0000000000000000000 ) ) ;
#27 = FACE_OUTER_BOUND ( 'NONE', #29, .T. ) ;
#28 = DIRECTION ( 'NONE',  ( 0.0000000000000000000, -1.000000000000000000, 0.0000000000000000000 ) ) ;
#29 = EDGE_LOOP ( 'NONE', ( #145, #146, #187, #119 ) ) ;
#30 = CARTESIAN_POINT ( 'NONE',  ( 30.00000000000000000, 1000.000000000000000, 10.00000000000000000 ) ) ;
#31 = CARTESIAN_POINT ( 'NONE',  ( 0.0000000000000000000, 0.0000000000000000000, 0.0000000000000000000 ) ) ;
#32 = CARTESIAN_POINT ( 'NONE',  ( 30.00000000000000000, 0.0000000000000000000, 10.00000000000000000 ) ) ;
#33 = UNCERTAINTY_MEASURE_WITH_UNIT (LENGTH_MEASURE( 1.000000000000000100E-005 ), #34, 'distance_accuracy_value', 'NONE');
#34 =( LENGTH_UNIT ( ) NAMED_UNIT ( * ) SI_UNIT ( .MILLI., .METRE. ) );
#35 = LINE ( 'NONE', #138, #170 ) ;
#36 = DIRECTION ( 'NONE',  ( 0.0000000000000000000, 0.0000000000000000000, -1.000000000000000000 ) ) ;
#37 =( NAMED_UNIT ( * ) PLANE_ANGLE_UNIT ( ) SI_UNIT ( $, .RADIAN. ) );
#38 = EDGE_CURVE ( 'NONE', #3, #154, #45, .T. ) ;
#39 = DIRECTION ( 'NONE',  ( -0.0000000000000000000, 1.000000000000000000, 0.0000000000000000000 ) ) ;
#40 = PRODUCT_DEFINITION_SHAPE ( 'NONE', 'NONE',  #206 ) ;
#41 = VECTOR ( 'NONE', #70, 1000.000000000000000 ) ;
#42 = PRESENTATION_STYLE_ASSIGNMENT (( #183 ) ) ;
#43 = ORIENTED_EDGE ( 'NONE', *, *, #161, .F. ) ;
#44 = UNCERTAINTY_MEASURE_WITH_UNIT (LENGTH_MEASURE( 1.000000000000000100E-005 ), #143, 'distance_accuracy_value', 'NONE');
#45 = LINE ( 'NONE', #186, #58 ) ;
#46 = EDGE_CURVE ( 'NONE', #3, #136, #189, .T. ) ;
#47 = DIRECTION ( 'NONE',  ( 0.0000000000000000000, 0.0000000000000000000, 1.000000000000000000 ) ) ;
#48 = LINE ( 'NONE', #1, #127 ) ;
#49 = DIRECTION ( 'NONE',  ( 0.0000000000000000000, 0.0000000000000000000, 1.000000000000000000 ) ) ;
#50 = DIRECTION ( 'NONE',  ( 0.0000000000000000000, 0.0000000000000000000, 1.000000000000000000 ) ) ;
#51 = CARTESIAN_POINT ( 'NONE',  ( 30.00000000000000000, 0.0000000000000000000, 0.0000000000000000000 ) ) ;
#52 = EDGE_CURVE ( 'NONE', #23, #73, #224, .T. ) ;
#53 = ORIENTED_EDGE ( 'NONE', *, *, #98, .T. ) ;
#54 = CARTESIAN_POINT ( 'NONE',  ( 30.00000000000000000, 200.0000000000000000, 0.0000000000000000000 ) ) ;
#55 = VECTOR ( 'NONE', #223, 1000.000000000000000 ) ;
#56 = MECHANICAL_DESIGN_GEOMETRIC_PRESENTATION_REPRESENTATION (  '', ( #102 ), #175 ) ;
#57 = DIRECTION ( 'NONE',  ( 0.0000000000000000000, 0.0000000000000000000, 1.000000000000000000 ) ) ;
#58 = VECTOR ( 'NONE', #141, 1000.000000000000000 ) ;
#59 = FILL_AREA_STYLE_COLOUR ( '', #22 ) ;
#60 = CARTESIAN_POINT ( 'NONE',  ( 0.0000000000000000000, 1000.000000000000000, 0.0000000000000000000 ) ) ;
#61 = PRODUCT_DEFINITION_SHAPE ( 'NONE', 'NONE',  #172 ) ;
#62 =( GEOMETRIC_REPRESENTATION_CONTEXT ( 3 ) GLOBAL_UNCERTAINTY_ASSIGNED_CONTEXT ( ( #33 ) ) GLOBAL_UNIT_ASSIGNED_CONTEXT ( ( #34, #95, #207 ) ) REPRESENTATION_CONTEXT ( 'NONE', 'WORKASPACE' ) );
#63 = VECTOR ( 'NONE', #165, 1000.000000000000000 ) ;
#64 = ADVANCED_FACE ( 'NONE', ( #65 ), #214, .F. ) ;
#65 = FACE_OUTER_BOUND ( 'NONE', #220, .T. ) ;
#66 = PLANE ( 'NONE',  #72 ) ;
#67 = DIRECTION ( 'NONE',  ( 1.000000000000000000, 0.0000000000000000000, 0.0000000000000000000 ) ) ;
#68 = ORIENTED_EDGE ( 'NONE', *, *, #161, .T. ) ;
#69 = APPLICATION_PROTOCOL_DEFINITION ( 'draft international standard', 'automotive_design', 1998, #171 ) ;
#70 = DIRECTION ( 'NONE',  ( 1.000000000000000000, 0.0000000000000000000, 0.0000000000000000000 ) ) ;
#71 = PRODUCT_DEFINITION_SHAPE ( 'NONE', 'NONE',  #239 ) ;
#72 = AXIS2_PLACEMENT_3D ( 'NONE', #30, #185, #49 ) ;
#73 = VERTEX_POINT ( 'NONE', #11 ) ;
#74 = ORIENTED_EDGE ( 'NONE', *, *, #5, .F. ) ;
#75 = DIRECTION ( 'NONE',  ( -0.0000000000000000000, 1.000000000000000000, 0.0000000000000000000 ) ) ;
#76 = DIRECTION ( 'NONE',  ( -1.000000000000000000, 0.0000000000000000000, 0.0000000000000000000 ) ) ;
#77 = AXIS2_PLACEMENT_3D ( 'NONE', #192, #47, #93 ) ;
#78 = LINE ( 'NONE', #232, #21 ) ;
#79 = FACE_OUTER_BOUND ( 'NONE', #4, .T. ) ;
#80 = ORIENTED_EDGE ( 'NONE', *, *, #52, .F. ) ;
#81 = DIRECTION ( 'NONE',  ( 0.0000000000000000000, 0.0000000000000000000, 1.000000000000000000 ) ) ;
#82 = COLOUR_RGB ( '',0.7921568627450980000, 0.8196078431372548800, 0.9333333333333333500 ) ;
#83 = DIRECTION ( 'NONE',  ( 1.000000000000000000, 0.0000000000000000000, 0.0000000000000000000 ) ) ;
#84 = ORIENTED_EDGE ( 'NONE', *, *, #38, .T. ) ;
#85 = DIRECTION ( 'NONE',  ( -1.000000000000000000, 0.0000000000000000000, 0.0000000000000000000 ) ) ;
#86 =( LENGTH_UNIT ( ) NAMED_UNIT ( * ) SI_UNIT ( .MILLI., .METRE. ) );
#87 = CARTESIAN_POINT ( 'NONE',  ( 0.0000000000000000000, 0.0000000000000000000, 10.00000000000000000 ) ) ;
#88 = PRODUCT_RELATED_PRODUCT_CATEGORY ( 'part', '', ( #166 ) ) ;
#89 = CARTESIAN_POINT ( 'NONE',  ( 30.00000000000000000, 1000.000000000000000, 0.0000000000000000000 ) ) ;
#90 = PRODUCT ( 'rubber foam', 'rubber foam', '', ( #107 ) ) ;
#91 = DIRECTION ( 'NONE',  ( -1.000000000000000000, 0.0000000000000000000, 0.0000000000000000000 ) ) ;
#92 = SURFACE_STYLE_FILL_AREA ( #111 ) ;
#93 = DIRECTION ( 'NONE',  ( 1.000000000000000000, 0.0000000000000000000, 0.0000000000000000000 ) ) ;
#94 = PRODUCT_CONTEXT ( 'NONE', #204, 'mechanical' ) ;
#95 =( NAMED_UNIT ( * ) PLANE_ANGLE_UNIT ( ) SI_UNIT ( $, .RADIAN. ) );
#96 = EDGE_LOOP ( 'NONE', ( #68, #117, #135, #84 ) ) ;
#97 = MECHANICAL_DESIGN_GEOMETRIC_PRESENTATION_REPRESENTATION (  '', ( #190 ), #131 ) ;
#98 = EDGE_CURVE ( 'NONE', #73, #164, #221, .T. ) ;
#99 = LINE ( 'NONE', #87, #41 ) ;
#100 = VERTEX_POINT ( 'NONE', #128 ) ;
#101 = ORIENTED_EDGE ( 'NONE', *, *, #98, .F. ) ;
#102 = STYLED_ITEM ( 'NONE', ( #8 ), #237 ) ;
#103 = AXIS2_PLACEMENT_3D ( 'NONE', #26, #81, #200 ) ;
#104 = ORIENTED_EDGE ( 'NONE', *, *, #181, .F. ) ;
#105 = PLANE ( 'NONE',  #163 ) ;
#106 = CARTESIAN_POINT ( 'NONE',  ( 0.0000000000000000000, 1000.000000000000000, 10.00000000000000000 ) ) ;
#107 = PRODUCT_CONTEXT ( 'NONE', #121, 'mechanical' ) ;
#108 = DIRECTION ( 'NONE',  ( 1.000000000000000000, 0.0000000000000000000, 0.0000000000000000000 ) ) ;
#109 = AXIS2_PLACEMENT_3D ( 'NONE', #89, #57, #20 ) ;
#110 = PLANE ( 'NONE',  #24 ) ;
#111 = FILL_AREA_STYLE ('',( #150 ) ) ;
#112 = UNCERTAINTY_MEASURE_WITH_UNIT (LENGTH_MEASURE( 1.000000000000000100E-005 ), #86, 'distance_accuracy_value', 'NONE');
#113 = CONTEXT_DEPENDENT_SHAPE_REPRESENTATION ( #184, #71 ) ;
#114 =( NAMED_UNIT ( * ) SI_UNIT ( $, .STERADIAN. ) SOLID_ANGLE_UNIT ( ) );
#115 =( GEOMETRIC_REPRESENTATION_CONTEXT ( 3 ) GLOBAL_UNCERTAINTY_ASSIGNED_CONTEXT ( ( #112 ) ) GLOBAL_UNIT_ASSIGNED_CONTEXT ( ( #86, #37, #137 ) ) REPRESENTATION_CONTEXT ( 'NONE', 'WORKASPACE' ) );
#116 = PRODUCT_DEFINITION_FORMATION_WITH_SPECIFIED_SOURCE ( 'ANY', '', #90, .NOT_KNOWN. ) ;
#117 = ORIENTED_EDGE ( 'NONE', *, *, #12, .F. ) ;
#118 = SHAPE_DEFINITION_REPRESENTATION ( #40, #231 ) ;
#119 = ORIENTED_EDGE ( 'NONE', *, *, #181, .T. ) ;
#120 = ORIENTED_EDGE ( 'NONE', *, *, #159, .F. ) ;
#121 = APPLICATION_CONTEXT ( 'automotive_design' ) ;
#122 =( LENGTH_UNIT ( ) NAMED_UNIT ( * ) SI_UNIT ( .MILLI., .METRE. ) );
#123 = SURFACE_SIDE_STYLE ('',( #92 ) ) ;
#124 = CARTESIAN_POINT ( 'NONE',  ( 0.0000000000000000000, 200.0000000000000000, 0.0000000000000000000 ) ) ;
#125 = VERTEX_POINT ( 'NONE', #51 ) ;
#126 = ORIENTED_EDGE ( 'NONE', *, *, #225, .F. ) ;
#127 = VECTOR ( 'NONE', #28, 1000.000000000000000 ) ;
#128 = CARTESIAN_POINT ( 'NONE',  ( 30.00000000000000000, 0.0000000000000000000, 10.00000000000000000 ) ) ;
#129 = DIRECTION ( 'NONE',  ( 0.0000000000000000000, 0.0000000000000000000, 1.000000000000000000 ) ) ;
#130 = EDGE_LOOP ( 'NONE', ( #177, #74, #14, #153 ) ) ;
#131 =( GEOMETRIC_REPRESENTATION_CONTEXT ( 3 ) GLOBAL_UNCERTAINTY_ASSIGNED_CONTEXT ( ( #44 ) ) GLOBAL_UNIT_ASSIGNED_CONTEXT ( ( #143, #228, #201 ) ) REPRESENTATION_CONTEXT ( 'NONE', 'WORKASPACE' ) );
#132 = AXIS2_PLACEMENT_3D ( 'NONE', #195, #39, #160 ) ;
#133 = EDGE_LOOP ( 'NONE', ( #43, #120, #126, #191 ) ) ;
#134 = CARTESIAN_POINT ( 'NONE',  ( 0.0000000000000000000, 0.0000000000000000000, 0.0000000000000000000 ) ) ;
#135 = ORIENTED_EDGE ( 'NONE', *, *, #46, .F. ) ;
#136 = VERTEX_POINT ( 'NONE', #13 ) ;
#137 =( NAMED_UNIT ( * ) SI_UNIT ( $, .STERADIAN. ) SOLID_ANGLE_UNIT ( ) );
#138 = CARTESIAN_POINT ( 'NONE',  ( 30.00000000000000000, 1000.000000000000000, 10.00000000000000000 ) ) ;
#139 = ADVANCED_FACE ( 'NONE', ( #27 ), #110, .T. ) ;
#140 = CARTESIAN_POINT ( 'NONE',  ( 0.0000000000000000000, 200.0000000000000000, 10.00000000000000000 ) ) ;
#141 = DIRECTION ( 'NONE',  ( 0.0000000000000000000, -1.000000000000000000, 0.0000000000000000000 ) ) ;
#142 = CARTESIAN_POINT ( 'NONE',  ( 0.0000000000000000000, 1000.000000000000000, 0.0000000000000000000 ) ) ;
#143 =( LENGTH_UNIT ( ) NAMED_UNIT ( * ) SI_UNIT ( .MILLI., .METRE. ) );
#144 = LINE ( 'NONE', #235, #55 ) ;
#145 = ORIENTED_EDGE ( 'NONE', *, *, #46, .T. ) ;
#146 = ORIENTED_EDGE ( 'NONE', *, *, #169, .T. ) ;
#147 = APPLICATION_PROTOCOL_DEFINITION ( 'draft international standard', 'automotive_design', 1998, #173 ) ;
#148 = ADVANCED_BREP_SHAPE_REPRESENTATION ( '', ( #237, #229 ), #62 ) ;
#149 = PLANE ( 'NONE',  #219 ) ;
#150 = FILL_AREA_STYLE_COLOUR ( '', #82 ) ;
#151 = CARTESIAN_POINT ( 'NONE',  ( 30.00000000000000000, 0.0000000000000000000, 0.0000000000000000000 ) ) ;
#152 = ADVANCED_FACE ( 'NONE', ( #215 ), #66, .F. ) ;
#153 = ORIENTED_EDGE ( 'NONE', *, *, #12, .T. ) ;
#154 = VERTEX_POINT ( 'NONE', #16 ) ;
#155 = SHAPE_REPRESENTATION ( 'rubber foam', ( #229 ), #62 ) ;
#156 = PRESENTATION_LAYER_ASSIGNMENT (  '', '', ( #102 ) ) ;
#157 = VECTOR ( 'NONE', #91, 1000.000000000000000 ) ;
#158 = PLANE ( 'NONE',  #132 ) ;
#159 = EDGE_CURVE ( 'NONE', #164, #154, #208, .T. ) ;
#160 = DIRECTION ( 'NONE',  ( 1.000000000000000000, 0.0000000000000000000, 0.0000000000000000000 ) ) ;
#161 = EDGE_CURVE ( 'NONE', #154, #100, #99, .T. ) ;
#162 = CARTESIAN_POINT ( 'NONE',  ( 0.0000000000000000000, 0.0000000000000000000, 0.0000000000000000000 ) ) ;
#163 = AXIS2_PLACEMENT_3D ( 'NONE', #142, #108, #17 ) ;
#164 = VERTEX_POINT ( 'NONE', #162 ) ;
#165 = DIRECTION ( 'NONE',  ( 0.0000000000000000000, 0.0000000000000000000, 1.000000000000000000 ) ) ;
#166 = PRODUCT ( 'TM_340_11', 'TM_340_11', '', ( #94 ) ) ;
#167 = ADVANCED_FACE ( 'NONE', ( #79 ), #105, .F. ) ;
#168 = CARTESIAN_POINT ( 'NONE',  ( 30.00000000000000000, 200.0000000000000000, 0.0000000000000000000 ) ) ;
#169 = EDGE_CURVE ( 'NONE', #136, #23, #144, .T. ) ;
#170 = VECTOR ( 'NONE', #15, 1000.000000000000000 ) ;
#171 = APPLICATION_CONTEXT ( 'automotive_design' ) ;
#172 = PRODUCT_DEFINITION ( 'UNKNOWN', '', #116, #188 ) ;
#173 = APPLICATION_CONTEXT ( 'automotive_design' ) ;
#174 = FACE_OUTER_BOUND ( 'NONE', #96, .T. ) ;
#175 =( GEOMETRIC_REPRESENTATION_CONTEXT ( 3 ) GLOBAL_UNCERTAINTY_ASSIGNED_CONTEXT ( ( #196 ) ) GLOBAL_UNIT_ASSIGNED_CONTEXT ( ( #122, #194, #114 ) ) REPRESENTATION_CONTEXT ( 'NONE', 'WORKASPACE' ) );
#176 = SURFACE_STYLE_FILL_AREA ( #9 ) ;
#177 = ORIENTED_EDGE ( 'NONE', *, *, #199, .T. ) ;
#178 = PRODUCT_RELATED_PRODUCT_CATEGORY ( 'part', '', ( #90 ) ) ;
#179 = SURFACE_STYLE_USAGE ( .BOTH. , #7 ) ;
#180 = APPLICATION_PROTOCOL_DEFINITION ( 'draft international standard', 'automotive_design', 1998, #204 ) ;
#181 = EDGE_CURVE ( 'NONE', #73, #3, #78, .T. ) ;
#182 = CARTESIAN_POINT ( 'NONE',  ( 0.0000000000000000000, 0.0000000000000000000, 0.0000000000000000000 ) ) ;
#183 = SURFACE_STYLE_USAGE ( .BOTH. , #123 ) ;
#184 =( REPRESENTATION_RELATIONSHIP ('NONE','NONE', #231, #155 ) REPRESENTATION_RELATIONSHIP_WITH_TRANSFORMATION ( #210 )SHAPE_REPRESENTATION_RELATIONSHIP( ) );
#185 = DIRECTION ( 'NONE',  ( -1.000000000000000000, 0.0000000000000000000, 0.0000000000000000000 ) ) ;
#186 = CARTESIAN_POINT ( 'NONE',  ( 0.0000000000000000000, 1000.000000000000000, 10.00000000000000000 ) ) ;
#187 = ORIENTED_EDGE ( 'NONE', *, *, #52, .T. ) ;
#188 = PRODUCT_DEFINITION_CONTEXT ( 'detailed design', #173, 'design' ) ;
#189 = LINE ( 'NONE', #197, #18 ) ;
#190 = STYLED_ITEM ( 'NONE', ( #42 ), #148 ) ;
#191 = ORIENTED_EDGE ( 'NONE', *, *, #199, .F. ) ;
#192 = CARTESIAN_POINT ( 'NONE',  ( 0.0000000000000000000, 0.0000000000000000000, 0.0000000000000000000 ) ) ;
#193 = VECTOR ( 'NONE', #76, 1000.000000000000000 ) ;
#194 =( NAMED_UNIT ( * ) PLANE_ANGLE_UNIT ( ) SI_UNIT ( $, .RADIAN. ) );
#195 = CARTESIAN_POINT ( 'NONE',  ( 0.0000000000000000000, 0.0000000000000000000, 0.0000000000000000000 ) ) ;
#196 = UNCERTAINTY_MEASURE_WITH_UNIT (LENGTH_MEASURE( 1.000000000000000100E-005 ), #122, 'distance_accuracy_value', 'NONE');
#197 = CARTESIAN_POINT ( 'NONE',  ( 0.0000000000000000000, 200.0000000000000000, 10.00000000000000000 ) ) ;
#198 = ADVANCED_FACE ( 'NONE', ( #174 ), #149, .F. ) ;
#199 = EDGE_CURVE ( 'NONE', #100, #125, #218, .T. ) ;
#200 = DIRECTION ( 'NONE',  ( 1.000000000000000000, 0.0000000000000000000, 0.0000000000000000000 ) ) ;
#201 =( NAMED_UNIT ( * ) SI_UNIT ( $, .STERADIAN. ) SOLID_ANGLE_UNIT ( ) );
#202 = PRODUCT_DEFINITION_FORMATION_WITH_SPECIFIED_SOURCE ( 'ANY', '', #166, .NOT_KNOWN. ) ;
#203 = CLOSED_SHELL ( 'NONE', ( #198, #152, #64, #167, #139, #25 ) ) ;
#204 = APPLICATION_CONTEXT ( 'automotive_design' ) ;
#205 = DIRECTION ( 'NONE',  ( 1.000000000000000000, 0.0000000000000000000, 0.0000000000000000000 ) ) ;
#206 = PRODUCT_DEFINITION ( 'UNKNOWN', '', #202, #10 ) ;
#207 =( NAMED_UNIT ( * ) SI_UNIT ( $, .STERADIAN. ) SOLID_ANGLE_UNIT ( ) );
#208 = LINE ( 'NONE', #31, #63 ) ;
#209 = SHAPE_REPRESENTATION_RELATIONSHIP ( 'NONE' , 'NONE' ,  #155, #148 ) ;
#210 = ITEM_DEFINED_TRANSFORMATION ( 'NONE', 'NONE', #226,  #229 ) ;
#211 = ORIENTED_EDGE ( 'NONE', *, *, #38, .F. ) ;
#212 = ORIENTED_EDGE ( 'NONE', *, *, #5, .T. ) ;
#213 = DIRECTION ( 'NONE',  ( 0.0000000000000000000, -1.000000000000000000, 0.0000000000000000000 ) ) ;
#214 = PLANE ( 'NONE',  #109 ) ;
#215 = FACE_OUTER_BOUND ( 'NONE', #130, .T. ) ;
#216 = DIRECTION ( 'NONE',  ( 0.0000000000000000000, 0.0000000000000000000, 1.000000000000000000 ) ) ;
#217 = DIRECTION ( 'NONE',  ( 0.0000000000000000000, 0.0000000000000000000, -1.000000000000000000 ) ) ;
#218 = LINE ( 'NONE', #32, #227 ) ;
#219 = AXIS2_PLACEMENT_3D ( 'NONE', #106, #36, #85 ) ;
#220 = EDGE_LOOP ( 'NONE', ( #6, #101, #80, #212 ) ) ;
#221 = LINE ( 'NONE', #60, #230 ) ;
#222 = APPLICATION_PROTOCOL_DEFINITION ( 'draft international standard', 'automotive_design', 1998, #121 ) ;
#223 = DIRECTION ( 'NONE',  ( 0.0000000000000000000, 0.0000000000000000000, -1.000000000000000000 ) ) ;
#224 = LINE ( 'NONE', #54, #193 ) ;
#225 = EDGE_CURVE ( 'NONE', #125, #164, #236, .T. ) ;
#226 = AXIS2_PLACEMENT_3D ( 'NONE', #134, #216, #67 ) ;
#227 = VECTOR ( 'NONE', #217, 1000.000000000000000 ) ;
#228 =( NAMED_UNIT ( * ) PLANE_ANGLE_UNIT ( ) SI_UNIT ( $, .RADIAN. ) );
#229 = AXIS2_PLACEMENT_3D ( 'NONE', #182, #129, #83 ) ;
#230 = VECTOR ( 'NONE', #213, 1000.000000000000000 ) ;
#231 = SHAPE_REPRESENTATION ( 'TM_340_11', ( #77, #226 ), #115 ) ;
#232 = CARTESIAN_POINT ( 'NONE',  ( 0.0000000000000000000, 200.0000000000000000, 0.0000000000000000000 ) ) ;
#233 = ORIENTED_EDGE ( 'NONE', *, *, #159, .T. ) ;
#234 = DIRECTION ( 'NONE',  ( 1.000000000000000000, 0.0000000000000000000, 0.0000000000000000000 ) ) ;
#235 = CARTESIAN_POINT ( 'NONE',  ( 30.00000000000000000, 200.0000000000000000, 10.00000000000000000 ) ) ;
#236 = LINE ( 'NONE', #151, #157 ) ;
#237 = MANIFOLD_SOLID_BREP ( '²ÝÎß°Ä1', #203 ) ;
#238 = FACE_OUTER_BOUND ( 'NONE', #133, .T. ) ;
#239 = NEXT_ASSEMBLY_USAGE_OCCURRENCE ( 'NAUO1', ' ', ' ', #206, #172, $ ) ;
ENDSEC;
END-ISO-10303-21;
