ISO-10303-21;
HEADER;
FILE_DESCRIPTION (( 'STEP AP214' ),
    '1' );
FILE_NAME ('TM_340_14.STEP',
    '2016-05-09T05:53:03',
    ( '' ),
    ( '' ),
    'SwSTEP 2.0',
    'SolidWorks 2015',
    '' );
FILE_SCHEMA (( 'AUTOMOTIVE_DESIGN' ));
ENDSEC;

DATA;
#1 = DIRECTION ( 'NONE',  ( 0.0000000000000000000, 0.0000000000000000000, 1.000000000000000000 ) ) ;
#2 =( NAMED_UNIT ( * ) SI_UNIT ( $, .STERADIAN. ) SOLID_ANGLE_UNIT ( ) );
#3 =( NAMED_UNIT ( * ) SI_UNIT ( $, .STERADIAN. ) SOLID_ANGLE_UNIT ( ) );
#4 = PRODUCT_CONTEXT ( 'NONE', #50, 'mechanical' ) ;
#5 = VERTEX_POINT ( 'NONE', #145 ) ;
#6 =( GEOMETRIC_REPRESENTATION_CONTEXT ( 3 ) GLOBAL_UNCERTAINTY_ASSIGNED_CONTEXT ( ( #115 ) ) GLOBAL_UNIT_ASSIGNED_CONTEXT ( ( #101, #212, #109 ) ) REPRESENTATION_CONTEXT ( 'NONE', 'WORKASPACE' ) );
#7 = EDGE_LOOP ( 'NONE', ( #135, #209, #12, #93 ) ) ;
#8 = VECTOR ( 'NONE', #98, 1000.000000000000000 ) ;
#9 = FACE_OUTER_BOUND ( 'NONE', #213, .T. ) ;
#10 = PRODUCT_DEFINITION_SHAPE ( 'NONE', 'NONE',  #77 ) ;
#11 = ORIENTED_EDGE ( 'NONE', *, *, #75, .F. ) ;
#12 = ORIENTED_EDGE ( 'NONE', *, *, #204, .F. ) ;
#13 = DIRECTION ( 'NONE',  ( -1.000000000000000000, 0.0000000000000000000, 0.0000000000000000000 ) ) ;
#14 = PLANE ( 'NONE',  #199 ) ;
#15 = DIRECTION ( 'NONE',  ( 0.0000000000000000000, 0.0000000000000000000, 1.000000000000000000 ) ) ;
#16 = DIRECTION ( 'NONE',  ( 0.0000000000000000000, 0.0000000000000000000, -1.000000000000000000 ) ) ;
#17 = SURFACE_STYLE_USAGE ( .BOTH. , #143 ) ;
#18 = FACE_OUTER_BOUND ( 'NONE', #26, .T. ) ;
#19 = SURFACE_STYLE_FILL_AREA ( #149 ) ;
#20 = AXIS2_PLACEMENT_3D ( 'NONE', #164, #224, #71 ) ;
#21 = ORIENTED_EDGE ( 'NONE', *, *, #204, .T. ) ;
#22 = FACE_OUTER_BOUND ( 'NONE', #78, .T. ) ;
#23 = AXIS2_PLACEMENT_3D ( 'NONE', #141, #124, #236 ) ;
#24 = APPLICATION_CONTEXT ( 'automotive_design' ) ;
#25 = FACE_OUTER_BOUND ( 'NONE', #7, .T. ) ;
#26 = EDGE_LOOP ( 'NONE', ( #192, #184, #82, #90 ) ) ;
#27 = PRODUCT_DEFINITION ( 'UNKNOWN', '', #117, #179 ) ;
#28 = CARTESIAN_POINT ( 'NONE',  ( 25.00000000000000000, 200.0000000000000000, 0.0000000000000000000 ) ) ;
#29 = PLANE ( 'NONE',  #193 ) ;
#30 = CARTESIAN_POINT ( 'NONE',  ( 25.00000000000000000, 1000.000000000000000, 0.0000000000000000000 ) ) ;
#31 = VERTEX_POINT ( 'NONE', #167 ) ;
#32 =( LENGTH_UNIT ( ) NAMED_UNIT ( * ) SI_UNIT ( .MILLI., .METRE. ) );
#33 = CARTESIAN_POINT ( 'NONE',  ( 0.0000000000000000000, 0.0000000000000000000, 0.0000000000000000000 ) ) ;
#34 = PLANE ( 'NONE',  #23 ) ;
#35 = FILL_AREA_STYLE ('',( #188 ) ) ;
#36 = ADVANCED_FACE ( 'NONE', ( #18 ), #14, .F. ) ;
#37 = APPLICATION_CONTEXT ( 'automotive_design' ) ;
#38 = ORIENTED_EDGE ( 'NONE', *, *, #195, .T. ) ;
#39 = VECTOR ( 'NONE', #203, 1000.000000000000000 ) ;
#40 = PRODUCT_DEFINITION_SHAPE ( 'NONE', 'NONE',  #239 ) ;
#41 = ORIENTED_EDGE ( 'NONE', *, *, #195, .F. ) ;
#42 = VECTOR ( 'NONE', #15, 1000.000000000000000 ) ;
#43 = EDGE_CURVE ( 'NONE', #198, #31, #45, .T. ) ;
#44 = UNCERTAINTY_MEASURE_WITH_UNIT (LENGTH_MEASURE( 1.000000000000000100E-005 ), #88, 'distance_accuracy_value', 'NONE');
#45 = LINE ( 'NONE', #120, #216 ) ;
#46 = DIRECTION ( 'NONE',  ( 0.0000000000000000000, 0.0000000000000000000, -1.000000000000000000 ) ) ;
#47 = CARTESIAN_POINT ( 'NONE',  ( 0.0000000000000000000, 1000.000000000000000, 15.00000000000000000 ) ) ;
#48 = ITEM_DEFINED_TRANSFORMATION ( 'NONE', 'NONE', #230,  #131 ) ;
#49 = CARTESIAN_POINT ( 'NONE',  ( 25.00000000000000000, 1000.000000000000000, 15.00000000000000000 ) ) ;
#50 = APPLICATION_CONTEXT ( 'automotive_design' ) ;
#51 = CARTESIAN_POINT ( 'NONE',  ( 0.0000000000000000000, 0.0000000000000000000, 0.0000000000000000000 ) ) ;
#52 = EDGE_CURVE ( 'NONE', #123, #66, #113, .T. ) ;
#53 = LINE ( 'NONE', #121, #39 ) ;
#54 = DIRECTION ( 'NONE',  ( 0.0000000000000000000, 0.0000000000000000000, 1.000000000000000000 ) ) ;
#55 = VECTOR ( 'NONE', #165, 1000.000000000000000 ) ;
#56 = MANIFOLD_SOLID_BREP ( '²ÝÎß°Ä1', #214 ) ;
#57 = FILL_AREA_STYLE_COLOUR ( '', #156 ) ;
#58 = VECTOR ( 'NONE', #54, 1000.000000000000000 ) ;
#59 = VECTOR ( 'NONE', #182, 1000.000000000000000 ) ;
#60 =( REPRESENTATION_RELATIONSHIP ('NONE','NONE', #76, #157 ) REPRESENTATION_RELATIONSHIP_WITH_TRANSFORMATION ( #48 )SHAPE_REPRESENTATION_RELATIONSHIP( ) );
#61 = ORIENTED_EDGE ( 'NONE', *, *, #178, .T. ) ;
#62 = MECHANICAL_DESIGN_GEOMETRIC_PRESENTATION_REPRESENTATION (  '', ( #161 ), #108 ) ;
#63 = LINE ( 'NONE', #102, #99 ) ;
#64 = EDGE_CURVE ( 'NONE', #5, #198, #84, .T. ) ;
#65 = ORIENTED_EDGE ( 'NONE', *, *, #86, .F. ) ;
#66 = VERTEX_POINT ( 'NONE', #33 ) ;
#67 = PLANE ( 'NONE',  #119 ) ;
#68 = CARTESIAN_POINT ( 'NONE',  ( 0.0000000000000000000, 200.0000000000000000, 0.0000000000000000000 ) ) ;
#69 = CARTESIAN_POINT ( 'NONE',  ( 25.00000000000000000, 200.0000000000000000, 15.00000000000000000 ) ) ;
#70 = VECTOR ( 'NONE', #207, 1000.000000000000000 ) ;
#71 = DIRECTION ( 'NONE',  ( 1.000000000000000000, 0.0000000000000000000, 0.0000000000000000000 ) ) ;
#72 = VECTOR ( 'NONE', #83, 1000.000000000000000 ) ;
#73 = CARTESIAN_POINT ( 'NONE',  ( 0.0000000000000000000, 0.0000000000000000000, 0.0000000000000000000 ) ) ;
#74 = ORIENTED_EDGE ( 'NONE', *, *, #64, .T. ) ;
#75 = EDGE_CURVE ( 'NONE', #198, #123, #237, .T. ) ;
#76 = SHAPE_REPRESENTATION ( 'TM_340_14', ( #20, #230 ), #6 ) ;
#77 = PRODUCT_DEFINITION ( 'UNKNOWN', '', #89, #144 ) ;
#78 = EDGE_LOOP ( 'NONE', ( #95, #103, #65, #130 ) ) ;
#79 = AXIS2_PLACEMENT_3D ( 'NONE', #30, #233, #96 ) ;
#80 = SHAPE_DEFINITION_REPRESENTATION ( #10, #76 ) ;
#81 = DIRECTION ( 'NONE',  ( 1.000000000000000000, 0.0000000000000000000, 0.0000000000000000000 ) ) ;
#82 = ORIENTED_EDGE ( 'NONE', *, *, #64, .F. ) ;
#83 = DIRECTION ( 'NONE',  ( 0.0000000000000000000, -1.000000000000000000, 0.0000000000000000000 ) ) ;
#84 = LINE ( 'NONE', #69, #55 ) ;
#85 = CARTESIAN_POINT ( 'NONE',  ( 0.0000000000000000000, 0.0000000000000000000, 15.00000000000000000 ) ) ;
#86 = EDGE_CURVE ( 'NONE', #123, #234, #194, .T. ) ;
#87 = ADVANCED_BREP_SHAPE_REPRESENTATION ( '', ( #56, #131 ), #107 ) ;
#88 =( LENGTH_UNIT ( ) NAMED_UNIT ( * ) SI_UNIT ( .MILLI., .METRE. ) );
#89 = PRODUCT_DEFINITION_FORMATION_WITH_SPECIFIED_SOURCE ( 'ANY', '', #205, .NOT_KNOWN. ) ;
#90 = ORIENTED_EDGE ( 'NONE', *, *, #228, .T. ) ;
#91 = APPLICATION_PROTOCOL_DEFINITION ( 'draft international standard', 'automotive_design', 1998, #50 ) ;
#92 = ORIENTED_EDGE ( 'NONE', *, *, #43, .T. ) ;
#93 = ORIENTED_EDGE ( 'NONE', *, *, #112, .F. ) ;
#94 = LINE ( 'NONE', #51, #42 ) ;
#95 = ORIENTED_EDGE ( 'NONE', *, *, #152, .T. ) ;
#96 = DIRECTION ( 'NONE',  ( 1.000000000000000000, 0.0000000000000000000, 0.0000000000000000000 ) ) ;
#97 = PRODUCT_RELATED_PRODUCT_CATEGORY ( 'part', '', ( #205 ) ) ;
#98 = DIRECTION ( 'NONE',  ( 1.000000000000000000, 0.0000000000000000000, 0.0000000000000000000 ) ) ;
#99 = VECTOR ( 'NONE', #181, 1000.000000000000000 ) ;
#100 = CARTESIAN_POINT ( 'NONE',  ( 0.0000000000000000000, 200.0000000000000000, 0.0000000000000000000 ) ) ;
#101 =( LENGTH_UNIT ( ) NAMED_UNIT ( * ) SI_UNIT ( .MILLI., .METRE. ) );
#102 = CARTESIAN_POINT ( 'NONE',  ( 0.0000000000000000000, 200.0000000000000000, 15.00000000000000000 ) ) ;
#103 = ORIENTED_EDGE ( 'NONE', *, *, #168, .F. ) ;
#104 = CARTESIAN_POINT ( 'NONE',  ( 25.00000000000000000, 200.0000000000000000, 0.0000000000000000000 ) ) ;
#105 = ADVANCED_FACE ( 'NONE', ( #25 ), #34, .F. ) ;
#106 = AXIS2_PLACEMENT_3D ( 'NONE', #219, #137, #46 ) ;
#107 =( GEOMETRIC_REPRESENTATION_CONTEXT ( 3 ) GLOBAL_UNCERTAINTY_ASSIGNED_CONTEXT ( ( #44 ) ) GLOBAL_UNIT_ASSIGNED_CONTEXT ( ( #88, #128, #2 ) ) REPRESENTATION_CONTEXT ( 'NONE', 'WORKASPACE' ) );
#108 =( GEOMETRIC_REPRESENTATION_CONTEXT ( 3 ) GLOBAL_UNCERTAINTY_ASSIGNED_CONTEXT ( ( #223 ) ) GLOBAL_UNIT_ASSIGNED_CONTEXT ( ( #125, #238, #222 ) ) REPRESENTATION_CONTEXT ( 'NONE', 'WORKASPACE' ) );
#109 =( NAMED_UNIT ( * ) SI_UNIT ( $, .STERADIAN. ) SOLID_ANGLE_UNIT ( ) );
#110 = ORIENTED_EDGE ( 'NONE', *, *, #86, .T. ) ;
#111 = DIRECTION ( 'NONE',  ( 0.0000000000000000000, 0.0000000000000000000, 1.000000000000000000 ) ) ;
#112 = EDGE_CURVE ( 'NONE', #208, #31, #197, .T. ) ;
#113 = LINE ( 'NONE', #231, #70 ) ;
#114 = PRODUCT_DEFINITION_SHAPE ( 'NONE', 'NONE',  #27 ) ;
#115 = UNCERTAINTY_MEASURE_WITH_UNIT (LENGTH_MEASURE( 1.000000000000000100E-005 ), #101, 'distance_accuracy_value', 'NONE');
#116 = PRESENTATION_STYLE_ASSIGNMENT (( #150 ) ) ;
#117 = PRODUCT_DEFINITION_FORMATION_WITH_SPECIFIED_SOURCE ( 'ANY', '', #147, .NOT_KNOWN. ) ;
#118 = DIRECTION ( 'NONE',  ( -1.000000000000000000, 0.0000000000000000000, 0.0000000000000000000 ) ) ;
#119 = AXIS2_PLACEMENT_3D ( 'NONE', #232, #217, #81 ) ;
#120 = CARTESIAN_POINT ( 'NONE',  ( 25.00000000000000000, 1000.000000000000000, 0.0000000000000000000 ) ) ;
#121 = CARTESIAN_POINT ( 'NONE',  ( 25.00000000000000000, 1000.000000000000000, 15.00000000000000000 ) ) ;
#122 =( NAMED_UNIT ( * ) PLANE_ANGLE_UNIT ( ) SI_UNIT ( $, .RADIAN. ) );
#123 = VERTEX_POINT ( 'NONE', #68 ) ;
#124 = DIRECTION ( 'NONE',  ( -0.0000000000000000000, 1.000000000000000000, 0.0000000000000000000 ) ) ;
#125 =( LENGTH_UNIT ( ) NAMED_UNIT ( * ) SI_UNIT ( .MILLI., .METRE. ) );
#126 = DIRECTION ( 'NONE',  ( 0.0000000000000000000, -1.000000000000000000, 0.0000000000000000000 ) ) ;
#127 = DIRECTION ( 'NONE',  ( 0.0000000000000000000, 0.0000000000000000000, 1.000000000000000000 ) ) ;
#128 =( NAMED_UNIT ( * ) PLANE_ANGLE_UNIT ( ) SI_UNIT ( $, .RADIAN. ) );
#129 = PRODUCT_RELATED_PRODUCT_CATEGORY ( 'part', '', ( #147 ) ) ;
#130 = ORIENTED_EDGE ( 'NONE', *, *, #52, .T. ) ;
#131 = AXIS2_PLACEMENT_3D ( 'NONE', #73, #111, #171 ) ;
#132 = PRESENTATION_LAYER_ASSIGNMENT (  '', '', ( #161 ) ) ;
#133 = CARTESIAN_POINT ( 'NONE',  ( 25.00000000000000000, 0.0000000000000000000, 0.0000000000000000000 ) ) ;
#134 = DIRECTION ( 'NONE',  ( 0.0000000000000000000, 0.0000000000000000000, -1.000000000000000000 ) ) ;
#135 = ORIENTED_EDGE ( 'NONE', *, *, #178, .F. ) ;
#136 = FACE_OUTER_BOUND ( 'NONE', #200, .T. ) ;
#137 = DIRECTION ( 'NONE',  ( 1.000000000000000000, 0.0000000000000000000, 0.0000000000000000000 ) ) ;
#138 = APPLICATION_PROTOCOL_DEFINITION ( 'draft international standard', 'automotive_design', 1998, #142 ) ;
#139 = CARTESIAN_POINT ( 'NONE',  ( 0.0000000000000000000, 1000.000000000000000, 15.00000000000000000 ) ) ;
#140 = PRODUCT_CONTEXT ( 'NONE', #142, 'mechanical' ) ;
#141 = CARTESIAN_POINT ( 'NONE',  ( 0.0000000000000000000, 0.0000000000000000000, 0.0000000000000000000 ) ) ;
#142 = APPLICATION_CONTEXT ( 'automotive_design' ) ;
#143 = SURFACE_SIDE_STYLE ('',( #174 ) ) ;
#144 = PRODUCT_DEFINITION_CONTEXT ( 'detailed design', #37, 'design' ) ;
#145 = CARTESIAN_POINT ( 'NONE',  ( 25.00000000000000000, 200.0000000000000000, 15.00000000000000000 ) ) ;
#146 = STYLED_ITEM ( 'NONE', ( #116 ), #87 ) ;
#147 = PRODUCT ( 'rubber foam', 'rubber foam', '', ( #4 ) ) ;
#148 = EDGE_LOOP ( 'NONE', ( #21, #163, #11, #92 ) ) ;
#149 = FILL_AREA_STYLE ('',( #57 ) ) ;
#150 = SURFACE_STYLE_USAGE ( .BOTH. , #191 ) ;
#151 = VECTOR ( 'NONE', #187, 1000.000000000000000 ) ;
#152 = EDGE_CURVE ( 'NONE', #66, #158, #94, .T. ) ;
#153 = DIRECTION ( 'NONE',  ( 1.000000000000000000, 0.0000000000000000000, 0.0000000000000000000 ) ) ;
#154 = CARTESIAN_POINT ( 'NONE',  ( 0.0000000000000000000, 0.0000000000000000000, 0.0000000000000000000 ) ) ;
#155 = SHAPE_DEFINITION_REPRESENTATION ( #114, #157 ) ;
#156 = COLOUR_RGB ( '',0.7921568627450980000, 0.8196078431372548800, 0.9333333333333333500 ) ;
#157 = SHAPE_REPRESENTATION ( 'rubber foam', ( #131 ), #107 ) ;
#158 = VERTEX_POINT ( 'NONE', #186 ) ;
#159 = UNCERTAINTY_MEASURE_WITH_UNIT (LENGTH_MEASURE( 1.000000000000000100E-005 ), #32, 'distance_accuracy_value', 'NONE');
#160 = PRESENTATION_LAYER_ASSIGNMENT (  '', '', ( #146 ) ) ;
#161 = STYLED_ITEM ( 'NONE', ( #221 ), #56 ) ;
#162 = PLANE ( 'NONE',  #106 ) ;
#163 = ORIENTED_EDGE ( 'NONE', *, *, #52, .F. ) ;
#164 = CARTESIAN_POINT ( 'NONE',  ( 0.0000000000000000000, 0.0000000000000000000, 0.0000000000000000000 ) ) ;
#165 = DIRECTION ( 'NONE',  ( 0.0000000000000000000, 0.0000000000000000000, -1.000000000000000000 ) ) ;
#166 = VECTOR ( 'NONE', #16, 1000.000000000000000 ) ;
#167 = CARTESIAN_POINT ( 'NONE',  ( 25.00000000000000000, 0.0000000000000000000, 0.0000000000000000000 ) ) ;
#168 = EDGE_CURVE ( 'NONE', #234, #158, #211, .T. ) ;
#169 = DIRECTION ( 'NONE',  ( 0.0000000000000000000, 0.0000000000000000000, 1.000000000000000000 ) ) ;
#170 = COLOUR_RGB ( '',0.7921568627450980000, 0.8196078431372548800, 0.9333333333333333500 ) ;
#171 = DIRECTION ( 'NONE',  ( 1.000000000000000000, 0.0000000000000000000, 0.0000000000000000000 ) ) ;
#172 = LINE ( 'NONE', #85, #8 ) ;
#173 = SHAPE_REPRESENTATION_RELATIONSHIP ( 'NONE' , 'NONE' ,  #157, #87 ) ;
#174 = SURFACE_STYLE_FILL_AREA ( #35 ) ;
#175 = APPLICATION_PROTOCOL_DEFINITION ( 'draft international standard', 'automotive_design', 1998, #24 ) ;
#176 = MECHANICAL_DESIGN_GEOMETRIC_PRESENTATION_REPRESENTATION (  '', ( #146 ), #189 ) ;
#177 = ORIENTED_EDGE ( 'NONE', *, *, #168, .T. ) ;
#178 = EDGE_CURVE ( 'NONE', #158, #208, #172, .T. ) ;
#179 = PRODUCT_DEFINITION_CONTEXT ( 'detailed design', #24, 'design' ) ;
#180 = ADVANCED_FACE ( 'NONE', ( #215 ), #183, .F. ) ;
#181 = DIRECTION ( 'NONE',  ( 1.000000000000000000, 0.0000000000000000000, 0.0000000000000000000 ) ) ;
#182 = DIRECTION ( 'NONE',  ( -1.000000000000000000, 0.0000000000000000000, 0.0000000000000000000 ) ) ;
#183 = PLANE ( 'NONE',  #79 ) ;
#184 = ORIENTED_EDGE ( 'NONE', *, *, #43, .F. ) ;
#185 = ADVANCED_FACE ( 'NONE', ( #22 ), #162, .F. ) ;
#186 = CARTESIAN_POINT ( 'NONE',  ( 0.0000000000000000000, 0.0000000000000000000, 15.00000000000000000 ) ) ;
#187 = DIRECTION ( 'NONE',  ( -1.000000000000000000, 0.0000000000000000000, 0.0000000000000000000 ) ) ;
#188 = FILL_AREA_STYLE_COLOUR ( '', #170 ) ;
#189 =( GEOMETRIC_REPRESENTATION_CONTEXT ( 3 ) GLOBAL_UNCERTAINTY_ASSIGNED_CONTEXT ( ( #159 ) ) GLOBAL_UNIT_ASSIGNED_CONTEXT ( ( #32, #122, #3 ) ) REPRESENTATION_CONTEXT ( 'NONE', 'WORKASPACE' ) );
#190 = DIRECTION ( 'NONE',  ( 1.000000000000000000, 0.0000000000000000000, 0.0000000000000000000 ) ) ;
#191 = SURFACE_SIDE_STYLE ('',( #19 ) ) ;
#192 = ORIENTED_EDGE ( 'NONE', *, *, #112, .T. ) ;
#193 = AXIS2_PLACEMENT_3D ( 'NONE', #47, #134, #13 ) ;
#194 = LINE ( 'NONE', #100, #58 ) ;
#195 = EDGE_CURVE ( 'NONE', #234, #5, #63, .T. ) ;
#196 = LINE ( 'NONE', #133, #59 ) ;
#197 = LINE ( 'NONE', #220, #166 ) ;
#198 = VERTEX_POINT ( 'NONE', #28 ) ;
#199 = AXIS2_PLACEMENT_3D ( 'NONE', #49, #118, #1 ) ;
#200 = EDGE_LOOP ( 'NONE', ( #38, #74, #227, #110 ) ) ;
#201 = CARTESIAN_POINT ( 'NONE',  ( 25.00000000000000000, 0.0000000000000000000, 15.00000000000000000 ) ) ;
#202 = APPLICATION_PROTOCOL_DEFINITION ( 'draft international standard', 'automotive_design', 1998, #37 ) ;
#203 = DIRECTION ( 'NONE',  ( 0.0000000000000000000, -1.000000000000000000, 0.0000000000000000000 ) ) ;
#204 = EDGE_CURVE ( 'NONE', #31, #66, #196, .T. ) ;
#205 = PRODUCT ( 'TM_340_14', 'TM_340_14', '', ( #140 ) ) ;
#206 = CONTEXT_DEPENDENT_SHAPE_REPRESENTATION ( #60, #40 ) ;
#207 = DIRECTION ( 'NONE',  ( 0.0000000000000000000, -1.000000000000000000, 0.0000000000000000000 ) ) ;
#208 = VERTEX_POINT ( 'NONE', #201 ) ;
#209 = ORIENTED_EDGE ( 'NONE', *, *, #152, .F. ) ;
#210 = CARTESIAN_POINT ( 'NONE',  ( 0.0000000000000000000, 0.0000000000000000000, 0.0000000000000000000 ) ) ;
#211 = LINE ( 'NONE', #139, #72 ) ;
#212 =( NAMED_UNIT ( * ) PLANE_ANGLE_UNIT ( ) SI_UNIT ( $, .RADIAN. ) );
#213 = EDGE_LOOP ( 'NONE', ( #61, #229, #41, #177 ) ) ;
#214 = CLOSED_SHELL ( 'NONE', ( #226, #36, #180, #185, #235, #105 ) ) ;
#215 = FACE_OUTER_BOUND ( 'NONE', #148, .T. ) ;
#216 = VECTOR ( 'NONE', #126, 1000.000000000000000 ) ;
#217 = DIRECTION ( 'NONE',  ( -0.0000000000000000000, 1.000000000000000000, 0.0000000000000000000 ) ) ;
#218 = CARTESIAN_POINT ( 'NONE',  ( 0.0000000000000000000, 200.0000000000000000, 15.00000000000000000 ) ) ;
#219 = CARTESIAN_POINT ( 'NONE',  ( 0.0000000000000000000, 1000.000000000000000, 0.0000000000000000000 ) ) ;
#220 = CARTESIAN_POINT ( 'NONE',  ( 25.00000000000000000, 0.0000000000000000000, 15.00000000000000000 ) ) ;
#221 = PRESENTATION_STYLE_ASSIGNMENT (( #17 ) ) ;
#222 =( NAMED_UNIT ( * ) SI_UNIT ( $, .STERADIAN. ) SOLID_ANGLE_UNIT ( ) );
#223 = UNCERTAINTY_MEASURE_WITH_UNIT (LENGTH_MEASURE( 1.000000000000000100E-005 ), #125, 'distance_accuracy_value', 'NONE');
#224 = DIRECTION ( 'NONE',  ( 0.0000000000000000000, 0.0000000000000000000, 1.000000000000000000 ) ) ;
#225 = AXIS2_PLACEMENT_3D ( 'NONE', #210, #169, #190 ) ;
#226 = ADVANCED_FACE ( 'NONE', ( #9 ), #29, .F. ) ;
#227 = ORIENTED_EDGE ( 'NONE', *, *, #75, .T. ) ;
#228 = EDGE_CURVE ( 'NONE', #5, #208, #53, .T. ) ;
#229 = ORIENTED_EDGE ( 'NONE', *, *, #228, .F. ) ;
#230 = AXIS2_PLACEMENT_3D ( 'NONE', #154, #127, #153 ) ;
#231 = CARTESIAN_POINT ( 'NONE',  ( 0.0000000000000000000, 1000.000000000000000, 0.0000000000000000000 ) ) ;
#232 = CARTESIAN_POINT ( 'NONE',  ( 0.0000000000000000000, 200.0000000000000000, 0.0000000000000000000 ) ) ;
#233 = DIRECTION ( 'NONE',  ( 0.0000000000000000000, 0.0000000000000000000, 1.000000000000000000 ) ) ;
#234 = VERTEX_POINT ( 'NONE', #218 ) ;
#235 = ADVANCED_FACE ( 'NONE', ( #136 ), #67, .T. ) ;
#236 = DIRECTION ( 'NONE',  ( 1.000000000000000000, 0.0000000000000000000, 0.0000000000000000000 ) ) ;
#237 = LINE ( 'NONE', #104, #151 ) ;
#238 =( NAMED_UNIT ( * ) PLANE_ANGLE_UNIT ( ) SI_UNIT ( $, .RADIAN. ) );
#239 = NEXT_ASSEMBLY_USAGE_OCCURRENCE ( 'NAUO1', ' ', ' ', #77, #27, $ ) ;
ENDSEC;
END-ISO-10303-21;
