ISO-10303-21;
HEADER;
FILE_DESCRIPTION (( 'STEP AP214' ),
    '1' );
FILE_NAME ('TM_340_6.STEP',
    '2016-05-09T05:23:34',
    ( '' ),
    ( '' ),
    'SwSTEP 2.0',
    'SolidWorks 2015',
    '' );
FILE_SCHEMA (( 'AUTOMOTIVE_DESIGN' ));
ENDSEC;

DATA;
#1 = CARTESIAN_POINT ( 'NONE',  ( 0.0000000000000000000, 0.0000000000000000000, 0.0000000000000000000 ) ) ;
#2 = CARTESIAN_POINT ( 'NONE',  ( 30.00000000000000000, 200.0000000000000000, 0.0000000000000000000 ) ) ;
#3 = FACE_OUTER_BOUND ( 'NONE', #123, .T. ) ;
#4 = LINE ( 'NONE', #60, #139 ) ;
#5 = DIRECTION ( 'NONE',  ( 1.000000000000000000, 0.0000000000000000000, 0.0000000000000000000 ) ) ;
#6 = CARTESIAN_POINT ( 'NONE',  ( 30.00000000000000000, 1000.000000000000000, 0.0000000000000000000 ) ) ;
#7 = DIRECTION ( 'NONE',  ( -1.000000000000000000, 0.0000000000000000000, 0.0000000000000000000 ) ) ;
#8 = DIRECTION ( 'NONE',  ( 0.0000000000000000000, 0.0000000000000000000, 1.000000000000000000 ) ) ;
#9 = LINE ( 'NONE', #195, #86 ) ;
#10 = VECTOR ( 'NONE', #5, 1000.000000000000000 ) ;
#11 = SURFACE_STYLE_USAGE ( .BOTH. , #153 ) ;
#12 =( NAMED_UNIT ( * ) SI_UNIT ( $, .STERADIAN. ) SOLID_ANGLE_UNIT ( ) );
#13 = APPLICATION_CONTEXT ( 'automotive_design' ) ;
#14 = DIRECTION ( 'NONE',  ( 1.000000000000000000, 0.0000000000000000000, 0.0000000000000000000 ) ) ;
#15 = EDGE_CURVE ( 'NONE', #136, #235, #137, .T. ) ;
#16 = COLOUR_RGB ( '',0.7921568627450980000, 0.8196078431372548800, 0.9333333333333333500 ) ;
#17 = CARTESIAN_POINT ( 'NONE',  ( 0.0000000000000000000, 0.0000000000000000000, 0.0000000000000000000 ) ) ;
#18 = ORIENTED_EDGE ( 'NONE', *, *, #165, .T. ) ;
#19 = ADVANCED_FACE ( 'NONE', ( #223 ), #173, .F. ) ;
#20 = CARTESIAN_POINT ( 'NONE',  ( 30.00000000000000000, 200.0000000000000000, 5.000000000000000000 ) ) ;
#21 = EDGE_LOOP ( 'NONE', ( #175, #45, #198, #158 ) ) ;
#22 = ADVANCED_BREP_SHAPE_REPRESENTATION ( '', ( #174, #120 ), #113 ) ;
#23 = EDGE_CURVE ( 'NONE', #69, #233, #4, .T. ) ;
#24 = SHAPE_REPRESENTATION_RELATIONSHIP ( 'NONE' , 'NONE' ,  #227, #22 ) ;
#25 = FACE_OUTER_BOUND ( 'NONE', #21, .T. ) ;
#26 = COLOUR_RGB ( '',0.7921568627450980000, 0.8196078431372548800, 0.9333333333333333500 ) ;
#27 = CARTESIAN_POINT ( 'NONE',  ( 0.0000000000000000000, 1000.000000000000000, 5.000000000000000000 ) ) ;
#28 = APPLICATION_PROTOCOL_DEFINITION ( 'draft international standard', 'automotive_design', 1998, #53 ) ;
#29 = AXIS2_PLACEMENT_3D ( 'NONE', #214, #127, #81 ) ;
#30 = ADVANCED_FACE ( 'NONE', ( #25 ), #217, .F. ) ;
#31 =( REPRESENTATION_RELATIONSHIP ('NONE','NONE', #72, #227 ) REPRESENTATION_RELATIONSHIP_WITH_TRANSFORMATION ( #200 )SHAPE_REPRESENTATION_RELATIONSHIP( ) );
#32 = DIRECTION ( 'NONE',  ( 0.0000000000000000000, -1.000000000000000000, 0.0000000000000000000 ) ) ;
#33 = ADVANCED_FACE ( 'NONE', ( #208 ), #43, .F. ) ;
#34 = CARTESIAN_POINT ( 'NONE',  ( 30.00000000000000000, 200.0000000000000000, 0.0000000000000000000 ) ) ;
#35 = LINE ( 'NONE', #146, #211 ) ;
#36 = DIRECTION ( 'NONE',  ( 0.0000000000000000000, 0.0000000000000000000, 1.000000000000000000 ) ) ;
#37 = CARTESIAN_POINT ( 'NONE',  ( 0.0000000000000000000, 200.0000000000000000, 5.000000000000000000 ) ) ;
#38 = PRESENTATION_LAYER_ASSIGNMENT (  '', '', ( #49 ) ) ;
#39 = PLANE ( 'NONE',  #29 ) ;
#40 = ORIENTED_EDGE ( 'NONE', *, *, #154, .T. ) ;
#41 = ADVANCED_FACE ( 'NONE', ( #150 ), #42, .T. ) ;
#42 = PLANE ( 'NONE',  #209 ) ;
#43 = PLANE ( 'NONE',  #224 ) ;
#44 = DIRECTION ( 'NONE',  ( 0.0000000000000000000, 0.0000000000000000000, -1.000000000000000000 ) ) ;
#45 = ORIENTED_EDGE ( 'NONE', *, *, #58, .F. ) ;
#46 = ORIENTED_EDGE ( 'NONE', *, *, #126, .F. ) ;
#47 = ORIENTED_EDGE ( 'NONE', *, *, #23, .F. ) ;
#48 = ORIENTED_EDGE ( 'NONE', *, *, #213, .T. ) ;
#49 = STYLED_ITEM ( 'NONE', ( #190 ), #22 ) ;
#50 = VECTOR ( 'NONE', #133, 1000.000000000000000 ) ;
#51 = FILL_AREA_STYLE ('',( #225 ) ) ;
#52 = APPLICATION_PROTOCOL_DEFINITION ( 'draft international standard', 'automotive_design', 1998, #197 ) ;
#53 = APPLICATION_CONTEXT ( 'automotive_design' ) ;
#54 = VECTOR ( 'NONE', #167, 1000.000000000000000 ) ;
#55 = CARTESIAN_POINT ( 'NONE',  ( 30.00000000000000000, 1000.000000000000000, 5.000000000000000000 ) ) ;
#56 = UNCERTAINTY_MEASURE_WITH_UNIT (LENGTH_MEASURE( 1.000000000000000100E-005 ), #151, 'distance_accuracy_value', 'NONE');
#57 = ADVANCED_FACE ( 'NONE', ( #87 ), #39, .F. ) ;
#58 = EDGE_CURVE ( 'NONE', #88, #233, #35, .T. ) ;
#59 = ADVANCED_FACE ( 'NONE', ( #3 ), #182, .F. ) ;
#60 = CARTESIAN_POINT ( 'NONE',  ( 0.0000000000000000000, 0.0000000000000000000, 0.0000000000000000000 ) ) ;
#61 = LINE ( 'NONE', #20, #101 ) ;
#62 = VECTOR ( 'NONE', #66, 1000.000000000000000 ) ;
#63 = ORIENTED_EDGE ( 'NONE', *, *, #213, .F. ) ;
#64 = CARTESIAN_POINT ( 'NONE',  ( 30.00000000000000000, 0.0000000000000000000, 0.0000000000000000000 ) ) ;
#65 = LINE ( 'NONE', #55, #54 ) ;
#66 = DIRECTION ( 'NONE',  ( 0.0000000000000000000, 0.0000000000000000000, 1.000000000000000000 ) ) ;
#67 = VECTOR ( 'NONE', #7, 1000.000000000000000 ) ;
#68 = EDGE_LOOP ( 'NONE', ( #75, #63, #131, #229 ) ) ;
#69 = VERTEX_POINT ( 'NONE', #116 ) ;
#70 = PRODUCT_DEFINITION_CONTEXT ( 'detailed design', #53, 'design' ) ;
#71 = CARTESIAN_POINT ( 'NONE',  ( 30.00000000000000000, 0.0000000000000000000, 5.000000000000000000 ) ) ;
#72 = SHAPE_REPRESENTATION ( 'TM_340_6', ( #118, #138 ), #196 ) ;
#73 = DIRECTION ( 'NONE',  ( 1.000000000000000000, 0.0000000000000000000, 0.0000000000000000000 ) ) ;
#74 = AXIS2_PLACEMENT_3D ( 'NONE', #169, #78, #107 ) ;
#75 = ORIENTED_EDGE ( 'NONE', *, *, #206, .T. ) ;
#76 = DIRECTION ( 'NONE',  ( 1.000000000000000000, 0.0000000000000000000, 0.0000000000000000000 ) ) ;
#77 = APPLICATION_CONTEXT ( 'automotive_design' ) ;
#78 = DIRECTION ( 'NONE',  ( 1.000000000000000000, 0.0000000000000000000, 0.0000000000000000000 ) ) ;
#79 = DIRECTION ( 'NONE',  ( 0.0000000000000000000, -1.000000000000000000, 0.0000000000000000000 ) ) ;
#80 = CARTESIAN_POINT ( 'NONE',  ( 0.0000000000000000000, 0.0000000000000000000, 0.0000000000000000000 ) ) ;
#81 = DIRECTION ( 'NONE',  ( 1.000000000000000000, 0.0000000000000000000, 0.0000000000000000000 ) ) ;
#82 = DIRECTION ( 'NONE',  ( 1.000000000000000000, 0.0000000000000000000, 0.0000000000000000000 ) ) ;
#83 = PRODUCT_DEFINITION_SHAPE ( 'NONE', 'NONE',  #239 ) ;
#84 = ORIENTED_EDGE ( 'NONE', *, *, #90, .T. ) ;
#85 = DIRECTION ( 'NONE',  ( -1.000000000000000000, 0.0000000000000000000, 0.0000000000000000000 ) ) ;
#86 = VECTOR ( 'NONE', #183, 1000.000000000000000 ) ;
#87 = FACE_OUTER_BOUND ( 'NONE', #115, .T. ) ;
#88 = VERTEX_POINT ( 'NONE', #37 ) ;
#89 = PRODUCT_DEFINITION ( 'UNKNOWN', '', #162, #155 ) ;
#90 = EDGE_CURVE ( 'NONE', #172, #136, #61, .T. ) ;
#91 = VECTOR ( 'NONE', #32, 1000.000000000000000 ) ;
#92 = SHAPE_DEFINITION_REPRESENTATION ( #192, #227 ) ;
#93 = PRODUCT ( 'rubber foam', 'rubber foam', '', ( #238 ) ) ;
#94 =( LENGTH_UNIT ( ) NAMED_UNIT ( * ) SI_UNIT ( .MILLI., .METRE. ) );
#95 = DIRECTION ( 'NONE',  ( -0.0000000000000000000, 1.000000000000000000, 0.0000000000000000000 ) ) ;
#96 = PRODUCT_CONTEXT ( 'NONE', #77, 'mechanical' ) ;
#97 = PRODUCT_DEFINITION_SHAPE ( 'NONE', 'NONE',  #89 ) ;
#98 = CARTESIAN_POINT ( 'NONE',  ( 0.0000000000000000000, 200.0000000000000000, 0.0000000000000000000 ) ) ;
#99 = FILL_AREA_STYLE_COLOUR ( '', #26 ) ;
#100 = LINE ( 'NONE', #203, #171 ) ;
#101 = VECTOR ( 'NONE', #221, 1000.000000000000000 ) ;
#102 = AXIS2_PLACEMENT_3D ( 'NONE', #80, #147, #76 ) ;
#103 =( GEOMETRIC_REPRESENTATION_CONTEXT ( 3 ) GLOBAL_UNCERTAINTY_ASSIGNED_CONTEXT ( ( #56 ) ) GLOBAL_UNIT_ASSIGNED_CONTEXT ( ( #151, #163, #186 ) ) REPRESENTATION_CONTEXT ( 'NONE', 'WORKASPACE' ) );
#104 = PRESENTATION_STYLE_ASSIGNMENT (( #11 ) ) ;
#105 = UNCERTAINTY_MEASURE_WITH_UNIT (LENGTH_MEASURE( 1.000000000000000100E-005 ), #108, 'distance_accuracy_value', 'NONE');
#106 = SURFACE_STYLE_FILL_AREA ( #51 ) ;
#107 = DIRECTION ( 'NONE',  ( 0.0000000000000000000, 0.0000000000000000000, -1.000000000000000000 ) ) ;
#108 =( LENGTH_UNIT ( ) NAMED_UNIT ( * ) SI_UNIT ( .MILLI., .METRE. ) );
#109 = PRODUCT_RELATED_PRODUCT_CATEGORY ( 'part', '', ( #121 ) ) ;
#110 = LINE ( 'NONE', #71, #122 ) ;
#111 = VERTEX_POINT ( 'NONE', #188 ) ;
#112 = ORIENTED_EDGE ( 'NONE', *, *, #189, .F. ) ;
#113 =( GEOMETRIC_REPRESENTATION_CONTEXT ( 3 ) GLOBAL_UNCERTAINTY_ASSIGNED_CONTEXT ( ( #194 ) ) GLOBAL_UNIT_ASSIGNED_CONTEXT ( ( #94, #130, #168 ) ) REPRESENTATION_CONTEXT ( 'NONE', 'WORKASPACE' ) );
#114 = DIRECTION ( 'NONE',  ( 1.000000000000000000, 0.0000000000000000000, 0.0000000000000000000 ) ) ;
#115 = EDGE_LOOP ( 'NONE', ( #210, #112, #230, #166 ) ) ;
#116 = CARTESIAN_POINT ( 'NONE',  ( 0.0000000000000000000, 0.0000000000000000000, 0.0000000000000000000 ) ) ;
#117 = FILL_AREA_STYLE ('',( #99 ) ) ;
#118 = AXIS2_PLACEMENT_3D ( 'NONE', #17, #145, #73 ) ;
#119 = SHAPE_DEFINITION_REPRESENTATION ( #97, #72 ) ;
#120 = AXIS2_PLACEMENT_3D ( 'NONE', #144, #132, #14 ) ;
#121 = PRODUCT ( 'TM_340_6', 'TM_340_6', '', ( #96 ) ) ;
#122 = VECTOR ( 'NONE', #216, 1000.000000000000000 ) ;
#123 = EDGE_LOOP ( 'NONE', ( #47, #46, #156, #204 ) ) ;
#124 = LINE ( 'NONE', #2, #67 ) ;
#125 = SURFACE_STYLE_USAGE ( .BOTH. , #152 ) ;
#126 = EDGE_CURVE ( 'NONE', #235, #69, #219, .T. ) ;
#127 = DIRECTION ( 'NONE',  ( 0.0000000000000000000, 0.0000000000000000000, 1.000000000000000000 ) ) ;
#128 = CARTESIAN_POINT ( 'NONE',  ( 0.0000000000000000000, 200.0000000000000000, 0.0000000000000000000 ) ) ;
#129 = ORIENTED_EDGE ( 'NONE', *, *, #15, .F. ) ;
#130 =( NAMED_UNIT ( * ) PLANE_ANGLE_UNIT ( ) SI_UNIT ( $, .RADIAN. ) );
#131 = ORIENTED_EDGE ( 'NONE', *, *, #141, .F. ) ;
#132 = DIRECTION ( 'NONE',  ( 0.0000000000000000000, 0.0000000000000000000, 1.000000000000000000 ) ) ;
#133 = DIRECTION ( 'NONE',  ( -1.000000000000000000, 0.0000000000000000000, 0.0000000000000000000 ) ) ;
#134 =( NAMED_UNIT ( * ) PLANE_ANGLE_UNIT ( ) SI_UNIT ( $, .RADIAN. ) );
#135 = PRODUCT_DEFINITION ( 'UNKNOWN', '', #226, #70 ) ;
#136 = VERTEX_POINT ( 'NONE', #34 ) ;
#137 = LINE ( 'NONE', #6, #91 ) ;
#138 = AXIS2_PLACEMENT_3D ( 'NONE', #170, #228, #215 ) ;
#139 = VECTOR ( 'NONE', #8, 1000.000000000000000 ) ;
#140 =( GEOMETRIC_REPRESENTATION_CONTEXT ( 3 ) GLOBAL_UNCERTAINTY_ASSIGNED_CONTEXT ( ( #191 ) ) GLOBAL_UNIT_ASSIGNED_CONTEXT ( ( #222, #134, #12 ) ) REPRESENTATION_CONTEXT ( 'NONE', 'WORKASPACE' ) );
#141 = EDGE_CURVE ( 'NONE', #88, #172, #157, .T. ) ;
#142 = EDGE_CURVE ( 'NONE', #136, #143, #124, .T. ) ;
#143 = VERTEX_POINT ( 'NONE', #128 ) ;
#144 = CARTESIAN_POINT ( 'NONE',  ( 0.0000000000000000000, 0.0000000000000000000, 0.0000000000000000000 ) ) ;
#145 = DIRECTION ( 'NONE',  ( 0.0000000000000000000, 0.0000000000000000000, 1.000000000000000000 ) ) ;
#146 = CARTESIAN_POINT ( 'NONE',  ( 0.0000000000000000000, 1000.000000000000000, 5.000000000000000000 ) ) ;
#147 = DIRECTION ( 'NONE',  ( 0.0000000000000000000, 0.0000000000000000000, 1.000000000000000000 ) ) ;
#148 = CARTESIAN_POINT ( 'NONE',  ( 30.00000000000000000, 0.0000000000000000000, 0.0000000000000000000 ) ) ;
#149 = PRODUCT_RELATED_PRODUCT_CATEGORY ( 'part', '', ( #93 ) ) ;
#150 = FACE_OUTER_BOUND ( 'NONE', #184, .T. ) ;
#151 =( LENGTH_UNIT ( ) NAMED_UNIT ( * ) SI_UNIT ( .MILLI., .METRE. ) );
#152 = SURFACE_SIDE_STYLE ('',( #176 ) ) ;
#153 = SURFACE_SIDE_STYLE ('',( #106 ) ) ;
#154 = EDGE_CURVE ( 'NONE', #111, #235, #110, .T. ) ;
#155 = PRODUCT_DEFINITION_CONTEXT ( 'detailed design', #13, 'design' ) ;
#156 = ORIENTED_EDGE ( 'NONE', *, *, #154, .F. ) ;
#157 = LINE ( 'NONE', #205, #10 ) ;
#158 = ORIENTED_EDGE ( 'NONE', *, *, #189, .T. ) ;
#159 = PRESENTATION_LAYER_ASSIGNMENT (  '', '', ( #237 ) ) ;
#160 = APPLICATION_PROTOCOL_DEFINITION ( 'draft international standard', 'automotive_design', 1998, #13 ) ;
#161 = DIRECTION ( 'NONE',  ( 1.000000000000000000, 0.0000000000000000000, 0.0000000000000000000 ) ) ;
#162 = PRODUCT_DEFINITION_FORMATION_WITH_SPECIFIED_SOURCE ( 'ANY', '', #121, .NOT_KNOWN. ) ;
#163 =( NAMED_UNIT ( * ) PLANE_ANGLE_UNIT ( ) SI_UNIT ( $, .RADIAN. ) );
#164 = CARTESIAN_POINT ( 'NONE',  ( 0.0000000000000000000, 200.0000000000000000, 0.0000000000000000000 ) ) ;
#165 = EDGE_CURVE ( 'NONE', #143, #88, #234, .T. ) ;
#166 = ORIENTED_EDGE ( 'NONE', *, *, #15, .T. ) ;
#167 = DIRECTION ( 'NONE',  ( 0.0000000000000000000, -1.000000000000000000, 0.0000000000000000000 ) ) ;
#168 =( NAMED_UNIT ( * ) SI_UNIT ( $, .STERADIAN. ) SOLID_ANGLE_UNIT ( ) );
#169 = CARTESIAN_POINT ( 'NONE',  ( 0.0000000000000000000, 1000.000000000000000, 0.0000000000000000000 ) ) ;
#170 = CARTESIAN_POINT ( 'NONE',  ( 0.0000000000000000000, 0.0000000000000000000, 0.0000000000000000000 ) ) ;
#171 = VECTOR ( 'NONE', #114, 1000.000000000000000 ) ;
#172 = VERTEX_POINT ( 'NONE', #207 ) ;
#173 = PLANE ( 'NONE',  #236 ) ;
#174 = MANIFOLD_SOLID_BREP ( '²ÝÎß°Ä1', #181 ) ;
#175 = ORIENTED_EDGE ( 'NONE', *, *, #23, .T. ) ;
#176 = SURFACE_STYLE_FILL_AREA ( #117 ) ;
#177 =( NAMED_UNIT ( * ) PLANE_ANGLE_UNIT ( ) SI_UNIT ( $, .RADIAN. ) );
#178 =( NAMED_UNIT ( * ) SI_UNIT ( $, .STERADIAN. ) SOLID_ANGLE_UNIT ( ) );
#179 = EDGE_LOOP ( 'NONE', ( #40, #129, #220, #48 ) ) ;
#180 = DIRECTION ( 'NONE',  ( -0.0000000000000000000, 1.000000000000000000, 0.0000000000000000000 ) ) ;
#181 = CLOSED_SHELL ( 'NONE', ( #30, #19, #33, #57, #41, #59 ) ) ;
#182 = PLANE ( 'NONE',  #187 ) ;
#183 = DIRECTION ( 'NONE',  ( 0.0000000000000000000, -1.000000000000000000, 0.0000000000000000000 ) ) ;
#184 = EDGE_LOOP ( 'NONE', ( #18, #185, #84, #202 ) ) ;
#185 = ORIENTED_EDGE ( 'NONE', *, *, #141, .T. ) ;
#186 =( NAMED_UNIT ( * ) SI_UNIT ( $, .STERADIAN. ) SOLID_ANGLE_UNIT ( ) );
#187 = AXIS2_PLACEMENT_3D ( 'NONE', #1, #180, #82 ) ;
#188 = CARTESIAN_POINT ( 'NONE',  ( 30.00000000000000000, 0.0000000000000000000, 5.000000000000000000 ) ) ;
#189 = EDGE_CURVE ( 'NONE', #143, #69, #9, .T. ) ;
#190 = PRESENTATION_STYLE_ASSIGNMENT (( #125 ) ) ;
#191 = UNCERTAINTY_MEASURE_WITH_UNIT (LENGTH_MEASURE( 1.000000000000000100E-005 ), #222, 'distance_accuracy_value', 'NONE');
#192 = PRODUCT_DEFINITION_SHAPE ( 'NONE', 'NONE',  #135 ) ;
#193 = APPLICATION_PROTOCOL_DEFINITION ( 'draft international standard', 'automotive_design', 1998, #77 ) ;
#194 = UNCERTAINTY_MEASURE_WITH_UNIT (LENGTH_MEASURE( 1.000000000000000100E-005 ), #94, 'distance_accuracy_value', 'NONE');
#195 = CARTESIAN_POINT ( 'NONE',  ( 0.0000000000000000000, 1000.000000000000000, 0.0000000000000000000 ) ) ;
#196 =( GEOMETRIC_REPRESENTATION_CONTEXT ( 3 ) GLOBAL_UNCERTAINTY_ASSIGNED_CONTEXT ( ( #105 ) ) GLOBAL_UNIT_ASSIGNED_CONTEXT ( ( #108, #177, #178 ) ) REPRESENTATION_CONTEXT ( 'NONE', 'WORKASPACE' ) );
#197 = APPLICATION_CONTEXT ( 'automotive_design' ) ;
#198 = ORIENTED_EDGE ( 'NONE', *, *, #165, .F. ) ;
#199 = CARTESIAN_POINT ( 'NONE',  ( 30.00000000000000000, 1000.000000000000000, 5.000000000000000000 ) ) ;
#200 = ITEM_DEFINED_TRANSFORMATION ( 'NONE', 'NONE', #138,  #120 ) ;
#201 = CARTESIAN_POINT ( 'NONE',  ( 0.0000000000000000000, 0.0000000000000000000, 5.000000000000000000 ) ) ;
#202 = ORIENTED_EDGE ( 'NONE', *, *, #142, .T. ) ;
#203 = CARTESIAN_POINT ( 'NONE',  ( 0.0000000000000000000, 0.0000000000000000000, 5.000000000000000000 ) ) ;
#204 = ORIENTED_EDGE ( 'NONE', *, *, #206, .F. ) ;
#205 = CARTESIAN_POINT ( 'NONE',  ( 0.0000000000000000000, 200.0000000000000000, 5.000000000000000000 ) ) ;
#206 = EDGE_CURVE ( 'NONE', #233, #111, #100, .T. ) ;
#207 = CARTESIAN_POINT ( 'NONE',  ( 30.00000000000000000, 200.0000000000000000, 5.000000000000000000 ) ) ;
#208 = FACE_OUTER_BOUND ( 'NONE', #179, .T. ) ;
#209 = AXIS2_PLACEMENT_3D ( 'NONE', #164, #95, #161 ) ;
#210 = ORIENTED_EDGE ( 'NONE', *, *, #126, .T. ) ;
#211 = VECTOR ( 'NONE', #79, 1000.000000000000000 ) ;
#212 = MECHANICAL_DESIGN_GEOMETRIC_PRESENTATION_REPRESENTATION (  '', ( #237 ), #103 ) ;
#213 = EDGE_CURVE ( 'NONE', #172, #111, #65, .T. ) ;
#214 = CARTESIAN_POINT ( 'NONE',  ( 30.00000000000000000, 1000.000000000000000, 0.0000000000000000000 ) ) ;
#215 = DIRECTION ( 'NONE',  ( 1.000000000000000000, 0.0000000000000000000, 0.0000000000000000000 ) ) ;
#216 = DIRECTION ( 'NONE',  ( 0.0000000000000000000, 0.0000000000000000000, -1.000000000000000000 ) ) ;
#217 = PLANE ( 'NONE',  #74 ) ;
#218 = CONTEXT_DEPENDENT_SHAPE_REPRESENTATION ( #31, #83 ) ;
#219 = LINE ( 'NONE', #64, #50 ) ;
#220 = ORIENTED_EDGE ( 'NONE', *, *, #90, .F. ) ;
#221 = DIRECTION ( 'NONE',  ( 0.0000000000000000000, 0.0000000000000000000, -1.000000000000000000 ) ) ;
#222 =( LENGTH_UNIT ( ) NAMED_UNIT ( * ) SI_UNIT ( .MILLI., .METRE. ) );
#223 = FACE_OUTER_BOUND ( 'NONE', #68, .T. ) ;
#224 = AXIS2_PLACEMENT_3D ( 'NONE', #199, #85, #36 ) ;
#225 = FILL_AREA_STYLE_COLOUR ( '', #16 ) ;
#226 = PRODUCT_DEFINITION_FORMATION_WITH_SPECIFIED_SOURCE ( 'ANY', '', #93, .NOT_KNOWN. ) ;
#227 = SHAPE_REPRESENTATION ( 'rubber foam', ( #120 ), #113 ) ;
#228 = DIRECTION ( 'NONE',  ( 0.0000000000000000000, 0.0000000000000000000, 1.000000000000000000 ) ) ;
#229 = ORIENTED_EDGE ( 'NONE', *, *, #58, .T. ) ;
#230 = ORIENTED_EDGE ( 'NONE', *, *, #142, .F. ) ;
#231 = MECHANICAL_DESIGN_GEOMETRIC_PRESENTATION_REPRESENTATION (  '', ( #49 ), #140 ) ;
#232 = DIRECTION ( 'NONE',  ( -1.000000000000000000, 0.0000000000000000000, 0.0000000000000000000 ) ) ;
#233 = VERTEX_POINT ( 'NONE', #201 ) ;
#234 = LINE ( 'NONE', #98, #62 ) ;
#235 = VERTEX_POINT ( 'NONE', #148 ) ;
#236 = AXIS2_PLACEMENT_3D ( 'NONE', #27, #44, #232 ) ;
#237 = STYLED_ITEM ( 'NONE', ( #104 ), #174 ) ;
#238 = PRODUCT_CONTEXT ( 'NONE', #197, 'mechanical' ) ;
#239 = NEXT_ASSEMBLY_USAGE_OCCURRENCE ( 'NAUO1', ' ', ' ', #89, #135, $ ) ;
ENDSEC;
END-ISO-10303-21;
