ISO-10303-21;
HEADER;
FILE_DESCRIPTION (( 'STEP AP214' ),
    '1' );
FILE_NAME ('TM_340_8.STEP',
    '2016-05-09T05:28:36',
    ( '' ),
    ( '' ),
    'SwSTEP 2.0',
    'SolidWorks 2015',
    '' );
FILE_SCHEMA (( 'AUTOMOTIVE_DESIGN' ));
ENDSEC;

DATA;
#1 = CARTESIAN_POINT ( 'NONE',  ( 0.0000000000000000000, 0.0000000000000000000, 0.0000000000000000000 ) ) ;
#2 = CARTESIAN_POINT ( 'NONE',  ( 0.0000000000000000000, 0.0000000000000000000, 0.0000000000000000000 ) ) ;
#3 = ORIENTED_EDGE ( 'NONE', *, *, #234, .F. ) ;
#4 = DIRECTION ( 'NONE',  ( 1.000000000000000000, 0.0000000000000000000, 0.0000000000000000000 ) ) ;
#5 = DIRECTION ( 'NONE',  ( -0.0000000000000000000, 1.000000000000000000, 0.0000000000000000000 ) ) ;
#6 = APPLICATION_CONTEXT ( 'automotive_design' ) ;
#7 = PRODUCT_DEFINITION_FORMATION_WITH_SPECIFIED_SOURCE ( 'ANY', '', #61, .NOT_KNOWN. ) ;
#8 = ORIENTED_EDGE ( 'NONE', *, *, #32, .F. ) ;
#9 = SURFACE_STYLE_FILL_AREA ( #163 ) ;
#10 = VERTEX_POINT ( 'NONE', #80 ) ;
#11 =( LENGTH_UNIT ( ) NAMED_UNIT ( * ) SI_UNIT ( .MILLI., .METRE. ) );
#12 = DIRECTION ( 'NONE',  ( 0.0000000000000000000, 0.0000000000000000000, 1.000000000000000000 ) ) ;
#13 = CARTESIAN_POINT ( 'NONE',  ( 15.00000000000000000, 0.0000000000000000000, 0.0000000000000000000 ) ) ;
#14 = DIRECTION ( 'NONE',  ( -0.0000000000000000000, -0.0000000000000000000, -1.000000000000000000 ) ) ;
#15 = PLANE ( 'NONE',  #89 ) ;
#16 = EDGE_CURVE ( 'NONE', #10, #70, #187, .T. ) ;
#17 = DIRECTION ( 'NONE',  ( -0.0000000000000000000, -0.0000000000000000000, 1.000000000000000000 ) ) ;
#18 = PRODUCT_RELATED_PRODUCT_CATEGORY ( 'part', '', ( #61 ) ) ;
#19 = ORIENTED_EDGE ( 'NONE', *, *, #145, .F. ) ;
#20 = DIRECTION ( 'NONE',  ( 1.000000000000000000, 0.0000000000000000000, 0.0000000000000000000 ) ) ;
#21 = DIRECTION ( 'NONE',  ( 0.0000000000000000000, 0.0000000000000000000, 1.000000000000000000 ) ) ;
#22 = CARTESIAN_POINT ( 'NONE',  ( 0.0000000000000000000, 200.0000000000000000, 0.0000000000000000000 ) ) ;
#23 = COLOUR_RGB ( '',0.7921568627450980000, 0.8196078431372548800, 0.9333333333333333500 ) ;
#24 = EDGE_CURVE ( 'NONE', #173, #53, #50, .T. ) ;
#25 = PRODUCT_DEFINITION_SHAPE ( 'NONE', 'NONE',  #235 ) ;
#26 = CARTESIAN_POINT ( 'NONE',  ( 15.00000000000000000, 0.0000000000000000000, 10.00000000000000000 ) ) ;
#27 = AXIS2_PLACEMENT_3D ( 'NONE', #206, #12, #181 ) ;
#28 = SHAPE_REPRESENTATION ( 'rubber foam', ( #178 ), #152 ) ;
#29 = EDGE_LOOP ( 'NONE', ( #3, #191, #167, #154 ) ) ;
#30 = EDGE_CURVE ( 'NONE', #81, #10, #94, .T. ) ;
#31 = FACE_OUTER_BOUND ( 'NONE', #184, .T. ) ;
#32 = EDGE_CURVE ( 'NONE', #238, #70, #43, .T. ) ;
#33 = ORIENTED_EDGE ( 'NONE', *, *, #32, .T. ) ;
#34 = PRODUCT_DEFINITION ( 'UNKNOWN', '', #47, #64 ) ;
#35 = APPLICATION_PROTOCOL_DEFINITION ( 'draft international standard', 'automotive_design', 1998, #6 ) ;
#36 = VECTOR ( 'NONE', #68, 1000.000000000000000 ) ;
#37 = CARTESIAN_POINT ( 'NONE',  ( 15.00000000000000000, 1000.000000000000000, 10.00000000000000000 ) ) ;
#38 = DIRECTION ( 'NONE',  ( -0.0000000000000000000, 1.000000000000000000, 0.0000000000000000000 ) ) ;
#39 = AXIS2_PLACEMENT_3D ( 'NONE', #41, #65, #223 ) ;
#40 = ORIENTED_EDGE ( 'NONE', *, *, #218, .F. ) ;
#41 = CARTESIAN_POINT ( 'NONE',  ( 0.0000000000000000000, 0.0000000000000000000, 0.0000000000000000000 ) ) ;
#42 = DIRECTION ( 'NONE',  ( 0.0000000000000000000, 0.0000000000000000000, -1.000000000000000000 ) ) ;
#43 = LINE ( 'NONE', #112, #137 ) ;
#44 = SHAPE_DEFINITION_REPRESENTATION ( #25, #188 ) ;
#45 = EDGE_CURVE ( 'NONE', #173, #108, #237, .T. ) ;
#46 = ORIENTED_EDGE ( 'NONE', *, *, #210, .F. ) ;
#47 = PRODUCT_DEFINITION_FORMATION_WITH_SPECIFIED_SOURCE ( 'ANY', '', #174, .NOT_KNOWN. ) ;
#48 = FACE_OUTER_BOUND ( 'NONE', #124, .T. ) ;
#49 = ADVANCED_FACE ( 'NONE', ( #180 ), #15, .F. ) ;
#50 = LINE ( 'NONE', #205, #90 ) ;
#51 = EDGE_CURVE ( 'NONE', #70, #108, #127, .T. ) ;
#52 = ITEM_DEFINED_TRANSFORMATION ( 'NONE', 'NONE', #39,  #178 ) ;
#53 = VERTEX_POINT ( 'NONE', #67 ) ;
#54 =( GEOMETRIC_REPRESENTATION_CONTEXT ( 3 ) GLOBAL_UNCERTAINTY_ASSIGNED_CONTEXT ( ( #153 ) ) GLOBAL_UNIT_ASSIGNED_CONTEXT ( ( #11, #146, #60 ) ) REPRESENTATION_CONTEXT ( 'NONE', 'WORKASPACE' ) );
#55 =( NAMED_UNIT ( * ) SI_UNIT ( $, .STERADIAN. ) SOLID_ANGLE_UNIT ( ) );
#56 = ORIENTED_EDGE ( 'NONE', *, *, #210, .T. ) ;
#57 = CARTESIAN_POINT ( 'NONE',  ( 0.0000000000000000000, 200.0000000000000000, 0.0000000000000000000 ) ) ;
#58 = VECTOR ( 'NONE', #130, 1000.000000000000000 ) ;
#59 =( NAMED_UNIT ( * ) SI_UNIT ( $, .STERADIAN. ) SOLID_ANGLE_UNIT ( ) );
#60 =( NAMED_UNIT ( * ) SI_UNIT ( $, .STERADIAN. ) SOLID_ANGLE_UNIT ( ) );
#61 = PRODUCT ( 'TM_340_8', 'TM_340_8', '', ( #138 ) ) ;
#62 = PRODUCT_RELATED_PRODUCT_CATEGORY ( 'part', '', ( #174 ) ) ;
#63 = ORIENTED_EDGE ( 'NONE', *, *, #24, .F. ) ;
#64 = PRODUCT_DEFINITION_CONTEXT ( 'detailed design', #71, 'design' ) ;
#65 = DIRECTION ( 'NONE',  ( 0.0000000000000000000, 0.0000000000000000000, 1.000000000000000000 ) ) ;
#66 = LINE ( 'NONE', #57, #111 ) ;
#67 = CARTESIAN_POINT ( 'NONE',  ( 15.00000000000000000, 200.0000000000000000, 10.00000000000000000 ) ) ;
#68 = DIRECTION ( 'NONE',  ( 0.0000000000000000000, -1.000000000000000000, 0.0000000000000000000 ) ) ;
#69 = AXIS2_PLACEMENT_3D ( 'NONE', #157, #114, #224 ) ;
#70 = VERTEX_POINT ( 'NONE', #1 ) ;
#71 = APPLICATION_CONTEXT ( 'automotive_design' ) ;
#72 = EDGE_LOOP ( 'NONE', ( #211, #214, #203, #33 ) ) ;
#73 = APPLICATION_PROTOCOL_DEFINITION ( 'draft international standard', 'automotive_design', 1998, #71 ) ;
#74 = SURFACE_SIDE_STYLE ('',( #9 ) ) ;
#75 = SHAPE_DEFINITION_REPRESENTATION ( #84, #28 ) ;
#76 = SURFACE_SIDE_STYLE ('',( #217 ) ) ;
#77 = PLANE ( 'NONE',  #139 ) ;
#78 = ADVANCED_FACE ( 'NONE', ( #175 ), #172, .T. ) ;
#79 = SURFACE_STYLE_USAGE ( .BOTH. , #74 ) ;
#80 = CARTESIAN_POINT ( 'NONE',  ( 0.0000000000000000000, 200.0000000000000000, 0.0000000000000000000 ) ) ;
#81 = VERTEX_POINT ( 'NONE', #85 ) ;
#82 =( NAMED_UNIT ( * ) PLANE_ANGLE_UNIT ( ) SI_UNIT ( $, .RADIAN. ) );
#83 = CARTESIAN_POINT ( 'NONE',  ( 0.0000000000000000000, 0.0000000000000000000, 0.0000000000000000000 ) ) ;
#84 = PRODUCT_DEFINITION_SHAPE ( 'NONE', 'NONE',  #34 ) ;
#85 = CARTESIAN_POINT ( 'NONE',  ( 0.0000000000000000000, 200.0000000000000000, 10.00000000000000000 ) ) ;
#86 = LINE ( 'NONE', #169, #123 ) ;
#87 = DIRECTION ( 'NONE',  ( 1.000000000000000000, 0.0000000000000000000, 0.0000000000000000000 ) ) ;
#88 = VECTOR ( 'NONE', #189, 1000.000000000000000 ) ;
#89 = AXIS2_PLACEMENT_3D ( 'NONE', #83, #5, #87 ) ;
#90 = VECTOR ( 'NONE', #103, 1000.000000000000000 ) ;
#91 = PRODUCT_CONTEXT ( 'NONE', #226, 'mechanical' ) ;
#92 = SHAPE_REPRESENTATION_RELATIONSHIP ( 'NONE' , 'NONE' ,  #28, #196 ) ;
#93 = DIRECTION ( 'NONE',  ( 0.0000000000000000000, -1.000000000000000000, 0.0000000000000000000 ) ) ;
#94 = LINE ( 'NONE', #22, #232 ) ;
#95 = ADVANCED_FACE ( 'NONE', ( #48 ), #115, .T. ) ;
#96 = DIRECTION ( 'NONE',  ( 0.0000000000000000000, 0.0000000000000000000, -1.000000000000000000 ) ) ;
#97 = ORIENTED_EDGE ( 'NONE', *, *, #30, .F. ) ;
#98 = DIRECTION ( 'NONE',  ( 1.000000000000000000, -0.0000000000000000000, -0.0000000000000000000 ) ) ;
#99 = ORIENTED_EDGE ( 'NONE', *, *, #45, .T. ) ;
#100 = FILL_AREA_STYLE_COLOUR ( '', #23 ) ;
#101 =( NAMED_UNIT ( * ) PLANE_ANGLE_UNIT ( ) SI_UNIT ( $, .RADIAN. ) );
#102 = LINE ( 'NONE', #37, #195 ) ;
#103 = DIRECTION ( 'NONE',  ( -0.0000000000000000000, -0.0000000000000000000, 1.000000000000000000 ) ) ;
#104 = VECTOR ( 'NONE', #17, 1000.000000000000000 ) ;
#105 = ORIENTED_EDGE ( 'NONE', *, *, #30, .T. ) ;
#106 = LINE ( 'NONE', #118, #58 ) ;
#107 = APPLICATION_PROTOCOL_DEFINITION ( 'draft international standard', 'automotive_design', 1998, #160 ) ;
#108 = VERTEX_POINT ( 'NONE', #13 ) ;
#109 = DIRECTION ( 'NONE',  ( 1.000000000000000000, 0.0000000000000000000, 0.0000000000000000000 ) ) ;
#110 = AXIS2_PLACEMENT_3D ( 'NONE', #136, #96, #135 ) ;
#111 = VECTOR ( 'NONE', #98, 1000.000000000000000 ) ;
#112 = CARTESIAN_POINT ( 'NONE',  ( 0.0000000000000000000, 0.0000000000000000000, 0.0000000000000000000 ) ) ;
#113 = UNCERTAINTY_MEASURE_WITH_UNIT (LENGTH_MEASURE( 1.000000000000000100E-005 ), #165, 'distance_accuracy_value', 'NONE');
#114 = DIRECTION ( 'NONE',  ( 0.0000000000000000000, 0.0000000000000000000, 1.000000000000000000 ) ) ;
#115 = PLANE ( 'NONE',  #164 ) ;
#116 = CARTESIAN_POINT ( 'NONE',  ( 0.0000000000000000000, 1000.000000000000000, 10.00000000000000000 ) ) ;
#117 = ORIENTED_EDGE ( 'NONE', *, *, #16, .F. ) ;
#118 = CARTESIAN_POINT ( 'NONE',  ( 0.0000000000000000000, 0.0000000000000000000, 10.00000000000000000 ) ) ;
#119 = ADVANCED_FACE ( 'NONE', ( #31 ), #77, .T. ) ;
#120 =( LENGTH_UNIT ( ) NAMED_UNIT ( * ) SI_UNIT ( .MILLI., .METRE. ) );
#121 = PRESENTATION_STYLE_ASSIGNMENT (( #79 ) ) ;
#122 = ORIENTED_EDGE ( 'NONE', *, *, #220, .F. ) ;
#123 = VECTOR ( 'NONE', #133, 1000.000000000000000 ) ;
#124 = EDGE_LOOP ( 'NONE', ( #40, #97, #46, #63 ) ) ;
#125 = CARTESIAN_POINT ( 'NONE',  ( 0.0000000000000000000, 200.0000000000000000, 10.00000000000000000 ) ) ;
#126 = CARTESIAN_POINT ( 'NONE',  ( 0.0000000000000000000, 0.0000000000000000000, 0.0000000000000000000 ) ) ;
#127 = LINE ( 'NONE', #2, #88 ) ;
#128 = DIRECTION ( 'NONE',  ( 0.0000000000000000000, 0.0000000000000000000, 1.000000000000000000 ) ) ;
#129 = UNCERTAINTY_MEASURE_WITH_UNIT (LENGTH_MEASURE( 1.000000000000000100E-005 ), #140, 'distance_accuracy_value', 'NONE');
#130 = DIRECTION ( 'NONE',  ( -1.000000000000000000, -0.0000000000000000000, -0.0000000000000000000 ) ) ;
#131 = ADVANCED_FACE ( 'NONE', ( #225 ), #168, .T. ) ;
#132 = ORIENTED_EDGE ( 'NONE', *, *, #16, .T. ) ;
#133 = DIRECTION ( 'NONE',  ( 0.0000000000000000000, -1.000000000000000000, 0.0000000000000000000 ) ) ;
#134 = CARTESIAN_POINT ( 'NONE',  ( 0.0000000000000000000, 0.0000000000000000000, 10.00000000000000000 ) ) ;
#135 = DIRECTION ( 'NONE',  ( -1.000000000000000000, 0.0000000000000000000, 0.0000000000000000000 ) ) ;
#136 = CARTESIAN_POINT ( 'NONE',  ( 0.0000000000000000000, 1000.000000000000000, 0.0000000000000000000 ) ) ;
#137 = VECTOR ( 'NONE', #14, 1000.000000000000000 ) ;
#138 = PRODUCT_CONTEXT ( 'NONE', #6, 'mechanical' ) ;
#139 = AXIS2_PLACEMENT_3D ( 'NONE', #216, #128, #222 ) ;
#140 =( LENGTH_UNIT ( ) NAMED_UNIT ( * ) SI_UNIT ( .MILLI., .METRE. ) );
#141 = CLOSED_SHELL ( 'NONE', ( #78, #143, #119, #131, #95, #49 ) ) ;
#142 = VECTOR ( 'NONE', #93, 1000.000000000000000 ) ;
#143 = ADVANCED_FACE ( 'NONE', ( #170 ), #228, .T. ) ;
#144 = ORIENTED_EDGE ( 'NONE', *, *, #227, .F. ) ;
#145 = EDGE_CURVE ( 'NONE', #81, #238, #86, .T. ) ;
#146 =( NAMED_UNIT ( * ) PLANE_ANGLE_UNIT ( ) SI_UNIT ( $, .RADIAN. ) );
#147 = ORIENTED_EDGE ( 'NONE', *, *, #218, .T. ) ;
#148 = DIRECTION ( 'NONE',  ( -0.0000000000000000000, -0.0000000000000000000, -1.000000000000000000 ) ) ;
#149 = LINE ( 'NONE', #125, #161 ) ;
#150 = VERTEX_POINT ( 'NONE', #26 ) ;
#151 = CARTESIAN_POINT ( 'NONE',  ( 15.00000000000000000, 1000.000000000000000, 0.0000000000000000000 ) ) ;
#152 =( GEOMETRIC_REPRESENTATION_CONTEXT ( 3 ) GLOBAL_UNCERTAINTY_ASSIGNED_CONTEXT ( ( #113 ) ) GLOBAL_UNIT_ASSIGNED_CONTEXT ( ( #165, #101, #55 ) ) REPRESENTATION_CONTEXT ( 'NONE', 'WORKASPACE' ) );
#153 = UNCERTAINTY_MEASURE_WITH_UNIT (LENGTH_MEASURE( 1.000000000000000100E-005 ), #11, 'distance_accuracy_value', 'NONE');
#154 = ORIENTED_EDGE ( 'NONE', *, *, #227, .T. ) ;
#155 = AXIS2_PLACEMENT_3D ( 'NONE', #116, #199, #21 ) ;
#156 = ORIENTED_EDGE ( 'NONE', *, *, #145, .T. ) ;
#157 = CARTESIAN_POINT ( 'NONE',  ( 0.0000000000000000000, 0.0000000000000000000, 0.0000000000000000000 ) ) ;
#158 = DIRECTION ( 'NONE',  ( 0.0000000000000000000, 0.0000000000000000000, 1.000000000000000000 ) ) ;
#159 = COLOUR_RGB ( '',0.7921568627450980000, 0.8196078431372548800, 0.9333333333333333500 ) ;
#160 = APPLICATION_CONTEXT ( 'automotive_design' ) ;
#161 = VECTOR ( 'NONE', #166, 1000.000000000000000 ) ;
#162 = MANIFOLD_SOLID_BREP ( '²ÝÎß°Ä1', #141 ) ;
#163 = FILL_AREA_STYLE ('',( #208 ) ) ;
#164 = AXIS2_PLACEMENT_3D ( 'NONE', #204, #38, #20 ) ;
#165 =( LENGTH_UNIT ( ) NAMED_UNIT ( * ) SI_UNIT ( .MILLI., .METRE. ) );
#166 = DIRECTION ( 'NONE',  ( -1.000000000000000000, -0.0000000000000000000, -0.0000000000000000000 ) ) ;
#167 = ORIENTED_EDGE ( 'NONE', *, *, #24, .T. ) ;
#168 = PLANE ( 'NONE',  #155 ) ;
#169 = CARTESIAN_POINT ( 'NONE',  ( 0.0000000000000000000, 1000.000000000000000, 10.00000000000000000 ) ) ;
#170 = FACE_OUTER_BOUND ( 'NONE', #29, .T. ) ;
#171 = STYLED_ITEM ( 'NONE', ( #212 ), #162 ) ;
#172 = PLANE ( 'NONE',  #110 ) ;
#173 = VERTEX_POINT ( 'NONE', #221 ) ;
#174 = PRODUCT ( 'rubber foam', 'rubber foam', '', ( #91 ) ) ;
#175 = FACE_OUTER_BOUND ( 'NONE', #230, .T. ) ;
#176 = CONTEXT_DEPENDENT_SHAPE_REPRESENTATION ( #192, #177 ) ;
#177 = PRODUCT_DEFINITION_SHAPE ( 'NONE', 'NONE',  #239 ) ;
#178 = AXIS2_PLACEMENT_3D ( 'NONE', #126, #158, #109 ) ;
#179 = SURFACE_STYLE_USAGE ( .BOTH. , #76 ) ;
#180 = FACE_OUTER_BOUND ( 'NONE', #72, .T. ) ;
#181 = DIRECTION ( 'NONE',  ( 1.000000000000000000, 0.0000000000000000000, 0.0000000000000000000 ) ) ;
#182 = AXIS2_PLACEMENT_3D ( 'NONE', #151, #4, #42 ) ;
#183 = FILL_AREA_STYLE ('',( #100 ) ) ;
#184 = EDGE_LOOP ( 'NONE', ( #122, #144, #56, #156 ) ) ;
#185 = DIRECTION ( 'NONE',  ( 0.0000000000000000000, -1.000000000000000000, 0.0000000000000000000 ) ) ;
#186 = LINE ( 'NONE', #202, #104 ) ;
#187 = LINE ( 'NONE', #198, #142 ) ;
#188 = SHAPE_REPRESENTATION ( 'TM_340_8', ( #69, #39 ), #54 ) ;
#189 = DIRECTION ( 'NONE',  ( 1.000000000000000000, -0.0000000000000000000, -0.0000000000000000000 ) ) ;
#190 = STYLED_ITEM ( 'NONE', ( #121 ), #196 ) ;
#191 = ORIENTED_EDGE ( 'NONE', *, *, #45, .F. ) ;
#192 =( REPRESENTATION_RELATIONSHIP ('NONE','NONE', #188, #28 ) REPRESENTATION_RELATIONSHIP_WITH_TRANSFORMATION ( #52 )SHAPE_REPRESENTATION_RELATIONSHIP( ) );
#193 = ORIENTED_EDGE ( 'NONE', *, *, #51, .F. ) ;
#194 = PRESENTATION_LAYER_ASSIGNMENT (  '', '', ( #171 ) ) ;
#195 = VECTOR ( 'NONE', #185, 1000.000000000000000 ) ;
#196 = ADVANCED_BREP_SHAPE_REPRESENTATION ( '', ( #162, #178 ), #152 ) ;
#197 = EDGE_LOOP ( 'NONE', ( #8, #19, #105, #132 ) ) ;
#198 = CARTESIAN_POINT ( 'NONE',  ( 0.0000000000000000000, 1000.000000000000000, 0.0000000000000000000 ) ) ;
#199 = DIRECTION ( 'NONE',  ( -1.000000000000000000, 0.0000000000000000000, 0.0000000000000000000 ) ) ;
#200 = PRESENTATION_LAYER_ASSIGNMENT (  '', '', ( #190 ) ) ;
#201 = CARTESIAN_POINT ( 'NONE',  ( 15.00000000000000000, 1000.000000000000000, 0.0000000000000000000 ) ) ;
#202 = CARTESIAN_POINT ( 'NONE',  ( 15.00000000000000000, 0.0000000000000000000, 0.0000000000000000000 ) ) ;
#203 = ORIENTED_EDGE ( 'NONE', *, *, #220, .T. ) ;
#204 = CARTESIAN_POINT ( 'NONE',  ( 0.0000000000000000000, 200.0000000000000000, 0.0000000000000000000 ) ) ;
#205 = CARTESIAN_POINT ( 'NONE',  ( 15.00000000000000000, 200.0000000000000000, 0.0000000000000000000 ) ) ;
#206 = CARTESIAN_POINT ( 'NONE',  ( 0.0000000000000000000, 0.0000000000000000000, 0.0000000000000000000 ) ) ;
#207 = MECHANICAL_DESIGN_GEOMETRIC_PRESENTATION_REPRESENTATION (  '', ( #171 ), #219 ) ;
#208 = FILL_AREA_STYLE_COLOUR ( '', #159 ) ;
#209 = PRODUCT_DEFINITION_CONTEXT ( 'detailed design', #160, 'design' ) ;
#210 = EDGE_CURVE ( 'NONE', #53, #81, #149, .T. ) ;
#211 = ORIENTED_EDGE ( 'NONE', *, *, #51, .T. ) ;
#212 = PRESENTATION_STYLE_ASSIGNMENT (( #179 ) ) ;
#213 = MECHANICAL_DESIGN_GEOMETRIC_PRESENTATION_REPRESENTATION (  '', ( #190 ), #229 ) ;
#214 = ORIENTED_EDGE ( 'NONE', *, *, #234, .T. ) ;
#215 =( NAMED_UNIT ( * ) SI_UNIT ( $, .STERADIAN. ) SOLID_ANGLE_UNIT ( ) );
#216 = CARTESIAN_POINT ( 'NONE',  ( 15.00000000000000000, 1000.000000000000000, 10.00000000000000000 ) ) ;
#217 = SURFACE_STYLE_FILL_AREA ( #183 ) ;
#218 = EDGE_CURVE ( 'NONE', #10, #173, #66, .T. ) ;
#219 =( GEOMETRIC_REPRESENTATION_CONTEXT ( 3 ) GLOBAL_UNCERTAINTY_ASSIGNED_CONTEXT ( ( #129 ) ) GLOBAL_UNIT_ASSIGNED_CONTEXT ( ( #140, #82, #215 ) ) REPRESENTATION_CONTEXT ( 'NONE', 'WORKASPACE' ) );
#220 = EDGE_CURVE ( 'NONE', #150, #238, #106, .T. ) ;
#221 = CARTESIAN_POINT ( 'NONE',  ( 15.00000000000000000, 200.0000000000000000, 0.0000000000000000000 ) ) ;
#222 = DIRECTION ( 'NONE',  ( 1.000000000000000000, 0.0000000000000000000, 0.0000000000000000000 ) ) ;
#223 = DIRECTION ( 'NONE',  ( 1.000000000000000000, 0.0000000000000000000, 0.0000000000000000000 ) ) ;
#224 = DIRECTION ( 'NONE',  ( 1.000000000000000000, 0.0000000000000000000, 0.0000000000000000000 ) ) ;
#225 = FACE_OUTER_BOUND ( 'NONE', #197, .T. ) ;
#226 = APPLICATION_CONTEXT ( 'automotive_design' ) ;
#227 = EDGE_CURVE ( 'NONE', #53, #150, #102, .T. ) ;
#228 = PLANE ( 'NONE',  #182 ) ;
#229 =( GEOMETRIC_REPRESENTATION_CONTEXT ( 3 ) GLOBAL_UNCERTAINTY_ASSIGNED_CONTEXT ( ( #233 ) ) GLOBAL_UNIT_ASSIGNED_CONTEXT ( ( #120, #236, #59 ) ) REPRESENTATION_CONTEXT ( 'NONE', 'WORKASPACE' ) );
#230 = EDGE_LOOP ( 'NONE', ( #193, #117, #147, #99 ) ) ;
#231 = APPLICATION_PROTOCOL_DEFINITION ( 'draft international standard', 'automotive_design', 1998, #226 ) ;
#232 = VECTOR ( 'NONE', #148, 1000.000000000000000 ) ;
#233 = UNCERTAINTY_MEASURE_WITH_UNIT (LENGTH_MEASURE( 1.000000000000000100E-005 ), #120, 'distance_accuracy_value', 'NONE');
#234 = EDGE_CURVE ( 'NONE', #108, #150, #186, .T. ) ;
#235 = PRODUCT_DEFINITION ( 'UNKNOWN', '', #7, #209 ) ;
#236 =( NAMED_UNIT ( * ) PLANE_ANGLE_UNIT ( ) SI_UNIT ( $, .RADIAN. ) );
#237 = LINE ( 'NONE', #201, #36 ) ;
#238 = VERTEX_POINT ( 'NONE', #134 ) ;
#239 = NEXT_ASSEMBLY_USAGE_OCCURRENCE ( 'NAUO1', ' ', ' ', #235, #34, $ ) ;
ENDSEC;
END-ISO-10303-21;
