ISO-10303-21;
HEADER;
FILE_DESCRIPTION (( 'STEP AP214' ),
    '1' );
FILE_NAME ('TM_340_9.STEP',
    '2016-05-09T05:32:14',
    ( '' ),
    ( '' ),
    'SwSTEP 2.0',
    'SolidWorks 2015',
    '' );
FILE_SCHEMA (( 'AUTOMOTIVE_DESIGN' ));
ENDSEC;

DATA;
#1 = FACE_OUTER_BOUND ( 'NONE', #187, .T. ) ;
#2 = COLOUR_RGB ( '',0.7921568627450980000, 0.8196078431372548800, 0.9333333333333333500 ) ;
#3 = DIRECTION ( 'NONE',  ( 0.0000000000000000000, 0.0000000000000000000, 1.000000000000000000 ) ) ;
#4 = AXIS2_PLACEMENT_3D ( 'NONE', #189, #203, #35 ) ;
#5 = EDGE_CURVE ( 'NONE', #216, #129, #115, .T. ) ;
#6 = STYLED_ITEM ( 'NONE', ( #100 ), #111 ) ;
#7 = CARTESIAN_POINT ( 'NONE',  ( 20.00000000000000000, 1000.000000000000000, 10.00000000000000000 ) ) ;
#8 = SURFACE_STYLE_FILL_AREA ( #127 ) ;
#9 = LINE ( 'NONE', #33, #81 ) ;
#10 = CARTESIAN_POINT ( 'NONE',  ( 0.0000000000000000000, 200.0000000000000000, 10.00000000000000000 ) ) ;
#11 = PRODUCT_DEFINITION_SHAPE ( 'NONE', 'NONE',  #14 ) ;
#12 = ORIENTED_EDGE ( 'NONE', *, *, #200, .F. ) ;
#13 = VERTEX_POINT ( 'NONE', #101 ) ;
#14 = PRODUCT_DEFINITION ( 'UNKNOWN', '', #79, #194 ) ;
#15 = EDGE_LOOP ( 'NONE', ( #162, #71, #90, #45 ) ) ;
#16 = CARTESIAN_POINT ( 'NONE',  ( 20.00000000000000000, 1000.000000000000000, 10.00000000000000000 ) ) ;
#17 = CARTESIAN_POINT ( 'NONE',  ( 0.0000000000000000000, 0.0000000000000000000, 10.00000000000000000 ) ) ;
#18 = EDGE_LOOP ( 'NONE', ( #12, #154, #144, #108 ) ) ;
#19 = DIRECTION ( 'NONE',  ( 0.0000000000000000000, 0.0000000000000000000, 1.000000000000000000 ) ) ;
#20 = PRODUCT_RELATED_PRODUCT_CATEGORY ( 'part', '', ( #57 ) ) ;
#21 = DIRECTION ( 'NONE',  ( 1.000000000000000000, 0.0000000000000000000, 0.0000000000000000000 ) ) ;
#22 = CARTESIAN_POINT ( 'NONE',  ( 0.0000000000000000000, 0.0000000000000000000, 0.0000000000000000000 ) ) ;
#23 =( NAMED_UNIT ( * ) SI_UNIT ( $, .STERADIAN. ) SOLID_ANGLE_UNIT ( ) );
#24 = VECTOR ( 'NONE', #223, 1000.000000000000000 ) ;
#25 = DIRECTION ( 'NONE',  ( 1.000000000000000000, 0.0000000000000000000, 0.0000000000000000000 ) ) ;
#26 = DIRECTION ( 'NONE',  ( 0.0000000000000000000, -1.000000000000000000, 0.0000000000000000000 ) ) ;
#27 = ADVANCED_FACE ( 'NONE', ( #122 ), #102, .T. ) ;
#28 = COLOUR_RGB ( '',0.7921568627450980000, 0.8196078431372548800, 0.9333333333333333500 ) ;
#29 = CARTESIAN_POINT ( 'NONE',  ( 0.0000000000000000000, 200.0000000000000000, 0.0000000000000000000 ) ) ;
#30 = SURFACE_SIDE_STYLE ('',( #8 ) ) ;
#31 = AXIS2_PLACEMENT_3D ( 'NONE', #133, #157, #49 ) ;
#32 = EDGE_CURVE ( 'NONE', #46, #216, #204, .T. ) ;
#33 = CARTESIAN_POINT ( 'NONE',  ( 0.0000000000000000000, 200.0000000000000000, 0.0000000000000000000 ) ) ;
#34 = ORIENTED_EDGE ( 'NONE', *, *, #172, .T. ) ;
#35 = DIRECTION ( 'NONE',  ( -1.000000000000000000, 0.0000000000000000000, 0.0000000000000000000 ) ) ;
#36 = CARTESIAN_POINT ( 'NONE',  ( 0.0000000000000000000, 0.0000000000000000000, 0.0000000000000000000 ) ) ;
#37 = PRODUCT_DEFINITION ( 'UNKNOWN', '', #48, #40 ) ;
#38 = DIRECTION ( 'NONE',  ( 1.000000000000000000, 0.0000000000000000000, 0.0000000000000000000 ) ) ;
#39 =( LENGTH_UNIT ( ) NAMED_UNIT ( * ) SI_UNIT ( .MILLI., .METRE. ) );
#40 = PRODUCT_DEFINITION_CONTEXT ( 'detailed design', #159, 'design' ) ;
#41 = CARTESIAN_POINT ( 'NONE',  ( 0.0000000000000000000, 0.0000000000000000000, 10.00000000000000000 ) ) ;
#42 = APPLICATION_PROTOCOL_DEFINITION ( 'draft international standard', 'automotive_design', 1998, #78 ) ;
#43 = CARTESIAN_POINT ( 'NONE',  ( 0.0000000000000000000, 200.0000000000000000, 0.0000000000000000000 ) ) ;
#44 = CARTESIAN_POINT ( 'NONE',  ( 20.00000000000000000, 200.0000000000000000, 0.0000000000000000000 ) ) ;
#45 = ORIENTED_EDGE ( 'NONE', *, *, #185, .T. ) ;
#46 = VERTEX_POINT ( 'NONE', #44 ) ;
#47 =( NAMED_UNIT ( * ) PLANE_ANGLE_UNIT ( ) SI_UNIT ( $, .RADIAN. ) );
#48 = PRODUCT_DEFINITION_FORMATION_WITH_SPECIFIED_SOURCE ( 'ANY', '', #206, .NOT_KNOWN. ) ;
#49 = DIRECTION ( 'NONE',  ( 0.0000000000000000000, 0.0000000000000000000, 1.000000000000000000 ) ) ;
#50 = VECTOR ( 'NONE', #178, 1000.000000000000000 ) ;
#51 = DIRECTION ( 'NONE',  ( 0.0000000000000000000, 0.0000000000000000000, 1.000000000000000000 ) ) ;
#52 = ORIENTED_EDGE ( 'NONE', *, *, #5, .F. ) ;
#53 = AXIS2_PLACEMENT_3D ( 'NONE', #7, #19, #38 ) ;
#54 = DIRECTION ( 'NONE',  ( 1.000000000000000000, 0.0000000000000000000, 0.0000000000000000000 ) ) ;
#55 = FILL_AREA_STYLE_COLOUR ( '', #2 ) ;
#56 = FILL_AREA_STYLE ('',( #55 ) ) ;
#57 = PRODUCT ( 'rubber foam', 'rubber foam', '', ( #113 ) ) ;
#58 = PLANE ( 'NONE',  #85 ) ;
#59 = ORIENTED_EDGE ( 'NONE', *, *, #225, .T. ) ;
#60 = VECTOR ( 'NONE', #163, 1000.000000000000000 ) ;
#61 =( NAMED_UNIT ( * ) PLANE_ANGLE_UNIT ( ) SI_UNIT ( $, .RADIAN. ) );
#62 = PRODUCT_RELATED_PRODUCT_CATEGORY ( 'part', '', ( #206 ) ) ;
#63 = ORIENTED_EDGE ( 'NONE', *, *, #95, .T. ) ;
#64 = LINE ( 'NONE', #22, #219 ) ;
#65 = LINE ( 'NONE', #29, #149 ) ;
#66 = VERTEX_POINT ( 'NONE', #43 ) ;
#67 = UNCERTAINTY_MEASURE_WITH_UNIT (LENGTH_MEASURE( 1.000000000000000100E-005 ), #39, 'distance_accuracy_value', 'NONE');
#68 =( NAMED_UNIT ( * ) SI_UNIT ( $, .STERADIAN. ) SOLID_ANGLE_UNIT ( ) );
#69 = FACE_OUTER_BOUND ( 'NONE', #84, .T. ) ;
#70 = VECTOR ( 'NONE', #76, 1000.000000000000000 ) ;
#71 = ORIENTED_EDGE ( 'NONE', *, *, #231, .F. ) ;
#72 =( LENGTH_UNIT ( ) NAMED_UNIT ( * ) SI_UNIT ( .MILLI., .METRE. ) );
#73 = LINE ( 'NONE', #17, #70 ) ;
#74 = CARTESIAN_POINT ( 'NONE',  ( 20.00000000000000000, 200.0000000000000000, 10.00000000000000000 ) ) ;
#75 = PRODUCT_DEFINITION_SHAPE ( 'NONE', 'NONE',  #239 ) ;
#76 = DIRECTION ( 'NONE',  ( -1.000000000000000000, -0.0000000000000000000, -0.0000000000000000000 ) ) ;
#77 = CARTESIAN_POINT ( 'NONE',  ( 0.0000000000000000000, 200.0000000000000000, 0.0000000000000000000 ) ) ;
#78 = APPLICATION_CONTEXT ( 'automotive_design' ) ;
#79 = PRODUCT_DEFINITION_FORMATION_WITH_SPECIFIED_SOURCE ( 'ANY', '', #57, .NOT_KNOWN. ) ;
#80 = CARTESIAN_POINT ( 'NONE',  ( 0.0000000000000000000, 0.0000000000000000000, 0.0000000000000000000 ) ) ;
#81 = VECTOR ( 'NONE', #152, 1000.000000000000000 ) ;
#82 = SURFACE_STYLE_USAGE ( .BOTH. , #214 ) ;
#83 =( NAMED_UNIT ( * ) SI_UNIT ( $, .STERADIAN. ) SOLID_ANGLE_UNIT ( ) );
#84 = EDGE_LOOP ( 'NONE', ( #192, #126, #198, #136 ) ) ;
#85 = AXIS2_PLACEMENT_3D ( 'NONE', #92, #110, #130 ) ;
#86 = SURFACE_STYLE_USAGE ( .BOTH. , #30 ) ;
#87 = CARTESIAN_POINT ( 'NONE',  ( 20.00000000000000000, 200.0000000000000000, 0.0000000000000000000 ) ) ;
#88 = DIRECTION ( 'NONE',  ( -1.000000000000000000, -0.0000000000000000000, -0.0000000000000000000 ) ) ;
#89 = LINE ( 'NONE', #175, #60 ) ;
#90 = ORIENTED_EDGE ( 'NONE', *, *, #5, .T. ) ;
#91 =( NAMED_UNIT ( * ) PLANE_ANGLE_UNIT ( ) SI_UNIT ( $, .RADIAN. ) );
#92 = CARTESIAN_POINT ( 'NONE',  ( 0.0000000000000000000, 0.0000000000000000000, 0.0000000000000000000 ) ) ;
#93 =( GEOMETRIC_REPRESENTATION_CONTEXT ( 3 ) GLOBAL_UNCERTAINTY_ASSIGNED_CONTEXT ( ( #183 ) ) GLOBAL_UNIT_ASSIGNED_CONTEXT ( ( #140, #135, #23 ) ) REPRESENTATION_CONTEXT ( 'NONE', 'WORKASPACE' ) );
#94 = EDGE_CURVE ( 'NONE', #129, #66, #65, .T. ) ;
#95 = EDGE_CURVE ( 'NONE', #66, #182, #128, .T. ) ;
#96 = SHAPE_DEFINITION_REPRESENTATION ( #148, #104 ) ;
#97 = ORIENTED_EDGE ( 'NONE', *, *, #94, .T. ) ;
#98 = VECTOR ( 'NONE', #228, 1000.000000000000000 ) ;
#99 = CARTESIAN_POINT ( 'NONE',  ( 0.0000000000000000000, 0.0000000000000000000, 0.0000000000000000000 ) ) ;
#100 = PRESENTATION_STYLE_ASSIGNMENT (( #86 ) ) ;
#101 = CARTESIAN_POINT ( 'NONE',  ( 20.00000000000000000, 0.0000000000000000000, 0.0000000000000000000 ) ) ;
#102 = PLANE ( 'NONE',  #118 ) ;
#103 = SHAPE_REPRESENTATION ( 'rubber foam', ( #121 ), #93 ) ;
#104 = SHAPE_REPRESENTATION ( 'TM_340_9', ( #237, #221 ), #229 ) ;
#105 = AXIS2_PLACEMENT_3D ( 'NONE', #77, #222, #54 ) ;
#106 = UNCERTAINTY_MEASURE_WITH_UNIT (LENGTH_MEASURE( 1.000000000000000100E-005 ), #124, 'distance_accuracy_value', 'NONE');
#107 = PLANE ( 'NONE',  #53 ) ;
#108 = ORIENTED_EDGE ( 'NONE', *, *, #231, .T. ) ;
#109 = CARTESIAN_POINT ( 'NONE',  ( 0.0000000000000000000, 1000.000000000000000, 10.00000000000000000 ) ) ;
#110 = DIRECTION ( 'NONE',  ( -0.0000000000000000000, 1.000000000000000000, 0.0000000000000000000 ) ) ;
#111 = MANIFOLD_SOLID_BREP ( '²ÝÎß°Ä1', #137 ) ;
#112 = DIRECTION ( 'NONE',  ( -0.0000000000000000000, -0.0000000000000000000, 1.000000000000000000 ) ) ;
#113 = PRODUCT_CONTEXT ( 'NONE', #196, 'mechanical' ) ;
#114 = CARTESIAN_POINT ( 'NONE',  ( 20.00000000000000000, 0.0000000000000000000, 0.0000000000000000000 ) ) ;
#115 = LINE ( 'NONE', #10, #233 ) ;
#116 = ORIENTED_EDGE ( 'NONE', *, *, #202, .F. ) ;
#117 = SHAPE_REPRESENTATION_RELATIONSHIP ( 'NONE' , 'NONE' ,  #103, #145 ) ;
#118 = AXIS2_PLACEMENT_3D ( 'NONE', #168, #220, #167 ) ;
#119 = FACE_OUTER_BOUND ( 'NONE', #215, .T. ) ;
#120 = APPLICATION_PROTOCOL_DEFINITION ( 'draft international standard', 'automotive_design', 1998, #238 ) ;
#121 = AXIS2_PLACEMENT_3D ( 'NONE', #180, #234, #156 ) ;
#122 = FACE_OUTER_BOUND ( 'NONE', #18, .T. ) ;
#123 = LINE ( 'NONE', #16, #50 ) ;
#124 =( LENGTH_UNIT ( ) NAMED_UNIT ( * ) SI_UNIT ( .MILLI., .METRE. ) );
#125 = FILL_AREA_STYLE_COLOUR ( '', #28 ) ;
#126 = ORIENTED_EDGE ( 'NONE', *, *, #95, .F. ) ;
#127 = FILL_AREA_STYLE ('',( #125 ) ) ;
#128 = LINE ( 'NONE', #218, #164 ) ;
#129 = VERTEX_POINT ( 'NONE', #188 ) ;
#130 = DIRECTION ( 'NONE',  ( 1.000000000000000000, 0.0000000000000000000, 0.0000000000000000000 ) ) ;
#131 = DIRECTION ( 'NONE',  ( 0.0000000000000000000, -1.000000000000000000, 0.0000000000000000000 ) ) ;
#132 = ADVANCED_FACE ( 'NONE', ( #69 ), #171, .T. ) ;
#133 = CARTESIAN_POINT ( 'NONE',  ( 0.0000000000000000000, 1000.000000000000000, 10.00000000000000000 ) ) ;
#134 = STYLED_ITEM ( 'NONE', ( #174 ), #145 ) ;
#135 =( NAMED_UNIT ( * ) PLANE_ANGLE_UNIT ( ) SI_UNIT ( $, .RADIAN. ) );
#136 = ORIENTED_EDGE ( 'NONE', *, *, #139, .T. ) ;
#137 = CLOSED_SHELL ( 'NONE', ( #132, #27, #169, #160, #230, #186 ) ) ;
#138 = VECTOR ( 'NONE', #131, 1000.000000000000000 ) ;
#139 = EDGE_CURVE ( 'NONE', #46, #13, #89, .T. ) ;
#140 =( LENGTH_UNIT ( ) NAMED_UNIT ( * ) SI_UNIT ( .MILLI., .METRE. ) );
#141 = EDGE_CURVE ( 'NONE', #182, #13, #64, .T. ) ;
#142 = LINE ( 'NONE', #109, #138 ) ;
#143 = CONTEXT_DEPENDENT_SHAPE_REPRESENTATION ( #161, #75 ) ;
#144 = ORIENTED_EDGE ( 'NONE', *, *, #32, .T. ) ;
#145 = ADVANCED_BREP_SHAPE_REPRESENTATION ( '', ( #111, #121 ), #93 ) ;
#146 = LINE ( 'NONE', #114, #179 ) ;
#147 = PRESENTATION_LAYER_ASSIGNMENT (  '', '', ( #134 ) ) ;
#148 = PRODUCT_DEFINITION_SHAPE ( 'NONE', 'NONE',  #37 ) ;
#149 = VECTOR ( 'NONE', #166, 1000.000000000000000 ) ;
#150 = CARTESIAN_POINT ( 'NONE',  ( 0.0000000000000000000, 0.0000000000000000000, 0.0000000000000000000 ) ) ;
#151 = ORIENTED_EDGE ( 'NONE', *, *, #172, .F. ) ;
#152 = DIRECTION ( 'NONE',  ( 1.000000000000000000, -0.0000000000000000000, -0.0000000000000000000 ) ) ;
#153 = ORIENTED_EDGE ( 'NONE', *, *, #32, .F. ) ;
#154 = ORIENTED_EDGE ( 'NONE', *, *, #139, .F. ) ;
#155 = FACE_OUTER_BOUND ( 'NONE', #170, .T. ) ;
#156 = DIRECTION ( 'NONE',  ( 1.000000000000000000, 0.0000000000000000000, 0.0000000000000000000 ) ) ;
#157 = DIRECTION ( 'NONE',  ( -1.000000000000000000, 0.0000000000000000000, 0.0000000000000000000 ) ) ;
#158 = UNCERTAINTY_MEASURE_WITH_UNIT (LENGTH_MEASURE( 1.000000000000000100E-005 ), #72, 'distance_accuracy_value', 'NONE');
#159 = APPLICATION_CONTEXT ( 'automotive_design' ) ;
#160 = ADVANCED_FACE ( 'NONE', ( #1 ), #208, .T. ) ;
#161 =( REPRESENTATION_RELATIONSHIP ('NONE','NONE', #104, #103 ) REPRESENTATION_RELATIONSHIP_WITH_TRANSFORMATION ( #232 )SHAPE_REPRESENTATION_RELATIONSHIP( ) );
#162 = ORIENTED_EDGE ( 'NONE', *, *, #225, .F. ) ;
#163 = DIRECTION ( 'NONE',  ( 0.0000000000000000000, -1.000000000000000000, 0.0000000000000000000 ) ) ;
#164 = VECTOR ( 'NONE', #26, 1000.000000000000000 ) ;
#165 = MECHANICAL_DESIGN_GEOMETRIC_PRESENTATION_REPRESENTATION (  '', ( #134 ), #181 ) ;
#166 = DIRECTION ( 'NONE',  ( -0.0000000000000000000, -0.0000000000000000000, -1.000000000000000000 ) ) ;
#167 = DIRECTION ( 'NONE',  ( 0.0000000000000000000, 0.0000000000000000000, -1.000000000000000000 ) ) ;
#168 = CARTESIAN_POINT ( 'NONE',  ( 20.00000000000000000, 1000.000000000000000, 0.0000000000000000000 ) ) ;
#169 = ADVANCED_FACE ( 'NONE', ( #184 ), #107, .T. ) ;
#170 = EDGE_LOOP ( 'NONE', ( #207, #205, #59, #34 ) ) ;
#171 = PLANE ( 'NONE',  #4 ) ;
#172 = EDGE_CURVE ( 'NONE', #177, #182, #210, .T. ) ;
#173 = ORIENTED_EDGE ( 'NONE', *, *, #94, .F. ) ;
#174 = PRESENTATION_STYLE_ASSIGNMENT (( #82 ) ) ;
#175 = CARTESIAN_POINT ( 'NONE',  ( 20.00000000000000000, 1000.000000000000000, 0.0000000000000000000 ) ) ;
#176 = ORIENTED_EDGE ( 'NONE', *, *, #185, .F. ) ;
#177 = VERTEX_POINT ( 'NONE', #41 ) ;
#178 = DIRECTION ( 'NONE',  ( 0.0000000000000000000, -1.000000000000000000, 0.0000000000000000000 ) ) ;
#179 = VECTOR ( 'NONE', #112, 1000.000000000000000 ) ;
#180 = CARTESIAN_POINT ( 'NONE',  ( 0.0000000000000000000, 0.0000000000000000000, 0.0000000000000000000 ) ) ;
#181 =( GEOMETRIC_REPRESENTATION_CONTEXT ( 3 ) GLOBAL_UNCERTAINTY_ASSIGNED_CONTEXT ( ( #158 ) ) GLOBAL_UNIT_ASSIGNED_CONTEXT ( ( #72, #61, #211 ) ) REPRESENTATION_CONTEXT ( 'NONE', 'WORKASPACE' ) );
#182 = VERTEX_POINT ( 'NONE', #191 ) ;
#183 = UNCERTAINTY_MEASURE_WITH_UNIT (LENGTH_MEASURE( 1.000000000000000100E-005 ), #140, 'distance_accuracy_value', 'NONE');
#184 = FACE_OUTER_BOUND ( 'NONE', #15, .T. ) ;
#185 = EDGE_CURVE ( 'NONE', #129, #177, #142, .T. ) ;
#186 = ADVANCED_FACE ( 'NONE', ( #155 ), #58, .F. ) ;
#187 = EDGE_LOOP ( 'NONE', ( #151, #176, #97, #63 ) ) ;
#188 = CARTESIAN_POINT ( 'NONE',  ( 0.0000000000000000000, 200.0000000000000000, 10.00000000000000000 ) ) ;
#189 = CARTESIAN_POINT ( 'NONE',  ( 0.0000000000000000000, 1000.000000000000000, 0.0000000000000000000 ) ) ;
#190 = PRESENTATION_LAYER_ASSIGNMENT (  '', '', ( #6 ) ) ;
#191 = CARTESIAN_POINT ( 'NONE',  ( 0.0000000000000000000, 0.0000000000000000000, 0.0000000000000000000 ) ) ;
#192 = ORIENTED_EDGE ( 'NONE', *, *, #141, .F. ) ;
#193 = SHAPE_DEFINITION_REPRESENTATION ( #11, #103 ) ;
#194 = PRODUCT_DEFINITION_CONTEXT ( 'detailed design', #78, 'design' ) ;
#195 = DIRECTION ( 'NONE',  ( 0.0000000000000000000, 0.0000000000000000000, 1.000000000000000000 ) ) ;
#196 = APPLICATION_CONTEXT ( 'automotive_design' ) ;
#197 = APPLICATION_PROTOCOL_DEFINITION ( 'draft international standard', 'automotive_design', 1998, #159 ) ;
#198 = ORIENTED_EDGE ( 'NONE', *, *, #202, .T. ) ;
#199 = SURFACE_STYLE_FILL_AREA ( #56 ) ;
#200 = EDGE_CURVE ( 'NONE', #13, #227, #146, .T. ) ;
#201 = MECHANICAL_DESIGN_GEOMETRIC_PRESENTATION_REPRESENTATION (  '', ( #6 ), #217 ) ;
#202 = EDGE_CURVE ( 'NONE', #66, #46, #9, .T. ) ;
#203 = DIRECTION ( 'NONE',  ( 0.0000000000000000000, 0.0000000000000000000, -1.000000000000000000 ) ) ;
#204 = LINE ( 'NONE', #87, #98 ) ;
#205 = ORIENTED_EDGE ( 'NONE', *, *, #200, .T. ) ;
#206 = PRODUCT ( 'TM_340_9', 'TM_340_9', '', ( #236 ) ) ;
#207 = ORIENTED_EDGE ( 'NONE', *, *, #141, .T. ) ;
#208 = PLANE ( 'NONE',  #31 ) ;
#209 = APPLICATION_PROTOCOL_DEFINITION ( 'draft international standard', 'automotive_design', 1998, #196 ) ;
#210 = LINE ( 'NONE', #80, #24 ) ;
#211 =( NAMED_UNIT ( * ) SI_UNIT ( $, .STERADIAN. ) SOLID_ANGLE_UNIT ( ) );
#212 = AXIS2_PLACEMENT_3D ( 'NONE', #150, #195, #213 ) ;
#213 = DIRECTION ( 'NONE',  ( 1.000000000000000000, 0.0000000000000000000, 0.0000000000000000000 ) ) ;
#214 = SURFACE_SIDE_STYLE ('',( #199 ) ) ;
#215 = EDGE_LOOP ( 'NONE', ( #116, #173, #52, #153 ) ) ;
#216 = VERTEX_POINT ( 'NONE', #74 ) ;
#217 =( GEOMETRIC_REPRESENTATION_CONTEXT ( 3 ) GLOBAL_UNCERTAINTY_ASSIGNED_CONTEXT ( ( #106 ) ) GLOBAL_UNIT_ASSIGNED_CONTEXT ( ( #124, #47, #68 ) ) REPRESENTATION_CONTEXT ( 'NONE', 'WORKASPACE' ) );
#218 = CARTESIAN_POINT ( 'NONE',  ( 0.0000000000000000000, 1000.000000000000000, 0.0000000000000000000 ) ) ;
#219 = VECTOR ( 'NONE', #235, 1000.000000000000000 ) ;
#220 = DIRECTION ( 'NONE',  ( 1.000000000000000000, 0.0000000000000000000, 0.0000000000000000000 ) ) ;
#221 = AXIS2_PLACEMENT_3D ( 'NONE', #99, #51, #21 ) ;
#222 = DIRECTION ( 'NONE',  ( -0.0000000000000000000, 1.000000000000000000, 0.0000000000000000000 ) ) ;
#223 = DIRECTION ( 'NONE',  ( -0.0000000000000000000, -0.0000000000000000000, -1.000000000000000000 ) ) ;
#224 = PLANE ( 'NONE',  #105 ) ;
#225 = EDGE_CURVE ( 'NONE', #227, #177, #73, .T. ) ;
#226 = CARTESIAN_POINT ( 'NONE',  ( 20.00000000000000000, 0.0000000000000000000, 10.00000000000000000 ) ) ;
#227 = VERTEX_POINT ( 'NONE', #226 ) ;
#228 = DIRECTION ( 'NONE',  ( -0.0000000000000000000, -0.0000000000000000000, 1.000000000000000000 ) ) ;
#229 =( GEOMETRIC_REPRESENTATION_CONTEXT ( 3 ) GLOBAL_UNCERTAINTY_ASSIGNED_CONTEXT ( ( #67 ) ) GLOBAL_UNIT_ASSIGNED_CONTEXT ( ( #39, #91, #83 ) ) REPRESENTATION_CONTEXT ( 'NONE', 'WORKASPACE' ) );
#230 = ADVANCED_FACE ( 'NONE', ( #119 ), #224, .T. ) ;
#231 = EDGE_CURVE ( 'NONE', #216, #227, #123, .T. ) ;
#232 = ITEM_DEFINED_TRANSFORMATION ( 'NONE', 'NONE', #221,  #121 ) ;
#233 = VECTOR ( 'NONE', #88, 1000.000000000000000 ) ;
#234 = DIRECTION ( 'NONE',  ( 0.0000000000000000000, 0.0000000000000000000, 1.000000000000000000 ) ) ;
#235 = DIRECTION ( 'NONE',  ( 1.000000000000000000, -0.0000000000000000000, -0.0000000000000000000 ) ) ;
#236 = PRODUCT_CONTEXT ( 'NONE', #238, 'mechanical' ) ;
#237 = AXIS2_PLACEMENT_3D ( 'NONE', #36, #3, #25 ) ;
#238 = APPLICATION_CONTEXT ( 'automotive_design' ) ;
#239 = NEXT_ASSEMBLY_USAGE_OCCURRENCE ( 'NAUO1', ' ', ' ', #37, #14, $ ) ;
ENDSEC;
END-ISO-10303-21;
