  0
SECTION
  2
HEADER
  9
$ACADVER
  1
AC1014
  9
$DWGCODEPAGE
  3
ANSI_932
  9
$LTSCALE
 40
20.0
  9
$FILLMODE
 70
     1
  9
$CLAYER
  8
0
  9
$PDMODE
 70
     0
  9
$SPLFRAME
 70
     0
  9
$SPLINETYPE
 70
     6
  9
$SPLINESEGS
 70
     8
  9
$DIMASZ
 40
2.000000
  9
$DIMEXE
 40
1.500000
  9
$DIMEXO
 40
0.800000
  9
$DIMTAD
 70
     1
  9
$DIMTIH
 70
     0
  9
$DIMTOH
 70
     0
  9
$DIMTVP
 40
0.500000
  9
$DIMTXT
 40
3.100000
  9
$EXTMIN
 10
0.000000
 20
0.000000
 30
0.000000
  9
$EXTMAX
 10
297.000000
 20
420.000000
 30
0.000000
  9
$MEASUREMENT
 70
  1
  9
$LIMMIN
 10
0.000000
 20
0.000000
  9
$LIMMAX
 10
297.000000
 20
420.000000
  9
$HANDLING
 70
     1
  9
$HANDSEED
  5
D4
  9
$DIMBLK
  1
_OPEN
  9
$DIMDEC
 70
     2
  9
$DIMAUNIT
 70
     0
  9
$DIMZIN
 70
     8
  9
$DIMTOFL
 70
     1
  0
ENDSEC
  0
SECTION
  2
CLASSES
  0
ENDSEC
  0
SECTION
  2
TABLES
  0
TABLE
  2
VPORT
  5
A9
100
AcDbSymbolTable
 70
     1
  0
VPORT
  5
AA
100
AcDbSymbolTableRecord
100
AcDbViewportTableRecord
  2
*ACTIVE
 70
     0
 12
-179.721374
 22
34.345529
 40
135.081132
 41
0.407761
  0
ENDTAB
  0
TABLE
  2
LTYPE
  5
AB
100
AcDbSymbolTable
 70
     2
  0
LTYPE
  5
AC
100
AcDbSymbolTableRecord
100
AcDbLinetypeTableRecord
  2
BYBLOCK
 70
     0
  3

 72
    65
 73
     0
 40
0.0
  0
LTYPE
  5
AD
100
AcDbSymbolTableRecord
100
AcDbLinetypeTableRecord
  2
BYLAYER
 70
     0
  3

 72
    65
 73
     0
 40
0.0
  0
LTYPE
  5
AE
100
AcDbSymbolTableRecord
100
AcDbLinetypeTableRecord
  2
CONTINUOUS
 70
     0
  3
Solid line (NEC CAE2D for Win R17.0 : 2022.10.19)
 72
    65
 73
     0
 40
0.0
  0
LTYPE
  5
AF
100
AcDbSymbolTableRecord
100
AcDbLinetypeTableRecord
  2
CENTER
 70
     0
  3
____ _ ____ _ ____ _ ____ _ ____ _ ____
 72
    65
 73
     4
 40
2.0
 49
1.25
 74
     0
 49
-0.25
 74
     0
 49
0.25
 74
     0
 49
-0.25
 74
     0
  0
ENDTAB
  0
TABLE
  2
LAYER
  5
B0
100
AcDbSymbolTable
 70
    12
  0
LAYER
  5
B1
100
AcDbSymbolTableRecord
100
AcDbLayerTableRecord
  2
0
 70
     0
 62
     7
  6
CONTINUOUS
  0
LAYER
  5
B2
100
AcDbSymbolTableRecord
100
AcDbLayerTableRecord
  2
DXF0
 70
     0
 62
     7
  6
CONTINUOUS
  0
LAYER
  5
B3
100
AcDbSymbolTableRecord
100
AcDbLayerTableRecord
  2
DEFPOINTS
 70
     0
 62
     7
  6
CONTINUOUS
  0
LAYER
  5
B4
100
AcDbSymbolTableRecord
100
AcDbLayerTableRecord
  2
CLASS1
 70
     0
 62
     7
  6
CONTINUOUS
  0
LAYER
  5
B5
100
AcDbSymbolTableRecord
100
AcDbLayerTableRecord
  2
FV
 70
     0
 62
     7
  6
CONTINUOUS
  0
LAYER
  5
B6
100
AcDbSymbolTableRecord
100
AcDbLayerTableRecord
  2
RV
 70
     0
 62
     7
  6
CONTINUOUS
  0
LAYER
  5
B7
100
AcDbSymbolTableRecord
100
AcDbLayerTableRecord
  2
TV
 70
     0
 62
     7
  6
CONTINUOUS
  0
LAYER
  5
B8
100
AcDbSymbolTableRecord
100
AcDbLayerTableRecord
  2
BK
 70
     0
 62
     7
  6
CONTINUOUS
  0
LAYER
  5
B9
100
AcDbSymbolTableRecord
100
AcDbLayerTableRecord
  2
FV1
 70
     0
 62
     7
  6
CONTINUOUS
  0
LAYER
  5
BA
100
AcDbSymbolTableRecord
100
AcDbLayerTableRecord
  2
RV1
 70
     0
 62
     7
  6
CONTINUOUS
  0
LAYER
  5
BB
100
AcDbSymbolTableRecord
100
AcDbLayerTableRecord
  2
TV1
 70
     0
 62
     7
  6
CONTINUOUS
  0
LAYER
  5
BC
100
AcDbSymbolTableRecord
100
AcDbLayerTableRecord
  2
DXF1023
 70
     0
 62
    16
  6
CONTINUOUS
  0
ENDTAB
  0
TABLE
  2
STYLE
  5
BD
100
AcDbSymbolTable
 70
     4
  0
STYLE
  5
BE
100
AcDbSymbolTableRecord
100
AcDbTextStyleTableRecord
  2
STANDARD
 70
    64
 40
0.0
 41
1.0
 50
0.0
 71
     0
 42
3.000000000000000
  3
TXT
  4

  0
STYLE
  5
BF
100
AcDbSymbolTableRecord
100
AcDbTextStyleTableRecord
  2
ANKTATE
 70
    68
 40
0.0
 41
1.0
 50
0.0
 71
     0
 42
3.000000000000000
  3
TXT
  4

  0
STYLE
  5
C0
100
AcDbSymbolTableRecord
100
AcDbTextStyleTableRecord
  2
KNJYOKO
 70
    64
 40
0.0
 41
1.0
 50
0.0
 71
     0
 42
3.000000000000000
  3
TXT
  4
BIGFONT
  0
STYLE
  5
C1
100
AcDbSymbolTableRecord
100
AcDbTextStyleTableRecord
  2
KNJTATE
 70
    68
 40
0.0
 41
1.0
 50
0.0
 71
     0
 42
3.000000000000000
  3
TXT
  4
BIGFONT
  0
ENDTAB
  0
TABLE
  2
VIEW
  5
C2
100
AcDbSymbolTable
 70
     0
  0
ENDTAB
  0
TABLE
  2
UCS
  5
C3
100
AcDbSymbolTable
 70
     0
  0
ENDTAB
  0
TABLE
  2
APPID
  5
C4
100
AcDbSymbolTable
 70
     1
  0
APPID
  5
C5
100
AcDbSymbolTableRecord
100
AcDbRegAppTableRecord
  2
ACAD
 70
     0
  0
ENDTAB
  0
TABLE
  2
DIMSTYLE
  5
C6
100
AcDbSymbolTable
 70
     1
  0
DIMSTYLE
105
C7
100
AcDbSymbolTableRecord
100
AcDbDimStyleTableRecord
  2
STANDARD
 70
     0
 41
2.000000
 44
1.500000
 42
0.800000
145
0.661290
140
3.100000
144
1.000000
146
0.645161
340
BE
  0
DIMSTYLE
105
C8
100
AcDbSymbolTableRecord
100
AcDbDimStyleTableRecord
  2
DXF001
 70
     0
 41
2.000000
 44
1.500000
 42
0.800000
145
0.661290
140
3.100000
144
1.000000
146
0.645161
 77
     1
 73
     0
 74
     0
271
     2
275
     0
 78
     8
172
     1
340
BE
  0
ENDTAB
  0
TABLE
  2
BLOCK_RECORD
  5
C9
100
AcDbSymbolTable
 70
    12
  0
BLOCK_RECORD
  5
CA
100
AcDbSymbolTableRecord
100
AcDbBlockTableRecord
  2
*MODEL_SPACE
  0
BLOCK_RECORD
  5
CB
100
AcDbSymbolTableRecord
100
AcDbBlockTableRecord
  2
*PAPER_SPACE
  0
BLOCK_RECORD
  5
1
100
AcDbSymbolTableRecord
100
AcDbBlockTableRecord
  2
_NONE
  0
BLOCK_RECORD
  5
4
100
AcDbSymbolTableRecord
100
AcDbBlockTableRecord
  2
_CLOSED
  0
BLOCK_RECORD
  5
B
100
AcDbSymbolTableRecord
100
AcDbBlockTableRecord
  2
_DOT
  0
BLOCK_RECORD
  5
13
100
AcDbSymbolTableRecord
100
AcDbBlockTableRecord
  2
_OPEN
  0
BLOCK_RECORD
  5
19
100
AcDbSymbolTableRecord
100
AcDbBlockTableRecord
  2
_ORIGIN
  0
BLOCK_RECORD
  5
1E
100
AcDbSymbolTableRecord
100
AcDbBlockTableRecord
  2
_OPEN30
  0
BLOCK_RECORD
  5
24
100
AcDbSymbolTableRecord
100
AcDbBlockTableRecord
  2
_BOXFILLED
  0
BLOCK_RECORD
  5
29
100
AcDbSymbolTableRecord
100
AcDbBlockTableRecord
  2
_BOXBLANK
  0
BLOCK_RECORD
  5
31
100
AcDbSymbolTableRecord
100
AcDbBlockTableRecord
  2
_OBLIQUE
  0
BLOCK_RECORD
  5
35
100
AcDbSymbolTableRecord
100
AcDbBlockTableRecord
  2
_OPEN90
  0
BLOCK_RECORD
  5
3B
100
AcDbSymbolTableRecord
100
AcDbBlockTableRecord
  2
_CLOSEDBLANK
  0
BLOCK_RECORD
  5
41
100
AcDbSymbolTableRecord
100
AcDbBlockTableRecord
  2
_DOTBLANK
  0
ENDTAB
  0
ENDSEC
  0
SECTION
  2
BLOCKS
  0
BLOCK
  5
CC
100
AcDbEntity
  8
0
100
AcDbBlockBegin
  2
*MODEL_SPACE
 70
     0
 10
0.0
 20
0.0
 30
0.0
  3
*MODEL_SPACE
  1

  0
ENDBLK
  5
CD
100
AcDbEntity
  8
0
100
AcDbBlockEnd
  0
BLOCK
  5
CE
100
AcDbEntity
  8
0
100
AcDbBlockBegin
  2
*PAPER_SPACE
 70
     0
 10
0.0
 20
0.0
 30
0.0
  3
*PAPER_SPACE
  1

  0
ENDBLK
  5
CF
100
AcDbEntity
  8
0
100
AcDbBlockEnd
  0
BLOCK
  5
2
100
AcDbEntity
  8
0
100
AcDbBlockBegin
  2
_NONE
 70
     0
 10
0.0
 20
0.0
 30
0.0
  3
_NONE
  1

  0
ENDBLK
  5
3
100
AcDbEntity
  8
0
100
AcDbBlockEnd
  0
BLOCK
  5
5
100
AcDbEntity
  8
0
100
AcDbBlockBegin
  2
_CLOSED
 70
     0
 10
0.0
 20
0.0
 30
0.0
  3
_CLOSED
  1

  0
LINE
  5
6
100
AcDbEntity
  8
0
  6
BYBLOCK
 62
     0
100
AcDbLine
 10
-1.0
 20
0.166667
 30
0.0
 11
0.0
 21
0.0
 31
0.0
  0
LINE
  5
7
100
AcDbEntity
  8
0
  6
BYBLOCK
 62
     0
100
AcDbLine
 10
0.0
 20
0.0
 30
0.0
 11
-1.0
 21
-0.166667
 31
0.0
  0
LINE
  5
8
100
AcDbEntity
  8
0
  6
BYBLOCK
 62
     0
100
AcDbLine
 10
-1.0
 20
0.166667
 30
0.0
 11
-1.0
 21
-0.166667
 31
0.0
  0
LINE
  5
9
100
AcDbEntity
  8
0
  6
BYBLOCK
 62
     0
100
AcDbLine
 10
0.0
 20
0.0
 30
0.0
 11
-1.0
 21
0.0
 31
0.0
  0
ENDBLK
  5
A
100
AcDbEntity
  8
0
100
AcDbBlockEnd
  0
BLOCK
  5
C
100
AcDbEntity
  8
0
100
AcDbBlockBegin
  2
_DOT
 70
     0
 10
0.0
 20
0.0
 30
0.0
  3
_DOT
  1

  0
POLYLINE
  5
D
100
AcDbEntity
  8
0
  6
BYBLOCK
 62
     0
100
AcDb2dPolyline
 66
     1
 10
0.0
 20
0.0
 30
0.0
 70
     1
 40
0.5
 41
0.5
  0
VERTEX
  5
E
100
AcDbEntity
  8
0
  6
BYBLOCK
 62
     0
100
AcDbVertex
100
AcDb2dVertex
 10
-0.25
 20
0.0
 30
0.0
 42
1.0
  0
VERTEX
  5
F
100
AcDbEntity
  8
0
  6
BYBLOCK
 62
     0
100
AcDbVertex
100
AcDb2dVertex
 10
0.25
 20
0.0
 30
0.0
 42
1.0
  0
SEQEND
  5
10
100
AcDbEntity
  8
0
  6
BYBLOCK
 62
     0
  0
LINE
  5
11
100
AcDbEntity
  8
0
  6
BYBLOCK
 62
     0
100
AcDbLine
 10
-0.5
 20
0.0
 30
0.0
 11
-1.0
 21
0.0
 31
0.0
  0
ENDBLK
  5
12
100
AcDbEntity
  8
0
100
AcDbBlockEnd
  0
BLOCK
  5
14
100
AcDbEntity
  8
0
100
AcDbBlockBegin
  2
_OPEN
 70
     0
 10
0.0
 20
0.0
 30
0.0
  3
_OPEN
  1

  0
LINE
  5
15
100
AcDbEntity
  8
0
  6
BYBLOCK
 62
     0
100
AcDbLine
 10
-1.0
 20
0.166667
 30
0.0
 11
0.0
 21
0.0
 31
0.0
  0
LINE
  5
16
100
AcDbEntity
  8
0
  6
BYBLOCK
 62
     0
100
AcDbLine
 10
0.0
 20
0.0
 30
0.0
 11
-1.0
 21
-0.166667
 31
0.0
  0
LINE
  5
17
100
AcDbEntity
  8
0
  6
BYBLOCK
 62
     0
100
AcDbLine
 10
0.0
 20
0.0
 30
0.0
 11
-1.0
 21
0.0
 31
0.0
  0
ENDBLK
  5
18
100
AcDbEntity
  8
0
100
AcDbBlockEnd
  0
BLOCK
  5
1A
100
AcDbEntity
  8
0
100
AcDbBlockBegin
  2
_ORIGIN
 70
     0
 10
0.0
 20
0.0
 30
0.0
  3
_ORIGIN
  1

  0
CIRCLE
  5
1B
100
AcDbEntity
  8
0
  6
BYBLOCK
 62
     0
100
AcDbCircle
 10
0.0
 20
0.0
 30
0.0
 40
0.5
  0
LINE
  5
1C
100
AcDbEntity
  8
0
  6
BYBLOCK
 62
     0
100
AcDbLine
 10
0.0
 20
0.0
 30
0.0
 11
-1.0
 21
0.0
 31
0.0
  0
ENDBLK
  5
1D
100
AcDbEntity
  8
0
100
AcDbBlockEnd
  0
BLOCK
  5
1F
100
AcDbEntity
  8
0
100
AcDbBlockBegin
  2
_OPEN30
 70
     0
 10
0.0
 20
0.0
 30
0.0
  3
_OPEN30
  1

  0
LINE
  5
20
100
AcDbEntity
  8
0
  6
BYBLOCK
 62
     0
100
AcDbLine
 10
-1.0
 20
0.267949
 30
0.0
 11
0.0
 21
0.0
 31
0.0
  0
LINE
  5
21
100
AcDbEntity
  8
0
  6
BYBLOCK
 62
     0
100
AcDbLine
 10
0.0
 20
0.0
 30
0.0
 11
-1.0
 21
-0.267949
 31
0.0
  0
LINE
  5
22
100
AcDbEntity
  8
0
  6
BYBLOCK
 62
     0
100
AcDbLine
 10
0.0
 20
0.0
 30
0.0
 11
-1.0
 21
0.0
 31
0.0
  0
ENDBLK
  5
23
100
AcDbEntity
  8
0
100
AcDbBlockEnd
  0
BLOCK
  5
25
100
AcDbEntity
  8
0
100
AcDbBlockBegin
  2
_BOXFILLED
 70
     0
 10
0.0
 20
0.0
 30
0.0
  3
_BOXFILLED
  1

  0
SOLID
  5
26
100
AcDbEntity
  8
0
  6
BYBLOCK
 62
     0
100
AcDbTrace
 10
-0.5
 20
0.5
 30
0.0
 11
0.5
 21
0.5
 31
0.0
 12
-0.5
 22
-0.5
 32
0.0
 13
0.5
 23
-0.5
 33
0.0
  0
LINE
  5
27
100
AcDbEntity
  8
0
  6
BYBLOCK
 62
     0
100
AcDbLine
 10
-0.5
 20
0.0
 30
0.0
 11
-1.0
 21
0.0
 31
0.0
  0
ENDBLK
  5
28
100
AcDbEntity
  8
0
100
AcDbBlockEnd
  0
BLOCK
  5
2A
100
AcDbEntity
  8
0
100
AcDbBlockBegin
  2
_BOXBLANK
 70
     0
 10
0.0
 20
0.0
 30
0.0
  3
_BOXBLANK
  1

  0
LINE
  5
2B
100
AcDbEntity
  8
0
  6
BYBLOCK
 62
     0
100
AcDbLine
 10
-0.5
 20
-0.5
 30
0.0
 11
0.5
 21
-0.5
 31
0.0
  0
LINE
  5
2C
100
AcDbEntity
  8
0
  6
BYBLOCK
 62
     0
100
AcDbLine
 10
0.5
 20
-0.5
 30
0.0
 11
0.5
 21
0.5
 31
0.0
  0
LINE
  5
2D
100
AcDbEntity
  8
0
  6
BYBLOCK
 62
     0
100
AcDbLine
 10
0.5
 20
0.5
 30
0.0
 11
-0.5
 21
0.5
 31
0.0
  0
LINE
  5
2E
100
AcDbEntity
  8
0
  6
BYBLOCK
 62
     0
100
AcDbLine
 10
-0.5
 20
0.5
 30
0.0
 11
-0.5
 21
-0.5
 31
0.0
  0
LINE
  5
2F
100
AcDbEntity
  8
0
  6
BYBLOCK
 62
     0
100
AcDbLine
 10
-0.5
 20
0.0
 30
0.0
 11
-1.0
 21
0.0
 31
0.0
  0
ENDBLK
  5
30
100
AcDbEntity
  8
0
100
AcDbBlockEnd
  0
BLOCK
  5
32
100
AcDbEntity
  8
0
100
AcDbBlockBegin
  2
_OBLIQUE
 70
     0
 10
0.0
 20
0.0
 30
0.0
  3
_OBLIQUE
  1

  0
LINE
  5
33
100
AcDbEntity
  8
0
  6
BYBLOCK
 62
     0
100
AcDbLine
 10
-0.5
 20
-0.5
 30
0.0
 11
0.5
 21
0.5
 31
0.0
  0
ENDBLK
  5
34
100
AcDbEntity
  8
0
100
AcDbBlockEnd
  0
BLOCK
  5
36
100
AcDbEntity
  8
0
100
AcDbBlockBegin
  2
_OPEN90
 70
     0
 10
0.0
 20
0.0
 30
0.0
  3
_OPEN90
  1

  0
LINE
  5
37
100
AcDbEntity
  8
0
  6
BYBLOCK
 62
     0
100
AcDbLine
 10
-0.5
 20
0.5
 30
0.0
 11
0.0
 21
0.0
 31
0.0
  0
LINE
  5
38
100
AcDbEntity
  8
0
  6
BYBLOCK
 62
     0
100
AcDbLine
 10
0.0
 20
0.0
 30
0.0
 11
-0.5
 21
-0.5
 31
0.0
  0
LINE
  5
39
100
AcDbEntity
  8
0
  6
BYBLOCK
 62
     0
100
AcDbLine
 10
0.0
 20
0.0
 30
0.0
 11
-1.0
 21
0.0
 31
0.0
  0
ENDBLK
  5
3A
100
AcDbEntity
  8
0
100
AcDbBlockEnd
  0
BLOCK
  5
3C
100
AcDbEntity
  8
0
100
AcDbBlockBegin
  2
_CLOSEDBLANK
 70
     0
 10
0.0
 20
0.0
 30
0.0
  3
_CLOSEDBLANK
  1

  0
LINE
  5
3D
100
AcDbEntity
  8
0
  6
BYBLOCK
 62
     0
100
AcDbLine
 10
-1.0
 20
0.1666666666666666
 30
0.0
 11
0.0
 21
0.0
 31
0.0
  0
LINE
  5
3E
100
AcDbEntity
  8
0
  6
BYBLOCK
 62
     0
100
AcDbLine
 10
0.0
 20
0.0
 30
0.0
 11
-1.0
 21
-0.1666666666666666
 31
0.0
  0
LINE
  5
3F
100
AcDbEntity
  8
0
  6
BYBLOCK
 62
     0
100
AcDbLine
 10
-1.0
 20
0.1666666666666666
 30
0.0
 11
-1.0
 21
-0.1666666666666666
 31
0.0
  0
ENDBLK
  5
40
100
AcDbEntity
  8
0
100
AcDbBlockEnd
  0
BLOCK
  5
42
100
AcDbEntity
  8
0
100
AcDbBlockBegin
  2
_DOTBLANK
 70
     0
 10
0.0
 20
0.0
 30
0.0
  3
_DOTBLANK
  1

  0
CIRCLE
  5
43
100
AcDbEntity
  8
0
  6
BYBLOCK
 62
     0
100
AcDbCircle
 10
0.0
 20
0.0
 30
0.0
 40
0.5
  0
LINE
  5
44
100
AcDbEntity
  8
0
  6
BYBLOCK
 62
     0
100
AcDbLine
 10
-0.5
 20
0.0
 30
0.0
 11
-1.0
 21
0.0
 31
0.0
  0
ENDBLK
  5
45
100
AcDbEntity
  8
0
100
AcDbBlockEnd
  0
ENDSEC
  0
SECTION
  2
ENTITIES
  0
ARC
  5
46
100
AcDbEntity
  8
0
  6
CONTINUOUS
 62
7
100
AcDbCircle
 10
-184.9670439661029
 20
38.08609519287062
 30
0.000000000000000
 40
0.4999999999999147
100
AcDbArc
 50
270.0000000000000
 51
355.0728899999999
  0
ARC
  5
47
100
AcDbEntity
  8
0
  6
CONTINUOUS
 62
7
100
AcDbCircle
 10
-195.0495411675485
 20
38.08609519287061
 30
0.000000000000000
 40
0.4999999999999147
100
AcDbArc
 50
184.9271100000002
 51
270.0000000000000
  0
LINE
  5
48
100
AcDbEntity
  8
0
  6
CONTINUOUS
 62
7
100
AcDbLine
 10
-189.5082807844462
 20
43.38609519335692
 30
0.000000000000000
 11
-189.5082807844462
 21
46.78609519335665
 31
0.000000000000000
  0
LINE
  5
49
100
AcDbEntity
  8
0
  6
CONTINUOUS
 62
7
100
AcDbLine
 10
-189.5082807844462
 20
46.78609519335665
 30
0.000000000000000
 11
-189.5082807844462
 21
47.38609519335690
 31
0.000000000000000
  0
LINE
  5
4A
100
AcDbEntity
  8
0
  6
CONTINUOUS
 62
7
100
AcDbLine
 10
-187.6613789435351
 20
47.38609519335690
 30
0.000000000000000
 11
-189.5082807844462
 21
47.38609519335690
 31
0.000000000000000
  0
LINE
  5
4B
100
AcDbEntity
  8
0
  6
CONTINUOUS
 62
7
100
AcDbLine
 10
-187.4082925668257
 20
46.78609519335666
 30
0.000000000000000
 11
-189.5082807844462
 21
46.78609519335665
 31
0.000000000000000
  0
LINE
  5
4C
100
AcDbEntity
  8
0
  6
CONTINUOUS
 62
7
100
AcDbLine
 10
-190.5082925668258
 20
47.38609519335690
 30
0.000000000000000
 11
-190.5082925668258
 21
46.78609519335673
 31
0.000000000000000
  0
LINE
  5
4D
100
AcDbEntity
  8
0
  6
CONTINUOUS
 62
7
100
AcDbLine
 10
-190.5082925668258
 20
47.38609519335690
 30
0.000000000000000
 11
-192.3554825900366
 21
47.38609519335690
 31
0.000000000000000
  0
LINE
  5
4E
100
AcDbEntity
  8
0
  6
CONTINUOUS
 62
7
100
AcDbLine
 10
-190.5082925668258
 20
46.78609519335673
 30
0.000000000000000
 11
-190.5082925668258
 21
43.38609519335692
 31
0.000000000000000
  0
LINE
  5
4F
100
AcDbEntity
  8
0
  6
CONTINUOUS
 62
7
100
AcDbLine
 10
-190.5082925668258
 20
46.78609519335665
 30
0.000000000000000
 11
-192.6082925668257
 21
46.78609519335665
 31
0.000000000000000
  0
LINE
  5
50
100
AcDbEntity
  8
0
  6
CONTINUOUS
 62
7
100
AcDbLine
 10
-195.5476935519966
 20
38.04315102133895
 30
0.000000000000000
 11
-196.0082925668257
 21
43.38609519335689
 31
0.000000000000000
  0
LINE
  5
51
100
AcDbEntity
  8
0
  6
CONTINUOUS
 62
7
100
AcDbLine
 10
-184.0082925668258
 20
43.38609519335691
 30
0.000000000000000
 11
-184.4688915816548
 21
38.04315102133896
 31
0.000000000000000
  0
CIRCLE
  5
52
100
AcDbEntity
  8
0
  6
CONTINUOUS
 62
7
100
AcDbCircle
 10
-190.0082925668258
 20
-8.413904807129306
 30
0.000000000000000
 40
1.000000000000000
  0
CIRCLE
  5
53
100
AcDbEntity
  8
0
  6
CONTINUOUS
 62
7
100
AcDbCircle
 10
-190.0082925668258
 20
-8.413904807129306
 30
0.000000000000000
 40
6.000000000000000
  0
CIRCLE
  5
54
100
AcDbEntity
  8
0
  6
CONTINUOUS
 62
7
100
AcDbCircle
 10
-190.0082925668258
 20
-8.413904807129306
 30
0.000000000000000
 40
5.041248600722743
  0
CIRCLE
  5
55
100
AcDbEntity
  8
0
  6
CONTINUOUS
 62
7
100
AcDbCircle
 10
-190.0082925668258
 20
-8.413904807129306
 30
0.000000000000000
 40
3.099999600722630
  0
LINE
  5
56
100
AcDbEntity
  8
0
  6
CONTINUOUS
 62
7
100
AcDbLine
 10
-153.9309764992805
 20
46.66711862617561
 30
0.000000000000000
 11
-153.9309764992805
 21
39.06711862617550
 31
0.000000000000000
  0
LINE
  5
57
100
AcDbEntity
  8
0
  6
CONTINUOUS
 62
7
100
AcDbLine
 10
-155.9309764992805
 20
39.06711862617550
 30
0.000000000000000
 11
-155.9309764992805
 21
46.66711862617561
 31
0.000000000000000
  0
LINE
  5
58
100
AcDbEntity
  8
0
  6
CONTINUOUS
 62
7
100
AcDbLine
 10
-154.2309764992806
 20
46.96711862617563
 30
0.000000000000000
 11
-153.9309764992806
 21
46.66711862617561
 31
0.000000000000000
  0
LINE
  5
59
100
AcDbEntity
  8
0
  6
CONTINUOUS
 62
7
100
AcDbLine
 10
-155.9309764992805
 20
46.66711862617561
 30
0.000000000000000
 11
-155.6309764992805
 21
46.96711862617564
 31
0.000000000000000
  0
LINE
  5
5A
100
AcDbEntity
  8
0
  6
CONTINUOUS
 62
7
100
AcDbLine
 10
-152.1809764992805
 20
39.06711862617550
 30
0.000000000000000
 11
-152.1809764992805
 21
37.56711862617561
 31
0.000000000000000
  0
LINE
  5
5B
100
AcDbEntity
  8
0
  6
CONTINUOUS
 62
7
100
AcDbLine
 10
-157.6809764992805
 20
37.56711862617561
 30
0.000000000000000
 11
-157.6809764992805
 21
39.06711862617550
 31
0.000000000000000
  0
LINE
  5
5C
100
AcDbEntity
  8
0
  6
CONTINUOUS
 62
7
100
AcDbLine
 10
-195.0495411675485
 20
37.58609519287069
 30
0.000000000000000
 11
-184.9670439661029
 21
37.58609519287069
 31
0.000000000000000
  0
LINE
  5
5D
100
AcDbEntity
  8
0
  6
CONTINUOUS
 62
7
100
AcDbLine
 10
-196.0082925668258
 20
43.38609519335690
 30
0.000000000000000
 11
-184.0082925668258
 21
43.38609519335690
 31
0.000000000000000
  0
LINE
  5
5E
100
AcDbEntity
  8
FV
  6
CENTER
 62
1
100
AcDbLine
 10
-190.0082925668257
 20
48.88414009105549
 30
0.000000000000000
 11
-190.0082925668257
 21
34.79446233287334
 31
0.000000000000000
  0
LINE
  5
5F
100
AcDbEntity
  8
0
  6
CONTINUOUS
 62
7
100
AcDbLine
 10
-192.6082925668257
 20
46.78609519335665
 30
0.000000000000000
 11
-192.6082925668257
 21
43.38609519335690
 31
0.000000000000000
  0
LINE
  5
60
100
AcDbEntity
  8
0
  6
CONTINUOUS
 62
7
100
AcDbLine
 10
-187.4082925668257
 20
46.78609519335665
 30
0.000000000000000
 11
-187.4082925668257
 21
43.38609519335690
 31
0.000000000000000
  0
LINE
  5
61
100
AcDbEntity
  8
0
  6
CONTINUOUS
 62
7
100
AcDbLine
 10
-187.6613789435350
 20
47.38609519335691
 30
0.000000000000000
 11
-187.4082925668257
 21
46.78609519335664
 31
0.000000000000000
  0
LINE
  5
62
100
AcDbEntity
  8
0
  6
CONTINUOUS
 62
7
100
AcDbLine
 10
-192.3554825900367
 20
47.38609519335691
 30
0.000000000000000
 11
-192.6082925668258
 21
46.78609519335666
 31
0.000000000000000
  0
LINE
  5
63
100
AcDbEntity
  8
0
  6
CONTINUOUS
 62
7
100
AcDbLine
 10
-157.6809764992805
 20
39.06711862617550
 30
0.000000000000000
 11
-152.1809764992805
 21
39.06711862617550
 31
0.000000000000000
  0
LINE
  5
64
100
AcDbEntity
  8
0
  6
CONTINUOUS
 62
7
100
AcDbLine
 10
-157.6809764992805
 20
37.56711862617561
 30
0.000000000000000
 11
-152.1809764992805
 21
37.56711862617561
 31
0.000000000000000
  0
LINE
  5
65
100
AcDbEntity
  8
0
  6
CONTINUOUS
 62
7
100
AcDbLine
 10
-155.9309764992805
 20
46.66711862617561
 30
0.000000000000000
 11
-153.9309764992805
 21
46.66711862617561
 31
0.000000000000000
  0
LINE
  5
66
100
AcDbEntity
  8
0
  6
CONTINUOUS
 62
7
100
AcDbLine
 10
-155.6309764992805
 20
46.96711862617563
 30
0.000000000000000
 11
-154.2309764992805
 21
46.96711862617563
 31
0.000000000000000
  0
LINE
  5
67
100
AcDbEntity
  8
FV
  6
CENTER
 62
1
100
AcDbLine
 10
-154.9309764992805
 20
36.63939852260779
 30
0.000000000000000
 11
-154.9309764992805
 21
48.16711862617561
 31
0.000000000000000
  0
LINE
  5
68
100
AcDbEntity
  8
FV
  6
CENTER
 62
1
100
AcDbLine
 10
-182.5082925668258
 20
-8.413904807129306
 30
0.000000000000000
 11
-197.5082925668258
 21
-8.413904807129306
 31
0.000000000000000
  0
LINE
  5
69
100
AcDbEntity
  8
FV
  6
CENTER
 62
1
100
AcDbLine
 10
-190.0082925668258
 20
-0.9139048071293061
 30
0.000000000000000
 11
-190.0082925668258
 21
-15.91390480712931
 31
0.000000000000000
  0
MTEXT
  5
6A
100
AcDbEntity
  8
BK
  6
CONTINUOUS
 62
3
100
AcDbMText
 10
-207.2617720991771
 20
-33.19503644226297
 30
0.000000000000000
 40
3.000000000000000
 41
0.000000000000000
 71
     7
 72
     1
  1
{\H0.93x;{TYPE No.TM-348}}
 11
1.000000000000000
 21
0.000000000000000
 31
0.000000000000000
  7
STANDARD
  0
CIRCLE
  5
6B
100
AcDbEntity
  8
0
  6
CONTINUOUS
 62
7
100
AcDbCircle
 10
-190.0082925668258
 20
94.38609519335689
 30
0.000000000000000
 40
4.399974999990491
  0
CIRCLE
  5
6C
100
AcDbEntity
  8
0
  6
CONTINUOUS
 62
7
100
AcDbCircle
 10
-190.0082925668258
 20
94.38609519335689
 30
0.000000000000000
 40
6.000000000000000
  0
ARC
  5
6D
100
AcDbEntity
  8
0
  6
CONTINUOUS
 62
7
100
AcDbCircle
 10
-190.0082925668258
 20
94.38609519335689
 30
0.000000000000000
 40
0.9999999999999836
100
AcDbArc
 50
149.9999999999995
 51
180.0000000000000
  0
ARC
  5
6E
100
AcDbEntity
  8
0
  6
CONTINUOUS
 62
7
100
AcDbCircle
 10
-190.0082925668258
 20
94.38609519335689
 30
0.000000000000000
 40
1.000000000000000
100
AcDbArc
 50
0.000000000000000
 51
29.99999999999895
  0
ARC
  5
6F
100
AcDbEntity
  8
0
  6
CONTINUOUS
 62
7
100
AcDbCircle
 10
-190.0082925668258
 20
94.38609519335689
 30
0.000000000000000
 40
0.9999999999999711
100
AcDbArc
 50
90.00000000000000
 51
120.0000000000010
  0
ARC
  5
70
100
AcDbEntity
  8
0
  6
CONTINUOUS
 62
7
100
AcDbCircle
 10
-190.0082925668258
 20
94.38609519335689
 30
0.000000000000000
 40
0.9999999999999711
100
AcDbArc
 50
239.9999999999998
 51
270.0000000000000
  0
ARC
  5
71
100
AcDbEntity
  8
0
  6
CONTINUOUS
 62
7
100
AcDbCircle
 10
-190.0082925668258
 20
94.38609519335689
 30
0.000000000000000
 40
0.9999999999999836
100
AcDbArc
 50
180.0000000000000
 51
210.0462236229202
  0
ARC
  5
72
100
AcDbEntity
  8
0
  6
CONTINUOUS
 62
7
100
AcDbCircle
 10
-190.0082925668258
 20
94.38609519335689
 30
0.000000000000000
 40
1.000000000000000
100
AcDbArc
 50
329.8680911414435
 51
360.0000000000000
  0
ARC
  5
73
100
AcDbEntity
  8
0
  6
CONTINUOUS
 62
7
100
AcDbCircle
 10
-190.0082925668258
 20
94.38609519335689
 30
0.000000000000000
 40
0.9999999999999711
100
AcDbArc
 50
270.0000000000000
 51
300.0007795190124
  0
ARC
  5
74
100
AcDbEntity
  8
0
  6
CONTINUOUS
 62
7
100
AcDbCircle
 10
-190.0082925668258
 20
94.38609519335689
 30
0.000000000000000
 40
0.9999999999999711
100
AcDbArc
 50
59.99948726376311
 51
90.00000000000000
  0
ARC
  5
75
100
AcDbEntity
  8
0
  6
CONTINUOUS
 62
7
100
AcDbCircle
 10
-190.0082925668258
 20
94.38609519335689
 30
0.000000000000000
 40
4.382733606481594
100
AcDbArc
 50
83.44920271212176
 51
96.55079728787817
  0
ARC
  5
76
100
AcDbEntity
  8
0
  6
CONTINUOUS
 62
7
100
AcDbCircle
 10
-190.0082925668258
 20
94.38609519335689
 30
0.000000000000000
 40
4.141354097357009
100
AcDbArc
 50
96.93443438830700
 51
173.0655656116924
  0
ARC
  5
77
100
AcDbEntity
  8
0
  6
CONTINUOUS
 62
7
100
AcDbCircle
 10
-190.0082925668258
 20
94.38609519335689
 30
0.000000000000000
 40
4.382733606481592
100
AcDbArc
 50
173.4492027121219
 51
186.5507972878782
  0
ARC
  5
78
100
AcDbEntity
  8
0
  6
CONTINUOUS
 62
7
100
AcDbCircle
 10
-190.0082925668258
 20
94.38609519335689
 30
0.000000000000000
 40
4.141354097357009
100
AcDbArc
 50
186.9344343883070
 51
263.0655656116930
  0
ARC
  5
79
100
AcDbEntity
  8
0
  6
CONTINUOUS
 62
7
100
AcDbCircle
 10
-190.0082925668258
 20
94.38609519335689
 30
0.000000000000000
 40
4.382733606481594
100
AcDbArc
 50
263.4492027121217
 51
276.5507972878783
  0
ARC
  5
7A
100
AcDbEntity
  8
0
  6
CONTINUOUS
 62
7
100
AcDbCircle
 10
-190.0082925668258
 20
94.38609519335689
 30
0.000000000000000
 40
4.141354097357009
100
AcDbArc
 50
276.9344343883071
 51
353.0655656116923
  0
ARC
  5
7B
100
AcDbEntity
  8
0
  6
CONTINUOUS
 62
7
100
AcDbCircle
 10
-190.0082925668258
 20
94.38609519335689
 30
0.000000000000000
 40
4.382733606481592
100
AcDbArc
 50
353.4492027121211
 51
366.5507972878788
  0
ARC
  5
7C
100
AcDbEntity
  8
0
  6
CONTINUOUS
 62
7
100
AcDbCircle
 10
-190.0082925668258
 20
94.38609519335689
 30
0.000000000000000
 40
4.141354097357009
100
AcDbArc
 50
6.934434388307664
 51
83.06556561169300
  0
ARC
  5
7D
100
AcDbEntity
  8
0
  6
CONTINUOUS
 62
7
100
AcDbCircle
 10
-190.0082925668258
 20
94.38609519335689
 30
0.000000000000000
 40
2.600000000000000
100
AcDbArc
 50
281.0877537960440
 51
348.8677643719846
  0
ARC
  5
7E
100
AcDbEntity
  8
0
  6
CONTINUOUS
 62
7
100
AcDbCircle
 10
-190.0082925668258
 20
94.38609519335689
 30
0.000000000000000
 40
2.600000000000000
100
AcDbArc
 50
101.0874892109706
 51
168.9125107890294
  0
ARC
  5
7F
100
AcDbEntity
  8
0
  6
CONTINUOUS
 62
7
100
AcDbCircle
 10
-190.0082925668258
 20
94.38609519335689
 30
0.000000000000000
 40
2.600000000000000
100
AcDbArc
 50
191.1031752962918
 51
258.9125107890293
  0
ARC
  5
80
100
AcDbEntity
  8
0
  6
CONTINUOUS
 62
7
100
AcDbCircle
 10
-190.0082925668258
 20
94.38609519335689
 30
0.000000000000000
 40
2.600000000000000
100
AcDbArc
 50
11.08748921097061
 51
78.91233675540862
  0
ARC
  5
81
100
AcDbEntity
  8
0
  6
CONTINUOUS
 62
7
100
AcDbCircle
 10
-190.0082925668258
 20
94.38609519335689
 30
0.000000000000000
 40
1.000000000000000
100
AcDbArc
 50
120.0000000000010
 51
149.9999999999995
  0
ARC
  5
82
100
AcDbEntity
  8
0
  6
CONTINUOUS
 62
7
100
AcDbCircle
 10
-190.0082925668258
 20
94.38609519335689
 30
0.000000000000000
 40
2.399999999999896
100
AcDbArc
 50
102.0246991805664
 51
167.9753008194336
  0
ARC
  5
83
100
AcDbEntity
  8
0
  6
CONTINUOUS
 62
7
100
AcDbCircle
 10
-190.0082925668258
 20
94.38609519335689
 30
0.000000000000000
 40
1.000000000000000
100
AcDbArc
 50
300.0007795190124
 51
329.8680911414435
  0
ARC
  5
84
100
AcDbEntity
  8
0
  6
CONTINUOUS
 62
7
100
AcDbCircle
 10
-190.0082925668258
 20
94.38609519335689
 30
0.000000000000000
 40
2.399999999999896
100
AcDbArc
 50
282.0249867747312
 51
347.9266624506451
  0
ARC
  5
85
100
AcDbEntity
  8
0
  6
CONTINUOUS
 62
7
100
AcDbCircle
 10
-190.0082925668258
 20
94.38609519335689
 30
0.000000000000000
 40
1.000000000000000
100
AcDbArc
 50
29.99999999999895
 51
59.99948726376311
  0
ARC
  5
86
100
AcDbEntity
  8
0
  6
CONTINUOUS
 62
7
100
AcDbCircle
 10
-190.0082925668258
 20
94.38609519335689
 30
0.000000000000000
 40
2.399999999999896
100
AcDbArc
 50
12.02469918056645
 51
77.97511165134580
  0
ARC
  5
87
100
AcDbEntity
  8
0
  6
CONTINUOUS
 62
7
100
AcDbCircle
 10
-190.0082925668258
 20
94.38609519335689
 30
0.000000000000000
 40
1.000000000000000
100
AcDbArc
 50
210.0462236229196
 51
239.9999999999998
  0
ARC
  5
88
100
AcDbEntity
  8
0
  6
CONTINUOUS
 62
7
100
AcDbCircle
 10
-190.0082925668258
 20
94.38609519335689
 30
0.000000000000000
 40
2.399999999999896
100
AcDbArc
 50
192.0417494553786
 51
257.9753008194337
  0
LINE
  5
89
100
AcDbEntity
  8
0
  6
CONTINUOUS
 62
7
100
AcDbLine
 10
-187.6711886399598
 20
93.88609519335689
 30
0.000000000000000
 11
-189.0082925668258
 21
93.88609519335695
 31
0.000000000000000
  0
LINE
  5
8A
100
AcDbEntity
  8
0
  6
CONTINUOUS
 62
7
100
AcDbLine
 10
-185.6541733831810
 20
93.88609519335691
 30
0.000000000000000
 11
-187.4474039701730
 21
93.88609519335691
 31
0.000000000000000
  0
LINE
  5
8B
100
AcDbEntity
  8
0
  6
CONTINUOUS
 62
7
100
AcDbLine
 10
-189.0082925668258
 20
93.88609519335695
 30
0.000000000000000
 11
-189.0082925668258
 21
94.88609519335689
 31
0.000000000000000
  0
LINE
  5
8C
100
AcDbEntity
  8
0
  6
CONTINUOUS
 62
7
100
AcDbLine
 10
-185.6541733831810
 20
94.88609519335691
 30
0.000000000000000
 11
-187.4568224023912
 21
94.88609519335691
 31
0.000000000000000
  0
LINE
  5
8D
100
AcDbEntity
  8
0
  6
CONTINUOUS
 62
7
100
AcDbLine
 10
-191.0082925668258
 20
93.88609519335695
 30
0.000000000000000
 11
-191.0082925668258
 21
94.88609519335685
 31
0.000000000000000
  0
LINE
  5
8E
100
AcDbEntity
  8
0
  6
CONTINUOUS
 62
7
100
AcDbLine
 10
-192.5597627312604
 20
94.88609519335685
 30
0.000000000000000
 11
-194.3624117504705
 21
94.88609519335685
 31
0.000000000000000
  0
LINE
  5
8F
100
AcDbEntity
  8
0
  6
CONTINUOUS
 62
7
100
AcDbLine
 10
-192.5696113477526
 20
93.88609519335695
 30
0.000000000000000
 11
-194.3624117504705
 21
93.88609519335695
 31
0.000000000000000
  0
LINE
  5
90
100
AcDbEntity
  8
0
  6
CONTINUOUS
 62
7
100
AcDbLine
 10
-191.0082925668258
 20
93.88609519335695
 30
0.000000000000000
 11
-192.3454969910094
 21
93.88609519335695
 31
0.000000000000000
  0
LINE
  5
91
100
AcDbEntity
  8
0
  6
CONTINUOUS
 62
7
100
AcDbLine
 10
-190.5082925668257
 20
90.03197600971215
 30
0.000000000000000
 11
-190.5082925668257
 21
91.83462502892229
 31
0.000000000000000
  0
LINE
  5
92
100
AcDbEntity
  8
0
  6
CONTINUOUS
 62
7
100
AcDbLine
 10
-189.5082925668258
 20
90.03197600971215
 30
0.000000000000000
 11
-189.5082925668258
 21
91.82461734482412
 31
0.000000000000000
  0
LINE
  5
93
100
AcDbEntity
  8
0
  6
CONTINUOUS
 62
7
100
AcDbLine
 10
-190.5082925668257
 20
93.38609519335689
 30
0.000000000000000
 11
-189.5082925668258
 21
93.38609519335689
 31
0.000000000000000
  0
LINE
  5
94
100
AcDbEntity
  8
0
  6
CONTINUOUS
 62
7
100
AcDbLine
 10
-189.5082925668258
 20
96.93756383904989
 30
0.000000000000000
 11
-189.5082925668258
 21
98.74021437700165
 31
0.000000000000000
  0
LINE
  5
95
100
AcDbEntity
  8
0
  6
CONTINUOUS
 62
7
100
AcDbLine
 10
-190.5082925668257
 20
95.38609519335689
 30
0.000000000000000
 11
-189.5082848168403
 21
95.38609519335689
 31
0.000000000000000
  0
LINE
  5
96
100
AcDbEntity
  8
0
  6
CONTINUOUS
 62
7
100
AcDbLine
 10
-190.5082925668257
 20
96.93756535779151
 30
0.000000000000000
 11
-190.5082925668257
 21
98.74021437700165
 31
0.000000000000000
  0
LINE
  5
97
100
AcDbEntity
  8
0
  6
CONTINUOUS
 62
7
100
AcDbLine
 10
-187.6613789435351
 20
93.88410271850115
 30
0.000000000000000
 11
-187.4572136665979
 21
93.88410271850115
 31
0.000000000000000
  0
LINE
  5
98
100
AcDbEntity
  8
0
  6
CONTINUOUS
 62
7
100
AcDbLine
 10
-189.5082807844463
 20
92.03875878425802
 30
0.000000000000000
 11
-189.5082807844463
 21
91.83462733788983
 31
0.000000000000000
  0
LINE
  5
99
100
AcDbEntity
  8
0
  6
CONTINUOUS
 62
7
100
AcDbLine
 10
-192.5597627312604
 20
94.88609519335689
 30
0.000000000000000
 11
-192.3556314856868
 21
94.88609519335689
 31
0.000000000000000
  0
LINE
  5
9A
100
AcDbEntity
  8
0
  6
CONTINUOUS
 62
7
100
AcDbLine
 10
-190.5082925668258
 20
96.93756535779151
 30
0.000000000000000
 11
-190.5082925668258
 21
96.73343411221789
 31
0.000000000000000
  0
LINE
  5
9B
100
AcDbEntity
  8
0
  6
CONTINUOUS
 62
7
100
AcDbLine
 10
-190.5082925668258
 20
92.03875627449591
 30
0.000000000000000
 11
-190.5082925668258
 21
91.83462502892232
 31
0.000000000000000
  0
LINE
  5
9C
100
AcDbEntity
  8
0
  6
CONTINUOUS
 62
7
100
AcDbLine
 10
-192.5596257487253
 20
93.88539668633031
 30
0.000000000000000
 11
-192.3554825900367
 21
93.88539668633031
 31
0.000000000000000
  0
LINE
  5
9D
100
AcDbEntity
  8
0
  6
CONTINUOUS
 62
7
100
AcDbLine
 10
-189.5082848168403
 20
96.93756383904987
 30
0.000000000000000
 11
-189.5082848168403
 21
96.73343246140212
 31
0.000000000000000
  0
LINE
  5
9E
100
AcDbEntity
  8
0
  6
CONTINUOUS
 62
7
100
AcDbLine
 10
-187.6609536479648
 20
94.88609519335691
 30
0.000000000000000
 11
-187.4568224023912
 21
94.88609519335691
 31
0.000000000000000
  0
LINE
  5
9F
100
AcDbEntity
  8
0
  6
CONTINUOUS
 62
7
100
AcDbLine
 10
-192.3556314856868
 20
94.88609519335689
 30
0.000000000000000
 11
-190.8743179706102
 21
94.88609519335689
 31
0.000000000000000
  0
LINE
  5
A0
100
AcDbEntity
  8
0
  6
CONTINUOUS
 62
7
100
AcDbLine
 10
-190.5082925668258
 20
95.25212059714130
 30
0.000000000000000
 11
-190.5082925668258
 21
96.73343411221789
 31
0.000000000000000
  0
LINE
  5
A1
100
AcDbEntity
  8
0
  6
CONTINUOUS
 62
7
100
AcDbLine
 10
-187.6613789435351
 20
93.88410271850115
 30
0.000000000000000
 11
-189.1434205790795
 21
93.88410271850114
 31
0.000000000000000
  0
LINE
  5
A2
100
AcDbEntity
  8
0
  6
CONTINUOUS
 62
7
100
AcDbLine
 10
-189.5082807844463
 20
93.52007659223929
 30
0.000000000000000
 11
-189.5082807844463
 21
92.03875878425802
 31
0.000000000000000
  0
LINE
  5
A3
100
AcDbEntity
  8
0
  6
CONTINUOUS
 62
7
100
AcDbLine
 10
-189.5082848168403
 20
96.73343246140212
 30
0.000000000000000
 11
-189.5082848168403
 21
95.25211612263888
 31
0.000000000000000
  0
LINE
  5
A4
100
AcDbEntity
  8
0
  6
CONTINUOUS
 62
7
100
AcDbLine
 10
-189.1422671630413
 20
94.88609519335689
 30
0.000000000000000
 11
-187.6609536479648
 21
94.88609519335689
 31
0.000000000000000
  0
LINE
  5
A5
100
AcDbEntity
  8
0
  6
CONTINUOUS
 62
7
100
AcDbLine
 10
-190.5082925668258
 20
92.03875627449591
 30
0.000000000000000
 11
-190.5082925668258
 21
93.52006978957249
 31
0.000000000000000
  0
LINE
  5
A6
100
AcDbEntity
  8
0
  6
CONTINUOUS
 62
7
100
AcDbLine
 10
-190.8739143116204
 20
93.88539668633031
 30
0.000000000000000
 11
-192.3554825900367
 21
93.88539668633031
 31
0.000000000000000
  0
LINE
  5
A7
100
AcDbEntity
  8
FV
  6
CENTER
 62
1
100
AcDbLine
 10
-182.5082925668258
 20
94.38609519335689
 30
0.000000000000000
 11
-197.5082925668258
 21
94.38609519335689
 31
0.000000000000000
  0
LINE
  5
A8
100
AcDbEntity
  8
FV
  6
CENTER
 62
1
100
AcDbLine
 10
-190.0082925668258
 20
101.8860951933569
 30
0.000000000000000
 11
-190.0082925668258
 21
86.88609519335689
 31
0.000000000000000
  0
ENDSEC
  0
SECTION
  2
OBJECTS
  0
DICTIONARY
  5
D0
100
AcDbDictionary
  3
ACAD_GROUP
350
D1
  3
ACAD_MLINESTYLE
350
D2
  0
DICTIONARY
  5
D1
102
{ACAD_REACTORS
330
D0
102
}
100
AcDbDictionary
  0
DICTIONARY
  5
D2
102
{ACAD_REACTORS
330
D0
102
}
100
AcDbDictionary
  3
STANDARD
350
D3
  0
MLINESTYLE
  5
D3
102
{ACAD_REACTORS
330
D2
102
}
100
AcDbMlineStyle
  2
STANDARD
 70
     0
  3

 62
   256
 51
90.00
 52
90.00
 71
     2
 49
0.50
 62
   256
  6
BYLAYER
 49
-0.50
 62
   256
  6
BYLAYER
  0
ENDSEC
  0
EOF
