  0
SECTION
  2
HEADER
  9
$ACADVER
  1
AC1015
  9
$DWGCODEPAGE
  3
ANSI_932
  9
$LTSCALE
 40
20.0
  9
$FILLMODE
 70
     1
  9
$CLAYER
  8
0
  9
$PDMODE
 70
     0
  9
$SPLFRAME
 70
     0
  9
$SPLINETYPE
 70
     6
  9
$SPLINESEGS
 70
     8
  9
$DIMASZ
 40
2.000000
  9
$DIMEXE
 40
1.500000
  9
$DIMEXO
 40
0.800000
  9
$DIMTAD
 70
     1
  9
$DIMTIH
 70
     0
  9
$DIMTOH
 70
     0
  9
$DIMTVP
 40
0.500000
  9
$DIMTXT
 40
3.100000
  9
$EXTMIN
 10
0.000000
 20
0.000000
 30
0.000000
  9
$EXTMAX
 10
297.000000
 20
420.000000
 30
0.000000
  9
$MEASUREMENT
 70
  1
  9
$LIMMIN
 10
0.000000
 20
0.000000
  9
$LIMMAX
 10
297.000000
 20
420.000000
  9
$HANDSEED
  5
399
  9
$LWDISPLAY
290
     0
  9
$DIMBLK
  1
_OPEN
  9
$DIMDEC
 70
     2
  9
$DIMADEC
 70
     2
  9
$DIMAUNIT
 70
     0
  9
$DIMZIN
 70
     8
  9
$DIMAZIN
 70
     2
  9
$DIMTOFL
 70
     1
  0
ENDSEC
  0
SECTION
  2
CLASSES
  0
ENDSEC
  0
SECTION
  2
TABLES
  0
TABLE
  2
VPORT
  5
364
100
AcDbSymbolTable
 70
     1
  0
VPORT
  5
365
100
AcDbSymbolTableRecord
100
AcDbViewportTableRecord
  2
*ACTIVE
 70
     0
 12
258.874999
 22
270.500000
 40
611.000000
 41
0.814648
  0
ENDTAB
  0
TABLE
  2
LTYPE
  5
366
100
AcDbSymbolTable
 70
     3
  0
LTYPE
  5
367
100
AcDbSymbolTableRecord
100
AcDbLinetypeTableRecord
  2
BYBLOCK
 70
     0
  3

 72
    65
 73
     0
 40
0.0
  0
LTYPE
  5
368
100
AcDbSymbolTableRecord
100
AcDbLinetypeTableRecord
  2
BYLAYER
 70
     0
  3

 72
    65
 73
     0
 40
0.0
  0
LTYPE
  5
369
100
AcDbSymbolTableRecord
100
AcDbLinetypeTableRecord
  2
CONTINUOUS
 70
     0
  3
Solid line (NEC CAE2D for Win R15.2 : 2020.05.21)
 72
    65
 73
     0
 40
0.0
  0
LTYPE
  5
36A
100
AcDbSymbolTableRecord
100
AcDbLinetypeTableRecord
  2
CENTER
 70
     0
  3
____ _ ____ _ ____ _ ____ _ ____ _ ____
 72
    65
 73
     4
 40
2.0
 49
1.25
 74
     0
 49
-0.25
 74
     0
 49
0.25
 74
     0
 49
-0.25
 74
     0
  0
LTYPE
  5
36B
100
AcDbSymbolTableRecord
100
AcDbLinetypeTableRecord
  2
PHANTOM
 70
     0
  3
______  __  __  ______  __  __  ______ 
 72
    65
 73
     6
 40
2.5
 49
1.25
 74
     0
 49
-0.25
 74
     0
 49
0.25
 74
     0
 49
-0.25
 74
     0
 49
0.25
 74
     0
 49
-0.25
 74
     0
  0
ENDTAB
  0
TABLE
  2
LAYER
  5
36C
100
AcDbSymbolTable
 70
    14
  0
LAYER
  5
36D
100
AcDbSymbolTableRecord
100
AcDbLayerTableRecord
  2
0
 70
     0
 62
     7
  6
CONTINUOUS
370
    -3
390

  0
LAYER
  5
36E
100
AcDbSymbolTableRecord
100
AcDbLayerTableRecord
  2
A0
 70
     0
 62
     9
  6
CONTINUOUS
370
    -3
390

  0
LAYER
  5
36F
100
AcDbSymbolTableRecord
100
AcDbLayerTableRecord
  2
A4
 70
     0
 62
     9
  6
CONTINUOUS
370
    -3
390

  0
LAYER
  5
370
100
AcDbSymbolTableRecord
100
AcDbLayerTableRecord
  2
A5
 70
     0
 62
     8
  6
CONTINUOUS
370
    -3
390

  0
LAYER
  5
371
100
AcDbSymbolTableRecord
100
AcDbLayerTableRecord
  2
A6
 70
     0
 62
    12
  6
CONTINUOUS
370
    -3
390

  0
LAYER
  5
372
100
AcDbSymbolTableRecord
100
AcDbLayerTableRecord
  2
A7
 70
     0
 62
    12
  6
CONTINUOUS
370
    -3
390

  0
LAYER
  5
373
100
AcDbSymbolTableRecord
100
AcDbLayerTableRecord
  2
A8
 70
     0
 62
    10
  6
CONTINUOUS
370
    -3
390

  0
LAYER
  5
374
100
AcDbSymbolTableRecord
100
AcDbLayerTableRecord
  2
A9
 70
     0
 62
     9
  6
CONTINUOUS
370
    -3
390

  0
LAYER
  5
375
100
AcDbSymbolTableRecord
100
AcDbLayerTableRecord
  2
A10
 70
     0
 62
     6
  6
CONTINUOUS
370
    -3
390

  0
LAYER
  5
376
100
AcDbSymbolTableRecord
100
AcDbLayerTableRecord
  2
A20
 70
     0
 62
     1
  6
CONTINUOUS
370
    -3
390

  0
LAYER
  5
377
100
AcDbSymbolTableRecord
100
AcDbLayerTableRecord
  2
A30
 70
     0
 62
     1
  6
CONTINUOUS
370
    -3
390

  0
LAYER
  5
378
100
AcDbSymbolTableRecord
100
AcDbLayerTableRecord
  2
A40
 70
     0
 62
     9
  6
CONTINUOUS
370
    -3
390

  0
LAYER
  5
379
100
AcDbSymbolTableRecord
100
AcDbLayerTableRecord
  2
A50
 70
     0
 62
    12
  6
CONTINUOUS
370
    -3
390

  0
LAYER
  5
37A
100
AcDbSymbolTableRecord
100
AcDbLayerTableRecord
  2
A1023
 70
     0
 62
    16
  6
CONTINUOUS
370
    -3
390

  0
ENDTAB
  0
TABLE
  2
STYLE
  5
37B
100
AcDbSymbolTable
 70
     4
  0
STYLE
  5
37C
100
AcDbSymbolTableRecord
100
AcDbTextStyleTableRecord
  2
STANDARD
 70
    64
 40
0.0
 41
1.0
 50
0.0
 71
     0
 42
3.000000000000000
  3
TXT
  4

  0
STYLE
  5
37D
100
AcDbSymbolTableRecord
100
AcDbTextStyleTableRecord
  2
ANKTATE
 70
    68
 40
0.0
 41
1.0
 50
0.0
 71
     0
 42
3.000000000000000
  3
TXT
  4

  0
STYLE
  5
37E
100
AcDbSymbolTableRecord
100
AcDbTextStyleTableRecord
  2
KNJYOKO
 70
    64
 40
0.0
 41
1.0
 50
0.0
 71
     0
 42
3.000000000000000
  3
TXT
  4
BIGFONT
  0
STYLE
  5
37F
100
AcDbSymbolTableRecord
100
AcDbTextStyleTableRecord
  2
KNJTATE
 70
    68
 40
0.0
 41
1.0
 50
0.0
 71
     0
 42
3.000000000000000
  3
TXT
  4
BIGFONT
  0
ENDTAB
  0
TABLE
  2
VIEW
  5
380
100
AcDbSymbolTable
 70
     0
  0
ENDTAB
  0
TABLE
  2
UCS
  5
381
100
AcDbSymbolTable
 70
     0
  0
ENDTAB
  0
TABLE
  2
APPID
  5
382
100
AcDbSymbolTable
 70
     1
  0
APPID
  5
383
100
AcDbSymbolTableRecord
100
AcDbRegAppTableRecord
  2
ACAD
 70
     0
  0
ENDTAB
  0
TABLE
  2
DIMSTYLE
  5
384
100
AcDbSymbolTable
 70
     2
100
AcDbDimStyleTable
  0
DIMSTYLE
105
385
100
AcDbSymbolTableRecord
100
AcDbDimStyleTableRecord
  2
STANDARD
 70
     0
 41
2.000000
 44
1.500000
 42
0.800000
145
0.661290
140
3.100000
144
1.000000
146
0.645161
340
37C
  0
DIMSTYLE
105
386
100
AcDbSymbolTableRecord
100
AcDbDimStyleTableRecord
  2
A001
 70
     0
 41
2.000000
 44
1.500000
 42
0.800000
145
0.661290
140
3.100000
144
1.000000
146
0.645161
 77
     1
 73
     0
 74
     0
271
     2
179
     2
275
     0
 78
     8
 79
     2
172
     1
340
37C
  0
ENDTAB
  0
TABLE
  2
BLOCK_RECORD
  5
387
100
AcDbSymbolTable
 70
    12
  0
BLOCK_RECORD
  5
388
100
AcDbSymbolTableRecord
100
AcDbBlockTableRecord
  2
*MODEL_SPACE
  0
BLOCK_RECORD
  5
389
100
AcDbSymbolTableRecord
100
AcDbBlockTableRecord
  2
*PAPER_SPACE
  0
BLOCK_RECORD
  5
38A
100
AcDbSymbolTableRecord
100
AcDbBlockTableRecord
  2
*PAPER_SPACE0
  0
BLOCK_RECORD
  5
1
100
AcDbSymbolTableRecord
100
AcDbBlockTableRecord
  2
_NONE
  0
BLOCK_RECORD
  5
4
100
AcDbSymbolTableRecord
100
AcDbBlockTableRecord
  2
_CLOSED
  0
BLOCK_RECORD
  5
B
100
AcDbSymbolTableRecord
100
AcDbBlockTableRecord
  2
_DOT
  0
BLOCK_RECORD
  5
13
100
AcDbSymbolTableRecord
100
AcDbBlockTableRecord
  2
_OPEN
  0
BLOCK_RECORD
  5
19
100
AcDbSymbolTableRecord
100
AcDbBlockTableRecord
  2
_ORIGIN
  0
BLOCK_RECORD
  5
1E
100
AcDbSymbolTableRecord
100
AcDbBlockTableRecord
  2
_OPEN30
  0
BLOCK_RECORD
  5
24
100
AcDbSymbolTableRecord
100
AcDbBlockTableRecord
  2
_BOXFILLED
  0
BLOCK_RECORD
  5
29
100
AcDbSymbolTableRecord
100
AcDbBlockTableRecord
  2
_BOXBLANK
  0
BLOCK_RECORD
  5
31
100
AcDbSymbolTableRecord
100
AcDbBlockTableRecord
  2
_OBLIQUE
  0
BLOCK_RECORD
  5
35
100
AcDbSymbolTableRecord
100
AcDbBlockTableRecord
  2
_OPEN90
  0
BLOCK_RECORD
  5
3B
100
AcDbSymbolTableRecord
100
AcDbBlockTableRecord
  2
_CLOSEDBLANK
  0
BLOCK_RECORD
  5
41
100
AcDbSymbolTableRecord
100
AcDbBlockTableRecord
  2
_DOTBLANK
  0
ENDTAB
  0
ENDSEC
  0
SECTION
  2
BLOCKS
  0
BLOCK
  5
38B
100
AcDbEntity
  8
0
100
AcDbBlockBegin
  2
*MODEL_SPACE
 70
     0
 10
0.0
 20
0.0
 30
0.0
  3
*MODEL_SPACE
  1

  0
ENDBLK
  5
38C
100
AcDbEntity
  8
0
100
AcDbBlockEnd
  0
BLOCK
  5
38D
100
AcDbEntity
  8
0
100
AcDbBlockBegin
  2
*PAPER_SPACE
 70
     0
 10
0.0
 20
0.0
 30
0.0
  3
*PAPER_SPACE
  1

  0
ENDBLK
  5
38E
100
AcDbEntity
  8
0
100
AcDbBlockEnd
  0
BLOCK
  5
38F
100
AcDbEntity
  8
0
100
AcDbBlockBegin
  2
*PAPER_SPACE0
 70
     0
 10
0.0
 20
0.0
 30
0.0
  3
*PAPER_SPACE0
  1

  0
ENDBLK
  5
390
100
AcDbEntity
  8
0
100
AcDbBlockEnd
  0
BLOCK
  5
2
330
1
100
AcDbEntity
  8
0
100
AcDbBlockBegin
  2
_NONE
 70
     0
 10
0.0
 20
0.0
 30
0.0
  3
_NONE
  1

  0
ENDBLK
  5
3
330
1
100
AcDbEntity
  8
0
100
AcDbBlockEnd
  0
BLOCK
  5
5
330
4
100
AcDbEntity
  8
0
100
AcDbBlockBegin
  2
_CLOSED
 70
     0
 10
0.0
 20
0.0
 30
0.0
  3
_CLOSED
  1

  0
LINE
  5
6
330
4
100
AcDbEntity
  8
0
  6
BYBLOCK
 62
     0
370
    -2
100
AcDbLine
 10
-1.0
 20
0.166667
 30
0.0
 11
0.0
 21
0.0
 31
0.0
  0
LINE
  5
7
330
4
100
AcDbEntity
  8
0
  6
BYBLOCK
 62
     0
370
    -2
100
AcDbLine
 10
0.0
 20
0.0
 30
0.0
 11
-1.0
 21
-0.166667
 31
0.0
  0
LINE
  5
8
330
4
100
AcDbEntity
  8
0
  6
BYBLOCK
 62
     0
370
    -2
100
AcDbLine
 10
-1.0
 20
0.166667
 30
0.0
 11
-1.0
 21
-0.166667
 31
0.0
  0
LINE
  5
9
330
4
100
AcDbEntity
  8
0
  6
BYBLOCK
 62
     0
370
    -2
100
AcDbLine
 10
0.0
 20
0.0
 30
0.0
 11
-1.0
 21
0.0
 31
0.0
  0
ENDBLK
  5
A
330
4
100
AcDbEntity
  8
0
100
AcDbBlockEnd
  0
BLOCK
  5
C
330
B
100
AcDbEntity
  8
0
100
AcDbBlockBegin
  2
_DOT
 70
     0
 10
0.0
 20
0.0
 30
0.0
  3
_DOT
  1

  0
POLYLINE
  5
D
330
B
100
AcDbEntity
  8
0
  6
BYBLOCK
 62
     0
370
    -2
100
AcDb2dPolyline
 66
     1
 10
0.0
 20
0.0
 30
0.0
 70
     1
 40
0.5
 41
0.5
  0
VERTEX
  5
E
330
B
100
AcDbEntity
  8
0
  6
BYBLOCK
 62
     0
370
    -2
100
AcDbVertex
100
AcDb2dVertex
 10
-0.25
 20
0.0
 30
0.0
 42
1.0
  0
VERTEX
  5
F
330
B
100
AcDbEntity
  8
0
  6
BYBLOCK
 62
     0
370
    -2
100
AcDbVertex
100
AcDb2dVertex
 10
0.25
 20
0.0
 30
0.0
 42
1.0
  0
SEQEND
  5
10
330
B
100
AcDbEntity
  8
0
  6
BYBLOCK
 62
     0
370
    -2
  0
LINE
  5
11
330
B
100
AcDbEntity
  8
0
  6
BYBLOCK
 62
     0
370
    -2
100
AcDbLine
 10
-0.5
 20
0.0
 30
0.0
 11
-1.0
 21
0.0
 31
0.0
  0
ENDBLK
  5
12
330
B
100
AcDbEntity
  8
0
100
AcDbBlockEnd
  0
BLOCK
  5
14
330
13
100
AcDbEntity
  8
0
100
AcDbBlockBegin
  2
_OPEN
 70
     0
 10
0.0
 20
0.0
 30
0.0
  3
_OPEN
  1

  0
LINE
  5
15
330
13
100
AcDbEntity
  8
0
  6
BYBLOCK
 62
     0
370
    -2
100
AcDbLine
 10
-1.0
 20
0.166667
 30
0.0
 11
0.0
 21
0.0
 31
0.0
  0
LINE
  5
16
330
13
100
AcDbEntity
  8
0
  6
BYBLOCK
 62
     0
370
    -2
100
AcDbLine
 10
0.0
 20
0.0
 30
0.0
 11
-1.0
 21
-0.166667
 31
0.0
  0
LINE
  5
17
330
13
100
AcDbEntity
  8
0
  6
BYBLOCK
 62
     0
370
    -2
100
AcDbLine
 10
0.0
 20
0.0
 30
0.0
 11
-1.0
 21
0.0
 31
0.0
  0
ENDBLK
  5
18
330
13
100
AcDbEntity
  8
0
100
AcDbBlockEnd
  0
BLOCK
  5
1A
330
19
100
AcDbEntity
  8
0
100
AcDbBlockBegin
  2
_ORIGIN
 70
     0
 10
0.0
 20
0.0
 30
0.0
  3
_ORIGIN
  1

  0
CIRCLE
  5
1B
330
19
100
AcDbEntity
  8
0
  6
BYBLOCK
 62
     0
370
    -2
100
AcDbCircle
 10
0.0
 20
0.0
 30
0.0
 40
0.5
  0
LINE
  5
1C
330
19
100
AcDbEntity
  8
0
  6
BYBLOCK
 62
     0
370
    -2
100
AcDbLine
 10
0.0
 20
0.0
 30
0.0
 11
-1.0
 21
0.0
 31
0.0
  0
ENDBLK
  5
1D
330
19
100
AcDbEntity
  8
0
100
AcDbBlockEnd
  0
BLOCK
  5
1F
330
1E
100
AcDbEntity
  8
0
100
AcDbBlockBegin
  2
_OPEN30
 70
     0
 10
0.0
 20
0.0
 30
0.0
  3
_OPEN30
  1

  0
LINE
  5
20
330
1E
100
AcDbEntity
  8
0
  6
BYBLOCK
 62
     0
370
    -2
100
AcDbLine
 10
-1.0
 20
0.267949
 30
0.0
 11
0.0
 21
0.0
 31
0.0
  0
LINE
  5
21
330
1E
100
AcDbEntity
  8
0
  6
BYBLOCK
 62
     0
370
    -2
100
AcDbLine
 10
0.0
 20
0.0
 30
0.0
 11
-1.0
 21
-0.267949
 31
0.0
  0
LINE
  5
22
330
1E
100
AcDbEntity
  8
0
  6
BYBLOCK
 62
     0
370
    -2
100
AcDbLine
 10
0.0
 20
0.0
 30
0.0
 11
-1.0
 21
0.0
 31
0.0
  0
ENDBLK
  5
23
330
1E
100
AcDbEntity
  8
0
100
AcDbBlockEnd
  0
BLOCK
  5
25
330
24
100
AcDbEntity
  8
0
100
AcDbBlockBegin
  2
_BOXFILLED
 70
     0
 10
0.0
 20
0.0
 30
0.0
  3
_BOXFILLED
  1

  0
SOLID
  5
26
330
24
100
AcDbEntity
  8
0
  6
BYBLOCK
 62
     0
370
    -2
100
AcDbTrace
 10
-0.5
 20
0.5
 30
0.0
 11
0.5
 21
0.5
 31
0.0
 12
-0.5
 22
-0.5
 32
0.0
 13
0.5
 23
-0.5
 33
0.0
  0
LINE
  5
27
330
24
100
AcDbEntity
  8
0
  6
BYBLOCK
 62
     0
370
    -2
100
AcDbLine
 10
-0.5
 20
0.0
 30
0.0
 11
-1.0
 21
0.0
 31
0.0
  0
ENDBLK
  5
28
330
24
100
AcDbEntity
  8
0
100
AcDbBlockEnd
  0
BLOCK
  5
2A
330
29
100
AcDbEntity
  8
0
100
AcDbBlockBegin
  2
_BOXBLANK
 70
     0
 10
0.0
 20
0.0
 30
0.0
  3
_BOXBLANK
  1

  0
LINE
  5
2B
330
29
100
AcDbEntity
  8
0
  6
BYBLOCK
 62
     0
370
    -2
100
AcDbLine
 10
-0.5
 20
-0.5
 30
0.0
 11
0.5
 21
-0.5
 31
0.0
  0
LINE
  5
2C
330
29
100
AcDbEntity
  8
0
  6
BYBLOCK
 62
     0
370
    -2
100
AcDbLine
 10
0.5
 20
-0.5
 30
0.0
 11
0.5
 21
0.5
 31
0.0
  0
LINE
  5
2D
330
29
100
AcDbEntity
  8
0
  6
BYBLOCK
 62
     0
370
    -2
100
AcDbLine
 10
0.5
 20
0.5
 30
0.0
 11
-0.5
 21
0.5
 31
0.0
  0
LINE
  5
2E
330
29
100
AcDbEntity
  8
0
  6
BYBLOCK
 62
     0
370
    -2
100
AcDbLine
 10
-0.5
 20
0.5
 30
0.0
 11
-0.5
 21
-0.5
 31
0.0
  0
LINE
  5
2F
330
29
100
AcDbEntity
  8
0
  6
BYBLOCK
 62
     0
370
    -2
100
AcDbLine
 10
-0.5
 20
0.0
 30
0.0
 11
-1.0
 21
0.0
 31
0.0
  0
ENDBLK
  5
30
330
29
100
AcDbEntity
  8
0
100
AcDbBlockEnd
  0
BLOCK
  5
32
330
31
100
AcDbEntity
  8
0
100
AcDbBlockBegin
  2
_OBLIQUE
 70
     0
 10
0.0
 20
0.0
 30
0.0
  3
_OBLIQUE
  1

  0
LINE
  5
33
330
31
100
AcDbEntity
  8
0
  6
BYBLOCK
 62
     0
370
    -2
100
AcDbLine
 10
-0.5
 20
-0.5
 30
0.0
 11
0.5
 21
0.5
 31
0.0
  0
ENDBLK
  5
34
330
31
100
AcDbEntity
  8
0
100
AcDbBlockEnd
  0
BLOCK
  5
36
330
35
100
AcDbEntity
  8
0
100
AcDbBlockBegin
  2
_OPEN90
 70
     0
 10
0.0
 20
0.0
 30
0.0
  3
_OPEN90
  1

  0
LINE
  5
37
330
35
100
AcDbEntity
  8
0
  6
BYBLOCK
 62
     0
370
    -2
100
AcDbLine
 10
-0.5
 20
0.5
 30
0.0
 11
0.0
 21
0.0
 31
0.0
  0
LINE
  5
38
330
35
100
AcDbEntity
  8
0
  6
BYBLOCK
 62
     0
370
    -2
100
AcDbLine
 10
0.0
 20
0.0
 30
0.0
 11
-0.5
 21
-0.5
 31
0.0
  0
LINE
  5
39
330
35
100
AcDbEntity
  8
0
  6
BYBLOCK
 62
     0
370
    -2
100
AcDbLine
 10
0.0
 20
0.0
 30
0.0
 11
-1.0
 21
0.0
 31
0.0
  0
ENDBLK
  5
3A
330
35
100
AcDbEntity
  8
0
100
AcDbBlockEnd
  0
BLOCK
  5
3C
330
3B
100
AcDbEntity
  8
0
100
AcDbBlockBegin
  2
_CLOSEDBLANK
 70
     0
 10
0.0
 20
0.0
 30
0.0
  3
_CLOSEDBLANK
  1

  0
LINE
  5
3D
330
3B
100
AcDbEntity
  8
0
  6
BYBLOCK
 62
     0
370
    -2
100
AcDbLine
 10
-1.0
 20
0.1666666666666666
 30
0.0
 11
0.0
 21
0.0
 31
0.0
  0
LINE
  5
3E
330
3B
100
AcDbEntity
  8
0
  6
BYBLOCK
 62
     0
370
    -2
100
AcDbLine
 10
0.0
 20
0.0
 30
0.0
 11
-1.0
 21
-0.1666666666666666
 31
0.0
  0
LINE
  5
3F
330
3B
100
AcDbEntity
  8
0
  6
BYBLOCK
 62
     0
370
    -2
100
AcDbLine
 10
-1.0
 20
0.1666666666666666
 30
0.0
 11
-1.0
 21
-0.1666666666666666
 31
0.0
  0
ENDBLK
  5
40
330
3B
100
AcDbEntity
  8
0
100
AcDbBlockEnd
  0
BLOCK
  5
42
330
41
100
AcDbEntity
  8
0
100
AcDbBlockBegin
  2
_DOTBLANK
 70
     0
 10
0.0
 20
0.0
 30
0.0
  3
_DOTBLANK
  1

  0
CIRCLE
  5
43
330
41
100
AcDbEntity
  8
0
  6
BYBLOCK
 62
     0
370
    -2
100
AcDbCircle
 10
0.0
 20
0.0
 30
0.0
 40
0.5
  0
LINE
  5
44
330
41
100
AcDbEntity
  8
0
  6
BYBLOCK
 62
     0
370
    -2
100
AcDbLine
 10
-0.5
 20
0.0
 30
0.0
 11
-1.0
 21
0.0
 31
0.0
  0
ENDBLK
  5
45
330
41
100
AcDbEntity
  8
0
100
AcDbBlockEnd
  0
ENDSEC
  0
SECTION
  2
ENTITIES
  0
MTEXT
  5
46
100
AcDbEntity
  8
A8
  6
CONTINUOUS
 62
7
100
AcDbMText
 10
9.999997526638502
 20
18.00000076076889
 30
0.0000000000000000
 40
3.000000000000000
 41
0.0000000000000000
 44
0.6739999771118164
 71
     7
 72
     1
  1
{\H0.94x;{TYPE No.TM-360-100-5}}
 11
1.000000000000000
 21
0.0000000000000000
 31
0.0000000000000000
  7
STANDARD
  0
POINT
  5
47
100
AcDbEntity
  8
A0
  6
CONTINUOUS
 62
5
100
AcDbPoint
 10
9.999997526638502
 20
18.00000076076889
 30
0.0000000000000000
  0
POINT
  5
48
100
AcDbEntity
  8
A10
  6
CONTINUOUS
 62
5
100
AcDbPoint
 10
50.00000000000000
 20
50.00000000000000
 30
0.0000000000000000
  0
ARC
  5
49
100
AcDbEntity
  8
A4
  6
CONTINUOUS
 62
7
100
AcDbCircle
 10
202.8000030261801
 20
471.0000000000001
 30
0.0000000000000000
 40
0.5000000000000000
100
AcDbArc
 50
0.0000000000000000
 51
90.00000000000000
  0
ARC
  5
4A
100
AcDbEntity
  8
A4
  6
CONTINUOUS
 62
7
100
AcDbCircle
 10
202.8000030261801
 20
456.0000000000001
 30
0.0000000000000000
 40
0.5000000000000000
100
AcDbArc
 50
270.0000000000000
 51
360.0000000000000
  0
ARC
  5
4B
100
AcDbEntity
  8
A4
  6
CONTINUOUS
 62
7
100
AcDbCircle
 10
200.8000030261801
 20
471.0000000000001
 30
0.0000000000000000
 40
0.5000000000000000
100
AcDbArc
 50
90.00000000000000
 51
180.0000000000000
  0
ARC
  5
4C
100
AcDbEntity
  8
A4
  6
CONTINUOUS
 62
7
100
AcDbCircle
 10
200.8000030261801
 20
456.0000000000001
 30
0.0000000000000000
 40
0.5000000000000000
100
AcDbArc
 50
180.0000000000000
 51
270.0000000000000
  0
LINE
  5
4D
100
AcDbEntity
  8
A4
  6
CONTINUOUS
 62
7
100
AcDbLine
 10
200.3000030261801
 20
456.0000000000001
 30
0.0000000000000000
 11
200.3000030261801
 21
471.0000000000001
 31
0.0000000000000000
  0
LINE
  5
4E
100
AcDbEntity
  8
A4
  6
CONTINUOUS
 62
7
100
AcDbLine
 10
202.8000030261801
 20
471.5000000000001
 30
0.0000000000000000
 11
200.8000030261801
 21
471.5000000000001
 31
0.0000000000000000
  0
LINE
  5
4F
100
AcDbEntity
  8
A4
  6
CONTINUOUS
 62
7
100
AcDbLine
 10
200.8000030261801
 20
455.5000000000001
 30
0.0000000000000000
 11
202.8000030261801
 21
455.5000000000001
 31
0.0000000000000000
  0
CIRCLE
  5
50
100
AcDbEntity
  8
A4
  6
CONTINUOUS
 62
7
100
AcDbCircle
 10
223.0000150261800
 20
483.5000000000002
 30
0.0000000000000000
 40
3.500000000000000
  0
CIRCLE
  5
51
100
AcDbEntity
  8
A4
  6
CONTINUOUS
 62
7
100
AcDbCircle
 10
223.0000150261800
 20
443.5000000000002
 30
0.0000000000000000
 40
3.500000000000000
  0
ARC
  5
52
100
AcDbEntity
  8
A4
  6
CONTINUOUS
 62
7
100
AcDbCircle
 10
212.5000150261799
 20
450.0000000000002
 30
0.0000000000000000
 40
0.5000000000000000
100
AcDbArc
 50
0.0000000000000000
 51
90.00000000000000
  0
ARC
  5
53
100
AcDbEntity
  8
A4
  6
CONTINUOUS
 62
7
100
AcDbCircle
 10
223.0000150261800
 20
443.5000000000002
 30
0.0000000000000000
 40
10.00000000000000
100
AcDbArc
 50
180.0000000000000
 51
359.9999999999997
  0
ARC
  5
54
100
AcDbEntity
  8
A4
  6
CONTINUOUS
 62
7
100
AcDbCircle
 10
223.0000150261800
 20
483.5000000000002
 30
0.0000000000000000
 40
10.00000000000001
100
AcDbArc
 50
359.9999999999998
 51
540.0000000000000
  0
ARC
  5
55
100
AcDbEntity
  8
A4
  6
CONTINUOUS
 62
7
100
AcDbCircle
 10
212.5000150261799
 20
477.0000000000002
 30
0.0000000000000000
 40
0.5000000000000000
100
AcDbArc
 50
270.0000000000000
 51
360.0000000000000
  0
LINE
  5
56
100
AcDbEntity
  8
A4
  6
CONTINUOUS
 62
7
100
AcDbLine
 10
212.2000150261800
 20
476.5000000000002
 30
0.0000000000000000
 11
212.5000150261799
 21
476.5000000000002
 31
0.0000000000000000
  0
LINE
  5
57
100
AcDbEntity
  8
A4
  6
CONTINUOUS
 62
7
100
AcDbLine
 10
212.5000150261799
 20
450.5000000000002
 30
0.0000000000000000
 11
212.2000150261800
 21
450.5000000000002
 31
0.0000000000000000
  0
LINE
  5
58
100
AcDbEntity
  8
A4
  6
CONTINUOUS
 62
7
100
AcDbLine
 10
213.0000150261800
 20
443.5000000000002
 30
0.0000000000000000
 11
213.0000150261800
 21
450.0000000000002
 31
0.0000000000000000
  0
LINE
  5
59
100
AcDbEntity
  8
A4
  6
CONTINUOUS
 62
7
100
AcDbLine
 10
233.0000150261800
 20
483.5000000000000
 30
0.0000000000000000
 11
233.0000150261797
 21
443.5000000000000
 31
0.0000000000000000
  0
LINE
  5
5A
100
AcDbEntity
  8
A4
  6
CONTINUOUS
 62
7
100
AcDbLine
 10
213.0000150261799
 20
477.0000000000002
 30
0.0000000000000000
 11
213.0000150261800
 21
483.5000000000002
 31
0.0000000000000000
  0
LINE
  5
5B
100
AcDbEntity
  8
A4
  6
CONTINUOUS
 62
7
100
AcDbLine
 10
209.0000150261800
 20
476.5000000000002
 30
0.0000000000000000
 11
212.2000150261800
 21
476.5000000000002
 31
0.0000000000000000
  0
LINE
  5
5C
100
AcDbEntity
  8
A4
  6
CONTINUOUS
 62
7
100
AcDbLine
 10
212.2000150261800
 20
450.5000000000002
 30
0.0000000000000000
 11
209.0000150261800
 21
450.5000000000002
 31
0.0000000000000000
  0
LINE
  5
5D
100
AcDbEntity
  8
A4
  6
CONTINUOUS
 62
7
100
AcDbLine
 10
209.0000150261800
 20
450.5000000000002
 30
0.0000000000000000
 11
209.0000150261800
 21
476.5000000000002
 31
0.0000000000000000
  0
ARC
  5
5E
100
AcDbEntity
  8
A4
  6
CONTINUOUS
 62
7
100
AcDbCircle
 10
200.8000030261801
 20
85.00000000000000
 30
0.0000000000000000
 40
0.5000000000000000
100
AcDbArc
 50
90.00000000000000
 51
180.0000000000000
  0
ARC
  5
5F
100
AcDbEntity
  8
A4
  6
CONTINUOUS
 62
7
100
AcDbCircle
 10
200.8000030261801
 20
69.99999999999997
 30
0.0000000000000000
 40
0.5000000000000000
100
AcDbArc
 50
180.0000000000000
 51
270.0000000000000
  0
ARC
  5
60
100
AcDbEntity
  8
A4
  6
CONTINUOUS
 62
7
100
AcDbCircle
 10
202.8000030261801
 20
85.00000000000000
 30
0.0000000000000000
 40
0.5000000000000000
100
AcDbArc
 50
0.0000000000000000
 51
90.00000000000000
  0
ARC
  5
61
100
AcDbEntity
  8
A4
  6
CONTINUOUS
 62
7
100
AcDbCircle
 10
202.8000030261801
 20
69.99999999999997
 30
0.0000000000000000
 40
0.5000000000000000
100
AcDbArc
 50
270.0000000000000
 51
360.0000000000000
  0
LINE
  5
62
100
AcDbEntity
  8
A4
  6
CONTINUOUS
 62
7
100
AcDbLine
 10
213.0000030261802
 20
81.75000000000000
 30
0.0000000000000000
 11
212.2000150261800
 21
81.75000000000000
 31
0.0000000000000000
  0
LINE
  5
63
100
AcDbEntity
  8
A4
  6
CONTINUOUS
 62
7
100
AcDbLine
 10
212.2000150261800
 20
73.25000000000000
 30
0.0000000000000000
 11
213.0000030261802
 21
73.25000000000000
 31
0.0000000000000000
  0
LINE
  5
64
100
AcDbEntity
  8
A4
  6
CONTINUOUS
 62
7
100
AcDbLine
 10
213.0000030261802
 20
73.25000000000000
 30
0.0000000000000000
 11
213.0000030261802
 21
81.75000000000000
 31
0.0000000000000000
  0
LINE
  5
65
100
AcDbEntity
  8
A4
  6
CONTINUOUS
 62
7
100
AcDbLine
 10
202.8000030261801
 20
85.50000000000000
 30
0.0000000000000000
 11
200.8000030261801
 21
85.50000000000000
 31
0.0000000000000000
  0
LINE
  5
66
100
AcDbEntity
  8
A4
  6
CONTINUOUS
 62
7
100
AcDbLine
 10
200.8000030261801
 20
69.49999999999997
 30
0.0000000000000000
 11
202.8000030261801
 21
69.49999999999997
 31
0.0000000000000000
  0
LINE
  5
67
100
AcDbEntity
  8
A4
  6
CONTINUOUS
 62
7
100
AcDbLine
 10
200.3000030261801
 20
70.00000000000000
 30
0.0000000000000000
 11
200.3000030261801
 21
85.00000000000000
 31
0.0000000000000000
  0
ARC
  5
68
100
AcDbEntity
  8
A4
  6
CONTINUOUS
 62
7
100
AcDbCircle
 10
211.8000150261799
 20
59.00748611742515
 30
0.0000000000000000
 40
5.200000000000001
100
AcDbArc
 50
0.0000000000000000
 51
40.81705527646886
  0
ARC
  5
69
100
AcDbEntity
  8
A4
  6
CONTINUOUS
 62
7
100
AcDbCircle
 10
214.2000150261800
 20
67.24387017807715
 30
0.0000000000000000
 40
2.000000000000000
100
AcDbArc
 50
180.0000000000000
 51
220.8170552764666
  0
ARC
  5
6A
100
AcDbEntity
  8
A4
  6
CONTINUOUS
 62
7
100
AcDbCircle
 10
214.2000150261800
 20
87.75612982192283
 30
0.0000000000000000
 40
1.999999999999998
100
AcDbArc
 50
139.1829447235295
 51
180.0000000000000
  0
ARC
  5
6B
100
AcDbEntity
  8
A4
  6
CONTINUOUS
 62
7
100
AcDbCircle
 10
211.8000150261799
 20
95.99251388257483
 30
0.0000000000000000
 40
5.200000000000003
100
AcDbArc
 50
319.1829447235326
 51
360.0000000000000
  0
ARC
  5
6C
100
AcDbEntity
  8
A4
  6
CONTINUOUS
 62
7
100
AcDbCircle
 10
211.8000150261799
 20
95.99251388257483
 30
0.0000000000000000
 40
1.999999999999998
100
AcDbArc
 50
319.1829447235313
 51
360.0000000000000
  0
ARC
  5
6D
100
AcDbEntity
  8
A4
  6
CONTINUOUS
 62
7
100
AcDbCircle
 10
214.2000150261800
 20
87.75612982192283
 30
0.0000000000000000
 40
5.200000000000003
100
AcDbArc
 50
139.1829447235326
 51
180.0000000000000
  0
ARC
  5
6E
100
AcDbEntity
  8
A4
  6
CONTINUOUS
 62
7
100
AcDbCircle
 10
214.2000150261800
 20
67.24387017807715
 30
0.0000000000000000
 40
5.200000000000001
100
AcDbArc
 50
180.0000000000000
 51
220.8170552764698
  0
ARC
  5
6F
100
AcDbEntity
  8
A4
  6
CONTINUOUS
 62
7
100
AcDbCircle
 10
211.8000150261799
 20
59.00748611742515
 30
0.0000000000000000
 40
2.000000000000000
100
AcDbArc
 50
0.0000000000000000
 51
40.81705527646794
  0
LINE
  5
70
100
AcDbEntity
  8
A4
  6
CONTINUOUS
 62
7
100
AcDbLine
 10
217.0000150261799
 20
117.5000000000000
 30
0.0000000000000000
 11
213.8000150261799
 21
117.5000000000000
 31
0.0000000000000000
  0
LINE
  5
71
100
AcDbEntity
  8
A4
  6
CONTINUOUS
 62
7
100
AcDbLine
 10
217.0000150261799
 20
117.5000000000000
 30
0.0000000000000000
 11
217.0000150261799
 21
105.0000000000000
 31
0.0000000000000000
  0
LINE
  5
72
100
AcDbEntity
  8
A4
  6
CONTINUOUS
 62
7
100
AcDbLine
 10
213.8000150261799
 20
117.5000000000000
 30
0.0000000000000000
 11
213.8000150261799
 21
105.0000000000000
 31
0.0000000000000000
  0
LINE
  5
73
100
AcDbEntity
  8
A4
  6
CONTINUOUS
 62
7
100
AcDbLine
 10
213.8000150261799
 20
95.99251388257483
 30
0.0000000000000000
 11
213.8000150261800
 21
105.0000000000000
 31
0.0000000000000000
  0
LINE
  5
74
100
AcDbEntity
  8
A4
  6
CONTINUOUS
 62
7
100
AcDbLine
 10
217.0000150261800
 20
105.0000000000000
 30
0.0000000000000000
 11
217.0000150261800
 21
95.99251388257484
 31
0.0000000000000000
  0
LINE
  5
75
100
AcDbEntity
  8
A4
  6
CONTINUOUS
 62
7
100
AcDbLine
 10
213.8000150261800
 20
49.99999999999996
 30
0.0000000000000000
 11
213.8000150261799
 21
59.00748611742514
 31
0.0000000000000000
  0
LINE
  5
76
100
AcDbEntity
  8
A4
  6
CONTINUOUS
 62
7
100
AcDbLine
 10
217.0000150261799
 20
59.00748611742515
 30
0.0000000000000000
 11
217.0000150261799
 21
49.99999999999997
 31
0.0000000000000000
  0
LINE
  5
77
100
AcDbEntity
  8
A4
  6
CONTINUOUS
 62
7
100
AcDbLine
 10
212.6864139903218
 20
65.93657835746143
 30
0.0000000000000000
 11
215.7353777194113
 21
62.40644485102629
 31
0.0000000000000000
  0
LINE
  5
78
100
AcDbEntity
  8
A4
  6
CONTINUOUS
 62
7
100
AcDbLine
 10
212.2000150261800
 20
87.75612982192283
 30
0.0000000000000000
 11
212.2000150261800
 21
67.24387017807715
 31
0.0000000000000000
  0
LINE
  5
79
100
AcDbEntity
  8
A4
  6
CONTINUOUS
 62
7
100
AcDbLine
 10
215.7353777194114
 20
92.59355514897383
 30
0.0000000000000000
 11
212.6864139903219
 21
89.06342164253876
 31
0.0000000000000000
  0
LINE
  5
7A
100
AcDbEntity
  8
A4
  6
CONTINUOUS
 62
7
100
AcDbLine
 10
210.2646523329486
 20
91.15508855552388
 30
0.0000000000000000
 11
213.3136160620382
 21
94.68522206195895
 31
0.0000000000000000
  0
LINE
  5
7B
100
AcDbEntity
  8
A4
  6
CONTINUOUS
 62
7
100
AcDbLine
 10
209.0000150261800
 20
67.24387017807713
 30
0.0000000000000000
 11
209.0000150261800
 21
87.75612982192281
 31
0.0000000000000000
  0
LINE
  5
7C
100
AcDbEntity
  8
A4
  6
CONTINUOUS
 62
7
100
AcDbLine
 10
213.3136160620382
 20
60.31477793804092
 30
0.0000000000000000
 11
210.2646523329485
 21
63.84491144447574
 31
0.0000000000000000
  0
LINE
  5
7D
100
AcDbEntity
  8
A4
  6
CONTINUOUS
 62
7
100
AcDbLine
 10
213.8000150261799
 20
49.99999999999997
 30
0.0000000000000000
 11
213.8000150261799
 21
37.49999999999997
 31
0.0000000000000000
  0
LINE
  5
7E
100
AcDbEntity
  8
A4
  6
CONTINUOUS
 62
7
100
AcDbLine
 10
217.0000150261799
 20
49.99999999999997
 30
0.0000000000000000
 11
217.0000150261799
 21
37.49999999999997
 31
0.0000000000000000
  0
LINE
  5
7F
100
AcDbEntity
  8
A4
  6
CONTINUOUS
 62
7
100
AcDbLine
 10
213.8000150261799
 20
37.49999999999994
 30
0.0000000000000000
 11
217.0000150261799
 21
37.49999999999994
 31
0.0000000000000000
  0
LINE
  5
80
100
AcDbEntity
  8
A4
  6
CONTINUOUS
 62
7
100
AcDbLine
 10
207.0000000261799
 20
67.50000000000003
 30
0.0000000000000000
 11
207.0000000261799
 21
81.85889894354094
 31
0.0000000000000000
  0
LINE
  5
81
100
AcDbEntity
  8
A4
  6
CONTINUOUS
 62
7
100
AcDbLine
 10
207.0000000261799
 20
67.50000000000000
 30
0.0000000000000000
 11
209.0000150261799
 21
67.50000000000000
 31
0.0000000000000000
  0
LINE
  5
82
100
AcDbEntity
  8
A4
  6
CONTINUOUS
 62
7
100
AcDbLine
 10
209.0000150261799
 20
87.50000000000003
 30
0.0000000000000000
 11
207.0000000261799
 21
87.50000000000003
 31
0.0000000000000000
  0
LINE
  5
83
100
AcDbEntity
  8
A4
  6
CONTINUOUS
 62
7
100
AcDbLine
 10
207.0000000261799
 20
459.1411010564591
 30
0.0000000000000000
 11
207.0000000261799
 21
473.5000000000002
 31
0.0000000000000000
  0
LINE
  5
84
100
AcDbEntity
  8
A4
  6
CONTINUOUS
 62
7
100
AcDbLine
 10
207.0000000261799
 20
453.5000000000002
 30
0.0000000000000000
 11
209.0000150261799
 21
453.5000000000002
 31
0.0000000000000000
  0
LINE
  5
85
100
AcDbEntity
  8
A4
  6
CONTINUOUS
 62
7
100
AcDbLine
 10
209.0000150261799
 20
473.5000000000002
 30
0.0000000000000000
 11
207.0000000261799
 21
473.5000000000002
 31
0.0000000000000000
  0
LINE
  5
86
100
AcDbEntity
  8
A4
  6
CONTINUOUS
 62
7
100
AcDbLine
 10
203.3000030261801
 20
85.50000000000003
 30
0.0000000000000000
 11
203.3000030261801
 21
69.50000000000003
 31
0.0000000000000000
  0
LINE
  5
87
100
AcDbEntity
  8
A4
  6
CONTINUOUS
 62
7
100
AcDbLine
 10
203.3000030261800
 20
69.50000000000000
 30
0.0000000000000000
 11
203.8000030261800
 21
69.50000000000000
 31
0.0000000000000000
  0
LINE
  5
88
100
AcDbEntity
  8
A4
  6
CONTINUOUS
 62
7
100
AcDbLine
 10
203.8000030261800
 20
85.50000000000003
 30
0.0000000000000000
 11
203.3000030261800
 21
85.50000000000003
 31
0.0000000000000000
  0
LINE
  5
89
100
AcDbEntity
  8
A4
  6
CONTINUOUS
 62
7
100
AcDbLine
 10
203.3000030261801
 20
471.5000000000002
 30
0.0000000000000000
 11
203.3000030261801
 21
455.5000000000002
 31
0.0000000000000000
  0
LINE
  5
8A
100
AcDbEntity
  8
A4
  6
CONTINUOUS
 62
7
100
AcDbLine
 10
203.3000030261800
 20
455.5000000000002
 30
0.0000000000000000
 11
203.8000030261800
 21
455.5000000000002
 31
0.0000000000000000
  0
LINE
  5
8B
100
AcDbEntity
  8
A4
  6
CONTINUOUS
 62
7
100
AcDbLine
 10
203.8000030261800
 20
471.5000000000002
 30
0.0000000000000000
 11
203.3000030261800
 21
471.5000000000002
 31
0.0000000000000000
  0
ELLIPSE
  5
8C
100
AcDbEntity
  8
A4
  6
CONTINUOUS
 62
7
100
AcDbEllipse
 10
197.9149717508298
 20
436.5702797103336
 30
0.0000000000000000
 11
3.065911231597331
 21
8.739080125708616
 31
0.0000000000000000
210
0.0000000000000000
220
0.0000000000000000
230
1.000000000000000
 40
0.3606766711266626
 41
0.5425271204003624
 42
0.9270375776577806
  0
ELLIPSE
  5
8D
100
AcDbEntity
  8
A4
  6
CONTINUOUS
 62
7
100
AcDbEllipse
 10
197.9149717508298
 20
432.0922440965285
 30
0.0000000000000000
 11
3.065911231597334
 21
8.739080125708629
 31
0.0000000000000000
210
0.0000000000000000
220
0.0000000000000000
230
1.000000000000000
 40
0.3606766711266622
 41
0.5425271204004442
 42
0.6976208595731773
  0
ELLIPSE
  5
8E
100
AcDbEntity
  8
A4
  6
CONTINUOUS
 62
7
100
AcDbEllipse
 10
197.9149717508298
 20
104.4297232896664
 30
0.0000000000000000
 11
3.065911231597428
 21
-8.739080125708897
 31
0.0000000000000000
210
0.0000000000000000
220
0.0000000000000000
230
1.000000000000000
 40
0.3606766711266628
 41
5.356147729521741
 42
5.740658186779099
  0
ELLIPSE
  5
8F
100
AcDbEntity
  8
A4
  6
CONTINUOUS
 62
7
100
AcDbEllipse
 10
197.9149717508298
 20
108.9077559034719
 30
0.0000000000000000
 11
3.065911231597431
 21
-8.739080125708908
 31
0.0000000000000000
210
0.0000000000000000
220
0.0000000000000000
230
1.000000000000000
 40
0.3606766711266622
 41
5.585564447606385
 42
5.740658186779259
  0
ARC
  5
90
100
AcDbEntity
  8
A4
  6
CONTINUOUS
 62
7
100
AcDbCircle
 10
202.0000000261799
 20
443.7399803852970
 30
0.0000000000000000
 40
5.000000000000000
100
AcDbArc
 50
301.9060938295485
 51
360.0001430213593
  0
ARC
  5
91
100
AcDbEntity
  8
A4
  6
CONTINUOUS
 62
7
100
AcDbCircle
 10
192.4999999999998
 20
216.0000000000001
 30
0.0000000000000000
 40
1.000000000000000
100
AcDbArc
 50
270.0000000000000
 51
450.0000000000000
  0
ARC
  5
92
100
AcDbEntity
  8
A4
  6
CONTINUOUS
 62
7
100
AcDbCircle
 10
207.5000000000000
 20
216.0000000000001
 30
0.0000000000000000
 40
1.000000000000000
100
AcDbArc
 50
90.00000000000000
 51
270.0000000000000
  0
ARC
  5
93
100
AcDbEntity
  8
A4
  6
CONTINUOUS
 62
7
100
AcDbCircle
 10
192.4999999999998
 20
229.5000000000001
 30
0.0000000000000000
 40
1.000000000000000
100
AcDbArc
 50
270.0000000000000
 51
450.0000029999997
  0
ARC
  5
94
100
AcDbEntity
  8
A4
  6
CONTINUOUS
 62
7
100
AcDbCircle
 10
207.5000000000000
 20
229.5000000000001
 30
0.0000000000000000
 40
1.000000000000000
100
AcDbArc
 50
89.99999700000036
 51
270.0000000000000
  0
ARC
  5
95
100
AcDbEntity
  8
A4
  6
CONTINUOUS
 62
7
100
AcDbCircle
 10
202.0000000261799
 20
96.50000000000000
 30
0.0000000000000000
 40
4.999999999999999
100
AcDbArc
 50
2.117000000000000e-12
 51
90.00000000000000
  0
ARC
  5
96
100
AcDbEntity
  8
A4
  6
CONTINUOUS
 62
7
100
AcDbCircle
 10
202.0000000261799
 20
444.5000000000002
 30
0.0000000000000000
 40
4.999999999999999
100
AcDbArc
 50
270.0000000000000
 51
359.9999999999977
  0
LINE
  5
97
100
AcDbEntity
  8
A4
  6
CONTINUOUS
 62
7
100
AcDbLine
 10
196.5000000261800
 20
209.5000000000001
 30
0.0000000000000000
 11
196.5000000261800
 21
101.4999999999999
 31
0.0000000000000000
  0
LINE
  5
98
100
AcDbEntity
  8
A4
  6
CONTINUOUS
 62
7
100
AcDbLine
 10
203.5000000261800
 20
101.5000000000000
 30
0.0000000000000000
 11
203.5000000261800
 21
209.5000000000001
 31
0.0000000000000000
  0
LINE
  5
99
100
AcDbEntity
  8
A4
  6
CONTINUOUS
 62
7
100
AcDbLine
 10
203.5000000261800
 20
101.5000000000000
 30
0.0000000000000000
 11
202.0000000261799
 21
101.5000000000000
 31
0.0000000000000000
  0
LINE
  5
9A
100
AcDbEntity
  8
A4
  6
CONTINUOUS
 62
7
100
AcDbLine
 10
207.0000000261799
 20
443.7399801791337
 30
0.0000000000000000
 11
207.0000000261799
 21
444.5000000000002
 31
0.0000000000000000
  0
LINE
  5
9B
100
AcDbEntity
  8
A4
  6
CONTINUOUS
 62
7
100
AcDbLine
 10
193.4999999999998
 20
210.5000000000001
 30
0.0000000000000000
 11
193.4999999999998
 21
209.5000000000001
 31
0.0000000000000000
  0
LINE
  5
9C
100
AcDbEntity
  8
A4
  6
CONTINUOUS
 62
7
100
AcDbLine
 10
206.5000000000000
 20
209.5000000000001
 30
0.0000000000000000
 11
206.5000000000000
 21
210.5000000000001
 31
0.0000000000000000
  0
LINE
  5
9D
100
AcDbEntity
  8
A4
  6
CONTINUOUS
 62
7
100
AcDbLine
 10
206.5000000000000
 20
209.5000000000001
 30
0.0000000000000000
 11
193.4999999999998
 21
209.5000000000001
 31
0.0000000000000000
  0
LINE
  5
9E
100
AcDbEntity
  8
A4
  6
CONTINUOUS
 62
7
100
AcDbLine
 10
192.4999999999998
 20
215.0000000000001
 30
0.0000000000000000
 11
192.4999999999998
 21
210.5000000000001
 31
0.0000000000000000
  0
LINE
  5
9F
100
AcDbEntity
  8
A4
  6
CONTINUOUS
 62
7
100
AcDbLine
 10
207.5000000000000
 20
210.5000000000001
 30
0.0000000000000000
 11
207.5000000000000
 21
215.0000000000001
 31
0.0000000000000000
  0
LINE
  5
A0
100
AcDbEntity
  8
A4
  6
CONTINUOUS
 62
7
100
AcDbLine
 10
207.5000000000000
 20
210.5000000000001
 30
0.0000000000000000
 11
192.4999999999998
 21
210.5000000000001
 31
0.0000000000000000
  0
LINE
  5
A1
100
AcDbEntity
  8
A4
  6
CONTINUOUS
 62
7
100
AcDbLine
 10
207.5000000000000
 20
215.0000000000001
 30
0.0000000000000000
 11
192.4999999999998
 21
215.0000000000001
 31
0.0000000000000000
  0
LINE
  5
A2
100
AcDbEntity
  8
A4
  6
CONTINUOUS
 62
7
100
AcDbLine
 10
192.4999999999998
 20
228.5000000000001
 30
0.0000000000000000
 11
192.4999999999998
 21
217.0000000000001
 31
0.0000000000000000
  0
LINE
  5
A3
100
AcDbEntity
  8
A4
  6
CONTINUOUS
 62
7
100
AcDbLine
 10
207.5000000000000
 20
217.0000000000001
 30
0.0000000000000000
 11
207.5000000000000
 21
228.5000000000001
 31
0.0000000000000000
  0
LINE
  5
A4
100
AcDbEntity
  8
A4
  6
CONTINUOUS
 62
7
100
AcDbLine
 10
207.5000000000000
 20
217.0000000000001
 30
0.0000000000000000
 11
192.4999999999998
 21
217.0000000000001
 31
0.0000000000000000
  0
LINE
  5
A5
100
AcDbEntity
  8
A4
  6
CONTINUOUS
 62
7
100
AcDbLine
 10
192.4999999999999
 20
437.0000000000002
 30
0.0000000000000000
 11
192.4999999999999
 21
230.5000000000000
 31
0.0000000000000000
  0
LINE
  5
A6
100
AcDbEntity
  8
A4
  6
CONTINUOUS
 62
7
100
AcDbLine
 10
207.5000000523600
 20
230.5000000000000
 30
0.0000000000000000
 11
207.5000000523600
 21
437.0000000000002
 31
0.0000000000000000
  0
LINE
  5
A7
100
AcDbEntity
  8
A4
  6
CONTINUOUS
 62
7
100
AcDbLine
 10
207.5000000000000
 20
228.5000000000001
 30
0.0000000000000000
 11
192.4999999999998
 21
228.5000000000001
 31
0.0000000000000000
  0
LINE
  5
A8
100
AcDbEntity
  8
A4
  6
CONTINUOUS
 62
7
100
AcDbLine
 10
207.5000000523599
 20
230.5000000000001
 30
0.0000000000000000
 11
192.4999999476400
 21
230.5000000000001
 31
0.0000000000000000
  0
LINE
  5
A9
100
AcDbEntity
  8
A4
  6
CONTINUOUS
 62
7
100
AcDbLine
 10
192.2500000000000
 20
438.0000000000002
 30
0.0000000000000000
 11
192.2500000000000
 21
437.0000000000002
 31
0.0000000000000000
  0
LINE
  5
AA
100
AcDbEntity
  8
A4
  6
CONTINUOUS
 62
7
100
AcDbLine
 10
207.7500000523600
 20
437.0000000000002
 30
0.0000000000000000
 11
207.7500000523600
 21
438.0000000000002
 31
0.0000000000000000
  0
LINE
  5
AB
100
AcDbEntity
  8
A4
  6
CONTINUOUS
 62
7
100
AcDbLine
 10
207.7500000523600
 20
437.0000000000002
 30
0.0000000000000000
 11
192.2500000000000
 21
437.0000000000002
 31
0.0000000000000000
  0
LINE
  5
AC
100
AcDbEntity
  8
A4
  6
CONTINUOUS
 62
7
100
AcDbLine
 10
195.0000000261800
 20
439.5000000000002
 30
0.0000000000000000
 11
192.2500000000000
 21
438.0000000000003
 31
0.0000000000000000
  0
LINE
  5
AD
100
AcDbEntity
  8
A4
  6
CONTINUOUS
 62
7
100
AcDbLine
 10
207.7500000523600
 20
438.0000000000002
 30
0.0000000000000000
 11
205.0000000261799
 21
439.5000000000002
 31
0.0000000000000000
  0
LINE
  5
AE
100
AcDbEntity
  8
A4
  6
CONTINUOUS
 62
7
100
AcDbLine
 10
205.0000000261799
 20
439.5000000000002
 30
0.0000000000000000
 11
202.0000000261799
 21
439.5000000000002
 31
0.0000000000000000
  0
LINE
  5
AF
100
AcDbEntity
  8
A4
  6
CONTINUOUS
 62
7
100
AcDbLine
 10
207.7500000523600
 20
438.0000000000002
 30
0.0000000000000000
 11
192.2500000000000
 21
438.0000000000002
 31
0.0000000000000000
  0
LINE
  5
B0
100
AcDbEntity
  8
A4
  6
CONTINUOUS
 62
7
100
AcDbLine
 10
193.7219570277415
 20
101.5000000000000
 30
0.0000000000000000
 11
192.5000040261799
 21
101.5000000000000
 31
0.0000000000000000
  0
LINE
  5
B1
100
AcDbEntity
  8
A4
  6
CONTINUOUS
 62
7
100
AcDbLine
 10
192.5000040261799
 20
101.5000000000000
 30
0.0000000000000000
 11
192.5000040261799
 21
98.30000300000003
 31
0.0000000000000000
  0
LINE
  5
B2
100
AcDbEntity
  8
A4
  6
CONTINUOUS
 62
7
100
AcDbLine
 10
192.5000040261799
 20
98.30000300000000
 30
0.0000000000000000
 11
193.7219570277415
 21
98.30000300000000
 31
0.0000000000000000
  0
LINE
  5
B3
100
AcDbEntity
  8
A4
  6
CONTINUOUS
 62
7
100
AcDbLine
 10
193.7219570277415
 20
439.5000000000002
 30
0.0000000000000000
 11
192.5000040261799
 21
439.5000000000002
 31
0.0000000000000000
  0
LINE
  5
B4
100
AcDbEntity
  8
A4
  6
CONTINUOUS
 62
7
100
AcDbLine
 10
193.7219570277415
 20
442.7000000000000
 30
0.0000000000000000
 11
192.5000040261799
 21
442.7000000000000
 31
0.0000000000000000
  0
LINE
  5
B5
100
AcDbEntity
  8
A4
  6
CONTINUOUS
 62
7
100
AcDbLine
 10
192.5000040261799
 20
442.7000000000003
 30
0.0000000000000000
 11
192.5000040261799
 21
439.5000000000002
 31
0.0000000000000000
  0
LINE
  5
B6
100
AcDbEntity
  8
A4
  6
CONTINUOUS
 62
7
100
AcDbLine
 10
203.8000030261800
 20
77.50000078539821
 30
0.0000000000000000
 11
203.8000030261800
 21
68.50000000000000
 31
0.0000000000000000
  0
LINE
  5
B7
100
AcDbEntity
  8
A4
  6
CONTINUOUS
 62
7
100
AcDbLine
 10
203.8000030261800
 20
68.49999999999997
 30
0.0000000000000000
 11
207.0000000261799
 21
68.49999999999997
 31
0.0000000000000000
  0
LINE
  5
B8
100
AcDbEntity
  8
A4
  6
CONTINUOUS
 62
7
100
AcDbLine
 10
203.8000030261800
 20
77.50000078539821
 30
0.0000000000000000
 11
203.8000030261800
 21
89.50000000000000
 31
0.0000000000000000
  0
LINE
  5
B9
100
AcDbEntity
  8
A4
  6
CONTINUOUS
 62
7
100
AcDbLine
 10
207.0000000261799
 20
81.85889894354094
 30
0.0000000000000000
 11
207.0000000261799
 21
89.50000000000060
 31
0.0000000000000000
  0
LINE
  5
BA
100
AcDbEntity
  8
A4
  6
CONTINUOUS
 62
7
100
AcDbLine
 10
203.8000030261800
 20
463.4999992146020
 30
0.0000000000000000
 11
203.8000030261800
 21
451.5000000000002
 31
0.0000000000000000
  0
LINE
  5
BB
100
AcDbEntity
  8
A4
  6
CONTINUOUS
 62
7
100
AcDbLine
 10
207.0000000261799
 20
459.1411010564591
 30
0.0000000000000000
 11
207.0000000261799
 21
451.5000000000002
 31
0.0000000000000000
  0
LINE
  5
BC
100
AcDbEntity
  8
A4
  6
CONTINUOUS
 62
7
100
AcDbLine
 10
203.8000030261800
 20
463.4999992146020
 30
0.0000000000000000
 11
203.8000030261800
 21
472.5000000000002
 31
0.0000000000000000
  0
LINE
  5
BD
100
AcDbEntity
  8
A4
  6
CONTINUOUS
 62
7
100
AcDbLine
 10
207.0000000261799
 20
472.5000000000002
 30
0.0000000000000000
 11
203.8000030261800
 21
472.5000000000002
 31
0.0000000000000000
  0
LINE
  5
BE
100
AcDbEntity
  8
A4
  6
CONTINUOUS
 62
7
100
AcDbLine
 10
203.8000030261800
 20
448.7159544756694
 30
0.0000000000000000
 11
203.8000030261800
 21
451.5000000000002
 31
0.0000000000000000
  0
LINE
  5
BF
100
AcDbEntity
  8
A4
  6
CONTINUOUS
 62
7
100
AcDbLine
 10
203.8000030261800
 20
451.5000000000002
 30
0.0000000000000000
 11
207.0000000261799
 21
451.5000000000002
 31
0.0000000000000000
  0
LINE
  5
C0
100
AcDbEntity
  8
A4
  6
CONTINUOUS
 62
7
100
AcDbLine
 10
203.8000030261800
 20
92.28404552433079
 30
0.0000000000000000
 11
203.8000030261800
 21
89.49999999999999
 31
0.0000000000000000
  0
LINE
  5
C1
100
AcDbEntity
  8
A4
  6
CONTINUOUS
 62
7
100
AcDbLine
 10
203.8000030261800
 20
89.50000000000000
 30
0.0000000000000000
 11
207.0000000261799
 21
89.50000000000060
 31
0.0000000000000000
  0
LINE
  5
C2
100
AcDbEntity
  8
A4
  6
CONTINUOUS
 62
7
100
AcDbLine
 10
198.9132641455176
 20
444.6254141271585
 30
0.0000000000000000
 11
203.8000030261800
 21
448.6935786118557
 31
0.0000000000000000
  0
LINE
  5
C3
100
AcDbEntity
  8
A4
  6
CONTINUOUS
 62
7
100
AcDbLine
 10
207.0000000261799
 20
451.5000000000002
 30
0.0000000000000000
 11
207.0000000261799
 21
446.8795106182665
 31
0.0000000000000000
  0
LINE
  5
C4
100
AcDbEntity
  8
A4
  6
CONTINUOUS
 62
7
100
AcDbLine
 10
207.0000000261799
 20
451.5000000000001
 30
0.0000000000000000
 11
203.8000030261800
 21
448.7159544756694
 31
0.0000000000000000
  0
LINE
  5
C5
100
AcDbEntity
  8
A4
  6
CONTINUOUS
 62
7
100
AcDbLine
 10
203.8000030261800
 20
448.6935786118557
 30
0.0000000000000000
 11
203.8000030261800
 21
448.7159544756694
 31
0.0000000000000000
  0
LINE
  5
C6
100
AcDbEntity
  8
A4
  6
CONTINUOUS
 62
7
100
AcDbLine
 10
203.8000030261801
 20
92.30642438814377
 30
0.0000000000000000
 11
198.9132641455169
 21
96.37458887284137
 31
0.0000000000000000
  0
LINE
  5
C7
100
AcDbEntity
  8
A4
  6
CONTINUOUS
 62
7
100
AcDbLine
 10
203.8000030261801
 20
92.30642438814380
 30
0.0000000000000000
 11
203.8000030261800
 21
92.28404552433079
 31
0.0000000000000000
  0
LINE
  5
C8
100
AcDbEntity
  8
A4
  6
CONTINUOUS
 62
7
100
AcDbLine
 10
207.0000000261799
 20
89.50000000000057
 30
0.0000000000000000
 11
203.8000030261799
 21
92.28404552433079
 31
0.0000000000000000
  0
LINE
  5
C9
100
AcDbEntity
  8
A4
  6
CONTINUOUS
 62
7
100
AcDbLine
 10
207.0000000261799
 20
89.50000000000058
 30
0.0000000000000000
 11
207.0000000261800
 21
94.12048938173378
 31
0.0000000000000000
  0
LINE
  5
CA
100
AcDbEntity
  8
A4
  6
CONTINUOUS
 62
7
100
AcDbLine
 10
202.0000000261799
 20
101.5000000000000
 30
0.0000000000000000
 11
198.2397809700715
 21
101.5000000000000
 31
0.0000000000000000
  0
LINE
  5
CB
100
AcDbEntity
  8
A4
  6
CONTINUOUS
 62
7
100
AcDbLine
 10
207.0000000261800
 20
94.12048938173382
 30
0.0000000000000000
 11
198.9132641455171
 21
100.8526214866461
 31
0.0000000000000000
  0
LINE
  5
CC
100
AcDbEntity
  8
A4
  6
CONTINUOUS
 62
7
100
AcDbLine
 10
207.0000000261799
 20
96.50000000000018
 30
0.0000000000000000
 11
207.0000000261799
 21
94.12048938173378
 31
0.0000000000000000
  0
LINE
  5
CD
100
AcDbEntity
  8
A4
  6
CONTINUOUS
 62
7
100
AcDbLine
 10
198.2397809700713
 20
439.5000000000002
 30
0.0000000000000000
 11
202.0000000261799
 21
439.5000000000002
 31
0.0000000000000000
  0
LINE
  5
CE
100
AcDbEntity
  8
A4
  6
CONTINUOUS
 62
7
100
AcDbLine
 10
198.9132641455168
 20
440.1473785133533
 30
0.0000000000000000
 11
207.0000000261799
 21
446.8795106182664
 31
0.0000000000000000
  0
LINE
  5
CF
100
AcDbEntity
  8
A4
  6
CONTINUOUS
 62
7
100
AcDbLine
 10
207.0000000261799
 20
446.8795106182665
 30
0.0000000000000000
 11
207.0000000261799
 21
444.4999999999998
 31
0.0000000000000000
  0
LINE
  5
D0
100
AcDbEntity
  8
A4
  6
CONTINUOUS
 62
7
100
AcDbLine
 10
197.2340518182782
 20
442.7000000000003
 30
0.0000000000000000
 11
193.7219570277416
 21
442.7000000000003
 31
0.0000000000000000
  0
LINE
  5
D1
100
AcDbEntity
  8
A4
  6
CONTINUOUS
 62
7
100
AcDbLine
 10
198.2397809700713
 20
439.5000000000002
 30
0.0000000000000000
 11
193.7219570277416
 21
439.5000000000002
 31
0.0000000000000000
  0
LINE
  5
D2
100
AcDbEntity
  8
A4
  6
CONTINUOUS
 62
7
100
AcDbLine
 10
198.2397809700715
 20
101.5000000000000
 30
0.0000000000000000
 11
193.7219570277415
 21
101.5000000000000
 31
0.0000000000000000
  0
LINE
  5
D3
100
AcDbEntity
  8
A4
  6
CONTINUOUS
 62
7
100
AcDbLine
 10
193.7219570277415
 20
98.30000300000003
 30
0.0000000000000000
 11
197.2340518182781
 21
98.30000300000003
 31
0.0000000000000000
  0
CIRCLE
  5
D4
100
AcDbEntity
  8
A5
  6
CONTINUOUS
 62
7
100
AcDbCircle
 10
350.0000000261800
 20
463.5000000000001
 30
0.0000000000000000
 40
4.250000000000004
  0
ARC
  5
D5
100
AcDbEntity
  8
A5
  6
CONTINUOUS
 62
7
100
AcDbCircle
 10
350.0000000261800
 20
463.5000000000002
 30
0.0000000000000000
 40
8.000000000000000
100
AcDbArc
 50
292.0294028424894
 51
427.9705971575102
  0
LINE
  5
D6
100
AcDbEntity
  8
A5
  6
CONTINUOUS
 62
7
100
AcDbLine
 10
339.2000000261800
 20
450.5000000000001
 30
0.0000000000000000
 11
353.0006588497914
 21
456.0840680542308
 31
0.0000000000000000
  0
LINE
  5
D7
100
AcDbEntity
  8
A5
  6
CONTINUOUS
 62
7
100
AcDbLine
 10
353.0006588497915
 20
470.9159319457695
 30
0.0000000000000000
 11
339.2000000261801
 21
476.5000000000002
 31
0.0000000000000000
  0
LINE
  5
D8
100
AcDbEntity
  8
A5
  6
CONTINUOUS
 62
7
100
AcDbLine
 10
336.0000000261801
 20
443.5000000000001
 30
0.0000000000000000
 11
336.0000000261801
 21
433.5000000000002
 31
0.0000000000000000
  0
LINE
  5
D9
100
AcDbEntity
  8
A5
  6
CONTINUOUS
 62
7
100
AcDbLine
 10
339.2000000261800
 20
443.5000000000001
 30
0.0000000000000000
 11
339.2000000261800
 21
433.5000000000002
 31
0.0000000000000000
  0
LINE
  5
DA
100
AcDbEntity
  8
A5
  6
CONTINUOUS
 62
7
100
AcDbLine
 10
336.0000000261801
 20
433.5000000000002
 30
0.0000000000000000
 11
339.2000000261800
 21
433.5000000000002
 31
0.0000000000000000
  0
LINE
  5
DB
100
AcDbEntity
  8
A5
  6
CONTINUOUS
 62
7
100
AcDbLine
 10
339.2000000261800
 20
493.5000000000002
 30
0.0000000000000000
 11
336.0000000261801
 21
493.5000000000002
 31
0.0000000000000000
  0
LINE
  5
DC
100
AcDbEntity
  8
A5
  6
CONTINUOUS
 62
7
100
AcDbLine
 10
339.2000000261800
 20
493.5000000000002
 30
0.0000000000000000
 11
339.2000000261800
 21
483.5000000000001
 31
0.0000000000000000
  0
LINE
  5
DD
100
AcDbEntity
  8
A5
  6
CONTINUOUS
 62
7
100
AcDbLine
 10
336.0000000261801
 20
493.5000000000002
 30
0.0000000000000000
 11
336.0000000261801
 21
483.5000000000001
 31
0.0000000000000000
  0
LINE
  5
DE
100
AcDbEntity
  8
A5
  6
CONTINUOUS
 62
7
100
AcDbLine
 10
339.2000000261800
 20
483.5000000000001
 30
0.0000000000000000
 11
339.2000000261800
 21
443.5000000000001
 31
0.0000000000000000
  0
LINE
  5
DF
100
AcDbEntity
  8
A5
  6
CONTINUOUS
 62
7
100
AcDbLine
 10
336.0000000261801
 20
483.5000000000001
 30
0.0000000000000000
 11
336.0000000261801
 21
443.5000000000001
 31
0.0000000000000000
  0
CIRCLE
  5
E0
100
AcDbEntity
  8
A5
  6
CONTINUOUS
 62
7
100
AcDbCircle
 10
350.0000000261800
 20
77.50000000000009
 30
0.0000000000000000
 40
4.250000000000004
  0
CIRCLE
  5
E1
100
AcDbEntity
  8
A5
  6
CONTINUOUS
 62
7
100
AcDbCircle
 10
350.0000000261799
 20
50.00000000000006
 30
0.0000000000000000
 40
3.500000000000000
  0
CIRCLE
  5
E2
100
AcDbEntity
  8
A5
  6
CONTINUOUS
 62
7
100
AcDbCircle
 10
350.0000000261799
 20
105.0000000000001
 30
0.0000000000000000
 40
3.500000000000000
  0
ARC
  5
E3
100
AcDbEntity
  8
A5
  6
CONTINUOUS
 62
7
100
AcDbCircle
 10
350.0000000261799
 20
50.00000000000006
 30
0.0000000000000000
 40
12.50000000000000
100
AcDbArc
 50
180.0000000000000
 51
360.0000000000000
  0
ARC
  5
E4
100
AcDbEntity
  8
A5
  6
CONTINUOUS
 62
7
100
AcDbCircle
 10
350.0000000261799
 20
105.0000000000001
 30
0.0000000000000000
 40
12.50000000000000
100
AcDbArc
 50
0.0000000000000000
 51
180.0000000000000
  0
LINE
  5
E5
100
AcDbEntity
  8
A5
  6
CONTINUOUS
 62
7
100
AcDbLine
 10
362.5000000261800
 20
87.75612982192293
 30
0.0000000000000000
 11
362.5000000261800
 21
67.24387017807724
 31
0.0000000000000000
  0
LINE
  5
E6
100
AcDbEntity
  8
A5
  6
CONTINUOUS
 62
7
100
AcDbLine
 10
337.5000000261800
 20
87.75612982192290
 30
0.0000000000000000
 11
337.5000000261801
 21
67.24387017807722
 31
0.0000000000000000
  0
LINE
  5
E7
100
AcDbEntity
  8
A5
  6
CONTINUOUS
 62
7
100
AcDbLine
 10
362.5000000261800
 20
65.93657835746149
 30
0.0000000000000000
 11
362.5000000261800
 21
67.24387017807723
 31
0.0000000000000000
  0
LINE
  5
E8
100
AcDbEntity
  8
A5
  6
CONTINUOUS
 62
7
100
AcDbLine
 10
337.5000000261800
 20
65.93657835746149
 30
0.0000000000000000
 11
337.5000000261800
 21
67.24387017807723
 31
0.0000000000000000
  0
LINE
  5
E9
100
AcDbEntity
  8
A5
  6
CONTINUOUS
 62
7
100
AcDbLine
 10
362.5000000261800
 20
87.75612982192291
 30
0.0000000000000000
 11
362.5000000261800
 21
89.06342164253877
 31
0.0000000000000000
  0
LINE
  5
EA
100
AcDbEntity
  8
A5
  6
CONTINUOUS
 62
7
100
AcDbLine
 10
337.5000000261800
 20
87.75612982192291
 30
0.0000000000000000
 11
337.5000000261800
 21
89.06342164253877
 31
0.0000000000000000
  0
LINE
  5
EB
100
AcDbEntity
  8
A5
  6
CONTINUOUS
 62
7
100
AcDbLine
 10
362.5000000261800
 20
65.93657835746149
 30
0.0000000000000000
 11
362.5000000261800
 21
62.40644485102635
 31
0.0000000000000000
  0
LINE
  5
EC
100
AcDbEntity
  8
A5
  6
CONTINUOUS
 62
7
100
AcDbLine
 10
337.5000000261800
 20
65.93657835746149
 30
0.0000000000000000
 11
337.5000000261800
 21
62.40644485102635
 31
0.0000000000000000
  0
LINE
  5
ED
100
AcDbEntity
  8
A5
  6
CONTINUOUS
 62
7
100
AcDbLine
 10
362.5000000261800
 20
92.59355514897389
 30
0.0000000000000000
 11
362.5000000261800
 21
89.06342164253880
 31
0.0000000000000000
  0
LINE
  5
EE
100
AcDbEntity
  8
A5
  6
CONTINUOUS
 62
7
100
AcDbLine
 10
337.5000000261800
 20
92.59355514897389
 30
0.0000000000000000
 11
337.5000000261800
 21
89.06342164253880
 31
0.0000000000000000
  0
LINE
  5
EF
100
AcDbEntity
  8
A5
  6
CONTINUOUS
 62
7
100
AcDbLine
 10
362.5000000261800
 20
59.00748611742523
 30
0.0000000000000000
 11
362.5000000261800
 21
62.40644485102635
 31
0.0000000000000000
  0
LINE
  5
F0
100
AcDbEntity
  8
A5
  6
CONTINUOUS
 62
7
100
AcDbLine
 10
337.5000000261800
 20
59.00748611742523
 30
0.0000000000000000
 11
337.5000000261800
 21
62.40644485102635
 31
0.0000000000000000
  0
LINE
  5
F1
100
AcDbEntity
  8
A5
  6
CONTINUOUS
 62
7
100
AcDbLine
 10
362.5000000261800
 20
92.59355514897389
 30
0.0000000000000000
 11
362.5000000261800
 21
95.99251388257491
 31
0.0000000000000000
  0
LINE
  5
F2
100
AcDbEntity
  8
A5
  6
CONTINUOUS
 62
7
100
AcDbLine
 10
337.5000000261800
 20
92.59355514897389
 30
0.0000000000000000
 11
337.5000000261800
 21
95.99251388257491
 31
0.0000000000000000
  0
LINE
  5
F3
100
AcDbEntity
  8
A5
  6
CONTINUOUS
 62
7
100
AcDbLine
 10
362.5000000261800
 20
59.00748611742524
 30
0.0000000000000000
 11
362.5000000261800
 21
50.00000000000006
 31
0.0000000000000000
  0
LINE
  5
F4
100
AcDbEntity
  8
A5
  6
CONTINUOUS
 62
7
100
AcDbLine
 10
337.5000000261801
 20
59.00748611742523
 30
0.0000000000000000
 11
337.5000000261799
 21
50.00000000000006
 31
0.0000000000000000
  0
LINE
  5
F5
100
AcDbEntity
  8
A5
  6
CONTINUOUS
 62
7
100
AcDbLine
 10
362.5000000261799
 20
105.0000000000001
 30
0.0000000000000000
 11
362.5000000261800
 21
95.99251388257490
 31
0.0000000000000000
  0
LINE
  5
F6
100
AcDbEntity
  8
A5
  6
CONTINUOUS
 62
7
100
AcDbLine
 10
337.5000000261799
 20
105.0000000000001
 30
0.0000000000000000
 11
337.5000000261800
 21
95.99251388257491
 31
0.0000000000000000
  0
ARC
  5
F7
100
AcDbEntity
  8
A5
  6
CONTINUOUS
 62
7
100
AcDbCircle
 10
350.0000000261800
 20
463.5000000000002
 30
0.0000000000000000
 40
10.00000000000000
100
AcDbArc
 50
270.0000000000000
 51
464.8404948033555
  0
ARC
  5
F8
100
AcDbEntity
  8
A5
  6
CONTINUOUS
 62
7
100
AcDbCircle
 10
350.0000000261800
 20
463.5000000000002
 30
0.0000000000000000
 40
10.00000000000000
100
AcDbArc
 50
255.1595051966459
 51
270.0000000000000
  0
ELLIPSE
  5
F9
100
AcDbEntity
  8
A5
  6
CONTINUOUS
 62
7
100
AcDbEllipse
 10
356.6028641084610
 20
436.5702797103336
 30
0.0000000000000000
 11
3.781697070821639
 21
8.755297220006462
 31
0.0000000000000000
210
0.0000000000000000
220
0.0000000000000000
230
1.000000000000000
 40
0.2562519795485874
 41
5.747730044664837
 42
5.976759486938605
  0
ELLIPSE
  5
FA
100
AcDbEntity
  8
A5
  6
CONTINUOUS
 62
7
100
AcDbEllipse
 10
356.6028641084610
 20
432.0922440965279
 30
0.0000000000000000
 11
3.781697070821639
 21
8.755297220006462
 31
0.0000000000000000
210
0.0000000000000000
220
0.0000000000000000
230
1.000000000000000
 40
0.2562519795485879
 41
5.821665747766009
 42
5.976759486938707
  0
ELLIPSE
  5
FB
100
AcDbEntity
  8
A5
  6
CONTINUOUS
 62
7
100
AcDbEllipse
 10
361.2799371924011
 20
444.5000000000002
 30
0.0000000000000000
 11
4.403062497154710
 21
4.552489722481685
 31
0.0000000000000000
210
0.0000000000000000
220
0.0000000000000000
230
1.000000000000000
 40
0.4695749776971108
 41
1.997106004366467
 42
3.567902331161400
  0
ELLIPSE
  5
FC
100
AcDbEntity
  8
A5
  6
CONTINUOUS
 62
7
100
AcDbEllipse
 10
338.7200628599587
 20
444.5000000000002
 30
0.0000000000000000
 11
-4.403062497154709
 21
4.552489722481686
 31
0.0000000000000000
210
0.0000000000000000
220
0.0000000000000000
230
1.000000000000000
 40
0.4695749776971108
 41
2.715282976018202
 42
4.286079302813050
  0
ARC
  5
FD
100
AcDbEntity
  8
A5
  6
CONTINUOUS
 62
7
100
AcDbCircle
 10
342.4999999999999
 20
216.0000000000001
 30
0.0000000000000000
 40
1.000000000000000
100
AcDbArc
 50
270.0000000000000
 51
450.0000000000000
  0
ARC
  5
FE
100
AcDbEntity
  8
A5
  6
CONTINUOUS
 62
7
100
AcDbCircle
 10
357.5000000000000
 20
216.0000000000001
 30
0.0000000000000000
 40
1.000000000000000
100
AcDbArc
 50
90.00000000000000
 51
270.0000000000000
  0
ARC
  5
FF
100
AcDbEntity
  8
A5
  6
CONTINUOUS
 62
7
100
AcDbCircle
 10
342.4999999999999
 20
229.5000000000001
 30
0.0000000000000000
 40
1.000000000000000
100
AcDbArc
 50
270.0000000000000
 51
450.0000029999997
  0
ARC
  5
100
100
AcDbEntity
  8
A5
  6
CONTINUOUS
 62
7
100
AcDbCircle
 10
357.5000000000000
 20
229.5000000000001
 30
0.0000000000000000
 40
1.000000000000000
100
AcDbArc
 50
89.99999700000036
 51
270.0000000000000
  0
LINE
  5
101
100
AcDbEntity
  8
A5
  6
CONTINUOUS
 62
7
100
AcDbLine
 10
360.9879870542847
 20
439.5000000000002
 30
0.0000000000000000
 11
361.0000000261800
 21
439.5000000000002
 31
0.0000000000000000
  0
LINE
  5
102
100
AcDbEntity
  8
A5
  6
CONTINUOUS
 62
7
100
AcDbLine
 10
361.0000000261800
 20
439.5000000000002
 30
0.0000000000000000
 11
361.0000000261800
 21
443.6057044704489
 31
0.0000000000000000
  0
LINE
  5
103
100
AcDbEntity
  8
A5
  6
CONTINUOUS
 62
7
100
AcDbLine
 10
346.5000000261800
 20
209.5000000000000
 30
0.0000000000000000
 11
346.5000000261801
 21
117.0000000000006
 31
0.0000000000000000
  0
LINE
  5
104
100
AcDbEntity
  8
A5
  6
CONTINUOUS
 62
7
100
AcDbLine
 10
353.5000000261800
 20
117.0000000000001
 30
0.0000000000000000
 11
353.5000000261800
 21
209.5000000000001
 31
0.0000000000000000
  0
LINE
  5
105
100
AcDbEntity
  8
A5
  6
CONTINUOUS
 62
7
100
AcDbLine
 10
343.4999999999999
 20
210.5000000000001
 30
0.0000000000000000
 11
343.4999999999999
 21
209.5000000000001
 31
0.0000000000000000
  0
LINE
  5
106
100
AcDbEntity
  8
A5
  6
CONTINUOUS
 62
7
100
AcDbLine
 10
356.4999999999999
 20
209.5000000000001
 30
0.0000000000000000
 11
356.4999999999999
 21
210.5000000000001
 31
0.0000000000000000
  0
LINE
  5
107
100
AcDbEntity
  8
A5
  6
CONTINUOUS
 62
7
100
AcDbLine
 10
356.5000000000000
 20
209.5000000000001
 30
0.0000000000000000
 11
343.4999999999999
 21
209.5000000000001
 31
0.0000000000000000
  0
LINE
  5
108
100
AcDbEntity
  8
A5
  6
CONTINUOUS
 62
7
100
AcDbLine
 10
339.2000000261800
 20
439.5000000000002
 30
0.0000000000000000
 11
341.8450596210973
 21
439.5000000000002
 31
0.0000000000000000
  0
LINE
  5
109
100
AcDbEntity
  8
A5
  6
CONTINUOUS
 62
7
100
AcDbLine
 10
358.1549404312625
 20
439.5000000000002
 30
0.0000000000000000
 11
354.5825757211359
 21
439.5000000000002
 31
0.0000000000000000
  0
LINE
  5
10A
100
AcDbEntity
  8
A5
  6
CONTINUOUS
 62
7
100
AcDbLine
 10
359.0000000261800
 20
451.5000000000002
 30
0.0000000000000000
 11
359.0000000261800
 21
459.1411010564594
 31
0.0000000000000000
  0
LINE
  5
10B
100
AcDbEntity
  8
A5
  6
CONTINUOUS
 62
7
100
AcDbLine
 10
341.0000000261799
 20
446.8795106182665
 30
0.0000000000000000
 11
342.4871926212154
 21
444.4999999999998
 31
0.0000000000000000
  0
LINE
  5
10C
100
AcDbEntity
  8
A5
  6
CONTINUOUS
 62
7
100
AcDbLine
 10
340.9183519460954
 20
451.1952852167834
 30
0.0000000000000000
 11
340.2540172762443
 21
448.7159544756695
 31
0.0000000000000000
  0
LINE
  5
10D
100
AcDbEntity
  8
A5
  6
CONTINUOUS
 62
7
100
AcDbLine
 10
339.2000000261799
 20
440.4515580727124
 30
0.0000000000000000
 11
341.0000000261800
 21
446.8795106182665
 31
0.0000000000000000
  0
LINE
  5
10E
100
AcDbEntity
  8
A5
  6
CONTINUOUS
 62
7
100
AcDbLine
 10
341.0000000261801
 20
451.2283219320241
 30
0.0000000000000000
 11
341.0000000261800
 21
446.8795106182665
 31
0.0000000000000000
  0
LINE
  5
10F
100
AcDbEntity
  8
A5
  6
CONTINUOUS
 62
7
100
AcDbLine
 10
340.2540172762443
 20
448.6935786118557
 30
0.0000000000000000
 11
340.2540172762442
 21
448.7159544756695
 31
0.0000000000000000
  0
LINE
  5
110
100
AcDbEntity
  8
A5
  6
CONTINUOUS
 62
7
100
AcDbLine
 10
339.2000000261799
 20
444.9295936865179
 30
0.0000000000000000
 11
340.2540172762442
 21
448.6935786118557
 31
0.0000000000000000
  0
LINE
  5
111
100
AcDbEntity
  8
A5
  6
CONTINUOUS
 62
7
100
AcDbLine
 10
359.7459827761159
 20
448.7159544756698
 30
0.0000000000000000
 11
359.0000000261800
 21
451.5000000000002
 31
0.0000000000000000
  0
LINE
  5
112
100
AcDbEntity
  8
A5
  6
CONTINUOUS
 62
7
100
AcDbLine
 10
359.7459827761160
 20
448.6935786118563
 30
0.0000000000000000
 11
360.8851785029917
 21
444.6254141271586
 31
0.0000000000000000
  0
LINE
  5
113
100
AcDbEntity
  8
A5
  6
CONTINUOUS
 62
7
100
AcDbLine
 10
359.7459827761158
 20
448.7159544756699
 30
0.0000000000000000
 11
359.7459827761159
 21
448.6935786118561
 31
0.0000000000000000
  0
LINE
  5
114
100
AcDbEntity
  8
A5
  6
CONTINUOUS
 62
7
100
AcDbLine
 10
359.0000000261800
 20
451.5000000000002
 30
0.0000000000000000
 11
359.0000000261800
 21
446.8795106182666
 31
0.0000000000000000
  0
LINE
  5
115
100
AcDbEntity
  8
A5
  6
CONTINUOUS
 62
7
100
AcDbLine
 10
358.1549404312625
 20
439.5000000000002
 30
0.0000000000000000
 11
360.9879870542847
 21
439.5000000000002
 31
0.0000000000000000
  0
LINE
  5
116
100
AcDbEntity
  8
A5
  6
CONTINUOUS
 62
7
100
AcDbLine
 10
359.0000000261800
 20
446.8795106182666
 30
0.0000000000000000
 11
360.8851785029917
 21
440.1473785133532
 31
0.0000000000000000
  0
LINE
  5
117
100
AcDbEntity
  8
A5
  6
CONTINUOUS
 62
7
100
AcDbLine
 10
357.5128074311444
 20
444.5000000000002
 30
0.0000000000000000
 11
359.0000000261799
 21
446.8795106182666
 31
0.0000000000000000
  0
LINE
  5
118
100
AcDbEntity
  8
A5
  6
CONTINUOUS
 62
7
100
AcDbLine
 10
345.4174243312242
 20
439.5000000000002
 30
0.0000000000000000
 11
341.8450596210973
 21
439.5000000000002
 31
0.0000000000000000
  0
LINE
  5
119
100
AcDbEntity
  8
A5
  6
CONTINUOUS
 62
7
100
AcDbLine
 10
342.4999999999999
 20
215.0000000000001
 30
0.0000000000000000
 11
342.4999999999999
 21
210.5000000000001
 31
0.0000000000000000
  0
LINE
  5
11A
100
AcDbEntity
  8
A5
  6
CONTINUOUS
 62
7
100
AcDbLine
 10
357.5000000000000
 20
210.5000000000001
 30
0.0000000000000000
 11
357.5000000000000
 21
215.0000000000001
 31
0.0000000000000000
  0
LINE
  5
11B
100
AcDbEntity
  8
A5
  6
CONTINUOUS
 62
7
100
AcDbLine
 10
357.5000000000000
 20
210.5000000000001
 30
0.0000000000000000
 11
342.4999999999999
 21
210.5000000000001
 31
0.0000000000000000
  0
LINE
  5
11C
100
AcDbEntity
  8
A5
  6
CONTINUOUS
 62
7
100
AcDbLine
 10
357.5000000000000
 20
215.0000000000001
 30
0.0000000000000000
 11
342.4999999999999
 21
215.0000000000001
 31
0.0000000000000000
  0
LINE
  5
11D
100
AcDbEntity
  8
A5
  6
CONTINUOUS
 62
7
100
AcDbLine
 10
342.4999999999999
 20
228.5000000000001
 30
0.0000000000000000
 11
342.4999999999999
 21
217.0000000000001
 31
0.0000000000000000
  0
LINE
  5
11E
100
AcDbEntity
  8
A5
  6
CONTINUOUS
 62
7
100
AcDbLine
 10
357.5000000000000
 20
217.0000000000001
 30
0.0000000000000000
 11
357.5000000000000
 21
228.5000000000001
 31
0.0000000000000000
  0
LINE
  5
11F
100
AcDbEntity
  8
A5
  6
CONTINUOUS
 62
7
100
AcDbLine
 10
357.5000000000000
 20
217.0000000000001
 30
0.0000000000000000
 11
342.4999999999999
 21
217.0000000000001
 31
0.0000000000000000
  0
LINE
  5
120
100
AcDbEntity
  8
A5
  6
CONTINUOUS
 62
7
100
AcDbLine
 10
357.5000000000000
 20
228.5000000000001
 30
0.0000000000000000
 11
342.4999999999999
 21
228.5000000000001
 31
0.0000000000000000
  0
LINE
  5
121
100
AcDbEntity
  8
A5
  6
CONTINUOUS
 62
7
100
AcDbLine
 10
342.4999999999999
 20
437.0000000000002
 30
0.0000000000000000
 11
342.4999999999999
 21
230.5000000000000
 31
0.0000000000000000
  0
LINE
  5
122
100
AcDbEntity
  8
A5
  6
CONTINUOUS
 62
7
100
AcDbLine
 10
357.5000000523600
 20
230.5000000000001
 30
0.0000000000000000
 11
357.5000000523600
 21
437.0000000000002
 31
0.0000000000000000
  0
LINE
  5
123
100
AcDbEntity
  8
A5
  6
CONTINUOUS
 62
7
100
AcDbLine
 10
357.5000000523598
 20
230.5000000000001
 30
0.0000000000000000
 11
342.4999999476399
 21
230.5000000000001
 31
0.0000000000000000
  0
LINE
  5
124
100
AcDbEntity
  8
A5
  6
CONTINUOUS
 62
7
100
AcDbLine
 10
354.5825757211359
 20
439.5000000000002
 30
0.0000000000000000
 11
345.4174243312242
 21
439.5000000000002
 31
0.0000000000000000
  0
LINE
  5
125
100
AcDbEntity
  8
A5
  6
CONTINUOUS
 62
7
100
AcDbLine
 10
345.0000000261801
 20
439.5000000000002
 30
0.0000000000000000
 11
342.2500000000000
 21
438.0000000000002
 31
0.0000000000000000
  0
LINE
  5
126
100
AcDbEntity
  8
A5
  6
CONTINUOUS
 62
7
100
AcDbLine
 10
357.7500000523600
 20
438.0000000000002
 30
0.0000000000000000
 11
355.0000000261799
 21
439.5000000000002
 31
0.0000000000000000
  0
LINE
  5
127
100
AcDbEntity
  8
A5
  6
CONTINUOUS
 62
7
100
AcDbLine
 10
342.2500000000000
 20
438.0000000000002
 30
0.0000000000000000
 11
342.2500000000000
 21
437.0000000000002
 31
0.0000000000000000
  0
LINE
  5
128
100
AcDbEntity
  8
A5
  6
CONTINUOUS
 62
7
100
AcDbLine
 10
357.7500000523600
 20
437.0000000000002
 30
0.0000000000000000
 11
357.7500000523600
 21
438.0000000000002
 31
0.0000000000000000
  0
LINE
  5
129
100
AcDbEntity
  8
A5
  6
CONTINUOUS
 62
7
100
AcDbLine
 10
357.7500000523600
 20
437.0000000000002
 30
0.0000000000000000
 11
342.2500000000000
 21
437.0000000000002
 31
0.0000000000000000
  0
LINE
  5
12A
100
AcDbEntity
  8
A5
  6
CONTINUOUS
 62
7
100
AcDbLine
 10
357.7500000523600
 20
438.0000000000002
 30
0.0000000000000000
 11
342.2500000000000
 21
438.0000000000002
 31
0.0000000000000000
  0
ARC
  5
12B
100
AcDbEntity
  8
A6
  6
CONTINUOUS
 62
7
100
AcDbCircle
 10
202.8000030261801
 20
571.0000000000002
 30
0.0000000000000000
 40
0.5000000000000000
100
AcDbArc
 50
0.0000000000000000
 51
90.00000000000000
  0
ARC
  5
12C
100
AcDbEntity
  8
A6
  6
CONTINUOUS
 62
7
100
AcDbCircle
 10
202.8000030261801
 20
556.0000000000002
 30
0.0000000000000000
 40
0.5000000000000000
100
AcDbArc
 50
270.0000000000000
 51
360.0000000000000
  0
ARC
  5
12D
100
AcDbEntity
  8
A6
  6
CONTINUOUS
 62
7
100
AcDbCircle
 10
200.8000030261801
 20
571.0000000000002
 30
0.0000000000000000
 40
0.5000000000000000
100
AcDbArc
 50
90.00000000000000
 51
180.0000000000000
  0
ARC
  5
12E
100
AcDbEntity
  8
A6
  6
CONTINUOUS
 62
7
100
AcDbCircle
 10
200.8000030261801
 20
556.0000000000002
 30
0.0000000000000000
 40
0.5000000000000000
100
AcDbArc
 50
180.0000000000000
 51
270.0000000000000
  0
LINE
  5
12F
100
AcDbEntity
  8
A6
  6
CONTINUOUS
 62
7
100
AcDbLine
 10
213.0000030261802
 20
563.5000000000002
 30
0.0000000000000000
 11
213.0000030261802
 21
567.7500000000002
 31
0.0000000000000000
  0
LINE
  5
130
100
AcDbEntity
  8
A6
  6
CONTINUOUS
 62
7
100
AcDbLine
 10
213.0000030261802
 20
567.7500000000002
 30
0.0000000000000000
 11
212.2000150261797
 21
567.7500000000002
 31
0.0000000000000000
  0
LINE
  5
131
100
AcDbEntity
  8
A6
  6
CONTINUOUS
 62
7
100
AcDbLine
 10
212.2000150261797
 20
559.2500000000002
 30
0.0000000000000000
 11
213.0000030261802
 21
559.2500000000002
 31
0.0000000000000000
  0
LINE
  5
132
100
AcDbEntity
  8
A6
  6
CONTINUOUS
 62
7
100
AcDbLine
 10
213.0000030261802
 20
559.2500000000002
 30
0.0000000000000000
 11
213.0000030261802
 21
563.5000000000002
 31
0.0000000000000000
  0
LINE
  5
133
100
AcDbEntity
  8
A6
  6
CONTINUOUS
 62
7
100
AcDbLine
 10
202.8000030261801
 20
571.5000000000002
 30
0.0000000000000000
 11
200.8000030261801
 21
571.5000000000002
 31
0.0000000000000000
  0
LINE
  5
134
100
AcDbEntity
  8
A6
  6
CONTINUOUS
 62
7
100
AcDbLine
 10
200.8000030261801
 20
555.5000000000002
 30
0.0000000000000000
 11
202.8000030261801
 21
555.5000000000002
 31
0.0000000000000000
  0
LINE
  5
135
100
AcDbEntity
  8
A6
  6
CONTINUOUS
 62
7
100
AcDbLine
 10
200.3000030261801
 20
563.5000000000002
 30
0.0000000000000000
 11
200.3000030261801
 21
571.0000000000002
 31
0.0000000000000000
  0
LINE
  5
136
100
AcDbEntity
  8
A6
  6
CONTINUOUS
 62
7
100
AcDbLine
 10
200.3000030261801
 20
556.0000000000002
 30
0.0000000000000000
 11
200.3000030261801
 21
563.5000000000002
 31
0.0000000000000000
  0
ARC
  5
137
100
AcDbEntity
  8
A6
  6
CONTINUOUS
 62
7
100
AcDbCircle
 10
212.2000150261800
 20
552.7000000000003
 30
0.0000000000000000
 40
3.200000000000000
100
AcDbArc
 50
180.0000000000000
 51
270.0000000000000
  0
LINE
  5
138
100
AcDbEntity
  8
A6
  6
CONTINUOUS
 62
7
100
AcDbLine
 10
212.2000150261797
 20
571.5000000000002
 30
0.0000000000000000
 11
209.0000150261800
 21
571.5000000000002
 31
0.0000000000000000
  0
LINE
  5
139
100
AcDbEntity
  8
A6
  6
CONTINUOUS
 62
7
100
AcDbLine
 10
212.2000150261797
 20
571.5000000000002
 30
0.0000000000000000
 11
212.2000150261797
 21
566.5006588236116
 31
0.0000000000000000
  0
LINE
  5
13A
100
AcDbEntity
  8
A6
  6
CONTINUOUS
 62
7
100
AcDbLine
 10
209.0000150261799
 20
560.9387098642844
 30
0.0000000000000000
 11
209.0000150261800
 21
552.7000000000003
 31
0.0000000000000000
  0
LINE
  5
13B
100
AcDbEntity
  8
A6
  6
CONTINUOUS
 62
7
100
AcDbLine
 10
212.2000150261797
 20
566.5006588236116
 30
0.0000000000000000
 11
212.2000150261797
 21
552.7000000000003
 31
0.0000000000000000
  0
LINE
  5
13C
100
AcDbEntity
  8
A6
  6
CONTINUOUS
 62
7
100
AcDbLine
 10
212.2000150261797
 20
552.7000000000003
 30
0.0000000000000000
 11
212.5000150261799
 21
552.7000000000003
 31
0.0000000000000000
  0
LINE
  5
13D
100
AcDbEntity
  8
A6
  6
CONTINUOUS
 62
7
100
AcDbLine
 10
212.2000150261800
 20
549.5000000000002
 30
0.0000000000000000
 11
212.5000150261799
 21
549.5000000000002
 31
0.0000000000000000
  0
LINE
  5
13E
100
AcDbEntity
  8
A6
  6
CONTINUOUS
 62
7
100
AcDbLine
 10
209.0000150261800
 20
552.7000000000003
 30
0.0000000000000000
 11
212.2000150261797
 21
552.7000000000003
 31
0.0000000000000000
  0
LINE
  5
13F
100
AcDbEntity
  8
A6
  6
CONTINUOUS
 62
7
100
AcDbLine
 10
212.5000150261799
 20
552.7000000000003
 30
0.0000000000000000
 11
213.0000150261799
 21
552.7000000000003
 31
0.0000000000000000
  0
LINE
  5
140
100
AcDbEntity
  8
A6
  6
CONTINUOUS
 62
7
100
AcDbLine
 10
212.5000150261799
 20
549.5000000000002
 30
0.0000000000000000
 11
213.0000150261799
 21
549.5000000000002
 31
0.0000000000000000
  0
LINE
  5
141
100
AcDbEntity
  8
A6
  6
CONTINUOUS
 62
7
100
AcDbLine
 10
213.0000150261800
 20
552.7000000000003
 30
0.0000000000000000
 11
233.0000150261800
 21
552.7000000000003
 31
0.0000000000000000
  0
LINE
  5
142
100
AcDbEntity
  8
A6
  6
CONTINUOUS
 62
7
100
AcDbLine
 10
213.0000150261800
 20
549.5000000000002
 30
0.0000000000000000
 11
233.0000150261800
 21
549.5000000000002
 31
0.0000000000000000
  0
LINE
  5
143
100
AcDbEntity
  8
A6
  6
CONTINUOUS
 62
7
100
AcDbLine
 10
213.0000150261800
 20
549.5000000000002
 30
0.0000000000000000
 11
213.0000150261800
 21
552.7000000000003
 31
0.0000000000000000
  0
LINE
  5
144
100
AcDbEntity
  8
A6
  6
CONTINUOUS
 62
7
100
AcDbLine
 10
233.0000150261800
 20
549.5000000000002
 30
0.0000000000000000
 11
233.0000150261800
 21
552.7000000000003
 31
0.0000000000000000
  0
LINE
  5
145
100
AcDbEntity
  8
A6
  6
CONTINUOUS
 62
7
100
AcDbLine
 10
210.2646523329487
 20
576.0000000000002
 30
0.0000000000000000
 11
209.0000150261801
 21
576.0000000000002
 31
0.0000000000000000
  0
LINE
  5
146
100
AcDbEntity
  8
A6
  6
CONTINUOUS
 62
7
100
AcDbLine
 10
209.4889266838347
 20
551.0000000000002
 30
0.0000000000000000
 11
209.0000150261801
 21
551.0000000000002
 31
0.0000000000000000
  0
LINE
  5
147
100
AcDbEntity
  8
A6
  6
CONTINUOUS
 62
7
100
AcDbLine
 10
209.0000150261800
 20
552.7000000000003
 30
0.0000000000000000
 11
209.0000150261800
 21
551.0000000000002
 31
0.0000000000000000
  0
LINE
  5
148
100
AcDbEntity
  8
A6
  6
CONTINUOUS
 62
7
100
AcDbLine
 10
209.0000150261800
 20
576.0000000000001
 30
0.0000000000000000
 11
209.0000150261799
 21
573.5000000000001
 31
0.0000000000000000
  0
LINE
  5
149
100
AcDbEntity
  8
A6
  6
CONTINUOUS
 62
7
100
AcDbLine
 10
210.2646523329487
 20
576.0000000000002
 30
0.0000000000000000
 11
213.3136160620382
 21
576.0000000000002
 31
0.0000000000000000
  0
LINE
  5
14A
100
AcDbEntity
  8
A6
  6
CONTINUOUS
 62
7
100
AcDbLine
 10
213.8000150261799
 20
576.0000000000002
 30
0.0000000000000000
 11
213.3136160620381
 21
576.0000000000002
 31
0.0000000000000000
  0
LINE
  5
14B
100
AcDbEntity
  8
A6
  6
CONTINUOUS
 62
7
100
AcDbLine
 10
217.0000150261800
 20
576.0000000000001
 30
0.0000000000000000
 11
217.0000150261800
 21
552.7000000000003
 31
0.0000000000000000
  0
LINE
  5
14C
100
AcDbEntity
  8
A6
  6
CONTINUOUS
 62
7
100
AcDbLine
 10
213.8000150261800
 20
576.0000000000001
 30
0.0000000000000000
 11
213.8000150261800
 21
552.7000000000002
 31
0.0000000000000000
  0
LINE
  5
14D
100
AcDbEntity
  8
A6
  6
CONTINUOUS
 62
7
100
AcDbLine
 10
213.8000150261800
 20
576.0000000000001
 30
0.0000000000000000
 11
217.0000150261799
 21
576.0000000000001
 31
0.0000000000000000
  0
LINE
  5
14E
100
AcDbEntity
  8
A6
  6
CONTINUOUS
 62
7
100
AcDbLine
 10
207.0000000261799
 20
553.5000000000002
 30
0.0000000000000000
 11
209.0000150261799
 21
553.5000000000002
 31
0.0000000000000000
  0
LINE
  5
14F
100
AcDbEntity
  8
A6
  6
CONTINUOUS
 62
7
100
AcDbLine
 10
209.0000150261799
 20
573.5000000000002
 30
0.0000000000000000
 11
207.0000000261799
 21
573.5000000000002
 31
0.0000000000000000
  0
LINE
  5
150
100
AcDbEntity
  8
A6
  6
CONTINUOUS
 62
7
100
AcDbLine
 10
207.0000000261799
 20
553.5000000000002
 30
0.0000000000000000
 11
207.0000000261799
 21
573.5000000000002
 31
0.0000000000000000
  0
LINE
  5
151
100
AcDbEntity
  8
A6
  6
CONTINUOUS
 62
7
100
AcDbLine
 10
209.0000150261799
 20
560.9387098642843
 30
0.0000000000000000
 11
209.0000150261799
 21
573.5000000000002
 31
0.0000000000000000
  0
LINE
  5
152
100
AcDbEntity
  8
A6
  6
CONTINUOUS
 62
7
100
AcDbLine
 10
203.3000030261801
 20
563.5000000000002
 30
0.0000000000000000
 11
203.3000030261801
 21
555.5000000000002
 31
0.0000000000000000
  0
LINE
  5
153
100
AcDbEntity
  8
A6
  6
CONTINUOUS
 62
7
100
AcDbLine
 10
203.3000030261800
 20
555.5000000000002
 30
0.0000000000000000
 11
203.8000030261800
 21
555.5000000000002
 31
0.0000000000000000
  0
LINE
  5
154
100
AcDbEntity
  8
A6
  6
CONTINUOUS
 62
7
100
AcDbLine
 10
203.8000030261800
 20
571.5000000000002
 30
0.0000000000000000
 11
203.3000030261800
 21
571.5000000000002
 31
0.0000000000000000
  0
LINE
  5
155
100
AcDbEntity
  8
A6
  6
CONTINUOUS
 62
7
100
AcDbLine
 10
203.3000030261801
 20
571.5000000000002
 30
0.0000000000000000
 11
203.3000030261801
 21
563.5000000000002
 31
0.0000000000000000
  0
ARC
  5
156
100
AcDbEntity
  8
A6
  6
CONTINUOUS
 62
7
100
AcDbCircle
 10
200.0000000261800
 20
563.5000000000002
 30
0.0000000000000000
 40
7.750000026179976
100
AcDbArc
 50
180.0000000000000
 51
197.3167455937816
  0
ARC
  5
157
100
AcDbEntity
  8
A6
  6
CONTINUOUS
 62
7
100
AcDbCircle
 10
200.0000000261800
 20
563.5000000000002
 30
0.0000000000000000
 40
7.750000026179976
100
AcDbArc
 50
162.6832544062183
 51
180.0000000000000
  0
ARC
  5
158
100
AcDbEntity
  8
A6
  6
CONTINUOUS
 62
7
100
AcDbCircle
 10
197.9149717508298
 20
556.8971359177191
 30
0.0000000000000000
 40
4.397135917718970
100
AcDbArc
 50
197.5263413624545
 51
261.0915940470348
  0
ARC
  5
159
100
AcDbEntity
  8
A6
  6
CONTINUOUS
 62
7
100
AcDbCircle
 10
197.9149717508298
 20
570.1028640822813
 30
0.0000000000000000
 40
4.397135917718970
100
AcDbArc
 50
98.90840595297641
 51
162.4736586375455
  0
ARC
  5
15A
100
AcDbEntity
  8
A6
  6
CONTINUOUS
 62
7
100
AcDbCircle
 10
218.8230590261799
 20
563.5000000000002
 30
0.0000000000000000
 40
26.32305500000000
100
AcDbArc
 50
162.4736586375452
 51
197.5263413624549
  0
ARC
  5
15B
100
AcDbEntity
  8
A6
  6
CONTINUOUS
 62
7
100
AcDbCircle
 10
197.9149717508298
 20
556.8971359177191
 30
0.0000000000000000
 40
4.397135917718970
100
AcDbArc
 50
261.0915940470348
 51
283.1224204265356
  0
ARC
  5
15C
100
AcDbEntity
  8
A6
  6
CONTINUOUS
 62
7
100
AcDbCircle
 10
197.9149717508298
 20
570.1028640822813
 30
0.0000000000000000
 40
4.397135917718970
100
AcDbArc
 50
76.87757957347408
 51
98.90840595297641
  0
LINE
  5
15D
100
AcDbEntity
  8
A6
  6
CONTINUOUS
 62
7
100
AcDbLine
 10
198.9132641455177
 20
552.6148215231888
 30
0.0000000000000000
 11
203.8000030261801
 21
553.7540172500645
 31
0.0000000000000000
  0
LINE
  5
15E
100
AcDbEntity
  8
A6
  6
CONTINUOUS
 62
7
100
AcDbLine
 10
201.1454621333107
 20
555.5000000000003
 30
0.0000000000000000
 11
197.2340518182784
 21
552.5530419587515
 31
0.0000000000000000
  0
LINE
  5
15F
100
AcDbEntity
  8
A6
  6
CONTINUOUS
 62
7
100
AcDbLine
 10
203.8000030261799
 20
573.2459827499359
 30
0.0000000000000000
 11
198.9132641455168
 21
574.3851784768117
 31
0.0000000000000000
  0
LINE
  5
160
100
AcDbEntity
  8
A6
  6
CONTINUOUS
 62
7
100
AcDbLine
 10
197.2340518182772
 20
574.4469580412505
 30
0.0000000000000000
 11
201.1454621333110
 21
571.5000000000002
 31
0.0000000000000000
  0
LINE
  5
161
100
AcDbEntity
  8
A6
  6
CONTINUOUS
 62
7
100
AcDbLine
 10
203.8000030261800
 20
553.7540172500644
 30
0.0000000000000000
 11
203.8000030261800
 21
554.5000000000002
 31
0.0000000000000000
  0
LINE
  5
162
100
AcDbEntity
  8
A6
  6
CONTINUOUS
 62
7
100
AcDbLine
 10
207.0000000261799
 20
554.5000000000002
 30
0.0000000000000000
 11
203.8000030261800
 21
553.7540172500644
 31
0.0000000000000000
  0
LINE
  5
163
100
AcDbEntity
  8
A6
  6
CONTINUOUS
 62
7
100
AcDbLine
 10
203.8000030261800
 20
572.5000000000002
 30
0.0000000000000000
 11
203.8000030261800
 21
573.2459827499359
 31
0.0000000000000000
  0
LINE
  5
164
100
AcDbEntity
  8
A6
  6
CONTINUOUS
 62
7
100
AcDbLine
 10
203.8000030261800
 20
573.2459827499359
 30
0.0000000000000000
 11
207.0000000261799
 21
572.5000000000001
 31
0.0000000000000000
  0
LINE
  5
165
100
AcDbEntity
  8
A6
  6
CONTINUOUS
 62
7
100
AcDbLine
 10
203.8000030261800
 20
572.5000000000002
 30
0.0000000000000000
 11
207.0000000261799
 21
572.5000000000002
 31
0.0000000000000000
  0
LINE
  5
166
100
AcDbEntity
  8
A6
  6
CONTINUOUS
 62
7
100
AcDbLine
 10
203.8000030261800
 20
554.5000000000002
 30
0.0000000000000000
 11
203.8000030261800
 21
572.5000000000002
 31
0.0000000000000000
  0
LINE
  5
167
100
AcDbEntity
  8
A6
  6
CONTINUOUS
 62
7
100
AcDbLine
 10
203.8000030261800
 20
554.5000000000002
 30
0.0000000000000000
 11
207.0000000261799
 21
554.5000000000002
 31
0.0000000000000000
  0
CIRCLE
  5
168
100
AcDbEntity
  8
A7
  6
CONTINUOUS
 62
7
100
AcDbCircle
 10
50.00000002617995
 20
463.5000000000001
 30
0.0000000000000000
 40
8.000000000000007
  0
LINE
  5
169
100
AcDbEntity
  8
A7
  6
CONTINUOUS
 62
7
100
AcDbLine
 10
60.80000002617999
 20
444.9295936865179
 30
0.0000000000000000
 11
60.80000002617999
 21
450.0000000000002
 31
0.0000000000000000
  0
LINE
  5
16A
100
AcDbEntity
  8
A7
  6
CONTINUOUS
 62
7
100
AcDbLine
 10
64.00000002617986
 20
443.5000000000002
 30
0.0000000000000000
 11
64.00000002617986
 21
450.0000000000002
 31
0.0000000000000000
  0
LINE
  5
16B
100
AcDbEntity
  8
A7
  6
CONTINUOUS
 62
7
100
AcDbLine
 10
60.80000002617999
 20
433.5000000000002
 30
0.0000000000000000
 11
64.00000002617986
 21
433.5000000000002
 31
0.0000000000000000
  0
LINE
  5
16C
100
AcDbEntity
  8
A7
  6
CONTINUOUS
 62
7
100
AcDbLine
 10
60.80000002617999
 20
433.5000000000002
 30
0.0000000000000000
 11
60.80000002617999
 21
439.5000000000002
 31
0.0000000000000000
  0
LINE
  5
16D
100
AcDbEntity
  8
A7
  6
CONTINUOUS
 62
7
100
AcDbLine
 10
64.00000002617986
 20
433.5000000000002
 30
0.0000000000000000
 11
64.00000002617986
 21
443.5000000000002
 31
0.0000000000000000
  0
LINE
  5
16E
100
AcDbEntity
  8
A7
  6
CONTINUOUS
 62
7
100
AcDbLine
 10
60.80000002618000
 20
483.5000000000001
 30
0.0000000000000000
 11
60.80000002617999
 21
493.5000000000001
 31
0.0000000000000000
  0
LINE
  5
16F
100
AcDbEntity
  8
A7
  6
CONTINUOUS
 62
7
100
AcDbLine
 10
64.00000002617986
 20
483.5000000000002
 30
0.0000000000000000
 11
64.00000002617986
 21
493.5000000000002
 31
0.0000000000000000
  0
LINE
  5
170
100
AcDbEntity
  8
A7
  6
CONTINUOUS
 62
7
100
AcDbLine
 10
64.00000002617986
 20
493.5000000000002
 30
0.0000000000000000
 11
60.80000002617999
 21
493.5000000000002
 31
0.0000000000000000
  0
LINE
  5
171
100
AcDbEntity
  8
A7
  6
CONTINUOUS
 62
7
100
AcDbLine
 10
60.80000002617999
 20
477.0000000000002
 30
0.0000000000000000
 11
60.80000002617999
 21
483.5000000000002
 31
0.0000000000000000
  0
LINE
  5
172
100
AcDbEntity
  8
A7
  6
CONTINUOUS
 62
7
100
AcDbLine
 10
64.00000002617986
 20
477.0000000000002
 30
0.0000000000000000
 11
64.00000002617986
 21
483.5000000000002
 31
0.0000000000000000
  0
LINE
  5
173
100
AcDbEntity
  8
A7
  6
CONTINUOUS
 62
7
100
AcDbLine
 10
60.80000002617999
 20
450.0000000000002
 30
0.0000000000000000
 11
60.80000002617999
 21
450.5000000000002
 31
0.0000000000000000
  0
LINE
  5
174
100
AcDbEntity
  8
A7
  6
CONTINUOUS
 62
7
100
AcDbLine
 10
64.00000002617986
 20
450.0000000000002
 30
0.0000000000000000
 11
64.00000002617986
 21
450.5000000000002
 31
0.0000000000000000
  0
LINE
  5
175
100
AcDbEntity
  8
A7
  6
CONTINUOUS
 62
7
100
AcDbLine
 10
60.80000002617999
 20
476.5000000000002
 30
0.0000000000000000
 11
60.80000002617999
 21
477.0000000000002
 31
0.0000000000000000
  0
LINE
  5
176
100
AcDbEntity
  8
A7
  6
CONTINUOUS
 62
7
100
AcDbLine
 10
64.00000002617986
 20
476.5000000000002
 30
0.0000000000000000
 11
64.00000002617986
 21
477.0000000000002
 31
0.0000000000000000
  0
LINE
  5
177
100
AcDbEntity
  8
A7
  6
CONTINUOUS
 62
7
100
AcDbLine
 10
60.80000002617999
 20
476.5000000000002
 30
0.0000000000000000
 11
64.00000002617998
 21
476.5000000000002
 31
0.0000000000000000
  0
LINE
  5
178
100
AcDbEntity
  8
A7
  6
CONTINUOUS
 62
7
100
AcDbLine
 10
64.00000002617998
 20
450.5000000000002
 30
0.0000000000000000
 11
60.80000002617999
 21
450.5000000000002
 31
0.0000000000000000
  0
LINE
  5
179
100
AcDbEntity
  8
A7
  6
CONTINUOUS
 62
7
100
AcDbLine
 10
64.00000002617988
 20
476.5000000000002
 30
0.0000000000000000
 11
64.00000002617989
 21
450.5000000000002
 31
0.0000000000000000
  0
LINE
  5
17A
100
AcDbEntity
  8
A7
  6
CONTINUOUS
 62
7
100
AcDbLine
 10
60.80000002618002
 20
450.5000000000002
 30
0.0000000000000000
 11
59.08164810626461
 21
451.1952852167833
 31
0.0000000000000000
  0
LINE
  5
17B
100
AcDbEntity
  8
A7
  6
CONTINUOUS
 62
7
100
AcDbLine
 10
52.56129016189576
 20
473.1664260634781
 30
0.0000000000000000
 11
60.80000002618002
 21
476.5000000000002
 31
0.0000000000000000
  0
ARC
  5
17C
100
AcDbEntity
  8
A7
  6
CONTINUOUS
 62
7
100
AcDbCircle
 10
50.00000002617995
 20
463.5000000000002
 30
0.0000000000000000
 40
10.00000000000000
100
AcDbArc
 50
334.1580672368315
 51
565.8419327631672
  0
ELLIPSE
  5
17D
100
AcDbEntity
  8
A7
  6
CONTINUOUS
 62
7
100
AcDbEllipse
 10
43.39713594389892
 20
436.5702797103336
 30
0.0000000000000000
 11
3.781697070821644
 21
-8.755297220006456
 31
0.0000000000000000
210
0.0000000000000000
220
0.0000000000000000
230
1.000000000000000
 40
0.2562519795485874
 41
3.677047916104542
 42
3.832528931088075
  0
ELLIPSE
  5
17E
100
AcDbEntity
  8
A7
  6
CONTINUOUS
 62
7
100
AcDbEllipse
 10
43.39713594389892
 20
436.5702797103336
 30
0.0000000000000000
 11
3.781697070821644
 21
-8.755297220006456
 31
0.0000000000000000
210
0.0000000000000000
220
0.0000000000000000
230
1.000000000000000
 40
0.2562519795485874
 41
3.448018473830786
 42
3.677047916104542
  0
ELLIPSE
  5
17F
100
AcDbEntity
  8
A7
  6
CONTINUOUS
 62
7
100
AcDbEllipse
 10
56.60286410846098
 20
436.5702797103336
 30
0.0000000000000000
 11
-3.781697070821640
 21
-8.755297220006462
 31
0.0000000000000000
210
0.0000000000000000
220
0.0000000000000000
230
1.000000000000000
 40
0.2562519795485874
 41
2.606137391075044
 42
2.835166833348817
  0
ELLIPSE
  5
180
100
AcDbEntity
  8
A7
  6
CONTINUOUS
 62
7
100
AcDbEllipse
 10
56.60286410846098
 20
436.5702797103336
 30
0.0000000000000000
 11
-3.781697070821640
 21
-8.755297220006462
 31
0.0000000000000000
210
0.0000000000000000
220
0.0000000000000000
230
1.000000000000000
 40
0.2562519795485874
 41
2.450656376091420
 42
2.606137391075044
  0
ARC
  5
181
100
AcDbEntity
  8
A7
  6
CONTINUOUS
 62
7
100
AcDbCircle
 10
50.00000002617995
 20
463.5000000000002
 30
0.0000000000000000
 40
9.000000000000000
100
AcDbArc
 50
359.9999949999998
 51
540.0000000000000
  0
ARC
  5
182
100
AcDbEntity
  8
A7
  6
CONTINUOUS
 62
7
100
AcDbCircle
 10
42.49999999999983
 20
216.0000000000001
 30
0.0000000000000000
 40
1.000000000000000
100
AcDbArc
 50
270.0000000000000
 51
450.0000000000000
  0
ARC
  5
183
100
AcDbEntity
  8
A7
  6
CONTINUOUS
 62
7
100
AcDbCircle
 10
57.50000000000003
 20
216.0000000000001
 30
0.0000000000000000
 40
1.000000000000000
100
AcDbArc
 50
90.00000000000000
 51
270.0000000000000
  0
ARC
  5
184
100
AcDbEntity
  8
A7
  6
CONTINUOUS
 62
7
100
AcDbCircle
 10
42.49999999999983
 20
229.5000000000001
 30
0.0000000000000000
 40
1.000000000000000
100
AcDbArc
 50
270.0000000000001
 51
450.0000029999997
  0
ARC
  5
185
100
AcDbEntity
  8
A7
  6
CONTINUOUS
 62
7
100
AcDbCircle
 10
57.50000000000000
 20
229.5000000000001
 30
0.0000000000000000
 40
1.000000000000000
100
AcDbArc
 50
89.99999700000036
 51
270.0000000000001
  0
LINE
  5
186
100
AcDbEntity
  8
A7
  6
CONTINUOUS
 62
7
100
AcDbLine
 10
40.25401727624414
 20
448.7159544756699
 30
0.0000000000000000
 11
40.25401727624409
 21
448.6935786118561
 31
0.0000000000000000
  0
LINE
  5
187
100
AcDbEntity
  8
A7
  6
CONTINUOUS
 62
7
100
AcDbLine
 10
59.74598277611567
 20
448.6935786118558
 30
0.0000000000000000
 11
59.74598277611575
 21
448.7159544756694
 31
0.0000000000000000
  0
LINE
  5
188
100
AcDbEntity
  8
A7
  6
CONTINUOUS
 62
7
100
AcDbLine
 10
41.00000002617998
 20
451.5000000000002
 30
0.0000000000000000
 11
41.00000002617998
 21
463.5000000000002
 31
0.0000000000000000
  0
LINE
  5
189
100
AcDbEntity
  8
A7
  6
CONTINUOUS
 62
7
100
AcDbLine
 10
41.00000002617998
 20
451.5000000000002
 30
0.0000000000000000
 11
40.25401727624418
 21
448.7159544756699
 31
0.0000000000000000
  0
LINE
  5
18A
100
AcDbEntity
  8
A7
  6
CONTINUOUS
 62
7
100
AcDbLine
 10
59.74598277611572
 20
448.7159544756694
 30
0.0000000000000000
 11
59.00000002617982
 21
451.5000000000001
 31
0.0000000000000000
  0
LINE
  5
18B
100
AcDbEntity
  8
A7
  6
CONTINUOUS
 62
7
100
AcDbLine
 10
59.00000002617997
 20
463.4999992146020
 30
0.0000000000000000
 11
59.00000002617984
 21
451.5000000000003
 31
0.0000000000000000
  0
LINE
  5
18C
100
AcDbEntity
  8
A7
  6
CONTINUOUS
 62
7
100
AcDbLine
 10
60.88517850299145
 20
444.6254141271585
 30
0.0000000000000000
 11
59.74598277611565
 21
448.6935786118558
 31
0.0000000000000000
  0
LINE
  5
18D
100
AcDbEntity
  8
A7
  6
CONTINUOUS
 62
7
100
AcDbLine
 10
59.74598277611568
 20
448.6935786118558
 30
0.0000000000000000
 11
56.00000002617980
 21
442.7000000000001
 31
0.0000000000000000
  0
LINE
  5
18E
100
AcDbEntity
  8
A7
  6
CONTINUOUS
 62
7
100
AcDbLine
 10
44.00000002618012
 20
442.7000000000001
 30
0.0000000000000000
 11
40.25401727624410
 21
448.6935786118562
 31
0.0000000000000000
  0
LINE
  5
18F
100
AcDbEntity
  8
A7
  6
CONTINUOUS
 62
7
100
AcDbLine
 10
40.25401727624413
 20
448.6935786118564
 30
0.0000000000000000
 11
39.11482154936834
 21
444.6254141271588
 31
0.0000000000000000
  0
LINE
  5
190
100
AcDbEntity
  8
A7
  6
CONTINUOUS
 62
7
100
AcDbLine
 10
42.07296382107663
 20
442.7000000000003
 30
0.0000000000000000
 11
39.05304198493039
 21
442.7000000000003
 31
0.0000000000000000
  0
LINE
  5
191
100
AcDbEntity
  8
A7
  6
CONTINUOUS
 62
7
100
AcDbLine
 10
39.00000002617998
 20
443.6057044704489
 30
0.0000000000000000
 11
39.00000002617998
 21
439.5000000000002
 31
0.0000000000000000
  0
LINE
  5
192
100
AcDbEntity
  8
A7
  6
CONTINUOUS
 62
7
100
AcDbLine
 10
39.00000002617998
 20
439.5000000000002
 30
0.0000000000000000
 11
42.07296382107663
 21
439.5000000000002
 31
0.0000000000000000
  0
LINE
  5
193
100
AcDbEntity
  8
A7
  6
CONTINUOUS
 62
7
100
AcDbLine
 10
60.94695806742968
 20
442.7000000000003
 30
0.0000000000000000
 11
57.92703623128327
 21
442.7000000000003
 31
0.0000000000000000
  0
LINE
  5
194
100
AcDbEntity
  8
A7
  6
CONTINUOUS
 62
7
100
AcDbLine
 10
61.00000002617995
 20
439.5000000000002
 30
0.0000000000000000
 11
61.00000002617995
 21
443.6057044704489
 31
0.0000000000000000
  0
LINE
  5
195
100
AcDbEntity
  8
A7
  6
CONTINUOUS
 62
7
100
AcDbLine
 10
61.00000002617995
 20
439.5000000000002
 30
0.0000000000000000
 11
57.92703623128327
 21
439.5000000000002
 31
0.0000000000000000
  0
LINE
  5
196
100
AcDbEntity
  8
A7
  6
CONTINUOUS
 62
7
100
AcDbLine
 10
49.99999999999991
 20
209.5000000000001
 30
0.0000000000000000
 11
43.49999999999983
 21
209.5000000000001
 31
0.0000000000000000
  0
LINE
  5
197
100
AcDbEntity
  8
A7
  6
CONTINUOUS
 62
7
100
AcDbLine
 10
43.49999999999983
 20
210.5000000000001
 30
0.0000000000000000
 11
43.49999999999983
 21
209.5000000000001
 31
0.0000000000000000
  0
LINE
  5
198
100
AcDbEntity
  8
A7
  6
CONTINUOUS
 62
7
100
AcDbLine
 10
56.50000000000003
 20
209.5000000000001
 30
0.0000000000000000
 11
56.50000000000003
 21
210.5000000000001
 31
0.0000000000000000
  0
LINE
  5
199
100
AcDbEntity
  8
A7
  6
CONTINUOUS
 62
7
100
AcDbLine
 10
56.50000000000003
 20
209.5000000000001
 30
0.0000000000000000
 11
49.99999999999991
 21
209.5000000000001
 31
0.0000000000000000
  0
LINE
  5
19A
100
AcDbEntity
  8
A7
  6
CONTINUOUS
 62
7
100
AcDbLine
 10
57.92703623128330
 20
439.5000000000002
 30
0.0000000000000000
 11
42.07296382107663
 21
439.5000000000002
 31
0.0000000000000000
  0
LINE
  5
19B
100
AcDbEntity
  8
A7
  6
CONTINUOUS
 62
7
100
AcDbLine
 10
57.92703623128330
 20
442.7000000000001
 30
0.0000000000000000
 11
42.07296382107663
 21
442.7000000000001
 31
0.0000000000000000
  0
LINE
  5
19C
100
AcDbEntity
  8
A7
  6
CONTINUOUS
 62
7
100
AcDbLine
 10
49.99999999999991
 20
210.5000000000001
 30
0.0000000000000000
 11
42.49999999999983
 21
210.5000000000001
 31
0.0000000000000000
  0
LINE
  5
19D
100
AcDbEntity
  8
A7
  6
CONTINUOUS
 62
7
100
AcDbLine
 10
42.49999999999983
 20
215.0000000000001
 30
0.0000000000000000
 11
42.49999999999983
 21
210.5000000000001
 31
0.0000000000000000
  0
LINE
  5
19E
100
AcDbEntity
  8
A7
  6
CONTINUOUS
 62
7
100
AcDbLine
 10
57.50000000000003
 20
210.5000000000001
 30
0.0000000000000000
 11
57.50000000000003
 21
215.0000000000001
 31
0.0000000000000000
  0
LINE
  5
19F
100
AcDbEntity
  8
A7
  6
CONTINUOUS
 62
7
100
AcDbLine
 10
57.50000000000003
 20
210.5000000000001
 30
0.0000000000000000
 11
49.99999999999991
 21
210.5000000000001
 31
0.0000000000000000
  0
LINE
  5
1A0
100
AcDbEntity
  8
A7
  6
CONTINUOUS
 62
7
100
AcDbLine
 10
49.99999999999991
 20
215.0000000000001
 30
0.0000000000000000
 11
42.49999999999983
 21
215.0000000000001
 31
0.0000000000000000
  0
LINE
  5
1A1
100
AcDbEntity
  8
A7
  6
CONTINUOUS
 62
7
100
AcDbLine
 10
57.50000000000003
 20
215.0000000000001
 30
0.0000000000000000
 11
49.99999999999991
 21
215.0000000000001
 31
0.0000000000000000
  0
LINE
  5
1A2
100
AcDbEntity
  8
A7
  6
CONTINUOUS
 62
7
100
AcDbLine
 10
49.99999999999991
 20
217.0000000000001
 30
0.0000000000000000
 11
42.49999999999983
 21
217.0000000000001
 31
0.0000000000000000
  0
LINE
  5
1A3
100
AcDbEntity
  8
A7
  6
CONTINUOUS
 62
7
100
AcDbLine
 10
42.49999999999984
 20
228.5000000000001
 30
0.0000000000000000
 11
42.49999999999985
 21
217.0000000000001
 31
0.0000000000000000
  0
LINE
  5
1A4
100
AcDbEntity
  8
A7
  6
CONTINUOUS
 62
7
100
AcDbLine
 10
57.50000000000002
 20
217.0000000000001
 30
0.0000000000000000
 11
57.50000000000001
 21
228.5000000000001
 31
0.0000000000000000
  0
LINE
  5
1A5
100
AcDbEntity
  8
A7
  6
CONTINUOUS
 62
7
100
AcDbLine
 10
57.50000000000003
 20
217.0000000000001
 30
0.0000000000000000
 11
49.99999999999991
 21
217.0000000000001
 31
0.0000000000000000
  0
LINE
  5
1A6
100
AcDbEntity
  8
A7
  6
CONTINUOUS
 62
7
100
AcDbLine
 10
49.99999999999991
 20
228.5000000000001
 30
0.0000000000000000
 11
42.49999999999983
 21
228.5000000000001
 31
0.0000000000000000
  0
LINE
  5
1A7
100
AcDbEntity
  8
A7
  6
CONTINUOUS
 62
7
100
AcDbLine
 10
57.50000000000000
 20
228.5000000000001
 30
0.0000000000000000
 11
49.99999999999991
 21
228.5000000000001
 31
0.0000000000000000
  0
LINE
  5
1A8
100
AcDbEntity
  8
A7
  6
CONTINUOUS
 62
7
100
AcDbLine
 10
49.99999999999991
 20
230.5000000000001
 30
0.0000000000000000
 11
42.49999994763996
 21
230.5000000000001
 31
0.0000000000000000
  0
LINE
  5
1A9
100
AcDbEntity
  8
A7
  6
CONTINUOUS
 62
7
100
AcDbLine
 10
42.49999999999994
 20
437.0000000000001
 30
0.0000000000000000
 11
42.49999999999996
 21
230.5000000000001
 31
0.0000000000000000
  0
LINE
  5
1AA
100
AcDbEntity
  8
A7
  6
CONTINUOUS
 62
7
100
AcDbLine
 10
57.50000005236003
 20
230.5000000000001
 30
0.0000000000000000
 11
57.50000005235999
 21
437.0000000000001
 31
0.0000000000000000
  0
LINE
  5
1AB
100
AcDbEntity
  8
A7
  6
CONTINUOUS
 62
7
100
AcDbLine
 10
57.50000005235987
 20
230.5000000000001
 30
0.0000000000000000
 11
49.99999999999991
 21
230.5000000000001
 31
0.0000000000000000
  0
LINE
  5
1AC
100
AcDbEntity
  8
A7
  6
CONTINUOUS
 62
7
100
AcDbLine
 10
50.00000002617992
 20
437.0000000000002
 30
0.0000000000000000
 11
42.24999999999994
 21
437.0000000000002
 31
0.0000000000000000
  0
LINE
  5
1AD
100
AcDbEntity
  8
A7
  6
CONTINUOUS
 62
7
100
AcDbLine
 10
42.24999999999994
 20
438.0000000000002
 30
0.0000000000000000
 11
42.24999999999994
 21
437.0000000000002
 31
0.0000000000000000
  0
LINE
  5
1AE
100
AcDbEntity
  8
A7
  6
CONTINUOUS
 62
7
100
AcDbLine
 10
57.75000005235989
 20
437.0000000000002
 30
0.0000000000000000
 11
57.75000005235989
 21
438.0000000000002
 31
0.0000000000000000
  0
LINE
  5
1AF
100
AcDbEntity
  8
A7
  6
CONTINUOUS
 62
7
100
AcDbLine
 10
57.75000005235989
 20
437.0000000000002
 30
0.0000000000000000
 11
50.00000002617992
 21
437.0000000000002
 31
0.0000000000000000
  0
LINE
  5
1B0
100
AcDbEntity
  8
A7
  6
CONTINUOUS
 62
7
100
AcDbLine
 10
50.00000002617992
 20
438.0000000000002
 30
0.0000000000000000
 11
42.24999999999994
 21
438.0000000000002
 31
0.0000000000000000
  0
LINE
  5
1B1
100
AcDbEntity
  8
A7
  6
CONTINUOUS
 62
7
100
AcDbLine
 10
45.00000002617992
 20
439.5000000000002
 30
0.0000000000000000
 11
42.24999999999994
 21
438.0000000000002
 31
0.0000000000000000
  0
LINE
  5
1B2
100
AcDbEntity
  8
A7
  6
CONTINUOUS
 62
7
100
AcDbLine
 10
57.75000005235989
 20
438.0000000000002
 30
0.0000000000000000
 11
55.00000002617989
 21
439.5000000000002
 31
0.0000000000000000
  0
LINE
  5
1B3
100
AcDbEntity
  8
A7
  6
CONTINUOUS
 62
7
100
AcDbLine
 10
57.75000005235989
 20
438.0000000000002
 30
0.0000000000000000
 11
50.00000002617992
 21
438.0000000000002
 31
0.0000000000000000
  0
ARC
  5
1B4
100
AcDbEntity
  8
A8
  6
CONTINUOUS
 62
7
100
AcDbCircle
 10
212.2000150261800
 20
-11.69999999999990
 30
0.0000000000000000
 40
3.200000000000000
100
AcDbArc
 50
90.00000000000000
 51
147.9100487437219
  0
LINE
  5
1B5
100
AcDbEntity
  8
A8
  6
CONTINUOUS
 62
7
100
AcDbLine
 10
212.5000150261799
 20
-8.500000000000046
 30
0.0000000000000000
 11
212.2000150261800
 21
-8.500000000000016
 31
0.0000000000000000
  0
LINE
  5
1B6
100
AcDbEntity
  8
A8
  6
CONTINUOUS
 62
7
100
AcDbLine
 10
213.0000150261799
 20
-8.500000000000057
 30
0.0000000000000000
 11
212.5000150261799
 21
-8.500000000000057
 31
0.0000000000000000
  0
LINE
  5
1B7
100
AcDbEntity
  8
A8
  6
CONTINUOUS
 62
7
100
AcDbLine
 10
233.0000150261799
 20
-11.69999999999990
 30
0.0000000000000000
 11
217.0000150261799
 21
-11.69999999999990
 31
0.0000000000000000
  0
LINE
  5
1B8
100
AcDbEntity
  8
A8
  6
CONTINUOUS
 62
7
100
AcDbLine
 10
233.0000150261799
 20
-8.500000000000057
 30
0.0000000000000000
 11
213.0000150261799
 21
-8.500000000000057
 31
0.0000000000000000
  0
LINE
  5
1B9
100
AcDbEntity
  8
A8
  6
CONTINUOUS
 62
7
100
AcDbLine
 10
233.0000150261797
 20
-8.500000000000057
 30
0.0000000000000000
 11
233.0000150261797
 21
-11.69999999999990
 31
0.0000000000000000
  0
LINE
  5
1BA
100
AcDbEntity
  8
A8
  6
CONTINUOUS
 62
7
100
AcDbLine
 10
213.0000150261799
 20
-8.500000000000057
 30
0.0000000000000000
 11
213.0000150261799
 21
-10.00000000000003
 31
0.0000000000000000
  0
ARC
  5
1BB
100
AcDbEntity
  8
A8
  6
CONTINUOUS
 62
7
100
AcDbCircle
 10
202.8000030261801
 20
-14.99999999999994
 30
0.0000000000000000
 40
0.5000000000000000
100
AcDbArc
 50
0.0000000000000000
 51
90.00000000000000
  0
ARC
  5
1BC
100
AcDbEntity
  8
A8
  6
CONTINUOUS
 62
7
100
AcDbCircle
 10
202.8000030261801
 20
-29.99999999999994
 30
0.0000000000000000
 40
0.5000000000000000
100
AcDbArc
 50
270.0000000000000
 51
360.0000000000000
  0
ARC
  5
1BD
100
AcDbEntity
  8
A8
  6
CONTINUOUS
 62
7
100
AcDbCircle
 10
200.8000030261801
 20
-14.99999999999994
 30
0.0000000000000000
 40
0.5000000000000000
100
AcDbArc
 50
90.00000000000000
 51
180.0000000000000
  0
ARC
  5
1BE
100
AcDbEntity
  8
A8
  6
CONTINUOUS
 62
7
100
AcDbCircle
 10
200.8000030261801
 20
-29.99999999999994
 30
0.0000000000000000
 40
0.5000000000000000
100
AcDbArc
 50
180.0000000000000
 51
270.0000000000000
  0
LINE
  5
1BF
100
AcDbEntity
  8
A8
  6
CONTINUOUS
 62
7
100
AcDbLine
 10
202.8000030261801
 20
-14.49999999999994
 30
0.0000000000000000
 11
200.8000030261801
 21
-14.49999999999994
 31
0.0000000000000000
  0
LINE
  5
1C0
100
AcDbEntity
  8
A8
  6
CONTINUOUS
 62
7
100
AcDbLine
 10
200.8000030261801
 20
-30.49999999999994
 30
0.0000000000000000
 11
202.8000030261801
 21
-30.49999999999994
 31
0.0000000000000000
  0
LINE
  5
1C1
100
AcDbEntity
  8
A8
  6
CONTINUOUS
 62
7
100
AcDbLine
 10
200.3000030261801
 20
-29.99999999999994
 30
0.0000000000000000
 11
200.3000030261801
 21
-14.99999999999994
 31
0.0000000000000000
  0
LINE
  5
1C2
100
AcDbEntity
  8
A8
  6
CONTINUOUS
 62
7
100
AcDbLine
 10
209.0000150261800
 20
-34.99999999999994
 30
0.0000000000000000
 11
210.2646523329488
 21
-34.99999999999994
 31
0.0000000000000000
  0
LINE
  5
1C3
100
AcDbEntity
  8
A8
  6
CONTINUOUS
 62
7
100
AcDbLine
 10
209.0000150261800
 20
-10.00000000000003
 30
0.0000000000000000
 11
210.2646523329488
 21
-10.00000000000003
 31
0.0000000000000000
  0
LINE
  5
1C4
100
AcDbEntity
  8
A8
  6
CONTINUOUS
 62
7
100
AcDbLine
 10
209.0000150261800
 20
-34.99999999999994
 30
0.0000000000000000
 11
209.0000150261800
 21
-10.00000000000003
 31
0.0000000000000000
  0
LINE
  5
1C5
100
AcDbEntity
  8
A8
  6
CONTINUOUS
 62
7
100
AcDbLine
 10
213.3136160620381
 20
-34.99999999999994
 30
0.0000000000000000
 11
210.2646523329485
 21
-34.99999999999994
 31
0.0000000000000000
  0
LINE
  5
1C6
100
AcDbEntity
  8
A8
  6
CONTINUOUS
 62
7
100
AcDbLine
 10
213.3136160620381
 20
-10.00000000000003
 30
0.0000000000000000
 11
210.2646523329485
 21
-10.00000000000003
 31
0.0000000000000000
  0
LINE
  5
1C7
100
AcDbEntity
  8
A8
  6
CONTINUOUS
 62
7
100
AcDbLine
 10
213.3136160620381
 20
-34.99999999999994
 30
0.0000000000000000
 11
213.8000150261799
 21
-34.99999999999994
 31
0.0000000000000000
  0
LINE
  5
1C8
100
AcDbEntity
  8
A8
  6
CONTINUOUS
 62
7
100
AcDbLine
 10
213.3136160620381
 20
-10.00000000000003
 30
0.0000000000000000
 11
213.8000150261799
 21
-10.00000000000003
 31
0.0000000000000000
  0
LINE
  5
1C9
100
AcDbEntity
  8
A8
  6
CONTINUOUS
 62
7
100
AcDbLine
 10
213.8000150261799
 20
-9.999999999999886
 30
0.0000000000000000
 11
213.8000150261799
 21
-34.99999999999989
 31
0.0000000000000000
  0
LINE
  5
1CA
100
AcDbEntity
  8
A8
  6
CONTINUOUS
 62
7
100
AcDbLine
 10
217.0000150261799
 20
-9.999999999999886
 30
0.0000000000000000
 11
217.0000150261799
 21
-34.99999999999989
 31
0.0000000000000000
  0
LINE
  5
1CB
100
AcDbEntity
  8
A8
  6
CONTINUOUS
 62
7
100
AcDbLine
 10
217.0000150261799
 20
-34.99999999999989
 30
0.0000000000000000
 11
213.8000150261799
 21
-34.99999999999989
 31
0.0000000000000000
  0
LINE
  5
1CC
100
AcDbEntity
  8
A8
  6
CONTINUOUS
 62
7
100
AcDbLine
 10
217.0000150261799
 20
-9.999999999999886
 30
0.0000000000000000
 11
213.8000150261799
 21
-9.999999999999886
 31
0.0000000000000000
  0
LINE
  5
1CD
100
AcDbEntity
  8
A8
  6
CONTINUOUS
 62
7
100
AcDbLine
 10
207.0000000261799
 20
-22.49999999999994
 30
0.0000000000000000
 11
207.0000000261799
 21
-12.49999999999994
 31
0.0000000000000000
  0
LINE
  5
1CE
100
AcDbEntity
  8
A8
  6
CONTINUOUS
 62
7
100
AcDbLine
 10
207.0000000261799
 20
-32.49999999999994
 30
0.0000000000000000
 11
209.0000150261799
 21
-32.49999999999994
 31
0.0000000000000000
  0
LINE
  5
1CF
100
AcDbEntity
  8
A8
  6
CONTINUOUS
 62
7
100
AcDbLine
 10
209.0000150261799
 20
-12.49999999999994
 30
0.0000000000000000
 11
207.0000000261799
 21
-12.49999999999994
 31
0.0000000000000000
  0
LINE
  5
1D0
100
AcDbEntity
  8
A8
  6
CONTINUOUS
 62
7
100
AcDbLine
 10
207.0000000261799
 20
-32.49999999999994
 30
0.0000000000000000
 11
207.0000000261799
 21
-22.49999999999994
 31
0.0000000000000000
  0
LINE
  5
1D1
100
AcDbEntity
  8
A8
  6
CONTINUOUS
 62
7
100
AcDbLine
 10
203.3000030261800
 20
-30.49999999999997
 30
0.0000000000000000
 11
203.8000030261800
 21
-30.49999999999997
 31
0.0000000000000000
  0
LINE
  5
1D2
100
AcDbEntity
  8
A8
  6
CONTINUOUS
 62
7
100
AcDbLine
 10
203.8000030261800
 20
-14.49999999999997
 30
0.0000000000000000
 11
203.3000030261800
 21
-14.49999999999997
 31
0.0000000000000000
  0
LINE
  5
1D3
100
AcDbEntity
  8
A8
  6
CONTINUOUS
 62
7
100
AcDbLine
 10
203.3000030261800
 20
-14.49999999999997
 30
0.0000000000000000
 11
203.3000030261800
 21
-30.49999999999997
 31
0.0000000000000000
  0
ARC
  5
1D4
100
AcDbEntity
  8
A8
  6
CONTINUOUS
 62
7
100
AcDbCircle
 10
200.0000000261799
 20
-22.50000000000000
 30
0.0000000000000000
 40
7.750000026179976
100
AcDbArc
 50
162.6832544062184
 51
180.0000000000000
  0
ARC
  5
1D5
100
AcDbEntity
  8
A8
  6
CONTINUOUS
 62
7
100
AcDbCircle
 10
200.0000000261799
 20
-22.50000000000000
 30
0.0000000000000000
 40
7.750000026179976
100
AcDbArc
 50
180.0000000000000
 51
197.3167455937818
  0
ARC
  5
1D6
100
AcDbEntity
  8
A8
  6
CONTINUOUS
 62
7
100
AcDbCircle
 10
197.9149717508298
 20
-29.10286408228083
 30
0.0000000000000000
 40
4.397135917719111
100
AcDbArc
 50
197.5263413624546
 51
261.0915940470376
  0
ARC
  5
1D7
100
AcDbEntity
  8
A8
  6
CONTINUOUS
 62
7
100
AcDbCircle
 10
197.9149717508298
 20
-15.89713591771905
 30
0.0000000000000000
 40
4.397135917719111
100
AcDbArc
 50
98.90840595296692
 51
162.4736586375454
  0
ARC
  5
1D8
100
AcDbEntity
  8
A8
  6
CONTINUOUS
 62
7
100
AcDbCircle
 10
218.8230590261798
 20
-22.49999999999994
 30
0.0000000000000000
 40
26.32305500000000
100
AcDbArc
 50
162.4736586375454
 51
197.5263413624546
  0
ARC
  5
1D9
100
AcDbEntity
  8
A8
  6
CONTINUOUS
 62
7
100
AcDbCircle
 10
197.9149717508298
 20
-29.10286408228083
 30
0.0000000000000000
 40
4.397135917719111
100
AcDbArc
 50
261.0915940470376
 51
283.1224204265302
  0
ARC
  5
1DA
100
AcDbEntity
  8
A8
  6
CONTINUOUS
 62
7
100
AcDbCircle
 10
197.9149717508298
 20
-15.89713591771905
 30
0.0000000000000000
 40
4.397135917719111
100
AcDbArc
 50
76.87757957347479
 51
98.90840595296692
  0
LINE
  5
1DB
100
AcDbEntity
  8
A8
  6
CONTINUOUS
 62
7
100
AcDbLine
 10
198.9132641455172
 20
-33.38517847681147
 30
0.0000000000000000
 11
203.8000030261800
 21
-32.24598274993575
 31
0.0000000000000000
  0
LINE
  5
1DC
100
AcDbEntity
  8
A8
  6
CONTINUOUS
 62
7
100
AcDbLine
 10
201.1454621333108
 20
-30.49999999999997
 30
0.0000000000000000
 11
197.2340518182785
 21
-33.44695804124888
 31
0.0000000000000000
  0
LINE
  5
1DD
100
AcDbEntity
  8
A8
  6
CONTINUOUS
 62
7
100
AcDbLine
 10
203.8000030261801
 20
-12.75401725006407
 30
0.0000000000000000
 11
198.9132641455169
 21
-11.61482152318829
 31
0.0000000000000000
  0
LINE
  5
1DE
100
AcDbEntity
  8
A8
  6
CONTINUOUS
 62
7
100
AcDbLine
 10
197.2340518182781
 20
-11.55304195875115
 30
0.0000000000000000
 11
201.1454621333106
 21
-14.49999999999994
 31
0.0000000000000000
  0
LINE
  5
1DF
100
AcDbEntity
  8
A8
  6
CONTINUOUS
 62
7
100
AcDbLine
 10
203.8000030261800
 20
-31.49999999999994
 30
0.0000000000000000
 11
203.8000030261800
 21
-32.24598274993573
 31
0.0000000000000000
  0
LINE
  5
1E0
100
AcDbEntity
  8
A8
  6
CONTINUOUS
 62
7
100
AcDbLine
 10
203.8000030261800
 20
-32.24598274993572
 30
0.0000000000000000
 11
207.0000000261799
 21
-31.49999999999994
 31
0.0000000000000000
  0
LINE
  5
1E1
100
AcDbEntity
  8
A8
  6
CONTINUOUS
 62
7
100
AcDbLine
 10
203.8000030261800
 20
-12.75401725006415
 30
0.0000000000000000
 11
203.8000030261800
 21
-13.50000000000006
 31
0.0000000000000000
  0
LINE
  5
1E2
100
AcDbEntity
  8
A8
  6
CONTINUOUS
 62
7
100
AcDbLine
 10
207.0000000261799
 20
-13.49999999999996
 30
0.0000000000000000
 11
203.8000030261800
 21
-12.75401725006416
 31
0.0000000000000000
  0
LINE
  5
1E3
100
AcDbEntity
  8
A8
  6
CONTINUOUS
 62
7
100
AcDbLine
 10
203.8000030261800
 20
-13.49999999999994
 30
0.0000000000000000
 11
203.8000030261800
 21
-31.49999999999994
 31
0.0000000000000000
  0
LINE
  5
1E4
100
AcDbEntity
  8
A8
  6
CONTINUOUS
 62
7
100
AcDbLine
 10
203.8000030261800
 20
-13.49999999999994
 30
0.0000000000000000
 11
207.0000000261799
 21
-13.49999999999994
 31
0.0000000000000000
  0
LINE
  5
1E5
100
AcDbEntity
  8
A8
  6
CONTINUOUS
 62
7
100
AcDbLine
 10
203.8000030261800
 20
-31.49999999999994
 30
0.0000000000000000
 11
207.0000000261799
 21
-31.49999999999994
 31
0.0000000000000000
  0
ARC
  5
1E6
100
AcDbEntity
  8
A9
  6
CONTINUOUS
 62
7
100
AcDbCircle
 10
497.1999970261799
 20
456.0000000000001
 30
0.0000000000000000
 40
0.5000000000000000
100
AcDbArc
 50
180.0000000000000
 51
270.0000000000001
  0
ARC
  5
1E7
100
AcDbEntity
  8
A9
  6
CONTINUOUS
 62
7
100
AcDbCircle
 10
497.1999970261799
 20
471.0000000000001
 30
0.0000000000000000
 40
0.5000000000000000
100
AcDbArc
 50
90.00000000000000
 51
180.0000000000000
  0
ARC
  5
1E8
100
AcDbEntity
  8
A9
  6
CONTINUOUS
 62
7
100
AcDbCircle
 10
499.1999970261799
 20
456.0000000000001
 30
0.0000000000000000
 40
0.5000000000000000
100
AcDbArc
 50
270.0000000000000
 51
360.0000000000000
  0
ARC
  5
1E9
100
AcDbEntity
  8
A9
  6
CONTINUOUS
 62
7
100
AcDbCircle
 10
499.1999970261799
 20
471.0000000000001
 30
0.0000000000000000
 40
0.5000000000000000
100
AcDbArc
 50
0.0000000000000000
 51
90.00000000000000
  0
LINE
  5
1EA
100
AcDbEntity
  8
A9
  6
CONTINUOUS
 62
7
100
AcDbLine
 10
486.9999970261798
 20
467.7500000000001
 30
0.0000000000000000
 11
486.9999970261798
 21
459.2500000000001
 31
0.0000000000000000
  0
LINE
  5
1EB
100
AcDbEntity
  8
A9
  6
CONTINUOUS
 62
7
100
AcDbLine
 10
486.9999970261798
 20
459.2500000000001
 30
0.0000000000000000
 11
487.7999850261803
 21
459.2500000000001
 31
0.0000000000000000
  0
LINE
  5
1EC
100
AcDbEntity
  8
A9
  6
CONTINUOUS
 62
7
100
AcDbLine
 10
487.7999850261803
 20
467.7500000000001
 30
0.0000000000000000
 11
486.9999970261798
 21
467.7500000000001
 31
0.0000000000000000
  0
LINE
  5
1ED
100
AcDbEntity
  8
A9
  6
CONTINUOUS
 62
7
100
AcDbLine
 10
497.1999970261799
 20
455.5000000000001
 30
0.0000000000000000
 11
499.1999970261799
 21
455.5000000000001
 31
0.0000000000000000
  0
LINE
  5
1EE
100
AcDbEntity
  8
A9
  6
CONTINUOUS
 62
7
100
AcDbLine
 10
499.1999970261799
 20
471.5000000000001
 30
0.0000000000000000
 11
497.1999970261799
 21
471.5000000000001
 31
0.0000000000000000
  0
LINE
  5
1EF
100
AcDbEntity
  8
A9
  6
CONTINUOUS
 62
7
100
AcDbLine
 10
499.6999970261799
 20
471.0000000000001
 30
0.0000000000000000
 11
499.6999970261799
 21
456.0000000000539
 31
0.0000000000000000
  0
CIRCLE
  5
1F0
100
AcDbEntity
  8
A9
  6
CONTINUOUS
 62
7
100
AcDbCircle
 10
476.9999850261800
 20
483.5000000000002
 30
0.0000000000000000
 40
3.500000000000000
  0
CIRCLE
  5
1F1
100
AcDbEntity
  8
A9
  6
CONTINUOUS
 62
7
100
AcDbCircle
 10
476.9999850261800
 20
443.5000000000002
 30
0.0000000000000000
 40
3.500000000000000
  0
ARC
  5
1F2
100
AcDbEntity
  8
A9
  6
CONTINUOUS
 62
7
100
AcDbCircle
 10
487.4999850261801
 20
477.0000000000002
 30
0.0000000000000000
 40
0.5000000000000000
100
AcDbArc
 50
180.0000000000000
 51
270.0000000000000
  0
ARC
  5
1F3
100
AcDbEntity
  8
A9
  6
CONTINUOUS
 62
7
100
AcDbCircle
 10
476.9999850261800
 20
483.5000000000002
 30
0.0000000000000000
 40
10.00000000000001
100
AcDbArc
 50
0.0000000000000000
 51
180.0000000000002
  0
ARC
  5
1F4
100
AcDbEntity
  8
A9
  6
CONTINUOUS
 62
7
100
AcDbCircle
 10
476.9999850261800
 20
443.5000000000002
 30
0.0000000000000000
 40
10.00000000000000
100
AcDbArc
 50
180.0000000000003
 51
360.0000000000000
  0
ARC
  5
1F5
100
AcDbEntity
  8
A9
  6
CONTINUOUS
 62
7
100
AcDbCircle
 10
487.4999850261801
 20
450.0000000000002
 30
0.0000000000000000
 40
0.5000000000000000
100
AcDbArc
 50
90.00000000000000
 51
180.0000000000000
  0
LINE
  5
1F6
100
AcDbEntity
  8
A9
  6
CONTINUOUS
 62
7
100
AcDbLine
 10
487.4999850261801
 20
450.5000000000002
 30
0.0000000000000000
 11
487.7999850261803
 21
450.5000000000001
 31
0.0000000000000000
  0
LINE
  5
1F7
100
AcDbEntity
  8
A9
  6
CONTINUOUS
 62
7
100
AcDbLine
 10
487.7999850261803
 20
476.5000000000002
 30
0.0000000000000000
 11
487.4999850261801
 21
476.5000000000002
 31
0.0000000000000000
  0
LINE
  5
1F8
100
AcDbEntity
  8
A9
  6
CONTINUOUS
 62
7
100
AcDbLine
 10
486.9999850261801
 20
477.0000000000002
 30
0.0000000000000000
 11
486.9999850261800
 21
483.5000000000002
 31
0.0000000000000000
  0
LINE
  5
1F9
100
AcDbEntity
  8
A9
  6
CONTINUOUS
 62
7
100
AcDbLine
 10
466.9999850261800
 20
483.5000000000002
 30
0.0000000000000000
 11
466.9999850261802
 21
443.5000000000002
 31
0.0000000000000000
  0
LINE
  5
1FA
100
AcDbEntity
  8
A9
  6
CONTINUOUS
 62
7
100
AcDbLine
 10
486.9999850261800
 20
443.5000000000002
 30
0.0000000000000000
 11
486.9999850261800
 21
450.0000000000002
 31
0.0000000000000000
  0
LINE
  5
1FB
100
AcDbEntity
  8
A9
  6
CONTINUOUS
 62
7
100
AcDbLine
 10
490.9999850261799
 20
450.5000000000002
 30
0.0000000000000000
 11
490.9999850261800
 21
453.5000000000001
 31
0.0000000000000000
  0
LINE
  5
1FC
100
AcDbEntity
  8
A9
  6
CONTINUOUS
 62
7
100
AcDbLine
 10
487.7999850261803
 20
450.5000000000001
 30
0.0000000000000000
 11
487.7999850261803
 21
456.0840680542308
 31
0.0000000000000000
  0
LINE
  5
1FD
100
AcDbEntity
  8
A9
  6
CONTINUOUS
 62
7
100
AcDbLine
 10
490.9999850261799
 20
450.5000000000002
 30
0.0000000000000000
 11
487.7999850261803
 21
450.5000000000001
 31
0.0000000000000000
  0
LINE
  5
1FE
100
AcDbEntity
  8
A9
  6
CONTINUOUS
 62
7
100
AcDbLine
 10
490.9999850261801
 20
473.5000000000000
 30
0.0000000000000000
 11
490.9999850261800
 21
476.5000000000002
 31
0.0000000000000000
  0
LINE
  5
1FF
100
AcDbEntity
  8
A9
  6
CONTINUOUS
 62
7
100
AcDbLine
 10
487.7999850261803
 20
470.9159319457695
 30
0.0000000000000000
 11
487.7999850261803
 21
476.5000000000002
 31
0.0000000000000000
  0
LINE
  5
200
100
AcDbEntity
  8
A9
  6
CONTINUOUS
 62
7
100
AcDbLine
 10
490.9999850261800
 20
476.5000000000002
 30
0.0000000000000000
 11
487.7999850261803
 21
476.5000000000002
 31
0.0000000000000000
  0
LINE
  5
201
100
AcDbEntity
  8
A9
  6
CONTINUOUS
 62
7
100
AcDbLine
 10
487.7999850261803
 20
456.0840680542307
 30
0.0000000000000000
 11
487.7999850261803
 21
470.9159319457695
 31
0.0000000000000000
  0
ARC
  5
202
100
AcDbEntity
  8
A9
  6
CONTINUOUS
 62
7
100
AcDbCircle
 10
497.1999970261799
 20
70.00000000000003
 30
0.0000000000000000
 40
0.5000000000000000
100
AcDbArc
 50
180.0000000000000
 51
270.0000000000000
  0
ARC
  5
203
100
AcDbEntity
  8
A9
  6
CONTINUOUS
 62
7
100
AcDbCircle
 10
497.1999970261799
 20
85.00000000000006
 30
0.0000000000000000
 40
0.5000000000000000
100
AcDbArc
 50
90.00000000000000
 51
180.0000000000000
  0
ARC
  5
204
100
AcDbEntity
  8
A9
  6
CONTINUOUS
 62
7
100
AcDbCircle
 10
499.1999970261799
 20
70.00000000000003
 30
0.0000000000000000
 40
0.5000000000000000
100
AcDbArc
 50
270.0000000000000
 51
360.0000000000000
  0
ARC
  5
205
100
AcDbEntity
  8
A9
  6
CONTINUOUS
 62
7
100
AcDbCircle
 10
499.1999970261799
 20
85.00000000000006
 30
0.0000000000000000
 40
0.5000000000000000
100
AcDbArc
 50
0.0000000000000000
 51
90.00000000000000
  0
LINE
  5
206
100
AcDbEntity
  8
A9
  6
CONTINUOUS
 62
7
100
AcDbLine
 10
486.9999970261798
 20
81.75000000000006
 30
0.0000000000000000
 11
486.9999970261798
 21
73.25000000000006
 31
0.0000000000000000
  0
LINE
  5
207
100
AcDbEntity
  8
A9
  6
CONTINUOUS
 62
7
100
AcDbLine
 10
486.9999970261798
 20
73.25000000000006
 30
0.0000000000000000
 11
487.7999850261800
 21
73.25000000000006
 31
0.0000000000000000
  0
LINE
  5
208
100
AcDbEntity
  8
A9
  6
CONTINUOUS
 62
7
100
AcDbLine
 10
487.7999850261800
 20
81.75000000000006
 30
0.0000000000000000
 11
486.9999970261798
 21
81.75000000000006
 31
0.0000000000000000
  0
LINE
  5
209
100
AcDbEntity
  8
A9
  6
CONTINUOUS
 62
7
100
AcDbLine
 10
497.1999970261799
 20
69.50000000000003
 30
0.0000000000000000
 11
499.1999970261799
 21
69.50000000000003
 31
0.0000000000000000
  0
LINE
  5
20A
100
AcDbEntity
  8
A9
  6
CONTINUOUS
 62
7
100
AcDbLine
 10
499.1999970261799
 20
85.50000000000006
 30
0.0000000000000000
 11
497.1999970261799
 21
85.50000000000006
 31
0.0000000000000000
  0
LINE
  5
20B
100
AcDbEntity
  8
A9
  6
CONTINUOUS
 62
7
100
AcDbLine
 10
499.6999970261799
 20
85.00000000000006
 30
0.0000000000000000
 11
499.6999970261799
 21
70.00000000005400
 31
0.0000000000000000
  0
ARC
  5
20C
100
AcDbEntity
  8
A9
  6
CONTINUOUS
 62
7
100
AcDbCircle
 10
485.7999850261800
 20
67.24387017807720
 30
0.0000000000000000
 40
5.200000000000001
100
AcDbArc
 50
319.1829447235302
 51
360.0000000000000
  0
ARC
  5
20D
100
AcDbEntity
  8
A9
  6
CONTINUOUS
 62
7
100
AcDbCircle
 10
488.1999850261801
 20
59.00748611742520
 30
0.0000000000000000
 40
2.000000000000000
100
AcDbArc
 50
139.1829447235320
 51
180.0000000000000
  0
ARC
  5
20E
100
AcDbEntity
  8
A9
  6
CONTINUOUS
 62
7
100
AcDbCircle
 10
485.7999850261800
 20
87.75612982192288
 30
0.0000000000000000
 40
5.200000000000003
100
AcDbArc
 50
0.0000000000000000
 51
40.81705527646739
  0
ARC
  5
20F
100
AcDbEntity
  8
A9
  6
CONTINUOUS
 62
7
100
AcDbCircle
 10
488.1999850261801
 20
95.99251388257488
 30
0.0000000000000000
 40
1.999999999999998
100
AcDbArc
 50
180.0000000000000
 51
220.8170552764687
  0
ARC
  5
210
100
AcDbEntity
  8
A9
  6
CONTINUOUS
 62
7
100
AcDbCircle
 10
488.1999850261801
 20
95.99251388257488
 30
0.0000000000000000
 40
5.200000000000003
100
AcDbArc
 50
180.0000000000000
 51
220.8170552764674
  0
ARC
  5
211
100
AcDbEntity
  8
A9
  6
CONTINUOUS
 62
7
100
AcDbCircle
 10
485.7999850261800
 20
87.75612982192288
 30
0.0000000000000000
 40
1.999999999999998
100
AcDbArc
 50
0.0000000000000000
 51
40.81705527647054
  0
ARC
  5
212
100
AcDbEntity
  8
A9
  6
CONTINUOUS
 62
7
100
AcDbCircle
 10
485.7999850261800
 20
67.24387017807720
 30
0.0000000000000000
 40
2.000000000000000
100
AcDbArc
 50
319.1829447235334
 51
360.0000000000000
  0
ARC
  5
213
100
AcDbEntity
  8
A9
  6
CONTINUOUS
 62
7
100
AcDbCircle
 10
488.1999850261801
 20
59.00748611742520
 30
0.0000000000000000
 40
5.200000000000001
100
AcDbArc
 50
139.1829447235311
 51
180.0000000000000
  0
LINE
  5
214
100
AcDbEntity
  8
A9
  6
CONTINUOUS
 62
7
100
AcDbLine
 10
482.9999850261801
 20
37.50000000000000
 30
0.0000000000000000
 11
486.1999850261801
 21
37.50000000000000
 31
0.0000000000000000
  0
LINE
  5
215
100
AcDbEntity
  8
A9
  6
CONTINUOUS
 62
7
100
AcDbLine
 10
486.1999850261801
 20
37.50000000000003
 30
0.0000000000000000
 11
486.1999850261801
 21
50.00000000000003
 31
0.0000000000000000
  0
LINE
  5
216
100
AcDbEntity
  8
A9
  6
CONTINUOUS
 62
7
100
AcDbLine
 10
482.9999850261801
 20
37.50000000000003
 30
0.0000000000000000
 11
482.9999850261801
 21
50.00000000000003
 31
0.0000000000000000
  0
LINE
  5
217
100
AcDbEntity
  8
A9
  6
CONTINUOUS
 62
7
100
AcDbLine
 10
486.1999850261801
 20
95.99251388257488
 30
0.0000000000000000
 11
486.1999850261801
 21
105.0000000000000
 31
0.0000000000000000
  0
LINE
  5
218
100
AcDbEntity
  8
A9
  6
CONTINUOUS
 62
7
100
AcDbLine
 10
482.9999850261801
 20
105.0000000000000
 30
0.0000000000000000
 11
482.9999850261801
 21
95.99251388257488
 31
0.0000000000000000
  0
LINE
  5
219
100
AcDbEntity
  8
A9
  6
CONTINUOUS
 62
7
100
AcDbLine
 10
486.1999850261801
 20
50.00000000000003
 30
0.0000000000000000
 11
486.1999850261801
 21
59.00748611742520
 31
0.0000000000000000
  0
LINE
  5
21A
100
AcDbEntity
  8
A9
  6
CONTINUOUS
 62
7
100
AcDbLine
 10
482.9999850261801
 20
59.00748611742520
 30
0.0000000000000000
 11
482.9999850261801
 21
50.00000000000003
 31
0.0000000000000000
  0
LINE
  5
21B
100
AcDbEntity
  8
A9
  6
CONTINUOUS
 62
7
100
AcDbLine
 10
486.6863839903219
 20
60.31477793804106
 30
0.0000000000000000
 11
489.7353477194116
 21
63.84491144447588
 31
0.0000000000000000
  0
LINE
  5
21C
100
AcDbEntity
  8
A9
  6
CONTINUOUS
 62
7
100
AcDbLine
 10
490.9999850261800
 20
67.24387017807720
 30
0.0000000000000000
 11
490.9999850261801
 21
87.75612982192288
 31
0.0000000000000000
  0
LINE
  5
21D
100
AcDbEntity
  8
A9
  6
CONTINUOUS
 62
7
100
AcDbLine
 10
489.7353477194114
 20
91.15508855552392
 30
0.0000000000000000
 11
486.6863839903217
 21
94.68522206195902
 31
0.0000000000000000
  0
LINE
  5
21E
100
AcDbEntity
  8
A9
  6
CONTINUOUS
 62
7
100
AcDbLine
 10
484.2646223329486
 20
92.59355514897388
 30
0.0000000000000000
 11
487.3135860620382
 21
89.06342164253880
 31
0.0000000000000000
  0
LINE
  5
21F
100
AcDbEntity
  8
A9
  6
CONTINUOUS
 62
7
100
AcDbLine
 10
487.7999850261800
 20
87.75612982192288
 30
0.0000000000000000
 11
487.7999850261800
 21
67.24387017807720
 31
0.0000000000000000
  0
LINE
  5
220
100
AcDbEntity
  8
A9
  6
CONTINUOUS
 62
7
100
AcDbLine
 10
487.3135860620382
 20
65.93657835746143
 30
0.0000000000000000
 11
484.2646223329488
 21
62.40644485102632
 31
0.0000000000000000
  0
LINE
  5
221
100
AcDbEntity
  8
A9
  6
CONTINUOUS
 62
7
100
AcDbLine
 10
486.1999850261801
 20
105.0000000000000
 30
0.0000000000000000
 11
486.1999850261801
 21
117.5000000000000
 31
0.0000000000000000
  0
LINE
  5
222
100
AcDbEntity
  8
A9
  6
CONTINUOUS
 62
7
100
AcDbLine
 10
482.9999850261801
 20
105.0000000000000
 30
0.0000000000000000
 11
482.9999850261801
 21
117.5000000000000
 31
0.0000000000000000
  0
LINE
  5
223
100
AcDbEntity
  8
A9
  6
CONTINUOUS
 62
7
100
AcDbLine
 10
486.1999850261801
 20
117.5000000000001
 30
0.0000000000000000
 11
482.9999850261801
 21
117.5000000000001
 31
0.0000000000000000
  0
LINE
  5
224
100
AcDbEntity
  8
A9
  6
CONTINUOUS
 62
7
100
AcDbLine
 10
493.0000000261800
 20
87.50000000000009
 30
0.0000000000000000
 11
490.9999850261801
 21
87.50000000000009
 31
0.0000000000000000
  0
LINE
  5
225
100
AcDbEntity
  8
A9
  6
CONTINUOUS
 62
7
100
AcDbLine
 10
490.9999850261801
 20
67.50000000000006
 30
0.0000000000000000
 11
493.0000000261800
 21
67.50000000000006
 31
0.0000000000000000
  0
LINE
  5
226
100
AcDbEntity
  8
A9
  6
CONTINUOUS
 62
7
100
AcDbLine
 10
493.0000000261800
 20
81.85889894354074
 30
0.0000000000000000
 11
493.0000000261800
 21
67.50000000000009
 31
0.0000000000000000
  0
LINE
  5
227
100
AcDbEntity
  8
A9
  6
CONTINUOUS
 62
7
100
AcDbLine
 10
493.0000000261800
 20
473.5000000000002
 30
0.0000000000000000
 11
490.9999850261801
 21
473.5000000000002
 31
0.0000000000000000
  0
LINE
  5
228
100
AcDbEntity
  8
A9
  6
CONTINUOUS
 62
7
100
AcDbLine
 10
490.9999850261801
 20
453.5000000000002
 30
0.0000000000000000
 11
493.0000000261800
 21
453.5000000000002
 31
0.0000000000000000
  0
LINE
  5
229
100
AcDbEntity
  8
A9
  6
CONTINUOUS
 62
7
100
AcDbLine
 10
493.0000000261800
 20
473.5000000000002
 30
0.0000000000000000
 11
493.0000000261800
 21
459.1411010564595
 31
0.0000000000000000
  0
LINE
  5
22A
100
AcDbEntity
  8
A9
  6
CONTINUOUS
 62
7
100
AcDbLine
 10
490.9999850261801
 20
473.5000000000002
 30
0.0000000000000000
 11
490.9999850261801
 21
453.5000000000002
 31
0.0000000000000000
  0
LINE
  5
22B
100
AcDbEntity
  8
A9
  6
CONTINUOUS
 62
7
100
AcDbLine
 10
496.6999970261800
 20
85.50000000000009
 30
0.0000000000000000
 11
496.1999970261801
 21
85.50000000000009
 31
0.0000000000000000
  0
LINE
  5
22C
100
AcDbEntity
  8
A9
  6
CONTINUOUS
 62
7
100
AcDbLine
 10
496.1999970261801
 20
69.50000000000006
 30
0.0000000000000000
 11
496.6999970261800
 21
69.50000000000006
 31
0.0000000000000000
  0
LINE
  5
22D
100
AcDbEntity
  8
A9
  6
CONTINUOUS
 62
7
100
AcDbLine
 10
496.6999970261799
 20
69.50000000000009
 30
0.0000000000000000
 11
496.6999970261799
 21
85.50000000000009
 31
0.0000000000000000
  0
LINE
  5
22E
100
AcDbEntity
  8
A9
  6
CONTINUOUS
 62
7
100
AcDbLine
 10
496.6999970261800
 20
471.5000000000002
 30
0.0000000000000000
 11
496.1999970261800
 21
471.5000000000002
 31
0.0000000000000000
  0
LINE
  5
22F
100
AcDbEntity
  8
A9
  6
CONTINUOUS
 62
7
100
AcDbLine
 10
496.1999970261800
 20
455.5000000000002
 30
0.0000000000000000
 11
496.6999970261800
 21
455.5000000000002
 31
0.0000000000000000
  0
LINE
  5
230
100
AcDbEntity
  8
A9
  6
CONTINUOUS
 62
7
100
AcDbLine
 10
496.6999970261799
 20
455.5000000000002
 30
0.0000000000000000
 11
496.6999970261799
 21
471.5000000000002
 31
0.0000000000000000
  0
ELLIPSE
  5
231
100
AcDbEntity
  8
A9
  6
CONTINUOUS
 62
7
100
AcDbEllipse
 10
502.0850283015302
 20
104.4297232896665
 30
0.0000000000000000
 11
3.065911231597429
 21
8.739080125708892
 31
0.0000000000000000
210
0.0000000000000000
220
0.0000000000000000
230
1.000000000000000
 40
0.3606766711266629
 41
3.684119773990131
 42
4.068630231247617
  0
ELLIPSE
  5
232
100
AcDbEntity
  8
A9
  6
CONTINUOUS
 62
7
100
AcDbEllipse
 10
502.0850283015302
 20
108.9077559034719
 30
0.0000000000000000
 11
3.065911231597433
 21
8.739080125708906
 31
0.0000000000000000
210
0.0000000000000000
220
0.0000000000000000
230
1.000000000000000
 40
0.3606766711266622
 41
3.684119773990116
 42
3.839213513162991
  0
ELLIPSE
  5
233
100
AcDbEntity
  8
A9
  6
CONTINUOUS
 62
7
100
AcDbEllipse
 10
502.0850283015302
 20
436.5702797103336
 30
0.0000000000000000
 11
-3.065911231597330
 21
8.739080125708616
 31
0.0000000000000000
210
0.0000000000000000
220
0.0000000000000000
230
1.000000000000000
 40
0.3606766711266626
 41
5.356147729521760
 42
5.740658186779148
  0
ELLIPSE
  5
234
100
AcDbEntity
  8
A9
  6
CONTINUOUS
 62
7
100
AcDbEllipse
 10
502.0850283015302
 20
432.0922440965279
 30
0.0000000000000000
 11
-3.065911231597332
 21
8.739080125708616
 31
0.0000000000000000
210
0.0000000000000000
220
0.0000000000000000
230
1.000000000000000
 40
0.3606766711266625
 41
5.585564447606530
 42
5.740658186779213
  0
ARC
  5
235
100
AcDbEntity
  8
A9
  6
CONTINUOUS
 62
7
100
AcDbCircle
 10
498.0000000261800
 20
443.7399803852970
 30
0.0000000000000000
 40
5.000000000000000
100
AcDbArc
 50
179.9998569786408
 51
238.0918586725645
  0
ARC
  5
236
100
AcDbEntity
  8
A9
  6
CONTINUOUS
 62
7
100
AcDbCircle
 10
492.4999999999999
 20
216.0000000000001
 30
0.0000000000000000
 40
1.000000000000000
100
AcDbArc
 50
270.0000000000000
 51
450.0000000000000
  0
ARC
  5
237
100
AcDbEntity
  8
A9
  6
CONTINUOUS
 62
7
100
AcDbCircle
 10
507.5000000000000
 20
216.0000000000001
 30
0.0000000000000000
 40
1.000000000000000
100
AcDbArc
 50
90.00000000000000
 51
270.0000000000000
  0
ARC
  5
238
100
AcDbEntity
  8
A9
  6
CONTINUOUS
 62
7
100
AcDbCircle
 10
492.4999999999999
 20
229.5000000000001
 30
0.0000000000000000
 40
1.000000000000000
100
AcDbArc
 50
270.0000000000000
 51
450.0000029999997
  0
ARC
  5
239
100
AcDbEntity
  8
A9
  6
CONTINUOUS
 62
7
100
AcDbCircle
 10
507.5000000000000
 20
229.5000000000001
 30
0.0000000000000000
 40
1.000000000000000
100
AcDbArc
 50
89.99999700000036
 51
270.0000000000000
  0
ARC
  5
23A
100
AcDbEntity
  8
A9
  6
CONTINUOUS
 62
7
100
AcDbCircle
 10
498.0000000261800
 20
444.5000000000002
 30
0.0000000000000000
 40
5.000000000000000
100
AcDbArc
 50
179.9999999999977
 51
270.0000000000000
  0
ARC
  5
23B
100
AcDbEntity
  8
A9
  6
CONTINUOUS
 62
7
100
AcDbCircle
 10
498.0000000261800
 20
96.50000000000006
 30
0.0000000000000000
 40
5.000000000000000
100
AcDbArc
 50
90.00000000000000
 51
180.0000000000000
  0
LINE
  5
23C
100
AcDbEntity
  8
A9
  6
CONTINUOUS
 62
7
100
AcDbLine
 10
498.0000000261800
 20
101.5000000000000
 30
0.0000000000000000
 11
496.5000000261799
 21
101.5000000000000
 31
0.0000000000000000
  0
LINE
  5
23D
100
AcDbEntity
  8
A9
  6
CONTINUOUS
 62
7
100
AcDbLine
 10
496.5000000261799
 20
209.5000000000001
 30
0.0000000000000000
 11
496.5000000261799
 21
101.5000000000001
 31
0.0000000000000000
  0
LINE
  5
23E
100
AcDbEntity
  8
A9
  6
CONTINUOUS
 62
7
100
AcDbLine
 10
503.5000000261799
 20
101.5000000000001
 30
0.0000000000000000
 11
503.5000000261799
 21
209.5000000000001
 31
0.0000000000000000
  0
LINE
  5
23F
100
AcDbEntity
  8
A9
  6
CONTINUOUS
 62
7
100
AcDbLine
 10
493.0000000261800
 20
443.7399802319108
 30
0.0000000000000000
 11
493.0000000261800
 21
444.5000000000003
 31
0.0000000000000000
  0
LINE
  5
240
100
AcDbEntity
  8
A9
  6
CONTINUOUS
 62
7
100
AcDbLine
 10
506.5000000000000
 20
209.5000000000001
 30
0.0000000000000000
 11
493.4999999999999
 21
209.5000000000001
 31
0.0000000000000000
  0
LINE
  5
241
100
AcDbEntity
  8
A9
  6
CONTINUOUS
 62
7
100
AcDbLine
 10
493.4999999999999
 20
210.5000000000001
 30
0.0000000000000000
 11
493.4999999999999
 21
209.5000000000001
 31
0.0000000000000000
  0
LINE
  5
242
100
AcDbEntity
  8
A9
  6
CONTINUOUS
 62
7
100
AcDbLine
 10
506.5000000000000
 20
209.5000000000001
 30
0.0000000000000000
 11
506.5000000000000
 21
210.5000000000001
 31
0.0000000000000000
  0
LINE
  5
243
100
AcDbEntity
  8
A9
  6
CONTINUOUS
 62
7
100
AcDbLine
 10
507.5000000000000
 20
217.0000000000001
 30
0.0000000000000000
 11
492.4999999999999
 21
217.0000000000001
 31
0.0000000000000000
  0
LINE
  5
244
100
AcDbEntity
  8
A9
  6
CONTINUOUS
 62
7
100
AcDbLine
 10
492.4999999999999
 20
228.5000000000001
 30
0.0000000000000000
 11
492.4999999999999
 21
217.0000000000001
 31
0.0000000000000000
  0
LINE
  5
245
100
AcDbEntity
  8
A9
  6
CONTINUOUS
 62
7
100
AcDbLine
 10
507.5000000000000
 20
217.0000000000001
 30
0.0000000000000000
 11
507.5000000000000
 21
228.5000000000001
 31
0.0000000000000000
  0
LINE
  5
246
100
AcDbEntity
  8
A9
  6
CONTINUOUS
 62
7
100
AcDbLine
 10
507.5000000000000
 20
215.0000000000001
 30
0.0000000000000000
 11
492.4999999999999
 21
215.0000000000001
 31
0.0000000000000000
  0
LINE
  5
247
100
AcDbEntity
  8
A9
  6
CONTINUOUS
 62
7
100
AcDbLine
 10
507.5000000000000
 20
210.5000000000001
 30
0.0000000000000000
 11
492.4999999999999
 21
210.5000000000001
 31
0.0000000000000000
  0
LINE
  5
248
100
AcDbEntity
  8
A9
  6
CONTINUOUS
 62
7
100
AcDbLine
 10
492.4999999999999
 20
215.0000000000001
 30
0.0000000000000000
 11
492.4999999999999
 21
210.5000000000001
 31
0.0000000000000000
  0
LINE
  5
249
100
AcDbEntity
  8
A9
  6
CONTINUOUS
 62
7
100
AcDbLine
 10
507.5000000000000
 20
210.5000000000001
 30
0.0000000000000000
 11
507.5000000000000
 21
215.0000000000001
 31
0.0000000000000000
  0
LINE
  5
24A
100
AcDbEntity
  8
A9
  6
CONTINUOUS
 62
7
100
AcDbLine
 10
507.5000000000000
 20
228.5000000000001
 30
0.0000000000000000
 11
492.5000000000538
 21
228.5000000000001
 31
0.0000000000000000
  0
LINE
  5
24B
100
AcDbEntity
  8
A9
  6
CONTINUOUS
 62
7
100
AcDbLine
 10
507.5000000523600
 20
230.5000000000001
 30
0.0000000000000000
 11
492.4999999476400
 21
230.5000000000001
 31
0.0000000000000000
  0
LINE
  5
24C
100
AcDbEntity
  8
A9
  6
CONTINUOUS
 62
7
100
AcDbLine
 10
492.5000000000000
 20
437.0000000000002
 30
0.0000000000000000
 11
492.5000000000000
 21
230.5000000000000
 31
0.0000000000000000
  0
LINE
  5
24D
100
AcDbEntity
  8
A9
  6
CONTINUOUS
 62
7
100
AcDbLine
 10
507.5000000523601
 20
230.5000000000000
 30
0.0000000000000000
 11
507.5000000523601
 21
437.0000000000002
 31
0.0000000000000000
  0
LINE
  5
24E
100
AcDbEntity
  8
A9
  6
CONTINUOUS
 62
7
100
AcDbLine
 10
498.0000000261800
 20
439.5000000000002
 30
0.0000000000000000
 11
495.0000000261800
 21
439.5000000000002
 31
0.0000000000000000
  0
LINE
  5
24F
100
AcDbEntity
  8
A9
  6
CONTINUOUS
 62
7
100
AcDbLine
 10
495.0000000261801
 20
439.5000000000002
 30
0.0000000000000000
 11
492.2500000000001
 21
438.0000000000002
 31
0.0000000000000000
  0
LINE
  5
250
100
AcDbEntity
  8
A9
  6
CONTINUOUS
 62
7
100
AcDbLine
 10
507.7500000523600
 20
438.0000000000002
 30
0.0000000000000000
 11
505.0000000261800
 21
439.5000000000002
 31
0.0000000000000000
  0
LINE
  5
251
100
AcDbEntity
  8
A9
  6
CONTINUOUS
 62
7
100
AcDbLine
 10
507.7500000523600
 20
437.0000000000002
 30
0.0000000000000000
 11
492.2500000000001
 21
437.0000000000002
 31
0.0000000000000000
  0
LINE
  5
252
100
AcDbEntity
  8
A9
  6
CONTINUOUS
 62
7
100
AcDbLine
 10
507.7500000523600
 20
438.0000000000002
 30
0.0000000000000000
 11
492.2500000000001
 21
438.0000000000002
 31
0.0000000000000000
  0
LINE
  5
253
100
AcDbEntity
  8
A9
  6
CONTINUOUS
 62
7
100
AcDbLine
 10
492.2500000000001
 20
438.0000000000002
 30
0.0000000000000000
 11
492.2500000000001
 21
437.0000000000002
 31
0.0000000000000000
  0
LINE
  5
254
100
AcDbEntity
  8
A9
  6
CONTINUOUS
 62
7
100
AcDbLine
 10
507.7500000523600
 20
437.0000000000002
 30
0.0000000000000000
 11
507.7500000523600
 21
438.0000000000002
 31
0.0000000000000000
  0
LINE
  5
255
100
AcDbEntity
  8
A9
  6
CONTINUOUS
 62
7
100
AcDbLine
 10
506.2780430246185
 20
98.30000300000006
 30
0.0000000000000000
 11
507.4999960261802
 21
98.30000300000006
 31
0.0000000000000000
  0
LINE
  5
256
100
AcDbEntity
  8
A9
  6
CONTINUOUS
 62
7
100
AcDbLine
 10
507.4999960261802
 20
98.30000300000009
 30
0.0000000000000000
 11
507.4999960261802
 21
101.5000000000000
 31
0.0000000000000000
  0
LINE
  5
257
100
AcDbEntity
  8
A9
  6
CONTINUOUS
 62
7
100
AcDbLine
 10
507.4999960261802
 20
101.5000000000000
 30
0.0000000000000000
 11
506.2780430246185
 21
101.5000000000000
 31
0.0000000000000000
  0
LINE
  5
258
100
AcDbEntity
  8
A9
  6
CONTINUOUS
 62
7
100
AcDbLine
 10
507.4999960261800
 20
439.5000000000002
 30
0.0000000000000000
 11
507.4999960261800
 21
442.7000000000003
 31
0.0000000000000000
  0
LINE
  5
259
100
AcDbEntity
  8
A9
  6
CONTINUOUS
 62
7
100
AcDbLine
 10
507.4999960261800
 20
439.5000000000002
 30
0.0000000000000000
 11
506.2780430246185
 21
439.5000000000002
 31
0.0000000000000000
  0
LINE
  5
25A
100
AcDbEntity
  8
A9
  6
CONTINUOUS
 62
7
100
AcDbLine
 10
507.4999960261800
 20
442.7000000000001
 30
0.0000000000000000
 11
506.2780430246185
 21
442.7000000000001
 31
0.0000000000000000
  0
LINE
  5
25B
100
AcDbEntity
  8
A9
  6
CONTINUOUS
 62
7
100
AcDbLine
 10
493.0000000261801
 20
68.50000000000003
 30
0.0000000000000000
 11
496.1999970261800
 21
68.50000000000003
 31
0.0000000000000000
  0
LINE
  5
25C
100
AcDbEntity
  8
A9
  6
CONTINUOUS
 62
7
100
AcDbLine
 10
496.1999970261800
 20
68.50000000000006
 30
0.0000000000000000
 11
496.1999970261800
 21
77.50000000000006
 31
0.0000000000000000
  0
LINE
  5
25D
100
AcDbEntity
  8
A9
  6
CONTINUOUS
 62
7
100
AcDbLine
 10
496.1999970261800
 20
89.50000000000004
 30
0.0000000000000000
 11
496.1999970261799
 21
77.50000000000006
 31
0.0000000000000000
  0
LINE
  5
25E
100
AcDbEntity
  8
A9
  6
CONTINUOUS
 62
7
100
AcDbLine
 10
493.0000000261800
 20
89.50000000000004
 30
0.0000000000000000
 11
493.0000000261800
 21
81.85889894354074
 31
0.0000000000000000
  0
LINE
  5
25F
100
AcDbEntity
  8
A9
  6
CONTINUOUS
 62
7
100
AcDbLine
 10
496.1999970261800
 20
451.5000000000002
 30
0.0000000000000000
 11
496.1999970261800
 21
463.5000000000002
 31
0.0000000000000000
  0
LINE
  5
260
100
AcDbEntity
  8
A9
  6
CONTINUOUS
 62
7
100
AcDbLine
 10
493.0000000261800
 20
451.5000000000002
 30
0.0000000000000000
 11
493.0000000261800
 21
459.1411010564595
 31
0.0000000000000000
  0
LINE
  5
261
100
AcDbEntity
  8
A9
  6
CONTINUOUS
 62
7
100
AcDbLine
 10
496.1999970261800
 20
472.5000000000002
 30
0.0000000000000000
 11
493.0000000261800
 21
472.5000000000002
 31
0.0000000000000000
  0
LINE
  5
262
100
AcDbEntity
  8
A9
  6
CONTINUOUS
 62
7
100
AcDbLine
 10
496.1999970261800
 20
472.5000000000002
 30
0.0000000000000000
 11
496.1999970261800
 21
463.5000000000002
 31
0.0000000000000000
  0
LINE
  5
263
100
AcDbEntity
  8
A9
  6
CONTINUOUS
 62
7
100
AcDbLine
 10
496.1999970261801
 20
89.50000000000004
 30
0.0000000000000000
 11
496.1999970261801
 21
92.28404552433045
 31
0.0000000000000000
  0
LINE
  5
264
100
AcDbEntity
  8
A9
  6
CONTINUOUS
 62
7
100
AcDbLine
 10
496.1999970261801
 20
89.50000000000004
 30
0.0000000000000000
 11
493.0000000261800
 21
89.50000000000004
 31
0.0000000000000000
  0
LINE
  5
265
100
AcDbEntity
  8
A9
  6
CONTINUOUS
 62
7
100
AcDbLine
 10
496.1999970261800
 20
451.5000000000002
 30
0.0000000000000000
 11
496.1999970261800
 21
448.7159544756699
 31
0.0000000000000000
  0
LINE
  5
266
100
AcDbEntity
  8
A9
  6
CONTINUOUS
 62
7
100
AcDbLine
 10
496.1999970261800
 20
451.5000000000002
 30
0.0000000000000000
 11
493.0000000261800
 21
451.5000000000002
 31
0.0000000000000000
  0
LINE
  5
267
100
AcDbEntity
  8
A9
  6
CONTINUOUS
 62
7
100
AcDbLine
 10
501.0867359068428
 20
96.37458887284089
 30
0.0000000000000000
 11
496.1999970261800
 21
92.30642438814408
 31
0.0000000000000000
  0
LINE
  5
268
100
AcDbEntity
  8
A9
  6
CONTINUOUS
 62
7
100
AcDbLine
 10
493.0000000261800
 20
89.50000000000006
 30
0.0000000000000000
 11
493.0000000261799
 21
94.12048938173385
 31
0.0000000000000000
  0
LINE
  5
269
100
AcDbEntity
  8
A9
  6
CONTINUOUS
 62
7
100
AcDbLine
 10
496.1999970261801
 20
92.28404552433045
 30
0.0000000000000000
 11
493.0000000261801
 21
89.50000000000011
 31
0.0000000000000000
  0
LINE
  5
26A
100
AcDbEntity
  8
A9
  6
CONTINUOUS
 62
7
100
AcDbLine
 10
496.1999970261800
 20
92.28404552433045
 30
0.0000000000000000
 11
496.1999970261800
 21
92.30642438814405
 31
0.0000000000000000
  0
LINE
  5
26B
100
AcDbEntity
  8
A9
  6
CONTINUOUS
 62
7
100
AcDbLine
 10
496.1999970261802
 20
448.6935786118563
 30
0.0000000000000000
 11
501.0867359068432
 21
444.6254141271587
 31
0.0000000000000000
  0
LINE
  5
26C
100
AcDbEntity
  8
A9
  6
CONTINUOUS
 62
7
100
AcDbLine
 10
496.1999970261800
 20
448.7159544756699
 30
0.0000000000000000
 11
496.1999970261801
 21
448.6935786118561
 31
0.0000000000000000
  0
LINE
  5
26D
100
AcDbEntity
  8
A9
  6
CONTINUOUS
 62
7
100
AcDbLine
 10
496.1999970261801
 20
448.7159544756699
 30
0.0000000000000000
 11
493.0000000261801
 21
451.5000000000002
 31
0.0000000000000000
  0
LINE
  5
26E
100
AcDbEntity
  8
A9
  6
CONTINUOUS
 62
7
100
AcDbLine
 10
493.0000000261800
 20
451.5000000000002
 30
0.0000000000000000
 11
493.0000000261801
 21
446.8795106182666
 31
0.0000000000000000
  0
LINE
  5
26F
100
AcDbEntity
  8
A9
  6
CONTINUOUS
 62
7
100
AcDbLine
 10
498.0000000261800
 20
439.5000000000002
 30
0.0000000000000000
 11
501.7602190822880
 21
439.5000000000002
 31
0.0000000000000000
  0
LINE
  5
270
100
AcDbEntity
  8
A9
  6
CONTINUOUS
 62
7
100
AcDbLine
 10
493.0000000261803
 20
446.8795106182666
 30
0.0000000000000000
 11
501.0867359068430
 21
440.1473785133533
 31
0.0000000000000000
  0
LINE
  5
271
100
AcDbEntity
  8
A9
  6
CONTINUOUS
 62
7
100
AcDbLine
 10
493.0000000261800
 20
444.5000000000002
 30
0.0000000000000000
 11
493.0000000261801
 21
446.8795106182665
 31
0.0000000000000000
  0
LINE
  5
272
100
AcDbEntity
  8
A9
  6
CONTINUOUS
 62
7
100
AcDbLine
 10
501.7602190822885
 20
101.5000000000000
 30
0.0000000000000000
 11
498.0000000261800
 21
101.5000000000000
 31
0.0000000000000000
  0
LINE
  5
273
100
AcDbEntity
  8
A9
  6
CONTINUOUS
 62
7
100
AcDbLine
 10
501.0867359068429
 20
100.8526214866461
 30
0.0000000000000000
 11
493.0000000261800
 21
94.12048938173388
 31
0.0000000000000000
  0
LINE
  5
274
100
AcDbEntity
  8
A9
  6
CONTINUOUS
 62
7
100
AcDbLine
 10
493.0000000261799
 20
94.12048938173385
 30
0.0000000000000000
 11
493.0000000261800
 21
96.50000000000006
 31
0.0000000000000000
  0
LINE
  5
275
100
AcDbEntity
  8
A9
  6
CONTINUOUS
 62
7
100
AcDbLine
 10
502.7659482340815
 20
98.30000300000009
 30
0.0000000000000000
 11
506.2780430246185
 21
98.30000300000009
 31
0.0000000000000000
  0
LINE
  5
276
100
AcDbEntity
  8
A9
  6
CONTINUOUS
 62
7
100
AcDbLine
 10
501.7602190822885
 20
101.5000000000000
 30
0.0000000000000000
 11
506.2780430246185
 21
101.5000000000000
 31
0.0000000000000000
  0
LINE
  5
277
100
AcDbEntity
  8
A9
  6
CONTINUOUS
 62
7
100
AcDbLine
 10
501.7602190822880
 20
439.5000000000002
 30
0.0000000000000000
 11
506.2780430246183
 21
439.5000000000002
 31
0.0000000000000000
  0
LINE
  5
278
100
AcDbEntity
  8
A9
  6
CONTINUOUS
 62
7
100
AcDbLine
 10
506.2780430246183
 20
442.7000000000003
 30
0.0000000000000000
 11
502.7659482340827
 21
442.7000000000003
 31
0.0000000000000000
  0
LINE
  5
279
100
AcDbEntity
  8
A0
  6
CENTER
 62
1
100
AcDbLine
 10
199.9999999999999
 20
475.0000000000002
 30
0.0000000000000000
 11
199.9999999999999
 21
36.00000000000028
 31
0.0000000000000000
  0
LINE
  5
27A
100
AcDbEntity
  8
A0
  6
CENTER
 62
1
100
AcDbLine
 10
49.99999999999991
 20
475.0000000000001
 30
0.0000000000000000
 11
50.00000000000000
 21
36.00000000000029
 31
0.0000000000000000
  0
LINE
  5
27B
100
AcDbEntity
  8
A0
  6
CENTER
 62
1
100
AcDbLine
 10
349.9999999999999
 20
475.0000000000002
 30
0.0000000000000000
 11
349.9999999999999
 21
36.00000000000028
 31
0.0000000000000000
  0
LINE
  5
27C
100
AcDbEntity
  8
A0
  6
CENTER
 62
1
100
AcDbLine
 10
500.0000000000000
 20
475.0000000000002
 30
0.0000000000000000
 11
500.0000000000000
 21
36.00000000000028
 31
0.0000000000000000
  0
LINE
  5
27D
100
AcDbEntity
  8
A4
  6
CENTER
 62
1
100
AcDbLine
 10
234.5000150261800
 20
483.5000000000002
 30
0.0000000000000000
 11
211.5000150261800
 21
483.5000000000002
 31
0.0000000000000000
  0
LINE
  5
27E
100
AcDbEntity
  8
A4
  6
CENTER
 62
1
100
AcDbLine
 10
223.0000150261800
 20
495.0000000000002
 30
0.0000000000000000
 11
223.0000150261800
 21
432.0000000000002
 31
0.0000000000000000
  0
LINE
  5
27F
100
AcDbEntity
  8
A0
  6
CENTER
 62
1
100
AcDbLine
 10
190.7500000000000
 20
563.5000000000002
 30
0.0000000000000000
 11
218.5000150261800
 21
563.5000000000002
 31
0.0000000000000000
  0
LINE
  5
280
100
AcDbEntity
  8
A0
  6
CENTER
 62
1
100
AcDbLine
 10
200.0000000000000
 20
554.2499999738202
 30
0.0000000000000000
 11
200.0000000000000
 21
572.7500000261803
 31
0.0000000000000000
  0
LINE
  5
281
100
AcDbEntity
  8
A0
  6
CENTER
 62
1
100
AcDbLine
 10
223.0000150261800
 20
548.0000000000003
 30
0.0000000000000000
 11
223.0000150261800
 21
554.2000000000002
 31
0.0000000000000000
  0
LINE
  5
282
100
AcDbEntity
  8
A4
  6
CENTER
 62
1
100
AcDbLine
 10
234.5000150261800
 20
443.5000000000002
 30
0.0000000000000000
 11
211.5000150261800
 21
443.5000000000002
 31
0.0000000000000000
  0
LINE
  5
283
100
AcDbEntity
  8
A5
  6
CENTER
 62
1
100
AcDbLine
 10
364.0000000261799
 20
105.0000000000001
 30
0.0000000000000000
 11
336.0000000261799
 21
105.0000000000001
 31
0.0000000000000000
  0
LINE
  5
284
100
AcDbEntity
  8
A5
  6
CENTER
 62
1
100
AcDbLine
 10
364.0000000261799
 20
50.00000000000006
 30
0.0000000000000000
 11
336.0000000261799
 21
50.00000000000006
 31
0.0000000000000000
  0
LINE
  5
285
100
AcDbEntity
  8
A5
  6
CENTER
 62
1
100
AcDbLine
 10
364.0000000261799
 20
77.50000000000009
 30
0.0000000000000000
 11
336.0000000261799
 21
77.50000000000009
 31
0.0000000000000000
  0
LINE
  5
286
100
AcDbEntity
  8
A0
  6
CENTER
 62
1
100
AcDbLine
 10
218.5000150261800
 20
77.50000000000004
 30
0.0000000000000000
 11
198.8000030261801
 21
77.50000000000006
 31
0.0000000000000000
  0
LINE
  5
287
100
AcDbEntity
  8
A0
  6
CENTER
 62
1
100
AcDbLine
 10
218.5000150261800
 20
105.0000000000000
 30
0.0000000000000000
 11
212.3000150261799
 21
105.0000000000000
 31
0.0000000000000000
  0
LINE
  5
288
100
AcDbEntity
  8
A0
  6
CENTER
 62
1
100
AcDbLine
 10
218.5000150261800
 20
50.00000000000002
 30
0.0000000000000000
 11
212.3000150261800
 21
50.00000000000002
 31
0.0000000000000000
  0
LINE
  5
289
100
AcDbEntity
  8
A0
  6
CENTER
 62
1
100
AcDbLine
 10
65.50000002617986
 20
483.5000000000002
 30
0.0000000000000000
 11
59.30000002618002
 21
483.5000000000002
 31
0.0000000000000000
  0
LINE
  5
28A
100
AcDbEntity
  8
A0
  6
CENTER
 62
1
100
AcDbLine
 10
65.50000002617986
 20
443.5000000000002
 30
0.0000000000000000
 11
59.30000002617999
 21
443.5000000000002
 31
0.0000000000000000
  0
LINE
  5
28B
100
AcDbEntity
  8
A7
  6
CENTER
 62
1
100
AcDbLine
 10
61.50000002617995
 20
463.5000000000001
 30
0.0000000000000000
 11
38.50000002617995
 21
463.5000000000001
 31
0.0000000000000000
  0
LINE
  5
28C
100
AcDbEntity
  8
A0
  6
CENTER
 62
1
100
AcDbLine
 10
198.8000030261801
 20
463.5000000000001
 30
0.0000000000000000
 11
218.5000150261800
 21
463.5000000000001
 31
0.0000000000000000
  0
LINE
  5
28D
100
AcDbEntity
  8
A0
  6
CENTER
 62
1
100
AcDbLine
 10
190.7500000000000
 20
-22.49999999999994
 30
0.0000000000000000
 11
218.5000150261799
 21
-22.49999999999994
 31
0.0000000000000000
  0
LINE
  5
28E
100
AcDbEntity
  8
A0
  6
CENTER
 62
1
100
AcDbLine
 10
334.5000000261801
 20
483.5000000000002
 30
0.0000000000000000
 11
340.7000000261800
 21
483.5000000000002
 31
0.0000000000000000
  0
LINE
  5
28F
100
AcDbEntity
  8
A0
  6
CENTER
 62
1
100
AcDbLine
 10
334.5000000261801
 20
443.5000000000002
 30
0.0000000000000000
 11
340.7000000261799
 21
443.5000000000002
 31
0.0000000000000000
  0
LINE
  5
290
100
AcDbEntity
  8
A9
  6
CENTER
 62
1
100
AcDbLine
 10
488.4999850261800
 20
483.5000000000002
 30
0.0000000000000000
 11
465.4999850261800
 21
483.5000000000002
 31
0.0000000000000000
  0
LINE
  5
291
100
AcDbEntity
  8
A9
  6
CENTER
 62
1
100
AcDbLine
 10
476.9999850261800
 20
495.0000000000002
 30
0.0000000000000000
 11
476.9999850261800
 21
432.0000000000002
 31
0.0000000000000000
  0
LINE
  5
292
100
AcDbEntity
  8
A9
  6
CENTER
 62
1
100
AcDbLine
 10
488.4999850261800
 20
443.5000000000002
 30
0.0000000000000000
 11
465.4999850261800
 21
443.5000000000002
 31
0.0000000000000000
  0
LINE
  5
293
100
AcDbEntity
  8
A0
  6
CENTER
 62
1
100
AcDbLine
 10
334.5000000261801
 20
463.5000000000001
 30
0.0000000000000000
 11
361.5000000261800
 21
463.5000000000001
 31
0.0000000000000000
  0
LINE
  5
294
100
AcDbEntity
  8
A0
  6
CENTER
 62
1
100
AcDbLine
 10
485.4999970261798
 20
463.5000000000001
 30
0.0000000000000000
 11
501.1999970261799
 21
463.5000000000001
 31
0.0000000000000000
  0
LINE
  5
295
100
AcDbEntity
  8
A0
  6
CENTER
 62
1
100
AcDbLine
 10
481.4999850261801
 20
105.0000000000000
 30
0.0000000000000000
 11
487.6999850261801
 21
105.0000000000000
 31
0.0000000000000000
  0
LINE
  5
296
100
AcDbEntity
  8
A0
  6
CENTER
 62
1
100
AcDbLine
 10
481.4999850261801
 20
77.50000000000006
 30
0.0000000000000000
 11
501.1999970261799
 21
77.50000000000006
 31
0.0000000000000000
  0
LINE
  5
297
100
AcDbEntity
  8
A0
  6
CENTER
 62
1
100
AcDbLine
 10
481.4999850261801
 20
50.00000000000003
 30
0.0000000000000000
 11
487.6999850261801
 21
50.00000000000003
 31
0.0000000000000000
  0
LINE
  5
298
100
AcDbEntity
  8
A0
  6
CENTER
 62
1
100
AcDbLine
 10
223.0000150261799
 20
-7.000000000000057
 30
0.0000000000000000
 11
223.0000150261799
 21
-13.19999999999990
 31
0.0000000000000000
  0
LINE
  5
299
100
AcDbEntity
  8
A0
  6
CENTER
 62
1
100
AcDbLine
 10
199.9999999999999
 20
-13.24999997382003
 30
0.0000000000000000
 11
199.9999999999999
 21
-31.75000002617999
 31
0.0000000000000000
  0
POINT
  5
29A
100
AcDbEntity
  8
A0
  6
CONTINUOUS
 62
5
100
AcDbPoint
 10
199.9999999999999
 20
77.50000000000006
 30
0.0000000000000000
  0
LINE
  5
29B
100
AcDbEntity
  8
A4
  6
PHANTOM
 62
1
100
AcDbLine
 10
213.8000150261799
 20
87.50000000000000
 30
0.0000000000000000
 11
217.0000150261799
 21
87.50000000000000
 31
0.0000000000000000
  0
POINT
  5
29C
100
AcDbEntity
  8
A0
  6
CONTINUOUS
 62
5
100
AcDbPoint
 10
349.9999999999999
 20
77.50000000000009
 30
0.0000000000000000
  0
CIRCLE
  5
29D
100
AcDbEntity
  8
A7
  6
CONTINUOUS
 62
7
100
AcDbCircle
 10
50.00000002618003
 20
77.50000000000003
 30
0.0000000000000000
 40
8.000000000000007
  0
CIRCLE
  5
29E
100
AcDbEntity
  8
A7
  6
CONTINUOUS
 62
7
100
AcDbCircle
 10
50.00000002618009
 20
50.00000000000000
 30
0.0000000000000000
 40
3.500000000000000
  0
ARC
  5
29F
100
AcDbEntity
  8
A7
  6
CONTINUOUS
 62
7
100
AcDbCircle
 10
50.00000002618009
 20
50.00000000000000
 30
0.0000000000000000
 40
12.50000000000000
100
AcDbArc
 50
180.0000000000000
 51
360.0000000000000
  0
ARC
  5
2A0
100
AcDbEntity
  8
A7
  6
CONTINUOUS
 62
7
100
AcDbCircle
 10
50.00000002618006
 20
105.0000000000000
 30
0.0000000000000000
 40
12.50000000000000
100
AcDbArc
 50
0.0000000000000000
 51
73.73979529168828
  0
ARC
  5
2A1
100
AcDbEntity
  8
A7
  6
CONTINUOUS
 62
7
100
AcDbCircle
 10
50.00000002618006
 20
105.0000000000000
 30
0.0000000000000000
 40
12.50000000000000
100
AcDbArc
 50
106.2602047083122
 51
180.0000000000000
  0
LINE
  5
2A2
100
AcDbEntity
  8
A7
  6
CONTINUOUS
 62
7
100
AcDbLine
 10
62.50000002618010
 20
49.99999999999999
 30
0.0000000000000000
 11
62.50000002617995
 21
59.00748611742517
 31
0.0000000000000000
  0
LINE
  5
2A3
100
AcDbEntity
  8
A7
  6
CONTINUOUS
 62
7
100
AcDbLine
 10
37.50000002618007
 20
49.99999999999999
 30
0.0000000000000000
 11
37.50000002618004
 21
59.00748611742517
 31
0.0000000000000000
  0
LINE
  5
2A4
100
AcDbEntity
  8
A7
  6
CONTINUOUS
 62
7
100
AcDbLine
 10
62.50000002617995
 20
95.99251388257484
 30
0.0000000000000000
 11
62.50000002618008
 21
105.0000000000000
 31
0.0000000000000000
  0
LINE
  5
2A5
100
AcDbEntity
  8
A7
  6
CONTINUOUS
 62
7
100
AcDbLine
 10
37.50000002618006
 20
95.99251388257487
 30
0.0000000000000000
 11
37.50000002618009
 21
105.0000000000000
 31
0.0000000000000000
  0
LINE
  5
2A6
100
AcDbEntity
  8
A7
  6
CONTINUOUS
 62
7
100
AcDbLine
 10
62.50000002617995
 20
95.99251388257485
 30
0.0000000000000000
 11
62.50000002617995
 21
94.68522206195904
 31
0.0000000000000000
  0
LINE
  5
2A7
100
AcDbEntity
  8
A7
  6
CONTINUOUS
 62
7
100
AcDbLine
 10
37.50000002618003
 20
95.99251388257485
 30
0.0000000000000000
 11
37.50000002618003
 21
94.68522206195904
 31
0.0000000000000000
  0
LINE
  5
2A8
100
AcDbEntity
  8
A7
  6
CONTINUOUS
 62
7
100
AcDbLine
 10
62.50000002617995
 20
60.31477793804098
 30
0.0000000000000000
 11
62.50000002617995
 21
59.00748611742517
 31
0.0000000000000000
  0
LINE
  5
2A9
100
AcDbEntity
  8
A7
  6
CONTINUOUS
 62
7
100
AcDbLine
 10
37.50000002618006
 20
60.31477793804098
 30
0.0000000000000000
 11
37.50000002618006
 21
59.00748611742517
 31
0.0000000000000000
  0
LINE
  5
2AA
100
AcDbEntity
  8
A7
  6
CONTINUOUS
 62
7
100
AcDbLine
 10
62.50000002617995
 20
91.15508855552388
 30
0.0000000000000000
 11
62.50000002617995
 21
94.68522206195895
 31
0.0000000000000000
  0
LINE
  5
2AB
100
AcDbEntity
  8
A7
  6
CONTINUOUS
 62
7
100
AcDbLine
 10
37.50000002618003
 20
91.15508855552388
 30
0.0000000000000000
 11
37.50000002618003
 21
94.68522206195895
 31
0.0000000000000000
  0
LINE
  5
2AC
100
AcDbEntity
  8
A7
  6
CONTINUOUS
 62
7
100
AcDbLine
 10
62.50000002617995
 20
60.31477793804098
 30
0.0000000000000000
 11
62.50000002617995
 21
63.84491144447577
 31
0.0000000000000000
  0
LINE
  5
2AD
100
AcDbEntity
  8
A7
  6
CONTINUOUS
 62
7
100
AcDbLine
 10
37.50000002618006
 20
60.31477793804098
 30
0.0000000000000000
 11
37.50000002618006
 21
63.84491144447577
 31
0.0000000000000000
  0
LINE
  5
2AE
100
AcDbEntity
  8
A7
  6
CONTINUOUS
 62
7
100
AcDbLine
 10
62.50000002617995
 20
67.24387017807717
 30
0.0000000000000000
 11
62.50000002617995
 21
63.84491144447600
 31
0.0000000000000000
  0
LINE
  5
2AF
100
AcDbEntity
  8
A7
  6
CONTINUOUS
 62
7
100
AcDbLine
 10
37.50000002618006
 20
67.24387017807717
 30
0.0000000000000000
 11
37.50000002618006
 21
63.84491144447600
 31
0.0000000000000000
  0
LINE
  5
2B0
100
AcDbEntity
  8
A7
  6
CONTINUOUS
 62
7
100
AcDbLine
 10
62.50000002617995
 20
91.15508855552388
 30
0.0000000000000000
 11
62.50000002617995
 21
87.75612982192285
 31
0.0000000000000000
  0
LINE
  5
2B1
100
AcDbEntity
  8
A7
  6
CONTINUOUS
 62
7
100
AcDbLine
 10
37.50000002618004
 20
91.15508855552389
 30
0.0000000000000000
 11
37.50000002618005
 21
87.75612982192287
 31
0.0000000000000000
  0
LINE
  5
2B2
100
AcDbEntity
  8
A7
  6
CONTINUOUS
 62
7
100
AcDbLine
 10
62.50000002617995
 20
67.24387017807717
 30
0.0000000000000000
 11
62.50000002617995
 21
87.75612982192285
 31
0.0000000000000000
  0
LINE
  5
2B3
100
AcDbEntity
  8
A7
  6
CONTINUOUS
 62
7
100
AcDbLine
 10
37.50000002618006
 20
67.24387017807717
 30
0.0000000000000000
 11
37.50000002618006
 21
87.75612982192285
 31
0.0000000000000000
  0
ARC
  5
2B4
100
AcDbEntity
  8
A7
  6
CONTINUOUS
 62
7
100
AcDbCircle
 10
50.00000002618003
 20
77.50000000000006
 30
0.0000000000000000
 40
10.00000000000000
100
AcDbArc
 50
154.1580672368329
 51
270.0000000000000
  0
ARC
  5
2B5
100
AcDbEntity
  8
A7
  6
CONTINUOUS
 62
7
100
AcDbCircle
 10
50.00000002618003
 20
77.50000000000006
 30
0.0000000000000000
 40
10.00000000000000
100
AcDbArc
 50
270.0000000000000
 51
385.8419327631686
  0
ELLIPSE
  5
2B6
100
AcDbEntity
  8
A7
  6
CONTINUOUS
 62
7
100
AcDbEllipse
 10
56.60286410846092
 20
104.4297232896665
 30
0.0000000000000000
 11
3.781697070821764
 21
-8.755297220006735
 31
0.0000000000000000
210
0.0000000000000000
220
0.0000000000000000
230
1.000000000000000
 40
0.2562519795485876
 41
0.5354552625147506
 42
0.6909362774984394
  0
ELLIPSE
  5
2B7
100
AcDbEntity
  8
A7
  6
CONTINUOUS
 62
7
100
AcDbEllipse
 10
56.60286410846092
 20
104.4297232896665
 30
0.0000000000000000
 11
3.781697070821764
 21
-8.755297220006735
 31
0.0000000000000000
210
0.0000000000000000
220
0.0000000000000000
230
1.000000000000000
 40
0.2562519795485876
 41
0.3064258202410517
 42
0.5354552625147506
  0
ELLIPSE
  5
2B8
100
AcDbEntity
  8
A7
  6
CONTINUOUS
 62
7
100
AcDbEllipse
 10
43.39713594389914
 20
104.4297232896665
 30
0.0000000000000000
 11
-3.781697070821761
 21
-8.755297220006740
 31
0.0000000000000000
210
0.0000000000000000
220
0.0000000000000000
230
1.000000000000000
 40
0.2562519795485875
 41
5.747730044664832
 42
5.976759486938708
  0
ELLIPSE
  5
2B9
100
AcDbEntity
  8
A7
  6
CONTINUOUS
 62
7
100
AcDbEllipse
 10
43.39713594389914
 20
104.4297232896665
 30
0.0000000000000000
 11
-3.781697070821761
 21
-8.755297220006740
 31
0.0000000000000000
210
0.0000000000000000
220
0.0000000000000000
230
1.000000000000000
 40
0.2562519795485875
 41
5.592249029681151
 42
5.747730044664832
  0
ARC
  5
2BA
100
AcDbEntity
  8
A7
  6
CONTINUOUS
 62
7
100
AcDbCircle
 10
50.00000002618003
 20
77.50000000000003
 30
0.0000000000000000
 40
9.000000000000000
100
AcDbArc
 50
180.0000000000000
 51
360.0000050000003
  0
LINE
  5
2BB
100
AcDbEntity
  8
A7
  6
CONTINUOUS
 62
7
100
AcDbLine
 10
59.74598277611589
 20
92.30642438814382
 30
0.0000000000000000
 11
59.74598277611583
 21
92.28404552433082
 31
0.0000000000000000
  0
LINE
  5
2BC
100
AcDbEntity
  8
A7
  6
CONTINUOUS
 62
7
100
AcDbLine
 10
40.25401727624423
 20
92.28404552433044
 30
0.0000000000000000
 11
40.25401727624421
 21
92.30642438814404
 31
0.0000000000000000
  0
LINE
  5
2BD
100
AcDbEntity
  8
A7
  6
CONTINUOUS
 62
7
100
AcDbLine
 10
41.00000002618000
 20
89.49999999999999
 30
0.0000000000000000
 11
40.25401727624421
 21
92.28404552433041
 31
0.0000000000000000
  0
LINE
  5
2BE
100
AcDbEntity
  8
A7
  6
CONTINUOUS
 62
7
100
AcDbLine
 10
59.00000002618004
 20
77.50000078539824
 30
0.0000000000000000
 11
59.00000002617993
 21
89.50000000000001
 31
0.0000000000000000
  0
LINE
  5
2BF
100
AcDbEntity
  8
A7
  6
CONTINUOUS
 62
7
100
AcDbLine
 10
59.74598277611581
 20
92.28404552433082
 30
0.0000000000000000
 11
59.00000002617991
 21
89.50000000000000
 31
0.0000000000000000
  0
LINE
  5
2C0
100
AcDbEntity
  8
A7
  6
CONTINUOUS
 62
7
100
AcDbLine
 10
41.00000002618003
 20
89.50000000000001
 30
0.0000000000000000
 11
41.00000002618004
 21
77.50000000000003
 31
0.0000000000000000
  0
LINE
  5
2C1
100
AcDbEntity
  8
A7
  6
CONTINUOUS
 62
7
100
AcDbLine
 10
39.11482154936847
 20
96.37458887284080
 30
0.0000000000000000
 11
40.25401727624420
 21
92.30642438814399
 31
0.0000000000000000
  0
LINE
  5
2C2
100
AcDbEntity
  8
A7
  6
CONTINUOUS
 62
7
100
AcDbLine
 10
44.00000002618010
 20
98.30000300000002
 30
0.0000000000000000
 11
40.25401727624420
 21
92.30642438814399
 31
0.0000000000000000
  0
LINE
  5
2C3
100
AcDbEntity
  8
A7
  6
CONTINUOUS
 62
7
100
AcDbLine
 10
59.74598277611587
 20
92.30642438814384
 30
0.0000000000000000
 11
56.00000002617995
 21
98.30000300000003
 31
0.0000000000000000
  0
LINE
  5
2C4
100
AcDbEntity
  8
A7
  6
CONTINUOUS
 62
7
100
AcDbLine
 10
59.74598277611587
 20
92.30642438814380
 30
0.0000000000000000
 11
60.88517850299166
 21
96.37458887284140
 31
0.0000000000000000
  0
LINE
  5
2C5
100
AcDbEntity
  8
A7
  6
CONTINUOUS
 62
7
100
AcDbLine
 10
46.50000002618000
 20
209.5000000000001
 30
0.0000000000000000
 11
46.50000002618000
 21
101.5000000000000
 31
0.0000000000000000
  0
LINE
  5
2C6
100
AcDbEntity
  8
A7
  6
CONTINUOUS
 62
7
100
AcDbLine
 10
53.50000002618000
 20
101.5000000000000
 30
0.0000000000000000
 11
53.50000002618000
 21
209.5000000000001
 31
0.0000000000000000
  0
LINE
  5
2C7
100
AcDbEntity
  8
A7
  6
CONTINUOUS
 62
7
100
AcDbLine
 10
57.92703623128324
 20
98.30000300000006
 30
0.0000000000000000
 11
60.94695806742970
 21
98.30000300000006
 31
0.0000000000000000
  0
LINE
  5
2C8
100
AcDbEntity
  8
A7
  6
CONTINUOUS
 62
7
100
AcDbLine
 10
61.00000002618003
 20
97.39429852955092
 30
0.0000000000000000
 11
61.00000002618003
 21
101.5000000000000
 31
0.0000000000000000
  0
LINE
  5
2C9
100
AcDbEntity
  8
A7
  6
CONTINUOUS
 62
7
100
AcDbLine
 10
61.00000002618003
 20
101.5000000000000
 30
0.0000000000000000
 11
57.92703623128327
 21
101.5000000000000
 31
0.0000000000000000
  0
LINE
  5
2CA
100
AcDbEntity
  8
A7
  6
CONTINUOUS
 62
7
100
AcDbLine
 10
39.05304198493027
 20
98.30000300000006
 30
0.0000000000000000
 11
42.07296382107680
 21
98.30000300000006
 31
0.0000000000000000
  0
LINE
  5
2CB
100
AcDbEntity
  8
A7
  6
CONTINUOUS
 62
7
100
AcDbLine
 10
39.00000002618003
 20
101.5000000000000
 30
0.0000000000000000
 11
39.00000002618003
 21
97.39429852955092
 31
0.0000000000000000
  0
LINE
  5
2CC
100
AcDbEntity
  8
A7
  6
CONTINUOUS
 62
7
100
AcDbLine
 10
39.00000002618003
 20
101.5000000000000
 30
0.0000000000000000
 11
42.07296382107680
 21
101.5000000000000
 31
0.0000000000000000
  0
LINE
  5
2CD
100
AcDbEntity
  8
A7
  6
CONTINUOUS
 62
7
100
AcDbLine
 10
57.92703623128327
 20
101.5000000000000
 30
0.0000000000000000
 11
42.07296382107680
 21
101.5000000000000
 31
0.0000000000000000
  0
LINE
  5
2CE
100
AcDbEntity
  8
A7
  6
CONTINUOUS
 62
7
100
AcDbLine
 10
42.07296382107680
 20
98.30000300000003
 30
0.0000000000000000
 11
57.92703623128324
 21
98.30000300000003
 31
0.0000000000000000
  0
LINE
  5
2CF
100
AcDbEntity
  8
A7
  6
CENTER
 62
1
100
AcDbLine
 10
64.00000002618009
 20
50.00000000000000
 30
0.0000000000000000
 11
36.00000002618009
 21
50.00000000000000
 31
0.0000000000000000
  0
LINE
  5
2D0
100
AcDbEntity
  8
A0
  6
CENTER
 62
1
100
AcDbLine
 10
64.00000002618009
 20
105.0000000000000
 30
0.0000000000000000
 11
36.00000002618008
 21
105.0000000000001
 31
0.0000000000000000
  0
LINE
  5
2D1
100
AcDbEntity
  8
A0
  6
CENTER
 62
1
100
AcDbLine
 10
64.00000002618006
 20
77.50000000000006
 30
0.0000000000000000
 11
36.00000002618007
 21
77.50000000000006
 31
0.0000000000000000
  0
CIRCLE
  5
2D2
100
AcDbEntity
  8
A7
  6
PHANTOM
 62
1
100
AcDbCircle
 10
49.99999999999994
 20
177.5000000000001
 30
0.0000000000000000
 40
8.000000000000007
  0
CIRCLE
  5
2D3
100
AcDbEntity
  8
A7
  6
PHANTOM
 62
1
100
AcDbCircle
 10
49.99999999999994
 20
150.0000000000000
 30
0.0000000000000000
 40
3.500000000000000
  0
ARC
  5
2D4
100
AcDbEntity
  8
A7
  6
PHANTOM
 62
1
100
AcDbCircle
 10
49.99999999999994
 20
150.0000000000000
 30
0.0000000000000000
 40
12.50000000000000
100
AcDbArc
 50
180.0000000000000
 51
360.0000000000000
  0
ARC
  5
2D5
100
AcDbEntity
  8
A7
  6
PHANTOM
 62
1
100
AcDbCircle
 10
49.99999999999994
 20
205.0000000000000
 30
0.0000000000000000
 40
12.50000000000000
100
AcDbArc
 50
0.0000000000000000
 51
180.0000000000000
  0
LINE
  5
2D6
100
AcDbEntity
  8
A7
  6
PHANTOM
 62
1
100
AcDbLine
 10
62.49999999999898
 20
149.9999999999998
 30
0.0000000000000000
 11
62.50000000000000
 21
205.0000000000000
 31
0.0000000000000000
  0
LINE
  5
2D7
100
AcDbEntity
  8
A7
  6
PHANTOM
 62
1
100
AcDbLine
 10
37.49999999999989
 20
150.0000000000000
 30
0.0000000000000000
 11
37.49999999999989
 21
205.0000000000000
 31
0.0000000000000000
  0
ARC
  5
2D8
100
AcDbEntity
  8
A7
  6
PHANTOM
 62
1
100
AcDbCircle
 10
49.99999999999994
 20
177.5000000000001
 30
0.0000000000000000
 40
10.00000000000000
100
AcDbArc
 50
154.1580672368329
 51
385.8419327631678
  0
ELLIPSE
  5
2D9
100
AcDbEntity
  8
A7
  6
PHANTOM
 62
1
100
AcDbEllipse
 10
56.60286408228080
 20
204.4297232896665
 30
0.0000000000000000
 11
3.781697070821764
 21
-8.755297220006735
 31
0.0000000000000000
210
0.0000000000000000
220
0.0000000000000000
230
1.000000000000000
 40
0.2562519795485876
 41
0.5354552625147531
 42
0.6909362774984394
  0
ELLIPSE
  5
2DA
100
AcDbEntity
  8
A7
  6
PHANTOM
 62
1
100
AcDbEllipse
 10
56.60286408228080
 20
204.4297232896665
 30
0.0000000000000000
 11
3.781697070821764
 21
-8.755297220006735
 31
0.0000000000000000
210
0.0000000000000000
220
0.0000000000000000
230
1.000000000000000
 40
0.2562519795485876
 41
0.3064258202410466
 42
0.5354552625147531
  0
ELLIPSE
  5
2DB
100
AcDbEntity
  8
A7
  6
PHANTOM
 62
1
100
AcDbEllipse
 10
43.39713591771903
 20
204.4297232896665
 30
0.0000000000000000
 11
-3.781697070821761
 21
-8.755297220006740
 31
0.0000000000000000
210
0.0000000000000000
220
0.0000000000000000
230
1.000000000000000
 40
0.2562519795485875
 41
5.747730044664832
 42
5.976759486938712
  0
ELLIPSE
  5
2DC
100
AcDbEntity
  8
A7
  6
PHANTOM
 62
1
100
AcDbEllipse
 10
43.39713591771903
 20
204.4297232896665
 30
0.0000000000000000
 11
-3.781697070821761
 21
-8.755297220006740
 31
0.0000000000000000
210
0.0000000000000000
220
0.0000000000000000
230
1.000000000000000
 40
0.2562519795485875
 41
5.592249029681151
 42
5.747730044664832
  0
ARC
  5
2DD
100
AcDbEntity
  8
A7
  6
PHANTOM
 62
1
100
AcDbCircle
 10
49.99999999999994
 20
177.5000000000001
 30
0.0000000000000000
 40
9.000000000000000
100
AcDbArc
 50
180.0000000000000
 51
360.0000050000003
  0
LINE
  5
2DE
100
AcDbEntity
  8
A7
  6
CONTINUOUS
 62
7
100
AcDbLine
 10
59.74598274993576
 20
192.3064243881439
 30
0.0000000000000000
 11
59.74598274993570
 21
192.2840455243308
 31
0.0000000000000000
  0
LINE
  5
2DF
100
AcDbEntity
  8
A7
  6
CONTINUOUS
 62
7
100
AcDbLine
 10
40.25401725006413
 20
192.2840455243305
 30
0.0000000000000000
 11
40.25401725006410
 21
192.3064243881441
 31
0.0000000000000000
  0
LINE
  5
2E0
100
AcDbEntity
  8
A7
  6
PHANTOM
 62
1
100
AcDbLine
 10
40.99999999999991
 20
189.5000000000000
 30
0.0000000000000000
 11
40.25401725006411
 21
192.2840455243304
 31
0.0000000000000000
  0
LINE
  5
2E1
100
AcDbEntity
  8
A7
  6
PHANTOM
 62
1
100
AcDbLine
 10
58.99999999999994
 20
177.5000007853982
 30
0.0000000000000000
 11
58.99999999999983
 21
189.5000000000000
 31
0.0000000000000000
  0
LINE
  5
2E2
100
AcDbEntity
  8
A7
  6
PHANTOM
 62
1
100
AcDbLine
 10
59.74598274993574
 20
192.2840455243308
 30
0.0000000000000000
 11
58.99999999999984
 21
189.5000000000000
 31
0.0000000000000000
  0
LINE
  5
2E3
100
AcDbEntity
  8
A7
  6
PHANTOM
 62
1
100
AcDbLine
 10
40.99999999999987
 20
189.5000000000001
 30
0.0000000000000000
 11
40.99999999999989
 21
177.5000000000000
 31
0.0000000000000000
  0
LINE
  5
2E4
100
AcDbEntity
  8
A7
  6
PHANTOM
 62
1
100
AcDbLine
 10
39.11482152318832
 20
196.3745888728408
 30
0.0000000000000000
 11
40.25401725006404
 21
192.3064243881440
 31
0.0000000000000000
  0
LINE
  5
2E5
100
AcDbEntity
  8
A7
  6
PHANTOM
 62
1
100
AcDbLine
 10
43.99999999999996
 20
198.3000030000000
 30
0.0000000000000000
 11
40.25401725006409
 21
192.3064243881440
 31
0.0000000000000000
  0
LINE
  5
2E6
100
AcDbEntity
  8
A7
  6
PHANTOM
 62
1
100
AcDbLine
 10
59.74598274993576
 20
192.3064243881439
 30
0.0000000000000000
 11
55.99999999999984
 21
198.3000030000001
 31
0.0000000000000000
  0
LINE
  5
2E7
100
AcDbEntity
  8
A7
  6
PHANTOM
 62
1
100
AcDbLine
 10
59.74598274993575
 20
192.3064243881438
 30
0.0000000000000000
 11
60.88517847681154
 21
196.3745888728414
 31
0.0000000000000000
  0
LINE
  5
2E8
100
AcDbEntity
  8
A7
  6
PHANTOM
 62
1
100
AcDbLine
 10
39.05304195875027
 20
198.3000030000001
 30
0.0000000000000000
 11
60.94695804124962
 21
198.3000030000001
 31
0.0000000000000000
  0
LINE
  5
2E9
100
AcDbEntity
  8
A7
  6
PHANTOM
 62
1
100
AcDbLine
 10
60.99999999999994
 20
197.3942985295510
 30
0.0000000000000000
 11
60.99999999999994
 21
201.5000000000000
 31
0.0000000000000000
  0
LINE
  5
2EA
100
AcDbEntity
  8
A7
  6
PHANTOM
 62
1
100
AcDbLine
 10
60.99999999999994
 20
201.5000000000000
 30
0.0000000000000000
 11
38.99999999999983
 21
201.5000000000000
 31
0.0000000000000000
  0
LINE
  5
2EB
100
AcDbEntity
  8
A7
  6
PHANTOM
 62
1
100
AcDbLine
 10
38.99999999999994
 20
201.5000000000000
 30
0.0000000000000000
 11
38.99999999999994
 21
197.3942985295510
 31
0.0000000000000000
  0
LINE
  5
2EC
100
AcDbEntity
  8
A7
  6
CENTER
 62
1
100
AcDbLine
 10
63.99999999999994
 20
150.0000000000000
 30
0.0000000000000000
 11
35.99999999999994
 21
150.0000000000000
 31
0.0000000000000000
  0
LINE
  5
2ED
100
AcDbEntity
  8
A0
  6
CENTER
 62
1
100
AcDbLine
 10
63.99999999999996
 20
205.0000000000001
 30
0.0000000000000000
 11
35.99999999999996
 21
205.0000000000001
 31
0.0000000000000000
  0
LINE
  5
2EE
100
AcDbEntity
  8
A0
  6
CENTER
 62
1
100
AcDbLine
 10
63.99999999999997
 20
177.5000000000001
 30
0.0000000000000000
 11
35.99999999999997
 21
177.5000000000001
 31
0.0000000000000000
  0
POINT
  5
2EF
100
AcDbEntity
  8
A0
  6
CONTINUOUS
 62
5
100
AcDbPoint
 10
49.99999999999994
 20
177.5000000000001
 30
0.0000000000000000
  0
CIRCLE
  5
2F0
100
AcDbEntity
  8
A7
  6
PHANTOM
 62
1
100
AcDbCircle
 10
49.99999999999994
 20
205.0000000000002
 30
0.0000000000000000
 40
3.500000000000000
  0
ARC
  5
2F1
100
AcDbEntity
  8
A4
  6
PHANTOM
 62
1
100
AcDbCircle
 10
200.8000030261802
 20
185.0000000000000
 30
0.0000000000000000
 40
0.5000000000000000
100
AcDbArc
 50
90.00000000000000
 51
180.0000000000000
  0
ARC
  5
2F2
100
AcDbEntity
  8
A4
  6
PHANTOM
 62
1
100
AcDbCircle
 10
200.8000030261802
 20
169.9999999999999
 30
0.0000000000000000
 40
0.5000000000000000
100
AcDbArc
 50
180.0000000000000
 51
270.0000000000000
  0
ARC
  5
2F3
100
AcDbEntity
  8
A4
  6
PHANTOM
 62
1
100
AcDbCircle
 10
202.8000030261802
 20
185.0000000000000
 30
0.0000000000000000
 40
0.5000000000000000
100
AcDbArc
 50
0.0000000000000000
 51
90.00000000000000
  0
ARC
  5
2F4
100
AcDbEntity
  8
A4
  6
PHANTOM
 62
1
100
AcDbCircle
 10
202.8000030261802
 20
169.9999999999999
 30
0.0000000000000000
 40
0.5000000000000000
100
AcDbArc
 50
270.0000000000000
 51
360.0000000000000
  0
LINE
  5
2F5
100
AcDbEntity
  8
A4
  6
PHANTOM
 62
1
100
AcDbLine
 10
213.0000030261803
 20
181.7500000000000
 30
0.0000000000000000
 11
212.2000150261802
 21
181.7500000000000
 31
0.0000000000000000
  0
LINE
  5
2F6
100
AcDbEntity
  8
A4
  6
PHANTOM
 62
1
100
AcDbLine
 10
212.2000150261802
 20
173.2500000000000
 30
0.0000000000000000
 11
213.0000030261803
 21
173.2500000000000
 31
0.0000000000000000
  0
LINE
  5
2F7
100
AcDbEntity
  8
A4
  6
PHANTOM
 62
1
100
AcDbLine
 10
213.0000030261803
 20
173.2500000000000
 30
0.0000000000000000
 11
213.0000030261803
 21
181.7500000000000
 31
0.0000000000000000
  0
LINE
  5
2F8
100
AcDbEntity
  8
A4
  6
PHANTOM
 62
1
100
AcDbLine
 10
202.8000030261802
 20
185.5000000000000
 30
0.0000000000000000
 11
200.8000030261802
 21
185.5000000000000
 31
0.0000000000000000
  0
LINE
  5
2F9
100
AcDbEntity
  8
A4
  6
PHANTOM
 62
1
100
AcDbLine
 10
200.8000030261802
 20
169.4999999999999
 30
0.0000000000000000
 11
202.8000030261802
 21
169.4999999999999
 31
0.0000000000000000
  0
LINE
  5
2FA
100
AcDbEntity
  8
A4
  6
PHANTOM
 62
1
100
AcDbLine
 10
200.3000030261802
 20
170.0000000000000
 30
0.0000000000000000
 11
200.3000030261802
 21
185.0000000000000
 31
0.0000000000000000
  0
ARC
  5
2FB
100
AcDbEntity
  8
A4
  6
PHANTOM
 62
1
100
AcDbCircle
 10
211.8000150261801
 20
159.0074861174251
 30
0.0000000000000000
 40
5.200000000000001
100
AcDbArc
 50
0.0000000000000000
 51
40.81705527646886
  0
ARC
  5
2FC
100
AcDbEntity
  8
A4
  6
PHANTOM
 62
1
100
AcDbCircle
 10
214.2000150261802
 20
167.2438701780771
 30
0.0000000000000000
 40
2.000000000000000
100
AcDbArc
 50
180.0000000000000
 51
220.8170552764666
  0
ARC
  5
2FD
100
AcDbEntity
  8
A4
  6
PHANTOM
 62
1
100
AcDbCircle
 10
214.2000150261802
 20
187.7561298219228
 30
0.0000000000000000
 40
1.999999999999998
100
AcDbArc
 50
139.1829447235295
 51
180.0000000000000
  0
ARC
  5
2FE
100
AcDbEntity
  8
A4
  6
PHANTOM
 62
1
100
AcDbCircle
 10
211.8000150261801
 20
195.9925138825748
 30
0.0000000000000000
 40
5.200000000000003
100
AcDbArc
 50
319.1829447235326
 51
360.0000000000000
  0
ARC
  5
2FF
100
AcDbEntity
  8
A4
  6
PHANTOM
 62
1
100
AcDbCircle
 10
211.8000150261801
 20
195.9925138825748
 30
0.0000000000000000
 40
1.999999999999998
100
AcDbArc
 50
319.1829447235313
 51
360.0000000000000
  0
ARC
  5
300
100
AcDbEntity
  8
A4
  6
PHANTOM
 62
1
100
AcDbCircle
 10
214.2000150261802
 20
187.7561298219228
 30
0.0000000000000000
 40
5.200000000000003
100
AcDbArc
 50
139.1829447235326
 51
180.0000000000000
  0
ARC
  5
301
100
AcDbEntity
  8
A4
  6
PHANTOM
 62
1
100
AcDbCircle
 10
214.2000150261802
 20
167.2438701780771
 30
0.0000000000000000
 40
5.200000000000001
100
AcDbArc
 50
180.0000000000000
 51
220.8170552764698
  0
ARC
  5
302
100
AcDbEntity
  8
A4
  6
PHANTOM
 62
1
100
AcDbCircle
 10
211.8000150261801
 20
159.0074861174251
 30
0.0000000000000000
 40
2.000000000000000
100
AcDbArc
 50
0.0000000000000000
 51
40.81705527646794
  0
LINE
  5
303
100
AcDbEntity
  8
A4
  6
PHANTOM
 62
1
100
AcDbLine
 10
217.0000150261800
 20
217.5000000000000
 30
0.0000000000000000
 11
213.8000150261801
 21
217.5000000000000
 31
0.0000000000000000
  0
LINE
  5
304
100
AcDbEntity
  8
A4
  6
PHANTOM
 62
1
100
AcDbLine
 10
213.8000150261801
 20
195.9925138825749
 30
0.0000000000000000
 11
213.8000150261801
 21
217.5000000000000
 31
0.0000000000000000
  0
LINE
  5
305
100
AcDbEntity
  8
A4
  6
PHANTOM
 62
1
100
AcDbLine
 10
217.0000150261800
 20
217.5000000000000
 30
0.0000000000000000
 11
217.0000150261800
 21
195.9925138825748
 31
0.0000000000000000
  0
LINE
  5
306
100
AcDbEntity
  8
A4
  6
PHANTOM
 62
1
100
AcDbLine
 10
212.6864139903219
 20
165.9365783574614
 30
0.0000000000000000
 11
215.7353777194114
 21
162.4064448510262
 31
0.0000000000000000
  0
LINE
  5
307
100
AcDbEntity
  8
A4
  6
PHANTOM
 62
1
100
AcDbLine
 10
212.2000150261802
 20
187.7561298219228
 30
0.0000000000000000
 11
212.2000150261802
 21
167.2438701780771
 31
0.0000000000000000
  0
LINE
  5
308
100
AcDbEntity
  8
A4
  6
PHANTOM
 62
1
100
AcDbLine
 10
215.7353777194115
 20
192.5935551489739
 30
0.0000000000000000
 11
212.6864139903220
 21
189.0634216425388
 31
0.0000000000000000
  0
LINE
  5
309
100
AcDbEntity
  8
A4
  6
PHANTOM
 62
1
100
AcDbLine
 10
210.2646523329486
 20
191.1550885555239
 30
0.0000000000000000
 11
213.3136160620383
 21
194.6852220619591
 31
0.0000000000000000
  0
LINE
  5
30A
100
AcDbEntity
  8
A4
  6
PHANTOM
 62
1
100
AcDbLine
 10
209.0000150261802
 20
167.2438701780771
 30
0.0000000000000000
 11
209.0000150261801
 21
187.7561298219228
 31
0.0000000000000000
  0
LINE
  5
30B
100
AcDbEntity
  8
A4
  6
PHANTOM
 62
1
100
AcDbLine
 10
213.3136160620382
 20
160.3147779380410
 30
0.0000000000000000
 11
210.2646523329487
 21
163.8449114444757
 31
0.0000000000000000
  0
LINE
  5
30C
100
AcDbEntity
  8
A4
  6
PHANTOM
 62
1
100
AcDbLine
 10
213.8000150261801
 20
159.0074861174251
 30
0.0000000000000000
 11
213.8000150261801
 21
137.4999999999999
 31
0.0000000000000000
  0
LINE
  5
30D
100
AcDbEntity
  8
A4
  6
PHANTOM
 62
1
100
AcDbLine
 10
217.0000150261800
 20
159.0074861174251
 30
0.0000000000000000
 11
217.0000150261800
 21
137.4999999999999
 31
0.0000000000000000
  0
LINE
  5
30E
100
AcDbEntity
  8
A4
  6
PHANTOM
 62
1
100
AcDbLine
 10
213.8000150261801
 20
137.4999999999999
 30
0.0000000000000000
 11
217.0000150261800
 21
137.4999999999999
 31
0.0000000000000000
  0
LINE
  5
30F
100
AcDbEntity
  8
A4
  6
PHANTOM
 62
1
100
AcDbLine
 10
207.0000000261799
 20
167.5000000000000
 30
0.0000000000000000
 11
209.0000150261800
 21
167.5000000000000
 31
0.0000000000000000
  0
LINE
  5
310
100
AcDbEntity
  8
A4
  6
PHANTOM
 62
1
100
AcDbLine
 10
209.0000150261800
 20
187.5000000000001
 30
0.0000000000000000
 11
207.0000000261799
 21
187.5000000000001
 31
0.0000000000000000
  0
LINE
  5
311
100
AcDbEntity
  8
A4
  6
PHANTOM
 62
1
100
AcDbLine
 10
203.3000030261801
 20
185.5000000000001
 30
0.0000000000000000
 11
203.3000030261801
 21
169.5000000000001
 31
0.0000000000000000
  0
LINE
  5
312
100
AcDbEntity
  8
A4
  6
PHANTOM
 62
1
100
AcDbLine
 10
203.3000030261801
 20
169.5000000000000
 30
0.0000000000000000
 11
203.8000030261801
 21
169.5000000000000
 31
0.0000000000000000
  0
LINE
  5
313
100
AcDbEntity
  8
A4
  6
PHANTOM
 62
1
100
AcDbLine
 10
203.8000030261801
 20
185.5000000000001
 30
0.0000000000000000
 11
203.3000030261801
 21
185.5000000000001
 31
0.0000000000000000
  0
ELLIPSE
  5
314
100
AcDbEntity
  8
A4
  6
PHANTOM
 62
1
100
AcDbEllipse
 10
197.9149717508299
 20
204.4297232896665
 30
0.0000000000000000
 11
3.065911231597428
 21
-8.739080125708897
 31
0.0000000000000000
210
0.0000000000000000
220
0.0000000000000000
230
1.000000000000000
 40
0.3606766711266628
 41
5.356147729521743
 42
5.740658186779099
  0
ELLIPSE
  5
315
100
AcDbEntity
  8
A4
  6
PHANTOM
 62
1
100
AcDbEllipse
 10
197.9149717508299
 20
208.9077559034719
 30
0.0000000000000000
 11
3.065911231597431
 21
-8.739080125708908
 31
0.0000000000000000
210
0.0000000000000000
220
0.0000000000000000
230
1.000000000000000
 40
0.3606766711266622
 41
5.585564447606385
 42
5.740658186779261
  0
ARC
  5
316
100
AcDbEntity
  8
A4
  6
PHANTOM
 62
1
100
AcDbCircle
 10
202.0000000261799
 20
196.5000000000000
 30
0.0000000000000000
 40
4.999999999999999
100
AcDbArc
 50
2.117000000000000e-12
 51
90.00000000000000
  0
LINE
  5
317
100
AcDbEntity
  8
A4
  6
PHANTOM
 62
1
100
AcDbLine
 10
202.0000000261799
 20
201.5000000000000
 30
0.0000000000000000
 11
192.5000040261799
 21
201.5000000000000
 31
0.0000000000000000
  0
LINE
  5
318
100
AcDbEntity
  8
A4
  6
PHANTOM
 62
1
100
AcDbLine
 10
192.5000040261799
 20
201.5000000000000
 30
0.0000000000000000
 11
192.5000040261799
 21
198.3000030000000
 31
0.0000000000000000
  0
LINE
  5
319
100
AcDbEntity
  8
A4
  6
PHANTOM
 62
1
100
AcDbLine
 10
203.8000030261801
 20
192.3064243881439
 30
0.0000000000000000
 11
203.8000030261801
 21
168.5000000000000
 31
0.0000000000000000
  0
LINE
  5
31A
100
AcDbEntity
  8
A4
  6
PHANTOM
 62
1
100
AcDbLine
 10
203.8000030261801
 20
168.4999999999999
 30
0.0000000000000000
 11
207.0000000261799
 21
168.4999999999999
 31
0.0000000000000000
  0
LINE
  5
31B
100
AcDbEntity
  8
A4
  6
PHANTOM
 62
1
100
AcDbLine
 10
203.8000030261800
 20
189.5000000000000
 30
0.0000000000000000
 11
207.0000000261800
 21
189.5000000000006
 31
0.0000000000000000
  0
LINE
  5
31C
100
AcDbEntity
  8
A4
  6
PHANTOM
 62
1
100
AcDbLine
 10
203.8000030261801
 20
192.3064243881438
 30
0.0000000000000000
 11
198.9132641455170
 21
196.3745888728413
 31
0.0000000000000000
  0
LINE
  5
31D
100
AcDbEntity
  8
A4
  6
PHANTOM
 62
1
100
AcDbLine
 10
207.0000000261799
 20
189.5000000000006
 30
0.0000000000000000
 11
203.8000030261800
 21
192.2840455243308
 31
0.0000000000000000
  0
LINE
  5
31E
100
AcDbEntity
  8
A4
  6
PHANTOM
 62
1
100
AcDbLine
 10
207.0000000261796
 20
167.5000000000000
 30
0.0000000000000000
 11
207.0000000261801
 21
196.4999999999999
 31
0.0000000000000000
  0
LINE
  5
31F
100
AcDbEntity
  8
A4
  6
PHANTOM
 62
1
100
AcDbLine
 10
207.0000000261800
 20
194.1204893817338
 30
0.0000000000000000
 11
198.9132641455171
 21
200.8526214866460
 31
0.0000000000000000
  0
LINE
  5
320
100
AcDbEntity
  8
A4
  6
PHANTOM
 62
1
100
AcDbLine
 10
192.5000040261799
 20
198.3000030000000
 30
0.0000000000000000
 11
197.2340518182781
 21
198.3000030000000
 31
0.0000000000000000
  0
LINE
  5
321
100
AcDbEntity
  8
A0
  6
CENTER
 62
1
100
AcDbLine
 10
218.5000150261799
 20
177.5000000000000
 30
0.0000000000000000
 11
198.8000030261800
 21
177.5000000000000
 31
0.0000000000000000
  0
LINE
  5
322
100
AcDbEntity
  8
A0
  6
CENTER
 62
1
100
AcDbLine
 10
218.5000150261800
 20
205.0000000000001
 30
0.0000000000000000
 11
212.3000150261801
 21
205.0000000000001
 31
0.0000000000000000
  0
LINE
  5
323
100
AcDbEntity
  8
A0
  6
CENTER
 62
1
100
AcDbLine
 10
218.5000150261801
 20
150.0000000000000
 30
0.0000000000000000
 11
212.3000150261800
 21
150.0000000000000
 31
0.0000000000000000
  0
POINT
  5
324
100
AcDbEntity
  8
A0
  6
CONTINUOUS
 62
5
100
AcDbPoint
 10
200.0000000000000
 20
177.5000000000001
 30
0.0000000000000000
  0
CIRCLE
  5
325
100
AcDbEntity
  8
A5
  6
PHANTOM
 62
1
100
AcDbCircle
 10
350.0000000261799
 20
177.5000000000000
 30
0.0000000000000000
 40
4.250000000000004
  0
CIRCLE
  5
326
100
AcDbEntity
  8
A5
  6
PHANTOM
 62
1
100
AcDbCircle
 10
350.0000000261799
 20
150.0000000000000
 30
0.0000000000000000
 40
3.500000000000000
  0
CIRCLE
  5
327
100
AcDbEntity
  8
A5
  6
PHANTOM
 62
1
100
AcDbCircle
 10
350.0000000261799
 20
205.0000000000000
 30
0.0000000000000000
 40
3.500000000000000
  0
ARC
  5
328
100
AcDbEntity
  8
A5
  6
PHANTOM
 62
1
100
AcDbCircle
 10
350.0000000261799
 20
150.0000000000000
 30
0.0000000000000000
 40
12.50000000000000
100
AcDbArc
 50
180.0000000000000
 51
360.0000000000000
  0
ARC
  5
329
100
AcDbEntity
  8
A5
  6
PHANTOM
 62
1
100
AcDbCircle
 10
350.0000000261799
 20
205.0000000000000
 30
0.0000000000000000
 40
12.50000000000000
100
AcDbArc
 50
0.0000000000000000
 51
180.0000000000000
  0
LINE
  5
32A
100
AcDbEntity
  8
A5
  6
PHANTOM
 62
1
100
AcDbLine
 10
362.5000000261799
 20
205.0000000000000
 30
0.0000000000000000
 11
362.5000000261801
 21
150.0000000000000
 31
0.0000000000000000
  0
LINE
  5
32B
100
AcDbEntity
  8
A5
  6
PHANTOM
 62
1
100
AcDbLine
 10
337.5000000261799
 20
205.0000000000000
 30
0.0000000000000000
 11
337.5000000261806
 21
149.9999999999998
 31
0.0000000000000000
  0
LINE
  5
32C
100
AcDbEntity
  8
A5
  6
CENTER
 62
1
100
AcDbLine
 10
364.0000000261799
 20
205.0000000000000
 30
0.0000000000000000
 11
336.0000000261799
 21
205.0000000000000
 31
0.0000000000000000
  0
LINE
  5
32D
100
AcDbEntity
  8
A5
  6
CENTER
 62
1
100
AcDbLine
 10
364.0000000261799
 20
150.0000000000000
 30
0.0000000000000000
 11
336.0000000261799
 21
150.0000000000000
 31
0.0000000000000000
  0
LINE
  5
32E
100
AcDbEntity
  8
A5
  6
CENTER
 62
1
100
AcDbLine
 10
364.0000000261799
 20
177.5000000000000
 30
0.0000000000000000
 11
336.0000000261799
 21
177.5000000000000
 31
0.0000000000000000
  0
POINT
  5
32F
100
AcDbEntity
  8
A0
  6
CONTINUOUS
 62
5
100
AcDbPoint
 10
349.9999999999999
 20
177.5000000000000
 30
0.0000000000000000
  0
ARC
  5
330
100
AcDbEntity
  8
A4
  6
PHANTOM
 62
1
100
AcDbCircle
 10
499.1999969738196
 20
185.0000000000001
 30
0.0000000000000000
 40
0.5000000000000000
100
AcDbArc
 50
1.424888497295656e-12
 51
90.00000000000144
  0
ARC
  5
331
100
AcDbEntity
  8
A4
  6
PHANTOM
 62
1
100
AcDbCircle
 10
499.1999969738200
 20
170.0000000000000
 30
0.0000000000000000
 40
0.5000000000000000
100
AcDbArc
 50
270.0000000000014
 51
360.0000000000015
  0
ARC
  5
332
100
AcDbEntity
  8
A4
  6
PHANTOM
 62
1
100
AcDbCircle
 10
497.1999969738196
 20
184.9999999999999
 30
0.0000000000000000
 40
0.5000000000000000
100
AcDbArc
 50
90.00000000000144
 51
180.0000000000014
  0
ARC
  5
333
100
AcDbEntity
  8
A4
  6
PHANTOM
 62
1
100
AcDbCircle
 10
497.1999969738200
 20
169.9999999999999
 30
0.0000000000000000
 40
0.5000000000000000
100
AcDbArc
 50
180.0000000000014
 51
270.0000000000014
  0
LINE
  5
334
100
AcDbEntity
  8
A4
  6
PHANTOM
 62
1
100
AcDbLine
 10
486.9999969738196
 20
181.7499999999997
 30
0.0000000000000000
 11
487.7999849738198
 21
181.7499999999997
 31
0.0000000000000000
  0
LINE
  5
335
100
AcDbEntity
  8
A4
  6
PHANTOM
 62
1
100
AcDbLine
 10
487.7999849738200
 20
173.2499999999997
 30
0.0000000000000000
 11
486.9999969738197
 21
173.2499999999997
 31
0.0000000000000000
  0
LINE
  5
336
100
AcDbEntity
  8
A4
  6
PHANTOM
 62
1
100
AcDbLine
 10
486.9999969738197
 20
173.2499999999997
 30
0.0000000000000000
 11
486.9999969738196
 21
181.7499999999997
 31
0.0000000000000000
  0
LINE
  5
337
100
AcDbEntity
  8
A4
  6
PHANTOM
 62
1
100
AcDbLine
 10
497.1999969738196
 20
185.5000000000000
 30
0.0000000000000000
 11
499.1999969738196
 21
185.5000000000000
 31
0.0000000000000000
  0
LINE
  5
338
100
AcDbEntity
  8
A4
  6
PHANTOM
 62
1
100
AcDbLine
 10
499.1999969738200
 20
169.5000000000000
 30
0.0000000000000000
 11
497.1999969738200
 21
169.4999999999999
 31
0.0000000000000000
  0
LINE
  5
339
100
AcDbEntity
  8
A4
  6
PHANTOM
 62
1
100
AcDbLine
 10
499.6999969738200
 20
170.0000000000000
 30
0.0000000000000000
 11
499.6999969738196
 21
185.0000000000000
 31
0.0000000000000000
  0
ARC
  5
33A
100
AcDbEntity
  8
A4
  6
PHANTOM
 62
1
100
AcDbCircle
 10
488.1999849738204
 20
159.0074861174249
 30
0.0000000000000000
 40
5.200000000000001
100
AcDbArc
 50
139.1829447235326
 51
180.0000000000014
  0
ARC
  5
33B
100
AcDbEntity
  8
A4
  6
PHANTOM
 62
1
100
AcDbCircle
 10
485.7999849738202
 20
167.2438701780769
 30
0.0000000000000000
 40
2.000000000000000
100
AcDbArc
 50
319.1829447235348
 51
360.0000000000015
  0
ARC
  5
33C
100
AcDbEntity
  8
A4
  6
PHANTOM
 62
1
100
AcDbCircle
 10
485.7999849738197
 20
187.7561298219225
 30
0.0000000000000000
 40
1.999999999999998
100
AcDbArc
 50
1.424888497295656e-12
 51
40.81705527647192
  0
ARC
  5
33D
100
AcDbEntity
  8
A4
  6
PHANTOM
 62
1
100
AcDbCircle
 10
488.1999849738195
 20
195.9925138825745
 30
0.0000000000000000
 40
5.200000000000003
100
AcDbArc
 50
180.0000000000014
 51
220.8170552764689
  0
ARC
  5
33E
100
AcDbEntity
  8
A4
  6
PHANTOM
 62
1
100
AcDbCircle
 10
488.1999849738195
 20
195.9925138825745
 30
0.0000000000000000
 40
1.999999999999998
100
AcDbArc
 50
180.0000000000014
 51
220.8170552764701
  0
ARC
  5
33F
100
AcDbEntity
  8
A4
  6
PHANTOM
 62
1
100
AcDbCircle
 10
485.7999849738197
 20
187.7561298219225
 30
0.0000000000000000
 40
5.200000000000003
100
AcDbArc
 50
1.424888497295656e-12
 51
40.81705527646887
  0
ARC
  5
340
100
AcDbEntity
  8
A4
  6
PHANTOM
 62
1
100
AcDbCircle
 10
485.7999849738202
 20
167.2438701780769
 30
0.0000000000000000
 40
5.200000000000001
100
AcDbArc
 50
319.1829447235316
 51
360.0000000000015
  0
ARC
  5
341
100
AcDbEntity
  8
A4
  6
PHANTOM
 62
1
100
AcDbCircle
 10
488.1999849738204
 20
159.0074861174249
 30
0.0000000000000000
 40
2.000000000000000
100
AcDbArc
 50
139.1829447235335
 51
180.0000000000014
  0
LINE
  5
342
100
AcDbEntity
  8
A4
  6
PHANTOM
 62
1
100
AcDbLine
 10
482.9999849738190
 20
217.4999999999996
 30
0.0000000000000000
 11
486.1999849738190
 21
217.4999999999997
 31
0.0000000000000000
  0
LINE
  5
343
100
AcDbEntity
  8
A4
  6
PHANTOM
 62
1
100
AcDbLine
 10
486.1999849738195
 20
195.9925138825746
 30
0.0000000000000000
 11
486.1999849738189
 21
217.4999999999997
 31
0.0000000000000000
  0
LINE
  5
344
100
AcDbEntity
  8
A4
  6
PHANTOM
 62
1
100
AcDbLine
 10
482.9999849738190
 20
217.4999999999996
 30
0.0000000000000000
 11
482.9999849738196
 21
195.9925138825744
 31
0.0000000000000000
  0
LINE
  5
345
100
AcDbEntity
  8
A4
  6
PHANTOM
 62
1
100
AcDbLine
 10
487.3135860096785
 20
165.9365783574612
 30
0.0000000000000000
 11
484.2646222805891
 21
162.4064448510260
 31
0.0000000000000000
  0
LINE
  5
346
100
AcDbEntity
  8
A4
  6
PHANTOM
 62
1
100
AcDbLine
 10
487.7999849738196
 20
187.7561298219225
 30
0.0000000000000000
 11
487.7999849738201
 21
167.2438701780769
 31
0.0000000000000000
  0
LINE
  5
347
100
AcDbEntity
  8
A4
  6
PHANTOM
 62
1
100
AcDbLine
 10
484.2646222805884
 20
192.5935551489735
 30
0.0000000000000000
 11
487.3135860096779
 21
189.0634216425385
 31
0.0000000000000000
  0
LINE
  5
348
100
AcDbEntity
  8
A4
  6
PHANTOM
 62
1
100
AcDbLine
 10
489.7353476670509
 20
191.1550885555236
 30
0.0000000000000000
 11
486.6863839379613
 21
194.6852220619586
 31
0.0000000000000000
  0
LINE
  5
349
100
AcDbEntity
  8
A4
  6
PHANTOM
 62
1
100
AcDbLine
 10
490.9999849738201
 20
167.2438701780769
 30
0.0000000000000000
 11
490.9999849738197
 21
187.7561298219226
 31
0.0000000000000000
  0
LINE
  5
34A
100
AcDbEntity
  8
A4
  6
PHANTOM
 62
1
100
AcDbLine
 10
486.6863839379622
 20
160.3147779380407
 30
0.0000000000000000
 11
489.7353476670517
 21
163.8449114444756
 31
0.0000000000000000
  0
LINE
  5
34B
100
AcDbEntity
  8
A4
  6
PHANTOM
 62
1
100
AcDbLine
 10
486.1999849738204
 20
159.0074861174248
 30
0.0000000000000000
 11
486.1999849738210
 21
137.4999999999996
 31
0.0000000000000000
  0
LINE
  5
34C
100
AcDbEntity
  8
A4
  6
PHANTOM
 62
1
100
AcDbLine
 10
482.9999849738205
 20
159.0074861174247
 30
0.0000000000000000
 11
482.9999849738210
 21
137.4999999999996
 31
0.0000000000000000
  0
LINE
  5
34D
100
AcDbEntity
  8
A4
  6
PHANTOM
 62
1
100
AcDbLine
 10
486.1999849738210
 20
137.4999999999996
 30
0.0000000000000000
 11
482.9999849738210
 21
137.4999999999996
 31
0.0000000000000000
  0
LINE
  5
34E
100
AcDbEntity
  8
A4
  6
PHANTOM
 62
1
100
AcDbLine
 10
492.9999999738203
 20
167.4999999999999
 30
0.0000000000000000
 11
490.9999849738202
 21
167.4999999999998
 31
0.0000000000000000
  0
LINE
  5
34F
100
AcDbEntity
  8
A4
  6
PHANTOM
 62
1
100
AcDbLine
 10
490.9999849738197
 20
187.4999999999999
 30
0.0000000000000000
 11
492.9999999738197
 21
187.4999999999999
 31
0.0000000000000000
  0
LINE
  5
350
100
AcDbEntity
  8
A4
  6
PHANTOM
 62
1
100
AcDbLine
 10
496.6999969738196
 20
185.5000000000000
 30
0.0000000000000000
 11
496.6999969738200
 21
169.5000000000000
 31
0.0000000000000000
  0
LINE
  5
351
100
AcDbEntity
  8
A4
  6
PHANTOM
 62
1
100
AcDbLine
 10
496.6999969738201
 20
169.4999999999999
 30
0.0000000000000000
 11
496.1999969738201
 21
169.4999999999999
 31
0.0000000000000000
  0
LINE
  5
352
100
AcDbEntity
  8
A4
  6
PHANTOM
 62
1
100
AcDbLine
 10
496.1999969738197
 20
185.5000000000000
 30
0.0000000000000000
 11
496.6999969738197
 21
185.5000000000000
 31
0.0000000000000000
  0
ELLIPSE
  5
353
100
AcDbEntity
  8
A4
  6
PHANTOM
 62
1
100
AcDbEllipse
 10
502.0850282491695
 20
204.4297232896665
 30
0.0000000000000000
 11
-3.065911231597213
 21
-8.739080125708972
 31
0.0000000000000000
210
0.0000000000000000
220
0.0000000000000000
230
1.000000000000000
 40
0.3606766711266628
 41
0.5425271204004871
 42
0.9270375776578436
  0
ELLIPSE
  5
354
100
AcDbEntity
  8
A4
  6
PHANTOM
 62
1
100
AcDbEllipse
 10
502.0850282491693
 20
208.9077559034719
 30
0.0000000000000000
 11
-3.065911231597217
 21
-8.739080125708982
 31
0.0000000000000000
210
0.0000000000000000
220
0.0000000000000000
230
1.000000000000000
 40
0.3606766711266622
 41
0.5425271204003299
 42
0.6976208595731984
  0
ARC
  5
355
100
AcDbEntity
  8
A4
  6
PHANTOM
 62
1
100
AcDbCircle
 10
497.9999999738196
 20
196.5000000000000
 30
0.0000000000000000
 40
4.999999999999999
100
AcDbArc
 50
90.00000000000144
 51
179.9999999999993
  0
LINE
  5
356
100
AcDbEntity
  8
A4
  6
PHANTOM
 62
1
100
AcDbLine
 10
497.9999999738194
 20
201.5000000000000
 30
0.0000000000000000
 11
507.4999959738195
 21
201.5000000000002
 31
0.0000000000000000
  0
LINE
  5
357
100
AcDbEntity
  8
A4
  6
PHANTOM
 62
1
100
AcDbLine
 10
507.4999959738195
 20
201.5000000000002
 30
0.0000000000000000
 11
507.4999959738195
 21
198.3000030000002
 31
0.0000000000000000
  0
LINE
  5
358
100
AcDbEntity
  8
A4
  6
PHANTOM
 62
1
100
AcDbLine
 10
496.1999969738195
 20
192.3064243881438
 30
0.0000000000000000
 11
496.1999969738201
 21
168.4999999999999
 31
0.0000000000000000
  0
LINE
  5
359
100
AcDbEntity
  8
A4
  6
PHANTOM
 62
1
100
AcDbLine
 10
496.1999969738201
 20
168.4999999999999
 30
0.0000000000000000
 11
492.9999999738203
 21
168.4999999999998
 31
0.0000000000000000
  0
LINE
  5
35A
100
AcDbEntity
  8
A4
  6
PHANTOM
 62
1
100
AcDbLine
 10
496.1999969738197
 20
189.4999999999999
 30
0.0000000000000000
 11
492.9999999738197
 21
189.5000000000004
 31
0.0000000000000000
  0
LINE
  5
35B
100
AcDbEntity
  8
A4
  6
PHANTOM
 62
1
100
AcDbLine
 10
496.1999969738195
 20
192.3064243881437
 30
0.0000000000000000
 11
501.0867358544826
 21
196.3745888728414
 31
0.0000000000000000
  0
LINE
  5
35C
100
AcDbEntity
  8
A4
  6
PHANTOM
 62
1
100
AcDbLine
 10
492.9999999738196
 20
189.5000000000004
 30
0.0000000000000000
 11
496.1999969738195
 21
192.2840455243307
 31
0.0000000000000000
  0
LINE
  5
35D
100
AcDbEntity
  8
A4
  6
PHANTOM
 62
1
100
AcDbLine
 10
492.9999999738207
 20
167.4999999999998
 30
0.0000000000000000
 11
492.9999999738195
 21
196.4999999999998
 31
0.0000000000000000
  0
LINE
  5
35E
100
AcDbEntity
  8
A4
  6
PHANTOM
 62
1
100
AcDbLine
 10
492.9999999738195
 20
194.1204893817336
 30
0.0000000000000000
 11
501.0867358544823
 21
200.8526214866462
 31
0.0000000000000000
  0
LINE
  5
35F
100
AcDbEntity
  8
A4
  6
PHANTOM
 62
1
100
AcDbLine
 10
507.4999959738195
 20
198.3000030000002
 30
0.0000000000000000
 11
502.7659481817213
 21
198.3000030000001
 31
0.0000000000000000
  0
LINE
  5
360
100
AcDbEntity
  8
A0
  6
CENTER
 62
1
100
AcDbLine
 10
481.4999849738200
 20
177.4999999999996
 30
0.0000000000000000
 11
501.1999969738199
 21
177.5000000000001
 31
0.0000000000000000
  0
LINE
  5
361
100
AcDbEntity
  8
A0
  6
CENTER
 62
1
100
AcDbLine
 10
481.4999849738193
 20
204.9999999999996
 30
0.0000000000000000
 11
487.6999849738193
 21
204.9999999999998
 31
0.0000000000000000
  0
LINE
  5
362
100
AcDbEntity
  8
A0
  6
CENTER
 62
1
100
AcDbLine
 10
481.4999849738207
 20
149.9999999999995
 30
0.0000000000000000
 11
487.6999849738207
 21
149.9999999999997
 31
0.0000000000000000
  0
POINT
  5
363
100
AcDbEntity
  8
A0
  6
CONTINUOUS
 62
5
100
AcDbPoint
 10
500.0000000000000
 20
177.5000000000001
 30
0.0000000000000000
  0
ENDSEC
  0
SECTION
  2
OBJECTS
  0
DICTIONARY
  5
391
100
AcDbDictionary
  3
ACAD_GROUP
350
392
  3
ACAD_LAYOUT
350
393
  3
ACAD_MLINESTYLE
350
394
  0
DICTIONARY
  5
392
102
{ACAD_REACTORS
330
391
102
}
330
391
100
AcDbDictionary
  0
DICTIONARY
  5
393
102
{ACAD_REACTORS
330
391
102
}
330
391
100
AcDbDictionary
  3
Model
350
395
  3
ﾚｲｱｳﾄ1
350
396
  3
ﾚｲｱｳﾄ2
350
397
  0
DICTIONARY
  5
394
102
{ACAD_REACTORS
330
391
102
}
330
391
100
AcDbDictionary
  3
STANDARD
350
398
  0
LAYOUT
  5
395
102
{ACAD_REACTORS
330
393
102
}
330
393
100
AcDbPlotSettings
 70
11952
  4
A3
 44
297.000000
 45
420.000000
 73
  1
 72
  1
100
AcDbLayout
  1
Model
 71
0
330
388
  0
LAYOUT
  5
396
102
{ACAD_REACTORS
330
393
102
}
330
393
100
AcDbPlotSettings
100
AcDbLayout
  1
ﾚｲｱｳﾄ1
 71
1
330
389
  0
LAYOUT
  5
397
102
{ACAD_REACTORS
330
393
102
}
330
393
100
AcDbPlotSettings
100
AcDbLayout
  1
ﾚｲｱｳﾄ2
 71
2
330
38A
  0
MLINESTYLE
  5
398
102
{ACAD_REACTORS
330
394
102
}
330
394
100
AcDbMlineStyle
  2
STANDARD
 70
     0
  3

 62
   256
 51
90.00
 52
90.00
 71
     2
 49
0.50
 62
   256
  6
BYLAYER
 49
-0.50
 62
   256
  6
BYLAYER
  0
ENDSEC
  0
EOF
