  0
SECTION
  2
HEADER
  9
$ACADVER
  1
AC1015
  9
$DWGCODEPAGE
  3
ANSI_932
  9
$LTSCALE
 40
20.0
  9
$FILLMODE
 70
     1
  9
$CLAYER
  8
0
  9
$PDMODE
 70
     0
  9
$SPLFRAME
 70
     0
  9
$SPLINETYPE
 70
     6
  9
$SPLINESEGS
 70
     8
  9
$DIMASZ
 40
2.000000
  9
$DIMEXE
 40
1.500000
  9
$DIMEXO
 40
0.800000
  9
$DIMTAD
 70
     1
  9
$DIMTIH
 70
     0
  9
$DIMTOH
 70
     0
  9
$DIMTVP
 40
0.500000
  9
$DIMTXT
 40
3.100000
  9
$EXTMIN
 10
0.000000
 20
0.000000
 30
0.000000
  9
$EXTMAX
 10
297.000000
 20
420.000000
 30
0.000000
  9
$MEASUREMENT
 70
  1
  9
$LIMMIN
 10
0.000000
 20
0.000000
  9
$LIMMAX
 10
297.000000
 20
420.000000
  9
$HANDSEED
  5
370
  9
$LWDISPLAY
290
     0
  9
$DIMBLK
  1
_OPEN
  9
$DIMDEC
 70
     2
  9
$DIMADEC
 70
     2
  9
$DIMAUNIT
 70
     0
  9
$DIMZIN
 70
     8
  9
$DIMAZIN
 70
     2
  9
$DIMTOFL
 70
     1
  0
ENDSEC
  0
SECTION
  2
CLASSES
  0
ENDSEC
  0
SECTION
  2
TABLES
  0
TABLE
  2
VPORT
  5
33A
100
AcDbSymbolTable
 70
     1
  0
VPORT
  5
33B
100
AcDbSymbolTableRecord
100
AcDbViewportTableRecord
  2
*ACTIVE
 70
     0
 12
265.500151
 22
414.097480
 40
880.176743
 41
0.580566
  0
ENDTAB
  0
TABLE
  2
LTYPE
  5
33C
100
AcDbSymbolTable
 70
     3
  0
LTYPE
  5
33D
100
AcDbSymbolTableRecord
100
AcDbLinetypeTableRecord
  2
BYBLOCK
 70
     0
  3

 72
    65
 73
     0
 40
0.0
  0
LTYPE
  5
33E
100
AcDbSymbolTableRecord
100
AcDbLinetypeTableRecord
  2
BYLAYER
 70
     0
  3

 72
    65
 73
     0
 40
0.0
  0
LTYPE
  5
33F
100
AcDbSymbolTableRecord
100
AcDbLinetypeTableRecord
  2
CONTINUOUS
 70
     0
  3
Solid line (NEC CAE2D for Win R15.2 : 2020.05.21)
 72
    65
 73
     0
 40
0.0
  0
LTYPE
  5
340
100
AcDbSymbolTableRecord
100
AcDbLinetypeTableRecord
  2
CENTER
 70
     0
  3
____ _ ____ _ ____ _ ____ _ ____ _ ____
 72
    65
 73
     4
 40
2.0
 49
1.25
 74
     0
 49
-0.25
 74
     0
 49
0.25
 74
     0
 49
-0.25
 74
     0
  0
LTYPE
  5
341
100
AcDbSymbolTableRecord
100
AcDbLinetypeTableRecord
  2
PHANTOM
 70
     0
  3
______  __  __  ______  __  __  ______ 
 72
    65
 73
     6
 40
2.5
 49
1.25
 74
     0
 49
-0.25
 74
     0
 49
0.25
 74
     0
 49
-0.25
 74
     0
 49
0.25
 74
     0
 49
-0.25
 74
     0
  0
ENDTAB
  0
TABLE
  2
LAYER
  5
342
100
AcDbSymbolTable
 70
    15
  0
LAYER
  5
343
100
AcDbSymbolTableRecord
100
AcDbLayerTableRecord
  2
0
 70
     0
 62
     7
  6
CONTINUOUS
370
    -3
390

  0
LAYER
  5
344
100
AcDbSymbolTableRecord
100
AcDbLayerTableRecord
  2
A0
 70
     0
 62
     9
  6
CONTINUOUS
370
    -3
390

  0
LAYER
  5
345
100
AcDbSymbolTableRecord
100
AcDbLayerTableRecord
  2
A2
 70
     0
 62
     9
  6
CONTINUOUS
370
    -3
390

  0
LAYER
  5
346
100
AcDbSymbolTableRecord
100
AcDbLayerTableRecord
  2
A3
 70
     0
 62
    12
  6
CONTINUOUS
370
    -3
390

  0
LAYER
  5
347
100
AcDbSymbolTableRecord
100
AcDbLayerTableRecord
  2
A4
 70
     0
 62
     9
  6
CONTINUOUS
370
    -3
390

  0
LAYER
  5
348
100
AcDbSymbolTableRecord
100
AcDbLayerTableRecord
  2
A5
 70
     0
 62
     8
  6
CONTINUOUS
370
    -3
390

  0
LAYER
  5
349
100
AcDbSymbolTableRecord
100
AcDbLayerTableRecord
  2
A6
 70
     0
 62
    12
  6
CONTINUOUS
370
    -3
390

  0
LAYER
  5
34A
100
AcDbSymbolTableRecord
100
AcDbLayerTableRecord
  2
A8
 70
     0
 62
    10
  6
CONTINUOUS
370
    -3
390

  0
LAYER
  5
34B
100
AcDbSymbolTableRecord
100
AcDbLayerTableRecord
  2
A9
 70
     0
 62
     9
  6
CONTINUOUS
370
    -3
390

  0
LAYER
  5
34C
100
AcDbSymbolTableRecord
100
AcDbLayerTableRecord
  2
A10
 70
     0
 62
     6
  6
CONTINUOUS
370
    -3
390

  0
LAYER
  5
34D
100
AcDbSymbolTableRecord
100
AcDbLayerTableRecord
  2
A20
 70
     0
 62
     1
  6
CONTINUOUS
370
    -3
390

  0
LAYER
  5
34E
100
AcDbSymbolTableRecord
100
AcDbLayerTableRecord
  2
A30
 70
     0
 62
     1
  6
CONTINUOUS
370
    -3
390

  0
LAYER
  5
34F
100
AcDbSymbolTableRecord
100
AcDbLayerTableRecord
  2
A40
 70
     0
 62
     9
  6
CONTINUOUS
370
    -3
390

  0
LAYER
  5
350
100
AcDbSymbolTableRecord
100
AcDbLayerTableRecord
  2
A50
 70
     0
 62
    12
  6
CONTINUOUS
370
    -3
390

  0
LAYER
  5
351
100
AcDbSymbolTableRecord
100
AcDbLayerTableRecord
  2
A1023
 70
     0
 62
    16
  6
CONTINUOUS
370
    -3
390

  0
ENDTAB
  0
TABLE
  2
STYLE
  5
352
100
AcDbSymbolTable
 70
     4
  0
STYLE
  5
353
100
AcDbSymbolTableRecord
100
AcDbTextStyleTableRecord
  2
STANDARD
 70
    64
 40
0.0
 41
1.0
 50
0.0
 71
     0
 42
3.000000000000000
  3
TXT
  4

  0
STYLE
  5
354
100
AcDbSymbolTableRecord
100
AcDbTextStyleTableRecord
  2
ANKTATE
 70
    68
 40
0.0
 41
1.0
 50
0.0
 71
     0
 42
3.000000000000000
  3
TXT
  4

  0
STYLE
  5
355
100
AcDbSymbolTableRecord
100
AcDbTextStyleTableRecord
  2
KNJYOKO
 70
    64
 40
0.0
 41
1.0
 50
0.0
 71
     0
 42
3.000000000000000
  3
TXT
  4
BIGFONT
  0
STYLE
  5
356
100
AcDbSymbolTableRecord
100
AcDbTextStyleTableRecord
  2
KNJTATE
 70
    68
 40
0.0
 41
1.0
 50
0.0
 71
     0
 42
3.000000000000000
  3
TXT
  4
BIGFONT
  0
ENDTAB
  0
TABLE
  2
VIEW
  5
357
100
AcDbSymbolTable
 70
     0
  0
ENDTAB
  0
TABLE
  2
UCS
  5
358
100
AcDbSymbolTable
 70
     0
  0
ENDTAB
  0
TABLE
  2
APPID
  5
359
100
AcDbSymbolTable
 70
     1
  0
APPID
  5
35A
100
AcDbSymbolTableRecord
100
AcDbRegAppTableRecord
  2
ACAD
 70
     0
  0
ENDTAB
  0
TABLE
  2
DIMSTYLE
  5
35B
100
AcDbSymbolTable
 70
     2
100
AcDbDimStyleTable
  0
DIMSTYLE
105
35C
100
AcDbSymbolTableRecord
100
AcDbDimStyleTableRecord
  2
STANDARD
 70
     0
 41
2.000000
 44
1.500000
 42
0.800000
145
0.661290
140
3.100000
144
1.000000
146
0.645161
340
353
  0
DIMSTYLE
105
35D
100
AcDbSymbolTableRecord
100
AcDbDimStyleTableRecord
  2
A001
 70
     0
 41
2.000000
 44
1.500000
 42
0.800000
145
0.661290
140
3.100000
144
1.000000
146
0.645161
 77
     1
 73
     0
 74
     0
271
     2
179
     2
275
     0
 78
     8
 79
     2
172
     1
340
353
  0
ENDTAB
  0
TABLE
  2
BLOCK_RECORD
  5
35E
100
AcDbSymbolTable
 70
    12
  0
BLOCK_RECORD
  5
35F
100
AcDbSymbolTableRecord
100
AcDbBlockTableRecord
  2
*MODEL_SPACE
  0
BLOCK_RECORD
  5
360
100
AcDbSymbolTableRecord
100
AcDbBlockTableRecord
  2
*PAPER_SPACE
  0
BLOCK_RECORD
  5
361
100
AcDbSymbolTableRecord
100
AcDbBlockTableRecord
  2
*PAPER_SPACE0
  0
BLOCK_RECORD
  5
1
100
AcDbSymbolTableRecord
100
AcDbBlockTableRecord
  2
_NONE
  0
BLOCK_RECORD
  5
4
100
AcDbSymbolTableRecord
100
AcDbBlockTableRecord
  2
_CLOSED
  0
BLOCK_RECORD
  5
B
100
AcDbSymbolTableRecord
100
AcDbBlockTableRecord
  2
_DOT
  0
BLOCK_RECORD
  5
13
100
AcDbSymbolTableRecord
100
AcDbBlockTableRecord
  2
_OPEN
  0
BLOCK_RECORD
  5
19
100
AcDbSymbolTableRecord
100
AcDbBlockTableRecord
  2
_ORIGIN
  0
BLOCK_RECORD
  5
1E
100
AcDbSymbolTableRecord
100
AcDbBlockTableRecord
  2
_OPEN30
  0
BLOCK_RECORD
  5
24
100
AcDbSymbolTableRecord
100
AcDbBlockTableRecord
  2
_BOXFILLED
  0
BLOCK_RECORD
  5
29
100
AcDbSymbolTableRecord
100
AcDbBlockTableRecord
  2
_BOXBLANK
  0
BLOCK_RECORD
  5
31
100
AcDbSymbolTableRecord
100
AcDbBlockTableRecord
  2
_OBLIQUE
  0
BLOCK_RECORD
  5
35
100
AcDbSymbolTableRecord
100
AcDbBlockTableRecord
  2
_OPEN90
  0
BLOCK_RECORD
  5
3B
100
AcDbSymbolTableRecord
100
AcDbBlockTableRecord
  2
_CLOSEDBLANK
  0
BLOCK_RECORD
  5
41
100
AcDbSymbolTableRecord
100
AcDbBlockTableRecord
  2
_DOTBLANK
  0
ENDTAB
  0
ENDSEC
  0
SECTION
  2
BLOCKS
  0
BLOCK
  5
362
100
AcDbEntity
  8
0
100
AcDbBlockBegin
  2
*MODEL_SPACE
 70
     0
 10
0.0
 20
0.0
 30
0.0
  3
*MODEL_SPACE
  1

  0
ENDBLK
  5
363
100
AcDbEntity
  8
0
100
AcDbBlockEnd
  0
BLOCK
  5
364
100
AcDbEntity
  8
0
100
AcDbBlockBegin
  2
*PAPER_SPACE
 70
     0
 10
0.0
 20
0.0
 30
0.0
  3
*PAPER_SPACE
  1

  0
ENDBLK
  5
365
100
AcDbEntity
  8
0
100
AcDbBlockEnd
  0
BLOCK
  5
366
100
AcDbEntity
  8
0
100
AcDbBlockBegin
  2
*PAPER_SPACE0
 70
     0
 10
0.0
 20
0.0
 30
0.0
  3
*PAPER_SPACE0
  1

  0
ENDBLK
  5
367
100
AcDbEntity
  8
0
100
AcDbBlockEnd
  0
BLOCK
  5
2
330
1
100
AcDbEntity
  8
0
100
AcDbBlockBegin
  2
_NONE
 70
     0
 10
0.0
 20
0.0
 30
0.0
  3
_NONE
  1

  0
ENDBLK
  5
3
330
1
100
AcDbEntity
  8
0
100
AcDbBlockEnd
  0
BLOCK
  5
5
330
4
100
AcDbEntity
  8
0
100
AcDbBlockBegin
  2
_CLOSED
 70
     0
 10
0.0
 20
0.0
 30
0.0
  3
_CLOSED
  1

  0
LINE
  5
6
330
4
100
AcDbEntity
  8
0
  6
BYBLOCK
 62
     0
370
    -2
100
AcDbLine
 10
-1.0
 20
0.166667
 30
0.0
 11
0.0
 21
0.0
 31
0.0
  0
LINE
  5
7
330
4
100
AcDbEntity
  8
0
  6
BYBLOCK
 62
     0
370
    -2
100
AcDbLine
 10
0.0
 20
0.0
 30
0.0
 11
-1.0
 21
-0.166667
 31
0.0
  0
LINE
  5
8
330
4
100
AcDbEntity
  8
0
  6
BYBLOCK
 62
     0
370
    -2
100
AcDbLine
 10
-1.0
 20
0.166667
 30
0.0
 11
-1.0
 21
-0.166667
 31
0.0
  0
LINE
  5
9
330
4
100
AcDbEntity
  8
0
  6
BYBLOCK
 62
     0
370
    -2
100
AcDbLine
 10
0.0
 20
0.0
 30
0.0
 11
-1.0
 21
0.0
 31
0.0
  0
ENDBLK
  5
A
330
4
100
AcDbEntity
  8
0
100
AcDbBlockEnd
  0
BLOCK
  5
C
330
B
100
AcDbEntity
  8
0
100
AcDbBlockBegin
  2
_DOT
 70
     0
 10
0.0
 20
0.0
 30
0.0
  3
_DOT
  1

  0
POLYLINE
  5
D
330
B
100
AcDbEntity
  8
0
  6
BYBLOCK
 62
     0
370
    -2
100
AcDb2dPolyline
 66
     1
 10
0.0
 20
0.0
 30
0.0
 70
     1
 40
0.5
 41
0.5
  0
VERTEX
  5
E
330
B
100
AcDbEntity
  8
0
  6
BYBLOCK
 62
     0
370
    -2
100
AcDbVertex
100
AcDb2dVertex
 10
-0.25
 20
0.0
 30
0.0
 42
1.0
  0
VERTEX
  5
F
330
B
100
AcDbEntity
  8
0
  6
BYBLOCK
 62
     0
370
    -2
100
AcDbVertex
100
AcDb2dVertex
 10
0.25
 20
0.0
 30
0.0
 42
1.0
  0
SEQEND
  5
10
330
B
100
AcDbEntity
  8
0
  6
BYBLOCK
 62
     0
370
    -2
  0
LINE
  5
11
330
B
100
AcDbEntity
  8
0
  6
BYBLOCK
 62
     0
370
    -2
100
AcDbLine
 10
-0.5
 20
0.0
 30
0.0
 11
-1.0
 21
0.0
 31
0.0
  0
ENDBLK
  5
12
330
B
100
AcDbEntity
  8
0
100
AcDbBlockEnd
  0
BLOCK
  5
14
330
13
100
AcDbEntity
  8
0
100
AcDbBlockBegin
  2
_OPEN
 70
     0
 10
0.0
 20
0.0
 30
0.0
  3
_OPEN
  1

  0
LINE
  5
15
330
13
100
AcDbEntity
  8
0
  6
BYBLOCK
 62
     0
370
    -2
100
AcDbLine
 10
-1.0
 20
0.166667
 30
0.0
 11
0.0
 21
0.0
 31
0.0
  0
LINE
  5
16
330
13
100
AcDbEntity
  8
0
  6
BYBLOCK
 62
     0
370
    -2
100
AcDbLine
 10
0.0
 20
0.0
 30
0.0
 11
-1.0
 21
-0.166667
 31
0.0
  0
LINE
  5
17
330
13
100
AcDbEntity
  8
0
  6
BYBLOCK
 62
     0
370
    -2
100
AcDbLine
 10
0.0
 20
0.0
 30
0.0
 11
-1.0
 21
0.0
 31
0.0
  0
ENDBLK
  5
18
330
13
100
AcDbEntity
  8
0
100
AcDbBlockEnd
  0
BLOCK
  5
1A
330
19
100
AcDbEntity
  8
0
100
AcDbBlockBegin
  2
_ORIGIN
 70
     0
 10
0.0
 20
0.0
 30
0.0
  3
_ORIGIN
  1

  0
CIRCLE
  5
1B
330
19
100
AcDbEntity
  8
0
  6
BYBLOCK
 62
     0
370
    -2
100
AcDbCircle
 10
0.0
 20
0.0
 30
0.0
 40
0.5
  0
LINE
  5
1C
330
19
100
AcDbEntity
  8
0
  6
BYBLOCK
 62
     0
370
    -2
100
AcDbLine
 10
0.0
 20
0.0
 30
0.0
 11
-1.0
 21
0.0
 31
0.0
  0
ENDBLK
  5
1D
330
19
100
AcDbEntity
  8
0
100
AcDbBlockEnd
  0
BLOCK
  5
1F
330
1E
100
AcDbEntity
  8
0
100
AcDbBlockBegin
  2
_OPEN30
 70
     0
 10
0.0
 20
0.0
 30
0.0
  3
_OPEN30
  1

  0
LINE
  5
20
330
1E
100
AcDbEntity
  8
0
  6
BYBLOCK
 62
     0
370
    -2
100
AcDbLine
 10
-1.0
 20
0.267949
 30
0.0
 11
0.0
 21
0.0
 31
0.0
  0
LINE
  5
21
330
1E
100
AcDbEntity
  8
0
  6
BYBLOCK
 62
     0
370
    -2
100
AcDbLine
 10
0.0
 20
0.0
 30
0.0
 11
-1.0
 21
-0.267949
 31
0.0
  0
LINE
  5
22
330
1E
100
AcDbEntity
  8
0
  6
BYBLOCK
 62
     0
370
    -2
100
AcDbLine
 10
0.0
 20
0.0
 30
0.0
 11
-1.0
 21
0.0
 31
0.0
  0
ENDBLK
  5
23
330
1E
100
AcDbEntity
  8
0
100
AcDbBlockEnd
  0
BLOCK
  5
25
330
24
100
AcDbEntity
  8
0
100
AcDbBlockBegin
  2
_BOXFILLED
 70
     0
 10
0.0
 20
0.0
 30
0.0
  3
_BOXFILLED
  1

  0
SOLID
  5
26
330
24
100
AcDbEntity
  8
0
  6
BYBLOCK
 62
     0
370
    -2
100
AcDbTrace
 10
-0.5
 20
0.5
 30
0.0
 11
0.5
 21
0.5
 31
0.0
 12
-0.5
 22
-0.5
 32
0.0
 13
0.5
 23
-0.5
 33
0.0
  0
LINE
  5
27
330
24
100
AcDbEntity
  8
0
  6
BYBLOCK
 62
     0
370
    -2
100
AcDbLine
 10
-0.5
 20
0.0
 30
0.0
 11
-1.0
 21
0.0
 31
0.0
  0
ENDBLK
  5
28
330
24
100
AcDbEntity
  8
0
100
AcDbBlockEnd
  0
BLOCK
  5
2A
330
29
100
AcDbEntity
  8
0
100
AcDbBlockBegin
  2
_BOXBLANK
 70
     0
 10
0.0
 20
0.0
 30
0.0
  3
_BOXBLANK
  1

  0
LINE
  5
2B
330
29
100
AcDbEntity
  8
0
  6
BYBLOCK
 62
     0
370
    -2
100
AcDbLine
 10
-0.5
 20
-0.5
 30
0.0
 11
0.5
 21
-0.5
 31
0.0
  0
LINE
  5
2C
330
29
100
AcDbEntity
  8
0
  6
BYBLOCK
 62
     0
370
    -2
100
AcDbLine
 10
0.5
 20
-0.5
 30
0.0
 11
0.5
 21
0.5
 31
0.0
  0
LINE
  5
2D
330
29
100
AcDbEntity
  8
0
  6
BYBLOCK
 62
     0
370
    -2
100
AcDbLine
 10
0.5
 20
0.5
 30
0.0
 11
-0.5
 21
0.5
 31
0.0
  0
LINE
  5
2E
330
29
100
AcDbEntity
  8
0
  6
BYBLOCK
 62
     0
370
    -2
100
AcDbLine
 10
-0.5
 20
0.5
 30
0.0
 11
-0.5
 21
-0.5
 31
0.0
  0
LINE
  5
2F
330
29
100
AcDbEntity
  8
0
  6
BYBLOCK
 62
     0
370
    -2
100
AcDbLine
 10
-0.5
 20
0.0
 30
0.0
 11
-1.0
 21
0.0
 31
0.0
  0
ENDBLK
  5
30
330
29
100
AcDbEntity
  8
0
100
AcDbBlockEnd
  0
BLOCK
  5
32
330
31
100
AcDbEntity
  8
0
100
AcDbBlockBegin
  2
_OBLIQUE
 70
     0
 10
0.0
 20
0.0
 30
0.0
  3
_OBLIQUE
  1

  0
LINE
  5
33
330
31
100
AcDbEntity
  8
0
  6
BYBLOCK
 62
     0
370
    -2
100
AcDbLine
 10
-0.5
 20
-0.5
 30
0.0
 11
0.5
 21
0.5
 31
0.0
  0
ENDBLK
  5
34
330
31
100
AcDbEntity
  8
0
100
AcDbBlockEnd
  0
BLOCK
  5
36
330
35
100
AcDbEntity
  8
0
100
AcDbBlockBegin
  2
_OPEN90
 70
     0
 10
0.0
 20
0.0
 30
0.0
  3
_OPEN90
  1

  0
LINE
  5
37
330
35
100
AcDbEntity
  8
0
  6
BYBLOCK
 62
     0
370
    -2
100
AcDbLine
 10
-0.5
 20
0.5
 30
0.0
 11
0.0
 21
0.0
 31
0.0
  0
LINE
  5
38
330
35
100
AcDbEntity
  8
0
  6
BYBLOCK
 62
     0
370
    -2
100
AcDbLine
 10
0.0
 20
0.0
 30
0.0
 11
-0.5
 21
-0.5
 31
0.0
  0
LINE
  5
39
330
35
100
AcDbEntity
  8
0
  6
BYBLOCK
 62
     0
370
    -2
100
AcDbLine
 10
0.0
 20
0.0
 30
0.0
 11
-1.0
 21
0.0
 31
0.0
  0
ENDBLK
  5
3A
330
35
100
AcDbEntity
  8
0
100
AcDbBlockEnd
  0
BLOCK
  5
3C
330
3B
100
AcDbEntity
  8
0
100
AcDbBlockBegin
  2
_CLOSEDBLANK
 70
     0
 10
0.0
 20
0.0
 30
0.0
  3
_CLOSEDBLANK
  1

  0
LINE
  5
3D
330
3B
100
AcDbEntity
  8
0
  6
BYBLOCK
 62
     0
370
    -2
100
AcDbLine
 10
-1.0
 20
0.1666666666666666
 30
0.0
 11
0.0
 21
0.0
 31
0.0
  0
LINE
  5
3E
330
3B
100
AcDbEntity
  8
0
  6
BYBLOCK
 62
     0
370
    -2
100
AcDbLine
 10
0.0
 20
0.0
 30
0.0
 11
-1.0
 21
-0.1666666666666666
 31
0.0
  0
LINE
  5
3F
330
3B
100
AcDbEntity
  8
0
  6
BYBLOCK
 62
     0
370
    -2
100
AcDbLine
 10
-1.0
 20
0.1666666666666666
 30
0.0
 11
-1.0
 21
-0.1666666666666666
 31
0.0
  0
ENDBLK
  5
40
330
3B
100
AcDbEntity
  8
0
100
AcDbBlockEnd
  0
BLOCK
  5
42
330
41
100
AcDbEntity
  8
0
100
AcDbBlockBegin
  2
_DOTBLANK
 70
     0
 10
0.0
 20
0.0
 30
0.0
  3
_DOTBLANK
  1

  0
CIRCLE
  5
43
330
41
100
AcDbEntity
  8
0
  6
BYBLOCK
 62
     0
370
    -2
100
AcDbCircle
 10
0.0
 20
0.0
 30
0.0
 40
0.5
  0
LINE
  5
44
330
41
100
AcDbEntity
  8
0
  6
BYBLOCK
 62
     0
370
    -2
100
AcDbLine
 10
-0.5
 20
0.0
 30
0.0
 11
-1.0
 21
0.0
 31
0.0
  0
ENDBLK
  5
45
330
41
100
AcDbEntity
  8
0
100
AcDbBlockEnd
  0
ENDSEC
  0
SECTION
  2
ENTITIES
  0
MTEXT
  5
46
100
AcDbEntity
  8
A8
  6
CONTINUOUS
 62
7
100
AcDbMText
 10
9.999997526638502
 20
18.00000076076889
 30
0.0000000000000000
 40
3.000000000000000
 41
0.0000000000000000
 44
0.6739999771118164
 71
     7
 72
     1
  1
{\H0.94x;{TYPE No.TM-362-200-20}}
 11
1.000000000000000
 21
0.0000000000000000
 31
0.0000000000000000
  7
STANDARD
  0
POINT
  5
47
100
AcDbEntity
  8
A0
  6
CONTINUOUS
 62
5
100
AcDbPoint
 10
9.999997526638502
 20
18.00000076076889
 30
0.0000000000000000
  0
LINE
  5
48
100
AcDbEntity
  8
A4
  6
CONTINUOUS
 62
7
100
AcDbLine
 10
41.00000000000000
 20
77.50000000000003
 30
0.0000000000000000
 11
41.00000000000000
 21
93.50000000000003
 31
0.0000000000000000
  0
LINE
  5
49
100
AcDbEntity
  8
A4
  6
CONTINUOUS
 62
7
100
AcDbLine
 10
59.00000000000000
 20
77.50000000000003
 30
0.0000000000000000
 11
59.00000000000000
 21
93.50000000000003
 31
0.0000000000000000
  0
LINE
  5
4A
100
AcDbEntity
  8
A4
  6
CONTINUOUS
 62
7
100
AcDbLine
 10
61.00000000000000
 20
101.5000000000000
 30
0.0000000000000000
 11
39.00000000000000
 21
101.5000000000000
 31
0.0000000000000000
  0
LINE
  5
4B
100
AcDbEntity
  8
A4
  6
CONTINUOUS
 62
7
100
AcDbLine
 10
61.00000000000000
 20
98.30000299999983
 30
0.0000000000000000
 11
39.00000000000000
 21
98.30000299999983
 31
0.0000000000000000
  0
LINE
  5
4C
100
AcDbEntity
  8
A4
  6
CONTINUOUS
 62
7
100
AcDbLine
 10
39.00000000000000
 20
98.30000299999983
 30
0.0000000000000000
 11
39.00000000000000
 21
101.5000000000000
 31
0.0000000000000000
  0
LINE
  5
4D
100
AcDbEntity
  8
A4
  6
CONTINUOUS
 62
7
100
AcDbLine
 10
61.00000000000000
 20
98.30000299999983
 30
0.0000000000000000
 11
61.00000000000000
 21
101.5000000000000
 31
0.0000000000000000
  0
LINE
  5
4E
100
AcDbEntity
  8
A4
  6
CONTINUOUS
 62
7
100
AcDbLine
 10
55.99999999999994
 20
98.30000299999982
 30
0.0000000000000000
 11
58.99999999999995
 21
93.50000000000000
 31
0.0000000000000000
  0
LINE
  5
4F
100
AcDbEntity
  8
A4
  6
CONTINUOUS
 62
7
100
AcDbLine
 10
43.99999999999986
 20
98.30000299999990
 30
0.0000000000000000
 11
40.99999999999982
 21
93.50000000000004
 31
0.0000000000000000
  0
LINE
  5
50
100
AcDbEntity
  8
A4
  6
CONTINUOUS
 62
7
100
AcDbLine
 10
58.99999999999999
 20
93.49999999999999
 30
0.0000000000000000
 11
61.00000000000001
 21
98.30000299999983
 31
0.0000000000000000
  0
LINE
  5
51
100
AcDbEntity
  8
A4
  6
CONTINUOUS
 62
7
100
AcDbLine
 10
41.00000000000006
 20
93.50000000000004
 30
0.0000000000000000
 11
39.00000000000004
 21
98.30000299999989
 31
0.0000000000000000
  0
LINE
  5
52
100
AcDbEntity
  8
A4
  6
CONTINUOUS
 62
7
100
AcDbLine
 10
61.00000000000005
 20
98.30000299999986
 30
0.0000000000000000
 11
59.00000000000005
 21
89.50000000000006
 31
0.0000000000000000
  0
LINE
  5
53
100
AcDbEntity
  8
A4
  6
CONTINUOUS
 62
7
100
AcDbLine
 10
41.00000000000006
 20
89.50000000000001
 30
0.0000000000000000
 11
39.00000000000006
 21
98.30000299999985
 31
0.0000000000000000
  0
LINE
  5
54
100
AcDbEntity
  8
A3
  6
PHANTOM
 62
1
100
AcDbLine
 10
192.5000920000001
 20
301.5000149999998
 30
0.0000000000000000
 11
205.0000920000001
 21
301.5000149999998
 31
0.0000000000000000
  0
LINE
  5
55
100
AcDbEntity
  8
A3
  6
PHANTOM
 62
1
100
AcDbLine
 10
192.5000920000001
 20
298.3000029999999
 30
0.0000000000000000
 11
195.9014740000001
 21
298.3000029999999
 31
0.0000000000000000
  0
LINE
  5
56
100
AcDbEntity
  8
A3
  6
PHANTOM
 62
1
100
AcDbLine
 10
192.5000920000001
 20
301.5000149999998
 30
0.0000000000000000
 11
192.5000920000001
 21
298.3000029999999
 31
0.0000000000000000
  0
LINE
  5
57
100
AcDbEntity
  8
A3
  6
PHANTOM
 62
1
100
AcDbLine
 10
203.8000950000001
 20
292.4214629999999
 30
0.0000000000000000
 11
203.8000950000001
 21
268.5000000000000
 31
0.0000000000000000
  0
LINE
  5
58
100
AcDbEntity
  8
A3
  6
PHANTOM
 62
1
100
AcDbLine
 10
197.0002899999999
 20
297.9711149999998
 30
0.0000000000000000
 11
202.8989110000000
 21
294.0925589999999
 31
0.0000000000000000
  0
LINE
  5
59
100
AcDbEntity
  8
A3
  6
PHANTOM
 62
1
100
AcDbLine
 10
198.7583770000001
 20
300.6448820000000
 30
0.0000000000000000
 11
204.6570130000000
 21
296.7663420000000
 31
0.0000000000000000
  0
LINE
  5
5A
100
AcDbEntity
  8
A3
  6
PHANTOM
 62
1
100
AcDbLine
 10
207.0000920000001
 20
296.5000149999998
 30
0.0000000000000000
 11
207.0000920000001
 21
268.5000000000000
 31
0.0000000000000000
  0
LINE
  5
5B
100
AcDbEntity
  8
A3
  6
PHANTOM
 62
1
100
AcDbLine
 10
203.8000950000001
 20
268.5000000000000
 30
0.0000000000000000
 11
207.0000920000001
 21
268.5000000000000
 31
0.0000000000000000
  0
LINE
  5
5C
100
AcDbEntity
  8
A4
  6
CONTINUOUS
 62
7
100
AcDbLine
 10
41.00000000000001
 20
743.5000000000000
 30
0.0000000000000000
 11
41.00000000000001
 21
727.4999999999998
 31
0.0000000000000000
  0
LINE
  5
5D
100
AcDbEntity
  8
A4
  6
CONTINUOUS
 62
7
100
AcDbLine
 10
59.00000000000001
 20
743.5000000000000
 30
0.0000000000000000
 11
59.00000000000001
 21
727.4999999999998
 31
0.0000000000000000
  0
LINE
  5
5E
100
AcDbEntity
  8
A4
  6
CONTINUOUS
 62
7
100
AcDbLine
 10
61.00000000000001
 20
719.4999999999998
 30
0.0000000000000000
 11
39.00000000000001
 21
719.4999999999998
 31
0.0000000000000000
  0
LINE
  5
5F
100
AcDbEntity
  8
A4
  6
CONTINUOUS
 62
7
100
AcDbLine
 10
61.00000000000001
 20
722.6999809999998
 30
0.0000000000000000
 11
39.00000000000001
 21
722.6999809999998
 31
0.0000000000000000
  0
LINE
  5
60
100
AcDbEntity
  8
A4
  6
CONTINUOUS
 62
7
100
AcDbLine
 10
39.00000000000001
 20
722.6999809999998
 30
0.0000000000000000
 11
39.00000000000001
 21
719.4999999999998
 31
0.0000000000000000
  0
LINE
  5
61
100
AcDbEntity
  8
A4
  6
CONTINUOUS
 62
7
100
AcDbLine
 10
61.00000000000001
 20
722.6999809999998
 30
0.0000000000000000
 11
61.00000000000001
 21
719.4999999999998
 31
0.0000000000000000
  0
LINE
  5
62
100
AcDbEntity
  8
A4
  6
CONTINUOUS
 62
7
100
AcDbLine
 10
56.00000000000006
 20
722.6999810000000
 30
0.0000000000000000
 11
59.00000000000000
 21
727.5000000000000
 31
0.0000000000000000
  0
LINE
  5
63
100
AcDbEntity
  8
A4
  6
CONTINUOUS
 62
7
100
AcDbLine
 10
43.99999999999989
 20
722.6999809999998
 30
0.0000000000000000
 11
40.99999999999994
 21
727.4999999999998
 31
0.0000000000000000
  0
LINE
  5
64
100
AcDbEntity
  8
A4
  6
CONTINUOUS
 62
7
100
AcDbLine
 10
59.00000000000003
 20
727.5000000000000
 30
0.0000000000000000
 11
61.00000000000003
 21
722.6999810000000
 31
0.0000000000000000
  0
LINE
  5
65
100
AcDbEntity
  8
A4
  6
CONTINUOUS
 62
7
100
AcDbLine
 10
41.00000000000003
 20
727.5000000000000
 30
0.0000000000000000
 11
39.00000000000003
 21
722.6999810000000
 31
0.0000000000000000
  0
LINE
  5
66
100
AcDbEntity
  8
A4
  6
CONTINUOUS
 62
7
100
AcDbLine
 10
61.00000000000009
 20
722.6999809999999
 30
0.0000000000000000
 11
59.00000000000009
 21
731.5000000000001
 31
0.0000000000000000
  0
LINE
  5
67
100
AcDbEntity
  8
A4
  6
CONTINUOUS
 62
7
100
AcDbLine
 10
41.00000000000003
 20
731.5000000000002
 30
0.0000000000000000
 11
39.00000000000003
 21
722.6999810000000
 31
0.0000000000000000
  0
LINE
  5
68
100
AcDbEntity
  8
A4
  6
CONTINUOUS
 62
7
100
AcDbLine
 10
192.5000920000000
 20
719.4999999999998
 30
0.0000000000000000
 11
202.0000920000000
 21
719.4999999999998
 31
0.0000000000000000
  0
LINE
  5
69
100
AcDbEntity
  8
A4
  6
CONTINUOUS
 62
7
100
AcDbLine
 10
192.5000920000000
 20
722.6999809999998
 30
0.0000000000000000
 11
195.9014740000000
 21
722.6999809999998
 31
0.0000000000000000
  0
LINE
  5
6A
100
AcDbEntity
  8
A4
  6
CONTINUOUS
 62
7
100
AcDbLine
 10
192.5000920000000
 20
719.4999999999998
 30
0.0000000000000000
 11
192.5000920000000
 21
722.6999809999998
 31
0.0000000000000000
  0
LINE
  5
6B
100
AcDbEntity
  8
A4
  6
CONTINUOUS
 62
7
100
AcDbLine
 10
203.8000950000001
 20
728.5785519999998
 30
0.0000000000000000
 11
203.8000950000001
 21
752.5000000000000
 31
0.0000000000000000
  0
LINE
  5
6C
100
AcDbEntity
  8
A4
  6
CONTINUOUS
 62
7
100
AcDbLine
 10
197.0002899999998
 20
723.0288690000001
 30
0.0000000000000000
 11
202.8989109999998
 21
726.9074399999998
 31
0.0000000000000000
  0
LINE
  5
6D
100
AcDbEntity
  8
A4
  6
CONTINUOUS
 62
7
100
AcDbLine
 10
198.7583769999999
 20
720.3551019999998
 30
0.0000000000000000
 11
204.6570129999999
 21
724.2336420000001
 31
0.0000000000000000
  0
LINE
  5
6E
100
AcDbEntity
  8
A4
  6
CONTINUOUS
 62
7
100
AcDbLine
 10
207.0000920000000
 20
724.4999999999998
 30
0.0000000000000000
 11
207.0000920000000
 21
752.5000000000000
 31
0.0000000000000000
  0
LINE
  5
6F
100
AcDbEntity
  8
A4
  6
CONTINUOUS
 62
7
100
AcDbLine
 10
203.8000950000001
 20
752.5000000000000
 30
0.0000000000000000
 11
207.0000920000000
 21
752.5000000000000
 31
0.0000000000000000
  0
LINE
  5
70
100
AcDbEntity
  8
A4
  6
CONTINUOUS
 62
7
100
AcDbLine
 10
60.00000000000001
 20
716.9999999999998
 30
0.0000000000000000
 11
40.00000000000001
 21
716.9999999999998
 31
0.0000000000000000
  0
LINE
  5
71
100
AcDbEntity
  8
A4
  6
CONTINUOUS
 62
7
100
AcDbLine
 10
61.00000000000001
 20
714.9999999999998
 30
0.0000000000000000
 11
39.00000000000001
 21
714.9999999999998
 31
0.0000000000000000
  0
LINE
  5
72
100
AcDbEntity
  8
A4
  6
CONTINUOUS
 62
7
100
AcDbLine
 10
43.00000000000023
 20
716.9999999999998
 30
0.0000000000000000
 11
45.50000000000017
 21
719.4999999999998
 31
0.0000000000000000
  0
LINE
  5
73
100
AcDbEntity
  8
A4
  6
CONTINUOUS
 62
7
100
AcDbLine
 10
56.99999999999983
 20
717.0000000000000
 30
0.0000000000000000
 11
54.49999999999983
 21
719.5000000000000
 31
0.0000000000000000
  0
LINE
  5
74
100
AcDbEntity
  8
A4
  6
CONTINUOUS
 62
7
100
AcDbLine
 10
38.99999999999994
 20
715.0000000000000
 30
0.0000000000000000
 11
39.99999999999989
 21
717.0000000000000
 31
0.0000000000000000
  0
LINE
  5
75
100
AcDbEntity
  8
A4
  6
CONTINUOUS
 62
7
100
AcDbLine
 10
61.00000000000000
 20
714.9999999999999
 30
0.0000000000000000
 11
60.00000000000000
 21
716.9999999999999
 31
0.0000000000000000
  0
LINE
  5
76
100
AcDbEntity
  8
A4
  6
CONTINUOUS
 62
7
100
AcDbLine
 10
193.0000920000001
 20
716.9999999999998
 30
0.0000000000000000
 11
195.5000920000000
 21
719.4999999999998
 31
0.0000000000000000
  0
LINE
  5
77
100
AcDbEntity
  8
A4
  6
CONTINUOUS
 62
7
100
AcDbLine
 10
207.0000920000001
 20
717.0000000000000
 30
0.0000000000000000
 11
204.0572810000001
 21
719.9428110000001
 31
0.0000000000000000
  0
LINE
  5
78
100
AcDbEntity
  8
A4
  6
CONTINUOUS
 62
7
100
AcDbLine
 10
211.0000920000000
 20
714.9999999999998
 30
0.0000000000000000
 11
189.0000920000000
 21
714.9999999999998
 31
0.0000000000000000
  0
LINE
  5
79
100
AcDbEntity
  8
A4
  6
CONTINUOUS
 62
7
100
AcDbLine
 10
210.0000919999998
 20
716.9999999999998
 30
0.0000000000000000
 11
190.0000920000000
 21
716.9999999999998
 31
0.0000000000000000
  0
LINE
  5
7A
100
AcDbEntity
  8
A4
  6
CONTINUOUS
 62
7
100
AcDbLine
 10
211.0000920000000
 20
715.0000000000000
 30
0.0000000000000000
 11
210.0000919999999
 21
717.0000000000000
 31
0.0000000000000000
  0
LINE
  5
7B
100
AcDbEntity
  8
A4
  6
CONTINUOUS
 62
7
100
AcDbLine
 10
189.0000919999999
 20
714.9999999999999
 30
0.0000000000000000
 11
190.0000919999998
 21
716.9999999999998
 31
0.0000000000000000
  0
LINE
  5
7C
100
AcDbEntity
  8
A4
  6
CONTINUOUS
 62
7
100
AcDbLine
 10
61.00000000000021
 20
312.5000000000000
 30
0.0000000000000000
 11
39.00000000000021
 21
312.5000000000000
 31
0.0000000000000000
  0
LINE
  5
7D
100
AcDbEntity
  8
A4
  6
CONTINUOUS
 62
7
100
AcDbLine
 10
60.00000000000021
 20
310.5000000000000
 30
0.0000000000000000
 11
40.00000000000021
 21
310.5000000000000
 31
0.0000000000000000
  0
LINE
  5
7E
100
AcDbEntity
  8
A4
  6
CONTINUOUS
 62
7
100
AcDbLine
 10
60.00000000000021
 20
312.5000000000000
 30
0.0000000000000000
 11
60.00000000000021
 21
310.5000000000000
 31
0.0000000000000000
  0
LINE
  5
7F
100
AcDbEntity
  8
A4
  6
CONTINUOUS
 62
7
100
AcDbLine
 10
40.00000000000021
 20
312.5000000000000
 30
0.0000000000000000
 11
40.00000000000021
 21
310.5000000000000
 31
0.0000000000000000
  0
LINE
  5
80
100
AcDbEntity
  8
A4
  6
CONTINUOUS
 62
7
100
AcDbLine
 10
61.00000000000021
 20
316.5000000000000
 30
0.0000000000000000
 11
39.00000000000021
 21
316.5000000000000
 31
0.0000000000000000
  0
LINE
  5
81
100
AcDbEntity
  8
A4
  6
CONTINUOUS
 62
7
100
AcDbLine
 10
61.00000000000021
 20
318.5000000000000
 30
0.0000000000000000
 11
39.00000000000021
 21
318.5000000000000
 31
0.0000000000000000
  0
LINE
  5
82
100
AcDbEntity
  8
A4
  6
CONTINUOUS
 62
7
100
AcDbLine
 10
61.00000000000021
 20
330.0000000000000
 30
0.0000000000000000
 11
39.00000000000021
 21
330.0000000000000
 31
0.0000000000000000
  0
LINE
  5
83
100
AcDbEntity
  8
A4
  6
CONTINUOUS
 62
7
100
AcDbLine
 10
61.00000000000021
 20
331.9999999999999
 30
0.0000000000000000
 11
39.00000000000021
 21
331.9999999999999
 31
0.0000000000000000
  0
LINE
  5
84
100
AcDbEntity
  8
A4
  6
CONTINUOUS
 62
7
100
AcDbLine
 10
39.00000000000021
 20
312.5000000000000
 30
0.0000000000000000
 11
39.00000000000021
 21
316.5000000000000
 31
0.0000000000000000
  0
LINE
  5
85
100
AcDbEntity
  8
A4
  6
CONTINUOUS
 62
7
100
AcDbLine
 10
39.00000000000021
 20
318.5000000000000
 30
0.0000000000000000
 11
39.00000000000021
 21
330.0000000000000
 31
0.0000000000000000
  0
LINE
  5
86
100
AcDbEntity
  8
A4
  6
CONTINUOUS
 62
7
100
AcDbLine
 10
39.00000000000001
 20
331.9999999999999
 30
0.0000000000000000
 11
39.00000000000001
 21
714.9999999999998
 31
0.0000000000000000
  0
LINE
  5
87
100
AcDbEntity
  8
A4
  6
CONTINUOUS
 62
7
100
AcDbLine
 10
61.00000000000021
 20
312.5000000000000
 30
0.0000000000000000
 11
61.00000000000021
 21
316.5000000000000
 31
0.0000000000000000
  0
LINE
  5
88
100
AcDbEntity
  8
A4
  6
CONTINUOUS
 62
7
100
AcDbLine
 10
61.00000000000021
 20
318.5000000000000
 30
0.0000000000000000
 11
61.00000000000021
 21
330.0000000000000
 31
0.0000000000000000
  0
LINE
  5
89
100
AcDbEntity
  8
A4
  6
CONTINUOUS
 62
7
100
AcDbLine
 10
61.00000000000001
 20
331.9999999999999
 30
0.0000000000000000
 11
61.00000000000001
 21
714.9999999999998
 31
0.0000000000000000
  0
LINE
  5
8A
100
AcDbEntity
  8
A2
  6
CENTER
 62
4
100
AcDbLine
 10
200.0000920000000
 20
758.5000000000000
 30
0.0000000000000000
 11
200.0000920000000
 21
62.49999999999968
 31
0.0000000000000000
  0
LINE
  5
8B
100
AcDbEntity
  8
A4
  6
CONTINUOUS
 62
7
100
AcDbLine
 10
211.0000920000003
 20
312.5000000000000
 30
0.0000000000000000
 11
189.0000920000003
 21
312.5000000000000
 31
0.0000000000000000
  0
LINE
  5
8C
100
AcDbEntity
  8
A4
  6
CONTINUOUS
 62
7
100
AcDbLine
 10
210.0000919999999
 20
310.5000000000000
 30
0.0000000000000000
 11
190.0000920000003
 21
310.5000000000000
 31
0.0000000000000000
  0
LINE
  5
8D
100
AcDbEntity
  8
A4
  6
CONTINUOUS
 62
7
100
AcDbLine
 10
210.0000919999999
 20
312.5000000000000
 30
0.0000000000000000
 11
210.0000919999999
 21
310.5000000000000
 31
0.0000000000000000
  0
LINE
  5
8E
100
AcDbEntity
  8
A4
  6
CONTINUOUS
 62
7
100
AcDbLine
 10
190.0000920000003
 20
312.5000000000000
 30
0.0000000000000000
 11
190.0000920000003
 21
310.5000000000000
 31
0.0000000000000000
  0
LINE
  5
8F
100
AcDbEntity
  8
A4
  6
CONTINUOUS
 62
7
100
AcDbLine
 10
211.0000920000003
 20
316.5000000000000
 30
0.0000000000000000
 11
189.0000920000003
 21
316.5000000000000
 31
0.0000000000000000
  0
LINE
  5
90
100
AcDbEntity
  8
A4
  6
CONTINUOUS
 62
7
100
AcDbLine
 10
211.0000920000003
 20
318.5000000000000
 30
0.0000000000000000
 11
189.0000920000003
 21
318.5000000000000
 31
0.0000000000000000
  0
LINE
  5
91
100
AcDbEntity
  8
A4
  6
CONTINUOUS
 62
7
100
AcDbLine
 10
211.0000920000003
 20
330.0000000000000
 30
0.0000000000000000
 11
189.0000920000003
 21
330.0000000000000
 31
0.0000000000000000
  0
LINE
  5
92
100
AcDbEntity
  8
A4
  6
CONTINUOUS
 62
7
100
AcDbLine
 10
211.0000920000003
 20
331.9999999999999
 30
0.0000000000000000
 11
189.0000920000003
 21
331.9999999999999
 31
0.0000000000000000
  0
LINE
  5
93
100
AcDbEntity
  8
A4
  6
CONTINUOUS
 62
7
100
AcDbLine
 10
189.0000920000003
 20
312.5000000000000
 30
0.0000000000000000
 11
189.0000920000003
 21
316.5000000000000
 31
0.0000000000000000
  0
LINE
  5
94
100
AcDbEntity
  8
A4
  6
CONTINUOUS
 62
7
100
AcDbLine
 10
189.0000920000003
 20
318.5000000000000
 30
0.0000000000000000
 11
189.0000920000003
 21
330.0000000000000
 31
0.0000000000000000
  0
LINE
  5
95
100
AcDbEntity
  8
A4
  6
CONTINUOUS
 62
7
100
AcDbLine
 10
189.0000920000000
 20
331.9999999999999
 30
0.0000000000000000
 11
189.0000920000000
 21
714.9999999999998
 31
0.0000000000000000
  0
LINE
  5
96
100
AcDbEntity
  8
A4
  6
CONTINUOUS
 62
7
100
AcDbLine
 10
211.0000920000003
 20
312.5000000000000
 30
0.0000000000000000
 11
211.0000920000003
 21
316.5000000000000
 31
0.0000000000000000
  0
LINE
  5
97
100
AcDbEntity
  8
A4
  6
CONTINUOUS
 62
7
100
AcDbLine
 10
211.0000920000003
 20
318.5000000000000
 30
0.0000000000000000
 11
211.0000920000003
 21
330.0000000000000
 31
0.0000000000000000
  0
LINE
  5
98
100
AcDbEntity
  8
A4
  6
CONTINUOUS
 62
7
100
AcDbLine
 10
211.0000920000000
 20
331.9999999999999
 30
0.0000000000000000
 11
211.0000920000000
 21
714.9999999999998
 31
0.0000000000000000
  0
LINE
  5
99
100
AcDbEntity
  8
A4
  6
CONTINUOUS
 62
7
100
AcDbLine
 10
195.0000920000000
 20
310.5000000000000
 30
0.0000000000000000
 11
195.0000920000000
 21
101.5000000000000
 31
0.0000000000000000
  0
LINE
  5
9A
100
AcDbEntity
  8
A4
  6
CONTINUOUS
 62
7
100
AcDbLine
 10
205.0000920000000
 20
310.5000000000000
 30
0.0000000000000000
 11
205.0000920000000
 21
101.5000000000000
 31
0.0000000000000000
  0
LINE
  5
9B
100
AcDbEntity
  8
A4
  6
CONTINUOUS
 62
7
100
AcDbLine
 10
45.00000000000000
 20
310.5000000000000
 30
0.0000000000000000
 11
45.00000000000000
 21
101.5000000000000
 31
0.0000000000000000
  0
LINE
  5
9C
100
AcDbEntity
  8
A4
  6
CONTINUOUS
 62
7
100
AcDbLine
 10
55.00000000000000
 20
310.5000000000000
 30
0.0000000000000000
 11
55.00000000000000
 21
101.5000000000000
 31
0.0000000000000000
  0
LINE
  5
9D
100
AcDbEntity
  8
A3
  6
PHANTOM
 62
1
100
AcDbLine
 10
41.00000000000010
 20
277.5000000000000
 30
0.0000000000000000
 11
41.00000000000010
 21
293.5000000000000
 31
0.0000000000000000
  0
LINE
  5
9E
100
AcDbEntity
  8
A3
  6
PHANTOM
 62
1
100
AcDbLine
 10
59.00000000000010
 20
277.5000000000000
 30
0.0000000000000000
 11
59.00000000000010
 21
293.5000000000000
 31
0.0000000000000000
  0
LINE
  5
9F
100
AcDbEntity
  8
A3
  6
PHANTOM
 62
1
100
AcDbLine
 10
61.00000000000010
 20
301.5000149999998
 30
0.0000000000000000
 11
39.00000000000010
 21
301.5000149999998
 31
0.0000000000000000
  0
LINE
  5
A0
100
AcDbEntity
  8
A3
  6
PHANTOM
 62
1
100
AcDbLine
 10
61.00000000000010
 20
298.3000029999999
 30
0.0000000000000000
 11
39.00000000000010
 21
298.3000029999999
 31
0.0000000000000000
  0
LINE
  5
A1
100
AcDbEntity
  8
A3
  6
PHANTOM
 62
1
100
AcDbLine
 10
39.00000000000010
 20
298.3000029999999
 30
0.0000000000000000
 11
39.00000000000010
 21
301.5000149999998
 31
0.0000000000000000
  0
LINE
  5
A2
100
AcDbEntity
  8
A3
  6
PHANTOM
 62
1
100
AcDbLine
 10
61.00000000000010
 20
298.3000029999999
 30
0.0000000000000000
 11
61.00000000000010
 21
301.5000149999998
 31
0.0000000000000000
  0
LINE
  5
A3
100
AcDbEntity
  8
A3
  6
PHANTOM
 62
1
100
AcDbLine
 10
56.00000000000017
 20
298.3000029999999
 30
0.0000000000000000
 11
59.00000000000016
 21
293.4999999999999
 31
0.0000000000000000
  0
LINE
  5
A4
100
AcDbEntity
  8
A3
  6
PHANTOM
 62
1
100
AcDbLine
 10
44.00000000000014
 20
298.3000030000001
 30
0.0000000000000000
 11
41.00000000000017
 21
293.5000000000001
 31
0.0000000000000000
  0
LINE
  5
A5
100
AcDbEntity
  8
A3
  6
PHANTOM
 62
1
100
AcDbLine
 10
58.99999999999997
 20
293.5000000000001
 30
0.0000000000000000
 11
60.99999999999997
 21
298.3000030000001
 31
0.0000000000000000
  0
LINE
  5
A6
100
AcDbEntity
  8
A3
  6
PHANTOM
 62
1
100
AcDbLine
 10
41.00000000000004
 20
293.5000000000000
 30
0.0000000000000000
 11
39.00000000000003
 21
298.3000030000000
 31
0.0000000000000000
  0
LINE
  5
A7
100
AcDbEntity
  8
A3
  6
PHANTOM
 62
1
100
AcDbLine
 10
61.00000000000011
 20
298.3000029999998
 30
0.0000000000000000
 11
59.00000000000012
 21
289.4999999999999
 31
0.0000000000000000
  0
LINE
  5
A8
100
AcDbEntity
  8
A3
  6
PHANTOM
 62
1
100
AcDbLine
 10
41.00000000000010
 20
289.4999999999999
 30
0.0000000000000000
 11
39.00000000000010
 21
298.3000029999998
 31
0.0000000000000000
  0
LINE
  5
A9
100
AcDbEntity
  8
A2
  6
CENTER
 62
4
100
AcDbLine
 10
224.5000950000001
 20
837.1858519999998
 30
0.0000000000000000
 11
183.0000920000000
 21
837.1858519999998
 31
0.0000000000000000
  0
LINE
  5
AA
100
AcDbEntity
  8
A2
  6
CENTER
 62
4
100
AcDbLine
 10
224.5000950000001
 20
-8.990890999999984
 30
0.0000000000000000
 11
183.0000920000000
 21
-8.990890999999984
 31
0.0000000000000000
  0
LINE
  5
AB
100
AcDbEntity
  8
A2
  6
CENTER
 62
4
100
AcDbLine
 10
50.00000000000000
 20
758.5000000000000
 30
0.0000000000000000
 11
50.00000000000000
 21
40.49999999999996
 31
0.0000000000000000
  0
LINE
  5
AC
100
AcDbEntity
  8
A2
  6
CENTER
 62
4
100
AcDbLine
 10
35.00000000000001
 20
743.5000000000000
 30
0.0000000000000000
 11
65.00000000000000
 21
743.5000000000000
 31
0.0000000000000000
  0
LINE
  5
AD
100
AcDbEntity
  8
A2
  6
CENTER
 62
4
100
AcDbLine
 10
31.50000000000000
 20
77.50000000000003
 30
0.0000000000000000
 11
68.50000000000000
 21
77.50000000000003
 31
0.0000000000000000
  0
LINE
  5
AE
100
AcDbEntity
  8
A2
  6
CENTER
 62
4
100
AcDbLine
 10
40.00000000000010
 20
277.5000000000000
 30
0.0000000000000000
 11
60.00000000000010
 21
277.5000000000000
 31
0.0000000000000000
  0
LINE
  5
AF
100
AcDbEntity
  8
A2
  6
CENTER
 62
4
100
AcDbLine
 10
375.0001829999999
 20
77.50000000000003
 30
0.0000000000000000
 11
345.0001830000001
 21
77.50000000000003
 31
0.0000000000000000
  0
LINE
  5
B0
100
AcDbEntity
  8
A2
  6
CENTER
 62
4
100
AcDbLine
 10
360.0001829999999
 20
758.5000000000000
 30
0.0000000000000000
 11
360.0001829999999
 21
40.50000000000053
 31
0.0000000000000000
  0
LINE
  5
B1
100
AcDbEntity
  8
A2
  6
CENTER
 62
4
100
AcDbLine
 10
375.0001829999999
 20
743.5000000000000
 30
0.0000000000000000
 11
340.0001829999999
 21
743.5000000000000
 31
0.0000000000000000
  0
LINE
  5
B2
100
AcDbEntity
  8
A4
  6
CONTINUOUS
 62
7
100
AcDbLine
 10
355.0001830000001
 20
310.5000000000000
 30
0.0000000000000000
 11
355.0001830000001
 21
116.4564392373898
 31
0.0000000000000000
  0
LINE
  5
B3
100
AcDbEntity
  8
A4
  6
CONTINUOUS
 62
7
100
AcDbLine
 10
365.0001830000001
 20
310.5000000000000
 30
0.0000000000000000
 11
365.0001830000001
 21
116.4564392373895
 31
0.0000000000000000
  0
LINE
  5
B4
100
AcDbEntity
  8
A4
  6
CONTINUOUS
 62
7
100
AcDbLine
 10
349.0001830000001
 20
331.9999999999999
 30
0.0000000000000000
 11
349.0001830000001
 21
713.5000000000001
 31
0.0000000000000000
  0
LINE
  5
B5
100
AcDbEntity
  8
A4
  6
CONTINUOUS
 62
7
100
AcDbLine
 10
349.0001830000002
 20
318.5000000000000
 30
0.0000000000000000
 11
349.0001830000002
 21
330.0000000000000
 31
0.0000000000000000
  0
LINE
  5
B6
100
AcDbEntity
  8
A4
  6
CONTINUOUS
 62
7
100
AcDbLine
 10
349.0001830000002
 20
312.5000000000000
 30
0.0000000000000000
 11
349.0001830000002
 21
316.5000000000000
 31
0.0000000000000000
  0
LINE
  5
B7
100
AcDbEntity
  8
A4
  6
CONTINUOUS
 62
7
100
AcDbLine
 10
371.0001829999999
 20
331.9999999999999
 30
0.0000000000000000
 11
371.0001829999999
 21
714.9999999999998
 31
0.0000000000000000
  0
LINE
  5
B8
100
AcDbEntity
  8
A4
  6
CONTINUOUS
 62
7
100
AcDbLine
 10
371.0001830000002
 20
318.5000000000000
 30
0.0000000000000000
 11
371.0001830000002
 21
330.0000000000000
 31
0.0000000000000000
  0
LINE
  5
B9
100
AcDbEntity
  8
A4
  6
CONTINUOUS
 62
7
100
AcDbLine
 10
371.0001830000002
 20
312.5000000000000
 30
0.0000000000000000
 11
371.0001830000002
 21
316.5000000000000
 31
0.0000000000000000
  0
LINE
  5
BA
100
AcDbEntity
  8
A4
  6
CONTINUOUS
 62
7
100
AcDbLine
 10
349.0001830000002
 20
331.9999999999999
 30
0.0000000000000000
 11
371.0001830000002
 21
331.9999999999999
 31
0.0000000000000000
  0
LINE
  5
BB
100
AcDbEntity
  8
A4
  6
CONTINUOUS
 62
7
100
AcDbLine
 10
349.0001830000002
 20
330.0000000000000
 30
0.0000000000000000
 11
371.0001830000002
 21
330.0000000000000
 31
0.0000000000000000
  0
LINE
  5
BC
100
AcDbEntity
  8
A4
  6
CONTINUOUS
 62
7
100
AcDbLine
 10
349.0001830000002
 20
318.5000000000000
 30
0.0000000000000000
 11
371.0001830000002
 21
318.5000000000000
 31
0.0000000000000000
  0
LINE
  5
BD
100
AcDbEntity
  8
A4
  6
CONTINUOUS
 62
7
100
AcDbLine
 10
349.0001830000002
 20
316.5000000000000
 30
0.0000000000000000
 11
371.0001830000002
 21
316.5000000000000
 31
0.0000000000000000
  0
LINE
  5
BE
100
AcDbEntity
  8
A4
  6
CONTINUOUS
 62
7
100
AcDbLine
 10
370.0001830000002
 20
312.5000000000000
 30
0.0000000000000000
 11
370.0001830000002
 21
310.5000000000000
 31
0.0000000000000000
  0
LINE
  5
BF
100
AcDbEntity
  8
A4
  6
CONTINUOUS
 62
7
100
AcDbLine
 10
350.0001830000002
 20
312.5000000000000
 30
0.0000000000000000
 11
350.0001830000002
 21
310.5000000000000
 31
0.0000000000000000
  0
LINE
  5
C0
100
AcDbEntity
  8
A4
  6
CONTINUOUS
 62
7
100
AcDbLine
 10
350.0001830000002
 20
310.5000000000000
 30
0.0000000000000000
 11
370.0001830000002
 21
310.5000000000000
 31
0.0000000000000000
  0
LINE
  5
C1
100
AcDbEntity
  8
A4
  6
CONTINUOUS
 62
7
100
AcDbLine
 10
349.0001830000002
 20
312.5000000000000
 30
0.0000000000000000
 11
371.0001830000002
 21
312.5000000000000
 31
0.0000000000000000
  0
LINE
  5
C2
100
AcDbEntity
  8
A4
  6
CONTINUOUS
 62
7
100
AcDbLine
 10
349.2001829999999
 20
715.3999999999999
 30
0.0000000000000000
 11
350.0001829999997
 21
716.9999999999998
 31
0.0000000000000000
  0
LINE
  5
C3
100
AcDbEntity
  8
A4
  6
CONTINUOUS
 62
7
100
AcDbLine
 10
371.0001829999997
 20
714.9999999999998
 30
0.0000000000000000
 11
370.0001829999998
 21
716.9999999999998
 31
0.0000000000000000
  0
LINE
  5
C4
100
AcDbEntity
  8
A4
  6
CONTINUOUS
 62
7
100
AcDbLine
 10
353.0001830000000
 20
716.9999999999997
 30
0.0000000000000000
 11
355.5001830000001
 21
719.4999999999998
 31
0.0000000000000000
  0
LINE
  5
C5
100
AcDbEntity
  8
A4
  6
CONTINUOUS
 62
7
100
AcDbLine
 10
367.0001829999998
 20
716.9999999999997
 30
0.0000000000000000
 11
364.5001829999998
 21
719.4999999999995
 31
0.0000000000000000
  0
LINE
  5
C6
100
AcDbEntity
  8
A4
  6
CONTINUOUS
 62
7
100
AcDbLine
 10
349.2001829999999
 20
714.9999999999998
 30
0.0000000000000000
 11
371.0001829999999
 21
714.9999999999998
 31
0.0000000000000000
  0
LINE
  5
C7
100
AcDbEntity
  8
A4
  6
CONTINUOUS
 62
7
100
AcDbLine
 10
350.0001829999999
 20
716.9999999999998
 30
0.0000000000000000
 11
370.0001830000001
 21
716.9999999999998
 31
0.0000000000000000
  0
LINE
  5
C8
100
AcDbEntity
  8
A4
  6
CONTINUOUS
 62
7
100
AcDbLine
 10
351.0001830000001
 20
719.4999999999998
 30
0.0000000000000000
 11
369.0001829999999
 21
719.4999999999998
 31
0.0000000000000000
  0
LINE
  5
C9
100
AcDbEntity
  8
A4
  6
CONTINUOUS
 62
7
100
AcDbLine
 10
351.0001830000001
 20
731.2283219320241
 30
0.0000000000000000
 11
351.0001830000001
 21
728.5785519999998
 31
0.0000000000000000
  0
LINE
  5
CA
100
AcDbEntity
  8
A4
  6
CONTINUOUS
 62
7
100
AcDbLine
 10
369.0001829999999
 20
743.5000000000000
 30
0.0000000000000000
 11
369.0001829999999
 21
728.5785519999998
 31
0.0000000000000000
  0
LINE
  5
CB
100
AcDbEntity
  8
A4
  6
CONTINUOUS
 62
7
100
AcDbLine
 10
351.0001830000000
 20
728.5785519999999
 30
0.0000000000000000
 11
349.2001829999999
 21
722.2078551999996
 31
0.0000000000000000
  0
LINE
  5
CC
100
AcDbEntity
  8
A4
  6
CONTINUOUS
 62
7
100
AcDbLine
 10
369.0001829999998
 20
728.5785519999999
 30
0.0000000000000000
 11
371.0001829999998
 21
721.4999999999998
 31
0.0000000000000000
  0
LINE
  5
CD
100
AcDbEntity
  8
A2
  6
CENTER
 62
4
100
AcDbLine
 10
370.0001830000002
 20
277.5000000000000
 30
0.0000000000000000
 11
350.0001830000000
 21
277.5000000000000
 31
0.0000000000000000
  0
LINE
  5
CE
100
AcDbEntity
  8
A4
  6
CONTINUOUS
 62
7
100
AcDbLine
 10
207.0000920000000
 20
0.009109000000016465
 30
0.0000000000000000
 11
207.0000920000000
 21
-17.99089099999998
 31
0.0000000000000000
  0
LINE
  5
CF
100
AcDbEntity
  8
A4
  6
CONTINUOUS
 62
7
100
AcDbLine
 10
203.8000950000001
 20
0.009109000000016465
 30
0.0000000000000000
 11
207.0000920000000
 21
0.009109000000016465
 31
0.0000000000000000
  0
LINE
  5
D0
100
AcDbEntity
  8
A4
  6
CONTINUOUS
 62
7
100
AcDbLine
 10
203.8000950000001
 20
-17.99089099999998
 30
0.0000000000000000
 11
207.0000920000000
 21
-17.99089099999998
 31
0.0000000000000000
  0
LINE
  5
D1
100
AcDbEntity
  8
A4
  6
CONTINUOUS
 62
7
100
AcDbLine
 10
203.8000950000001
 20
0.009109000000016465
 30
0.0000000000000000
 11
203.8000950000001
 21
-17.99089099999998
 31
0.0000000000000000
  0
LINE
  5
D2
100
AcDbEntity
  8
A2
  6
CENTER
 62
4
100
AcDbLine
 10
200.0000920000000
 20
8.009109000000016
 30
0.0000000000000000
 11
200.0000920000000
 21
-25.99089099999998
 31
0.0000000000000000
  0
LINE
  5
D3
100
AcDbEntity
  8
A4
  6
CONTINUOUS
 62
7
100
AcDbLine
 10
207.0000920000000
 20
828.1858519999998
 30
0.0000000000000000
 11
207.0000920000000
 21
846.1858519999998
 31
0.0000000000000000
  0
LINE
  5
D4
100
AcDbEntity
  8
A2
  6
CENTER
 62
4
100
AcDbLine
 10
200.0000920000000
 20
820.1858519999998
 30
0.0000000000000000
 11
200.0000920000000
 21
854.1858519999998
 31
0.0000000000000000
  0
LINE
  5
D5
100
AcDbEntity
  8
A4
  6
CONTINUOUS
 62
7
100
AcDbLine
 10
203.8000950000001
 20
828.1858519999998
 30
0.0000000000000000
 11
207.0000920000000
 21
828.1858519999998
 31
0.0000000000000000
  0
LINE
  5
D6
100
AcDbEntity
  8
A4
  6
CONTINUOUS
 62
7
100
AcDbLine
 10
203.8000950000001
 20
846.1858519999998
 30
0.0000000000000000
 11
207.0000920000000
 21
846.1858519999998
 31
0.0000000000000000
  0
LINE
  5
D7
100
AcDbEntity
  8
A4
  6
CONTINUOUS
 62
7
100
AcDbLine
 10
203.8000950000001
 20
828.1858519999998
 30
0.0000000000000000
 11
203.8000950000001
 21
846.1858519999998
 31
0.0000000000000000
  0
LINE
  5
D8
100
AcDbEntity
  8
A4
  6
CONTINUOUS
 62
7
100
AcDbLine
 10
207.0000919999999
 20
846.1858519999998
 30
0.0000000000000000
 11
196.1705930000000
 21
848.1592399999998
 31
0.0000000000000000
  0
LINE
  5
D9
100
AcDbEntity
  8
A4
  6
CONTINUOUS
 62
7
100
AcDbLine
 10
207.0000919999999
 20
828.1858519999997
 30
0.0000000000000000
 11
196.1705929999999
 21
826.2125239999999
 31
0.0000000000000000
  0
LINE
  5
DA
100
AcDbEntity
  8
A4
  6
CONTINUOUS
 62
7
100
AcDbLine
 10
207.0000920000000
 20
0.009109000000030676
 30
0.0000000000000000
 11
196.1713870000001
 21
1.982460000000032
 31
0.0000000000000000
  0
LINE
  5
DB
100
AcDbEntity
  8
A4
  6
CONTINUOUS
 62
7
100
AcDbLine
 10
207.0000920000000
 20
-17.99089099999996
 30
0.0000000000000000
 11
196.1713870000001
 21
-19.96424199999996
 31
0.0000000000000000
  0
LINE
  5
DC
100
AcDbEntity
  8
A4
  6
CONTINUOUS
 62
7
100
AcDbLine
 10
505.0003049999998
 20
310.5000000000000
 30
0.0000000000000000
 11
505.0003049999998
 21
101.5000000000000
 31
0.0000000000000000
  0
LINE
  5
DD
100
AcDbEntity
  8
A4
  6
CONTINUOUS
 62
7
100
AcDbLine
 10
515.0003050000000
 20
310.5000000000000
 30
0.0000000000000000
 11
515.0003050000000
 21
101.5000000000000
 31
0.0000000000000000
  0
LINE
  5
DE
100
AcDbEntity
  8
A4
  6
CONTINUOUS
 62
7
100
AcDbLine
 10
499.0003049999998
 20
331.9999999999999
 30
0.0000000000000000
 11
499.0003049999998
 21
714.9999999999998
 31
0.0000000000000000
  0
LINE
  5
DF
100
AcDbEntity
  8
A4
  6
CONTINUOUS
 62
7
100
AcDbLine
 10
499.0003050000001
 20
318.5000000000000
 30
0.0000000000000000
 11
499.0003050000001
 21
330.0000000000000
 31
0.0000000000000000
  0
LINE
  5
E0
100
AcDbEntity
  8
A4
  6
CONTINUOUS
 62
7
100
AcDbLine
 10
499.0003050000001
 20
312.5000000000000
 30
0.0000000000000000
 11
499.0003050000001
 21
316.5000000000000
 31
0.0000000000000000
  0
LINE
  5
E1
100
AcDbEntity
  8
A4
  6
CONTINUOUS
 62
7
100
AcDbLine
 10
521.0003049999998
 20
331.9999999999999
 30
0.0000000000000000
 11
521.0003049999998
 21
714.9999999999998
 31
0.0000000000000000
  0
LINE
  5
E2
100
AcDbEntity
  8
A4
  6
CONTINUOUS
 62
7
100
AcDbLine
 10
521.0003050000001
 20
318.5000000000000
 30
0.0000000000000000
 11
521.0003050000001
 21
330.0000000000000
 31
0.0000000000000000
  0
LINE
  5
E3
100
AcDbEntity
  8
A4
  6
CONTINUOUS
 62
7
100
AcDbLine
 10
521.0003050000001
 20
312.5000000000000
 30
0.0000000000000000
 11
521.0003050000001
 21
316.5000000000000
 31
0.0000000000000000
  0
LINE
  5
E4
100
AcDbEntity
  8
A4
  6
CONTINUOUS
 62
7
100
AcDbLine
 10
499.0003050000001
 20
331.9999999999999
 30
0.0000000000000000
 11
521.0003050000001
 21
331.9999999999999
 31
0.0000000000000000
  0
LINE
  5
E5
100
AcDbEntity
  8
A4
  6
CONTINUOUS
 62
7
100
AcDbLine
 10
499.0003050000001
 20
330.0000000000000
 30
0.0000000000000000
 11
521.0003050000001
 21
330.0000000000000
 31
0.0000000000000000
  0
LINE
  5
E6
100
AcDbEntity
  8
A4
  6
CONTINUOUS
 62
7
100
AcDbLine
 10
499.0003050000001
 20
318.5000000000000
 30
0.0000000000000000
 11
521.0003050000001
 21
318.5000000000000
 31
0.0000000000000000
  0
LINE
  5
E7
100
AcDbEntity
  8
A4
  6
CONTINUOUS
 62
7
100
AcDbLine
 10
499.0003050000001
 20
316.5000000000000
 30
0.0000000000000000
 11
521.0003050000001
 21
316.5000000000000
 31
0.0000000000000000
  0
LINE
  5
E8
100
AcDbEntity
  8
A4
  6
CONTINUOUS
 62
7
100
AcDbLine
 10
520.0003050000001
 20
312.5000000000000
 30
0.0000000000000000
 11
520.0003050000001
 21
310.5000000000000
 31
0.0000000000000000
  0
LINE
  5
E9
100
AcDbEntity
  8
A4
  6
CONTINUOUS
 62
7
100
AcDbLine
 10
500.0003050000001
 20
312.5000000000000
 30
0.0000000000000000
 11
500.0003050000001
 21
310.5000000000000
 31
0.0000000000000000
  0
LINE
  5
EA
100
AcDbEntity
  8
A4
  6
CONTINUOUS
 62
7
100
AcDbLine
 10
500.0003050000001
 20
310.5000000000000
 30
0.0000000000000000
 11
520.0003050000001
 21
310.5000000000000
 31
0.0000000000000000
  0
LINE
  5
EB
100
AcDbEntity
  8
A4
  6
CONTINUOUS
 62
7
100
AcDbLine
 10
499.0003050000001
 20
312.5000000000000
 30
0.0000000000000000
 11
521.0003050000001
 21
312.5000000000000
 31
0.0000000000000000
  0
LINE
  5
EC
100
AcDbEntity
  8
A2
  6
CENTER
 62
4
100
AcDbLine
 10
510.0003050000000
 20
758.5000000000000
 30
0.0000000000000000
 11
510.0003050000000
 21
62.49999999999968
 31
0.0000000000000000
  0
LINE
  5
ED
100
AcDbEntity
  8
A4
  6
CONTINUOUS
 62
7
100
AcDbLine
 10
521.0003049999997
 20
714.9999999999998
 30
0.0000000000000000
 11
520.0003049999997
 21
716.9999999999998
 31
0.0000000000000000
  0
LINE
  5
EE
100
AcDbEntity
  8
A4
  6
CONTINUOUS
 62
7
100
AcDbLine
 10
499.0003049999997
 20
714.9999999999998
 30
0.0000000000000000
 11
500.0003049999998
 21
717.0000000000000
 31
0.0000000000000000
  0
LINE
  5
EF
100
AcDbEntity
  8
A4
  6
CONTINUOUS
 62
7
100
AcDbLine
 10
500.0003049999998
 20
716.9999999999998
 30
0.0000000000000000
 11
520.0003049999998
 21
716.9999999999998
 31
0.0000000000000000
  0
LINE
  5
F0
100
AcDbEntity
  8
A4
  6
CONTINUOUS
 62
7
100
AcDbLine
 10
499.0003049999998
 20
714.9999999999998
 30
0.0000000000000000
 11
521.0003049999998
 21
714.9999999999998
 31
0.0000000000000000
  0
LINE
  5
F1
100
AcDbEntity
  8
A4
  6
CONTINUOUS
 62
7
100
AcDbLine
 10
503.0003049999999
 20
716.9999999999999
 30
0.0000000000000000
 11
505.9431160000001
 21
719.9428110000001
 31
0.0000000000000000
  0
LINE
  5
F2
100
AcDbEntity
  8
A4
  6
CONTINUOUS
 62
7
100
AcDbLine
 10
517.0003049999997
 20
716.9999999999997
 30
0.0000000000000000
 11
514.5003050000000
 21
719.4999999999995
 31
0.0000000000000000
  0
LINE
  5
F3
100
AcDbEntity
  8
A4
  6
CONTINUOUS
 62
7
100
AcDbLine
 10
506.2002870000001
 20
752.5000000000000
 30
0.0000000000000000
 11
503.0003049999998
 21
752.5000000000000
 31
0.0000000000000000
  0
LINE
  5
F4
100
AcDbEntity
  8
A4
  6
CONTINUOUS
 62
7
100
AcDbLine
 10
503.0003049999998
 20
724.4999999999998
 30
0.0000000000000000
 11
503.0003049999998
 21
752.5000000000000
 31
0.0000000000000000
  0
LINE
  5
F5
100
AcDbEntity
  8
A4
  6
CONTINUOUS
 62
7
100
AcDbLine
 10
511.2420040000002
 20
720.3551020000001
 30
0.0000000000000000
 11
505.3433840000001
 21
724.2336420000004
 31
0.0000000000000000
  0
LINE
  5
F6
100
AcDbEntity
  8
A4
  6
CONTINUOUS
 62
7
100
AcDbLine
 10
513.0001219999998
 20
723.0288689999998
 30
0.0000000000000000
 11
507.1014709999998
 21
726.9074399999996
 31
0.0000000000000000
  0
LINE
  5
F7
100
AcDbEntity
  8
A4
  6
CONTINUOUS
 62
7
100
AcDbLine
 10
506.2002870000001
 20
728.5785519999998
 30
0.0000000000000000
 11
506.2002870000001
 21
752.5000000000000
 31
0.0000000000000000
  0
LINE
  5
F8
100
AcDbEntity
  8
A4
  6
CONTINUOUS
 62
7
100
AcDbLine
 10
517.5003049999998
 20
719.4999999999998
 30
0.0000000000000000
 11
517.5003049999998
 21
722.6999809999998
 31
0.0000000000000000
  0
LINE
  5
F9
100
AcDbEntity
  8
A4
  6
CONTINUOUS
 62
7
100
AcDbLine
 10
517.5003049999998
 20
722.6999809999998
 30
0.0000000000000000
 11
514.0989380000001
 21
722.6999809999998
 31
0.0000000000000000
  0
LINE
  5
FA
100
AcDbEntity
  8
A4
  6
CONTINUOUS
 62
7
100
AcDbLine
 10
517.5003049999998
 20
719.4999999999998
 30
0.0000000000000000
 11
508.0003049999998
 21
719.4999999999998
 31
0.0000000000000000
  0
LINE
  5
FB
100
AcDbEntity
  8
A3
  6
PHANTOM
 62
1
100
AcDbLine
 10
506.2002870000002
 20
268.5000000000000
 30
0.0000000000000000
 11
503.0003049999999
 21
268.5000000000000
 31
0.0000000000000000
  0
LINE
  5
FC
100
AcDbEntity
  8
A3
  6
PHANTOM
 62
1
100
AcDbLine
 10
503.0003049999999
 20
296.5000149999998
 30
0.0000000000000000
 11
503.0003049999999
 21
268.5000000000000
 31
0.0000000000000000
  0
LINE
  5
FD
100
AcDbEntity
  8
A3
  6
PHANTOM
 62
1
100
AcDbLine
 10
511.2420040000003
 20
300.6448820000000
 30
0.0000000000000000
 11
505.3433840000000
 21
296.7663419999999
 31
0.0000000000000000
  0
LINE
  5
FE
100
AcDbEntity
  8
A3
  6
PHANTOM
 62
1
100
AcDbLine
 10
513.0001220000001
 20
297.9711150000001
 30
0.0000000000000000
 11
507.1014710000002
 21
294.0925590000002
 31
0.0000000000000000
  0
LINE
  5
FF
100
AcDbEntity
  8
A3
  6
PHANTOM
 62
1
100
AcDbLine
 10
506.2002870000002
 20
292.4214629999999
 30
0.0000000000000000
 11
506.2002870000002
 21
268.5000000000000
 31
0.0000000000000000
  0
LINE
  5
100
100
AcDbEntity
  8
A3
  6
PHANTOM
 62
1
100
AcDbLine
 10
517.5003049999999
 20
301.5000149999998
 30
0.0000000000000000
 11
517.5003049999999
 21
298.3000029999999
 31
0.0000000000000000
  0
LINE
  5
101
100
AcDbEntity
  8
A3
  6
PHANTOM
 62
1
100
AcDbLine
 10
517.5003049999999
 20
298.3000029999999
 30
0.0000000000000000
 11
514.0989380000002
 21
298.3000029999999
 31
0.0000000000000000
  0
LINE
  5
102
100
AcDbEntity
  8
A3
  6
PHANTOM
 62
1
100
AcDbLine
 10
517.5003049999999
 20
301.5000149999998
 30
0.0000000000000000
 11
505.0003049999999
 21
301.5000149999998
 31
0.0000000000000000
  0
LINE
  5
103
100
AcDbEntity
  8
A2
  6
CENTER
 62
4
100
AcDbLine
 10
485.5003049999998
 20
77.50000000000003
 30
0.0000000000000000
 11
519.0003049999998
 21
77.50000000000003
 31
0.0000000000000000
  0
LINE
  5
104
100
AcDbEntity
  8
A2
  6
CENTER
 62
4
100
AcDbLine
 10
469.5003050000000
 20
743.5000000000000
 30
0.0000000000000000
 11
519.0003049999998
 21
743.5000000000000
 31
0.0000000000000000
  0
LINE
  5
105
100
AcDbEntity
  8
A4
  6
CONTINUOUS
 62
7
100
AcDbLine
 10
203.8000950000001
 20
92.42146299999993
 30
0.0000000000000000
 11
203.8000950000001
 21
68.49999999999972
 31
0.0000000000000000
  0
LINE
  5
106
100
AcDbEntity
  8
A4
  6
CONTINUOUS
 62
7
100
AcDbLine
 10
203.8000950000001
 20
68.49999999999972
 30
0.0000000000000000
 11
207.0000920000000
 21
68.49999999999972
 31
0.0000000000000000
  0
LINE
  5
107
100
AcDbEntity
  8
A4
  6
CONTINUOUS
 62
7
100
AcDbLine
 10
207.0000920000000
 20
96.49999999999983
 30
0.0000000000000000
 11
207.0000920000000
 21
68.49999999999972
 31
0.0000000000000000
  0
LINE
  5
108
100
AcDbEntity
  8
A4
  6
CONTINUOUS
 62
7
100
AcDbLine
 10
198.7583769999999
 20
100.6448969999999
 30
0.0000000000000000
 11
204.6570129999998
 21
96.76634199999998
 31
0.0000000000000000
  0
LINE
  5
109
100
AcDbEntity
  8
A4
  6
CONTINUOUS
 62
7
100
AcDbLine
 10
197.0002899999998
 20
97.97111500000017
 30
0.0000000000000000
 11
202.8989109999999
 21
94.09255900000015
 31
0.0000000000000000
  0
LINE
  5
10A
100
AcDbEntity
  8
A4
  6
CONTINUOUS
 62
7
100
AcDbLine
 10
192.5000920000000
 20
98.30000299999983
 30
0.0000000000000000
 11
195.9014740000000
 21
98.30000299999983
 31
0.0000000000000000
  0
LINE
  5
10B
100
AcDbEntity
  8
A4
  6
CONTINUOUS
 62
7
100
AcDbLine
 10
192.5000920000000
 20
101.5000000000000
 30
0.0000000000000000
 11
192.5000920000000
 21
98.30000299999983
 31
0.0000000000000000
  0
LINE
  5
10C
100
AcDbEntity
  8
A4
  6
CONTINUOUS
 62
7
100
AcDbLine
 10
192.5000920000000
 20
101.5000000000000
 30
0.0000000000000000
 11
205.0000920000000
 21
101.5000000000000
 31
0.0000000000000000
  0
LINE
  5
10D
100
AcDbEntity
  8
A4
  6
CONTINUOUS
 62
7
100
AcDbLine
 10
503.0003049999998
 20
96.49999999999983
 30
0.0000000000000000
 11
503.0003049999998
 21
68.49999999999972
 31
0.0000000000000000
  0
LINE
  5
10E
100
AcDbEntity
  8
A4
  6
CONTINUOUS
 62
7
100
AcDbLine
 10
506.2002870000001
 20
92.42146299999993
 30
0.0000000000000000
 11
506.2002870000001
 21
68.49999999999972
 31
0.0000000000000000
  0
LINE
  5
10F
100
AcDbEntity
  8
A4
  6
CONTINUOUS
 62
7
100
AcDbLine
 10
506.2002870000001
 20
68.49999999999972
 30
0.0000000000000000
 11
503.0003049999998
 21
68.49999999999972
 31
0.0000000000000000
  0
LINE
  5
110
100
AcDbEntity
  8
A4
  6
CONTINUOUS
 62
7
100
AcDbLine
 10
511.2420040000002
 20
100.6448970000000
 30
0.0000000000000000
 11
505.3433840000000
 21
96.76634200000012
 31
0.0000000000000000
  0
LINE
  5
111
100
AcDbEntity
  8
A4
  6
CONTINUOUS
 62
7
100
AcDbLine
 10
517.5003049999998
 20
101.5000000000000
 30
0.0000000000000000
 11
505.0003049999998
 21
101.5000000000000
 31
0.0000000000000000
  0
LINE
  5
112
100
AcDbEntity
  8
A4
  6
CONTINUOUS
 62
7
100
AcDbLine
 10
513.0001219999999
 20
97.97111500000008
 30
0.0000000000000000
 11
507.1014710000001
 21
94.09255900000008
 31
0.0000000000000000
  0
LINE
  5
113
100
AcDbEntity
  8
A4
  6
CONTINUOUS
 62
7
100
AcDbLine
 10
517.5003049999998
 20
98.30000299999983
 30
0.0000000000000000
 11
514.0989380000001
 21
98.30000299999983
 31
0.0000000000000000
  0
LINE
  5
114
100
AcDbEntity
  8
A4
  6
CONTINUOUS
 62
7
100
AcDbLine
 10
517.5003049999998
 20
101.5000000000000
 30
0.0000000000000000
 11
517.5003049999998
 21
98.30000299999983
 31
0.0000000000000000
  0
LINE
  5
115
100
AcDbEntity
  8
A2
  6
CENTER
 62
4
100
AcDbLine
 10
187.3722990000000
 20
277.5000000000000
 30
0.0000000000000000
 11
224.5000950000001
 21
277.5000000000000
 31
0.0000000000000000
  0
LINE
  5
116
100
AcDbEntity
  8
A2
  6
CENTER
 62
4
100
AcDbLine
 10
498.6000670000000
 20
277.5000000000000
 30
0.0000000000000000
 11
520.4778440000001
 21
277.5000000000000
 31
0.0000000000000000
  0
LINE
  5
117
100
AcDbEntity
  8
A2
  6
CENTER
 62
4
100
AcDbLine
 10
224.5000950000000
 20
77.50000000000003
 30
0.0000000000000000
 11
191.0000949999999
 21
77.50000000000003
 31
0.0000000000000000
  0
LINE
  5
118
100
AcDbEntity
  8
A2
  6
CENTER
 62
4
100
AcDbLine
 10
240.5000949999999
 20
743.5000000000000
 30
0.0000000000000000
 11
191.0000949999998
 21
743.5000000000000
 31
0.0000000000000000
  0
ARC
  5
119
100
AcDbEntity
  8
A3
  6
PHANTOM
 62
1
100
AcDbCircle
 10
201.8000950000001
 20
292.4214629999999
 30
0.0000000000000000
 40
2.000000000000000
100
AcDbArc
 50
0.0000000000000000
 51
56.67370999999999
  0
ARC
  5
11A
100
AcDbEntity
  8
A3
  6
PHANTOM
 62
1
100
AcDbCircle
 10
195.9014740000001
 20
296.3000029999999
 30
0.0000000000000000
 40
2.000000000000000
100
AcDbArc
 50
56.67370999999999
 51
90.00000300000002
  0
ARC
  5
11B
100
AcDbEntity
  8
A3
  6
PHANTOM
 62
1
100
AcDbCircle
 10
201.8000950000001
 20
292.4214629999999
 30
0.0000000000000000
 40
5.200000000000000
100
AcDbArc
 50
0.0000000000000000
 51
56.67370999999999
  0
ARC
  5
11C
100
AcDbEntity
  8
A3
  6
PHANTOM
 62
1
100
AcDbCircle
 10
195.9014740000001
 20
296.3000029999999
 30
0.0000000000000000
 40
5.200000000000000
100
AcDbArc
 50
56.67370999999999
 51
90.00000300000002
  0
ARC
  5
11D
100
AcDbEntity
  8
A3
  6
PHANTOM
 62
1
100
AcDbCircle
 10
202.0000920000001
 20
296.5000149999998
 30
0.0000000000000000
 40
5.000000000000000
100
AcDbArc
 50
0.0000000000000000
 51
90.00000300000002
  0
ARC
  5
11E
100
AcDbEntity
  8
A4
  6
CONTINUOUS
 62
7
100
AcDbCircle
 10
360.0001829999999
 20
743.5000000000000
 30
0.0000000000000000
 40
9.000000000000000
100
AcDbArc
 50
0.0000000000000000
 51
95.23664160824517
  0
ARC
  5
11F
100
AcDbEntity
  8
A4
  6
CONTINUOUS
 62
7
100
AcDbCircle
 10
201.8000950000001
 20
728.5785519999998
 30
0.0000000000000000
 40
2.000000000000000
100
AcDbArc
 50
303.3262899999999
 51
360.0000000000000
  0
ARC
  5
120
100
AcDbEntity
  8
A4
  6
CONTINUOUS
 62
7
100
AcDbCircle
 10
195.9014740000000
 20
724.6999810000000
 30
0.0000000000000000
 40
2.000000000000000
100
AcDbArc
 50
269.9999969999999
 51
303.3262899999999
  0
ARC
  5
121
100
AcDbEntity
  8
A4
  6
CONTINUOUS
 62
7
100
AcDbCircle
 10
201.8000950000001
 20
728.5785519999998
 30
0.0000000000000000
 40
5.200000000000000
100
AcDbArc
 50
303.3262899999999
 51
360.0000000000000
  0
ARC
  5
122
100
AcDbEntity
  8
A4
  6
CONTINUOUS
 62
7
100
AcDbCircle
 10
195.9014740000000
 20
724.6999810000000
 30
0.0000000000000000
 40
5.200000000000000
100
AcDbArc
 50
269.9999969999999
 51
303.3262899999999
  0
ARC
  5
123
100
AcDbEntity
  8
A4
  6
CONTINUOUS
 62
7
100
AcDbCircle
 10
202.0000920000000
 20
724.4999999999998
 30
0.0000000000000000
 40
5.000000000000000
100
AcDbArc
 50
269.9999969999999
 51
360.0000000000000
  0
ARC
  5
124
100
AcDbEntity
  8
A4
  6
CONTINUOUS
 62
7
100
AcDbCircle
 10
39.00000000000021
 20
317.4999999999999
 30
0.0000000000000000
 40
1.000000000000000
100
AcDbArc
 50
269.9999969999999
 51
450.0000030000000
  0
ARC
  5
125
100
AcDbEntity
  8
A4
  6
CONTINUOUS
 62
7
100
AcDbCircle
 10
39.00000000000021
 20
331.0000000000000
 30
0.0000000000000000
 40
1.000000000000000
100
AcDbArc
 50
269.9999969999999
 51
450.0000030000000
  0
ARC
  5
126
100
AcDbEntity
  8
A4
  6
CONTINUOUS
 62
7
100
AcDbCircle
 10
61.00000000000021
 20
317.4999999999999
 30
0.0000000000000000
 40
1.000000000000000
100
AcDbArc
 50
90.00000300000002
 51
270.0000010000000
  0
ARC
  5
127
100
AcDbEntity
  8
A4
  6
CONTINUOUS
 62
7
100
AcDbCircle
 10
61.00000000000021
 20
331.0000000000000
 30
0.0000000000000000
 40
1.000000000000000
100
AcDbArc
 50
90.00000300000002
 51
270.0000010000000
  0
ARC
  5
128
100
AcDbEntity
  8
A4
  6
CONTINUOUS
 62
7
100
AcDbCircle
 10
189.0000920000003
 20
317.4999999999999
 30
0.0000000000000000
 40
1.000000000000000
100
AcDbArc
 50
269.9999969999999
 51
450.0000030000000
  0
ARC
  5
129
100
AcDbEntity
  8
A4
  6
CONTINUOUS
 62
7
100
AcDbCircle
 10
189.0000920000003
 20
331.0000000000000
 30
0.0000000000000000
 40
1.000000000000000
100
AcDbArc
 50
269.9999969999999
 51
450.0000030000000
  0
ARC
  5
12A
100
AcDbEntity
  8
A4
  6
CONTINUOUS
 62
7
100
AcDbCircle
 10
211.0000920000003
 20
317.4999999999999
 30
0.0000000000000000
 40
1.000000000000000
100
AcDbArc
 50
90.00000300000002
 51
270.0000010000000
  0
ARC
  5
12B
100
AcDbEntity
  8
A4
  6
CONTINUOUS
 62
7
100
AcDbCircle
 10
211.0000920000003
 20
331.0000000000000
 30
0.0000000000000000
 40
1.000000000000000
100
AcDbArc
 50
90.00000300000002
 51
270.0000010000000
  0
ARC
  5
12C
100
AcDbEntity
  8
A3
  6
PHANTOM
 62
1
100
AcDbCircle
 10
50.00000000000010
 20
277.5000000000000
 30
0.0000000000000000
 40
9.000000000000000
100
AcDbArc
 50
179.9999949999999
 51
360.0000000000000
  0
ARC
  5
12D
100
AcDbEntity
  8
A4
  6
CONTINUOUS
 62
7
100
AcDbCircle
 10
349.0001830000002
 20
331.0000000000000
 30
0.0000000000000000
 40
1.000000000000000
100
AcDbArc
 50
269.9999969999999
 51
450.0000030000000
  0
ARC
  5
12E
100
AcDbEntity
  8
A4
  6
CONTINUOUS
 62
7
100
AcDbCircle
 10
349.0001830000002
 20
317.4999999999999
 30
0.0000000000000000
 40
1.000000000000000
100
AcDbArc
 50
269.9999969999999
 51
450.0000030000000
  0
ARC
  5
12F
100
AcDbEntity
  8
A4
  6
CONTINUOUS
 62
7
100
AcDbCircle
 10
371.0001830000002
 20
331.0000000000000
 30
0.0000000000000000
 40
1.000000000000000
100
AcDbArc
 50
90.00000300000002
 51
270.0000010000000
  0
ARC
  5
130
100
AcDbEntity
  8
A4
  6
CONTINUOUS
 62
7
100
AcDbCircle
 10
371.0001830000002
 20
317.4999999999999
 30
0.0000000000000000
 40
1.000000000000000
100
AcDbArc
 50
90.00000300000002
 51
270.0000010000000
  0
ARC
  5
131
100
AcDbEntity
  8
A4
  6
CONTINUOUS
 62
7
100
AcDbCircle
 10
351.0001830000001
 20
721.4999999999998
 30
0.0000000000000000
 40
2.000000000000000
100
AcDbArc
 50
205.8419327631558
 51
270.0000010000000
  0
ARC
  5
132
100
AcDbEntity
  8
A4
  6
CONTINUOUS
 62
7
100
AcDbCircle
 10
369.0001829999999
 20
721.4999999999998
 30
0.0000000000000000
 40
2.000000000000000
100
AcDbArc
 50
269.9999969999999
 51
360.0000000000000
  0
ARC
  5
133
100
AcDbEntity
  8
A4
  6
CONTINUOUS
 62
7
100
AcDbCircle
 10
345.6716609999999
 20
724.0392760000000
 30
0.0000000000000000
 40
6.999888999999998
100
AcDbArc
 50
319.5730460000000
 51
400.4269540000000
  0
ARC
  5
134
100
AcDbEntity
  8
A4
  6
CONTINUOUS
 62
7
100
AcDbCircle
 10
369.0001829999999
 20
721.4999999999998
 30
0.0000000000000000
 40
2.000000000000000
100
AcDbArc
 50
269.9999969999999
 51
360.0000000000000
  0
ARC
  5
135
100
AcDbEntity
  8
A4
  6
CONTINUOUS
 62
7
100
AcDbCircle
 10
374.3287349999998
 20
724.0392760000000
 30
0.0000000000000000
 40
6.999888999999998
100
AcDbArc
 50
139.5730439999999
 51
220.4269519999999
  0
ARC
  5
136
100
AcDbEntity
  8
A4
  6
CONTINUOUS
 62
7
100
AcDbCircle
 10
195.8899079999999
 20
0.5091090000000165
 30
0.0000000000000000
 40
1.500000000000000
100
AcDbArc
 50
79.18448700000000
 51
157.0912909999999
  0
ARC
  5
137
100
AcDbEntity
  8
A4
  6
CONTINUOUS
 62
7
100
AcDbCircle
 10
200.0000920000000
 20
837.1858519999998
 30
0.0000000000000000
 40
11.00000000000000
100
AcDbArc
 50
121.7043270000000
 51
238.2956560000000
  0
ARC
  5
138
100
AcDbEntity
  8
A4
  6
CONTINUOUS
 62
7
100
AcDbCircle
 10
200.0000920000000
 20
837.1858519999998
 30
0.0000000000000000
 40
11.00000000000000
100
AcDbArc
 50
256.9546300000000
 51
303.5457900000000
  0
ARC
  5
139
100
AcDbEntity
  8
A4
  6
CONTINUOUS
 62
7
100
AcDbCircle
 10
218.8325810000001
 20
837.1858519999998
 30
0.0000000000000000
 40
26.33248299999999
100
AcDbArc
 50
157.5074410000000
 51
202.4925559999998
  0
ARC
  5
13A
100
AcDbEntity
  8
A4
  6
CONTINUOUS
 62
7
100
AcDbCircle
 10
195.8891300000000
 20
827.6858520000000
 30
0.0000000000000000
 40
1.500000000000000
100
AcDbArc
 50
202.9087089999999
 51
280.8155130000000
  0
ARC
  5
13B
100
AcDbEntity
  8
A4
  6
CONTINUOUS
 62
7
100
AcDbCircle
 10
195.8891300000000
 20
846.6858519999998
 30
0.0000000000000000
 40
1.500000000000000
100
AcDbArc
 50
79.18448700000000
 51
157.0912909999999
  0
ARC
  5
13C
100
AcDbEntity
  8
A4
  6
CONTINUOUS
 62
7
100
AcDbCircle
 10
195.8899079999999
 20
-18.49089099999998
 30
0.0000000000000000
 40
1.500000000000000
100
AcDbArc
 50
202.9087089999999
 51
280.8155130000000
  0
ARC
  5
13D
100
AcDbEntity
  8
A4
  6
CONTINUOUS
 62
7
100
AcDbCircle
 10
218.8231509999998
 20
-8.990890999999984
 30
0.0000000000000000
 40
26.32305500000000
100
AcDbArc
 50
157.4984249999999
 51
202.5015709999999
  0
ARC
  5
13E
100
AcDbEntity
  8
A4
  6
CONTINUOUS
 62
7
100
AcDbCircle
 10
499.0003050000001
 20
331.0000000000000
 30
0.0000000000000000
 40
1.000000000000000
100
AcDbArc
 50
269.9999969999999
 51
450.0000030000000
  0
ARC
  5
13F
100
AcDbEntity
  8
A4
  6
CONTINUOUS
 62
7
100
AcDbCircle
 10
499.0003050000001
 20
317.4999999999999
 30
0.0000000000000000
 40
1.000000000000000
100
AcDbArc
 50
269.9999969999999
 51
450.0000030000000
  0
ARC
  5
140
100
AcDbEntity
  8
A4
  6
CONTINUOUS
 62
7
100
AcDbCircle
 10
521.0003050000001
 20
331.0000000000000
 30
0.0000000000000000
 40
1.000000000000000
100
AcDbArc
 50
90.00000300000002
 51
270.0000010000000
  0
ARC
  5
141
100
AcDbEntity
  8
A4
  6
CONTINUOUS
 62
7
100
AcDbCircle
 10
521.0003050000001
 20
317.4999999999999
 30
0.0000000000000000
 40
1.000000000000000
100
AcDbArc
 50
90.00000300000002
 51
270.0000010000000
  0
ARC
  5
142
100
AcDbEntity
  8
A4
  6
CONTINUOUS
 62
7
100
AcDbCircle
 10
508.0003049999998
 20
724.4999999999998
 30
0.0000000000000000
 40
5.000000000000000
100
AcDbArc
 50
180.0000050000000
 51
270.0000010000000
  0
ARC
  5
143
100
AcDbEntity
  8
A4
  6
CONTINUOUS
 62
7
100
AcDbCircle
 10
514.0989380000001
 20
724.6999810000000
 30
0.0000000000000000
 40
5.200000000000000
100
AcDbArc
 50
236.6737080000000
 51
269.9999969999999
  0
ARC
  5
144
100
AcDbEntity
  8
A4
  6
CONTINUOUS
 62
7
100
AcDbCircle
 10
508.2002870000001
 20
728.5785519999998
 30
0.0000000000000000
 40
5.200000000000000
100
AcDbArc
 50
179.9999949999999
 51
236.6737080000000
  0
ARC
  5
145
100
AcDbEntity
  8
A4
  6
CONTINUOUS
 62
7
100
AcDbCircle
 10
514.0989380000001
 20
724.6999810000000
 30
0.0000000000000000
 40
2.000000000000000
100
AcDbArc
 50
236.6737080000000
 51
269.9999969999999
  0
ARC
  5
146
100
AcDbEntity
  8
A4
  6
CONTINUOUS
 62
7
100
AcDbCircle
 10
508.2002870000001
 20
728.5785519999998
 30
0.0000000000000000
 40
2.000000000000000
100
AcDbArc
 50
179.9999949999999
 51
236.6737080000000
  0
ARC
  5
147
100
AcDbEntity
  8
A3
  6
PHANTOM
 62
1
100
AcDbCircle
 10
508.0003049999999
 20
296.5000149999998
 30
0.0000000000000000
 40
5.000000000000000
100
AcDbArc
 50
90.00000300000002
 51
180.0000050000000
  0
ARC
  5
148
100
AcDbEntity
  8
A3
  6
PHANTOM
 62
1
100
AcDbCircle
 10
514.0989380000002
 20
296.3000029999999
 30
0.0000000000000000
 40
5.200000000000000
100
AcDbArc
 50
90.00000300000002
 51
123.3262920000000
  0
ARC
  5
149
100
AcDbEntity
  8
A3
  6
PHANTOM
 62
1
100
AcDbCircle
 10
508.2002870000002
 20
292.4214629999999
 30
0.0000000000000000
 40
5.200000000000000
100
AcDbArc
 50
123.3262920000000
 51
180.0000050000000
  0
ARC
  5
14A
100
AcDbEntity
  8
A3
  6
PHANTOM
 62
1
100
AcDbCircle
 10
514.0989380000002
 20
296.3000029999999
 30
0.0000000000000000
 40
2.000000000000000
100
AcDbArc
 50
90.00000300000002
 51
123.3262920000000
  0
ARC
  5
14B
100
AcDbEntity
  8
A3
  6
PHANTOM
 62
1
100
AcDbCircle
 10
508.2002870000002
 20
292.4214629999999
 30
0.0000000000000000
 40
2.000000000000000
100
AcDbArc
 50
123.3262920000000
 51
180.0000050000000
  0
ARC
  5
14C
100
AcDbEntity
  8
A4
  6
CONTINUOUS
 62
7
100
AcDbCircle
 10
201.8000950000001
 20
92.42146299999993
 30
0.0000000000000000
 40
2.000000000000000
100
AcDbArc
 50
0.0000000000000000
 51
56.67370999999999
  0
ARC
  5
14D
100
AcDbEntity
  8
A4
  6
CONTINUOUS
 62
7
100
AcDbCircle
 10
201.8000950000001
 20
92.42146299999993
 30
0.0000000000000000
 40
5.200000000000000
100
AcDbArc
 50
0.0000000000000000
 51
56.67370999999999
  0
ARC
  5
14E
100
AcDbEntity
  8
A4
  6
CONTINUOUS
 62
7
100
AcDbCircle
 10
202.0000920000000
 20
96.49999999999983
 30
0.0000000000000000
 40
5.000000000000000
100
AcDbArc
 50
0.0000000000000000
 51
90.00000300000002
  0
ARC
  5
14F
100
AcDbEntity
  8
A4
  6
CONTINUOUS
 62
7
100
AcDbCircle
 10
195.9014740000000
 20
96.30000299999983
 30
0.0000000000000000
 40
2.000000000000000
100
AcDbArc
 50
56.67370999999999
 51
90.00000300000002
  0
ARC
  5
150
100
AcDbEntity
  8
A4
  6
CONTINUOUS
 62
7
100
AcDbCircle
 10
195.9014740000000
 20
96.30000299999983
 30
0.0000000000000000
 40
5.200000000000000
100
AcDbArc
 50
56.67370999999999
 51
90.00000300000002
  0
ARC
  5
151
100
AcDbEntity
  8
A4
  6
CONTINUOUS
 62
7
100
AcDbCircle
 10
508.2002870000001
 20
92.42146299999993
 30
0.0000000000000000
 40
5.200000000000000
100
AcDbArc
 50
123.3262920000000
 51
180.0000050000000
  0
ARC
  5
152
100
AcDbEntity
  8
A4
  6
CONTINUOUS
 62
7
100
AcDbCircle
 10
508.0003049999998
 20
96.49999999999983
 30
0.0000000000000000
 40
5.000000000000000
100
AcDbArc
 50
90.00000300000002
 51
180.0000050000000
  0
ARC
  5
153
100
AcDbEntity
  8
A4
  6
CONTINUOUS
 62
7
100
AcDbCircle
 10
508.2002870000001
 20
92.42146299999993
 30
0.0000000000000000
 40
2.000000000000000
100
AcDbArc
 50
123.3262920000000
 51
180.0000050000000
  0
ARC
  5
154
100
AcDbEntity
  8
A4
  6
CONTINUOUS
 62
7
100
AcDbCircle
 10
514.0989380000001
 20
96.30000299999983
 30
0.0000000000000000
 40
5.200000000000000
100
AcDbArc
 50
90.00000300000002
 51
123.3262920000000
  0
ARC
  5
155
100
AcDbEntity
  8
A4
  6
CONTINUOUS
 62
7
100
AcDbCircle
 10
514.0989380000001
 20
96.30000299999983
 30
0.0000000000000000
 40
2.000000000000000
100
AcDbArc
 50
90.00000300000002
 51
123.3262920000000
  0
ARC
  5
156
100
AcDbEntity
  8
A4
  6
CONTINUOUS
 62
7
100
AcDbCircle
 10
200.0000920000000
 20
837.1858519999998
 30
0.0000000000000000
 40
10.00000000000000
100
AcDbArc
 50
129.3343169999999
 51
230.6656789999999
  0
ARC
  5
157
100
AcDbEntity
  8
A4
  6
CONTINUOUS
 62
7
100
AcDbCircle
 10
200.0000920000000
 20
837.1858519999998
 30
0.0000000000000000
 40
11.00000000000000
100
AcDbArc
 50
56.45427800000000
 51
103.0453700000000
  0
ARC
  5
158
100
AcDbEntity
  8
A4
  6
CONTINUOUS
 62
7
100
AcDbCircle
 10
200.0000920000000
 20
-8.990890999999984
 30
0.0000000000000000
 40
10.00000000000000
100
AcDbArc
 50
129.3299749999999
 51
230.6699959999999
  0
ARC
  5
159
100
AcDbEntity
  8
A4
  6
CONTINUOUS
 62
7
100
AcDbCircle
 10
200.0000920000000
 20
-8.990890999999984
 30
0.0000000000000000
 40
11.00000000000000
100
AcDbArc
 50
121.6990309999999
 51
238.3009290000000
  0
ARC
  5
15A
100
AcDbEntity
  8
A4
  6
CONTINUOUS
 62
7
100
AcDbCircle
 10
200.0000920000000
 20
-8.990890999999984
 30
0.0000000000000000
 40
11.00000000000000
100
AcDbArc
 50
56.45439500000000
 51
102.8898689999999
  0
ARC
  5
15B
100
AcDbEntity
  8
A4
  6
CONTINUOUS
 62
7
100
AcDbCircle
 10
200.0000920000000
 20
-8.990890999999984
 30
0.0000000000000000
 40
11.00000000000000
100
AcDbArc
 50
257.1101310000000
 51
303.5456049999999
  0
ARC
  5
15C
100
AcDbEntity
  8
A2
  6
CONTINUOUS
 62
7
100
AcDbCircle
 10
485.5003049999998
 20
763.5000000000000
 30
0.0000000000000000
 40
10.00000000000000
100
AcDbArc
 50
1.017777498068325e-13
 51
180.0000000000000
  0
CIRCLE
  5
15D
100
AcDbEntity
  8
A2
  6
CONTINUOUS
 62
7
100
AcDbCircle
 10
485.5003049999998
 20
763.5000000000000
 30
0.0000000000000000
 40
3.500000000000000
  0
LINE
  5
15E
100
AcDbEntity
  8
A2
  6
CENTER
 62
4
100
AcDbLine
 10
485.5003050000000
 20
757.0000000000000
 30
0.0000000000000000
 11
485.5003050000000
 21
770.0000000000000
 31
0.0000000000000000
  0
LINE
  5
15F
100
AcDbEntity
  8
A2
  6
CENTER
 62
4
100
AcDbLine
 10
492.0003049999999
 20
763.5000000000000
 30
0.0000000000000000
 11
479.0003050000000
 21
763.5000000000000
 31
0.0000000000000000
  0
LINE
  5
160
100
AcDbEntity
  8
A2
  6
CONTINUOUS
 62
7
100
AcDbLine
 10
475.5003049999999
 20
763.5000000000000
 30
0.0000000000000000
 11
475.5003050000000
 21
723.5000000000000
 31
0.0000000000000000
  0
LINE
  5
161
100
AcDbEntity
  8
A2
  6
CONTINUOUS
 62
7
100
AcDbLine
 10
495.5003049999999
 20
759.5000000000000
 30
0.0000000000000000
 11
495.5003049999999
 21
763.5000000000000
 31
0.0000000000000000
  0
ARC
  5
162
100
AcDbEntity
  8
A2
  6
CONTINUOUS
 62
7
100
AcDbCircle
 10
498.5003049999998
 20
759.5000000000000
 30
0.0000000000000000
 40
3.000000000000000
100
AcDbArc
 50
180.0000000000000
 51
270.0000000000000
  0
LINE
  5
163
100
AcDbEntity
  8
A2
  6
CONTINUOUS
 62
7
100
AcDbLine
 10
498.5003049999999
 20
756.5000000000000
 30
0.0000000000000000
 11
499.5003049999999
 21
756.5000000000000
 31
0.0000000000000000
  0
LINE
  5
164
100
AcDbEntity
  8
A2
  6
CONTINUOUS
 62
7
100
AcDbLine
 10
499.5003049999999
 20
756.5000000000000
 30
0.0000000000000000
 11
499.5003049999999
 21
730.5000000000000
 31
0.0000000000000000
  0
LINE
  5
165
100
AcDbEntity
  8
A2
  6
CONTINUOUS
 62
7
100
AcDbLine
 10
496.3003049999999
 20
729.5396078054371
 30
0.0000000000000000
 11
496.3003049999999
 21
757.4603921945628
 31
0.0000000000000000
  0
LINE
  5
166
100
AcDbEntity
  8
A2
  6
CONTINUOUS
 62
7
100
AcDbLine
 10
495.3003049999999
 20
747.7499999999999
 30
0.0000000000000000
 11
496.3003049999999
 21
747.7499999999999
 31
0.0000000000000000
  0
LINE
  5
167
100
AcDbEntity
  8
A2
  6
CONTINUOUS
 62
7
100
AcDbLine
 10
495.3003049999999
 20
739.2500000000000
 30
0.0000000000000000
 11
495.3003049999999
 21
747.7500000000000
 31
0.0000000000000000
  0
ARC
  5
168
100
AcDbEntity
  8
A2
  6
CONTINUOUS
 62
7
100
AcDbCircle
 10
485.5003049999998
 20
723.5000000000000
 30
0.0000000000000000
 40
10.00000000000000
100
AcDbArc
 50
180.0000000000000
 51
360.0000000000001
  0
CIRCLE
  5
169
100
AcDbEntity
  8
A2
  6
CONTINUOUS
 62
7
100
AcDbCircle
 10
485.5003049999998
 20
723.5000000000000
 30
0.0000000000000000
 40
3.500000000000000
  0
LINE
  5
16A
100
AcDbEntity
  8
A2
  6
CENTER
 62
4
100
AcDbLine
 10
492.0003049999999
 20
723.5000000000000
 30
0.0000000000000000
 11
479.0003050000000
 21
723.5000000000000
 31
0.0000000000000000
  0
LINE
  5
16B
100
AcDbEntity
  8
A2
  6
CENTER
 62
4
100
AcDbLine
 10
485.5003050000000
 20
717.0000000000000
 30
0.0000000000000000
 11
485.5003050000000
 21
730.0000000000000
 31
0.0000000000000000
  0
LINE
  5
16C
100
AcDbEntity
  8
A2
  6
CONTINUOUS
 62
7
100
AcDbLine
 10
495.3003049999999
 20
739.2500000000000
 30
0.0000000000000000
 11
496.3003049999999
 21
739.2500000000000
 31
0.0000000000000000
  0
LINE
  5
16D
100
AcDbEntity
  8
A2
  6
CONTINUOUS
 62
7
100
AcDbLine
 10
495.5003049999999
 20
727.5000000000000
 30
0.0000000000000000
 11
495.5003049999999
 21
723.5000000000000
 31
0.0000000000000000
  0
ARC
  5
16E
100
AcDbEntity
  8
A2
  6
CONTINUOUS
 62
7
100
AcDbCircle
 10
498.5003049999998
 20
727.5000000000000
 30
0.0000000000000000
 40
3.000000000000000
100
AcDbArc
 50
90.00000000000006
 51
180.0000000000000
  0
LINE
  5
16F
100
AcDbEntity
  8
A2
  6
CONTINUOUS
 62
7
100
AcDbLine
 10
498.5003049999999
 20
730.5000000000000
 30
0.0000000000000000
 11
499.5003049999999
 21
730.5000000000000
 31
0.0000000000000000
  0
LINE
  5
170
100
AcDbEntity
  8
A2
  6
CONTINUOUS
 62
7
100
AcDbLine
 10
499.5003049999997
 20
746.9999999999999
 30
0.0000000000000000
 11
500.0003049999997
 21
747.4999999999999
 31
0.0000000000000000
  0
LINE
  5
171
100
AcDbEntity
  8
A2
  6
CONTINUOUS
 62
7
100
AcDbLine
 10
499.5003049999997
 20
739.9999999999999
 30
0.0000000000000000
 11
500.0003049999997
 21
739.4999999999999
 31
0.0000000000000000
  0
LINE
  5
172
100
AcDbEntity
  8
A5
  6
CONTINUOUS
 62
7
100
AcDbLine
 10
500.0003049999999
 20
749.5000000000000
 30
0.0000000000000000
 11
500.0003049999999
 21
737.5000000000000
 31
0.0000000000000000
  0
LINE
  5
173
100
AcDbEntity
  8
A5
  6
CONTINUOUS
 62
7
100
AcDbLine
 10
502.7503049999997
 20
750.9999999999998
 30
0.0000000000000000
 11
500.0003049999997
 21
749.4999999999999
 31
0.0000000000000000
  0
LINE
  5
174
100
AcDbEntity
  8
A5
  6
CONTINUOUS
 62
7
100
AcDbLine
 10
502.7503049999999
 20
750.0000000000000
 30
0.0000000000000000
 11
502.7503049999999
 21
751.0000000000000
 31
0.0000000000000000
  0
LINE
  5
175
100
AcDbEntity
  8
A5
  6
CONTINUOUS
 62
7
100
AcDbLine
 10
503.0003049999999
 20
750.0000000000000
 30
0.0000000000000000
 11
502.7503049999999
 21
750.0000000000000
 31
0.0000000000000000
  0
LINE
  5
176
100
AcDbEntity
  8
A5
  6
CONTINUOUS
 62
7
100
AcDbLine
 10
502.7503049999999
 20
736.0000000000003
 30
0.0000000000000000
 11
500.0003050000000
 21
737.5000000000003
 31
0.0000000000000000
  0
LINE
  5
177
100
AcDbEntity
  8
A5
  6
CONTINUOUS
 62
7
100
AcDbLine
 10
502.7503049999999
 20
736.0000000000000
 30
0.0000000000000000
 11
502.7503049999999
 21
737.0000000000000
 31
0.0000000000000000
  0
LINE
  5
178
100
AcDbEntity
  8
A5
  6
CONTINUOUS
 62
7
100
AcDbLine
 10
503.0003049999999
 20
737.0000000000000
 30
0.0000000000000000
 11
502.7503049999999
 21
737.0000000000000
 31
0.0000000000000000
  0
LINE
  5
179
100
AcDbEntity
  8
A2
  6
CONTINUOUS
 62
7
100
AcDbLine
 10
506.2003049999998
 20
751.0000000000000
 30
0.0000000000000000
 11
507.0003049999998
 21
751.0000000000000
 31
0.0000000000000000
  0
LINE
  5
17A
100
AcDbEntity
  8
A2
  6
CONTINUOUS
 62
7
100
AcDbLine
 10
507.0003049999999
 20
751.0000000000000
 30
0.0000000000000000
 11
507.0003049999999
 21
736.0000000000000
 31
0.0000000000000000
  0
LINE
  5
17B
100
AcDbEntity
  8
A2
  6
CONTINUOUS
 62
7
100
AcDbLine
 10
506.2003049999998
 20
736.0000000000000
 30
0.0000000000000000
 11
507.0003049999998
 21
736.0000000000000
 31
0.0000000000000000
  0
LINE
  5
17C
100
AcDbEntity
  8
A5
  6
CONTINUOUS
 62
7
100
AcDbLine
 10
507.2503049999999
 20
737.0000000000000
 30
0.0000000000000000
 11
507.0003049999999
 21
737.0000000000000
 31
0.0000000000000000
  0
LINE
  5
17D
100
AcDbEntity
  8
A5
  6
CONTINUOUS
 62
7
100
AcDbLine
 10
507.2503049999999
 20
736.6000000000001
 30
0.0000000000000000
 11
507.2503049999999
 21
737.0000000000001
 31
0.0000000000000000
  0
LINE
  5
17E
100
AcDbEntity
  8
A5
  6
CONTINUOUS
 62
7
100
AcDbLine
 10
507.2503050000000
 20
736.6000000000000
 30
0.0000000000000000
 11
510.0003049999999
 21
737.5000000000000
 31
0.0000000000000000
  0
LINE
  5
17F
100
AcDbEntity
  8
A5
  6
CONTINUOUS
 62
7
100
AcDbLine
 10
507.2503049999999
 20
750.0000000000000
 30
0.0000000000000000
 11
507.0003049999999
 21
750.0000000000000
 31
0.0000000000000000
  0
LINE
  5
180
100
AcDbEntity
  8
A5
  6
CONTINUOUS
 62
7
100
AcDbLine
 10
507.2503049999999
 20
750.0000000000000
 30
0.0000000000000000
 11
507.2503049999999
 21
750.4000000000000
 31
0.0000000000000000
  0
LINE
  5
181
100
AcDbEntity
  8
A5
  6
CONTINUOUS
 62
7
100
AcDbLine
 10
507.2503050000000
 20
750.4000000000000
 30
0.0000000000000000
 11
510.0003050000000
 21
749.5000000000000
 31
0.0000000000000000
  0
LINE
  5
182
100
AcDbEntity
  8
A2
  6
CONTINUOUS
 62
7
100
AcDbLine
 10
507.2503049999999
 20
744.0000000000000
 30
0.0000000000000000
 11
510.0003049999999
 21
744.0000000000000
 31
0.0000000000000000
  0
LINE
  5
183
100
AcDbEntity
  8
A2
  6
CONTINUOUS
 62
7
100
AcDbLine
 10
507.2503049999999
 20
743.0000000000000
 30
0.0000000000000000
 11
507.2503049999999
 21
744.0000000000000
 31
0.0000000000000000
  0
LINE
  5
184
100
AcDbEntity
  8
A2
  6
CONTINUOUS
 62
7
100
AcDbLine
 10
507.2503049999999
 20
743.0000000000000
 30
0.0000000000000000
 11
510.0003049999999
 21
743.0000000000000
 31
0.0000000000000000
  0
LINE
  5
185
100
AcDbEntity
  8
A5
  6
CONTINUOUS
 62
7
100
AcDbLine
 10
510.0003049999999
 20
736.0000000000000
 30
0.0000000000000000
 11
510.0003049999999
 21
751.0000000000000
 31
0.0000000000000000
  0
ARC
  5
186
100
AcDbEntity
  8
A2
  6
CONTINUOUS
 62
7
100
AcDbCircle
 10
510.5003049999999
 20
751.0000000000000
 30
0.0000000000000000
 40
0.5000000000000000
100
AcDbArc
 50
90.00000000000000
 51
180.0000000000000
  0
LINE
  5
187
100
AcDbEntity
  8
A2
  6
CONTINUOUS
 62
7
100
AcDbLine
 10
510.5003049999999
 20
751.5000000000000
 30
0.0000000000000000
 11
512.0003049999998
 21
751.5000000000000
 31
0.0000000000000000
  0
ARC
  5
188
100
AcDbEntity
  8
A5
  6
CONTINUOUS
 62
7
100
AcDbCircle
 10
512.0003049999998
 20
750.5000000000000
 30
0.0000000000000000
 40
1.000000000000000
100
AcDbArc
 50
0.0000000000000000
 51
90.00000000000000
  0
LINE
  5
189
100
AcDbEntity
  8
A5
  6
CONTINUOUS
 62
7
100
AcDbLine
 10
513.0003049999998
 20
750.5000000000000
 30
0.0000000000000000
 11
513.0003049999998
 21
736.5000000000000
 31
0.0000000000000000
  0
ARC
  5
18A
100
AcDbEntity
  8
A5
  6
CONTINUOUS
 62
7
100
AcDbCircle
 10
512.0003049999998
 20
736.5000000000000
 30
0.0000000000000000
 40
1.000000000000000
100
AcDbArc
 50
270.0000000000000
 51
360.0000000000000
  0
LINE
  5
18B
100
AcDbEntity
  8
A2
  6
CONTINUOUS
 62
7
100
AcDbLine
 10
510.5003049999999
 20
735.5000000000000
 30
0.0000000000000000
 11
512.0003049999998
 21
735.5000000000000
 31
0.0000000000000000
  0
ARC
  5
18C
100
AcDbEntity
  8
A2
  6
CONTINUOUS
 62
7
100
AcDbCircle
 10
510.5003049999999
 20
736.0000000000000
 30
0.0000000000000000
 40
0.5000000000000000
100
AcDbArc
 50
180.0000000000000
 51
270.0000000000000
  0
LINE
  5
18D
100
AcDbEntity
  8
A2
  6
CONTINUOUS
 62
7
100
AcDbLine
 10
510.5003049999999
 20
85.50000000000003
 30
0.0000000000000000
 11
512.0003049999998
 21
85.50000000000003
 31
0.0000000000000000
  0
ARC
  5
18E
100
AcDbEntity
  8
A5
  6
CONTINUOUS
 62
7
100
AcDbCircle
 10
512.0003049999998
 20
84.50000000000000
 30
0.0000000000000000
 40
1.000000000000000
100
AcDbArc
 50
0.0000000000000000
 51
90.00000000000000
  0
ARC
  5
18F
100
AcDbEntity
  8
A2
  6
CONTINUOUS
 62
7
100
AcDbCircle
 10
510.5003049999999
 20
85.00000000000000
 30
0.0000000000000000
 40
0.5000000000000000
100
AcDbArc
 50
90.00000000000001
 51
180.0000000000000
  0
LINE
  5
190
100
AcDbEntity
  8
A5
  6
CONTINUOUS
 62
7
100
AcDbLine
 10
510.0003049999999
 20
85.00000000000003
 30
0.0000000000000000
 11
510.0003049999999
 21
70.00000000000003
 31
0.0000000000000000
  0
LINE
  5
191
100
AcDbEntity
  8
A5
  6
CONTINUOUS
 62
7
100
AcDbLine
 10
513.0003049999998
 20
70.50000000000003
 30
0.0000000000000000
 11
513.0003049999998
 21
84.50000000000003
 31
0.0000000000000000
  0
ARC
  5
192
100
AcDbEntity
  8
A5
  6
CONTINUOUS
 62
7
100
AcDbCircle
 10
512.0003049999998
 20
70.50000000000000
 30
0.0000000000000000
 40
1.000000000000000
100
AcDbArc
 50
270.0000000000000
 51
360.0000000000000
  0
LINE
  5
193
100
AcDbEntity
  8
A2
  6
CONTINUOUS
 62
7
100
AcDbLine
 10
510.5003049999999
 20
69.50000000000003
 30
0.0000000000000000
 11
512.0003049999998
 21
69.50000000000003
 31
0.0000000000000000
  0
ARC
  5
194
100
AcDbEntity
  8
A2
  6
CONTINUOUS
 62
7
100
AcDbCircle
 10
510.5003049999999
 20
70.00000000000000
 30
0.0000000000000000
 40
0.5000000000000000
100
AcDbArc
 50
180.0000000000000
 51
270.0000000000000
  0
LINE
  5
195
100
AcDbEntity
  8
A5
  6
CONTINUOUS
 62
7
100
AcDbLine
 10
507.2503049999999
 20
70.59999999999991
 30
0.0000000000000000
 11
510.0003050000000
 21
71.49999999999994
 31
0.0000000000000000
  0
LINE
  5
196
100
AcDbEntity
  8
A2
  6
CONTINUOUS
 62
7
100
AcDbLine
 10
507.2503049999999
 20
77.00000000000003
 30
0.0000000000000000
 11
510.0003049999999
 21
77.00000000000003
 31
0.0000000000000000
  0
LINE
  5
197
100
AcDbEntity
  8
A2
  6
CONTINUOUS
 62
7
100
AcDbLine
 10
507.2503049999999
 20
78.00000000000003
 30
0.0000000000000000
 11
510.0003049999999
 21
78.00000000000003
 31
0.0000000000000000
  0
LINE
  5
198
100
AcDbEntity
  8
A2
  6
CONTINUOUS
 62
7
100
AcDbLine
 10
507.2503049999999
 20
78.00000000000003
 30
0.0000000000000000
 11
507.2503049999999
 21
77.00000000000003
 31
0.0000000000000000
  0
LINE
  5
199
100
AcDbEntity
  8
A5
  6
CONTINUOUS
 62
7
100
AcDbLine
 10
507.2503049999998
 20
84.39999999999984
 30
0.0000000000000000
 11
510.0003049999998
 21
83.49999999999983
 31
0.0000000000000000
  0
LINE
  5
19A
100
AcDbEntity
  8
A5
  6
CONTINUOUS
 62
7
100
AcDbLine
 10
507.2503049999999
 20
84.39999999999989
 30
0.0000000000000000
 11
507.2503049999999
 21
83.99999999999991
 31
0.0000000000000000
  0
LINE
  5
19B
100
AcDbEntity
  8
A5
  6
CONTINUOUS
 62
7
100
AcDbLine
 10
507.2503049999999
 20
84.00000000000003
 30
0.0000000000000000
 11
507.0003049999999
 21
84.00000000000003
 31
0.0000000000000000
  0
LINE
  5
19C
100
AcDbEntity
  8
A2
  6
CONTINUOUS
 62
7
100
AcDbLine
 10
507.0003049999999
 20
70.00000000000003
 30
0.0000000000000000
 11
507.0003049999999
 21
85.00000000000003
 31
0.0000000000000000
  0
LINE
  5
19D
100
AcDbEntity
  8
A5
  6
CONTINUOUS
 62
7
100
AcDbLine
 10
507.2503049999999
 20
71.00000000000003
 30
0.0000000000000000
 11
507.2503049999999
 21
70.60000000000005
 31
0.0000000000000000
  0
LINE
  5
19E
100
AcDbEntity
  8
A5
  6
CONTINUOUS
 62
7
100
AcDbLine
 10
507.2503049999999
 20
71.00000000000003
 30
0.0000000000000000
 11
507.0003049999999
 21
71.00000000000003
 31
0.0000000000000000
  0
LINE
  5
19F
100
AcDbEntity
  8
A2
  6
CONTINUOUS
 62
7
100
AcDbLine
 10
506.2003049999998
 20
70.00000000000003
 30
0.0000000000000000
 11
507.0003049999997
 21
70.00000000000003
 31
0.0000000000000000
  0
LINE
  5
1A0
100
AcDbEntity
  8
A2
  6
CONTINUOUS
 62
7
100
AcDbLine
 10
506.2003049999998
 20
85.00000000000003
 30
0.0000000000000000
 11
507.0003049999997
 21
85.00000000000003
 31
0.0000000000000000
  0
LINE
  5
1A1
100
AcDbEntity
  8
A5
  6
CONTINUOUS
 62
7
100
AcDbLine
 10
503.0003049999998
 20
84.00000000000003
 30
0.0000000000000000
 11
502.7503049999998
 21
84.00000000000003
 31
0.0000000000000000
  0
LINE
  5
1A2
100
AcDbEntity
  8
A5
  6
CONTINUOUS
 62
7
100
AcDbLine
 10
502.7503049999998
 20
85.00000000000003
 30
0.0000000000000000
 11
502.7503049999998
 21
84.00000000000003
 31
0.0000000000000000
  0
LINE
  5
1A3
100
AcDbEntity
  8
A5
  6
CONTINUOUS
 62
7
100
AcDbLine
 10
502.7503049999998
 20
84.99999999999994
 30
0.0000000000000000
 11
500.0003049999997
 21
83.49999999999994
 31
0.0000000000000000
  0
LINE
  5
1A4
100
AcDbEntity
  8
A5
  6
CONTINUOUS
 62
7
100
AcDbLine
 10
500.0003049999998
 20
71.50000000000003
 30
0.0000000000000000
 11
500.0003049999998
 21
83.50000000000003
 31
0.0000000000000000
  0
LINE
  5
1A5
100
AcDbEntity
  8
A5
  6
CONTINUOUS
 62
7
100
AcDbLine
 10
502.7503049999999
 20
70.00000000000014
 30
0.0000000000000000
 11
500.0003049999999
 21
71.50000000000014
 31
0.0000000000000000
  0
LINE
  5
1A6
100
AcDbEntity
  8
A5
  6
CONTINUOUS
 62
7
100
AcDbLine
 10
502.7503049999998
 20
71.00000000000003
 30
0.0000000000000000
 11
502.7503049999998
 21
70.00000000000003
 31
0.0000000000000000
  0
LINE
  5
1A7
100
AcDbEntity
  8
A5
  6
CONTINUOUS
 62
7
100
AcDbLine
 10
503.0003049999998
 20
71.00000000000003
 30
0.0000000000000000
 11
502.7503049999998
 21
71.00000000000003
 31
0.0000000000000000
  0
LINE
  5
1A8
100
AcDbEntity
  8
A2
  6
CONTINUOUS
 62
7
100
AcDbLine
 10
499.5003049999999
 20
73.99999999999994
 30
0.0000000000000000
 11
500.0003049999999
 21
73.49999999999994
 31
0.0000000000000000
  0
LINE
  5
1A9
100
AcDbEntity
  8
A2
  6
CONTINUOUS
 62
7
100
AcDbLine
 10
499.5003049999998
 20
80.99999999999997
 30
0.0000000000000000
 11
500.0003049999998
 21
81.49999999999991
 31
0.0000000000000000
  0
LINE
  5
1AA
100
AcDbEntity
  8
A2
  6
CONTINUOUS
 62
7
100
AcDbLine
 10
495.3003049999999
 20
81.75000000000014
 30
0.0000000000000000
 11
496.3003049999999
 21
81.75000000000014
 31
0.0000000000000000
  0
LINE
  5
1AB
100
AcDbEntity
  8
A2
  6
CONTINUOUS
 62
7
100
AcDbLine
 10
495.3003049999999
 20
81.75000000000003
 30
0.0000000000000000
 11
495.3003049999999
 21
73.25000000000003
 31
0.0000000000000000
  0
LINE
  5
1AC
100
AcDbEntity
  8
A2
  6
CONTINUOUS
 62
7
100
AcDbLine
 10
495.3003049999999
 20
81.75000000000003
 30
0.0000000000000000
 11
496.3003049999999
 21
81.75000000000003
 31
0.0000000000000000
  0
LINE
  5
1AD
100
AcDbEntity
  8
A2
  6
CONTINUOUS
 62
7
100
AcDbLine
 10
495.3003049999999
 20
73.25000000000003
 30
0.0000000000000000
 11
496.3003049999999
 21
73.25000000000003
 31
0.0000000000000000
  0
LINE
  5
1AE
100
AcDbEntity
  8
A2
  6
CONTINUOUS
 62
7
100
AcDbLine
 10
496.3003049999998
 20
67.24387017807706
 30
0.0000000000000000
 11
496.3003049999998
 21
87.75612982192300
 31
0.0000000000000000
  0
LINE
  5
1AF
100
AcDbEntity
  8
A2
  6
CONTINUOUS
 62
7
100
AcDbLine
 10
499.5003049999998
 20
67.24387017807706
 30
0.0000000000000000
 11
499.5003049999998
 21
87.75612982192300
 31
0.0000000000000000
  0
ARC
  5
1B0
100
AcDbEntity
  8
A2
  6
CONTINUOUS
 62
7
100
AcDbCircle
 10
494.3003049999999
 20
87.75612982192297
 30
0.0000000000000000
 40
2.000000000000000
100
AcDbArc
 50
0.0000000000000000
 51
40.81705527646749
  0
ARC
  5
1B1
100
AcDbEntity
  8
A2
  6
CONTINUOUS
 62
7
100
AcDbCircle
 10
494.3003049999999
 20
87.75612982192297
 30
0.0000000000000000
 40
5.200000000000000
100
AcDbArc
 50
0.0000000000000000
 51
40.81705527646749
  0
LINE
  5
1B2
100
AcDbEntity
  8
A2
  6
CONTINUOUS
 62
7
100
AcDbLine
 10
495.8139060358583
 20
89.06342164253883
 30
0.0000000000000000
 11
492.7649423067685
 21
92.59355514897385
 31
0.0000000000000000
  0
LINE
  5
1B3
100
AcDbEntity
  8
A2
  6
CONTINUOUS
 62
7
100
AcDbLine
 10
495.1867039641417
 20
94.68522206195905
 30
0.0000000000000000
 11
498.2356676932314
 21
91.15508855552406
 31
0.0000000000000000
  0
ARC
  5
1B4
100
AcDbEntity
  8
A2
  6
CONTINUOUS
 62
7
100
AcDbCircle
 10
496.7003049999997
 20
95.99251388257483
 30
0.0000000000000000
 40
2.000000000000000
100
AcDbArc
 50
180.0000000000000
 51
220.8170552764675
  0
ARC
  5
1B5
100
AcDbEntity
  8
A2
  6
CONTINUOUS
 62
7
100
AcDbCircle
 10
496.7003049999997
 20
95.99251388257483
 30
0.0000000000000000
 40
5.200000000000000
100
AcDbArc
 50
180.0000000000000
 51
220.8170552764675
  0
LINE
  5
1B6
100
AcDbEntity
  8
A2
  6
CONTINUOUS
 62
7
100
AcDbLine
 10
491.5003049999998
 20
95.99251388257485
 30
0.0000000000000000
 11
491.5003049999998
 21
117.5000000000000
 31
0.0000000000000000
  0
LINE
  5
1B7
100
AcDbEntity
  8
A2
  6
CONTINUOUS
 62
7
100
AcDbLine
 10
494.7003049999997
 20
95.99251388257485
 30
0.0000000000000000
 11
494.7003049999997
 21
117.5000000000000
 31
0.0000000000000000
  0
LINE
  5
1B8
100
AcDbEntity
  8
A2
  6
CENTER
 62
4
100
AcDbLine
 10
500.7003049999997
 20
105.0000000000000
 30
0.0000000000000000
 11
485.5003049999998
 21
105.0000000000000
 31
0.0000000000000000
  0
LINE
  5
1B9
100
AcDbEntity
  8
A2
  6
CONTINUOUS
 62
7
100
AcDbLine
 10
494.7003049999997
 20
117.5000000000000
 30
0.0000000000000000
 11
491.5003049999997
 21
117.5000000000000
 31
0.0000000000000000
  0
ARC
  5
1BA
100
AcDbEntity
  8
A2
  6
CONTINUOUS
 62
7
100
AcDbCircle
 10
494.3003049999999
 20
67.24387017807703
 30
0.0000000000000000
 40
5.200000000000000
100
AcDbArc
 50
319.1829447235325
 51
360.0000000000000
  0
ARC
  5
1BB
100
AcDbEntity
  8
A2
  6
CONTINUOUS
 62
7
100
AcDbCircle
 10
494.3003049999999
 20
67.24387017807703
 30
0.0000000000000000
 40
2.000000000000000
100
AcDbArc
 50
319.1829447235325
 51
360.0000000000000
  0
LINE
  5
1BC
100
AcDbEntity
  8
A2
  6
CONTINUOUS
 62
7
100
AcDbLine
 10
495.8139060358582
 20
65.93657835746120
 30
0.0000000000000000
 11
492.7649423067685
 21
62.40644485102627
 31
0.0000000000000000
  0
LINE
  5
1BD
100
AcDbEntity
  8
A2
  6
CONTINUOUS
 62
7
100
AcDbLine
 10
498.2356676932312
 20
63.84491144447588
 30
0.0000000000000000
 11
495.1867039641417
 21
60.31477793804095
 31
0.0000000000000000
  0
ARC
  5
1BE
100
AcDbEntity
  8
A2
  6
CONTINUOUS
 62
7
100
AcDbCircle
 10
496.7003049999997
 20
59.00748611742517
 30
0.0000000000000000
 40
2.000000000000000
100
AcDbArc
 50
139.1829447235325
 51
180.0000000000000
  0
ARC
  5
1BF
100
AcDbEntity
  8
A2
  6
CONTINUOUS
 62
7
100
AcDbCircle
 10
496.7003049999997
 20
59.00748611742517
 30
0.0000000000000000
 40
5.200000000000000
100
AcDbArc
 50
139.1829447235325
 51
180.0000000000000
  0
LINE
  5
1C0
100
AcDbEntity
  8
A2
  6
CONTINUOUS
 62
7
100
AcDbLine
 10
491.5003049999998
 20
59.00748611742520
 30
0.0000000000000000
 11
491.5003049999998
 21
37.50000000000003
 31
0.0000000000000000
  0
LINE
  5
1C1
100
AcDbEntity
  8
A2
  6
CONTINUOUS
 62
7
100
AcDbLine
 10
494.7003049999997
 20
59.00748611742520
 30
0.0000000000000000
 11
494.7003049999997
 21
37.50000000000003
 31
0.0000000000000000
  0
LINE
  5
1C2
100
AcDbEntity
  8
A2
  6
CENTER
 62
4
100
AcDbLine
 10
500.7003049999997
 20
50.00000000000003
 30
0.0000000000000000
 11
485.5003049999998
 21
50.00000000000003
 31
0.0000000000000000
  0
LINE
  5
1C3
100
AcDbEntity
  8
A2
  6
CONTINUOUS
 62
7
100
AcDbLine
 10
494.7003049999997
 20
37.50000000000003
 30
0.0000000000000000
 11
491.5003049999997
 21
37.50000000000003
 31
0.0000000000000000
  0
LINE
  5
1C4
100
AcDbEntity
  8
A2
  6
CONTINUOUS
 62
7
100
AcDbLine
 10
349.2001830000000
 20
713.5000000000001
 30
0.0000000000000000
 11
346.0001829999999
 21
713.5000000000001
 31
0.0000000000000000
  0
LINE
  5
1C5
100
AcDbEntity
  8
A2
  6
CONTINUOUS
 62
7
100
AcDbLine
 10
346.0001829999999
 20
773.5000000000000
 30
0.0000000000000000
 11
349.2001830000000
 21
773.5000000000000
 31
0.0000000000000000
  0
LINE
  5
1C6
100
AcDbEntity
  8
A2
  6
CONTINUOUS
 62
7
100
AcDbLine
 10
346.0001829999999
 20
773.5000000000000
 30
0.0000000000000000
 11
346.0001829999999
 21
713.5000000000001
 31
0.0000000000000000
  0
LINE
  5
1C7
100
AcDbEntity
  8
A2
  6
CONTINUOUS
 62
7
100
AcDbLine
 10
349.2001830000000
 20
773.5000000000000
 30
0.0000000000000000
 11
349.2001830000000
 21
713.5000000000001
 31
0.0000000000000000
  0
LINE
  5
1C8
100
AcDbEntity
  8
A2
  6
CENTER
 62
4
100
AcDbLine
 10
355.2001829999999
 20
723.5000000000000
 30
0.0000000000000000
 11
340.0001829999999
 21
723.5000000000000
 31
0.0000000000000000
  0
LINE
  5
1C9
100
AcDbEntity
  8
A2
  6
CENTER
 62
4
100
AcDbLine
 10
340.0001829999999
 20
763.5000000000000
 30
0.0000000000000000
 11
355.2001829999999
 21
763.5000000000000
 31
0.0000000000000000
  0
ARC
  5
1CA
100
AcDbEntity
  8
A2
  6
CONTINUOUS
 62
7
100
AcDbCircle
 10
360.0001829999998
 20
743.5000000000000
 30
0.0000000000000000
 40
8.000000000000000
100
AcDbArc
 50
292.0294028424896
 51
427.9705971575103
  0
LINE
  5
1CB
100
AcDbEntity
  8
A2
  6
CONTINUOUS
 62
7
100
AcDbLine
 10
349.2001829999998
 20
730.5000000000002
 30
0.0000000000000000
 11
363.0008418236113
 21
736.0840680542309
 31
0.0000000000000000
  0
LINE
  5
1CC
100
AcDbEntity
  8
A2
  6
CONTINUOUS
 62
7
100
AcDbLine
 10
349.2001829999997
 20
756.5000000000000
 30
0.0000000000000000
 11
363.0008418236112
 21
750.9159319457693
 31
0.0000000000000000
  0
CIRCLE
  5
1CD
100
AcDbEntity
  8
A2
  6
CONTINUOUS
 62
7
100
AcDbCircle
 10
360.0001829999998
 20
743.5000000000000
 30
0.0000000000000000
 40
4.250000000000000
  0
LINE
  5
1CE
100
AcDbEntity
  8
A2
  6
CONTINUOUS
 62
7
100
AcDbLine
 10
347.5001829999999
 20
50.00000000000003
 30
0.0000000000000000
 11
347.5001829999999
 21
105.0000000000000
 31
0.0000000000000000
  0
LINE
  5
1CF
100
AcDbEntity
  8
A2
  6
CONTINUOUS
 62
7
100
AcDbLine
 10
372.5001829999999
 20
105.0000000000000
 30
0.0000000000000000
 11
372.5001829999999
 21
50.00000000000003
 31
0.0000000000000000
  0
CIRCLE
  5
1D0
100
AcDbEntity
  8
A2
  6
CONTINUOUS
 62
7
100
AcDbCircle
 10
360.0001829999998
 20
49.99999999999999
 30
0.0000000000000000
 40
3.500000000000000
  0
CIRCLE
  5
1D1
100
AcDbEntity
  8
A2
  6
CONTINUOUS
 62
7
100
AcDbCircle
 10
360.0001829999998
 20
105.0000000000000
 30
0.0000000000000000
 40
3.500000000000000
  0
ARC
  5
1D2
100
AcDbEntity
  8
A2
  6
CONTINUOUS
 62
7
100
AcDbCircle
 10
360.0001829999998
 20
105.0000000000000
 30
0.0000000000000000
 40
12.50000000000000
100
AcDbArc
 50
0.0000000000000000
 51
180.0000000000000
  0
ARC
  5
1D3
100
AcDbEntity
  8
A2
  6
CONTINUOUS
 62
7
100
AcDbCircle
 10
360.0001829999998
 20
49.99999999999999
 30
0.0000000000000000
 40
12.50000000000000
100
AcDbArc
 50
180.0000000000000
 51
360.0000000000000
  0
LINE
  5
1D4
100
AcDbEntity
  8
A2
  6
CENTER
 62
4
100
AcDbLine
 10
350.5001829999998
 20
50.00000000000003
 30
0.0000000000000000
 11
369.5001829999998
 21
50.00000000000003
 31
0.0000000000000000
  0
LINE
  5
1D5
100
AcDbEntity
  8
A2
  6
CENTER
 62
4
100
AcDbLine
 10
350.5001829999998
 20
105.0000000000000
 30
0.0000000000000000
 11
369.5001829999998
 21
105.0000000000000
 31
0.0000000000000000
  0
LINE
  5
1D6
100
AcDbEntity
  8
A2
  6
CONTINUOUS
 62
7
100
AcDbLine
 10
234.5000949999999
 20
763.5000000000000
 30
0.0000000000000000
 11
234.5000949999998
 21
723.5000000000000
 31
0.0000000000000000
  0
ARC
  5
1D7
100
AcDbEntity
  8
A2
  6
CONTINUOUS
 62
7
100
AcDbCircle
 10
224.5000950000000
 20
763.5000000000000
 30
0.0000000000000000
 40
10.00000000000000
100
AcDbArc
 50
0.0000000000000000
 51
179.9999999999999
  0
CIRCLE
  5
1D8
100
AcDbEntity
  8
A2
  6
CONTINUOUS
 62
7
100
AcDbCircle
 10
224.5000950000000
 20
763.5000000000000
 30
0.0000000000000000
 40
3.500000000000000
  0
LINE
  5
1D9
100
AcDbEntity
  8
A2
  6
CENTER
 62
4
100
AcDbLine
 10
218.0000949999999
 20
763.5000000000000
 30
0.0000000000000000
 11
231.0000949999998
 21
763.5000000000000
 31
0.0000000000000000
  0
LINE
  5
1DA
100
AcDbEntity
  8
A2
  6
CENTER
 62
4
100
AcDbLine
 10
224.5000949999998
 20
757.0000000000000
 30
0.0000000000000000
 11
224.5000949999998
 21
770.0000000000000
 31
0.0000000000000000
  0
LINE
  5
1DB
100
AcDbEntity
  8
A2
  6
CONTINUOUS
 62
7
100
AcDbLine
 10
214.5000949999999
 20
759.5000000000000
 30
0.0000000000000000
 11
214.5000949999999
 21
763.5000000000000
 31
0.0000000000000000
  0
ARC
  5
1DC
100
AcDbEntity
  8
A2
  6
CONTINUOUS
 62
7
100
AcDbCircle
 10
211.5000950000000
 20
759.5000000000000
 30
0.0000000000000000
 40
3.000000000000000
100
AcDbArc
 50
270.0000000000000
 51
359.9999999999999
  0
LINE
  5
1DD
100
AcDbEntity
  8
A2
  6
CONTINUOUS
 62
7
100
AcDbLine
 10
211.5000949999999
 20
756.5000000000000
 30
0.0000000000000000
 11
210.5000949999999
 21
756.5000000000000
 31
0.0000000000000000
  0
LINE
  5
1DE
100
AcDbEntity
  8
A2
  6
CONTINUOUS
 62
7
100
AcDbLine
 10
210.5000949999999
 20
756.5000000000000
 30
0.0000000000000000
 11
210.5000949999999
 21
730.5000000000000
 31
0.0000000000000000
  0
LINE
  5
1DF
100
AcDbEntity
  8
A2
  6
CONTINUOUS
 62
7
100
AcDbLine
 10
211.5000949999999
 20
730.5000000000000
 30
0.0000000000000000
 11
210.5000949999999
 21
730.5000000000000
 31
0.0000000000000000
  0
ARC
  5
1E0
100
AcDbEntity
  8
A2
  6
CONTINUOUS
 62
7
100
AcDbCircle
 10
211.5000950000000
 20
727.5000000000000
 30
0.0000000000000000
 40
3.000000000000000
100
AcDbArc
 50
359.9999999999999
 51
449.9999999999999
  0
LINE
  5
1E1
100
AcDbEntity
  8
A2
  6
CONTINUOUS
 62
7
100
AcDbLine
 10
214.5000949999999
 20
727.5000000000000
 30
0.0000000000000000
 11
214.5000949999999
 21
723.5000000000000
 31
0.0000000000000000
  0
ARC
  5
1E2
100
AcDbEntity
  8
A2
  6
CONTINUOUS
 62
7
100
AcDbCircle
 10
224.5000950000000
 20
723.5000000000000
 30
0.0000000000000000
 40
10.00000000000000
100
AcDbArc
 50
179.9999999999999
 51
359.9999999999999
  0
LINE
  5
1E3
100
AcDbEntity
  8
A2
  6
CENTER
 62
4
100
AcDbLine
 10
218.0000949999999
 20
723.5000000000000
 30
0.0000000000000000
 11
231.0000949999998
 21
723.5000000000000
 31
0.0000000000000000
  0
CIRCLE
  5
1E4
100
AcDbEntity
  8
A2
  6
CONTINUOUS
 62
7
100
AcDbCircle
 10
224.5000950000000
 20
723.5000000000000
 30
0.0000000000000000
 40
3.500000000000000
  0
LINE
  5
1E5
100
AcDbEntity
  8
A2
  6
CENTER
 62
4
100
AcDbLine
 10
224.5000949999998
 20
717.0000000000000
 30
0.0000000000000000
 11
224.5000949999998
 21
730.0000000000000
 31
0.0000000000000000
  0
LINE
  5
1E6
100
AcDbEntity
  8
A2
  6
CONTINUOUS
 62
7
100
AcDbLine
 10
210.5000950000000
 20
747.0000000000000
 30
0.0000000000000000
 11
210.0000949999999
 21
747.5000000000000
 31
0.0000000000000000
  0
LINE
  5
1E7
100
AcDbEntity
  8
A2
  6
CONTINUOUS
 62
7
100
AcDbLine
 10
210.5000949999999
 20
740.0000000000000
 30
0.0000000000000000
 11
210.0000949999999
 21
739.5000000000000
 31
0.0000000000000000
  0
LINE
  5
1E8
100
AcDbEntity
  8
A5
  6
CONTINUOUS
 62
7
100
AcDbLine
 10
210.0000949999999
 20
749.5000000000000
 30
0.0000000000000000
 11
210.0000949999999
 21
737.5000000000000
 31
0.0000000000000000
  0
LINE
  5
1E9
100
AcDbEntity
  8
A5
  6
CONTINUOUS
 62
7
100
AcDbLine
 10
207.2500950000000
 20
751.0000000000000
 30
0.0000000000000000
 11
210.0000950000000
 21
749.5000000000000
 31
0.0000000000000000
  0
LINE
  5
1EA
100
AcDbEntity
  8
A5
  6
CONTINUOUS
 62
7
100
AcDbLine
 10
207.2500950000000
 20
736.0000000000001
 30
0.0000000000000000
 11
210.0000950000000
 21
737.5000000000000
 31
0.0000000000000000
  0
LINE
  5
1EB
100
AcDbEntity
  8
A5
  6
CONTINUOUS
 62
7
100
AcDbLine
 10
207.2500949999999
 20
736.0000000000000
 30
0.0000000000000000
 11
207.2500949999999
 21
737.0000000000000
 31
0.0000000000000000
  0
LINE
  5
1EC
100
AcDbEntity
  8
A5
  6
CONTINUOUS
 62
7
100
AcDbLine
 10
207.2500949999999
 20
750.0000000000000
 30
0.0000000000000000
 11
207.2500949999999
 21
751.0000000000000
 31
0.0000000000000000
  0
LINE
  5
1ED
100
AcDbEntity
  8
A5
  6
CONTINUOUS
 62
7
100
AcDbLine
 10
207.0000949999999
 20
750.0000000000000
 30
0.0000000000000000
 11
207.2500949999999
 21
750.0000000000000
 31
0.0000000000000000
  0
LINE
  5
1EE
100
AcDbEntity
  8
A5
  6
CONTINUOUS
 62
7
100
AcDbLine
 10
207.0000949999999
 20
737.0000000000000
 30
0.0000000000000000
 11
207.2500949999999
 21
737.0000000000000
 31
0.0000000000000000
  0
LINE
  5
1EF
100
AcDbEntity
  8
A2
  6
CONTINUOUS
 62
7
100
AcDbLine
 10
203.8000950000000
 20
751.0000000000000
 30
0.0000000000000000
 11
203.0000950000000
 21
751.0000000000000
 31
0.0000000000000000
  0
LINE
  5
1F0
100
AcDbEntity
  8
A2
  6
CONTINUOUS
 62
7
100
AcDbLine
 10
203.0000949999998
 20
751.0000000000000
 30
0.0000000000000000
 11
203.0000949999998
 21
736.0000000000000
 31
0.0000000000000000
  0
LINE
  5
1F1
100
AcDbEntity
  8
A2
  6
CONTINUOUS
 62
7
100
AcDbLine
 10
203.8000950000000
 20
736.0000000000000
 30
0.0000000000000000
 11
203.0000950000000
 21
736.0000000000000
 31
0.0000000000000000
  0
LINE
  5
1F2
100
AcDbEntity
  8
A5
  6
CONTINUOUS
 62
7
100
AcDbLine
 10
202.7500949999998
 20
737.0000000000000
 30
0.0000000000000000
 11
203.0000949999998
 21
737.0000000000000
 31
0.0000000000000000
  0
LINE
  5
1F3
100
AcDbEntity
  8
A5
  6
CONTINUOUS
 62
7
100
AcDbLine
 10
202.7500949999998
 20
736.6000000000001
 30
0.0000000000000000
 11
202.7500949999998
 21
737.0000000000001
 31
0.0000000000000000
  0
LINE
  5
1F4
100
AcDbEntity
  8
A5
  6
CONTINUOUS
 62
7
100
AcDbLine
 10
202.7500949999997
 20
736.6000000000000
 30
0.0000000000000000
 11
200.0000949999998
 21
737.5000000000001
 31
0.0000000000000000
  0
LINE
  5
1F5
100
AcDbEntity
  8
A2
  6
CONTINUOUS
 62
7
100
AcDbLine
 10
202.7500949999998
 20
743.0000000000000
 30
0.0000000000000000
 11
200.0000949999998
 21
743.0000000000000
 31
0.0000000000000000
  0
LINE
  5
1F6
100
AcDbEntity
  8
A2
  6
CONTINUOUS
 62
7
100
AcDbLine
 10
202.7500949999998
 20
743.0000000000000
 30
0.0000000000000000
 11
202.7500949999998
 21
744.0000000000000
 31
0.0000000000000000
  0
LINE
  5
1F7
100
AcDbEntity
  8
A2
  6
CONTINUOUS
 62
7
100
AcDbLine
 10
202.7500949999998
 20
744.0000000000000
 30
0.0000000000000000
 11
200.0000949999998
 21
744.0000000000000
 31
0.0000000000000000
  0
LINE
  5
1F8
100
AcDbEntity
  8
A5
  6
CONTINUOUS
 62
7
100
AcDbLine
 10
202.7500949999998
 20
750.0000000000000
 30
0.0000000000000000
 11
203.0000949999998
 21
750.0000000000000
 31
0.0000000000000000
  0
LINE
  5
1F9
100
AcDbEntity
  8
A5
  6
CONTINUOUS
 62
7
100
AcDbLine
 10
202.7500949999998
 20
750.0000000000000
 30
0.0000000000000000
 11
202.7500949999998
 21
750.4000000000000
 31
0.0000000000000000
  0
LINE
  5
1FA
100
AcDbEntity
  8
A5
  6
CONTINUOUS
 62
7
100
AcDbLine
 10
202.7500949999997
 20
750.4000000000002
 30
0.0000000000000000
 11
200.0000949999996
 21
749.5000000000002
 31
0.0000000000000000
  0
LINE
  5
1FB
100
AcDbEntity
  8
A5
  6
CONTINUOUS
 62
7
100
AcDbLine
 10
200.0000949999998
 20
736.0000000000000
 30
0.0000000000000000
 11
200.0000949999998
 21
751.0000000000000
 31
0.0000000000000000
  0
ARC
  5
1FC
100
AcDbEntity
  8
A2
  6
CONTINUOUS
 62
7
100
AcDbCircle
 10
199.5000949999999
 20
751.0000000000000
 30
0.0000000000000000
 40
0.5000000000000000
100
AcDbArc
 50
0.0000000000000000
 51
90.00000000000000
  0
LINE
  5
1FD
100
AcDbEntity
  8
A2
  6
CONTINUOUS
 62
7
100
AcDbLine
 10
199.5000949999998
 20
751.5000000000000
 30
0.0000000000000000
 11
198.0000949999998
 21
751.5000000000000
 31
0.0000000000000000
  0
ARC
  5
1FE
100
AcDbEntity
  8
A5
  6
CONTINUOUS
 62
7
100
AcDbCircle
 10
198.0000949999999
 20
750.5000000000000
 30
0.0000000000000000
 40
1.000000000000000
100
AcDbArc
 50
90.00000000000000
 51
180.0000000000000
  0
LINE
  5
1FF
100
AcDbEntity
  8
A5
  6
CONTINUOUS
 62
7
100
AcDbLine
 10
197.0000949999998
 20
750.5000000000000
 30
0.0000000000000000
 11
197.0000949999998
 21
736.5000000000000
 31
0.0000000000000000
  0
ARC
  5
200
100
AcDbEntity
  8
A5
  6
CONTINUOUS
 62
7
100
AcDbCircle
 10
198.0000949999999
 20
736.5000000000000
 30
0.0000000000000000
 40
1.000000000000000
100
AcDbArc
 50
180.0000000000000
 51
270.0000000000000
  0
LINE
  5
201
100
AcDbEntity
  8
A2
  6
CONTINUOUS
 62
7
100
AcDbLine
 10
199.5000949999998
 20
735.5000000000000
 30
0.0000000000000000
 11
198.0000949999998
 21
735.5000000000000
 31
0.0000000000000000
  0
ARC
  5
202
100
AcDbEntity
  8
A2
  6
CONTINUOUS
 62
7
100
AcDbCircle
 10
199.5000949999999
 20
736.0000000000000
 30
0.0000000000000000
 40
0.5000000000000000
100
AcDbArc
 50
270.0000000000000
 51
360.0000000000000
  0
LINE
  5
203
100
AcDbEntity
  8
A2
  6
CONTINUOUS
 62
7
100
AcDbLine
 10
218.5000950000000
 20
95.99251388257484
 30
0.0000000000000000
 11
218.5000950000000
 21
117.5000000000000
 31
0.0000000000000000
  0
LINE
  5
204
100
AcDbEntity
  8
A2
  6
CONTINUOUS
 62
7
100
AcDbLine
 10
215.3000950000001
 20
117.5000000000000
 30
0.0000000000000000
 11
218.5000950000001
 21
117.5000000000000
 31
0.0000000000000000
  0
LINE
  5
205
100
AcDbEntity
  8
A2
  6
CONTINUOUS
 62
7
100
AcDbLine
 10
215.3000950000001
 20
95.99251388257480
 30
0.0000000000000000
 11
215.3000950000001
 21
117.5000000000000
 31
0.0000000000000000
  0
LINE
  5
206
100
AcDbEntity
  8
A2
  6
CENTER
 62
4
100
AcDbLine
 10
209.3000950000001
 20
105.0000000000000
 30
0.0000000000000000
 11
224.5000950000000
 21
105.0000000000000
 31
0.0000000000000000
  0
ARC
  5
207
100
AcDbEntity
  8
A2
  6
CONTINUOUS
 62
7
100
AcDbCircle
 10
213.3000950000001
 20
95.99251388257480
 30
0.0000000000000000
 40
2.000000000000000
100
AcDbArc
 50
319.1829447235325
 51
360.0000000000000
  0
ARC
  5
208
100
AcDbEntity
  8
A2
  6
CONTINUOUS
 62
7
100
AcDbCircle
 10
213.3000950000001
 20
95.99251388257480
 30
0.0000000000000000
 40
5.200000000000000
100
AcDbArc
 50
319.1829447235325
 51
360.0000000000000
  0
LINE
  5
209
100
AcDbEntity
  8
A2
  6
CONTINUOUS
 62
7
100
AcDbLine
 10
214.8136960358582
 20
94.68522206195902
 30
0.0000000000000000
 11
211.7647323067685
 21
91.15508855552403
 31
0.0000000000000000
  0
LINE
  5
20A
100
AcDbEntity
  8
A2
  6
CONTINUOUS
 62
7
100
AcDbLine
 10
214.1864939641416
 20
89.06342164253874
 30
0.0000000000000000
 11
217.2354576932314
 21
92.59355514897376
 31
0.0000000000000000
  0
ARC
  5
20B
100
AcDbEntity
  8
A2
  6
CONTINUOUS
 62
7
100
AcDbCircle
 10
215.7000949999999
 20
87.75612982192294
 30
0.0000000000000000
 40
5.200000000000000
100
AcDbArc
 50
139.1829447235325
 51
180.0000000000000
  0
ARC
  5
20C
100
AcDbEntity
  8
A2
  6
CONTINUOUS
 62
7
100
AcDbCircle
 10
215.7000949999999
 20
87.75612982192294
 30
0.0000000000000000
 40
2.000000000000000
100
AcDbArc
 50
139.1829447235325
 51
180.0000000000000
  0
LINE
  5
20D
100
AcDbEntity
  8
A2
  6
CONTINUOUS
 62
7
100
AcDbLine
 10
213.7000950000000
 20
67.24387017807700
 30
0.0000000000000000
 11
213.7000950000000
 21
87.75612982192298
 31
0.0000000000000000
  0
LINE
  5
20E
100
AcDbEntity
  8
A2
  6
CONTINUOUS
 62
7
100
AcDbLine
 10
210.5000950000000
 20
67.24387017807700
 30
0.0000000000000000
 11
210.5000950000000
 21
87.75612982192294
 31
0.0000000000000000
  0
LINE
  5
20F
100
AcDbEntity
  8
A2
  6
CONTINUOUS
 62
7
100
AcDbLine
 10
214.7000949999999
 20
81.75000000000001
 30
0.0000000000000000
 11
213.7000949999999
 21
81.75000000000001
 31
0.0000000000000000
  0
LINE
  5
210
100
AcDbEntity
  8
A2
  6
CONTINUOUS
 62
7
100
AcDbLine
 10
214.7000949999999
 20
81.75000000000001
 30
0.0000000000000000
 11
214.7000949999999
 21
73.25000000000001
 31
0.0000000000000000
  0
LINE
  5
211
100
AcDbEntity
  8
A2
  6
CONTINUOUS
 62
7
100
AcDbLine
 10
214.7000949999999
 20
73.25000000000001
 30
0.0000000000000000
 11
213.7000949999999
 21
73.25000000000001
 31
0.0000000000000000
  0
ARC
  5
212
100
AcDbEntity
  8
A2
  6
CONTINUOUS
 62
7
100
AcDbCircle
 10
215.7000949999999
 20
67.24387017807700
 30
0.0000000000000000
 40
2.000000000000000
100
AcDbArc
 50
180.0000000000000
 51
220.8170552764674
  0
ARC
  5
213
100
AcDbEntity
  8
A2
  6
CONTINUOUS
 62
7
100
AcDbCircle
 10
215.7000949999999
 20
67.24387017807700
 30
0.0000000000000000
 40
5.200000000000000
100
AcDbArc
 50
180.0000000000000
 51
220.8170552764674
  0
LINE
  5
214
100
AcDbEntity
  8
A2
  6
CONTINUOUS
 62
7
100
AcDbLine
 10
214.1864939641416
 20
65.93657835746119
 30
0.0000000000000000
 11
217.2354576932314
 21
62.40644485102615
 31
0.0000000000000000
  0
LINE
  5
215
100
AcDbEntity
  8
A2
  6
CONTINUOUS
 62
7
100
AcDbLine
 10
211.7647323067686
 20
63.84491144447607
 30
0.0000000000000000
 11
214.8136960358583
 21
60.31477793804098
 31
0.0000000000000000
  0
ARC
  5
216
100
AcDbEntity
  8
A2
  6
CONTINUOUS
 62
7
100
AcDbCircle
 10
213.3000950000001
 20
59.00748611742515
 30
0.0000000000000000
 40
2.000000000000000
100
AcDbArc
 50
0.0000000000000000
 51
40.81705527646749
  0
ARC
  5
217
100
AcDbEntity
  8
A2
  6
CONTINUOUS
 62
7
100
AcDbCircle
 10
213.3000950000001
 20
59.00748611742515
 30
0.0000000000000000
 40
5.200000000000000
100
AcDbArc
 50
0.0000000000000000
 51
40.81705527646749
  0
LINE
  5
218
100
AcDbEntity
  8
A2
  6
CONTINUOUS
 62
7
100
AcDbLine
 10
215.3000950000001
 20
59.00748611742515
 30
0.0000000000000000
 11
215.3000950000001
 21
37.50000000000001
 31
0.0000000000000000
  0
LINE
  5
219
100
AcDbEntity
  8
A2
  6
CONTINUOUS
 62
7
100
AcDbLine
 10
218.5000950000000
 20
59.00748611742515
 30
0.0000000000000000
 11
218.5000950000000
 21
37.50000000000001
 31
0.0000000000000000
  0
LINE
  5
21A
100
AcDbEntity
  8
A2
  6
CENTER
 62
4
100
AcDbLine
 10
209.3000950000001
 20
50.00000000000001
 30
0.0000000000000000
 11
224.5000950000000
 21
50.00000000000001
 31
0.0000000000000000
  0
LINE
  5
21B
100
AcDbEntity
  8
A2
  6
CONTINUOUS
 62
7
100
AcDbLine
 10
215.3000950000001
 20
37.50000000000001
 30
0.0000000000000000
 11
218.5000950000001
 21
37.50000000000001
 31
0.0000000000000000
  0
LINE
  5
21C
100
AcDbEntity
  8
A2
  6
CONTINUOUS
 62
7
100
AcDbLine
 10
210.5000949999998
 20
80.99999999999997
 30
0.0000000000000000
 11
210.0000949999999
 21
81.49999999999989
 31
0.0000000000000000
  0
LINE
  5
21D
100
AcDbEntity
  8
A2
  6
CONTINUOUS
 62
7
100
AcDbLine
 10
210.5000949999998
 20
73.99999999999991
 30
0.0000000000000000
 11
210.0000949999998
 21
73.49999999999991
 31
0.0000000000000000
  0
LINE
  5
21E
100
AcDbEntity
  8
A5
  6
CONTINUOUS
 62
7
100
AcDbLine
 10
210.0000950000000
 20
71.50000000000001
 30
0.0000000000000000
 11
210.0000950000000
 21
83.50000000000001
 31
0.0000000000000000
  0
LINE
  5
21F
100
AcDbEntity
  8
A5
  6
CONTINUOUS
 62
7
100
AcDbLine
 10
207.2500949999999
 20
70.00000000000004
 30
0.0000000000000000
 11
210.0000950000000
 21
71.50000000000004
 31
0.0000000000000000
  0
LINE
  5
220
100
AcDbEntity
  8
A5
  6
CONTINUOUS
 62
7
100
AcDbLine
 10
207.2500950000000
 20
85.00000000000000
 30
0.0000000000000000
 11
210.0000949999999
 21
83.50000000000006
 31
0.0000000000000000
  0
LINE
  5
221
100
AcDbEntity
  8
A5
  6
CONTINUOUS
 62
7
100
AcDbLine
 10
207.2500950000000
 20
85.00000000000001
 30
0.0000000000000000
 11
207.2500950000000
 21
84.00000000000001
 31
0.0000000000000000
  0
LINE
  5
222
100
AcDbEntity
  8
A5
  6
CONTINUOUS
 62
7
100
AcDbLine
 10
207.0000950000000
 20
84.00000000000001
 30
0.0000000000000000
 11
207.2500950000000
 21
84.00000000000001
 31
0.0000000000000000
  0
LINE
  5
223
100
AcDbEntity
  8
A5
  6
CONTINUOUS
 62
7
100
AcDbLine
 10
207.2500950000000
 20
71.00000000000001
 30
0.0000000000000000
 11
207.2500950000000
 21
70.00000000000001
 31
0.0000000000000000
  0
LINE
  5
224
100
AcDbEntity
  8
A5
  6
CONTINUOUS
 62
7
100
AcDbLine
 10
207.0000950000000
 20
71.00000000000001
 30
0.0000000000000000
 11
207.2500950000000
 21
71.00000000000001
 31
0.0000000000000000
  0
LINE
  5
225
100
AcDbEntity
  8
A2
  6
CONTINUOUS
 62
7
100
AcDbLine
 10
203.8000950000001
 20
85.00000000000001
 30
0.0000000000000000
 11
203.0000950000001
 21
85.00000000000001
 31
0.0000000000000000
  0
LINE
  5
226
100
AcDbEntity
  8
A2
  6
CONTINUOUS
 62
7
100
AcDbLine
 10
203.0000949999999
 20
70.00000000000001
 30
0.0000000000000000
 11
203.0000949999999
 21
85.00000000000001
 31
0.0000000000000000
  0
LINE
  5
227
100
AcDbEntity
  8
A2
  6
CONTINUOUS
 62
7
100
AcDbLine
 10
203.8000950000001
 20
70.00000000000001
 30
0.0000000000000000
 11
203.0000950000001
 21
70.00000000000001
 31
0.0000000000000000
  0
LINE
  5
228
100
AcDbEntity
  8
A5
  6
CONTINUOUS
 62
7
100
AcDbLine
 10
202.7500949999999
 20
71.00000000000001
 30
0.0000000000000000
 11
203.0000949999999
 21
71.00000000000001
 31
0.0000000000000000
  0
LINE
  5
229
100
AcDbEntity
  8
A5
  6
CONTINUOUS
 62
7
100
AcDbLine
 10
202.7500949999999
 20
71.00000000000001
 30
0.0000000000000000
 11
202.7500949999999
 21
70.60000000000004
 31
0.0000000000000000
  0
LINE
  5
22A
100
AcDbEntity
  8
A5
  6
CONTINUOUS
 62
7
100
AcDbLine
 10
202.7500949999998
 20
70.59999999999988
 30
0.0000000000000000
 11
200.0000949999997
 21
71.49999999999990
 31
0.0000000000000000
  0
LINE
  5
22B
100
AcDbEntity
  8
A2
  6
CONTINUOUS
 62
7
100
AcDbLine
 10
202.7500949999999
 20
78.00000000000001
 30
0.0000000000000000
 11
202.7500949999999
 21
77.00000000000001
 31
0.0000000000000000
  0
LINE
  5
22C
100
AcDbEntity
  8
A2
  6
CONTINUOUS
 62
7
100
AcDbLine
 10
202.7500949999999
 20
77.00000000000001
 30
0.0000000000000000
 11
200.0000949999999
 21
77.00000000000001
 31
0.0000000000000000
  0
LINE
  5
22D
100
AcDbEntity
  8
A2
  6
CONTINUOUS
 62
7
100
AcDbLine
 10
202.7500949999999
 20
78.00000000000001
 30
0.0000000000000000
 11
200.0000949999999
 21
78.00000000000001
 31
0.0000000000000000
  0
LINE
  5
22E
100
AcDbEntity
  8
A5
  6
CONTINUOUS
 62
7
100
AcDbLine
 10
202.7500949999999
 20
84.00000000000001
 30
0.0000000000000000
 11
203.0000949999999
 21
84.00000000000001
 31
0.0000000000000000
  0
LINE
  5
22F
100
AcDbEntity
  8
A5
  6
CONTINUOUS
 62
7
100
AcDbLine
 10
202.7500949999999
 20
84.39999999999988
 30
0.0000000000000000
 11
202.7500949999999
 21
83.99999999999990
 31
0.0000000000000000
  0
LINE
  5
230
100
AcDbEntity
  8
A5
  6
CONTINUOUS
 62
7
100
AcDbLine
 10
202.7500950000000
 20
84.39999999999988
 30
0.0000000000000000
 11
200.0000950000000
 21
83.49999999999986
 31
0.0000000000000000
  0
LINE
  5
231
100
AcDbEntity
  8
A5
  6
CONTINUOUS
 62
7
100
AcDbLine
 10
200.0000949999999
 20
85.00000000000001
 30
0.0000000000000000
 11
200.0000949999999
 21
70.00000000000001
 31
0.0000000000000000
  0
ARC
  5
232
100
AcDbEntity
  8
A2
  6
CONTINUOUS
 62
7
100
AcDbCircle
 10
199.5000949999999
 20
84.99999999999997
 30
0.0000000000000000
 40
0.5000000000000000
100
AcDbArc
 50
0.0000000000000000
 51
90.00000000000000
  0
LINE
  5
233
100
AcDbEntity
  8
A2
  6
CONTINUOUS
 62
7
100
AcDbLine
 10
199.5000949999999
 20
85.50000000000001
 30
0.0000000000000000
 11
198.0000949999999
 21
85.50000000000001
 31
0.0000000000000000
  0
ARC
  5
234
100
AcDbEntity
  8
A5
  6
CONTINUOUS
 62
7
100
AcDbCircle
 10
198.0000949999999
 20
84.49999999999997
 30
0.0000000000000000
 40
1.000000000000000
100
AcDbArc
 50
90.00000000000000
 51
180.0000000000000
  0
LINE
  5
235
100
AcDbEntity
  8
A5
  6
CONTINUOUS
 62
7
100
AcDbLine
 10
197.0000949999999
 20
70.50000000000001
 30
0.0000000000000000
 11
197.0000949999999
 21
84.50000000000001
 31
0.0000000000000000
  0
ARC
  5
236
100
AcDbEntity
  8
A5
  6
CONTINUOUS
 62
7
100
AcDbCircle
 10
198.0000949999999
 20
70.49999999999997
 30
0.0000000000000000
 40
1.000000000000000
100
AcDbArc
 50
180.0000000000000
 51
270.0000000000000
  0
LINE
  5
237
100
AcDbEntity
  8
A2
  6
CONTINUOUS
 62
7
100
AcDbLine
 10
199.5000949999999
 20
69.50000000000001
 30
0.0000000000000000
 11
198.0000949999999
 21
69.50000000000001
 31
0.0000000000000000
  0
ARC
  5
238
100
AcDbEntity
  8
A2
  6
CONTINUOUS
 62
7
100
AcDbCircle
 10
199.5000949999999
 20
69.99999999999997
 30
0.0000000000000000
 40
0.5000000000000000
100
AcDbArc
 50
270.0000000000000
 51
360.0000000000000
  0
LINE
  5
239
100
AcDbEntity
  8
A10
  6
CONTINUOUS
 62
7
100
AcDbLine
 10
213.7000950000000
 20
823.1858519999998
 30
0.0000000000000000
 11
234.5000949999999
 21
823.1858519999998
 31
0.0000000000000000
  0
LINE
  5
23A
100
AcDbEntity
  8
A10
  6
CONTINUOUS
 62
7
100
AcDbLine
 10
234.5000949999999
 20
823.1858519999998
 30
0.0000000000000000
 11
234.5000949999999
 21
826.3858519999999
 31
0.0000000000000000
  0
LINE
  5
23B
100
AcDbEntity
  8
A10
  6
CONTINUOUS
 62
7
100
AcDbLine
 10
213.7000950000000
 20
826.3858519999999
 30
0.0000000000000000
 11
234.5000949999999
 21
826.3858519999999
 31
0.0000000000000000
  0
LINE
  5
23C
100
AcDbEntity
  8
A10
  6
CONTINUOUS
 62
7
100
AcDbLine
 10
214.5000949998660
 20
823.1858519999998
 30
0.0000000000000000
 11
214.5000949998552
 21
826.3858520001386
 31
0.0000000000000000
  0
LINE
  5
23D
100
AcDbEntity
  8
A10
  6
CONTINUOUS
 62
7
100
AcDbLine
 10
210.5000950000000
 20
824.6858519999998
 30
0.0000000000000000
 11
210.5000950000000
 21
849.6858519999998
 31
0.0000000000000000
  0
LINE
  5
23E
100
AcDbEntity
  8
A10
  6
CONTINUOUS
 62
7
100
AcDbLine
 10
213.7000950000000
 20
826.3858519999999
 30
0.0000000000000000
 11
213.7000950000000
 21
845.1858519999996
 31
0.0000000000000000
  0
ARC
  5
23F
100
AcDbEntity
  8
A10
  6
CONTINUOUS
 62
7
100
AcDbCircle
 10
213.7000950000000
 20
826.3858519999999
 30
0.0000000000000000
 40
3.200000000000000
100
AcDbArc
 50
180.0000000000000
 51
270.0000000000000
  0
LINE
  5
240
100
AcDbEntity
  8
A10
  6
CONTINUOUS
 62
7
100
AcDbLine
 10
213.7000950000000
 20
845.1858519999996
 30
0.0000000000000000
 11
210.5000950000000
 21
845.1858519999996
 31
0.0000000000000000
  0
LINE
  5
241
100
AcDbEntity
  8
A10
  6
CENTER
 62
4
100
AcDbLine
 10
224.5000949999999
 20
817.1858519999998
 30
0.0000000000000000
 11
224.5000949999999
 21
832.3858519999999
 31
0.0000000000000000
  0
LINE
  5
242
100
AcDbEntity
  8
A5
  6
CONTINUOUS
 62
7
100
AcDbLine
 10
210.0000950000000
 20
843.1858519999998
 30
0.0000000000000000
 11
210.0000950000000
 21
831.1858519999998
 31
0.0000000000000000
  0
LINE
  5
243
100
AcDbEntity
  8
A2
  6
CONTINUOUS
 62
7
100
AcDbLine
 10
210.5000950000000
 20
840.6858519999997
 30
0.0000000000000000
 11
210.0000950000000
 21
841.1858519999997
 31
0.0000000000000000
  0
LINE
  5
244
100
AcDbEntity
  8
A5
  6
CONTINUOUS
 62
7
100
AcDbLine
 10
207.2500950000002
 20
844.6858520000000
 30
0.0000000000000000
 11
210.0000950000002
 21
843.1858519999998
 31
0.0000000000000000
  0
LINE
  5
245
100
AcDbEntity
  8
A5
  6
CONTINUOUS
 62
7
100
AcDbLine
 10
207.2500950000000
 20
843.6858519999998
 30
0.0000000000000000
 11
207.2500950000000
 21
844.6858519999998
 31
0.0000000000000000
  0
LINE
  5
246
100
AcDbEntity
  8
A5
  6
CONTINUOUS
 62
7
100
AcDbLine
 10
207.0000950000000
 20
843.6858519999998
 30
0.0000000000000000
 11
207.2500950000000
 21
843.6858519999998
 31
0.0000000000000000
  0
LINE
  5
247
100
AcDbEntity
  8
A2
  6
CONTINUOUS
 62
7
100
AcDbLine
 10
210.5000949999999
 20
833.6858519999998
 30
0.0000000000000000
 11
210.0000949999999
 21
833.1858519999998
 31
0.0000000000000000
  0
LINE
  5
248
100
AcDbEntity
  8
A5
  6
CONTINUOUS
 62
7
100
AcDbLine
 10
207.2500950000001
 20
829.6858519999998
 30
0.0000000000000000
 11
210.0000950000000
 21
831.1858519999998
 31
0.0000000000000000
  0
LINE
  5
249
100
AcDbEntity
  8
A5
  6
CONTINUOUS
 62
7
100
AcDbLine
 10
207.2500950000000
 20
829.6858519999998
 30
0.0000000000000000
 11
207.2500950000000
 21
830.6858519999998
 31
0.0000000000000000
  0
LINE
  5
24A
100
AcDbEntity
  8
A5
  6
CONTINUOUS
 62
7
100
AcDbLine
 10
207.0000950000000
 20
830.6858519999998
 30
0.0000000000000000
 11
207.2500950000000
 21
830.6858519999998
 31
0.0000000000000000
  0
LINE
  5
24B
100
AcDbEntity
  8
A2
  6
CONTINUOUS
 62
7
100
AcDbLine
 10
203.8000950000001
 20
844.6858519999998
 30
0.0000000000000000
 11
203.0000950000002
 21
844.6858519999998
 31
0.0000000000000000
  0
LINE
  5
24C
100
AcDbEntity
  8
A2
  6
CONTINUOUS
 62
7
100
AcDbLine
 10
203.0000949999999
 20
844.6858519999998
 30
0.0000000000000000
 11
203.0000949999999
 21
829.6858519999998
 31
0.0000000000000000
  0
LINE
  5
24D
100
AcDbEntity
  8
A2
  6
CONTINUOUS
 62
7
100
AcDbLine
 10
203.8000950000001
 20
829.6858519999998
 30
0.0000000000000000
 11
203.0000950000002
 21
829.6858519999998
 31
0.0000000000000000
  0
LINE
  5
24E
100
AcDbEntity
  8
A5
  6
CONTINUOUS
 62
7
100
AcDbLine
 10
202.7500949999999
 20
830.2858519999999
 30
0.0000000000000000
 11
202.7500949999999
 21
830.6858519999998
 31
0.0000000000000000
  0
LINE
  5
24F
100
AcDbEntity
  8
A5
  6
CONTINUOUS
 62
7
100
AcDbLine
 10
202.7500949999999
 20
830.6858519999998
 30
0.0000000000000000
 11
203.0000949999999
 21
830.6858519999998
 31
0.0000000000000000
  0
LINE
  5
250
100
AcDbEntity
  8
A5
  6
CONTINUOUS
 62
7
100
AcDbLine
 10
202.7500949999998
 20
830.2858519999997
 30
0.0000000000000000
 11
200.0000949999999
 21
831.1858519999998
 31
0.0000000000000000
  0
LINE
  5
251
100
AcDbEntity
  8
A2
  6
CONTINUOUS
 62
7
100
AcDbLine
 10
202.7500949999999
 20
836.6858519999998
 30
0.0000000000000000
 11
200.0000949999999
 21
836.6858519999998
 31
0.0000000000000000
  0
LINE
  5
252
100
AcDbEntity
  8
A2
  6
CONTINUOUS
 62
7
100
AcDbLine
 10
202.7500949999999
 20
836.6858519999998
 30
0.0000000000000000
 11
202.7500949999999
 21
837.6858519999998
 31
0.0000000000000000
  0
LINE
  5
253
100
AcDbEntity
  8
A2
  6
CONTINUOUS
 62
7
100
AcDbLine
 10
202.7500949999999
 20
837.6858519999998
 30
0.0000000000000000
 11
200.0000949999999
 21
837.6858519999998
 31
0.0000000000000000
  0
LINE
  5
254
100
AcDbEntity
  8
A5
  6
CONTINUOUS
 62
7
100
AcDbLine
 10
202.7500949999999
 20
843.6858519999998
 30
0.0000000000000000
 11
203.0000949999999
 21
843.6858519999998
 31
0.0000000000000000
  0
LINE
  5
255
100
AcDbEntity
  8
A5
  6
CONTINUOUS
 62
7
100
AcDbLine
 10
202.7500949999999
 20
843.6858519999998
 30
0.0000000000000000
 11
202.7500949999999
 21
844.0858519999997
 31
0.0000000000000000
  0
LINE
  5
256
100
AcDbEntity
  8
A5
  6
CONTINUOUS
 62
7
100
AcDbLine
 10
202.7500949999999
 20
844.0858519999998
 30
0.0000000000000000
 11
200.0000949999999
 21
843.1858519999998
 31
0.0000000000000000
  0
LINE
  5
257
100
AcDbEntity
  8
A5
  6
CONTINUOUS
 62
7
100
AcDbLine
 10
200.0000949999999
 20
829.6858519999998
 30
0.0000000000000000
 11
200.0000949999999
 21
844.6858519999998
 31
0.0000000000000000
  0
ARC
  5
258
100
AcDbEntity
  8
A2
  6
CONTINUOUS
 62
7
100
AcDbCircle
 10
199.5000950000000
 20
844.6858519999998
 30
0.0000000000000000
 40
0.5000000000000000
100
AcDbArc
 50
0.0000000000000000
 51
90.00000000000000
  0
LINE
  5
259
100
AcDbEntity
  8
A2
  6
CONTINUOUS
 62
7
100
AcDbLine
 10
199.5000949999999
 20
845.1858519999998
 30
0.0000000000000000
 11
198.0000949999999
 21
845.1858519999998
 31
0.0000000000000000
  0
ARC
  5
25A
100
AcDbEntity
  8
A5
  6
CONTINUOUS
 62
7
100
AcDbCircle
 10
198.0000950000000
 20
844.1858519999998
 30
0.0000000000000000
 40
1.000000000000000
100
AcDbArc
 50
90.00000000000000
 51
180.0000000000000
  0
LINE
  5
25B
100
AcDbEntity
  8
A5
  6
CONTINUOUS
 62
7
100
AcDbLine
 10
197.0000949999999
 20
844.1858519999998
 30
0.0000000000000000
 11
197.0000949999999
 21
830.1858519999998
 31
0.0000000000000000
  0
LINE
  5
25C
100
AcDbEntity
  8
A2
  6
CONTINUOUS
 62
7
100
AcDbLine
 10
199.5000949999999
 20
829.1858519999998
 30
0.0000000000000000
 11
198.0000949999999
 21
829.1858519999998
 31
0.0000000000000000
  0
ARC
  5
25D
100
AcDbEntity
  8
A5
  6
CONTINUOUS
 62
7
100
AcDbCircle
 10
198.0000950000000
 20
830.1858519999998
 30
0.0000000000000000
 40
1.000000000000000
100
AcDbArc
 50
180.0000000000000
 51
270.0000000000000
  0
ARC
  5
25E
100
AcDbEntity
  8
A2
  6
CONTINUOUS
 62
7
100
AcDbCircle
 10
199.5000950000000
 20
829.6858519999998
 30
0.0000000000000000
 40
0.5000000000000000
100
AcDbArc
 50
270.0000000000000
 51
360.0000000000000
  0
LINE
  5
25F
100
AcDbEntity
  8
A2
  6
CONTINUOUS
 62
7
100
AcDbLine
 10
213.7000950000001
 20
841.4358519999996
 30
0.0000000000000000
 11
214.7000950000001
 21
841.4358519999996
 31
0.0000000000000000
  0
LINE
  5
260
100
AcDbEntity
  8
A2
  6
CONTINUOUS
 62
7
100
AcDbLine
 10
213.7000950000001
 20
832.9358519999998
 30
0.0000000000000000
 11
214.7000950000001
 21
832.9358519999998
 31
0.0000000000000000
  0
LINE
  5
261
100
AcDbEntity
  8
A10
  6
CONTINUOUS
 62
7
100
AcDbLine
 10
214.7000950000001
 20
832.9358519999998
 30
0.0000000000000000
 11
214.7000950000001
 21
841.4358519999996
 31
0.0000000000000000
  0
LINE
  5
262
100
AcDbEntity
  8
A4
  6
CONTINUOUS
 62
7
100
AcDbLine
 10
196.1705930000001
 20
848.1592400000000
 30
0.0000000000000000
 11
202.5299578041964
 21
844.0138070995552
 31
0.0000000000000000
  0
LINE
  5
263
100
AcDbEntity
  8
A4
  6
CONTINUOUS
 62
7
100
AcDbLine
 10
202.7500950000000
 20
843.8703078661893
 30
0.0000000000000000
 11
203.0000949999999
 21
843.7073421837634
 31
0.0000000000000000
  0
LINE
  5
264
100
AcDbEntity
  8
A4
  6
CONTINUOUS
 62
7
100
AcDbLine
 10
196.1705930000001
 20
826.2125240000000
 30
0.0000000000000000
 11
202.5299476026399
 21
830.3579002391357
 31
0.0000000000000000
  0
LINE
  5
265
100
AcDbEntity
  8
A4
  6
CONTINUOUS
 62
7
100
AcDbLine
 10
202.7500950000000
 20
830.5014043912309
 30
0.0000000000000000
 11
203.0000950000000
 21
830.6643681076046
 31
0.0000000000000000
  0
ARC
  5
266
100
AcDbEntity
  8
A4
  6
CONTINUOUS
 62
7
100
AcDbCircle
 10
200.0000920000000
 20
837.1858519999998
 30
0.0000000000000000
 40
10.00000000000000
100
AcDbArc
 50
314.4270040000000
 51
316.4688727890945
  0
ARC
  5
267
100
AcDbEntity
  8
A4
  6
CONTINUOUS
 62
7
100
AcDbCircle
 10
200.0000920000000
 20
837.1858519999998
 30
0.0000000000000000
 40
10.00000000000000
100
AcDbArc
 50
43.53112721090555
 51
45.57299600000001
  0
ARC
  5
268
100
AcDbEntity
  8
A4
  6
CONTINUOUS
 62
7
100
AcDbCircle
 10
200.0000920000000
 20
837.1858519999998
 30
0.0000000000000000
 40
11.00000000000000
100
AcDbArc
 50
37.47800646282387
 51
50.47880400000002
  0
ARC
  5
269
100
AcDbEntity
  8
A4
  6
CONTINUOUS
 62
7
100
AcDbCircle
 10
200.0000920000000
 20
837.1858519999998
 30
0.0000000000000000
 40
11.00000000000000
100
AcDbArc
 50
309.5211959999997
 51
322.5219935371762
  0
ARC
  5
26A
100
AcDbEntity
  8
A4
  6
CONTINUOUS
 62
7
100
AcDbCircle
 10
200.0000920000000
 20
837.1858519999998
 30
0.0000000000000000
 40
11.00000000000000
100
AcDbArc
 50
335.3800601802630
 51
340.8479420659820
  0
ARC
  5
26B
100
AcDbEntity
  8
A4
  6
CONTINUOUS
 62
7
100
AcDbCircle
 10
200.0000920000000
 20
837.1858519999998
 30
0.0000000000000000
 40
11.00000000000000
100
AcDbArc
 50
19.15205793401804
 51
24.61993981973701
  0
LINE
  5
26C
100
AcDbEntity
  8
A10
  6
CONTINUOUS
 62
7
100
AcDbLine
 10
210.5000950000000
 20
3.509109000000016
 30
0.0000000000000000
 11
218.5000950000001
 21
3.509109000000016
 31
0.0000000000000000
  0
LINE
  5
26D
100
AcDbEntity
  8
A10
  6
CONTINUOUS
 62
7
100
AcDbLine
 10
218.5000950000001
 20
3.509109000000020
 30
0.0000000000000000
 11
218.5000950000001
 21
-21.49089099999998
 31
0.0000000000000000
  0
LINE
  5
26E
100
AcDbEntity
  8
A10
  6
CONTINUOUS
 62
7
100
AcDbLine
 10
215.3000950000001
 20
3.509109000000020
 30
0.0000000000000000
 11
215.3000950000001
 21
-21.49089099999999
 31
0.0000000000000000
  0
LINE
  5
26F
100
AcDbEntity
  8
A10
  6
CONTINUOUS
 62
7
100
AcDbLine
 10
210.5000950000000
 20
3.509109000000016
 30
0.0000000000000000
 11
210.5000950000000
 21
-21.49089099999998
 31
0.0000000000000000
  0
LINE
  5
270
100
AcDbEntity
  8
A10
  6
CONTINUOUS
 62
7
100
AcDbLine
 10
218.5000950000001
 20
-21.49089099999998
 30
0.0000000000000000
 11
210.5000950000000
 21
-21.49089099999998
 31
0.0000000000000000
  0
LINE
  5
271
100
AcDbEntity
  8
A2
  6
CONTINUOUS
 62
7
100
AcDbLine
 10
210.5000949999998
 20
-5.490890999999991
 30
0.0000000000000000
 11
210.0000949999999
 21
-4.990891000000076
 31
0.0000000000000000
  0
LINE
  5
272
100
AcDbEntity
  8
A5
  6
CONTINUOUS
 62
7
100
AcDbLine
 10
210.0000950000000
 20
-14.99089099999999
 30
0.0000000000000000
 11
210.0000950000000
 21
-2.990890999999992
 31
0.0000000000000000
  0
LINE
  5
273
100
AcDbEntity
  8
A2
  6
CONTINUOUS
 62
7
100
AcDbLine
 10
210.5000949999998
 20
-12.49089100000003
 30
0.0000000000000000
 11
210.0000949999998
 21
-12.99089100000005
 31
0.0000000000000000
  0
LINE
  5
274
100
AcDbEntity
  8
A5
  6
CONTINUOUS
 62
7
100
AcDbLine
 10
207.2500950000000
 20
-16.49089099999996
 30
0.0000000000000000
 11
210.0000950000000
 21
-14.99089099999995
 31
0.0000000000000000
  0
LINE
  5
275
100
AcDbEntity
  8
A5
  6
CONTINUOUS
 62
7
100
AcDbLine
 10
207.2500950000000
 20
-1.490890999999991
 30
0.0000000000000000
 11
210.0000949999999
 21
-2.990890999999934
 31
0.0000000000000000
  0
LINE
  5
276
100
AcDbEntity
  8
A5
  6
CONTINUOUS
 62
7
100
AcDbLine
 10
207.2500950000000
 20
-1.490890999999992
 30
0.0000000000000000
 11
207.2500950000000
 21
-2.490890999999992
 31
0.0000000000000000
  0
LINE
  5
277
100
AcDbEntity
  8
A5
  6
CONTINUOUS
 62
7
100
AcDbLine
 10
207.0000950000000
 20
-2.490890999999992
 30
0.0000000000000000
 11
207.2500950000000
 21
-2.490890999999992
 31
0.0000000000000000
  0
LINE
  5
278
100
AcDbEntity
  8
A5
  6
CONTINUOUS
 62
7
100
AcDbLine
 10
207.2500950000000
 20
-15.49089099999999
 30
0.0000000000000000
 11
207.2500950000000
 21
-16.49089099999999
 31
0.0000000000000000
  0
LINE
  5
279
100
AcDbEntity
  8
A5
  6
CONTINUOUS
 62
7
100
AcDbLine
 10
207.0000950000000
 20
-15.49089099999999
 30
0.0000000000000000
 11
207.2500950000000
 21
-15.49089099999999
 31
0.0000000000000000
  0
LINE
  5
27A
100
AcDbEntity
  8
A2
  6
CONTINUOUS
 62
7
100
AcDbLine
 10
203.8000950000001
 20
-1.490890999999992
 30
0.0000000000000000
 11
203.0000950000001
 21
-1.490890999999992
 31
0.0000000000000000
  0
LINE
  5
27B
100
AcDbEntity
  8
A2
  6
CONTINUOUS
 62
7
100
AcDbLine
 10
203.0000949999999
 20
-16.49089099999999
 30
0.0000000000000000
 11
203.0000949999999
 21
-1.490890999999992
 31
0.0000000000000000
  0
LINE
  5
27C
100
AcDbEntity
  8
A2
  6
CONTINUOUS
 62
7
100
AcDbLine
 10
203.8000950000001
 20
-16.49089099999999
 30
0.0000000000000000
 11
203.0000950000001
 21
-16.49089099999999
 31
0.0000000000000000
  0
LINE
  5
27D
100
AcDbEntity
  8
A5
  6
CONTINUOUS
 62
7
100
AcDbLine
 10
202.7500949999999
 20
-15.49089099999999
 30
0.0000000000000000
 11
203.0000949999999
 21
-15.49089099999999
 31
0.0000000000000000
  0
LINE
  5
27E
100
AcDbEntity
  8
A5
  6
CONTINUOUS
 62
7
100
AcDbLine
 10
202.7500949999999
 20
-15.49089099999999
 30
0.0000000000000000
 11
202.7500949999999
 21
-15.89089099999997
 31
0.0000000000000000
  0
LINE
  5
27F
100
AcDbEntity
  8
A5
  6
CONTINUOUS
 62
7
100
AcDbLine
 10
202.7500949999998
 20
-15.89089100000012
 30
0.0000000000000000
 11
200.0000949999997
 21
-14.99089100000010
 31
0.0000000000000000
  0
LINE
  5
280
100
AcDbEntity
  8
A2
  6
CONTINUOUS
 62
7
100
AcDbLine
 10
202.7500949999999
 20
-9.490890999999992
 30
0.0000000000000000
 11
200.0000949999999
 21
-9.490890999999992
 31
0.0000000000000000
  0
LINE
  5
281
100
AcDbEntity
  8
A2
  6
CONTINUOUS
 62
7
100
AcDbLine
 10
202.7500949999999
 20
-8.490890999999992
 30
0.0000000000000000
 11
202.7500949999999
 21
-9.490890999999992
 31
0.0000000000000000
  0
LINE
  5
282
100
AcDbEntity
  8
A2
  6
CONTINUOUS
 62
7
100
AcDbLine
 10
202.7500949999999
 20
-8.490890999999992
 30
0.0000000000000000
 11
200.0000949999999
 21
-8.490890999999992
 31
0.0000000000000000
  0
LINE
  5
283
100
AcDbEntity
  8
A5
  6
CONTINUOUS
 62
7
100
AcDbLine
 10
202.7500949999999
 20
-2.090891000000129
 30
0.0000000000000000
 11
202.7500949999999
 21
-2.490891000000106
 31
0.0000000000000000
  0
LINE
  5
284
100
AcDbEntity
  8
A5
  6
CONTINUOUS
 62
7
100
AcDbLine
 10
202.7500949999999
 20
-2.490890999999992
 30
0.0000000000000000
 11
203.0000949999999
 21
-2.490890999999992
 31
0.0000000000000000
  0
LINE
  5
285
100
AcDbEntity
  8
A5
  6
CONTINUOUS
 62
7
100
AcDbLine
 10
202.7500950000000
 20
-2.090891000000155
 30
0.0000000000000000
 11
200.0000950000000
 21
-2.990891000000168
 31
0.0000000000000000
  0
LINE
  5
286
100
AcDbEntity
  8
A5
  6
CONTINUOUS
 62
7
100
AcDbLine
 10
200.0000949999999
 20
-1.490890999999993
 30
0.0000000000000000
 11
200.0000949999999
 21
-16.49089099999999
 31
0.0000000000000000
  0
ARC
  5
287
100
AcDbEntity
  8
A2
  6
CONTINUOUS
 62
7
100
AcDbCircle
 10
199.5000949999999
 20
-1.490891000000026
 30
0.0000000000000000
 40
0.5000000000000000
100
AcDbArc
 50
0.0000000000000000
 51
90.00000000000000
  0
LINE
  5
288
100
AcDbEntity
  8
A2
  6
CONTINUOUS
 62
7
100
AcDbLine
 10
199.5000949999999
 20
-0.9908909999999926
 30
0.0000000000000000
 11
198.0000949999999
 21
-0.9908909999999927
 31
0.0000000000000000
  0
ARC
  5
289
100
AcDbEntity
  8
A5
  6
CONTINUOUS
 62
7
100
AcDbCircle
 10
198.0000949999999
 20
-1.990891000000026
 30
0.0000000000000000
 40
1.000000000000000
100
AcDbArc
 50
90.00000000000000
 51
180.0000000000000
  0
LINE
  5
28A
100
AcDbEntity
  8
A5
  6
CONTINUOUS
 62
7
100
AcDbLine
 10
197.0000949999999
 20
-15.99089099999999
 30
0.0000000000000000
 11
197.0000949999999
 21
-1.990890999999993
 31
0.0000000000000000
  0
LINE
  5
28B
100
AcDbEntity
  8
A2
  6
CONTINUOUS
 62
7
100
AcDbLine
 10
199.5000949999999
 20
-16.99089099999999
 30
0.0000000000000000
 11
198.0000949999999
 21
-16.99089099999999
 31
0.0000000000000000
  0
ARC
  5
28C
100
AcDbEntity
  8
A5
  6
CONTINUOUS
 62
7
100
AcDbCircle
 10
198.0000949999999
 20
-15.99089100000003
 30
0.0000000000000000
 40
1.000000000000000
100
AcDbArc
 50
180.0000000000000
 51
270.0000000000000
  0
ARC
  5
28D
100
AcDbEntity
  8
A2
  6
CONTINUOUS
 62
7
100
AcDbCircle
 10
199.5000949999999
 20
-16.49089100000003
 30
0.0000000000000000
 40
0.5000000000000000
100
AcDbArc
 50
270.0000000000000
 51
360.0000000000000
  0
LINE
  5
28E
100
AcDbEntity
  8
A4
  6
CONTINUOUS
 62
7
100
AcDbLine
 10
196.1713710000000
 20
1.982463000000095
 30
0.0000000000000000
 11
202.5300382542907
 21
-2.162909571323169
 31
0.0000000000000000
  0
LINE
  5
28F
100
AcDbEntity
  8
A4
  6
CONTINUOUS
 62
7
100
AcDbLine
 10
202.7500949999999
 20
-2.306370010644343
 30
0.0000000000000000
 11
203.0000950000000
 21
-2.469351198586153
 31
0.0000000000000000
  0
LINE
  5
290
100
AcDbEntity
  8
A4
  6
CONTINUOUS
 62
7
100
AcDbLine
 10
196.1713710000000
 20
-19.96424500000001
 30
0.0000000000000000
 11
202.5300382542902
 21
-15.81887242867698
 31
0.0000000000000000
  0
LINE
  5
291
100
AcDbEntity
  8
A4
  6
CONTINUOUS
 62
7
100
AcDbLine
 10
202.7500949999999
 20
-15.67541198935554
 30
0.0000000000000000
 11
203.0000949999999
 21
-15.51243080141379
 31
0.0000000000000000
  0
ARC
  5
292
100
AcDbEntity
  8
A4
  6
CONTINUOUS
 62
7
100
AcDbCircle
 10
200.0000920000000
 20
-8.990890999999984
 30
0.0000000000000000
 40
10.00000000000000
100
AcDbArc
 50
314.4270040000000
 51
316.4688727890937
  0
ARC
  5
293
100
AcDbEntity
  8
A4
  6
CONTINUOUS
 62
7
100
AcDbCircle
 10
200.0000920000000
 20
-8.990890999999984
 30
0.0000000000000000
 40
10.00000000000000
100
AcDbArc
 50
43.53112721090631
 51
45.57299600000001
  0
ARC
  5
294
100
AcDbEntity
  8
A4
  6
CONTINUOUS
 62
7
100
AcDbCircle
 10
200.0000920000000
 20
-8.990890999999984
 30
0.0000000000000000
 40
11.00000000000000
100
AcDbArc
 50
37.47800646282323
 51
50.47880400000002
  0
ARC
  5
295
100
AcDbEntity
  8
A4
  6
CONTINUOUS
 62
7
100
AcDbCircle
 10
200.0000920000000
 20
-8.990890999999984
 30
0.0000000000000000
 40
11.00000000000000
100
AcDbArc
 50
309.5211959999997
 51
322.5219935371770
  0
ARC
  5
296
100
AcDbEntity
  8
A4
  6
CONTINUOUS
 62
7
100
AcDbCircle
 10
200.0000920000000
 20
-8.990890999999984
 30
0.0000000000000000
 40
11.00000000000000
100
AcDbArc
 50
335.3800601802620
 51
340.8479420659830
  0
ARC
  5
297
100
AcDbEntity
  8
A4
  6
CONTINUOUS
 62
7
100
AcDbCircle
 10
200.0000920000000
 20
-8.990890999999984
 30
0.0000000000000000
 40
11.00000000000000
100
AcDbArc
 50
19.15205793401634
 51
24.61993981973803
  0
LINE
  5
298
100
AcDbEntity
  8
A2
  6
CONTINUOUS
 62
7
100
AcDbLine
 10
61.00000000000001
 20
713.5000000000000
 30
0.0000000000000000
 11
64.00000000000011
 21
713.5000000000000
 31
0.0000000000000000
  0
LINE
  5
299
100
AcDbEntity
  8
A2
  6
CONTINUOUS
 62
7
100
AcDbLine
 10
64.00000000000011
 20
773.4999999999999
 30
0.0000000000000000
 11
60.80000000000005
 21
773.4999999999999
 31
0.0000000000000000
  0
LINE
  5
29A
100
AcDbEntity
  8
A2
  6
CONTINUOUS
 62
7
100
AcDbLine
 10
64.00000000000011
 20
773.4999999999999
 30
0.0000000000000000
 11
64.00000000000011
 21
713.5000000000000
 31
0.0000000000000000
  0
LINE
  5
29B
100
AcDbEntity
  8
A2
  6
CENTER
 62
4
100
AcDbLine
 10
54.80000000000008
 20
723.4999999999999
 30
0.0000000000000000
 11
70.00000000000009
 21
723.4999999999999
 31
0.0000000000000000
  0
LINE
  5
29C
100
AcDbEntity
  8
A2
  6
CENTER
 62
4
100
AcDbLine
 10
70.00000000000011
 20
763.4999999999999
 30
0.0000000000000000
 11
54.80000000000008
 21
763.4999999999999
 31
0.0000000000000000
  0
LINE
  5
29D
100
AcDbEntity
  8
A2
  6
CONTINUOUS
 62
7
100
AcDbLine
 10
60.80000000000001
 20
730.5000000000001
 30
0.0000000000000000
 11
59.06799794915315
 21
731.2008083777457
 31
0.0000000000000000
  0
LINE
  5
29E
100
AcDbEntity
  8
A2
  6
CONTINUOUS
 62
7
100
AcDbLine
 10
60.80000000000024
 20
756.4999999999999
 30
0.0000000000000000
 11
50.82142501698905
 21
752.4624361052934
 31
0.0000000000000000
  0
LINE
  5
29F
100
AcDbEntity
  8
A10
  6
CONTINUOUS
 62
7
100
AcDbLine
 10
64.00000000000011
 20
756.4999999999999
 30
0.0000000000000000
 11
60.80000000000008
 21
756.4999999999999
 31
0.0000000000000000
  0
LINE
  5
2A0
100
AcDbEntity
  8
A10
  6
CONTINUOUS
 62
7
100
AcDbLine
 10
64.00000000000011
 20
730.4999999999999
 30
0.0000000000000000
 11
60.80000000000008
 21
730.4999999999999
 31
0.0000000000000000
  0
LINE
  5
2A1
100
AcDbEntity
  8
A2
  6
CONTINUOUS
 62
7
100
AcDbLine
 10
60.80000000000008
 20
773.4999999999999
 30
0.0000000000000000
 11
60.80000000000008
 21
756.4999999999999
 31
0.0000000000000000
  0
CIRCLE
  5
2A2
100
AcDbEntity
  8
A10
  6
CONTINUOUS
 62
7
100
AcDbCircle
 10
50.00000000000013
 20
743.5000000000000
 30
0.0000000000000000
 40
7.999999999999886
  0
ARC
  5
2A3
100
AcDbEntity
  8
A10
  6
CONTINUOUS
 62
7
100
AcDbCircle
 10
50.00000000000001
 20
743.5000000000000
 30
0.0000000000000000
 40
9.000000000000000
100
AcDbArc
 50
0.0000000000000000
 51
180.0000000000000
  0
LINE
  5
2A4
100
AcDbEntity
  8
A2
  6
CONTINUOUS
 62
7
100
AcDbLine
 10
60.80000000000008
 20
719.4999999999998
 30
0.0000000000000000
 11
60.80000000000008
 21
715.3999999999996
 31
0.0000000000000000
  0
LINE
  5
2A5
100
AcDbEntity
  8
A2
  6
CONTINUOUS
 62
7
100
AcDbLine
 10
60.80000000000008
 20
730.5000000000001
 30
0.0000000000000000
 11
60.80000000000008
 21
723.5799829000000
 31
0.0000000000000000
  0
LINE
  5
2A6
100
AcDbEntity
  8
A2
  6
CONTINUOUS
 62
7
100
AcDbLine
 10
62.50000000000000
 20
50.00000000000001
 30
0.0000000000000000
 11
62.49999999999999
 21
105.0000000000000
 31
0.0000000000000000
  0
LINE
  5
2A7
100
AcDbEntity
  8
A2
  6
CONTINUOUS
 62
7
100
AcDbLine
 10
37.49999999999999
 20
105.0000000000000
 30
0.0000000000000000
 11
37.50000000000000
 21
50.00000000000000
 31
0.0000000000000000
  0
CIRCLE
  5
2A8
100
AcDbEntity
  8
A2
  6
CONTINUOUS
 62
7
100
AcDbCircle
 10
50.00000000000011
 20
49.99999999999996
 30
0.0000000000000000
 40
3.500000000000000
  0
ARC
  5
2A9
100
AcDbEntity
  8
A2
  6
CONTINUOUS
 62
7
100
AcDbCircle
 10
50.00000000000011
 20
49.99999999999996
 30
0.0000000000000000
 40
12.50000000000000
100
AcDbArc
 50
180.0000000000000
 51
360.0000000000000
  0
LINE
  5
2AA
100
AcDbEntity
  8
A2
  6
CENTER
 62
4
100
AcDbLine
 10
59.50000000000004
 20
50.00000000000000
 30
0.0000000000000000
 11
40.49999999999997
 21
50.00000000000000
 31
0.0000000000000000
  0
LINE
  5
2AB
100
AcDbEntity
  8
A2
  6
CENTER
 62
4
100
AcDbLine
 10
59.50000000000004
 20
105.0000000000000
 30
0.0000000000000000
 11
40.49999999999997
 21
105.0000000000000
 31
0.0000000000000000
  0
CIRCLE
  5
2AC
100
AcDbEntity
  8
A10
  6
CONTINUOUS
 62
7
100
AcDbCircle
 10
50.00000000000011
 20
77.49999999999997
 30
0.0000000000000000
 40
8.000000000000028
  0
ARC
  5
2AD
100
AcDbEntity
  8
A2
  6
CONTINUOUS
 62
7
100
AcDbCircle
 10
50.00000000000011
 20
105.0000000000000
 30
0.0000000000000000
 40
12.50000000000000
100
AcDbArc
 50
0.0000000000000000
 51
66.42182152179873
  0
ARC
  5
2AE
100
AcDbEntity
  8
A2
  6
CONTINUOUS
 62
7
100
AcDbCircle
 10
50.00000000000011
 20
105.0000000000000
 30
0.0000000000000000
 40
12.50000000000000
100
AcDbArc
 50
113.5781784782024
 51
180.0000000000000
  0
ARC
  5
2AF
100
AcDbEntity
  8
A10
  6
CONTINUOUS
 62
7
100
AcDbCircle
 10
50.00000000000000
 20
77.50000000000003
 30
0.0000000000000000
 40
9.000000000000000
100
AcDbArc
 50
180.0000000000000
 51
360.0000000000000
  0
POINT
  5
2B0
100
AcDbEntity
  8
A10
  6
CONTINUOUS
 62
5
100
AcDbPoint
 10
50.00000000000000
 20
50.00000000000000
 30
0.0000000000000000
  0
ARC
  5
2B1
100
AcDbEntity
  8
A2
  6
PHANTOM
 62
1
100
AcDbCircle
 10
50.00000000000021
 20
304.9999999999999
 30
0.0000000000000000
 40
12.50000000000000
100
AcDbArc
 50
0.0000000000000000
 51
180.0000000000000
  0
LINE
  5
2B2
100
AcDbEntity
  8
A2
  6
PHANTOM
 62
1
100
AcDbLine
 10
37.50000000000006
 20
305.0000000000000
 30
0.0000000000000000
 11
37.50000000000007
 21
250.0000000000000
 31
0.0000000000000000
  0
LINE
  5
2B3
100
AcDbEntity
  8
A2
  6
PHANTOM
 62
1
100
AcDbLine
 10
62.50000000000007
 20
250.0000000000000
 30
0.0000000000000000
 11
62.50000000000006
 21
305.0000000000000
 31
0.0000000000000000
  0
LINE
  5
2B4
100
AcDbEntity
  8
A2
  6
CENTER
 62
4
100
AcDbLine
 10
59.50000000000014
 20
305.0000000000000
 30
0.0000000000000000
 11
40.50000000000007
 21
305.0000000000000
 31
0.0000000000000000
  0
LINE
  5
2B5
100
AcDbEntity
  8
A2
  6
CENTER
 62
4
100
AcDbLine
 10
59.50000000000011
 20
250.0000000000000
 30
0.0000000000000000
 11
40.50000000000005
 21
250.0000000000000
 31
0.0000000000000000
  0
ARC
  5
2B6
100
AcDbEntity
  8
A2
  6
PHANTOM
 62
1
100
AcDbCircle
 10
50.00000000000019
 20
249.9999999999999
 30
0.0000000000000000
 40
12.50000000000000
100
AcDbArc
 50
180.0000000000000
 51
360.0000000000000
  0
CIRCLE
  5
2B7
100
AcDbEntity
  8
A10
  6
PHANTOM
 62
1
100
AcDbCircle
 10
50.00000000000021
 20
277.4999999999999
 30
0.0000000000000000
 40
8.000000000000028
  0
CIRCLE
  5
2B8
100
AcDbEntity
  8
A2
  6
PHANTOM
 62
1
100
AcDbCircle
 10
50.00000000000021
 20
304.9999999999999
 30
0.0000000000000000
 40
3.500000000000000
  0
CIRCLE
  5
2B9
100
AcDbEntity
  8
A2
  6
PHANTOM
 62
1
100
AcDbCircle
 10
50.00000000000019
 20
249.9999999999999
 30
0.0000000000000000
 40
3.500000000000000
  0
ARC
  5
2BA
100
AcDbEntity
  8
A2
  6
PHANTOM
 62
1
100
AcDbCircle
 10
360.0001830000001
 20
305.0000000000000
 30
0.0000000000000000
 40
12.50000000000000
100
AcDbArc
 50
0.0000000000000000
 51
180.0000000000000
  0
LINE
  5
2BB
100
AcDbEntity
  8
A2
  6
PHANTOM
 62
1
100
AcDbLine
 10
347.5001830000000
 20
305.0000000000000
 30
0.0000000000000000
 11
347.5001830000000
 21
250.0000000000000
 31
0.0000000000000000
  0
LINE
  5
2BC
100
AcDbEntity
  8
A2
  6
PHANTOM
 62
1
100
AcDbLine
 10
372.5001830000000
 20
250.0000000000000
 30
0.0000000000000000
 11
372.5001830000000
 21
305.0000000000000
 31
0.0000000000000000
  0
CIRCLE
  5
2BD
100
AcDbEntity
  8
A2
  6
PHANTOM
 62
1
100
AcDbCircle
 10
360.0001830000001
 20
305.0000000000000
 30
0.0000000000000000
 40
3.500000000000000
  0
LINE
  5
2BE
100
AcDbEntity
  8
A2
  6
CENTER
 62
4
100
AcDbLine
 10
369.5001830000000
 20
305.0000000000000
 30
0.0000000000000000
 11
350.5001830000000
 21
305.0000000000000
 31
0.0000000000000000
  0
CIRCLE
  5
2BF
100
AcDbEntity
  8
A2
  6
PHANTOM
 62
1
100
AcDbCircle
 10
360.0001830000001
 20
250.0000000000000
 30
0.0000000000000000
 40
3.500000000000000
  0
ARC
  5
2C0
100
AcDbEntity
  8
A2
  6
PHANTOM
 62
1
100
AcDbCircle
 10
360.0001830000001
 20
250.0000000000000
 30
0.0000000000000000
 40
12.50000000000000
100
AcDbArc
 50
180.0000000000000
 51
360.0000000000000
  0
LINE
  5
2C1
100
AcDbEntity
  8
A2
  6
CENTER
 62
4
100
AcDbLine
 10
369.5001830000000
 20
250.0000000000000
 30
0.0000000000000000
 11
350.5001830000000
 21
250.0000000000000
 31
0.0000000000000000
  0
LINE
  5
2C2
100
AcDbEntity
  8
A2
  6
PHANTOM
 62
1
100
AcDbLine
 10
215.3000950000001
 20
295.9925138825747
 30
0.0000000000000000
 11
215.3000950000001
 21
317.5000000000000
 31
0.0000000000000000
  0
LINE
  5
2C3
100
AcDbEntity
  8
A2
  6
PHANTOM
 62
1
100
AcDbLine
 10
215.3000950000001
 20
317.5000000000000
 30
0.0000000000000000
 11
218.5000950000002
 21
317.5000000000000
 31
0.0000000000000000
  0
LINE
  5
2C4
100
AcDbEntity
  8
A2
  6
PHANTOM
 62
1
100
AcDbLine
 10
218.5000950000000
 20
295.9925138825748
 30
0.0000000000000000
 11
218.5000950000000
 21
317.5000000000000
 31
0.0000000000000000
  0
LINE
  5
2C5
100
AcDbEntity
  8
A2
  6
CENTER
 62
4
100
AcDbLine
 10
209.3000950000001
 20
305.0000000000000
 30
0.0000000000000000
 11
224.5000950000000
 21
305.0000000000000
 31
0.0000000000000000
  0
ARC
  5
2C6
100
AcDbEntity
  8
A2
  6
PHANTOM
 62
1
100
AcDbCircle
 10
213.3000950000001
 20
295.9925138825747
 30
0.0000000000000000
 40
2.000000000000000
100
AcDbArc
 50
319.1829447235325
 51
360.0000000000000
  0
ARC
  5
2C7
100
AcDbEntity
  8
A2
  6
PHANTOM
 62
1
100
AcDbCircle
 10
213.3000950000001
 20
295.9925138825747
 30
0.0000000000000000
 40
5.200000000000000
100
AcDbArc
 50
319.1829447235325
 51
360.0000000000000
  0
LINE
  5
2C8
100
AcDbEntity
  8
A2
  6
PHANTOM
 62
1
100
AcDbLine
 10
214.8136960358583
 20
294.6852220619590
 30
0.0000000000000000
 11
211.7647323067686
 21
291.1550885555240
 31
0.0000000000000000
  0
LINE
  5
2C9
100
AcDbEntity
  8
A2
  6
PHANTOM
 62
1
100
AcDbLine
 10
214.1864939641418
 20
289.0634216425387
 30
0.0000000000000000
 11
217.2354576932315
 21
292.5935551489738
 31
0.0000000000000000
  0
ARC
  5
2CA
100
AcDbEntity
  8
A2
  6
PHANTOM
 62
1
100
AcDbCircle
 10
215.7000950000000
 20
287.7561298219229
 30
0.0000000000000000
 40
5.200000000000000
100
AcDbArc
 50
139.1829447235325
 51
180.0000000000000
  0
ARC
  5
2CB
100
AcDbEntity
  8
A2
  6
PHANTOM
 62
1
100
AcDbCircle
 10
215.7000950000000
 20
287.7561298219229
 30
0.0000000000000000
 40
2.000000000000000
100
AcDbArc
 50
139.1829447235325
 51
180.0000000000000
  0
LINE
  5
2CC
100
AcDbEntity
  8
A2
  6
PHANTOM
 62
1
100
AcDbLine
 10
210.5000950000001
 20
267.2438701780770
 30
0.0000000000000000
 11
210.5000950000001
 21
287.7561298219230
 31
0.0000000000000000
  0
LINE
  5
2CD
100
AcDbEntity
  8
A2
  6
PHANTOM
 62
1
100
AcDbLine
 10
213.7000950000001
 20
267.2438701780770
 30
0.0000000000000000
 11
213.7000950000001
 21
287.7561298219230
 31
0.0000000000000000
  0
ARC
  5
2CE
100
AcDbEntity
  8
A2
  6
PHANTOM
 62
1
100
AcDbCircle
 10
215.7000950000000
 20
267.2438701780770
 30
0.0000000000000000
 40
5.200000000000000
100
AcDbArc
 50
180.0000000000000
 51
220.8170552764674
  0
ARC
  5
2CF
100
AcDbEntity
  8
A2
  6
PHANTOM
 62
1
100
AcDbCircle
 10
215.7000950000000
 20
267.2438701780770
 30
0.0000000000000000
 40
2.000000000000000
100
AcDbArc
 50
180.0000000000000
 51
220.8170552764674
  0
LINE
  5
2D0
100
AcDbEntity
  8
A2
  6
PHANTOM
 62
1
100
AcDbLine
 10
211.7647323067686
 20
263.8449114444760
 30
0.0000000000000000
 11
214.8136960358583
 21
260.3147779380409
 31
0.0000000000000000
  0
LINE
  5
2D1
100
AcDbEntity
  8
A2
  6
PHANTOM
 62
1
100
AcDbLine
 10
214.1864939641417
 20
265.9365783574611
 30
0.0000000000000000
 11
217.2354576932314
 21
262.4064448510260
 31
0.0000000000000000
  0
ARC
  5
2D2
100
AcDbEntity
  8
A2
  6
PHANTOM
 62
1
100
AcDbCircle
 10
213.3000950000001
 20
259.0074861174252
 30
0.0000000000000000
 40
5.200000000000000
100
AcDbArc
 50
0.0000000000000000
 51
40.81705527646749
  0
ARC
  5
2D3
100
AcDbEntity
  8
A2
  6
PHANTOM
 62
1
100
AcDbCircle
 10
213.3000950000001
 20
259.0074861174252
 30
0.0000000000000000
 40
2.000000000000000
100
AcDbArc
 50
0.0000000000000000
 51
40.81705527646749
  0
LINE
  5
2D4
100
AcDbEntity
  8
A2
  6
PHANTOM
 62
1
100
AcDbLine
 10
215.3000950000001
 20
259.0074861174252
 30
0.0000000000000000
 11
215.3000950000001
 21
237.5000000000000
 31
0.0000000000000000
  0
LINE
  5
2D5
100
AcDbEntity
  8
A2
  6
PHANTOM
 62
1
100
AcDbLine
 10
218.5000950000001
 20
259.0074861174252
 30
0.0000000000000000
 11
218.5000950000001
 21
237.5000000000000
 31
0.0000000000000000
  0
LINE
  5
2D6
100
AcDbEntity
  8
A2
  6
PHANTOM
 62
1
100
AcDbLine
 10
215.3000950000001
 20
237.5000000000000
 30
0.0000000000000000
 11
218.5000950000002
 21
237.5000000000000
 31
0.0000000000000000
  0
LINE
  5
2D7
100
AcDbEntity
  8
A2
  6
CENTER
 62
4
100
AcDbLine
 10
209.3000950000001
 20
250.0000000000000
 30
0.0000000000000000
 11
224.5000950000001
 21
250.0000000000000
 31
0.0000000000000000
  0
LINE
  5
2D8
100
AcDbEntity
  8
A2
  6
PHANTOM
 62
1
100
AcDbLine
 10
214.7000950000000
 20
281.7500000000000
 30
0.0000000000000000
 11
214.7000950000000
 21
273.2500000000000
 31
0.0000000000000000
  0
LINE
  5
2D9
100
AcDbEntity
  8
A2
  6
PHANTOM
 62
1
100
AcDbLine
 10
214.7000950000000
 20
281.7500000000000
 30
0.0000000000000000
 11
213.7000950000000
 21
281.7500000000000
 31
0.0000000000000000
  0
LINE
  5
2DA
100
AcDbEntity
  8
A2
  6
PHANTOM
 62
1
100
AcDbLine
 10
214.7000950000000
 20
273.2500000000000
 30
0.0000000000000000
 11
213.7000950000000
 21
273.2500000000000
 31
0.0000000000000000
  0
LINE
  5
2DB
100
AcDbEntity
  8
A2
  6
PHANTOM
 62
1
100
AcDbLine
 10
210.5000949999999
 20
273.9999999999998
 30
0.0000000000000000
 11
210.0000949999999
 21
273.4999999999998
 31
0.0000000000000000
  0
LINE
  5
2DC
100
AcDbEntity
  8
A2
  6
PHANTOM
 62
1
100
AcDbLine
 10
210.5000949999999
 20
280.9999999999998
 30
0.0000000000000000
 11
210.0000949999999
 21
281.4999999999998
 31
0.0000000000000000
  0
LINE
  5
2DD
100
AcDbEntity
  8
A5
  6
PHANTOM
 62
1
100
AcDbLine
 10
210.0000950000000
 20
271.4999999999999
 30
0.0000000000000000
 11
210.0000950000000
 21
283.5000000000000
 31
0.0000000000000000
  0
LINE
  5
2DE
100
AcDbEntity
  8
A5
  6
PHANTOM
 62
1
100
AcDbLine
 10
207.2500950000000
 20
284.9999999999999
 30
0.0000000000000000
 11
210.0000950000000
 21
283.5000000000000
 31
0.0000000000000000
  0
LINE
  5
2DF
100
AcDbEntity
  8
A5
  6
PHANTOM
 62
1
100
AcDbLine
 10
207.2500950000000
 20
285.0000000000000
 30
0.0000000000000000
 11
207.2500950000000
 21
284.0000000000000
 31
0.0000000000000000
  0
LINE
  5
2E0
100
AcDbEntity
  8
A5
  6
PHANTOM
 62
1
100
AcDbLine
 10
207.0000950000000
 20
284.0000000000000
 30
0.0000000000000000
 11
207.2500950000000
 21
284.0000000000000
 31
0.0000000000000000
  0
LINE
  5
2E1
100
AcDbEntity
  8
A5
  6
PHANTOM
 62
1
100
AcDbLine
 10
207.2500949999999
 20
269.9999999999999
 30
0.0000000000000000
 11
210.0000949999999
 21
271.4999999999999
 31
0.0000000000000000
  0
LINE
  5
2E2
100
AcDbEntity
  8
A5
  6
PHANTOM
 62
1
100
AcDbLine
 10
207.2500950000000
 20
270.9999999999999
 30
0.0000000000000000
 11
207.2500950000000
 21
270.0000000000000
 31
0.0000000000000000
  0
LINE
  5
2E3
100
AcDbEntity
  8
A5
  6
PHANTOM
 62
1
100
AcDbLine
 10
207.0000950000000
 20
270.9999999999999
 30
0.0000000000000000
 11
207.2500950000000
 21
270.9999999999999
 31
0.0000000000000000
  0
LINE
  5
2E4
100
AcDbEntity
  8
A2
  6
PHANTOM
 62
1
100
AcDbLine
 10
203.8000950000001
 20
285.0000000000000
 30
0.0000000000000000
 11
203.0000950000002
 21
285.0000000000000
 31
0.0000000000000000
  0
LINE
  5
2E5
100
AcDbEntity
  8
A2
  6
PHANTOM
 62
1
100
AcDbLine
 10
203.0000949999999
 20
270.0000000000000
 30
0.0000000000000000
 11
203.0000949999999
 21
285.0000000000000
 31
0.0000000000000000
  0
LINE
  5
2E6
100
AcDbEntity
  8
A5
  6
PHANTOM
 62
1
100
AcDbLine
 10
202.7500949999999
 20
284.0000000000000
 30
0.0000000000000000
 11
203.0000949999999
 21
284.0000000000000
 31
0.0000000000000000
  0
LINE
  5
2E7
100
AcDbEntity
  8
A5
  6
PHANTOM
 62
1
100
AcDbLine
 10
202.7500949999999
 20
284.3999999999999
 30
0.0000000000000000
 11
202.7500949999999
 21
283.9999999999999
 31
0.0000000000000000
  0
LINE
  5
2E8
100
AcDbEntity
  8
A5
  6
PHANTOM
 62
1
100
AcDbLine
 10
202.7500950000000
 20
284.3999999999997
 30
0.0000000000000000
 11
200.0000950000000
 21
283.4999999999998
 31
0.0000000000000000
  0
LINE
  5
2E9
100
AcDbEntity
  8
A2
  6
PHANTOM
 62
1
100
AcDbLine
 10
202.7500949999999
 20
278.0000000000000
 30
0.0000000000000000
 11
200.0000949999999
 21
278.0000000000000
 31
0.0000000000000000
  0
LINE
  5
2EA
100
AcDbEntity
  8
A2
  6
PHANTOM
 62
1
100
AcDbLine
 10
202.7500949999999
 20
278.0000000000000
 30
0.0000000000000000
 11
202.7500949999999
 21
277.0000000000000
 31
0.0000000000000000
  0
LINE
  5
2EB
100
AcDbEntity
  8
A2
  6
PHANTOM
 62
1
100
AcDbLine
 10
202.7500949999999
 20
277.0000000000000
 30
0.0000000000000000
 11
200.0000949999999
 21
277.0000000000000
 31
0.0000000000000000
  0
LINE
  5
2EC
100
AcDbEntity
  8
A2
  6
PHANTOM
 62
1
100
AcDbLine
 10
203.8000950000001
 20
270.0000000000000
 30
0.0000000000000000
 11
203.0000950000002
 21
270.0000000000000
 31
0.0000000000000000
  0
LINE
  5
2ED
100
AcDbEntity
  8
A5
  6
PHANTOM
 62
1
100
AcDbLine
 10
202.7500949999999
 20
270.9999999999999
 30
0.0000000000000000
 11
203.0000949999999
 21
270.9999999999999
 31
0.0000000000000000
  0
LINE
  5
2EE
100
AcDbEntity
  8
A5
  6
PHANTOM
 62
1
100
AcDbLine
 10
202.7500949999999
 20
270.9999999999999
 30
0.0000000000000000
 11
202.7500949999999
 21
270.6000000000000
 31
0.0000000000000000
  0
LINE
  5
2EF
100
AcDbEntity
  8
A5
  6
PHANTOM
 62
1
100
AcDbLine
 10
202.7500949999999
 20
270.5999999999999
 30
0.0000000000000000
 11
200.0000949999998
 21
271.4999999999998
 31
0.0000000000000000
  0
ARC
  5
2F0
100
AcDbEntity
  8
A2
  6
PHANTOM
 62
1
100
AcDbCircle
 10
199.5000950000000
 20
284.9999999999999
 30
0.0000000000000000
 40
0.5000000000000000
100
AcDbArc
 50
0.0000000000000000
 51
90.00000000000000
  0
LINE
  5
2F1
100
AcDbEntity
  8
A2
  6
PHANTOM
 62
1
100
AcDbLine
 10
199.5000949999999
 20
285.5000000000000
 30
0.0000000000000000
 11
198.0000949999999
 21
285.5000000000000
 31
0.0000000000000000
  0
ARC
  5
2F2
100
AcDbEntity
  8
A5
  6
PHANTOM
 62
1
100
AcDbCircle
 10
198.0000950000000
 20
284.4999999999999
 30
0.0000000000000000
 40
1.000000000000000
100
AcDbArc
 50
90.00000000000000
 51
180.0000000000000
  0
LINE
  5
2F3
100
AcDbEntity
  8
A5
  6
PHANTOM
 62
1
100
AcDbLine
 10
197.0000949999999
 20
270.4999999999999
 30
0.0000000000000000
 11
197.0000949999999
 21
284.5000000000000
 31
0.0000000000000000
  0
ARC
  5
2F4
100
AcDbEntity
  8
A5
  6
PHANTOM
 62
1
100
AcDbCircle
 10
198.0000950000000
 20
270.4999999999999
 30
0.0000000000000000
 40
1.000000000000000
100
AcDbArc
 50
180.0000000000000
 51
270.0000000000000
  0
LINE
  5
2F5
100
AcDbEntity
  8
A2
  6
PHANTOM
 62
1
100
AcDbLine
 10
199.5000949999999
 20
269.5000000000000
 30
0.0000000000000000
 11
198.0000949999999
 21
269.5000000000000
 31
0.0000000000000000
  0
ARC
  5
2F6
100
AcDbEntity
  8
A2
  6
PHANTOM
 62
1
100
AcDbCircle
 10
199.5000950000000
 20
269.9999999999999
 30
0.0000000000000000
 40
0.5000000000000000
100
AcDbArc
 50
270.0000000000000
 51
360.0000000000000
  0
LINE
  5
2F7
100
AcDbEntity
  8
A10
  6
PHANTOM
 62
1
100
AcDbLine
 10
200.0000950000000
 20
284.9999999999999
 30
0.0000000000000000
 11
200.0000950000000
 21
269.9999999999999
 31
0.0000000000000000
  0
CIRCLE
  5
2F8
100
AcDbEntity
  8
A10
  6
CONTINUOUS
 62
7
100
AcDbCircle
 10
360.0001829999999
 20
77.50000000000003
 30
0.0000000000000000
 40
4.250000000000014
  0
CIRCLE
  5
2F9
100
AcDbEntity
  8
A10
  6
PHANTOM
 62
1
100
AcDbCircle
 10
360.0001830000000
 20
277.5000000000000
 30
0.0000000000000000
 40
4.250000000000014
  0
LINE
  5
2FA
100
AcDbEntity
  8
A2
  6
PHANTOM
 62
1
100
AcDbLine
 10
494.7003049999998
 20
317.4999999999999
 30
0.0000000000000000
 11
491.5003049999998
 21
317.4999999999999
 31
0.0000000000000000
  0
LINE
  5
2FB
100
AcDbEntity
  8
A2
  6
PHANTOM
 62
1
100
AcDbLine
 10
491.5003049999999
 20
295.9925138825748
 30
0.0000000000000000
 11
491.5003049999999
 21
317.4999999999999
 31
0.0000000000000000
  0
LINE
  5
2FC
100
AcDbEntity
  8
A2
  6
PHANTOM
 62
1
100
AcDbLine
 10
494.7003049999998
 20
295.9925138825748
 30
0.0000000000000000
 11
494.7003049999998
 21
317.4999999999999
 31
0.0000000000000000
  0
LINE
  5
2FD
100
AcDbEntity
  8
A2
  6
CENTER
 62
4
100
AcDbLine
 10
500.7003049999998
 20
305.0000000000000
 30
0.0000000000000000
 11
485.5003049999999
 21
305.0000000000000
 31
0.0000000000000000
  0
ARC
  5
2FE
100
AcDbEntity
  8
A2
  6
PHANTOM
 62
1
100
AcDbCircle
 10
496.7003049999998
 20
295.9925138825748
 30
0.0000000000000000
 40
2.000000000000000
100
AcDbArc
 50
180.0000000000000
 51
220.8170552764675
  0
ARC
  5
2FF
100
AcDbEntity
  8
A2
  6
PHANTOM
 62
1
100
AcDbCircle
 10
496.7003049999998
 20
295.9925138825748
 30
0.0000000000000000
 40
5.200000000000000
100
AcDbArc
 50
180.0000000000000
 51
220.8170552764675
  0
LINE
  5
300
100
AcDbEntity
  8
A2
  6
PHANTOM
 62
1
100
AcDbLine
 10
495.8139060358585
 20
289.0634216425389
 30
0.0000000000000000
 11
492.7649423067687
 21
292.5935551489739
 31
0.0000000000000000
  0
LINE
  5
301
100
AcDbEntity
  8
A2
  6
PHANTOM
 62
1
100
AcDbLine
 10
495.1867039641417
 20
294.6852220619589
 30
0.0000000000000000
 11
498.2356676932314
 21
291.1550885555239
 31
0.0000000000000000
  0
ARC
  5
302
100
AcDbEntity
  8
A2
  6
PHANTOM
 62
1
100
AcDbCircle
 10
494.3003050000000
 20
287.7561298219230
 30
0.0000000000000000
 40
5.200000000000000
100
AcDbArc
 50
0.0000000000000000
 51
40.81705527646749
  0
ARC
  5
303
100
AcDbEntity
  8
A2
  6
PHANTOM
 62
1
100
AcDbCircle
 10
494.3003050000000
 20
287.7561298219230
 30
0.0000000000000000
 40
2.000000000000000
100
AcDbArc
 50
0.0000000000000000
 51
40.81705527646749
  0
LINE
  5
304
100
AcDbEntity
  8
A2
  6
PHANTOM
 62
1
100
AcDbLine
 10
496.3003049999999
 20
267.2438701780770
 30
0.0000000000000000
 11
496.3003049999999
 21
287.7561298219229
 31
0.0000000000000000
  0
LINE
  5
305
100
AcDbEntity
  8
A2
  6
PHANTOM
 62
1
100
AcDbLine
 10
499.5003049999999
 20
267.2438701780770
 30
0.0000000000000000
 11
499.5003049999999
 21
287.7561298219229
 31
0.0000000000000000
  0
ARC
  5
306
100
AcDbEntity
  8
A2
  6
PHANTOM
 62
1
100
AcDbCircle
 10
494.3003050000000
 20
267.2438701780770
 30
0.0000000000000000
 40
2.000000000000000
100
AcDbArc
 50
319.1829447235325
 51
360.0000000000000
  0
ARC
  5
307
100
AcDbEntity
  8
A2
  6
PHANTOM
 62
1
100
AcDbCircle
 10
494.3003050000000
 20
267.2438701780770
 30
0.0000000000000000
 40
5.200000000000000
100
AcDbArc
 50
319.1829447235325
 51
360.0000000000000
  0
LINE
  5
308
100
AcDbEntity
  8
A2
  6
PHANTOM
 62
1
100
AcDbLine
 10
495.8139060358581
 20
265.9365783574611
 30
0.0000000000000000
 11
492.7649423067685
 21
262.4064448510262
 31
0.0000000000000000
  0
LINE
  5
309
100
AcDbEntity
  8
A2
  6
PHANTOM
 62
1
100
AcDbLine
 10
498.2356676932312
 20
263.8449114444759
 30
0.0000000000000000
 11
495.1867039641418
 21
260.3147779380409
 31
0.0000000000000000
  0
ARC
  5
30A
100
AcDbEntity
  8
A2
  6
PHANTOM
 62
1
100
AcDbCircle
 10
496.7003049999998
 20
259.0074861174252
 30
0.0000000000000000
 40
5.200000000000000
100
AcDbArc
 50
139.1829447235325
 51
180.0000000000000
  0
ARC
  5
30B
100
AcDbEntity
  8
A2
  6
PHANTOM
 62
1
100
AcDbCircle
 10
496.7003049999998
 20
259.0074861174252
 30
0.0000000000000000
 40
2.000000000000000
100
AcDbArc
 50
139.1829447235325
 51
180.0000000000000
  0
LINE
  5
30C
100
AcDbEntity
  8
A2
  6
PHANTOM
 62
1
100
AcDbLine
 10
491.5003049999999
 20
259.0074861174251
 30
0.0000000000000000
 11
491.5003049999999
 21
237.5000000000000
 31
0.0000000000000000
  0
LINE
  5
30D
100
AcDbEntity
  8
A2
  6
PHANTOM
 62
1
100
AcDbLine
 10
494.7003049999998
 20
259.0074861174251
 30
0.0000000000000000
 11
494.7003049999998
 21
237.5000000000000
 31
0.0000000000000000
  0
LINE
  5
30E
100
AcDbEntity
  8
A2
  6
CENTER
 62
4
100
AcDbLine
 10
500.7003049999997
 20
250.0000000000000
 30
0.0000000000000000
 11
485.5003049999998
 21
250.0000000000000
 31
0.0000000000000000
  0
LINE
  5
30F
100
AcDbEntity
  8
A2
  6
PHANTOM
 62
1
100
AcDbLine
 10
494.7003049999998
 20
237.5000000000000
 30
0.0000000000000000
 11
491.5003049999998
 21
237.5000000000000
 31
0.0000000000000000
  0
LINE
  5
310
100
AcDbEntity
  8
A2
  6
PHANTOM
 62
1
100
AcDbLine
 10
495.3003050000000
 20
281.7499999999999
 30
0.0000000000000000
 11
496.3003050000000
 21
281.7499999999999
 31
0.0000000000000000
  0
LINE
  5
311
100
AcDbEntity
  8
A2
  6
PHANTOM
 62
1
100
AcDbLine
 10
495.3003050000000
 20
281.7499999999999
 30
0.0000000000000000
 11
495.3003050000000
 21
273.2499999999999
 31
0.0000000000000000
  0
LINE
  5
312
100
AcDbEntity
  8
A2
  6
PHANTOM
 62
1
100
AcDbLine
 10
495.3003050000000
 20
273.2499999999999
 30
0.0000000000000000
 11
496.3003050000000
 21
273.2499999999999
 31
0.0000000000000000
  0
LINE
  5
313
100
AcDbEntity
  8
A2
  6
PHANTOM
 62
1
100
AcDbLine
 10
499.5003050000000
 20
281.0000000000000
 30
0.0000000000000000
 11
500.0003049999999
 21
281.4999999999999
 31
0.0000000000000000
  0
LINE
  5
314
100
AcDbEntity
  8
A5
  6
PHANTOM
 62
1
100
AcDbLine
 10
500.0003049999999
 20
271.4999999999999
 30
0.0000000000000000
 11
500.0003049999999
 21
283.4999999999999
 31
0.0000000000000000
  0
LINE
  5
315
100
AcDbEntity
  8
A5
  6
PHANTOM
 62
1
100
AcDbLine
 10
502.7503049999999
 20
284.9999999999999
 30
0.0000000000000000
 11
500.0003049999999
 21
283.4999999999999
 31
0.0000000000000000
  0
LINE
  5
316
100
AcDbEntity
  8
A5
  6
PHANTOM
 62
1
100
AcDbLine
 10
502.7503049999999
 20
284.9999999999999
 30
0.0000000000000000
 11
502.7503049999999
 21
283.9999999999999
 31
0.0000000000000000
  0
LINE
  5
317
100
AcDbEntity
  8
A5
  6
PHANTOM
 62
1
100
AcDbLine
 10
503.0003049999999
 20
283.9999999999999
 30
0.0000000000000000
 11
502.7503049999999
 21
283.9999999999999
 31
0.0000000000000000
  0
LINE
  5
318
100
AcDbEntity
  8
A2
  6
PHANTOM
 62
1
100
AcDbLine
 10
499.5003050000000
 20
273.9999999999999
 30
0.0000000000000000
 11
500.0003050000000
 21
273.4999999999999
 31
0.0000000000000000
  0
LINE
  5
319
100
AcDbEntity
  8
A5
  6
PHANTOM
 62
1
100
AcDbLine
 10
502.7503050000001
 20
270.0000000000001
 30
0.0000000000000000
 11
500.0003050000000
 21
271.5000000000001
 31
0.0000000000000000
  0
LINE
  5
31A
100
AcDbEntity
  8
A5
  6
PHANTOM
 62
1
100
AcDbLine
 10
502.7503049999999
 20
270.9999999999999
 30
0.0000000000000000
 11
502.7503049999999
 21
269.9999999999999
 31
0.0000000000000000
  0
LINE
  5
31B
100
AcDbEntity
  8
A5
  6
PHANTOM
 62
1
100
AcDbLine
 10
503.0003049999999
 20
270.9999999999999
 30
0.0000000000000000
 11
502.7503049999999
 21
270.9999999999999
 31
0.0000000000000000
  0
LINE
  5
31C
100
AcDbEntity
  8
A2
  6
PHANTOM
 62
1
100
AcDbLine
 10
506.2003049999998
 20
284.9999999999999
 30
0.0000000000000000
 11
507.0003049999998
 21
284.9999999999999
 31
0.0000000000000000
  0
LINE
  5
31D
100
AcDbEntity
  8
A5
  6
PHANTOM
 62
1
100
AcDbLine
 10
507.2503049999999
 20
284.3999999999998
 30
0.0000000000000000
 11
507.2503049999999
 21
283.9999999999998
 31
0.0000000000000000
  0
LINE
  5
31E
100
AcDbEntity
  8
A2
  6
PHANTOM
 62
1
100
AcDbLine
 10
507.0003049999999
 20
269.9999999999999
 30
0.0000000000000000
 11
507.0003049999999
 21
284.9999999999999
 31
0.0000000000000000
  0
LINE
  5
31F
100
AcDbEntity
  8
A2
  6
PHANTOM
 62
1
100
AcDbLine
 10
506.2003049999998
 20
269.9999999999999
 30
0.0000000000000000
 11
507.0003049999998
 21
269.9999999999999
 31
0.0000000000000000
  0
LINE
  5
320
100
AcDbEntity
  8
A5
  6
PHANTOM
 62
1
100
AcDbLine
 10
507.2503049999999
 20
270.9999999999999
 30
0.0000000000000000
 11
507.2503049999999
 21
270.5999999999999
 31
0.0000000000000000
  0
LINE
  5
321
100
AcDbEntity
  8
A5
  6
PHANTOM
 62
1
100
AcDbLine
 10
507.2503049999999
 20
270.9999999999999
 30
0.0000000000000000
 11
507.0003049999999
 21
270.9999999999999
 31
0.0000000000000000
  0
LINE
  5
322
100
AcDbEntity
  8
A5
  6
PHANTOM
 62
1
100
AcDbLine
 10
507.2503050000001
 20
270.5999999999999
 30
0.0000000000000000
 11
510.0003050000002
 21
271.4999999999999
 31
0.0000000000000000
  0
LINE
  5
323
100
AcDbEntity
  8
A5
  6
PHANTOM
 62
1
100
AcDbLine
 10
507.2503049999999
 20
283.9999999999999
 30
0.0000000000000000
 11
507.0003049999999
 21
283.9999999999999
 31
0.0000000000000000
  0
LINE
  5
324
100
AcDbEntity
  8
A5
  6
PHANTOM
 62
1
100
AcDbLine
 10
507.2503049999999
 20
284.3999999999997
 30
0.0000000000000000
 11
510.0003049999999
 21
283.4999999999998
 31
0.0000000000000000
  0
LINE
  5
325
100
AcDbEntity
  8
A5
  6
PHANTOM
 62
1
100
AcDbLine
 10
510.0003049999999
 20
284.9999999999999
 30
0.0000000000000000
 11
510.0003049999999
 21
269.9999999999999
 31
0.0000000000000000
  0
ARC
  5
326
100
AcDbEntity
  8
A2
  6
PHANTOM
 62
1
100
AcDbCircle
 10
510.5003049999999
 20
285.0000000000000
 30
0.0000000000000000
 40
0.5000000000000000
100
AcDbArc
 50
90.00000000000001
 51
180.0000000000000
  0
LINE
  5
327
100
AcDbEntity
  8
A2
  6
PHANTOM
 62
1
100
AcDbLine
 10
510.5003049999999
 20
285.4999999999999
 30
0.0000000000000000
 11
512.0003049999999
 21
285.4999999999999
 31
0.0000000000000000
  0
ARC
  5
328
100
AcDbEntity
  8
A5
  6
PHANTOM
 62
1
100
AcDbCircle
 10
512.0003049999999
 20
284.5000000000000
 30
0.0000000000000000
 40
1.000000000000000
100
AcDbArc
 50
0.0000000000000000
 51
90.00000000000000
  0
LINE
  5
329
100
AcDbEntity
  8
A5
  6
PHANTOM
 62
1
100
AcDbLine
 10
513.0003049999999
 20
270.4999999999999
 30
0.0000000000000000
 11
513.0003049999999
 21
284.4999999999999
 31
0.0000000000000000
  0
ARC
  5
32A
100
AcDbEntity
  8
A5
  6
PHANTOM
 62
1
100
AcDbCircle
 10
512.0003049999999
 20
270.4999999999999
 30
0.0000000000000000
 40
1.000000000000000
100
AcDbArc
 50
270.0000000000000
 51
360.0000000000000
  0
LINE
  5
32B
100
AcDbEntity
  8
A2
  6
PHANTOM
 62
1
100
AcDbLine
 10
510.5003049999999
 20
269.4999999999999
 30
0.0000000000000000
 11
512.0003049999999
 21
269.4999999999999
 31
0.0000000000000000
  0
ARC
  5
32C
100
AcDbEntity
  8
A2
  6
PHANTOM
 62
1
100
AcDbCircle
 10
510.5003049999999
 20
270.0000000000000
 30
0.0000000000000000
 40
0.5000000000000000
100
AcDbArc
 50
180.0000000000000
 51
270.0000000000000
  0
LINE
  5
32D
100
AcDbEntity
  8
A2
  6
PHANTOM
 62
1
100
AcDbLine
 10
507.2503049999999
 20
276.9999999999999
 30
0.0000000000000000
 11
510.0003049999999
 21
276.9999999999999
 31
0.0000000000000000
  0
LINE
  5
32E
100
AcDbEntity
  8
A2
  6
PHANTOM
 62
1
100
AcDbLine
 10
507.2503049999999
 20
277.9999999999999
 30
0.0000000000000000
 11
510.0003049999999
 21
277.9999999999999
 31
0.0000000000000000
  0
LINE
  5
32F
100
AcDbEntity
  8
A2
  6
PHANTOM
 62
1
100
AcDbLine
 10
507.2503049999999
 20
277.9999999999999
 30
0.0000000000000000
 11
507.2503049999999
 21
276.9999999999999
 31
0.0000000000000000
  0
ARC
  5
330
100
AcDbEntity
  8
A10
  6
CONTINUOUS
 62
7
100
AcDbCircle
 10
213.7000950000000
 20
1.809108999999957
 30
0.0000000000000000
 40
3.200000000000000
100
AcDbArc
 50
90.00000000000000
 51
147.9100487437186
  0
LINE
  5
331
100
AcDbEntity
  8
A10
  6
CONTINUOUS
 62
7
100
AcDbLine
 10
218.5000950000001
 20
1.809108999999957
 30
0.0000000000000000
 11
234.5000949999999
 21
1.809108999999957
 31
0.0000000000000000
  0
LINE
  5
332
100
AcDbEntity
  8
A10
  6
CONTINUOUS
 62
7
100
AcDbLine
 10
214.5000949998660
 20
5.009109000000006
 30
0.0000000000000000
 11
214.5000949998610
 21
3.509109000000016
 31
0.0000000000000000
  0
LINE
  5
333
100
AcDbEntity
  8
A10
  6
CONTINUOUS
 62
7
100
AcDbLine
 10
213.7000950000000
 20
5.009108999999945
 30
0.0000000000000000
 11
234.5000949999999
 21
5.009108999999945
 31
0.0000000000000000
  0
LINE
  5
334
100
AcDbEntity
  8
A10
  6
CONTINUOUS
 62
7
100
AcDbLine
 10
234.5000949999999
 20
5.009108999999945
 30
0.0000000000000000
 11
234.5000949999999
 21
1.809108999999957
 31
0.0000000000000000
  0
LINE
  5
335
100
AcDbEntity
  8
A10
  6
CENTER
 62
4
100
AcDbLine
 10
224.5000949999999
 20
11.00910899999995
 30
0.0000000000000000
 11
224.5000949999999
 21
-4.190891000000100
 31
0.0000000000000000
  0
LINE
  5
336
100
AcDbEntity
  8
A10
  6
CONTINUOUS
 62
7
100
AcDbLine
 10
210.5000950000000
 20
849.6858519999998
 30
0.0000000000000000
 11
218.5000950000001
 21
849.6858519999998
 31
0.0000000000000000
  0
LINE
  5
337
100
AcDbEntity
  8
A10
  6
CONTINUOUS
 62
7
100
AcDbLine
 10
218.5000950000001
 20
849.6858519999998
 30
0.0000000000000000
 11
218.5000950000001
 21
826.3858519999999
 31
0.0000000000000000
  0
LINE
  5
338
100
AcDbEntity
  8
A10
  6
CONTINUOUS
 62
7
100
AcDbLine
 10
215.3000950000001
 20
849.6858519999998
 30
0.0000000000000000
 11
215.3000950000001
 21
826.3858519999999
 31
0.0000000000000000
  0
LINE
  5
339
100
AcDbEntity
  8
A10
  6
CONTINUOUS
 62
7
100
AcDbLine
 10
210.9890066576549
 20
824.6858519999998
 30
0.0000000000000000
 11
210.5000950000000
 21
824.6858519999998
 31
0.0000000000000000
  0
ENDSEC
  0
SECTION
  2
OBJECTS
  0
DICTIONARY
  5
368
100
AcDbDictionary
  3
ACAD_GROUP
350
369
  3
ACAD_LAYOUT
350
36A
  3
ACAD_MLINESTYLE
350
36B
  0
DICTIONARY
  5
369
102
{ACAD_REACTORS
330
368
102
}
330
368
100
AcDbDictionary
  0
DICTIONARY
  5
36A
102
{ACAD_REACTORS
330
368
102
}
330
368
100
AcDbDictionary
  3
Model
350
36C
  3
ﾚｲｱｳﾄ1
350
36D
  3
ﾚｲｱｳﾄ2
350
36E
  0
DICTIONARY
  5
36B
102
{ACAD_REACTORS
330
368
102
}
330
368
100
AcDbDictionary
  3
STANDARD
350
36F
  0
LAYOUT
  5
36C
102
{ACAD_REACTORS
330
36A
102
}
330
36A
100
AcDbPlotSettings
 70
11952
  4
A3
 44
297.000000
 45
420.000000
 73
  1
 72
  1
100
AcDbLayout
  1
Model
 71
0
330
35F
  0
LAYOUT
  5
36D
102
{ACAD_REACTORS
330
36A
102
}
330
36A
100
AcDbPlotSettings
100
AcDbLayout
  1
ﾚｲｱｳﾄ1
 71
1
330
360
  0
LAYOUT
  5
36E
102
{ACAD_REACTORS
330
36A
102
}
330
36A
100
AcDbPlotSettings
100
AcDbLayout
  1
ﾚｲｱｳﾄ2
 71
2
330
361
  0
MLINESTYLE
  5
36F
102
{ACAD_REACTORS
330
36B
102
}
330
36B
100
AcDbMlineStyle
  2
STANDARD
 70
     0
  3

 62
   256
 51
90.00
 52
90.00
 71
     2
 49
0.50
 62
   256
  6
BYLAYER
 49
-0.50
 62
   256
  6
BYLAYER
  0
ENDSEC
  0
EOF
