  0
SECTION
  2
HEADER
  9
$ACADVER
  1
AC1015
  9
$DWGCODEPAGE
  3
ANSI_932
  9
$LTSCALE
 40
20.0
  9
$FILLMODE
 70
     1
  9
$CLAYER
  8
0
  9
$PDMODE
 70
     0
  9
$SPLFRAME
 70
     0
  9
$SPLINETYPE
 70
     6
  9
$SPLINESEGS
 70
     8
  9
$DIMASZ
 40
2.000000
  9
$DIMEXE
 40
1.500000
  9
$DIMEXO
 40
0.800000
  9
$DIMTAD
 70
     1
  9
$DIMTIH
 70
     0
  9
$DIMTOH
 70
     0
  9
$DIMTVP
 40
0.500000
  9
$DIMTXT
 40
3.100000
  9
$EXTMIN
 10
0.000000
 20
0.000000
 30
0.000000
  9
$EXTMAX
 10
297.000000
 20
420.000000
 30
0.000000
  9
$MEASUREMENT
 70
  1
  9
$LIMMIN
 10
0.000000
 20
0.000000
  9
$LIMMAX
 10
297.000000
 20
420.000000
  9
$HANDSEED
  5
2C3
  9
$LWDISPLAY
290
     0
  9
$DIMBLK
  1
_OPEN
  9
$DIMDEC
 70
     2
  9
$DIMADEC
 70
     2
  9
$DIMAUNIT
 70
     0
  9
$DIMZIN
 70
     8
  9
$DIMAZIN
 70
     2
  9
$DIMTOFL
 70
     1
  0
ENDSEC
  0
SECTION
  2
CLASSES
  0
ENDSEC
  0
SECTION
  2
TABLES
  0
TABLE
  2
VPORT
  5
28C
100
AcDbSymbolTable
 70
     1
  0
VPORT
  5
28D
100
AcDbSymbolTableRecord
100
AcDbViewportTableRecord
  2
*ACTIVE
 70
     0
 12
185.624999
 22
286.000000
 40
706.500000
 41
0.497169
  0
ENDTAB
  0
TABLE
  2
LTYPE
  5
28E
100
AcDbSymbolTable
 70
     3
  0
LTYPE
  5
28F
100
AcDbSymbolTableRecord
100
AcDbLinetypeTableRecord
  2
BYBLOCK
 70
     0
  3

 72
    65
 73
     0
 40
0.0
  0
LTYPE
  5
290
100
AcDbSymbolTableRecord
100
AcDbLinetypeTableRecord
  2
BYLAYER
 70
     0
  3

 72
    65
 73
     0
 40
0.0
  0
LTYPE
  5
291
100
AcDbSymbolTableRecord
100
AcDbLinetypeTableRecord
  2
CONTINUOUS
 70
     0
  3
Solid line (NEC CAE2D for Win R15.2 : 2020.05.26)
 72
    65
 73
     0
 40
0.0
  0
LTYPE
  5
292
100
AcDbSymbolTableRecord
100
AcDbLinetypeTableRecord
  2
CENTER
 70
     0
  3
____ _ ____ _ ____ _ ____ _ ____ _ ____
 72
    65
 73
     4
 40
2.0
 49
1.25
 74
     0
 49
-0.25
 74
     0
 49
0.25
 74
     0
 49
-0.25
 74
     0
  0
LTYPE
  5
293
100
AcDbSymbolTableRecord
100
AcDbLinetypeTableRecord
  2
PHANTOM
 70
     0
  3
______  __  __  ______  __  __  ______ 
 72
    65
 73
     6
 40
2.5
 49
1.25
 74
     0
 49
-0.25
 74
     0
 49
0.25
 74
     0
 49
-0.25
 74
     0
 49
0.25
 74
     0
 49
-0.25
 74
     0
  0
ENDTAB
  0
TABLE
  2
LAYER
  5
294
100
AcDbSymbolTable
 70
    16
  0
LAYER
  5
295
100
AcDbSymbolTableRecord
100
AcDbLayerTableRecord
  2
0
 70
     0
 62
     7
  6
CONTINUOUS
370
    -3
390

  0
LAYER
  5
296
100
AcDbSymbolTableRecord
100
AcDbLayerTableRecord
  2
A0
 70
     0
 62
     9
  6
CONTINUOUS
370
    -3
390

  0
LAYER
  5
297
100
AcDbSymbolTableRecord
100
AcDbLayerTableRecord
  2
A2
 70
     0
 62
     9
  6
CONTINUOUS
370
    -3
390

  0
LAYER
  5
298
100
AcDbSymbolTableRecord
100
AcDbLayerTableRecord
  2
A3
 70
     0
 62
    12
  6
CONTINUOUS
370
    -3
390

  0
LAYER
  5
299
100
AcDbSymbolTableRecord
100
AcDbLayerTableRecord
  2
A4
 70
     0
 62
     9
  6
CONTINUOUS
370
    -3
390

  0
LAYER
  5
29A
100
AcDbSymbolTableRecord
100
AcDbLayerTableRecord
  2
A5
 70
     0
 62
     8
  6
CONTINUOUS
370
    -3
390

  0
LAYER
  5
29B
100
AcDbSymbolTableRecord
100
AcDbLayerTableRecord
  2
A6
 70
     0
 62
    12
  6
CONTINUOUS
370
    -3
390

  0
LAYER
  5
29C
100
AcDbSymbolTableRecord
100
AcDbLayerTableRecord
  2
A7
 70
     0
 62
    12
  6
CONTINUOUS
370
    -3
390

  0
LAYER
  5
29D
100
AcDbSymbolTableRecord
100
AcDbLayerTableRecord
  2
A8
 70
     0
 62
    10
  6
CONTINUOUS
370
    -3
390

  0
LAYER
  5
29E
100
AcDbSymbolTableRecord
100
AcDbLayerTableRecord
  2
A9
 70
     0
 62
     9
  6
CONTINUOUS
370
    -3
390

  0
LAYER
  5
29F
100
AcDbSymbolTableRecord
100
AcDbLayerTableRecord
  2
A10
 70
     0
 62
     6
  6
CONTINUOUS
370
    -3
390

  0
LAYER
  5
2A0
100
AcDbSymbolTableRecord
100
AcDbLayerTableRecord
  2
A20
 70
     0
 62
     1
  6
CONTINUOUS
370
    -3
390

  0
LAYER
  5
2A1
100
AcDbSymbolTableRecord
100
AcDbLayerTableRecord
  2
A30
 70
     0
 62
     1
  6
CONTINUOUS
370
    -3
390

  0
LAYER
  5
2A2
100
AcDbSymbolTableRecord
100
AcDbLayerTableRecord
  2
A40
 70
     0
 62
     9
  6
CONTINUOUS
370
    -3
390

  0
LAYER
  5
2A3
100
AcDbSymbolTableRecord
100
AcDbLayerTableRecord
  2
A50
 70
     0
 62
    12
  6
CONTINUOUS
370
    -3
390

  0
LAYER
  5
2A4
100
AcDbSymbolTableRecord
100
AcDbLayerTableRecord
  2
A1023
 70
     0
 62
    16
  6
CONTINUOUS
370
    -3
390

  0
ENDTAB
  0
TABLE
  2
STYLE
  5
2A5
100
AcDbSymbolTable
 70
     4
  0
STYLE
  5
2A6
100
AcDbSymbolTableRecord
100
AcDbTextStyleTableRecord
  2
STANDARD
 70
    64
 40
0.0
 41
1.0
 50
0.0
 71
     0
 42
3.000000000000000
  3
TXT
  4

  0
STYLE
  5
2A7
100
AcDbSymbolTableRecord
100
AcDbTextStyleTableRecord
  2
ANKTATE
 70
    68
 40
0.0
 41
1.0
 50
0.0
 71
     0
 42
3.000000000000000
  3
TXT
  4

  0
STYLE
  5
2A8
100
AcDbSymbolTableRecord
100
AcDbTextStyleTableRecord
  2
KNJYOKO
 70
    64
 40
0.0
 41
1.0
 50
0.0
 71
     0
 42
3.000000000000000
  3
TXT
  4
BIGFONT
  0
STYLE
  5
2A9
100
AcDbSymbolTableRecord
100
AcDbTextStyleTableRecord
  2
KNJTATE
 70
    68
 40
0.0
 41
1.0
 50
0.0
 71
     0
 42
3.000000000000000
  3
TXT
  4
BIGFONT
  0
ENDTAB
  0
TABLE
  2
VIEW
  5
2AA
100
AcDbSymbolTable
 70
     0
  0
ENDTAB
  0
TABLE
  2
UCS
  5
2AB
100
AcDbSymbolTable
 70
     0
  0
ENDTAB
  0
TABLE
  2
APPID
  5
2AC
100
AcDbSymbolTable
 70
     1
  0
APPID
  5
2AD
100
AcDbSymbolTableRecord
100
AcDbRegAppTableRecord
  2
ACAD
 70
     0
  0
ENDTAB
  0
TABLE
  2
DIMSTYLE
  5
2AE
100
AcDbSymbolTable
 70
     2
100
AcDbDimStyleTable
  0
DIMSTYLE
105
2AF
100
AcDbSymbolTableRecord
100
AcDbDimStyleTableRecord
  2
STANDARD
 70
     0
 41
2.000000
 44
1.500000
 42
0.800000
145
0.661290
140
3.100000
144
1.000000
146
0.645161
340
2A6
  0
DIMSTYLE
105
2B0
100
AcDbSymbolTableRecord
100
AcDbDimStyleTableRecord
  2
A001
 70
     0
 41
2.000000
 44
1.500000
 42
0.800000
145
0.661290
140
3.100000
144
1.000000
146
0.645161
 77
     1
 73
     0
 74
     0
271
     2
179
     2
275
     0
 78
     8
 79
     2
172
     1
340
2A6
  0
ENDTAB
  0
TABLE
  2
BLOCK_RECORD
  5
2B1
100
AcDbSymbolTable
 70
    12
  0
BLOCK_RECORD
  5
2B2
100
AcDbSymbolTableRecord
100
AcDbBlockTableRecord
  2
*MODEL_SPACE
  0
BLOCK_RECORD
  5
2B3
100
AcDbSymbolTableRecord
100
AcDbBlockTableRecord
  2
*PAPER_SPACE
  0
BLOCK_RECORD
  5
2B4
100
AcDbSymbolTableRecord
100
AcDbBlockTableRecord
  2
*PAPER_SPACE0
  0
BLOCK_RECORD
  5
1
100
AcDbSymbolTableRecord
100
AcDbBlockTableRecord
  2
_NONE
  0
BLOCK_RECORD
  5
4
100
AcDbSymbolTableRecord
100
AcDbBlockTableRecord
  2
_CLOSED
  0
BLOCK_RECORD
  5
B
100
AcDbSymbolTableRecord
100
AcDbBlockTableRecord
  2
_DOT
  0
BLOCK_RECORD
  5
13
100
AcDbSymbolTableRecord
100
AcDbBlockTableRecord
  2
_OPEN
  0
BLOCK_RECORD
  5
19
100
AcDbSymbolTableRecord
100
AcDbBlockTableRecord
  2
_ORIGIN
  0
BLOCK_RECORD
  5
1E
100
AcDbSymbolTableRecord
100
AcDbBlockTableRecord
  2
_OPEN30
  0
BLOCK_RECORD
  5
24
100
AcDbSymbolTableRecord
100
AcDbBlockTableRecord
  2
_BOXFILLED
  0
BLOCK_RECORD
  5
29
100
AcDbSymbolTableRecord
100
AcDbBlockTableRecord
  2
_BOXBLANK
  0
BLOCK_RECORD
  5
31
100
AcDbSymbolTableRecord
100
AcDbBlockTableRecord
  2
_OBLIQUE
  0
BLOCK_RECORD
  5
35
100
AcDbSymbolTableRecord
100
AcDbBlockTableRecord
  2
_OPEN90
  0
BLOCK_RECORD
  5
3B
100
AcDbSymbolTableRecord
100
AcDbBlockTableRecord
  2
_CLOSEDBLANK
  0
BLOCK_RECORD
  5
41
100
AcDbSymbolTableRecord
100
AcDbBlockTableRecord
  2
_DOTBLANK
  0
ENDTAB
  0
ENDSEC
  0
SECTION
  2
BLOCKS
  0
BLOCK
  5
2B5
100
AcDbEntity
  8
0
100
AcDbBlockBegin
  2
*MODEL_SPACE
 70
     0
 10
0.0
 20
0.0
 30
0.0
  3
*MODEL_SPACE
  1

  0
ENDBLK
  5
2B6
100
AcDbEntity
  8
0
100
AcDbBlockEnd
  0
BLOCK
  5
2B7
100
AcDbEntity
  8
0
100
AcDbBlockBegin
  2
*PAPER_SPACE
 70
     0
 10
0.0
 20
0.0
 30
0.0
  3
*PAPER_SPACE
  1

  0
ENDBLK
  5
2B8
100
AcDbEntity
  8
0
100
AcDbBlockEnd
  0
BLOCK
  5
2B9
100
AcDbEntity
  8
0
100
AcDbBlockBegin
  2
*PAPER_SPACE0
 70
     0
 10
0.0
 20
0.0
 30
0.0
  3
*PAPER_SPACE0
  1

  0
ENDBLK
  5
2BA
100
AcDbEntity
  8
0
100
AcDbBlockEnd
  0
BLOCK
  5
2
330
1
100
AcDbEntity
  8
0
100
AcDbBlockBegin
  2
_NONE
 70
     0
 10
0.0
 20
0.0
 30
0.0
  3
_NONE
  1

  0
ENDBLK
  5
3
330
1
100
AcDbEntity
  8
0
100
AcDbBlockEnd
  0
BLOCK
  5
5
330
4
100
AcDbEntity
  8
0
100
AcDbBlockBegin
  2
_CLOSED
 70
     0
 10
0.0
 20
0.0
 30
0.0
  3
_CLOSED
  1

  0
LINE
  5
6
330
4
100
AcDbEntity
  8
0
  6
BYBLOCK
 62
     0
370
    -2
100
AcDbLine
 10
-1.0
 20
0.166667
 30
0.0
 11
0.0
 21
0.0
 31
0.0
  0
LINE
  5
7
330
4
100
AcDbEntity
  8
0
  6
BYBLOCK
 62
     0
370
    -2
100
AcDbLine
 10
0.0
 20
0.0
 30
0.0
 11
-1.0
 21
-0.166667
 31
0.0
  0
LINE
  5
8
330
4
100
AcDbEntity
  8
0
  6
BYBLOCK
 62
     0
370
    -2
100
AcDbLine
 10
-1.0
 20
0.166667
 30
0.0
 11
-1.0
 21
-0.166667
 31
0.0
  0
LINE
  5
9
330
4
100
AcDbEntity
  8
0
  6
BYBLOCK
 62
     0
370
    -2
100
AcDbLine
 10
0.0
 20
0.0
 30
0.0
 11
-1.0
 21
0.0
 31
0.0
  0
ENDBLK
  5
A
330
4
100
AcDbEntity
  8
0
100
AcDbBlockEnd
  0
BLOCK
  5
C
330
B
100
AcDbEntity
  8
0
100
AcDbBlockBegin
  2
_DOT
 70
     0
 10
0.0
 20
0.0
 30
0.0
  3
_DOT
  1

  0
POLYLINE
  5
D
330
B
100
AcDbEntity
  8
0
  6
BYBLOCK
 62
     0
370
    -2
100
AcDb2dPolyline
 66
     1
 10
0.0
 20
0.0
 30
0.0
 70
     1
 40
0.5
 41
0.5
  0
VERTEX
  5
E
330
B
100
AcDbEntity
  8
0
  6
BYBLOCK
 62
     0
370
    -2
100
AcDbVertex
100
AcDb2dVertex
 10
-0.25
 20
0.0
 30
0.0
 42
1.0
  0
VERTEX
  5
F
330
B
100
AcDbEntity
  8
0
  6
BYBLOCK
 62
     0
370
    -2
100
AcDbVertex
100
AcDb2dVertex
 10
0.25
 20
0.0
 30
0.0
 42
1.0
  0
SEQEND
  5
10
330
B
100
AcDbEntity
  8
0
  6
BYBLOCK
 62
     0
370
    -2
  0
LINE
  5
11
330
B
100
AcDbEntity
  8
0
  6
BYBLOCK
 62
     0
370
    -2
100
AcDbLine
 10
-0.5
 20
0.0
 30
0.0
 11
-1.0
 21
0.0
 31
0.0
  0
ENDBLK
  5
12
330
B
100
AcDbEntity
  8
0
100
AcDbBlockEnd
  0
BLOCK
  5
14
330
13
100
AcDbEntity
  8
0
100
AcDbBlockBegin
  2
_OPEN
 70
     0
 10
0.0
 20
0.0
 30
0.0
  3
_OPEN
  1

  0
LINE
  5
15
330
13
100
AcDbEntity
  8
0
  6
BYBLOCK
 62
     0
370
    -2
100
AcDbLine
 10
-1.0
 20
0.166667
 30
0.0
 11
0.0
 21
0.0
 31
0.0
  0
LINE
  5
16
330
13
100
AcDbEntity
  8
0
  6
BYBLOCK
 62
     0
370
    -2
100
AcDbLine
 10
0.0
 20
0.0
 30
0.0
 11
-1.0
 21
-0.166667
 31
0.0
  0
LINE
  5
17
330
13
100
AcDbEntity
  8
0
  6
BYBLOCK
 62
     0
370
    -2
100
AcDbLine
 10
0.0
 20
0.0
 30
0.0
 11
-1.0
 21
0.0
 31
0.0
  0
ENDBLK
  5
18
330
13
100
AcDbEntity
  8
0
100
AcDbBlockEnd
  0
BLOCK
  5
1A
330
19
100
AcDbEntity
  8
0
100
AcDbBlockBegin
  2
_ORIGIN
 70
     0
 10
0.0
 20
0.0
 30
0.0
  3
_ORIGIN
  1

  0
CIRCLE
  5
1B
330
19
100
AcDbEntity
  8
0
  6
BYBLOCK
 62
     0
370
    -2
100
AcDbCircle
 10
0.0
 20
0.0
 30
0.0
 40
0.5
  0
LINE
  5
1C
330
19
100
AcDbEntity
  8
0
  6
BYBLOCK
 62
     0
370
    -2
100
AcDbLine
 10
0.0
 20
0.0
 30
0.0
 11
-1.0
 21
0.0
 31
0.0
  0
ENDBLK
  5
1D
330
19
100
AcDbEntity
  8
0
100
AcDbBlockEnd
  0
BLOCK
  5
1F
330
1E
100
AcDbEntity
  8
0
100
AcDbBlockBegin
  2
_OPEN30
 70
     0
 10
0.0
 20
0.0
 30
0.0
  3
_OPEN30
  1

  0
LINE
  5
20
330
1E
100
AcDbEntity
  8
0
  6
BYBLOCK
 62
     0
370
    -2
100
AcDbLine
 10
-1.0
 20
0.267949
 30
0.0
 11
0.0
 21
0.0
 31
0.0
  0
LINE
  5
21
330
1E
100
AcDbEntity
  8
0
  6
BYBLOCK
 62
     0
370
    -2
100
AcDbLine
 10
0.0
 20
0.0
 30
0.0
 11
-1.0
 21
-0.267949
 31
0.0
  0
LINE
  5
22
330
1E
100
AcDbEntity
  8
0
  6
BYBLOCK
 62
     0
370
    -2
100
AcDbLine
 10
0.0
 20
0.0
 30
0.0
 11
-1.0
 21
0.0
 31
0.0
  0
ENDBLK
  5
23
330
1E
100
AcDbEntity
  8
0
100
AcDbBlockEnd
  0
BLOCK
  5
25
330
24
100
AcDbEntity
  8
0
100
AcDbBlockBegin
  2
_BOXFILLED
 70
     0
 10
0.0
 20
0.0
 30
0.0
  3
_BOXFILLED
  1

  0
SOLID
  5
26
330
24
100
AcDbEntity
  8
0
  6
BYBLOCK
 62
     0
370
    -2
100
AcDbTrace
 10
-0.5
 20
0.5
 30
0.0
 11
0.5
 21
0.5
 31
0.0
 12
-0.5
 22
-0.5
 32
0.0
 13
0.5
 23
-0.5
 33
0.0
  0
LINE
  5
27
330
24
100
AcDbEntity
  8
0
  6
BYBLOCK
 62
     0
370
    -2
100
AcDbLine
 10
-0.5
 20
0.0
 30
0.0
 11
-1.0
 21
0.0
 31
0.0
  0
ENDBLK
  5
28
330
24
100
AcDbEntity
  8
0
100
AcDbBlockEnd
  0
BLOCK
  5
2A
330
29
100
AcDbEntity
  8
0
100
AcDbBlockBegin
  2
_BOXBLANK
 70
     0
 10
0.0
 20
0.0
 30
0.0
  3
_BOXBLANK
  1

  0
LINE
  5
2B
330
29
100
AcDbEntity
  8
0
  6
BYBLOCK
 62
     0
370
    -2
100
AcDbLine
 10
-0.5
 20
-0.5
 30
0.0
 11
0.5
 21
-0.5
 31
0.0
  0
LINE
  5
2C
330
29
100
AcDbEntity
  8
0
  6
BYBLOCK
 62
     0
370
    -2
100
AcDbLine
 10
0.5
 20
-0.5
 30
0.0
 11
0.5
 21
0.5
 31
0.0
  0
LINE
  5
2D
330
29
100
AcDbEntity
  8
0
  6
BYBLOCK
 62
     0
370
    -2
100
AcDbLine
 10
0.5
 20
0.5
 30
0.0
 11
-0.5
 21
0.5
 31
0.0
  0
LINE
  5
2E
330
29
100
AcDbEntity
  8
0
  6
BYBLOCK
 62
     0
370
    -2
100
AcDbLine
 10
-0.5
 20
0.5
 30
0.0
 11
-0.5
 21
-0.5
 31
0.0
  0
LINE
  5
2F
330
29
100
AcDbEntity
  8
0
  6
BYBLOCK
 62
     0
370
    -2
100
AcDbLine
 10
-0.5
 20
0.0
 30
0.0
 11
-1.0
 21
0.0
 31
0.0
  0
ENDBLK
  5
30
330
29
100
AcDbEntity
  8
0
100
AcDbBlockEnd
  0
BLOCK
  5
32
330
31
100
AcDbEntity
  8
0
100
AcDbBlockBegin
  2
_OBLIQUE
 70
     0
 10
0.0
 20
0.0
 30
0.0
  3
_OBLIQUE
  1

  0
LINE
  5
33
330
31
100
AcDbEntity
  8
0
  6
BYBLOCK
 62
     0
370
    -2
100
AcDbLine
 10
-0.5
 20
-0.5
 30
0.0
 11
0.5
 21
0.5
 31
0.0
  0
ENDBLK
  5
34
330
31
100
AcDbEntity
  8
0
100
AcDbBlockEnd
  0
BLOCK
  5
36
330
35
100
AcDbEntity
  8
0
100
AcDbBlockBegin
  2
_OPEN90
 70
     0
 10
0.0
 20
0.0
 30
0.0
  3
_OPEN90
  1

  0
LINE
  5
37
330
35
100
AcDbEntity
  8
0
  6
BYBLOCK
 62
     0
370
    -2
100
AcDbLine
 10
-0.5
 20
0.5
 30
0.0
 11
0.0
 21
0.0
 31
0.0
  0
LINE
  5
38
330
35
100
AcDbEntity
  8
0
  6
BYBLOCK
 62
     0
370
    -2
100
AcDbLine
 10
0.0
 20
0.0
 30
0.0
 11
-0.5
 21
-0.5
 31
0.0
  0
LINE
  5
39
330
35
100
AcDbEntity
  8
0
  6
BYBLOCK
 62
     0
370
    -2
100
AcDbLine
 10
0.0
 20
0.0
 30
0.0
 11
-1.0
 21
0.0
 31
0.0
  0
ENDBLK
  5
3A
330
35
100
AcDbEntity
  8
0
100
AcDbBlockEnd
  0
BLOCK
  5
3C
330
3B
100
AcDbEntity
  8
0
100
AcDbBlockBegin
  2
_CLOSEDBLANK
 70
     0
 10
0.0
 20
0.0
 30
0.0
  3
_CLOSEDBLANK
  1

  0
LINE
  5
3D
330
3B
100
AcDbEntity
  8
0
  6
BYBLOCK
 62
     0
370
    -2
100
AcDbLine
 10
-1.0
 20
0.1666666666666666
 30
0.0
 11
0.0
 21
0.0
 31
0.0
  0
LINE
  5
3E
330
3B
100
AcDbEntity
  8
0
  6
BYBLOCK
 62
     0
370
    -2
100
AcDbLine
 10
0.0
 20
0.0
 30
0.0
 11
-1.0
 21
-0.1666666666666666
 31
0.0
  0
LINE
  5
3F
330
3B
100
AcDbEntity
  8
0
  6
BYBLOCK
 62
     0
370
    -2
100
AcDbLine
 10
-1.0
 20
0.1666666666666666
 30
0.0
 11
-1.0
 21
-0.1666666666666666
 31
0.0
  0
ENDBLK
  5
40
330
3B
100
AcDbEntity
  8
0
100
AcDbBlockEnd
  0
BLOCK
  5
42
330
41
100
AcDbEntity
  8
0
100
AcDbBlockBegin
  2
_DOTBLANK
 70
     0
 10
0.0
 20
0.0
 30
0.0
  3
_DOTBLANK
  1

  0
CIRCLE
  5
43
330
41
100
AcDbEntity
  8
0
  6
BYBLOCK
 62
     0
370
    -2
100
AcDbCircle
 10
0.0
 20
0.0
 30
0.0
 40
0.5
  0
LINE
  5
44
330
41
100
AcDbEntity
  8
0
  6
BYBLOCK
 62
     0
370
    -2
100
AcDbLine
 10
-0.5
 20
0.0
 30
0.0
 11
-1.0
 21
0.0
 31
0.0
  0
ENDBLK
  5
45
330
41
100
AcDbEntity
  8
0
100
AcDbBlockEnd
  0
ENDSEC
  0
SECTION
  2
ENTITIES
  0
MTEXT
  5
46
100
AcDbEntity
  8
A8
  6
CONTINUOUS
 62
7
100
AcDbMText
 10
9.999997526638502
 20
18.00000076076889
 30
0.0000000000000000
 40
3.000000000000000
 41
0.0000000000000000
 44
0.6739999771118164
 71
     7
 72
     1
  1
{\H0.94x;{TYPE No.TM-367-142-28}}
 11
1.000000000000000
 21
0.0000000000000000
 31
0.0000000000000000
  7
STANDARD
  0
POINT
  5
47
100
AcDbEntity
  8
A0
  6
CONTINUOUS
 62
5
100
AcDbPoint
 10
9.999997526638502
 20
18.00000076076889
 30
0.0000000000000000
  0
ARC
  5
48
100
AcDbEntity
  8
A4
  6
CONTINUOUS
 62
7
100
AcDbCircle
 10
50.00000000000000
 20
50.00000000000000
 30
0.0000000000000000
 40
10.00000000000001
100
AcDbArc
 50
174.3756741517865
 51
365.6243258482135
  0
ARC
  5
49
100
AcDbEntity
  8
A4
  6
CONTINUOUS
 62
7
100
AcDbCircle
 10
50.00000000000001
 20
522.0000000000000
 30
0.0000000000000000
 40
10.00000000000000
100
AcDbArc
 50
354.3756741517878
 51
545.6243258482122
  0
ARC
  5
4A
100
AcDbEntity
  8
A4
  6
CONTINUOUS
 62
7
100
AcDbCircle
 10
50.00000000000001
 20
522.0000000000000
 30
0.0000000000000000
 40
4.249999999999976
100
AcDbArc
 50
263.2436729694129
 51
276.7563270305887
  0
ARC
  5
4B
100
AcDbEntity
  8
A4
  6
CONTINUOUS
 62
7
100
AcDbCircle
 10
50.00000000000001
 20
522.0000000000000
 30
0.0000000000000000
 40
4.249999999999976
100
AcDbArc
 50
83.24367296941148
 51
96.75632703058712
  0
ARC
  5
4C
100
AcDbEntity
  8
A4
  6
CONTINUOUS
 62
7
100
AcDbCircle
 10
50.00000000000001
 20
522.0000000000000
 30
0.0000000000000000
 40
4.249999999999976
100
AcDbArc
 50
173.2436729694122
 51
186.7563270305879
  0
ARC
  5
4D
100
AcDbEntity
  8
A4
  6
CONTINUOUS
 62
7
100
AcDbCircle
 10
50.00000000000001
 20
522.0000000000000
 30
0.0000000000000000
 40
4.249999999999976
100
AcDbArc
 50
353.2436729694122
 51
366.7563270305878
  0
ARC
  5
4E
100
AcDbEntity
  8
A4
  6
CONTINUOUS
 62
7
100
AcDbCircle
 10
50.00000000000001
 20
522.0000000000000
 30
0.0000000000000000
 40
4.249999999999976
100
AcDbArc
 50
6.756327030587769
 51
83.24367296941148
  0
ARC
  5
4F
100
AcDbEntity
  8
A4
  6
CONTINUOUS
 62
7
100
AcDbCircle
 10
50.00000000000001
 20
522.0000000000000
 30
0.0000000000000000
 40
4.249999999999976
100
AcDbArc
 50
186.7563270305879
 51
263.2436729694129
  0
ARC
  5
50
100
AcDbEntity
  8
A4
  6
CONTINUOUS
 62
7
100
AcDbCircle
 10
50.00000000000000
 20
50.00000000000000
 30
0.0000000000000000
 40
4.749999999999990
100
AcDbArc
 50
186.0423284190541
 51
263.9576715809459
  0
ARC
  5
51
100
AcDbEntity
  8
A4
  6
CONTINUOUS
 62
7
100
AcDbCircle
 10
50.00000000000000
 20
50.00000000000000
 30
0.0000000000000000
 40
4.749999999999990
100
AcDbArc
 50
6.042328419054135
 51
83.95767158094607
  0
CIRCLE
  5
52
100
AcDbEntity
  8
A4
  6
CONTINUOUS
 62
7
100
AcDbCircle
 10
50.00000000000000
 20
50.00000000000000
 30
0.0000000000000000
 40
4.249999999999990
  0
ARC
  5
53
100
AcDbEntity
  8
A4
  6
CONTINUOUS
 62
7
100
AcDbCircle
 10
50.00000000000000
 20
50.00000000000000
 30
0.0000000000000000
 40
4.749999999999990
100
AcDbArc
 50
96.04232841905412
 51
173.9576715809460
  0
ARC
  5
54
100
AcDbEntity
  8
A4
  6
CONTINUOUS
 62
7
100
AcDbCircle
 10
50.00000000000000
 20
50.00000000000000
 30
0.0000000000000000
 40
4.749999999999990
100
AcDbArc
 50
276.0423284190542
 51
353.9576715809459
  0
ARC
  5
55
100
AcDbEntity
  8
A4
  6
CONTINUOUS
 62
7
100
AcDbCircle
 10
50.00000000000001
 20
522.0000000000000
 30
0.0000000000000000
 40
6.427358490566027
100
AcDbArc
 50
184.4616872308966
 51
265.5383127691039
  0
ARC
  5
56
100
AcDbEntity
  8
A4
  6
CONTINUOUS
 62
7
100
AcDbCircle
 10
50.00000000000001
 20
522.0000000000000
 30
0.0000000000000000
 40
4.749999999999977
100
AcDbArc
 50
276.0423284190549
 51
353.9576715809458
  0
ARC
  5
57
100
AcDbEntity
  8
A4
  6
CONTINUOUS
 62
7
100
AcDbCircle
 10
50.00000000000001
 20
522.0000000000000
 30
0.0000000000000000
 40
4.249999999999976
100
AcDbArc
 50
276.7563270305887
 51
353.2436729694122
  0
ARC
  5
58
100
AcDbEntity
  8
A4
  6
CONTINUOUS
 62
7
100
AcDbCircle
 10
50.00000000000000
 20
50.00000000000000
 30
0.0000000000000000
 40
6.427358490566013
100
AcDbArc
 50
4.461687230896623
 51
85.53831276910333
  0
CIRCLE
  5
59
100
AcDbEntity
  8
A4
  6
CONTINUOUS
 62
7
100
AcDbCircle
 10
50.00000000000000
 20
50.00000000000000
 30
0.0000000000000000
 40
6.050000000000097
  0
ARC
  5
5A
100
AcDbEntity
  8
A4
  6
CONTINUOUS
 62
7
100
AcDbCircle
 10
50.00000000000000
 20
50.00000000000000
 30
0.0000000000000000
 40
6.427358490566013
100
AcDbArc
 50
184.4616872308966
 51
265.5383127691034
  0
ARC
  5
5B
100
AcDbEntity
  8
A4
  6
CONTINUOUS
 62
7
100
AcDbCircle
 10
50.00000000000000
 20
50.00000000000000
 30
0.0000000000000000
 40
6.427358490566013
100
AcDbArc
 50
94.46168723089663
 51
175.5383127691034
  0
ARC
  5
5C
100
AcDbEntity
  8
A4
  6
CONTINUOUS
 62
7
100
AcDbCircle
 10
50.00000000000001
 20
522.0000000000000
 30
0.0000000000000000
 40
6.427358490566027
100
AcDbArc
 50
4.461687230896623
 51
85.53831276910283
  0
ARC
  5
5D
100
AcDbEntity
  8
A4
  6
CONTINUOUS
 62
7
100
AcDbCircle
 10
50.00000000000001
 20
522.0000000000000
 30
0.0000000000000000
 40
4.749999999999977
100
AcDbArc
 50
6.042328419054135
 51
83.95767158094510
  0
CIRCLE
  5
5E
100
AcDbEntity
  8
A4
  6
CONTINUOUS
 62
7
100
AcDbCircle
 10
50.00000000000001
 20
522.0000000000000
 30
0.0000000000000000
 40
6.050000000000111
  0
ARC
  5
5F
100
AcDbEntity
  8
A4
  6
CONTINUOUS
 62
7
100
AcDbCircle
 10
50.00000000000000
 20
50.00000000000000
 30
0.0000000000000000
 40
6.427358490566013
100
AcDbArc
 50
274.4616872308966
 51
355.5383127691034
  0
ARC
  5
60
100
AcDbEntity
  8
A4
  6
CONTINUOUS
 62
7
100
AcDbCircle
 10
50.00000000000001
 20
522.0000000000000
 30
0.0000000000000000
 40
4.749999999999977
100
AcDbArc
 50
96.04232841905338
 51
173.9576715809459
  0
ARC
  5
61
100
AcDbEntity
  8
A4
  6
CONTINUOUS
 62
7
100
AcDbCircle
 10
50.00000000000001
 20
522.0000000000000
 30
0.0000000000000000
 40
4.249999999999976
100
AcDbArc
 50
96.75632703058710
 51
173.2436729694122
  0
ARC
  5
62
100
AcDbEntity
  8
A4
  6
CONTINUOUS
 62
7
100
AcDbCircle
 10
50.00000000000001
 20
522.0000000000000
 30
0.0000000000000000
 40
6.427358490566027
100
AcDbArc
 50
274.4616872308972
 51
355.5383127691034
  0
ARC
  5
63
100
AcDbEntity
  8
A4
  6
CONTINUOUS
 62
7
100
AcDbCircle
 10
50.00000000000001
 20
522.0000000000000
 30
0.0000000000000000
 40
4.749999999999977
100
AcDbArc
 50
186.0423284190542
 51
263.9576715809466
  0
ARC
  5
64
100
AcDbEntity
  8
A4
  6
CONTINUOUS
 62
7
100
AcDbCircle
 10
50.00000000000001
 20
522.0000000000000
 30
0.0000000000000000
 40
6.427358490566027
100
AcDbArc
 50
94.46168723089615
 51
175.5383127691034
  0
ARC
  5
65
100
AcDbEntity
  8
A4
  6
CONTINUOUS
 62
7
100
AcDbCircle
 10
39.19999999999981
 20
231.4999999999999
 30
0.0000000000000000
 40
0.9000000000000000
100
AcDbArc
 50
270.0000000000000
 51
450.0000000000000
  0
ARC
  5
66
100
AcDbEntity
  8
A4
  6
CONTINUOUS
 62
7
100
AcDbCircle
 10
60.79999999999995
 20
231.4999999999999
 30
0.0000000000000000
 40
0.9000000000000000
100
AcDbArc
 50
90.00000000000000
 51
270.0000000000000
  0
ARC
  5
67
100
AcDbEntity
  8
A4
  6
CONTINUOUS
 62
7
100
AcDbCircle
 10
39.19999999999981
 20
244.9999999999999
 30
0.0000000000000000
 40
0.9000000000000000
100
AcDbArc
 50
270.0000000000000
 51
450.0000000000000
  0
ARC
  5
68
100
AcDbEntity
  8
A4
  6
CONTINUOUS
 62
7
100
AcDbCircle
 10
60.80000000000006
 20
244.9999999999999
 30
0.0000000000000000
 40
0.9000000000000000
100
AcDbArc
 50
90.00000000000000
 51
270.0000000000000
  0
LINE
  5
69
100
AcDbEntity
  8
A4
  6
CONTINUOUS
 62
7
100
AcDbLine
 10
41.77656803712169
 20
503.4688164597670
 30
0.0000000000000000
 11
41.85228071540327
 21
502.7000000000003
 31
0.0000000000000000
  0
LINE
  5
6A
100
AcDbEntity
  8
A4
  6
CONTINUOUS
 62
7
100
AcDbLine
 10
58.14771928459648
 20
502.7000000000001
 30
0.0000000000000000
 11
58.22343196287817
 21
503.4688164597667
 31
0.0000000000000000
  0
LINE
  5
6B
100
AcDbEntity
  8
A4
  6
CONTINUOUS
 62
7
100
AcDbLine
 10
41.77656803712194
 20
68.53118354023314
 30
0.0000000000000000
 11
41.85228071540364
 21
69.29999999999993
 31
0.0000000000000000
  0
LINE
  5
6C
100
AcDbEntity
  8
A4
  6
CONTINUOUS
 62
7
100
AcDbLine
 10
58.14771928459626
 20
69.29999999999994
 30
0.0000000000000000
 11
58.22343196287807
 21
68.53118354023317
 31
0.0000000000000000
  0
LINE
  5
6D
100
AcDbEntity
  8
A4
  6
CONTINUOUS
 62
7
100
AcDbLine
 10
41.53720067201879
 20
66.10055270800508
 30
0.0000000000000000
 11
41.77656803712186
 21
68.53118354023327
 31
0.0000000000000000
  0
LINE
  5
6E
100
AcDbEntity
  8
A4
  6
CONTINUOUS
 62
7
100
AcDbLine
 10
58.22343196287802
 20
68.53118354023330
 30
0.0000000000000000
 11
58.46279932798098
 21
66.10055270800508
 31
0.0000000000000000
  0
LINE
  5
6F
100
AcDbEntity
  8
A4
  6
CONTINUOUS
 62
7
100
AcDbLine
 10
41.77656803712172
 20
503.4688164597670
 30
0.0000000000000000
 11
41.53720067201865
 21
505.8994472919950
 31
0.0000000000000000
  0
LINE
  5
70
100
AcDbEntity
  8
A4
  6
CONTINUOUS
 62
7
100
AcDbLine
 10
58.46279932798105
 20
505.8994472919949
 30
0.0000000000000000
 11
58.22343196287808
 21
503.4688164597668
 31
0.0000000000000000
  0
LINE
  5
71
100
AcDbEntity
  8
A4
  6
CONTINUOUS
 62
7
100
AcDbLine
 10
41.99999999999982
 20
70.80000000000005
 30
0.0000000000000000
 11
41.85228071540352
 21
69.29999999999997
 31
0.0000000000000000
  0
LINE
  5
72
100
AcDbEntity
  8
A4
  6
CONTINUOUS
 62
7
100
AcDbLine
 10
57.99999999999991
 20
70.79999999999988
 30
0.0000000000000000
 11
58.14771928459621
 21
69.29999999999991
 31
0.0000000000000000
  0
LINE
  5
73
100
AcDbEntity
  8
A4
  6
CONTINUOUS
 62
7
100
AcDbLine
 10
41.99999999999969
 20
501.2000000000002
 30
0.0000000000000000
 11
41.85228071540341
 21
502.7000000000002
 31
0.0000000000000000
  0
LINE
  5
74
100
AcDbEntity
  8
A4
  6
CONTINUOUS
 62
7
100
AcDbLine
 10
58.00000000000010
 20
501.2000000000002
 30
0.0000000000000000
 11
58.14771928459639
 21
502.7000000000001
 31
0.0000000000000000
  0
LINE
  5
75
100
AcDbEntity
  8
A4
  6
CONTINUOUS
 62
7
100
AcDbLine
 10
41.32424382343084
 20
508.0618953011023
 30
0.0000000000000000
 11
41.53720067201870
 21
505.8994472919950
 31
0.0000000000000000
  0
LINE
  5
76
100
AcDbEntity
  8
A4
  6
CONTINUOUS
 62
7
100
AcDbLine
 10
58.46279932798110
 20
505.8994472919951
 30
0.0000000000000000
 11
58.67575617656898
 21
508.0618953011024
 31
0.0000000000000000
  0
LINE
  5
77
100
AcDbEntity
  8
A4
  6
CONTINUOUS
 62
7
100
AcDbLine
 10
41.32424382343087
 20
63.93810469889788
 30
0.0000000000000000
 11
41.53720067201870
 21
66.10055270800517
 31
0.0000000000000000
  0
LINE
  5
78
100
AcDbEntity
  8
A4
  6
CONTINUOUS
 62
7
100
AcDbLine
 10
58.46279932798100
 20
66.10055270800493
 30
0.0000000000000000
 11
58.67575617656890
 21
63.93810469889767
 31
0.0000000000000000
  0
LINE
  5
79
100
AcDbEntity
  8
A4
  6
CONTINUOUS
 62
7
100
AcDbLine
 10
41.32424382343089
 20
63.93810469889780
 30
0.0000000000000000
 11
40.92529821492595
 21
59.88705331185074
 31
0.0000000000000000
  0
LINE
  5
7A
100
AcDbEntity
  8
A4
  6
CONTINUOUS
 62
7
100
AcDbLine
 10
59.07470178507388
 20
59.88705331185078
 30
0.0000000000000000
 11
58.67575617656893
 21
63.93810469889772
 31
0.0000000000000000
  0
LINE
  5
7B
100
AcDbEntity
  8
A4
  6
CONTINUOUS
 62
7
100
AcDbLine
 10
40.92529821492599
 20
512.1129466881495
 30
0.0000000000000000
 11
41.32424382343091
 21
508.0618953011023
 31
0.0000000000000000
  0
LINE
  5
7C
100
AcDbEntity
  8
A4
  6
CONTINUOUS
 62
7
100
AcDbLine
 10
58.67575617656903
 20
508.0618953011022
 30
0.0000000000000000
 11
59.07470178507401
 21
512.1129466881492
 31
0.0000000000000000
  0
LINE
  5
7D
100
AcDbEntity
  8
A4
  6
CONTINUOUS
 62
7
100
AcDbLine
 10
40.04814120110522
 20
50.98005430811764
 30
0.0000000000000000
 11
40.92529821492604
 21
59.88705331185076
 31
0.0000000000000000
  0
LINE
  5
7E
100
AcDbEntity
  8
A4
  6
CONTINUOUS
 62
7
100
AcDbLine
 10
59.07470178507380
 20
59.88705331185081
 30
0.0000000000000000
 11
59.95185879889461
 21
50.98005430811767
 31
0.0000000000000000
  0
LINE
  5
7F
100
AcDbEntity
  8
A4
  6
CONTINUOUS
 62
7
100
AcDbLine
 10
40.04814120110510
 20
521.0199456918826
 30
0.0000000000000000
 11
40.92529821492600
 21
512.1129466881492
 31
0.0000000000000000
  0
LINE
  5
80
100
AcDbEntity
  8
A4
  6
CONTINUOUS
 62
7
100
AcDbLine
 10
59.07470178507399
 20
512.1129466881492
 30
0.0000000000000000
 11
59.95185879889485
 21
521.0199456918826
 31
0.0000000000000000
  0
LINE
  5
81
100
AcDbEntity
  8
A4
  6
CONTINUOUS
 62
7
100
AcDbLine
 10
56.40788086392457
 20
522.5000000000000
 30
0.0000000000000000
 11
54.22048575403347
 21
522.5000000000000
 31
0.0000000000000000
  0
LINE
  5
82
100
AcDbEntity
  8
A4
  6
CONTINUOUS
 62
7
100
AcDbLine
 10
50.50000000000001
 20
526.2204857540337
 30
0.0000000000000000
 11
50.50000000000001
 21
528.4078808639247
 31
0.0000000000000000
  0
LINE
  5
83
100
AcDbEntity
  8
A4
  6
CONTINUOUS
 62
7
100
AcDbLine
 10
45.77951424596631
 20
49.50000000000003
 30
0.0000000000000000
 11
43.59211913607533
 21
49.50000000000003
 31
0.0000000000000000
  0
LINE
  5
84
100
AcDbEntity
  8
A4
  6
CONTINUOUS
 62
7
100
AcDbLine
 10
49.50000000000000
 20
43.59211913607541
 30
0.0000000000000000
 11
49.50000000000000
 21
45.77951424596657
 31
0.0000000000000000
  0
LINE
  5
85
100
AcDbEntity
  8
A4
  6
CONTINUOUS
 62
7
100
AcDbLine
 10
45.77951424596643
 20
521.5000000000000
 30
0.0000000000000000
 11
43.59211913607533
 21
521.5000000000000
 31
0.0000000000000000
  0
LINE
  5
86
100
AcDbEntity
  8
A4
  6
CONTINUOUS
 62
7
100
AcDbLine
 10
49.50000000000001
 20
515.5921191360753
 30
0.0000000000000000
 11
49.50000000000001
 21
517.7795142459665
 31
0.0000000000000000
  0
LINE
  5
87
100
AcDbEntity
  8
A4
  6
CONTINUOUS
 62
7
100
AcDbLine
 10
49.50000000000000
 20
54.22048575403360
 30
0.0000000000000000
 11
49.50000000000000
 21
56.40788086392459
 31
0.0000000000000000
  0
LINE
  5
88
100
AcDbEntity
  8
A4
  6
CONTINUOUS
 62
7
100
AcDbLine
 10
45.77951424596631
 20
50.50000000000003
 30
0.0000000000000000
 11
43.59211913607533
 21
50.50000000000003
 31
0.0000000000000000
  0
LINE
  5
89
100
AcDbEntity
  8
A4
  6
CONTINUOUS
 62
7
100
AcDbLine
 10
50.50000000000000
 20
54.22048575403360
 30
0.0000000000000000
 11
50.50000000000000
 21
56.40788086392459
 31
0.0000000000000000
  0
LINE
  5
8A
100
AcDbEntity
  8
A4
  6
CONTINUOUS
 62
7
100
AcDbLine
 10
56.40788086392456
 20
50.50000000000003
 30
0.0000000000000000
 11
54.22048575403346
 21
50.50000000000003
 31
0.0000000000000000
  0
LINE
  5
8B
100
AcDbEntity
  8
A4
  6
CONTINUOUS
 62
7
100
AcDbLine
 10
56.40788086392456
 20
49.50000000000003
 30
0.0000000000000000
 11
54.22048575403346
 21
49.50000000000003
 31
0.0000000000000000
  0
LINE
  5
8C
100
AcDbEntity
  8
A4
  6
CONTINUOUS
 62
7
100
AcDbLine
 10
50.50000000000000
 20
43.59211913607541
 30
0.0000000000000000
 11
50.50000000000000
 21
45.77951424596657
 31
0.0000000000000000
  0
LINE
  5
8D
100
AcDbEntity
  8
A4
  6
CONTINUOUS
 62
7
100
AcDbLine
 10
50.50000000000001
 20
515.5921191360753
 30
0.0000000000000000
 11
50.50000000000001
 21
517.7795142459667
 31
0.0000000000000000
  0
LINE
  5
8E
100
AcDbEntity
  8
A4
  6
CONTINUOUS
 62
7
100
AcDbLine
 10
56.40788086392457
 20
521.5000000000000
 30
0.0000000000000000
 11
54.22048575403347
 21
521.5000000000000
 31
0.0000000000000000
  0
LINE
  5
8F
100
AcDbEntity
  8
A4
  6
CONTINUOUS
 62
7
100
AcDbLine
 10
45.77951424596632
 20
522.5000000000000
 30
0.0000000000000000
 11
43.59211913607533
 21
522.5000000000000
 31
0.0000000000000000
  0
LINE
  5
90
100
AcDbEntity
  8
A4
  6
CONTINUOUS
 62
7
100
AcDbLine
 10
49.50000000000001
 20
526.2204857540337
 30
0.0000000000000000
 11
49.50000000000001
 21
528.4078808639247
 31
0.0000000000000000
  0
LINE
  5
91
100
AcDbEntity
  8
A4
  6
CONTINUOUS
 62
7
100
AcDbLine
 10
44.99999999999999
 20
224.5000000000000
 30
0.0000000000000000
 11
44.99999999999999
 21
74.00000000000003
 31
0.0000000000000000
  0
LINE
  5
92
100
AcDbEntity
  8
A4
  6
CONTINUOUS
 62
7
100
AcDbLine
 10
54.99999999999999
 20
74.00000000000003
 30
0.0000000000000000
 11
54.99999999999999
 21
224.5000000000000
 31
0.0000000000000000
  0
LINE
  5
93
100
AcDbEntity
  8
A4
  6
CONTINUOUS
 62
7
100
AcDbLine
 10
58.00000000000000
 20
70.79999999999998
 30
0.0000000000000000
 11
42.00000000000000
 21
70.79999999999998
 31
0.0000000000000000
  0
LINE
  5
94
100
AcDbEntity
  8
A4
  6
CONTINUOUS
 62
7
100
AcDbLine
 10
42.00000000000000
 20
74.00000000000003
 30
0.0000000000000000
 11
58.00000000000000
 21
74.00000000000003
 31
0.0000000000000000
  0
LINE
  5
95
100
AcDbEntity
  8
A4
  6
CONTINUOUS
 62
7
100
AcDbLine
 10
41.99999999999984
 20
70.80000000000005
 30
0.0000000000000000
 11
41.99999999999996
 21
73.99999999999999
 31
0.0000000000000000
  0
LINE
  5
96
100
AcDbEntity
  8
A4
  6
CONTINUOUS
 62
7
100
AcDbLine
 10
57.99999999999991
 20
73.99999999999996
 30
0.0000000000000000
 11
58.00000000000000
 21
70.80000000000003
 31
0.0000000000000000
  0
LINE
  5
97
100
AcDbEntity
  8
A4
  6
CONTINUOUS
 62
7
100
AcDbLine
 10
42.00000000000001
 20
501.2000000000002
 30
0.0000000000000000
 11
58.00000000000001
 21
501.2000000000002
 31
0.0000000000000000
  0
LINE
  5
98
100
AcDbEntity
  8
A4
  6
CONTINUOUS
 62
7
100
AcDbLine
 10
42.00000000000001
 20
498.0000000000000
 30
0.0000000000000000
 11
42.00000000000001
 21
501.2000000000002
 31
0.0000000000000000
  0
LINE
  5
99
100
AcDbEntity
  8
A4
  6
CONTINUOUS
 62
7
100
AcDbLine
 10
58.00000000000001
 20
498.0000000000000
 30
0.0000000000000000
 11
42.00000000000001
 21
498.0000000000000
 31
0.0000000000000000
  0
LINE
  5
9A
100
AcDbEntity
  8
A4
  6
CONTINUOUS
 62
7
100
AcDbLine
 10
58.00000000000001
 20
501.2000000000002
 30
0.0000000000000000
 11
58.00000000000001
 21
498.0000000000000
 31
0.0000000000000000
  0
LINE
  5
9B
100
AcDbEntity
  8
A4
  6
CONTINUOUS
 62
7
100
AcDbLine
 10
40.09999999999990
 20
226.1999999999999
 30
0.0000000000000000
 11
40.09999999999990
 21
224.5000000000000
 31
0.0000000000000000
  0
LINE
  5
9C
100
AcDbEntity
  8
A4
  6
CONTINUOUS
 62
7
100
AcDbLine
 10
59.89999999999986
 20
224.5000000000000
 30
0.0000000000000000
 11
59.89999999999986
 21
226.1999999999999
 31
0.0000000000000000
  0
LINE
  5
9D
100
AcDbEntity
  8
A4
  6
CONTINUOUS
 62
7
100
AcDbLine
 10
59.89999999999986
 20
224.5000000000000
 30
0.0000000000000000
 11
40.09999999999990
 21
224.5000000000000
 31
0.0000000000000000
  0
LINE
  5
9E
100
AcDbEntity
  8
A4
  6
CONTINUOUS
 62
7
100
AcDbLine
 10
38.99999999999977
 20
230.6000000000000
 30
0.0000000000000000
 11
38.99999999999977
 21
226.1999999999999
 31
0.0000000000000000
  0
LINE
  5
9F
100
AcDbEntity
  8
A4
  6
CONTINUOUS
 62
7
100
AcDbLine
 10
60.99999999999999
 20
226.1999999999999
 30
0.0000000000000000
 11
60.99999999999999
 21
230.6000000000000
 31
0.0000000000000000
  0
LINE
  5
A0
100
AcDbEntity
  8
A4
  6
CONTINUOUS
 62
7
100
AcDbLine
 10
60.99999999999999
 20
226.1999999999999
 30
0.0000000000000000
 11
38.99999999999977
 21
226.1999999999999
 31
0.0000000000000000
  0
LINE
  5
A1
100
AcDbEntity
  8
A4
  6
CONTINUOUS
 62
7
100
AcDbLine
 10
60.99999999999999
 20
230.6000000000000
 30
0.0000000000000000
 11
38.99999999999977
 21
230.6000000000000
 31
0.0000000000000000
  0
LINE
  5
A2
100
AcDbEntity
  8
A4
  6
CONTINUOUS
 62
7
100
AcDbLine
 10
38.99999999999977
 20
244.1000000000000
 30
0.0000000000000000
 11
38.99999999999977
 21
232.4000000000000
 31
0.0000000000000000
  0
LINE
  5
A3
100
AcDbEntity
  8
A4
  6
CONTINUOUS
 62
7
100
AcDbLine
 10
60.99999999999999
 20
232.4000000000000
 30
0.0000000000000000
 11
60.99999999999999
 21
244.1000000000000
 31
0.0000000000000000
  0
LINE
  5
A4
100
AcDbEntity
  8
A4
  6
CONTINUOUS
 62
7
100
AcDbLine
 10
60.99999999999999
 20
232.4000000000000
 30
0.0000000000000000
 11
38.99999999999977
 21
232.4000000000000
 31
0.0000000000000000
  0
LINE
  5
A5
100
AcDbEntity
  8
A4
  6
CONTINUOUS
 62
7
100
AcDbLine
 10
60.99999999999999
 20
244.1000000000000
 30
0.0000000000000000
 11
38.99999999999977
 21
244.1000000000000
 31
0.0000000000000000
  0
LINE
  5
A6
100
AcDbEntity
  8
A4
  6
CONTINUOUS
 62
7
100
AcDbLine
 10
38.99999999999977
 20
492.8944483018870
 30
0.0000000000000000
 11
38.99999999999975
 21
245.8999999999999
 31
0.0000000000000000
  0
LINE
  5
A7
100
AcDbEntity
  8
A4
  6
CONTINUOUS
 62
7
100
AcDbLine
 10
60.99999999999998
 20
245.8999999999999
 30
0.0000000000000000
 11
61.00000000000000
 21
492.8944483018870
 31
0.0000000000000000
  0
LINE
  5
A8
100
AcDbEntity
  8
A4
  6
CONTINUOUS
 62
7
100
AcDbLine
 10
60.99999999999999
 20
245.8999999999999
 30
0.0000000000000000
 11
38.99999999999999
 21
245.8999999999999
 31
0.0000000000000000
  0
LINE
  5
A9
100
AcDbEntity
  8
A4
  6
CONTINUOUS
 62
7
100
AcDbLine
 10
45.04810073146663
 20
498.0000000000001
 30
0.0000000000000000
 11
38.92632698070852
 21
494.1000000000003
 31
0.0000000000000000
  0
LINE
  5
AA
100
AcDbEntity
  8
A4
  6
CONTINUOUS
 62
7
100
AcDbLine
 10
61.07367301929153
 20
494.1000000000003
 30
0.0000000000000000
 11
54.95189926853342
 21
498.0000000000001
 31
0.0000000000000000
  0
LINE
  5
AB
100
AcDbEntity
  8
A4
  6
CONTINUOUS
 62
7
100
AcDbLine
 10
38.92632698070834
 20
494.1000000000001
 30
0.0000000000000000
 11
38.74999999999974
 21
493.1000000000002
 31
0.0000000000000000
  0
LINE
  5
AC
100
AcDbEntity
  8
A4
  6
CONTINUOUS
 62
7
100
AcDbLine
 10
61.25000000000014
 20
493.1000000000001
 30
0.0000000000000000
 11
61.07367301929153
 21
494.1000000000000
 31
0.0000000000000000
  0
LINE
  5
AD
100
AcDbEntity
  8
A4
  6
CONTINUOUS
 62
7
100
AcDbLine
 10
61.07367301929140
 20
494.1000000000001
 30
0.0000000000000000
 11
38.92632698070839
 21
494.1000000000001
 31
0.0000000000000000
  0
LINE
  5
AE
100
AcDbEntity
  8
A4
  6
CONTINUOUS
 62
7
100
AcDbLine
 10
61.00000000000014
 20
492.8944483018870
 30
0.0000000000000000
 11
61.25000000000020
 21
493.1000000000003
 31
0.0000000000000000
  0
LINE
  5
AF
100
AcDbEntity
  8
A4
  6
CONTINUOUS
 62
7
100
AcDbLine
 10
38.74999999999977
 20
493.1000000000001
 30
0.0000000000000000
 11
38.99999999999974
 21
492.8944483018869
 31
0.0000000000000000
  0
LINE
  5
B0
100
AcDbEntity
  8
A4
  6
CONTINUOUS
 62
7
100
AcDbLine
 10
61.00000000000001
 20
492.8944483018870
 30
0.0000000000000000
 11
38.99999999999978
 21
492.8944483018870
 31
0.0000000000000000
  0
LINE
  5
B1
100
AcDbEntity
  8
A4
  6
CONTINUOUS
 62
7
100
AcDbLine
 10
61.25000000000001
 20
493.1000000000003
 30
0.0000000000000000
 11
38.74999999999978
 21
493.1000000000003
 31
0.0000000000000000
  0
ELLIPSE
  5
B2
100
AcDbEntity
  8
A5
  6
CONTINUOUS
 62
7
100
AcDbEllipse
 10
151.8999999999999
 20
630.2334927589919
 30
0.0000000000000000
 11
5.999999999999999
 21
0.0000000000000000
 31
0.0000000000000000
210
0.0000000000000000
220
0.0000000000000000
230
1.000000000000000
 40
0.09847952306418631
 41
0.0000000000000000
 42
0.9445107761303665
  0
ELLIPSE
  5
B3
100
AcDbEntity
  8
A5
  6
CONTINUOUS
 62
7
100
AcDbEllipse
 10
151.8999999999999
 20
613.7665072410081
 30
0.0000000000000000
 11
5.999999999999999
 21
0.0000000000000000
 31
0.0000000000000000
210
0.0000000000000000
220
0.0000000000000000
230
1.000000000000000
 40
0.09847952306418631
 41
5.338674531048717
 42
0.0000000000000000
  0
ELLIPSE
  5
B4
100
AcDbEntity
  8
A5
  6
CONTINUOUS
 62
7
100
AcDbEllipse
 10
153.5999999999999
 20
631.0847625811876
 30
0.0000000000000000
 11
1.999999999999999
 21
0.0000000000000000
 31
0.0000000000000000
210
0.0000000000000000
220
0.0000000000000000
230
1.000000000000000
 40
0.09847952306418629
 41
3.141592653589793
 42
4.086103429720592
  0
ELLIPSE
  5
B5
100
AcDbEntity
  8
A5
  6
CONTINUOUS
 62
7
100
AcDbEllipse
 10
153.5999999999999
 20
612.9152374188122
 30
0.0000000000000000
 11
1.999999999999999
 21
0.0000000000000000
 31
0.0000000000000000
210
0.0000000000000000
220
0.0000000000000000
230
1.000000000000000
 40
0.09847952306418629
 41
2.197081877459275
 42
3.141592653589793
  0
ARC
  5
B6
100
AcDbEntity
  8
A5
  6
CONTINUOUS
 62
7
100
AcDbCircle
 10
150.0000000000000
 20
622.0000000000000
 30
0.0000000000000000
 40
11.25000000000012
100
AcDbArc
 50
48.82761665189025
 51
311.1723833483387
  0
ARC
  5
B7
100
AcDbEntity
  8
A5
  6
CONTINUOUS
 62
7
100
AcDbCircle
 10
150.0000000000000
 20
622.0000000000000
 30
0.0000000000000000
 40
11.25000000000012
100
AcDbArc
 50
314.6055662214270
 51
405.3944337785729
  0
ARC
  5
B8
100
AcDbEntity
  8
A5
  6
CONTINUOUS
 62
7
100
AcDbCircle
 10
150.0000000000000
 20
622.0000000000000
 30
0.0000000000000000
 40
11.07367301929152
100
AcDbArc
 50
50.42873271982307
 51
309.5712672802253
  0
ARC
  5
B9
100
AcDbEntity
  8
A5
  6
CONTINUOUS
 62
7
100
AcDbCircle
 10
150.0000000000000
 20
622.0000000000000
 30
0.0000000000000000
 40
11.07367301929152
100
AcDbArc
 50
315.5125340087722
 51
404.4874659912279
  0
ARC
  5
BA
100
AcDbEntity
  8
A5
  6
CONTINUOUS
 62
7
100
AcDbCircle
 10
145.4000000000000
 20
617.0000000000000
 30
0.0000000000000000
 40
3.000000000000000
100
AcDbArc
 50
180.0000000000000
 51
270.0000000000000
  0
ARC
  5
BB
100
AcDbEntity
  8
A5
  6
CONTINUOUS
 62
7
100
AcDbCircle
 10
145.4000000000000
 20
627.0000000000000
 30
0.0000000000000000
 40
3.000000000000000
100
AcDbArc
 50
90.00000000000000
 51
180.0000000000000
  0
LINE
  5
BC
100
AcDbEntity
  8
A5
  6
CONTINUOUS
 62
7
100
AcDbLine
 10
145.4000000000000
 20
614.0000000000000
 30
0.0000000000000000
 11
148.3999999999999
 21
614.0000000000000
 31
0.0000000000000000
  0
LINE
  5
BD
100
AcDbEntity
  8
A5
  6
CONTINUOUS
 62
7
100
AcDbLine
 10
142.4000000000000
 20
627.0000000000000
 30
0.0000000000000000
 11
142.4000000000000
 21
617.0000000000000
 31
0.0000000000000000
  0
LINE
  5
BE
100
AcDbEntity
  8
A5
  6
CONTINUOUS
 62
7
100
AcDbLine
 10
148.3999999999999
 20
630.0000000000000
 30
0.0000000000000000
 11
145.4000000000000
 21
630.0000000000000
 31
0.0000000000000000
  0
LINE
  5
BF
100
AcDbEntity
  8
A5
  6
CONTINUOUS
 62
7
100
AcDbLine
 10
157.8999999999999
 20
630.2334927589920
 30
0.0000000000000000
 11
157.8999999999999
 21
613.7665072410082
 31
0.0000000000000000
  0
LINE
  5
C0
100
AcDbEntity
  8
A5
  6
CONTINUOUS
 62
7
100
AcDbLine
 10
155.4168359401152
 20
630.7122274891979
 30
0.0000000000000000
 11
152.4277213532947
 21
630.9251843377858
 31
0.0000000000000000
  0
LINE
  5
C1
100
AcDbEntity
  8
A5
  6
CONTINUOUS
 62
7
100
AcDbLine
 10
152.4277213532945
 20
613.0748156622142
 30
0.0000000000000000
 11
155.4168359401150
 21
613.2877725108023
 31
0.0000000000000000
  0
LINE
  5
C2
100
AcDbEntity
  8
A5
  6
CONTINUOUS
 62
7
100
AcDbLine
 10
148.2500000000000
 20
621.5000000000000
 30
0.0000000000000000
 11
148.2500000000000
 21
622.5000000000000
 31
0.0000000000000000
  0
LINE
  5
C3
100
AcDbEntity
  8
A5
  6
CONTINUOUS
 62
7
100
AcDbLine
 10
148.2500000000000
 20
615.9499999999999
 30
0.0000000000000000
 11
148.3999999999999
 21
615.9499999999999
 31
0.0000000000000000
  0
LINE
  5
C4
100
AcDbEntity
  8
A5
  6
CONTINUOUS
 62
7
100
AcDbLine
 10
148.3999999999999
 20
628.0500000000001
 30
0.0000000000000000
 11
148.2500000000000
 21
628.0500000000001
 31
0.0000000000000000
  0
LINE
  5
C5
100
AcDbEntity
  8
A5
  6
CONTINUOUS
 62
7
100
AcDbLine
 10
151.6000000000000
 20
615.9499999999999
 30
0.0000000000000000
 11
151.7500000000000
 21
615.9499999999999
 31
0.0000000000000000
  0
LINE
  5
C6
100
AcDbEntity
  8
A5
  6
CONTINUOUS
 62
7
100
AcDbLine
 10
151.7500000000000
 20
628.0500000000001
 30
0.0000000000000000
 11
151.6000000000000
 21
628.0500000000001
 31
0.0000000000000000
  0
LINE
  5
C7
100
AcDbEntity
  8
A5
  6
CONTINUOUS
 62
7
100
AcDbLine
 10
148.2500000000000
 20
622.5000000000000
 30
0.0000000000000000
 11
145.7500000000000
 21
622.5000000000000
 31
0.0000000000000000
  0
LINE
  5
C8
100
AcDbEntity
  8
A5
  6
CONTINUOUS
 62
7
100
AcDbLine
 10
148.2499999999999
 20
628.4078808639247
 30
0.0000000000000000
 11
148.2499999999999
 21
622.5000000000000
 31
0.0000000000000000
  0
LINE
  5
C9
100
AcDbEntity
  8
A5
  6
CONTINUOUS
 62
7
100
AcDbLine
 10
145.7499999999999
 20
628.0293034423556
 30
0.0000000000000000
 11
148.2500000000000
 21
628.4078808639246
 31
0.0000000000000000
  0
LINE
  5
CA
100
AcDbEntity
  8
A5
  6
CONTINUOUS
 62
7
100
AcDbLine
 10
145.7500000000000
 20
628.0293034423556
 30
0.0000000000000000
 11
145.7500000000000
 21
622.5000000000000
 31
0.0000000000000000
  0
LINE
  5
CB
100
AcDbEntity
  8
A5
  6
CONTINUOUS
 62
7
100
AcDbLine
 10
148.2500000000000
 20
621.5000000000000
 30
0.0000000000000000
 11
145.7500000000000
 21
621.5000000000000
 31
0.0000000000000000
  0
LINE
  5
CC
100
AcDbEntity
  8
A5
  6
CONTINUOUS
 62
7
100
AcDbLine
 10
145.7500000000000
 20
621.5000000000000
 30
0.0000000000000000
 11
145.7500000000000
 21
615.9706965576444
 31
0.0000000000000000
  0
LINE
  5
CD
100
AcDbEntity
  8
A5
  6
CONTINUOUS
 62
7
100
AcDbLine
 10
148.2500000000000
 20
615.5921191360753
 30
0.0000000000000000
 11
145.7500000000000
 21
615.9706965576443
 31
0.0000000000000000
  0
LINE
  5
CE
100
AcDbEntity
  8
A5
  6
CONTINUOUS
 62
7
100
AcDbLine
 10
148.2499999999999
 20
621.5000000000000
 30
0.0000000000000000
 11
148.2499999999999
 21
615.5921191360754
 31
0.0000000000000000
  0
LINE
  5
CF
100
AcDbEntity
  8
A5
  6
CONTINUOUS
 62
7
100
AcDbLine
 10
154.2500000000001
 20
627.7500000000002
 30
0.0000000000000000
 11
154.2500000000001
 21
616.2499999999998
 31
0.0000000000000000
  0
LINE
  5
D0
100
AcDbEntity
  8
A5
  6
CONTINUOUS
 62
7
100
AcDbLine
 10
151.7500000000000
 20
629.0000000000000
 30
0.0000000000000000
 11
151.7500000000000
 21
615.0000000000000
 31
0.0000000000000000
  0
LINE
  5
D1
100
AcDbEntity
  8
A5
  6
CONTINUOUS
 62
7
100
AcDbLine
 10
154.2500000000000
 20
627.7500000000000
 30
0.0000000000000000
 11
151.7499999999999
 21
628.9999999999998
 31
0.0000000000000000
  0
LINE
  5
D2
100
AcDbEntity
  8
A5
  6
CONTINUOUS
 62
7
100
AcDbLine
 10
151.7500000000000
 20
615.0000000000000
 30
0.0000000000000000
 11
154.2500000000001
 21
616.2499999999998
 31
0.0000000000000000
  0
LINE
  5
D3
100
AcDbEntity
  8
A5
  6
CONTINUOUS
 62
7
100
AcDbLine
 10
151.6000000000000
 20
632.0000000000000
 30
0.0000000000000000
 11
148.3999999999999
 21
632.0000000000000
 31
0.0000000000000000
  0
LINE
  5
D4
100
AcDbEntity
  8
A5
  6
CONTINUOUS
 62
7
100
AcDbLine
 10
148.3999999999999
 20
612.0000000000000
 30
0.0000000000000000
 11
151.6000000000000
 21
612.0000000000000
 31
0.0000000000000000
  0
LINE
  5
D5
100
AcDbEntity
  8
A5
  6
CONTINUOUS
 62
7
100
AcDbLine
 10
148.3999999999999
 20
612.0000000000000
 30
0.0000000000000000
 11
148.3999999999999
 21
632.0000000000000
 31
0.0000000000000000
  0
LINE
  5
D6
100
AcDbEntity
  8
A5
  6
CONTINUOUS
 62
7
100
AcDbLine
 10
151.6000000000000
 20
632.0000000000000
 30
0.0000000000000000
 11
151.6000000000000
 21
612.0000000000000
 31
0.0000000000000000
  0
ELLIPSE
  5
D7
100
AcDbEntity
  8
A7
  6
CONTINUOUS
 62
7
100
AcDbEllipse
 10
151.9000000000000
 20
-58.23349275899190
 30
0.0000000000000000
 11
5.999999999999999
 21
0.0000000000000000
 31
0.0000000000000000
210
0.0000000000000000
220
0.0000000000000000
230
1.000000000000000
 40
0.09847952306418631
 41
5.338674531048722
 42
0.0000000000000000
  0
ELLIPSE
  5
D8
100
AcDbEntity
  8
A7
  6
CONTINUOUS
 62
7
100
AcDbEllipse
 10
151.9000000000000
 20
-41.76650724100827
 30
0.0000000000000000
 11
5.999999999999999
 21
0.0000000000000000
 31
0.0000000000000000
210
0.0000000000000000
220
0.0000000000000000
230
1.000000000000000
 40
0.09847952306418631
 41
0.0000000000000000
 42
0.9445107761309454
  0
ELLIPSE
  5
D9
100
AcDbEntity
  8
A7
  6
CONTINUOUS
 62
7
100
AcDbEllipse
 10
153.6000000000000
 20
-59.08476258118773
 30
0.0000000000000000
 11
2.000000000000000
 21
0.0000000000000000
 31
0.0000000000000000
210
0.0000000000000000
220
0.0000000000000000
230
1.000000000000000
 40
0.09847952306418629
 41
2.197081877459012
 42
3.141592653589793
  0
ELLIPSE
  5
DA
100
AcDbEntity
  8
A7
  6
CONTINUOUS
 62
7
100
AcDbEllipse
 10
153.6000000000000
 20
-40.91523741881244
 30
0.0000000000000000
 11
2.000000000000000
 21
0.0000000000000000
 31
0.0000000000000000
210
0.0000000000000000
220
0.0000000000000000
230
1.000000000000000
 40
0.09847952306418629
 41
3.141592653589793
 42
4.086103429720329
  0
ARC
  5
DB
100
AcDbEntity
  8
A7
  6
CONTINUOUS
 62
7
100
AcDbCircle
 10
150.0000000000000
 20
-50.00000000000003
 30
0.0000000000000000
 40
11.25000000000012
100
AcDbArc
 50
48.82761665166411
 51
311.1723833481109
  0
ARC
  5
DC
100
AcDbEntity
  8
A7
  6
CONTINUOUS
 62
7
100
AcDbCircle
 10
150.0000000000000
 20
-50.00000000000003
 30
0.0000000000000000
 40
11.25000000000012
100
AcDbArc
 50
314.6055662214271
 51
405.3944337785728
  0
ARC
  5
DD
100
AcDbEntity
  8
A7
  6
CONTINUOUS
 62
7
100
AcDbCircle
 10
150.0000000000000
 20
-50.00000000000003
 30
0.0000000000000000
 40
11.00000000000012
100
AcDbArc
 50
51.08277830252349
 51
308.9172216974557
  0
ARC
  5
DE
100
AcDbEntity
  8
A7
  6
CONTINUOUS
 62
7
100
AcDbCircle
 10
150.0000000000000
 20
-50.00000000000003
 30
0.0000000000000000
 40
11.00000000000012
100
AcDbArc
 50
315.9045712862855
 51
404.0954287137146
  0
ARC
  5
DF
100
AcDbEntity
  8
A7
  6
CONTINUOUS
 62
7
100
AcDbCircle
 10
150.0000000000000
 20
-50.00000000000003
 30
0.0000000000000000
 40
9.900000000000020
100
AcDbArc
 50
99.30071647760951
 51
260.6992835223906
  0
ARC
  5
E0
100
AcDbEntity
  8
A7
  6
CONTINUOUS
 62
7
100
AcDbCircle
 10
150.0000000000000
 20
-50.00000000000003
 30
0.0000000000000000
 40
9.900000000000020
100
AcDbArc
 50
62.37050299648543
 51
80.69928352239059
  0
ARC
  5
E1
100
AcDbEntity
  8
A7
  6
CONTINUOUS
 62
7
100
AcDbCircle
 10
150.0000000000000
 20
-50.00000000000003
 30
0.0000000000000000
 40
9.900000000000020
100
AcDbArc
 50
322.9376180080725
 51
397.0623819919273
  0
ARC
  5
E2
100
AcDbEntity
  8
A7
  6
CONTINUOUS
 62
7
100
AcDbCircle
 10
150.0000000000000
 20
-50.00000000000003
 30
0.0000000000000000
 40
9.900000000000020
100
AcDbArc
 50
279.3007164776095
 51
297.6294970035152
  0
ARC
  5
E3
100
AcDbEntity
  8
A7
  6
CONTINUOUS
 62
7
100
AcDbCircle
 10
145.4000000000001
 20
-45.00000000000003
 30
0.0000000000000000
 40
3.000000000000000
100
AcDbArc
 50
90.00000000000000
 51
180.0000000000000
  0
ARC
  5
E4
100
AcDbEntity
  8
A7
  6
CONTINUOUS
 62
7
100
AcDbCircle
 10
145.4000000000001
 20
-55.00000000000009
 30
0.0000000000000000
 40
3.000000000000000
100
AcDbArc
 50
180.0000000000000
 51
270.0000000000000
  0
LINE
  5
E5
100
AcDbEntity
  8
A7
  6
CONTINUOUS
 62
7
100
AcDbLine
 10
145.4000000000001
 20
-41.99999999999994
 30
0.0000000000000000
 11
148.3999999999999
 21
-41.99999999999994
 31
0.0000000000000000
  0
LINE
  5
E6
100
AcDbEntity
  8
A7
  6
CONTINUOUS
 62
7
100
AcDbLine
 10
142.4000000000001
 20
-55.00000000000004
 30
0.0000000000000000
 11
142.4000000000001
 21
-45.00000000000004
 31
0.0000000000000000
  0
LINE
  5
E7
100
AcDbEntity
  8
A7
  6
CONTINUOUS
 62
7
100
AcDbLine
 10
148.3999999999999
 20
-58.00000000000022
 30
0.0000000000000000
 11
145.4000000000001
 21
-58.00000000000022
 31
0.0000000000000000
  0
LINE
  5
E8
100
AcDbEntity
  8
A7
  6
CONTINUOUS
 62
7
100
AcDbLine
 10
157.8999999999999
 20
-58.23349275899204
 30
0.0000000000000000
 11
157.8999999999999
 21
-41.76650724100829
 31
0.0000000000000000
  0
LINE
  5
E9
100
AcDbEntity
  8
A7
  6
CONTINUOUS
 62
7
100
AcDbLine
 10
155.4168359401152
 20
-58.71222748919781
 30
0.0000000000000000
 11
152.4277213532949
 21
-58.92518433778566
 31
0.0000000000000000
  0
LINE
  5
EA
100
AcDbEntity
  8
A7
  6
CONTINUOUS
 62
7
100
AcDbLine
 10
152.4277213532950
 20
-41.07481566221445
 30
0.0000000000000000
 11
155.4168359401153
 21
-41.28777251080238
 31
0.0000000000000000
  0
LINE
  5
EB
100
AcDbEntity
  8
A7
  6
CONTINUOUS
 62
7
100
AcDbLine
 10
148.2500000000000
 20
-49.50000000000005
 30
0.0000000000000000
 11
148.2500000000000
 21
-50.50000000000005
 31
0.0000000000000000
  0
LINE
  5
EC
100
AcDbEntity
  8
A7
  6
CONTINUOUS
 62
7
100
AcDbLine
 10
148.2500000000000
 20
-56.05000000000000
 30
0.0000000000000000
 11
148.3999999999999
 21
-56.05000000000000
 31
0.0000000000000000
  0
LINE
  5
ED
100
AcDbEntity
  8
A7
  6
CONTINUOUS
 62
7
100
AcDbLine
 10
148.3999999999999
 20
-43.95000000000010
 30
0.0000000000000000
 11
148.2500000000000
 21
-43.95000000000010
 31
0.0000000000000000
  0
LINE
  5
EE
100
AcDbEntity
  8
A7
  6
CONTINUOUS
 62
7
100
AcDbLine
 10
151.6000000000000
 20
-56.05000000000000
 30
0.0000000000000000
 11
151.7500000000000
 21
-56.05000000000000
 31
0.0000000000000000
  0
LINE
  5
EF
100
AcDbEntity
  8
A7
  6
CONTINUOUS
 62
7
100
AcDbLine
 10
151.7500000000000
 20
-43.95000000000010
 30
0.0000000000000000
 11
151.6000000000000
 21
-43.95000000000010
 31
0.0000000000000000
  0
LINE
  5
F0
100
AcDbEntity
  8
A7
  6
CONTINUOUS
 62
7
100
AcDbLine
 10
145.7500000000001
 20
-43.97069655764448
 30
0.0000000000000000
 11
145.7500000000001
 21
-49.50000000000005
 31
0.0000000000000000
  0
LINE
  5
F1
100
AcDbEntity
  8
A7
  6
CONTINUOUS
 62
7
100
AcDbLine
 10
148.2500000000000
 20
-49.50000000000005
 30
0.0000000000000000
 11
145.7500000000001
 21
-49.50000000000005
 31
0.0000000000000000
  0
LINE
  5
F2
100
AcDbEntity
  8
A7
  6
CONTINUOUS
 62
7
100
AcDbLine
 10
148.2500000000000
 20
-43.59211913607549
 30
0.0000000000000000
 11
148.2500000000000
 21
-49.50000000000005
 31
0.0000000000000000
  0
LINE
  5
F3
100
AcDbEntity
  8
A7
  6
CONTINUOUS
 62
7
100
AcDbLine
 10
145.7500000000000
 20
-43.97069655764437
 30
0.0000000000000000
 11
148.2500000000000
 21
-43.59211913607538
 31
0.0000000000000000
  0
LINE
  5
F4
100
AcDbEntity
  8
A7
  6
CONTINUOUS
 62
7
100
AcDbLine
 10
148.2500000000000
 20
-50.50000000000005
 30
0.0000000000000000
 11
145.7500000000001
 21
-50.50000000000005
 31
0.0000000000000000
  0
LINE
  5
F5
100
AcDbEntity
  8
A7
  6
CONTINUOUS
 62
7
100
AcDbLine
 10
148.2500000000000
 20
-50.50000000000005
 30
0.0000000000000000
 11
148.2500000000000
 21
-56.40788086392467
 31
0.0000000000000000
  0
LINE
  5
F6
100
AcDbEntity
  8
A7
  6
CONTINUOUS
 62
7
100
AcDbLine
 10
145.7500000000001
 20
-50.50000000000005
 30
0.0000000000000000
 11
145.7500000000001
 21
-56.02930344235568
 31
0.0000000000000000
  0
LINE
  5
F7
100
AcDbEntity
  8
A7
  6
CONTINUOUS
 62
7
100
AcDbLine
 10
148.2500000000000
 20
-56.40788086392471
 30
0.0000000000000000
 11
145.7500000000000
 21
-56.02930344235573
 31
0.0000000000000000
  0
LINE
  5
F8
100
AcDbEntity
  8
A7
  6
CONTINUOUS
 62
7
100
AcDbLine
 10
154.2500000000001
 20
-44.25000000000001
 30
0.0000000000000000
 11
151.7500000000001
 21
-43.00000000000013
 31
0.0000000000000000
  0
LINE
  5
F9
100
AcDbEntity
  8
A7
  6
CONTINUOUS
 62
7
100
AcDbLine
 10
151.7500000000000
 20
-56.99999999999998
 30
0.0000000000000000
 11
154.2500000000001
 21
-55.75000000000007
 31
0.0000000000000000
  0
LINE
  5
FA
100
AcDbEntity
  8
A7
  6
CONTINUOUS
 62
7
100
AcDbLine
 10
151.7500000000000
 20
-43.00000000000016
 30
0.0000000000000000
 11
151.7500000000000
 21
-56.99999999999999
 31
0.0000000000000000
  0
LINE
  5
FB
100
AcDbEntity
  8
A7
  6
CONTINUOUS
 62
7
100
AcDbLine
 10
154.2500000000000
 20
-44.25000000000005
 30
0.0000000000000000
 11
154.2500000000000
 21
-55.75000000000005
 31
0.0000000000000000
  0
LINE
  5
FC
100
AcDbEntity
  8
A7
  6
CONTINUOUS
 62
7
100
AcDbLine
 10
151.6000000000001
 20
-40.00000000000005
 30
0.0000000000000000
 11
148.3999999999999
 21
-40.00000000000005
 31
0.0000000000000000
  0
LINE
  5
FD
100
AcDbEntity
  8
A7
  6
CONTINUOUS
 62
7
100
AcDbLine
 10
148.3999999999999
 20
-59.99999999999999
 30
0.0000000000000000
 11
151.6000000000001
 21
-59.99999999999999
 31
0.0000000000000000
  0
LINE
  5
FE
100
AcDbEntity
  8
A7
  6
CONTINUOUS
 62
7
100
AcDbLine
 10
151.6000000000001
 20
-59.99999999999999
 30
0.0000000000000000
 11
151.6000000000001
 21
-40.00000000000005
 31
0.0000000000000000
  0
LINE
  5
FF
100
AcDbEntity
  8
A7
  6
CONTINUOUS
 62
7
100
AcDbLine
 10
148.3999999999999
 20
-40.00000000000005
 30
0.0000000000000000
 11
148.3999999999999
 21
-59.99999999999999
 31
0.0000000000000000
  0
ARC
  5
100
100
AcDbEntity
  8
A8
  6
CONTINUOUS
 62
7
100
AcDbCircle
 10
153.4000000000001
 20
502.5000000000000
 30
0.0000000000000000
 40
4.500000000000000
100
AcDbArc
 50
269.9999999999998
 51
343.2085528854120
  0
ARC
  5
101
100
AcDbEntity
  8
A8
  6
CONTINUOUS
 62
7
100
AcDbCircle
 10
153.4000000000001
 20
69.50000000000000
 30
0.0000000000000000
 40
4.500000000000000
100
AcDbArc
 50
16.79144711458981
 51
90.00000000000000
  0
ARC
  5
102
100
AcDbEntity
  8
A8
  6
CONTINUOUS
 62
7
100
AcDbCircle
 10
153.2000000000000
 20
69.29999999999995
 30
0.0000000000000000
 40
1.500000000000000
100
AcDbArc
 50
0.0000000000000000
 51
90.00000000000031
  0
ARC
  5
103
100
AcDbEntity
  8
A8
  6
CONTINUOUS
 62
7
100
AcDbCircle
 10
151.7000000000000
 20
68.53118354023320
 30
0.0000000000000000
 40
2.999999999999998
100
AcDbArc
 50
305.8835188230854
 51
360.0000000000000
  0
ARC
  5
104
100
AcDbEntity
  8
A8
  6
CONTINUOUS
 62
7
100
AcDbCircle
 10
153.4000000000001
 20
59.88705331185076
 30
0.0000000000000000
 40
5.000000000000000
100
AcDbArc
 50
125.8835188230844
 51
180.0000000000000
  0
ARC
  5
105
100
AcDbEntity
  8
A8
  6
CONTINUOUS
 62
7
100
AcDbCircle
 10
153.6000000000001
 20
59.78489201170771
 30
0.0000000000000000
 40
2.000000000000000
100
AcDbArc
 50
125.8835188230841
 51
180.0000000000000
  0
ARC
  5
106
100
AcDbEntity
  8
A8
  6
CONTINUOUS
 62
7
100
AcDbCircle
 10
151.9000000000001
 20
68.42902224009003
 30
0.0000000000000000
 40
6.000000000000000
100
AcDbArc
 50
305.8835188230843
 51
360.0000000000000
  0
ARC
  5
107
100
AcDbEntity
  8
A8
  6
CONTINUOUS
 62
7
100
AcDbCircle
 10
153.4000000000001
 20
69.50000000000000
 30
0.0000000000000000
 40
4.500000000000000
100
AcDbArc
 50
0.0000000000000000
 51
16.79144711458981
  0
ARC
  5
108
100
AcDbEntity
  8
A8
  6
CONTINUOUS
 62
7
100
AcDbCircle
 10
151.9000000000001
 20
503.5709777599100
 30
0.0000000000000000
 40
6.000000000000000
100
AcDbArc
 50
0.0000000000000000
 51
54.11648117691593
  0
ARC
  5
109
100
AcDbEntity
  8
A8
  6
CONTINUOUS
 62
7
100
AcDbCircle
 10
153.6000000000001
 20
512.2151079882924
 30
0.0000000000000000
 40
1.999999999999999
100
AcDbArc
 50
180.0000000000000
 51
234.1164811769146
  0
ARC
  5
10A
100
AcDbEntity
  8
A8
  6
CONTINUOUS
 62
7
100
AcDbCircle
 10
153.4000000000001
 20
512.1129466881493
 30
0.0000000000000000
 40
5.000000000000000
100
AcDbArc
 50
180.0000000000000
 51
234.1164811769168
  0
ARC
  5
10B
100
AcDbEntity
  8
A8
  6
CONTINUOUS
 62
7
100
AcDbCircle
 10
151.7000000000000
 20
503.4688164597668
 30
0.0000000000000000
 40
2.999999999999999
100
AcDbArc
 50
0.0000000000000000
 51
54.11648117691405
  0
ARC
  5
10C
100
AcDbEntity
  8
A8
  6
CONTINUOUS
 62
7
100
AcDbCircle
 10
153.2000000000000
 20
502.7000000000001
 30
0.0000000000000000
 40
1.500000000000000
100
AcDbArc
 50
269.9999999999997
 51
360.0000000000000
  0
ARC
  5
10D
100
AcDbEntity
  8
A8
  6
CONTINUOUS
 62
7
100
AcDbCircle
 10
153.4000000000001
 20
502.5000000000000
 30
0.0000000000000000
 40
4.500000000000000
100
AcDbArc
 50
343.2085528854120
 51
360.0000000000000
  0
ARC
  5
10E
100
AcDbEntity
  8
A8
  6
CONTINUOUS
 62
7
100
AcDbCircle
 10
139.2000000000000
 20
231.4999999999999
 30
0.0000000000000000
 40
0.9000000000000000
100
AcDbArc
 50
270.0000000000000
 51
450.0000000000000
  0
ARC
  5
10F
100
AcDbEntity
  8
A8
  6
CONTINUOUS
 62
7
100
AcDbCircle
 10
160.8000000000002
 20
231.4999999999999
 30
0.0000000000000000
 40
0.9000000000000000
100
AcDbArc
 50
90.00000000000000
 51
270.0000000000000
  0
ARC
  5
110
100
AcDbEntity
  8
A8
  6
CONTINUOUS
 62
7
100
AcDbCircle
 10
139.2000000000000
 20
244.9999999999999
 30
0.0000000000000000
 40
0.9000000000000000
100
AcDbArc
 50
270.0000000000000
 51
450.0000000000000
  0
ARC
  5
111
100
AcDbEntity
  8
A8
  6
CONTINUOUS
 62
7
100
AcDbCircle
 10
160.8000000000002
 20
244.9999999999999
 30
0.0000000000000000
 40
0.9000000000000000
100
AcDbArc
 50
90.00000000000000
 51
270.0000000000000
  0
LINE
  5
112
100
AcDbEntity
  8
A8
  6
CONTINUOUS
 62
7
100
AcDbLine
 10
145.0000000000001
 20
224.5000000000000
 30
0.0000000000000000
 11
145.0000000000001
 21
74.00000000000001
 31
0.0000000000000000
  0
LINE
  5
113
100
AcDbEntity
  8
A8
  6
CONTINUOUS
 62
7
100
AcDbLine
 10
155.0000000000001
 20
74.00000000000013
 30
0.0000000000000000
 11
155.0000000000001
 21
224.5000000000000
 31
0.0000000000000000
  0
LINE
  5
114
100
AcDbEntity
  8
A8
  6
CONTINUOUS
 62
7
100
AcDbLine
 10
151.6000000000001
 20
43.95000000000007
 30
0.0000000000000000
 11
151.7500000000001
 21
43.95000000000007
 31
0.0000000000000000
  0
LINE
  5
115
100
AcDbEntity
  8
A8
  6
CONTINUOUS
 62
7
100
AcDbLine
 10
151.7500000000001
 20
56.04999999999998
 30
0.0000000000000000
 11
151.6000000000001
 21
56.04999999999998
 31
0.0000000000000000
  0
LINE
  5
116
100
AcDbEntity
  8
A8
  6
CONTINUOUS
 62
7
100
AcDbLine
 10
148.2500000000001
 20
43.95000000000007
 30
0.0000000000000000
 11
148.4000000000000
 21
43.95000000000007
 31
0.0000000000000000
  0
LINE
  5
117
100
AcDbEntity
  8
A8
  6
CONTINUOUS
 62
7
100
AcDbLine
 10
148.4000000000000
 20
56.04999999999998
 30
0.0000000000000000
 11
148.2500000000001
 21
56.04999999999998
 31
0.0000000000000000
  0
LINE
  5
118
100
AcDbEntity
  8
A8
  6
CONTINUOUS
 62
7
100
AcDbLine
 10
151.6000000000001
 20
515.9499999999999
 30
0.0000000000000000
 11
151.7500000000001
 21
515.9499999999999
 31
0.0000000000000000
  0
LINE
  5
119
100
AcDbEntity
  8
A8
  6
CONTINUOUS
 62
7
100
AcDbLine
 10
151.7500000000001
 20
528.0500000000003
 30
0.0000000000000000
 11
151.6000000000001
 21
528.0500000000003
 31
0.0000000000000000
  0
LINE
  5
11A
100
AcDbEntity
  8
A8
  6
CONTINUOUS
 62
7
100
AcDbLine
 10
148.2500000000001
 20
515.9499999999999
 30
0.0000000000000000
 11
148.4000000000001
 21
515.9499999999999
 31
0.0000000000000000
  0
LINE
  5
11B
100
AcDbEntity
  8
A8
  6
CONTINUOUS
 62
7
100
AcDbLine
 10
148.4000000000001
 20
528.0500000000003
 30
0.0000000000000000
 11
148.2500000000001
 21
528.0500000000003
 31
0.0000000000000000
  0
LINE
  5
11C
100
AcDbEntity
  8
A8
  6
CONTINUOUS
 62
7
100
AcDbLine
 10
148.2500000000001
 20
56.40788086392450
 30
0.0000000000000000
 11
148.2500000000001
 21
43.59211913607547
 31
0.0000000000000000
  0
LINE
  5
11D
100
AcDbEntity
  8
A8
  6
CONTINUOUS
 62
7
100
AcDbLine
 10
148.2500000000001
 20
49.50000000000002
 30
0.0000000000000000
 11
145.7500000000001
 21
49.50000000000002
 31
0.0000000000000000
  0
LINE
  5
11E
100
AcDbEntity
  8
A8
  6
CONTINUOUS
 62
7
100
AcDbLine
 10
145.7500000000001
 20
49.50000000000002
 30
0.0000000000000000
 11
145.7500000000001
 21
43.97069655764439
 31
0.0000000000000000
  0
LINE
  5
11F
100
AcDbEntity
  8
A8
  6
CONTINUOUS
 62
7
100
AcDbLine
 10
148.2500000000001
 20
43.59211913607535
 30
0.0000000000000000
 11
145.7500000000001
 21
43.97069655764442
 31
0.0000000000000000
  0
LINE
  5
120
100
AcDbEntity
  8
A8
  6
CONTINUOUS
 62
7
100
AcDbLine
 10
145.7500000000002
 20
56.02930344235561
 30
0.0000000000000000
 11
148.2500000000000
 21
56.40788086392448
 31
0.0000000000000000
  0
LINE
  5
121
100
AcDbEntity
  8
A8
  6
CONTINUOUS
 62
7
100
AcDbLine
 10
145.7500000000001
 20
56.02930344235565
 30
0.0000000000000000
 11
145.7500000000001
 21
50.50000000000002
 31
0.0000000000000000
  0
LINE
  5
122
100
AcDbEntity
  8
A8
  6
CONTINUOUS
 62
7
100
AcDbLine
 10
148.2500000000001
 20
50.50000000000002
 30
0.0000000000000000
 11
145.7500000000001
 21
50.50000000000002
 31
0.0000000000000000
  0
LINE
  5
123
100
AcDbEntity
  8
A8
  6
CONTINUOUS
 62
7
100
AcDbLine
 10
148.2500000000001
 20
515.5921191360756
 30
0.0000000000000000
 11
145.7500000000001
 21
515.9706965576445
 31
0.0000000000000000
  0
LINE
  5
124
100
AcDbEntity
  8
A8
  6
CONTINUOUS
 62
7
100
AcDbLine
 10
148.2500000000001
 20
528.4078808639247
 30
0.0000000000000000
 11
148.2500000000001
 21
515.5921191360754
 31
0.0000000000000000
  0
LINE
  5
125
100
AcDbEntity
  8
A8
  6
CONTINUOUS
 62
7
100
AcDbLine
 10
148.2500000000001
 20
521.5000000000000
 30
0.0000000000000000
 11
145.7500000000001
 21
521.5000000000000
 31
0.0000000000000000
  0
LINE
  5
126
100
AcDbEntity
  8
A8
  6
CONTINUOUS
 62
7
100
AcDbLine
 10
145.7500000000001
 20
521.5000000000000
 30
0.0000000000000000
 11
145.7500000000001
 21
515.9706965576445
 31
0.0000000000000000
  0
LINE
  5
127
100
AcDbEntity
  8
A8
  6
CONTINUOUS
 62
7
100
AcDbLine
 10
145.7500000000002
 20
528.0293034423557
 30
0.0000000000000000
 11
148.2500000000001
 21
528.4078808639247
 31
0.0000000000000000
  0
LINE
  5
128
100
AcDbEntity
  8
A8
  6
CONTINUOUS
 62
7
100
AcDbLine
 10
145.7500000000001
 20
528.0293034423557
 30
0.0000000000000000
 11
145.7500000000001
 21
522.5000000000000
 31
0.0000000000000000
  0
LINE
  5
129
100
AcDbEntity
  8
A8
  6
CONTINUOUS
 62
7
100
AcDbLine
 10
148.2500000000001
 20
522.5000000000000
 30
0.0000000000000000
 11
145.7500000000001
 21
522.5000000000000
 31
0.0000000000000000
  0
LINE
  5
12A
100
AcDbEntity
  8
A8
  6
CONTINUOUS
 62
7
100
AcDbLine
 10
154.2500000000002
 20
55.75000000000016
 30
0.0000000000000000
 11
151.7500000000002
 21
57.00000000000006
 31
0.0000000000000000
  0
LINE
  5
12B
100
AcDbEntity
  8
A8
  6
CONTINUOUS
 62
7
100
AcDbLine
 10
151.7500000000001
 20
43.00000000000018
 30
0.0000000000000000
 11
154.2500000000001
 21
44.25000000000006
 31
0.0000000000000000
  0
LINE
  5
12C
100
AcDbEntity
  8
A8
  6
CONTINUOUS
 62
7
100
AcDbLine
 10
151.7500000000001
 20
56.99999999999991
 30
0.0000000000000000
 11
151.7500000000001
 21
43.00000000000014
 31
0.0000000000000000
  0
LINE
  5
12D
100
AcDbEntity
  8
A8
  6
CONTINUOUS
 62
7
100
AcDbLine
 10
154.2500000000001
 20
55.75000000000002
 30
0.0000000000000000
 11
154.2500000000001
 21
44.25000000000002
 31
0.0000000000000000
  0
LINE
  5
12E
100
AcDbEntity
  8
A8
  6
CONTINUOUS
 62
7
100
AcDbLine
 10
154.2500000000003
 20
527.7500000000003
 30
0.0000000000000000
 11
151.7500000000001
 21
529.0000000000000
 31
0.0000000000000000
  0
LINE
  5
12F
100
AcDbEntity
  8
A8
  6
CONTINUOUS
 62
7
100
AcDbLine
 10
151.7500000000000
 20
514.9999999999998
 30
0.0000000000000000
 11
154.2500000000003
 21
516.2499999999998
 31
0.0000000000000000
  0
LINE
  5
130
100
AcDbEntity
  8
A8
  6
CONTINUOUS
 62
7
100
AcDbLine
 10
154.2500000000003
 20
527.7500000000003
 30
0.0000000000000000
 11
154.2500000000003
 21
516.2499999999999
 31
0.0000000000000000
  0
LINE
  5
131
100
AcDbEntity
  8
A8
  6
CONTINUOUS
 62
7
100
AcDbLine
 10
151.7500000000001
 20
529.0000000000000
 30
0.0000000000000000
 11
151.7500000000001
 21
515.0000000000000
 31
0.0000000000000000
  0
LINE
  5
132
100
AcDbEntity
  8
A8
  6
CONTINUOUS
 62
7
100
AcDbLine
 10
154.9518992685336
 20
498.0000000000000
 30
0.0000000000000000
 11
142.4000000000001
 21
498.0000000000000
 31
0.0000000000000000
  0
LINE
  5
133
100
AcDbEntity
  8
A8
  6
CONTINUOUS
 62
7
100
AcDbLine
 10
142.4000000000001
 20
501.2000000000002
 30
0.0000000000000000
 11
153.2000000000000
 21
501.2000000000002
 31
0.0000000000000000
  0
LINE
  5
134
100
AcDbEntity
  8
A8
  6
CONTINUOUS
 62
7
100
AcDbLine
 10
142.4000000000001
 20
498.0000000000000
 30
0.0000000000000000
 11
142.4000000000001
 21
501.2000000000002
 31
0.0000000000000000
  0
LINE
  5
135
100
AcDbEntity
  8
A8
  6
CONTINUOUS
 62
7
100
AcDbLine
 10
153.2000000000000
 20
70.79999999999997
 30
0.0000000000000000
 11
142.4000000000001
 21
70.79999999999997
 31
0.0000000000000000
  0
LINE
  5
136
100
AcDbEntity
  8
A8
  6
CONTINUOUS
 62
7
100
AcDbLine
 10
142.4000000000001
 20
74.00000000000003
 30
0.0000000000000000
 11
155.0000000000003
 21
74.00000000000003
 31
0.0000000000000000
  0
LINE
  5
137
100
AcDbEntity
  8
A8
  6
CONTINUOUS
 62
7
100
AcDbLine
 10
142.4000000000001
 20
70.79999999999997
 30
0.0000000000000000
 11
142.4000000000001
 21
74.00000000000001
 31
0.0000000000000000
  0
LINE
  5
138
100
AcDbEntity
  8
A8
  6
CONTINUOUS
 62
7
100
AcDbLine
 10
140.1000000000000
 20
226.1999999999999
 30
0.0000000000000000
 11
140.1000000000000
 21
224.5000000000000
 31
0.0000000000000000
  0
LINE
  5
139
100
AcDbEntity
  8
A8
  6
CONTINUOUS
 62
7
100
AcDbLine
 10
159.9000000000001
 20
224.5000000000000
 30
0.0000000000000000
 11
159.9000000000001
 21
226.1999999999999
 31
0.0000000000000000
  0
LINE
  5
13A
100
AcDbEntity
  8
A8
  6
CONTINUOUS
 62
7
100
AcDbLine
 10
159.9000000000001
 20
224.5000000000000
 30
0.0000000000000000
 11
140.1000000000000
 21
224.5000000000000
 31
0.0000000000000000
  0
LINE
  5
13B
100
AcDbEntity
  8
A8
  6
CONTINUOUS
 62
7
100
AcDbLine
 10
154.7000000000000
 20
69.29999999999997
 30
0.0000000000000000
 11
154.7000000000000
 21
68.53118354023322
 31
0.0000000000000000
  0
LINE
  5
13C
100
AcDbEntity
  8
A8
  6
CONTINUOUS
 62
7
100
AcDbLine
 10
153.4584179700579
 20
66.10055270800508
 30
0.0000000000000000
 11
150.4693033832373
 21
63.93810469889776
 31
0.0000000000000000
  0
LINE
  5
13D
100
AcDbEntity
  8
A8
  6
CONTINUOUS
 62
7
100
AcDbLine
 10
152.4277213532950
 20
61.40531256652652
 30
0.0000000000000000
 11
155.4168359401153
 21
63.56776057563368
 31
0.0000000000000000
  0
LINE
  5
13E
100
AcDbEntity
  8
A8
  6
CONTINUOUS
 62
7
100
AcDbLine
 10
157.9000000000000
 20
68.42902224009005
 30
0.0000000000000000
 11
157.9000000000000
 21
69.50000000000001
 31
0.0000000000000000
  0
LINE
  5
13F
100
AcDbEntity
  8
A8
  6
CONTINUOUS
 62
7
100
AcDbLine
 10
151.6000000000001
 20
532.0000000000001
 30
0.0000000000000000
 11
151.6000000000001
 21
512.2151079882924
 31
0.0000000000000000
  0
LINE
  5
140
100
AcDbEntity
  8
A8
  6
CONTINUOUS
 62
7
100
AcDbLine
 10
148.4000000000001
 20
512.1129466881492
 30
0.0000000000000000
 11
148.4000000000000
 21
532.0000000000000
 31
0.0000000000000000
  0
LINE
  5
141
100
AcDbEntity
  8
A8
  6
CONTINUOUS
 62
7
100
AcDbLine
 10
157.9000000000001
 20
503.5709777599101
 30
0.0000000000000000
 11
157.9000000000001
 21
502.5000000000000
 31
0.0000000000000000
  0
LINE
  5
142
100
AcDbEntity
  8
A8
  6
CONTINUOUS
 62
7
100
AcDbLine
 10
152.4277213532951
 20
510.5946874334738
 30
0.0000000000000000
 11
155.4168359401155
 21
508.4322394243665
 31
0.0000000000000000
  0
LINE
  5
143
100
AcDbEntity
  8
A8
  6
CONTINUOUS
 62
7
100
AcDbLine
 10
153.4584179700578
 20
505.8994472919949
 30
0.0000000000000000
 11
150.4693033832374
 21
508.0618953011021
 31
0.0000000000000000
  0
LINE
  5
144
100
AcDbEntity
  8
A8
  6
CONTINUOUS
 62
7
100
AcDbLine
 10
154.7000000000001
 20
502.7000000000002
 30
0.0000000000000000
 11
154.7000000000001
 21
503.4688164597668
 31
0.0000000000000000
  0
LINE
  5
145
100
AcDbEntity
  8
A8
  6
CONTINUOUS
 62
7
100
AcDbLine
 10
148.4000000000000
 20
59.88705331185076
 30
0.0000000000000000
 11
148.4000000000000
 21
40.00000000000003
 31
0.0000000000000000
  0
LINE
  5
146
100
AcDbEntity
  8
A8
  6
CONTINUOUS
 62
7
100
AcDbLine
 10
148.4000000000000
 20
40.00000000000002
 30
0.0000000000000000
 11
151.6000000000001
 21
40.00000000000002
 31
0.0000000000000000
  0
LINE
  5
147
100
AcDbEntity
  8
A8
  6
CONTINUOUS
 62
7
100
AcDbLine
 10
151.6000000000001
 20
40.00000000000003
 30
0.0000000000000000
 11
151.6000000000001
 21
59.78489201170771
 31
0.0000000000000000
  0
LINE
  5
148
100
AcDbEntity
  8
A8
  6
CONTINUOUS
 62
7
100
AcDbLine
 10
151.6000000000001
 20
532.0000000000000
 30
0.0000000000000000
 11
148.4000000000001
 21
532.0000000000000
 31
0.0000000000000000
  0
LINE
  5
149
100
AcDbEntity
  8
A8
  6
CONTINUOUS
 62
7
100
AcDbLine
 10
138.9999999999999
 20
230.6000000000000
 30
0.0000000000000000
 11
138.9999999999999
 21
226.1999999999999
 31
0.0000000000000000
  0
LINE
  5
14A
100
AcDbEntity
  8
A8
  6
CONTINUOUS
 62
7
100
AcDbLine
 10
161.0000000000002
 20
226.1999999999999
 30
0.0000000000000000
 11
161.0000000000002
 21
230.6000000000000
 31
0.0000000000000000
  0
LINE
  5
14B
100
AcDbEntity
  8
A8
  6
CONTINUOUS
 62
7
100
AcDbLine
 10
161.0000000000002
 20
226.1999999999999
 30
0.0000000000000000
 11
138.9999999999999
 21
226.1999999999999
 31
0.0000000000000000
  0
LINE
  5
14C
100
AcDbEntity
  8
A8
  6
CONTINUOUS
 62
7
100
AcDbLine
 10
161.0000000000002
 20
230.6000000000000
 30
0.0000000000000000
 11
138.9999999999999
 21
230.6000000000000
 31
0.0000000000000000
  0
LINE
  5
14D
100
AcDbEntity
  8
A8
  6
CONTINUOUS
 62
7
100
AcDbLine
 10
139.0000000000000
 20
244.1000000000000
 30
0.0000000000000000
 11
139.0000000000000
 21
232.4000000000000
 31
0.0000000000000000
  0
LINE
  5
14E
100
AcDbEntity
  8
A8
  6
CONTINUOUS
 62
7
100
AcDbLine
 10
161.0000000000002
 20
232.4000000000000
 30
0.0000000000000000
 11
161.0000000000002
 21
244.1000000000000
 31
0.0000000000000000
  0
LINE
  5
14F
100
AcDbEntity
  8
A8
  6
CONTINUOUS
 62
7
100
AcDbLine
 10
161.0000000000002
 20
232.4000000000000
 30
0.0000000000000000
 11
139.0000000000000
 21
232.4000000000000
 31
0.0000000000000000
  0
LINE
  5
150
100
AcDbEntity
  8
A8
  6
CONTINUOUS
 62
7
100
AcDbLine
 10
161.0000000000002
 20
244.1000000000000
 30
0.0000000000000000
 11
139.0000000000000
 21
244.1000000000000
 31
0.0000000000000000
  0
LINE
  5
151
100
AcDbEntity
  8
A8
  6
CONTINUOUS
 62
7
100
AcDbLine
 10
139.0000000000000
 20
492.8944483018870
 30
0.0000000000000000
 11
139.0000000000000
 21
245.8999999999999
 31
0.0000000000000000
  0
LINE
  5
152
100
AcDbEntity
  8
A8
  6
CONTINUOUS
 62
7
100
AcDbLine
 10
161.0000000000001
 20
245.8999999999999
 30
0.0000000000000000
 11
161.0000000000001
 21
492.8944483018870
 31
0.0000000000000000
  0
LINE
  5
153
100
AcDbEntity
  8
A8
  6
CONTINUOUS
 62
7
100
AcDbLine
 10
161.0000000000001
 20
245.8999999999999
 30
0.0000000000000000
 11
139.0000000000001
 21
245.8999999999999
 31
0.0000000000000000
  0
LINE
  5
154
100
AcDbEntity
  8
A8
  6
CONTINUOUS
 62
7
100
AcDbLine
 10
145.0481007314668
 20
497.9999999999999
 30
0.0000000000000000
 11
138.9263269807086
 21
494.1000000000000
 31
0.0000000000000000
  0
LINE
  5
155
100
AcDbEntity
  8
A8
  6
CONTINUOUS
 62
7
100
AcDbLine
 10
161.0736730192916
 20
494.1000000000001
 30
0.0000000000000000
 11
154.9518992685335
 21
498.0000000000000
 31
0.0000000000000000
  0
LINE
  5
156
100
AcDbEntity
  8
A8
  6
CONTINUOUS
 62
7
100
AcDbLine
 10
138.9263269807086
 20
494.1000000000002
 30
0.0000000000000000
 11
138.7500000000000
 21
493.1000000000003
 31
0.0000000000000000
  0
LINE
  5
157
100
AcDbEntity
  8
A8
  6
CONTINUOUS
 62
7
100
AcDbLine
 10
161.2500000000002
 20
493.1000000000003
 30
0.0000000000000000
 11
161.0736730192916
 21
494.1000000000002
 31
0.0000000000000000
  0
LINE
  5
158
100
AcDbEntity
  8
A8
  6
CONTINUOUS
 62
7
100
AcDbLine
 10
161.0736730192916
 20
494.1000000000001
 30
0.0000000000000000
 11
138.9263269807086
 21
494.1000000000001
 31
0.0000000000000000
  0
LINE
  5
159
100
AcDbEntity
  8
A8
  6
CONTINUOUS
 62
7
100
AcDbLine
 10
161.0000000000003
 20
492.8944483018870
 30
0.0000000000000000
 11
161.2500000000003
 21
493.1000000000003
 31
0.0000000000000000
  0
LINE
  5
15A
100
AcDbEntity
  8
A8
  6
CONTINUOUS
 62
7
100
AcDbLine
 10
138.7500000000000
 20
493.1000000000001
 30
0.0000000000000000
 11
138.9999999999999
 21
492.8944483018870
 31
0.0000000000000000
  0
LINE
  5
15B
100
AcDbEntity
  8
A8
  6
CONTINUOUS
 62
7
100
AcDbLine
 10
161.0000000000002
 20
492.8944483018870
 30
0.0000000000000000
 11
139.0000000000000
 21
492.8944483018870
 31
0.0000000000000000
  0
LINE
  5
15C
100
AcDbEntity
  8
A8
  6
CONTINUOUS
 62
7
100
AcDbLine
 10
161.2500000000002
 20
493.1000000000003
 30
0.0000000000000000
 11
138.7500000000000
 21
493.1000000000003
 31
0.0000000000000000
  0
CIRCLE
  5
15D
100
AcDbEntity
  8
A9
  6
CONTINUOUS
 62
7
100
AcDbCircle
 10
250.0000000000000
 20
50.00000000000000
 30
0.0000000000000000
 40
4.250000000000004
  0
CIRCLE
  5
15E
100
AcDbEntity
  8
A9
  6
CONTINUOUS
 62
7
100
AcDbCircle
 10
250.0000000000000
 20
522.0000000000000
 30
0.0000000000000000
 40
4.250000000000087
  0
CIRCLE
  5
15F
100
AcDbEntity
  8
A9
  6
CONTINUOUS
 62
7
100
AcDbCircle
 10
250.0000000000000
 20
50.00000000000000
 30
0.0000000000000000
 40
6.999999999999909
  0
CIRCLE
  5
160
100
AcDbEntity
  8
A9
  6
CONTINUOUS
 62
7
100
AcDbCircle
 10
250.0000000000000
 20
50.00000000000000
 30
0.0000000000000000
 40
5.750000000000005
  0
CIRCLE
  5
161
100
AcDbEntity
  8
A9
  6
CONTINUOUS
 62
7
100
AcDbCircle
 10
250.0000000000000
 20
50.00000000000000
 30
0.0000000000000000
 40
4.750000000000046
  0
CIRCLE
  5
162
100
AcDbEntity
  8
A9
  6
CONTINUOUS
 62
7
100
AcDbCircle
 10
250.0000000000000
 20
522.0000000000000
 30
0.0000000000000000
 40
7.000000000000006
  0
CIRCLE
  5
163
100
AcDbEntity
  8
A9
  6
CONTINUOUS
 62
7
100
AcDbCircle
 10
250.0000000000000
 20
522.0000000000000
 30
0.0000000000000000
 40
4.750000000000254
  0
CIRCLE
  5
164
100
AcDbEntity
  8
A9
  6
CONTINUOUS
 62
7
100
AcDbCircle
 10
250.0000000000000
 20
522.0000000000000
 30
0.0000000000000000
 40
5.750000000000199
  0
ARC
  5
165
100
AcDbEntity
  8
A9
  6
CONTINUOUS
 62
7
100
AcDbCircle
 10
250.0000000000000
 20
522.0000000000000
 30
0.0000000000000000
 40
10.00000000000000
100
AcDbArc
 50
354.3756741517878
 51
545.6243258482122
  0
ARC
  5
166
100
AcDbEntity
  8
A9
  6
CONTINUOUS
 62
7
100
AcDbCircle
 10
250.0000000000000
 20
50.00000000000000
 30
0.0000000000000000
 40
10.00000000000001
100
AcDbArc
 50
174.3756741517865
 51
365.6243258482135
  0
ARC
  5
167
100
AcDbEntity
  8
A9
  6
CONTINUOUS
 62
7
100
AcDbCircle
 10
260.8000000000001
 20
231.4999999999998
 30
0.0000000000000000
 40
0.9000000000000000
100
AcDbArc
 50
90.00000000000000
 51
270.0000000000000
  0
ARC
  5
168
100
AcDbEntity
  8
A9
  6
CONTINUOUS
 62
7
100
AcDbCircle
 10
239.1999999999999
 20
231.4999999999998
 30
0.0000000000000000
 40
0.9000000000000000
100
AcDbArc
 50
270.0000000000000
 51
450.0000000000000
  0
ARC
  5
169
100
AcDbEntity
  8
A9
  6
CONTINUOUS
 62
7
100
AcDbCircle
 10
260.8000000000001
 20
244.9999999999998
 30
0.0000000000000000
 40
0.9000000000000000
100
AcDbArc
 50
90.00000000000000
 51
270.0000000000000
  0
ARC
  5
16A
100
AcDbEntity
  8
A9
  6
CONTINUOUS
 62
7
100
AcDbCircle
 10
239.1999999999999
 20
244.9999999999998
 30
0.0000000000000000
 40
0.9000000000000000
100
AcDbArc
 50
270.0000000000000
 51
450.0000000000000
  0
LINE
  5
16B
100
AcDbEntity
  8
A9
  6
CONTINUOUS
 62
7
100
AcDbLine
 10
240.9152374188122
 20
512.2151079882924
 30
0.0000000000000000
 11
240.0481412011052
 21
521.0199456918828
 31
0.0000000000000000
  0
LINE
  5
16C
100
AcDbEntity
  8
A9
  6
CONTINUOUS
 62
7
100
AcDbLine
 10
259.9518587988948
 20
521.0199456918824
 30
0.0000000000000000
 11
259.0847625811877
 21
512.2151079882922
 31
0.0000000000000000
  0
LINE
  5
16D
100
AcDbEntity
  8
A9
  6
CONTINUOUS
 62
7
100
AcDbLine
 10
259.9518587988947
 20
50.98005430811766
 30
0.0000000000000000
 11
259.0847625811876
 21
59.78489201170763
 31
0.0000000000000000
  0
LINE
  5
16E
100
AcDbEntity
  8
A9
  6
CONTINUOUS
 62
7
100
AcDbLine
 10
240.9152374188124
 20
59.78489201170769
 30
0.0000000000000000
 11
240.0481412011052
 21
50.98005430811750
 31
0.0000000000000000
  0
LINE
  5
16F
100
AcDbEntity
  8
A9
  6
CONTINUOUS
 62
7
100
AcDbLine
 10
240.9152374188121
 20
512.2151079882923
 30
0.0000000000000000
 11
241.0748156622141
 21
510.5946874334736
 31
0.0000000000000000
  0
LINE
  5
170
100
AcDbEntity
  8
A9
  6
CONTINUOUS
 62
7
100
AcDbLine
 10
258.9251843377858
 20
510.5946874334737
 30
0.0000000000000000
 11
259.0847625811878
 21
512.2151079882923
 31
0.0000000000000000
  0
LINE
  5
171
100
AcDbEntity
  8
A9
  6
CONTINUOUS
 62
7
100
AcDbLine
 10
259.0847625811876
 20
59.78489201170780
 30
0.0000000000000000
 11
258.9251843377856
 21
61.40531256652642
 31
0.0000000000000000
  0
LINE
  5
172
100
AcDbEntity
  8
A9
  6
CONTINUOUS
 62
7
100
AcDbLine
 10
241.0748156622143
 20
61.40531256652643
 30
0.0000000000000000
 11
240.9152374188123
 21
59.78489201170770
 31
0.0000000000000000
  0
LINE
  5
173
100
AcDbEntity
  8
A9
  6
CONTINUOUS
 62
7
100
AcDbLine
 10
255.0000000000000
 20
224.4999999999998
 30
0.0000000000000000
 11
255.0000000000000
 21
73.99999999999989
 31
0.0000000000000000
  0
LINE
  5
174
100
AcDbEntity
  8
A9
  6
CONTINUOUS
 62
7
100
AcDbLine
 10
245.0000000000000
 20
73.99999999999989
 30
0.0000000000000000
 11
245.0000000000000
 21
224.4999999999998
 31
0.0000000000000000
  0
LINE
  5
175
100
AcDbEntity
  8
A9
  6
CONTINUOUS
 62
7
100
AcDbLine
 10
258.9251843377857
 20
61.40531256652646
 30
0.0000000000000000
 11
258.7122274891977
 21
63.56776057563371
 31
0.0000000000000000
  0
LINE
  5
176
100
AcDbEntity
  8
A9
  6
CONTINUOUS
 62
7
100
AcDbLine
 10
241.2877725108021
 20
63.56776057563368
 30
0.0000000000000000
 11
241.0748156622142
 21
61.40531256652642
 31
0.0000000000000000
  0
LINE
  5
177
100
AcDbEntity
  8
A9
  6
CONTINUOUS
 62
7
100
AcDbLine
 10
241.2877725108021
 20
508.4322394243662
 30
0.0000000000000000
 11
241.0748156622141
 21
510.5946874334736
 31
0.0000000000000000
  0
LINE
  5
178
100
AcDbEntity
  8
A9
  6
CONTINUOUS
 62
7
100
AcDbLine
 10
258.9251843377858
 20
510.5946874334738
 30
0.0000000000000000
 11
258.7122274891977
 21
508.4322394243664
 31
0.0000000000000000
  0
LINE
  5
179
100
AcDbEntity
  8
A9
  6
CONTINUOUS
 62
7
100
AcDbLine
 10
241.7665072410081
 20
503.5709777599099
 30
0.0000000000000000
 11
241.2877725108023
 21
508.4322394243663
 31
0.0000000000000000
  0
LINE
  5
17A
100
AcDbEntity
  8
A9
  6
CONTINUOUS
 62
7
100
AcDbLine
 10
258.7122274891977
 20
508.4322394243662
 30
0.0000000000000000
 11
258.2334927589918
 21
503.5709777599099
 31
0.0000000000000000
  0
LINE
  5
17B
100
AcDbEntity
  8
A9
  6
CONTINUOUS
 62
7
100
AcDbLine
 10
258.2334927589915
 20
68.42902224009002
 30
0.0000000000000000
 11
258.7122274891975
 21
63.56776057563360
 31
0.0000000000000000
  0
LINE
  5
17C
100
AcDbEntity
  8
A9
  6
CONTINUOUS
 62
7
100
AcDbLine
 10
241.2877725108022
 20
63.56776057563374
 30
0.0000000000000000
 11
241.7665072410081
 21
68.42902224009006
 31
0.0000000000000000
  0
LINE
  5
17D
100
AcDbEntity
  8
A9
  6
CONTINUOUS
 62
7
100
AcDbLine
 10
241.8719766200163
 20
502.4999999999998
 30
0.0000000000000000
 11
241.7665072410079
 21
503.5709777599098
 31
0.0000000000000000
  0
LINE
  5
17E
100
AcDbEntity
  8
A9
  6
CONTINUOUS
 62
7
100
AcDbLine
 10
258.2334927589918
 20
503.5709777599099
 30
0.0000000000000000
 11
258.1280233799836
 21
502.4999999999999
 31
0.0000000000000000
  0
LINE
  5
17F
100
AcDbEntity
  8
A9
  6
CONTINUOUS
 62
7
100
AcDbLine
 10
258.0000000000000
 20
70.79999999999998
 30
0.0000000000000000
 11
258.1280233799836
 21
69.49999999999991
 31
0.0000000000000000
  0
LINE
  5
180
100
AcDbEntity
  8
A9
  6
CONTINUOUS
 62
7
100
AcDbLine
 10
258.0000000000000
 20
74.00000000000000
 30
0.0000000000000000
 11
258.0000000000000
 21
70.80000000000007
 31
0.0000000000000000
  0
LINE
  5
181
100
AcDbEntity
  8
A9
  6
CONTINUOUS
 62
7
100
AcDbLine
 10
241.8719766200164
 20
69.50000000000007
 30
0.0000000000000000
 11
242.0000000000000
 21
70.80000000000013
 31
0.0000000000000000
  0
LINE
  5
182
100
AcDbEntity
  8
A9
  6
CONTINUOUS
 62
7
100
AcDbLine
 10
242.0000000000000
 20
70.80000000000007
 30
0.0000000000000000
 11
242.0000000000000
 21
74.00000000000000
 31
0.0000000000000000
  0
LINE
  5
183
100
AcDbEntity
  8
A9
  6
CONTINUOUS
 62
7
100
AcDbLine
 10
241.9999999999999
 20
73.99999999999991
 30
0.0000000000000000
 11
257.9999999999999
 21
74.00000000000034
 31
0.0000000000000000
  0
LINE
  5
184
100
AcDbEntity
  8
A9
  6
CONTINUOUS
 62
7
100
AcDbLine
 10
242.0000000000000
 20
501.2000000000000
 30
0.0000000000000000
 11
241.8719766200164
 21
502.5000000000001
 31
0.0000000000000000
  0
LINE
  5
185
100
AcDbEntity
  8
A9
  6
CONTINUOUS
 62
7
100
AcDbLine
 10
258.1280233799836
 20
502.5000000000000
 30
0.0000000000000000
 11
258.0000000000000
 21
501.1999999999999
 31
0.0000000000000000
  0
LINE
  5
186
100
AcDbEntity
  8
A9
  6
CONTINUOUS
 62
7
100
AcDbLine
 10
257.9999999999999
 20
501.2000000000000
 30
0.0000000000000000
 11
257.9999999999999
 21
498.0000000000000
 31
0.0000000000000000
  0
LINE
  5
187
100
AcDbEntity
  8
A9
  6
CONTINUOUS
 62
7
100
AcDbLine
 10
242.0000000000000
 20
498.0000000000000
 30
0.0000000000000000
 11
258.0000000000002
 21
498.0000000000000
 31
0.0000000000000000
  0
LINE
  5
188
100
AcDbEntity
  8
A9
  6
CONTINUOUS
 62
7
100
AcDbLine
 10
242.0000000000000
 20
498.0000000000000
 30
0.0000000000000000
 11
242.0000000000000
 21
501.2000000000000
 31
0.0000000000000000
  0
LINE
  5
189
100
AcDbEntity
  8
A9
  6
CONTINUOUS
 62
7
100
AcDbLine
 10
258.2334927589918
 20
68.42902224009015
 30
0.0000000000000000
 11
258.1280233799836
 21
69.50000000000011
 31
0.0000000000000000
  0
LINE
  5
18A
100
AcDbEntity
  8
A9
  6
CONTINUOUS
 62
7
100
AcDbLine
 10
241.8719766200164
 20
69.50000000000016
 30
0.0000000000000000
 11
241.7665072410082
 21
68.42902224009022
 31
0.0000000000000000
  0
LINE
  5
18B
100
AcDbEntity
  8
A9
  6
CONTINUOUS
 62
7
100
AcDbLine
 10
240.0999999999999
 20
224.4999999999998
 30
0.0000000000000000
 11
259.9000000000000
 21
224.4999999999998
 31
0.0000000000000000
  0
LINE
  5
18C
100
AcDbEntity
  8
A9
  6
CONTINUOUS
 62
7
100
AcDbLine
 10
259.9000000000000
 20
226.1999999999997
 30
0.0000000000000000
 11
259.9000000000000
 21
224.4999999999998
 31
0.0000000000000000
  0
LINE
  5
18D
100
AcDbEntity
  8
A9
  6
CONTINUOUS
 62
7
100
AcDbLine
 10
240.1000000000000
 20
224.4999999999998
 30
0.0000000000000000
 11
240.1000000000000
 21
226.1999999999997
 31
0.0000000000000000
  0
LINE
  5
18E
100
AcDbEntity
  8
A9
  6
CONTINUOUS
 62
7
100
AcDbLine
 10
238.9999999999999
 20
226.1999999999997
 30
0.0000000000000000
 11
261.0000000000001
 21
226.1999999999997
 31
0.0000000000000000
  0
LINE
  5
18F
100
AcDbEntity
  8
A9
  6
CONTINUOUS
 62
7
100
AcDbLine
 10
238.9999999999999
 20
230.5999999999998
 30
0.0000000000000000
 11
261.0000000000001
 21
230.5999999999998
 31
0.0000000000000000
  0
LINE
  5
190
100
AcDbEntity
  8
A9
  6
CONTINUOUS
 62
7
100
AcDbLine
 10
261.0000000000001
 20
230.5999999999998
 30
0.0000000000000000
 11
261.0000000000001
 21
226.1999999999997
 31
0.0000000000000000
  0
LINE
  5
191
100
AcDbEntity
  8
A9
  6
CONTINUOUS
 62
7
100
AcDbLine
 10
238.9999999999999
 20
226.1999999999997
 30
0.0000000000000000
 11
238.9999999999999
 21
230.5999999999998
 31
0.0000000000000000
  0
LINE
  5
192
100
AcDbEntity
  8
A9
  6
CONTINUOUS
 62
7
100
AcDbLine
 10
238.9999999999999
 20
232.3999999999999
 30
0.0000000000000000
 11
261.0000000000001
 21
232.3999999999999
 31
0.0000000000000000
  0
LINE
  5
193
100
AcDbEntity
  8
A9
  6
CONTINUOUS
 62
7
100
AcDbLine
 10
238.9999999999999
 20
244.0999999999999
 30
0.0000000000000000
 11
261.0000000000001
 21
244.0999999999999
 31
0.0000000000000000
  0
LINE
  5
194
100
AcDbEntity
  8
A9
  6
CONTINUOUS
 62
7
100
AcDbLine
 10
261.0000000000001
 20
244.0999999999999
 30
0.0000000000000000
 11
261.0000000000001
 21
232.3999999999999
 31
0.0000000000000000
  0
LINE
  5
195
100
AcDbEntity
  8
A9
  6
CONTINUOUS
 62
7
100
AcDbLine
 10
238.9999999999999
 20
232.3999999999999
 30
0.0000000000000000
 11
238.9999999999999
 21
244.0999999999999
 31
0.0000000000000000
  0
LINE
  5
196
100
AcDbEntity
  8
A9
  6
CONTINUOUS
 62
7
100
AcDbLine
 10
239.0000000000000
 20
245.8999999999999
 30
0.0000000000000000
 11
261.0000000000000
 21
245.8999999999999
 31
0.0000000000000000
  0
LINE
  5
197
100
AcDbEntity
  8
A9
  6
CONTINUOUS
 62
7
100
AcDbLine
 10
261.0000000000001
 20
492.8944483018869
 30
0.0000000000000000
 11
261.0000000000001
 21
245.8999999999999
 31
0.0000000000000000
  0
LINE
  5
198
100
AcDbEntity
  8
A9
  6
CONTINUOUS
 62
7
100
AcDbLine
 10
238.9999999999999
 20
245.8999999999999
 30
0.0000000000000000
 11
238.9999999999999
 21
492.8944483018869
 31
0.0000000000000000
  0
LINE
  5
199
100
AcDbEntity
  8
A9
  6
CONTINUOUS
 62
7
100
AcDbLine
 10
254.9518992685333
 20
498.0000000000001
 30
0.0000000000000000
 11
261.0736730192915
 21
494.1000000000000
 31
0.0000000000000000
  0
LINE
  5
19A
100
AcDbEntity
  8
A9
  6
CONTINUOUS
 62
7
100
AcDbLine
 10
238.9263269807086
 20
494.0999999999999
 30
0.0000000000000000
 11
245.0481007314667
 21
497.9999999999999
 31
0.0000000000000000
  0
LINE
  5
19B
100
AcDbEntity
  8
A9
  6
CONTINUOUS
 62
7
100
AcDbLine
 10
238.9263269807085
 20
494.1000000000000
 30
0.0000000000000000
 11
261.0736730192914
 21
494.1000000000000
 31
0.0000000000000000
  0
LINE
  5
19C
100
AcDbEntity
  8
A9
  6
CONTINUOUS
 62
7
100
AcDbLine
 10
261.0736730192916
 20
494.1000000000000
 30
0.0000000000000000
 11
261.2500000000002
 21
493.1000000000001
 31
0.0000000000000000
  0
LINE
  5
19D
100
AcDbEntity
  8
A9
  6
CONTINUOUS
 62
7
100
AcDbLine
 10
238.7499999999999
 20
493.1000000000003
 30
0.0000000000000000
 11
238.9263269807085
 21
494.1000000000001
 31
0.0000000000000000
  0
LINE
  5
19E
100
AcDbEntity
  8
A9
  6
CONTINUOUS
 62
7
100
AcDbLine
 10
238.9999999999999
 20
492.8944483018870
 30
0.0000000000000000
 11
261.0000000000001
 21
492.8944483018870
 31
0.0000000000000000
  0
LINE
  5
19F
100
AcDbEntity
  8
A9
  6
CONTINUOUS
 62
7
100
AcDbLine
 10
238.7499999999999
 20
493.1000000000001
 30
0.0000000000000000
 11
261.2500000000001
 21
493.1000000000001
 31
0.0000000000000000
  0
LINE
  5
1A0
100
AcDbEntity
  8
A9
  6
CONTINUOUS
 62
7
100
AcDbLine
 10
238.9999999999999
 20
492.8944483018869
 30
0.0000000000000000
 11
238.7499999999998
 21
493.1000000000001
 31
0.0000000000000000
  0
LINE
  5
1A1
100
AcDbEntity
  8
A9
  6
CONTINUOUS
 62
7
100
AcDbLine
 10
261.2500000000002
 20
493.1000000000001
 30
0.0000000000000000
 11
261.0000000000001
 21
492.8944483018869
 31
0.0000000000000000
  0
LINE
  5
1A2
100
AcDbEntity
  8
A4
  6
CENTER
 62
4
100
AcDbLine
 10
66.00000000000000
 20
522.0000000000000
 30
0.0000000000000000
 11
34.00000000000001
 21
522.0000000000000
 31
0.0000000000000000
  0
LINE
  5
1A3
100
AcDbEntity
  8
A4
  6
CENTER
 62
4
100
AcDbLine
 10
50.00000000000000
 20
538.0000000000000
 30
0.0000000000000000
 11
50.00000000000000
 21
34.00000000000074
 31
0.0000000000000000
  0
LINE
  5
1A4
100
AcDbEntity
  8
A9
  6
CENTER
 62
4
100
AcDbLine
 10
266.0000000000000
 20
522.0000000000000
 30
0.0000000000000000
 11
234.0000000000000
 21
522.0000000000000
 31
0.0000000000000000
  0
LINE
  5
1A5
100
AcDbEntity
  8
A9
  6
CENTER
 62
4
100
AcDbLine
 10
250.0000000000000
 20
538.0000000000000
 30
0.0000000000000000
 11
250.0000000000000
 21
34.00000000000074
 31
0.0000000000000000
  0
ARC
  5
1A6
100
AcDbEntity
  8
A8
  6
CONTINUOUS
 62
7
100
AcDbCircle
 10
346.6000000000000
 20
502.5000000000000
 30
0.0000000000000000
 40
4.500000000000000
100
AcDbArc
 50
196.7914471145881
 51
270.0000000000002
  0
ARC
  5
1A7
100
AcDbEntity
  8
A8
  6
CONTINUOUS
 62
7
100
AcDbCircle
 10
346.6000000000000
 20
69.50000000000003
 30
0.0000000000000000
 40
4.500000000000000
100
AcDbArc
 50
90.00000000000000
 51
163.2085528854102
  0
ARC
  5
1A8
100
AcDbEntity
  8
A8
  6
CONTINUOUS
 62
7
100
AcDbCircle
 10
346.8000000000000
 20
69.29999999999998
 30
0.0000000000000000
 40
1.500000000000000
100
AcDbArc
 50
89.99999999999970
 51
180.0000000000000
  0
ARC
  5
1A9
100
AcDbEntity
  8
A8
  6
CONTINUOUS
 62
7
100
AcDbCircle
 10
348.3000000000000
 20
68.53118354023323
 30
0.0000000000000000
 40
2.999999999999998
100
AcDbArc
 50
180.0000000000000
 51
234.1164811769146
  0
ARC
  5
1AA
100
AcDbEntity
  8
A8
  6
CONTINUOUS
 62
7
100
AcDbCircle
 10
346.6000000000000
 20
59.88705331185076
 30
0.0000000000000000
 40
5.000000000000000
100
AcDbArc
 50
0.0000000000000000
 51
54.11648117691561
  0
ARC
  5
1AB
100
AcDbEntity
  8
A8
  6
CONTINUOUS
 62
7
100
AcDbCircle
 10
346.4000000000000
 20
59.78489201170771
 30
0.0000000000000000
 40
2.000000000000000
100
AcDbArc
 50
0.0000000000000000
 51
54.11648117691591
  0
ARC
  5
1AC
100
AcDbEntity
  8
A8
  6
CONTINUOUS
 62
7
100
AcDbCircle
 10
348.1000000000000
 20
68.42902224009006
 30
0.0000000000000000
 40
6.000000000000000
100
AcDbArc
 50
180.0000000000000
 51
234.1164811769157
  0
ARC
  5
1AD
100
AcDbEntity
  8
A8
  6
CONTINUOUS
 62
7
100
AcDbCircle
 10
346.6000000000000
 20
69.50000000000003
 30
0.0000000000000000
 40
4.500000000000000
100
AcDbArc
 50
163.2085528854102
 51
180.0000000000000
  0
ARC
  5
1AE
100
AcDbEntity
  8
A8
  6
CONTINUOUS
 62
7
100
AcDbCircle
 10
348.1000000000000
 20
503.5709777599101
 30
0.0000000000000000
 40
6.000000000000000
100
AcDbArc
 50
125.8835188230841
 51
180.0000000000000
  0
ARC
  5
1AF
100
AcDbEntity
  8
A8
  6
CONTINUOUS
 62
7
100
AcDbCircle
 10
346.3999999999999
 20
512.2151079882924
 30
0.0000000000000000
 40
1.999999999999999
100
AcDbArc
 50
305.8835188230854
 51
360.0000000000000
  0
ARC
  5
1B0
100
AcDbEntity
  8
A8
  6
CONTINUOUS
 62
7
100
AcDbCircle
 10
346.6000000000000
 20
512.1129466881493
 30
0.0000000000000000
 40
5.000000000000000
100
AcDbArc
 50
305.8835188230832
 51
360.0000000000000
  0
ARC
  5
1B1
100
AcDbEntity
  8
A8
  6
CONTINUOUS
 62
7
100
AcDbCircle
 10
348.3000000000000
 20
503.4688164597668
 30
0.0000000000000000
 40
2.999999999999999
100
AcDbArc
 50
125.8835188230860
 51
180.0000000000000
  0
ARC
  5
1B2
100
AcDbEntity
  8
A8
  6
CONTINUOUS
 62
7
100
AcDbCircle
 10
346.8000000000000
 20
502.7000000000002
 30
0.0000000000000000
 40
1.500000000000000
100
AcDbArc
 50
180.0000000000000
 51
270.0000000000003
  0
ARC
  5
1B3
100
AcDbEntity
  8
A8
  6
CONTINUOUS
 62
7
100
AcDbCircle
 10
346.6000000000000
 20
502.5000000000000
 30
0.0000000000000000
 40
4.500000000000000
100
AcDbArc
 50
180.0000000000000
 51
196.7914471145881
  0
ARC
  5
1B4
100
AcDbEntity
  8
A8
  6
CONTINUOUS
 62
7
100
AcDbCircle
 10
360.8000000000001
 20
231.5000000000000
 30
0.0000000000000000
 40
0.9000000000000000
100
AcDbArc
 50
90.00000000000000
 51
270.0000000000000
  0
ARC
  5
1B5
100
AcDbEntity
  8
A8
  6
CONTINUOUS
 62
7
100
AcDbCircle
 10
339.1999999999999
 20
231.5000000000000
 30
0.0000000000000000
 40
0.9000000000000000
100
AcDbArc
 50
270.0000000000000
 51
450.0000000000000
  0
ARC
  5
1B6
100
AcDbEntity
  8
A8
  6
CONTINUOUS
 62
7
100
AcDbCircle
 10
360.8000000000001
 20
244.9999999999999
 30
0.0000000000000000
 40
0.9000000000000000
100
AcDbArc
 50
90.00000000000000
 51
270.0000000000000
  0
ARC
  5
1B7
100
AcDbEntity
  8
A8
  6
CONTINUOUS
 62
7
100
AcDbCircle
 10
339.1999999999999
 20
244.9999999999999
 30
0.0000000000000000
 40
0.9000000000000000
100
AcDbArc
 50
270.0000000000000
 51
450.0000000000000
  0
LINE
  5
1B8
100
AcDbEntity
  8
A8
  6
CONTINUOUS
 62
7
100
AcDbLine
 10
355.0000000000000
 20
224.5000000000000
 30
0.0000000000000000
 11
355.0000000000000
 21
74.00000000000006
 31
0.0000000000000000
  0
LINE
  5
1B9
100
AcDbEntity
  8
A8
  6
CONTINUOUS
 62
7
100
AcDbLine
 10
345.0000000000000
 20
74.00000000000016
 30
0.0000000000000000
 11
345.0000000000000
 21
224.5000000000001
 31
0.0000000000000000
  0
LINE
  5
1BA
100
AcDbEntity
  8
A8
  6
CONTINUOUS
 62
7
100
AcDbLine
 10
348.4000000000000
 20
43.95000000000010
 30
0.0000000000000000
 11
348.2500000000000
 21
43.95000000000010
 31
0.0000000000000000
  0
LINE
  5
1BB
100
AcDbEntity
  8
A8
  6
CONTINUOUS
 62
7
100
AcDbLine
 10
348.2500000000000
 20
56.05000000000000
 30
0.0000000000000000
 11
348.4000000000000
 21
56.05000000000000
 31
0.0000000000000000
  0
LINE
  5
1BC
100
AcDbEntity
  8
A8
  6
CONTINUOUS
 62
7
100
AcDbLine
 10
351.7500000000000
 20
43.95000000000010
 30
0.0000000000000000
 11
351.6000000000000
 21
43.95000000000010
 31
0.0000000000000000
  0
LINE
  5
1BD
100
AcDbEntity
  8
A8
  6
CONTINUOUS
 62
7
100
AcDbLine
 10
351.6000000000000
 20
56.05000000000000
 30
0.0000000000000000
 11
351.7500000000000
 21
56.05000000000000
 31
0.0000000000000000
  0
LINE
  5
1BE
100
AcDbEntity
  8
A8
  6
CONTINUOUS
 62
7
100
AcDbLine
 10
348.3999999999999
 20
515.9499999999999
 30
0.0000000000000000
 11
348.2499999999999
 21
515.9499999999999
 31
0.0000000000000000
  0
LINE
  5
1BF
100
AcDbEntity
  8
A8
  6
CONTINUOUS
 62
7
100
AcDbLine
 10
348.2499999999999
 20
528.0500000000003
 30
0.0000000000000000
 11
348.3999999999999
 21
528.0500000000003
 31
0.0000000000000000
  0
LINE
  5
1C0
100
AcDbEntity
  8
A8
  6
CONTINUOUS
 62
7
100
AcDbLine
 10
351.7499999999999
 20
515.9499999999999
 30
0.0000000000000000
 11
351.6000000000000
 21
515.9499999999999
 31
0.0000000000000000
  0
LINE
  5
1C1
100
AcDbEntity
  8
A8
  6
CONTINUOUS
 62
7
100
AcDbLine
 10
351.6000000000000
 20
528.0500000000003
 30
0.0000000000000000
 11
351.7499999999999
 21
528.0500000000003
 31
0.0000000000000000
  0
LINE
  5
1C2
100
AcDbEntity
  8
A8
  6
CONTINUOUS
 62
7
100
AcDbLine
 10
351.7500000000000
 20
56.40788086392450
 30
0.0000000000000000
 11
351.7500000000000
 21
43.59211913607550
 31
0.0000000000000000
  0
LINE
  5
1C3
100
AcDbEntity
  8
A8
  6
CONTINUOUS
 62
7
100
AcDbLine
 10
351.7500000000000
 20
49.50000000000005
 30
0.0000000000000000
 11
354.2500000000000
 21
49.50000000000005
 31
0.0000000000000000
  0
LINE
  5
1C4
100
AcDbEntity
  8
A8
  6
CONTINUOUS
 62
7
100
AcDbLine
 10
354.2500000000000
 20
49.50000000000005
 30
0.0000000000000000
 11
354.2500000000000
 21
43.97069655764442
 31
0.0000000000000000
  0
LINE
  5
1C5
100
AcDbEntity
  8
A8
  6
CONTINUOUS
 62
7
100
AcDbLine
 10
351.7499999999999
 20
43.59211913607535
 30
0.0000000000000000
 11
354.2499999999999
 21
43.97069655764444
 31
0.0000000000000000
  0
LINE
  5
1C6
100
AcDbEntity
  8
A8
  6
CONTINUOUS
 62
7
100
AcDbLine
 10
354.2499999999999
 20
56.02930344235558
 30
0.0000000000000000
 11
351.7500000000000
 21
56.40788086392445
 31
0.0000000000000000
  0
LINE
  5
1C7
100
AcDbEntity
  8
A8
  6
CONTINUOUS
 62
7
100
AcDbLine
 10
354.2500000000000
 20
56.02930344235568
 30
0.0000000000000000
 11
354.2500000000000
 21
50.50000000000005
 31
0.0000000000000000
  0
LINE
  5
1C8
100
AcDbEntity
  8
A8
  6
CONTINUOUS
 62
7
100
AcDbLine
 10
351.7500000000000
 20
50.50000000000005
 30
0.0000000000000000
 11
354.2500000000000
 21
50.50000000000005
 31
0.0000000000000000
  0
LINE
  5
1C9
100
AcDbEntity
  8
A8
  6
CONTINUOUS
 62
7
100
AcDbLine
 10
351.7499999999999
 20
515.5921191360756
 30
0.0000000000000000
 11
354.2499999999999
 21
515.9706965576445
 31
0.0000000000000000
  0
LINE
  5
1CA
100
AcDbEntity
  8
A8
  6
CONTINUOUS
 62
7
100
AcDbLine
 10
351.7500000000000
 20
528.4078808639247
 30
0.0000000000000000
 11
351.7500000000000
 21
515.5921191360756
 31
0.0000000000000000
  0
LINE
  5
1CB
100
AcDbEntity
  8
A8
  6
CONTINUOUS
 62
7
100
AcDbLine
 10
351.7499999999999
 20
521.5000000000000
 30
0.0000000000000000
 11
354.2499999999999
 21
521.5000000000000
 31
0.0000000000000000
  0
LINE
  5
1CC
100
AcDbEntity
  8
A8
  6
CONTINUOUS
 62
7
100
AcDbLine
 10
354.2499999999999
 20
521.5000000000000
 30
0.0000000000000000
 11
354.2499999999999
 21
515.9706965576445
 31
0.0000000000000000
  0
LINE
  5
1CD
100
AcDbEntity
  8
A8
  6
CONTINUOUS
 62
7
100
AcDbLine
 10
354.2499999999999
 20
528.0293034423559
 30
0.0000000000000000
 11
351.7500000000000
 21
528.4078808639247
 31
0.0000000000000000
  0
LINE
  5
1CE
100
AcDbEntity
  8
A8
  6
CONTINUOUS
 62
7
100
AcDbLine
 10
354.2499999999999
 20
528.0293034423557
 30
0.0000000000000000
 11
354.2499999999999
 21
522.5000000000000
 31
0.0000000000000000
  0
LINE
  5
1CF
100
AcDbEntity
  8
A8
  6
CONTINUOUS
 62
7
100
AcDbLine
 10
351.7499999999999
 20
522.5000000000000
 30
0.0000000000000000
 11
354.2499999999999
 21
522.5000000000000
 31
0.0000000000000000
  0
LINE
  5
1D0
100
AcDbEntity
  8
A8
  6
CONTINUOUS
 62
7
100
AcDbLine
 10
345.7500000000000
 20
55.75000000000023
 30
0.0000000000000000
 11
348.2499999999999
 21
57.00000000000009
 31
0.0000000000000000
  0
LINE
  5
1D1
100
AcDbEntity
  8
A8
  6
CONTINUOUS
 62
7
100
AcDbLine
 10
348.2500000000000
 20
43.00000000000011
 30
0.0000000000000000
 11
345.7500000000001
 21
44.25000000000000
 31
0.0000000000000000
  0
LINE
  5
1D2
100
AcDbEntity
  8
A8
  6
CONTINUOUS
 62
7
100
AcDbLine
 10
348.2500000000000
 20
56.99999999999994
 30
0.0000000000000000
 11
348.2500000000000
 21
43.00000000000016
 31
0.0000000000000000
  0
LINE
  5
1D3
100
AcDbEntity
  8
A8
  6
CONTINUOUS
 62
7
100
AcDbLine
 10
345.7500000000000
 20
55.75000000000005
 30
0.0000000000000000
 11
345.7500000000000
 21
44.25000000000005
 31
0.0000000000000000
  0
LINE
  5
1D4
100
AcDbEntity
  8
A8
  6
CONTINUOUS
 62
7
100
AcDbLine
 10
345.7499999999998
 20
527.7500000000002
 30
0.0000000000000000
 11
348.2499999999999
 21
528.9999999999999
 31
0.0000000000000000
  0
LINE
  5
1D5
100
AcDbEntity
  8
A8
  6
CONTINUOUS
 62
7
100
AcDbLine
 10
348.2499999999999
 20
514.9999999999998
 30
0.0000000000000000
 11
345.7499999999996
 21
516.2499999999997
 31
0.0000000000000000
  0
LINE
  5
1D6
100
AcDbEntity
  8
A8
  6
CONTINUOUS
 62
7
100
AcDbLine
 10
345.7499999999998
 20
527.7500000000003
 30
0.0000000000000000
 11
345.7499999999998
 21
516.2499999999999
 31
0.0000000000000000
  0
LINE
  5
1D7
100
AcDbEntity
  8
A8
  6
CONTINUOUS
 62
7
100
AcDbLine
 10
348.2499999999999
 20
529.0000000000000
 30
0.0000000000000000
 11
348.2499999999999
 21
515.0000000000000
 31
0.0000000000000000
  0
LINE
  5
1D8
100
AcDbEntity
  8
A8
  6
CONTINUOUS
 62
7
100
AcDbLine
 10
345.0481007314665
 20
498.0000000000001
 30
0.0000000000000000
 11
357.6000000000000
 21
498.0000000000001
 31
0.0000000000000000
  0
LINE
  5
1D9
100
AcDbEntity
  8
A8
  6
CONTINUOUS
 62
7
100
AcDbLine
 10
357.6000000000000
 20
501.2000000000002
 30
0.0000000000000000
 11
346.8000000000000
 21
501.2000000000002
 31
0.0000000000000000
  0
LINE
  5
1DA
100
AcDbEntity
  8
A8
  6
CONTINUOUS
 62
7
100
AcDbLine
 10
357.5999999999999
 20
498.0000000000000
 30
0.0000000000000000
 11
357.5999999999999
 21
501.2000000000002
 31
0.0000000000000000
  0
LINE
  5
1DB
100
AcDbEntity
  8
A8
  6
CONTINUOUS
 62
7
100
AcDbLine
 10
354.5999999999999
 20
70.80000000000001
 30
0.0000000000000000
 11
357.5999999999999
 21
70.80000000000001
 31
0.0000000000000000
  0
LINE
  5
1DC
100
AcDbEntity
  8
A8
  6
CONTINUOUS
 62
7
100
AcDbLine
 10
357.5999999999999
 20
74.00000000000006
 30
0.0000000000000000
 11
344.9999999999997
 21
74.00000000000006
 31
0.0000000000000000
  0
LINE
  5
1DD
100
AcDbEntity
  8
A8
  6
CONTINUOUS
 62
7
100
AcDbLine
 10
357.6000000000000
 20
70.80000000000001
 30
0.0000000000000000
 11
357.6000000000000
 21
74.00000000000006
 31
0.0000000000000000
  0
LINE
  5
1DE
100
AcDbEntity
  8
A8
  6
CONTINUOUS
 62
7
100
AcDbLine
 10
354.5999999999999
 20
70.80000000000000
 30
0.0000000000000000
 11
346.8000000000000
 21
70.80000000000011
 31
0.0000000000000000
  0
LINE
  5
1DF
100
AcDbEntity
  8
A8
  6
CONTINUOUS
 62
7
100
AcDbLine
 10
359.9000000000000
 20
226.2000000000000
 30
0.0000000000000000
 11
359.9000000000000
 21
224.5000000000000
 31
0.0000000000000000
  0
LINE
  5
1E0
100
AcDbEntity
  8
A8
  6
CONTINUOUS
 62
7
100
AcDbLine
 10
340.1000000000000
 20
224.5000000000000
 30
0.0000000000000000
 11
340.1000000000000
 21
226.2000000000000
 31
0.0000000000000000
  0
LINE
  5
1E1
100
AcDbEntity
  8
A8
  6
CONTINUOUS
 62
7
100
AcDbLine
 10
340.1000000000000
 20
224.5000000000000
 30
0.0000000000000000
 11
359.9000000000000
 21
224.5000000000000
 31
0.0000000000000000
  0
LINE
  5
1E2
100
AcDbEntity
  8
A8
  6
CONTINUOUS
 62
7
100
AcDbLine
 10
345.3000000000000
 20
69.30000000000000
 30
0.0000000000000000
 11
345.3000000000000
 21
68.53118354023324
 31
0.0000000000000000
  0
LINE
  5
1E3
100
AcDbEntity
  8
A8
  6
CONTINUOUS
 62
7
100
AcDbLine
 10
346.5415820299423
 20
66.10055270800513
 30
0.0000000000000000
 11
349.5306966167628
 21
63.93810469889780
 31
0.0000000000000000
  0
LINE
  5
1E4
100
AcDbEntity
  8
A8
  6
CONTINUOUS
 62
7
100
AcDbLine
 10
347.5722786467049
 20
61.40531256652659
 30
0.0000000000000000
 11
344.5831640598847
 21
63.56776057563377
 31
0.0000000000000000
  0
LINE
  5
1E5
100
AcDbEntity
  8
A8
  6
CONTINUOUS
 62
7
100
AcDbLine
 10
342.1000000000000
 20
68.42902224009008
 30
0.0000000000000000
 11
342.1000000000000
 21
69.50000000000004
 31
0.0000000000000000
  0
LINE
  5
1E6
100
AcDbEntity
  8
A8
  6
CONTINUOUS
 62
7
100
AcDbLine
 10
348.3999999999999
 20
532.0000000000001
 30
0.0000000000000000
 11
348.3999999999999
 21
512.2151079882924
 31
0.0000000000000000
  0
LINE
  5
1E7
100
AcDbEntity
  8
A8
  6
CONTINUOUS
 62
7
100
AcDbLine
 10
351.6000000000000
 20
512.1129466881493
 30
0.0000000000000000
 11
351.6000000000001
 21
532.0000000000000
 31
0.0000000000000000
  0
LINE
  5
1E8
100
AcDbEntity
  8
A8
  6
CONTINUOUS
 62
7
100
AcDbLine
 10
342.1000000000000
 20
503.5709777599101
 30
0.0000000000000000
 11
342.1000000000000
 21
502.5000000000000
 31
0.0000000000000000
  0
LINE
  5
1E9
100
AcDbEntity
  8
A8
  6
CONTINUOUS
 62
7
100
AcDbLine
 10
347.5722786467049
 20
510.5946874334738
 30
0.0000000000000000
 11
344.5831640598847
 21
508.4322394243665
 31
0.0000000000000000
  0
LINE
  5
1EA
100
AcDbEntity
  8
A8
  6
CONTINUOUS
 62
7
100
AcDbLine
 10
346.5415820299422
 20
505.8994472919948
 30
0.0000000000000000
 11
349.5306966167627
 21
508.0618953011020
 31
0.0000000000000000
  0
LINE
  5
1EB
100
AcDbEntity
  8
A8
  6
CONTINUOUS
 62
7
100
AcDbLine
 10
345.3000000000000
 20
502.7000000000002
 30
0.0000000000000000
 11
345.3000000000000
 21
503.4688164597668
 31
0.0000000000000000
  0
LINE
  5
1EC
100
AcDbEntity
  8
A8
  6
CONTINUOUS
 62
7
100
AcDbLine
 10
351.6000000000000
 20
59.88705331185076
 30
0.0000000000000000
 11
351.6000000000000
 21
40.00000000000006
 31
0.0000000000000000
  0
LINE
  5
1ED
100
AcDbEntity
  8
A8
  6
CONTINUOUS
 62
7
100
AcDbLine
 10
351.6000000000000
 20
40.00000000000005
 30
0.0000000000000000
 11
348.4000000000000
 21
40.00000000000005
 31
0.0000000000000000
  0
LINE
  5
1EE
100
AcDbEntity
  8
A8
  6
CONTINUOUS
 62
7
100
AcDbLine
 10
348.4000000000000
 20
40.00000000000006
 30
0.0000000000000000
 11
348.4000000000000
 21
59.78489201170771
 31
0.0000000000000000
  0
LINE
  5
1EF
100
AcDbEntity
  8
A8
  6
CONTINUOUS
 62
7
100
AcDbLine
 10
348.3999999999999
 20
532.0000000000000
 30
0.0000000000000000
 11
351.6000000000000
 21
532.0000000000000
 31
0.0000000000000000
  0
LINE
  5
1F0
100
AcDbEntity
  8
A8
  6
CONTINUOUS
 62
7
100
AcDbLine
 10
361.0000000000001
 20
230.6000000000001
 30
0.0000000000000000
 11
361.0000000000001
 21
226.2000000000000
 31
0.0000000000000000
  0
LINE
  5
1F1
100
AcDbEntity
  8
A8
  6
CONTINUOUS
 62
7
100
AcDbLine
 10
338.9999999999999
 20
226.2000000000000
 30
0.0000000000000000
 11
338.9999999999999
 21
230.6000000000001
 31
0.0000000000000000
  0
LINE
  5
1F2
100
AcDbEntity
  8
A8
  6
CONTINUOUS
 62
7
100
AcDbLine
 10
338.9999999999999
 20
226.2000000000000
 30
0.0000000000000000
 11
361.0000000000001
 21
226.2000000000000
 31
0.0000000000000000
  0
LINE
  5
1F3
100
AcDbEntity
  8
A8
  6
CONTINUOUS
 62
7
100
AcDbLine
 10
338.9999999999999
 20
230.6000000000001
 30
0.0000000000000000
 11
361.0000000000001
 21
230.6000000000001
 31
0.0000000000000000
  0
LINE
  5
1F4
100
AcDbEntity
  8
A8
  6
CONTINUOUS
 62
7
100
AcDbLine
 10
361.0000000000001
 20
244.1000000000000
 30
0.0000000000000000
 11
361.0000000000001
 21
232.4000000000000
 31
0.0000000000000000
  0
LINE
  5
1F5
100
AcDbEntity
  8
A8
  6
CONTINUOUS
 62
7
100
AcDbLine
 10
338.9999999999999
 20
232.4000000000000
 30
0.0000000000000000
 11
338.9999999999999
 21
244.1000000000000
 31
0.0000000000000000
  0
LINE
  5
1F6
100
AcDbEntity
  8
A8
  6
CONTINUOUS
 62
7
100
AcDbLine
 10
338.9999999999999
 20
232.4000000000000
 30
0.0000000000000000
 11
361.0000000000001
 21
232.4000000000000
 31
0.0000000000000000
  0
LINE
  5
1F7
100
AcDbEntity
  8
A8
  6
CONTINUOUS
 62
7
100
AcDbLine
 10
338.9999999999999
 20
244.1000000000000
 30
0.0000000000000000
 11
361.0000000000001
 21
244.1000000000000
 31
0.0000000000000000
  0
LINE
  5
1F8
100
AcDbEntity
  8
A8
  6
CONTINUOUS
 62
7
100
AcDbLine
 10
361.0000000000001
 20
492.8944483018870
 30
0.0000000000000000
 11
361.0000000000001
 21
245.8999999999999
 31
0.0000000000000000
  0
LINE
  5
1F9
100
AcDbEntity
  8
A8
  6
CONTINUOUS
 62
7
100
AcDbLine
 10
338.9999999999999
 20
245.8999999999999
 30
0.0000000000000000
 11
338.9999999999999
 21
492.8944483018870
 31
0.0000000000000000
  0
LINE
  5
1FA
100
AcDbEntity
  8
A8
  6
CONTINUOUS
 62
7
100
AcDbLine
 10
339.0000000000000
 20
245.8999999999999
 30
0.0000000000000000
 11
361.0000000000000
 21
245.8999999999999
 31
0.0000000000000000
  0
LINE
  5
1FB
100
AcDbEntity
  8
A8
  6
CONTINUOUS
 62
7
100
AcDbLine
 10
354.9518992685333
 20
498.0000000000001
 30
0.0000000000000000
 11
361.0736730192915
 21
494.1000000000001
 31
0.0000000000000000
  0
LINE
  5
1FC
100
AcDbEntity
  8
A8
  6
CONTINUOUS
 62
7
100
AcDbLine
 10
338.9263269807084
 20
494.1000000000001
 30
0.0000000000000000
 11
345.0481007314665
 21
498.0000000000000
 31
0.0000000000000000
  0
LINE
  5
1FD
100
AcDbEntity
  8
A8
  6
CONTINUOUS
 62
7
100
AcDbLine
 10
361.0736730192915
 20
494.1000000000001
 30
0.0000000000000000
 11
361.2500000000001
 21
493.1000000000003
 31
0.0000000000000000
  0
LINE
  5
1FE
100
AcDbEntity
  8
A8
  6
CONTINUOUS
 62
7
100
AcDbLine
 10
338.7499999999999
 20
493.1000000000002
 30
0.0000000000000000
 11
338.9263269807084
 21
494.1000000000001
 31
0.0000000000000000
  0
LINE
  5
1FF
100
AcDbEntity
  8
A8
  6
CONTINUOUS
 62
7
100
AcDbLine
 10
338.9263269807084
 20
494.1000000000001
 30
0.0000000000000000
 11
361.0736730192914
 21
494.1000000000001
 31
0.0000000000000000
  0
LINE
  5
200
100
AcDbEntity
  8
A8
  6
CONTINUOUS
 62
7
100
AcDbLine
 10
338.9999999999998
 20
492.8944483018870
 30
0.0000000000000000
 11
338.7499999999998
 21
493.1000000000003
 31
0.0000000000000000
  0
LINE
  5
201
100
AcDbEntity
  8
A8
  6
CONTINUOUS
 62
7
100
AcDbLine
 10
361.2500000000001
 20
493.1000000000002
 30
0.0000000000000000
 11
361.0000000000001
 21
492.8944483018870
 31
0.0000000000000000
  0
LINE
  5
202
100
AcDbEntity
  8
A8
  6
CONTINUOUS
 62
7
100
AcDbLine
 10
338.9999999999998
 20
492.8944483018870
 30
0.0000000000000000
 11
361.0000000000001
 21
492.8944483018870
 31
0.0000000000000000
  0
LINE
  5
203
100
AcDbEntity
  8
A8
  6
CONTINUOUS
 62
7
100
AcDbLine
 10
338.7499999999998
 20
493.1000000000003
 30
0.0000000000000000
 11
361.2500000000001
 21
493.1000000000003
 31
0.0000000000000000
  0
LINE
  5
204
100
AcDbEntity
  8
A10
  6
CENTER
 62
4
100
AcDbLine
 10
150.0000000000000
 20
538.0000000000000
 30
0.0000000000000000
 11
150.0000000000000
 21
34.00000000000074
 31
0.0000000000000000
  0
LINE
  5
205
100
AcDbEntity
  8
A5
  6
CENTER
 62
4
100
AcDbLine
 10
150.0000000000000
 20
604.7499999999999
 30
0.0000000000000000
 11
150.0000000000000
 21
639.2500000000001
 31
0.0000000000000000
  0
LINE
  5
206
100
AcDbEntity
  8
A5
  6
CENTER
 62
4
100
AcDbLine
 10
167.2500000000001
 20
622.0000000000000
 30
0.0000000000000000
 11
132.7499999999999
 21
622.0000000000000
 31
0.0000000000000000
  0
LINE
  5
207
100
AcDbEntity
  8
A4
  6
CENTER
 62
4
100
AcDbLine
 10
66.00000000000000
 20
50.00000000000000
 30
0.0000000000000000
 11
34.00000000000000
 21
50.00000000000000
 31
0.0000000000000000
  0
LINE
  5
208
100
AcDbEntity
  8
A10
  6
CENTER
 62
4
100
AcDbLine
 10
139.7500000000000
 20
522.0000000000000
 30
0.0000000000000000
 11
160.2500000000002
 21
522.0000000000000
 31
0.0000000000000000
  0
LINE
  5
209
100
AcDbEntity
  8
A10
  6
CENTER
 62
4
100
AcDbLine
 10
139.7500000000001
 20
50.00000000000000
 30
0.0000000000000000
 11
160.2500000000000
 21
50.00000000000000
 31
0.0000000000000000
  0
LINE
  5
20A
100
AcDbEntity
  8
A7
  6
CENTER
 62
4
100
AcDbLine
 10
150.0000000000000
 20
-32.74999999999991
 30
0.0000000000000000
 11
150.0000000000000
 21
-67.25000000000011
 31
0.0000000000000000
  0
LINE
  5
20B
100
AcDbEntity
  8
A7
  6
CENTER
 62
4
100
AcDbLine
 10
132.7499999999999
 20
-50.00000000000006
 30
0.0000000000000000
 11
167.2500000000001
 21
-50.00000000000006
 31
0.0000000000000000
  0
LINE
  5
20C
100
AcDbEntity
  8
A10
  6
CENTER
 62
4
100
AcDbLine
 10
234.0000000000007
 20
50.00000000000000
 30
0.0000000000000000
 11
265.9999999999993
 21
50.00000000000000
 31
0.0000000000000000
  0
LINE
  5
20D
100
AcDbEntity
  8
A10
  6
CENTER
 62
4
100
AcDbLine
 10
349.9999999999999
 20
34.00000000000074
 30
0.0000000000000000
 11
349.9999999999999
 21
538.0000000000000
 31
0.0000000000000000
  0
LINE
  5
20E
100
AcDbEntity
  8
A10
  6
CENTER
 62
4
100
AcDbLine
 10
339.7499999999998
 20
522.0000000000000
 30
0.0000000000000000
 11
360.2500000000000
 21
522.0000000000000
 31
0.0000000000000000
  0
LINE
  5
20F
100
AcDbEntity
  8
A10
  6
CENTER
 62
4
100
AcDbLine
 10
339.7500000000000
 20
50.00000000000000
 30
0.0000000000000000
 11
360.2500000000000
 21
50.00000000000000
 31
0.0000000000000000
  0
POINT
  5
210
100
AcDbEntity
  8
A10
  6
CONTINUOUS
 62
5
100
AcDbPoint
 10
50.00000000000001
 20
50.00000000000000
 30
0.0000000000000000
  0
ARC
  5
211
100
AcDbEntity
  8
A4
  6
PHANTOM
 62
1
100
AcDbCircle
 10
49.99999999999999
 20
191.9999999999998
 30
0.0000000000000000
 40
10.00000000000001
100
AcDbArc
 50
174.3756741517865
 51
365.6243258482135
  0
ARC
  5
212
100
AcDbEntity
  8
A4
  6
PHANTOM
 62
1
100
AcDbCircle
 10
49.99999999999999
 20
191.9999999999998
 30
0.0000000000000000
 40
4.749999999999990
100
AcDbArc
 50
186.0423284190541
 51
263.9576715809459
  0
ARC
  5
213
100
AcDbEntity
  8
A4
  6
PHANTOM
 62
1
100
AcDbCircle
 10
49.99999999999999
 20
191.9999999999998
 30
0.0000000000000000
 40
4.749999999999990
100
AcDbArc
 50
6.042328419054135
 51
83.95767158094607
  0
CIRCLE
  5
214
100
AcDbEntity
  8
A4
  6
PHANTOM
 62
1
100
AcDbCircle
 10
49.99999999999999
 20
191.9999999999998
 30
0.0000000000000000
 40
4.249999999999990
  0
ARC
  5
215
100
AcDbEntity
  8
A4
  6
PHANTOM
 62
1
100
AcDbCircle
 10
49.99999999999999
 20
191.9999999999998
 30
0.0000000000000000
 40
4.749999999999990
100
AcDbArc
 50
96.04232841905412
 51
173.9576715809460
  0
ARC
  5
216
100
AcDbEntity
  8
A4
  6
PHANTOM
 62
1
100
AcDbCircle
 10
49.99999999999999
 20
191.9999999999998
 30
0.0000000000000000
 40
4.749999999999990
100
AcDbArc
 50
276.0423284190542
 51
353.9576715809459
  0
ARC
  5
217
100
AcDbEntity
  8
A4
  6
PHANTOM
 62
1
100
AcDbCircle
 10
49.99999999999999
 20
191.9999999999998
 30
0.0000000000000000
 40
6.427358490566013
100
AcDbArc
 50
4.461687230896623
 51
85.53831276910333
  0
CIRCLE
  5
218
100
AcDbEntity
  8
A4
  6
PHANTOM
 62
1
100
AcDbCircle
 10
49.99999999999999
 20
191.9999999999998
 30
0.0000000000000000
 40
6.050000000000097
  0
ARC
  5
219
100
AcDbEntity
  8
A4
  6
PHANTOM
 62
1
100
AcDbCircle
 10
49.99999999999999
 20
191.9999999999998
 30
0.0000000000000000
 40
6.427358490566013
100
AcDbArc
 50
184.4616872308966
 51
265.5383127691034
  0
ARC
  5
21A
100
AcDbEntity
  8
A4
  6
PHANTOM
 62
1
100
AcDbCircle
 10
49.99999999999999
 20
191.9999999999998
 30
0.0000000000000000
 40
6.427358490566013
100
AcDbArc
 50
94.46168723089663
 51
175.5383127691034
  0
ARC
  5
21B
100
AcDbEntity
  8
A4
  6
PHANTOM
 62
1
100
AcDbCircle
 10
49.99999999999999
 20
191.9999999999998
 30
0.0000000000000000
 40
6.427358490566013
100
AcDbArc
 50
274.4616872308966
 51
355.5383127691034
  0
LINE
  5
21C
100
AcDbEntity
  8
A4
  6
PHANTOM
 62
1
100
AcDbLine
 10
41.77656803712193
 20
210.5311835402331
 30
0.0000000000000000
 11
41.85228071540362
 21
211.2999999999998
 31
0.0000000000000000
  0
LINE
  5
21D
100
AcDbEntity
  8
A4
  6
PHANTOM
 62
1
100
AcDbLine
 10
58.14771928459625
 20
211.2999999999998
 30
0.0000000000000000
 11
58.22343196287805
 21
210.5311835402330
 31
0.0000000000000000
  0
LINE
  5
21E
100
AcDbEntity
  8
A4
  6
PHANTOM
 62
1
100
AcDbLine
 10
41.53720067201877
 20
208.1005527080049
 30
0.0000000000000000
 11
41.77656803712184
 21
210.5311835402331
 31
0.0000000000000000
  0
LINE
  5
21F
100
AcDbEntity
  8
A4
  6
PHANTOM
 62
1
100
AcDbLine
 10
58.22343196287800
 20
210.5311835402331
 30
0.0000000000000000
 11
58.46279932798096
 21
208.1005527080049
 31
0.0000000000000000
  0
LINE
  5
220
100
AcDbEntity
  8
A4
  6
PHANTOM
 62
1
100
AcDbLine
 10
41.99999999999981
 20
212.7999999999998
 30
0.0000000000000000
 11
41.85228071540350
 21
211.2999999999998
 31
0.0000000000000000
  0
LINE
  5
221
100
AcDbEntity
  8
A4
  6
PHANTOM
 62
1
100
AcDbLine
 10
57.99999999999989
 20
212.7999999999996
 30
0.0000000000000000
 11
58.14771928459618
 21
211.2999999999997
 31
0.0000000000000000
  0
LINE
  5
222
100
AcDbEntity
  8
A4
  6
PHANTOM
 62
1
100
AcDbLine
 10
41.32424382343085
 20
205.9381046988977
 30
0.0000000000000000
 11
41.53720067201868
 21
208.1005527080050
 31
0.0000000000000000
  0
LINE
  5
223
100
AcDbEntity
  8
A4
  6
PHANTOM
 62
1
100
AcDbLine
 10
58.46279932798099
 20
208.1005527080047
 30
0.0000000000000000
 11
58.67575617656890
 21
205.9381046988975
 31
0.0000000000000000
  0
LINE
  5
224
100
AcDbEntity
  8
A4
  6
PHANTOM
 62
1
100
AcDbLine
 10
41.32424382343088
 20
205.9381046988976
 30
0.0000000000000000
 11
40.92529821492594
 21
201.8870533118505
 31
0.0000000000000000
  0
LINE
  5
225
100
AcDbEntity
  8
A4
  6
PHANTOM
 62
1
100
AcDbLine
 10
59.07470178507388
 20
201.8870533118506
 30
0.0000000000000000
 11
58.67575617656893
 21
205.9381046988976
 31
0.0000000000000000
  0
LINE
  5
226
100
AcDbEntity
  8
A4
  6
PHANTOM
 62
1
100
AcDbLine
 10
40.04814120110520
 20
192.9800543081175
 30
0.0000000000000000
 11
40.92529821492603
 21
201.8870533118506
 31
0.0000000000000000
  0
LINE
  5
227
100
AcDbEntity
  8
A4
  6
PHANTOM
 62
1
100
AcDbLine
 10
59.07470178507378
 20
201.8870533118506
 30
0.0000000000000000
 11
59.95185879889458
 21
192.9800543081175
 31
0.0000000000000000
  0
LINE
  5
228
100
AcDbEntity
  8
A4
  6
PHANTOM
 62
1
100
AcDbLine
 10
45.77951424596630
 20
191.4999999999999
 30
0.0000000000000000
 11
43.59211913607531
 21
191.4999999999999
 31
0.0000000000000000
  0
LINE
  5
229
100
AcDbEntity
  8
A4
  6
PHANTOM
 62
1
100
AcDbLine
 10
49.49999999999999
 20
185.5921191360752
 30
0.0000000000000000
 11
49.49999999999999
 21
187.7795142459664
 31
0.0000000000000000
  0
LINE
  5
22A
100
AcDbEntity
  8
A4
  6
PHANTOM
 62
1
100
AcDbLine
 10
49.49999999999999
 20
196.2204857540335
 30
0.0000000000000000
 11
49.49999999999999
 21
198.4078808639244
 31
0.0000000000000000
  0
LINE
  5
22B
100
AcDbEntity
  8
A4
  6
PHANTOM
 62
1
100
AcDbLine
 10
45.77951424596630
 20
192.4999999999999
 30
0.0000000000000000
 11
43.59211913607531
 21
192.4999999999999
 31
0.0000000000000000
  0
LINE
  5
22C
100
AcDbEntity
  8
A4
  6
PHANTOM
 62
1
100
AcDbLine
 10
50.49999999999999
 20
196.2204857540335
 30
0.0000000000000000
 11
50.49999999999999
 21
198.4078808639244
 31
0.0000000000000000
  0
LINE
  5
22D
100
AcDbEntity
  8
A4
  6
PHANTOM
 62
1
100
AcDbLine
 10
56.40788086392455
 20
192.4999999999999
 30
0.0000000000000000
 11
54.22048575403345
 21
192.4999999999999
 31
0.0000000000000000
  0
LINE
  5
22E
100
AcDbEntity
  8
A4
  6
PHANTOM
 62
1
100
AcDbLine
 10
56.40788086392455
 20
191.4999999999999
 30
0.0000000000000000
 11
54.22048575403345
 21
191.4999999999999
 31
0.0000000000000000
  0
LINE
  5
22F
100
AcDbEntity
  8
A4
  6
PHANTOM
 62
1
100
AcDbLine
 10
50.49999999999999
 20
185.5921191360752
 30
0.0000000000000000
 11
50.49999999999999
 21
187.7795142459664
 31
0.0000000000000000
  0
LINE
  5
230
100
AcDbEntity
  8
A4
  6
PHANTOM
 62
1
100
AcDbLine
 10
57.99999999999999
 20
212.7999999999998
 30
0.0000000000000000
 11
41.99999999999999
 21
212.7999999999998
 31
0.0000000000000000
  0
LINE
  5
231
100
AcDbEntity
  8
A4
  6
PHANTOM
 62
1
100
AcDbLine
 10
41.99999999999999
 20
215.9999999999999
 30
0.0000000000000000
 11
57.99999999999999
 21
215.9999999999999
 31
0.0000000000000000
  0
LINE
  5
232
100
AcDbEntity
  8
A4
  6
PHANTOM
 62
1
100
AcDbLine
 10
41.99999999999983
 20
212.7999999999999
 30
0.0000000000000000
 11
41.99999999999995
 21
215.9999999999998
 31
0.0000000000000000
  0
LINE
  5
233
100
AcDbEntity
  8
A4
  6
PHANTOM
 62
1
100
AcDbLine
 10
57.99999999999989
 20
215.9999999999998
 30
0.0000000000000000
 11
57.99999999999998
 21
212.7999999999999
 31
0.0000000000000000
  0
ARC
  5
234
100
AcDbEntity
  8
A8
  6
PHANTOM
 62
1
100
AcDbCircle
 10
153.4000000000001
 20
211.4999999999998
 30
0.0000000000000000
 40
4.500000000000000
100
AcDbArc
 50
16.79144711458981
 51
90.00000000000000
  0
ARC
  5
235
100
AcDbEntity
  8
A8
  6
PHANTOM
 62
1
100
AcDbCircle
 10
153.2000000000000
 20
211.2999999999998
 30
0.0000000000000000
 40
1.500000000000000
100
AcDbArc
 50
0.0000000000000000
 51
90.00000000000031
  0
ARC
  5
236
100
AcDbEntity
  8
A8
  6
PHANTOM
 62
1
100
AcDbCircle
 10
151.7000000000000
 20
210.5311835402330
 30
0.0000000000000000
 40
2.999999999999998
100
AcDbArc
 50
305.8835188230854
 51
360.0000000000000
  0
ARC
  5
237
100
AcDbEntity
  8
A8
  6
PHANTOM
 62
1
100
AcDbCircle
 10
153.4000000000001
 20
201.8870533118506
 30
0.0000000000000000
 40
5.000000000000000
100
AcDbArc
 50
125.8835188230844
 51
180.0000000000000
  0
ARC
  5
238
100
AcDbEntity
  8
A8
  6
PHANTOM
 62
1
100
AcDbCircle
 10
153.6000000000001
 20
201.7848920117075
 30
0.0000000000000000
 40
2.000000000000000
100
AcDbArc
 50
125.8835188230841
 51
180.0000000000000
  0
ARC
  5
239
100
AcDbEntity
  8
A8
  6
PHANTOM
 62
1
100
AcDbCircle
 10
151.9000000000001
 20
210.4290222400899
 30
0.0000000000000000
 40
6.000000000000000
100
AcDbArc
 50
305.8835188230843
 51
360.0000000000000
  0
ARC
  5
23A
100
AcDbEntity
  8
A8
  6
PHANTOM
 62
1
100
AcDbCircle
 10
153.4000000000001
 20
211.4999999999998
 30
0.0000000000000000
 40
4.500000000000000
100
AcDbArc
 50
0.0000000000000000
 51
16.79144711458981
  0
LINE
  5
23B
100
AcDbEntity
  8
A8
  6
PHANTOM
 62
1
100
AcDbLine
 10
151.6000000000001
 20
185.9499999999999
 30
0.0000000000000000
 11
151.7500000000001
 21
185.9499999999999
 31
0.0000000000000000
  0
LINE
  5
23C
100
AcDbEntity
  8
A8
  6
PHANTOM
 62
1
100
AcDbLine
 10
151.7500000000001
 20
198.0499999999998
 30
0.0000000000000000
 11
151.6000000000001
 21
198.0499999999998
 31
0.0000000000000000
  0
LINE
  5
23D
100
AcDbEntity
  8
A8
  6
PHANTOM
 62
1
100
AcDbLine
 10
148.2500000000001
 20
185.9499999999999
 30
0.0000000000000000
 11
148.4000000000000
 21
185.9499999999999
 31
0.0000000000000000
  0
LINE
  5
23E
100
AcDbEntity
  8
A8
  6
PHANTOM
 62
1
100
AcDbLine
 10
148.4000000000000
 20
198.0499999999998
 30
0.0000000000000000
 11
148.2500000000001
 21
198.0499999999998
 31
0.0000000000000000
  0
LINE
  5
23F
100
AcDbEntity
  8
A8
  6
PHANTOM
 62
1
100
AcDbLine
 10
148.2500000000001
 20
198.4078808639243
 30
0.0000000000000000
 11
148.2500000000001
 21
185.5921191360753
 31
0.0000000000000000
  0
LINE
  5
240
100
AcDbEntity
  8
A8
  6
PHANTOM
 62
1
100
AcDbLine
 10
148.2500000000001
 20
191.4999999999999
 30
0.0000000000000000
 11
145.7500000000001
 21
191.4999999999999
 31
0.0000000000000000
  0
LINE
  5
241
100
AcDbEntity
  8
A8
  6
PHANTOM
 62
1
100
AcDbLine
 10
145.7500000000001
 20
191.4999999999999
 30
0.0000000000000000
 11
145.7500000000001
 21
185.9706965576442
 31
0.0000000000000000
  0
LINE
  5
242
100
AcDbEntity
  8
A8
  6
PHANTOM
 62
1
100
AcDbLine
 10
148.2500000000000
 20
185.5921191360751
 30
0.0000000000000000
 11
145.7500000000001
 21
185.9706965576442
 31
0.0000000000000000
  0
LINE
  5
243
100
AcDbEntity
  8
A8
  6
PHANTOM
 62
1
100
AcDbLine
 10
145.7500000000002
 20
198.0293034423554
 30
0.0000000000000000
 11
148.2500000000000
 21
198.4078808639243
 31
0.0000000000000000
  0
LINE
  5
244
100
AcDbEntity
  8
A8
  6
PHANTOM
 62
1
100
AcDbLine
 10
145.7500000000001
 20
198.0293034423555
 30
0.0000000000000000
 11
145.7500000000001
 21
192.4999999999999
 31
0.0000000000000000
  0
LINE
  5
245
100
AcDbEntity
  8
A8
  6
PHANTOM
 62
1
100
AcDbLine
 10
148.2500000000001
 20
192.4999999999999
 30
0.0000000000000000
 11
145.7500000000001
 21
192.4999999999999
 31
0.0000000000000000
  0
LINE
  5
246
100
AcDbEntity
  8
A8
  6
PHANTOM
 62
1
100
AcDbLine
 10
154.2500000000002
 20
197.7500000000000
 30
0.0000000000000000
 11
151.7500000000002
 21
198.9999999999999
 31
0.0000000000000000
  0
LINE
  5
247
100
AcDbEntity
  8
A8
  6
PHANTOM
 62
1
100
AcDbLine
 10
151.7500000000001
 20
185.0000000000000
 30
0.0000000000000000
 11
154.2500000000001
 21
186.2499999999999
 31
0.0000000000000000
  0
LINE
  5
248
100
AcDbEntity
  8
A8
  6
PHANTOM
 62
1
100
AcDbLine
 10
151.7500000000001
 20
198.9999999999998
 30
0.0000000000000000
 11
151.7500000000001
 21
185.0000000000000
 31
0.0000000000000000
  0
LINE
  5
249
100
AcDbEntity
  8
A8
  6
PHANTOM
 62
1
100
AcDbLine
 10
154.2500000000001
 20
197.7499999999999
 30
0.0000000000000000
 11
154.2500000000001
 21
186.2499999999999
 31
0.0000000000000000
  0
LINE
  5
24A
100
AcDbEntity
  8
A8
  6
PHANTOM
 62
1
100
AcDbLine
 10
142.4000000000001
 20
215.9999999999999
 30
0.0000000000000000
 11
153.4000000000001
 21
215.9999999999999
 31
0.0000000000000000
  0
LINE
  5
24B
100
AcDbEntity
  8
A8
  6
PHANTOM
 62
1
100
AcDbLine
 10
142.4000000000001
 20
212.7999999999998
 30
0.0000000000000000
 11
142.4000000000001
 21
215.9999999999999
 31
0.0000000000000000
  0
LINE
  5
24C
100
AcDbEntity
  8
A8
  6
PHANTOM
 62
1
100
AcDbLine
 10
142.4000000000001
 20
212.7999999999998
 30
0.0000000000000000
 11
153.2000000000000
 21
212.7999999999999
 31
0.0000000000000000
  0
LINE
  5
24D
100
AcDbEntity
  8
A8
  6
PHANTOM
 62
1
100
AcDbLine
 10
154.7000000000000
 20
211.2999999999998
 30
0.0000000000000000
 11
154.7000000000000
 21
210.5311835402331
 31
0.0000000000000000
  0
LINE
  5
24E
100
AcDbEntity
  8
A8
  6
PHANTOM
 62
1
100
AcDbLine
 10
153.4584179700579
 20
208.1005527080050
 30
0.0000000000000000
 11
150.4693033832373
 21
205.9381046988977
 31
0.0000000000000000
  0
LINE
  5
24F
100
AcDbEntity
  8
A8
  6
PHANTOM
 62
1
100
AcDbLine
 10
152.4277213532950
 20
203.4053125665263
 30
0.0000000000000000
 11
155.4168359401152
 21
205.5677605756335
 31
0.0000000000000000
  0
LINE
  5
250
100
AcDbEntity
  8
A8
  6
PHANTOM
 62
1
100
AcDbLine
 10
157.9000000000000
 20
210.4290222400899
 30
0.0000000000000000
 11
157.9000000000000
 21
211.4999999999999
 31
0.0000000000000000
  0
LINE
  5
251
100
AcDbEntity
  8
A8
  6
PHANTOM
 62
1
100
AcDbLine
 10
148.4000000000000
 20
201.8870533118506
 30
0.0000000000000000
 11
148.4000000000000
 21
181.9999999999999
 31
0.0000000000000000
  0
LINE
  5
252
100
AcDbEntity
  8
A8
  6
PHANTOM
 62
1
100
AcDbLine
 10
148.4000000000000
 20
181.9999999999999
 30
0.0000000000000000
 11
151.6000000000001
 21
181.9999999999999
 31
0.0000000000000000
  0
LINE
  5
253
100
AcDbEntity
  8
A8
  6
PHANTOM
 62
1
100
AcDbLine
 10
151.6000000000001
 20
181.9999999999999
 30
0.0000000000000000
 11
151.6000000000001
 21
201.7848920117075
 31
0.0000000000000000
  0
CIRCLE
  5
254
100
AcDbEntity
  8
A9
  6
PHANTOM
 62
1
100
AcDbCircle
 10
250.0000000000000
 20
191.9999999999998
 30
0.0000000000000000
 40
4.250000000000004
  0
CIRCLE
  5
255
100
AcDbEntity
  8
A9
  6
PHANTOM
 62
1
100
AcDbCircle
 10
250.0000000000000
 20
191.9999999999998
 30
0.0000000000000000
 40
6.999999999999909
  0
CIRCLE
  5
256
100
AcDbEntity
  8
A9
  6
PHANTOM
 62
1
100
AcDbCircle
 10
250.0000000000000
 20
191.9999999999998
 30
0.0000000000000000
 40
5.750000000000005
  0
CIRCLE
  5
257
100
AcDbEntity
  8
A9
  6
PHANTOM
 62
1
100
AcDbCircle
 10
250.0000000000000
 20
191.9999999999998
 30
0.0000000000000000
 40
4.750000000000046
  0
ARC
  5
258
100
AcDbEntity
  8
A9
  6
PHANTOM
 62
1
100
AcDbCircle
 10
250.0000000000000
 20
191.9999999999998
 30
0.0000000000000000
 40
10.00000000000001
100
AcDbArc
 50
174.3756741517865
 51
365.6243258482135
  0
LINE
  5
259
100
AcDbEntity
  8
A9
  6
PHANTOM
 62
1
100
AcDbLine
 10
259.9518587988947
 20
192.9800543081175
 30
0.0000000000000000
 11
259.0847625811876
 21
201.7848920117075
 31
0.0000000000000000
  0
LINE
  5
25A
100
AcDbEntity
  8
A9
  6
PHANTOM
 62
1
100
AcDbLine
 10
240.9152374188124
 20
201.7848920117075
 30
0.0000000000000000
 11
240.0481412011052
 21
192.9800543081173
 31
0.0000000000000000
  0
LINE
  5
25B
100
AcDbEntity
  8
A9
  6
PHANTOM
 62
1
100
AcDbLine
 10
259.0847625811876
 20
201.7848920117077
 30
0.0000000000000000
 11
258.9251843377856
 21
203.4053125665263
 31
0.0000000000000000
  0
LINE
  5
25C
100
AcDbEntity
  8
A9
  6
PHANTOM
 62
1
100
AcDbLine
 10
241.0748156622143
 20
203.4053125665262
 30
0.0000000000000000
 11
240.9152374188123
 21
201.7848920117075
 31
0.0000000000000000
  0
LINE
  5
25D
100
AcDbEntity
  8
A9
  6
PHANTOM
 62
1
100
AcDbLine
 10
258.9251843377856
 20
203.4053125665263
 30
0.0000000000000000
 11
258.7122274891977
 21
205.5677605756336
 31
0.0000000000000000
  0
LINE
  5
25E
100
AcDbEntity
  8
A9
  6
PHANTOM
 62
1
100
AcDbLine
 10
241.2877725108021
 20
205.5677605756335
 30
0.0000000000000000
 11
241.0748156622142
 21
203.4053125665262
 31
0.0000000000000000
  0
LINE
  5
25F
100
AcDbEntity
  8
A9
  6
PHANTOM
 62
1
100
AcDbLine
 10
258.2334927589915
 20
210.4290222400899
 30
0.0000000000000000
 11
258.7122274891975
 21
205.5677605756334
 31
0.0000000000000000
  0
LINE
  5
260
100
AcDbEntity
  8
A9
  6
PHANTOM
 62
1
100
AcDbLine
 10
241.2877725108022
 20
205.5677605756336
 30
0.0000000000000000
 11
241.7665072410081
 21
210.4290222400899
 31
0.0000000000000000
  0
LINE
  5
261
100
AcDbEntity
  8
A9
  6
PHANTOM
 62
1
100
AcDbLine
 10
257.9999999999999
 20
212.7999999999998
 30
0.0000000000000000
 11
258.1280233799835
 21
211.4999999999997
 31
0.0000000000000000
  0
LINE
  5
262
100
AcDbEntity
  8
A9
  6
PHANTOM
 62
1
100
AcDbLine
 10
258.0000000000000
 20
215.9999999999999
 30
0.0000000000000000
 11
258.0000000000000
 21
212.7999999999999
 31
0.0000000000000000
  0
LINE
  5
263
100
AcDbEntity
  8
A9
  6
PHANTOM
 62
1
100
AcDbLine
 10
241.8719766200163
 20
211.4999999999998
 30
0.0000000000000000
 11
241.9999999999999
 21
212.7999999999999
 31
0.0000000000000000
  0
LINE
  5
264
100
AcDbEntity
  8
A9
  6
PHANTOM
 62
1
100
AcDbLine
 10
242.0000000000000
 20
212.7999999999999
 30
0.0000000000000000
 11
242.0000000000000
 21
215.9999999999999
 31
0.0000000000000000
  0
LINE
  5
265
100
AcDbEntity
  8
A9
  6
PHANTOM
 62
1
100
AcDbLine
 10
241.9999999999999
 20
215.9999999999997
 30
0.0000000000000000
 11
258.0000000000001
 21
216.0000000000002
 31
0.0000000000000000
  0
LINE
  5
266
100
AcDbEntity
  8
A9
  6
PHANTOM
 62
1
100
AcDbLine
 10
258.2334927589917
 20
210.4290222400899
 30
0.0000000000000000
 11
258.1280233799836
 21
211.4999999999999
 31
0.0000000000000000
  0
LINE
  5
267
100
AcDbEntity
  8
A9
  6
PHANTOM
 62
1
100
AcDbLine
 10
241.8719766200164
 20
211.5000000000000
 30
0.0000000000000000
 11
241.7665072410082
 21
210.4290222400900
 31
0.0000000000000000
  0
ARC
  5
268
100
AcDbEntity
  8
A8
  6
PHANTOM
 62
1
100
AcDbCircle
 10
346.6000000000000
 20
211.4999999999999
 30
0.0000000000000000
 40
4.500000000000000
100
AcDbArc
 50
90.00000000000000
 51
163.2085528854102
  0
ARC
  5
269
100
AcDbEntity
  8
A8
  6
PHANTOM
 62
1
100
AcDbCircle
 10
346.8000000000000
 20
211.2999999999998
 30
0.0000000000000000
 40
1.500000000000000
100
AcDbArc
 50
89.99999999999970
 51
180.0000000000000
  0
ARC
  5
26A
100
AcDbEntity
  8
A8
  6
PHANTOM
 62
1
100
AcDbCircle
 10
348.3000000000000
 20
210.5311835402331
 30
0.0000000000000000
 40
2.999999999999998
100
AcDbArc
 50
180.0000000000000
 51
234.1164811769146
  0
ARC
  5
26B
100
AcDbEntity
  8
A8
  6
PHANTOM
 62
1
100
AcDbCircle
 10
346.6000000000000
 20
201.8870533118506
 30
0.0000000000000000
 40
5.000000000000000
100
AcDbArc
 50
0.0000000000000000
 51
54.11648117691561
  0
ARC
  5
26C
100
AcDbEntity
  8
A8
  6
PHANTOM
 62
1
100
AcDbCircle
 10
346.4000000000000
 20
201.7848920117075
 30
0.0000000000000000
 40
2.000000000000000
100
AcDbArc
 50
0.0000000000000000
 51
54.11648117691591
  0
ARC
  5
26D
100
AcDbEntity
  8
A8
  6
PHANTOM
 62
1
100
AcDbCircle
 10
348.1000000000000
 20
210.4290222400899
 30
0.0000000000000000
 40
6.000000000000000
100
AcDbArc
 50
180.0000000000000
 51
234.1164811769157
  0
ARC
  5
26E
100
AcDbEntity
  8
A8
  6
PHANTOM
 62
1
100
AcDbCircle
 10
346.6000000000000
 20
211.4999999999999
 30
0.0000000000000000
 40
4.500000000000000
100
AcDbArc
 50
163.2085528854102
 51
180.0000000000000
  0
LINE
  5
26F
100
AcDbEntity
  8
A8
  6
PHANTOM
 62
1
100
AcDbLine
 10
348.4000000000000
 20
185.9499999999999
 30
0.0000000000000000
 11
348.2500000000000
 21
185.9499999999999
 31
0.0000000000000000
  0
LINE
  5
270
100
AcDbEntity
  8
A8
  6
PHANTOM
 62
1
100
AcDbLine
 10
348.2500000000000
 20
198.0499999999999
 30
0.0000000000000000
 11
348.4000000000000
 21
198.0499999999999
 31
0.0000000000000000
  0
LINE
  5
271
100
AcDbEntity
  8
A8
  6
PHANTOM
 62
1
100
AcDbLine
 10
351.7500000000000
 20
185.9499999999999
 30
0.0000000000000000
 11
351.6000000000000
 21
185.9499999999999
 31
0.0000000000000000
  0
LINE
  5
272
100
AcDbEntity
  8
A8
  6
PHANTOM
 62
1
100
AcDbLine
 10
351.6000000000000
 20
198.0499999999999
 30
0.0000000000000000
 11
351.7500000000000
 21
198.0499999999999
 31
0.0000000000000000
  0
LINE
  5
273
100
AcDbEntity
  8
A8
  6
PHANTOM
 62
1
100
AcDbLine
 10
351.7500000000000
 20
198.4078808639243
 30
0.0000000000000000
 11
351.7500000000000
 21
185.5921191360753
 31
0.0000000000000000
  0
LINE
  5
274
100
AcDbEntity
  8
A8
  6
PHANTOM
 62
1
100
AcDbLine
 10
351.7500000000000
 20
191.4999999999999
 30
0.0000000000000000
 11
354.2500000000000
 21
191.4999999999999
 31
0.0000000000000000
  0
LINE
  5
275
100
AcDbEntity
  8
A8
  6
PHANTOM
 62
1
100
AcDbLine
 10
354.2500000000000
 20
191.4999999999999
 30
0.0000000000000000
 11
354.2500000000000
 21
185.9706965576443
 31
0.0000000000000000
  0
LINE
  5
276
100
AcDbEntity
  8
A8
  6
PHANTOM
 62
1
100
AcDbLine
 10
351.7499999999999
 20
185.5921191360752
 30
0.0000000000000000
 11
354.2499999999999
 21
185.9706965576442
 31
0.0000000000000000
  0
LINE
  5
277
100
AcDbEntity
  8
A8
  6
PHANTOM
 62
1
100
AcDbLine
 10
354.2499999999999
 20
198.0293034423554
 30
0.0000000000000000
 11
351.7500000000000
 21
198.4078808639243
 31
0.0000000000000000
  0
LINE
  5
278
100
AcDbEntity
  8
A8
  6
PHANTOM
 62
1
100
AcDbLine
 10
354.2500000000000
 20
198.0293034423555
 30
0.0000000000000000
 11
354.2500000000000
 21
192.4999999999999
 31
0.0000000000000000
  0
LINE
  5
279
100
AcDbEntity
  8
A8
  6
PHANTOM
 62
1
100
AcDbLine
 10
351.7500000000000
 20
192.4999999999999
 30
0.0000000000000000
 11
354.2500000000000
 21
192.4999999999999
 31
0.0000000000000000
  0
LINE
  5
27A
100
AcDbEntity
  8
A8
  6
PHANTOM
 62
1
100
AcDbLine
 10
345.7499999999999
 20
197.7500000000000
 30
0.0000000000000000
 11
348.2499999999999
 21
198.9999999999999
 31
0.0000000000000000
  0
LINE
  5
27B
100
AcDbEntity
  8
A8
  6
PHANTOM
 62
1
100
AcDbLine
 10
348.2500000000001
 20
185.0000000000000
 30
0.0000000000000000
 11
345.7500000000001
 21
186.2499999999999
 31
0.0000000000000000
  0
LINE
  5
27C
100
AcDbEntity
  8
A8
  6
PHANTOM
 62
1
100
AcDbLine
 10
348.2500000000000
 20
198.9999999999998
 30
0.0000000000000000
 11
348.2500000000000
 21
185.0000000000000
 31
0.0000000000000000
  0
LINE
  5
27D
100
AcDbEntity
  8
A8
  6
PHANTOM
 62
1
100
AcDbLine
 10
345.7500000000000
 20
197.7499999999999
 30
0.0000000000000000
 11
345.7500000000000
 21
186.2499999999999
 31
0.0000000000000000
  0
LINE
  5
27E
100
AcDbEntity
  8
A8
  6
PHANTOM
 62
1
100
AcDbLine
 10
357.5999999999999
 20
215.9999999999999
 30
0.0000000000000000
 11
346.6000000000000
 21
215.9999999999999
 31
0.0000000000000000
  0
LINE
  5
27F
100
AcDbEntity
  8
A8
  6
PHANTOM
 62
1
100
AcDbLine
 10
357.6000000000000
 20
212.7999999999999
 30
0.0000000000000000
 11
357.6000000000000
 21
215.9999999999999
 31
0.0000000000000000
  0
LINE
  5
280
100
AcDbEntity
  8
A8
  6
PHANTOM
 62
1
100
AcDbLine
 10
357.5999999999999
 20
212.7999999999998
 30
0.0000000000000000
 11
346.7999999999999
 21
212.8000000000000
 31
0.0000000000000000
  0
LINE
  5
281
100
AcDbEntity
  8
A8
  6
PHANTOM
 62
1
100
AcDbLine
 10
345.3000000000000
 20
211.2999999999999
 30
0.0000000000000000
 11
345.3000000000000
 21
210.5311835402331
 31
0.0000000000000000
  0
LINE
  5
282
100
AcDbEntity
  8
A8
  6
PHANTOM
 62
1
100
AcDbLine
 10
346.5415820299422
 20
208.1005527080049
 30
0.0000000000000000
 11
349.5306966167628
 21
205.9381046988976
 31
0.0000000000000000
  0
LINE
  5
283
100
AcDbEntity
  8
A8
  6
PHANTOM
 62
1
100
AcDbLine
 10
347.5722786467050
 20
203.4053125665264
 30
0.0000000000000000
 11
344.5831640598847
 21
205.5677605756335
 31
0.0000000000000000
  0
LINE
  5
284
100
AcDbEntity
  8
A8
  6
PHANTOM
 62
1
100
AcDbLine
 10
342.1000000000000
 20
210.4290222400899
 30
0.0000000000000000
 11
342.1000000000000
 21
211.4999999999999
 31
0.0000000000000000
  0
LINE
  5
285
100
AcDbEntity
  8
A8
  6
PHANTOM
 62
1
100
AcDbLine
 10
351.6000000000000
 20
201.8870533118506
 30
0.0000000000000000
 11
351.6000000000000
 21
181.9999999999999
 31
0.0000000000000000
  0
LINE
  5
286
100
AcDbEntity
  8
A8
  6
PHANTOM
 62
1
100
AcDbLine
 10
351.6000000000000
 20
181.9999999999999
 30
0.0000000000000000
 11
348.4000000000000
 21
181.9999999999999
 31
0.0000000000000000
  0
LINE
  5
287
100
AcDbEntity
  8
A8
  6
PHANTOM
 62
1
100
AcDbLine
 10
348.4000000000000
 20
181.9999999999999
 30
0.0000000000000000
 11
348.4000000000000
 21
201.7848920117075
 31
0.0000000000000000
  0
LINE
  5
288
100
AcDbEntity
  8
A4
  6
CENTER
 62
4
100
AcDbLine
 10
65.99999999999999
 20
191.9999999999998
 30
0.0000000000000000
 11
33.99999999999999
 21
191.9999999999998
 31
0.0000000000000000
  0
LINE
  5
289
100
AcDbEntity
  8
A10
  6
CENTER
 62
4
100
AcDbLine
 10
139.7500000000001
 20
191.9999999999998
 30
0.0000000000000000
 11
160.2500000000000
 21
191.9999999999998
 31
0.0000000000000000
  0
LINE
  5
28A
100
AcDbEntity
  8
A10
  6
CENTER
 62
4
100
AcDbLine
 10
234.0000000000007
 20
191.9999999999998
 30
0.0000000000000000
 11
265.9999999999993
 21
191.9999999999998
 31
0.0000000000000000
  0
LINE
  5
28B
100
AcDbEntity
  8
A10
  6
CENTER
 62
4
100
AcDbLine
 10
339.7500000000000
 20
191.9999999999998
 30
0.0000000000000000
 11
360.2500000000000
 21
191.9999999999998
 31
0.0000000000000000
  0
ENDSEC
  0
SECTION
  2
OBJECTS
  0
DICTIONARY
  5
2BB
100
AcDbDictionary
  3
ACAD_GROUP
350
2BC
  3
ACAD_LAYOUT
350
2BD
  3
ACAD_MLINESTYLE
350
2BE
  0
DICTIONARY
  5
2BC
102
{ACAD_REACTORS
330
2BB
102
}
330
2BB
100
AcDbDictionary
  0
DICTIONARY
  5
2BD
102
{ACAD_REACTORS
330
2BB
102
}
330
2BB
100
AcDbDictionary
  3
Model
350
2BF
  3
ﾚｲｱｳﾄ1
350
2C0
  3
ﾚｲｱｳﾄ2
350
2C1
  0
DICTIONARY
  5
2BE
102
{ACAD_REACTORS
330
2BB
102
}
330
2BB
100
AcDbDictionary
  3
STANDARD
350
2C2
  0
LAYOUT
  5
2BF
102
{ACAD_REACTORS
330
2BD
102
}
330
2BD
100
AcDbPlotSettings
 70
11952
  4
A3
 44
297.000000
 45
420.000000
 73
  1
 72
  1
100
AcDbLayout
  1
Model
 71
0
330
2B2
  0
LAYOUT
  5
2C0
102
{ACAD_REACTORS
330
2BD
102
}
330
2BD
100
AcDbPlotSettings
100
AcDbLayout
  1
ﾚｲｱｳﾄ1
 71
1
330
2B3
  0
LAYOUT
  5
2C1
102
{ACAD_REACTORS
330
2BD
102
}
330
2BD
100
AcDbPlotSettings
100
AcDbLayout
  1
ﾚｲｱｳﾄ2
 71
2
330
2B4
  0
MLINESTYLE
  5
2C2
102
{ACAD_REACTORS
330
2BE
102
}
330
2BE
100
AcDbMlineStyle
  2
STANDARD
 70
     0
  3

 62
   256
 51
90.00
 52
90.00
 71
     2
 49
0.50
 62
   256
  6
BYLAYER
 49
-0.50
 62
   256
  6
BYLAYER
  0
ENDSEC
  0
EOF
