  0
SECTION
  2
HEADER
  9
$ACADVER
  1
AC1015
  9
$DWGCODEPAGE
  3
ANSI_932
  9
$LTSCALE
 40
20.0
  9
$FILLMODE
 70
     1
  9
$CLAYER
  8
0
  9
$PDMODE
 70
     0
  9
$SPLFRAME
 70
     0
  9
$SPLINETYPE
 70
     6
  9
$SPLINESEGS
 70
     8
  9
$DIMASZ
 40
2.000000
  9
$DIMEXE
 40
1.500000
  9
$DIMEXO
 40
0.800000
  9
$DIMTAD
 70
     1
  9
$DIMTIH
 70
     0
  9
$DIMTOH
 70
     0
  9
$DIMTVP
 40
0.500000
  9
$DIMTXT
 40
3.100000
  9
$EXTMIN
 10
0.000000
 20
0.000000
 30
0.000000
  9
$EXTMAX
 10
297.000000
 20
420.000000
 30
0.000000
  9
$MEASUREMENT
 70
  1
  9
$LIMMIN
 10
0.000000
 20
0.000000
  9
$LIMMAX
 10
297.000000
 20
420.000000
  9
$HANDSEED
  5
171
  9
$LWDISPLAY
290
     0
  9
$DIMBLK
  1
_OPEN
  9
$DIMDEC
 70
     2
  9
$DIMADEC
 70
     2
  9
$DIMAUNIT
 70
     0
  9
$DIMZIN
 70
     8
  9
$DIMAZIN
 70
     2
  9
$DIMTOFL
 70
     1
  0
ENDSEC
  0
SECTION
  2
CLASSES
  0
ENDSEC
  0
SECTION
  2
TABLES
  0
TABLE
  2
VPORT
  5
13B
100
AcDbSymbolTable
 70
     1
  0
VPORT
  5
13C
100
AcDbSymbolTableRecord
100
AcDbViewportTableRecord
  2
*ACTIVE
 70
     0
 12
307.999999
 22
207.000015
 40
548.500093
 41
1.086600
  0
ENDTAB
  0
TABLE
  2
LTYPE
  5
13D
100
AcDbSymbolTable
 70
     3
  0
LTYPE
  5
13E
100
AcDbSymbolTableRecord
100
AcDbLinetypeTableRecord
  2
BYBLOCK
 70
     0
  3

 72
    65
 73
     0
 40
0.0
  0
LTYPE
  5
13F
100
AcDbSymbolTableRecord
100
AcDbLinetypeTableRecord
  2
BYLAYER
 70
     0
  3

 72
    65
 73
     0
 40
0.0
  0
LTYPE
  5
140
100
AcDbSymbolTableRecord
100
AcDbLinetypeTableRecord
  2
CONTINUOUS
 70
     0
  3
Solid line (NEC CAE2D for Win R15.2 : 2020.05.29)
 72
    65
 73
     0
 40
0.0
  0
LTYPE
  5
141
100
AcDbSymbolTableRecord
100
AcDbLinetypeTableRecord
  2
CENTER
 70
     0
  3
____ _ ____ _ ____ _ ____ _ ____ _ ____
 72
    65
 73
     4
 40
2.0
 49
1.25
 74
     0
 49
-0.25
 74
     0
 49
0.25
 74
     0
 49
-0.25
 74
     0
  0
LTYPE
  5
142
100
AcDbSymbolTableRecord
100
AcDbLinetypeTableRecord
  2
PHANTOM
 70
     0
  3
______  __  __  ______  __  __  ______ 
 72
    65
 73
     6
 40
2.5
 49
1.25
 74
     0
 49
-0.25
 74
     0
 49
0.25
 74
     0
 49
-0.25
 74
     0
 49
0.25
 74
     0
 49
-0.25
 74
     0
  0
ENDTAB
  0
TABLE
  2
LAYER
  5
143
100
AcDbSymbolTable
 70
    15
  0
LAYER
  5
144
100
AcDbSymbolTableRecord
100
AcDbLayerTableRecord
  2
0
 70
     0
 62
     7
  6
CONTINUOUS
370
    -3
390

  0
LAYER
  5
145
100
AcDbSymbolTableRecord
100
AcDbLayerTableRecord
  2
A0
 70
     0
 62
     9
  6
CONTINUOUS
370
    -3
390

  0
LAYER
  5
146
100
AcDbSymbolTableRecord
100
AcDbLayerTableRecord
  2
A2
 70
     0
 62
     9
  6
CONTINUOUS
370
    -3
390

  0
LAYER
  5
147
100
AcDbSymbolTableRecord
100
AcDbLayerTableRecord
  2
A3
 70
     0
 62
    12
  6
CONTINUOUS
370
    -3
390

  0
LAYER
  5
148
100
AcDbSymbolTableRecord
100
AcDbLayerTableRecord
  2
A4
 70
     0
 62
     9
  6
CONTINUOUS
370
    -3
390

  0
LAYER
  5
149
100
AcDbSymbolTableRecord
100
AcDbLayerTableRecord
  2
A5
 70
     0
 62
     8
  6
CONTINUOUS
370
    -3
390

  0
LAYER
  5
14A
100
AcDbSymbolTableRecord
100
AcDbLayerTableRecord
  2
A6
 70
     0
 62
    12
  6
CONTINUOUS
370
    -3
390

  0
LAYER
  5
14B
100
AcDbSymbolTableRecord
100
AcDbLayerTableRecord
  2
A8
 70
     0
 62
    10
  6
CONTINUOUS
370
    -3
390

  0
LAYER
  5
14C
100
AcDbSymbolTableRecord
100
AcDbLayerTableRecord
  2
A9
 70
     0
 62
     9
  6
CONTINUOUS
370
    -3
390

  0
LAYER
  5
14D
100
AcDbSymbolTableRecord
100
AcDbLayerTableRecord
  2
A10
 70
     0
 62
     6
  6
CONTINUOUS
370
    -3
390

  0
LAYER
  5
14E
100
AcDbSymbolTableRecord
100
AcDbLayerTableRecord
  2
A20
 70
     0
 62
     1
  6
CONTINUOUS
370
    -3
390

  0
LAYER
  5
14F
100
AcDbSymbolTableRecord
100
AcDbLayerTableRecord
  2
A30
 70
     0
 62
     1
  6
CONTINUOUS
370
    -3
390

  0
LAYER
  5
150
100
AcDbSymbolTableRecord
100
AcDbLayerTableRecord
  2
A40
 70
     0
 62
     9
  6
CONTINUOUS
370
    -3
390

  0
LAYER
  5
151
100
AcDbSymbolTableRecord
100
AcDbLayerTableRecord
  2
A50
 70
     0
 62
    12
  6
CONTINUOUS
370
    -3
390

  0
LAYER
  5
152
100
AcDbSymbolTableRecord
100
AcDbLayerTableRecord
  2
A1023
 70
     0
 62
    16
  6
CONTINUOUS
370
    -3
390

  0
ENDTAB
  0
TABLE
  2
STYLE
  5
153
100
AcDbSymbolTable
 70
     4
  0
STYLE
  5
154
100
AcDbSymbolTableRecord
100
AcDbTextStyleTableRecord
  2
STANDARD
 70
    64
 40
0.0
 41
1.0
 50
0.0
 71
     0
 42
3.000000000000000
  3
TXT
  4

  0
STYLE
  5
155
100
AcDbSymbolTableRecord
100
AcDbTextStyleTableRecord
  2
ANKTATE
 70
    68
 40
0.0
 41
1.0
 50
0.0
 71
     0
 42
3.000000000000000
  3
TXT
  4

  0
STYLE
  5
156
100
AcDbSymbolTableRecord
100
AcDbTextStyleTableRecord
  2
KNJYOKO
 70
    64
 40
0.0
 41
1.0
 50
0.0
 71
     0
 42
3.000000000000000
  3
TXT
  4
BIGFONT
  0
STYLE
  5
157
100
AcDbSymbolTableRecord
100
AcDbTextStyleTableRecord
  2
KNJTATE
 70
    68
 40
0.0
 41
1.0
 50
0.0
 71
     0
 42
3.000000000000000
  3
TXT
  4
BIGFONT
  0
ENDTAB
  0
TABLE
  2
VIEW
  5
158
100
AcDbSymbolTable
 70
     0
  0
ENDTAB
  0
TABLE
  2
UCS
  5
159
100
AcDbSymbolTable
 70
     0
  0
ENDTAB
  0
TABLE
  2
APPID
  5
15A
100
AcDbSymbolTable
 70
     1
  0
APPID
  5
15B
100
AcDbSymbolTableRecord
100
AcDbRegAppTableRecord
  2
ACAD
 70
     0
  0
ENDTAB
  0
TABLE
  2
DIMSTYLE
  5
15C
100
AcDbSymbolTable
 70
     2
100
AcDbDimStyleTable
  0
DIMSTYLE
105
15D
100
AcDbSymbolTableRecord
100
AcDbDimStyleTableRecord
  2
STANDARD
 70
     0
 41
2.000000
 44
1.500000
 42
0.800000
145
0.661290
140
3.100000
144
1.000000
146
0.645161
340
154
  0
DIMSTYLE
105
15E
100
AcDbSymbolTableRecord
100
AcDbDimStyleTableRecord
  2
A001
 70
     0
 41
2.000000
 44
1.500000
 42
0.800000
145
0.661290
140
3.100000
144
1.000000
146
0.645161
 77
     1
 73
     0
 74
     0
271
     2
179
     2
275
     0
 78
     8
 79
     2
172
     1
340
154
  0
ENDTAB
  0
TABLE
  2
BLOCK_RECORD
  5
15F
100
AcDbSymbolTable
 70
    12
  0
BLOCK_RECORD
  5
160
100
AcDbSymbolTableRecord
100
AcDbBlockTableRecord
  2
*MODEL_SPACE
  0
BLOCK_RECORD
  5
161
100
AcDbSymbolTableRecord
100
AcDbBlockTableRecord
  2
*PAPER_SPACE
  0
BLOCK_RECORD
  5
162
100
AcDbSymbolTableRecord
100
AcDbBlockTableRecord
  2
*PAPER_SPACE0
  0
BLOCK_RECORD
  5
1
100
AcDbSymbolTableRecord
100
AcDbBlockTableRecord
  2
_NONE
  0
BLOCK_RECORD
  5
4
100
AcDbSymbolTableRecord
100
AcDbBlockTableRecord
  2
_CLOSED
  0
BLOCK_RECORD
  5
B
100
AcDbSymbolTableRecord
100
AcDbBlockTableRecord
  2
_DOT
  0
BLOCK_RECORD
  5
13
100
AcDbSymbolTableRecord
100
AcDbBlockTableRecord
  2
_OPEN
  0
BLOCK_RECORD
  5
19
100
AcDbSymbolTableRecord
100
AcDbBlockTableRecord
  2
_ORIGIN
  0
BLOCK_RECORD
  5
1E
100
AcDbSymbolTableRecord
100
AcDbBlockTableRecord
  2
_OPEN30
  0
BLOCK_RECORD
  5
24
100
AcDbSymbolTableRecord
100
AcDbBlockTableRecord
  2
_BOXFILLED
  0
BLOCK_RECORD
  5
29
100
AcDbSymbolTableRecord
100
AcDbBlockTableRecord
  2
_BOXBLANK
  0
BLOCK_RECORD
  5
31
100
AcDbSymbolTableRecord
100
AcDbBlockTableRecord
  2
_OBLIQUE
  0
BLOCK_RECORD
  5
35
100
AcDbSymbolTableRecord
100
AcDbBlockTableRecord
  2
_OPEN90
  0
BLOCK_RECORD
  5
3B
100
AcDbSymbolTableRecord
100
AcDbBlockTableRecord
  2
_CLOSEDBLANK
  0
BLOCK_RECORD
  5
41
100
AcDbSymbolTableRecord
100
AcDbBlockTableRecord
  2
_DOTBLANK
  0
ENDTAB
  0
ENDSEC
  0
SECTION
  2
BLOCKS
  0
BLOCK
  5
163
100
AcDbEntity
  8
0
100
AcDbBlockBegin
  2
*MODEL_SPACE
 70
     0
 10
0.0
 20
0.0
 30
0.0
  3
*MODEL_SPACE
  1

  0
ENDBLK
  5
164
100
AcDbEntity
  8
0
100
AcDbBlockEnd
  0
BLOCK
  5
165
100
AcDbEntity
  8
0
100
AcDbBlockBegin
  2
*PAPER_SPACE
 70
     0
 10
0.0
 20
0.0
 30
0.0
  3
*PAPER_SPACE
  1

  0
ENDBLK
  5
166
100
AcDbEntity
  8
0
100
AcDbBlockEnd
  0
BLOCK
  5
167
100
AcDbEntity
  8
0
100
AcDbBlockBegin
  2
*PAPER_SPACE0
 70
     0
 10
0.0
 20
0.0
 30
0.0
  3
*PAPER_SPACE0
  1

  0
ENDBLK
  5
168
100
AcDbEntity
  8
0
100
AcDbBlockEnd
  0
BLOCK
  5
2
330
1
100
AcDbEntity
  8
0
100
AcDbBlockBegin
  2
_NONE
 70
     0
 10
0.0
 20
0.0
 30
0.0
  3
_NONE
  1

  0
ENDBLK
  5
3
330
1
100
AcDbEntity
  8
0
100
AcDbBlockEnd
  0
BLOCK
  5
5
330
4
100
AcDbEntity
  8
0
100
AcDbBlockBegin
  2
_CLOSED
 70
     0
 10
0.0
 20
0.0
 30
0.0
  3
_CLOSED
  1

  0
LINE
  5
6
330
4
100
AcDbEntity
  8
0
  6
BYBLOCK
 62
     0
370
    -2
100
AcDbLine
 10
-1.0
 20
0.166667
 30
0.0
 11
0.0
 21
0.0
 31
0.0
  0
LINE
  5
7
330
4
100
AcDbEntity
  8
0
  6
BYBLOCK
 62
     0
370
    -2
100
AcDbLine
 10
0.0
 20
0.0
 30
0.0
 11
-1.0
 21
-0.166667
 31
0.0
  0
LINE
  5
8
330
4
100
AcDbEntity
  8
0
  6
BYBLOCK
 62
     0
370
    -2
100
AcDbLine
 10
-1.0
 20
0.166667
 30
0.0
 11
-1.0
 21
-0.166667
 31
0.0
  0
LINE
  5
9
330
4
100
AcDbEntity
  8
0
  6
BYBLOCK
 62
     0
370
    -2
100
AcDbLine
 10
0.0
 20
0.0
 30
0.0
 11
-1.0
 21
0.0
 31
0.0
  0
ENDBLK
  5
A
330
4
100
AcDbEntity
  8
0
100
AcDbBlockEnd
  0
BLOCK
  5
C
330
B
100
AcDbEntity
  8
0
100
AcDbBlockBegin
  2
_DOT
 70
     0
 10
0.0
 20
0.0
 30
0.0
  3
_DOT
  1

  0
POLYLINE
  5
D
330
B
100
AcDbEntity
  8
0
  6
BYBLOCK
 62
     0
370
    -2
100
AcDb2dPolyline
 66
     1
 10
0.0
 20
0.0
 30
0.0
 70
     1
 40
0.5
 41
0.5
  0
VERTEX
  5
E
330
B
100
AcDbEntity
  8
0
  6
BYBLOCK
 62
     0
370
    -2
100
AcDbVertex
100
AcDb2dVertex
 10
-0.25
 20
0.0
 30
0.0
 42
1.0
  0
VERTEX
  5
F
330
B
100
AcDbEntity
  8
0
  6
BYBLOCK
 62
     0
370
    -2
100
AcDbVertex
100
AcDb2dVertex
 10
0.25
 20
0.0
 30
0.0
 42
1.0
  0
SEQEND
  5
10
330
B
100
AcDbEntity
  8
0
  6
BYBLOCK
 62
     0
370
    -2
  0
LINE
  5
11
330
B
100
AcDbEntity
  8
0
  6
BYBLOCK
 62
     0
370
    -2
100
AcDbLine
 10
-0.5
 20
0.0
 30
0.0
 11
-1.0
 21
0.0
 31
0.0
  0
ENDBLK
  5
12
330
B
100
AcDbEntity
  8
0
100
AcDbBlockEnd
  0
BLOCK
  5
14
330
13
100
AcDbEntity
  8
0
100
AcDbBlockBegin
  2
_OPEN
 70
     0
 10
0.0
 20
0.0
 30
0.0
  3
_OPEN
  1

  0
LINE
  5
15
330
13
100
AcDbEntity
  8
0
  6
BYBLOCK
 62
     0
370
    -2
100
AcDbLine
 10
-1.0
 20
0.166667
 30
0.0
 11
0.0
 21
0.0
 31
0.0
  0
LINE
  5
16
330
13
100
AcDbEntity
  8
0
  6
BYBLOCK
 62
     0
370
    -2
100
AcDbLine
 10
0.0
 20
0.0
 30
0.0
 11
-1.0
 21
-0.166667
 31
0.0
  0
LINE
  5
17
330
13
100
AcDbEntity
  8
0
  6
BYBLOCK
 62
     0
370
    -2
100
AcDbLine
 10
0.0
 20
0.0
 30
0.0
 11
-1.0
 21
0.0
 31
0.0
  0
ENDBLK
  5
18
330
13
100
AcDbEntity
  8
0
100
AcDbBlockEnd
  0
BLOCK
  5
1A
330
19
100
AcDbEntity
  8
0
100
AcDbBlockBegin
  2
_ORIGIN
 70
     0
 10
0.0
 20
0.0
 30
0.0
  3
_ORIGIN
  1

  0
CIRCLE
  5
1B
330
19
100
AcDbEntity
  8
0
  6
BYBLOCK
 62
     0
370
    -2
100
AcDbCircle
 10
0.0
 20
0.0
 30
0.0
 40
0.5
  0
LINE
  5
1C
330
19
100
AcDbEntity
  8
0
  6
BYBLOCK
 62
     0
370
    -2
100
AcDbLine
 10
0.0
 20
0.0
 30
0.0
 11
-1.0
 21
0.0
 31
0.0
  0
ENDBLK
  5
1D
330
19
100
AcDbEntity
  8
0
100
AcDbBlockEnd
  0
BLOCK
  5
1F
330
1E
100
AcDbEntity
  8
0
100
AcDbBlockBegin
  2
_OPEN30
 70
     0
 10
0.0
 20
0.0
 30
0.0
  3
_OPEN30
  1

  0
LINE
  5
20
330
1E
100
AcDbEntity
  8
0
  6
BYBLOCK
 62
     0
370
    -2
100
AcDbLine
 10
-1.0
 20
0.267949
 30
0.0
 11
0.0
 21
0.0
 31
0.0
  0
LINE
  5
21
330
1E
100
AcDbEntity
  8
0
  6
BYBLOCK
 62
     0
370
    -2
100
AcDbLine
 10
0.0
 20
0.0
 30
0.0
 11
-1.0
 21
-0.267949
 31
0.0
  0
LINE
  5
22
330
1E
100
AcDbEntity
  8
0
  6
BYBLOCK
 62
     0
370
    -2
100
AcDbLine
 10
0.0
 20
0.0
 30
0.0
 11
-1.0
 21
0.0
 31
0.0
  0
ENDBLK
  5
23
330
1E
100
AcDbEntity
  8
0
100
AcDbBlockEnd
  0
BLOCK
  5
25
330
24
100
AcDbEntity
  8
0
100
AcDbBlockBegin
  2
_BOXFILLED
 70
     0
 10
0.0
 20
0.0
 30
0.0
  3
_BOXFILLED
  1

  0
SOLID
  5
26
330
24
100
AcDbEntity
  8
0
  6
BYBLOCK
 62
     0
370
    -2
100
AcDbTrace
 10
-0.5
 20
0.5
 30
0.0
 11
0.5
 21
0.5
 31
0.0
 12
-0.5
 22
-0.5
 32
0.0
 13
0.5
 23
-0.5
 33
0.0
  0
LINE
  5
27
330
24
100
AcDbEntity
  8
0
  6
BYBLOCK
 62
     0
370
    -2
100
AcDbLine
 10
-0.5
 20
0.0
 30
0.0
 11
-1.0
 21
0.0
 31
0.0
  0
ENDBLK
  5
28
330
24
100
AcDbEntity
  8
0
100
AcDbBlockEnd
  0
BLOCK
  5
2A
330
29
100
AcDbEntity
  8
0
100
AcDbBlockBegin
  2
_BOXBLANK
 70
     0
 10
0.0
 20
0.0
 30
0.0
  3
_BOXBLANK
  1

  0
LINE
  5
2B
330
29
100
AcDbEntity
  8
0
  6
BYBLOCK
 62
     0
370
    -2
100
AcDbLine
 10
-0.5
 20
-0.5
 30
0.0
 11
0.5
 21
-0.5
 31
0.0
  0
LINE
  5
2C
330
29
100
AcDbEntity
  8
0
  6
BYBLOCK
 62
     0
370
    -2
100
AcDbLine
 10
0.5
 20
-0.5
 30
0.0
 11
0.5
 21
0.5
 31
0.0
  0
LINE
  5
2D
330
29
100
AcDbEntity
  8
0
  6
BYBLOCK
 62
     0
370
    -2
100
AcDbLine
 10
0.5
 20
0.5
 30
0.0
 11
-0.5
 21
0.5
 31
0.0
  0
LINE
  5
2E
330
29
100
AcDbEntity
  8
0
  6
BYBLOCK
 62
     0
370
    -2
100
AcDbLine
 10
-0.5
 20
0.5
 30
0.0
 11
-0.5
 21
-0.5
 31
0.0
  0
LINE
  5
2F
330
29
100
AcDbEntity
  8
0
  6
BYBLOCK
 62
     0
370
    -2
100
AcDbLine
 10
-0.5
 20
0.0
 30
0.0
 11
-1.0
 21
0.0
 31
0.0
  0
ENDBLK
  5
30
330
29
100
AcDbEntity
  8
0
100
AcDbBlockEnd
  0
BLOCK
  5
32
330
31
100
AcDbEntity
  8
0
100
AcDbBlockBegin
  2
_OBLIQUE
 70
     0
 10
0.0
 20
0.0
 30
0.0
  3
_OBLIQUE
  1

  0
LINE
  5
33
330
31
100
AcDbEntity
  8
0
  6
BYBLOCK
 62
     0
370
    -2
100
AcDbLine
 10
-0.5
 20
-0.5
 30
0.0
 11
0.5
 21
0.5
 31
0.0
  0
ENDBLK
  5
34
330
31
100
AcDbEntity
  8
0
100
AcDbBlockEnd
  0
BLOCK
  5
36
330
35
100
AcDbEntity
  8
0
100
AcDbBlockBegin
  2
_OPEN90
 70
     0
 10
0.0
 20
0.0
 30
0.0
  3
_OPEN90
  1

  0
LINE
  5
37
330
35
100
AcDbEntity
  8
0
  6
BYBLOCK
 62
     0
370
    -2
100
AcDbLine
 10
-0.5
 20
0.5
 30
0.0
 11
0.0
 21
0.0
 31
0.0
  0
LINE
  5
38
330
35
100
AcDbEntity
  8
0
  6
BYBLOCK
 62
     0
370
    -2
100
AcDbLine
 10
0.0
 20
0.0
 30
0.0
 11
-0.5
 21
-0.5
 31
0.0
  0
LINE
  5
39
330
35
100
AcDbEntity
  8
0
  6
BYBLOCK
 62
     0
370
    -2
100
AcDbLine
 10
0.0
 20
0.0
 30
0.0
 11
-1.0
 21
0.0
 31
0.0
  0
ENDBLK
  5
3A
330
35
100
AcDbEntity
  8
0
100
AcDbBlockEnd
  0
BLOCK
  5
3C
330
3B
100
AcDbEntity
  8
0
100
AcDbBlockBegin
  2
_CLOSEDBLANK
 70
     0
 10
0.0
 20
0.0
 30
0.0
  3
_CLOSEDBLANK
  1

  0
LINE
  5
3D
330
3B
100
AcDbEntity
  8
0
  6
BYBLOCK
 62
     0
370
    -2
100
AcDbLine
 10
-1.0
 20
0.1666666666666666
 30
0.0
 11
0.0
 21
0.0
 31
0.0
  0
LINE
  5
3E
330
3B
100
AcDbEntity
  8
0
  6
BYBLOCK
 62
     0
370
    -2
100
AcDbLine
 10
0.0
 20
0.0
 30
0.0
 11
-1.0
 21
-0.1666666666666666
 31
0.0
  0
LINE
  5
3F
330
3B
100
AcDbEntity
  8
0
  6
BYBLOCK
 62
     0
370
    -2
100
AcDbLine
 10
-1.0
 20
0.1666666666666666
 30
0.0
 11
-1.0
 21
-0.1666666666666666
 31
0.0
  0
ENDBLK
  5
40
330
3B
100
AcDbEntity
  8
0
100
AcDbBlockEnd
  0
BLOCK
  5
42
330
41
100
AcDbEntity
  8
0
100
AcDbBlockBegin
  2
_DOTBLANK
 70
     0
 10
0.0
 20
0.0
 30
0.0
  3
_DOTBLANK
  1

  0
CIRCLE
  5
43
330
41
100
AcDbEntity
  8
0
  6
BYBLOCK
 62
     0
370
    -2
100
AcDbCircle
 10
0.0
 20
0.0
 30
0.0
 40
0.5
  0
LINE
  5
44
330
41
100
AcDbEntity
  8
0
  6
BYBLOCK
 62
     0
370
    -2
100
AcDbLine
 10
-0.5
 20
0.0
 30
0.0
 11
-1.0
 21
0.0
 31
0.0
  0
ENDBLK
  5
45
330
41
100
AcDbEntity
  8
0
100
AcDbBlockEnd
  0
ENDSEC
  0
SECTION
  2
ENTITIES
  0
MTEXT
  5
46
100
AcDbEntity
  8
A8
  6
CONTINUOUS
 62
7
100
AcDbMText
 10
9.999997526638502
 20
18.00000076076889
 30
0.0000000000000000
 40
3.000000000000000
 41
0.0000000000000000
 44
0.6739999771118164
 71
     7
 72
     1
  1
{\H0.94x;{TYPE No.TM-370-100-60}}
 11
1.000000000000000
 21
0.0000000000000000
 31
0.0000000000000000
  7
STANDARD
  0
POINT
  5
47
100
AcDbEntity
  8
A0
  6
CONTINUOUS
 62
5
100
AcDbPoint
 10
9.999997526638502
 20
18.00000076076889
 30
0.0000000000000000
  0
POINT
  5
48
100
AcDbEntity
  8
A10
  6
CONTINUOUS
 62
5
100
AcDbPoint
 10
50.00000000000000
 20
50.00000000000017
 30
0.0000000000000000
  0
LINE
  5
49
100
AcDbEntity
  8
A4
  6
CONTINUOUS
 62
7
100
AcDbLine
 10
60.99999999999994
 20
343.0000000000002
 30
0.0000000000000000
 11
38.99999999999994
 21
343.0000000000002
 31
0.0000000000000000
  0
LINE
  5
4A
100
AcDbEntity
  8
A4
  6
CONTINUOUS
 62
7
100
AcDbLine
 10
63.69999999999994
 20
177.0000000000002
 30
0.0000000000000000
 11
36.29999999999993
 21
177.0000000000002
 31
0.0000000000000000
  0
LINE
  5
4B
100
AcDbEntity
  8
A4
  6
CONTINUOUS
 62
7
100
AcDbLine
 10
62.74999999999994
 20
175.0000000000002
 30
0.0000000000000000
 11
37.24999999999994
 21
175.0000000000002
 31
0.0000000000000000
  0
LINE
  5
4C
100
AcDbEntity
  8
A4
  6
CONTINUOUS
 62
7
100
AcDbLine
 10
62.74999999999994
 20
177.0000000000002
 30
0.0000000000000000
 11
62.74999999999994
 21
175.0000000000002
 31
0.0000000000000000
  0
LINE
  5
4D
100
AcDbEntity
  8
A4
  6
CONTINUOUS
 62
7
100
AcDbLine
 10
37.24999999999994
 20
177.0000000000002
 30
0.0000000000000000
 11
37.24999999999994
 21
175.0000000000002
 31
0.0000000000000000
  0
LINE
  5
4E
100
AcDbEntity
  8
A4
  6
CONTINUOUS
 62
7
100
AcDbLine
 10
63.69999999999994
 20
181.0000000000002
 30
0.0000000000000000
 11
36.29999999999993
 21
181.0000000000002
 31
0.0000000000000000
  0
LINE
  5
4F
100
AcDbEntity
  8
A4
  6
CONTINUOUS
 62
7
100
AcDbLine
 10
63.69999999999994
 20
183.0000000000002
 30
0.0000000000000000
 11
36.29999999999993
 21
183.0000000000002
 31
0.0000000000000000
  0
LINE
  5
50
100
AcDbEntity
  8
A4
  6
CONTINUOUS
 62
7
100
AcDbLine
 10
63.69999999999994
 20
194.0000000000002
 30
0.0000000000000000
 11
36.29999999999993
 21
194.0000000000002
 31
0.0000000000000000
  0
LINE
  5
51
100
AcDbEntity
  8
A4
  6
CONTINUOUS
 62
7
100
AcDbLine
 10
63.69999999999994
 20
196.0000000000002
 30
0.0000000000000000
 11
36.29999999999993
 21
196.0000000000002
 31
0.0000000000000000
  0
LINE
  5
52
100
AcDbEntity
  8
A2
  6
CENTER
 62
4
100
AcDbLine
 10
50.00000000000000
 20
375.0000000000002
 30
0.0000000000000000
 11
50.00000000000000
 21
28.50000000000027
 31
0.0000000000000000
  0
LINE
  5
53
100
AcDbEntity
  8
A2
  6
CENTER
 62
4
100
AcDbLine
 10
33.99999999999992
 20
359.0000000000002
 30
0.0000000000000000
 11
65.99999999999994
 21
359.0000000000002
 31
0.0000000000000000
  0
LINE
  5
54
100
AcDbEntity
  8
A4
  6
CONTINUOUS
 62
7
100
AcDbLine
 10
38.99999999999994
 20
359.0000000000002
 30
0.0000000000000000
 11
38.99999999999994
 21
343.0000000000002
 31
0.0000000000000000
  0
LINE
  5
55
100
AcDbEntity
  8
A4
  6
CONTINUOUS
 62
7
100
AcDbLine
 10
60.99999999999994
 20
359.0000000000002
 30
0.0000000000000000
 11
60.99999999999994
 21
343.0000000000002
 31
0.0000000000000000
  0
LINE
  5
56
100
AcDbEntity
  8
A4
  6
CONTINUOUS
 62
7
100
AcDbLine
 10
36.29999999999993
 20
336.0000000000001
 30
0.0000000000000000
 11
36.29999999999993
 21
196.0000000000003
 31
0.0000000000000000
  0
LINE
  5
57
100
AcDbEntity
  8
A4
  6
CONTINUOUS
 62
7
100
AcDbLine
 10
63.69999999999994
 20
336.0000000000001
 30
0.0000000000000000
 11
63.69999999999994
 21
196.0000000000003
 31
0.0000000000000000
  0
LINE
  5
58
100
AcDbEntity
  8
A4
  6
CONTINUOUS
 62
7
100
AcDbLine
 10
36.29999999999993
 20
336.0000000000002
 30
0.0000000000000000
 11
63.69999999999994
 21
336.0000000000002
 31
0.0000000000000000
  0
LINE
  5
59
100
AcDbEntity
  8
A4
  6
CONTINUOUS
 62
7
100
AcDbLine
 10
37.49999999999994
 20
337.9999999999999
 30
0.0000000000000000
 11
62.49999999999994
 21
337.9999999999999
 31
0.0000000000000000
  0
LINE
  5
5A
100
AcDbEntity
  8
A4
  6
CONTINUOUS
 62
7
100
AcDbLine
 10
37.49999999999993
 20
337.9999999999999
 30
0.0000000000000000
 11
36.29999999999994
 21
336.0000000000002
 31
0.0000000000000000
  0
LINE
  5
5B
100
AcDbEntity
  8
A4
  6
CONTINUOUS
 62
7
100
AcDbLine
 10
62.49999999999989
 20
337.9999999999999
 30
0.0000000000000000
 11
63.69999999999993
 21
336.0000000000001
 31
0.0000000000000000
  0
LINE
  5
5C
100
AcDbEntity
  8
A4
  6
CONTINUOUS
 62
7
100
AcDbLine
 10
43.99999999999989
 20
343.0000000000001
 30
0.0000000000000000
 11
37.49999999999989
 21
337.9999999999998
 31
0.0000000000000000
  0
LINE
  5
5D
100
AcDbEntity
  8
A4
  6
CONTINUOUS
 62
7
100
AcDbLine
 10
55.99999999999997
 20
343.0000000000002
 30
0.0000000000000000
 11
62.49999999999999
 21
337.9999999999999
 31
0.0000000000000000
  0
LINE
  5
5E
100
AcDbEntity
  8
A4
  6
CONTINUOUS
 62
7
100
AcDbLine
 10
36.29999999999993
 20
194.0000000000002
 30
0.0000000000000000
 11
36.29999999999993
 21
183.0000000000002
 31
0.0000000000000000
  0
LINE
  5
5F
100
AcDbEntity
  8
A4
  6
CONTINUOUS
 62
7
100
AcDbLine
 10
63.69999999999994
 20
194.0000000000002
 30
0.0000000000000000
 11
63.69999999999994
 21
183.0000000000002
 31
0.0000000000000000
  0
LINE
  5
60
100
AcDbEntity
  8
A4
  6
CONTINUOUS
 62
7
100
AcDbLine
 10
36.29999999999993
 20
181.0000000000002
 30
0.0000000000000000
 11
36.29999999999993
 21
177.0000000000002
 31
0.0000000000000000
  0
LINE
  5
61
100
AcDbEntity
  8
A4
  6
CONTINUOUS
 62
7
100
AcDbLine
 10
63.69999999999994
 20
181.0000000000002
 30
0.0000000000000000
 11
63.69999999999994
 21
177.0000000000002
 31
0.0000000000000000
  0
LINE
  5
62
100
AcDbEntity
  8
A4
  6
CONTINUOUS
 62
7
100
AcDbLine
 10
43.75000000000000
 20
175.0000000000001
 30
0.0000000000000000
 11
43.75000000000000
 21
66.00000000000017
 31
0.0000000000000000
  0
LINE
  5
63
100
AcDbEntity
  8
A4
  6
CONTINUOUS
 62
7
100
AcDbLine
 10
56.25000000000000
 20
175.0000000000001
 30
0.0000000000000000
 11
56.25000000000000
 21
66.00000000000017
 31
0.0000000000000000
  0
LINE
  5
64
100
AcDbEntity
  8
A4
  6
CONTINUOUS
 62
7
100
AcDbLine
 10
39.00000000000000
 20
50.00000000000017
 30
0.0000000000000000
 11
39.00000000000000
 21
66.00000000000017
 31
0.0000000000000000
  0
LINE
  5
65
100
AcDbEntity
  8
A4
  6
CONTINUOUS
 62
7
100
AcDbLine
 10
61.00000000000000
 20
66.00000000000017
 30
0.0000000000000000
 11
39.00000000000000
 21
66.00000000000017
 31
0.0000000000000000
  0
LINE
  5
66
100
AcDbEntity
  8
A4
  6
CONTINUOUS
 62
7
100
AcDbLine
 10
61.00000000000000
 20
50.00000000000017
 30
0.0000000000000000
 11
61.00000000000000
 21
66.00000000000017
 31
0.0000000000000000
  0
LINE
  5
67
100
AcDbEntity
  8
A2
  6
CENTER
 62
4
100
AcDbLine
 10
33.99999999999992
 20
150.0000000000002
 30
0.0000000000000000
 11
65.99999999999994
 21
150.0000000000002
 31
0.0000000000000000
  0
LINE
  5
68
100
AcDbEntity
  8
A3
  6
PHANTOM
 62
1
100
AcDbLine
 10
38.99999999999994
 20
150.0000000000002
 30
0.0000000000000000
 11
38.99999999999994
 21
166.0000000000002
 31
0.0000000000000000
  0
LINE
  5
69
100
AcDbEntity
  8
A3
  6
PHANTOM
 62
1
100
AcDbLine
 10
38.99999999999994
 20
166.0000000000002
 30
0.0000000000000000
 11
60.99999999999994
 21
166.0000000000002
 31
0.0000000000000000
  0
LINE
  5
6A
100
AcDbEntity
  8
A3
  6
PHANTOM
 62
1
100
AcDbLine
 10
60.99999999999994
 20
150.0000000000002
 30
0.0000000000000000
 11
60.99999999999994
 21
166.0000000000002
 31
0.0000000000000000
  0
LINE
  5
6B
100
AcDbEntity
  8
A2
  6
CENTER
 62
4
100
AcDbLine
 10
230.0000000000000
 20
375.0000000000002
 30
0.0000000000000000
 11
230.0000000000000
 21
28.50000000000027
 31
0.0000000000000000
  0
LINE
  5
6C
100
AcDbEntity
  8
A4
  6
CONTINUOUS
 62
7
100
AcDbLine
 10
223.7500000000000
 20
175.0000000000002
 30
0.0000000000000000
 11
223.7500000000000
 21
65.91087400000026
 31
0.0000000000000000
  0
LINE
  5
6D
100
AcDbEntity
  8
A4
  6
CONTINUOUS
 62
7
100
AcDbLine
 10
236.2500000000000
 20
175.0000000000002
 30
0.0000000000000000
 11
236.2500000000000
 21
65.91087400000026
 31
0.0000000000000000
  0
LINE
  5
6E
100
AcDbEntity
  8
A4
  6
CONTINUOUS
 62
7
100
AcDbLine
 10
243.6999999999999
 20
336.0000000000002
 30
0.0000000000000000
 11
243.6999999999999
 21
196.0000000000002
 31
0.0000000000000000
  0
LINE
  5
6F
100
AcDbEntity
  8
A4
  6
CONTINUOUS
 62
7
100
AcDbLine
 10
216.2999999999998
 20
194.0000000000002
 30
0.0000000000000000
 11
216.2999999999998
 21
183.0000000000002
 31
0.0000000000000000
  0
LINE
  5
70
100
AcDbEntity
  8
A4
  6
CONTINUOUS
 62
7
100
AcDbLine
 10
216.2999999999998
 20
336.0000000000002
 30
0.0000000000000000
 11
216.2999999999998
 21
196.0000000000002
 31
0.0000000000000000
  0
LINE
  5
71
100
AcDbEntity
  8
A4
  6
CONTINUOUS
 62
7
100
AcDbLine
 10
216.2999999999998
 20
181.0000000000002
 30
0.0000000000000000
 11
216.2999999999998
 21
177.0000000000002
 31
0.0000000000000000
  0
LINE
  5
72
100
AcDbEntity
  8
A4
  6
CONTINUOUS
 62
7
100
AcDbLine
 10
243.6999999999999
 20
196.0000000000002
 30
0.0000000000000000
 11
216.2999999999998
 21
196.0000000000002
 31
0.0000000000000000
  0
LINE
  5
73
100
AcDbEntity
  8
A4
  6
CONTINUOUS
 62
7
100
AcDbLine
 10
243.6999999999999
 20
194.0000000000002
 30
0.0000000000000000
 11
216.2999999999998
 21
194.0000000000002
 31
0.0000000000000000
  0
LINE
  5
74
100
AcDbEntity
  8
A4
  6
CONTINUOUS
 62
7
100
AcDbLine
 10
243.6999999999999
 20
183.0000000000002
 30
0.0000000000000000
 11
216.2999999999998
 21
183.0000000000002
 31
0.0000000000000000
  0
LINE
  5
75
100
AcDbEntity
  8
A4
  6
CONTINUOUS
 62
7
100
AcDbLine
 10
243.6999999999999
 20
181.0000000000002
 30
0.0000000000000000
 11
216.2999999999998
 21
181.0000000000002
 31
0.0000000000000000
  0
LINE
  5
76
100
AcDbEntity
  8
A4
  6
CONTINUOUS
 62
7
100
AcDbLine
 10
217.2499999999999
 20
177.0000000000002
 30
0.0000000000000000
 11
217.2499999999999
 21
175.0000000000002
 31
0.0000000000000000
  0
LINE
  5
77
100
AcDbEntity
  8
A4
  6
CONTINUOUS
 62
7
100
AcDbLine
 10
242.7499999999998
 20
177.0000000000002
 30
0.0000000000000000
 11
242.7499999999998
 21
175.0000000000002
 31
0.0000000000000000
  0
LINE
  5
78
100
AcDbEntity
  8
A4
  6
CONTINUOUS
 62
7
100
AcDbLine
 10
242.7499999999998
 20
175.0000000000002
 30
0.0000000000000000
 11
217.2499999999999
 21
175.0000000000002
 31
0.0000000000000000
  0
LINE
  5
79
100
AcDbEntity
  8
A4
  6
CONTINUOUS
 62
7
100
AcDbLine
 10
243.6999999999999
 20
177.0000000000002
 30
0.0000000000000000
 11
216.2999999999998
 21
177.0000000000002
 31
0.0000000000000000
  0
LINE
  5
7A
100
AcDbEntity
  8
A4
  6
CONTINUOUS
 62
7
100
AcDbLine
 10
216.2999999999998
 20
336.0000000000002
 30
0.0000000000000000
 11
243.6999999999999
 21
336.0000000000002
 31
0.0000000000000000
  0
LINE
  5
7B
100
AcDbEntity
  8
A4
  6
CONTINUOUS
 62
7
100
AcDbLine
 10
242.5000000000000
 20
338.0000000000000
 30
0.0000000000000000
 11
243.6999999999999
 21
336.0000000000003
 31
0.0000000000000000
  0
LINE
  5
7C
100
AcDbEntity
  8
A4
  6
CONTINUOUS
 62
7
100
AcDbLine
 10
217.4999999999999
 20
337.9999999999999
 30
0.0000000000000000
 11
242.4999999999999
 21
337.9999999999999
 31
0.0000000000000000
  0
LINE
  5
7D
100
AcDbEntity
  8
A4
  6
CONTINUOUS
 62
7
100
AcDbLine
 10
217.4999999999999
 20
337.9999999999999
 30
0.0000000000000000
 11
216.2999999999998
 21
336.0000000000002
 31
0.0000000000000000
  0
LINE
  5
7E
100
AcDbEntity
  8
A2
  6
CENTER
 62
4
100
AcDbLine
 10
213.9999999999997
 20
359.0000000000002
 30
0.0000000000000000
 11
245.9999999999999
 21
359.0000000000002
 31
0.0000000000000000
  0
LINE
  5
7F
100
AcDbEntity
  8
A4
  6
CONTINUOUS
 62
7
100
AcDbLine
 10
224.0426940000001
 20
343.0328369999999
 30
0.0000000000000000
 11
217.5000000000001
 21
337.9999999999999
 31
0.0000000000000000
  0
LINE
  5
80
100
AcDbEntity
  8
A4
  6
CONTINUOUS
 62
7
100
AcDbLine
 10
235.9573059999999
 20
343.0328370000000
 30
0.0000000000000000
 11
242.5000000000000
 21
338.0000000000001
 31
0.0000000000000000
  0
LINE
  5
81
100
AcDbEntity
  8
A4
  6
CONTINUOUS
 62
7
100
AcDbLine
 10
224.4999999999997
 20
343.0000000000002
 30
0.0000000000000000
 11
235.4999999999999
 21
343.0000000000002
 31
0.0000000000000000
  0
LINE
  5
82
100
AcDbEntity
  8
A4
  6
CONTINUOUS
 62
7
100
AcDbLine
 10
243.6999999999999
 20
194.0000000000002
 30
0.0000000000000000
 11
243.6999999999999
 21
183.0000000000002
 31
0.0000000000000000
  0
LINE
  5
83
100
AcDbEntity
  8
A4
  6
CONTINUOUS
 62
7
100
AcDbLine
 10
243.6999999999999
 20
181.0000000000002
 30
0.0000000000000000
 11
243.6999999999999
 21
177.0000000000002
 31
0.0000000000000000
  0
LINE
  5
84
100
AcDbEntity
  8
A4
  6
CONTINUOUS
 62
7
100
AcDbLine
 10
235.4999999999999
 20
370.0000000000002
 30
0.0000000000000000
 11
235.4999999999999
 21
346.2000120000002
 31
0.0000000000000000
  0
LINE
  5
85
100
AcDbEntity
  8
A4
  6
CONTINUOUS
 62
7
100
AcDbLine
 10
224.4999999999997
 20
370.0000000000002
 30
0.0000000000000000
 11
224.4999999999997
 21
346.2000120000002
 31
0.0000000000000000
  0
LINE
  5
86
100
AcDbEntity
  8
A4
  6
CONTINUOUS
 62
7
100
AcDbLine
 10
238.6999969999999
 20
370.0000000000002
 30
0.0000000000000000
 11
238.6999969999999
 21
346.2000120000002
 31
0.0000000000000000
  0
LINE
  5
87
100
AcDbEntity
  8
A4
  6
CONTINUOUS
 62
7
100
AcDbLine
 10
221.3000029999997
 20
370.0000000000002
 30
0.0000000000000000
 11
221.3000029999997
 21
346.2000120000002
 31
0.0000000000000000
  0
LINE
  5
88
100
AcDbEntity
  8
A4
  6
CONTINUOUS
 62
7
100
AcDbLine
 10
221.3000029999997
 20
370.0000000000002
 30
0.0000000000000000
 11
224.4999999999997
 21
370.0000000000002
 31
0.0000000000000000
  0
LINE
  5
89
100
AcDbEntity
  8
A4
  6
CONTINUOUS
 62
7
100
AcDbLine
 10
224.4999999999997
 20
346.2000120000002
 30
0.0000000000000000
 11
235.4999999999999
 21
346.2000120000002
 31
0.0000000000000000
  0
LINE
  5
8A
100
AcDbEntity
  8
A4
  6
CONTINUOUS
 62
7
100
AcDbLine
 10
235.4999999999999
 20
370.0000000000002
 30
0.0000000000000000
 11
238.6999969999999
 21
370.0000000000002
 31
0.0000000000000000
  0
LINE
  5
8B
100
AcDbEntity
  8
A3
  6
PHANTOM
 62
1
100
AcDbLine
 10
221.3000029999997
 20
139.0000000000002
 30
0.0000000000000000
 11
224.4999999999997
 21
139.0000000000002
 31
0.0000000000000000
  0
LINE
  5
8C
100
AcDbEntity
  8
A3
  6
PHANTOM
 62
1
100
AcDbLine
 10
224.4999999999997
 20
139.0000000000002
 30
0.0000000000000000
 11
224.4999999999997
 21
162.7999870000003
 31
0.0000000000000000
  0
LINE
  5
8D
100
AcDbEntity
  8
A3
  6
PHANTOM
 62
1
100
AcDbLine
 10
221.3000029999997
 20
139.0000000000002
 30
0.0000000000000000
 11
221.3000029999997
 21
162.7999870000003
 31
0.0000000000000000
  0
LINE
  5
8E
100
AcDbEntity
  8
A3
  6
PHANTOM
 62
1
100
AcDbLine
 10
235.4999999999999
 20
139.0000000000002
 30
0.0000000000000000
 11
235.4999999999999
 21
162.7999870000003
 31
0.0000000000000000
  0
LINE
  5
8F
100
AcDbEntity
  8
A3
  6
PHANTOM
 62
1
100
AcDbLine
 10
238.6999969999999
 20
139.0000000000002
 30
0.0000000000000000
 11
238.6999969999999
 21
162.7999870000003
 31
0.0000000000000000
  0
LINE
  5
90
100
AcDbEntity
  8
A3
  6
PHANTOM
 62
1
100
AcDbLine
 10
235.4999999999999
 20
139.0000000000002
 30
0.0000000000000000
 11
238.6999969999999
 21
139.0000000000002
 31
0.0000000000000000
  0
LINE
  5
91
100
AcDbEntity
  8
A3
  6
PHANTOM
 62
1
100
AcDbLine
 10
224.4999999999997
 20
162.7999870000003
 30
0.0000000000000000
 11
235.4999999999999
 21
162.7999870000003
 31
0.0000000000000000
  0
LINE
  5
92
100
AcDbEntity
  8
A3
  6
PHANTOM
 62
1
100
AcDbLine
 10
224.4999999999997
 20
166.0000000000002
 30
0.0000000000000000
 11
235.4999999999999
 21
166.0000000000002
 31
0.0000000000000000
  0
LINE
  5
93
100
AcDbEntity
  8
A2
  6
CENTER
 62
4
100
AcDbLine
 10
213.9999999999997
 20
150.0000000000002
 30
0.0000000000000000
 11
245.9999999999999
 21
150.0000000000002
 31
0.0000000000000000
  0
LINE
  5
94
100
AcDbEntity
  8
A2
  6
CENTER
 62
4
100
AcDbLine
 10
33.99999999999999
 20
50.00000000000017
 30
0.0000000000000000
 11
66.00000000000000
 21
50.00000000000017
 31
0.0000000000000000
  0
LINE
  5
95
100
AcDbEntity
  8
A2
  6
CENTER
 62
4
100
AcDbLine
 10
257.4999999999999
 20
-39.75002999999973
 30
0.0000000000000000
 11
202.5000000000000
 21
-39.75002999999973
 31
0.0000000000000000
  0
LINE
  5
96
100
AcDbEntity
  8
A2
  6
CENTER
 62
4
100
AcDbLine
 10
230.0000000000000
 20
-12.25002999999975
 30
0.0000000000000000
 11
230.0000000000000
 21
-67.25003199999973
 31
0.0000000000000000
  0
LINE
  5
97
100
AcDbEntity
  8
A4
  6
CONTINUOUS
 62
7
100
AcDbLine
 10
238.6999970000000
 20
-28.75002999999973
 30
0.0000000000000000
 11
238.6999970000000
 21
-50.75002999999973
 31
0.0000000000000000
  0
LINE
  5
98
100
AcDbEntity
  8
A4
  6
CONTINUOUS
 62
7
100
AcDbLine
 10
235.5000000000000
 20
-28.75002999999973
 30
0.0000000000000000
 11
235.5000000000000
 21
-50.75002999999973
 31
0.0000000000000000
  0
LINE
  5
99
100
AcDbEntity
  8
A4
  6
CONTINUOUS
 62
7
100
AcDbLine
 10
224.4999999999998
 20
-28.75002999999973
 30
0.0000000000000000
 11
224.4999999999998
 21
-50.75002999999973
 31
0.0000000000000000
  0
LINE
  5
9A
100
AcDbEntity
  8
A4
  6
CONTINUOUS
 62
7
100
AcDbLine
 10
221.3000029999998
 20
-28.75002999999973
 30
0.0000000000000000
 11
221.3000029999998
 21
-50.75002999999973
 31
0.0000000000000000
  0
LINE
  5
9B
100
AcDbEntity
  8
A4
  6
CONTINUOUS
 62
7
100
AcDbLine
 10
238.6999970000000
 20
-50.75002999999973
 30
0.0000000000000000
 11
221.3000029999998
 21
-50.75002999999973
 31
0.0000000000000000
  0
LINE
  5
9C
100
AcDbEntity
  8
A4
  6
CONTINUOUS
 62
7
100
AcDbLine
 10
238.6999970000000
 20
-28.75002999999973
 30
0.0000000000000000
 11
221.3000029999998
 21
-28.75002999999973
 31
0.0000000000000000
  0
LINE
  5
9D
100
AcDbEntity
  8
A2
  6
CENTER
 62
4
100
AcDbLine
 10
229.9999999999999
 20
426.2500610000000
 30
0.0000000000000000
 11
229.9999999999999
 21
481.2500610000000
 31
0.0000000000000000
  0
LINE
  5
9E
100
AcDbEntity
  8
A4
  6
CONTINUOUS
 62
7
100
AcDbLine
 10
235.4999999999999
 20
442.7500610000000
 30
0.0000000000000000
 11
235.4999999999999
 21
464.7500610000001
 31
0.0000000000000000
  0
LINE
  5
9F
100
AcDbEntity
  8
A2
  6
CENTER
 62
4
100
AcDbLine
 10
257.4999999999999
 20
453.7500610000000
 30
0.0000000000000000
 11
202.4999999999999
 21
453.7500610000000
 31
0.0000000000000000
  0
LINE
  5
A0
100
AcDbEntity
  8
A4
  6
CONTINUOUS
 62
7
100
AcDbLine
 10
224.4999999999997
 20
442.7500610000000
 30
0.0000000000000000
 11
224.4999999999997
 21
464.7500610000001
 31
0.0000000000000000
  0
LINE
  5
A1
100
AcDbEntity
  8
A4
  6
CONTINUOUS
 62
7
100
AcDbLine
 10
221.3000029999997
 20
442.7500610000000
 30
0.0000000000000000
 11
221.3000029999997
 21
464.7500610000001
 31
0.0000000000000000
  0
LINE
  5
A2
100
AcDbEntity
  8
A4
  6
CONTINUOUS
 62
7
100
AcDbLine
 10
238.6999969999999
 20
442.7500610000000
 30
0.0000000000000000
 11
238.6999969999999
 21
464.7500610000001
 31
0.0000000000000000
  0
LINE
  5
A3
100
AcDbEntity
  8
A4
  6
CONTINUOUS
 62
7
100
AcDbLine
 10
238.6999969999999
 20
442.7500610000000
 30
0.0000000000000000
 11
221.3000029999997
 21
442.7500610000000
 31
0.0000000000000000
  0
LINE
  5
A4
100
AcDbEntity
  8
A4
  6
CONTINUOUS
 62
7
100
AcDbLine
 10
238.6999969999999
 20
464.7500610000001
 30
0.0000000000000000
 11
221.3000029999997
 21
464.7500610000001
 31
0.0000000000000000
  0
LINE
  5
A5
100
AcDbEntity
  8
A2
  6
CENTER
 62
4
100
AcDbLine
 10
410.0000000000000
 20
375.0000000000002
 30
0.0000000000000000
 11
410.0000000000000
 21
28.50000000000027
 31
0.0000000000000000
  0
LINE
  5
A6
100
AcDbEntity
  8
A3
  6
PHANTOM
 62
1
100
AcDbLine
 10
398.9999999999998
 20
150.0000000000002
 30
0.0000000000000000
 11
398.9999999999998
 21
166.0000000000002
 31
0.0000000000000000
  0
LINE
  5
A7
100
AcDbEntity
  8
A4
  6
CONTINUOUS
 62
7
100
AcDbLine
 10
416.2500000000000
 20
175.0000000000001
 30
0.0000000000000000
 11
416.2500000000000
 21
66.00000000000017
 31
0.0000000000000000
  0
LINE
  5
A8
100
AcDbEntity
  8
A4
  6
CONTINUOUS
 62
7
100
AcDbLine
 10
403.7500000000000
 20
175.0000000000001
 30
0.0000000000000000
 11
403.7500000000000
 21
66.00000000000017
 31
0.0000000000000000
  0
LINE
  5
A9
100
AcDbEntity
  8
A4
  6
CONTINUOUS
 62
7
100
AcDbLine
 10
396.3000000000000
 20
336.0000000000001
 30
0.0000000000000000
 11
396.3000000000000
 21
196.0000000000003
 31
0.0000000000000000
  0
LINE
  5
AA
100
AcDbEntity
  8
A4
  6
CONTINUOUS
 62
7
100
AcDbLine
 10
423.6999999999999
 20
194.0000000000002
 30
0.0000000000000000
 11
423.6999999999999
 21
183.0000000000002
 31
0.0000000000000000
  0
LINE
  5
AB
100
AcDbEntity
  8
A4
  6
CONTINUOUS
 62
7
100
AcDbLine
 10
423.6999999999999
 20
336.0000000000001
 30
0.0000000000000000
 11
423.6999999999999
 21
196.0000000000003
 31
0.0000000000000000
  0
LINE
  5
AC
100
AcDbEntity
  8
A4
  6
CONTINUOUS
 62
7
100
AcDbLine
 10
423.6999999999999
 20
181.0000000000002
 30
0.0000000000000000
 11
423.6999999999999
 21
177.0000000000002
 31
0.0000000000000000
  0
LINE
  5
AD
100
AcDbEntity
  8
A4
  6
CONTINUOUS
 62
7
100
AcDbLine
 10
396.3000000000000
 20
196.0000000000002
 30
0.0000000000000000
 11
423.6999999999999
 21
196.0000000000002
 31
0.0000000000000000
  0
LINE
  5
AE
100
AcDbEntity
  8
A4
  6
CONTINUOUS
 62
7
100
AcDbLine
 10
396.3000000000000
 20
194.0000000000002
 30
0.0000000000000000
 11
423.6999999999999
 21
194.0000000000002
 31
0.0000000000000000
  0
LINE
  5
AF
100
AcDbEntity
  8
A4
  6
CONTINUOUS
 62
7
100
AcDbLine
 10
396.3000000000000
 20
183.0000000000002
 30
0.0000000000000000
 11
423.6999999999999
 21
183.0000000000002
 31
0.0000000000000000
  0
LINE
  5
B0
100
AcDbEntity
  8
A4
  6
CONTINUOUS
 62
7
100
AcDbLine
 10
396.3000000000000
 20
181.0000000000002
 30
0.0000000000000000
 11
423.6999999999999
 21
181.0000000000002
 31
0.0000000000000000
  0
LINE
  5
B1
100
AcDbEntity
  8
A4
  6
CONTINUOUS
 62
7
100
AcDbLine
 10
422.7500000000000
 20
177.0000000000002
 30
0.0000000000000000
 11
422.7500000000000
 21
175.0000000000002
 31
0.0000000000000000
  0
LINE
  5
B2
100
AcDbEntity
  8
A4
  6
CONTINUOUS
 62
7
100
AcDbLine
 10
397.2500000000000
 20
177.0000000000002
 30
0.0000000000000000
 11
397.2500000000000
 21
175.0000000000002
 31
0.0000000000000000
  0
LINE
  5
B3
100
AcDbEntity
  8
A4
  6
CONTINUOUS
 62
7
100
AcDbLine
 10
397.2500000000000
 20
175.0000000000002
 30
0.0000000000000000
 11
422.7500000000000
 21
175.0000000000002
 31
0.0000000000000000
  0
LINE
  5
B4
100
AcDbEntity
  8
A4
  6
CONTINUOUS
 62
7
100
AcDbLine
 10
396.3000000000000
 20
177.0000000000002
 30
0.0000000000000000
 11
423.6999999999999
 21
177.0000000000002
 31
0.0000000000000000
  0
LINE
  5
B5
100
AcDbEntity
  8
A4
  6
CONTINUOUS
 62
7
100
AcDbLine
 10
423.6999999999999
 20
336.0000000000002
 30
0.0000000000000000
 11
396.3000000000000
 21
336.0000000000002
 31
0.0000000000000000
  0
LINE
  5
B6
100
AcDbEntity
  8
A4
  6
CONTINUOUS
 62
7
100
AcDbLine
 10
397.5000000000000
 20
338.0000000000000
 30
0.0000000000000000
 11
396.3000000000001
 21
336.0000000000003
 31
0.0000000000000000
  0
LINE
  5
B7
100
AcDbEntity
  8
A4
  6
CONTINUOUS
 62
7
100
AcDbLine
 10
422.4999999999998
 20
337.9999999999999
 30
0.0000000000000000
 11
397.5000000000000
 21
337.9999999999999
 31
0.0000000000000000
  0
LINE
  5
B8
100
AcDbEntity
  8
A4
  6
CONTINUOUS
 62
7
100
AcDbLine
 10
422.4999999999998
 20
338.0000000000001
 30
0.0000000000000000
 11
423.7000000000000
 21
336.0000000000003
 31
0.0000000000000000
  0
LINE
  5
B9
100
AcDbEntity
  8
A4
  6
CONTINUOUS
 62
7
100
AcDbLine
 10
421.0000000000000
 20
359.0000000000002
 30
0.0000000000000000
 11
421.0000000000000
 21
343.0000000000002
 31
0.0000000000000000
  0
LINE
  5
BA
100
AcDbEntity
  8
A4
  6
CONTINUOUS
 62
7
100
AcDbLine
 10
398.9999999999998
 20
343.0000000000002
 30
0.0000000000000000
 11
421.0000000000000
 21
343.0000000000002
 31
0.0000000000000000
  0
LINE
  5
BB
100
AcDbEntity
  8
A4
  6
CONTINUOUS
 62
7
100
AcDbLine
 10
398.9999999999998
 20
359.0000000000002
 30
0.0000000000000000
 11
398.9999999999998
 21
343.0000000000002
 31
0.0000000000000000
  0
LINE
  5
BC
100
AcDbEntity
  8
A4
  6
CONTINUOUS
 62
7
100
AcDbLine
 10
421.0000000000000
 20
50.00000000000017
 30
0.0000000000000000
 11
421.0000000000000
 21
66.00000000000017
 31
0.0000000000000000
  0
LINE
  5
BD
100
AcDbEntity
  8
A3
  6
PHANTOM
 62
1
100
AcDbLine
 10
421.0000000000000
 20
150.0000000000002
 30
0.0000000000000000
 11
421.0000000000000
 21
166.0000000000002
 31
0.0000000000000000
  0
LINE
  5
BE
100
AcDbEntity
  8
A2
  6
CENTER
 62
4
100
AcDbLine
 10
425.9999999999998
 20
150.0000000000002
 30
0.0000000000000000
 11
394.0000000000000
 21
150.0000000000002
 31
0.0000000000000000
  0
LINE
  5
BF
100
AcDbEntity
  8
A3
  6
PHANTOM
 62
1
100
AcDbLine
 10
421.0000000000000
 20
166.0000000000002
 30
0.0000000000000000
 11
398.9999999999998
 21
166.0000000000002
 31
0.0000000000000000
  0
LINE
  5
C0
100
AcDbEntity
  8
A4
  6
CONTINUOUS
 62
7
100
AcDbLine
 10
421.0000000000000
 20
66.00000000000017
 30
0.0000000000000000
 11
398.9999999999998
 21
66.00000000000017
 31
0.0000000000000000
  0
LINE
  5
C1
100
AcDbEntity
  8
A2
  6
CENTER
 62
4
100
AcDbLine
 10
425.9999999999998
 20
359.0000000000002
 30
0.0000000000000000
 11
394.0000000000000
 21
359.0000000000002
 31
0.0000000000000000
  0
LINE
  5
C2
100
AcDbEntity
  8
A4
  6
CONTINUOUS
 62
7
100
AcDbLine
 10
398.9999999999998
 20
50.00000000000017
 30
0.0000000000000000
 11
398.9999999999998
 21
66.00000000000017
 31
0.0000000000000000
  0
LINE
  5
C3
100
AcDbEntity
  8
A4
  6
CONTINUOUS
 62
7
100
AcDbLine
 10
415.9999999999999
 20
343.0000000000002
 30
0.0000000000000000
 11
422.4999999999997
 21
338.0000000000000
 31
0.0000000000000000
  0
LINE
  5
C4
100
AcDbEntity
  8
A4
  6
CONTINUOUS
 62
7
100
AcDbLine
 10
403.9999999999998
 20
343.0000000000001
 30
0.0000000000000000
 11
397.4999999999999
 21
337.9999999999999
 31
0.0000000000000000
  0
LINE
  5
C5
100
AcDbEntity
  8
A4
  6
CONTINUOUS
 62
7
100
AcDbLine
 10
396.3000000000000
 20
194.0000000000002
 30
0.0000000000000000
 11
396.3000000000000
 21
183.0000000000002
 31
0.0000000000000000
  0
LINE
  5
C6
100
AcDbEntity
  8
A4
  6
CONTINUOUS
 62
7
100
AcDbLine
 10
396.3000000000000
 20
181.0000000000002
 30
0.0000000000000000
 11
396.3000000000000
 21
177.0000000000002
 31
0.0000000000000000
  0
LINE
  5
C7
100
AcDbEntity
  8
A2
  6
CENTER
 62
4
100
AcDbLine
 10
425.9999999999998
 20
50.00000000000017
 30
0.0000000000000000
 11
394.0000000000000
 21
50.00000000000017
 31
0.0000000000000000
  0
LINE
  5
C8
100
AcDbEntity
  8
A4
  6
CONTINUOUS
 62
7
100
AcDbLine
 10
598.7000120000000
 20
370.0000000000002
 30
0.0000000000000000
 11
595.5000000000000
 21
370.0000000000002
 31
0.0000000000000000
  0
LINE
  5
C9
100
AcDbEntity
  8
A3
  6
PHANTOM
 62
1
100
AcDbLine
 10
598.7000120000000
 20
139.0000000000002
 30
0.0000000000000000
 11
598.7000120000000
 21
162.7999870000003
 31
0.0000000000000000
  0
LINE
  5
CA
100
AcDbEntity
  8
A3
  6
PHANTOM
 62
1
100
AcDbLine
 10
584.4999999999999
 20
139.0000000000002
 30
0.0000000000000000
 11
584.4999999999999
 21
162.7999870000003
 31
0.0000000000000000
  0
LINE
  5
CB
100
AcDbEntity
  8
A3
  6
PHANTOM
 62
1
100
AcDbLine
 10
595.5000000000000
 20
139.0000000000002
 30
0.0000000000000000
 11
595.5000000000000
 21
162.7999870000003
 31
0.0000000000000000
  0
LINE
  5
CC
100
AcDbEntity
  8
A3
  6
PHANTOM
 62
1
100
AcDbLine
 10
581.2999879999996
 20
139.0000000000002
 30
0.0000000000000000
 11
581.2999879999996
 21
162.7999870000003
 31
0.0000000000000000
  0
LINE
  5
CD
100
AcDbEntity
  8
A4
  6
CONTINUOUS
 62
7
100
AcDbLine
 10
595.5000000000000
 20
370.0000000000002
 30
0.0000000000000000
 11
595.5000000000000
 21
346.2000120000002
 31
0.0000000000000000
  0
LINE
  5
CE
100
AcDbEntity
  8
A4
  6
CONTINUOUS
 62
7
100
AcDbLine
 10
598.7000120000000
 20
370.0000000000002
 30
0.0000000000000000
 11
598.7000120000000
 21
346.2000120000002
 31
0.0000000000000000
  0
LINE
  5
CF
100
AcDbEntity
  8
A4
  6
CONTINUOUS
 62
7
100
AcDbLine
 10
584.4999999999999
 20
370.0000000000002
 30
0.0000000000000000
 11
584.4999999999999
 21
346.2000120000002
 31
0.0000000000000000
  0
LINE
  5
D0
100
AcDbEntity
  8
A4
  6
CONTINUOUS
 62
7
100
AcDbLine
 10
581.2999879999996
 20
370.0000000000002
 30
0.0000000000000000
 11
581.2999879999996
 21
346.2000120000002
 31
0.0000000000000000
  0
LINE
  5
D1
100
AcDbEntity
  8
A4
  6
CONTINUOUS
 62
7
100
AcDbLine
 10
602.4999999999999
 20
337.9999999999998
 30
0.0000000000000000
 11
603.6999999999999
 21
336.0000000000001
 31
0.0000000000000000
  0
LINE
  5
D2
100
AcDbEntity
  8
A4
  6
CONTINUOUS
 62
7
100
AcDbLine
 10
602.5000000000000
 20
337.9999999999999
 30
0.0000000000000000
 11
577.5000000000000
 21
337.9999999999999
 31
0.0000000000000000
  0
LINE
  5
D3
100
AcDbEntity
  8
A4
  6
CONTINUOUS
 62
7
100
AcDbLine
 10
577.5000000000001
 20
337.9999999999999
 30
0.0000000000000000
 11
576.3000000000001
 21
336.0000000000002
 31
0.0000000000000000
  0
LINE
  5
D4
100
AcDbEntity
  8
A4
  6
CONTINUOUS
 62
7
100
AcDbLine
 10
577.2500000000000
 20
177.0000000000002
 30
0.0000000000000000
 11
577.2500000000000
 21
175.0000000000002
 31
0.0000000000000000
  0
LINE
  5
D5
100
AcDbEntity
  8
A4
  6
CONTINUOUS
 62
7
100
AcDbLine
 10
603.7000000000000
 20
336.0000000000002
 30
0.0000000000000000
 11
576.3000000000000
 21
336.0000000000002
 31
0.0000000000000000
  0
LINE
  5
D6
100
AcDbEntity
  8
A4
  6
CONTINUOUS
 62
7
100
AcDbLine
 10
576.3000000000000
 20
177.0000000000002
 30
0.0000000000000000
 11
603.7000000000000
 21
177.0000000000002
 31
0.0000000000000000
  0
LINE
  5
D7
100
AcDbEntity
  8
A4
  6
CONTINUOUS
 62
7
100
AcDbLine
 10
577.2500000000000
 20
175.0000000000002
 30
0.0000000000000000
 11
602.7500000000000
 21
175.0000000000002
 31
0.0000000000000000
  0
LINE
  5
D8
100
AcDbEntity
  8
A4
  6
CONTINUOUS
 62
7
100
AcDbLine
 10
602.7500000000000
 20
177.0000000000002
 30
0.0000000000000000
 11
602.7500000000000
 21
175.0000000000002
 31
0.0000000000000000
  0
LINE
  5
D9
100
AcDbEntity
  8
A4
  6
CONTINUOUS
 62
7
100
AcDbLine
 10
576.3000000000000
 20
196.0000000000002
 30
0.0000000000000000
 11
603.7000000000000
 21
196.0000000000002
 31
0.0000000000000000
  0
LINE
  5
DA
100
AcDbEntity
  8
A4
  6
CONTINUOUS
 62
7
100
AcDbLine
 10
576.3000000000000
 20
181.0000000000002
 30
0.0000000000000000
 11
603.7000000000000
 21
181.0000000000002
 31
0.0000000000000000
  0
LINE
  5
DB
100
AcDbEntity
  8
A4
  6
CONTINUOUS
 62
7
100
AcDbLine
 10
576.3000000000000
 20
183.0000000000002
 30
0.0000000000000000
 11
603.7000000000000
 21
183.0000000000002
 31
0.0000000000000000
  0
LINE
  5
DC
100
AcDbEntity
  8
A4
  6
CONTINUOUS
 62
7
100
AcDbLine
 10
576.3000000000000
 20
194.0000000000002
 30
0.0000000000000000
 11
603.7000000000000
 21
194.0000000000002
 31
0.0000000000000000
  0
LINE
  5
DD
100
AcDbEntity
  8
A4
  6
CONTINUOUS
 62
7
100
AcDbLine
 10
603.7000000000000
 20
181.0000000000002
 30
0.0000000000000000
 11
603.7000000000000
 21
177.0000000000002
 31
0.0000000000000000
  0
LINE
  5
DE
100
AcDbEntity
  8
A4
  6
CONTINUOUS
 62
7
100
AcDbLine
 10
603.7000000000000
 20
335.9999999999999
 30
0.0000000000000000
 11
603.7000000000000
 21
196.0000000000002
 31
0.0000000000000000
  0
LINE
  5
DF
100
AcDbEntity
  8
A4
  6
CONTINUOUS
 62
7
100
AcDbLine
 10
603.7000000000000
 20
194.0000000000002
 30
0.0000000000000000
 11
603.7000000000000
 21
183.0000000000002
 31
0.0000000000000000
  0
LINE
  5
E0
100
AcDbEntity
  8
A4
  6
CONTINUOUS
 62
7
100
AcDbLine
 10
576.3000000000000
 20
336.0000000000001
 30
0.0000000000000000
 11
576.3000000000000
 21
196.0000000000003
 31
0.0000000000000000
  0
LINE
  5
E1
100
AcDbEntity
  8
A4
  6
CONTINUOUS
 62
7
100
AcDbLine
 10
583.7500000000000
 20
175.0000000000002
 30
0.0000000000000000
 11
583.7500000000000
 21
65.91087400000026
 31
0.0000000000000000
  0
LINE
  5
E2
100
AcDbEntity
  8
A3
  6
PHANTOM
 62
1
100
AcDbLine
 10
598.7000120000000
 20
139.0000000000002
 30
0.0000000000000000
 11
595.5000000000000
 21
139.0000000000002
 31
0.0000000000000000
  0
LINE
  5
E3
100
AcDbEntity
  8
A4
  6
CONTINUOUS
 62
7
100
AcDbLine
 10
596.2500000000000
 20
175.0000000000002
 30
0.0000000000000000
 11
596.2500000000000
 21
65.91087400000026
 31
0.0000000000000000
  0
LINE
  5
E4
100
AcDbEntity
  8
A2
  6
CENTER
 62
4
100
AcDbLine
 10
590.0000000000000
 20
375.0000000000002
 30
0.0000000000000000
 11
590.0000000000000
 21
28.50000000000027
 31
0.0000000000000000
  0
LINE
  5
E5
100
AcDbEntity
  8
A3
  6
PHANTOM
 62
1
100
AcDbLine
 10
595.5000000000000
 20
162.7999870000003
 30
0.0000000000000000
 11
584.4999999999999
 21
162.7999870000003
 31
0.0000000000000000
  0
LINE
  5
E6
100
AcDbEntity
  8
A3
  6
PHANTOM
 62
1
100
AcDbLine
 10
595.5000000000000
 20
166.0000000000002
 30
0.0000000000000000
 11
584.4999999999999
 21
166.0000000000002
 31
0.0000000000000000
  0
LINE
  5
E7
100
AcDbEntity
  8
A2
  6
CENTER
 62
4
100
AcDbLine
 10
605.9999999999998
 20
150.0000000000002
 30
0.0000000000000000
 11
574.0000000000000
 21
150.0000000000002
 31
0.0000000000000000
  0
LINE
  5
E8
100
AcDbEntity
  8
A4
  6
CONTINUOUS
 62
7
100
AcDbLine
 10
584.4999999999999
 20
370.0000000000002
 30
0.0000000000000000
 11
581.2999879999996
 21
370.0000000000002
 31
0.0000000000000000
  0
LINE
  5
E9
100
AcDbEntity
  8
A4
  6
CONTINUOUS
 62
7
100
AcDbLine
 10
595.5000000000000
 20
346.2000120000002
 30
0.0000000000000000
 11
584.4999999999999
 21
346.2000120000002
 31
0.0000000000000000
  0
LINE
  5
EA
100
AcDbEntity
  8
A4
  6
CONTINUOUS
 62
7
100
AcDbLine
 10
576.3000000000000
 20
181.0000000000002
 30
0.0000000000000000
 11
576.3000000000000
 21
177.0000000000002
 31
0.0000000000000000
  0
LINE
  5
EB
100
AcDbEntity
  8
A4
  6
CONTINUOUS
 62
7
100
AcDbLine
 10
576.3000000000000
 20
194.0000000000002
 30
0.0000000000000000
 11
576.3000000000000
 21
183.0000000000002
 31
0.0000000000000000
  0
LINE
  5
EC
100
AcDbEntity
  8
A4
  6
CONTINUOUS
 62
7
100
AcDbLine
 10
595.5000000000000
 20
343.0000000000002
 30
0.0000000000000000
 11
584.4999999999999
 21
343.0000000000002
 31
0.0000000000000000
  0
LINE
  5
ED
100
AcDbEntity
  8
A4
  6
CONTINUOUS
 62
7
100
AcDbLine
 10
584.0427250000002
 20
343.0328370000001
 30
0.0000000000000000
 11
577.5000000000002
 21
338.0000000000001
 31
0.0000000000000000
  0
LINE
  5
EE
100
AcDbEntity
  8
A4
  6
CONTINUOUS
 62
7
100
AcDbLine
 10
595.9572749999996
 20
343.0328369999999
 30
0.0000000000000000
 11
602.4999999999999
 21
337.9999999999999
 31
0.0000000000000000
  0
LINE
  5
EF
100
AcDbEntity
  8
A3
  6
PHANTOM
 62
1
100
AcDbLine
 10
584.4999999999999
 20
139.0000000000002
 30
0.0000000000000000
 11
581.2999879999996
 21
139.0000000000002
 31
0.0000000000000000
  0
LINE
  5
F0
100
AcDbEntity
  8
A2
  6
CENTER
 62
4
100
AcDbLine
 10
605.9999999999998
 20
359.0000000000002
 30
0.0000000000000000
 11
574.0000000000000
 21
359.0000000000002
 31
0.0000000000000000
  0
LINE
  5
F1
100
AcDbEntity
  8
A4
  6
CONTINUOUS
 62
7
100
AcDbLine
 10
221.3000029999998
 20
39.00000000000017
 30
0.0000000000000000
 11
221.3000029999998
 21
62.80000300000026
 31
0.0000000000000000
  0
LINE
  5
F2
100
AcDbEntity
  8
A4
  6
CONTINUOUS
 62
7
100
AcDbLine
 10
224.4999999999998
 20
39.00000000000017
 30
0.0000000000000000
 11
224.4999999999998
 21
62.80000300000026
 31
0.0000000000000000
  0
LINE
  5
F3
100
AcDbEntity
  8
A4
  6
CONTINUOUS
 62
7
100
AcDbLine
 10
221.3000029999998
 20
39.00000000000017
 30
0.0000000000000000
 11
224.4999999999998
 21
39.00000000000017
 31
0.0000000000000000
  0
LINE
  5
F4
100
AcDbEntity
  8
A4
  6
CONTINUOUS
 62
7
100
AcDbLine
 10
235.5000000000000
 20
39.00000000000017
 30
0.0000000000000000
 11
238.6999970000000
 21
39.00000000000017
 31
0.0000000000000000
  0
LINE
  5
F5
100
AcDbEntity
  8
A4
  6
CONTINUOUS
 62
7
100
AcDbLine
 10
235.5000000000000
 20
39.00000000000017
 30
0.0000000000000000
 11
235.5000000000000
 21
62.80000300000026
 31
0.0000000000000000
  0
LINE
  5
F6
100
AcDbEntity
  8
A4
  6
CONTINUOUS
 62
7
100
AcDbLine
 10
238.6999970000000
 20
39.00000000000017
 30
0.0000000000000000
 11
238.6999970000000
 21
62.80000300000026
 31
0.0000000000000000
  0
LINE
  5
F7
100
AcDbEntity
  8
A4
  6
CONTINUOUS
 62
7
100
AcDbLine
 10
224.4999999999998
 20
62.80000300000026
 30
0.0000000000000000
 11
235.5000000000000
 21
62.80000300000026
 31
0.0000000000000000
  0
LINE
  5
F8
100
AcDbEntity
  8
A4
  6
CONTINUOUS
 62
7
100
AcDbLine
 10
224.4999999999998
 20
66.00000000000017
 30
0.0000000000000000
 11
235.5000000000000
 21
66.00000000000017
 31
0.0000000000000000
  0
LINE
  5
F9
100
AcDbEntity
  8
A2
  6
CENTER
 62
4
100
AcDbLine
 10
213.9999999999998
 20
50.00000000000017
 30
0.0000000000000000
 11
246.0000000000000
 21
50.00000000000017
 31
0.0000000000000000
  0
LINE
  5
FA
100
AcDbEntity
  8
A2
  6
CENTER
 62
4
100
AcDbLine
 10
605.9999999999998
 20
50.00000000000017
 30
0.0000000000000000
 11
574.0000000000000
 21
50.00000000000017
 31
0.0000000000000000
  0
LINE
  5
FB
100
AcDbEntity
  8
A4
  6
CONTINUOUS
 62
7
100
AcDbLine
 10
584.4999999999999
 20
39.00000000000017
 30
0.0000000000000000
 11
584.4999999999999
 21
62.80000300000026
 31
0.0000000000000000
  0
LINE
  5
FC
100
AcDbEntity
  8
A4
  6
CONTINUOUS
 62
7
100
AcDbLine
 10
584.4999999999999
 20
39.00000000000017
 30
0.0000000000000000
 11
581.2999879999996
 21
39.00000000000017
 31
0.0000000000000000
  0
LINE
  5
FD
100
AcDbEntity
  8
A4
  6
CONTINUOUS
 62
7
100
AcDbLine
 10
581.2999879999996
 20
39.00000000000017
 30
0.0000000000000000
 11
581.2999879999996
 21
62.80000300000026
 31
0.0000000000000000
  0
LINE
  5
FE
100
AcDbEntity
  8
A4
  6
CONTINUOUS
 62
7
100
AcDbLine
 10
595.5000000000000
 20
39.00000000000017
 30
0.0000000000000000
 11
595.5000000000000
 21
62.80000300000026
 31
0.0000000000000000
  0
LINE
  5
FF
100
AcDbEntity
  8
A4
  6
CONTINUOUS
 62
7
100
AcDbLine
 10
598.7000120000000
 20
39.00000000000017
 30
0.0000000000000000
 11
595.5000000000000
 21
39.00000000000017
 31
0.0000000000000000
  0
LINE
  5
100
100
AcDbEntity
  8
A4
  6
CONTINUOUS
 62
7
100
AcDbLine
 10
598.7000120000000
 20
39.00000000000017
 30
0.0000000000000000
 11
598.7000120000000
 21
62.80000300000026
 31
0.0000000000000000
  0
LINE
  5
101
100
AcDbEntity
  8
A4
  6
CONTINUOUS
 62
7
100
AcDbLine
 10
595.5000000000000
 20
66.00000000000017
 30
0.0000000000000000
 11
584.4999999999999
 21
66.00000000000017
 31
0.0000000000000000
  0
LINE
  5
102
100
AcDbEntity
  8
A4
  6
CONTINUOUS
 62
7
100
AcDbLine
 10
595.5000000000000
 20
62.80000300000026
 30
0.0000000000000000
 11
584.4999999999999
 21
62.80000300000026
 31
0.0000000000000000
  0
ARC
  5
103
100
AcDbEntity
  8
A4
  6
CONTINUOUS
 62
7
100
AcDbCircle
 10
36.29999999999993
 20
182.0000000000001
 30
0.0000000000000000
 40
1.000000000000000
100
AcDbArc
 50
269.9999969999999
 51
450.0000030000000
  0
ARC
  5
104
100
AcDbEntity
  8
A4
  6
CONTINUOUS
 62
7
100
AcDbCircle
 10
36.29999999999993
 20
195.0000000000002
 30
0.0000000000000000
 40
1.000000000000000
100
AcDbArc
 50
269.9999969999999
 51
450.0000030000000
  0
ARC
  5
105
100
AcDbEntity
  8
A4
  6
CONTINUOUS
 62
7
100
AcDbCircle
 10
63.69999999999994
 20
182.0000000000001
 30
0.0000000000000000
 40
1.000000000000000
100
AcDbArc
 50
90.00000300000002
 51
270.0000010000000
  0
ARC
  5
106
100
AcDbEntity
  8
A4
  6
CONTINUOUS
 62
7
100
AcDbCircle
 10
63.69999999999994
 20
195.0000000000002
 30
0.0000000000000000
 40
1.000000000000000
100
AcDbArc
 50
90.00000300000002
 51
270.0000010000000
  0
CIRCLE
  5
107
100
AcDbEntity
  8
A4
  6
CONTINUOUS
 62
7
100
AcDbCircle
 10
49.99999999999994
 20
359.0000000000002
 30
0.0000000000000000
 40
5.000000000000000
  0
ARC
  5
108
100
AcDbEntity
  8
A4
  6
CONTINUOUS
 62
7
100
AcDbCircle
 10
49.99999999999994
 20
359.0000000000002
 30
0.0000000000000000
 40
11.00000000000000
100
AcDbArc
 50
0.0000000000000000
 51
180.0000050000000
  0
ARC
  5
109
100
AcDbEntity
  8
A4
  6
CONTINUOUS
 62
7
100
AcDbCircle
 10
50.00000000000000
 20
50.00000000000017
 30
0.0000000000000000
 40
11.00000000000000
100
AcDbArc
 50
180.0000050000000
 51
360.0000100000000
  0
CIRCLE
  5
10A
100
AcDbEntity
  8
A4
  6
CONTINUOUS
 62
7
100
AcDbCircle
 10
50.00000000000000
 20
50.00000000000017
 30
0.0000000000000000
 40
5.000000000000000
  0
ARC
  5
10B
100
AcDbEntity
  8
A3
  6
PHANTOM
 62
1
100
AcDbCircle
 10
49.99999999999994
 20
150.0000000000002
 30
0.0000000000000000
 40
11.00000000000000
100
AcDbArc
 50
180.0000050000000
 51
360.0000100000000
  0
CIRCLE
  5
10C
100
AcDbEntity
  8
A3
  6
PHANTOM
 62
1
100
AcDbCircle
 10
49.99999999999994
 20
150.0000000000002
 30
0.0000000000000000
 40
5.000000000000000
  0
ARC
  5
10D
100
AcDbEntity
  8
A4
  6
CONTINUOUS
 62
7
100
AcDbCircle
 10
243.6999999999999
 20
195.0000000000002
 30
0.0000000000000000
 40
1.000000000000000
100
AcDbArc
 50
90.00000300000002
 51
270.0000010000000
  0
ARC
  5
10E
100
AcDbEntity
  8
A4
  6
CONTINUOUS
 62
7
100
AcDbCircle
 10
243.6999999999999
 20
182.0000000000001
 30
0.0000000000000000
 40
1.000000000000000
100
AcDbArc
 50
90.00000300000002
 51
270.0000010000000
  0
ARC
  5
10F
100
AcDbEntity
  8
A4
  6
CONTINUOUS
 62
7
100
AcDbCircle
 10
216.2999999999998
 20
195.0000000000002
 30
0.0000000000000000
 40
1.000000000000000
100
AcDbArc
 50
269.9999969999999
 51
450.0000030000000
  0
ARC
  5
110
100
AcDbEntity
  8
A4
  6
CONTINUOUS
 62
7
100
AcDbCircle
 10
216.2999999999998
 20
182.0000000000001
 30
0.0000000000000000
 40
1.000000000000000
100
AcDbArc
 50
269.9999969999999
 51
450.0000030000000
  0
ARC
  5
111
100
AcDbEntity
  8
A4
  6
CONTINUOUS
 62
7
100
AcDbCircle
 10
224.4999999999997
 20
346.2000120000002
 30
0.0000000000000000
 40
3.200000000000000
100
AcDbArc
 50
180.0000050000000
 51
270.0000010000000
  0
ARC
  5
112
100
AcDbEntity
  8
A4
  6
CONTINUOUS
 62
7
100
AcDbCircle
 10
235.4999999999999
 20
346.2000120000002
 30
0.0000000000000000
 40
3.200000000000000
100
AcDbArc
 50
269.9999969999999
 51
360.0000000000000
  0
ARC
  5
113
100
AcDbEntity
  8
A3
  6
PHANTOM
 62
1
100
AcDbCircle
 10
235.4999999999999
 20
162.7999870000003
 30
0.0000000000000000
 40
3.200000000000000
100
AcDbArc
 50
0.0000000000000000
 51
90.00000300000002
  0
ARC
  5
114
100
AcDbEntity
  8
A3
  6
PHANTOM
 62
1
100
AcDbCircle
 10
224.4999999999997
 20
162.7999870000003
 30
0.0000000000000000
 40
3.200000000000000
100
AcDbArc
 50
90.00000300000002
 51
180.0000050000000
  0
ARC
  5
115
100
AcDbEntity
  8
A4
  6
CONTINUOUS
 62
7
100
AcDbCircle
 10
230.0000000000000
 20
-39.75002999999973
 30
0.0000000000000000
 40
12.75000000000000
100
AcDbArc
 50
313.0277850000000
 51
406.9722150000000
  0
ARC
  5
116
100
AcDbEntity
  8
A4
  6
CONTINUOUS
 62
7
100
AcDbCircle
 10
230.0000000000000
 20
-39.75002999999973
 30
0.0000000000000000
 40
12.75000000000000
100
AcDbArc
 50
59.62621300000000
 51
120.3737920000000
  0
ARC
  5
117
100
AcDbEntity
  8
A4
  6
CONTINUOUS
 62
7
100
AcDbCircle
 10
230.0000000000000
 20
-39.75002999999973
 30
0.0000000000000000
 40
12.75000000000000
100
AcDbArc
 50
133.0277829999999
 51
226.9722129999999
  0
ARC
  5
118
100
AcDbEntity
  8
A4
  6
CONTINUOUS
 62
7
100
AcDbCircle
 10
230.0000000000000
 20
-39.75002999999973
 30
0.0000000000000000
 40
12.75000000000000
100
AcDbArc
 50
239.6262079999998
 51
300.3737870000000
  0
ARC
  5
119
100
AcDbEntity
  8
A4
  6
CONTINUOUS
 62
7
100
AcDbCircle
 10
229.9999999999999
 20
453.7500610000000
 30
0.0000000000000000
 40
12.50000000000000
100
AcDbArc
 50
61.64236200000000
 51
118.3576430000000
  0
ARC
  5
11A
100
AcDbEntity
  8
A4
  6
CONTINUOUS
 62
7
100
AcDbCircle
 10
229.9999999999999
 20
453.7500610000000
 30
0.0000000000000000
 40
12.50000000000000
100
AcDbArc
 50
314.1069580000000
 51
405.8930420000000
  0
ARC
  5
11B
100
AcDbEntity
  8
A4
  6
CONTINUOUS
 62
7
100
AcDbCircle
 10
229.9999999999999
 20
453.7500610000000
 30
0.0000000000000000
 40
12.50000000000000
100
AcDbArc
 50
241.6423569999999
 51
298.3576380000000
  0
ARC
  5
11C
100
AcDbEntity
  8
A4
  6
CONTINUOUS
 62
7
100
AcDbCircle
 10
229.9999999999999
 20
453.7500610000000
 30
0.0000000000000000
 40
12.50000000000000
100
AcDbArc
 50
134.1069530000000
 51
225.8930429999999
  0
ARC
  5
11D
100
AcDbEntity
  8
A4
  6
CONTINUOUS
 62
7
100
AcDbCircle
 10
410.0000000000000
 20
359.0000000000002
 30
0.0000000000000000
 40
11.00000000000000
100
AcDbArc
 50
0.0000000000000000
 51
180.0000050000000
  0
CIRCLE
  5
11E
100
AcDbEntity
  8
A4
  6
CONTINUOUS
 62
7
100
AcDbCircle
 10
410.0000000000000
 20
359.0000000000002
 30
0.0000000000000000
 40
5.000000000000000
  0
ARC
  5
11F
100
AcDbEntity
  8
A3
  6
PHANTOM
 62
1
100
AcDbCircle
 10
410.0000000000000
 20
150.0000000000002
 30
0.0000000000000000
 40
11.00000000000000
100
AcDbArc
 50
179.9999949999999
 51
360.0000000000000
  0
ARC
  5
120
100
AcDbEntity
  8
A4
  6
CONTINUOUS
 62
7
100
AcDbCircle
 10
410.0000000000000
 20
50.00000000000017
 30
0.0000000000000000
 40
11.00000000000000
100
AcDbArc
 50
179.9999949999999
 51
360.0000000000000
  0
CIRCLE
  5
121
100
AcDbEntity
  8
A4
  6
CONTINUOUS
 62
7
100
AcDbCircle
 10
410.0000000000000
 20
50.00000000000017
 30
0.0000000000000000
 40
5.000000000000000
  0
CIRCLE
  5
122
100
AcDbEntity
  8
A3
  6
PHANTOM
 62
1
100
AcDbCircle
 10
410.0000000000000
 20
150.0000000000002
 30
0.0000000000000000
 40
5.000000000000000
  0
ARC
  5
123
100
AcDbEntity
  8
A4
  6
CONTINUOUS
 62
7
100
AcDbCircle
 10
396.3000000000000
 20
195.0000000000002
 30
0.0000000000000000
 40
1.000000000000000
100
AcDbArc
 50
269.9999969999999
 51
450.0000030000000
  0
ARC
  5
124
100
AcDbEntity
  8
A4
  6
CONTINUOUS
 62
7
100
AcDbCircle
 10
396.3000000000000
 20
182.0000000000001
 30
0.0000000000000000
 40
1.000000000000000
100
AcDbArc
 50
269.9999969999999
 51
450.0000030000000
  0
ARC
  5
125
100
AcDbEntity
  8
A4
  6
CONTINUOUS
 62
7
100
AcDbCircle
 10
423.6999999999999
 20
195.0000000000002
 30
0.0000000000000000
 40
1.000000000000000
100
AcDbArc
 50
90.00000300000002
 51
270.0000010000000
  0
ARC
  5
126
100
AcDbEntity
  8
A4
  6
CONTINUOUS
 62
7
100
AcDbCircle
 10
423.6999999999999
 20
182.0000000000001
 30
0.0000000000000000
 40
1.000000000000000
100
AcDbArc
 50
90.00000300000002
 51
270.0000010000000
  0
ARC
  5
127
100
AcDbEntity
  8
A3
  6
PHANTOM
 62
1
100
AcDbCircle
 10
595.5000000000000
 20
162.7999870000003
 30
0.0000000000000000
 40
3.200000000000000
100
AcDbArc
 50
0.0000000000000000
 51
90.00000300000002
  0
ARC
  5
128
100
AcDbEntity
  8
A4
  6
CONTINUOUS
 62
7
100
AcDbCircle
 10
584.4999999999999
 20
346.2000120000002
 30
0.0000000000000000
 40
3.200000000000000
100
AcDbArc
 50
179.9999949999999
 51
269.9999969999999
  0
ARC
  5
129
100
AcDbEntity
  8
A4
  6
CONTINUOUS
 62
7
100
AcDbCircle
 10
595.5000000000000
 20
346.2000120000002
 30
0.0000000000000000
 40
3.200000000000000
100
AcDbArc
 50
269.9999969999999
 51
360.0000000000000
  0
ARC
  5
12A
100
AcDbEntity
  8
A3
  6
PHANTOM
 62
1
100
AcDbCircle
 10
584.4999999999999
 20
162.7999870000003
 30
0.0000000000000000
 40
3.200000000000000
100
AcDbArc
 50
90.00000300000002
 51
180.0000050000000
  0
ARC
  5
12B
100
AcDbEntity
  8
A4
  6
CONTINUOUS
 62
7
100
AcDbCircle
 10
576.3000000000000
 20
195.0000000000002
 30
0.0000000000000000
 40
1.000000000000000
100
AcDbArc
 50
269.9999969999999
 51
450.0000030000000
  0
ARC
  5
12C
100
AcDbEntity
  8
A4
  6
CONTINUOUS
 62
7
100
AcDbCircle
 10
603.7000000000000
 20
182.0000000000001
 30
0.0000000000000000
 40
1.000000000000000
100
AcDbArc
 50
90.00000300000002
 51
270.0000010000000
  0
ARC
  5
12D
100
AcDbEntity
  8
A4
  6
CONTINUOUS
 62
7
100
AcDbCircle
 10
603.7000000000000
 20
195.0000000000002
 30
0.0000000000000000
 40
1.000000000000000
100
AcDbArc
 50
90.00000300000002
 51
270.0000010000000
  0
ARC
  5
12E
100
AcDbEntity
  8
A4
  6
CONTINUOUS
 62
7
100
AcDbCircle
 10
576.3000000000000
 20
182.0000000000001
 30
0.0000000000000000
 40
1.000000000000000
100
AcDbArc
 50
269.9999969999999
 51
450.0000030000000
  0
ARC
  5
12F
100
AcDbEntity
  8
A4
  6
CONTINUOUS
 62
7
100
AcDbCircle
 10
235.5000000000000
 20
62.80000300000026
 30
0.0000000000000000
 40
3.200000000000000
100
AcDbArc
 50
0.0000000000000000
 51
90.00000300000002
  0
ARC
  5
130
100
AcDbEntity
  8
A4
  6
CONTINUOUS
 62
7
100
AcDbCircle
 10
224.4999999999998
 20
62.80000300000026
 30
0.0000000000000000
 40
3.200000000000000
100
AcDbArc
 50
90.00000300000002
 51
180.0000050000000
  0
ARC
  5
131
100
AcDbEntity
  8
A4
  6
CONTINUOUS
 62
7
100
AcDbCircle
 10
595.5000000000000
 20
62.80000300000026
 30
0.0000000000000000
 40
3.200000000000000
100
AcDbArc
 50
0.0000000000000000
 51
90.00000300000002
  0
ARC
  5
132
100
AcDbEntity
  8
A4
  6
CONTINUOUS
 62
7
100
AcDbCircle
 10
584.4999999999999
 20
62.80000300000026
 30
0.0000000000000000
 40
3.200000000000000
100
AcDbArc
 50
90.00000300000002
 51
180.0000050000000
  0
ARC
  5
133
100
AcDbEntity
  8
A4
  6
CONTINUOUS
 62
7
100
AcDbCircle
 10
229.9999999999999
 20
453.7500610000000
 30
0.0000000000000000
 40
13.70000000000000
100
AcDbArc
 50
233.4098250000000
 51
306.5901750000000
  0
ARC
  5
134
100
AcDbEntity
  8
A4
  6
CONTINUOUS
 62
7
100
AcDbCircle
 10
229.9999999999999
 20
453.7500610000000
 30
0.0000000000000000
 40
13.70000000000000
100
AcDbArc
 50
53.40982499999999
 51
126.5901749999999
  0
ARC
  5
135
100
AcDbEntity
  8
A4
  6
CONTINUOUS
 62
7
100
AcDbCircle
 10
229.9999999999999
 20
453.7500610000000
 30
0.0000000000000000
 40
13.70000000000000
100
AcDbArc
 50
129.4226749999999
 51
230.5773250000000
  0
ARC
  5
136
100
AcDbEntity
  8
A4
  6
CONTINUOUS
 62
7
100
AcDbCircle
 10
229.9999999999999
 20
453.7500610000000
 30
0.0000000000000000
 40
13.70000000000000
100
AcDbArc
 50
309.4226750000000
 51
410.5773250000000
  0
ARC
  5
137
100
AcDbEntity
  8
A4
  6
CONTINUOUS
 62
7
100
AcDbCircle
 10
230.0000000000000
 20
-39.75002999999973
 30
0.0000000000000000
 40
13.70000000000000
100
AcDbArc
 50
309.4226750000000
 51
410.5773250000000
  0
ARC
  5
138
100
AcDbEntity
  8
A4
  6
CONTINUOUS
 62
7
100
AcDbCircle
 10
230.0000000000000
 20
-39.75002999999973
 30
0.0000000000000000
 40
13.70000000000000
100
AcDbArc
 50
233.4098250000000
 51
306.5901750000000
  0
ARC
  5
139
100
AcDbEntity
  8
A4
  6
CONTINUOUS
 62
7
100
AcDbCircle
 10
230.0000000000000
 20
-39.75002999999973
 30
0.0000000000000000
 40
13.70000000000000
100
AcDbArc
 50
129.4226749999999
 51
230.5773250000000
  0
ARC
  5
13A
100
AcDbEntity
  8
A4
  6
CONTINUOUS
 62
7
100
AcDbCircle
 10
230.0000000000000
 20
-39.75002999999973
 30
0.0000000000000000
 40
13.70000000000000
100
AcDbArc
 50
53.40982499999999
 51
126.5901749999999
  0
ENDSEC
  0
SECTION
  2
OBJECTS
  0
DICTIONARY
  5
169
100
AcDbDictionary
  3
ACAD_GROUP
350
16A
  3
ACAD_LAYOUT
350
16B
  3
ACAD_MLINESTYLE
350
16C
  0
DICTIONARY
  5
16A
102
{ACAD_REACTORS
330
169
102
}
330
169
100
AcDbDictionary
  0
DICTIONARY
  5
16B
102
{ACAD_REACTORS
330
169
102
}
330
169
100
AcDbDictionary
  3
Model
350
16D
  3
ﾚｲｱｳﾄ1
350
16E
  3
ﾚｲｱｳﾄ2
350
16F
  0
DICTIONARY
  5
16C
102
{ACAD_REACTORS
330
169
102
}
330
169
100
AcDbDictionary
  3
STANDARD
350
170
  0
LAYOUT
  5
16D
102
{ACAD_REACTORS
330
16B
102
}
330
16B
100
AcDbPlotSettings
 70
11952
  4
A3
 44
297.000000
 45
420.000000
 73
  1
 72
  1
100
AcDbLayout
  1
Model
 71
0
330
160
  0
LAYOUT
  5
16E
102
{ACAD_REACTORS
330
16B
102
}
330
16B
100
AcDbPlotSettings
100
AcDbLayout
  1
ﾚｲｱｳﾄ1
 71
1
330
161
  0
LAYOUT
  5
16F
102
{ACAD_REACTORS
330
16B
102
}
330
16B
100
AcDbPlotSettings
100
AcDbLayout
  1
ﾚｲｱｳﾄ2
 71
2
330
162
  0
MLINESTYLE
  5
170
102
{ACAD_REACTORS
330
16C
102
}
330
16C
100
AcDbMlineStyle
  2
STANDARD
 70
     0
  3

 62
   256
 51
90.00
 52
90.00
 71
     2
 49
0.50
 62
   256
  6
BYLAYER
 49
-0.50
 62
   256
  6
BYLAYER
  0
ENDSEC
  0
EOF
