  0
SECTION
  2
HEADER
  9
$ACADVER
  1
AC1027
  9
$DWGCODEPAGE
  3
ANSI_932
  9
$LTSCALE
 40
20.0
  9
$FILLMODE
 70
     1
  9
$CLAYER
  8
0
  9
$PDMODE
 70
     0
  9
$SPLFRAME
 70
     0
  9
$SPLINETYPE
 70
     6
  9
$SPLINESEGS
 70
     8
  9
$DIMASZ
 40
2.000000
  9
$DIMEXE
 40
1.500000
  9
$DIMEXO
 40
0.800000
  9
$DIMTAD
 70
     1
  9
$DIMTIH
 70
     0
  9
$DIMTOH
 70
     0
  9
$DIMTVP
 40
0.500000
  9
$DIMTXT
 40
3.100000
  9
$EXTMIN
 10
0.000000
 20
0.000000
 30
0.000000
  9
$EXTMAX
 10
297.000000
 20
420.000000
 30
0.000000
  9
$MEASUREMENT
 70
  1
  9
$LIMMIN
 10
0.000000
 20
0.000000
  9
$LIMMAX
 10
297.000000
 20
420.000000
  9
$HANDSEED
  5
125
  9
$LWDISPLAY
290
     0
  9
$DIMBLK
  1
_OPEN
  9
$DIMDEC
 70
     2
  9
$DIMADEC
 70
     2
  9
$DIMAUNIT
 70
     0
  9
$DIMZIN
 70
     8
  9
$DIMAZIN
 70
     2
  9
$DIMTOFL
 70
     1
  0
ENDSEC
  0
SECTION
  2
CLASSES
  0
ENDSEC
  0
SECTION
  2
TABLES
  0
TABLE
  2
VPORT
  5
ED
100
AcDbSymbolTable
 70
     1
  0
VPORT
  5
EE
100
AcDbSymbolTableRecord
100
AcDbViewportTableRecord
  2
*ACTIVE
 70
     0
 12
140.915487
 22
212.270000
 40
409.540000
 41
0.639329
  0
ENDTAB
  0
TABLE
  2
LTYPE
  5
EF
100
AcDbSymbolTable
 70
     2
  0
LTYPE
  5
F0
100
AcDbSymbolTableRecord
100
AcDbLinetypeTableRecord
  2
BYBLOCK
 70
     0
  3

 72
    65
 73
     0
 40
0.0
  0
LTYPE
  5
F1
100
AcDbSymbolTableRecord
100
AcDbLinetypeTableRecord
  2
BYLAYER
 70
     0
  3

 72
    65
 73
     0
 40
0.0
  0
LTYPE
  5
F2
100
AcDbSymbolTableRecord
100
AcDbLinetypeTableRecord
  2
CONTINUOUS
 70
     0
  3
Solid line (NEC CAE2D for Win R17.0 : 2022.05.16)
 72
    65
 73
     0
 40
0.0
  0
LTYPE
  5
F3
100
AcDbSymbolTableRecord
100
AcDbLinetypeTableRecord
  2
CENTER
 70
     0
  3
____ _ ____ _ ____ _ ____ _ ____ _ ____
 72
    65
 73
     4
 40
2.0
 49
1.25
 74
     0
 49
-0.25
 74
     0
 49
0.25
 74
     0
 49
-0.25
 74
     0
  0
ENDTAB
  0
TABLE
  2
LAYER
  5
F4
100
AcDbSymbolTable
 70
    18
  0
LAYER
  5
F5
100
AcDbSymbolTableRecord
100
AcDbLayerTableRecord
  2
0
 70
     0
 62
     7
  6
CONTINUOUS
370
    -3
390

  0
LAYER
  5
F6
100
AcDbSymbolTableRecord
100
AcDbLayerTableRecord
  2
DXF0
 70
     0
 62
     7
  6
CONTINUOUS
370
    -3
390

  0
LAYER
  5
F7
100
AcDbSymbolTableRecord
100
AcDbLayerTableRecord
  2
DXF0
 70
     0
 62
     7
  6
CONTINUOUS
370
    -3
390

  0
LAYER
  5
F8
100
AcDbSymbolTableRecord
100
AcDbLayerTableRecord
  2
A0
 70
     0
 62
     9
  6
CONTINUOUS
370
    -3
390

  0
LAYER
  5
F9
100
AcDbSymbolTableRecord
100
AcDbLayerTableRecord
  2
A3
 70
     0
 62
    12
  6
CONTINUOUS
370
    -3
390

  0
LAYER
  5
FA
100
AcDbSymbolTableRecord
100
AcDbLayerTableRecord
  2
A4
 70
     0
 62
     9
  6
CONTINUOUS
370
    -3
390

  0
LAYER
  5
FB
100
AcDbSymbolTableRecord
100
AcDbLayerTableRecord
  2
A5
 70
     0
 62
     8
  6
CONTINUOUS
370
    -3
390

  0
LAYER
  5
FC
100
AcDbSymbolTableRecord
100
AcDbLayerTableRecord
  2
A6
 70
     0
 62
    12
  6
CONTINUOUS
370
    -3
390

  0
LAYER
  5
FD
100
AcDbSymbolTableRecord
100
AcDbLayerTableRecord
  2
A8
 70
     0
 62
    10
  6
CONTINUOUS
370
    -3
390

  0
LAYER
  5
FE
100
AcDbSymbolTableRecord
100
AcDbLayerTableRecord
  2
A9
 70
     0
 62
     9
  6
CONTINUOUS
370
    -3
390

  0
LAYER
  5
FF
100
AcDbSymbolTableRecord
100
AcDbLayerTableRecord
  2
A10
 70
     0
 62
     6
  6
CONTINUOUS
370
    -3
390

  0
LAYER
  5
100
100
AcDbSymbolTableRecord
100
AcDbLayerTableRecord
  2
A20
 70
     0
 62
     1
  6
CONTINUOUS
370
    -3
390

  0
LAYER
  5
101
100
AcDbSymbolTableRecord
100
AcDbLayerTableRecord
  2
A30
 70
     0
 62
     1
  6
CONTINUOUS
370
    -3
390

  0
LAYER
  5
102
100
AcDbSymbolTableRecord
100
AcDbLayerTableRecord
  2
A40
 70
     0
 62
     9
  6
CONTINUOUS
370
    -3
390

  0
LAYER
  5
103
100
AcDbSymbolTableRecord
100
AcDbLayerTableRecord
  2
A50
 70
     0
 62
    12
  6
CONTINUOUS
370
    -3
390

  0
LAYER
  5
104
100
AcDbSymbolTableRecord
100
AcDbLayerTableRecord
  2
A1023
 70
     0
 62
     8
  6
CONTINUOUS
370
    -3
390

  0
LAYER
  5
105
100
AcDbSymbolTableRecord
100
AcDbLayerTableRecord
  2
DXF1023
 70
     0
 62
     8
  6
CONTINUOUS
370
    -3
390

  0
LAYER
  5
106
100
AcDbSymbolTableRecord
100
AcDbLayerTableRecord
  2
DXF1023
 70
     0
 62
    16
  6
CONTINUOUS
370
    -3
390

  0
ENDTAB
  0
TABLE
  2
STYLE
  5
107
100
AcDbSymbolTable
 70
     4
  0
STYLE
  5
108
100
AcDbSymbolTableRecord
100
AcDbTextStyleTableRecord
  2
STANDARD
 70
    64
 40
0.0
 41
1.0
 50
0.0
 71
     0
 42
3.000000000000000
  3
TXT
  4

  0
STYLE
  5
109
100
AcDbSymbolTableRecord
100
AcDbTextStyleTableRecord
  2
ANKTATE
 70
    68
 40
0.0
 41
1.0
 50
0.0
 71
     0
 42
3.000000000000000
  3
TXT
  4

  0
STYLE
  5
10A
100
AcDbSymbolTableRecord
100
AcDbTextStyleTableRecord
  2
KNJYOKO
 70
    64
 40
0.0
 41
1.0
 50
0.0
 71
     0
 42
3.000000000000000
  3
TXT
  4
BIGFONT
  0
STYLE
  5
10B
100
AcDbSymbolTableRecord
100
AcDbTextStyleTableRecord
  2
KNJTATE
 70
    68
 40
0.0
 41
1.0
 50
0.0
 71
     0
 42
3.000000000000000
  3
TXT
  4
BIGFONT
  0
ENDTAB
  0
TABLE
  2
VIEW
  5
10C
100
AcDbSymbolTable
 70
     0
  0
ENDTAB
  0
TABLE
  2
UCS
  5
10D
100
AcDbSymbolTable
 70
     0
  0
ENDTAB
  0
TABLE
  2
APPID
  5
10E
100
AcDbSymbolTable
 70
     1
  0
APPID
  5
10F
100
AcDbSymbolTableRecord
100
AcDbRegAppTableRecord
  2
ACAD
 70
     0
  0
ENDTAB
  0
TABLE
  2
DIMSTYLE
  5
110
100
AcDbSymbolTable
 70
     1
100
AcDbDimStyleTable
  0
DIMSTYLE
105
111
100
AcDbSymbolTableRecord
100
AcDbDimStyleTableRecord
  2
STANDARD
 70
     0
 41
2.000000
 44
1.500000
 42
0.800000
145
0.661290
140
3.100000
144
1.000000
146
0.645161
340
108
  0
DIMSTYLE
105
112
100
AcDbSymbolTableRecord
100
AcDbDimStyleTableRecord
  2
DXF001
 70
     0
 41
2.000000
 44
1.500000
 42
0.800000
145
0.661290
140
3.100000
144
1.000000
146
0.645161
 77
     1
 73
     0
 74
     0
271
     2
179
     2
275
     0
 78
     8
 79
     2
172
     1
340
108
  0
ENDTAB
  0
TABLE
  2
BLOCK_RECORD
  5
113
100
AcDbSymbolTable
 70
    12
  0
BLOCK_RECORD
  5
114
100
AcDbSymbolTableRecord
100
AcDbBlockTableRecord
  2
*MODEL_SPACE
  0
BLOCK_RECORD
  5
115
100
AcDbSymbolTableRecord
100
AcDbBlockTableRecord
  2
*PAPER_SPACE
  0
BLOCK_RECORD
  5
116
100
AcDbSymbolTableRecord
100
AcDbBlockTableRecord
  2
*PAPER_SPACE0
  0
BLOCK_RECORD
  5
1
100
AcDbSymbolTableRecord
100
AcDbBlockTableRecord
  2
_NONE
  0
BLOCK_RECORD
  5
4
100
AcDbSymbolTableRecord
100
AcDbBlockTableRecord
  2
_CLOSED
  0
BLOCK_RECORD
  5
B
100
AcDbSymbolTableRecord
100
AcDbBlockTableRecord
  2
_DOT
  0
BLOCK_RECORD
  5
13
100
AcDbSymbolTableRecord
100
AcDbBlockTableRecord
  2
_OPEN
  0
BLOCK_RECORD
  5
19
100
AcDbSymbolTableRecord
100
AcDbBlockTableRecord
  2
_ORIGIN
  0
BLOCK_RECORD
  5
1E
100
AcDbSymbolTableRecord
100
AcDbBlockTableRecord
  2
_OPEN30
  0
BLOCK_RECORD
  5
24
100
AcDbSymbolTableRecord
100
AcDbBlockTableRecord
  2
_BOXFILLED
  0
BLOCK_RECORD
  5
29
100
AcDbSymbolTableRecord
100
AcDbBlockTableRecord
  2
_BOXBLANK
  0
BLOCK_RECORD
  5
31
100
AcDbSymbolTableRecord
100
AcDbBlockTableRecord
  2
_OBLIQUE
  0
BLOCK_RECORD
  5
35
100
AcDbSymbolTableRecord
100
AcDbBlockTableRecord
  2
_OPEN90
  0
BLOCK_RECORD
  5
3B
100
AcDbSymbolTableRecord
100
AcDbBlockTableRecord
  2
_CLOSEDBLANK
  0
BLOCK_RECORD
  5
41
100
AcDbSymbolTableRecord
100
AcDbBlockTableRecord
  2
_DOTBLANK
  0
ENDTAB
  0
ENDSEC
  0
SECTION
  2
BLOCKS
  0
BLOCK
  5
117
100
AcDbEntity
  8
0
100
AcDbBlockBegin
  2
*MODEL_SPACE
 70
     0
 10
0.0
 20
0.0
 30
0.0
  3
*MODEL_SPACE
  1

  0
ENDBLK
  5
118
100
AcDbEntity
  8
0
100
AcDbBlockEnd
  0
BLOCK
  5
119
100
AcDbEntity
  8
0
100
AcDbBlockBegin
  2
*PAPER_SPACE
 70
     0
 10
0.0
 20
0.0
 30
0.0
  3
*PAPER_SPACE
  1

  0
ENDBLK
  5
11A
100
AcDbEntity
  8
0
100
AcDbBlockEnd
  0
BLOCK
  5
11B
100
AcDbEntity
  8
0
100
AcDbBlockBegin
  2
*PAPER_SPACE0
 70
     0
 10
0.0
 20
0.0
 30
0.0
  3
*PAPER_SPACE0
  1

  0
ENDBLK
  5
11C
100
AcDbEntity
  8
0
100
AcDbBlockEnd
  0
BLOCK
  5
2
330
1
100
AcDbEntity
  8
0
100
AcDbBlockBegin
  2
_NONE
 70
     0
 10
0.0
 20
0.0
 30
0.0
  3
_NONE
  1

  0
ENDBLK
  5
3
330
1
100
AcDbEntity
  8
0
100
AcDbBlockEnd
  0
BLOCK
  5
5
330
4
100
AcDbEntity
  8
0
100
AcDbBlockBegin
  2
_CLOSED
 70
     0
 10
0.0
 20
0.0
 30
0.0
  3
_CLOSED
  1

  0
LINE
  5
6
330
4
100
AcDbEntity
  8
0
  6
BYBLOCK
 62
     0
370
    -2
100
AcDbLine
 10
-1.0
 20
0.166667
 30
0.0
 11
0.0
 21
0.0
 31
0.0
  0
LINE
  5
7
330
4
100
AcDbEntity
  8
0
  6
BYBLOCK
 62
     0
370
    -2
100
AcDbLine
 10
0.0
 20
0.0
 30
0.0
 11
-1.0
 21
-0.166667
 31
0.0
  0
LINE
  5
8
330
4
100
AcDbEntity
  8
0
  6
BYBLOCK
 62
     0
370
    -2
100
AcDbLine
 10
-1.0
 20
0.166667
 30
0.0
 11
-1.0
 21
-0.166667
 31
0.0
  0
LINE
  5
9
330
4
100
AcDbEntity
  8
0
  6
BYBLOCK
 62
     0
370
    -2
100
AcDbLine
 10
0.0
 20
0.0
 30
0.0
 11
-1.0
 21
0.0
 31
0.0
  0
ENDBLK
  5
A
330
4
100
AcDbEntity
  8
0
100
AcDbBlockEnd
  0
BLOCK
  5
C
330
B
100
AcDbEntity
  8
0
100
AcDbBlockBegin
  2
_DOT
 70
     0
 10
0.0
 20
0.0
 30
0.0
  3
_DOT
  1

  0
POLYLINE
  5
D
330
B
100
AcDbEntity
  8
0
  6
BYBLOCK
 62
     0
370
    -2
100
AcDb2dPolyline
 66
     1
 10
0.0
 20
0.0
 30
0.0
 70
     1
 40
0.5
 41
0.5
  0
VERTEX
  5
E
330
B
100
AcDbEntity
  8
0
  6
BYBLOCK
 62
     0
370
    -2
100
AcDbVertex
100
AcDb2dVertex
 10
-0.25
 20
0.0
 30
0.0
 42
1.0
  0
VERTEX
  5
F
330
B
100
AcDbEntity
  8
0
  6
BYBLOCK
 62
     0
370
    -2
100
AcDbVertex
100
AcDb2dVertex
 10
0.25
 20
0.0
 30
0.0
 42
1.0
  0
SEQEND
  5
10
330
B
100
AcDbEntity
  8
0
  6
BYBLOCK
 62
     0
370
    -2
  0
LINE
  5
11
330
B
100
AcDbEntity
  8
0
  6
BYBLOCK
 62
     0
370
    -2
100
AcDbLine
 10
-0.5
 20
0.0
 30
0.0
 11
-1.0
 21
0.0
 31
0.0
  0
ENDBLK
  5
12
330
B
100
AcDbEntity
  8
0
100
AcDbBlockEnd
  0
BLOCK
  5
14
330
13
100
AcDbEntity
  8
0
100
AcDbBlockBegin
  2
_OPEN
 70
     0
 10
0.0
 20
0.0
 30
0.0
  3
_OPEN
  1

  0
LINE
  5
15
330
13
100
AcDbEntity
  8
0
  6
BYBLOCK
 62
     0
370
    -2
100
AcDbLine
 10
-1.0
 20
0.166667
 30
0.0
 11
0.0
 21
0.0
 31
0.0
  0
LINE
  5
16
330
13
100
AcDbEntity
  8
0
  6
BYBLOCK
 62
     0
370
    -2
100
AcDbLine
 10
0.0
 20
0.0
 30
0.0
 11
-1.0
 21
-0.166667
 31
0.0
  0
LINE
  5
17
330
13
100
AcDbEntity
  8
0
  6
BYBLOCK
 62
     0
370
    -2
100
AcDbLine
 10
0.0
 20
0.0
 30
0.0
 11
-1.0
 21
0.0
 31
0.0
  0
ENDBLK
  5
18
330
13
100
AcDbEntity
  8
0
100
AcDbBlockEnd
  0
BLOCK
  5
1A
330
19
100
AcDbEntity
  8
0
100
AcDbBlockBegin
  2
_ORIGIN
 70
     0
 10
0.0
 20
0.0
 30
0.0
  3
_ORIGIN
  1

  0
CIRCLE
  5
1B
330
19
100
AcDbEntity
  8
0
  6
BYBLOCK
 62
     0
370
    -2
100
AcDbCircle
 10
0.0
 20
0.0
 30
0.0
 40
0.5
  0
LINE
  5
1C
330
19
100
AcDbEntity
  8
0
  6
BYBLOCK
 62
     0
370
    -2
100
AcDbLine
 10
0.0
 20
0.0
 30
0.0
 11
-1.0
 21
0.0
 31
0.0
  0
ENDBLK
  5
1D
330
19
100
AcDbEntity
  8
0
100
AcDbBlockEnd
  0
BLOCK
  5
1F
330
1E
100
AcDbEntity
  8
0
100
AcDbBlockBegin
  2
_OPEN30
 70
     0
 10
0.0
 20
0.0
 30
0.0
  3
_OPEN30
  1

  0
LINE
  5
20
330
1E
100
AcDbEntity
  8
0
  6
BYBLOCK
 62
     0
370
    -2
100
AcDbLine
 10
-1.0
 20
0.267949
 30
0.0
 11
0.0
 21
0.0
 31
0.0
  0
LINE
  5
21
330
1E
100
AcDbEntity
  8
0
  6
BYBLOCK
 62
     0
370
    -2
100
AcDbLine
 10
0.0
 20
0.0
 30
0.0
 11
-1.0
 21
-0.267949
 31
0.0
  0
LINE
  5
22
330
1E
100
AcDbEntity
  8
0
  6
BYBLOCK
 62
     0
370
    -2
100
AcDbLine
 10
0.0
 20
0.0
 30
0.0
 11
-1.0
 21
0.0
 31
0.0
  0
ENDBLK
  5
23
330
1E
100
AcDbEntity
  8
0
100
AcDbBlockEnd
  0
BLOCK
  5
25
330
24
100
AcDbEntity
  8
0
100
AcDbBlockBegin
  2
_BOXFILLED
 70
     0
 10
0.0
 20
0.0
 30
0.0
  3
_BOXFILLED
  1

  0
SOLID
  5
26
330
24
100
AcDbEntity
  8
0
  6
BYBLOCK
 62
     0
370
    -2
100
AcDbTrace
 10
-0.5
 20
0.5
 30
0.0
 11
0.5
 21
0.5
 31
0.0
 12
-0.5
 22
-0.5
 32
0.0
 13
0.5
 23
-0.5
 33
0.0
  0
LINE
  5
27
330
24
100
AcDbEntity
  8
0
  6
BYBLOCK
 62
     0
370
    -2
100
AcDbLine
 10
-0.5
 20
0.0
 30
0.0
 11
-1.0
 21
0.0
 31
0.0
  0
ENDBLK
  5
28
330
24
100
AcDbEntity
  8
0
100
AcDbBlockEnd
  0
BLOCK
  5
2A
330
29
100
AcDbEntity
  8
0
100
AcDbBlockBegin
  2
_BOXBLANK
 70
     0
 10
0.0
 20
0.0
 30
0.0
  3
_BOXBLANK
  1

  0
LINE
  5
2B
330
29
100
AcDbEntity
  8
0
  6
BYBLOCK
 62
     0
370
    -2
100
AcDbLine
 10
-0.5
 20
-0.5
 30
0.0
 11
0.5
 21
-0.5
 31
0.0
  0
LINE
  5
2C
330
29
100
AcDbEntity
  8
0
  6
BYBLOCK
 62
     0
370
    -2
100
AcDbLine
 10
0.5
 20
-0.5
 30
0.0
 11
0.5
 21
0.5
 31
0.0
  0
LINE
  5
2D
330
29
100
AcDbEntity
  8
0
  6
BYBLOCK
 62
     0
370
    -2
100
AcDbLine
 10
0.5
 20
0.5
 30
0.0
 11
-0.5
 21
0.5
 31
0.0
  0
LINE
  5
2E
330
29
100
AcDbEntity
  8
0
  6
BYBLOCK
 62
     0
370
    -2
100
AcDbLine
 10
-0.5
 20
0.5
 30
0.0
 11
-0.5
 21
-0.5
 31
0.0
  0
LINE
  5
2F
330
29
100
AcDbEntity
  8
0
  6
BYBLOCK
 62
     0
370
    -2
100
AcDbLine
 10
-0.5
 20
0.0
 30
0.0
 11
-1.0
 21
0.0
 31
0.0
  0
ENDBLK
  5
30
330
29
100
AcDbEntity
  8
0
100
AcDbBlockEnd
  0
BLOCK
  5
32
330
31
100
AcDbEntity
  8
0
100
AcDbBlockBegin
  2
_OBLIQUE
 70
     0
 10
0.0
 20
0.0
 30
0.0
  3
_OBLIQUE
  1

  0
LINE
  5
33
330
31
100
AcDbEntity
  8
0
  6
BYBLOCK
 62
     0
370
    -2
100
AcDbLine
 10
-0.5
 20
-0.5
 30
0.0
 11
0.5
 21
0.5
 31
0.0
  0
ENDBLK
  5
34
330
31
100
AcDbEntity
  8
0
100
AcDbBlockEnd
  0
BLOCK
  5
36
330
35
100
AcDbEntity
  8
0
100
AcDbBlockBegin
  2
_OPEN90
 70
     0
 10
0.0
 20
0.0
 30
0.0
  3
_OPEN90
  1

  0
LINE
  5
37
330
35
100
AcDbEntity
  8
0
  6
BYBLOCK
 62
     0
370
    -2
100
AcDbLine
 10
-0.5
 20
0.5
 30
0.0
 11
0.0
 21
0.0
 31
0.0
  0
LINE
  5
38
330
35
100
AcDbEntity
  8
0
  6
BYBLOCK
 62
     0
370
    -2
100
AcDbLine
 10
0.0
 20
0.0
 30
0.0
 11
-0.5
 21
-0.5
 31
0.0
  0
LINE
  5
39
330
35
100
AcDbEntity
  8
0
  6
BYBLOCK
 62
     0
370
    -2
100
AcDbLine
 10
0.0
 20
0.0
 30
0.0
 11
-1.0
 21
0.0
 31
0.0
  0
ENDBLK
  5
3A
330
35
100
AcDbEntity
  8
0
100
AcDbBlockEnd
  0
BLOCK
  5
3C
330
3B
100
AcDbEntity
  8
0
100
AcDbBlockBegin
  2
_CLOSEDBLANK
 70
     0
 10
0.0
 20
0.0
 30
0.0
  3
_CLOSEDBLANK
  1

  0
LINE
  5
3D
330
3B
100
AcDbEntity
  8
0
  6
BYBLOCK
 62
     0
370
    -2
100
AcDbLine
 10
-1.0
 20
0.1666666666666666
 30
0.0
 11
0.0
 21
0.0
 31
0.0
  0
LINE
  5
3E
330
3B
100
AcDbEntity
  8
0
  6
BYBLOCK
 62
     0
370
    -2
100
AcDbLine
 10
0.0
 20
0.0
 30
0.0
 11
-1.0
 21
-0.1666666666666666
 31
0.0
  0
LINE
  5
3F
330
3B
100
AcDbEntity
  8
0
  6
BYBLOCK
 62
     0
370
    -2
100
AcDbLine
 10
-1.0
 20
0.1666666666666666
 30
0.0
 11
-1.0
 21
-0.1666666666666666
 31
0.0
  0
ENDBLK
  5
40
330
3B
100
AcDbEntity
  8
0
100
AcDbBlockEnd
  0
BLOCK
  5
42
330
41
100
AcDbEntity
  8
0
100
AcDbBlockBegin
  2
_DOTBLANK
 70
     0
 10
0.0
 20
0.0
 30
0.0
  3
_DOTBLANK
  1

  0
CIRCLE
  5
43
330
41
100
AcDbEntity
  8
0
  6
BYBLOCK
 62
     0
370
    -2
100
AcDbCircle
 10
0.0
 20
0.0
 30
0.0
 40
0.5
  0
LINE
  5
44
330
41
100
AcDbEntity
  8
0
  6
BYBLOCK
 62
     0
370
    -2
100
AcDbLine
 10
-0.5
 20
0.0
 30
0.0
 11
-1.0
 21
0.0
 31
0.0
  0
ENDBLK
  5
45
330
41
100
AcDbEntity
  8
0
100
AcDbBlockEnd
  0
ENDSEC
  0
SECTION
  2
ENTITIES
  0
MTEXT
  5
46
100
AcDbEntity
  8
A8
  6
CONTINUOUS
 62
3
100
AcDbMText
 10
9.999997526638502
 20
18.00000076076889
 30
0.000000000000000
 40
3.000000000000000
 41
0.000000000000000
 44
0.6739999771118164
 71
     7
 72
     1
  1
{\H0.94x;{TYPE No.TM-372S-11}}
 11
1.000000000000000
 21
0.000000000000000
 31
0.000000000000000
  7
STANDARD
  0
POINT
  5
47
100
AcDbEntity
  8
A0
  6
CONTINUOUS
 62
3
100
AcDbPoint
 10
9.999997526638502
 20
18.00000076076889
 30
0.000000000000000
  0
POINT
  5
48
100
AcDbEntity
  8
A10
  6
CONTINUOUS
 62
3
100
AcDbPoint
 10
50.00000000000000
 20
50.00000000000000
 30
0.000000000000000
  0
LINE
  5
49
100
AcDbEntity
  8
A5
  6
CONTINUOUS
 62
4
100
AcDbLine
 10
101.3530000000179
 20
147.0400000000179
 30
0.000000000000000
 11
101.3530000002184
 21
269.3929998657154
 31
0.000000000000000
  0
LINE
  5
4A
100
AcDbEntity
  8
A10
  6
CONTINUOUS
 62
7
100
AcDbLine
 10
100.0000000002156
 20
268.0399998657185
 30
0.000000000000000
 11
103.0000000002220
 21
271.0399998657121
 31
0.000000000000000
  0
LINE
  5
4B
100
AcDbEntity
  8
A10
  6
CONTINUOUS
 62
7
100
AcDbLine
 10
100.0000000000189
 20
148.0399999999050
 30
0.000000000000000
 11
100.0000000002155
 21
268.0399998657185
 31
0.000000000000000
  0
LINE
  5
4C
100
AcDbEntity
  8
A10
  6
CONTINUOUS
 62
7
100
AcDbLine
 10
119.9999999998797
 20
268.0399998657185
 30
0.000000000000000
 11
99.99999999987996
 21
268.0399998657185
 31
0.000000000000000
  0
LINE
  5
4D
100
AcDbEntity
  8
A10
  6
CONTINUOUS
 62
7
100
AcDbLine
 10
117.0000000001103
 20
271.0399998657120
 30
0.000000000000000
 11
103.0000000002219
 21
271.0399998657120
 31
0.000000000000000
  0
LINE
  5
4E
100
AcDbEntity
  8
A10
  6
CONTINUOUS
 62
7
100
AcDbLine
 10
100.9999999998779
 20
147.0400000000418
 30
0.000000000000000
 11
99.99999999988002
 21
148.0400000000440
 31
0.000000000000000
  0
LINE
  5
4F
100
AcDbEntity
  8
A10
  6
CONTINUOUS
 62
7
100
AcDbLine
 10
120.0000000001580
 20
148.0399999999790
 30
0.000000000000000
 11
99.99999999992330
 21
148.0400000000006
 31
0.000000000000000
  0
LINE
  5
50
100
AcDbEntity
  8
A10
  6
CONTINUOUS
 62
7
100
AcDbLine
 10
119.0000000002014
 20
147.0400000000223
 30
0.000000000000000
 11
100.9999999998778
 21
147.0400000000418
 31
0.000000000000000
  0
LINE
  5
51
100
AcDbEntity
  8
A10
  6
CONTINUOUS
 62
7
100
AcDbLine
 10
101.5000000000336
 20
141.5400000000316
 30
0.000000000000000
 11
101.5000000000396
 21
147.0400000000408
 31
0.000000000000000
  0
ARC
  5
52
100
AcDbEntity
  8
A10
  6
CONTINUOUS
 62
7
100
AcDbCircle
 10
101.0000000000336
 20
141.5400000000322
 30
0.000000000000000
 40
0.5000000000000218
100
AcDbArc
 50
270.0000000000000
 51
360.0000000000000
  0
LINE
  5
53
100
AcDbEntity
  8
A10
  6
CONTINUOUS
 62
7
100
AcDbLine
 10
127.3205080757277
 20
141.0400000000037
 30
0.000000000000000
 11
92.67949192435016
 21
141.0400000000412
 31
0.000000000000000
  0
LINE
  5
54
100
AcDbEntity
  8
A10
  6
CONTINUOUS
 62
7
100
AcDbLine
 10
92.67949192435027
 20
129.6684210968295
 30
0.000000000000000
 11
95.50000000003534
 21
128.0400000000730
 31
0.000000000000000
  0
ARC
  5
55
100
AcDbEntity
  8
A10
  6
CONTINUOUS
 62
7
100
AcDbCircle
 10
97.00961894328231
 20
134.5331339954899
 30
0.000000000000000
 40
6.493133995420271
100
AcDbArc
 50
270.0000000004504
 51
311.8265480894088
  0
ARC
  5
56
100
AcDbEntity
  8
A10
  6
CONTINUOUS
 62
7
100
AcDbCircle
 10
110.0000000000862
 20
151.5305395455227
 30
0.000000000000000
 40
23.49053954548165
100
AcDbArc
 50
248.3663922325246
 51
291.6336077672283
  0
LINE
  5
57
100
AcDbEntity
  8
A10
  6
CONTINUOUS
 62
7
100
AcDbLine
 10
101.3397459621933
 20
141.0400000000393
 30
0.000000000000000
 11
101.3397459621933
 21
129.6946642908266
 31
0.000000000000000
  0
LINE
  5
58
100
AcDbEntity
  8
A10
  6
CONTINUOUS
 62
7
100
AcDbLine
 10
92.67949192435015
 20
141.0400000000393
 30
0.000000000000000
 11
92.67949192435015
 21
129.6946642908266
 31
0.000000000000000
  0
LINE
  5
59
100
AcDbEntity
  8
A10
  6
CONTINUOUS
 62
7
100
AcDbLine
 10
124.5000000000027
 20
128.0400000000061
 30
0.000000000000000
 11
95.50000000009666
 21
128.0400000000375
 31
0.000000000000000
  0
LINE
  5
5A
100
AcDbEntity
  8
A10
  6
CONTINUOUS
 62
7
100
AcDbLine
 10
124.2500000000100
 20
127.9999999999690
 30
0.000000000000000
 11
95.75000000002012
 21
127.9999999999999
 31
0.000000000000000
  0
ARC
  5
5B
100
AcDbEntity
  8
A10
  6
CONTINUOUS
 62
7
100
AcDbCircle
 10
100.3000000000185
 20
127.5400000000101
 30
0.000000000000000
 40
0.5000000000000137
100
AcDbArc
 50
66.92608193799373
 51
89.99999999987598
  0
ARC
  5
5C
100
AcDbEntity
  8
A10
  6
CONTINUOUS
 62
7
100
AcDbCircle
 10
95.75000000002012
 20
120.7999999999998
 30
0.000000000000000
 40
7.200000000000082
100
AcDbArc
 50
90.00000000000000
 51
145.0000000000918
  0
LINE
  5
5D
100
AcDbEntity
  8
A10
  6
CONTINUOUS
 62
7
100
AcDbLine
 10
89.85210528113717
 20
124.9297503417243
 30
0.000000000000000
 11
82.79091785938101
 21
114.8453296000764
 31
0.000000000000000
  0
ARC
  5
5E
100
AcDbEntity
  8
A10
  6
CONTINUOUS
 62
7
100
AcDbCircle
 10
78.28558161578641
 20
117.9999999999998
 30
0.000000000000000
 40
5.500000000000008
100
AcDbArc
 50
270.0000000000000
 51
325.0000000000917
  0
LINE
  5
5F
100
AcDbEntity
  8
A10
  6
CONTINUOUS
 62
7
100
AcDbLine
 10
147.5000000000149
 20
112.4999999998374
 30
0.000000000000000
 11
72.50000000001488
 21
112.4999999999998
 31
0.000000000000000
  0
LINE
  5
60
100
AcDbEntity
  8
A10
  6
CONTINUOUS
 62
7
100
AcDbLine
 10
147.5000000000095
 20
109.9999999998374
 30
0.000000000000000
 11
72.50000000000946
 21
109.9999999999998
 31
0.000000000000000
  0
LINE
  5
61
100
AcDbEntity
  8
A10
  6
CONTINUOUS
 62
7
100
AcDbLine
 10
72.50000000002012
 20
112.4999999999998
 30
0.000000000000000
 11
72.50000000002012
 21
109.9999999999998
 31
0.000000000000000
  0
LINE
  5
62
100
AcDbEntity
  8
A5
  6
CONTINUOUS
 62
4
100
AcDbLine
 10
118.6470000000612
 20
147.0399999999992
 30
0.000000000000000
 11
118.6470000001256
 21
269.3929998656967
 31
0.000000000000000
  0
LINE
  5
63
100
AcDbEntity
  8
A10
  6
CONTINUOUS
 62
7
100
AcDbLine
 10
120.0000000001254
 20
268.0399998656969
 30
0.000000000000000
 11
117.0000000001254
 21
271.0399998656969
 31
0.000000000000000
  0
LINE
  5
64
100
AcDbEntity
  8
A10
  6
CONTINUOUS
 62
7
100
AcDbLine
 10
120.0000000000624
 20
148.0399999998833
 30
0.000000000000000
 11
120.0000000001255
 21
268.0399998656969
 31
0.000000000000000
  0
LINE
  5
65
100
AcDbEntity
  8
A10
  6
CONTINUOUS
 62
7
100
AcDbLine
 10
119.0000000002013
 20
147.0400000000222
 30
0.000000000000000
 11
120.0000000002013
 21
148.0400000000222
 31
0.000000000000000
  0
LINE
  5
66
100
AcDbEntity
  8
A10
  6
CONTINUOUS
 62
7
100
AcDbLine
 10
118.5000000000336
 20
141.5400000000132
 30
0.000000000000000
 11
118.5000000000395
 21
147.0400000000224
 31
0.000000000000000
  0
ARC
  5
67
100
AcDbEntity
  8
A10
  6
CONTINUOUS
 62
7
100
AcDbCircle
 10
119.0000000000336
 20
141.5400000000127
 30
0.000000000000000
 40
0.5000000000000218
100
AcDbArc
 50
179.9999999998760
 51
269.9999999998760
  0
LINE
  5
68
100
AcDbEntity
  8
A10
  6
CONTINUOUS
 62
7
100
AcDbLine
 10
127.3205080756913
 20
129.6684210967920
 30
0.000000000000000
 11
124.5000000000028
 21
128.0400000000416
 31
0.000000000000000
  0
ARC
  5
69
100
AcDbEntity
  8
A10
  6
CONTINUOUS
 62
7
100
AcDbCircle
 10
122.9903810567698
 20
134.5331339954618
 30
0.000000000000000
 40
6.493133995420271
100
AcDbArc
 50
228.1734519104672
 51
269.9999999994255
  0
LINE
  5
6A
100
AcDbEntity
  8
A10
  6
CONTINUOUS
 62
7
100
AcDbLine
 10
118.6602540378728
 20
141.0400000000205
 30
0.000000000000000
 11
118.6602540378483
 21
129.6946642908078
 31
0.000000000000000
  0
LINE
  5
6B
100
AcDbEntity
  8
A10
  6
CONTINUOUS
 62
7
100
AcDbLine
 10
127.3205080757160
 20
141.0400000000018
 30
0.000000000000000
 11
127.3205080756914
 21
129.6946642907891
 31
0.000000000000000
  0
ARC
  5
6C
100
AcDbEntity
  8
A10
  6
CONTINUOUS
 62
7
100
AcDbCircle
 10
119.7000000000184
 20
127.5399999999891
 30
0.000000000000000
 40
0.5000000000000137
100
AcDbArc
 50
90.00000000000000
 51
113.0739180618823
  0
ARC
  5
6D
100
AcDbEntity
  8
A10
  6
CONTINUOUS
 62
7
100
AcDbCircle
 10
124.2500000000022
 20
120.7999999999689
 30
0.000000000000000
 40
7.200000000000082
100
AcDbArc
 50
34.99999999978419
 51
89.99999999987598
  0
LINE
  5
6E
100
AcDbEntity
  8
A10
  6
CONTINUOUS
 62
7
100
AcDbLine
 10
130.1478947188941
 20
124.9297503416806
 30
0.000000000000000
 11
137.2090821406284
 21
114.8453296000175
 31
0.000000000000000
  0
ARC
  5
6F
100
AcDbEntity
  8
A10
  6
CONTINUOUS
 62
7
100
AcDbCircle
 10
141.7144183842299
 20
117.9999999999312
 30
0.000000000000000
 40
5.500000000000008
100
AcDbArc
 50
214.9999999997843
 51
269.9999999998760
  0
LINE
  5
70
100
AcDbEntity
  8
A10
  6
CONTINUOUS
 62
7
100
AcDbLine
 10
147.4999999999843
 20
112.4999999999186
 30
0.000000000000000
 11
147.4999999999789
 21
109.9999999999186
 31
0.000000000000000
  0
LINE
  5
71
100
AcDbEntity
  8
A3
  6
CENTER
 62
1
100
AcDbLine
 10
110.0000000001795
 20
291.0399998656893
 30
0.000000000000000
 11
110.0000000002029
 21
317.0399998656892
 31
0.000000000000000
  0
LINE
  5
72
100
AcDbEntity
  8
A10
  6
CONTINUOUS
 62
7
100
AcDbLine
 10
92.67949192450709
 20
312.0399998657191
 30
0.000000000000000
 11
127.3205080758897
 21
312.0399998656441
 31
0.000000000000000
  0
LINE
  5
73
100
AcDbEntity
  8
A10
  6
CONTINUOUS
 62
7
100
AcDbLine
 10
95.50000000017911
 20
296.0399998657205
 30
0.000000000000000
 11
124.5000000001791
 21
296.0399998656577
 31
0.000000000000000
  0
LINE
  5
74
100
AcDbEntity
  8
A10
  6
CONTINUOUS
 62
7
100
AcDbLine
 10
101.3397459623373
 20
297.6946641565124
 30
0.000000000000000
 11
101.3397459623502
 21
312.0399998657003
 31
0.000000000000000
  0
LINE
  5
75
100
AcDbEntity
  8
A10
  6
CONTINUOUS
 62
7
100
AcDbLine
 10
92.67949192449413
 20
297.6684209624772
 30
0.000000000000000
 11
92.67949192450706
 21
312.0399998657191
 31
0.000000000000000
  0
LINE
  5
76
100
AcDbEntity
  8
A10
  6
CONTINUOUS
 62
7
100
AcDbLine
 10
92.67949192449414
 20
297.6684209624771
 30
0.000000000000000
 11
95.50000000017920
 21
296.0399998657206
 31
0.000000000000000
  0
ARC
  5
77
100
AcDbEntity
  8
A10
  6
CONTINUOUS
 62
7
100
AcDbCircle
 10
97.00961894342625
 20
302.5331338611375
 30
0.000000000000000
 40
6.493133995420216
100
AcDbArc
 50
270.0000000004504
 51
311.8265480894091
  0
ARC
  5
78
100
AcDbEntity
  8
A10
  6
CONTINUOUS
 62
7
100
AcDbCircle
 10
110.0000000002300
 20
319.5305394111702
 30
0.000000000000000
 40
23.49053954548140
100
AcDbArc
 50
248.3663922325246
 51
291.6336077672311
  0
LINE
  5
79
100
AcDbEntity
  8
A10
  6
CONTINUOUS
 62
7
100
AcDbLine
 10
118.6602540380336
 20
297.6946641564969
 30
0.000000000000000
 11
118.6602540380465
 21
312.0399998656848
 31
0.000000000000000
  0
LINE
  5
7A
100
AcDbEntity
  8
A10
  6
CONTINUOUS
 62
7
100
AcDbLine
 10
127.3205080758768
 20
297.6684209624460
 30
0.000000000000000
 11
127.3205080758897
 21
312.0399998656879
 31
0.000000000000000
  0
LINE
  5
7B
100
AcDbEntity
  8
A10
  6
CONTINUOUS
 62
7
100
AcDbLine
 10
127.3205080758767
 20
297.6684209624459
 30
0.000000000000000
 11
124.5000000001888
 21
296.0399998656945
 31
0.000000000000000
  0
ARC
  5
7C
100
AcDbEntity
  8
A10
  6
CONTINUOUS
 62
7
100
AcDbCircle
 10
122.9903810569534
 20
302.5331338611142
 30
0.000000000000000
 40
6.493133995420216
100
AcDbArc
 50
228.1734519104879
 51
269.9999999994464
  0
CIRCLE
  5
7D
100
AcDbEntity
  8
A10
  6
CONTINUOUS
 62
7
100
AcDbCircle
 10
110.0000000002735
 20
374.5400000000350
 30
0.000000000000000
 40
37.49999999999999
  0
ARC
  5
7E
100
AcDbEntity
  8
A10
  6
CONTINUOUS
 62
7
100
AcDbCircle
 10
110.0000000002735
 20
374.5400000000350
 30
0.000000000000000
 40
18.54145188431718
100
AcDbArc
 50
3.091645314555699
 51
86.90835468544424
  0
ARC
  5
7F
100
AcDbEntity
  8
A10
  6
CONTINUOUS
 62
7
100
AcDbCircle
 10
110.0000000002735
 20
374.5400000000350
 30
0.000000000000000
 40
27.49038105679211
100
AcDbArc
 50
2.084671832375183
 51
87.91532816762478
  0
ARC
  5
80
100
AcDbEntity
  8
A10
  6
CONTINUOUS
 62
7
100
AcDbCircle
 10
110.0000000002735
 20
374.5400000000350
 30
0.000000000000000
 40
18.54145188431718
100
AcDbArc
 50
93.09164531455561
 51
176.9083546854443
  0
ARC
  5
81
100
AcDbEntity
  8
A10
  6
CONTINUOUS
 62
7
100
AcDbCircle
 10
110.0000000002735
 20
374.5400000000350
 30
0.000000000000000
 40
27.49038105679211
100
AcDbArc
 50
92.08467183237512
 51
177.9153281676248
  0
ARC
  5
82
100
AcDbEntity
  8
A10
  6
CONTINUOUS
 62
7
100
AcDbCircle
 10
110.0000000002735
 20
374.5400000000350
 30
0.000000000000000
 40
18.54145188431718
100
AcDbArc
 50
183.0916453145557
 51
266.9083546854444
  0
ARC
  5
83
100
AcDbEntity
  8
A10
  6
CONTINUOUS
 62
7
100
AcDbCircle
 10
110.0000000002735
 20
374.5400000000350
 30
0.000000000000000
 40
18.54145188431718
100
AcDbArc
 50
273.0916453145558
 51
356.9083546854442
  0
ARC
  5
84
100
AcDbEntity
  8
A10
  6
CONTINUOUS
 62
7
100
AcDbCircle
 10
110.0000000002735
 20
374.5400000000350
 30
0.000000000000000
 40
27.49038105679211
100
AcDbArc
 50
182.0846718323752
 51
267.9153281676249
  0
ARC
  5
85
100
AcDbEntity
  8
A10
  6
CONTINUOUS
 62
7
100
AcDbCircle
 10
110.0000000002735
 20
374.5400000000350
 30
0.000000000000000
 40
27.49038105679211
100
AcDbArc
 50
272.0846718323752
 51
357.9153281676249
  0
LINE
  5
86
100
AcDbEntity
  8
A3
  6
CENTER
 62
1
100
AcDbLine
 10
67.50000000027350
 20
374.5400000000350
 30
0.000000000000000
 11
152.5000000002735
 21
374.5400000000350
 31
0.000000000000000
  0
LINE
  5
87
100
AcDbEntity
  8
A3
  6
CENTER
 62
1
100
AcDbLine
 10
110.0000000002734
 20
332.0400000000350
 30
0.000000000000000
 11
110.0000000002735
 21
417.0400000000350
 31
0.000000000000000
  0
LINE
  5
88
100
AcDbEntity
  8
A10
  6
CONTINUOUS
 62
7
100
AcDbLine
 10
118.6602540381173
 20
359.5400000000346
 30
0.000000000000000
 11
101.3397459624270
 21
359.5400000000399
 31
0.000000000000000
  0
LINE
  5
89
100
AcDbEntity
  8
A10
  6
CONTINUOUS
 62
7
100
AcDbLine
 10
118.6602540381191
 20
389.5400000000344
 30
0.000000000000000
 11
101.3397459624295
 21
389.5400000000344
 31
0.000000000000000
  0
LINE
  5
8A
100
AcDbEntity
  8
A10
  6
CONTINUOUS
 62
7
100
AcDbLine
 10
101.3397459624302
 20
389.5400000000358
 30
0.000000000000000
 11
92.67949192458538
 21
374.5400000000349
 31
0.000000000000000
  0
LINE
  5
8B
100
AcDbEntity
  8
A10
  6
CONTINUOUS
 62
7
100
AcDbLine
 10
127.3205080759624
 20
374.5400000000345
 30
0.000000000000000
 11
118.6602540381121
 21
359.5400000000345
 31
0.000000000000000
  0
LINE
  5
8C
100
AcDbEntity
  8
A10
  6
CONTINUOUS
 62
7
100
AcDbLine
 10
92.67949192458460
 20
374.5400000000363
 30
0.000000000000000
 11
101.3397459624269
 21
359.5400000000399
 31
0.000000000000000
  0
LINE
  5
8D
100
AcDbEntity
  8
A10
  6
CONTINUOUS
 62
7
100
AcDbLine
 10
118.6602540381185
 20
389.5400000000348
 30
0.000000000000000
 11
127.3205080759596
 21
374.5400000000297
 31
0.000000000000000
  0
CIRCLE
  5
8E
100
AcDbEntity
  8
A10
  6
CONTINUOUS
 62
7
100
AcDbCircle
 10
110.0000000002735
 20
374.5400000000350
 30
0.000000000000000
 40
9.999999999999986
  0
CIRCLE
  5
8F
100
AcDbEntity
  8
A10
  6
CONTINUOUS
 62
7
100
AcDbCircle
 10
110.0000000002735
 20
374.5400000000350
 30
0.000000000000000
 40
6.999999999999986
  0
CIRCLE
  5
90
100
AcDbEntity
  8
A10
  6
CONTINUOUS
 62
4
100
AcDbCircle
 10
110.0000000002735
 20
374.5400000000350
 30
0.000000000000000
 40
8.646999999999977
  0
CIRCLE
  5
91
100
AcDbEntity
  8
A10
  6
CONTINUOUS
 62
7
100
AcDbCircle
 10
109.9999999999346
 20
49.99999999993510
 30
0.000000000000000
 40
37.50000000000000
  0
ARC
  5
92
100
AcDbEntity
  8
A10
  6
CONTINUOUS
 62
7
100
AcDbCircle
 10
109.9999999999346
 20
49.99999999993510
 30
0.000000000000000
 40
16.75000000011792
100
AcDbArc
 50
33.57560792012551
 51
86.42439207938220
  0
ARC
  5
93
100
AcDbEntity
  8
A10
  6
CONTINUOUS
 62
7
100
AcDbCircle
 10
109.9999999999346
 20
49.99999999993510
 30
0.000000000000000
 40
16.75000000011792
100
AcDbArc
 50
273.5756079201199
 51
326.4243920793886
  0
ARC
  5
94
100
AcDbEntity
  8
A10
  6
CONTINUOUS
 62
7
100
AcDbCircle
 10
109.9999999999346
 20
49.99999999993510
 30
0.000000000000000
 40
16.75000000011792
100
AcDbArc
 50
213.5756079201212
 51
266.4243920793826
  0
ARC
  5
95
100
AcDbEntity
  8
A10
  6
CONTINUOUS
 62
7
100
AcDbCircle
 10
109.9999999999346
 20
49.99999999993510
 30
0.000000000000000
 40
16.75000000011792
100
AcDbArc
 50
183.4226788342982
 51
206.4243920793830
  0
ARC
  5
96
100
AcDbEntity
  8
A10
  6
CONTINUOUS
 62
7
100
AcDbCircle
 10
109.9999999999346
 20
49.99999999993510
 30
0.000000000000000
 40
16.75000000011792
100
AcDbArc
 50
93.57560792012103
 51
146.4243920793841
  0
ARC
  5
97
100
AcDbEntity
  8
A10
  6
CONTINUOUS
 62
7
100
AcDbCircle
 10
109.9999999999346
 20
49.99999999993510
 30
0.000000000000000
 40
16.75000000011792
100
AcDbArc
 50
153.5756079201227
 51
176.5773211657021
  0
ARC
  5
98
100
AcDbEntity
  8
A10
  6
CONTINUOUS
 62
7
100
AcDbCircle
 10
109.9999999999346
 20
49.99999999993510
 30
0.000000000000000
 40
16.75000000011792
100
AcDbArc
 50
333.5756079201259
 51
356.5773211657018
  0
ARC
  5
99
100
AcDbEntity
  8
A10
  6
CONTINUOUS
 62
7
100
AcDbCircle
 10
109.9999999999346
 20
49.99999999993510
 30
0.000000000000000
 40
16.75000000011792
100
AcDbArc
 50
3.422678834297932
 51
26.42439207938680
  0
ARC
  5
9A
100
AcDbEntity
  8
A10
  6
CONTINUOUS
 62
7
100
AcDbCircle
 10
109.9999999999346
 20
49.99999999993510
 30
0.000000000000000
 40
26.62713240281168
100
AcDbArc
 50
2.152287967243269
 51
87.84771203275665
  0
ARC
  5
9B
100
AcDbEntity
  8
A10
  6
CONTINUOUS
 62
7
100
AcDbCircle
 10
109.9999999999346
 20
49.99999999993510
 30
0.000000000000000
 40
26.62713240281168
100
AcDbArc
 50
92.15228796724332
 51
177.8477120327567
  0
ARC
  5
9C
100
AcDbEntity
  8
A10
  6
CONTINUOUS
 62
7
100
AcDbCircle
 10
109.9999999999346
 20
49.99999999993510
 30
0.000000000000000
 40
26.62713240281168
100
AcDbArc
 50
182.1522879672434
 51
267.8477120327566
  0
ARC
  5
9D
100
AcDbEntity
  8
A10
  6
CONTINUOUS
 62
7
100
AcDbCircle
 10
109.9999999999346
 20
49.99999999993510
 30
0.000000000000000
 40
26.62713240281168
100
AcDbArc
 50
272.1522879672434
 51
357.8477120327566
  0
CIRCLE
  5
9E
100
AcDbEntity
  8
A10
  6
CONTINUOUS
 62
7
100
AcDbCircle
 10
109.9999999999346
 20
49.99999999993510
 30
0.000000000000000
 40
9.199999999999989
  0
CIRCLE
  5
9F
100
AcDbEntity
  8
A10
  6
CONTINUOUS
 62
7
100
AcDbCircle
 10
109.9999999999346
 20
49.99999999993510
 30
0.000000000000000
 40
8.199999999999974
  0
LINE
  5
A0
100
AcDbEntity
  8
A10
  6
CONTINUOUS
 62
7
100
AcDbLine
 10
124.9999999999715
 20
58.66025403771555
 30
0.000000000000000
 11
124.9999999999715
 21
41.33974596215500
 31
0.000000000000000
  0
LINE
  5
A1
100
AcDbEntity
  8
A10
  6
CONTINUOUS
 62
7
100
AcDbLine
 10
94.99999999997179
 20
58.66025403784403
 30
0.000000000000000
 11
94.99999999997179
 21
41.33974596211222
 31
0.000000000000000
  0
LINE
  5
A2
100
AcDbEntity
  8
A10
  6
CONTINUOUS
 62
7
100
AcDbLine
 10
110.0000000000084
 20
67.32050807562385
 30
0.000000000000000
 11
124.9999999999715
 21
58.66025403780075
 31
0.000000000000000
  0
LINE
  5
A3
100
AcDbEntity
  8
A10
  6
CONTINUOUS
 62
7
100
AcDbLine
 10
94.99999999989731
 20
41.33974596215525
 30
0.000000000000000
 11
109.9999999999346
 21
32.67949192428929
 31
0.000000000000000
  0
LINE
  5
A4
100
AcDbEntity
  8
A10
  6
CONTINUOUS
 62
7
100
AcDbLine
 10
94.99999999997146
 20
58.66025403784339
 30
0.000000000000000
 11
109.9999999999346
 21
67.32050807566648
 31
0.000000000000000
  0
LINE
  5
A5
100
AcDbEntity
  8
A10
  6
CONTINUOUS
 62
7
100
AcDbLine
 10
109.9999999998600
 20
32.67949192424625
 30
0.000000000000000
 11
124.9999999999715
 21
41.33974596215499
 31
0.000000000000000
  0
ARC
  5
A6
100
AcDbEntity
  8
A10
  6
CONTINUOUS
 62
7
100
AcDbCircle
 10
109.9999999999346
 20
49.99999999993510
 30
0.000000000000000
 40
3.500000000000161
100
AcDbArc
 50
73.32825096401452
 51
106.6717490359855
  0
LINE
  5
A7
100
AcDbEntity
  8
A10
  6
CONTINUOUS
 62
7
100
AcDbLine
 10
111.0266480899030
 20
52.06159528782172
 30
0.000000000000000
 11
111.0041087319925
 21
53.35287423769083
 31
0.000000000000000
  0
LINE
  5
A8
100
AcDbEntity
  8
A10
  6
CONTINUOUS
 62
7
100
AcDbLine
 10
111.3454821851415
 20
51.34548218514182
 30
0.000000000000000
 11
111.0266480899030
 21
52.06159528782165
 31
0.000000000000000
  0
LINE
  5
A9
100
AcDbEntity
  8
A10
  6
CONTINUOUS
 62
7
100
AcDbLine
 10
111.3454821851414
 20
51.34548218514180
 30
0.000000000000000
 11
112.0615952878219
 21
51.02664808990298
 31
0.000000000000000
  0
LINE
  5
AA
100
AcDbEntity
  8
A10
  6
CONTINUOUS
 62
7
100
AcDbLine
 10
112.0615952878220
 20
51.02664808990303
 30
0.000000000000000
 11
113.3528742376900
 21
51.00410873199298
 31
0.000000000000000
  0
LINE
  5
AB
100
AcDbEntity
  8
A10
  6
CONTINUOUS
 62
7
100
AcDbLine
 10
107.9384047120479
 20
51.02664808990355
 30
0.000000000000000
 11
106.6471257621788
 21
51.00410873199306
 31
0.000000000000000
  0
LINE
  5
AC
100
AcDbEntity
  8
A10
  6
CONTINUOUS
 62
7
100
AcDbLine
 10
108.6545178147278
 20
51.34548218514200
 30
0.000000000000000
 11
107.9384047120479
 21
51.02664808990347
 31
0.000000000000000
  0
LINE
  5
AD
100
AcDbEntity
  8
A10
  6
CONTINUOUS
 62
7
100
AcDbLine
 10
108.6545178147278
 20
51.34548218514194
 30
0.000000000000000
 11
108.9733519099667
 21
52.06159528782239
 31
0.000000000000000
  0
LINE
  5
AE
100
AcDbEntity
  8
A10
  6
CONTINUOUS
 62
7
100
AcDbLine
 10
108.9733519099666
 20
52.06159528782246
 30
0.000000000000000
 11
108.9958912678767
 21
53.35287423769050
 31
0.000000000000000
  0
ARC
  5
AF
100
AcDbEntity
  8
A10
  6
CONTINUOUS
 62
7
100
AcDbCircle
 10
109.9999999999345
 20
49.99999999993506
 30
0.000000000000000
 40
3.500000000000161
100
AcDbArc
 50
163.3282509640145
 51
196.6717490359855
  0
LINE
  5
B0
100
AcDbEntity
  8
A10
  6
CONTINUOUS
 62
7
100
AcDbLine
 10
108.9733519099661
 20
47.93840471204841
 30
0.000000000000000
 11
108.9958912678766
 21
46.64712576217929
 31
0.000000000000000
  0
LINE
  5
B1
100
AcDbEntity
  8
A10
  6
CONTINUOUS
 62
7
100
AcDbLine
 10
108.6545178147276
 20
48.65451781472831
 30
0.000000000000000
 11
108.9733519099662
 21
47.93840471204847
 31
0.000000000000000
  0
LINE
  5
B2
100
AcDbEntity
  8
A10
  6
CONTINUOUS
 62
7
100
AcDbLine
 10
108.6545178147277
 20
48.65451781472833
 30
0.000000000000000
 11
107.9384047120473
 21
48.97335190996715
 31
0.000000000000000
  0
LINE
  5
B3
100
AcDbEntity
  8
A10
  6
CONTINUOUS
 62
7
100
AcDbLine
 10
107.9384047120472
 20
48.97335190996709
 30
0.000000000000000
 11
106.6471257621791
 21
48.99589126787716
 31
0.000000000000000
  0
ARC
  5
B4
100
AcDbEntity
  8
A10
  6
CONTINUOUS
 62
7
100
AcDbCircle
 10
109.9999999999346
 20
49.99999999993504
 30
0.000000000000000
 40
3.500000000000161
100
AcDbArc
 50
253.3282509640145
 51
286.6717490359854
  0
LINE
  5
B5
100
AcDbEntity
  8
A10
  6
CONTINUOUS
 62
7
100
AcDbLine
 10
112.0615952878212
 20
48.97335190996657
 30
0.000000000000000
 11
113.3528742376903
 21
48.99589126787707
 31
0.000000000000000
  0
LINE
  5
B6
100
AcDbEntity
  8
A10
  6
CONTINUOUS
 62
7
100
AcDbLine
 10
111.3454821851413
 20
48.65451781472814
 30
0.000000000000000
 11
112.0615952878211
 21
48.97335190996667
 31
0.000000000000000
  0
LINE
  5
B7
100
AcDbEntity
  8
A10
  6
CONTINUOUS
 62
7
100
AcDbLine
 10
111.3454821851413
 20
48.65451781472819
 30
0.000000000000000
 11
111.0266480899025
 21
47.93840471204777
 31
0.000000000000000
  0
LINE
  5
B8
100
AcDbEntity
  8
A10
  6
CONTINUOUS
 62
7
100
AcDbLine
 10
111.0266480899025
 20
47.93840471204767
 30
0.000000000000000
 11
111.0041087319925
 21
46.64712576217963
 31
0.000000000000000
  0
ARC
  5
B9
100
AcDbEntity
  8
A10
  6
CONTINUOUS
 62
7
100
AcDbCircle
 10
109.9999999999346
 20
49.99999999993506
 30
0.000000000000000
 40
3.500000000000161
100
AcDbArc
 50
343.3282509640145
 51
376.6717490359853
  0
LINE
  5
BA
100
AcDbEntity
  8
A3
  6
CENTER
 62
1
100
AcDbLine
 10
109.9999999999346
 20
7.499999999935066
 30
0.000000000000000
 11
109.9999999999346
 21
92.49999999993507
 31
0.000000000000000
  0
LINE
  5
BB
100
AcDbEntity
  8
A3
  6
CENTER
 62
1
100
AcDbLine
 10
67.49999999993463
 20
49.99999999993508
 30
0.000000000000000
 11
152.4999999999346
 21
49.99999999993508
 31
0.000000000000000
  0
LINE
  5
BC
100
AcDbEntity
  8
A3
  6
CENTER
 62
1
100
AcDbLine
 10
110.0000000000407
 20
105.5399999999898
 30
0.000000000000000
 11
110.0000000001782
 21
276.0399998657120
 31
0.000000000000000
  0
LINE
  5
BD
100
AcDbEntity
  8
A5
  6
CONTINUOUS
 62
4
100
AcDbLine
 10
225.6839755610030
 20
147.0399999997488
 30
0.000000000000000
 11
225.6839755612035
 21
269.3929998654462
 31
0.000000000000000
  0
LINE
  5
BE
100
AcDbEntity
  8
A10
  6
CONTINUOUS
 62
7
100
AcDbLine
 10
224.3309755612005
 20
268.0399998654493
 30
0.000000000000000
 11
227.3309755612071
 21
271.0399998654430
 31
0.000000000000000
  0
LINE
  5
BF
100
AcDbEntity
  8
A10
  6
CONTINUOUS
 62
7
100
AcDbLine
 10
224.3309755610040
 20
148.0399999996359
 30
0.000000000000000
 11
224.3309755612006
 21
268.0399998654494
 31
0.000000000000000
  0
LINE
  5
C0
100
AcDbEntity
  8
A10
  6
CONTINUOUS
 62
7
100
AcDbLine
 10
244.3309755608648
 20
268.0399998654493
 30
0.000000000000000
 11
224.3309755608651
 21
268.0399998654493
 31
0.000000000000000
  0
LINE
  5
C1
100
AcDbEntity
  8
A10
  6
CONTINUOUS
 62
7
100
AcDbLine
 10
241.3309755610954
 20
271.0399998654430
 30
0.000000000000000
 11
227.3309755612070
 21
271.0399998654430
 31
0.000000000000000
  0
LINE
  5
C2
100
AcDbEntity
  8
A10
  6
CONTINUOUS
 62
7
100
AcDbLine
 10
225.3309755608630
 20
147.0399999997727
 30
0.000000000000000
 11
224.3309755608651
 21
148.0399999997748
 31
0.000000000000000
  0
LINE
  5
C3
100
AcDbEntity
  8
A10
  6
CONTINUOUS
 62
7
100
AcDbLine
 10
244.3309755611431
 20
148.0399999997098
 30
0.000000000000000
 11
224.3309755609084
 21
148.0399999997315
 31
0.000000000000000
  0
LINE
  5
C4
100
AcDbEntity
  8
A10
  6
CONTINUOUS
 62
7
100
AcDbLine
 10
243.3309755611864
 20
147.0399999997532
 30
0.000000000000000
 11
225.3309755608628
 21
147.0399999997727
 31
0.000000000000000
  0
LINE
  5
C5
100
AcDbEntity
  8
A10
  6
CONTINUOUS
 62
7
100
AcDbLine
 10
225.8309755610187
 20
141.5399999997625
 30
0.000000000000000
 11
225.8309755610247
 21
147.0399999997717
 31
0.000000000000000
  0
ARC
  5
C6
100
AcDbEntity
  8
A10
  6
CONTINUOUS
 62
7
100
AcDbCircle
 10
225.3309755610187
 20
141.5399999997631
 30
0.000000000000000
 40
0.5000000000000218
100
AcDbArc
 50
270.0000000000000
 51
360.0000000000000
  0
LINE
  5
C7
100
AcDbEntity
  8
A10
  6
CONTINUOUS
 62
7
100
AcDbLine
 10
249.3309755610820
 20
141.0399999997371
 30
0.000000000000000
 11
219.3309755610824
 21
141.0399999997695
 31
0.000000000000000
  0
LINE
  5
C8
100
AcDbEntity
  8
A10
  6
CONTINUOUS
 62
7
100
AcDbLine
 10
248.8309755609878
 20
128.0399999997370
 30
0.000000000000000
 11
219.3309755610543
 21
128.0399999997690
 31
0.000000000000000
  0
LINE
  5
C9
100
AcDbEntity
  8
A10
  6
CONTINUOUS
 62
7
100
AcDbLine
 10
248.5809755609951
 20
127.9999999996999
 30
0.000000000000000
 11
220.0809755610052
 21
127.9999999997307
 31
0.000000000000000
  0
ARC
  5
CA
100
AcDbEntity
  8
A10
  6
CONTINUOUS
 62
7
100
AcDbCircle
 10
224.6309755610036
 20
127.5399999997410
 30
0.000000000000000
 40
0.5000000000000137
100
AcDbArc
 50
66.92608193799373
 51
89.99999999987598
  0
ARC
  5
CB
100
AcDbEntity
  8
A10
  6
CONTINUOUS
 62
7
100
AcDbCircle
 10
220.0809755610052
 20
120.7999999997307
 30
0.000000000000000
 40
7.200000000000082
100
AcDbArc
 50
90.00000000000000
 51
145.0000000000918
  0
LINE
  5
CC
100
AcDbEntity
  8
A10
  6
CONTINUOUS
 62
7
100
AcDbLine
 10
214.1830808421222
 20
124.9297503414551
 30
0.000000000000000
 11
207.1218934203660
 21
114.8453295998072
 31
0.000000000000000
  0
ARC
  5
CD
100
AcDbEntity
  8
A10
  6
CONTINUOUS
 62
7
100
AcDbCircle
 10
202.6165571767715
 20
117.9999999997307
 30
0.000000000000000
 40
5.500000000000008
100
AcDbArc
 50
270.0000000000000
 51
325.0000000000917
  0
LINE
  5
CE
100
AcDbEntity
  8
A10
  6
CONTINUOUS
 62
7
100
AcDbLine
 10
271.8309755609999
 20
112.4999999995683
 30
0.000000000000000
 11
196.8309755609999
 21
112.4999999997307
 31
0.000000000000000
  0
LINE
  5
CF
100
AcDbEntity
  8
A10
  6
CONTINUOUS
 62
7
100
AcDbLine
 10
271.8309755609945
 20
109.9999999995683
 30
0.000000000000000
 11
196.8309755609945
 21
109.9999999997307
 31
0.000000000000000
  0
LINE
  5
D0
100
AcDbEntity
  8
A10
  6
CONTINUOUS
 62
7
100
AcDbLine
 10
196.8309755610052
 20
112.4999999997306
 30
0.000000000000000
 11
196.8309755610052
 21
109.9999999997306
 31
0.000000000000000
  0
LINE
  5
D1
100
AcDbEntity
  8
A5
  6
CONTINUOUS
 62
4
100
AcDbLine
 10
242.9779755610463
 20
147.0399999997300
 30
0.000000000000000
 11
242.9779755611106
 21
269.3929998654276
 31
0.000000000000000
  0
LINE
  5
D2
100
AcDbEntity
  8
A10
  6
CONTINUOUS
 62
7
100
AcDbLine
 10
244.3309755611104
 20
268.0399998654277
 30
0.000000000000000
 11
241.3309755611104
 21
271.0399998654278
 31
0.000000000000000
  0
LINE
  5
D3
100
AcDbEntity
  8
A10
  6
CONTINUOUS
 62
7
100
AcDbLine
 10
244.3309755610475
 20
148.0399999996142
 30
0.000000000000000
 11
244.3309755611106
 21
268.0399998654277
 31
0.000000000000000
  0
LINE
  5
D4
100
AcDbEntity
  8
A10
  6
CONTINUOUS
 62
7
100
AcDbLine
 10
243.3309755611863
 20
147.0399999997531
 30
0.000000000000000
 11
244.3309755611863
 21
148.0399999997531
 31
0.000000000000000
  0
LINE
  5
D5
100
AcDbEntity
  8
A10
  6
CONTINUOUS
 62
7
100
AcDbLine
 10
242.8309755610187
 20
141.5399999997441
 30
0.000000000000000
 11
242.8309755610246
 21
147.0399999997533
 31
0.000000000000000
  0
ARC
  5
D6
100
AcDbEntity
  8
A10
  6
CONTINUOUS
 62
7
100
AcDbCircle
 10
243.3309755610187
 20
141.5399999997436
 30
0.000000000000000
 40
0.5000000000000218
100
AcDbArc
 50
179.9999999998760
 51
269.9999999998760
  0
ARC
  5
D7
100
AcDbEntity
  8
A10
  6
CONTINUOUS
 62
7
100
AcDbCircle
 10
244.0309755610035
 20
127.5399999997200
 30
0.000000000000000
 40
0.5000000000000137
100
AcDbArc
 50
90.00000000000000
 51
113.0739180618823
  0
ARC
  5
D8
100
AcDbEntity
  8
A10
  6
CONTINUOUS
 62
7
100
AcDbCircle
 10
248.5809755609873
 20
120.7999999996998
 30
0.000000000000000
 40
7.200000000000082
100
AcDbArc
 50
34.99999999978419
 51
89.99999999987598
  0
LINE
  5
D9
100
AcDbEntity
  8
A10
  6
CONTINUOUS
 62
7
100
AcDbLine
 10
254.4788702798791
 20
124.9297503414115
 30
0.000000000000000
 11
261.5400577016134
 21
114.8453295997483
 31
0.000000000000000
  0
ARC
  5
DA
100
AcDbEntity
  8
A10
  6
CONTINUOUS
 62
7
100
AcDbCircle
 10
266.0453939452150
 20
117.9999999996621
 30
0.000000000000000
 40
5.500000000000008
100
AcDbArc
 50
214.9999999997843
 51
269.9999999998760
  0
LINE
  5
DB
100
AcDbEntity
  8
A10
  6
CONTINUOUS
 62
7
100
AcDbLine
 10
271.8309755609694
 20
112.4999999996495
 30
0.000000000000000
 11
271.8309755609639
 21
109.9999999996495
 31
0.000000000000000
  0
LINE
  5
DC
100
AcDbEntity
  8
A3
  6
CENTER
 62
1
100
AcDbLine
 10
234.3309755610258
 20
105.5399999997206
 30
0.000000000000000
 11
234.3309755611633
 21
276.0399998654430
 31
0.000000000000000
  0
ARC
  5
DD
100
AcDbEntity
  8
A10
  6
CONTINUOUS
 62
7
100
AcDbCircle
 10
226.8309755611570
 20
313.8647375611451
 30
0.000000000000000
 40
17.82473769546375
100
AcDbArc
 50
245.1171967046837
 51
294.8828032953127
  0
LINE
  5
DE
100
AcDbEntity
  8
A10
  6
CONTINUOUS
 62
7
100
AcDbLine
 10
234.3309755611568
 20
297.6946641564852
 30
0.000000000000000
 11
234.3309755611568
 21
312.0399998656816
 31
0.000000000000000
  0
LINE
  5
DF
100
AcDbEntity
  8
A10
  6
CONTINUOUS
 62
7
100
AcDbLine
 10
219.3309755611568
 20
296.0399998656816
 30
0.000000000000000
 11
219.3309755611568
 21
312.0399998656816
 31
0.000000000000000
  0
LINE
  5
E0
100
AcDbEntity
  8
A10
  6
CONTINUOUS
 62
7
100
AcDbLine
 10
249.3309755611555
 20
296.0399998656816
 30
0.000000000000000
 11
219.3309755611568
 21
296.0399998656816
 31
0.000000000000000
  0
LINE
  5
E1
100
AcDbEntity
  8
A10
  6
CONTINUOUS
 62
7
100
AcDbLine
 10
249.3309755611555
 20
312.0399998656816
 30
0.000000000000000
 11
219.3309755611568
 21
312.0399998656816
 31
0.000000000000000
  0
ARC
  5
E2
100
AcDbEntity
  8
A10
  6
CONTINUOUS
 62
7
100
AcDbCircle
 10
241.8309755611554
 20
313.8647375611451
 30
0.000000000000000
 40
17.82473769546375
100
AcDbArc
 50
245.1171967046873
 51
294.8828032953164
  0
LINE
  5
E3
100
AcDbEntity
  8
A10
  6
CONTINUOUS
 62
7
100
AcDbLine
 10
249.3309755611555
 20
296.0399998656816
 30
0.000000000000000
 11
249.3309755611555
 21
312.0399998656816
 31
0.000000000000000
  0
LINE
  5
E4
100
AcDbEntity
  8
A3
  6
CENTER
 62
1
100
AcDbLine
 10
234.3309755611380
 20
291.0399998654202
 30
0.000000000000000
 11
234.3309755611614
 21
317.0399998654200
 31
0.000000000000000
  0
POINT
  5
E5
100
AcDbEntity
  8
A10
  6
CONTINUOUS
 62
7
100
AcDbPoint
 10
234.3309755610583
 20
129.6946642905563
 30
0.000000000000000
  0
POINT
  5
E6
100
AcDbEntity
  8
A10
  6
CONTINUOUS
 62
7
100
AcDbPoint
 10
219.3309755610583
 20
128.0399999997527
 30
0.000000000000000
  0
ARC
  5
E7
100
AcDbEntity
  8
A10
  6
CONTINUOUS
 62
7
100
AcDbCircle
 10
226.8309755610584
 20
145.8647376952162
 30
0.000000000000000
 40
17.82473769546375
100
AcDbArc
 50
245.1171967046837
 51
294.8828032953127
  0
LINE
  5
E8
100
AcDbEntity
  8
A10
  6
CONTINUOUS
 62
7
100
AcDbLine
 10
249.3309755610570
 20
128.0399999997527
 30
0.000000000000000
 11
219.3309755610583
 21
128.0399999997527
 31
0.000000000000000
  0
ARC
  5
E9
100
AcDbEntity
  8
A10
  6
CONTINUOUS
 62
7
100
AcDbCircle
 10
241.8309755610568
 20
145.8647376952162
 30
0.000000000000000
 40
17.82473769546375
100
AcDbArc
 50
245.1171967046873
 51
294.8828032953164
  0
LINE
  5
EA
100
AcDbEntity
  8
A10
  6
CONTINUOUS
 62
7
100
AcDbLine
 10
249.3309755610820
 20
141.0399999997377
 30
0.000000000000000
 11
249.3309755610539
 21
128.0399999997527
 31
0.000000000000000
  0
LINE
  5
EB
100
AcDbEntity
  8
A10
  6
CONTINUOUS
 62
7
100
AcDbLine
 10
234.3309755610829
 20
141.0399999997702
 30
0.000000000000000
 11
234.3309755610583
 21
129.6946642905574
 31
0.000000000000000
  0
LINE
  5
EC
100
AcDbEntity
  8
A10
  6
CONTINUOUS
 62
7
100
AcDbLine
 10
219.3309755610824
 20
141.0399999998026
 30
0.000000000000000
 11
219.3309755610543
 21
128.0399999997690
 31
0.000000000000000
  0
ENDSEC
  0
SECTION
  2
OBJECTS
  0
DICTIONARY
  5
11D
100
AcDbDictionary
  3
ACAD_GROUP
350
11E
  3
ACAD_LAYOUT
350
11F
  3
ACAD_MLINESTYLE
350
120
  0
DICTIONARY
  5
11E
102
{ACAD_REACTORS
330
11D
102
}
330
11D
100
AcDbDictionary
  0
DICTIONARY
  5
11F
102
{ACAD_REACTORS
330
11D
102
}
330
11D
100
AcDbDictionary
  3
Model
350
121
  3
ﾚｲｱｳﾄ1
350
122
  3
ﾚｲｱｳﾄ2
350
123
  0
DICTIONARY
  5
120
102
{ACAD_REACTORS
330
11D
102
}
330
11D
100
AcDbDictionary
  3
STANDARD
350
124
  0
LAYOUT
  5
121
102
{ACAD_REACTORS
330
11F
102
}
330
11F
100
AcDbPlotSettings
 70
11952
  4
A3
 44
297.000000
 45
420.000000
 73
  1
 72
  1
100
AcDbLayout
  1
Model
 71
0
330
114
  0
LAYOUT
  5
122
102
{ACAD_REACTORS
330
11F
102
}
330
11F
100
AcDbPlotSettings
100
AcDbLayout
  1
ﾚｲｱｳﾄ1
 71
1
330
115
  0
LAYOUT
  5
123
102
{ACAD_REACTORS
330
11F
102
}
330
11F
100
AcDbPlotSettings
100
AcDbLayout
  1
ﾚｲｱｳﾄ2
 71
2
330
116
  0
MLINESTYLE
  5
124
102
{ACAD_REACTORS
330
120
102
}
330
120
100
AcDbMlineStyle
  2
STANDARD
 70
     0
  3

 62
   256
 51
90.00
 52
90.00
 71
     2
 49
0.50
 62
   256
  6
BYLAYER
 49
-0.50
 62
   256
  6
BYLAYER
  0
ENDSEC
  0
EOF
