  0
SECTION
  2
HEADER
  9
$ACADVER
  1
AC1014
  9
$DWGCODEPAGE
  3
ANSI_932
  9
$LTSCALE
 40
20.0
  9
$FILLMODE
 70
     1
  9
$CLAYER
  8
0
  9
$PDMODE
 70
     0
  9
$SPLFRAME
 70
     0
  9
$SPLINETYPE
 70
     6
  9
$SPLINESEGS
 70
     8
  9
$DIMASZ
 40
2.000000
  9
$DIMEXE
 40
1.500000
  9
$DIMEXO
 40
0.800000
  9
$DIMTAD
 70
     1
  9
$DIMTIH
 70
     0
  9
$DIMTOH
 70
     0
  9
$DIMTVP
 40
0.500000
  9
$DIMTXT
 40
3.100000
  9
$EXTMIN
 10
0.000000
 20
0.000000
 30
0.000000
  9
$EXTMAX
 10
297.000000
 20
420.000000
 30
0.000000
  9
$MEASUREMENT
 70
  1
  9
$LIMMIN
 10
0.000000
 20
0.000000
  9
$LIMMAX
 10
297.000000
 20
420.000000
  9
$HANDLING
 70
     1
  9
$HANDSEED
  5
21C
  9
$DIMBLK
  1
_OPEN
  9
$DIMDEC
 70
     2
  9
$DIMAUNIT
 70
     0
  9
$DIMZIN
 70
     8
  9
$DIMTOFL
 70
     1
  0
ENDSEC
  0
SECTION
  2
CLASSES
  0
ENDSEC
  0
SECTION
  2
TABLES
  0
TABLE
  2
VPORT
  5
1EB
100
AcDbSymbolTable
 70
     1
  0
VPORT
  5
1EC
100
AcDbSymbolTableRecord
100
AcDbViewportTableRecord
  2
*ACTIVE
 70
     0
 12
545.442445
 22
112.312400
 40
188.624799
 41
5.677328
  0
ENDTAB
  0
TABLE
  2
LTYPE
  5
1ED
100
AcDbSymbolTable
 70
     3
  0
LTYPE
  5
1EE
100
AcDbSymbolTableRecord
100
AcDbLinetypeTableRecord
  2
BYBLOCK
 70
     0
  3

 72
    65
 73
     0
 40
0.0
  0
LTYPE
  5
1EF
100
AcDbSymbolTableRecord
100
AcDbLinetypeTableRecord
  2
BYLAYER
 70
     0
  3

 72
    65
 73
     0
 40
0.0
  0
LTYPE
  5
1F0
100
AcDbSymbolTableRecord
100
AcDbLinetypeTableRecord
  2
CONTINUOUS
 70
     0
  3
Solid line (NEC CAE2D for Win R18.0 : 2025.02.03)
 72
    65
 73
     0
 40
0.0
  0
LTYPE
  5
1F1
100
AcDbSymbolTableRecord
100
AcDbLinetypeTableRecord
  2
DASHED
 70
     0
  3
__ __ __ __ __ __ __ __ __ __ __ __ __ _
 72
    65
 73
     2
 40
0.75
 49
0.5
 74
     0
 49
-0.25
 74
     0
  0
LTYPE
  5
1F2
100
AcDbSymbolTableRecord
100
AcDbLinetypeTableRecord
  2
CENTER
 70
     0
  3
____ _ ____ _ ____ _ ____ _ ____ _ ____
 72
    65
 73
     4
 40
2.0
 49
1.25
 74
     0
 49
-0.25
 74
     0
 49
0.25
 74
     0
 49
-0.25
 74
     0
  0
ENDTAB
  0
TABLE
  2
LAYER
  5
1F3
100
AcDbSymbolTable
 70
    17
  0
LAYER
  5
1F4
100
AcDbSymbolTableRecord
100
AcDbLayerTableRecord
  2
0
 70
     0
 62
     7
  6
CONTINUOUS
  0
LAYER
  5
1F5
100
AcDbSymbolTableRecord
100
AcDbLayerTableRecord
  2
A0
 70
     0
 62
     9
  6
CONTINUOUS
  0
LAYER
  5
1F6
100
AcDbSymbolTableRecord
100
AcDbLayerTableRecord
  2
A1
 70
     0
 62
    12
  6
CONTINUOUS
  0
LAYER
  5
1F7
100
AcDbSymbolTableRecord
100
AcDbLayerTableRecord
  2
A2
 70
     0
 62
     9
  6
CONTINUOUS
  0
LAYER
  5
1F8
100
AcDbSymbolTableRecord
100
AcDbLayerTableRecord
  2
A3
 70
     0
 62
    12
  6
CONTINUOUS
  0
LAYER
  5
1F9
100
AcDbSymbolTableRecord
100
AcDbLayerTableRecord
  2
A4
 70
     0
 62
     9
  6
CONTINUOUS
  0
LAYER
  5
1FA
100
AcDbSymbolTableRecord
100
AcDbLayerTableRecord
  2
A5
 70
     0
 62
     8
  6
CONTINUOUS
  0
LAYER
  5
1FB
100
AcDbSymbolTableRecord
100
AcDbLayerTableRecord
  2
A6
 70
     0
 62
    12
  6
CONTINUOUS
  0
LAYER
  5
1FC
100
AcDbSymbolTableRecord
100
AcDbLayerTableRecord
  2
A7
 70
     0
 62
    12
  6
CONTINUOUS
  0
LAYER
  5
1FD
100
AcDbSymbolTableRecord
100
AcDbLayerTableRecord
  2
A8
 70
     0
 62
    10
  6
CONTINUOUS
  0
LAYER
  5
1FE
100
AcDbSymbolTableRecord
100
AcDbLayerTableRecord
  2
A9
 70
     0
 62
     9
  6
CONTINUOUS
  0
LAYER
  5
1FF
100
AcDbSymbolTableRecord
100
AcDbLayerTableRecord
  2
A10
 70
     0
 62
     6
  6
CONTINUOUS
  0
LAYER
  5
200
100
AcDbSymbolTableRecord
100
AcDbLayerTableRecord
  2
A20
 70
     0
 62
     1
  6
CONTINUOUS
  0
LAYER
  5
201
100
AcDbSymbolTableRecord
100
AcDbLayerTableRecord
  2
A30
 70
     0
 62
     1
  6
CONTINUOUS
  0
LAYER
  5
202
100
AcDbSymbolTableRecord
100
AcDbLayerTableRecord
  2
A40
 70
     0
 62
     9
  6
CONTINUOUS
  0
LAYER
  5
203
100
AcDbSymbolTableRecord
100
AcDbLayerTableRecord
  2
A50
 70
     0
 62
    12
  6
CONTINUOUS
  0
LAYER
  5
204
100
AcDbSymbolTableRecord
100
AcDbLayerTableRecord
  2
A1023
 70
     0
 62
    16
  6
CONTINUOUS
  0
ENDTAB
  0
TABLE
  2
STYLE
  5
205
100
AcDbSymbolTable
 70
     4
  0
STYLE
  5
206
100
AcDbSymbolTableRecord
100
AcDbTextStyleTableRecord
  2
STANDARD
 70
    64
 40
0.0
 41
1.0
 50
0.0
 71
     0
 42
3.000000000000000
  3
TXT
  4

  0
STYLE
  5
207
100
AcDbSymbolTableRecord
100
AcDbTextStyleTableRecord
  2
ANKTATE
 70
    68
 40
0.0
 41
1.0
 50
0.0
 71
     0
 42
3.000000000000000
  3
TXT
  4

  0
STYLE
  5
208
100
AcDbSymbolTableRecord
100
AcDbTextStyleTableRecord
  2
KNJYOKO
 70
    64
 40
0.0
 41
1.0
 50
0.0
 71
     0
 42
3.000000000000000
  3
TXT
  4
BIGFONT
  0
STYLE
  5
209
100
AcDbSymbolTableRecord
100
AcDbTextStyleTableRecord
  2
KNJTATE
 70
    68
 40
0.0
 41
1.0
 50
0.0
 71
     0
 42
3.000000000000000
  3
TXT
  4
BIGFONT
  0
ENDTAB
  0
TABLE
  2
VIEW
  5
20A
100
AcDbSymbolTable
 70
     0
  0
ENDTAB
  0
TABLE
  2
UCS
  5
20B
100
AcDbSymbolTable
 70
     0
  0
ENDTAB
  0
TABLE
  2
APPID
  5
20C
100
AcDbSymbolTable
 70
     1
  0
APPID
  5
20D
100
AcDbSymbolTableRecord
100
AcDbRegAppTableRecord
  2
ACAD
 70
     0
  0
ENDTAB
  0
TABLE
  2
DIMSTYLE
  5
20E
100
AcDbSymbolTable
 70
     2
  0
DIMSTYLE
105
20F
100
AcDbSymbolTableRecord
100
AcDbDimStyleTableRecord
  2
STANDARD
 70
     0
 41
2.000000
 44
1.500000
 42
0.800000
145
0.661290
140
3.100000
144
1.000000
146
0.645161
340
206
  0
DIMSTYLE
105
210
100
AcDbSymbolTableRecord
100
AcDbDimStyleTableRecord
  2
A001
 70
     0
 41
2.000000
 44
1.500000
 42
0.800000
145
0.661290
140
3.100000
144
1.000000
146
0.645161
 77
     1
 73
     0
 74
     0
271
     2
275
     0
 78
     8
172
     1
340
206
  0
ENDTAB
  0
TABLE
  2
BLOCK_RECORD
  5
211
100
AcDbSymbolTable
 70
    12
  0
BLOCK_RECORD
  5
212
100
AcDbSymbolTableRecord
100
AcDbBlockTableRecord
  2
*MODEL_SPACE
  0
BLOCK_RECORD
  5
213
100
AcDbSymbolTableRecord
100
AcDbBlockTableRecord
  2
*PAPER_SPACE
  0
BLOCK_RECORD
  5
1
100
AcDbSymbolTableRecord
100
AcDbBlockTableRecord
  2
_NONE
  0
BLOCK_RECORD
  5
4
100
AcDbSymbolTableRecord
100
AcDbBlockTableRecord
  2
_CLOSED
  0
BLOCK_RECORD
  5
B
100
AcDbSymbolTableRecord
100
AcDbBlockTableRecord
  2
_DOT
  0
BLOCK_RECORD
  5
13
100
AcDbSymbolTableRecord
100
AcDbBlockTableRecord
  2
_OPEN
  0
BLOCK_RECORD
  5
19
100
AcDbSymbolTableRecord
100
AcDbBlockTableRecord
  2
_ORIGIN
  0
BLOCK_RECORD
  5
1E
100
AcDbSymbolTableRecord
100
AcDbBlockTableRecord
  2
_OPEN30
  0
BLOCK_RECORD
  5
24
100
AcDbSymbolTableRecord
100
AcDbBlockTableRecord
  2
_BOXFILLED
  0
BLOCK_RECORD
  5
29
100
AcDbSymbolTableRecord
100
AcDbBlockTableRecord
  2
_BOXBLANK
  0
BLOCK_RECORD
  5
31
100
AcDbSymbolTableRecord
100
AcDbBlockTableRecord
  2
_OBLIQUE
  0
BLOCK_RECORD
  5
35
100
AcDbSymbolTableRecord
100
AcDbBlockTableRecord
  2
_OPEN90
  0
BLOCK_RECORD
  5
3B
100
AcDbSymbolTableRecord
100
AcDbBlockTableRecord
  2
_CLOSEDBLANK
  0
BLOCK_RECORD
  5
41
100
AcDbSymbolTableRecord
100
AcDbBlockTableRecord
  2
_DOTBLANK
  0
ENDTAB
  0
ENDSEC
  0
SECTION
  2
BLOCKS
  0
BLOCK
  5
214
100
AcDbEntity
  8
0
100
AcDbBlockBegin
  2
*MODEL_SPACE
 70
     0
 10
0.0
 20
0.0
 30
0.0
  3
*MODEL_SPACE
  1

  0
ENDBLK
  5
215
100
AcDbEntity
  8
0
100
AcDbBlockEnd
  0
BLOCK
  5
216
100
AcDbEntity
  8
0
100
AcDbBlockBegin
  2
*PAPER_SPACE
 70
     0
 10
0.0
 20
0.0
 30
0.0
  3
*PAPER_SPACE
  1

  0
ENDBLK
  5
217
100
AcDbEntity
  8
0
100
AcDbBlockEnd
  0
BLOCK
  5
2
100
AcDbEntity
  8
0
100
AcDbBlockBegin
  2
_NONE
 70
     0
 10
0.0
 20
0.0
 30
0.0
  3
_NONE
  1

  0
ENDBLK
  5
3
100
AcDbEntity
  8
0
100
AcDbBlockEnd
  0
BLOCK
  5
5
100
AcDbEntity
  8
0
100
AcDbBlockBegin
  2
_CLOSED
 70
     0
 10
0.0
 20
0.0
 30
0.0
  3
_CLOSED
  1

  0
LINE
  5
6
100
AcDbEntity
  8
0
  6
BYBLOCK
 62
     0
100
AcDbLine
 10
-1.0
 20
0.166667
 30
0.0
 11
0.0
 21
0.0
 31
0.0
  0
LINE
  5
7
100
AcDbEntity
  8
0
  6
BYBLOCK
 62
     0
100
AcDbLine
 10
0.0
 20
0.0
 30
0.0
 11
-1.0
 21
-0.166667
 31
0.0
  0
LINE
  5
8
100
AcDbEntity
  8
0
  6
BYBLOCK
 62
     0
100
AcDbLine
 10
-1.0
 20
0.166667
 30
0.0
 11
-1.0
 21
-0.166667
 31
0.0
  0
LINE
  5
9
100
AcDbEntity
  8
0
  6
BYBLOCK
 62
     0
100
AcDbLine
 10
0.0
 20
0.0
 30
0.0
 11
-1.0
 21
0.0
 31
0.0
  0
ENDBLK
  5
A
100
AcDbEntity
  8
0
100
AcDbBlockEnd
  0
BLOCK
  5
C
100
AcDbEntity
  8
0
100
AcDbBlockBegin
  2
_DOT
 70
     0
 10
0.0
 20
0.0
 30
0.0
  3
_DOT
  1

  0
POLYLINE
  5
D
100
AcDbEntity
  8
0
  6
BYBLOCK
 62
     0
100
AcDb2dPolyline
 66
     1
 10
0.0
 20
0.0
 30
0.0
 70
     1
 40
0.5
 41
0.5
  0
VERTEX
  5
E
100
AcDbEntity
  8
0
  6
BYBLOCK
 62
     0
100
AcDbVertex
100
AcDb2dVertex
 10
-0.25
 20
0.0
 30
0.0
 42
1.0
  0
VERTEX
  5
F
100
AcDbEntity
  8
0
  6
BYBLOCK
 62
     0
100
AcDbVertex
100
AcDb2dVertex
 10
0.25
 20
0.0
 30
0.0
 42
1.0
  0
SEQEND
  5
10
100
AcDbEntity
  8
0
  6
BYBLOCK
 62
     0
  0
LINE
  5
11
100
AcDbEntity
  8
0
  6
BYBLOCK
 62
     0
100
AcDbLine
 10
-0.5
 20
0.0
 30
0.0
 11
-1.0
 21
0.0
 31
0.0
  0
ENDBLK
  5
12
100
AcDbEntity
  8
0
100
AcDbBlockEnd
  0
BLOCK
  5
14
100
AcDbEntity
  8
0
100
AcDbBlockBegin
  2
_OPEN
 70
     0
 10
0.0
 20
0.0
 30
0.0
  3
_OPEN
  1

  0
LINE
  5
15
100
AcDbEntity
  8
0
  6
BYBLOCK
 62
     0
100
AcDbLine
 10
-1.0
 20
0.166667
 30
0.0
 11
0.0
 21
0.0
 31
0.0
  0
LINE
  5
16
100
AcDbEntity
  8
0
  6
BYBLOCK
 62
     0
100
AcDbLine
 10
0.0
 20
0.0
 30
0.0
 11
-1.0
 21
-0.166667
 31
0.0
  0
LINE
  5
17
100
AcDbEntity
  8
0
  6
BYBLOCK
 62
     0
100
AcDbLine
 10
0.0
 20
0.0
 30
0.0
 11
-1.0
 21
0.0
 31
0.0
  0
ENDBLK
  5
18
100
AcDbEntity
  8
0
100
AcDbBlockEnd
  0
BLOCK
  5
1A
100
AcDbEntity
  8
0
100
AcDbBlockBegin
  2
_ORIGIN
 70
     0
 10
0.0
 20
0.0
 30
0.0
  3
_ORIGIN
  1

  0
CIRCLE
  5
1B
100
AcDbEntity
  8
0
  6
BYBLOCK
 62
     0
100
AcDbCircle
 10
0.0
 20
0.0
 30
0.0
 40
0.5
  0
LINE
  5
1C
100
AcDbEntity
  8
0
  6
BYBLOCK
 62
     0
100
AcDbLine
 10
0.0
 20
0.0
 30
0.0
 11
-1.0
 21
0.0
 31
0.0
  0
ENDBLK
  5
1D
100
AcDbEntity
  8
0
100
AcDbBlockEnd
  0
BLOCK
  5
1F
100
AcDbEntity
  8
0
100
AcDbBlockBegin
  2
_OPEN30
 70
     0
 10
0.0
 20
0.0
 30
0.0
  3
_OPEN30
  1

  0
LINE
  5
20
100
AcDbEntity
  8
0
  6
BYBLOCK
 62
     0
100
AcDbLine
 10
-1.0
 20
0.267949
 30
0.0
 11
0.0
 21
0.0
 31
0.0
  0
LINE
  5
21
100
AcDbEntity
  8
0
  6
BYBLOCK
 62
     0
100
AcDbLine
 10
0.0
 20
0.0
 30
0.0
 11
-1.0
 21
-0.267949
 31
0.0
  0
LINE
  5
22
100
AcDbEntity
  8
0
  6
BYBLOCK
 62
     0
100
AcDbLine
 10
0.0
 20
0.0
 30
0.0
 11
-1.0
 21
0.0
 31
0.0
  0
ENDBLK
  5
23
100
AcDbEntity
  8
0
100
AcDbBlockEnd
  0
BLOCK
  5
25
100
AcDbEntity
  8
0
100
AcDbBlockBegin
  2
_BOXFILLED
 70
     0
 10
0.0
 20
0.0
 30
0.0
  3
_BOXFILLED
  1

  0
SOLID
  5
26
100
AcDbEntity
  8
0
  6
BYBLOCK
 62
     0
100
AcDbTrace
 10
-0.5
 20
0.5
 30
0.0
 11
0.5
 21
0.5
 31
0.0
 12
-0.5
 22
-0.5
 32
0.0
 13
0.5
 23
-0.5
 33
0.0
  0
LINE
  5
27
100
AcDbEntity
  8
0
  6
BYBLOCK
 62
     0
100
AcDbLine
 10
-0.5
 20
0.0
 30
0.0
 11
-1.0
 21
0.0
 31
0.0
  0
ENDBLK
  5
28
100
AcDbEntity
  8
0
100
AcDbBlockEnd
  0
BLOCK
  5
2A
100
AcDbEntity
  8
0
100
AcDbBlockBegin
  2
_BOXBLANK
 70
     0
 10
0.0
 20
0.0
 30
0.0
  3
_BOXBLANK
  1

  0
LINE
  5
2B
100
AcDbEntity
  8
0
  6
BYBLOCK
 62
     0
100
AcDbLine
 10
-0.5
 20
-0.5
 30
0.0
 11
0.5
 21
-0.5
 31
0.0
  0
LINE
  5
2C
100
AcDbEntity
  8
0
  6
BYBLOCK
 62
     0
100
AcDbLine
 10
0.5
 20
-0.5
 30
0.0
 11
0.5
 21
0.5
 31
0.0
  0
LINE
  5
2D
100
AcDbEntity
  8
0
  6
BYBLOCK
 62
     0
100
AcDbLine
 10
0.5
 20
0.5
 30
0.0
 11
-0.5
 21
0.5
 31
0.0
  0
LINE
  5
2E
100
AcDbEntity
  8
0
  6
BYBLOCK
 62
     0
100
AcDbLine
 10
-0.5
 20
0.5
 30
0.0
 11
-0.5
 21
-0.5
 31
0.0
  0
LINE
  5
2F
100
AcDbEntity
  8
0
  6
BYBLOCK
 62
     0
100
AcDbLine
 10
-0.5
 20
0.0
 30
0.0
 11
-1.0
 21
0.0
 31
0.0
  0
ENDBLK
  5
30
100
AcDbEntity
  8
0
100
AcDbBlockEnd
  0
BLOCK
  5
32
100
AcDbEntity
  8
0
100
AcDbBlockBegin
  2
_OBLIQUE
 70
     0
 10
0.0
 20
0.0
 30
0.0
  3
_OBLIQUE
  1

  0
LINE
  5
33
100
AcDbEntity
  8
0
  6
BYBLOCK
 62
     0
100
AcDbLine
 10
-0.5
 20
-0.5
 30
0.0
 11
0.5
 21
0.5
 31
0.0
  0
ENDBLK
  5
34
100
AcDbEntity
  8
0
100
AcDbBlockEnd
  0
BLOCK
  5
36
100
AcDbEntity
  8
0
100
AcDbBlockBegin
  2
_OPEN90
 70
     0
 10
0.0
 20
0.0
 30
0.0
  3
_OPEN90
  1

  0
LINE
  5
37
100
AcDbEntity
  8
0
  6
BYBLOCK
 62
     0
100
AcDbLine
 10
-0.5
 20
0.5
 30
0.0
 11
0.0
 21
0.0
 31
0.0
  0
LINE
  5
38
100
AcDbEntity
  8
0
  6
BYBLOCK
 62
     0
100
AcDbLine
 10
0.0
 20
0.0
 30
0.0
 11
-0.5
 21
-0.5
 31
0.0
  0
LINE
  5
39
100
AcDbEntity
  8
0
  6
BYBLOCK
 62
     0
100
AcDbLine
 10
0.0
 20
0.0
 30
0.0
 11
-1.0
 21
0.0
 31
0.0
  0
ENDBLK
  5
3A
100
AcDbEntity
  8
0
100
AcDbBlockEnd
  0
BLOCK
  5
3C
100
AcDbEntity
  8
0
100
AcDbBlockBegin
  2
_CLOSEDBLANK
 70
     0
 10
0.0
 20
0.0
 30
0.0
  3
_CLOSEDBLANK
  1

  0
LINE
  5
3D
100
AcDbEntity
  8
0
  6
BYBLOCK
 62
     0
100
AcDbLine
 10
-1.0
 20
0.1666666666666666
 30
0.0
 11
0.0
 21
0.0
 31
0.0
  0
LINE
  5
3E
100
AcDbEntity
  8
0
  6
BYBLOCK
 62
     0
100
AcDbLine
 10
0.0
 20
0.0
 30
0.0
 11
-1.0
 21
-0.1666666666666666
 31
0.0
  0
LINE
  5
3F
100
AcDbEntity
  8
0
  6
BYBLOCK
 62
     0
100
AcDbLine
 10
-1.0
 20
0.1666666666666666
 30
0.0
 11
-1.0
 21
-0.1666666666666666
 31
0.0
  0
ENDBLK
  5
40
100
AcDbEntity
  8
0
100
AcDbBlockEnd
  0
BLOCK
  5
42
100
AcDbEntity
  8
0
100
AcDbBlockBegin
  2
_DOTBLANK
 70
     0
 10
0.0
 20
0.0
 30
0.0
  3
_DOTBLANK
  1

  0
CIRCLE
  5
43
100
AcDbEntity
  8
0
  6
BYBLOCK
 62
     0
100
AcDbCircle
 10
0.0
 20
0.0
 30
0.0
 40
0.5
  0
LINE
  5
44
100
AcDbEntity
  8
0
  6
BYBLOCK
 62
     0
100
AcDbLine
 10
-0.5
 20
0.0
 30
0.0
 11
-1.0
 21
0.0
 31
0.0
  0
ENDBLK
  5
45
100
AcDbEntity
  8
0
100
AcDbBlockEnd
  0
ENDSEC
  0
SECTION
  2
ENTITIES
  0
MTEXT
  5
46
100
AcDbEntity
  8
A7
  6
CONTINUOUS
 62
3
100
AcDbMText
 10
9.999997526638502
 20
18.00000076076889
 30
0.000000000000000
 40
3.000000000000000
 41
0.000000000000000
 71
     7
 72
     1
  1
{\H0.94x;{TYPE No.TM-377-20}}
 11
1.000000000000000
 21
0.000000000000000
 31
0.000000000000000
  7
STANDARD
  0
POINT
  5
47
100
AcDbEntity
  8
A10
  6
CONTINUOUS
 62
3
100
AcDbPoint
 10
9.999997526638502
 20
18.00000076076889
 30
0.000000000000000
  0
LINE
  5
48
100
AcDbEntity
  8
A4
  6
CENTER
 62
1
100
AcDbLine
 10
42.18489247542125
 20
75.70261997861884
 30
0.000000000000000
 11
19.38489247542122
 21
75.70261997861884
 31
0.000000000000000
  0
ARC
  5
49
100
AcDbEntity
  8
A1
  6
CONTINUOUS
 62
7
100
AcDbCircle
 10
30.28489247542127
 20
47.26761997861753
 30
0.000000000000000
 40
6.464999999999999
100
AcDbArc
 50
225.0000000000139
 51
325.0646696619304
  0
LINE
  5
4A
100
AcDbEntity
  8
A1
  6
CONTINUOUS
 62
7
100
AcDbLine
 10
27.68489247542092
 20
58.32860844160793
 30
0.000000000000000
 11
27.68489247542115
 21
53.62680692559756
 31
0.000000000000000
  0
ARC
  5
4B
100
AcDbEntity
  8
A1
  6
CONTINUOUS
 62
7
100
AcDbCircle
 10
35.68489247542125
 20
54.92761997861875
 30
0.000000000000000
 40
5.674999999999999
100
AcDbArc
 50
65.44387469328805
 51
140.8349970654087
  0
LINE
  5
4C
100
AcDbEntity
  8
A1
  6
CONTINUOUS
 62
7
100
AcDbLine
 10
23.38489247542124
 20
48.56026320381501
 30
0.000000000000000
 11
23.38489247542124
 21
102.8449767534224
 31
0.000000000000000
  0
LINE
  5
4D
100
AcDbEntity
  8
A1
  6
CONTINUOUS
 62
7
100
AcDbLine
 10
20.88489247542124
 20
48.22889235391484
 30
0.000000000000000
 11
20.88489247542124
 21
103.1763476033226
 31
0.000000000000000
  0
LINE
  5
4E
100
AcDbEntity
  8
A1
  6
CONTINUOUS
 62
7
100
AcDbLine
 10
40.68489247542125
 20
58.67317306054876
 30
0.000000000000000
 11
40.68489247542125
 21
92.73206689668872
 31
0.000000000000000
  0
LINE
  5
4F
100
AcDbEntity
  8
A1
  6
CONTINUOUS
 62
7
100
AcDbLine
 10
23.38489247542118
 20
48.56026320381512
 30
0.000000000000000
 11
27.48121408801654
 21
44.46394159121809
 31
0.000000000000000
  0
LINE
  5
50
100
AcDbEntity
  8
A1
  6
CONTINUOUS
 62
7
100
AcDbLine
 10
21.38281094740367
 20
47.02681082589812
 30
0.000000000000000
 11
25.71344713505023
 21
42.69617463824854
 31
0.000000000000000
  0
LINE
  5
51
100
AcDbEntity
  8
A1
  6
CONTINUOUS
 62
7
100
AcDbLine
 10
29.48489247542138
 20
64.82394032217884
 30
0.000000000000000
 11
29.48489247542138
 21
86.58129963505884
 31
0.000000000000000
  0
LINE
  5
52
100
AcDbEntity
  8
A1
  6
CONTINUOUS
 62
7
100
AcDbLine
 10
31.98489247542115
 20
64.82394032217884
 30
0.000000000000000
 11
31.98489247542115
 21
86.58129963505884
 31
0.000000000000000
  0
ARC
  5
53
100
AcDbEntity
  8
A1
  6
CONTINUOUS
 62
7
100
AcDbCircle
 10
30.29269800740515
 20
47.26761997861753
 30
0.000000000000000
 40
6.464999999999999
100
AcDbArc
 50
64.34116408558700
 51
109.9462850724337
  0
ARC
  5
54
100
AcDbEntity
  8
A1
  6
CONTINUOUS
 62
7
100
AcDbCircle
 10
27.48489247542115
 20
52.36819611813839
 30
0.000000000000000
 40
2.299999999999999
100
AcDbArc
 50
180.0000000000000
 51
269.8314188142185
  0
ARC
  5
55
100
AcDbEntity
  8
A1
  6
CONTINUOUS
 62
7
100
AcDbCircle
 10
27.98489247542075
 20
53.62680692559765
 30
0.000000000000000
 40
0.3000000000000000
100
AcDbArc
 50
180.0000000000000
 51
289.9462850724159
  0
LINE
  5
56
100
AcDbEntity
  8
A1
  6
CONTINUOUS
 62
7
100
AcDbLine
 10
32.90411084322095
 20
56.65261997861854
 30
0.000000000000000
 11
31.28489247542136
 21
57.58747613914563
 31
0.000000000000000
  0
LINE
  5
57
100
AcDbEntity
  8
A1
  6
CONTINUOUS
 62
7
100
AcDbLine
 10
25.18489247542120
 20
58.32860844160798
 30
0.000000000000000
 11
25.18489247542126
 21
52.36819611813858
 31
0.000000000000000
  0
ARC
  5
58
100
AcDbEntity
  8
A1
  6
CONTINUOUS
 62
7
100
AcDbCircle
 10
28.98489247542206
 20
58.32860844160784
 30
0.000000000000000
 40
1.299999999999999
100
AcDbArc
 50
134.9999999999982
 51
180.0000000000000
  0
LINE
  5
59
100
AcDbEntity
  8
A1
  6
CONTINUOUS
 62
7
100
AcDbLine
 10
28.06565365987942
 20
59.24784725714854
 30
0.000000000000000
 11
30.81331960016877
 21
61.99551319743770
 31
0.000000000000000
  0
LINE
  5
5A
100
AcDbEntity
  8
A1
  6
CONTINUOUS
 62
7
100
AcDbLine
 10
26.29788670691280
 20
61.01561421011792
 30
0.000000000000000
 11
29.04555264720281
 21
63.76328015039793
 31
0.000000000000000
  0
ARC
  5
5B
100
AcDbEntity
  8
A1
  6
CONTINUOUS
 62
7
100
AcDbCircle
 10
27.98489247542177
 20
64.82394032217884
 30
0.000000000000000
 40
1.499999999999999
100
AcDbArc
 50
315.0000000000169
 51
360.0000000000000
  0
ARC
  5
5C
100
AcDbEntity
  8
A1
  6
CONTINUOUS
 62
7
100
AcDbCircle
 10
27.98489247542177
 20
64.82394032217884
 30
0.000000000000000
 40
3.999999999999999
100
AcDbArc
 50
314.9999999999931
 51
360.0000000000000
  0
ARC
  5
5D
100
AcDbEntity
  8
A1
  6
CONTINUOUS
 62
7
100
AcDbCircle
 10
28.98489247542109
 20
58.32860844160784
 30
0.000000000000000
 40
3.800000000000001
100
AcDbArc
 50
135.0000000000043
 51
180.0000000000000
  0
ARC
  5
5E
100
AcDbEntity
  8
A1
  6
CONTINUOUS
 62
7
100
AcDbCircle
 10
22.58489247542128
 20
48.22889235391484
 30
0.000000000000000
 40
1.700000000000000
100
AcDbArc
 50
180.0000000000000
 51
224.9999999999810
  0
LINE
  5
5F
100
AcDbEntity
  8
A1
  6
CONTINUOUS
 62
7
100
AcDbLine
 10
35.58489247542117
 20
44.03421227235198
 30
0.000000000000000
 11
35.58489247542117
 21
43.56542806030747
 31
0.000000000000000
  0
LINE
  5
60
100
AcDbEntity
  8
A1
  6
CONTINUOUS
 62
7
100
AcDbLine
 10
33.66971152523838
 20
45.20261997861871
 30
0.000000000000000
 11
35.58489247542118
 21
44.03421227235186
 31
0.000000000000000
  0
ARC
  5
61
100
AcDbEntity
  8
A1
  6
CONTINUOUS
 62
7
100
AcDbCircle
 10
35.68489247542125
 20
54.92761997861875
 30
0.000000000000000
 40
5.674999999999999
100
AcDbArc
 50
246.0925117444462
 51
320.5510832248698
  0
LINE
  5
62
100
AcDbEntity
  8
A1
  6
CONTINUOUS
 62
7
100
AcDbLine
 10
40.06707858635658
 20
51.32178167260353
 30
0.000000000000000
 11
38.14194888402761
 21
52.91677468249900
 31
0.000000000000000
  0
LINE
  5
63
100
AcDbEntity
  8
A1
  6
CONTINUOUS
 62
7
100
AcDbLine
 10
31.28489247542139
 20
58.51169935832029
 30
0.000000000000000
 11
31.28489247542139
 21
57.58747613914569
 31
0.000000000000000
  0
LINE
  5
64
100
AcDbEntity
  8
A1
  6
CONTINUOUS
 62
7
100
AcDbLine
 10
33.01937188836895
 20
56.65261997861866
 30
0.000000000000000
 11
32.90411084322098
 21
56.65261997861866
 31
0.000000000000000
  0
ARC
  5
65
100
AcDbEntity
  8
A1
  6
CONTINUOUS
 62
7
100
AcDbCircle
 10
38.91433939349135
 20
58.67317306054876
 30
0.000000000000000
 40
1.770553081929961
100
AcDbArc
 50
229.2318156757769
 51
360.0000000000018
  0
ARC
  5
66
100
AcDbEntity
  8
A1
  6
CONTINUOUS
 62
7
100
AcDbCircle
 10
38.08489247542128
 20
60.18029786708679
 30
0.000000000000000
 40
0.1000000000000000
100
AcDbArc
 50
245.4438746932937
 51
360.0000000000000
  0
ARC
  5
67
100
AcDbEntity
  8
A1
  6
CONTINUOUS
 62
7
100
AcDbCircle
 10
30.28489247542127
 20
104.1376199786202
 30
0.000000000000000
 40
6.464999999999999
100
AcDbArc
 50
34.93533033806960
 51
134.9999999999861
  0
LINE
  5
68
100
AcDbEntity
  8
A1
  6
CONTINUOUS
 62
7
100
AcDbLine
 10
27.68489247542093
 20
93.07663151562996
 30
0.000000000000000
 11
27.68489247542115
 21
97.77843303163989
 31
0.000000000000000
  0
ARC
  5
69
100
AcDbEntity
  8
A1
  6
CONTINUOUS
 62
7
100
AcDbCircle
 10
35.68489247542125
 20
96.47761997861870
 30
0.000000000000000
 40
5.674999999999999
100
AcDbArc
 50
219.1650029345913
 51
294.5561253067119
  0
LINE
  5
6A
100
AcDbEntity
  8
A1
  6
CONTINUOUS
 62
7
100
AcDbLine
 10
23.38489247542110
 20
102.8449767534223
 30
0.000000000000000
 11
27.48121408801651
 21
106.9412983660192
 31
0.000000000000000
  0
LINE
  5
6B
100
AcDbEntity
  8
A1
  6
CONTINUOUS
 62
7
100
AcDbLine
 10
21.38281094740393
 20
104.3784291313392
 30
0.000000000000000
 11
25.71344713505055
 21
108.7090653189886
 31
0.000000000000000
  0
ARC
  5
6C
100
AcDbEntity
  8
A1
  6
CONTINUOUS
 62
7
100
AcDbCircle
 10
30.29269800740515
 20
104.1376199786202
 30
0.000000000000000
 40
6.464999999999999
100
AcDbArc
 50
250.0537149275663
 51
295.6588359144130
  0
ARC
  5
6D
100
AcDbEntity
  8
A1
  6
CONTINUOUS
 62
7
100
AcDbCircle
 10
27.48489247542115
 20
99.03704383909930
 30
0.000000000000000
 40
2.299999999999999
100
AcDbArc
 50
90.16858118578155
 51
180.0000000000000
  0
ARC
  5
6E
100
AcDbEntity
  8
A1
  6
CONTINUOUS
 62
7
100
AcDbCircle
 10
27.98489247542075
 20
97.77843303164003
 30
0.000000000000000
 40
0.3000000000000000
100
AcDbArc
 50
70.05371492758402
 51
180.0000000000000
  0
LINE
  5
6F
100
AcDbEntity
  8
A1
  6
CONTINUOUS
 62
7
100
AcDbLine
 10
32.90411084322085
 20
94.75261997861892
 30
0.000000000000000
 11
31.28489247542134
 21
93.81776381809217
 31
0.000000000000000
  0
LINE
  5
70
100
AcDbEntity
  8
A1
  6
CONTINUOUS
 62
7
100
AcDbLine
 10
25.18489247542123
 20
93.07663151562997
 30
0.000000000000000
 11
25.18489247542129
 21
99.03704383909917
 31
0.000000000000000
  0
ARC
  5
71
100
AcDbEntity
  8
A1
  6
CONTINUOUS
 62
7
100
AcDbCircle
 10
28.98489247542206
 20
93.07663151562987
 30
0.000000000000000
 40
1.299999999999999
100
AcDbArc
 50
180.0000000000000
 51
225.0000000000018
  0
LINE
  5
72
100
AcDbEntity
  8
A1
  6
CONTINUOUS
 62
7
100
AcDbLine
 10
28.06565365987933
 20
92.15739270008925
 30
0.000000000000000
 11
30.81331960016870
 21
89.40972675980001
 31
0.000000000000000
  0
LINE
  5
73
100
AcDbEntity
  8
A1
  6
CONTINUOUS
 62
7
100
AcDbLine
 10
26.29788670691264
 20
90.38962574711977
 30
0.000000000000000
 11
29.04555264720264
 21
87.64195980683968
 31
0.000000000000000
  0
ARC
  5
74
100
AcDbEntity
  8
A1
  6
CONTINUOUS
 62
7
100
AcDbCircle
 10
27.98489247542177
 20
86.58129963505884
 30
0.000000000000000
 40
1.499999999999999
100
AcDbArc
 50
0.000000000000000
 51
44.99999999998312
  0
ARC
  5
75
100
AcDbEntity
  8
A1
  6
CONTINUOUS
 62
7
100
AcDbCircle
 10
27.98489247542177
 20
86.58129963505884
 30
0.000000000000000
 40
3.999999999999999
100
AcDbArc
 50
0.000000000000000
 51
45.00000000000691
  0
ARC
  5
76
100
AcDbEntity
  8
A1
  6
CONTINUOUS
 62
7
100
AcDbCircle
 10
28.98489247542109
 20
93.07663151562987
 30
0.000000000000000
 40
3.800000000000001
100
AcDbArc
 50
180.0000000000000
 51
224.9999999999957
  0
ARC
  5
77
100
AcDbEntity
  8
A1
  6
CONTINUOUS
 62
7
100
AcDbCircle
 10
22.58489247542128
 20
103.1763476033226
 30
0.000000000000000
 40
1.700000000000000
100
AcDbArc
 50
135.0000000000190
 51
180.0000000000000
  0
LINE
  5
78
100
AcDbEntity
  8
A1
  6
CONTINUOUS
 62
7
100
AcDbLine
 10
35.58489247542117
 20
107.3710276848857
 30
0.000000000000000
 11
35.58489247542117
 21
107.8398118969304
 31
0.000000000000000
  0
LINE
  5
79
100
AcDbEntity
  8
A1
  6
CONTINUOUS
 62
7
100
AcDbLine
 10
33.66971152523846
 20
106.2026199786185
 30
0.000000000000000
 11
35.58489247542122
 21
107.3710276848858
 31
0.000000000000000
  0
ARC
  5
7A
100
AcDbEntity
  8
A1
  6
CONTINUOUS
 62
7
100
AcDbCircle
 10
35.68489247542125
 20
96.47761997861870
 30
0.000000000000000
 40
5.674999999999999
100
AcDbArc
 50
39.44891677513021
 51
113.9074882555569
  0
LINE
  5
7B
100
AcDbEntity
  8
A1
  6
CONTINUOUS
 62
7
100
AcDbLine
 10
40.06707858635665
 20
100.0834582846338
 30
0.000000000000000
 11
38.14194888402771
 21
98.48846527473870
 31
0.000000000000000
  0
LINE
  5
7C
100
AcDbEntity
  8
A1
  6
CONTINUOUS
 62
7
100
AcDbLine
 10
31.28489247542139
 20
92.89354059891743
 30
0.000000000000000
 11
31.28489247542139
 21
93.81776381809199
 31
0.000000000000000
  0
LINE
  5
7D
100
AcDbEntity
  8
A1
  6
CONTINUOUS
 62
7
100
AcDbLine
 10
33.01937188836895
 20
94.75261997861880
 30
0.000000000000000
 11
32.90411084322098
 21
94.75261997861880
 31
0.000000000000000
  0
ARC
  5
7E
100
AcDbEntity
  8
A1
  6
CONTINUOUS
 62
7
100
AcDbCircle
 10
38.91433939349135
 20
92.73206689668872
 30
0.000000000000000
 40
1.770553081929961
100
AcDbArc
 50
359.9999999999982
 51
490.7681843242231
  0
ARC
  5
7F
100
AcDbEntity
  8
A1
  6
CONTINUOUS
 62
7
100
AcDbCircle
 10
38.08489247542128
 20
91.22494209015089
 30
0.000000000000000
 40
0.1000000000000000
100
AcDbArc
 50
0.000000000000000
 51
114.5561253067063
  0
LINE
  5
80
100
AcDbEntity
  8
A1
  6
CONTINUOUS
 62
7
100
AcDbLine
 10
40.18489247542125
 20
55.92761997861875
 30
0.000000000000000
 11
30.98489247542103
 21
55.92761997861875
 31
0.000000000000000
  0
LINE
  5
81
100
AcDbEntity
  8
A1
  6
CONTINUOUS
 62
7
100
AcDbLine
 10
40.18489247542125
 20
54.92761997861875
 30
0.000000000000000
 11
40.18489247542125
 21
55.92761997861875
 31
0.000000000000000
  0
LINE
  5
82
100
AcDbEntity
  8
A1
  6
CONTINUOUS
 62
7
100
AcDbLine
 10
40.18489247542125
 20
54.92761997861875
 30
0.000000000000000
 11
30.98489247542103
 21
54.92761997861875
 31
0.000000000000000
  0
LINE
  5
83
100
AcDbEntity
  8
A1
  6
CONTINUOUS
 62
7
100
AcDbLine
 10
28.98489247542095
 20
58.20434437289606
 30
0.000000000000000
 11
28.98489247542102
 21
56.92761997861865
 31
0.000000000000000
  0
LINE
  5
84
100
AcDbEntity
  8
A1
  6
CONTINUOUS
 62
7
100
AcDbLine
 10
29.98489247542095
 20
58.20434437289600
 30
0.000000000000000
 11
29.98489247542102
 21
56.92761997861865
 31
0.000000000000000
  0
ARC
  5
85
100
AcDbEntity
  8
A1
  6
CONTINUOUS
 62
7
100
AcDbCircle
 10
30.98489247542103
 20
56.92761997861875
 30
0.000000000000000
 40
1.000000000000000
100
AcDbArc
 50
180.0000000000000
 51
270.0000000000000
  0
ARC
  5
86
100
AcDbEntity
  8
A1
  6
CONTINUOUS
 62
7
100
AcDbCircle
 10
30.98489247542103
 20
56.92761997861875
 30
0.000000000000000
 40
2.000000000000000
100
AcDbArc
 50
180.0000000000000
 51
270.0000000000000
  0
LINE
  5
87
100
AcDbEntity
  8
A1
  6
CONTINUOUS
 62
7
100
AcDbLine
 10
30.07276044106508
 20
58.41647640725211
 30
0.000000000000000
 11
35.85890401243505
 21
64.20261997861550
 31
0.000000000000000
  0
LINE
  5
88
100
AcDbEntity
  8
A1
  6
CONTINUOUS
 62
7
100
AcDbLine
 10
29.36565365987893
 20
59.12358318843903
 30
0.000000000000000
 11
34.45764297581103
 21
64.21557250436537
 31
0.000000000000000
  0
ARC
  5
89
100
AcDbEntity
  8
A1
  6
CONTINUOUS
 62
7
100
AcDbCircle
 10
30.28489247542093
 20
58.20434437289605
 30
0.000000000000000
 40
0.3000000000000000
100
AcDbArc
 50
134.9999999999654
 51
180.0000000000000
  0
ARC
  5
8A
100
AcDbEntity
  8
A1
  6
CONTINUOUS
 62
7
100
AcDbCircle
 10
30.28489247542093
 20
58.20434437289616
 30
0.000000000000000
 40
1.300000000000000
100
AcDbArc
 50
134.9999999999672
 51
180.0000000000000
  0
LINE
  5
8B
100
AcDbEntity
  8
A1
  6
CONTINUOUS
 62
7
100
AcDbLine
 10
30.07276044106512
 20
92.98876354998538
 30
0.000000000000000
 11
35.85890401243810
 21
87.20261997861900
 31
0.000000000000000
  0
LINE
  5
8C
100
AcDbEntity
  8
A1
  6
CONTINUOUS
 62
7
100
AcDbLine
 10
29.36565365987882
 20
92.28165676879840
 30
0.000000000000000
 11
34.45764297581299
 21
87.18966745287001
 31
0.000000000000000
  0
LINE
  5
8D
100
AcDbEntity
  8
A1
  6
CONTINUOUS
 62
7
100
AcDbLine
 10
40.18489247542125
 20
95.47761997861882
 30
0.000000000000000
 11
30.98489247542103
 21
95.47761997861882
 31
0.000000000000000
  0
LINE
  5
8E
100
AcDbEntity
  8
A1
  6
CONTINUOUS
 62
7
100
AcDbLine
 10
40.18489247542125
 20
96.47761997861882
 30
0.000000000000000
 11
40.18489247542125
 21
95.47761997861882
 31
0.000000000000000
  0
LINE
  5
8F
100
AcDbEntity
  8
A1
  6
CONTINUOUS
 62
7
100
AcDbLine
 10
40.18489247542125
 20
96.47761997861882
 30
0.000000000000000
 11
30.98489247542103
 21
96.47761997861882
 31
0.000000000000000
  0
ARC
  5
90
100
AcDbEntity
  8
A1
  6
CONTINUOUS
 62
7
100
AcDbCircle
 10
30.98489247542103
 20
94.47761997861882
 30
0.000000000000000
 40
2.000000000000000
100
AcDbArc
 50
90.00000000000000
 51
180.0000000000000
  0
ARC
  5
91
100
AcDbEntity
  8
A1
  6
CONTINUOUS
 62
7
100
AcDbCircle
 10
30.98489247542103
 20
94.47761997861882
 30
0.000000000000000
 40
1.000000000000000
100
AcDbArc
 50
90.00000000000000
 51
180.0000000000000
  0
LINE
  5
92
100
AcDbEntity
  8
A1
  6
CONTINUOUS
 62
7
100
AcDbLine
 10
29.98489247542096
 20
93.20089558434154
 30
0.000000000000000
 11
29.98489247542103
 21
94.47761997861880
 31
0.000000000000000
  0
ARC
  5
93
100
AcDbEntity
  8
A1
  6
CONTINUOUS
 62
7
100
AcDbCircle
 10
30.28489247542093
 20
93.20089558434144
 30
0.000000000000000
 40
0.3000000000000000
100
AcDbArc
 50
180.0000000000000
 51
225.0000000000346
  0
LINE
  5
94
100
AcDbEntity
  8
A1
  6
CONTINUOUS
 62
7
100
AcDbLine
 10
28.98489247542096
 20
93.20089558434147
 30
0.000000000000000
 11
28.98489247542103
 21
94.47761997861885
 31
0.000000000000000
  0
ARC
  5
95
100
AcDbEntity
  8
A1
  6
CONTINUOUS
 62
7
100
AcDbCircle
 10
30.28489247542093
 20
93.20089558434132
 30
0.000000000000000
 40
1.300000000000000
100
AcDbArc
 50
180.0000000000000
 51
225.0000000000328
  0
LINE
  5
96
100
AcDbEntity
  8
A1
  6
CONTINUOUS
 62
7
100
AcDbLine
 10
23.88489247542124
 20
49.98416839904617
 30
0.000000000000000
 11
23.88489247542124
 21
60.70261997863010
 31
0.000000000000000
  0
LINE
  5
97
100
AcDbEntity
  8
A1
  6
CONTINUOUS
 62
7
100
AcDbLine
 10
24.88489247542124
 20
49.98416839904617
 30
0.000000000000000
 11
24.88489247542124
 21
60.70261997863010
 31
0.000000000000000
  0
LINE
  5
98
100
AcDbEntity
  8
A1
  6
CONTINUOUS
 62
7
100
AcDbLine
 10
25.66845286148312
 20
49.00787239192622
 30
0.000000000000000
 11
35.88489247542058
 21
46.74294225830241
 31
0.000000000000000
  0
LINE
  5
99
100
AcDbEntity
  8
A1
  6
CONTINUOUS
 62
7
100
AcDbLine
 10
25.45201324754511
 20
48.03157638480647
 30
0.000000000000000
 11
35.66845286148251
 21
45.76664625118266
 31
0.000000000000000
  0
ARC
  5
9A
100
AcDbEntity
  8
A1
  6
CONTINUOUS
 62
7
100
AcDbCircle
 10
25.88489247542124
 20
49.98416839904617
 30
0.000000000000000
 40
1.000000000000000
100
AcDbArc
 50
180.0000000000000
 51
257.4999999999999
  0
ARC
  5
9B
100
AcDbEntity
  8
A1
  6
CONTINUOUS
 62
7
100
AcDbCircle
 10
25.88489247542124
 20
49.98416839904617
 30
0.000000000000000
 40
2.000000000000000
100
AcDbArc
 50
180.0000000000000
 51
257.5000000000001
  0
LINE
  5
9C
100
AcDbEntity
  8
A1
  6
CONTINUOUS
 62
7
100
AcDbLine
 10
35.66845286148244
 20
45.76664625118254
 30
0.000000000000000
 11
35.88489247542054
 21
46.74294225830247
 31
0.000000000000000
  0
LINE
  5
9D
100
AcDbEntity
  8
A1
  6
CONTINUOUS
 62
7
100
AcDbLine
 10
24.88489247540995
 20
60.70261997861883
 30
0.000000000000000
 11
26.29910603779382
 21
62.11683354100270
 31
0.000000000000000
  0
LINE
  5
9E
100
AcDbEntity
  8
A1
  6
CONTINUOUS
 62
7
100
AcDbLine
 10
24.17778569422336
 20
61.40972675980541
 30
0.000000000000000
 11
25.59199925660723
 21
62.82394032218927
 31
0.000000000000000
  0
ARC
  5
9F
100
AcDbEntity
  8
A1
  6
CONTINUOUS
 62
7
100
AcDbCircle
 10
24.88489247542124
 20
60.70261997863010
 30
0.000000000000000
 40
1.000000000000000
100
AcDbArc
 50
134.9999999999994
 51
180.0000000000000
  0
LINE
  5
A0
100
AcDbEntity
  8
A1
  6
CONTINUOUS
 62
7
100
AcDbLine
 10
27.59702450977728
 20
69.61475201297476
 30
0.000000000000000
 11
25.47067891303714
 21
67.48840641623538
 31
0.000000000000000
  0
LINE
  5
A1
100
AcDbEntity
  8
A1
  6
CONTINUOUS
 62
7
100
AcDbLine
 10
28.30413129096375
 20
68.90764523178817
 30
0.000000000000000
 11
26.17778569422353
 21
66.78129963504868
 31
0.000000000000000
  0
ARC
  5
A2
100
AcDbEntity
  8
A1
  6
CONTINUOUS
 62
7
100
AcDbCircle
 10
27.38489247542135
 20
69.82688404733075
 30
0.000000000000000
 40
0.3000000000000000
100
AcDbArc
 50
314.9999999999885
 51
360.0000000000000
  0
ARC
  5
A3
100
AcDbEntity
  8
A1
  6
CONTINUOUS
 62
7
100
AcDbCircle
 10
27.38489247542135
 20
69.82688404733075
 30
0.000000000000000
 40
1.300000000000000
100
AcDbArc
 50
314.9999999999903
 51
360.0000000000000
  0
ARC
  5
A4
100
AcDbEntity
  8
A1
  6
CONTINUOUS
 62
7
100
AcDbCircle
 10
26.88489247540993
 20
66.07419285386199
 30
0.000000000000000
 40
2.000000000000000
100
AcDbArc
 50
134.9999999999902
 51
209.8279761925665
  0
ARC
  5
A5
100
AcDbEntity
  8
A1
  6
CONTINUOUS
 62
7
100
AcDbCircle
 10
26.88489247540993
 20
66.07419285386199
 30
0.000000000000000
 40
1.000000000000000
100
AcDbArc
 50
134.9999999999902
 51
209.8279761925667
  0
ARC
  5
A6
100
AcDbEntity
  8
A1
  6
CONTINUOUS
 62
7
100
AcDbCircle
 10
24.88489247542067
 20
63.53104710337574
 30
0.000000000000000
 40
2.000000000000000
100
AcDbArc
 50
315.0000000000000
 51
389.8279761925668
  0
ARC
  5
A7
100
AcDbEntity
  8
A1
  6
CONTINUOUS
 62
7
100
AcDbCircle
 10
24.88489247542067
 20
63.53104710337574
 30
0.000000000000000
 40
1.000000000000000
100
AcDbArc
 50
315.0000000000006
 51
389.8279761925668
  0
LINE
  5
A8
100
AcDbEntity
  8
A1
  6
CONTINUOUS
 62
7
100
AcDbLine
 10
25.14984709712435
 20
65.07939763107015
 30
0.000000000000000
 11
25.75241516456352
 21
64.02844471477181
 31
0.000000000000000
  0
LINE
  5
A9
100
AcDbEntity
  8
A1
  6
CONTINUOUS
 62
7
100
AcDbLine
 10
26.61993785370629
 20
64.52584232616775
 30
0.000000000000000
 11
26.01736978626711
 21
65.57679524246609
 31
0.000000000000000
  0
LINE
  5
AA
100
AcDbEntity
  8
A1
  6
CONTINUOUS
 62
7
100
AcDbLine
 10
23.88489247542124
 20
101.4210715581913
 30
0.000000000000000
 11
23.88489247542124
 21
90.70261997860736
 31
0.000000000000000
  0
LINE
  5
AB
100
AcDbEntity
  8
A1
  6
CONTINUOUS
 62
7
100
AcDbLine
 10
24.88489247542124
 20
101.4210715581913
 30
0.000000000000000
 11
24.88489247542124
 21
90.70261997860736
 31
0.000000000000000
  0
LINE
  5
AC
100
AcDbEntity
  8
A1
  6
CONTINUOUS
 62
7
100
AcDbLine
 10
25.66845286148309
 20
102.3973675653114
 30
0.000000000000000
 11
35.88489247542056
 21
104.6622976989352
 31
0.000000000000000
  0
LINE
  5
AD
100
AcDbEntity
  8
A1
  6
CONTINUOUS
 62
7
100
AcDbLine
 10
25.45201324754504
 20
103.3736635724312
 30
0.000000000000000
 11
35.66845286148244
 21
105.6385937060550
 31
0.000000000000000
  0
ARC
  5
AE
100
AcDbEntity
  8
A1
  6
CONTINUOUS
 62
7
100
AcDbCircle
 10
25.88489247542124
 20
101.4210715581913
 30
0.000000000000000
 40
1.000000000000000
100
AcDbArc
 50
102.5000000000001
 51
180.0000000000000
  0
ARC
  5
AF
100
AcDbEntity
  8
A1
  6
CONTINUOUS
 62
7
100
AcDbCircle
 10
25.88489247542124
 20
101.4210715581913
 30
0.000000000000000
 40
2.000000000000000
100
AcDbArc
 50
102.4999999999999
 51
180.0000000000000
  0
LINE
  5
B0
100
AcDbEntity
  8
A1
  6
CONTINUOUS
 62
7
100
AcDbLine
 10
35.66845286148234
 20
105.6385937060551
 30
0.000000000000000
 11
35.88489247542046
 21
104.6622976989352
 31
0.000000000000000
  0
LINE
  5
B1
100
AcDbEntity
  8
A1
  6
CONTINUOUS
 62
7
100
AcDbLine
 10
24.88489247540985
 20
90.70261997861869
 30
0.000000000000000
 11
26.29910603779372
 21
89.28840641623481
 31
0.000000000000000
  0
LINE
  5
B2
100
AcDbEntity
  8
A1
  6
CONTINUOUS
 62
7
100
AcDbLine
 10
24.17778569422330
 20
89.99551319743212
 30
0.000000000000000
 11
25.59199925660713
 21
88.58129963504830
 31
0.000000000000000
  0
ARC
  5
B3
100
AcDbEntity
  8
A1
  6
CONTINUOUS
 62
7
100
AcDbCircle
 10
24.88489247542124
 20
90.70261997860736
 30
0.000000000000000
 40
1.000000000000000
100
AcDbArc
 50
180.0000000000000
 51
225.0000000000006
  0
LINE
  5
B4
100
AcDbEntity
  8
A1
  6
CONTINUOUS
 62
7
100
AcDbLine
 10
27.59702450977722
 20
81.79048794426282
 30
0.000000000000000
 11
25.47067891303710
 21
83.91683354100219
 31
0.000000000000000
  0
LINE
  5
B5
100
AcDbEntity
  8
A1
  6
CONTINUOUS
 62
7
100
AcDbLine
 10
28.30413129096363
 20
82.49759472544935
 30
0.000000000000000
 11
26.17778569422342
 21
84.62394032218882
 31
0.000000000000000
  0
ARC
  5
B6
100
AcDbEntity
  8
A1
  6
CONTINUOUS
 62
7
100
AcDbCircle
 10
27.38489247542135
 20
81.57835590990670
 30
0.000000000000000
 40
0.3000000000000000
100
AcDbArc
 50
0.000000000000000
 51
45.00000000001150
  0
ARC
  5
B7
100
AcDbEntity
  8
A1
  6
CONTINUOUS
 62
7
100
AcDbCircle
 10
27.38489247542135
 20
81.57835590990670
 30
0.000000000000000
 40
1.300000000000000
100
AcDbArc
 50
0.000000000000000
 51
45.00000000000972
  0
ARC
  5
B8
100
AcDbEntity
  8
A1
  6
CONTINUOUS
 62
7
100
AcDbCircle
 10
26.88489247540993
 20
85.33104710337547
 30
0.000000000000000
 40
2.000000000000000
100
AcDbArc
 50
150.1720238074335
 51
225.0000000000098
  0
ARC
  5
B9
100
AcDbEntity
  8
A1
  6
CONTINUOUS
 62
7
100
AcDbCircle
 10
26.88489247540993
 20
85.33104710337547
 30
0.000000000000000
 40
1.000000000000000
100
AcDbArc
 50
150.1720238074333
 51
225.0000000000098
  0
ARC
  5
BA
100
AcDbEntity
  8
A1
  6
CONTINUOUS
 62
7
100
AcDbCircle
 10
24.88489247542067
 20
87.87419285386171
 30
0.000000000000000
 40
2.000000000000000
100
AcDbArc
 50
330.1720238074332
 51
404.9999999999999
  0
ARC
  5
BB
100
AcDbEntity
  8
A1
  6
CONTINUOUS
 62
7
100
AcDbCircle
 10
24.88489247542067
 20
87.87419285386171
 30
0.000000000000000
 40
1.000000000000000
100
AcDbArc
 50
330.1720238074332
 51
404.9999999999994
  0
LINE
  5
BC
100
AcDbEntity
  8
A1
  6
CONTINUOUS
 62
7
100
AcDbLine
 10
25.14984709712438
 20
86.32584232616756
 30
0.000000000000000
 11
25.75241516456356
 21
87.37679524246590
 31
0.000000000000000
  0
LINE
  5
BD
100
AcDbEntity
  8
A1
  6
CONTINUOUS
 62
7
100
AcDbLine
 10
26.61993785370635
 20
86.87939763106995
 30
0.000000000000000
 11
26.01736978626717
 21
85.82844471477161
 31
0.000000000000000
  0
LINE
  5
BE
100
AcDbEntity
  8
A1
  6
CONTINUOUS
 62
7
100
AcDbLine
 10
28.68489247542136
 20
69.82688404733075
 30
0.000000000000000
 11
28.68489247542136
 21
81.57835590990670
 31
0.000000000000000
  0
LINE
  5
BF
100
AcDbEntity
  8
A1
  6
CONTINUOUS
 62
7
100
AcDbLine
 10
27.68489247542136
 20
69.82688404733075
 30
0.000000000000000
 11
27.68489247542136
 21
81.57835590990670
 31
0.000000000000000
  0
ARC
  5
C0
100
AcDbEntity
  8
A1
  6
CONTINUOUS
 62
7
100
AcDbCircle
 10
30.28489247542127
 20
47.26761997861753
 30
0.000000000000000
 40
3.964999999999999
100
AcDbArc
 50
357.6659397403221
 51
517.3340602596779
  0
ARC
  5
C1
100
AcDbEntity
  8
A1
  6
CONTINUOUS
 62
7
100
AcDbCircle
 10
30.28489247542127
 20
47.26761997861753
 30
0.000000000000000
 40
3.964999999999999
100
AcDbArc
 50
171.8418556335158
 51
343.1581443664844
  0
ARC
  5
C2
100
AcDbEntity
  8
A1
  6
CONTINUOUS
 62
7
100
AcDbCircle
 10
35.68489247542125
 20
54.92761997861875
 30
0.000000000000000
 40
3.174999999999999
100
AcDbArc
 50
180.0000000000000
 51
360.0000000000000
  0
ARC
  5
C3
100
AcDbEntity
  8
A1
  6
CONTINUOUS
 62
7
100
AcDbCircle
 10
35.68489247542125
 20
54.92761997861875
 30
0.000000000000000
 40
3.174999999999999
100
AcDbArc
 50
18.35843707533010
 51
161.6415629246699
  0
ARC
  5
C4
100
AcDbEntity
  8
A1
  6
CONTINUOUS
 62
7
100
AcDbCircle
 10
35.68489247542125
 20
96.47761997861870
 30
0.000000000000000
 40
3.174999999999999
100
AcDbArc
 50
198.3584370753279
 51
341.6415629246720
  0
ARC
  5
C5
100
AcDbEntity
  8
A1
  6
CONTINUOUS
 62
7
100
AcDbCircle
 10
35.68489247542125
 20
96.47761997861870
 30
0.000000000000000
 40
3.174999999999999
100
AcDbArc
 50
0.000000000000000
 51
180.0000000000000
  0
ARC
  5
C6
100
AcDbEntity
  8
A1
  6
CONTINUOUS
 62
7
100
AcDbCircle
 10
30.28489247542127
 20
104.1376199786202
 30
0.000000000000000
 40
3.964999999999999
100
AcDbArc
 50
16.84185563351389
 51
188.1581443664863
  0
ARC
  5
C7
100
AcDbEntity
  8
A1
  6
CONTINUOUS
 62
7
100
AcDbCircle
 10
30.28489247542127
 20
104.1376199786202
 30
0.000000000000000
 40
3.964999999999999
100
AcDbArc
 50
202.6659397403229
 51
362.3340602596767
  0
LINE
  5
C8
100
AcDbEntity
  8
A1
  6
CONTINUOUS
 62
7
100
AcDbLine
 10
32.68489247542125
 20
66.20261997861627
 30
0.000000000000000
 11
32.68489247542125
 21
85.20261997861887
 31
0.000000000000000
  0
LINE
  5
C9
100
AcDbEntity
  8
A1
  6
CONTINUOUS
 62
7
100
AcDbLine
 10
34.68489247542099
 20
87.20261997861886
 30
0.000000000000000
 11
40.68489247542311
 21
87.20261997861962
 31
0.000000000000000
  0
LINE
  5
CA
100
AcDbEntity
  8
A1
  6
CONTINUOUS
 62
7
100
AcDbLine
 10
34.68489247541994
 20
64.20261997861627
 30
0.000000000000000
 11
40.68489247542311
 21
64.20261997861235
 31
0.000000000000000
  0
ARC
  5
CB
100
AcDbEntity
  8
A1
  6
CONTINUOUS
 62
7
100
AcDbCircle
 10
34.68489247542125
 20
66.20261997861627
 30
0.000000000000000
 40
2.000000000000000
100
AcDbArc
 50
180.0000000000000
 51
270.0000000000000
  0
ARC
  5
CC
100
AcDbEntity
  8
A1
  6
CONTINUOUS
 62
7
100
AcDbCircle
 10
34.68489247542125
 20
85.20261997861887
 30
0.000000000000000
 40
2.000000000000000
100
AcDbArc
 50
90.00000000000000
 51
180.0000000000000
  0
LINE
  5
CD
100
AcDbEntity
  8
A1
  6
CONTINUOUS
 62
7
100
AcDbLine
 10
38.18489247542119
 20
60.18029786708679
 30
0.000000000000000
 11
38.18489247542119
 21
64.20261997861398
 31
0.000000000000000
  0
LINE
  5
CE
100
AcDbEntity
  8
A1
  6
CONTINUOUS
 62
7
100
AcDbLine
 10
38.18489247542119
 20
87.20261997861931
 30
0.000000000000000
 11
38.18489247542119
 21
91.22494209015089
 31
0.000000000000000
  0
LINE
  5
CF
100
AcDbEntity
  8
A1
  6
CONTINUOUS
 62
7
100
AcDbLine
 10
41.38489247542124
 20
55.70261997861468
 30
0.000000000000000
 11
41.38489247542124
 21
95.70261997861468
 31
0.000000000000000
  0
ARC
  5
D0
100
AcDbEntity
  8
A1
  6
CONTINUOUS
 62
7
100
AcDbCircle
 10
36.38489247542124
 20
95.70261997861468
 30
0.000000000000000
 40
5.000000000000000
100
AcDbArc
 50
0.000000000000000
 51
51.46273200887477
  0
ARC
  5
D1
100
AcDbEntity
  8
A1
  6
CONTINUOUS
 62
7
100
AcDbCircle
 10
36.38489247542124
 20
55.70261997861468
 30
0.000000000000000
 40
5.000000000000000
100
AcDbArc
 50
308.5372679911978
 51
360.0000000000000
  0
LINE
  5
D2
100
AcDbEntity
  8
A1
  6
CONTINUOUS
 62
7
100
AcDbLine
 10
23.88489247542124
 20
50.70261997860544
 30
0.000000000000000
 11
23.38489247546443
 21
50.70261997860507
 31
0.000000000000000
  0
LINE
  5
D3
100
AcDbEntity
  8
A1
  6
CONTINUOUS
 62
7
100
AcDbLine
 10
25.89874742422832
 20
50.70261997860693
 30
0.000000000000000
 11
24.88489247542124
 21
50.70261997860618
 31
0.000000000000000
  0
LINE
  5
D4
100
AcDbEntity
  8
A1
  6
CONTINUOUS
 62
7
100
AcDbLine
 10
23.88489247542124
 20
100.7026199786054
 30
0.000000000000000
 11
23.38489247542748
 21
100.7026199786051
 31
0.000000000000000
  0
LINE
  5
D5
100
AcDbEntity
  8
A1
  6
CONTINUOUS
 62
7
100
AcDbLine
 10
25.89874742420331
 20
100.7026199786069
 30
0.000000000000000
 11
24.88489247542124
 21
100.7026199786062
 31
0.000000000000000
  0
LINE
  5
D6
100
AcDbEntity
  8
A1
  6
CONTINUOUS
 62
7
100
AcDbLine
 10
1076.784892475416
 20
110.6026199786184
 30
0.000000000000000
 11
568.7848924754160
 21
110.6026199786202
 31
0.000000000000000
  0
LINE
  5
D7
100
AcDbEntity
  8
A1
  6
CONTINUOUS
 62
7
100
AcDbLine
 10
1076.673951102067
 20
106.2026199786191
 30
0.000000000000000
 11
568.7848924754162
 21
106.2026199786191
 31
0.000000000000000
  0
LINE
  5
D8
100
AcDbEntity
  8
A1
  6
CONTINUOUS
 62
7
100
AcDbLine
 10
568.7848924754161
 20
110.6026199786205
 30
0.000000000000000
 11
568.7848924754162
 21
102.1526199786188
 31
0.000000000000000
  0
LINE
  5
D9
100
AcDbEntity
  8
A1
  6
CONTINUOUS
 62
7
100
AcDbLine
 10
1074.284892475427
 20
50.70261997861837
 30
0.000000000000000
 11
1076.784892475416
 21
50.70261997861837
 31
0.000000000000000
  0
LINE
  5
DA
100
AcDbEntity
  8
A1
  6
CONTINUOUS
 62
7
100
AcDbLine
 10
1074.284892475427
 20
100.7026199786184
 30
0.000000000000000
 11
1076.784892475416
 21
100.7026199786184
 31
0.000000000000000
  0
LINE
  5
DB
100
AcDbEntity
  8
A1
  6
CONTINUOUS
 62
7
100
AcDbLine
 10
1074.870678913056
 20
104.1168335409915
 30
0.000000000000000
 11
1076.199106037796
 21
105.4452606657329
 31
0.000000000000000
  0
ARC
  5
DC
100
AcDbEntity
  8
A1
  6
CONTINUOUS
 62
7
100
AcDbCircle
 10
1074.784892475416
 20
106.8594742281063
 30
0.000000000000000
 40
2.000000000000000
100
AcDbArc
 50
315.0000000000000
 51
360.0000000000000
  0
LINE
  5
DD
100
AcDbEntity
  8
A1
  6
CONTINUOUS
 62
7
100
AcDbLine
 10
1076.784892475416
 20
110.6026199786183
 30
0.000000000000000
 11
1076.784892475416
 21
106.8594742281063
 31
0.000000000000000
  0
LINE
  5
DE
100
AcDbEntity
  8
A1
  6
CONTINUOUS
 62
7
100
AcDbLine
 10
1076.784892475416
 20
100.7026199786184
 30
0.000000000000000
 11
1076.784892475416
 21
50.70261997861837
 31
0.000000000000000
  0
LINE
  5
DF
100
AcDbEntity
  8
A1
  6
CONTINUOUS
 62
7
100
AcDbLine
 10
1076.784892475416
 20
44.54576572913140
 30
0.000000000000000
 11
1076.784892475416
 21
40.80261997861760
 31
0.000000000000000
  0
LINE
  5
E0
100
AcDbEntity
  8
A1
  6
CONTINUOUS
 62
7
100
AcDbLine
 10
1074.284892475427
 20
100.7026199786184
 30
0.000000000000000
 11
1074.284892475427
 21
50.70261997861837
 31
0.000000000000000
  0
ARC
  5
E1
100
AcDbEntity
  8
A1
  6
CONTINUOUS
 62
7
100
AcDbCircle
 10
1076.284892475427
 20
102.7026199786184
 30
0.000000000000000
 40
2.000000000000000
100
AcDbArc
 50
135.0000000000000
 51
270.0000000000000
  0
LINE
  5
E2
100
AcDbEntity
  8
A1
  6
CONTINUOUS
 62
7
100
AcDbLine
 10
1074.870678913056
 20
47.28840641624481
 30
0.000000000000000
 11
1076.199106037795
 21
45.95997929150258
 31
0.000000000000000
  0
ARC
  5
E3
100
AcDbEntity
  8
A1
  6
CONTINUOUS
 62
7
100
AcDbCircle
 10
1074.784892475416
 20
44.54576572913140
 30
0.000000000000000
 40
2.000000000000000
100
AcDbArc
 50
0.000000000000000
 51
45.00000000000000
  0
ARC
  5
E4
100
AcDbEntity
  8
A1
  6
CONTINUOUS
 62
7
100
AcDbCircle
 10
1076.284892475427
 20
48.70261997861928
 30
0.000000000000000
 40
2.000000000000000
100
AcDbArc
 50
90.00000000000000
 51
225.0000000000000
  0
LINE
  5
E5
100
AcDbEntity
  8
A1
  6
CONTINUOUS
 62
7
100
AcDbLine
 10
799.7348924754165
 20
66.20261997861815
 30
0.000000000000000
 11
803.7848924754157
 21
66.20261997861815
 31
0.000000000000000
  0
LINE
  5
E6
100
AcDbEntity
  8
A1
  6
CONTINUOUS
 62
7
100
AcDbLine
 10
799.7348924754161
 20
69.20261997861822
 30
0.000000000000000
 11
801.0348924754172
 21
69.20261997861790
 31
0.000000000000000
  0
LINE
  5
E7
100
AcDbEntity
  8
A1
  6
CONTINUOUS
 62
7
100
AcDbLine
 10
799.7348924754157
 20
82.20261997861822
 30
0.000000000000000
 11
801.0348924754168
 21
82.20261997861790
 31
0.000000000000000
  0
LINE
  5
E8
100
AcDbEntity
  8
A1
  6
CONTINUOUS
 62
7
100
AcDbLine
 10
813.4848924754165
 20
63.20261997861815
 30
0.000000000000000
 11
813.4848924754165
 21
49.25261997861764
 31
0.000000000000000
  0
ARC
  5
E9
100
AcDbEntity
  8
A1
  6
CONTINUOUS
 62
7
100
AcDbCircle
 10
810.4848924754165
 20
63.20261997861815
 30
0.000000000000000
 40
3.000000000000000
100
AcDbArc
 50
0.000000000000000
 51
5.431764963327165
  0
ARC
  5
EA
100
AcDbEntity
  8
A1
  6
CONTINUOUS
 62
7
100
AcDbCircle
 10
799.7348924754165
 20
67.70261997861815
 30
0.000000000000000
 40
1.500000000000000
100
AcDbArc
 50
90.00000000000000
 51
149.7100675729735
  0
LINE
  5
EB
100
AcDbEntity
  8
A1
  6
CONTINUOUS
 62
7
100
AcDbLine
 10
799.7348924754165
 20
85.20261997861815
 30
0.000000000000000
 11
803.7848924754157
 21
85.20261997861815
 31
0.000000000000000
  0
ARC
  5
EC
100
AcDbEntity
  8
A1
  6
CONTINUOUS
 62
7
100
AcDbCircle
 10
810.4848924754165
 20
88.20261997861815
 30
0.000000000000000
 40
3.000000000000000
100
AcDbArc
 50
354.5682350366728
 51
360.0000000000000
  0
ARC
  5
ED
100
AcDbEntity
  8
A1
  6
CONTINUOUS
 62
7
100
AcDbCircle
 10
799.7348924754165
 20
83.70261997861815
 30
0.000000000000000
 40
1.500000000000000
100
AcDbArc
 50
90.00000000000000
 51
111.0394697813095
  0
LINE
  5
EE
100
AcDbEntity
  8
A1
  6
CONTINUOUS
 62
7
100
AcDbLine
 10
813.4848924754165
 20
88.20261997861815
 30
0.000000000000000
 11
813.4848924754165
 21
102.1526199786184
 31
0.000000000000000
  0
LINE
  5
EF
100
AcDbEntity
  8
A1
  6
CONTINUOUS
 62
7
100
AcDbLine
 10
768.4848924754165
 20
55.70261997861815
 30
0.000000000000000
 11
778.4848924754165
 21
55.70261997861815
 31
0.000000000000000
  0
LINE
  5
F0
100
AcDbEntity
  8
A1
  6
CONTINUOUS
 62
7
100
AcDbLine
 10
768.4848924754165
 20
95.70261997861905
 30
0.000000000000000
 11
778.4848924754165
 21
95.70261997861905
 31
0.000000000000000
  0
LINE
  5
F1
100
AcDbEntity
  8
A1
  6
CONTINUOUS
 62
7
100
AcDbLine
 10
778.4848924754165
 20
95.70261997861905
 30
0.000000000000000
 11
778.4848924754165
 21
55.70261997861815
 31
0.000000000000000
  0
LINE
  5
F2
100
AcDbEntity
  8
A1
  6
CONTINUOUS
 62
7
100
AcDbLine
 10
768.4848924754165
 20
95.70261997861905
 30
0.000000000000000
 11
768.4848924754165
 21
55.70261997861815
 31
0.000000000000000
  0
LINE
  5
F3
100
AcDbEntity
  8
A1
  6
CONTINUOUS
 62
7
100
AcDbLine
 10
316.8848924754144
 20
102.1526199786192
 30
0.000000000000000
 11
316.8848924754161
 21
94.50261997861885
 31
0.000000000000000
  0
LINE
  5
F4
100
AcDbEntity
  8
A1
  6
CONTINUOUS
 62
7
100
AcDbLine
 10
768.4848924754165
 20
68.01202105537539
 30
0.000000000000000
 11
778.4848924754165
 21
68.01202105537539
 31
0.000000000000000
  0
LINE
  5
F5
100
AcDbEntity
  8
A1
  6
CONTINUOUS
 62
7
100
AcDbLine
 10
768.4848924754165
 20
83.39321890185818
 30
0.000000000000000
 11
778.4848924754165
 21
83.39321890185818
 31
0.000000000000000
  0
LINE
  5
F6
100
AcDbEntity
  8
A1
  6
CONTINUOUS
 62
7
100
AcDbLine
 10
803.9848924754160
 20
86.58233186578684
 30
0.000000000000000
 11
795.4848924754160
 21
86.58233186578653
 31
0.000000000000000
  0
LINE
  5
F7
100
AcDbEntity
  8
A1
  6
CONTINUOUS
 62
7
100
AcDbLine
 10
803.9848924754165
 20
64.82290809144854
 30
0.000000000000000
 11
795.4848924754165
 21
64.82290809144854
 31
0.000000000000000
  0
LINE
  5
F8
100
AcDbEntity
  8
A1
  6
CONTINUOUS
 62
7
100
AcDbLine
 10
565.8848924754203
 20
89.41030477729342
 30
0.000000000000000
 11
768.4848924754161
 21
89.41030477729393
 31
0.000000000000000
  0
LINE
  5
F9
100
AcDbEntity
  8
A1
  6
CONTINUOUS
 62
7
100
AcDbLine
 10
565.8848924754204
 20
61.99493517994244
 30
0.000000000000000
 11
768.4848924754158
 21
61.99493517994171
 31
0.000000000000000
  0
ARC
  5
FA
100
AcDbEntity
  8
A1
  6
CONTINUOUS
 62
7
100
AcDbCircle
 10
600.5848924754168
 20
75.70261997861815
 30
0.000000000000000
 40
8.000000000000000
100
AcDbArc
 50
270.0000000000000
 51
450.0000000000000
  0
ARC
  5
FB
100
AcDbEntity
  8
A1
  6
CONTINUOUS
 62
7
100
AcDbCircle
 10
581.5848924754168
 20
75.70261997861815
 30
0.000000000000000
 40
8.000000000000000
100
AcDbArc
 50
90.00000000000000
 51
270.0000000000000
  0
LINE
  5
FC
100
AcDbEntity
  8
A1
  6
CONTINUOUS
 62
7
100
AcDbLine
 10
581.5848924754168
 20
83.70261997861815
 30
0.000000000000000
 11
600.5848924754168
 21
83.70261997861815
 31
0.000000000000000
  0
LINE
  5
FD
100
AcDbEntity
  8
A1
  6
CONTINUOUS
 62
7
100
AcDbLine
 10
581.5848924754168
 20
67.70261997861815
 30
0.000000000000000
 11
600.5848924754168
 21
67.70261997861815
 31
0.000000000000000
  0
LINE
  5
FE
100
AcDbEntity
  8
A1
  6
CONTINUOUS
 62
7
100
AcDbLine
 10
813.4848924754159
 20
102.1526199786187
 30
0.000000000000000
 11
316.8848924754144
 21
102.1526199786189
 31
0.000000000000000
  0
LINE
  5
FF
100
AcDbEntity
  8
A1
  6
CONTINUOUS
 62
7
100
AcDbLine
 10
813.4848924754165
 20
98.48846527473881
 30
0.000000000000000
 11
316.8848924754143
 21
98.48846527473881
 31
0.000000000000000
  0
LINE
  5
100
100
AcDbEntity
  8
A1
  6
CONTINUOUS
 62
7
100
AcDbLine
 10
790.2641767233767
 20
89.41030477729453
 30
0.000000000000000
 11
813.4848924754165
 21
89.41030477729453
 31
0.000000000000000
  0
LINE
  5
101
100
AcDbEntity
  8
A1
  6
CONTINUOUS
 62
7
100
AcDbLine
 10
768.4848924754165
 20
86.58233186578730
 30
0.000000000000000
 11
565.8848924754204
 21
86.58233186578730
 31
0.000000000000000
  0
LINE
  5
102
100
AcDbEntity
  8
A1
  6
CONTINUOUS
 62
7
100
AcDbLine
 10
790.2641767233746
 20
61.99493517994065
 30
0.000000000000000
 11
813.4848924754152
 21
61.99493517994033
 31
0.000000000000000
  0
LINE
  5
103
100
AcDbEntity
  8
A1
  6
CONTINUOUS
 62
7
100
AcDbLine
 10
768.4848924754165
 20
64.82290809144877
 30
0.000000000000000
 11
565.8848924754204
 21
64.82290809144877
 31
0.000000000000000
  0
LINE
  5
104
100
AcDbEntity
  8
A1
  6
CONTINUOUS
 62
7
100
AcDbLine
 10
800.9848924754164
 20
82.20261997862019
 30
0.000000000000000
 11
798.4848924754164
 21
82.20261997861709
 31
0.000000000000000
  0
LINE
  5
105
100
AcDbEntity
  8
A1
  6
CONTINUOUS
 62
7
100
AcDbLine
 10
800.9848924754165
 20
69.20261997861860
 30
0.000000000000000
 11
798.4848924754165
 21
69.20261997861860
 31
0.000000000000000
  0
LINE
  5
106
100
AcDbEntity
  8
A1
  6
CONTINUOUS
 62
7
100
AcDbLine
 10
798.4848924754165
 20
82.20261997861860
 30
0.000000000000000
 11
798.4848924754165
 21
69.20261997861860
 31
0.000000000000000
  0
LINE
  5
107
100
AcDbEntity
  8
A1
  6
CONTINUOUS
 62
7
100
AcDbLine
 10
800.9848924754165
 20
82.20261997862042
 30
0.000000000000000
 11
800.9848924754165
 21
69.20261997861860
 31
0.000000000000000
  0
ARC
  5
108
100
AcDbEntity
  8
A1
  6
CONTINUOUS
 62
7
100
AcDbCircle
 10
788.2352771135770
 20
87.20042551060203
 30
0.000000000000000
 40
3.000000000000000
100
AcDbArc
 50
40.95575754733699
 51
120.0000000000000
  0
LINE
  5
109
100
AcDbEntity
  8
A1
  6
CONTINUOUS
 62
7
100
AcDbLine
 10
783.5900737071009
 20
87.98261768857026
 30
0.000000000000000
 11
786.7352771135776
 21
89.79850172195552
 31
0.000000000000000
  0
LINE
  5
10A
100
AcDbEntity
  8
A1
  6
CONTINUOUS
 62
7
100
AcDbLine
 10
791.2799986023253
 20
88.23838989086556
 30
0.000000000000000
 11
790.5009249591271
 21
89.16685370404275
 31
0.000000000000000
  0
LINE
  5
10B
100
AcDbEntity
  8
A1
  6
CONTINUOUS
 62
7
100
AcDbLine
 10
782.9848924754172
 20
87.32660666575325
 30
0.000000000000000
 11
782.9848924754166
 21
64.07863329148390
 31
0.000000000000000
  0
LINE
  5
10C
100
AcDbEntity
  8
A1
  6
CONTINUOUS
 62
7
100
AcDbLine
 10
800.8348924754168
 20
83.10261997861551
 30
0.000000000000000
 11
798.6348924754161
 21
83.10261997861551
 31
0.000000000000000
  0
LINE
  5
10D
100
AcDbEntity
  8
A1
  6
CONTINUOUS
 62
7
100
AcDbLine
 10
801.0348924754167
 20
82.90261997861569
 30
0.000000000000000
 11
801.0348924754167
 21
78.15210972140142
 31
0.000000000000000
  0
LINE
  5
10E
100
AcDbEntity
  8
A1
  6
CONTINUOUS
 62
7
100
AcDbLine
 10
798.4348924754172
 20
82.90261997861569
 30
0.000000000000000
 11
798.4348924754172
 21
78.15210972140142
 31
0.000000000000000
  0
ARC
  5
10F
100
AcDbEntity
  8
A1
  6
CONTINUOUS
 62
7
100
AcDbCircle
 10
800.8348924754168
 20
82.90261997861569
 30
0.000000000000000
 40
0.2000000000000000
100
AcDbArc
 50
0.000000000000000
 51
90.00000000000000
  0
ARC
  5
110
100
AcDbEntity
  8
A1
  6
CONTINUOUS
 62
7
100
AcDbCircle
 10
798.6348924754161
 20
82.90261997861569
 30
0.000000000000000
 40
0.2000000000000000
100
AcDbArc
 50
90.00000000000000
 51
180.0000000000000
  0
LINE
  5
111
100
AcDbEntity
  8
A1
  6
CONTINUOUS
 62
7
100
AcDbLine
 10
795.4848924754165
 20
85.60261997861824
 30
0.000000000000000
 11
795.4848924754165
 21
87.40261997861478
 31
0.000000000000000
  0
LINE
  5
112
100
AcDbEntity
  8
A1
  6
CONTINUOUS
 62
7
100
AcDbLine
 10
816.4848924754173
 20
66.95261997862171
 30
0.000000000000000
 11
816.4848924754168
 21
84.45261997861444
 31
0.000000000000000
  0
LINE
  5
113
100
AcDbEntity
  8
A1
  6
CONTINUOUS
 62
7
100
AcDbLine
 10
813.4848924754165
 20
84.45261997861451
 30
0.000000000000000
 11
813.4848924754165
 21
66.95261997862178
 31
0.000000000000000
  0
ARC
  5
114
100
AcDbEntity
  8
A1
  6
CONTINUOUS
 62
7
100
AcDbCircle
 10
799.7348924754165
 20
75.70261997861633
 30
0.000000000000000
 40
5.500000000000000
100
AcDbArc
 50
323.1301023541835
 51
396.8698976458443
  0
LINE
  5
115
100
AcDbEntity
  8
A1
  6
CONTINUOUS
 62
7
100
AcDbLine
 10
803.4848924754165
 20
85.10261997861824
 30
0.000000000000000
 11
795.9848924754165
 21
85.10261997861824
 31
0.000000000000000
  0
LINE
  5
116
100
AcDbEntity
  8
A1
  6
CONTINUOUS
 62
7
100
AcDbLine
 10
795.2348924754165
 20
78.40261997861478
 30
0.000000000000000
 11
795.2348924754165
 21
73.00261997862196
 31
0.000000000000000
  0
LINE
  5
117
100
AcDbEntity
  8
A1
  6
CONTINUOUS
 62
7
100
AcDbLine
 10
803.9848924754165
 20
87.40261997861478
 30
0.000000000000000
 11
803.9848924754165
 21
85.60261997861824
 31
0.000000000000000
  0
ARC
  5
118
100
AcDbEntity
  8
A1
  6
CONTINUOUS
 62
7
100
AcDbCircle
 10
799.7348924754165
 20
75.70261997861815
 30
0.000000000000000
 40
2.500000000000000
100
AcDbArc
 50
127.7997224354281
 51
232.2002775645719
  0
ARC
  5
119
100
AcDbEntity
  8
A1
  6
CONTINUOUS
 62
7
100
AcDbCircle
 10
799.7348924754165
 20
75.70261997861815
 30
0.000000000000000
 40
2.500000000000000
100
AcDbArc
 50
307.7997224354277
 51
412.2002775645719
  0
ARC
  5
11A
100
AcDbEntity
  8
A1
  6
CONTINUOUS
 62
7
100
AcDbCircle
 10
795.9848924754165
 20
85.60261997861824
 30
0.000000000000000
 40
0.5000000000000000
100
AcDbArc
 50
180.0000000000000
 51
270.0000000000000
  0
ARC
  5
11B
100
AcDbEntity
  8
A1
  6
CONTINUOUS
 62
7
100
AcDbCircle
 10
803.4848924754165
 20
85.60261997861824
 30
0.000000000000000
 40
0.5000000000000000
100
AcDbArc
 50
270.0000000000000
 51
360.0000000000000
  0
ARC
  5
11C
100
AcDbEntity
  8
A1
  6
CONTINUOUS
 62
7
100
AcDbCircle
 10
797.8348924754168
 20
78.15210972140142
 30
0.000000000000000
 40
0.6000000000000000
100
AcDbArc
 50
307.7997224354273
 51
360.0000000000000
  0
ARC
  5
11D
100
AcDbEntity
  8
A1
  6
CONTINUOUS
 62
7
100
AcDbCircle
 10
801.6348924754161
 20
78.15210972140142
 30
0.000000000000000
 40
0.6000000000000000
100
AcDbArc
 50
180.0000000000000
 51
232.2002775645709
  0
ARC
  5
11E
100
AcDbEntity
  8
A1
  6
CONTINUOUS
 62
7
100
AcDbCircle
 10
803.4848924754165
 20
85.60261997861824
 30
0.000000000000000
 40
3.500000000000000
100
AcDbArc
 50
285.2184551577777
 51
343.2916562842898
  0
LINE
  5
11F
100
AcDbEntity
  8
A1
  6
CONTINUOUS
 62
7
100
AcDbLine
 10
804.0348924754167
 20
81.74289200892952
 30
0.000000000000000
 11
804.0348924754167
 21
79.30261997861646
 31
0.000000000000000
  0
ARC
  5
120
100
AcDbEntity
  8
A1
  6
CONTINUOUS
 62
7
100
AcDbCircle
 10
804.5348924754167
 20
81.74289200892952
 30
0.000000000000000
 40
0.5000000000000000
100
AcDbArc
 50
105.2184551577803
 51
180.0000000000000
  0
LINE
  5
121
100
AcDbEntity
  8
A1
  6
CONTINUOUS
 62
7
100
AcDbLine
 10
812.9848924754165
 20
84.95261997861451
 30
0.000000000000000
 11
807.3160150263134
 21
84.95261997861451
 31
0.000000000000000
  0
ARC
  5
122
100
AcDbEntity
  8
A1
  6
CONTINUOUS
 62
7
100
AcDbCircle
 10
812.9848924754165
 20
84.45261997861451
 30
0.000000000000000
 40
0.5000000000000000
100
AcDbArc
 50
0.000000000000000
 51
90.00000000000000
  0
ARC
  5
123
100
AcDbEntity
  8
A1
  6
CONTINUOUS
 62
7
100
AcDbCircle
 10
812.9848924754165
 20
84.45261997861451
 30
0.000000000000000
 40
3.500000000000000
100
AcDbArc
 50
4.653000000000000e-13
 51
90.00000000000000
  0
ARC
  5
124
100
AcDbEntity
  8
A1
  6
CONTINUOUS
 62
7
100
AcDbCircle
 10
807.3160150263134
 20
84.45261997861451
 30
0.000000000000000
 40
0.5000000000000000
100
AcDbArc
 50
90.00000000000652
 51
163.2916562842906
  0
LINE
  5
125
100
AcDbEntity
  8
A1
  6
CONTINUOUS
 62
7
100
AcDbLine
 10
791.8928341568203
 20
87.95261997861451
 30
0.000000000000000
 11
794.9348924754154
 21
87.95261997861451
 31
0.000000000000000
  0
LINE
  5
126
100
AcDbEntity
  8
A1
  6
CONTINUOUS
 62
7
100
AcDbLine
 10
804.5348924754157
 20
87.95261997861451
 30
0.000000000000000
 11
812.9848924754165
 21
87.95261997861451
 31
0.000000000000000
  0
ARC
  5
127
100
AcDbEntity
  8
A1
  6
CONTINUOUS
 62
7
100
AcDbCircle
 10
804.5348924754167
 20
79.30261997861646
 30
0.000000000000000
 40
0.5000000000000000
100
AcDbArc
 50
180.0000000000000
 51
216.8698976458401
  0
LINE
  5
128
100
AcDbEntity
  8
A1
  6
CONTINUOUS
 62
7
100
AcDbLine
 10
800.8348924754168
 20
68.30261997862124
 30
0.000000000000000
 11
798.6348924754161
 21
68.30261997862124
 31
0.000000000000000
  0
LINE
  5
129
100
AcDbEntity
  8
A1
  6
CONTINUOUS
 62
7
100
AcDbLine
 10
801.0348924754167
 20
68.50261997862106
 30
0.000000000000000
 11
801.0348924754167
 21
73.25313023583510
 31
0.000000000000000
  0
LINE
  5
12A
100
AcDbEntity
  8
A1
  6
CONTINUOUS
 62
7
100
AcDbLine
 10
798.4348924754172
 20
68.50261997862106
 30
0.000000000000000
 11
798.4348924754172
 21
73.25313023583510
 31
0.000000000000000
  0
ARC
  5
12B
100
AcDbEntity
  8
A1
  6
CONTINUOUS
 62
7
100
AcDbCircle
 10
800.8348924754168
 20
68.50261997862106
 30
0.000000000000000
 40
0.2000000000000000
100
AcDbArc
 50
270.0000000000000
 51
360.0000000000000
  0
ARC
  5
12C
100
AcDbEntity
  8
A1
  6
CONTINUOUS
 62
7
100
AcDbCircle
 10
798.6348924754161
 20
68.50261997862106
 30
0.000000000000000
 40
0.2000000000000000
100
AcDbArc
 50
180.0000000000000
 51
270.0000000000000
  0
LINE
  5
12D
100
AcDbEntity
  8
A1
  6
CONTINUOUS
 62
7
100
AcDbLine
 10
795.4848924754165
 20
65.80261997861828
 30
0.000000000000000
 11
795.4848924754165
 21
64.00261997862196
 31
0.000000000000000
  0
LINE
  5
12E
100
AcDbEntity
  8
A1
  6
CONTINUOUS
 62
7
100
AcDbLine
 10
803.4848924754165
 20
66.30261997861828
 30
0.000000000000000
 11
795.9848924754165
 21
66.30261997861828
 31
0.000000000000000
  0
LINE
  5
12F
100
AcDbEntity
  8
A1
  6
CONTINUOUS
 62
7
100
AcDbLine
 10
803.9848924754165
 20
64.00261997862196
 30
0.000000000000000
 11
803.9848924754165
 21
65.80261997861828
 31
0.000000000000000
  0
ARC
  5
130
100
AcDbEntity
  8
A1
  6
CONTINUOUS
 62
7
100
AcDbCircle
 10
795.9848924754165
 20
65.80261997861828
 30
0.000000000000000
 40
0.5000000000000000
100
AcDbArc
 50
90.00000000000000
 51
180.0000000000000
  0
ARC
  5
131
100
AcDbEntity
  8
A1
  6
CONTINUOUS
 62
7
100
AcDbCircle
 10
803.4848924754165
 20
65.80261997861828
 30
0.000000000000000
 40
0.5000000000000000
100
AcDbArc
 50
0.000000000000000
 51
90.00000000000000
  0
ARC
  5
132
100
AcDbEntity
  8
A1
  6
CONTINUOUS
 62
7
100
AcDbCircle
 10
797.8348924754168
 20
73.25313023583510
 30
0.000000000000000
 40
0.6000000000000000
100
AcDbArc
 50
0.000000000000000
 51
52.20027756457263
  0
ARC
  5
133
100
AcDbEntity
  8
A1
  6
CONTINUOUS
 62
7
100
AcDbCircle
 10
801.6348924754161
 20
73.25313023583510
 30
0.000000000000000
 40
0.6000000000000000
100
AcDbArc
 50
127.7997224354290
 51
180.0000000000000
  0
ARC
  5
134
100
AcDbEntity
  8
A1
  6
CONTINUOUS
 62
7
100
AcDbCircle
 10
803.4848924754165
 20
65.80261997861828
 30
0.000000000000000
 40
3.500000000000000
100
AcDbArc
 50
16.70834371571017
 51
74.78154484222227
  0
LINE
  5
135
100
AcDbEntity
  8
A1
  6
CONTINUOUS
 62
7
100
AcDbLine
 10
804.0348924754167
 20
69.66234794830723
 30
0.000000000000000
 11
804.0348924754167
 21
72.10261997862006
 31
0.000000000000000
  0
ARC
  5
136
100
AcDbEntity
  8
A1
  6
CONTINUOUS
 62
7
100
AcDbCircle
 10
804.5348924754167
 20
69.66234794830723
 30
0.000000000000000
 40
0.5000000000000000
100
AcDbArc
 50
180.0000000000000
 51
254.7815448422206
  0
LINE
  5
137
100
AcDbEntity
  8
A1
  6
CONTINUOUS
 62
7
100
AcDbLine
 10
812.9848924754165
 20
66.45261997862178
 30
0.000000000000000
 11
807.3160150263134
 21
66.45261997862178
 31
0.000000000000000
  0
ARC
  5
138
100
AcDbEntity
  8
A1
  6
CONTINUOUS
 62
7
100
AcDbCircle
 10
812.9848924754165
 20
66.95261997862178
 30
0.000000000000000
 40
0.5000000000000000
100
AcDbArc
 50
270.0000000000000
 51
360.0000000000000
  0
ARC
  5
139
100
AcDbEntity
  8
A1
  6
CONTINUOUS
 62
7
100
AcDbCircle
 10
812.9848924754165
 20
66.95261997862178
 30
0.000000000000000
 40
3.500000000000000
100
AcDbArc
 50
270.0000000000000
 51
359.9999999999996
  0
ARC
  5
13A
100
AcDbEntity
  8
A1
  6
CONTINUOUS
 62
7
100
AcDbCircle
 10
807.3160150263134
 20
66.95261997862178
 30
0.000000000000000
 40
0.5000000000000000
100
AcDbArc
 50
196.7083437157113
 51
269.9999999999935
  0
LINE
  5
13B
100
AcDbEntity
  8
A1
  6
CONTINUOUS
 62
7
100
AcDbLine
 10
804.5348924754157
 20
63.45261997862178
 30
0.000000000000000
 11
812.9848924754165
 21
63.45261997862178
 31
0.000000000000000
  0
ARC
  5
13C
100
AcDbEntity
  8
A1
  6
CONTINUOUS
 62
7
100
AcDbCircle
 10
804.5348924754167
 20
72.10261997862006
 30
0.000000000000000
 40
0.5000000000000000
100
AcDbArc
 50
143.1301023541599
 51
180.0000000000000
  0
LINE
  5
13D
100
AcDbEntity
  8
A1
  6
CONTINUOUS
 62
7
100
AcDbLine
 10
782.9848924754165
 20
84.40261997861478
 30
0.000000000000000
 11
789.2348924754165
 21
84.40261997861478
 31
0.000000000000000
  0
ARC
  5
13E
100
AcDbEntity
  8
A1
  6
CONTINUOUS
 62
7
100
AcDbCircle
 10
789.2348924754165
 20
78.40261997861478
 30
0.000000000000000
 40
6.000000000000000
100
AcDbArc
 50
0.000000000000000
 51
90.00000000000000
  0
LINE
  5
13F
100
AcDbEntity
  8
A1
  6
CONTINUOUS
 62
7
100
AcDbLine
 10
782.9848924754165
 20
67.00261997862196
 30
0.000000000000000
 11
789.2348924754165
 21
67.00261997862196
 31
0.000000000000000
  0
ARC
  5
140
100
AcDbEntity
  8
A1
  6
CONTINUOUS
 62
7
100
AcDbCircle
 10
789.2348924754165
 20
73.00261997862196
 30
0.000000000000000
 40
6.000000000000000
100
AcDbArc
 50
270.0000000000000
 51
360.0000000000000
  0
LINE
  5
141
100
AcDbEntity
  8
A1
  6
CONTINUOUS
 62
7
100
AcDbLine
 10
791.8928341568203
 20
63.45261997862178
 30
0.000000000000000
 11
794.9348924754154
 21
63.45261997862178
 31
0.000000000000000
  0
ARC
  5
142
100
AcDbEntity
  8
A1
  6
CONTINUOUS
 62
7
100
AcDbCircle
 10
794.9348924754154
 20
64.00261997862196
 30
0.000000000000000
 40
0.5500000000000000
100
AcDbArc
 50
270.0000000000000
 51
359.9999999999970
  0
ARC
  5
143
100
AcDbEntity
  8
A1
  6
CONTINUOUS
 62
7
100
AcDbCircle
 10
804.5348924754157
 20
64.00261997862196
 30
0.000000000000000
 40
0.5500000000000000
100
AcDbArc
 50
180.0000000000000
 51
270.0000000000000
  0
ARC
  5
144
100
AcDbEntity
  8
A1
  6
CONTINUOUS
 62
7
100
AcDbCircle
 10
794.9348924754154
 20
87.40261997861478
 30
0.000000000000000
 40
0.5500000000000000
100
AcDbArc
 50
2.960800000000000e-12
 51
90.00000000000000
  0
ARC
  5
145
100
AcDbEntity
  8
A1
  6
CONTINUOUS
 62
7
100
AcDbCircle
 10
804.5348924754157
 20
87.40261997861478
 30
0.000000000000000
 40
0.5500000000000000
100
AcDbArc
 50
90.00000000000000
 51
180.0000000000000
  0
ARC
  5
146
100
AcDbEntity
  8
A1
  6
CONTINUOUS
 62
7
100
AcDbCircle
 10
788.2352771135770
 20
64.20481444663449
 30
0.000000000000000
 40
3.000000000000000
100
AcDbArc
 50
240.0000000000000
 51
319.0442424526630
  0
LINE
  5
147
100
AcDbEntity
  8
A1
  6
CONTINUOUS
 62
7
100
AcDbLine
 10
783.5900737071017
 20
63.42262226866666
 30
0.000000000000000
 11
786.7352771135781
 21
61.60673823528117
 31
0.000000000000000
  0
LINE
  5
148
100
AcDbEntity
  8
A1
  6
CONTINUOUS
 62
7
100
AcDbLine
 10
791.2799986023253
 20
63.16685006637061
 30
0.000000000000000
 11
790.5009249591270
 21
62.23838625319303
 31
0.000000000000000
  0
ARC
  5
149
100
AcDbEntity
  8
A1
  6
CONTINUOUS
 62
7
100
AcDbCircle
 10
791.8928341568203
 20
88.75261997861469
 30
0.000000000000000
 40
0.8000000000000000
100
AcDbArc
 50
219.9999999999991
 51
270.0000000000000
  0
ARC
  5
14A
100
AcDbEntity
  8
A1
  6
CONTINUOUS
 62
7
100
AcDbCircle
 10
791.8928341568203
 20
62.65261997862206
 30
0.000000000000000
 40
0.8000000000000000
100
AcDbArc
 50
90.00000000000000
 51
140.0000000000009
  0
ARC
  5
14B
100
AcDbEntity
  8
A1
  6
CONTINUOUS
 62
7
100
AcDbCircle
 10
784.3400737071011
 20
64.72166037434306
 30
0.000000000000000
 40
1.500000000000000
100
AcDbArc
 50
205.3841182138332
 51
240.0000000000000
  0
ARC
  5
14C
100
AcDbEntity
  8
A1
  6
CONTINUOUS
 62
7
100
AcDbCircle
 10
784.3400737071011
 20
86.68357958289346
 30
0.000000000000000
 40
1.500000000000000
100
AcDbArc
 50
120.0000000000000
 51
154.6158817861668
  0
LINE
  5
14D
100
AcDbEntity
  8
A1
  6
CONTINUOUS
 62
7
100
AcDbLine
 10
798.4348924754172
 20
81.95261997861587
 30
0.000000000000000
 11
801.0348924754167
 21
81.95261997861587
 31
0.000000000000000
  0
LINE
  5
14E
100
AcDbEntity
  8
A1
  6
CONTINUOUS
 62
7
100
AcDbLine
 10
798.4348924754172
 20
69.45261997862087
 30
0.000000000000000
 11
801.0348924754167
 21
69.45261997862087
 31
0.000000000000000
  0
ARC
  5
14F
100
AcDbEntity
  8
A1
  6
CONTINUOUS
 62
7
100
AcDbCircle
 10
799.7348924754165
 20
83.70261997861815
 30
0.000000000000000
 40
1.500000000000000
100
AcDbArc
 50
210.2899324270168
 51
270.0000000000000
  0
ARC
  5
150
100
AcDbEntity
  8
A1
  6
CONTINUOUS
 62
7
100
AcDbCircle
 10
799.7348924754165
 20
67.70261997861815
 30
0.000000000000000
 40
1.500000000000000
100
AcDbArc
 50
248.9605302186671
 51
270.0000000000000
  0
LINE
  5
151
100
AcDbEntity
  8
A1
  6
CONTINUOUS
 62
7
100
AcDbLine
 10
568.7848924754164
 20
49.25261997861838
 30
0.000000000000000
 11
568.7848924754163
 21
40.80261997861628
 31
0.000000000000000
  0
LINE
  5
152
100
AcDbEntity
  8
A1
  6
CONTINUOUS
 62
7
100
AcDbLine
 10
565.8848924754203
 20
94.50261997861855
 30
0.000000000000000
 11
565.8848924754203
 21
56.90261997861842
 31
0.000000000000000
  0
CIRCLE
  5
153
100
AcDbEntity
  8
A1
  6
CONTINUOUS
 62
7
100
AcDbCircle
 10
97.58489247542104
 20
75.70261997861837
 30
0.000000000000000
 40
2.600000000000000
  0
CIRCLE
  5
154
100
AcDbEntity
  8
A1
  6
CONTINUOUS
 62
7
100
AcDbCircle
 10
116.6848924754214
 20
75.70261997861837
 30
0.000000000000000
 40
3.299999999999999
  0
CIRCLE
  5
155
100
AcDbEntity
  8
A1
  6
CONTINUOUS
 62
7
100
AcDbCircle
 10
161.0848924754229
 20
75.70261997861837
 30
0.000000000000000
 40
3.299999999999999
  0
CIRCLE
  5
156
100
AcDbEntity
  8
A1
  6
CONTINUOUS
 62
7
100
AcDbCircle
 10
148.3848924754185
 20
75.70261997861837
 30
0.000000000000000
 40
2.600000000000000
  0
CIRCLE
  5
157
100
AcDbEntity
  8
A1
  6
CONTINUOUS
 62
7
100
AcDbCircle
 10
135.6848924754214
 20
75.70261997861837
 30
0.000000000000000
 40
3.299999999999999
  0
LINE
  5
158
100
AcDbEntity
  8
A1
  6
CONTINUOUS
 62
7
100
AcDbLine
 10
399.1348924754240
 20
72.40261997861933
 30
0.000000000000000
 11
389.8348924754138
 21
72.40261997861933
 31
0.000000000000000
  0
ARC
  5
159
100
AcDbEntity
  8
A1
  6
CONTINUOUS
 62
7
100
AcDbCircle
 10
399.1348924754240
 20
75.70261997861860
 30
0.000000000000000
 40
3.299999999999999
100
AcDbArc
 50
270.0000000000000
 51
450.0000000000000
  0
ARC
  5
15A
100
AcDbEntity
  8
A1
  6
CONTINUOUS
 62
7
100
AcDbCircle
 10
389.8348924754138
 20
75.70261997861860
 30
0.000000000000000
 40
3.299999999999999
100
AcDbArc
 50
90.00000000000000
 51
270.0000000000000
  0
LINE
  5
15B
100
AcDbEntity
  8
A1
  6
CONTINUOUS
 62
7
100
AcDbLine
 10
399.1348924754240
 20
79.00261997861787
 30
0.000000000000000
 11
389.8348924754138
 21
79.00261997861787
 31
0.000000000000000
  0
CIRCLE
  5
15C
100
AcDbEntity
  8
A1
  6
CONTINUOUS
 62
7
100
AcDbCircle
 10
376.9848924754152
 20
75.70261997861860
 30
0.000000000000000
 40
3.550000000000000
  0
CIRCLE
  5
15D
100
AcDbEntity
  8
A1
  6
CONTINUOUS
 62
7
100
AcDbCircle
 10
454.6848924754096
 20
75.70261997861860
 30
0.000000000000000
 40
3.299999999999999
  0
CIRCLE
  5
15E
100
AcDbEntity
  8
A1
  6
CONTINUOUS
 62
7
100
AcDbCircle
 10
467.3848924754103
 20
75.70261997861860
 30
0.000000000000000
 40
2.600000000000000
  0
LINE
  5
15F
100
AcDbEntity
  8
A1
  6
CONTINUOUS
 62
7
100
AcDbLine
 10
482.2348924754107
 20
73.10261997861824
 30
0.000000000000000
 11
477.9348924754205
 21
73.10261997861824
 31
0.000000000000000
  0
ARC
  5
160
100
AcDbEntity
  8
A1
  6
CONTINUOUS
 62
7
100
AcDbCircle
 10
482.2348924754107
 20
75.70261997861860
 30
0.000000000000000
 40
2.600000000000000
100
AcDbArc
 50
270.0000000000000
 51
450.0000000000000
  0
ARC
  5
161
100
AcDbEntity
  8
A1
  6
CONTINUOUS
 62
7
100
AcDbCircle
 10
477.9348924754205
 20
75.70261997861860
 30
0.000000000000000
 40
2.600000000000000
100
AcDbArc
 50
90.00000000000000
 51
270.0000000000000
  0
LINE
  5
162
100
AcDbEntity
  8
A1
  6
CONTINUOUS
 62
7
100
AcDbLine
 10
482.2348924754107
 20
78.30261997861896
 30
0.000000000000000
 11
477.9348924754205
 21
78.30261997861896
 31
0.000000000000000
  0
LINE
  5
163
100
AcDbEntity
  8
A1
  6
CONTINUOUS
 62
7
100
AcDbLine
 10
565.8848924754203
 20
90.80261997861896
 30
0.000000000000000
 11
65.98119394221214
 21
90.80261997861896
 31
0.000000000000000
  0
LINE
  5
164
100
AcDbEntity
  8
A1
  6
CONTINUOUS
 62
7
100
AcDbLine
 10
565.8848924754204
 20
94.50261997861878
 30
0.000000000000000
 11
65.78489247542177
 21
94.50261997861878
 31
0.000000000000000
  0
LINE
  5
165
100
AcDbEntity
  8
A1
  6
CONTINUOUS
 62
7
100
AcDbLine
 10
512.7848924754162
 20
87.20261997861650
 30
0.000000000000000
 11
515.2848924754098
 21
87.20261997861877
 31
0.000000000000000
  0
LINE
  5
166
100
AcDbEntity
  8
A1
  6
CONTINUOUS
 62
7
100
AcDbLine
 10
512.7848924754165
 20
87.20261997861665
 30
0.000000000000000
 11
512.7848924754384
 21
64.20261997861574
 31
0.000000000000000
  0
LINE
  5
167
100
AcDbEntity
  8
A1
  6
CONTINUOUS
 62
7
100
AcDbLine
 10
515.2848924754163
 20
87.20261997861877
 30
0.000000000000000
 11
515.2848924754272
 21
64.20261997861775
 31
0.000000000000000
  0
LINE
  5
168
100
AcDbEntity
  8
A1
  6
CONTINUOUS
 62
7
100
AcDbLine
 10
508.4848924754153
 20
85.20261997861243
 30
0.000000000000000
 11
508.4848924754262
 21
66.20261997861243
 31
0.000000000000000
  0
ARC
  5
169
100
AcDbEntity
  8
A1
  6
CONTINUOUS
 62
7
100
AcDbCircle
 10
510.4848924754152
 20
85.20261997861428
 30
0.000000000000000
 40
2.000000000000000
100
AcDbArc
 50
90.00000000005539
 51
180.0000000000521
  0
ARC
  5
16A
100
AcDbEntity
  8
A1
  6
CONTINUOUS
 62
7
100
AcDbCircle
 10
510.4848924754261
 20
66.20261997861428
 30
0.000000000000000
 40
2.000000000000000
100
AcDbArc
 50
180.0000000000521
 51
270.0000000000554
  0
LINE
  5
16B
100
AcDbEntity
  8
A1
  6
CONTINUOUS
 62
7
100
AcDbLine
 10
512.7848924754385
 20
64.20261997861563
 30
0.000000000000000
 11
515.2848924754276
 21
64.20261997861782
 31
0.000000000000000
  0
LINE
  5
16C
100
AcDbEntity
  8
A1
  6
CONTINUOUS
 62
7
100
AcDbLine
 10
510.4848924754132
 20
87.20261997861438
 30
0.000000000000000
 11
512.7848924754162
 21
87.20261997861668
 31
0.000000000000000
  0
LINE
  5
16D
100
AcDbEntity
  8
A1
  6
CONTINUOUS
 62
7
100
AcDbLine
 10
510.4848924754276
 20
64.20261997861347
 30
0.000000000000000
 11
512.7848924754379
 21
64.20261997861577
 31
0.000000000000000
  0
LINE
  5
16E
100
AcDbEntity
  8
A1
  6
CONTINUOUS
 62
7
100
AcDbLine
 10
65.78489247542835
 20
87.20261997861856
 30
0.000000000000000
 11
68.28489247542244
 21
87.20261997862086
 31
0.000000000000000
  0
ARC
  5
16F
100
AcDbEntity
  8
A1
  6
CONTINUOUS
 62
7
100
AcDbCircle
 10
67.78489247542723
 20
88.20261997862042
 30
0.000000000000000
 40
1.000000000000000
100
AcDbArc
 50
270.0000000000521
 51
420.0000000000475
  0
LINE
  5
170
100
AcDbEntity
  8
A1
  6
CONTINUOUS
 62
7
100
AcDbLine
 10
66.78489247542612
 20
89.93467078618943
 30
0.000000000000000
 11
68.28489247542676
 21
89.06864538240572
 31
0.000000000000000
  0
LINE
  5
171
100
AcDbEntity
  8
A1
  6
CONTINUOUS
 62
7
100
AcDbLine
 10
65.78489247542132
 20
94.50261997861857
 30
0.000000000000000
 11
65.78489247542393
 21
91.66672159375584
 31
0.000000000000000
  0
ARC
  5
172
100
AcDbEntity
  8
A1
  6
CONTINUOUS
 62
7
100
AcDbCircle
 10
67.78489247542450
 20
91.66672159375946
 30
0.000000000000000
 40
2.000000000000000
100
AcDbArc
 50
180.0000000000554
 51
240.0000000000566
  0
LINE
  5
173
100
AcDbEntity
  8
A1
  6
CONTINUOUS
 62
7
100
AcDbLine
 10
65.78489247542805
 20
87.20261997861846
 30
0.000000000000000
 11
65.78489247544982
 21
64.20261997861755
 31
0.000000000000000
  0
LINE
  5
174
100
AcDbEntity
  8
A1
  6
CONTINUOUS
 62
7
100
AcDbLine
 10
68.28489247542814
 20
87.20261997862085
 30
0.000000000000000
 11
68.28489247543905
 21
64.20261997861994
 31
0.000000000000000
  0
LINE
  5
175
100
AcDbEntity
  8
A1
  6
CONTINUOUS
 62
7
100
AcDbLine
 10
65.78489247544999
 20
64.20261997861765
 30
0.000000000000000
 11
68.28489247543953
 21
64.20261997861995
 31
0.000000000000000
  0
ARC
  5
176
100
AcDbEntity
  8
A1
  6
CONTINUOUS
 62
7
100
AcDbCircle
 10
67.78489247545087
 20
63.20261997862042
 30
0.000000000000000
 40
1.000000000000000
100
AcDbArc
 50
300.0000000000687
 51
450.0000000000521
  0
LINE
  5
177
100
AcDbEntity
  8
A1
  6
CONTINUOUS
 62
7
100
AcDbLine
 10
66.78489247545276
 20
61.47056917104943
 30
0.000000000000000
 11
68.28489247545187
 21
62.33659457483581
 31
0.000000000000000
  0
LINE
  5
178
100
AcDbEntity
  8
A1
  6
CONTINUOUS
 62
7
100
AcDbLine
 10
65.78489247545673
 20
56.90261997861874
 30
0.000000000000000
 11
65.78489247545417
 21
59.73851836348216
 31
0.000000000000000
  0
ARC
  5
179
100
AcDbEntity
  8
A1
  6
CONTINUOUS
 62
7
100
AcDbCircle
 10
67.78489247545451
 20
59.73851836348319
 30
0.000000000000000
 40
2.000000000000000
100
AcDbArc
 50
120.0000000000517
 51
180.0000000000554
  0
CIRCLE
  5
17A
100
AcDbEntity
  8
A1
  6
CONTINUOUS
 62
7
100
AcDbCircle
 10
224.5848924754215
 20
75.70261997861883
 30
0.000000000000000
 40
3.299999999999999
  0
CIRCLE
  5
17B
100
AcDbEntity
  8
A1
  6
CONTINUOUS
 62
7
100
AcDbCircle
 10
211.8848924754171
 20
75.70261997861883
 30
0.000000000000000
 40
2.600000000000000
  0
CIRCLE
  5
17C
100
AcDbEntity
  8
A1
  6
CONTINUOUS
 62
7
100
AcDbCircle
 10
288.0848924754210
 20
75.70261997861883
 30
0.000000000000000
 40
3.299999999999999
  0
CIRCLE
  5
17D
100
AcDbEntity
  8
A1
  6
CONTINUOUS
 62
7
100
AcDbCircle
 10
275.3848924754221
 20
75.70261997861883
 30
0.000000000000000
 40
2.600000000000000
  0
CIRCLE
  5
17E
100
AcDbEntity
  8
A1
  6
CONTINUOUS
 62
7
100
AcDbCircle
 10
307.1848924754214
 20
75.70261997861905
 30
0.000000000000000
 40
3.550000000000000
  0
LINE
  5
17F
100
AcDbEntity
  8
A1
  6
CONTINUOUS
 62
7
100
AcDbLine
 10
316.8848924754128
 20
56.90261997861882
 30
0.000000000000000
 11
316.8848924754143
 21
49.25261997861895
 31
0.000000000000000
  0
LINE
  5
180
100
AcDbEntity
  8
A1
  6
CONTINUOUS
 62
7
100
AcDbLine
 10
565.8848924754202
 20
60.60261997861821
 30
0.000000000000000
 11
65.98119394221223
 21
60.60261997861912
 31
0.000000000000000
  0
LINE
  5
181
100
AcDbEntity
  8
A1
  6
CONTINUOUS
 62
7
100
AcDbLine
 10
565.8848924754203
 20
56.90261997861833
 30
0.000000000000000
 11
65.78489247542171
 21
56.90261997861929
 31
0.000000000000000
  0
LINE
  5
182
100
AcDbEntity
  8
A1
  6
CONTINUOUS
 62
7
100
AcDbLine
 10
813.4848924754153
 20
49.25261997861780
 30
0.000000000000000
 11
316.8848924754143
 21
49.25261997861891
 31
0.000000000000000
  0
LINE
  5
183
100
AcDbEntity
  8
A1
  6
CONTINUOUS
 62
7
100
AcDbLine
 10
813.4848924754156
 20
52.91677468249758
 30
0.000000000000000
 11
316.8848924754148
 21
52.91677468249897
 31
0.000000000000000
  0
LINE
  5
184
100
AcDbEntity
  8
A1
  6
CONTINUOUS
 62
7
100
AcDbLine
 10
1076.784892475415
 20
40.80261997861722
 30
0.000000000000000
 11
568.7848924754155
 21
40.80261997861631
 31
0.000000000000000
  0
LINE
  5
185
100
AcDbEntity
  8
A1
  6
CONTINUOUS
 62
7
100
AcDbLine
 10
1076.673951102068
 20
45.20261997861666
 30
0.000000000000000
 11
568.7848924754159
 21
45.20261997861805
 31
0.000000000000000
  0
LINE
  5
186
100
AcDbEntity
  8
A1
  6
CONTINUOUS
 62
7
100
AcDbLine
 10
990.9348924754154
 20
72.40261997861842
 30
0.000000000000000
 11
984.8348924754150
 21
72.40261997861842
 31
0.000000000000000
  0
ARC
  5
187
100
AcDbEntity
  8
A1
  6
CONTINUOUS
 62
7
100
AcDbCircle
 10
990.9348924754154
 20
75.70261997861769
 30
0.000000000000000
 40
3.299999999999999
100
AcDbArc
 50
270.0000000000000
 51
450.0000000000000
  0
ARC
  5
188
100
AcDbEntity
  8
A1
  6
CONTINUOUS
 62
7
100
AcDbCircle
 10
984.8348924754150
 20
75.70261997861769
 30
0.000000000000000
 40
3.299999999999999
100
AcDbArc
 50
90.00000000000000
 51
270.0000000000000
  0
LINE
  5
189
100
AcDbEntity
  8
A1
  6
CONTINUOUS
 62
7
100
AcDbLine
 10
990.9348924754154
 20
79.00261997861696
 30
0.000000000000000
 11
984.8348924754150
 21
79.00261997861696
 31
0.000000000000000
  0
LINE
  5
18A
100
AcDbEntity
  8
A1
  6
CONTINUOUS
 62
7
100
AcDbLine
 10
974.1348924754161
 20
73.10261997861733
 30
0.000000000000000
 11
969.8348924754168
 21
73.10261997861733
 31
0.000000000000000
  0
ARC
  5
18B
100
AcDbEntity
  8
A1
  6
CONTINUOUS
 62
7
100
AcDbCircle
 10
974.1348924754161
 20
75.70261997861769
 30
0.000000000000000
 40
2.600000000000000
100
AcDbArc
 50
270.0000000000000
 51
450.0000000000000
  0
ARC
  5
18C
100
AcDbEntity
  8
A1
  6
CONTINUOUS
 62
7
100
AcDbCircle
 10
969.8348924754168
 20
75.70261997861769
 30
0.000000000000000
 40
2.600000000000000
100
AcDbArc
 50
90.00000000000000
 51
270.0000000000000
  0
LINE
  5
18D
100
AcDbEntity
  8
A1
  6
CONTINUOUS
 62
7
100
AcDbLine
 10
974.1348924754161
 20
78.30261997861805
 30
0.000000000000000
 11
969.8348924754168
 21
78.30261997861805
 31
0.000000000000000
  0
CIRCLE
  5
18E
100
AcDbEntity
  8
A1
  6
CONTINUOUS
 62
7
100
AcDbCircle
 10
1045.084892475415
 20
75.70261997861769
 30
0.000000000000000
 40
3.299999999999999
  0
CIRCLE
  5
18F
100
AcDbEntity
  8
A1
  6
CONTINUOUS
 62
7
100
AcDbCircle
 10
1003.784892475416
 20
75.70261997861769
 30
0.000000000000000
 40
2.600000000000000
  0
CIRCLE
  5
190
100
AcDbEntity
  8
A1
  6
CONTINUOUS
 62
7
100
AcDbCircle
 10
1016.484892475415
 20
75.70261997861792
 30
0.000000000000000
 40
3.299999999999999
  0
LINE
  5
191
100
AcDbEntity
  8
A1
  6
CONTINUOUS
 62
7
100
AcDbLine
 10
961.7848924754160
 20
72.02566471644843
 30
0.000000000000000
 11
958.1079372132457
 21
75.70261997861866
 31
0.000000000000000
  0
LINE
  5
192
100
AcDbEntity
  8
A1
  6
CONTINUOUS
 62
7
100
AcDbLine
 10
965.4618477375861
 20
75.70261997861928
 30
0.000000000000000
 11
961.7848924754162
 21
79.37957524078917
 31
0.000000000000000
  0
LINE
  5
193
100
AcDbEntity
  8
A1
  6
CONTINUOUS
 62
7
100
AcDbLine
 10
958.1079372132463
 20
75.70261997861905
 30
0.000000000000000
 11
961.7848924754162
 21
79.37957524078899
 31
0.000000000000000
  0
LINE
  5
194
100
AcDbEntity
  8
A1
  6
CONTINUOUS
 62
7
100
AcDbLine
 10
961.7848924754161
 20
72.02566471644928
 30
0.000000000000000
 11
965.4618477375860
 21
75.70261997861923
 31
0.000000000000000
  0
LINE
  5
195
100
AcDbEntity
  8
A1
  6
CONTINUOUS
 62
7
100
AcDbLine
 10
1029.034892475416
 20
72.35261997861846
 30
0.000000000000000
 11
1029.034892475416
 21
79.05261997861828
 31
0.000000000000000
  0
LINE
  5
196
100
AcDbEntity
  8
A1
  6
CONTINUOUS
 62
7
100
AcDbLine
 10
1035.734892475416
 20
72.35261997861937
 30
0.000000000000000
 11
1035.734892475416
 21
79.05261997861828
 31
0.000000000000000
  0
LINE
  5
197
100
AcDbEntity
  8
A1
  6
CONTINUOUS
 62
7
100
AcDbLine
 10
1029.034892475416
 20
72.35261997861829
 30
0.000000000000000
 11
1035.734892475416
 21
72.35261997861920
 31
0.000000000000000
  0
LINE
  5
198
100
AcDbEntity
  8
A1
  6
CONTINUOUS
 62
7
100
AcDbLine
 10
1029.034892475416
 20
79.05261997861828
 30
0.000000000000000
 11
1035.734892475416
 21
79.05261997861828
 31
0.000000000000000
  0
CIRCLE
  5
199
100
AcDbEntity
  8
A1
  6
CONTINUOUS
 62
7
100
AcDbCircle
 10
581.4848924754169
 20
75.70261997861928
 30
0.000000000000000
 40
2.600000000000000
  0
CIRCLE
  5
19A
100
AcDbEntity
  8
A1
  6
CONTINUOUS
 62
7
100
AcDbCircle
 10
600.5848924754173
 20
75.70261997861928
 30
0.000000000000000
 40
3.299999999999999
  0
LINE
  5
19B
100
AcDbEntity
  8
A1
  6
CONTINUOUS
 62
7
100
AcDbLine
 10
587.6348924754175
 20
72.35261997862028
 30
0.000000000000000
 11
587.6348924754175
 21
79.05261997861919
 31
0.000000000000000
  0
LINE
  5
19C
100
AcDbEntity
  8
A1
  6
CONTINUOUS
 62
7
100
AcDbLine
 10
594.3348924754173
 20
72.35261997862028
 30
0.000000000000000
 11
594.3348924754173
 21
79.05261997861919
 31
0.000000000000000
  0
LINE
  5
19D
100
AcDbEntity
  8
A1
  6
CONTINUOUS
 62
7
100
AcDbLine
 10
587.6348924754175
 20
72.35261997862028
 30
0.000000000000000
 11
594.3348924754173
 21
72.35261997862028
 31
0.000000000000000
  0
LINE
  5
19E
100
AcDbEntity
  8
A1
  6
CONTINUOUS
 62
7
100
AcDbLine
 10
587.6348924754175
 20
79.05261997861919
 30
0.000000000000000
 11
594.3348924754173
 21
79.05261997861919
 31
0.000000000000000
  0
LINE
  5
19F
100
AcDbEntity
  8
A4
  6
CENTER
 62
1
100
AcDbLine
 10
97.58489247542104
 20
82.80261997861840
 30
0.000000000000000
 11
97.58489247542104
 21
68.60261997861835
 31
0.000000000000000
  0
LINE
  5
1A0
100
AcDbEntity
  8
A4
  6
CENTER
 62
1
100
AcDbLine
 10
116.6848924754214
 20
83.50261997861833
 30
0.000000000000000
 11
116.6848924754214
 21
67.90261997861842
 31
0.000000000000000
  0
LINE
  5
1A1
100
AcDbEntity
  8
A4
  6
CENTER
 62
1
100
AcDbLine
 10
135.6848924754214
 20
83.50261997861833
 30
0.000000000000000
 11
135.6848924754214
 21
67.90261997861842
 31
0.000000000000000
  0
LINE
  5
1A2
100
AcDbEntity
  8
A4
  6
CENTER
 62
1
100
AcDbLine
 10
161.0848924754229
 20
83.50261997861833
 30
0.000000000000000
 11
161.0848924754229
 21
67.90261997861842
 31
0.000000000000000
  0
LINE
  5
1A3
100
AcDbEntity
  8
A4
  6
CENTER
 62
1
100
AcDbLine
 10
148.3848924754185
 20
82.80261997861840
 30
0.000000000000000
 11
148.3848924754185
 21
68.60261997861835
 31
0.000000000000000
  0
LINE
  5
1A4
100
AcDbEntity
  8
A4
  6
CENTER
 62
1
100
AcDbLine
 10
211.8848924754171
 20
82.80261997861885
 30
0.000000000000000
 11
211.8848924754171
 21
68.60261997861880
 31
0.000000000000000
  0
LINE
  5
1A5
100
AcDbEntity
  8
A4
  6
CENTER
 62
1
100
AcDbLine
 10
224.5848924754215
 20
83.50261997861878
 30
0.000000000000000
 11
224.5848924754215
 21
67.90261997861887
 31
0.000000000000000
  0
LINE
  5
1A6
100
AcDbEntity
  8
A4
  6
CENTER
 62
1
100
AcDbLine
 10
275.3848924754221
 20
82.80261997861885
 30
0.000000000000000
 11
275.3848924754221
 21
68.60261997861880
 31
0.000000000000000
  0
LINE
  5
1A7
100
AcDbEntity
  8
A4
  6
CENTER
 62
1
100
AcDbLine
 10
288.0848924754210
 20
83.50261997861878
 30
0.000000000000000
 11
288.0848924754210
 21
67.90261997861887
 31
0.000000000000000
  0
LINE
  5
1A8
100
AcDbEntity
  8
A4
  6
CENTER
 62
1
100
AcDbLine
 10
307.1848924754214
 20
83.75261997861901
 30
0.000000000000000
 11
307.1848924754214
 21
67.65261997861910
 31
0.000000000000000
  0
LINE
  5
1A9
100
AcDbEntity
  8
A4
  6
CENTER
 62
1
100
AcDbLine
 10
376.9848924754152
 20
83.75261997861855
 30
0.000000000000000
 11
376.9848924754152
 21
67.65261997861865
 31
0.000000000000000
  0
LINE
  5
1AA
100
AcDbEntity
  8
A4
  6
CENTER
 62
1
100
AcDbLine
 10
394.4848924754189
 20
67.90261997861865
 30
0.000000000000000
 11
394.4848924754189
 21
83.50261997861855
 31
0.000000000000000
  0
LINE
  5
1AB
100
AcDbEntity
  8
A4
  6
CENTER
 62
1
100
AcDbLine
 10
454.6848924754096
 20
83.50261997861855
 30
0.000000000000000
 11
454.6848924754096
 21
67.90261997861865
 31
0.000000000000000
  0
LINE
  5
1AC
100
AcDbEntity
  8
A4
  6
CENTER
 62
1
100
AcDbLine
 10
467.3848924754103
 20
82.80261997861862
 30
0.000000000000000
 11
467.3848924754103
 21
68.60261997861858
 31
0.000000000000000
  0
LINE
  5
1AD
100
AcDbEntity
  8
A4
  6
CENTER
 62
1
100
AcDbLine
 10
480.0848924754156
 20
68.60261997861824
 30
0.000000000000000
 11
480.0848924754156
 21
82.80261997861896
 31
0.000000000000000
  0
LINE
  5
1AE
100
AcDbEntity
  8
A4
  6
CENTER
 62
1
100
AcDbLine
 10
61.28489247542161
 20
75.70261997861886
 30
0.000000000000000
 11
1080.884892475416
 21
75.70261997861817
 31
0.000000000000000
  0
CIRCLE
  5
1AF
100
AcDbEntity
  8
A1
  6
CONTINUOUS
 62
7
100
AcDbCircle
 10
657.6848924754054
 20
75.70261997861905
 30
0.000000000000000
 40
3.299999999999999
  0
LINE
  5
1B0
100
AcDbEntity
  8
A1
  6
CONTINUOUS
 62
7
100
AcDbLine
 10
625.9348924754054
 20
72.40261997861978
 30
0.000000000000000
 11
619.8348924754050
 21
72.40261997861978
 31
0.000000000000000
  0
ARC
  5
1B1
100
AcDbEntity
  8
A1
  6
CONTINUOUS
 62
7
100
AcDbCircle
 10
625.9348924754054
 20
75.70261997861905
 30
0.000000000000000
 40
3.299999999999999
100
AcDbArc
 50
270.0000000000000
 51
450.0000000000000
  0
ARC
  5
1B2
100
AcDbEntity
  8
A1
  6
CONTINUOUS
 62
7
100
AcDbCircle
 10
619.8348924754050
 20
75.70261997861905
 30
0.000000000000000
 40
3.299999999999999
100
AcDbArc
 50
90.00000000000000
 51
270.0000000000000
  0
LINE
  5
1B3
100
AcDbEntity
  8
A1
  6
CONTINUOUS
 62
7
100
AcDbLine
 10
625.9348924754054
 20
79.00261997861833
 30
0.000000000000000
 11
619.8348924754050
 21
79.00261997861833
 31
0.000000000000000
  0
CIRCLE
  5
1B4
100
AcDbEntity
  8
A1
  6
CONTINUOUS
 62
7
100
AcDbCircle
 10
644.9848924754046
 20
75.70261997861905
 30
0.000000000000000
 40
2.600000000000000
  0
LINE
  5
1B5
100
AcDbEntity
  8
A3
  6
DASHED
 62
2
100
AcDbLine
 10
608.3661021016552
 20
73.84445509020168
 30
0.000000000000000
 11
606.5079372132368
 21
75.70261997862036
 31
0.000000000000000
  0
LINE
  5
1B6
100
AcDbEntity
  8
A1
  6
CONTINUOUS
 62
7
100
AcDbLine
 10
613.8618477375752
 20
75.70261997861945
 30
0.000000000000000
 11
610.1848924754056
 21
79.37957524078962
 31
0.000000000000000
  0
LINE
  5
1B7
100
AcDbEntity
  8
A3
  6
DASHED
 62
2
100
AcDbLine
 10
606.5079372132354
 20
75.70261997861883
 30
0.000000000000000
 11
608.3661021016536
 21
77.56078486703711
 31
0.000000000000000
  0
LINE
  5
1B8
100
AcDbEntity
  8
A1
  6
CONTINUOUS
 62
7
100
AcDbLine
 10
610.1848924754056
 20
72.02566471645014
 30
0.000000000000000
 11
613.8618477375754
 21
75.70261997861888
 31
0.000000000000000
  0
LINE
  5
1B9
100
AcDbEntity
  8
A4
  6
CENTER
 62
1
100
AcDbLine
 10
610.1848924754051
 20
67.52566471644944
 30
0.000000000000000
 11
610.1848924754057
 21
83.87957524078944
 31
0.000000000000000
  0
LINE
  5
1BA
100
AcDbEntity
  8
A4
  6
CENTER
 62
1
100
AcDbLine
 10
622.8848924754052
 20
67.90261997861910
 30
0.000000000000000
 11
622.8848924754052
 21
83.50261997861901
 31
0.000000000000000
  0
LINE
  5
1BB
100
AcDbEntity
  8
A4
  6
CENTER
 62
1
100
AcDbLine
 10
644.9848924754046
 20
82.80261997861908
 30
0.000000000000000
 11
644.9848924754046
 21
68.60261997861903
 31
0.000000000000000
  0
LINE
  5
1BC
100
AcDbEntity
  8
A4
  6
CENTER
 62
1
100
AcDbLine
 10
657.6848924754054
 20
83.50261997861901
 30
0.000000000000000
 11
657.6848924754054
 21
67.90261997861910
 31
0.000000000000000
  0
LINE
  5
1BD
100
AcDbEntity
  8
A1
  6
CONTINUOUS
 62
7
100
AcDbLine
 10
610.1848924754063
 20
79.37957524078985
 30
0.000000000000000
 11
608.3661021016535
 21
77.56078486703728
 31
0.000000000000000
  0
LINE
  5
1BE
100
AcDbEntity
  8
A1
  6
CONTINUOUS
 62
7
100
AcDbLine
 10
610.1848924754046
 20
72.02566471644963
 30
0.000000000000000
 11
608.3661021016546
 21
73.84445509020117
 31
0.000000000000000
  0
SPLINE
  5
1BF
100
AcDbEntity
  8
A1
  6
CONTINUOUS
 62
7
100
AcDbSpline
210
0.000000000000000
220
0.000000000000000
230
1.000000000000000
 70
     8
 71
     3
 72
    12
 73
     8
 74
     0
 42
1.000000000000000e-07
 43
1.000000000000000e-07
 12
-0.8305197130939632
 22
0.5569892334342512
 32
0.000000000000000
 13
-0.9922250698000425
 23
0.1244564616827120
 33
0.000000000000000
 40
0.000000000000000
 40
0.000000000000000
 40
0.000000000000000
 40
0.000000000000000
 40
0.1476387386510299
 40
0.2822857224893125
 40
0.4255565306640661
 40
0.5380608954054772
 40
0.6041930190001119
 40
0.6041930190001119
 40
0.6041930190001119
 40
0.6041930190001119
 10
1074.870679475415
 20
206.3409508937178
 30
0.000000000000000
 10
1074.829807181127
 20
206.3683619563399
 30
0.000000000000000
 10
1074.751068172793
 20
206.4198386040151
 30
0.000000000000000
 10
1074.631437962900
 20
206.4962900529889
 30
0.000000000000000
 10
1074.518842190308
 20
206.5609567641280
 30
0.000000000000000
 10
1074.422624939363
 20
206.6106176247809
 30
0.000000000000000
 10
1074.363679168241
 20
206.6220557619841
 30
0.000000000000000
 10
1074.341806517925
 20
206.6247992853528
 30
0.000000000000000
  0
ARC
  5
1C0
100
AcDbEntity
  8
A1
  6
CONTINUOUS
 62
7
100
AcDbCircle
 10
1074.284892475416
 20
204.1247992853528
 30
0.000000000000000
 40
2.500000000000000
100
AcDbArc
 50
0.000000000000000
 51
36.86989764586839
  0
ARC
  5
1C1
100
AcDbEntity
  8
A1
  6
CONTINUOUS
 62
7
100
AcDbCircle
 10
1074.284892475415
 20
204.1247992853478
 30
0.000000000000000
 40
2.500000000005091
100
AcDbArc
 50
36.86989764593882
 51
88.73278253564467
  0
ARC
  5
1C2
100
AcDbEntity
  8
A1
  6
CONTINUOUS
 62
7
100
AcDbCircle
 10
1073.930193100116
 20
204.9247992853528
 30
0.000000000000000
 40
1.700000000000084
100
AcDbArc
 50
45.00000000001349
 51
56.41129919730677
  0
ARC
  5
1C3
100
AcDbEntity
  8
A1
  6
CONTINUOUS
 62
7
100
AcDbCircle
 10
1074.784888753260
 20
203.6458342995743
 30
0.000000000000000
 40
2.000003722156710
100
AcDbArc
 50
0.000000000000000
 51
44.99993810155792
  0
LINE
  5
1C4
100
AcDbEntity
  8
A1
  6
CONTINUOUS
 62
7
100
AcDbLine
 10
1076.784892475416
 20
203.6458352995787
 30
0.000000000000000
 11
1076.784892475416
 21
204.1247992853530
 31
0.000000000000000
  0
LINE
  5
1C5
100
AcDbEntity
  8
A1
  6
CONTINUOUS
 62
7
100
AcDbLine
 10
1076.784892475416
 20
191.1247992853530
 30
0.000000000000000
 11
1076.784892475416
 21
191.9247992853493
 31
0.000000000000000
  0
LINE
  5
1C6
100
AcDbEntity
  8
A1
  6
CONTINUOUS
 62
7
100
AcDbLine
 10
1074.284892475416
 20
191.1247992853530
 30
0.000000000000000
 11
1074.284892475416
 21
191.9247992853493
 31
0.000000000000000
  0
LINE
  5
1C7
100
AcDbEntity
  8
A1
  6
CONTINUOUS
 62
7
100
AcDbLine
 10
1076.784892475416
 20
191.1247992853530
 30
0.000000000000000
 11
1076.784892475416
 21
186.1247992853530
 31
0.000000000000000
  0
LINE
  5
1C8
100
AcDbEntity
  8
A1
  6
CONTINUOUS
 62
7
100
AcDbLine
 10
1074.284892475416
 20
186.1247992853530
 30
0.000000000000000
 11
1074.284892475416
 21
191.1247992853530
 31
0.000000000000000
  0
LINE
  5
1C9
100
AcDbEntity
  8
A1
  6
CONTINUOUS
 62
7
100
AcDbLine
 10
1074.284892475416
 20
191.1247992853530
 30
0.000000000000000
 11
1076.784892475416
 21
191.1247992853530
 31
0.000000000000000
  0
LINE
  5
1CA
100
AcDbEntity
  8
A1
  6
CONTINUOUS
 62
7
100
AcDbLine
 10
1076.784892475416
 20
186.1247992853530
 30
0.000000000000000
 11
1074.284892475416
 21
186.1247992853530
 31
0.000000000000000
  0
LINE
  5
1CB
100
AcDbEntity
  8
A1
  6
CONTINUOUS
 62
7
100
AcDbLine
 10
1076.284892475416
 20
204.9687113619489
 30
0.000000000000000
 11
1076.284892475416
 21
205.6247992853541
 31
0.000000000000000
  0
LINE
  5
1CC
100
AcDbEntity
  8
A1
  6
CONTINUOUS
 62
7
100
AcDbLine
 10
568.7848924754164
 20
206.1268808133705
 30
0.000000000000000
 11
568.7848924754164
 21
206.6247992853530
 31
0.000000000000000
  0
LINE
  5
1CD
100
AcDbEntity
  8
A1
  6
CONTINUOUS
 62
7
100
AcDbLine
 10
1074.341806517925
 20
206.6247992853530
 30
0.000000000000000
 11
568.7848924754164
 21
206.6247992853530
 31
0.000000000000000
  0
LINE
  5
1CE
100
AcDbEntity
  8
A1
  6
CONTINUOUS
 62
7
100
AcDbLine
 10
1076.784892475416
 20
201.7962446257202
 30
0.000000000000000
 11
1076.784892475416
 21
203.6458342995745
 31
0.000000000000000
  0
LINE
  5
1CF
100
AcDbEntity
  8
A1
  6
CONTINUOUS
 62
7
100
AcDbLine
 10
568.7848924754164
 20
201.7962446257202
 30
0.000000000000000
 11
568.7848924754164
 21
206.1268808133705
 31
0.000000000000000
  0
LINE
  5
1D0
100
AcDbEntity
  8
A1
  6
CONTINUOUS
 62
7
100
AcDbLine
 10
1076.199106475417
 20
205.0600489660865
 30
0.000000000000000
 11
1075.132274628133
 21
206.1268808133703
 31
0.000000000000000
  0
LINE
  5
1D1
100
AcDbEntity
  8
A1
  6
CONTINUOUS
 62
7
100
AcDbLine
 10
1075.132274628132
 20
206.1268808133705
 30
0.000000000000000
 11
568.7848924754164
 21
206.1268808133705
 31
0.000000000000000
  0
LINE
  5
1D2
100
AcDbEntity
  8
A1
  6
CONTINUOUS
 62
7
100
AcDbLine
 10
1076.784892475416
 20
191.9247992853493
 30
0.000000000000000
 11
1076.784892475416
 21
201.7962446257202
 31
0.000000000000000
  0
LINE
  5
1D3
100
AcDbEntity
  8
A1
  6
CONTINUOUS
 62
7
100
AcDbLine
 10
568.7848924754164
 20
191.9247992853493
 30
0.000000000000000
 11
568.7848924754164
 21
201.7962446257202
 31
0.000000000000000
  0
LINE
  5
1D4
100
AcDbEntity
  8
A1
  6
CONTINUOUS
 62
7
100
AcDbLine
 10
1076.784892475416
 20
191.9247992853493
 30
0.000000000000000
 11
568.7848924754164
 21
191.9247992853493
 31
0.000000000000000
  0
LINE
  5
1D5
100
AcDbEntity
  8
A1
  6
CONTINUOUS
 62
7
100
AcDbLine
 10
1076.784892475416
 20
201.7962446257202
 30
0.000000000000000
 11
568.7848924754164
 21
201.7962446257202
 31
0.000000000000000
  0
SPLINE
  5
1D6
100
AcDbEntity
  8
A1
  6
CONTINUOUS
 62
7
100
AcDbSpline
210
0.000000000000000
220
0.000000000000000
230
1.000000000000000
 70
     8
 71
     3
 72
    17
 73
    13
 74
     0
 42
1.000000000000000e-07
 43
1.000000000000000e-07
 12
-0.007049927396565181
 22
-0.9999751489522168
 32
0.000000000000000
 13
0.9999995238431438
 23
0.0009758660589795909
 33
0.000000000000000
 40
0.000000000000000
 40
0.000000000000000
 40
0.000000000000000
 40
0.000000000000000
 40
0.2816393116382500
 40
0.5634931201143635
 40
0.8349480651394179
 40
1.117917651600656
 40
1.392672024345229
 40
1.687069308203044
 40
1.989579451103502
 40
2.312133100972561
 40
2.570875769953729
 40
2.836914172936729
 40
2.836914172936729
 40
2.836914172936729
 40
2.836914172936729
 10
316.8848924754118
 20
188.9934252710546
 30
0.000000000000000
 10
316.8842306298454
 20
188.8995478335192
 30
0.000000000000000
 10
316.9007205675091
 20
188.7111980218827
 30
0.000000000000000
 10
316.9764341162074
 20
188.4414911892102
 30
0.000000000000000
 10
317.1075269572823
 20
188.1930828404803
 30
0.000000000000000
 10
317.2866807948342
 20
187.9798966565216
 30
0.000000000000000
 10
317.5095584784965
 20
187.8013828629440
 30
0.000000000000000
 10
317.7650558671069
 20
187.6603812919803
 30
0.000000000000000
 10
318.0530913631762
 20
187.5530024740268
 30
0.000000000000000
 10
318.3407240832473
 20
187.4858893132039
 30
0.000000000000000
 10
318.6211858397771
 20
187.4500203222834
 30
0.000000000000000
 10
318.7962130499761
 20
187.4425266351287
 30
0.000000000000000
 10
318.8848924754118
 20
187.4426131744113
 30
0.000000000000000
  0
LINE
  5
1D7
100
AcDbEntity
  8
A1
  6
CONTINUOUS
 62
7
100
AcDbLine
 10
316.8848924754118
 20
200.0237707303554
 30
0.000000000000000
 11
316.8848924754118
 21
202.3247992853465
 31
0.000000000000000
  0
LINE
  5
1D8
100
AcDbEntity
  8
A1
  6
CONTINUOUS
 62
7
100
AcDbLine
 10
568.7848924754164
 20
202.3247992853467
 30
0.000000000000000
 11
316.8848924754118
 21
202.3247992853467
 31
0.000000000000000
  0
LINE
  5
1D9
100
AcDbEntity
  8
A1
  6
CONTINUOUS
 62
7
100
AcDbLine
 10
316.8848924754118
 20
200.0237707303552
 30
0.000000000000000
 11
316.8848924754118
 21
194.1126151685494
 31
0.000000000000000
  0
LINE
  5
1DA
100
AcDbEntity
  8
A1
  6
CONTINUOUS
 62
7
100
AcDbLine
 10
568.7848924754164
 20
200.0237707303554
 30
0.000000000000000
 11
316.8848924754118
 21
200.0237707303554
 31
0.000000000000000
  0
LINE
  5
1DB
100
AcDbEntity
  8
A1
  6
CONTINUOUS
 62
7
100
AcDbLine
 10
316.8848924754118
 20
188.9934252710546
 30
0.000000000000000
 11
316.8848924754118
 21
194.1126151685494
 31
0.000000000000000
  0
LINE
  5
1DC
100
AcDbEntity
  8
A1
  6
CONTINUOUS
 62
7
100
AcDbLine
 10
813.4848924754122
 20
187.4426131744112
 30
0.000000000000000
 11
318.8848924754118
 21
187.4426131744113
 31
0.000000000000000
  0
LINE
  5
1DD
100
AcDbEntity
  8
A1
  6
CONTINUOUS
 62
7
100
AcDbLine
 10
813.4848924754122
 20
187.4426131744112
 30
0.000000000000000
 11
813.4848924754122
 21
191.9247992853502
 31
0.000000000000000
  0
LINE
  5
1DE
100
AcDbEntity
  8
A1
  6
CONTINUOUS
 62
7
100
AcDbLine
 10
568.7848924754164
 20
194.1126151685494
 30
0.000000000000000
 11
316.8848924754118
 21
194.1126151685494
 31
0.000000000000000
  0
LINE
  5
1DF
100
AcDbEntity
  8
A1
  6
CONTINUOUS
 62
7
100
AcDbLine
 10
816.4848924754189
 20
190.6247992853537
 30
0.000000000000000
 11
813.4848924754166
 21
190.6247992853536
 31
0.000000000000000
  0
LINE
  5
1E0
100
AcDbEntity
  8
A1
  6
CONTINUOUS
 62
7
100
AcDbLine
 10
816.4848924754187
 20
191.9247992853502
 30
0.000000000000000
 11
816.4848924754187
 21
190.6247992853537
 31
0.000000000000000
  0
LINE
  5
1E1
100
AcDbEntity
  8
A1
  6
CONTINUOUS
 62
7
100
AcDbLine
 10
66.18489247541659
 20
186.8247992853529
 30
0.000000000000000
 11
66.18489247541659
 21
189.7515238002839
 31
0.000000000000000
  0
LINE
  5
1E2
100
AcDbEntity
  8
A1
  6
CONTINUOUS
 62
7
100
AcDbLine
 10
566.2848924754164
 20
186.8247992853528
 30
0.000000000000000
 11
566.2848924754164
 21
187.4426131744113
 31
0.000000000000000
  0
LINE
  5
1E3
100
AcDbEntity
  8
A1
  6
CONTINUOUS
 62
7
100
AcDbLine
 10
566.2848924754165
 20
186.8247992853527
 30
0.000000000000000
 11
66.18489247541679
 21
186.8247992853526
 31
0.000000000000000
  0
LINE
  5
1E4
100
AcDbEntity
  8
A1
  6
CONTINUOUS
 62
7
100
AcDbLine
 10
66.18489247541659
 20
194.4903198724053
 30
0.000000000000000
 11
66.18489247541659
 21
189.7515238002839
 31
0.000000000000000
  0
LINE
  5
1E5
100
AcDbEntity
  8
A1
  6
CONTINUOUS
 62
7
100
AcDbLine
 10
316.8848924754118
 20
189.7515238002839
 30
0.000000000000000
 11
66.18489247541659
 21
189.7515238002839
 31
0.000000000000000
  0
LINE
  5
1E6
100
AcDbEntity
  8
A1
  6
CONTINUOUS
 62
7
100
AcDbLine
 10
66.18489247541659
 20
194.4903198724053
 30
0.000000000000000
 11
66.18489247541659
 21
194.6055809175533
 31
0.000000000000000
  0
LINE
  5
1E7
100
AcDbEntity
  8
A1
  6
CONTINUOUS
 62
7
100
AcDbLine
 10
316.8848924754118
 20
194.4903198724053
 30
0.000000000000000
 11
66.18489247541659
 21
194.4903198724053
 31
0.000000000000000
  0
LINE
  5
1E8
100
AcDbEntity
  8
A1
  6
CONTINUOUS
 62
7
100
AcDbLine
 10
66.18489247541659
 20
194.6055809175533
 30
0.000000000000000
 11
66.18489247541659
 21
196.2247992853534
 31
0.000000000000000
  0
LINE
  5
1E9
100
AcDbEntity
  8
A1
  6
CONTINUOUS
 62
7
100
AcDbLine
 10
316.8848924754118
 20
194.6055809175532
 30
0.000000000000000
 11
66.18489247541659
 21
194.6055809175533
 31
0.000000000000000
  0
LINE
  5
1EA
100
AcDbEntity
  8
A1
  6
CONTINUOUS
 62
7
100
AcDbLine
 10
316.8848924754118
 20
196.2247992853534
 30
0.000000000000000
 11
66.18489247541659
 21
196.2247992853534
 31
0.000000000000000
  0
ENDSEC
  0
SECTION
  2
OBJECTS
  0
DICTIONARY
  5
218
100
AcDbDictionary
  3
ACAD_GROUP
350
219
  3
ACAD_MLINESTYLE
350
21A
  0
DICTIONARY
  5
219
102
{ACAD_REACTORS
330
218
102
}
100
AcDbDictionary
  0
DICTIONARY
  5
21A
102
{ACAD_REACTORS
330
218
102
}
100
AcDbDictionary
  3
STANDARD
350
21B
  0
MLINESTYLE
  5
21B
102
{ACAD_REACTORS
330
21A
102
}
100
AcDbMlineStyle
  2
STANDARD
 70
     0
  3

 62
   256
 51
90.00
 52
90.00
 71
     2
 49
0.50
 62
   256
  6
BYLAYER
 49
-0.50
 62
   256
  6
BYLAYER
  0
ENDSEC
  0
EOF
