  0
SECTION
  2
HEADER
  9
$ACADVER
  1
AC1024
  9
$DWGCODEPAGE
  3
ANSI_932
  9
$LTSCALE
 40
20.0
  9
$FILLMODE
 70
     1
  9
$CLAYER
  8
0
  9
$PDMODE
 70
     0
  9
$SPLFRAME
 70
     0
  9
$SPLINETYPE
 70
     6
  9
$SPLINESEGS
 70
     8
  9
$DIMASZ
 40
2.000000
  9
$DIMEXE
 40
1.500000
  9
$DIMEXO
 40
0.800000
  9
$DIMTAD
 70
     1
  9
$DIMTIH
 70
     0
  9
$DIMTOH
 70
     0
  9
$DIMTVP
 40
0.500000
  9
$DIMTXT
 40
3.100000
  9
$EXTMIN
 10
0.000000
 20
0.000000
 30
0.000000
  9
$EXTMAX
 10
297.000000
 20
420.000000
 30
0.000000
  9
$MEASUREMENT
 70
  1
  9
$LIMMIN
 10
0.000000
 20
0.000000
  9
$LIMMAX
 10
297.000000
 20
420.000000
  9
$HANDSEED
  5
229
  9
$LWDISPLAY
290
     0
  9
$DIMBLK
  1
_OPEN
  9
$DIMDEC
 70
     2
  9
$DIMADEC
 70
     2
  9
$DIMAUNIT
 70
     0
  9
$DIMZIN
 70
     8
  9
$DIMAZIN
 70
     2
  9
$DIMTOFL
 70
     1
  0
ENDSEC
  0
SECTION
  2
CLASSES
  0
ENDSEC
  0
SECTION
  2
TABLES
  0
TABLE
  2
VPORT
  5
1F6
100
AcDbSymbolTable
 70
     1
  0
VPORT
  5
1F7
100
AcDbSymbolTableRecord
100
AcDbViewportTableRecord
  2
*ACTIVE
 70
     0
 12
623.549999
 22
103.800000
 40
171.599999
 41
7.150932
  0
ENDTAB
  0
TABLE
  2
LTYPE
  5
1F8
100
AcDbSymbolTable
 70
     3
  0
LTYPE
  5
1F9
100
AcDbSymbolTableRecord
100
AcDbLinetypeTableRecord
  2
BYBLOCK
 70
     0
  3

 72
    65
 73
     0
 40
0.0
  0
LTYPE
  5
1FA
100
AcDbSymbolTableRecord
100
AcDbLinetypeTableRecord
  2
BYLAYER
 70
     0
  3

 72
    65
 73
     0
 40
0.0
  0
LTYPE
  5
1FB
100
AcDbSymbolTableRecord
100
AcDbLinetypeTableRecord
  2
CONTINUOUS
 70
     0
  3
Solid line (NEC CAE2D for Win R18.0 : 2024.11.07)
 72
    65
 73
     0
 40
0.0
  0
LTYPE
  5
1FC
100
AcDbSymbolTableRecord
100
AcDbLinetypeTableRecord
  2
DASHED
 70
     0
  3
__ __ __ __ __ __ __ __ __ __ __ __ __ _
 72
    65
 73
     2
 40
0.75
 49
0.5
 74
     0
 49
-0.25
 74
     0
  0
LTYPE
  5
1FD
100
AcDbSymbolTableRecord
100
AcDbLinetypeTableRecord
  2
CENTER
 70
     0
  3
____ _ ____ _ ____ _ ____ _ ____ _ ____
 72
    65
 73
     4
 40
2.0
 49
1.25
 74
     0
 49
-0.25
 74
     0
 49
0.25
 74
     0
 49
-0.25
 74
     0
  0
ENDTAB
  0
TABLE
  2
LAYER
  5
1FE
100
AcDbSymbolTable
 70
    12
  0
LAYER
  5
1FF
100
AcDbSymbolTableRecord
100
AcDbLayerTableRecord
  2
0
 70
     0
 62
     7
  6
CONTINUOUS
370
    -3
390

  0
LAYER
  5
200
100
AcDbSymbolTableRecord
100
AcDbLayerTableRecord
  2
A0
 70
     0
 62
     9
  6
CONTINUOUS
370
    -3
390

  0
LAYER
  5
201
100
AcDbSymbolTableRecord
100
AcDbLayerTableRecord
  2
A1
 70
     0
 62
    12
  6
CONTINUOUS
370
    -3
390

  0
LAYER
  5
202
100
AcDbSymbolTableRecord
100
AcDbLayerTableRecord
  2
A3
 70
     0
 62
    12
  6
CONTINUOUS
370
    -3
390

  0
LAYER
  5
203
100
AcDbSymbolTableRecord
100
AcDbLayerTableRecord
  2
A4
 70
     0
 62
     9
  6
CONTINUOUS
370
    -3
390

  0
LAYER
  5
204
100
AcDbSymbolTableRecord
100
AcDbLayerTableRecord
  2
A8
 70
     0
 62
    10
  6
CONTINUOUS
370
    -3
390

  0
LAYER
  5
205
100
AcDbSymbolTableRecord
100
AcDbLayerTableRecord
  2
A10
 70
     0
 62
     6
  6
CONTINUOUS
370
    -3
390

  0
LAYER
  5
206
100
AcDbSymbolTableRecord
100
AcDbLayerTableRecord
  2
A20
 70
     0
 62
     1
  6
CONTINUOUS
370
    -3
390

  0
LAYER
  5
207
100
AcDbSymbolTableRecord
100
AcDbLayerTableRecord
  2
A30
 70
     0
 62
     1
  6
CONTINUOUS
370
    -3
390

  0
LAYER
  5
208
100
AcDbSymbolTableRecord
100
AcDbLayerTableRecord
  2
A40
 70
     0
 62
     9
  6
CONTINUOUS
370
    -3
390

  0
LAYER
  5
209
100
AcDbSymbolTableRecord
100
AcDbLayerTableRecord
  2
A50
 70
     0
 62
    12
  6
CONTINUOUS
370
    -3
390

  0
LAYER
  5
20A
100
AcDbSymbolTableRecord
100
AcDbLayerTableRecord
  2
A1023
 70
     0
 62
    16
  6
CONTINUOUS
370
    -3
390

  0
ENDTAB
  0
TABLE
  2
STYLE
  5
20B
100
AcDbSymbolTable
 70
     4
  0
STYLE
  5
20C
100
AcDbSymbolTableRecord
100
AcDbTextStyleTableRecord
  2
STANDARD
 70
    64
 40
0.0
 41
1.0
 50
0.0
 71
     0
 42
3.000000000000000
  3
TXT
  4

  0
STYLE
  5
20D
100
AcDbSymbolTableRecord
100
AcDbTextStyleTableRecord
  2
ANKTATE
 70
    68
 40
0.0
 41
1.0
 50
0.0
 71
     0
 42
3.000000000000000
  3
TXT
  4

  0
STYLE
  5
20E
100
AcDbSymbolTableRecord
100
AcDbTextStyleTableRecord
  2
KNJYOKO
 70
    64
 40
0.0
 41
1.0
 50
0.0
 71
     0
 42
3.000000000000000
  3
TXT
  4
BIGFONT
  0
STYLE
  5
20F
100
AcDbSymbolTableRecord
100
AcDbTextStyleTableRecord
  2
KNJTATE
 70
    68
 40
0.0
 41
1.0
 50
0.0
 71
     0
 42
3.000000000000000
  3
TXT
  4
BIGFONT
  0
ENDTAB
  0
TABLE
  2
VIEW
  5
210
100
AcDbSymbolTable
 70
     0
  0
ENDTAB
  0
TABLE
  2
UCS
  5
211
100
AcDbSymbolTable
 70
     0
  0
ENDTAB
  0
TABLE
  2
APPID
  5
212
100
AcDbSymbolTable
 70
     1
  0
APPID
  5
213
100
AcDbSymbolTableRecord
100
AcDbRegAppTableRecord
  2
ACAD
 70
     0
  0
ENDTAB
  0
TABLE
  2
DIMSTYLE
  5
214
100
AcDbSymbolTable
 70
     2
100
AcDbDimStyleTable
  0
DIMSTYLE
105
215
100
AcDbSymbolTableRecord
100
AcDbDimStyleTableRecord
  2
STANDARD
 70
     0
 41
2.000000
 44
1.500000
 42
0.800000
145
0.661290
140
3.100000
144
1.000000
146
0.645161
340
20C
  0
DIMSTYLE
105
216
100
AcDbSymbolTableRecord
100
AcDbDimStyleTableRecord
  2
A001
 70
     0
 41
2.000000
 44
1.500000
 42
0.800000
145
0.661290
140
3.100000
144
1.000000
146
0.645161
 77
     1
 73
     0
 74
     0
271
     2
179
     2
275
     0
 78
     8
 79
     2
172
     1
340
20C
  0
ENDTAB
  0
TABLE
  2
BLOCK_RECORD
  5
217
100
AcDbSymbolTable
 70
    12
  0
BLOCK_RECORD
  5
218
100
AcDbSymbolTableRecord
100
AcDbBlockTableRecord
  2
*MODEL_SPACE
  0
BLOCK_RECORD
  5
219
100
AcDbSymbolTableRecord
100
AcDbBlockTableRecord
  2
*PAPER_SPACE
  0
BLOCK_RECORD
  5
21A
100
AcDbSymbolTableRecord
100
AcDbBlockTableRecord
  2
*PAPER_SPACE0
  0
BLOCK_RECORD
  5
1
100
AcDbSymbolTableRecord
100
AcDbBlockTableRecord
  2
_NONE
  0
BLOCK_RECORD
  5
4
100
AcDbSymbolTableRecord
100
AcDbBlockTableRecord
  2
_CLOSED
  0
BLOCK_RECORD
  5
B
100
AcDbSymbolTableRecord
100
AcDbBlockTableRecord
  2
_DOT
  0
BLOCK_RECORD
  5
13
100
AcDbSymbolTableRecord
100
AcDbBlockTableRecord
  2
_OPEN
  0
BLOCK_RECORD
  5
19
100
AcDbSymbolTableRecord
100
AcDbBlockTableRecord
  2
_ORIGIN
  0
BLOCK_RECORD
  5
1E
100
AcDbSymbolTableRecord
100
AcDbBlockTableRecord
  2
_OPEN30
  0
BLOCK_RECORD
  5
24
100
AcDbSymbolTableRecord
100
AcDbBlockTableRecord
  2
_BOXFILLED
  0
BLOCK_RECORD
  5
29
100
AcDbSymbolTableRecord
100
AcDbBlockTableRecord
  2
_BOXBLANK
  0
BLOCK_RECORD
  5
31
100
AcDbSymbolTableRecord
100
AcDbBlockTableRecord
  2
_OBLIQUE
  0
BLOCK_RECORD
  5
35
100
AcDbSymbolTableRecord
100
AcDbBlockTableRecord
  2
_OPEN90
  0
BLOCK_RECORD
  5
3B
100
AcDbSymbolTableRecord
100
AcDbBlockTableRecord
  2
_CLOSEDBLANK
  0
BLOCK_RECORD
  5
41
100
AcDbSymbolTableRecord
100
AcDbBlockTableRecord
  2
_DOTBLANK
  0
ENDTAB
  0
ENDSEC
  0
SECTION
  2
BLOCKS
  0
BLOCK
  5
21B
100
AcDbEntity
  8
0
100
AcDbBlockBegin
  2
*MODEL_SPACE
 70
     0
 10
0.0
 20
0.0
 30
0.0
  3
*MODEL_SPACE
  1

  0
ENDBLK
  5
21C
100
AcDbEntity
  8
0
100
AcDbBlockEnd
  0
BLOCK
  5
21D
100
AcDbEntity
  8
0
100
AcDbBlockBegin
  2
*PAPER_SPACE
 70
     0
 10
0.0
 20
0.0
 30
0.0
  3
*PAPER_SPACE
  1

  0
ENDBLK
  5
21E
100
AcDbEntity
  8
0
100
AcDbBlockEnd
  0
BLOCK
  5
21F
100
AcDbEntity
  8
0
100
AcDbBlockBegin
  2
*PAPER_SPACE0
 70
     0
 10
0.0
 20
0.0
 30
0.0
  3
*PAPER_SPACE0
  1

  0
ENDBLK
  5
220
100
AcDbEntity
  8
0
100
AcDbBlockEnd
  0
BLOCK
  5
2
330
1
100
AcDbEntity
  8
0
100
AcDbBlockBegin
  2
_NONE
 70
     0
 10
0.0
 20
0.0
 30
0.0
  3
_NONE
  1

  0
ENDBLK
  5
3
330
1
100
AcDbEntity
  8
0
100
AcDbBlockEnd
  0
BLOCK
  5
5
330
4
100
AcDbEntity
  8
0
100
AcDbBlockBegin
  2
_CLOSED
 70
     0
 10
0.0
 20
0.0
 30
0.0
  3
_CLOSED
  1

  0
LINE
  5
6
330
4
100
AcDbEntity
  8
0
  6
BYBLOCK
 62
     0
370
    -2
100
AcDbLine
 10
-1.0
 20
0.166667
 30
0.0
 11
0.0
 21
0.0
 31
0.0
  0
LINE
  5
7
330
4
100
AcDbEntity
  8
0
  6
BYBLOCK
 62
     0
370
    -2
100
AcDbLine
 10
0.0
 20
0.0
 30
0.0
 11
-1.0
 21
-0.166667
 31
0.0
  0
LINE
  5
8
330
4
100
AcDbEntity
  8
0
  6
BYBLOCK
 62
     0
370
    -2
100
AcDbLine
 10
-1.0
 20
0.166667
 30
0.0
 11
-1.0
 21
-0.166667
 31
0.0
  0
LINE
  5
9
330
4
100
AcDbEntity
  8
0
  6
BYBLOCK
 62
     0
370
    -2
100
AcDbLine
 10
0.0
 20
0.0
 30
0.0
 11
-1.0
 21
0.0
 31
0.0
  0
ENDBLK
  5
A
330
4
100
AcDbEntity
  8
0
100
AcDbBlockEnd
  0
BLOCK
  5
C
330
B
100
AcDbEntity
  8
0
100
AcDbBlockBegin
  2
_DOT
 70
     0
 10
0.0
 20
0.0
 30
0.0
  3
_DOT
  1

  0
POLYLINE
  5
D
330
B
100
AcDbEntity
  8
0
  6
BYBLOCK
 62
     0
370
    -2
100
AcDb2dPolyline
 66
     1
 10
0.0
 20
0.0
 30
0.0
 70
     1
 40
0.5
 41
0.5
  0
VERTEX
  5
E
330
B
100
AcDbEntity
  8
0
  6
BYBLOCK
 62
     0
370
    -2
100
AcDbVertex
100
AcDb2dVertex
 10
-0.25
 20
0.0
 30
0.0
 42
1.0
  0
VERTEX
  5
F
330
B
100
AcDbEntity
  8
0
  6
BYBLOCK
 62
     0
370
    -2
100
AcDbVertex
100
AcDb2dVertex
 10
0.25
 20
0.0
 30
0.0
 42
1.0
  0
SEQEND
  5
10
330
B
100
AcDbEntity
  8
0
  6
BYBLOCK
 62
     0
370
    -2
  0
LINE
  5
11
330
B
100
AcDbEntity
  8
0
  6
BYBLOCK
 62
     0
370
    -2
100
AcDbLine
 10
-0.5
 20
0.0
 30
0.0
 11
-1.0
 21
0.0
 31
0.0
  0
ENDBLK
  5
12
330
B
100
AcDbEntity
  8
0
100
AcDbBlockEnd
  0
BLOCK
  5
14
330
13
100
AcDbEntity
  8
0
100
AcDbBlockBegin
  2
_OPEN
 70
     0
 10
0.0
 20
0.0
 30
0.0
  3
_OPEN
  1

  0
LINE
  5
15
330
13
100
AcDbEntity
  8
0
  6
BYBLOCK
 62
     0
370
    -2
100
AcDbLine
 10
-1.0
 20
0.166667
 30
0.0
 11
0.0
 21
0.0
 31
0.0
  0
LINE
  5
16
330
13
100
AcDbEntity
  8
0
  6
BYBLOCK
 62
     0
370
    -2
100
AcDbLine
 10
0.0
 20
0.0
 30
0.0
 11
-1.0
 21
-0.166667
 31
0.0
  0
LINE
  5
17
330
13
100
AcDbEntity
  8
0
  6
BYBLOCK
 62
     0
370
    -2
100
AcDbLine
 10
0.0
 20
0.0
 30
0.0
 11
-1.0
 21
0.0
 31
0.0
  0
ENDBLK
  5
18
330
13
100
AcDbEntity
  8
0
100
AcDbBlockEnd
  0
BLOCK
  5
1A
330
19
100
AcDbEntity
  8
0
100
AcDbBlockBegin
  2
_ORIGIN
 70
     0
 10
0.0
 20
0.0
 30
0.0
  3
_ORIGIN
  1

  0
CIRCLE
  5
1B
330
19
100
AcDbEntity
  8
0
  6
BYBLOCK
 62
     0
370
    -2
100
AcDbCircle
 10
0.0
 20
0.0
 30
0.0
 40
0.5
  0
LINE
  5
1C
330
19
100
AcDbEntity
  8
0
  6
BYBLOCK
 62
     0
370
    -2
100
AcDbLine
 10
0.0
 20
0.0
 30
0.0
 11
-1.0
 21
0.0
 31
0.0
  0
ENDBLK
  5
1D
330
19
100
AcDbEntity
  8
0
100
AcDbBlockEnd
  0
BLOCK
  5
1F
330
1E
100
AcDbEntity
  8
0
100
AcDbBlockBegin
  2
_OPEN30
 70
     0
 10
0.0
 20
0.0
 30
0.0
  3
_OPEN30
  1

  0
LINE
  5
20
330
1E
100
AcDbEntity
  8
0
  6
BYBLOCK
 62
     0
370
    -2
100
AcDbLine
 10
-1.0
 20
0.267949
 30
0.0
 11
0.0
 21
0.0
 31
0.0
  0
LINE
  5
21
330
1E
100
AcDbEntity
  8
0
  6
BYBLOCK
 62
     0
370
    -2
100
AcDbLine
 10
0.0
 20
0.0
 30
0.0
 11
-1.0
 21
-0.267949
 31
0.0
  0
LINE
  5
22
330
1E
100
AcDbEntity
  8
0
  6
BYBLOCK
 62
     0
370
    -2
100
AcDbLine
 10
0.0
 20
0.0
 30
0.0
 11
-1.0
 21
0.0
 31
0.0
  0
ENDBLK
  5
23
330
1E
100
AcDbEntity
  8
0
100
AcDbBlockEnd
  0
BLOCK
  5
25
330
24
100
AcDbEntity
  8
0
100
AcDbBlockBegin
  2
_BOXFILLED
 70
     0
 10
0.0
 20
0.0
 30
0.0
  3
_BOXFILLED
  1

  0
SOLID
  5
26
330
24
100
AcDbEntity
  8
0
  6
BYBLOCK
 62
     0
370
    -2
100
AcDbTrace
 10
-0.5
 20
0.5
 30
0.0
 11
0.5
 21
0.5
 31
0.0
 12
-0.5
 22
-0.5
 32
0.0
 13
0.5
 23
-0.5
 33
0.0
  0
LINE
  5
27
330
24
100
AcDbEntity
  8
0
  6
BYBLOCK
 62
     0
370
    -2
100
AcDbLine
 10
-0.5
 20
0.0
 30
0.0
 11
-1.0
 21
0.0
 31
0.0
  0
ENDBLK
  5
28
330
24
100
AcDbEntity
  8
0
100
AcDbBlockEnd
  0
BLOCK
  5
2A
330
29
100
AcDbEntity
  8
0
100
AcDbBlockBegin
  2
_BOXBLANK
 70
     0
 10
0.0
 20
0.0
 30
0.0
  3
_BOXBLANK
  1

  0
LINE
  5
2B
330
29
100
AcDbEntity
  8
0
  6
BYBLOCK
 62
     0
370
    -2
100
AcDbLine
 10
-0.5
 20
-0.5
 30
0.0
 11
0.5
 21
-0.5
 31
0.0
  0
LINE
  5
2C
330
29
100
AcDbEntity
  8
0
  6
BYBLOCK
 62
     0
370
    -2
100
AcDbLine
 10
0.5
 20
-0.5
 30
0.0
 11
0.5
 21
0.5
 31
0.0
  0
LINE
  5
2D
330
29
100
AcDbEntity
  8
0
  6
BYBLOCK
 62
     0
370
    -2
100
AcDbLine
 10
0.5
 20
0.5
 30
0.0
 11
-0.5
 21
0.5
 31
0.0
  0
LINE
  5
2E
330
29
100
AcDbEntity
  8
0
  6
BYBLOCK
 62
     0
370
    -2
100
AcDbLine
 10
-0.5
 20
0.5
 30
0.0
 11
-0.5
 21
-0.5
 31
0.0
  0
LINE
  5
2F
330
29
100
AcDbEntity
  8
0
  6
BYBLOCK
 62
     0
370
    -2
100
AcDbLine
 10
-0.5
 20
0.0
 30
0.0
 11
-1.0
 21
0.0
 31
0.0
  0
ENDBLK
  5
30
330
29
100
AcDbEntity
  8
0
100
AcDbBlockEnd
  0
BLOCK
  5
32
330
31
100
AcDbEntity
  8
0
100
AcDbBlockBegin
  2
_OBLIQUE
 70
     0
 10
0.0
 20
0.0
 30
0.0
  3
_OBLIQUE
  1

  0
LINE
  5
33
330
31
100
AcDbEntity
  8
0
  6
BYBLOCK
 62
     0
370
    -2
100
AcDbLine
 10
-0.5
 20
-0.5
 30
0.0
 11
0.5
 21
0.5
 31
0.0
  0
ENDBLK
  5
34
330
31
100
AcDbEntity
  8
0
100
AcDbBlockEnd
  0
BLOCK
  5
36
330
35
100
AcDbEntity
  8
0
100
AcDbBlockBegin
  2
_OPEN90
 70
     0
 10
0.0
 20
0.0
 30
0.0
  3
_OPEN90
  1

  0
LINE
  5
37
330
35
100
AcDbEntity
  8
0
  6
BYBLOCK
 62
     0
370
    -2
100
AcDbLine
 10
-0.5
 20
0.5
 30
0.0
 11
0.0
 21
0.0
 31
0.0
  0
LINE
  5
38
330
35
100
AcDbEntity
  8
0
  6
BYBLOCK
 62
     0
370
    -2
100
AcDbLine
 10
0.0
 20
0.0
 30
0.0
 11
-0.5
 21
-0.5
 31
0.0
  0
LINE
  5
39
330
35
100
AcDbEntity
  8
0
  6
BYBLOCK
 62
     0
370
    -2
100
AcDbLine
 10
0.0
 20
0.0
 30
0.0
 11
-1.0
 21
0.0
 31
0.0
  0
ENDBLK
  5
3A
330
35
100
AcDbEntity
  8
0
100
AcDbBlockEnd
  0
BLOCK
  5
3C
330
3B
100
AcDbEntity
  8
0
100
AcDbBlockBegin
  2
_CLOSEDBLANK
 70
     0
 10
0.0
 20
0.0
 30
0.0
  3
_CLOSEDBLANK
  1

  0
LINE
  5
3D
330
3B
100
AcDbEntity
  8
0
  6
BYBLOCK
 62
     0
370
    -2
100
AcDbLine
 10
-1.0
 20
0.1666666666666666
 30
0.0
 11
0.0
 21
0.0
 31
0.0
  0
LINE
  5
3E
330
3B
100
AcDbEntity
  8
0
  6
BYBLOCK
 62
     0
370
    -2
100
AcDbLine
 10
0.0
 20
0.0
 30
0.0
 11
-1.0
 21
-0.1666666666666666
 31
0.0
  0
LINE
  5
3F
330
3B
100
AcDbEntity
  8
0
  6
BYBLOCK
 62
     0
370
    -2
100
AcDbLine
 10
-1.0
 20
0.1666666666666666
 30
0.0
 11
-1.0
 21
-0.1666666666666666
 31
0.0
  0
ENDBLK
  5
40
330
3B
100
AcDbEntity
  8
0
100
AcDbBlockEnd
  0
BLOCK
  5
42
330
41
100
AcDbEntity
  8
0
100
AcDbBlockBegin
  2
_DOTBLANK
 70
     0
 10
0.0
 20
0.0
 30
0.0
  3
_DOTBLANK
  1

  0
CIRCLE
  5
43
330
41
100
AcDbEntity
  8
0
  6
BYBLOCK
 62
     0
370
    -2
100
AcDbCircle
 10
0.0
 20
0.0
 30
0.0
 40
0.5
  0
LINE
  5
44
330
41
100
AcDbEntity
  8
0
  6
BYBLOCK
 62
     0
370
    -2
100
AcDbLine
 10
-0.5
 20
0.0
 30
0.0
 11
-1.0
 21
0.0
 31
0.0
  0
ENDBLK
  5
45
330
41
100
AcDbEntity
  8
0
100
AcDbBlockEnd
  0
ENDSEC
  0
SECTION
  2
ENTITIES
  0
MTEXT
  5
46
100
AcDbEntity
  8
A8
  6
CONTINUOUS
 62
3
100
AcDbMText
 10
9.999997526638502
 20
18.00000076076889
 30
0.000000000000000
 40
3.000000000000000
 41
0.000000000000000
 44
0.6739999771118164
 71
     7
 72
     1
  1
{\H0.93x;{TYPE No.377-22}}
 11
1.000000000000000
 21
0.000000000000000
 31
0.000000000000000
  7
STANDARD
  0
POINT
  5
47
100
AcDbEntity
  8
A0
  6
CONTINUOUS
 62
3
100
AcDbPoint
 10
9.999997526638502
 20
18.00000076076889
 30
0.000000000000000
  0
POINT
  5
48
100
AcDbEntity
  8
A10
  6
CONTINUOUS
 62
3
100
AcDbPoint
 10
50.00000000000000
 20
50.00000000000000
 30
0.000000000000000
  0
LINE
  5
49
100
AcDbEntity
  8
A1
  6
CONTINUOUS
 62
7
100
AcDbLine
 10
633.3999999999843
 20
96.39999999999988
 30
0.000000000000000
 11
635.8999999999779
 21
96.40000000000218
 31
0.000000000000000
  0
LINE
  5
4A
100
AcDbEntity
  8
A1
  6
CONTINUOUS
 62
7
100
AcDbLine
 10
633.3999999999838
 20
96.39999999999974
 30
0.000000000000000
 11
633.4000000000058
 21
73.39999999999880
 31
0.000000000000000
  0
LINE
  5
4B
100
AcDbEntity
  8
A1
  6
CONTINUOUS
 62
7
100
AcDbLine
 10
635.8999999999843
 20
96.40000000000254
 30
0.000000000000000
 11
635.8999999999953
 21
73.40000000000165
 31
0.000000000000000
  0
LINE
  5
4C
100
AcDbEntity
  8
A1
  6
CONTINUOUS
 62
7
100
AcDbLine
 10
629.0999999999835
 20
94.39999999999610
 30
0.000000000000000
 11
629.0999999999946
 21
75.39999999999613
 31
0.000000000000000
  0
ARC
  5
4D
100
AcDbEntity
  8
A1
  6
CONTINUOUS
 62
7
100
AcDbCircle
 10
631.0999999999831
 20
94.39999999999802
 30
0.000000000000000
 40
2.000000000000000
100
AcDbArc
 50
90.00000000005539
 51
180.0000000000521
  0
ARC
  5
4E
100
AcDbEntity
  8
A1
  6
CONTINUOUS
 62
7
100
AcDbCircle
 10
631.0999999999945
 20
75.39999999999802
 30
0.000000000000000
 40
2.000000000000000
100
AcDbArc
 50
180.0000000000521
 51
270.0000000000554
  0
LINE
  5
4F
100
AcDbEntity
  8
A1
  6
CONTINUOUS
 62
7
100
AcDbLine
 10
633.4000000000063
 20
73.39999999999900
 30
0.000000000000000
 11
635.8999999999954
 21
73.40000000000130
 31
0.000000000000000
  0
LINE
  5
50
100
AcDbEntity
  8
A1
  6
CONTINUOUS
 62
7
100
AcDbLine
 10
631.0999999999816
 20
96.39999999999776
 30
0.000000000000000
 11
633.3999999999845
 21
96.40000000000006
 31
0.000000000000000
  0
LINE
  5
51
100
AcDbEntity
  8
A1
  6
CONTINUOUS
 62
7
100
AcDbLine
 10
631.0999999999960
 20
73.39999999999773
 30
0.000000000000000
 11
633.4000000000067
 21
73.40000000000003
 31
0.000000000000000
  0
LINE
  5
52
100
AcDbEntity
  8
A1
  6
CONTINUOUS
 62
7
100
AcDbLine
 10
670.6999999999891
 20
103.7000000000023
 30
0.000000000000000
 11
119.7999999999828
 21
103.7000000000014
 31
0.000000000000000
  0
LINE
  5
53
100
AcDbEntity
  8
A3
  6
DASHED
 62
2
100
AcDbLine
 10
670.6999999999888
 20
100.0000000000007
 30
0.000000000000000
 11
119.9963014667736
 21
100.0000000000016
 31
0.000000000000000
  0
CIRCLE
  5
54
100
AcDbEntity
  8
A1
  6
CONTINUOUS
 62
7
100
AcDbCircle
 10
151.5999999999817
 20
84.90000000000165
 30
0.000000000000000
 40
2.600000000000000
  0
CIRCLE
  5
55
100
AcDbEntity
  8
A1
  6
CONTINUOUS
 62
7
100
AcDbCircle
 10
170.6999999999820
 20
84.90000000000165
 30
0.000000000000000
 40
3.299999999999999
  0
CIRCLE
  5
56
100
AcDbEntity
  8
A1
  6
CONTINUOUS
 62
7
100
AcDbCircle
 10
215.0999999999844
 20
84.90000000000165
 30
0.000000000000000
 40
3.299999999999999
  0
CIRCLE
  5
57
100
AcDbEntity
  8
A1
  6
CONTINUOUS
 62
7
100
AcDbCircle
 10
202.3999999999800
 20
84.90000000000165
 30
0.000000000000000
 40
2.600000000000000
  0
CIRCLE
  5
58
100
AcDbEntity
  8
A1
  6
CONTINUOUS
 62
7
100
AcDbCircle
 10
342.0999999999826
 20
84.90000000000165
 30
0.000000000000000
 40
3.299999999999999
  0
CIRCLE
  5
59
100
AcDbEntity
  8
A1
  6
CONTINUOUS
 62
7
100
AcDbCircle
 10
329.3999999999837
 20
84.90000000000165
 30
0.000000000000000
 40
2.600000000000000
  0
CIRCLE
  5
5A
100
AcDbEntity
  8
A1
  6
CONTINUOUS
 62
7
100
AcDbCircle
 10
189.6999999999820
 20
84.90000000000165
 30
0.000000000000000
 40
3.299999999999999
  0
CIRCLE
  5
5B
100
AcDbEntity
  8
A1
  6
CONTINUOUS
 62
7
100
AcDbCircle
 10
278.5999999999826
 20
84.90000000000165
 30
0.000000000000000
 40
3.299999999999999
  0
CIRCLE
  5
5C
100
AcDbEntity
  8
A1
  6
CONTINUOUS
 62
7
100
AcDbCircle
 10
265.8999999999837
 20
84.90000000000165
 30
0.000000000000000
 40
2.600000000000000
  0
CIRCLE
  5
5D
100
AcDbEntity
  8
A1
  6
CONTINUOUS
 62
7
100
AcDbCircle
 10
361.1999999999820
 20
84.90000000000165
 30
0.000000000000000
 40
3.550000000000000
  0
LINE
  5
5E
100
AcDbEntity
  8
A1
  6
CONTINUOUS
 62
7
100
AcDbLine
 10
119.7999999999891
 20
96.40000000000138
 30
0.000000000000000
 11
122.2999999999832
 21
96.40000000000366
 31
0.000000000000000
  0
ARC
  5
5F
100
AcDbEntity
  8
A1
  6
CONTINUOUS
 62
7
100
AcDbCircle
 10
121.7999999999888
 20
97.40000000000347
 30
0.000000000000000
 40
1.000000000000000
100
AcDbArc
 50
270.0000000000521
 51
420.0000000000475
  0
LINE
  5
60
100
AcDbEntity
  8
A1
  6
CONTINUOUS
 62
7
100
AcDbLine
 10
120.7999999999872
 20
99.13205080757341
 30
0.000000000000000
 11
122.2999999999878
 21
98.26602540378968
 31
0.000000000000000
  0
LINE
  5
61
100
AcDbEntity
  8
A1
  6
CONTINUOUS
 62
7
100
AcDbLine
 10
119.7999999999827
 20
103.7000000000017
 30
0.000000000000000
 11
119.7999999999853
 21
100.8641016151388
 31
0.000000000000000
  0
ARC
  5
62
100
AcDbEntity
  8
A1
  6
CONTINUOUS
 62
7
100
AcDbCircle
 10
121.7999999999851
 20
100.8641016151425
 30
0.000000000000000
 40
2.000000000000000
100
AcDbArc
 50
180.0000000000554
 51
240.0000000000566
  0
LINE
  5
63
100
AcDbEntity
  8
A1
  6
CONTINUOUS
 62
7
100
AcDbLine
 10
119.7999999999892
 20
96.40000000000261
 30
0.000000000000000
 11
119.8000000000110
 21
73.40000000000076
 31
0.000000000000000
  0
LINE
  5
64
100
AcDbEntity
  8
A1
  6
CONTINUOUS
 62
7
100
AcDbLine
 10
122.2999999999894
 20
96.40000000000396
 30
0.000000000000000
 11
122.3000000000003
 21
73.40000000000308
 31
0.000000000000000
  0
LINE
  5
65
100
AcDbEntity
  8
A1
  6
CONTINUOUS
 62
7
100
AcDbLine
 10
119.8000000000109
 20
73.40000000000138
 30
0.000000000000000
 11
122.3000000000000
 21
73.40000000000366
 31
0.000000000000000
  0
ARC
  5
66
100
AcDbEntity
  8
A1
  6
CONTINUOUS
 62
7
100
AcDbCircle
 10
121.8000000000124
 20
72.40000000000347
 30
0.000000000000000
 40
1.000000000000000
100
AcDbArc
 50
300.0000000000687
 51
450.0000000000521
  0
LINE
  5
67
100
AcDbEntity
  8
A1
  6
CONTINUOUS
 62
7
100
AcDbLine
 10
120.8000000000151
 20
70.66794919243262
 30
0.000000000000000
 11
122.3000000000142
 21
71.53397459621894
 31
0.000000000000000
  0
LINE
  5
68
100
AcDbEntity
  8
A1
  6
CONTINUOUS
 62
7
100
AcDbLine
 10
119.8000000000183
 20
66.10000000000137
 30
0.000000000000000
 11
119.8000000000157
 21
68.93589838486524
 31
0.000000000000000
  0
ARC
  5
69
100
AcDbEntity
  8
A1
  6
CONTINUOUS
 62
7
100
AcDbCircle
 10
121.8000000000151
 20
68.93589838486625
 30
0.000000000000000
 40
2.000000000000000
100
AcDbArc
 50
120.0000000000517
 51
180.0000000000554
  0
LINE
  5
6A
100
AcDbEntity
  8
A1
  6
CONTINUOUS
 62
7
100
AcDbLine
 10
670.6999999999890
 20
66.10000000000099
 30
0.000000000000000
 11
119.7999999999833
 21
66.10000000000190
 31
0.000000000000000
  0
LINE
  5
6B
100
AcDbEntity
  8
A3
  6
DASHED
 62
2
100
AcDbLine
 10
670.6999999999890
 20
69.80000000000268
 30
0.000000000000000
 11
119.9963014668010
 21
69.80000000000177
 31
0.000000000000000
  0
LINE
  5
6C
100
AcDbEntity
  8
A4
  6
CENTER
 62
1
100
AcDbLine
 10
151.5999999999817
 20
92.00000000000202
 30
0.000000000000000
 11
151.5999999999817
 21
77.80000000000129
 31
0.000000000000000
  0
LINE
  5
6D
100
AcDbEntity
  8
A4
  6
CENTER
 62
1
100
AcDbLine
 10
170.6999999999820
 20
92.70000000000093
 30
0.000000000000000
 11
170.6999999999820
 21
77.10000000000147
 31
0.000000000000000
  0
LINE
  5
6E
100
AcDbEntity
  8
A4
  6
CENTER
 62
1
100
AcDbLine
 10
189.6999999999820
 20
92.70000000000093
 30
0.000000000000000
 11
189.6999999999820
 21
77.10000000000147
 31
0.000000000000000
  0
LINE
  5
6F
100
AcDbEntity
  8
A4
  6
CENTER
 62
1
100
AcDbLine
 10
202.3999999999800
 20
92.00000000000202
 30
0.000000000000000
 11
202.3999999999800
 21
77.80000000000129
 31
0.000000000000000
  0
LINE
  5
70
100
AcDbEntity
  8
A4
  6
CENTER
 62
1
100
AcDbLine
 10
215.0999999999844
 20
92.70000000000093
 30
0.000000000000000
 11
215.0999999999844
 21
77.10000000000147
 31
0.000000000000000
  0
LINE
  5
71
100
AcDbEntity
  8
A4
  6
CENTER
 62
1
100
AcDbLine
 10
265.8999999999837
 20
92.00000000000202
 30
0.000000000000000
 11
265.8999999999837
 21
77.80000000000129
 31
0.000000000000000
  0
LINE
  5
72
100
AcDbEntity
  8
A4
  6
CENTER
 62
1
100
AcDbLine
 10
278.5999999999826
 20
92.70000000000093
 30
0.000000000000000
 11
278.5999999999826
 21
77.10000000000147
 31
0.000000000000000
  0
LINE
  5
73
100
AcDbEntity
  8
A4
  6
CENTER
 62
1
100
AcDbLine
 10
329.3999999999837
 20
92.00000000000202
 30
0.000000000000000
 11
329.3999999999837
 21
77.80000000000129
 31
0.000000000000000
  0
LINE
  5
74
100
AcDbEntity
  8
A4
  6
CENTER
 62
1
100
AcDbLine
 10
342.0999999999826
 20
92.70000000000093
 30
0.000000000000000
 11
342.0999999999826
 21
77.10000000000147
 31
0.000000000000000
  0
LINE
  5
75
100
AcDbEntity
  8
A4
  6
CENTER
 62
1
100
AcDbLine
 10
361.1999999999820
 20
92.95000000000184
 30
0.000000000000000
 11
361.1999999999820
 21
76.85000000000238
 31
0.000000000000000
  0
LINE
  5
76
100
AcDbEntity
  8
A1
  6
CONTINUOUS
 62
7
100
AcDbLine
 10
503.9500000000019
 20
81.60000000000238
 30
0.000000000000000
 11
494.6499999999917
 21
81.60000000000238
 31
0.000000000000000
  0
ARC
  5
77
100
AcDbEntity
  8
A1
  6
CONTINUOUS
 62
7
100
AcDbCircle
 10
503.9500000000019
 20
84.90000000000165
 30
0.000000000000000
 40
3.299999999999999
100
AcDbArc
 50
270.0000000000000
 51
450.0000000000000
  0
ARC
  5
78
100
AcDbEntity
  8
A1
  6
CONTINUOUS
 62
7
100
AcDbCircle
 10
494.6499999999917
 20
84.90000000000165
 30
0.000000000000000
 40
3.299999999999999
100
AcDbArc
 50
90.00000000000000
 51
270.0000000000000
  0
LINE
  5
79
100
AcDbEntity
  8
A1
  6
CONTINUOUS
 62
7
100
AcDbLine
 10
503.9500000000019
 20
88.20000000000093
 30
0.000000000000000
 11
494.6499999999917
 21
88.20000000000093
 31
0.000000000000000
  0
CIRCLE
  5
7A
100
AcDbEntity
  8
A1
  6
CONTINUOUS
 62
7
100
AcDbCircle
 10
481.7999999999932
 20
84.90000000000165
 30
0.000000000000000
 40
3.550000000000000
  0
LINE
  5
7B
100
AcDbEntity
  8
A4
  6
CENTER
 62
1
100
AcDbLine
 10
481.7999999999932
 20
92.95000000000093
 30
0.000000000000000
 11
481.7999999999932
 21
76.85000000000147
 31
0.000000000000000
  0
LINE
  5
7C
100
AcDbEntity
  8
A4
  6
CENTER
 62
1
100
AcDbLine
 10
499.2999999999932
 20
92.70000000000093
 30
0.000000000000000
 11
499.2999999999932
 21
77.10000000000238
 31
0.000000000000000
  0
CIRCLE
  5
7D
100
AcDbEntity
  8
A1
  6
CONTINUOUS
 62
7
100
AcDbCircle
 10
559.4999999999879
 20
84.90000000000165
 30
0.000000000000000
 40
3.299999999999999
  0
CIRCLE
  5
7E
100
AcDbEntity
  8
A1
  6
CONTINUOUS
 62
7
100
AcDbCircle
 10
572.1999999999887
 20
84.90000000000165
 30
0.000000000000000
 40
2.600000000000000
  0
LINE
  5
7F
100
AcDbEntity
  8
A1
  6
CONTINUOUS
 62
7
100
AcDbLine
 10
587.0499999999893
 20
82.30000000000129
 30
0.000000000000000
 11
582.7499999999989
 21
82.30000000000129
 31
0.000000000000000
  0
ARC
  5
80
100
AcDbEntity
  8
A1
  6
CONTINUOUS
 62
7
100
AcDbCircle
 10
587.0499999999893
 20
84.90000000000165
 30
0.000000000000000
 40
2.600000000000000
100
AcDbArc
 50
270.0000000000000
 51
450.0000000000000
  0
ARC
  5
81
100
AcDbEntity
  8
A1
  6
CONTINUOUS
 62
7
100
AcDbCircle
 10
582.7499999999989
 20
84.90000000000165
 30
0.000000000000000
 40
2.600000000000000
100
AcDbArc
 50
90.00000000000000
 51
270.0000000000000
  0
LINE
  5
82
100
AcDbEntity
  8
A1
  6
CONTINUOUS
 62
7
100
AcDbLine
 10
587.0499999999893
 20
87.50000000000202
 30
0.000000000000000
 11
582.7499999999989
 21
87.50000000000202
 31
0.000000000000000
  0
LINE
  5
83
100
AcDbEntity
  8
A4
  6
CENTER
 62
1
100
AcDbLine
 10
559.4999999999879
 20
92.70000000000093
 30
0.000000000000000
 11
559.4999999999879
 21
77.10000000000147
 31
0.000000000000000
  0
LINE
  5
84
100
AcDbEntity
  8
A4
  6
CENTER
 62
1
100
AcDbLine
 10
572.1999999999887
 20
92.00000000000202
 30
0.000000000000000
 11
572.1999999999887
 21
77.80000000000129
 31
0.000000000000000
  0
LINE
  5
85
100
AcDbEntity
  8
A4
  6
CENTER
 62
1
100
AcDbLine
 10
584.8999999999876
 20
92.00000000000202
 30
0.000000000000000
 11
584.8999999999876
 21
77.80000000000129
 31
0.000000000000000
  0
LINE
  5
86
100
AcDbEntity
  8
A1
  6
CONTINUOUS
 62
7
100
AcDbLine
 10
670.6999999999889
 20
103.7000000000027
 30
0.000000000000000
 11
670.6999999999889
 21
66.10000000000056
 31
0.000000000000000
  0
LINE
  5
87
100
AcDbEntity
  8
A1
  6
CONTINUOUS
 62
7
100
AcDbLine
 10
969.0999999999831
 20
111.3500000000015
 30
0.000000000000000
 11
421.6999999999832
 21
111.3500000000015
 31
0.000000000000000
  0
LINE
  5
88
100
AcDbEntity
  8
A1
  6
CONTINUOUS
 62
7
100
AcDbLine
 10
969.0999999999829
 20
107.6858452961218
 30
0.000000000000000
 11
421.6999999999830
 21
107.6858452961215
 31
0.000000000000000
  0
LINE
  5
89
100
AcDbEntity
  8
A1
  6
CONTINUOUS
 62
7
100
AcDbLine
 10
969.0999999999829
 20
62.11415470388167
 30
0.000000000000000
 11
421.6999999999830
 21
62.11415470388167
 31
0.000000000000000
  0
LINE
  5
8A
100
AcDbEntity
  8
A1
  6
CONTINUOUS
 62
7
100
AcDbLine
 10
969.0999999999831
 20
58.45000000000176
 30
0.000000000000000
 11
421.6999999999831
 21
58.45000000000159
 31
0.000000000000000
  0
LINE
  5
8B
100
AcDbEntity
  8
A1
  6
CONTINUOUS
 62
7
100
AcDbLine
 10
670.6999999999890
 20
98.60768479867743
 30
0.000000000000000
 11
924.0999999999830
 21
98.60768479867777
 31
0.000000000000000
  0
LINE
  5
8C
100
AcDbEntity
  8
A1
  6
CONTINUOUS
 62
7
100
AcDbLine
 10
924.0999999999831
 20
95.77971188717149
 30
0.000000000000000
 11
670.6999999999889
 21
95.77971188717149
 31
0.000000000000000
  0
LINE
  5
8D
100
AcDbEntity
  8
A1
  6
CONTINUOUS
 62
7
100
AcDbLine
 10
924.0999999999832
 20
74.02028811283300
 30
0.000000000000000
 11
670.6999999999890
 21
74.02028811283334
 31
0.000000000000000
  0
LINE
  5
8E
100
AcDbEntity
  8
A1
  6
CONTINUOUS
 62
7
100
AcDbLine
 10
670.6999999999890
 20
71.19231520132679
 30
0.000000000000000
 11
924.0999999999832
 21
71.19231520132645
 31
0.000000000000000
  0
LINE
  5
8F
100
AcDbEntity
  8
A1
  6
CONTINUOUS
 62
7
100
AcDbLine
 10
924.0999999999831
 20
104.9000000000026
 30
0.000000000000000
 11
934.0999999999831
 21
104.9000000000026
 31
0.000000000000000
  0
LINE
  5
90
100
AcDbEntity
  8
A1
  6
CONTINUOUS
 62
7
100
AcDbLine
 10
934.0999999999831
 20
104.9000000000026
 30
0.000000000000000
 11
934.0999999999831
 21
64.90000000000256
 31
0.000000000000000
  0
LINE
  5
91
100
AcDbEntity
  8
A1
  6
CONTINUOUS
 62
7
100
AcDbLine
 10
924.0999999999831
 20
104.9000000000026
 30
0.000000000000000
 11
924.0999999999831
 21
64.90000000000256
 31
0.000000000000000
  0
LINE
  5
92
100
AcDbEntity
  8
A1
  6
CONTINUOUS
 62
7
100
AcDbLine
 10
924.0999999999831
 20
92.59059892324260
 30
0.000000000000000
 11
934.0999999999831
 21
92.59059892324260
 31
0.000000000000000
  0
LINE
  5
93
100
AcDbEntity
  8
A1
  6
CONTINUOUS
 62
7
100
AcDbLine
 10
924.0999999999831
 20
77.20940107675889
 30
0.000000000000000
 11
934.0999999999831
 21
77.20940107675889
 31
0.000000000000000
  0
LINE
  5
94
100
AcDbEntity
  8
A1
  6
CONTINUOUS
 62
7
100
AcDbLine
 10
924.0999999999831
 20
64.90000000000256
 30
0.000000000000000
 11
934.0999999999831
 21
64.90000000000256
 31
0.000000000000000
  0
LINE
  5
95
100
AcDbEntity
  8
A1
  6
CONTINUOUS
 62
7
100
AcDbLine
 10
956.5999999999837
 20
91.40000000000373
 30
0.000000000000000
 11
954.0999999999837
 21
91.40000000000066
 31
0.000000000000000
  0
LINE
  5
96
100
AcDbEntity
  8
A1
  6
CONTINUOUS
 62
7
100
AcDbLine
 10
956.5999999999831
 20
78.40000000000256
 30
0.000000000000000
 11
954.0999999999831
 21
78.40000000000256
 31
0.000000000000000
  0
LINE
  5
97
100
AcDbEntity
  8
A1
  6
CONTINUOUS
 62
7
100
AcDbLine
 10
954.0999999999831
 20
91.40000000000256
 30
0.000000000000000
 11
954.0999999999831
 21
78.40000000000256
 31
0.000000000000000
  0
LINE
  5
98
100
AcDbEntity
  8
A1
  6
CONTINUOUS
 62
7
100
AcDbLine
 10
956.5999999999831
 20
91.40000000000438
 30
0.000000000000000
 11
956.5999999999831
 21
78.40000000000256
 31
0.000000000000000
  0
LINE
  5
99
100
AcDbEntity
  8
A1
  6
CONTINUOUS
 62
7
100
AcDbLine
 10
955.3499999999831
 20
78.40000000000256
 30
0.000000000000000
 11
955.3499999999831
 21
91.40000000000256
 31
0.000000000000000
  0
ARC
  5
9A
100
AcDbEntity
  8
A1
  6
CONTINUOUS
 62
7
100
AcDbCircle
 10
966.0999999999831
 20
72.40000000000256
 30
0.000000000000000
 40
3.000000000000000
100
AcDbArc
 50
0.000000000000000
 51
5.431764963322844
  0
LINE
  5
9B
100
AcDbEntity
  8
A1
  6
CONTINUOUS
 62
7
100
AcDbLine
 10
969.0999999999831
 20
98.60768479867895
 30
0.000000000000000
 11
945.8792842479425
 21
98.60768479867895
 31
0.000000000000000
  0
LINE
  5
9C
100
AcDbEntity
  8
A1
  6
CONTINUOUS
 62
7
100
AcDbLine
 10
969.0999999999838
 20
71.19231520132564
 30
0.000000000000000
 11
945.8792842479440
 21
71.19231520132587
 31
0.000000000000000
  0
CIRCLE
  5
9D
100
AcDbEntity
  8
A1
  6
CONTINUOUS
 62
7
100
AcDbCircle
 10
944.0999999999831
 20
92.34969443902921
 30
0.000000000000000
 40
2.100000000000000
  0
CIRCLE
  5
9E
100
AcDbEntity
  8
A1
  6
CONTINUOUS
 62
7
100
AcDbCircle
 10
944.0999999999831
 20
77.34969443902830
 30
0.000000000000000
 40
2.100000000000000
  0
ARC
  5
9F
100
AcDbEntity
  8
A1
  6
CONTINUOUS
 62
7
100
AcDbCircle
 10
943.8503846381436
 20
96.39780553198599
 30
0.000000000000000
 40
3.000000000000000
100
AcDbArc
 50
40.95575754733699
 51
120.0000000000000
  0
LINE
  5
A0
100
AcDbEntity
  8
A1
  6
CONTINUOUS
 62
7
100
AcDbLine
 10
939.2051812316681
 20
97.17999770995453
 30
0.000000000000000
 11
942.3503846381444
 21
98.99588174333951
 31
0.000000000000000
  0
LINE
  5
A1
100
AcDbEntity
  8
A1
  6
CONTINUOUS
 62
7
100
AcDbLine
 10
946.8951061268917
 20
97.43576991224899
 30
0.000000000000000
 11
946.1160324836933
 21
98.36423372542600
 31
0.000000000000000
  0
LINE
  5
A2
100
AcDbEntity
  8
A1
  6
CONTINUOUS
 62
7
100
AcDbLine
 10
938.5999999999834
 20
96.52398668713663
 30
0.000000000000000
 11
938.5999999999829
 21
73.27601331286728
 31
0.000000000000000
  0
LINE
  5
A3
100
AcDbEntity
  8
A1
  6
CONTINUOUS
 62
7
100
AcDbLine
 10
956.4499999999834
 20
92.29999999999947
 30
0.000000000000000
 11
954.2499999999827
 21
92.29999999999947
 31
0.000000000000000
  0
LINE
  5
A4
100
AcDbEntity
  8
A1
  6
CONTINUOUS
 62
7
100
AcDbLine
 10
956.6499999999833
 20
92.09999999999965
 30
0.000000000000000
 11
956.6499999999833
 21
87.34948974278561
 31
0.000000000000000
  0
LINE
  5
A5
100
AcDbEntity
  8
A1
  6
CONTINUOUS
 62
7
100
AcDbLine
 10
954.0499999999838
 20
92.09999999999965
 30
0.000000000000000
 11
954.0499999999838
 21
87.34948974278561
 31
0.000000000000000
  0
ARC
  5
A6
100
AcDbEntity
  8
A1
  6
CONTINUOUS
 62
7
100
AcDbCircle
 10
956.4499999999834
 20
92.09999999999965
 30
0.000000000000000
 40
0.2000000000000000
100
AcDbArc
 50
0.000000000000000
 51
90.00000000000000
  0
ARC
  5
A7
100
AcDbEntity
  8
A1
  6
CONTINUOUS
 62
7
100
AcDbCircle
 10
954.2499999999827
 20
92.09999999999965
 30
0.000000000000000
 40
0.2000000000000000
100
AcDbArc
 50
90.00000000000000
 51
180.0000000000000
  0
LINE
  5
A8
100
AcDbEntity
  8
A1
  6
CONTINUOUS
 62
7
100
AcDbLine
 10
951.0999999999831
 20
94.80000000000220
 30
0.000000000000000
 11
951.0999999999831
 21
96.59999999999874
 31
0.000000000000000
  0
LINE
  5
A9
100
AcDbEntity
  8
A1
  6
CONTINUOUS
 62
7
100
AcDbLine
 10
972.0999999999832
 20
76.15000000000607
 30
0.000000000000000
 11
972.0999999999827
 21
93.64999999999880
 31
0.000000000000000
  0
LINE
  5
AA
100
AcDbEntity
  8
A1
  6
CONTINUOUS
 62
7
100
AcDbLine
 10
969.0999999999831
 20
93.64999999999893
 30
0.000000000000000
 11
969.0999999999831
 21
76.15000000000620
 31
0.000000000000000
  0
ARC
  5
AB
100
AcDbEntity
  8
A1
  6
CONTINUOUS
 62
7
100
AcDbCircle
 10
955.3499999999831
 20
84.90000000000074
 30
0.000000000000000
 40
5.500000000000000
100
AcDbArc
 50
323.1301023541835
 51
396.8698976458443
  0
LINE
  5
AC
100
AcDbEntity
  8
A1
  6
CONTINUOUS
 62
7
100
AcDbLine
 10
959.0999999999831
 20
94.30000000000220
 30
0.000000000000000
 11
951.5999999999831
 21
94.30000000000220
 31
0.000000000000000
  0
LINE
  5
AD
100
AcDbEntity
  8
A1
  6
CONTINUOUS
 62
7
100
AcDbLine
 10
950.8499999999831
 20
87.59999999999874
 30
0.000000000000000
 11
950.8499999999831
 21
82.20000000000638
 31
0.000000000000000
  0
LINE
  5
AE
100
AcDbEntity
  8
A1
  6
CONTINUOUS
 62
7
100
AcDbLine
 10
959.5999999999831
 20
96.59999999999874
 30
0.000000000000000
 11
959.5999999999831
 21
94.80000000000220
 31
0.000000000000000
  0
ARC
  5
AF
100
AcDbEntity
  8
A1
  6
CONTINUOUS
 62
7
100
AcDbCircle
 10
955.3499999999831
 20
84.90000000000256
 30
0.000000000000000
 40
2.500000000000000
100
AcDbArc
 50
127.7997224354281
 51
232.2002775645719
  0
ARC
  5
B0
100
AcDbEntity
  8
A1
  6
CONTINUOUS
 62
7
100
AcDbCircle
 10
955.3499999999831
 20
84.90000000000256
 30
0.000000000000000
 40
2.500000000000000
100
AcDbArc
 50
307.7997224354277
 51
412.2002775645719
  0
ARC
  5
B1
100
AcDbEntity
  8
A1
  6
CONTINUOUS
 62
7
100
AcDbCircle
 10
951.5999999999831
 20
94.80000000000220
 30
0.000000000000000
 40
0.5000000000000000
100
AcDbArc
 50
180.0000000000000
 51
270.0000000000000
  0
ARC
  5
B2
100
AcDbEntity
  8
A1
  6
CONTINUOUS
 62
7
100
AcDbCircle
 10
959.0999999999831
 20
94.80000000000220
 30
0.000000000000000
 40
0.5000000000000000
100
AcDbArc
 50
270.0000000000000
 51
360.0000000000000
  0
ARC
  5
B3
100
AcDbEntity
  8
A1
  6
CONTINUOUS
 62
7
100
AcDbCircle
 10
953.4499999999834
 20
87.34948974278561
 30
0.000000000000000
 40
0.6000000000000000
100
AcDbArc
 50
307.7997224354273
 51
360.0000000000000
  0
ARC
  5
B4
100
AcDbEntity
  8
A1
  6
CONTINUOUS
 62
7
100
AcDbCircle
 10
957.2499999999827
 20
87.34948974278561
 30
0.000000000000000
 40
0.6000000000000000
100
AcDbArc
 50
180.0000000000000
 51
232.2002775645709
  0
ARC
  5
B5
100
AcDbEntity
  8
A1
  6
CONTINUOUS
 62
7
100
AcDbCircle
 10
959.0999999999831
 20
94.80000000000220
 30
0.000000000000000
 40
3.500000000000000
100
AcDbArc
 50
285.2184551577777
 51
343.2916562842898
  0
LINE
  5
B6
100
AcDbEntity
  8
A1
  6
CONTINUOUS
 62
7
100
AcDbLine
 10
959.6499999999833
 20
90.94027203031348
 30
0.000000000000000
 11
959.6499999999833
 21
88.50000000000020
 31
0.000000000000000
  0
ARC
  5
B7
100
AcDbEntity
  8
A1
  6
CONTINUOUS
 62
7
100
AcDbCircle
 10
960.1499999999833
 20
90.94027203031348
 30
0.000000000000000
 40
0.5000000000000000
100
AcDbArc
 50
105.2184551577803
 51
180.0000000000000
  0
LINE
  5
B8
100
AcDbEntity
  8
A1
  6
CONTINUOUS
 62
7
100
AcDbLine
 10
968.5999999999831
 20
94.14999999999893
 30
0.000000000000000
 11
962.9311225508800
 21
94.14999999999893
 31
0.000000000000000
  0
ARC
  5
B9
100
AcDbEntity
  8
A1
  6
CONTINUOUS
 62
7
100
AcDbCircle
 10
968.5999999999831
 20
93.64999999999893
 30
0.000000000000000
 40
0.5000000000000000
100
AcDbArc
 50
0.000000000000000
 51
90.00000000000000
  0
ARC
  5
BA
100
AcDbEntity
  8
A1
  6
CONTINUOUS
 62
7
100
AcDbCircle
 10
968.5999999999831
 20
93.64999999999893
 30
0.000000000000000
 40
3.500000000000000
100
AcDbArc
 50
4.653000000000000e-13
 51
90.00000000000000
  0
ARC
  5
BB
100
AcDbEntity
  8
A1
  6
CONTINUOUS
 62
7
100
AcDbCircle
 10
962.9311225508800
 20
93.64999999999893
 30
0.000000000000000
 40
0.5000000000000000
100
AcDbArc
 50
90.00000000000652
 51
163.2916562842906
  0
LINE
  5
BC
100
AcDbEntity
  8
A1
  6
CONTINUOUS
 62
7
100
AcDbLine
 10
947.5079416813869
 20
97.14999999999893
 30
0.000000000000000
 11
950.5499999999829
 21
97.14999999999893
 31
0.000000000000000
  0
LINE
  5
BD
100
AcDbEntity
  8
A1
  6
CONTINUOUS
 62
7
100
AcDbLine
 10
960.1499999999833
 20
97.14999999999893
 30
0.000000000000000
 11
968.5999999999831
 21
97.14999999999893
 31
0.000000000000000
  0
ARC
  5
BE
100
AcDbEntity
  8
A1
  6
CONTINUOUS
 62
7
100
AcDbCircle
 10
960.1499999999833
 20
88.50000000000020
 30
0.000000000000000
 40
0.5000000000000000
100
AcDbArc
 50
180.0000000000000
 51
216.8698976458401
  0
LINE
  5
BF
100
AcDbEntity
  8
A1
  6
CONTINUOUS
 62
7
100
AcDbLine
 10
956.4499999999834
 20
77.50000000000475
 30
0.000000000000000
 11
954.2499999999827
 21
77.50000000000475
 31
0.000000000000000
  0
LINE
  5
C0
100
AcDbEntity
  8
A1
  6
CONTINUOUS
 62
7
100
AcDbLine
 10
956.6499999999833
 20
77.70000000000456
 30
0.000000000000000
 11
956.6499999999833
 21
82.45051025721952
 31
0.000000000000000
  0
LINE
  5
C1
100
AcDbEntity
  8
A1
  6
CONTINUOUS
 62
7
100
AcDbLine
 10
954.0499999999838
 20
77.70000000000547
 30
0.000000000000000
 11
954.0499999999838
 21
82.45051025721952
 31
0.000000000000000
  0
ARC
  5
C2
100
AcDbEntity
  8
A1
  6
CONTINUOUS
 62
7
100
AcDbCircle
 10
956.4499999999834
 20
77.70000000000456
 30
0.000000000000000
 40
0.2000000000000000
100
AcDbArc
 50
270.0000000000000
 51
360.0000000000000
  0
ARC
  5
C3
100
AcDbEntity
  8
A1
  6
CONTINUOUS
 62
7
100
AcDbCircle
 10
954.2499999999827
 20
77.70000000000547
 30
0.000000000000000
 40
0.2000000000000000
100
AcDbArc
 50
180.0000000000000
 51
270.0000000000000
  0
LINE
  5
C4
100
AcDbEntity
  8
A1
  6
CONTINUOUS
 62
7
100
AcDbLine
 10
951.0999999999831
 20
75.00000000000202
 30
0.000000000000000
 11
951.0999999999831
 21
73.20000000000638
 31
0.000000000000000
  0
LINE
  5
C5
100
AcDbEntity
  8
A1
  6
CONTINUOUS
 62
7
100
AcDbLine
 10
959.0999999999831
 20
75.50000000000202
 30
0.000000000000000
 11
951.5999999999831
 21
75.50000000000202
 31
0.000000000000000
  0
LINE
  5
C6
100
AcDbEntity
  8
A1
  6
CONTINUOUS
 62
7
100
AcDbLine
 10
959.5999999999831
 20
73.20000000000547
 30
0.000000000000000
 11
959.5999999999831
 21
75.00000000000202
 31
0.000000000000000
  0
ARC
  5
C7
100
AcDbEntity
  8
A1
  6
CONTINUOUS
 62
7
100
AcDbCircle
 10
951.5999999999831
 20
75.00000000000202
 30
0.000000000000000
 40
0.5000000000000000
100
AcDbArc
 50
90.00000000000000
 51
180.0000000000000
  0
ARC
  5
C8
100
AcDbEntity
  8
A1
  6
CONTINUOUS
 62
7
100
AcDbCircle
 10
959.0999999999831
 20
75.00000000000202
 30
0.000000000000000
 40
0.5000000000000000
100
AcDbArc
 50
0.000000000000000
 51
90.00000000000000
  0
ARC
  5
C9
100
AcDbEntity
  8
A1
  6
CONTINUOUS
 62
7
100
AcDbCircle
 10
953.4499999999834
 20
82.45051025721952
 30
0.000000000000000
 40
0.6000000000000000
100
AcDbArc
 50
0.000000000000000
 51
52.20027756457263
  0
ARC
  5
CA
100
AcDbEntity
  8
A1
  6
CONTINUOUS
 62
7
100
AcDbCircle
 10
957.2499999999827
 20
82.45051025721952
 30
0.000000000000000
 40
0.6000000000000000
100
AcDbArc
 50
127.7997224354290
 51
180.0000000000000
  0
ARC
  5
CB
100
AcDbEntity
  8
A1
  6
CONTINUOUS
 62
7
100
AcDbCircle
 10
959.0999999999831
 20
75.00000000000202
 30
0.000000000000000
 40
3.500000000000000
100
AcDbArc
 50
16.70834371571017
 51
74.78154484222227
  0
LINE
  5
CC
100
AcDbEntity
  8
A1
  6
CONTINUOUS
 62
7
100
AcDbLine
 10
959.6499999999833
 20
78.85972796969074
 30
0.000000000000000
 11
959.6499999999833
 21
81.30000000000402
 31
0.000000000000000
  0
ARC
  5
CD
100
AcDbEntity
  8
A1
  6
CONTINUOUS
 62
7
100
AcDbCircle
 10
960.1499999999833
 20
78.85972796969074
 30
0.000000000000000
 40
0.5000000000000000
100
AcDbArc
 50
180.0000000000000
 51
254.7815448422206
  0
LINE
  5
CE
100
AcDbEntity
  8
A1
  6
CONTINUOUS
 62
7
100
AcDbLine
 10
968.5999999999831
 20
75.65000000000620
 30
0.000000000000000
 11
962.9311225508800
 21
75.65000000000620
 31
0.000000000000000
  0
ARC
  5
CF
100
AcDbEntity
  8
A1
  6
CONTINUOUS
 62
7
100
AcDbCircle
 10
968.5999999999831
 20
76.15000000000620
 30
0.000000000000000
 40
0.5000000000000000
100
AcDbArc
 50
270.0000000000000
 51
360.0000000000000
  0
ARC
  5
D0
100
AcDbEntity
  8
A1
  6
CONTINUOUS
 62
7
100
AcDbCircle
 10
968.5999999999831
 20
76.15000000000620
 30
0.000000000000000
 40
3.500000000000000
100
AcDbArc
 50
270.0000000000000
 51
359.9999999999996
  0
ARC
  5
D1
100
AcDbEntity
  8
A1
  6
CONTINUOUS
 62
7
100
AcDbCircle
 10
962.9311225508800
 20
76.15000000000620
 30
0.000000000000000
 40
0.5000000000000000
100
AcDbArc
 50
196.7083437157113
 51
269.9999999999935
  0
LINE
  5
D2
100
AcDbEntity
  8
A1
  6
CONTINUOUS
 62
7
100
AcDbLine
 10
960.1499999999833
 20
72.65000000000620
 30
0.000000000000000
 11
968.5999999999831
 21
72.65000000000620
 31
0.000000000000000
  0
ARC
  5
D3
100
AcDbEntity
  8
A1
  6
CONTINUOUS
 62
7
100
AcDbCircle
 10
960.1499999999833
 20
81.30000000000402
 30
0.000000000000000
 40
0.5000000000000000
100
AcDbArc
 50
143.1301023541599
 51
180.0000000000000
  0
LINE
  5
D4
100
AcDbEntity
  8
A1
  6
CONTINUOUS
 62
7
100
AcDbLine
 10
938.5999999999840
 20
93.59999999999874
 30
0.000000000000000
 11
944.8499999999831
 21
93.59999999999874
 31
0.000000000000000
  0
ARC
  5
D5
100
AcDbEntity
  8
A1
  6
CONTINUOUS
 62
7
100
AcDbCircle
 10
944.8499999999831
 20
87.59999999999874
 30
0.000000000000000
 40
6.000000000000000
100
AcDbArc
 50
0.000000000000000
 51
90.00000000000000
  0
LINE
  5
D6
100
AcDbEntity
  8
A1
  6
CONTINUOUS
 62
7
100
AcDbLine
 10
938.5999999999840
 20
76.20000000000638
 30
0.000000000000000
 11
944.8499999999831
 21
76.20000000000638
 31
0.000000000000000
  0
ARC
  5
D7
100
AcDbEntity
  8
A1
  6
CONTINUOUS
 62
7
100
AcDbCircle
 10
944.8499999999831
 20
82.20000000000638
 30
0.000000000000000
 40
6.000000000000000
100
AcDbArc
 50
270.0000000000000
 51
360.0000000000000
  0
LINE
  5
D8
100
AcDbEntity
  8
A1
  6
CONTINUOUS
 62
7
100
AcDbLine
 10
947.5079416813869
 20
72.65000000000620
 30
0.000000000000000
 11
950.5499999999829
 21
72.65000000000620
 31
0.000000000000000
  0
ARC
  5
D9
100
AcDbEntity
  8
A1
  6
CONTINUOUS
 62
7
100
AcDbCircle
 10
950.5499999999829
 20
73.20000000000638
 30
0.000000000000000
 40
0.5500000000000000
100
AcDbArc
 50
270.0000000000000
 51
359.9999999999970
  0
ARC
  5
DA
100
AcDbEntity
  8
A1
  6
CONTINUOUS
 62
7
100
AcDbCircle
 10
960.1499999999833
 20
73.20000000000547
 30
0.000000000000000
 40
0.5500000000000000
100
AcDbArc
 50
180.0000000000000
 51
270.0000000000000
  0
ARC
  5
DB
100
AcDbEntity
  8
A1
  6
CONTINUOUS
 62
7
100
AcDbCircle
 10
950.5499999999829
 20
96.59999999999874
 30
0.000000000000000
 40
0.5500000000000000
100
AcDbArc
 50
2.960800000000000e-12
 51
90.00000000000000
  0
ARC
  5
DC
100
AcDbEntity
  8
A1
  6
CONTINUOUS
 62
7
100
AcDbCircle
 10
960.1499999999833
 20
96.59999999999874
 30
0.000000000000000
 40
0.5500000000000000
100
AcDbArc
 50
90.00000000000000
 51
180.0000000000000
  0
ARC
  5
DD
100
AcDbEntity
  8
A1
  6
CONTINUOUS
 62
7
100
AcDbCircle
 10
943.8503846381436
 20
73.40219446801822
 30
0.000000000000000
 40
3.000000000000000
100
AcDbArc
 50
240.0000000000000
 51
319.0442424526630
  0
LINE
  5
DE
100
AcDbEntity
  8
A1
  6
CONTINUOUS
 62
7
100
AcDbLine
 10
939.2051812316663
 20
72.62000229005065
 30
0.000000000000000
 11
942.3503846381428
 21
70.80411825666528
 31
0.000000000000000
  0
LINE
  5
DF
100
AcDbEntity
  8
A1
  6
CONTINUOUS
 62
7
100
AcDbLine
 10
946.8951061268922
 20
72.36423008775421
 30
0.000000000000000
 11
946.1160324836940
 21
71.43576627457702
 31
0.000000000000000
  0
ARC
  5
E0
100
AcDbEntity
  8
A1
  6
CONTINUOUS
 62
7
100
AcDbCircle
 10
947.5079416813869
 20
97.94999999999911
 30
0.000000000000000
 40
0.8000000000000000
100
AcDbArc
 50
219.9999999999991
 51
270.0000000000000
  0
ARC
  5
E1
100
AcDbEntity
  8
A1
  6
CONTINUOUS
 62
7
100
AcDbCircle
 10
947.5079416813869
 20
71.85000000000602
 30
0.000000000000000
 40
0.8000000000000000
100
AcDbArc
 50
90.00000000000000
 51
140.0000000000009
  0
ARC
  5
E2
100
AcDbEntity
  8
A1
  6
CONTINUOUS
 62
7
100
AcDbCircle
 10
939.9551812316677
 20
73.91904039572748
 30
0.000000000000000
 40
1.500000000000000
100
AcDbArc
 50
205.3841182138332
 51
240.0000000000000
  0
ARC
  5
E3
100
AcDbEntity
  8
A1
  6
CONTINUOUS
 62
7
100
AcDbCircle
 10
939.9551812316677
 20
95.88095960427765
 30
0.000000000000000
 40
1.500000000000000
100
AcDbArc
 50
120.0000000000000
 51
154.6158817861668
  0
LINE
  5
E4
100
AcDbEntity
  8
A1
  6
CONTINUOUS
 62
7
100
AcDbLine
 10
938.5999999999841
 20
95.77971188717082
 30
0.000000000000000
 11
934.0999999999832
 21
95.77971188717059
 31
0.000000000000000
  0
LINE
  5
E5
100
AcDbEntity
  8
A1
  6
CONTINUOUS
 62
7
100
AcDbLine
 10
938.5999999999831
 20
74.02028811283364
 30
0.000000000000000
 11
934.0999999999831
 21
74.02028811283364
 31
0.000000000000000
  0
LINE
  5
E6
100
AcDbEntity
  8
A1
  6
CONTINUOUS
 62
7
100
AcDbLine
 10
941.6780078066495
 20
71.19231520132534
 30
0.000000000000000
 11
934.0999999999840
 21
71.19231520132551
 31
0.000000000000000
  0
LINE
  5
E7
100
AcDbEntity
  8
A1
  6
CONTINUOUS
 62
7
100
AcDbLine
 10
941.6780078066498
 20
98.60768479867914
 30
0.000000000000000
 11
934.0999999999825
 21
98.60768479867880
 31
0.000000000000000
  0
ARC
  5
E8
100
AcDbEntity
  8
A1
  6
CONTINUOUS
 62
7
100
AcDbCircle
 10
966.0999999999831
 20
97.40000000000256
 30
0.000000000000000
 40
3.000000000000000
100
AcDbArc
 50
354.5682350366596
 51
360.0000000000000
  0
LINE
  5
E9
100
AcDbEntity
  8
A4
  6
CENTER
 62
1
100
AcDbLine
 10
950.6999999999825
 20
92.34969443902921
 30
0.000000000000000
 11
937.4999999999827
 21
92.34969443902921
 31
0.000000000000000
  0
LINE
  5
EA
100
AcDbEntity
  8
A4
  6
CENTER
 62
1
100
AcDbLine
 10
944.0999999999831
 20
98.94969443902866
 30
0.000000000000000
 11
944.0999999999831
 21
85.74969443902884
 31
0.000000000000000
  0
LINE
  5
EB
100
AcDbEntity
  8
A4
  6
CENTER
 62
1
100
AcDbLine
 10
950.6999999999825
 20
77.34969443902830
 30
0.000000000000000
 11
937.4999999999827
 21
77.34969443902830
 31
0.000000000000000
  0
LINE
  5
EC
100
AcDbEntity
  8
A4
  6
CENTER
 62
1
100
AcDbLine
 10
944.0999999999831
 20
83.94969443902775
 30
0.000000000000000
 11
944.0999999999831
 21
70.74969443902793
 31
0.000000000000000
  0
LINE
  5
ED
100
AcDbEntity
  8
A1
  6
CONTINUOUS
 62
7
100
AcDbLine
 10
969.0999999999829
 20
111.3500000000019
 30
0.000000000000000
 11
969.0999999999829
 21
97.40000000000296
 31
0.000000000000000
  0
LINE
  5
EE
100
AcDbEntity
  8
A1
  6
CONTINUOUS
 62
7
100
AcDbLine
 10
969.0999999999829
 20
72.40000000000293
 30
0.000000000000000
 11
969.0999999999829
 21
58.45000000000221
 31
0.000000000000000
  0
LINE
  5
EF
100
AcDbEntity
  8
A1
  6
CONTINUOUS
 62
7
100
AcDbLine
 10
1230.100000000028
 20
59.90000000000120
 30
0.000000000000000
 11
1232.600000000017
 21
59.90000000000120
 31
0.000000000000000
  0
LINE
  5
F0
100
AcDbEntity
  8
A1
  6
CONTINUOUS
 62
7
100
AcDbLine
 10
1230.100000000028
 20
109.9000000000012
 30
0.000000000000000
 11
1232.600000000017
 21
109.9000000000012
 31
0.000000000000000
  0
LINE
  5
F1
100
AcDbEntity
  8
A1
  6
CONTINUOUS
 62
7
100
AcDbLine
 10
1230.685786437656
 20
113.3142135623735
 30
0.000000000000000
 11
1232.014213562396
 21
114.6426406871149
 31
0.000000000000000
  0
ARC
  5
F2
100
AcDbEntity
  8
A1
  6
CONTINUOUS
 62
7
100
AcDbCircle
 10
1230.600000000017
 20
116.0568542494891
 30
0.000000000000000
 40
2.000000000000000
100
AcDbArc
 50
315.0000000000000
 51
360.0000000000000
  0
LINE
  5
F3
100
AcDbEntity
  8
A1
  6
CONTINUOUS
 62
7
100
AcDbLine
 10
1232.600000000017
 20
119.7999999999999
 30
0.000000000000000
 11
1232.600000000017
 21
116.0568542494891
 31
0.000000000000000
  0
LINE
  5
F4
100
AcDbEntity
  8
A1
  6
CONTINUOUS
 62
7
100
AcDbLine
 10
1232.600000000017
 20
109.9000000000012
 30
0.000000000000000
 11
1232.600000000017
 21
59.90000000000120
 31
0.000000000000000
  0
LINE
  5
F5
100
AcDbEntity
  8
A1
  6
CONTINUOUS
 62
7
100
AcDbLine
 10
1232.600000000017
 20
53.74314575051423
 30
0.000000000000000
 11
1232.600000000017
 21
50.00000000000247
 31
0.000000000000000
  0
LINE
  5
F6
100
AcDbEntity
  8
A1
  6
CONTINUOUS
 62
7
100
AcDbLine
 10
1230.100000000028
 20
109.9000000000012
 30
0.000000000000000
 11
1230.100000000028
 21
59.90000000000120
 31
0.000000000000000
  0
ARC
  5
F7
100
AcDbEntity
  8
A1
  6
CONTINUOUS
 62
7
100
AcDbCircle
 10
1232.100000000028
 20
111.9000000000012
 30
0.000000000000000
 40
2.000000000000000
100
AcDbArc
 50
135.0000000000000
 51
270.0000000000000
  0
LINE
  5
F8
100
AcDbEntity
  8
A1
  6
CONTINUOUS
 62
7
100
AcDbLine
 10
1230.685786437659
 20
56.48578643762539
 30
0.000000000000000
 11
1232.014213562398
 21
55.15735931288361
 31
0.000000000000000
  0
ARC
  5
F9
100
AcDbEntity
  8
A1
  6
CONTINUOUS
 62
7
100
AcDbCircle
 10
1230.600000000017
 20
53.74314575051423
 30
0.000000000000000
 40
2.000000000000000
100
AcDbArc
 50
0.000000000000000
 51
45.00000000000000
  0
ARC
  5
FA
100
AcDbEntity
  8
A1
  6
CONTINUOUS
 62
7
100
AcDbCircle
 10
1232.100000000028
 20
57.90000000000211
 30
0.000000000000000
 40
2.000000000000000
100
AcDbArc
 50
90.00000000000000
 51
225.0000000000000
  0
LINE
  5
FB
100
AcDbEntity
  8
A1
  6
CONTINUOUS
 62
7
100
AcDbLine
 10
1146.750000000017
 20
81.60000000000102
 30
0.000000000000000
 11
1140.650000000016
 21
81.60000000000102
 31
0.000000000000000
  0
ARC
  5
FC
100
AcDbEntity
  8
A1
  6
CONTINUOUS
 62
7
100
AcDbCircle
 10
1146.750000000017
 20
84.90000000000029
 30
0.000000000000000
 40
3.299999999999999
100
AcDbArc
 50
270.0000000000000
 51
450.0000000000000
  0
ARC
  5
FD
100
AcDbEntity
  8
A1
  6
CONTINUOUS
 62
7
100
AcDbCircle
 10
1140.650000000016
 20
84.90000000000029
 30
0.000000000000000
 40
3.299999999999999
100
AcDbArc
 50
90.00000000000000
 51
270.0000000000000
  0
LINE
  5
FE
100
AcDbEntity
  8
A1
  6
CONTINUOUS
 62
7
100
AcDbLine
 10
1146.750000000017
 20
88.19999999999956
 30
0.000000000000000
 11
1140.650000000016
 21
88.19999999999956
 31
0.000000000000000
  0
LINE
  5
FF
100
AcDbEntity
  8
A1
  6
CONTINUOUS
 62
7
100
AcDbLine
 10
1129.950000000018
 20
82.29999999999993
 30
0.000000000000000
 11
1125.650000000018
 21
82.29999999999993
 31
0.000000000000000
  0
ARC
  5
100
100
AcDbEntity
  8
A1
  6
CONTINUOUS
 62
7
100
AcDbCircle
 10
1129.950000000018
 20
84.90000000000029
 30
0.000000000000000
 40
2.600000000000000
100
AcDbArc
 50
270.0000000000000
 51
450.0000000000000
  0
ARC
  5
101
100
AcDbEntity
  8
A1
  6
CONTINUOUS
 62
7
100
AcDbCircle
 10
1125.650000000018
 20
84.90000000000029
 30
0.000000000000000
 40
2.600000000000000
100
AcDbArc
 50
90.00000000000000
 51
270.0000000000000
  0
LINE
  5
102
100
AcDbEntity
  8
A1
  6
CONTINUOUS
 62
7
100
AcDbLine
 10
1129.950000000018
 20
87.50000000000065
 30
0.000000000000000
 11
1125.650000000018
 21
87.50000000000065
 31
0.000000000000000
  0
CIRCLE
  5
103
100
AcDbEntity
  8
A1
  6
CONTINUOUS
 62
7
100
AcDbCircle
 10
1200.900000000016
 20
84.90000000000029
 30
0.000000000000000
 40
3.299999999999999
  0
CIRCLE
  5
104
100
AcDbEntity
  8
A1
  6
CONTINUOUS
 62
7
100
AcDbCircle
 10
1172.300000000016
 20
84.90000000000029
 30
0.000000000000000
 40
3.299999999999999
  0
CIRCLE
  5
105
100
AcDbEntity
  8
A1
  6
CONTINUOUS
 62
7
100
AcDbCircle
 10
1159.600000000017
 20
84.90000000000029
 30
0.000000000000000
 40
2.600000000000000
  0
LINE
  5
106
100
AcDbEntity
  8
A1
  6
CONTINUOUS
 62
7
100
AcDbLine
 10
1117.600000000019
 20
81.22304473783186
 30
0.000000000000000
 11
1113.923044737849
 21
84.90000000000111
 31
0.000000000000000
  0
LINE
  5
107
100
AcDbEntity
  8
A1
  6
CONTINUOUS
 62
7
100
AcDbLine
 10
1121.276955262185
 20
84.89999999999918
 30
0.000000000000000
 11
1117.600000000015
 21
88.57695526216912
 31
0.000000000000000
  0
LINE
  5
108
100
AcDbEntity
  8
A1
  6
CONTINUOUS
 62
7
100
AcDbLine
 10
1113.923044737845
 20
84.89999999999930
 30
0.000000000000000
 11
1117.600000000015
 21
88.57695526216912
 31
0.000000000000000
  0
LINE
  5
109
100
AcDbEntity
  8
A1
  6
CONTINUOUS
 62
7
100
AcDbLine
 10
1117.600000000018
 20
81.22304473783072
 30
0.000000000000000
 11
1121.276955262188
 21
84.90000000000066
 31
0.000000000000000
  0
LINE
  5
10A
100
AcDbEntity
  8
A1
  6
CONTINUOUS
 62
7
100
AcDbLine
 10
1184.850000000018
 20
81.55000000000175
 30
0.000000000000000
 11
1184.850000000018
 21
88.25000000000065
 31
0.000000000000000
  0
LINE
  5
10B
100
AcDbEntity
  8
A1
  6
CONTINUOUS
 62
7
100
AcDbLine
 10
1191.550000000017
 20
81.55000000000175
 30
0.000000000000000
 11
1191.550000000017
 21
88.25000000000065
 31
0.000000000000000
  0
LINE
  5
10C
100
AcDbEntity
  8
A1
  6
CONTINUOUS
 62
7
100
AcDbLine
 10
1184.850000000017
 20
81.55000000000103
 30
0.000000000000000
 11
1191.550000000016
 21
81.55000000000194
 31
0.000000000000000
  0
LINE
  5
10D
100
AcDbEntity
  8
A1
  6
CONTINUOUS
 62
7
100
AcDbLine
 10
1184.850000000018
 20
88.25000000000065
 30
0.000000000000000
 11
1191.550000000017
 21
88.25000000000065
 31
0.000000000000000
  0
LINE
  5
10E
100
AcDbEntity
  8
A1
  6
CONTINUOUS
 62
7
100
AcDbLine
 10
1232.600000000017
 20
119.8000000000019
 30
0.000000000000000
 11
673.8000000000173
 21
119.8000000000033
 31
0.000000000000000
  0
LINE
  5
10F
100
AcDbEntity
  8
A1
  6
CONTINUOUS
 62
7
100
AcDbLine
 10
1232.489058626669
 20
115.4000000000017
 30
0.000000000000000
 11
673.8000000000170
 21
115.4000000000017
 31
0.000000000000000
  0
LINE
  5
110
100
AcDbEntity
  8
A1
  6
CONTINUOUS
 62
7
100
AcDbLine
 10
1232.600000000016
 20
50.00000000000139
 30
0.000000000000000
 11
673.8000000000169
 21
50.00000000000003
 31
0.000000000000000
  0
LINE
  5
111
100
AcDbEntity
  8
A1
  6
CONTINUOUS
 62
7
100
AcDbLine
 10
1232.489058626669
 20
54.40000000000165
 30
0.000000000000000
 11
673.8000000000170
 21
54.40000000000165
 31
0.000000000000000
  0
LINE
  5
112
100
AcDbEntity
  8
A4
  6
CENTER
 62
1
100
AcDbLine
 10
1143.700000000018
 20
92.70000000000047
 30
0.000000000000000
 11
1143.700000000018
 21
77.10000000000193
 31
0.000000000000000
  0
LINE
  5
113
100
AcDbEntity
  8
A4
  6
CENTER
 62
1
100
AcDbLine
 10
1117.600000000018
 20
93.07695526217205
 30
0.000000000000000
 11
1117.600000000018
 21
76.72304473783217
 31
0.000000000000000
  0
LINE
  5
114
100
AcDbEntity
  8
A4
  6
CENTER
 62
1
100
AcDbLine
 10
1188.200000000018
 20
92.75000000000156
 30
0.000000000000000
 11
1188.200000000018
 21
77.05000000000175
 31
0.000000000000000
  0
LINE
  5
115
100
AcDbEntity
  8
A4
  6
CENTER
 62
1
100
AcDbLine
 10
1127.800000000018
 20
92.00000000000156
 30
0.000000000000000
 11
1127.800000000018
 21
77.80000000000084
 31
0.000000000000000
  0
LINE
  5
116
100
AcDbEntity
  8
A4
  6
CENTER
 62
1
100
AcDbLine
 10
1200.900000000016
 20
92.70000000000138
 30
0.000000000000000
 11
1200.900000000016
 21
77.10000000000102
 31
0.000000000000000
  0
LINE
  5
117
100
AcDbEntity
  8
A4
  6
CENTER
 62
1
100
AcDbLine
 10
1172.300000000016
 20
92.70000000000138
 30
0.000000000000000
 11
1172.300000000016
 21
77.10000000000102
 31
0.000000000000000
  0
LINE
  5
118
100
AcDbEntity
  8
A4
  6
CENTER
 62
1
100
AcDbLine
 10
1159.600000000017
 20
92.00000000000065
 30
0.000000000000000
 11
1159.600000000017
 21
77.80000000000084
 31
0.000000000000000
  0
LINE
  5
119
100
AcDbEntity
  8
A1
  6
CONTINUOUS
 62
7
100
AcDbLine
 10
673.8000000000167
 20
119.8000000000034
 30
0.000000000000000
 11
673.8000000000120
 21
111.3500000002037
 31
0.000000000000000
  0
LINE
  5
11A
100
AcDbEntity
  8
A1
  6
CONTINUOUS
 62
7
100
AcDbLine
 10
673.8000000000170
 20
50.00000000000037
 30
0.000000000000000
 11
673.8000000000415
 21
58.45000000029668
 31
0.000000000000000
  0
CIRCLE
  5
11B
100
AcDbEntity
  8
A1
  6
CONTINUOUS
 62
7
100
AcDbCircle
 10
686.5000000000177
 20
84.90000000000256
 30
0.000000000000000
 40
2.600000000000000
  0
CIRCLE
  5
11C
100
AcDbEntity
  8
A1
  6
CONTINUOUS
 62
7
100
AcDbCircle
 10
705.6000000000181
 20
84.90000000000256
 30
0.000000000000000
 40
3.299999999999999
  0
CIRCLE
  5
11D
100
AcDbEntity
  8
A3
  6
DASHED
 62
2
100
AcDbCircle
 10
762.7000000000185
 20
84.90000000000256
 30
0.000000000000000
 40
3.299999999999999
  0
LINE
  5
11E
100
AcDbEntity
  8
A3
  6
DASHED
 62
2
100
AcDbLine
 10
730.9500000000185
 20
81.60000000000329
 30
0.000000000000000
 11
724.8500000000181
 21
81.60000000000329
 31
0.000000000000000
  0
ARC
  5
11F
100
AcDbEntity
  8
A3
  6
DASHED
 62
2
100
AcDbCircle
 10
730.9500000000185
 20
84.90000000000256
 30
0.000000000000000
 40
3.299999999999999
100
AcDbArc
 50
270.0000000000000
 51
450.0000000000000
  0
ARC
  5
120
100
AcDbEntity
  8
A3
  6
DASHED
 62
2
100
AcDbCircle
 10
724.8500000000181
 20
84.90000000000256
 30
0.000000000000000
 40
3.299999999999999
100
AcDbArc
 50
90.00000000000000
 51
270.0000000000000
  0
LINE
  5
121
100
AcDbEntity
  8
A3
  6
DASHED
 62
2
100
AcDbLine
 10
730.9500000000185
 20
88.20000000000184
 30
0.000000000000000
 11
724.8500000000181
 21
88.20000000000184
 31
0.000000000000000
  0
LINE
  5
122
100
AcDbEntity
  8
A1
  6
CONTINUOUS
 62
7
100
AcDbLine
 10
692.6500000000183
 20
81.55000000000311
 30
0.000000000000000
 11
692.6500000000183
 21
88.25000000000202
 31
0.000000000000000
  0
LINE
  5
123
100
AcDbEntity
  8
A1
  6
CONTINUOUS
 62
7
100
AcDbLine
 10
699.3500000000181
 20
81.55000000000311
 30
0.000000000000000
 11
699.3500000000181
 21
88.25000000000202
 31
0.000000000000000
  0
LINE
  5
124
100
AcDbEntity
  8
A1
  6
CONTINUOUS
 62
7
100
AcDbLine
 10
692.6500000000183
 20
81.55000000000311
 30
0.000000000000000
 11
699.3500000000181
 21
81.55000000000311
 31
0.000000000000000
  0
LINE
  5
125
100
AcDbEntity
  8
A1
  6
CONTINUOUS
 62
7
100
AcDbLine
 10
692.6500000000183
 20
88.25000000000202
 30
0.000000000000000
 11
699.3500000000181
 21
88.25000000000202
 31
0.000000000000000
  0
LINE
  5
126
100
AcDbEntity
  8
A3
  6
DASHED
 62
2
100
AcDbLine
 10
715.2000000000187
 20
81.22304473783339
 30
0.000000000000000
 11
711.5230447378491
 21
84.90000000000356
 31
0.000000000000000
  0
LINE
  5
127
100
AcDbEntity
  8
A3
  6
DASHED
 62
2
100
AcDbLine
 10
718.8769552621881
 20
84.90000000000316
 30
0.000000000000000
 11
715.2000000000182
 21
88.57695526217327
 31
0.000000000000000
  0
LINE
  5
128
100
AcDbEntity
  8
A3
  6
DASHED
 62
2
100
AcDbLine
 10
711.5230447378493
 20
84.90000000000236
 30
0.000000000000000
 11
715.2000000000193
 21
88.57695526217231
 31
0.000000000000000
  0
LINE
  5
129
100
AcDbEntity
  8
A3
  6
DASHED
 62
2
100
AcDbLine
 10
715.2000000000176
 20
81.22304473783100
 30
0.000000000000000
 11
718.8769552621885
 21
84.90000000000117
 31
0.000000000000000
  0
CIRCLE
  5
12A
100
AcDbEntity
  8
A3
  6
DASHED
 62
2
100
AcDbCircle
 10
750.0000000000177
 20
84.90000000000256
 30
0.000000000000000
 40
2.600000000000000
  0
ARC
  5
12B
100
AcDbEntity
  8
A1
  6
CONTINUOUS
 62
7
100
AcDbCircle
 10
705.6000000000181
 20
84.90000000000165
 30
0.000000000000000
 40
8.000000000000000
100
AcDbArc
 50
270.0000000000000
 51
450.0000000000000
  0
ARC
  5
12C
100
AcDbEntity
  8
A1
  6
CONTINUOUS
 62
7
100
AcDbCircle
 10
686.6000000000181
 20
84.90000000000165
 30
0.000000000000000
 40
8.000000000000000
100
AcDbArc
 50
90.00000000000000
 51
270.0000000000000
  0
LINE
  5
12D
100
AcDbEntity
  8
A1
  6
CONTINUOUS
 62
7
100
AcDbLine
 10
686.6000000000181
 20
92.90000000000165
 30
0.000000000000000
 11
705.6000000000181
 21
92.90000000000165
 31
0.000000000000000
  0
LINE
  5
12E
100
AcDbEntity
  8
A1
  6
CONTINUOUS
 62
7
100
AcDbLine
 10
686.6000000000181
 20
76.90000000000165
 30
0.000000000000000
 11
705.6000000000181
 21
76.90000000000165
 31
0.000000000000000
  0
LINE
  5
12F
100
AcDbEntity
  8
A4
  6
CENTER
 62
1
100
AcDbLine
 10
686.5000000000177
 20
92.00000000000293
 30
0.000000000000000
 11
686.5000000000177
 21
77.80000000000311
 31
0.000000000000000
  0
LINE
  5
130
100
AcDbEntity
  8
A4
  6
CENTER
 62
1
100
AcDbLine
 10
705.6000000000181
 20
92.70000000000275
 30
0.000000000000000
 11
705.6000000000181
 21
77.10000000000238
 31
0.000000000000000
  0
LINE
  5
131
100
AcDbEntity
  8
A4
  6
CENTER
 62
1
100
AcDbLine
 10
696.0000000000186
 20
77.05000000000311
 30
0.000000000000000
 11
696.0000000000186
 21
92.75000000000202
 31
0.000000000000000
  0
LINE
  5
132
100
AcDbEntity
  8
A4
  6
CENTER
 62
1
100
AcDbLine
 10
762.7000000000185
 20
92.70000000000275
 30
0.000000000000000
 11
762.7000000000185
 21
77.10000000000238
 31
0.000000000000000
  0
LINE
  5
133
100
AcDbEntity
  8
A4
  6
CENTER
 62
1
100
AcDbLine
 10
750.0000000000177
 20
92.00000000000293
 30
0.000000000000000
 11
750.0000000000177
 21
77.80000000000311
 31
0.000000000000000
  0
LINE
  5
134
100
AcDbEntity
  8
A4
  6
CENTER
 62
1
100
AcDbLine
 10
727.9000000000183
 20
92.70000000000275
 30
0.000000000000000
 11
727.9000000000183
 21
77.10000000000420
 31
0.000000000000000
  0
LINE
  5
135
100
AcDbEntity
  8
A4
  6
CENTER
 62
1
100
AcDbLine
 10
715.2000000000185
 20
93.07695526217341
 30
0.000000000000000
 11
715.2000000000185
 21
76.72304473783353
 31
0.000000000000000
  0
LINE
  5
136
100
AcDbEntity
  8
A4
  6
CENTER
 62
1
100
AcDbLine
 10
762.7000000000194
 20
92.70000000000275
 30
0.000000000000000
 11
762.7000000000194
 21
77.10000000000329
 31
0.000000000000000
  0
LINE
  5
137
100
AcDbEntity
  8
A4
  6
CENTER
 62
1
100
AcDbLine
 10
750.0000000000186
 20
92.00000000000293
 30
0.000000000000000
 11
750.0000000000186
 21
77.80000000000311
 31
0.000000000000000
  0
LINE
  5
138
100
AcDbEntity
  8
A4
  6
CENTER
 62
1
100
AcDbLine
 10
115.2999999999833
 20
84.90000000000165
 30
0.000000000000000
 11
1237.100000000017
 21
84.90000000000165
 31
0.000000000000000
  0
LINE
  5
139
100
AcDbEntity
  8
A1
  6
CONTINUOUS
 62
7
100
AcDbLine
 10
421.6999999999830
 20
66.10000000000136
 30
0.000000000000000
 11
421.6999999999830
 21
58.45000000000161
 31
0.000000000000000
  0
LINE
  5
13A
100
AcDbEntity
  8
A1
  6
CONTINUOUS
 62
7
100
AcDbLine
 10
421.6999999999830
 20
111.3500000000015
 30
0.000000000000000
 11
421.6999999999830
 21
103.7000000000019
 31
0.000000000000000
  0
LINE
  5
13B
100
AcDbEntity
  8
A4
  6
CENTER
 62
1
100
AcDbLine
 10
71.30000000000007
 20
84.90000000000165
 30
0.000000000000000
 11
48.50000000000000
 21
84.90000000000165
 31
0.000000000000000
  0
ARC
  5
13C
100
AcDbEntity
  8
A1
  6
CONTINUOUS
 62
7
100
AcDbCircle
 10
59.40000000000009
 20
56.46500000000034
 30
0.000000000000000
 40
6.464999999999999
100
AcDbArc
 50
225.0000000000139
 51
325.0646696619304
  0
LINE
  5
13D
100
AcDbEntity
  8
A1
  6
CONTINUOUS
 62
7
100
AcDbLine
 10
56.79999999999976
 20
67.52598846299072
 30
0.000000000000000
 11
56.79999999999998
 21
62.82418694698034
 31
0.000000000000000
  0
ARC
  5
13E
100
AcDbEntity
  8
A1
  6
CONTINUOUS
 62
7
100
AcDbCircle
 10
64.80000000000007
 20
64.12500000000156
 30
0.000000000000000
 40
5.674999999999999
100
AcDbArc
 50
65.44387469328805
 51
140.8349970654087
  0
LINE
  5
13F
100
AcDbEntity
  8
A1
  6
CONTINUOUS
 62
7
100
AcDbLine
 10
52.50000000000000
 20
57.75764322519782
 30
0.000000000000000
 11
52.50000000000000
 21
112.0423567748053
 31
0.000000000000000
  0
LINE
  5
140
100
AcDbEntity
  8
A1
  6
CONTINUOUS
 62
7
100
AcDbLine
 10
50.00000000000000
 20
57.42627237529766
 30
0.000000000000000
 11
50.00000000000000
 21
112.3737276247054
 31
0.000000000000000
  0
LINE
  5
141
100
AcDbEntity
  8
A1
  6
CONTINUOUS
 62
7
100
AcDbLine
 10
69.80000000000007
 20
67.87055308193155
 30
0.000000000000000
 11
69.80000000000007
 21
101.9294469180715
 31
0.000000000000000
  0
LINE
  5
142
100
AcDbEntity
  8
A1
  6
CONTINUOUS
 62
7
100
AcDbLine
 10
67.29999999999995
 20
69.37767788846961
 30
0.000000000000000
 11
67.29999999999995
 21
100.4223221115337
 31
0.000000000000000
  0
LINE
  5
143
100
AcDbEntity
  8
A1
  6
CONTINUOUS
 62
7
100
AcDbLine
 10
52.49999999999993
 20
57.75764322519794
 30
0.000000000000000
 11
56.59632161259528
 21
53.66132161260091
 31
0.000000000000000
  0
LINE
  5
144
100
AcDbEntity
  8
A1
  6
CONTINUOUS
 62
7
100
AcDbLine
 10
50.49791847198254
 20
56.22419084728089
 30
0.000000000000000
 11
54.82855465962910
 21
51.89355465963131
 31
0.000000000000000
  0
LINE
  5
145
100
AcDbEntity
  8
A1
  6
CONTINUOUS
 62
7
100
AcDbLine
 10
58.60000000000014
 20
74.02132034356165
 30
0.000000000000000
 11
58.60000000000014
 21
95.77867965644165
 31
0.000000000000000
  0
LINE
  5
146
100
AcDbEntity
  8
A1
  6
CONTINUOUS
 62
7
100
AcDbLine
 10
61.09999999999991
 20
74.02132034356165
 30
0.000000000000000
 11
61.09999999999991
 21
95.77867965644165
 31
0.000000000000000
  0
ARC
  5
147
100
AcDbEntity
  8
A1
  6
CONTINUOUS
 62
7
100
AcDbCircle
 10
59.40780553198397
 20
56.46500000000034
 30
0.000000000000000
 40
6.464999999999999
100
AcDbArc
 50
64.34116408558700
 51
109.9462850724337
  0
ARC
  5
148
100
AcDbEntity
  8
A1
  6
CONTINUOUS
 62
7
100
AcDbCircle
 10
56.59999999999991
 20
61.56557613952120
 30
0.000000000000000
 40
2.299999999999999
100
AcDbArc
 50
180.0000000000000
 51
269.8314188142185
  0
ARC
  5
149
100
AcDbEntity
  8
A1
  6
CONTINUOUS
 62
7
100
AcDbCircle
 10
57.09999999999957
 20
62.82418694698046
 30
0.000000000000000
 40
0.3000000000000000
100
AcDbArc
 50
180.0000000000000
 51
289.9462850724159
  0
LINE
  5
14A
100
AcDbEntity
  8
A1
  6
CONTINUOUS
 62
7
100
AcDbLine
 10
62.01921836779979
 20
65.85000000000129
 30
0.000000000000000
 11
60.40000000000020
 21
66.78485616052838
 31
0.000000000000000
  0
LINE
  5
14B
100
AcDbEntity
  8
A1
  6
CONTINUOUS
 62
7
100
AcDbLine
 10
54.29999999999997
 20
67.52598846299071
 30
0.000000000000000
 11
54.30000000000003
 21
61.56557613952140
 31
0.000000000000000
  0
ARC
  5
14C
100
AcDbEntity
  8
A1
  6
CONTINUOUS
 62
7
100
AcDbCircle
 10
58.10000000000082
 20
67.52598846299063
 30
0.000000000000000
 40
1.299999999999999
100
AcDbArc
 50
134.9999999999982
 51
180.0000000000000
  0
LINE
  5
14D
100
AcDbEntity
  8
A1
  6
CONTINUOUS
 62
7
100
AcDbLine
 10
57.18076118445826
 20
68.44522727853129
 30
0.000000000000000
 11
59.92842712474758
 21
71.19289321882042
 31
0.000000000000000
  0
LINE
  5
14E
100
AcDbEntity
  8
A1
  6
CONTINUOUS
 62
7
100
AcDbLine
 10
55.41299423149165
 20
70.21299423150074
 30
0.000000000000000
 11
58.16066017178162
 21
72.96066017178070
 31
0.000000000000000
  0
ARC
  5
14F
100
AcDbEntity
  8
A1
  6
CONTINUOUS
 62
7
100
AcDbCircle
 10
57.10000000000059
 20
74.02132034356165
 30
0.000000000000000
 40
1.499999999999999
100
AcDbArc
 50
315.0000000000169
 51
360.0000000000000
  0
ARC
  5
150
100
AcDbEntity
  8
A1
  6
CONTINUOUS
 62
7
100
AcDbCircle
 10
57.10000000000059
 20
74.02132034356165
 30
0.000000000000000
 40
3.999999999999999
100
AcDbArc
 50
314.9999999999931
 51
360.0000000000000
  0
ARC
  5
151
100
AcDbEntity
  8
A1
  6
CONTINUOUS
 62
7
100
AcDbCircle
 10
58.09999999999991
 20
67.52598846299063
 30
0.000000000000000
 40
3.800000000000001
100
AcDbArc
 50
135.0000000000043
 51
180.0000000000000
  0
ARC
  5
152
100
AcDbEntity
  8
A1
  6
CONTINUOUS
 62
7
100
AcDbCircle
 10
51.70000000000005
 20
57.42627237529766
 30
0.000000000000000
 40
1.700000000000000
100
AcDbArc
 50
180.0000000000000
 51
224.9999999999810
  0
LINE
  5
153
100
AcDbEntity
  8
A1
  6
CONTINUOUS
 62
7
100
AcDbLine
 10
64.70000000000005
 20
53.23159229373479
 30
0.000000000000000
 11
64.70000000000005
 21
52.76280808169028
 31
0.000000000000000
  0
LINE
  5
154
100
AcDbEntity
  8
A1
  6
CONTINUOUS
 62
7
100
AcDbLine
 10
62.78481904981729
 20
54.40000000000161
 30
0.000000000000000
 11
64.70000000000009
 21
53.23159229373476
 31
0.000000000000000
  0
ARC
  5
155
100
AcDbEntity
  8
A1
  6
CONTINUOUS
 62
7
100
AcDbCircle
 10
64.80000000000007
 20
64.12500000000156
 30
0.000000000000000
 40
5.674999999999999
100
AcDbArc
 50
246.0925117444462
 51
320.5510832248698
  0
LINE
  5
156
100
AcDbEntity
  8
A1
  6
CONTINUOUS
 62
7
100
AcDbLine
 10
69.18218611093533
 20
60.51916169398626
 30
0.000000000000000
 11
67.25705640860632
 21
62.11415470388175
 31
0.000000000000000
  0
LINE
  5
157
100
AcDbEntity
  8
A1
  6
CONTINUOUS
 62
7
100
AcDbLine
 10
60.40000000000020
 20
67.70907937970307
 30
0.000000000000000
 11
60.40000000000020
 21
66.78485616052851
 31
0.000000000000000
  0
LINE
  5
158
100
AcDbEntity
  8
A1
  6
CONTINUOUS
 62
7
100
AcDbLine
 10
62.13447941294771
 20
65.85000000000147
 30
0.000000000000000
 11
62.01921836779979
 21
65.85000000000147
 31
0.000000000000000
  0
ARC
  5
159
100
AcDbEntity
  8
A1
  6
CONTINUOUS
 62
7
100
AcDbCircle
 10
68.02944691807011
 20
67.87055308193155
 30
0.000000000000000
 40
1.770553081929961
100
AcDbArc
 50
229.2318156757769
 51
360.0000000000018
  0
ARC
  5
15A
100
AcDbEntity
  8
A1
  6
CONTINUOUS
 62
7
100
AcDbCircle
 10
67.20000000000005
 20
69.37767788846961
 30
0.000000000000000
 40
0.1000000000000000
100
AcDbArc
 50
245.4438746932937
 51
360.0000000000000
  0
ARC
  5
15B
100
AcDbEntity
  8
A1
  6
CONTINUOUS
 62
7
100
AcDbCircle
 10
59.40000000000009
 20
113.3350000000030
 30
0.000000000000000
 40
6.464999999999999
100
AcDbArc
 50
34.93533033806960
 51
134.9999999999861
  0
LINE
  5
15C
100
AcDbEntity
  8
A1
  6
CONTINUOUS
 62
7
100
AcDbLine
 10
56.79999999999978
 20
102.2740115370125
 30
0.000000000000000
 11
56.80000000000001
 21
106.9758130530224
 31
0.000000000000000
  0
ARC
  5
15D
100
AcDbEntity
  8
A1
  6
CONTINUOUS
 62
7
100
AcDbCircle
 10
64.80000000000007
 20
105.6750000000015
 30
0.000000000000000
 40
5.674999999999999
100
AcDbArc
 50
219.1650029345913
 51
294.5561253067119
  0
LINE
  5
15E
100
AcDbEntity
  8
A1
  6
CONTINUOUS
 62
7
100
AcDbLine
 10
52.49999999999987
 20
112.0423567748051
 30
0.000000000000000
 11
56.59632161259540
 21
116.1386783874022
 31
0.000000000000000
  0
LINE
  5
15F
100
AcDbEntity
  8
A1
  6
CONTINUOUS
 62
7
100
AcDbLine
 10
50.49791847198274
 20
113.5758091527221
 30
0.000000000000000
 11
54.82855465962925
 21
117.9064453403715
 31
0.000000000000000
  0
ARC
  5
160
100
AcDbEntity
  8
A1
  6
CONTINUOUS
 62
7
100
AcDbCircle
 10
59.40780553198397
 20
113.3350000000030
 30
0.000000000000000
 40
6.464999999999999
100
AcDbArc
 50
250.0537149275663
 51
295.6588359144130
  0
ARC
  5
161
100
AcDbEntity
  8
A1
  6
CONTINUOUS
 62
7
100
AcDbCircle
 10
56.59999999999991
 20
108.2344238604821
 30
0.000000000000000
 40
2.299999999999999
100
AcDbArc
 50
90.16858118578155
 51
180.0000000000000
  0
ARC
  5
162
100
AcDbEntity
  8
A1
  6
CONTINUOUS
 62
7
100
AcDbCircle
 10
57.09999999999957
 20
106.9758130530228
 30
0.000000000000000
 40
0.3000000000000000
100
AcDbArc
 50
70.05371492758402
 51
180.0000000000000
  0
LINE
  5
163
100
AcDbEntity
  8
A1
  6
CONTINUOUS
 62
7
100
AcDbLine
 10
62.01921836779961
 20
103.9500000000017
 30
0.000000000000000
 11
60.40000000000009
 21
103.0151438394750
 31
0.000000000000000
  0
LINE
  5
164
100
AcDbEntity
  8
A1
  6
CONTINUOUS
 62
7
100
AcDbLine
 10
54.30000000000004
 20
102.2740115370127
 30
0.000000000000000
 11
54.30000000000010
 21
108.2344238604819
 31
0.000000000000000
  0
ARC
  5
165
100
AcDbEntity
  8
A1
  6
CONTINUOUS
 62
7
100
AcDbCircle
 10
58.10000000000082
 20
102.2740115370127
 30
0.000000000000000
 40
1.299999999999999
100
AcDbArc
 50
180.0000000000000
 51
225.0000000000018
  0
LINE
  5
166
100
AcDbEntity
  8
A1
  6
CONTINUOUS
 62
7
100
AcDbLine
 10
57.18076118445813
 20
101.3547727214720
 30
0.000000000000000
 11
59.92842712474750
 21
98.60710678118276
 31
0.000000000000000
  0
LINE
  5
167
100
AcDbEntity
  8
A1
  6
CONTINUOUS
 62
7
100
AcDbLine
 10
55.41299423149144
 20
99.58700576850251
 30
0.000000000000000
 11
58.16066017178144
 21
96.83933982822242
 31
0.000000000000000
  0
ARC
  5
168
100
AcDbEntity
  8
A1
  6
CONTINUOUS
 62
7
100
AcDbCircle
 10
57.10000000000059
 20
95.77867965644165
 30
0.000000000000000
 40
1.499999999999999
100
AcDbArc
 50
0.000000000000000
 51
44.99999999998312
  0
ARC
  5
169
100
AcDbEntity
  8
A1
  6
CONTINUOUS
 62
7
100
AcDbCircle
 10
57.10000000000059
 20
95.77867965644165
 30
0.000000000000000
 40
3.999999999999999
100
AcDbArc
 50
0.000000000000000
 51
45.00000000000691
  0
ARC
  5
16A
100
AcDbEntity
  8
A1
  6
CONTINUOUS
 62
7
100
AcDbCircle
 10
58.09999999999991
 20
102.2740115370127
 30
0.000000000000000
 40
3.800000000000001
100
AcDbArc
 50
180.0000000000000
 51
224.9999999999957
  0
ARC
  5
16B
100
AcDbEntity
  8
A1
  6
CONTINUOUS
 62
7
100
AcDbCircle
 10
51.70000000000005
 20
112.3737276247054
 30
0.000000000000000
 40
1.700000000000000
100
AcDbArc
 50
135.0000000000190
 51
180.0000000000000
  0
LINE
  5
16C
100
AcDbEntity
  8
A1
  6
CONTINUOUS
 62
7
100
AcDbLine
 10
64.70000000000005
 20
116.5684077062685
 30
0.000000000000000
 11
64.70000000000005
 21
117.0371919183133
 31
0.000000000000000
  0
LINE
  5
16D
100
AcDbEntity
  8
A1
  6
CONTINUOUS
 62
7
100
AcDbLine
 10
62.78481904981717
 20
115.4000000000012
 30
0.000000000000000
 11
64.69999999999995
 21
116.5684077062685
 31
0.000000000000000
  0
ARC
  5
16E
100
AcDbEntity
  8
A1
  6
CONTINUOUS
 62
7
100
AcDbCircle
 10
64.80000000000007
 20
105.6750000000015
 30
0.000000000000000
 40
5.674999999999999
100
AcDbArc
 50
39.44891677513021
 51
113.9074882555569
  0
LINE
  5
16F
100
AcDbEntity
  8
A1
  6
CONTINUOUS
 62
7
100
AcDbLine
 10
69.18218611093559
 20
109.2808383060168
 30
0.000000000000000
 11
67.25705640860664
 21
107.6858452961216
 31
0.000000000000000
  0
LINE
  5
170
100
AcDbEntity
  8
A1
  6
CONTINUOUS
 62
7
100
AcDbLine
 10
60.40000000000020
 20
102.0909206203002
 30
0.000000000000000
 11
60.40000000000020
 21
103.0151438394748
 31
0.000000000000000
  0
LINE
  5
171
100
AcDbEntity
  8
A1
  6
CONTINUOUS
 62
7
100
AcDbLine
 10
62.13447941294771
 20
103.9500000000016
 30
0.000000000000000
 11
62.01921836779979
 21
103.9500000000016
 31
0.000000000000000
  0
ARC
  5
172
100
AcDbEntity
  8
A1
  6
CONTINUOUS
 62
7
100
AcDbCircle
 10
68.02944691807011
 20
101.9294469180715
 30
0.000000000000000
 40
1.770553081929961
100
AcDbArc
 50
359.9999999999982
 51
490.7681843242231
  0
ARC
  5
173
100
AcDbEntity
  8
A1
  6
CONTINUOUS
 62
7
100
AcDbCircle
 10
67.20000000000005
 20
100.4223221115337
 30
0.000000000000000
 40
0.1000000000000000
100
AcDbArc
 50
0.000000000000000
 51
114.5561253067063
  0
LINE
  5
174
100
AcDbEntity
  8
A1
  6
CONTINUOUS
 62
7
100
AcDbLine
 10
69.30000000000007
 20
65.12500000000156
 30
0.000000000000000
 11
60.09999999999991
 21
65.12500000000156
 31
0.000000000000000
  0
LINE
  5
175
100
AcDbEntity
  8
A1
  6
CONTINUOUS
 62
7
100
AcDbLine
 10
69.30000000000007
 20
64.12500000000156
 30
0.000000000000000
 11
69.30000000000007
 21
65.12500000000156
 31
0.000000000000000
  0
LINE
  5
176
100
AcDbEntity
  8
A1
  6
CONTINUOUS
 62
7
100
AcDbLine
 10
69.30000000000007
 20
64.12500000000156
 30
0.000000000000000
 11
60.09999999999991
 21
64.12500000000156
 31
0.000000000000000
  0
LINE
  5
177
100
AcDbEntity
  8
A1
  6
CONTINUOUS
 62
7
100
AcDbLine
 10
58.09999999999974
 20
67.40172439427892
 30
0.000000000000000
 11
58.09999999999981
 21
66.12500000000153
 31
0.000000000000000
  0
LINE
  5
178
100
AcDbEntity
  8
A1
  6
CONTINUOUS
 62
7
100
AcDbLine
 10
59.09999999999974
 20
67.40172439427884
 30
0.000000000000000
 11
59.09999999999981
 21
66.12500000000146
 31
0.000000000000000
  0
ARC
  5
179
100
AcDbEntity
  8
A1
  6
CONTINUOUS
 62
7
100
AcDbCircle
 10
60.09999999999991
 20
66.12500000000156
 30
0.000000000000000
 40
1.000000000000000
100
AcDbArc
 50
180.0000000000000
 51
270.0000000000000
  0
ARC
  5
17A
100
AcDbEntity
  8
A1
  6
CONTINUOUS
 62
7
100
AcDbCircle
 10
60.09999999999991
 20
66.12500000000156
 30
0.000000000000000
 40
2.000000000000000
100
AcDbArc
 50
180.0000000000000
 51
270.0000000000000
  0
LINE
  5
17B
100
AcDbEntity
  8
A1
  6
CONTINUOUS
 62
7
100
AcDbLine
 10
59.18786796564392
 20
67.61385642863496
 30
0.000000000000000
 11
65.88578643763178
 21
74.31177490061519
 31
0.000000000000000
  0
LINE
  5
17C
100
AcDbEntity
  8
A1
  6
CONTINUOUS
 62
7
100
AcDbLine
 10
58.48076118445785
 20
68.32096320982185
 30
0.000000000000000
 11
65.17867965644569
 21
75.01888168180210
 31
0.000000000000000
  0
ARC
  5
17D
100
AcDbEntity
  8
A1
  6
CONTINUOUS
 62
7
100
AcDbCircle
 10
59.39999999999975
 20
67.40172439427883
 30
0.000000000000000
 40
0.3000000000000000
100
AcDbArc
 50
134.9999999999654
 51
180.0000000000000
  0
ARC
  5
17E
100
AcDbEntity
  8
A1
  6
CONTINUOUS
 62
7
100
AcDbCircle
 10
59.39999999999975
 20
67.40172439427894
 30
0.000000000000000
 40
1.300000000000000
100
AcDbArc
 50
134.9999999999672
 51
180.0000000000000
  0
LINE
  5
17F
100
AcDbEntity
  8
A1
  6
CONTINUOUS
 62
7
100
AcDbLine
 10
65.88578643763903
 20
77.14020202535569
 30
0.000000000000000
 11
63.48786796564305
 21
79.53812049737348
 31
0.000000000000000
  0
LINE
  5
180
100
AcDbEntity
  8
A1
  6
CONTINUOUS
 62
7
100
AcDbLine
 10
65.17867965644938
 20
76.43309524417251
 30
0.000000000000000
 11
62.78076118445348
 21
78.83101371619023
 31
0.000000000000000
  0
ARC
  5
181
100
AcDbEntity
  8
A1
  6
CONTINUOUS
 62
7
100
AcDbCircle
 10
64.47157287525943
 20
75.72598846298908
 30
0.000000000000000
 40
1.000000000000000
100
AcDbArc
 50
314.9999999999672
 51
404.9999999997386
  0
ARC
  5
182
100
AcDbEntity
  8
A1
  6
CONTINUOUS
 62
7
100
AcDbCircle
 10
64.47157287525943
 20
75.72598846298908
 30
0.000000000000000
 40
2.000000000000000
100
AcDbArc
 50
314.9999999999675
 51
404.9999999997395
  0
ARC
  5
183
100
AcDbEntity
  8
A1
  6
CONTINUOUS
 62
7
100
AcDbCircle
 10
63.69999999999993
 20
79.75025253172848
 30
0.000000000000000
 40
0.3000000000000000
100
AcDbArc
 50
180.0000000000000
 51
224.9999999997390
  0
ARC
  5
184
100
AcDbEntity
  8
A1
  6
CONTINUOUS
 62
7
100
AcDbCircle
 10
63.70000000000005
 20
79.75025253172848
 30
0.000000000000000
 40
1.300000000000000
100
AcDbArc
 50
180.0000000000000
 51
224.9999999997396
  0
LINE
  5
185
100
AcDbEntity
  8
A1
  6
CONTINUOUS
 62
7
100
AcDbLine
 10
59.18786796564402
 20
102.1861435713682
 30
0.000000000000000
 11
65.88578643763188
 21
95.48822509938798
 31
0.000000000000000
  0
LINE
  5
186
100
AcDbEntity
  8
A1
  6
CONTINUOUS
 62
7
100
AcDbLine
 10
58.48076118445763
 20
101.4790367901811
 30
0.000000000000000
 11
65.17867965644547
 21
94.78111831820087
 31
0.000000000000000
  0
LINE
  5
187
100
AcDbEntity
  8
A1
  6
CONTINUOUS
 62
7
100
AcDbLine
 10
65.88578643763907
 20
92.65979797464757
 30
0.000000000000000
 11
63.48786796564310
 21
90.26187950262978
 31
0.000000000000000
  0
LINE
  5
188
100
AcDbEntity
  8
A1
  6
CONTINUOUS
 62
7
100
AcDbLine
 10
65.17867965644922
 20
93.36690475583082
 30
0.000000000000000
 11
62.78076118445334
 21
90.96898628381309
 31
0.000000000000000
  0
ARC
  5
189
100
AcDbEntity
  8
A1
  6
CONTINUOUS
 62
7
100
AcDbCircle
 10
64.47157287525943
 20
94.07401153701400
 30
0.000000000000000
 40
1.000000000000000
100
AcDbArc
 50
315.0000000002614
 51
405.0000000000328
  0
ARC
  5
18A
100
AcDbEntity
  8
A1
  6
CONTINUOUS
 62
7
100
AcDbCircle
 10
64.47157287525943
 20
94.07401153701400
 30
0.000000000000000
 40
2.000000000000000
100
AcDbArc
 50
315.0000000002605
 51
405.0000000000325
  0
ARC
  5
18B
100
AcDbEntity
  8
A1
  6
CONTINUOUS
 62
7
100
AcDbCircle
 10
63.69999999999993
 20
90.04974746827472
 30
0.000000000000000
 40
0.3000000000000000
100
AcDbArc
 50
135.0000000002610
 51
180.0000000000000
  0
ARC
  5
18C
100
AcDbEntity
  8
A1
  6
CONTINUOUS
 62
7
100
AcDbCircle
 10
63.70000000000005
 20
90.04974746827460
 30
0.000000000000000
 40
1.300000000000000
100
AcDbArc
 50
135.0000000002604
 51
180.0000000000000
  0
LINE
  5
18D
100
AcDbEntity
  8
A1
  6
CONTINUOUS
 62
7
100
AcDbLine
 10
69.30000000000007
 20
104.6750000000016
 30
0.000000000000000
 11
60.09999999999991
 21
104.6750000000016
 31
0.000000000000000
  0
LINE
  5
18E
100
AcDbEntity
  8
A1
  6
CONTINUOUS
 62
7
100
AcDbLine
 10
69.30000000000007
 20
105.6750000000016
 30
0.000000000000000
 11
69.30000000000007
 21
104.6750000000016
 31
0.000000000000000
  0
LINE
  5
18F
100
AcDbEntity
  8
A1
  6
CONTINUOUS
 62
7
100
AcDbLine
 10
69.30000000000007
 20
105.6750000000016
 30
0.000000000000000
 11
60.09999999999991
 21
105.6750000000016
 31
0.000000000000000
  0
ARC
  5
190
100
AcDbEntity
  8
A1
  6
CONTINUOUS
 62
7
100
AcDbCircle
 10
60.09999999999991
 20
103.6750000000016
 30
0.000000000000000
 40
2.000000000000000
100
AcDbArc
 50
90.00000000000000
 51
180.0000000000000
  0
ARC
  5
191
100
AcDbEntity
  8
A1
  6
CONTINUOUS
 62
7
100
AcDbCircle
 10
60.09999999999991
 20
103.6750000000016
 30
0.000000000000000
 40
1.000000000000000
100
AcDbArc
 50
90.00000000000000
 51
180.0000000000000
  0
LINE
  5
192
100
AcDbEntity
  8
A1
  6
CONTINUOUS
 62
7
100
AcDbLine
 10
59.09999999999975
 20
102.3982756057243
 30
0.000000000000000
 11
59.09999999999982
 21
103.6750000000017
 31
0.000000000000000
  0
ARC
  5
193
100
AcDbEntity
  8
A1
  6
CONTINUOUS
 62
7
100
AcDbCircle
 10
59.39999999999975
 20
102.3982756057243
 30
0.000000000000000
 40
0.3000000000000000
100
AcDbArc
 50
180.0000000000000
 51
225.0000000000346
  0
LINE
  5
194
100
AcDbEntity
  8
A1
  6
CONTINUOUS
 62
7
100
AcDbLine
 10
58.09999999999975
 20
102.3982756057244
 30
0.000000000000000
 11
58.09999999999982
 21
103.6750000000017
 31
0.000000000000000
  0
ARC
  5
195
100
AcDbEntity
  8
A1
  6
CONTINUOUS
 62
7
100
AcDbCircle
 10
59.39999999999975
 20
102.3982756057241
 30
0.000000000000000
 40
1.300000000000000
100
AcDbArc
 50
180.0000000000000
 51
225.0000000000328
  0
LINE
  5
196
100
AcDbEntity
  8
A1
  6
CONTINUOUS
 62
7
100
AcDbLine
 10
63.39999999999998
 20
79.75025253172848
 30
0.000000000000000
 11
63.39999999999998
 21
90.04974746827472
 31
0.000000000000000
  0
LINE
  5
197
100
AcDbEntity
  8
A1
  6
CONTINUOUS
 62
7
100
AcDbLine
 10
62.39999999999998
 20
79.75025253172848
 30
0.000000000000000
 11
62.39999999999998
 21
90.04974746827460
 31
0.000000000000000
  0
LINE
  5
198
100
AcDbEntity
  8
A1
  6
CONTINUOUS
 62
7
100
AcDbLine
 10
53.00000000000000
 20
59.18154842042892
 30
0.000000000000000
 11
53.00000000000000
 21
69.90000000001291
 31
0.000000000000000
  0
LINE
  5
199
100
AcDbEntity
  8
A1
  6
CONTINUOUS
 62
7
100
AcDbLine
 10
54.00000000000000
 20
59.18154842042892
 30
0.000000000000000
 11
54.00000000000000
 21
69.90000000001291
 31
0.000000000000000
  0
LINE
  5
19A
100
AcDbEntity
  8
A1
  6
CONTINUOUS
 62
7
100
AcDbLine
 10
54.78356038606199
 20
58.20525241330902
 30
0.000000000000000
 11
64.99999999999946
 21
55.94032227968521
 31
0.000000000000000
  0
LINE
  5
19B
100
AcDbEntity
  8
A1
  6
CONTINUOUS
 62
7
100
AcDbLine
 10
54.56712077212394
 20
57.22895640618914
 30
0.000000000000000
 11
64.78356038606140
 21
54.96402627256532
 31
0.000000000000000
  0
ARC
  5
19C
100
AcDbEntity
  8
A1
  6
CONTINUOUS
 62
7
100
AcDbCircle
 10
55.00000000000000
 20
59.18154842042892
 30
0.000000000000000
 40
1.000000000000000
100
AcDbArc
 50
180.0000000000000
 51
257.4999999999999
  0
ARC
  5
19D
100
AcDbEntity
  8
A1
  6
CONTINUOUS
 62
7
100
AcDbCircle
 10
55.00000000000000
 20
59.18154842042892
 30
0.000000000000000
 40
2.000000000000000
100
AcDbArc
 50
180.0000000000000
 51
257.5000000000001
  0
LINE
  5
19E
100
AcDbEntity
  8
A1
  6
CONTINUOUS
 62
7
100
AcDbLine
 10
64.78356038606117
 20
54.96402627256532
 30
0.000000000000000
 11
64.99999999999929
 21
55.94032227968525
 31
0.000000000000000
  0
LINE
  5
19F
100
AcDbEntity
  8
A1
  6
CONTINUOUS
 62
7
100
AcDbLine
 10
53.99999999998872
 20
69.90000000000158
 30
0.000000000000000
 11
55.41421356237259
 21
71.31421356238545
 31
0.000000000000000
  0
LINE
  5
1A0
100
AcDbEntity
  8
A1
  6
CONTINUOUS
 62
7
100
AcDbLine
 10
53.29289321880211
 20
70.60710678118828
 30
0.000000000000000
 11
54.70710678118598
 21
72.02132034357213
 31
0.000000000000000
  0
ARC
  5
1A1
100
AcDbEntity
  8
A1
  6
CONTINUOUS
 62
7
100
AcDbCircle
 10
54.00000000000000
 20
69.90000000001291
 30
0.000000000000000
 40
1.000000000000000
100
AcDbArc
 50
134.9999999999994
 51
180.0000000000000
  0
LINE
  5
1A2
100
AcDbEntity
  8
A1
  6
CONTINUOUS
 62
7
100
AcDbLine
 10
56.71213203435612
 20
78.81213203435755
 30
0.000000000000000
 11
54.58578643761598
 21
76.68578643761816
 31
0.000000000000000
  0
LINE
  5
1A3
100
AcDbEntity
  8
A1
  6
CONTINUOUS
 62
7
100
AcDbLine
 10
57.41923881554251
 20
78.10502525317094
 30
0.000000000000000
 11
55.29289321880225
 21
75.97867965643142
 31
0.000000000000000
  0
ARC
  5
1A4
100
AcDbEntity
  8
A1
  6
CONTINUOUS
 62
7
100
AcDbCircle
 10
56.50000000000023
 20
79.02426406871356
 30
0.000000000000000
 40
0.3000000000000000
100
AcDbArc
 50
314.9999999999885
 51
360.0000000000000
  0
ARC
  5
1A5
100
AcDbEntity
  8
A1
  6
CONTINUOUS
 62
7
100
AcDbCircle
 10
56.50000000000023
 20
79.02426406871356
 30
0.000000000000000
 40
1.300000000000000
100
AcDbArc
 50
314.9999999999903
 51
360.0000000000000
  0
ARC
  5
1A6
100
AcDbEntity
  8
A1
  6
CONTINUOUS
 62
7
100
AcDbCircle
 10
55.99999999998875
 20
75.27157287524480
 30
0.000000000000000
 40
2.000000000000000
100
AcDbArc
 50
134.9999999999902
 51
209.8279761925665
  0
ARC
  5
1A7
100
AcDbEntity
  8
A1
  6
CONTINUOUS
 62
7
100
AcDbCircle
 10
55.99999999998875
 20
75.27157287524480
 30
0.000000000000000
 40
1.000000000000000
100
AcDbArc
 50
134.9999999999902
 51
209.8279761925667
  0
ARC
  5
1A8
100
AcDbEntity
  8
A1
  6
CONTINUOUS
 62
7
100
AcDbCircle
 10
53.99999999999955
 20
72.72842712475855
 30
0.000000000000000
 40
2.000000000000000
100
AcDbArc
 50
315.0000000000000
 51
389.8279761925668
  0
ARC
  5
1A9
100
AcDbEntity
  8
A1
  6
CONTINUOUS
 62
7
100
AcDbCircle
 10
53.99999999999955
 20
72.72842712475855
 30
0.000000000000000
 40
1.000000000000000
100
AcDbArc
 50
315.0000000000006
 51
389.8279761925668
  0
LINE
  5
1AA
100
AcDbEntity
  8
A1
  6
CONTINUOUS
 62
7
100
AcDbLine
 10
54.26495462170315
 20
74.27677765245286
 30
0.000000000000000
 11
54.86752268914233
 21
73.22582473615452
 31
0.000000000000000
  0
LINE
  5
1AB
100
AcDbEntity
  8
A1
  6
CONTINUOUS
 62
7
100
AcDbLine
 10
55.73504537828505
 20
73.72322234755043
 30
0.000000000000000
 11
55.13247731084587
 21
74.77417526384878
 31
0.000000000000000
  0
LINE
  5
1AC
100
AcDbEntity
  8
A1
  6
CONTINUOUS
 62
7
100
AcDbLine
 10
53.00000000000000
 20
110.6184515795742
 30
0.000000000000000
 11
53.00000000000000
 21
99.89999999999017
 31
0.000000000000000
  0
LINE
  5
1AD
100
AcDbEntity
  8
A1
  6
CONTINUOUS
 62
7
100
AcDbLine
 10
54.00000000000000
 20
110.6184515795742
 30
0.000000000000000
 11
54.00000000000000
 21
99.89999999999017
 31
0.000000000000000
  0
LINE
  5
1AE
100
AcDbEntity
  8
A1
  6
CONTINUOUS
 62
7
100
AcDbLine
 10
54.78356038606194
 20
111.5947475866941
 30
0.000000000000000
 11
64.99999999999940
 21
113.8596777203179
 31
0.000000000000000
  0
LINE
  5
1AF
100
AcDbEntity
  8
A1
  6
CONTINUOUS
 62
7
100
AcDbLine
 10
54.56712077212377
 20
112.5710435938140
 30
0.000000000000000
 11
64.78356038606123
 21
114.8359737274378
 31
0.000000000000000
  0
ARC
  5
1B0
100
AcDbEntity
  8
A1
  6
CONTINUOUS
 62
7
100
AcDbCircle
 10
55.00000000000000
 20
110.6184515795742
 30
0.000000000000000
 40
1.000000000000000
100
AcDbArc
 50
102.5000000000001
 51
180.0000000000000
  0
ARC
  5
1B1
100
AcDbEntity
  8
A1
  6
CONTINUOUS
 62
7
100
AcDbCircle
 10
55.00000000000000
 20
110.6184515795742
 30
0.000000000000000
 40
2.000000000000000
100
AcDbArc
 50
102.4999999999999
 51
180.0000000000000
  0
LINE
  5
1B2
100
AcDbEntity
  8
A1
  6
CONTINUOUS
 62
7
100
AcDbLine
 10
64.78356038606114
 20
114.8359737274379
 30
0.000000000000000
 11
64.99999999999925
 21
113.8596777203179
 31
0.000000000000000
  0
LINE
  5
1B3
100
AcDbEntity
  8
A1
  6
CONTINUOUS
 62
7
100
AcDbLine
 10
53.99999999998868
 20
99.90000000000144
 30
0.000000000000000
 11
55.41421356237255
 21
98.48578643761758
 31
0.000000000000000
  0
LINE
  5
1B4
100
AcDbEntity
  8
A1
  6
CONTINUOUS
 62
7
100
AcDbLine
 10
53.29289321880216
 20
99.19289321881493
 30
0.000000000000000
 11
54.70710678118599
 21
97.77867965643111
 31
0.000000000000000
  0
ARC
  5
1B5
100
AcDbEntity
  8
A1
  6
CONTINUOUS
 62
7
100
AcDbCircle
 10
54.00000000000000
 20
99.89999999999017
 30
0.000000000000000
 40
1.000000000000000
100
AcDbArc
 50
180.0000000000000
 51
225.0000000000006
  0
LINE
  5
1B6
100
AcDbEntity
  8
A1
  6
CONTINUOUS
 62
7
100
AcDbLine
 10
56.71213203435610
 20
90.98786796564553
 30
0.000000000000000
 11
54.58578643761595
 21
93.11421356238493
 31
0.000000000000000
  0
LINE
  5
1B7
100
AcDbEntity
  8
A1
  6
CONTINUOUS
 62
7
100
AcDbLine
 10
57.41923881554244
 20
91.69497474683217
 30
0.000000000000000
 11
55.29289321880222
 21
93.82132034357164
 31
0.000000000000000
  0
ARC
  5
1B8
100
AcDbEntity
  8
A1
  6
CONTINUOUS
 62
7
100
AcDbCircle
 10
56.50000000000023
 20
90.77573593128952
 30
0.000000000000000
 40
0.3000000000000000
100
AcDbArc
 50
0.000000000000000
 51
45.00000000001150
  0
ARC
  5
1B9
100
AcDbEntity
  8
A1
  6
CONTINUOUS
 62
7
100
AcDbCircle
 10
56.50000000000023
 20
90.77573593128952
 30
0.000000000000000
 40
1.300000000000000
100
AcDbArc
 50
0.000000000000000
 51
45.00000000000972
  0
ARC
  5
1BA
100
AcDbEntity
  8
A1
  6
CONTINUOUS
 62
7
100
AcDbCircle
 10
55.99999999998875
 20
94.52842712475828
 30
0.000000000000000
 40
2.000000000000000
100
AcDbArc
 50
150.1720238074335
 51
225.0000000000098
  0
ARC
  5
1BB
100
AcDbEntity
  8
A1
  6
CONTINUOUS
 62
7
100
AcDbCircle
 10
55.99999999998875
 20
94.52842712475828
 30
0.000000000000000
 40
1.000000000000000
100
AcDbArc
 50
150.1720238074333
 51
225.0000000000098
  0
ARC
  5
1BC
100
AcDbEntity
  8
A1
  6
CONTINUOUS
 62
7
100
AcDbCircle
 10
53.99999999999955
 20
97.07157287524453
 30
0.000000000000000
 40
2.000000000000000
100
AcDbArc
 50
330.1720238074332
 51
404.9999999999999
  0
ARC
  5
1BD
100
AcDbEntity
  8
A1
  6
CONTINUOUS
 62
7
100
AcDbCircle
 10
53.99999999999955
 20
97.07157287524453
 30
0.000000000000000
 40
1.000000000000000
100
AcDbArc
 50
330.1720238074332
 51
404.9999999999994
  0
LINE
  5
1BE
100
AcDbEntity
  8
A1
  6
CONTINUOUS
 62
7
100
AcDbLine
 10
54.26495462170320
 20
95.52322234755033
 30
0.000000000000000
 11
54.86752268914238
 21
96.57417526384867
 31
0.000000000000000
  0
LINE
  5
1BF
100
AcDbEntity
  8
A1
  6
CONTINUOUS
 62
7
100
AcDbLine
 10
55.73504537828519
 20
96.07677765245269
 30
0.000000000000000
 11
55.13247731084602
 21
95.02582473615435
 31
0.000000000000000
  0
LINE
  5
1C0
100
AcDbEntity
  8
A1
  6
CONTINUOUS
 62
7
100
AcDbLine
 10
57.80000000000018
 20
79.02426406871356
 30
0.000000000000000
 11
57.80000000000018
 21
90.77573593128952
 31
0.000000000000000
  0
LINE
  5
1C1
100
AcDbEntity
  8
A1
  6
CONTINUOUS
 62
7
100
AcDbLine
 10
56.80000000000018
 20
79.02426406871356
 30
0.000000000000000
 11
56.80000000000018
 21
90.77573593128952
 31
0.000000000000000
  0
ARC
  5
1C2
100
AcDbEntity
  8
A1
  6
CONTINUOUS
 62
7
100
AcDbCircle
 10
59.40000000000009
 20
56.46500000000034
 30
0.000000000000000
 40
3.964999999999999
100
AcDbArc
 50
357.6659397403221
 51
517.3340602596779
  0
ARC
  5
1C3
100
AcDbEntity
  8
A1
  6
CONTINUOUS
 62
7
100
AcDbCircle
 10
59.40000000000009
 20
56.46500000000034
 30
0.000000000000000
 40
3.964999999999999
100
AcDbArc
 50
171.8418556335158
 51
343.1581443664844
  0
ARC
  5
1C4
100
AcDbEntity
  8
A1
  6
CONTINUOUS
 62
7
100
AcDbCircle
 10
64.80000000000007
 20
64.12500000000156
 30
0.000000000000000
 40
3.174999999999999
100
AcDbArc
 50
180.0000000000000
 51
360.0000000000000
  0
ARC
  5
1C5
100
AcDbEntity
  8
A1
  6
CONTINUOUS
 62
7
100
AcDbCircle
 10
64.80000000000007
 20
64.12500000000156
 30
0.000000000000000
 40
3.174999999999999
100
AcDbArc
 50
18.35843707533010
 51
161.6415629246699
  0
ARC
  5
1C6
100
AcDbEntity
  8
A1
  6
CONTINUOUS
 62
7
100
AcDbCircle
 10
64.80000000000007
 20
105.6750000000015
 30
0.000000000000000
 40
3.174999999999999
100
AcDbArc
 50
198.3584370753279
 51
341.6415629246720
  0
ARC
  5
1C7
100
AcDbEntity
  8
A1
  6
CONTINUOUS
 62
7
100
AcDbCircle
 10
64.80000000000007
 20
105.6750000000015
 30
0.000000000000000
 40
3.174999999999999
100
AcDbArc
 50
0.000000000000000
 51
180.0000000000000
  0
ARC
  5
1C8
100
AcDbEntity
  8
A1
  6
CONTINUOUS
 62
7
100
AcDbCircle
 10
59.40000000000009
 20
113.3350000000030
 30
0.000000000000000
 40
3.964999999999999
100
AcDbArc
 50
16.84185563351389
 51
188.1581443664863
  0
ARC
  5
1C9
100
AcDbEntity
  8
A1
  6
CONTINUOUS
 62
7
100
AcDbCircle
 10
59.40000000000009
 20
113.3350000000030
 30
0.000000000000000
 40
3.964999999999999
100
AcDbArc
 50
202.6659397403229
 51
362.3340602596767
  0
SPLINE
  5
1CA
100
AcDbEntity
  8
A1
  6
CONTINUOUS
 62
7
100
AcDbSpline
210
0.000000000000000
220
0.000000000000000
230
1.000000000000000
 70
     8
 71
     3
 72
    12
 73
     8
 74
     0
 42
1.000000000000000e-07
 43
1.000000000000000e-07
 12
-0.8305197130903252
 22
0.5569892334351607
 32
0.000000000000000
 13
-0.9922250698073185
 23
0.1244564616827120
 33
0.000000000000000
 40
0.000000000000000
 40
0.000000000000000
 40
0.000000000000000
 40
0.000000000000000
 40
0.1476387386508249
 40
0.2822857224884500
 40
0.4255565306637948
 40
0.5380608954055803
 40
0.6041930190002764
 40
0.6041930190002764
 40
0.6041930190002764
 40
0.6041930190002764
 10
1230.685786999982
 20
189.3161516083682
 30
0.000000000000000
 10
1230.644914705693
 20
189.3435626709903
 30
0.000000000000000
 10
1230.566175697360
 20
189.3950393186650
 30
0.000000000000000
 10
1230.446545487468
 20
189.4714907676397
 30
0.000000000000000
 10
1230.333949714875
 20
189.5361574787782
 30
0.000000000000000
 10
1230.237732463929
 20
189.5858183394313
 30
0.000000000000000
 10
1230.178786692808
 20
189.5972564766345
 30
0.000000000000000
 10
1230.156914042491
 20
189.6000000000032
 30
0.000000000000000
  0
ARC
  5
1CB
100
AcDbEntity
  8
A1
  6
CONTINUOUS
 62
7
100
AcDbCircle
 10
1230.099999999983
 20
187.1000000000032
 30
0.000000000000000
 40
2.500000000000000
100
AcDbArc
 50
0.000000000000000
 51
36.86992168959200
  0
ARC
  5
1CC
100
AcDbEntity
  8
A1
  6
CONTINUOUS
 62
7
100
AcDbCircle
 10
1230.099999999983
 20
187.1000000000026
 30
0.000000000000000
 40
2.500000000000672
100
AcDbArc
 50
36.86992168959897
 51
88.73278272353139
  0
ARC
  5
1CD
100
AcDbEntity
  8
A1
  6
CONTINUOUS
 62
7
100
AcDbCircle
 10
1229.745300624681
 20
187.9000000000032
 30
0.000000000000000
 40
1.699999999999892
100
AcDbArc
 50
45.00000000001079
 51
56.41129919730418
  0
ARC
  5
1CE
100
AcDbEntity
  8
A1
  6
CONTINUOUS
 62
7
100
AcDbCircle
 10
1230.599996277826
 20
186.6210350142248
 30
0.000000000000000
 40
2.000003722157540
100
AcDbArc
 50
0.000000000000000
 51
44.99993810155558
  0
LINE
  5
1CF
100
AcDbEntity
  8
A1
  6
CONTINUOUS
 62
7
100
AcDbLine
 10
1232.599999999983
 20
186.6210360142291
 30
0.000000000000000
 11
1232.599999999983
 21
187.1000000000034
 31
0.000000000000000
  0
LINE
  5
1D0
100
AcDbEntity
  8
A1
  6
CONTINUOUS
 62
7
100
AcDbLine
 10
1232.599999999983
 20
174.1000000000034
 30
0.000000000000000
 11
1232.599999999983
 21
174.8999999999997
 31
0.000000000000000
  0
LINE
  5
1D1
100
AcDbEntity
  8
A1
  6
CONTINUOUS
 62
7
100
AcDbLine
 10
1230.099999999983
 20
174.1000000000034
 30
0.000000000000000
 11
1230.099999999983
 21
174.8999999999997
 31
0.000000000000000
  0
LINE
  5
1D2
100
AcDbEntity
  8
A1
  6
CONTINUOUS
 62
7
100
AcDbLine
 10
1232.599999999983
 20
174.1000000000034
 30
0.000000000000000
 11
1232.599999999983
 21
169.1000000000034
 31
0.000000000000000
  0
LINE
  5
1D3
100
AcDbEntity
  8
A1
  6
CONTINUOUS
 62
7
100
AcDbLine
 10
1230.099999999983
 20
169.1000000000034
 30
0.000000000000000
 11
1230.099999999983
 21
174.1000000000034
 31
0.000000000000000
  0
LINE
  5
1D4
100
AcDbEntity
  8
A1
  6
CONTINUOUS
 62
7
100
AcDbLine
 10
1230.099999999983
 20
174.1000000000034
 30
0.000000000000000
 11
1232.599999999983
 21
174.1000000000034
 31
0.000000000000000
  0
LINE
  5
1D5
100
AcDbEntity
  8
A1
  6
CONTINUOUS
 62
7
100
AcDbLine
 10
1232.599999999983
 20
169.1000000000034
 30
0.000000000000000
 11
1230.099999999983
 21
169.1000000000034
 31
0.000000000000000
  0
LINE
  5
1D6
100
AcDbEntity
  8
A1
  6
CONTINUOUS
 62
7
100
AcDbLine
 10
1232.099999370519
 20
187.9439127903461
 30
0.000000000000000
 11
1232.099999370519
 21
188.6000008392883
 31
0.000000000000000
  0
LINE
  5
1D7
100
AcDbEntity
  8
A1
  6
CONTINUOUS
 62
7
100
AcDbLine
 10
673.7999999999834
 20
189.1020815280209
 30
0.000000000000000
 11
673.7999999999834
 21
189.6000000000034
 31
0.000000000000000
  0
LINE
  5
1D8
100
AcDbEntity
  8
A1
  6
CONTINUOUS
 62
7
100
AcDbLine
 10
1230.156914042491
 20
189.6000000000034
 30
0.000000000000000
 11
673.7999999999834
 21
189.6000000000034
 31
0.000000000000000
  0
LINE
  5
1D9
100
AcDbEntity
  8
A1
  6
CONTINUOUS
 62
7
100
AcDbLine
 10
1232.599999999983
 20
184.7714453403706
 30
0.000000000000000
 11
1232.599999999983
 21
186.6210350142249
 31
0.000000000000000
  0
LINE
  5
1DA
100
AcDbEntity
  8
A1
  6
CONTINUOUS
 62
7
100
AcDbLine
 10
673.7999999999834
 20
184.7714453403706
 30
0.000000000000000
 11
673.7999999999834
 21
189.1020815280209
 31
0.000000000000000
  0
LINE
  5
1DB
100
AcDbEntity
  8
A1
  6
CONTINUOUS
 62
7
100
AcDbLine
 10
1232.014213999983
 20
188.0352496807367
 30
0.000000000000000
 11
1230.947382152699
 21
189.1020815280201
 31
0.000000000000000
  0
LINE
  5
1DC
100
AcDbEntity
  8
A1
  6
CONTINUOUS
 62
7
100
AcDbLine
 10
1230.947382152699
 20
189.1020815280208
 30
0.000000000000000
 11
673.7999999999834
 21
189.1020815280209
 31
0.000000000000000
  0
LINE
  5
1DD
100
AcDbEntity
  8
A1
  6
CONTINUOUS
 62
7
100
AcDbLine
 10
1232.599999999983
 20
174.8999999999997
 30
0.000000000000000
 11
1232.599999999983
 21
184.7714453403706
 31
0.000000000000000
  0
LINE
  5
1DE
100
AcDbEntity
  8
A1
  6
CONTINUOUS
 62
7
100
AcDbLine
 10
673.7999999999834
 20
174.8999999999997
 30
0.000000000000000
 11
673.7999999999834
 21
184.7714453403706
 31
0.000000000000000
  0
LINE
  5
1DF
100
AcDbEntity
  8
A1
  6
CONTINUOUS
 62
7
100
AcDbLine
 10
1232.599999999983
 20
174.8999999999997
 30
0.000000000000000
 11
673.7999999999834
 21
174.8999999999997
 31
0.000000000000000
  0
LINE
  5
1E0
100
AcDbEntity
  8
A1
  6
CONTINUOUS
 62
7
100
AcDbLine
 10
1232.599999999983
 20
184.7714453403706
 30
0.000000000000000
 11
673.7999999999834
 21
184.7714453403706
 31
0.000000000000000
  0
SPLINE
  5
1E1
100
AcDbEntity
  8
A1
  6
CONTINUOUS
 62
7
100
AcDbSpline
210
0.000000000000000
220
0.000000000000000
230
1.000000000000000
 70
     8
 71
     3
 72
    17
 73
    13
 74
     0
 42
1.000000000000000e-07
 43
1.000000000000000e-07
 12
-0.007049927397019928
 22
-0.9999751489544906
 32
0.000000000000000
 13
0.9999995238431438
 23
0.0009758660564784805
 33
0.000000000000000
 40
0.000000000000000
 40
0.000000000000000
 40
0.000000000000000
 40
0.000000000000000
 40
0.2816393116382642
 40
0.5634931201143776
 40
0.8349480651394319
 40
1.117917651600681
 40
1.392672024345254
 40
1.687069308203062
 40
1.989579451103520
 40
2.312133100972579
 40
2.570875769953747
 40
2.836914172936747
 40
2.836914172936747
 40
2.836914172936747
 40
2.836914172936747
 10
421.6999999999828
 20
172.0686259857052
 30
0.000000000000000
 10
421.6993381544165
 20
171.9747485481695
 30
0.000000000000000
 10
421.7158280920801
 20
171.7863987365330
 30
0.000000000000000
 10
421.7915416407785
 20
171.5166919038606
 30
0.000000000000000
 10
421.9226344818533
 20
171.2682835551306
 30
0.000000000000000
 10
422.1017883194052
 20
171.0550973711719
 30
0.000000000000000
 10
422.3246660030671
 20
170.8765835775943
 30
0.000000000000000
 10
422.5801633916779
 20
170.7355820066306
 30
0.000000000000000
 10
422.8681988877473
 20
170.6282031886771
 30
0.000000000000000
 10
423.1558316078188
 20
170.5610900278542
 30
0.000000000000000
 10
423.4362933643482
 20
170.5252210369337
 30
0.000000000000000
 10
423.6113205745472
 20
170.5177273497792
 30
0.000000000000000
 10
423.6999999999828
 20
170.5178138890616
 30
0.000000000000000
  0
LINE
  5
1E2
100
AcDbEntity
  8
A1
  6
CONTINUOUS
 62
7
100
AcDbLine
 10
421.6999999999828
 20
183.0989714450058
 30
0.000000000000000
 11
421.6999999999828
 21
185.3999999999970
 31
0.000000000000000
  0
LINE
  5
1E3
100
AcDbEntity
  8
A1
  6
CONTINUOUS
 62
7
100
AcDbLine
 10
673.7999999999834
 20
185.3999999999970
 30
0.000000000000000
 11
421.6999999999828
 21
185.3999999999970
 31
0.000000000000000
  0
LINE
  5
1E4
100
AcDbEntity
  8
A1
  6
CONTINUOUS
 62
7
100
AcDbLine
 10
421.6999999999828
 20
183.0989714450055
 30
0.000000000000000
 11
421.6999999999828
 21
177.1878158831997
 31
0.000000000000000
  0
LINE
  5
1E5
100
AcDbEntity
  8
A1
  6
CONTINUOUS
 62
7
100
AcDbLine
 10
673.7999999999834
 20
183.0989714450058
 30
0.000000000000000
 11
421.6999999999828
 21
183.0989714450058
 31
0.000000000000000
  0
LINE
  5
1E6
100
AcDbEntity
  8
A1
  6
CONTINUOUS
 62
7
100
AcDbLine
 10
421.6999999999828
 20
172.0686259857051
 30
0.000000000000000
 11
421.6999999999828
 21
177.1878158831997
 31
0.000000000000000
  0
LINE
  5
1E7
100
AcDbEntity
  8
A1
  6
CONTINUOUS
 62
7
100
AcDbLine
 10
969.0999999999829
 20
170.5178138890616
 30
0.000000000000000
 11
423.6999999999828
 21
170.5178138890616
 31
0.000000000000000
  0
LINE
  5
1E8
100
AcDbEntity
  8
A1
  6
CONTINUOUS
 62
7
100
AcDbLine
 10
969.0999999999829
 20
170.5178138890616
 30
0.000000000000000
 11
969.0999999999829
 21
174.9000000000006
 31
0.000000000000000
  0
LINE
  5
1E9
100
AcDbEntity
  8
A1
  6
CONTINUOUS
 62
7
100
AcDbLine
 10
673.7999999999834
 20
177.1878158831997
 30
0.000000000000000
 11
421.6999999999828
 21
177.1878158831997
 31
0.000000000000000
  0
LINE
  5
1EA
100
AcDbEntity
  8
A1
  6
CONTINUOUS
 62
7
100
AcDbLine
 10
972.0999999999851
 20
173.7000000000065
 30
0.000000000000000
 11
969.0999999999829
 21
173.7000000000065
 31
0.000000000000000
  0
LINE
  5
1EB
100
AcDbEntity
  8
A1
  6
CONTINUOUS
 62
7
100
AcDbLine
 10
972.0999999999851
 20
174.9000000000006
 30
0.000000000000000
 11
972.0999999999851
 21
173.7000000000065
 31
0.000000000000000
  0
LINE
  5
1EC
100
AcDbEntity
  8
A1
  6
CONTINUOUS
 62
7
100
AcDbLine
 10
119.7999999999823
 20
169.8000000000033
 30
0.000000000000000
 11
119.7999999999823
 21
172.7267245149343
 31
0.000000000000000
  0
LINE
  5
1ED
100
AcDbEntity
  8
A1
  6
CONTINUOUS
 62
7
100
AcDbLine
 10
670.1000000065860
 20
169.8000000000034
 30
0.000000000000000
 11
119.7999999999826
 21
169.8000000000033
 31
0.000000000000000
  0
LINE
  5
1EE
100
AcDbEntity
  8
A1
  6
CONTINUOUS
 62
7
100
AcDbLine
 10
119.7999999999823
 20
177.4655205870557
 30
0.000000000000000
 11
119.7999999999823
 21
172.7267245149343
 31
0.000000000000000
  0
LINE
  5
1EF
100
AcDbEntity
  8
A1
  6
CONTINUOUS
 62
7
100
AcDbLine
 10
421.6999999999828
 20
172.7267245149343
 30
0.000000000000000
 11
119.7999999999823
 21
172.7267245149343
 31
0.000000000000000
  0
LINE
  5
1F0
100
AcDbEntity
  8
A1
  6
CONTINUOUS
 62
7
100
AcDbLine
 10
119.7999999999823
 20
177.4655205870557
 30
0.000000000000000
 11
119.7999999999823
 21
177.5807816322037
 31
0.000000000000000
  0
LINE
  5
1F1
100
AcDbEntity
  8
A1
  6
CONTINUOUS
 62
7
100
AcDbLine
 10
421.6999999999828
 20
177.4655205870557
 30
0.000000000000000
 11
119.7999999999823
 21
177.4655205870557
 31
0.000000000000000
  0
LINE
  5
1F2
100
AcDbEntity
  8
A1
  6
CONTINUOUS
 62
7
100
AcDbLine
 10
119.7999999999823
 20
177.5807816322037
 30
0.000000000000000
 11
119.7999999999823
 21
179.2000000000036
 31
0.000000000000000
  0
LINE
  5
1F3
100
AcDbEntity
  8
A1
  6
CONTINUOUS
 62
7
100
AcDbLine
 10
421.6999999999828
 20
177.5807816322036
 30
0.000000000000000
 11
119.7999999999823
 21
177.5807816322037
 31
0.000000000000000
  0
LINE
  5
1F4
100
AcDbEntity
  8
A1
  6
CONTINUOUS
 62
7
100
AcDbLine
 10
421.6999999999829
 20
179.2000000000037
 30
0.000000000000000
 11
119.7999999999824
 21
179.2000000000036
 31
0.000000000000000
  0
LINE
  5
1F5
100
AcDbEntity
  8
A1
  6
CONTINUOUS
 62
7
100
AcDbLine
 10
670.1000000065858
 20
169.8000000000035
 30
0.000000000000000
 11
670.1000000065948
 21
170.5178138874474
 31
0.000000000000000
  0
ENDSEC
  0
SECTION
  2
OBJECTS
  0
DICTIONARY
  5
221
100
AcDbDictionary
  3
ACAD_GROUP
350
222
  3
ACAD_LAYOUT
350
223
  3
ACAD_MLINESTYLE
350
224
  0
DICTIONARY
  5
222
102
{ACAD_REACTORS
330
221
102
}
330
221
100
AcDbDictionary
  0
DICTIONARY
  5
223
102
{ACAD_REACTORS
330
221
102
}
330
221
100
AcDbDictionary
  3
Model
350
225
  3
ﾚｲｱｳﾄ1
350
226
  3
ﾚｲｱｳﾄ2
350
227
  0
DICTIONARY
  5
224
102
{ACAD_REACTORS
330
221
102
}
330
221
100
AcDbDictionary
  3
STANDARD
350
228
  0
LAYOUT
  5
225
102
{ACAD_REACTORS
330
223
102
}
330
223
100
AcDbPlotSettings
 70
11952
  4
A3
 44
297.000000
 45
420.000000
 73
  1
 72
  1
100
AcDbLayout
  1
Model
 71
0
330
218
  0
LAYOUT
  5
226
102
{ACAD_REACTORS
330
223
102
}
330
223
100
AcDbPlotSettings
100
AcDbLayout
  1
ﾚｲｱｳﾄ1
 71
1
330
219
  0
LAYOUT
  5
227
102
{ACAD_REACTORS
330
223
102
}
330
223
100
AcDbPlotSettings
100
AcDbLayout
  1
ﾚｲｱｳﾄ2
 71
2
330
21A
  0
MLINESTYLE
  5
228
102
{ACAD_REACTORS
330
224
102
}
330
224
100
AcDbMlineStyle
  2
STANDARD
 70
     0
  3

 62
   256
 51
90.00
 52
90.00
 71
     2
 49
0.50
 62
   256
  6
BYLAYER
 49
-0.50
 62
   256
  6
BYLAYER
  0
ENDSEC
  0
EOF
