  0
SECTION
  2
HEADER
  9
$ACADVER
  1
AC1024
  9
$DWGCODEPAGE
  3
ANSI_932
  9
$LTSCALE
 40
20.0
  9
$FILLMODE
 70
     1
  9
$CLAYER
  8
0
  9
$PDMODE
 70
     0
  9
$SPLFRAME
 70
     0
  9
$SPLINETYPE
 70
     6
  9
$SPLINESEGS
 70
     8
  9
$DIMASZ
 40
2.000000
  9
$DIMEXE
 40
1.500000
  9
$DIMEXO
 40
0.800000
  9
$DIMTAD
 70
     1
  9
$DIMTIH
 70
     0
  9
$DIMTOH
 70
     0
  9
$DIMTVP
 40
0.500000
  9
$DIMTXT
 40
3.100000
  9
$EXTMIN
 10
0.000000
 20
0.000000
 30
0.000000
  9
$EXTMAX
 10
297.000000
 20
420.000000
 30
0.000000
  9
$MEASUREMENT
 70
  1
  9
$LIMMIN
 10
0.000000
 20
0.000000
  9
$LIMMAX
 10
297.000000
 20
420.000000
  9
$HANDSEED
  5
228
  9
$LWDISPLAY
290
     0
  9
$DIMBLK
  1
_OPEN
  9
$DIMDEC
 70
     2
  9
$DIMADEC
 70
     2
  9
$DIMAUNIT
 70
     0
  9
$DIMZIN
 70
     8
  9
$DIMAZIN
 70
     2
  9
$DIMTOFL
 70
     1
  0
ENDSEC
  0
SECTION
  2
CLASSES
  0
ENDSEC
  0
SECTION
  2
TABLES
  0
TABLE
  2
VPORT
  5
1F5
100
AcDbSymbolTable
 70
     1
  0
VPORT
  5
1F6
100
AcDbSymbolTableRecord
100
AcDbViewportTableRecord
  2
*ACTIVE
 70
     0
 12
674.449999
 22
103.800000
 40
171.599999
 41
7.744173
  0
ENDTAB
  0
TABLE
  2
LTYPE
  5
1F7
100
AcDbSymbolTable
 70
     3
  0
LTYPE
  5
1F8
100
AcDbSymbolTableRecord
100
AcDbLinetypeTableRecord
  2
BYBLOCK
 70
     0
  3

 72
    65
 73
     0
 40
0.0
  0
LTYPE
  5
1F9
100
AcDbSymbolTableRecord
100
AcDbLinetypeTableRecord
  2
BYLAYER
 70
     0
  3

 72
    65
 73
     0
 40
0.0
  0
LTYPE
  5
1FA
100
AcDbSymbolTableRecord
100
AcDbLinetypeTableRecord
  2
CONTINUOUS
 70
     0
  3
Solid line (NEC CAE2D for Win R18.0 : 2024.11.07)
 72
    65
 73
     0
 40
0.0
  0
LTYPE
  5
1FB
100
AcDbSymbolTableRecord
100
AcDbLinetypeTableRecord
  2
DASHED
 70
     0
  3
__ __ __ __ __ __ __ __ __ __ __ __ __ _
 72
    65
 73
     2
 40
0.75
 49
0.5
 74
     0
 49
-0.25
 74
     0
  0
LTYPE
  5
1FC
100
AcDbSymbolTableRecord
100
AcDbLinetypeTableRecord
  2
CENTER
 70
     0
  3
____ _ ____ _ ____ _ ____ _ ____ _ ____
 72
    65
 73
     4
 40
2.0
 49
1.25
 74
     0
 49
-0.25
 74
     0
 49
0.25
 74
     0
 49
-0.25
 74
     0
  0
ENDTAB
  0
TABLE
  2
LAYER
  5
1FD
100
AcDbSymbolTable
 70
    12
  0
LAYER
  5
1FE
100
AcDbSymbolTableRecord
100
AcDbLayerTableRecord
  2
0
 70
     0
 62
     7
  6
CONTINUOUS
370
    -3
390

  0
LAYER
  5
1FF
100
AcDbSymbolTableRecord
100
AcDbLayerTableRecord
  2
A0
 70
     0
 62
     9
  6
CONTINUOUS
370
    -3
390

  0
LAYER
  5
200
100
AcDbSymbolTableRecord
100
AcDbLayerTableRecord
  2
A1
 70
     0
 62
    12
  6
CONTINUOUS
370
    -3
390

  0
LAYER
  5
201
100
AcDbSymbolTableRecord
100
AcDbLayerTableRecord
  2
A3
 70
     0
 62
    12
  6
CONTINUOUS
370
    -3
390

  0
LAYER
  5
202
100
AcDbSymbolTableRecord
100
AcDbLayerTableRecord
  2
A4
 70
     0
 62
     9
  6
CONTINUOUS
370
    -3
390

  0
LAYER
  5
203
100
AcDbSymbolTableRecord
100
AcDbLayerTableRecord
  2
A8
 70
     0
 62
    10
  6
CONTINUOUS
370
    -3
390

  0
LAYER
  5
204
100
AcDbSymbolTableRecord
100
AcDbLayerTableRecord
  2
A10
 70
     0
 62
     6
  6
CONTINUOUS
370
    -3
390

  0
LAYER
  5
205
100
AcDbSymbolTableRecord
100
AcDbLayerTableRecord
  2
A20
 70
     0
 62
     1
  6
CONTINUOUS
370
    -3
390

  0
LAYER
  5
206
100
AcDbSymbolTableRecord
100
AcDbLayerTableRecord
  2
A30
 70
     0
 62
     1
  6
CONTINUOUS
370
    -3
390

  0
LAYER
  5
207
100
AcDbSymbolTableRecord
100
AcDbLayerTableRecord
  2
A40
 70
     0
 62
     9
  6
CONTINUOUS
370
    -3
390

  0
LAYER
  5
208
100
AcDbSymbolTableRecord
100
AcDbLayerTableRecord
  2
A50
 70
     0
 62
    12
  6
CONTINUOUS
370
    -3
390

  0
LAYER
  5
209
100
AcDbSymbolTableRecord
100
AcDbLayerTableRecord
  2
A1023
 70
     0
 62
    16
  6
CONTINUOUS
370
    -3
390

  0
ENDTAB
  0
TABLE
  2
STYLE
  5
20A
100
AcDbSymbolTable
 70
     4
  0
STYLE
  5
20B
100
AcDbSymbolTableRecord
100
AcDbTextStyleTableRecord
  2
STANDARD
 70
    64
 40
0.0
 41
1.0
 50
0.0
 71
     0
 42
3.000000000000000
  3
TXT
  4

  0
STYLE
  5
20C
100
AcDbSymbolTableRecord
100
AcDbTextStyleTableRecord
  2
ANKTATE
 70
    68
 40
0.0
 41
1.0
 50
0.0
 71
     0
 42
3.000000000000000
  3
TXT
  4

  0
STYLE
  5
20D
100
AcDbSymbolTableRecord
100
AcDbTextStyleTableRecord
  2
KNJYOKO
 70
    64
 40
0.0
 41
1.0
 50
0.0
 71
     0
 42
3.000000000000000
  3
TXT
  4
BIGFONT
  0
STYLE
  5
20E
100
AcDbSymbolTableRecord
100
AcDbTextStyleTableRecord
  2
KNJTATE
 70
    68
 40
0.0
 41
1.0
 50
0.0
 71
     0
 42
3.000000000000000
  3
TXT
  4
BIGFONT
  0
ENDTAB
  0
TABLE
  2
VIEW
  5
20F
100
AcDbSymbolTable
 70
     0
  0
ENDTAB
  0
TABLE
  2
UCS
  5
210
100
AcDbSymbolTable
 70
     0
  0
ENDTAB
  0
TABLE
  2
APPID
  5
211
100
AcDbSymbolTable
 70
     1
  0
APPID
  5
212
100
AcDbSymbolTableRecord
100
AcDbRegAppTableRecord
  2
ACAD
 70
     0
  0
ENDTAB
  0
TABLE
  2
DIMSTYLE
  5
213
100
AcDbSymbolTable
 70
     2
100
AcDbDimStyleTable
  0
DIMSTYLE
105
214
100
AcDbSymbolTableRecord
100
AcDbDimStyleTableRecord
  2
STANDARD
 70
     0
 41
2.000000
 44
1.500000
 42
0.800000
145
0.661290
140
3.100000
144
1.000000
146
0.645161
340
20B
  0
DIMSTYLE
105
215
100
AcDbSymbolTableRecord
100
AcDbDimStyleTableRecord
  2
A001
 70
     0
 41
2.000000
 44
1.500000
 42
0.800000
145
0.661290
140
3.100000
144
1.000000
146
0.645161
 77
     1
 73
     0
 74
     0
271
     2
179
     2
275
     0
 78
     8
 79
     2
172
     1
340
20B
  0
ENDTAB
  0
TABLE
  2
BLOCK_RECORD
  5
216
100
AcDbSymbolTable
 70
    12
  0
BLOCK_RECORD
  5
217
100
AcDbSymbolTableRecord
100
AcDbBlockTableRecord
  2
*MODEL_SPACE
  0
BLOCK_RECORD
  5
218
100
AcDbSymbolTableRecord
100
AcDbBlockTableRecord
  2
*PAPER_SPACE
  0
BLOCK_RECORD
  5
219
100
AcDbSymbolTableRecord
100
AcDbBlockTableRecord
  2
*PAPER_SPACE0
  0
BLOCK_RECORD
  5
1
100
AcDbSymbolTableRecord
100
AcDbBlockTableRecord
  2
_NONE
  0
BLOCK_RECORD
  5
4
100
AcDbSymbolTableRecord
100
AcDbBlockTableRecord
  2
_CLOSED
  0
BLOCK_RECORD
  5
B
100
AcDbSymbolTableRecord
100
AcDbBlockTableRecord
  2
_DOT
  0
BLOCK_RECORD
  5
13
100
AcDbSymbolTableRecord
100
AcDbBlockTableRecord
  2
_OPEN
  0
BLOCK_RECORD
  5
19
100
AcDbSymbolTableRecord
100
AcDbBlockTableRecord
  2
_ORIGIN
  0
BLOCK_RECORD
  5
1E
100
AcDbSymbolTableRecord
100
AcDbBlockTableRecord
  2
_OPEN30
  0
BLOCK_RECORD
  5
24
100
AcDbSymbolTableRecord
100
AcDbBlockTableRecord
  2
_BOXFILLED
  0
BLOCK_RECORD
  5
29
100
AcDbSymbolTableRecord
100
AcDbBlockTableRecord
  2
_BOXBLANK
  0
BLOCK_RECORD
  5
31
100
AcDbSymbolTableRecord
100
AcDbBlockTableRecord
  2
_OBLIQUE
  0
BLOCK_RECORD
  5
35
100
AcDbSymbolTableRecord
100
AcDbBlockTableRecord
  2
_OPEN90
  0
BLOCK_RECORD
  5
3B
100
AcDbSymbolTableRecord
100
AcDbBlockTableRecord
  2
_CLOSEDBLANK
  0
BLOCK_RECORD
  5
41
100
AcDbSymbolTableRecord
100
AcDbBlockTableRecord
  2
_DOTBLANK
  0
ENDTAB
  0
ENDSEC
  0
SECTION
  2
BLOCKS
  0
BLOCK
  5
21A
100
AcDbEntity
  8
0
100
AcDbBlockBegin
  2
*MODEL_SPACE
 70
     0
 10
0.0
 20
0.0
 30
0.0
  3
*MODEL_SPACE
  1

  0
ENDBLK
  5
21B
100
AcDbEntity
  8
0
100
AcDbBlockEnd
  0
BLOCK
  5
21C
100
AcDbEntity
  8
0
100
AcDbBlockBegin
  2
*PAPER_SPACE
 70
     0
 10
0.0
 20
0.0
 30
0.0
  3
*PAPER_SPACE
  1

  0
ENDBLK
  5
21D
100
AcDbEntity
  8
0
100
AcDbBlockEnd
  0
BLOCK
  5
21E
100
AcDbEntity
  8
0
100
AcDbBlockBegin
  2
*PAPER_SPACE0
 70
     0
 10
0.0
 20
0.0
 30
0.0
  3
*PAPER_SPACE0
  1

  0
ENDBLK
  5
21F
100
AcDbEntity
  8
0
100
AcDbBlockEnd
  0
BLOCK
  5
2
330
1
100
AcDbEntity
  8
0
100
AcDbBlockBegin
  2
_NONE
 70
     0
 10
0.0
 20
0.0
 30
0.0
  3
_NONE
  1

  0
ENDBLK
  5
3
330
1
100
AcDbEntity
  8
0
100
AcDbBlockEnd
  0
BLOCK
  5
5
330
4
100
AcDbEntity
  8
0
100
AcDbBlockBegin
  2
_CLOSED
 70
     0
 10
0.0
 20
0.0
 30
0.0
  3
_CLOSED
  1

  0
LINE
  5
6
330
4
100
AcDbEntity
  8
0
  6
BYBLOCK
 62
     0
370
    -2
100
AcDbLine
 10
-1.0
 20
0.166667
 30
0.0
 11
0.0
 21
0.0
 31
0.0
  0
LINE
  5
7
330
4
100
AcDbEntity
  8
0
  6
BYBLOCK
 62
     0
370
    -2
100
AcDbLine
 10
0.0
 20
0.0
 30
0.0
 11
-1.0
 21
-0.166667
 31
0.0
  0
LINE
  5
8
330
4
100
AcDbEntity
  8
0
  6
BYBLOCK
 62
     0
370
    -2
100
AcDbLine
 10
-1.0
 20
0.166667
 30
0.0
 11
-1.0
 21
-0.166667
 31
0.0
  0
LINE
  5
9
330
4
100
AcDbEntity
  8
0
  6
BYBLOCK
 62
     0
370
    -2
100
AcDbLine
 10
0.0
 20
0.0
 30
0.0
 11
-1.0
 21
0.0
 31
0.0
  0
ENDBLK
  5
A
330
4
100
AcDbEntity
  8
0
100
AcDbBlockEnd
  0
BLOCK
  5
C
330
B
100
AcDbEntity
  8
0
100
AcDbBlockBegin
  2
_DOT
 70
     0
 10
0.0
 20
0.0
 30
0.0
  3
_DOT
  1

  0
POLYLINE
  5
D
330
B
100
AcDbEntity
  8
0
  6
BYBLOCK
 62
     0
370
    -2
100
AcDb2dPolyline
 66
     1
 10
0.0
 20
0.0
 30
0.0
 70
     1
 40
0.5
 41
0.5
  0
VERTEX
  5
E
330
B
100
AcDbEntity
  8
0
  6
BYBLOCK
 62
     0
370
    -2
100
AcDbVertex
100
AcDb2dVertex
 10
-0.25
 20
0.0
 30
0.0
 42
1.0
  0
VERTEX
  5
F
330
B
100
AcDbEntity
  8
0
  6
BYBLOCK
 62
     0
370
    -2
100
AcDbVertex
100
AcDb2dVertex
 10
0.25
 20
0.0
 30
0.0
 42
1.0
  0
SEQEND
  5
10
330
B
100
AcDbEntity
  8
0
  6
BYBLOCK
 62
     0
370
    -2
  0
LINE
  5
11
330
B
100
AcDbEntity
  8
0
  6
BYBLOCK
 62
     0
370
    -2
100
AcDbLine
 10
-0.5
 20
0.0
 30
0.0
 11
-1.0
 21
0.0
 31
0.0
  0
ENDBLK
  5
12
330
B
100
AcDbEntity
  8
0
100
AcDbBlockEnd
  0
BLOCK
  5
14
330
13
100
AcDbEntity
  8
0
100
AcDbBlockBegin
  2
_OPEN
 70
     0
 10
0.0
 20
0.0
 30
0.0
  3
_OPEN
  1

  0
LINE
  5
15
330
13
100
AcDbEntity
  8
0
  6
BYBLOCK
 62
     0
370
    -2
100
AcDbLine
 10
-1.0
 20
0.166667
 30
0.0
 11
0.0
 21
0.0
 31
0.0
  0
LINE
  5
16
330
13
100
AcDbEntity
  8
0
  6
BYBLOCK
 62
     0
370
    -2
100
AcDbLine
 10
0.0
 20
0.0
 30
0.0
 11
-1.0
 21
-0.166667
 31
0.0
  0
LINE
  5
17
330
13
100
AcDbEntity
  8
0
  6
BYBLOCK
 62
     0
370
    -2
100
AcDbLine
 10
0.0
 20
0.0
 30
0.0
 11
-1.0
 21
0.0
 31
0.0
  0
ENDBLK
  5
18
330
13
100
AcDbEntity
  8
0
100
AcDbBlockEnd
  0
BLOCK
  5
1A
330
19
100
AcDbEntity
  8
0
100
AcDbBlockBegin
  2
_ORIGIN
 70
     0
 10
0.0
 20
0.0
 30
0.0
  3
_ORIGIN
  1

  0
CIRCLE
  5
1B
330
19
100
AcDbEntity
  8
0
  6
BYBLOCK
 62
     0
370
    -2
100
AcDbCircle
 10
0.0
 20
0.0
 30
0.0
 40
0.5
  0
LINE
  5
1C
330
19
100
AcDbEntity
  8
0
  6
BYBLOCK
 62
     0
370
    -2
100
AcDbLine
 10
0.0
 20
0.0
 30
0.0
 11
-1.0
 21
0.0
 31
0.0
  0
ENDBLK
  5
1D
330
19
100
AcDbEntity
  8
0
100
AcDbBlockEnd
  0
BLOCK
  5
1F
330
1E
100
AcDbEntity
  8
0
100
AcDbBlockBegin
  2
_OPEN30
 70
     0
 10
0.0
 20
0.0
 30
0.0
  3
_OPEN30
  1

  0
LINE
  5
20
330
1E
100
AcDbEntity
  8
0
  6
BYBLOCK
 62
     0
370
    -2
100
AcDbLine
 10
-1.0
 20
0.267949
 30
0.0
 11
0.0
 21
0.0
 31
0.0
  0
LINE
  5
21
330
1E
100
AcDbEntity
  8
0
  6
BYBLOCK
 62
     0
370
    -2
100
AcDbLine
 10
0.0
 20
0.0
 30
0.0
 11
-1.0
 21
-0.267949
 31
0.0
  0
LINE
  5
22
330
1E
100
AcDbEntity
  8
0
  6
BYBLOCK
 62
     0
370
    -2
100
AcDbLine
 10
0.0
 20
0.0
 30
0.0
 11
-1.0
 21
0.0
 31
0.0
  0
ENDBLK
  5
23
330
1E
100
AcDbEntity
  8
0
100
AcDbBlockEnd
  0
BLOCK
  5
25
330
24
100
AcDbEntity
  8
0
100
AcDbBlockBegin
  2
_BOXFILLED
 70
     0
 10
0.0
 20
0.0
 30
0.0
  3
_BOXFILLED
  1

  0
SOLID
  5
26
330
24
100
AcDbEntity
  8
0
  6
BYBLOCK
 62
     0
370
    -2
100
AcDbTrace
 10
-0.5
 20
0.5
 30
0.0
 11
0.5
 21
0.5
 31
0.0
 12
-0.5
 22
-0.5
 32
0.0
 13
0.5
 23
-0.5
 33
0.0
  0
LINE
  5
27
330
24
100
AcDbEntity
  8
0
  6
BYBLOCK
 62
     0
370
    -2
100
AcDbLine
 10
-0.5
 20
0.0
 30
0.0
 11
-1.0
 21
0.0
 31
0.0
  0
ENDBLK
  5
28
330
24
100
AcDbEntity
  8
0
100
AcDbBlockEnd
  0
BLOCK
  5
2A
330
29
100
AcDbEntity
  8
0
100
AcDbBlockBegin
  2
_BOXBLANK
 70
     0
 10
0.0
 20
0.0
 30
0.0
  3
_BOXBLANK
  1

  0
LINE
  5
2B
330
29
100
AcDbEntity
  8
0
  6
BYBLOCK
 62
     0
370
    -2
100
AcDbLine
 10
-0.5
 20
-0.5
 30
0.0
 11
0.5
 21
-0.5
 31
0.0
  0
LINE
  5
2C
330
29
100
AcDbEntity
  8
0
  6
BYBLOCK
 62
     0
370
    -2
100
AcDbLine
 10
0.5
 20
-0.5
 30
0.0
 11
0.5
 21
0.5
 31
0.0
  0
LINE
  5
2D
330
29
100
AcDbEntity
  8
0
  6
BYBLOCK
 62
     0
370
    -2
100
AcDbLine
 10
0.5
 20
0.5
 30
0.0
 11
-0.5
 21
0.5
 31
0.0
  0
LINE
  5
2E
330
29
100
AcDbEntity
  8
0
  6
BYBLOCK
 62
     0
370
    -2
100
AcDbLine
 10
-0.5
 20
0.5
 30
0.0
 11
-0.5
 21
-0.5
 31
0.0
  0
LINE
  5
2F
330
29
100
AcDbEntity
  8
0
  6
BYBLOCK
 62
     0
370
    -2
100
AcDbLine
 10
-0.5
 20
0.0
 30
0.0
 11
-1.0
 21
0.0
 31
0.0
  0
ENDBLK
  5
30
330
29
100
AcDbEntity
  8
0
100
AcDbBlockEnd
  0
BLOCK
  5
32
330
31
100
AcDbEntity
  8
0
100
AcDbBlockBegin
  2
_OBLIQUE
 70
     0
 10
0.0
 20
0.0
 30
0.0
  3
_OBLIQUE
  1

  0
LINE
  5
33
330
31
100
AcDbEntity
  8
0
  6
BYBLOCK
 62
     0
370
    -2
100
AcDbLine
 10
-0.5
 20
-0.5
 30
0.0
 11
0.5
 21
0.5
 31
0.0
  0
ENDBLK
  5
34
330
31
100
AcDbEntity
  8
0
100
AcDbBlockEnd
  0
BLOCK
  5
36
330
35
100
AcDbEntity
  8
0
100
AcDbBlockBegin
  2
_OPEN90
 70
     0
 10
0.0
 20
0.0
 30
0.0
  3
_OPEN90
  1

  0
LINE
  5
37
330
35
100
AcDbEntity
  8
0
  6
BYBLOCK
 62
     0
370
    -2
100
AcDbLine
 10
-0.5
 20
0.5
 30
0.0
 11
0.0
 21
0.0
 31
0.0
  0
LINE
  5
38
330
35
100
AcDbEntity
  8
0
  6
BYBLOCK
 62
     0
370
    -2
100
AcDbLine
 10
0.0
 20
0.0
 30
0.0
 11
-0.5
 21
-0.5
 31
0.0
  0
LINE
  5
39
330
35
100
AcDbEntity
  8
0
  6
BYBLOCK
 62
     0
370
    -2
100
AcDbLine
 10
0.0
 20
0.0
 30
0.0
 11
-1.0
 21
0.0
 31
0.0
  0
ENDBLK
  5
3A
330
35
100
AcDbEntity
  8
0
100
AcDbBlockEnd
  0
BLOCK
  5
3C
330
3B
100
AcDbEntity
  8
0
100
AcDbBlockBegin
  2
_CLOSEDBLANK
 70
     0
 10
0.0
 20
0.0
 30
0.0
  3
_CLOSEDBLANK
  1

  0
LINE
  5
3D
330
3B
100
AcDbEntity
  8
0
  6
BYBLOCK
 62
     0
370
    -2
100
AcDbLine
 10
-1.0
 20
0.1666666666666666
 30
0.0
 11
0.0
 21
0.0
 31
0.0
  0
LINE
  5
3E
330
3B
100
AcDbEntity
  8
0
  6
BYBLOCK
 62
     0
370
    -2
100
AcDbLine
 10
0.0
 20
0.0
 30
0.0
 11
-1.0
 21
-0.1666666666666666
 31
0.0
  0
LINE
  5
3F
330
3B
100
AcDbEntity
  8
0
  6
BYBLOCK
 62
     0
370
    -2
100
AcDbLine
 10
-1.0
 20
0.1666666666666666
 30
0.0
 11
-1.0
 21
-0.1666666666666666
 31
0.0
  0
ENDBLK
  5
40
330
3B
100
AcDbEntity
  8
0
100
AcDbBlockEnd
  0
BLOCK
  5
42
330
41
100
AcDbEntity
  8
0
100
AcDbBlockBegin
  2
_DOTBLANK
 70
     0
 10
0.0
 20
0.0
 30
0.0
  3
_DOTBLANK
  1

  0
CIRCLE
  5
43
330
41
100
AcDbEntity
  8
0
  6
BYBLOCK
 62
     0
370
    -2
100
AcDbCircle
 10
0.0
 20
0.0
 30
0.0
 40
0.5
  0
LINE
  5
44
330
41
100
AcDbEntity
  8
0
  6
BYBLOCK
 62
     0
370
    -2
100
AcDbLine
 10
-0.5
 20
0.0
 30
0.0
 11
-1.0
 21
0.0
 31
0.0
  0
ENDBLK
  5
45
330
41
100
AcDbEntity
  8
0
100
AcDbBlockEnd
  0
ENDSEC
  0
SECTION
  2
ENTITIES
  0
MTEXT
  5
46
100
AcDbEntity
  8
A8
  6
CONTINUOUS
 62
3
100
AcDbMText
 10
9.999997526638502
 20
18.00000076076889
 30
0.000000000000000
 40
3.000000000000000
 41
0.000000000000000
 44
0.6739999771118164
 71
     7
 72
     1
  1
{\H0.93x;{TYPE No.377-24}}
 11
1.000000000000000
 21
0.000000000000000
 31
0.000000000000000
  7
STANDARD
  0
POINT
  5
47
100
AcDbEntity
  8
A0
  6
CONTINUOUS
 62
3
100
AcDbPoint
 10
9.999997526638502
 20
18.00000076076889
 30
0.000000000000000
  0
POINT
  5
48
100
AcDbEntity
  8
A10
  6
CONTINUOUS
 62
3
100
AcDbPoint
 10
50.00000000000000
 20
50.00000000000000
 30
0.000000000000000
  0
LINE
  5
49
100
AcDbEntity
  8
A1
  6
CONTINUOUS
 62
7
100
AcDbLine
 10
684.7999999999583
 20
96.39999999999931
 30
0.000000000000000
 11
687.2999999999520
 21
96.40000000000161
 31
0.000000000000000
  0
LINE
  5
4A
100
AcDbEntity
  8
A1
  6
CONTINUOUS
 62
7
100
AcDbLine
 10
684.7999999999581
 20
96.39999999999887
 30
0.000000000000000
 11
684.7999999999801
 21
73.39999999999796
 31
0.000000000000000
  0
LINE
  5
4B
100
AcDbEntity
  8
A1
  6
CONTINUOUS
 62
7
100
AcDbLine
 10
687.2999999999582
 20
96.40000000000158
 30
0.000000000000000
 11
687.2999999999693
 21
73.40000000000067
 31
0.000000000000000
  0
LINE
  5
4C
100
AcDbEntity
  8
A1
  6
CONTINUOUS
 62
7
100
AcDbLine
 10
680.4999999999569
 20
94.39999999999532
 30
0.000000000000000
 11
680.4999999999679
 21
75.39999999999529
 31
0.000000000000000
  0
ARC
  5
4D
100
AcDbEntity
  8
A1
  6
CONTINUOUS
 62
7
100
AcDbCircle
 10
682.4999999999573
 20
94.39999999999714
 30
0.000000000000000
 40
2.000000000000000
100
AcDbArc
 50
90.00000000005539
 51
180.0000000000521
  0
ARC
  5
4E
100
AcDbEntity
  8
A1
  6
CONTINUOUS
 62
7
100
AcDbCircle
 10
682.4999999999686
 20
75.39999999999714
 30
0.000000000000000
 40
2.000000000000000
100
AcDbArc
 50
180.0000000000521
 51
270.0000000000554
  0
LINE
  5
4F
100
AcDbEntity
  8
A1
  6
CONTINUOUS
 62
7
100
AcDbLine
 10
684.7999999999804
 20
73.39999999999837
 30
0.000000000000000
 11
687.2999999999695
 21
73.40000000000067
 31
0.000000000000000
  0
LINE
  5
50
100
AcDbEntity
  8
A1
  6
CONTINUOUS
 62
7
100
AcDbLine
 10
682.4999999999561
 20
96.39999999999712
 30
0.000000000000000
 11
684.7999999999590
 21
96.39999999999942
 31
0.000000000000000
  0
LINE
  5
51
100
AcDbEntity
  8
A1
  6
CONTINUOUS
 62
7
100
AcDbLine
 10
682.4999999999706
 20
73.39999999999709
 30
0.000000000000000
 11
684.7999999999812
 21
73.39999999999939
 31
0.000000000000000
  0
LINE
  5
52
100
AcDbEntity
  8
A1
  6
CONTINUOUS
 62
7
100
AcDbLine
 10
721.4999999999824
 20
103.7000000000013
 30
0.000000000000000
 11
119.7999999999834
 21
103.7000000000004
 31
0.000000000000000
  0
LINE
  5
53
100
AcDbEntity
  8
A3
  6
DASHED
 62
2
100
AcDbLine
 10
721.4999999999822
 20
99.99999999999991
 30
0.000000000000000
 11
119.9963014667737
 21
100.0000000000008
 31
0.000000000000000
  0
CIRCLE
  5
54
100
AcDbEntity
  8
A1
  6
CONTINUOUS
 62
7
100
AcDbCircle
 10
151.5999999999822
 20
84.90000000000077
 30
0.000000000000000
 40
2.600000000000000
  0
CIRCLE
  5
55
100
AcDbEntity
  8
A1
  6
CONTINUOUS
 62
7
100
AcDbCircle
 10
170.6999999999825
 20
84.90000000000077
 30
0.000000000000000
 40
3.299999999999999
  0
CIRCLE
  5
56
100
AcDbEntity
  8
A1
  6
CONTINUOUS
 62
7
100
AcDbCircle
 10
215.0999999999844
 20
84.90000000000077
 30
0.000000000000000
 40
3.299999999999999
  0
CIRCLE
  5
57
100
AcDbEntity
  8
A1
  6
CONTINUOUS
 62
7
100
AcDbCircle
 10
202.3999999999801
 20
84.90000000000077
 30
0.000000000000000
 40
2.600000000000000
  0
CIRCLE
  5
58
100
AcDbEntity
  8
A1
  6
CONTINUOUS
 62
7
100
AcDbCircle
 10
342.0999999999826
 20
84.90000000000077
 30
0.000000000000000
 40
3.299999999999999
  0
CIRCLE
  5
59
100
AcDbEntity
  8
A1
  6
CONTINUOUS
 62
7
100
AcDbCircle
 10
329.3999999999837
 20
84.90000000000077
 30
0.000000000000000
 40
2.600000000000000
  0
CIRCLE
  5
5A
100
AcDbEntity
  8
A1
  6
CONTINUOUS
 62
7
100
AcDbCircle
 10
189.6999999999825
 20
84.90000000000077
 30
0.000000000000000
 40
3.299999999999999
  0
CIRCLE
  5
5B
100
AcDbEntity
  8
A1
  6
CONTINUOUS
 62
7
100
AcDbCircle
 10
278.5999999999826
 20
84.90000000000077
 30
0.000000000000000
 40
3.299999999999999
  0
CIRCLE
  5
5C
100
AcDbEntity
  8
A1
  6
CONTINUOUS
 62
7
100
AcDbCircle
 10
265.8999999999837
 20
84.90000000000077
 30
0.000000000000000
 40
2.600000000000000
  0
CIRCLE
  5
5D
100
AcDbEntity
  8
A1
  6
CONTINUOUS
 62
7
100
AcDbCircle
 10
361.1999999999825
 20
84.90000000000077
 30
0.000000000000000
 40
3.550000000000000
  0
LINE
  5
5E
100
AcDbEntity
  8
A1
  6
CONTINUOUS
 62
7
100
AcDbLine
 10
119.7999999999895
 20
96.40000000000039
 30
0.000000000000000
 11
122.2999999999835
 21
96.40000000000266
 31
0.000000000000000
  0
ARC
  5
5F
100
AcDbEntity
  8
A1
  6
CONTINUOUS
 62
7
100
AcDbCircle
 10
121.7999999999888
 20
97.40000000000259
 30
0.000000000000000
 40
1.000000000000000
100
AcDbArc
 50
270.0000000000521
 51
420.0000000000475
  0
LINE
  5
60
100
AcDbEntity
  8
A1
  6
CONTINUOUS
 62
7
100
AcDbLine
 10
120.7999999999876
 20
99.13205080757166
 30
0.000000000000000
 11
122.2999999999882
 21
98.26602540378794
 31
0.000000000000000
  0
LINE
  5
61
100
AcDbEntity
  8
A1
  6
CONTINUOUS
 62
7
100
AcDbLine
 10
119.7999999999835
 20
103.7000000000005
 30
0.000000000000000
 11
119.7999999999861
 21
100.8641016151376
 31
0.000000000000000
  0
ARC
  5
62
100
AcDbEntity
  8
A1
  6
CONTINUOUS
 62
7
100
AcDbCircle
 10
121.7999999999856
 20
100.8641016151416
 30
0.000000000000000
 40
2.000000000000000
100
AcDbArc
 50
180.0000000000554
 51
240.0000000000566
  0
LINE
  5
63
100
AcDbEntity
  8
A1
  6
CONTINUOUS
 62
7
100
AcDbLine
 10
119.7999999999892
 20
96.40000000000173
 30
0.000000000000000
 11
119.8000000000110
 21
73.39999999999993
 31
0.000000000000000
  0
LINE
  5
64
100
AcDbEntity
  8
A1
  6
CONTINUOUS
 62
7
100
AcDbLine
 10
122.2999999999897
 20
96.40000000000343
 30
0.000000000000000
 11
122.3000000000006
 21
73.40000000000249
 31
0.000000000000000
  0
LINE
  5
65
100
AcDbEntity
  8
A1
  6
CONTINUOUS
 62
7
100
AcDbLine
 10
119.8000000000113
 20
73.40000000000039
 30
0.000000000000000
 11
122.3000000000004
 21
73.40000000000266
 31
0.000000000000000
  0
ARC
  5
66
100
AcDbEntity
  8
A1
  6
CONTINUOUS
 62
7
100
AcDbCircle
 10
121.8000000000125
 20
72.40000000000259
 30
0.000000000000000
 40
1.000000000000000
100
AcDbArc
 50
300.0000000000687
 51
450.0000000000521
  0
LINE
  5
67
100
AcDbEntity
  8
A1
  6
CONTINUOUS
 62
7
100
AcDbLine
 10
120.8000000000155
 20
70.66794919243166
 30
0.000000000000000
 11
122.3000000000146
 21
71.53397459621799
 31
0.000000000000000
  0
LINE
  5
68
100
AcDbEntity
  8
A1
  6
CONTINUOUS
 62
7
100
AcDbLine
 10
119.8000000000186
 20
66.10000000000021
 30
0.000000000000000
 11
119.8000000000160
 21
68.93589838486407
 31
0.000000000000000
  0
ARC
  5
69
100
AcDbEntity
  8
A1
  6
CONTINUOUS
 62
7
100
AcDbCircle
 10
121.8000000000157
 20
68.93589838486537
 30
0.000000000000000
 40
2.000000000000000
100
AcDbArc
 50
120.0000000000517
 51
180.0000000000554
  0
LINE
  5
6A
100
AcDbEntity
  8
A1
  6
CONTINUOUS
 62
7
100
AcDbLine
 10
721.4999999999822
 20
66.10000000000031
 30
0.000000000000000
 11
119.7999999999833
 21
66.10000000000122
 31
0.000000000000000
  0
LINE
  5
6B
100
AcDbEntity
  8
A3
  6
DASHED
 62
2
100
AcDbLine
 10
721.4999999999826
 20
69.80000000000160
 30
0.000000000000000
 11
119.9963014668016
 21
69.80000000000069
 31
0.000000000000000
  0
LINE
  5
6C
100
AcDbEntity
  8
A4
  6
CENTER
 62
1
100
AcDbLine
 10
151.5999999999822
 20
92.00000000000114
 30
0.000000000000000
 11
151.5999999999822
 21
77.80000000000041
 31
0.000000000000000
  0
LINE
  5
6D
100
AcDbEntity
  8
A4
  6
CENTER
 62
1
100
AcDbLine
 10
170.6999999999825
 20
92.70000000000005
 30
0.000000000000000
 11
170.6999999999825
 21
77.10000000000059
 31
0.000000000000000
  0
LINE
  5
6E
100
AcDbEntity
  8
A4
  6
CENTER
 62
1
100
AcDbLine
 10
189.6999999999825
 20
92.70000000000005
 30
0.000000000000000
 11
189.6999999999825
 21
77.10000000000059
 31
0.000000000000000
  0
LINE
  5
6F
100
AcDbEntity
  8
A4
  6
CENTER
 62
1
100
AcDbLine
 10
202.3999999999801
 20
92.00000000000114
 30
0.000000000000000
 11
202.3999999999801
 21
77.80000000000041
 31
0.000000000000000
  0
LINE
  5
70
100
AcDbEntity
  8
A4
  6
CENTER
 62
1
100
AcDbLine
 10
215.0999999999844
 20
92.70000000000005
 30
0.000000000000000
 11
215.0999999999844
 21
77.10000000000059
 31
0.000000000000000
  0
LINE
  5
71
100
AcDbEntity
  8
A4
  6
CENTER
 62
1
100
AcDbLine
 10
265.8999999999837
 20
92.00000000000114
 30
0.000000000000000
 11
265.8999999999837
 21
77.80000000000041
 31
0.000000000000000
  0
LINE
  5
72
100
AcDbEntity
  8
A4
  6
CENTER
 62
1
100
AcDbLine
 10
278.5999999999826
 20
92.70000000000005
 30
0.000000000000000
 11
278.5999999999826
 21
77.10000000000059
 31
0.000000000000000
  0
LINE
  5
73
100
AcDbEntity
  8
A4
  6
CENTER
 62
1
100
AcDbLine
 10
329.3999999999837
 20
92.00000000000114
 30
0.000000000000000
 11
329.3999999999837
 21
77.80000000000041
 31
0.000000000000000
  0
LINE
  5
74
100
AcDbEntity
  8
A4
  6
CENTER
 62
1
100
AcDbLine
 10
342.0999999999826
 20
92.70000000000005
 30
0.000000000000000
 11
342.0999999999826
 21
77.10000000000059
 31
0.000000000000000
  0
LINE
  5
75
100
AcDbEntity
  8
A4
  6
CENTER
 62
1
100
AcDbLine
 10
361.1999999999825
 20
92.95000000000095
 30
0.000000000000000
 11
361.1999999999825
 21
76.85000000000150
 31
0.000000000000000
  0
LINE
  5
76
100
AcDbEntity
  8
A4
  6
CENTER
 62
1
100
AcDbLine
 10
115.2999999999834
 20
84.90000000000077
 30
0.000000000000000
 11
1338.899999999964
 21
84.90000000000077
 31
0.000000000000000
  0
LINE
  5
77
100
AcDbEntity
  8
A1
  6
CONTINUOUS
 62
7
100
AcDbLine
 10
554.7499999999673
 20
81.60000000000150
 30
0.000000000000000
 11
545.4499999999571
 21
81.60000000000150
 31
0.000000000000000
  0
ARC
  5
78
100
AcDbEntity
  8
A1
  6
CONTINUOUS
 62
7
100
AcDbCircle
 10
554.7499999999673
 20
84.90000000000077
 30
0.000000000000000
 40
3.299999999999999
100
AcDbArc
 50
270.0000000000000
 51
450.0000000000000
  0
ARC
  5
79
100
AcDbEntity
  8
A1
  6
CONTINUOUS
 62
7
100
AcDbCircle
 10
545.4499999999571
 20
84.90000000000077
 30
0.000000000000000
 40
3.299999999999999
100
AcDbArc
 50
90.00000000000000
 51
270.0000000000000
  0
LINE
  5
7A
100
AcDbEntity
  8
A1
  6
CONTINUOUS
 62
7
100
AcDbLine
 10
554.7499999999673
 20
88.20000000000005
 30
0.000000000000000
 11
545.4499999999571
 21
88.20000000000005
 31
0.000000000000000
  0
CIRCLE
  5
7B
100
AcDbEntity
  8
A1
  6
CONTINUOUS
 62
7
100
AcDbCircle
 10
532.5999999999585
 20
84.90000000000077
 30
0.000000000000000
 40
3.550000000000000
  0
LINE
  5
7C
100
AcDbEntity
  8
A4
  6
CENTER
 62
1
100
AcDbLine
 10
532.5999999999585
 20
92.95000000000005
 30
0.000000000000000
 11
532.5999999999585
 21
76.85000000000059
 31
0.000000000000000
  0
LINE
  5
7D
100
AcDbEntity
  8
A4
  6
CENTER
 62
1
100
AcDbLine
 10
550.0999999999585
 20
92.70000000000005
 30
0.000000000000000
 11
550.0999999999585
 21
77.10000000000150
 31
0.000000000000000
  0
CIRCLE
  5
7E
100
AcDbEntity
  8
A1
  6
CONTINUOUS
 62
7
100
AcDbCircle
 10
610.2999999999533
 20
84.90000000000077
 30
0.000000000000000
 40
3.299999999999999
  0
CIRCLE
  5
7F
100
AcDbEntity
  8
A1
  6
CONTINUOUS
 62
7
100
AcDbCircle
 10
622.9999999999541
 20
84.90000000000077
 30
0.000000000000000
 40
2.600000000000000
  0
LINE
  5
80
100
AcDbEntity
  8
A1
  6
CONTINUOUS
 62
7
100
AcDbLine
 10
637.8499999999544
 20
82.30000000000041
 30
0.000000000000000
 11
633.5499999999643
 21
82.30000000000041
 31
0.000000000000000
  0
ARC
  5
81
100
AcDbEntity
  8
A1
  6
CONTINUOUS
 62
7
100
AcDbCircle
 10
637.8499999999544
 20
84.90000000000077
 30
0.000000000000000
 40
2.600000000000000
100
AcDbArc
 50
270.0000000000000
 51
450.0000000000000
  0
ARC
  5
82
100
AcDbEntity
  8
A1
  6
CONTINUOUS
 62
7
100
AcDbCircle
 10
633.5499999999643
 20
84.90000000000077
 30
0.000000000000000
 40
2.600000000000000
100
AcDbArc
 50
90.00000000000000
 51
270.0000000000000
  0
LINE
  5
83
100
AcDbEntity
  8
A1
  6
CONTINUOUS
 62
7
100
AcDbLine
 10
637.8499999999544
 20
87.50000000000114
 30
0.000000000000000
 11
633.5499999999643
 21
87.50000000000114
 31
0.000000000000000
  0
LINE
  5
84
100
AcDbEntity
  8
A4
  6
CENTER
 62
1
100
AcDbLine
 10
610.2999999999533
 20
92.70000000000005
 30
0.000000000000000
 11
610.2999999999533
 21
77.10000000000059
 31
0.000000000000000
  0
LINE
  5
85
100
AcDbEntity
  8
A4
  6
CENTER
 62
1
100
AcDbLine
 10
622.9999999999541
 20
92.00000000000114
 30
0.000000000000000
 11
622.9999999999541
 21
77.80000000000041
 31
0.000000000000000
  0
LINE
  5
86
100
AcDbEntity
  8
A4
  6
CENTER
 62
1
100
AcDbLine
 10
635.6999999999530
 20
92.00000000000114
 30
0.000000000000000
 11
635.6999999999530
 21
77.80000000000041
 31
0.000000000000000
  0
CIRCLE
  5
87
100
AcDbEntity
  8
A1
  6
CONTINUOUS
 62
7
100
AcDbCircle
 10
737.4999999999654
 20
84.90000000000168
 30
0.000000000000000
 40
2.600000000000000
  0
CIRCLE
  5
88
100
AcDbEntity
  8
A1
  6
CONTINUOUS
 62
7
100
AcDbCircle
 10
756.5999999999658
 20
84.90000000000168
 30
0.000000000000000
 40
3.299999999999999
  0
CIRCLE
  5
89
100
AcDbEntity
  8
A3
  6
DASHED
 62
2
100
AcDbCircle
 10
813.6999999999662
 20
84.90000000000168
 30
0.000000000000000
 40
3.299999999999999
  0
LINE
  5
8A
100
AcDbEntity
  8
A3
  6
DASHED
 62
2
100
AcDbLine
 10
781.9499999999662
 20
81.60000000000241
 30
0.000000000000000
 11
775.8499999999658
 21
81.60000000000241
 31
0.000000000000000
  0
ARC
  5
8B
100
AcDbEntity
  8
A3
  6
DASHED
 62
2
100
AcDbCircle
 10
781.9499999999662
 20
84.90000000000168
 30
0.000000000000000
 40
3.299999999999999
100
AcDbArc
 50
270.0000000000000
 51
450.0000000000000
  0
ARC
  5
8C
100
AcDbEntity
  8
A3
  6
DASHED
 62
2
100
AcDbCircle
 10
775.8499999999658
 20
84.90000000000168
 30
0.000000000000000
 40
3.299999999999999
100
AcDbArc
 50
90.00000000000000
 51
270.0000000000000
  0
LINE
  5
8D
100
AcDbEntity
  8
A3
  6
DASHED
 62
2
100
AcDbLine
 10
781.9499999999662
 20
88.20000000000095
 30
0.000000000000000
 11
775.8499999999658
 21
88.20000000000095
 31
0.000000000000000
  0
LINE
  5
8E
100
AcDbEntity
  8
A1
  6
CONTINUOUS
 62
7
100
AcDbLine
 10
743.6499999999660
 20
81.55000000000223
 30
0.000000000000000
 11
743.6499999999660
 21
88.25000000000114
 31
0.000000000000000
  0
LINE
  5
8F
100
AcDbEntity
  8
A1
  6
CONTINUOUS
 62
7
100
AcDbLine
 10
750.3499999999658
 20
81.55000000000223
 30
0.000000000000000
 11
750.3499999999658
 21
88.25000000000114
 31
0.000000000000000
  0
LINE
  5
90
100
AcDbEntity
  8
A1
  6
CONTINUOUS
 62
7
100
AcDbLine
 10
743.6499999999660
 20
81.55000000000223
 30
0.000000000000000
 11
750.3499999999658
 21
81.55000000000223
 31
0.000000000000000
  0
LINE
  5
91
100
AcDbEntity
  8
A1
  6
CONTINUOUS
 62
7
100
AcDbLine
 10
743.6499999999660
 20
88.25000000000114
 30
0.000000000000000
 11
750.3499999999658
 21
88.25000000000114
 31
0.000000000000000
  0
LINE
  5
92
100
AcDbEntity
  8
A3
  6
DASHED
 62
2
100
AcDbLine
 10
766.1999999999657
 20
81.22304473783254
 30
0.000000000000000
 11
762.5230447377967
 21
84.90000000000202
 31
0.000000000000000
  0
LINE
  5
93
100
AcDbEntity
  8
A3
  6
DASHED
 62
2
100
AcDbLine
 10
769.8769552621353
 20
84.90000000000259
 30
0.000000000000000
 11
766.1999999999662
 21
88.57695526217208
 31
0.000000000000000
  0
LINE
  5
94
100
AcDbEntity
  8
A3
  6
DASHED
 62
2
100
AcDbLine
 10
762.5230447377962
 20
84.90000000000197
 30
0.000000000000000
 11
766.1999999999662
 21
88.57695526217191
 31
0.000000000000000
  0
LINE
  5
95
100
AcDbEntity
  8
A3
  6
DASHED
 62
2
100
AcDbLine
 10
766.1999999999650
 20
81.22304473783157
 30
0.000000000000000
 11
769.8769552621353
 21
84.90000000000106
 31
0.000000000000000
  0
CIRCLE
  5
96
100
AcDbEntity
  8
A3
  6
DASHED
 62
2
100
AcDbCircle
 10
800.9999999999654
 20
84.90000000000168
 30
0.000000000000000
 40
2.600000000000000
  0
ARC
  5
97
100
AcDbEntity
  8
A1
  6
CONTINUOUS
 62
7
100
AcDbCircle
 10
756.5999999999658
 20
84.90000000000077
 30
0.000000000000000
 40
8.000000000000000
100
AcDbArc
 50
270.0000000000000
 51
450.0000000000000
  0
ARC
  5
98
100
AcDbEntity
  8
A1
  6
CONTINUOUS
 62
7
100
AcDbCircle
 10
737.5999999999658
 20
84.90000000000077
 30
0.000000000000000
 40
8.000000000000000
100
AcDbArc
 50
90.00000000000000
 51
270.0000000000000
  0
LINE
  5
99
100
AcDbEntity
  8
A1
  6
CONTINUOUS
 62
7
100
AcDbLine
 10
737.5999999999658
 20
92.90000000000077
 30
0.000000000000000
 11
756.5999999999658
 21
92.90000000000077
 31
0.000000000000000
  0
LINE
  5
9A
100
AcDbEntity
  8
A1
  6
CONTINUOUS
 62
7
100
AcDbLine
 10
737.5999999999658
 20
76.90000000000077
 30
0.000000000000000
 11
756.5999999999658
 21
76.90000000000077
 31
0.000000000000000
  0
LINE
  5
9B
100
AcDbEntity
  8
A4
  6
CENTER
 62
1
100
AcDbLine
 10
756.5999999999658
 20
92.70000000000186
 30
0.000000000000000
 11
756.5999999999658
 21
77.10000000000150
 31
0.000000000000000
  0
LINE
  5
9C
100
AcDbEntity
  8
A4
  6
CENTER
 62
1
100
AcDbLine
 10
746.9999999999663
 20
77.05000000000223
 30
0.000000000000000
 11
746.9999999999663
 21
92.75000000000114
 31
0.000000000000000
  0
LINE
  5
9D
100
AcDbEntity
  8
A4
  6
CENTER
 62
1
100
AcDbLine
 10
813.6999999999662
 20
92.70000000000186
 30
0.000000000000000
 11
813.6999999999662
 21
77.10000000000150
 31
0.000000000000000
  0
LINE
  5
9E
100
AcDbEntity
  8
A4
  6
CENTER
 62
1
100
AcDbLine
 10
800.9999999999654
 20
92.00000000000205
 30
0.000000000000000
 11
800.9999999999654
 21
77.80000000000223
 31
0.000000000000000
  0
LINE
  5
9F
100
AcDbEntity
  8
A4
  6
CENTER
 62
1
100
AcDbLine
 10
778.8999999999660
 20
92.70000000000186
 30
0.000000000000000
 11
778.8999999999660
 21
77.10000000000332
 31
0.000000000000000
  0
LINE
  5
A0
100
AcDbEntity
  8
A4
  6
CENTER
 62
1
100
AcDbLine
 10
766.1999999999662
 20
93.07695526217253
 30
0.000000000000000
 11
766.1999999999662
 21
76.72304473783265
 31
0.000000000000000
  0
LINE
  5
A1
100
AcDbEntity
  8
A4
  6
CENTER
 62
1
100
AcDbLine
 10
813.6999999999671
 20
92.70000000000186
 30
0.000000000000000
 11
813.6999999999671
 21
77.10000000000241
 31
0.000000000000000
  0
LINE
  5
A2
100
AcDbEntity
  8
A4
  6
CENTER
 62
1
100
AcDbLine
 10
800.9999999999663
 20
92.00000000000205
 30
0.000000000000000
 11
800.9999999999663
 21
77.80000000000223
 31
0.000000000000000
  0
LINE
  5
A3
100
AcDbEntity
  8
A1
  6
CONTINUOUS
 62
7
100
AcDbLine
 10
721.4999999999823
 20
103.7000000000019
 30
0.000000000000000
 11
721.4999999999823
 21
66.09999999999968
 31
0.000000000000000
  0
LINE
  5
A4
100
AcDbEntity
  8
A1
  6
CONTINUOUS
 62
7
100
AcDbLine
 10
1029.100000007500
 20
111.3500000000006
 30
0.000000000000000
 11
430.8999999999648
 21
111.3500000000006
 31
0.000000000000000
  0
LINE
  5
A5
100
AcDbEntity
  8
A1
  6
CONTINUOUS
 62
7
100
AcDbLine
 10
1029.100000007529
 20
107.6858452961214
 30
0.000000000000000
 11
430.8999999999648
 21
107.6858452961211
 31
0.000000000000000
  0
LINE
  5
A6
100
AcDbEntity
  8
A1
  6
CONTINUOUS
 62
7
100
AcDbLine
 10
1029.100000007886
 20
62.11415470388079
 30
0.000000000000000
 11
430.8999999999648
 21
62.11415470388079
 31
0.000000000000000
  0
LINE
  5
A7
100
AcDbEntity
  8
A1
  6
CONTINUOUS
 62
7
100
AcDbLine
 10
1029.100000007914
 20
58.45000000000044
 30
0.000000000000000
 11
430.8999999999649
 21
58.45000000000022
 31
0.000000000000000
  0
LINE
  5
A8
100
AcDbEntity
  8
A1
  6
CONTINUOUS
 62
7
100
AcDbLine
 10
721.4999999999823
 20
98.60768479867657
 30
0.000000000000000
 11
984.2999999999645
 21
98.60768479867725
 31
0.000000000000000
  0
LINE
  5
A9
100
AcDbEntity
  8
A1
  6
CONTINUOUS
 62
7
100
AcDbLine
 10
984.2999999999645
 20
95.77971188717061
 30
0.000000000000000
 11
721.4999999999823
 21
95.77971188717061
 31
0.000000000000000
  0
LINE
  5
AA
100
AcDbEntity
  8
A1
  6
CONTINUOUS
 62
7
100
AcDbLine
 10
984.2999999999646
 20
74.02028811283242
 30
0.000000000000000
 11
721.4999999999824
 21
74.02028811283270
 31
0.000000000000000
  0
LINE
  5
AB
100
AcDbEntity
  8
A1
  6
CONTINUOUS
 62
7
100
AcDbLine
 10
721.4999999999823
 20
71.19231520132581
 30
0.000000000000000
 11
984.2999999999645
 21
71.19231520132507
 31
0.000000000000000
  0
LINE
  5
AC
100
AcDbEntity
  8
A1
  6
CONTINUOUS
 62
7
100
AcDbLine
 10
983.9000000074996
 20
104.9000000000017
 30
0.000000000000000
 11
993.9000000074996
 21
104.9000000000017
 31
0.000000000000000
  0
LINE
  5
AD
100
AcDbEntity
  8
A1
  6
CONTINUOUS
 62
7
100
AcDbLine
 10
993.9000000074996
 20
104.9000000000017
 30
0.000000000000000
 11
993.9000000074996
 21
64.90000000000168
 31
0.000000000000000
  0
LINE
  5
AE
100
AcDbEntity
  8
A1
  6
CONTINUOUS
 62
7
100
AcDbLine
 10
983.9000000074996
 20
104.9000000000017
 30
0.000000000000000
 11
983.9000000074996
 21
64.90000000000168
 31
0.000000000000000
  0
LINE
  5
AF
100
AcDbEntity
  8
A1
  6
CONTINUOUS
 62
7
100
AcDbLine
 10
983.9000000074996
 20
92.59059892324171
 30
0.000000000000000
 11
993.9000000074996
 21
92.59059892324171
 31
0.000000000000000
  0
LINE
  5
B0
100
AcDbEntity
  8
A1
  6
CONTINUOUS
 62
7
100
AcDbLine
 10
983.9000000074996
 20
77.20940107675801
 30
0.000000000000000
 11
993.9000000074996
 21
77.20940107675801
 31
0.000000000000000
  0
LINE
  5
B1
100
AcDbEntity
  8
A1
  6
CONTINUOUS
 62
7
100
AcDbLine
 10
983.9000000074996
 20
64.90000000000168
 30
0.000000000000000
 11
993.9000000074996
 21
64.90000000000168
 31
0.000000000000000
  0
LINE
  5
B2
100
AcDbEntity
  8
A1
  6
CONTINUOUS
 62
7
100
AcDbLine
 10
1016.600000007501
 20
91.40000000000339
 30
0.000000000000000
 11
1014.100000007501
 21
91.40000000000032
 31
0.000000000000000
  0
LINE
  5
B3
100
AcDbEntity
  8
A1
  6
CONTINUOUS
 62
7
100
AcDbLine
 10
1016.600000007500
 20
78.40000000000168
 30
0.000000000000000
 11
1014.100000007500
 21
78.40000000000168
 31
0.000000000000000
  0
LINE
  5
B4
100
AcDbEntity
  8
A1
  6
CONTINUOUS
 62
7
100
AcDbLine
 10
1014.100000007500
 20
91.40000000000168
 30
0.000000000000000
 11
1014.100000007500
 21
78.40000000000168
 31
0.000000000000000
  0
LINE
  5
B5
100
AcDbEntity
  8
A1
  6
CONTINUOUS
 62
7
100
AcDbLine
 10
1016.600000007500
 20
91.40000000000350
 30
0.000000000000000
 11
1016.600000007500
 21
78.40000000000168
 31
0.000000000000000
  0
LINE
  5
B6
100
AcDbEntity
  8
A1
  6
CONTINUOUS
 62
7
100
AcDbLine
 10
1015.350000007500
 20
78.40000000000168
 30
0.000000000000000
 11
1015.350000007500
 21
91.40000000000168
 31
0.000000000000000
  0
ARC
  5
B7
100
AcDbEntity
  8
A1
  6
CONTINUOUS
 62
7
100
AcDbCircle
 10
1026.100000007500
 20
72.40000000000168
 30
0.000000000000000
 40
3.000000000000000
100
AcDbArc
 50
0.000000000000000
 51
5.431764963328248
  0
LINE
  5
B8
100
AcDbEntity
  8
A1
  6
CONTINUOUS
 62
7
100
AcDbLine
 10
1029.100000007500
 20
98.60768479867806
 30
0.000000000000000
 11
1005.879284255459
 21
98.60768479867806
 31
0.000000000000000
  0
LINE
  5
B9
100
AcDbEntity
  8
A1
  6
CONTINUOUS
 62
7
100
AcDbLine
 10
1029.100000007500
 20
71.19231520132523
 30
0.000000000000000
 11
1005.879284255460
 21
71.19231520132546
 31
0.000000000000000
  0
CIRCLE
  5
BA
100
AcDbEntity
  8
A1
  6
CONTINUOUS
 62
7
100
AcDbCircle
 10
1004.100000007500
 20
92.34969443902833
 30
0.000000000000000
 40
2.100000000000000
  0
CIRCLE
  5
BB
100
AcDbEntity
  8
A1
  6
CONTINUOUS
 62
7
100
AcDbCircle
 10
1004.100000007500
 20
77.34969443902742
 30
0.000000000000000
 40
2.100000000000000
  0
ARC
  5
BC
100
AcDbEntity
  8
A1
  6
CONTINUOUS
 62
7
100
AcDbCircle
 10
1003.850384645661
 20
96.39780553198511
 30
0.000000000000000
 40
3.000000000000000
100
AcDbArc
 50
40.95575754733699
 51
120.0000000000000
  0
LINE
  5
BD
100
AcDbEntity
  8
A1
  6
CONTINUOUS
 62
7
100
AcDbLine
 10
999.2051812391844
 20
97.17999770995425
 30
0.000000000000000
 11
1002.350384645661
 21
98.99588174333928
 31
0.000000000000000
  0
LINE
  5
BE
100
AcDbEntity
  8
A1
  6
CONTINUOUS
 62
7
100
AcDbLine
 10
1006.895106134409
 20
97.43576991224825
 30
0.000000000000000
 11
1006.116032491211
 21
98.36423372542464
 31
0.000000000000000
  0
LINE
  5
BF
100
AcDbEntity
  8
A1
  6
CONTINUOUS
 62
7
100
AcDbLine
 10
998.6000000075010
 20
96.52398668713585
 30
0.000000000000000
 11
998.6000000075004
 21
73.27601331286650
 31
0.000000000000000
  0
LINE
  5
C0
100
AcDbEntity
  8
A1
  6
CONTINUOUS
 62
7
100
AcDbLine
 10
1016.450000007500
 20
92.29999999999859
 30
0.000000000000000
 11
1014.250000007500
 21
92.29999999999859
 31
0.000000000000000
  0
LINE
  5
C1
100
AcDbEntity
  8
A1
  6
CONTINUOUS
 62
7
100
AcDbLine
 10
1016.650000007500
 20
92.09999999999877
 30
0.000000000000000
 11
1016.650000007500
 21
87.34948974278473
 31
0.000000000000000
  0
LINE
  5
C2
100
AcDbEntity
  8
A1
  6
CONTINUOUS
 62
7
100
AcDbLine
 10
1014.050000007501
 20
92.09999999999877
 30
0.000000000000000
 11
1014.050000007501
 21
87.34948974278473
 31
0.000000000000000
  0
ARC
  5
C3
100
AcDbEntity
  8
A1
  6
CONTINUOUS
 62
7
100
AcDbCircle
 10
1016.450000007500
 20
92.09999999999877
 30
0.000000000000000
 40
0.2000000000000000
100
AcDbArc
 50
0.000000000000000
 51
90.00000000000000
  0
ARC
  5
C4
100
AcDbEntity
  8
A1
  6
CONTINUOUS
 62
7
100
AcDbCircle
 10
1014.250000007500
 20
92.09999999999877
 30
0.000000000000000
 40
0.2000000000000000
100
AcDbArc
 50
90.00000000000000
 51
180.0000000000000
  0
LINE
  5
C5
100
AcDbEntity
  8
A1
  6
CONTINUOUS
 62
7
100
AcDbLine
 10
1011.100000007500
 20
94.80000000000132
 30
0.000000000000000
 11
1011.100000007500
 21
96.59999999999786
 31
0.000000000000000
  0
LINE
  5
C6
100
AcDbEntity
  8
A1
  6
CONTINUOUS
 62
7
100
AcDbLine
 10
1032.100000007501
 20
76.15000000000565
 30
0.000000000000000
 11
1032.100000007500
 21
93.64999999999834
 31
0.000000000000000
  0
LINE
  5
C7
100
AcDbEntity
  8
A1
  6
CONTINUOUS
 62
7
100
AcDbLine
 10
1029.100000007500
 20
93.64999999999804
 30
0.000000000000000
 11
1029.100000007500
 21
76.15000000000532
 31
0.000000000000000
  0
ARC
  5
C8
100
AcDbEntity
  8
A1
  6
CONTINUOUS
 62
7
100
AcDbCircle
 10
1015.350000007500
 20
84.89999999999986
 30
0.000000000000000
 40
5.500000000000000
100
AcDbArc
 50
323.1301023541835
 51
396.8698976458443
  0
LINE
  5
C9
100
AcDbEntity
  8
A1
  6
CONTINUOUS
 62
7
100
AcDbLine
 10
1019.100000007500
 20
94.30000000000132
 30
0.000000000000000
 11
1011.600000007500
 21
94.30000000000132
 31
0.000000000000000
  0
LINE
  5
CA
100
AcDbEntity
  8
A1
  6
CONTINUOUS
 62
7
100
AcDbLine
 10
1010.850000007500
 20
87.59999999999786
 30
0.000000000000000
 11
1010.850000007500
 21
82.20000000000550
 31
0.000000000000000
  0
LINE
  5
CB
100
AcDbEntity
  8
A1
  6
CONTINUOUS
 62
7
100
AcDbLine
 10
1019.600000007500
 20
96.59999999999786
 30
0.000000000000000
 11
1019.600000007500
 21
94.80000000000132
 31
0.000000000000000
  0
ARC
  5
CC
100
AcDbEntity
  8
A1
  6
CONTINUOUS
 62
7
100
AcDbCircle
 10
1015.350000007500
 20
84.90000000000168
 30
0.000000000000000
 40
2.500000000000000
100
AcDbArc
 50
127.7997224354281
 51
232.2002775645719
  0
ARC
  5
CD
100
AcDbEntity
  8
A1
  6
CONTINUOUS
 62
7
100
AcDbCircle
 10
1015.350000007500
 20
84.90000000000168
 30
0.000000000000000
 40
2.500000000000000
100
AcDbArc
 50
307.7997224354277
 51
412.2002775645719
  0
ARC
  5
CE
100
AcDbEntity
  8
A1
  6
CONTINUOUS
 62
7
100
AcDbCircle
 10
1011.600000007500
 20
94.80000000000132
 30
0.000000000000000
 40
0.5000000000000000
100
AcDbArc
 50
180.0000000000000
 51
270.0000000000000
  0
ARC
  5
CF
100
AcDbEntity
  8
A1
  6
CONTINUOUS
 62
7
100
AcDbCircle
 10
1019.100000007500
 20
94.80000000000132
 30
0.000000000000000
 40
0.5000000000000000
100
AcDbArc
 50
270.0000000000000
 51
360.0000000000000
  0
ARC
  5
D0
100
AcDbEntity
  8
A1
  6
CONTINUOUS
 62
7
100
AcDbCircle
 10
1013.450000007500
 20
87.34948974278473
 30
0.000000000000000
 40
0.6000000000000000
100
AcDbArc
 50
307.7997224354273
 51
360.0000000000000
  0
ARC
  5
D1
100
AcDbEntity
  8
A1
  6
CONTINUOUS
 62
7
100
AcDbCircle
 10
1017.250000007500
 20
87.34948974278473
 30
0.000000000000000
 40
0.6000000000000000
100
AcDbArc
 50
180.0000000000000
 51
232.2002775645709
  0
ARC
  5
D2
100
AcDbEntity
  8
A1
  6
CONTINUOUS
 62
7
100
AcDbCircle
 10
1019.100000007500
 20
94.80000000000132
 30
0.000000000000000
 40
3.500000000000000
100
AcDbArc
 50
285.2184551577777
 51
343.2916562842898
  0
LINE
  5
D3
100
AcDbEntity
  8
A1
  6
CONTINUOUS
 62
7
100
AcDbLine
 10
1019.650000007500
 20
90.94027203031260
 30
0.000000000000000
 11
1019.650000007500
 21
88.49999999999932
 31
0.000000000000000
  0
ARC
  5
D4
100
AcDbEntity
  8
A1
  6
CONTINUOUS
 62
7
100
AcDbCircle
 10
1020.150000007500
 20
90.94027203031260
 30
0.000000000000000
 40
0.5000000000000000
100
AcDbArc
 50
105.2184551577803
 51
180.0000000000000
  0
LINE
  5
D5
100
AcDbEntity
  8
A1
  6
CONTINUOUS
 62
7
100
AcDbLine
 10
1028.600000007500
 20
94.14999999999804
 30
0.000000000000000
 11
1022.931122558397
 21
94.14999999999804
 31
0.000000000000000
  0
ARC
  5
D6
100
AcDbEntity
  8
A1
  6
CONTINUOUS
 62
7
100
AcDbCircle
 10
1028.600000007500
 20
93.64999999999804
 30
0.000000000000000
 40
0.5000000000000000
100
AcDbArc
 50
0.000000000000000
 51
90.00000000000000
  0
ARC
  5
D7
100
AcDbEntity
  8
A1
  6
CONTINUOUS
 62
7
100
AcDbCircle
 10
1028.600000007500
 20
93.64999999999804
 30
0.000000000000000
 40
3.500000000000000
100
AcDbArc
 50
4.653000000000000e-13
 51
90.00000000000000
  0
ARC
  5
D8
100
AcDbEntity
  8
A1
  6
CONTINUOUS
 62
7
100
AcDbCircle
 10
1022.931122558397
 20
93.64999999999804
 30
0.000000000000000
 40
0.5000000000000000
100
AcDbArc
 50
90.00000000000652
 51
163.2916562842906
  0
LINE
  5
D9
100
AcDbEntity
  8
A1
  6
CONTINUOUS
 62
7
100
AcDbLine
 10
1007.507941688904
 20
97.14999999999804
 30
0.000000000000000
 11
1010.550000007500
 21
97.14999999999804
 31
0.000000000000000
  0
LINE
  5
DA
100
AcDbEntity
  8
A1
  6
CONTINUOUS
 62
7
100
AcDbLine
 10
1020.150000007500
 20
97.14999999999804
 30
0.000000000000000
 11
1028.600000007500
 21
97.14999999999804
 31
0.000000000000000
  0
ARC
  5
DB
100
AcDbEntity
  8
A1
  6
CONTINUOUS
 62
7
100
AcDbCircle
 10
1020.150000007500
 20
88.49999999999932
 30
0.000000000000000
 40
0.5000000000000000
100
AcDbArc
 50
180.0000000000000
 51
216.8698976458401
  0
LINE
  5
DC
100
AcDbEntity
  8
A1
  6
CONTINUOUS
 62
7
100
AcDbLine
 10
1016.450000007500
 20
77.50000000000387
 30
0.000000000000000
 11
1014.250000007500
 21
77.50000000000387
 31
0.000000000000000
  0
LINE
  5
DD
100
AcDbEntity
  8
A1
  6
CONTINUOUS
 62
7
100
AcDbLine
 10
1016.650000007500
 20
77.70000000000368
 30
0.000000000000000
 11
1016.650000007500
 21
82.45051025721864
 31
0.000000000000000
  0
LINE
  5
DE
100
AcDbEntity
  8
A1
  6
CONTINUOUS
 62
7
100
AcDbLine
 10
1014.050000007501
 20
77.70000000000459
 30
0.000000000000000
 11
1014.050000007501
 21
82.45051025721864
 31
0.000000000000000
  0
ARC
  5
DF
100
AcDbEntity
  8
A1
  6
CONTINUOUS
 62
7
100
AcDbCircle
 10
1016.450000007500
 20
77.70000000000368
 30
0.000000000000000
 40
0.2000000000000000
100
AcDbArc
 50
270.0000000000000
 51
360.0000000000000
  0
ARC
  5
E0
100
AcDbEntity
  8
A1
  6
CONTINUOUS
 62
7
100
AcDbCircle
 10
1014.250000007500
 20
77.70000000000459
 30
0.000000000000000
 40
0.2000000000000000
100
AcDbArc
 50
180.0000000000000
 51
270.0000000000000
  0
LINE
  5
E1
100
AcDbEntity
  8
A1
  6
CONTINUOUS
 62
7
100
AcDbLine
 10
1011.100000007500
 20
75.00000000000114
 30
0.000000000000000
 11
1011.100000007500
 21
73.20000000000550
 31
0.000000000000000
  0
LINE
  5
E2
100
AcDbEntity
  8
A1
  6
CONTINUOUS
 62
7
100
AcDbLine
 10
1019.100000007500
 20
75.50000000000114
 30
0.000000000000000
 11
1011.600000007500
 21
75.50000000000114
 31
0.000000000000000
  0
LINE
  5
E3
100
AcDbEntity
  8
A1
  6
CONTINUOUS
 62
7
100
AcDbLine
 10
1019.600000007500
 20
73.20000000000459
 30
0.000000000000000
 11
1019.600000007500
 21
75.00000000000114
 31
0.000000000000000
  0
ARC
  5
E4
100
AcDbEntity
  8
A1
  6
CONTINUOUS
 62
7
100
AcDbCircle
 10
1011.600000007500
 20
75.00000000000114
 30
0.000000000000000
 40
0.5000000000000000
100
AcDbArc
 50
90.00000000000000
 51
180.0000000000000
  0
ARC
  5
E5
100
AcDbEntity
  8
A1
  6
CONTINUOUS
 62
7
100
AcDbCircle
 10
1019.100000007500
 20
75.00000000000114
 30
0.000000000000000
 40
0.5000000000000000
100
AcDbArc
 50
0.000000000000000
 51
90.00000000000000
  0
ARC
  5
E6
100
AcDbEntity
  8
A1
  6
CONTINUOUS
 62
7
100
AcDbCircle
 10
1013.450000007500
 20
82.45051025721864
 30
0.000000000000000
 40
0.6000000000000000
100
AcDbArc
 50
0.000000000000000
 51
52.20027756457263
  0
ARC
  5
E7
100
AcDbEntity
  8
A1
  6
CONTINUOUS
 62
7
100
AcDbCircle
 10
1017.250000007500
 20
82.45051025721864
 30
0.000000000000000
 40
0.6000000000000000
100
AcDbArc
 50
127.7997224354290
 51
180.0000000000000
  0
ARC
  5
E8
100
AcDbEntity
  8
A1
  6
CONTINUOUS
 62
7
100
AcDbCircle
 10
1019.100000007500
 20
75.00000000000114
 30
0.000000000000000
 40
3.500000000000000
100
AcDbArc
 50
16.70834371571017
 51
74.78154484222227
  0
LINE
  5
E9
100
AcDbEntity
  8
A1
  6
CONTINUOUS
 62
7
100
AcDbLine
 10
1019.650000007500
 20
78.85972796968986
 30
0.000000000000000
 11
1019.650000007500
 21
81.30000000000314
 31
0.000000000000000
  0
ARC
  5
EA
100
AcDbEntity
  8
A1
  6
CONTINUOUS
 62
7
100
AcDbCircle
 10
1020.150000007500
 20
78.85972796968986
 30
0.000000000000000
 40
0.5000000000000000
100
AcDbArc
 50
180.0000000000000
 51
254.7815448422206
  0
LINE
  5
EB
100
AcDbEntity
  8
A1
  6
CONTINUOUS
 62
7
100
AcDbLine
 10
1028.600000007500
 20
75.65000000000532
 30
0.000000000000000
 11
1022.931122558397
 21
75.65000000000532
 31
0.000000000000000
  0
ARC
  5
EC
100
AcDbEntity
  8
A1
  6
CONTINUOUS
 62
7
100
AcDbCircle
 10
1028.600000007500
 20
76.15000000000532
 30
0.000000000000000
 40
0.5000000000000000
100
AcDbArc
 50
270.0000000000000
 51
360.0000000000000
  0
ARC
  5
ED
100
AcDbEntity
  8
A1
  6
CONTINUOUS
 62
7
100
AcDbCircle
 10
1028.600000007500
 20
76.15000000000532
 30
0.000000000000000
 40
3.500000000000000
100
AcDbArc
 50
270.0000000000000
 51
359.9999999999996
  0
ARC
  5
EE
100
AcDbEntity
  8
A1
  6
CONTINUOUS
 62
7
100
AcDbCircle
 10
1022.931122558397
 20
76.15000000000532
 30
0.000000000000000
 40
0.5000000000000000
100
AcDbArc
 50
196.7083437157113
 51
269.9999999999935
  0
LINE
  5
EF
100
AcDbEntity
  8
A1
  6
CONTINUOUS
 62
7
100
AcDbLine
 10
1020.150000007500
 20
72.65000000000532
 30
0.000000000000000
 11
1028.600000007500
 21
72.65000000000532
 31
0.000000000000000
  0
ARC
  5
F0
100
AcDbEntity
  8
A1
  6
CONTINUOUS
 62
7
100
AcDbCircle
 10
1020.150000007500
 20
81.30000000000314
 30
0.000000000000000
 40
0.5000000000000000
100
AcDbArc
 50
143.1301023541599
 51
180.0000000000000
  0
LINE
  5
F1
100
AcDbEntity
  8
A1
  6
CONTINUOUS
 62
7
100
AcDbLine
 10
998.6000000075010
 20
93.59999999999786
 30
0.000000000000000
 11
1004.850000007500
 21
93.59999999999786
 31
0.000000000000000
  0
ARC
  5
F2
100
AcDbEntity
  8
A1
  6
CONTINUOUS
 62
7
100
AcDbCircle
 10
1004.850000007500
 20
87.59999999999786
 30
0.000000000000000
 40
6.000000000000000
100
AcDbArc
 50
0.000000000000000
 51
90.00000000000000
  0
LINE
  5
F3
100
AcDbEntity
  8
A1
  6
CONTINUOUS
 62
7
100
AcDbLine
 10
998.6000000075010
 20
76.20000000000550
 30
0.000000000000000
 11
1004.850000007500
 21
76.20000000000550
 31
0.000000000000000
  0
ARC
  5
F4
100
AcDbEntity
  8
A1
  6
CONTINUOUS
 62
7
100
AcDbCircle
 10
1004.850000007500
 20
82.20000000000550
 30
0.000000000000000
 40
6.000000000000000
100
AcDbArc
 50
270.0000000000000
 51
360.0000000000000
  0
LINE
  5
F5
100
AcDbEntity
  8
A1
  6
CONTINUOUS
 62
7
100
AcDbLine
 10
1007.507941688904
 20
72.65000000000532
 30
0.000000000000000
 11
1010.550000007500
 21
72.65000000000532
 31
0.000000000000000
  0
ARC
  5
F6
100
AcDbEntity
  8
A1
  6
CONTINUOUS
 62
7
100
AcDbCircle
 10
1010.550000007500
 20
73.20000000000550
 30
0.000000000000000
 40
0.5500000000000000
100
AcDbArc
 50
270.0000000000000
 51
359.9999999999970
  0
ARC
  5
F7
100
AcDbEntity
  8
A1
  6
CONTINUOUS
 62
7
100
AcDbCircle
 10
1020.150000007500
 20
73.20000000000459
 30
0.000000000000000
 40
0.5500000000000000
100
AcDbArc
 50
180.0000000000000
 51
270.0000000000000
  0
ARC
  5
F8
100
AcDbEntity
  8
A1
  6
CONTINUOUS
 62
7
100
AcDbCircle
 10
1010.550000007500
 20
96.59999999999786
 30
0.000000000000000
 40
0.5500000000000000
100
AcDbArc
 50
2.960800000000000e-12
 51
90.00000000000000
  0
ARC
  5
F9
100
AcDbEntity
  8
A1
  6
CONTINUOUS
 62
7
100
AcDbCircle
 10
1020.150000007500
 20
96.59999999999786
 30
0.000000000000000
 40
0.5500000000000000
100
AcDbArc
 50
90.00000000000000
 51
180.0000000000000
  0
ARC
  5
FA
100
AcDbEntity
  8
A1
  6
CONTINUOUS
 62
7
100
AcDbCircle
 10
1003.850384645661
 20
73.40219446801734
 30
0.000000000000000
 40
3.000000000000000
100
AcDbArc
 50
240.0000000000000
 51
319.0442424526630
  0
LINE
  5
FB
100
AcDbEntity
  8
A1
  6
CONTINUOUS
 62
7
100
AcDbLine
 10
999.2051812391830
 20
72.62000229004997
 30
0.000000000000000
 11
1002.350384645660
 21
70.80411825666465
 31
0.000000000000000
  0
LINE
  5
FC
100
AcDbEntity
  8
A1
  6
CONTINUOUS
 62
7
100
AcDbLine
 10
1006.895106134409
 20
72.36423008775319
 30
0.000000000000000
 11
1006.116032491211
 21
71.43576627457605
 31
0.000000000000000
  0
ARC
  5
FD
100
AcDbEntity
  8
A1
  6
CONTINUOUS
 62
7
100
AcDbCircle
 10
1007.507941688904
 20
97.94999999999823
 30
0.000000000000000
 40
0.8000000000000000
100
AcDbArc
 50
219.9999999999991
 51
270.0000000000000
  0
ARC
  5
FE
100
AcDbEntity
  8
A1
  6
CONTINUOUS
 62
7
100
AcDbCircle
 10
1007.507941688904
 20
71.85000000000514
 30
0.000000000000000
 40
0.8000000000000000
100
AcDbArc
 50
90.00000000000000
 51
140.0000000000009
  0
ARC
  5
FF
100
AcDbEntity
  8
A1
  6
CONTINUOUS
 62
7
100
AcDbCircle
 10
999.9551812391846
 20
73.91904039572660
 30
0.000000000000000
 40
1.500000000000000
100
AcDbArc
 50
205.3841182138332
 51
240.0000000000000
  0
ARC
  5
100
100
AcDbEntity
  8
A1
  6
CONTINUOUS
 62
7
100
AcDbCircle
 10
999.9551812391846
 20
95.88095960427677
 30
0.000000000000000
 40
1.500000000000000
100
AcDbArc
 50
120.0000000000000
 51
154.6158817861668
  0
LINE
  5
101
100
AcDbEntity
  8
A1
  6
CONTINUOUS
 62
7
100
AcDbLine
 10
998.6000000075009
 20
95.77971188717061
 30
0.000000000000000
 11
993.9000000075004
 21
95.77971188717038
 31
0.000000000000000
  0
LINE
  5
102
100
AcDbEntity
  8
A1
  6
CONTINUOUS
 62
7
100
AcDbLine
 10
998.6000000075003
 20
74.02028811283276
 30
0.000000000000000
 11
993.9000000074996
 21
74.02028811283276
 31
0.000000000000000
  0
LINE
  5
103
100
AcDbEntity
  8
A1
  6
CONTINUOUS
 62
7
100
AcDbLine
 10
1001.678007814165
 20
71.19231520132512
 30
0.000000000000000
 11
993.9000000074996
 21
71.19231520132529
 31
0.000000000000000
  0
LINE
  5
104
100
AcDbEntity
  8
A1
  6
CONTINUOUS
 62
7
100
AcDbLine
 10
1001.678007814165
 20
98.60768479867852
 30
0.000000000000000
 11
993.9000000074994
 21
98.60768479867818
 31
0.000000000000000
  0
ARC
  5
105
100
AcDbEntity
  8
A1
  6
CONTINUOUS
 62
7
100
AcDbCircle
 10
1026.100000007500
 20
97.40000000000168
 30
0.000000000000000
 40
3.000000000000000
100
AcDbArc
 50
354.5682350366718
 51
360.0000000000000
  0
LINE
  5
106
100
AcDbEntity
  8
A4
  6
CENTER
 62
1
100
AcDbLine
 10
1010.700000007500
 20
92.34969443902833
 30
0.000000000000000
 11
997.5000000074997
 21
92.34969443902833
 31
0.000000000000000
  0
LINE
  5
107
100
AcDbEntity
  8
A4
  6
CENTER
 62
1
100
AcDbLine
 10
1004.100000007500
 20
98.94969443902778
 30
0.000000000000000
 11
1004.100000007500
 21
85.74969443902796
 31
0.000000000000000
  0
LINE
  5
108
100
AcDbEntity
  8
A4
  6
CENTER
 62
1
100
AcDbLine
 10
1010.700000007500
 20
77.34969443902742
 30
0.000000000000000
 11
997.5000000074997
 21
77.34969443902742
 31
0.000000000000000
  0
LINE
  5
109
100
AcDbEntity
  8
A4
  6
CENTER
 62
1
100
AcDbLine
 10
1004.100000007500
 20
83.94969443902687
 30
0.000000000000000
 11
1004.100000007500
 21
70.74969443902705
 31
0.000000000000000
  0
LINE
  5
10A
100
AcDbEntity
  8
A1
  6
CONTINUOUS
 62
7
100
AcDbLine
 10
1029.100000007500
 20
111.3500000000005
 30
0.000000000000000
 11
1029.100000007500
 21
97.40000000000157
 31
0.000000000000000
  0
LINE
  5
10B
100
AcDbEntity
  8
A1
  6
CONTINUOUS
 62
7
100
AcDbLine
 10
1029.100000007500
 20
72.40000000000160
 30
0.000000000000000
 11
1029.100000007500
 21
58.45000000000086
 31
0.000000000000000
  0
LINE
  5
10C
100
AcDbEntity
  8
A1
  6
CONTINUOUS
 62
7
100
AcDbLine
 10
1331.899999999975
 20
59.90000000000077
 30
0.000000000000000
 11
1334.399999999964
 21
59.90000000000077
 31
0.000000000000000
  0
LINE
  5
10D
100
AcDbEntity
  8
A1
  6
CONTINUOUS
 62
7
100
AcDbLine
 10
1331.899999999975
 20
109.9000000000008
 30
0.000000000000000
 11
1334.399999999964
 21
109.9000000000008
 31
0.000000000000000
  0
LINE
  5
10E
100
AcDbEntity
  8
A1
  6
CONTINUOUS
 62
7
100
AcDbLine
 10
1332.485786437603
 20
113.3142135623723
 30
0.000000000000000
 11
1333.814213562343
 21
114.6426406871136
 31
0.000000000000000
  0
ARC
  5
10F
100
AcDbEntity
  8
A1
  6
CONTINUOUS
 62
7
100
AcDbCircle
 10
1332.399999999964
 20
116.0568542494887
 30
0.000000000000000
 40
2.000000000000000
100
AcDbArc
 50
315.0000000000000
 51
360.0000000000000
  0
LINE
  5
110
100
AcDbEntity
  8
A1
  6
CONTINUOUS
 62
7
100
AcDbLine
 10
1334.399999999964
 20
119.7999999999995
 30
0.000000000000000
 11
1334.399999999964
 21
116.0568542494887
 31
0.000000000000000
  0
LINE
  5
111
100
AcDbEntity
  8
A1
  6
CONTINUOUS
 62
7
100
AcDbLine
 10
1334.399999999964
 20
109.9000000000008
 30
0.000000000000000
 11
1334.399999999964
 21
59.90000000000077
 31
0.000000000000000
  0
LINE
  5
112
100
AcDbEntity
  8
A1
  6
CONTINUOUS
 62
7
100
AcDbLine
 10
1334.399999999964
 20
53.74314575051380
 30
0.000000000000000
 11
1334.399999999964
 21
50.00000000000205
 31
0.000000000000000
  0
LINE
  5
113
100
AcDbEntity
  8
A1
  6
CONTINUOUS
 62
7
100
AcDbLine
 10
1331.899999999975
 20
109.9000000000008
 30
0.000000000000000
 11
1331.899999999975
 21
59.90000000000077
 31
0.000000000000000
  0
ARC
  5
114
100
AcDbEntity
  8
A1
  6
CONTINUOUS
 62
7
100
AcDbCircle
 10
1333.899999999975
 20
111.9000000000008
 30
0.000000000000000
 40
2.000000000000000
100
AcDbArc
 50
135.0000000000000
 51
270.0000000000000
  0
LINE
  5
115
100
AcDbEntity
  8
A1
  6
CONTINUOUS
 62
7
100
AcDbLine
 10
1332.485786437605
 20
56.48578643762596
 30
0.000000000000000
 11
1333.814213562345
 21
55.15735931288407
 31
0.000000000000000
  0
ARC
  5
116
100
AcDbEntity
  8
A1
  6
CONTINUOUS
 62
7
100
AcDbCircle
 10
1332.399999999964
 20
53.74314575051380
 30
0.000000000000000
 40
2.000000000000000
100
AcDbArc
 50
0.000000000000000
 51
45.00000000000000
  0
ARC
  5
117
100
AcDbEntity
  8
A1
  6
CONTINUOUS
 62
7
100
AcDbCircle
 10
1333.899999999975
 20
57.90000000000168
 30
0.000000000000000
 40
2.000000000000000
100
AcDbArc
 50
90.00000000000000
 51
225.0000000000000
  0
LINE
  5
118
100
AcDbEntity
  8
A1
  6
CONTINUOUS
 62
7
100
AcDbLine
 10
1248.549999999963
 20
81.60000000000059
 30
0.000000000000000
 11
1242.449999999962
 21
81.60000000000059
 31
0.000000000000000
  0
ARC
  5
119
100
AcDbEntity
  8
A1
  6
CONTINUOUS
 62
7
100
AcDbCircle
 10
1248.549999999963
 20
84.89999999999986
 30
0.000000000000000
 40
3.299999999999999
100
AcDbArc
 50
270.0000000000000
 51
450.0000000000000
  0
ARC
  5
11A
100
AcDbEntity
  8
A1
  6
CONTINUOUS
 62
7
100
AcDbCircle
 10
1242.449999999962
 20
84.89999999999986
 30
0.000000000000000
 40
3.299999999999999
100
AcDbArc
 50
90.00000000000000
 51
270.0000000000000
  0
LINE
  5
11B
100
AcDbEntity
  8
A1
  6
CONTINUOUS
 62
7
100
AcDbLine
 10
1248.549999999963
 20
88.19999999999914
 30
0.000000000000000
 11
1242.449999999962
 21
88.19999999999914
 31
0.000000000000000
  0
LINE
  5
11C
100
AcDbEntity
  8
A1
  6
CONTINUOUS
 62
7
100
AcDbLine
 10
1231.749999999964
 20
82.29999999999950
 30
0.000000000000000
 11
1227.449999999965
 21
82.29999999999950
 31
0.000000000000000
  0
ARC
  5
11D
100
AcDbEntity
  8
A1
  6
CONTINUOUS
 62
7
100
AcDbCircle
 10
1231.749999999964
 20
84.89999999999986
 30
0.000000000000000
 40
2.600000000000000
100
AcDbArc
 50
270.0000000000000
 51
450.0000000000000
  0
ARC
  5
11E
100
AcDbEntity
  8
A1
  6
CONTINUOUS
 62
7
100
AcDbCircle
 10
1227.449999999965
 20
84.89999999999986
 30
0.000000000000000
 40
2.600000000000000
100
AcDbArc
 50
90.00000000000000
 51
270.0000000000000
  0
LINE
  5
11F
100
AcDbEntity
  8
A1
  6
CONTINUOUS
 62
7
100
AcDbLine
 10
1231.749999999964
 20
87.50000000000023
 30
0.000000000000000
 11
1227.449999999965
 21
87.50000000000023
 31
0.000000000000000
  0
CIRCLE
  5
120
100
AcDbEntity
  8
A1
  6
CONTINUOUS
 62
7
100
AcDbCircle
 10
1302.699999999963
 20
84.89999999999986
 30
0.000000000000000
 40
3.299999999999999
  0
CIRCLE
  5
121
100
AcDbEntity
  8
A1
  6
CONTINUOUS
 62
7
100
AcDbCircle
 10
1274.099999999963
 20
84.89999999999986
 30
0.000000000000000
 40
3.299999999999999
  0
CIRCLE
  5
122
100
AcDbEntity
  8
A1
  6
CONTINUOUS
 62
7
100
AcDbCircle
 10
1261.399999999964
 20
84.89999999999986
 30
0.000000000000000
 40
2.600000000000000
  0
LINE
  5
123
100
AcDbEntity
  8
A1
  6
CONTINUOUS
 62
7
100
AcDbLine
 10
1219.399999999966
 20
81.22304473783163
 30
0.000000000000000
 11
1215.723044737796
 21
84.90000000000157
 31
0.000000000000000
  0
LINE
  5
124
100
AcDbEntity
  8
A1
  6
CONTINUOUS
 62
7
100
AcDbLine
 10
1223.076955262132
 20
84.89999999999964
 30
0.000000000000000
 11
1219.399999999962
 21
88.57695526216935
 31
0.000000000000000
  0
LINE
  5
125
100
AcDbEntity
  8
A1
  6
CONTINUOUS
 62
7
100
AcDbLine
 10
1215.723044737792
 20
84.89999999999941
 30
0.000000000000000
 11
1219.399999999962
 21
88.57695526216935
 31
0.000000000000000
  0
LINE
  5
126
100
AcDbEntity
  8
A1
  6
CONTINUOUS
 62
7
100
AcDbLine
 10
1219.399999999965
 20
81.22304473783049
 30
0.000000000000000
 11
1223.076955262135
 21
84.90000000000043
 31
0.000000000000000
  0
LINE
  5
127
100
AcDbEntity
  8
A1
  6
CONTINUOUS
 62
7
100
AcDbLine
 10
1286.649999999965
 20
81.55000000000132
 30
0.000000000000000
 11
1286.649999999965
 21
88.25000000000023
 31
0.000000000000000
  0
LINE
  5
128
100
AcDbEntity
  8
A1
  6
CONTINUOUS
 62
7
100
AcDbLine
 10
1293.349999999964
 20
81.55000000000132
 30
0.000000000000000
 11
1293.349999999964
 21
88.25000000000023
 31
0.000000000000000
  0
LINE
  5
129
100
AcDbEntity
  8
A1
  6
CONTINUOUS
 62
7
100
AcDbLine
 10
1286.649999999964
 20
81.55000000000126
 30
0.000000000000000
 11
1293.349999999963
 21
81.55000000000217
 31
0.000000000000000
  0
LINE
  5
12A
100
AcDbEntity
  8
A1
  6
CONTINUOUS
 62
7
100
AcDbLine
 10
1286.649999999965
 20
88.25000000000023
 30
0.000000000000000
 11
1293.349999999964
 21
88.25000000000023
 31
0.000000000000000
  0
LINE
  5
12B
100
AcDbEntity
  8
A1
  6
CONTINUOUS
 62
7
100
AcDbLine
 10
1334.399999999964
 20
119.7999999999997
 30
0.000000000000000
 11
724.7999999999652
 21
119.8000000000016
 31
0.000000000000000
  0
LINE
  5
12C
100
AcDbEntity
  8
A1
  6
CONTINUOUS
 62
7
100
AcDbLine
 10
1334.289058626616
 20
115.4000000000008
 30
0.000000000000000
 11
724.7999999999661
 21
115.4000000000008
 31
0.000000000000000
  0
LINE
  5
12D
100
AcDbEntity
  8
A1
  6
CONTINUOUS
 62
7
100
AcDbLine
 10
1334.399999999964
 20
50.00000000000180
 30
0.000000000000000
 11
724.7999999999663
 21
49.99999999999999
 31
0.000000000000000
  0
LINE
  5
12E
100
AcDbEntity
  8
A1
  6
CONTINUOUS
 62
7
100
AcDbLine
 10
1334.289058626617
 20
54.40000000000077
 30
0.000000000000000
 11
724.7999999999661
 21
54.40000000000077
 31
0.000000000000000
  0
LINE
  5
12F
100
AcDbEntity
  8
A4
  6
CENTER
 62
1
100
AcDbLine
 10
1245.499999999964
 20
92.70000000000005
 30
0.000000000000000
 11
1245.499999999964
 21
77.10000000000150
 31
0.000000000000000
  0
LINE
  5
130
100
AcDbEntity
  8
A4
  6
CENTER
 62
1
100
AcDbLine
 10
1219.399999999965
 20
93.07695526217162
 30
0.000000000000000
 11
1219.399999999965
 21
76.72304473783174
 31
0.000000000000000
  0
LINE
  5
131
100
AcDbEntity
  8
A4
  6
CENTER
 62
1
100
AcDbLine
 10
1289.999999999964
 20
92.75000000000114
 30
0.000000000000000
 11
1289.999999999964
 21
77.05000000000132
 31
0.000000000000000
  0
LINE
  5
132
100
AcDbEntity
  8
A4
  6
CENTER
 62
1
100
AcDbLine
 10
1229.599999999964
 20
92.00000000000114
 30
0.000000000000000
 11
1229.599999999964
 21
77.80000000000041
 31
0.000000000000000
  0
LINE
  5
133
100
AcDbEntity
  8
A4
  6
CENTER
 62
1
100
AcDbLine
 10
1302.699999999963
 20
92.70000000000095
 30
0.000000000000000
 11
1302.699999999963
 21
77.10000000000059
 31
0.000000000000000
  0
LINE
  5
134
100
AcDbEntity
  8
A4
  6
CENTER
 62
1
100
AcDbLine
 10
1274.099999999963
 20
92.70000000000095
 30
0.000000000000000
 11
1274.099999999963
 21
77.10000000000059
 31
0.000000000000000
  0
LINE
  5
135
100
AcDbEntity
  8
A4
  6
CENTER
 62
1
100
AcDbLine
 10
1261.399999999964
 20
92.00000000000023
 30
0.000000000000000
 11
1261.399999999964
 21
77.80000000000041
 31
0.000000000000000
  0
LINE
  5
136
100
AcDbEntity
  8
A1
  6
CONTINUOUS
 62
7
100
AcDbLine
 10
724.7999999999658
 20
50.00000000000031
 30
0.000000000000000
 11
724.7999999999594
 21
58.44999999983824
 31
0.000000000000000
  0
LINE
  5
137
100
AcDbEntity
  8
A1
  6
CONTINUOUS
 62
7
100
AcDbLine
 10
724.7999999999661
 20
119.8000000000021
 30
0.000000000000000
 11
724.7999999999741
 21
111.3500000002114
 31
0.000000000000000
  0
LINE
  5
138
100
AcDbEntity
  8
A4
  6
CENTER
 62
1
100
AcDbLine
 10
737.4999999999654
 20
92.00000000000171
 30
0.000000000000000
 11
737.4999999999654
 21
77.80000000000166
 31
0.000000000000000
  0
LINE
  5
139
100
AcDbEntity
  8
A1
  6
CONTINUOUS
 62
7
100
AcDbLine
 10
430.8999999999648
 20
66.10000000000076
 30
0.000000000000000
 11
430.8999999999648
 21
58.45000000000022
 31
0.000000000000000
  0
LINE
  5
13A
100
AcDbEntity
  8
A1
  6
CONTINUOUS
 62
7
100
AcDbLine
 10
430.8999999999648
 20
111.3500000000006
 30
0.000000000000000
 11
430.8999999999597
 21
103.6999999999709
 31
0.000000000000000
  0
LINE
  5
13B
100
AcDbEntity
  8
A4
  6
CENTER
 62
1
100
AcDbLine
 10
71.30000000000007
 20
84.90000000000077
 30
0.000000000000000
 11
48.50000000000000
 21
84.90000000000077
 31
0.000000000000000
  0
ARC
  5
13C
100
AcDbEntity
  8
A1
  6
CONTINUOUS
 62
7
100
AcDbCircle
 10
59.40000000000009
 20
56.46499999999952
 30
0.000000000000000
 40
6.464999999999999
100
AcDbArc
 50
225.0000000000139
 51
325.0646696619304
  0
LINE
  5
13D
100
AcDbEntity
  8
A1
  6
CONTINUOUS
 62
7
100
AcDbLine
 10
56.79999999999963
 20
67.52598846298996
 30
0.000000000000000
 11
56.79999999999986
 21
62.82418694697957
 31
0.000000000000000
  0
ARC
  5
13E
100
AcDbEntity
  8
A1
  6
CONTINUOUS
 62
7
100
AcDbCircle
 10
64.80000000000007
 20
64.12500000000074
 30
0.000000000000000
 40
5.674999999999999
100
AcDbArc
 50
65.44387469328805
 51
140.8349970654087
  0
LINE
  5
13F
100
AcDbEntity
  8
A1
  6
CONTINUOUS
 62
7
100
AcDbLine
 10
52.50000000000000
 20
57.75764322519700
 30
0.000000000000000
 11
52.50000000000000
 21
112.0423567748044
 31
0.000000000000000
  0
LINE
  5
140
100
AcDbEntity
  8
A1
  6
CONTINUOUS
 62
7
100
AcDbLine
 10
50.00000000000000
 20
57.42627237529683
 30
0.000000000000000
 11
50.00000000000000
 21
112.3737276247046
 31
0.000000000000000
  0
LINE
  5
141
100
AcDbEntity
  8
A1
  6
CONTINUOUS
 62
7
100
AcDbLine
 10
69.80000000000007
 20
67.87055308193072
 30
0.000000000000000
 11
69.80000000000007
 21
101.9294469180707
 31
0.000000000000000
  0
LINE
  5
142
100
AcDbEntity
  8
A1
  6
CONTINUOUS
 62
7
100
AcDbLine
 10
67.29999999999995
 20
69.37767788846878
 30
0.000000000000000
 11
67.29999999999995
 21
100.4223221115329
 31
0.000000000000000
  0
LINE
  5
143
100
AcDbEntity
  8
A1
  6
CONTINUOUS
 62
7
100
AcDbLine
 10
52.50000000000002
 20
57.75764322519710
 30
0.000000000000000
 11
56.59632161259537
 21
53.66132161260007
 31
0.000000000000000
  0
LINE
  5
144
100
AcDbEntity
  8
A1
  6
CONTINUOUS
 62
7
100
AcDbLine
 10
50.49791847198251
 20
56.22419084728013
 30
0.000000000000000
 11
54.82855465962907
 21
51.89355465963055
 31
0.000000000000000
  0
LINE
  5
145
100
AcDbEntity
  8
A1
  6
CONTINUOUS
 62
7
100
AcDbLine
 10
58.60000000000014
 20
74.02132034356083
 30
0.000000000000000
 11
58.60000000000014
 21
95.77867965644083
 31
0.000000000000000
  0
LINE
  5
146
100
AcDbEntity
  8
A1
  6
CONTINUOUS
 62
7
100
AcDbLine
 10
61.09999999999991
 20
74.02132034356083
 30
0.000000000000000
 11
61.09999999999991
 21
95.77867965644083
 31
0.000000000000000
  0
ARC
  5
147
100
AcDbEntity
  8
A1
  6
CONTINUOUS
 62
7
100
AcDbCircle
 10
59.40780553198397
 20
56.46499999999952
 30
0.000000000000000
 40
6.464999999999999
100
AcDbArc
 50
64.34116408558700
 51
109.9462850724337
  0
ARC
  5
148
100
AcDbEntity
  8
A1
  6
CONTINUOUS
 62
7
100
AcDbCircle
 10
56.59999999999991
 20
61.56557613952037
 30
0.000000000000000
 40
2.299999999999999
100
AcDbArc
 50
180.0000000000000
 51
269.8314188142185
  0
ARC
  5
149
100
AcDbEntity
  8
A1
  6
CONTINUOUS
 62
7
100
AcDbCircle
 10
57.09999999999957
 20
62.82418694697964
 30
0.000000000000000
 40
0.3000000000000000
100
AcDbArc
 50
180.0000000000000
 51
289.9462850724159
  0
LINE
  5
14A
100
AcDbEntity
  8
A1
  6
CONTINUOUS
 62
7
100
AcDbLine
 10
62.01921836779975
 20
65.85000000000045
 30
0.000000000000000
 11
60.40000000000016
 21
66.78485616052754
 31
0.000000000000000
  0
LINE
  5
14B
100
AcDbEntity
  8
A1
  6
CONTINUOUS
 62
7
100
AcDbLine
 10
54.29999999999999
 20
67.52598846298991
 30
0.000000000000000
 11
54.30000000000005
 21
61.56557613952055
 31
0.000000000000000
  0
ARC
  5
14C
100
AcDbEntity
  8
A1
  6
CONTINUOUS
 62
7
100
AcDbCircle
 10
58.10000000000082
 20
67.52598846298980
 30
0.000000000000000
 40
1.299999999999999
100
AcDbArc
 50
134.9999999999982
 51
180.0000000000000
  0
LINE
  5
14D
100
AcDbEntity
  8
A1
  6
CONTINUOUS
 62
7
100
AcDbLine
 10
57.18076118445808
 20
68.44522727853044
 30
0.000000000000000
 11
59.92842712474748
 21
71.19289321881963
 31
0.000000000000000
  0
LINE
  5
14E
100
AcDbEntity
  8
A1
  6
CONTINUOUS
 62
7
100
AcDbLine
 10
55.41299423149162
 20
70.21299423149993
 30
0.000000000000000
 11
58.16066017178159
 21
72.96066017177991
 31
0.000000000000000
  0
ARC
  5
14F
100
AcDbEntity
  8
A1
  6
CONTINUOUS
 62
7
100
AcDbCircle
 10
57.10000000000059
 20
74.02132034356083
 30
0.000000000000000
 40
1.499999999999999
100
AcDbArc
 50
315.0000000000169
 51
360.0000000000000
  0
ARC
  5
150
100
AcDbEntity
  8
A1
  6
CONTINUOUS
 62
7
100
AcDbCircle
 10
57.10000000000059
 20
74.02132034356083
 30
0.000000000000000
 40
3.999999999999999
100
AcDbArc
 50
314.9999999999931
 51
360.0000000000000
  0
ARC
  5
151
100
AcDbEntity
  8
A1
  6
CONTINUOUS
 62
7
100
AcDbCircle
 10
58.09999999999991
 20
67.52598846298980
 30
0.000000000000000
 40
3.800000000000001
100
AcDbArc
 50
135.0000000000043
 51
180.0000000000000
  0
ARC
  5
152
100
AcDbEntity
  8
A1
  6
CONTINUOUS
 62
7
100
AcDbCircle
 10
51.70000000000005
 20
57.42627237529683
 30
0.000000000000000
 40
1.700000000000000
100
AcDbArc
 50
180.0000000000000
 51
224.9999999999810
  0
LINE
  5
153
100
AcDbEntity
  8
A1
  6
CONTINUOUS
 62
7
100
AcDbLine
 10
64.69999999999993
 20
53.23159229373397
 30
0.000000000000000
 11
64.69999999999993
 21
52.76280808168946
 31
0.000000000000000
  0
LINE
  5
154
100
AcDbEntity
  8
A1
  6
CONTINUOUS
 62
7
100
AcDbLine
 10
62.78481904981718
 20
54.40000000000072
 30
0.000000000000000
 11
64.69999999999999
 21
53.23159229373387
 31
0.000000000000000
  0
ARC
  5
155
100
AcDbEntity
  8
A1
  6
CONTINUOUS
 62
7
100
AcDbCircle
 10
64.80000000000007
 20
64.12500000000074
 30
0.000000000000000
 40
5.674999999999999
100
AcDbArc
 50
246.0925117444462
 51
320.5510832248698
  0
LINE
  5
156
100
AcDbEntity
  8
A1
  6
CONTINUOUS
 62
7
100
AcDbLine
 10
69.18218611093536
 20
60.51916169398542
 30
0.000000000000000
 11
67.25705640860639
 21
62.11415470388088
 31
0.000000000000000
  0
LINE
  5
157
100
AcDbEntity
  8
A1
  6
CONTINUOUS
 62
7
100
AcDbLine
 10
60.40000000000020
 20
67.70907937970225
 30
0.000000000000000
 11
60.40000000000020
 21
66.78485616052768
 31
0.000000000000000
  0
LINE
  5
158
100
AcDbEntity
  8
A1
  6
CONTINUOUS
 62
7
100
AcDbLine
 10
62.13447941294771
 20
65.85000000000065
 30
0.000000000000000
 11
62.01921836779979
 21
65.85000000000065
 31
0.000000000000000
  0
ARC
  5
159
100
AcDbEntity
  8
A1
  6
CONTINUOUS
 62
7
100
AcDbCircle
 10
68.02944691807011
 20
67.87055308193072
 30
0.000000000000000
 40
1.770553081929961
100
AcDbArc
 50
229.2318156757769
 51
360.0000000000018
  0
ARC
  5
15A
100
AcDbEntity
  8
A1
  6
CONTINUOUS
 62
7
100
AcDbCircle
 10
67.20000000000005
 20
69.37767788846878
 30
0.000000000000000
 40
0.1000000000000000
100
AcDbArc
 50
245.4438746932937
 51
360.0000000000000
  0
ARC
  5
15B
100
AcDbEntity
  8
A1
  6
CONTINUOUS
 62
7
100
AcDbCircle
 10
59.40000000000009
 20
113.3350000000021
 30
0.000000000000000
 40
6.464999999999999
100
AcDbArc
 50
34.93533033806960
 51
134.9999999999861
  0
LINE
  5
15C
100
AcDbEntity
  8
A1
  6
CONTINUOUS
 62
7
100
AcDbLine
 10
56.79999999999980
 20
102.2740115370119
 30
0.000000000000000
 11
56.80000000000003
 21
106.9758130530219
 31
0.000000000000000
  0
ARC
  5
15D
100
AcDbEntity
  8
A1
  6
CONTINUOUS
 62
7
100
AcDbCircle
 10
64.80000000000007
 20
105.6750000000007
 30
0.000000000000000
 40
5.674999999999999
100
AcDbArc
 50
219.1650029345913
 51
294.5561253067119
  0
LINE
  5
15E
100
AcDbEntity
  8
A1
  6
CONTINUOUS
 62
7
100
AcDbLine
 10
52.49999999999999
 20
112.0423567748045
 30
0.000000000000000
 11
56.59632161259536
 21
116.1386783874013
 31
0.000000000000000
  0
LINE
  5
15F
100
AcDbEntity
  8
A1
  6
CONTINUOUS
 62
7
100
AcDbLine
 10
50.49791847198271
 20
113.5758091527212
 30
0.000000000000000
 11
54.82855465962929
 21
117.9064453403706
 31
0.000000000000000
  0
ARC
  5
160
100
AcDbEntity
  8
A1
  6
CONTINUOUS
 62
7
100
AcDbCircle
 10
59.40780553198397
 20
113.3350000000021
 30
0.000000000000000
 40
6.464999999999999
100
AcDbArc
 50
250.0537149275663
 51
295.6588359144130
  0
ARC
  5
161
100
AcDbEntity
  8
A1
  6
CONTINUOUS
 62
7
100
AcDbCircle
 10
56.59999999999991
 20
108.2344238604813
 30
0.000000000000000
 40
2.299999999999999
100
AcDbArc
 50
90.16858118578155
 51
180.0000000000000
  0
ARC
  5
162
100
AcDbEntity
  8
A1
  6
CONTINUOUS
 62
7
100
AcDbCircle
 10
57.09999999999957
 20
106.9758130530220
 30
0.000000000000000
 40
0.3000000000000000
100
AcDbArc
 50
70.05371492758402
 51
180.0000000000000
  0
LINE
  5
163
100
AcDbEntity
  8
A1
  6
CONTINUOUS
 62
7
100
AcDbLine
 10
62.01921836779964
 20
103.9500000000009
 30
0.000000000000000
 11
60.40000000000023
 21
103.0151438394742
 31
0.000000000000000
  0
LINE
  5
164
100
AcDbEntity
  8
A1
  6
CONTINUOUS
 62
7
100
AcDbLine
 10
54.30000000000013
 20
102.2740115370119
 30
0.000000000000000
 11
54.30000000000019
 21
108.2344238604811
 31
0.000000000000000
  0
ARC
  5
165
100
AcDbEntity
  8
A1
  6
CONTINUOUS
 62
7
100
AcDbCircle
 10
58.10000000000082
 20
102.2740115370119
 30
0.000000000000000
 40
1.299999999999999
100
AcDbArc
 50
180.0000000000000
 51
225.0000000000018
  0
LINE
  5
166
100
AcDbEntity
  8
A1
  6
CONTINUOUS
 62
7
100
AcDbLine
 10
57.18076118445811
 20
101.3547727214713
 30
0.000000000000000
 11
59.92842712474749
 21
98.60710678118204
 31
0.000000000000000
  0
LINE
  5
167
100
AcDbEntity
  8
A1
  6
CONTINUOUS
 62
7
100
AcDbLine
 10
55.41299423149141
 20
99.58700576850171
 30
0.000000000000000
 11
58.16066017178142
 21
96.83933982822163
 31
0.000000000000000
  0
ARC
  5
168
100
AcDbEntity
  8
A1
  6
CONTINUOUS
 62
7
100
AcDbCircle
 10
57.10000000000059
 20
95.77867965644083
 30
0.000000000000000
 40
1.499999999999999
100
AcDbArc
 50
0.000000000000000
 51
44.99999999998312
  0
ARC
  5
169
100
AcDbEntity
  8
A1
  6
CONTINUOUS
 62
7
100
AcDbCircle
 10
57.10000000000059
 20
95.77867965644083
 30
0.000000000000000
 40
3.999999999999999
100
AcDbArc
 50
0.000000000000000
 51
45.00000000000691
  0
ARC
  5
16A
100
AcDbEntity
  8
A1
  6
CONTINUOUS
 62
7
100
AcDbCircle
 10
58.09999999999991
 20
102.2740115370119
 30
0.000000000000000
 40
3.800000000000001
100
AcDbArc
 50
180.0000000000000
 51
224.9999999999957
  0
ARC
  5
16B
100
AcDbEntity
  8
A1
  6
CONTINUOUS
 62
7
100
AcDbCircle
 10
51.70000000000005
 20
112.3737276247046
 30
0.000000000000000
 40
1.700000000000000
100
AcDbArc
 50
135.0000000000190
 51
180.0000000000000
  0
LINE
  5
16C
100
AcDbEntity
  8
A1
  6
CONTINUOUS
 62
7
100
AcDbLine
 10
64.69999999999993
 20
116.5684077062677
 30
0.000000000000000
 11
64.69999999999993
 21
117.0371919183124
 31
0.000000000000000
  0
LINE
  5
16D
100
AcDbEntity
  8
A1
  6
CONTINUOUS
 62
7
100
AcDbLine
 10
62.78481904981719
 20
115.4000000000004
 30
0.000000000000000
 11
64.69999999999996
 21
116.5684077062678
 31
0.000000000000000
  0
ARC
  5
16E
100
AcDbEntity
  8
A1
  6
CONTINUOUS
 62
7
100
AcDbCircle
 10
64.80000000000007
 20
105.6750000000007
 30
0.000000000000000
 40
5.674999999999999
100
AcDbArc
 50
39.44891677513021
 51
113.9074882555569
  0
LINE
  5
16F
100
AcDbEntity
  8
A1
  6
CONTINUOUS
 62
7
100
AcDbLine
 10
69.18218611093558
 20
109.2808383060158
 30
0.000000000000000
 11
67.25705640860663
 21
107.6858452961207
 31
0.000000000000000
  0
LINE
  5
170
100
AcDbEntity
  8
A1
  6
CONTINUOUS
 62
7
100
AcDbLine
 10
60.40000000000020
 20
102.0909206202994
 30
0.000000000000000
 11
60.40000000000020
 21
103.0151438394740
 31
0.000000000000000
  0
LINE
  5
171
100
AcDbEntity
  8
A1
  6
CONTINUOUS
 62
7
100
AcDbLine
 10
62.13447941294771
 20
103.9500000000008
 30
0.000000000000000
 11
62.01921836779979
 21
103.9500000000008
 31
0.000000000000000
  0
ARC
  5
172
100
AcDbEntity
  8
A1
  6
CONTINUOUS
 62
7
100
AcDbCircle
 10
68.02944691807011
 20
101.9294469180707
 30
0.000000000000000
 40
1.770553081929961
100
AcDbArc
 50
359.9999999999982
 51
490.7681843242231
  0
ARC
  5
173
100
AcDbEntity
  8
A1
  6
CONTINUOUS
 62
7
100
AcDbCircle
 10
67.20000000000005
 20
100.4223221115329
 30
0.000000000000000
 40
0.1000000000000000
100
AcDbArc
 50
0.000000000000000
 51
114.5561253067063
  0
LINE
  5
174
100
AcDbEntity
  8
A1
  6
CONTINUOUS
 62
7
100
AcDbLine
 10
69.30000000000007
 20
65.12500000000074
 30
0.000000000000000
 11
60.09999999999980
 21
65.12500000000074
 31
0.000000000000000
  0
LINE
  5
175
100
AcDbEntity
  8
A1
  6
CONTINUOUS
 62
7
100
AcDbLine
 10
69.30000000000007
 20
64.12500000000074
 30
0.000000000000000
 11
69.30000000000007
 21
65.12500000000074
 31
0.000000000000000
  0
LINE
  5
176
100
AcDbEntity
  8
A1
  6
CONTINUOUS
 62
7
100
AcDbLine
 10
69.30000000000007
 20
64.12500000000074
 30
0.000000000000000
 11
60.09999999999980
 21
64.12500000000074
 31
0.000000000000000
  0
LINE
  5
177
100
AcDbEntity
  8
A1
  6
CONTINUOUS
 62
7
100
AcDbLine
 10
58.09999999999973
 20
67.40172439427806
 30
0.000000000000000
 11
58.09999999999980
 21
66.12500000000068
 31
0.000000000000000
  0
LINE
  5
178
100
AcDbEntity
  8
A1
  6
CONTINUOUS
 62
7
100
AcDbLine
 10
59.09999999999973
 20
67.40172439427799
 30
0.000000000000000
 11
59.09999999999980
 21
66.12500000000061
 31
0.000000000000000
  0
ARC
  5
179
100
AcDbEntity
  8
A1
  6
CONTINUOUS
 62
7
100
AcDbCircle
 10
60.09999999999980
 20
66.12500000000074
 30
0.000000000000000
 40
1.000000000000000
100
AcDbArc
 50
180.0000000000000
 51
270.0000000000000
  0
ARC
  5
17A
100
AcDbEntity
  8
A1
  6
CONTINUOUS
 62
7
100
AcDbCircle
 10
60.09999999999980
 20
66.12500000000074
 30
0.000000000000000
 40
2.000000000000000
100
AcDbArc
 50
180.0000000000000
 51
270.0000000000000
  0
LINE
  5
17B
100
AcDbEntity
  8
A1
  6
CONTINUOUS
 62
7
100
AcDbLine
 10
59.18786796564381
 20
67.61385642863402
 30
0.000000000000000
 11
65.88578643763175
 21
74.31177490061432
 31
0.000000000000000
  0
LINE
  5
17C
100
AcDbEntity
  8
A1
  6
CONTINUOUS
 62
7
100
AcDbLine
 10
58.48076118445769
 20
68.32096320982103
 30
0.000000000000000
 11
65.17867965644552
 21
75.01888168180128
 31
0.000000000000000
  0
ARC
  5
17D
100
AcDbEntity
  8
A1
  6
CONTINUOUS
 62
7
100
AcDbCircle
 10
59.39999999999975
 20
67.40172439427801
 30
0.000000000000000
 40
0.3000000000000000
100
AcDbArc
 50
134.9999999999654
 51
180.0000000000000
  0
ARC
  5
17E
100
AcDbEntity
  8
A1
  6
CONTINUOUS
 62
7
100
AcDbCircle
 10
59.39999999999975
 20
67.40172439427812
 30
0.000000000000000
 40
1.300000000000000
100
AcDbArc
 50
134.9999999999672
 51
180.0000000000000
  0
LINE
  5
17F
100
AcDbEntity
  8
A1
  6
CONTINUOUS
 62
7
100
AcDbLine
 10
65.88578643763887
 20
77.14020202535480
 30
0.000000000000000
 11
63.48786796564290
 21
79.53812049737259
 31
0.000000000000000
  0
LINE
  5
180
100
AcDbEntity
  8
A1
  6
CONTINUOUS
 62
7
100
AcDbLine
 10
65.17867965644928
 20
76.43309524417153
 30
0.000000000000000
 11
62.78076118445334
 21
78.83101371618928
 31
0.000000000000000
  0
ARC
  5
181
100
AcDbEntity
  8
A1
  6
CONTINUOUS
 62
7
100
AcDbCircle
 10
64.47157287525943
 20
75.72598846298825
 30
0.000000000000000
 40
1.000000000000000
100
AcDbArc
 50
314.9999999999672
 51
404.9999999997386
  0
ARC
  5
182
100
AcDbEntity
  8
A1
  6
CONTINUOUS
 62
7
100
AcDbCircle
 10
64.47157287525943
 20
75.72598846298825
 30
0.000000000000000
 40
2.000000000000000
100
AcDbArc
 50
314.9999999999675
 51
404.9999999997395
  0
ARC
  5
183
100
AcDbEntity
  8
A1
  6
CONTINUOUS
 62
7
100
AcDbCircle
 10
63.69999999999993
 20
79.75025253172765
 30
0.000000000000000
 40
0.3000000000000000
100
AcDbArc
 50
180.0000000000000
 51
224.9999999997390
  0
ARC
  5
184
100
AcDbEntity
  8
A1
  6
CONTINUOUS
 62
7
100
AcDbCircle
 10
63.69999999999993
 20
79.75025253172765
 30
0.000000000000000
 40
1.300000000000000
100
AcDbArc
 50
180.0000000000000
 51
224.9999999997396
  0
LINE
  5
185
100
AcDbEntity
  8
A1
  6
CONTINUOUS
 62
7
100
AcDbLine
 10
59.18786796564396
 20
102.1861435713674
 30
0.000000000000000
 11
65.88578643763182
 21
95.48822509938715
 31
0.000000000000000
  0
LINE
  5
186
100
AcDbEntity
  8
A1
  6
CONTINUOUS
 62
7
100
AcDbLine
 10
58.48076118445758
 20
101.4790367901803
 30
0.000000000000000
 11
65.17867965644542
 21
94.78111831820003
 31
0.000000000000000
  0
LINE
  5
187
100
AcDbEntity
  8
A1
  6
CONTINUOUS
 62
7
100
AcDbLine
 10
65.88578643763908
 20
92.65979797464669
 30
0.000000000000000
 11
63.48786796564310
 21
90.26187950262890
 31
0.000000000000000
  0
LINE
  5
188
100
AcDbEntity
  8
A1
  6
CONTINUOUS
 62
7
100
AcDbLine
 10
65.17867965644921
 20
93.36690475583009
 30
0.000000000000000
 11
62.78076118445332
 21
90.96898628381237
 31
0.000000000000000
  0
ARC
  5
189
100
AcDbEntity
  8
A1
  6
CONTINUOUS
 62
7
100
AcDbCircle
 10
64.47157287525943
 20
94.07401153701318
 30
0.000000000000000
 40
1.000000000000000
100
AcDbArc
 50
315.0000000002614
 51
405.0000000000328
  0
ARC
  5
18A
100
AcDbEntity
  8
A1
  6
CONTINUOUS
 62
7
100
AcDbCircle
 10
64.47157287525943
 20
94.07401153701318
 30
0.000000000000000
 40
2.000000000000000
100
AcDbArc
 50
315.0000000002605
 51
405.0000000000325
  0
ARC
  5
18B
100
AcDbEntity
  8
A1
  6
CONTINUOUS
 62
7
100
AcDbCircle
 10
63.69999999999993
 20
90.04974746827389
 30
0.000000000000000
 40
0.3000000000000000
100
AcDbArc
 50
135.0000000002610
 51
180.0000000000000
  0
ARC
  5
18C
100
AcDbEntity
  8
A1
  6
CONTINUOUS
 62
7
100
AcDbCircle
 10
63.69999999999993
 20
90.04974746827378
 30
0.000000000000000
 40
1.300000000000000
100
AcDbArc
 50
135.0000000002604
 51
180.0000000000000
  0
LINE
  5
18D
100
AcDbEntity
  8
A1
  6
CONTINUOUS
 62
7
100
AcDbLine
 10
69.30000000000007
 20
104.6750000000008
 30
0.000000000000000
 11
60.09999999999980
 21
104.6750000000008
 31
0.000000000000000
  0
LINE
  5
18E
100
AcDbEntity
  8
A1
  6
CONTINUOUS
 62
7
100
AcDbLine
 10
69.30000000000007
 20
105.6750000000008
 30
0.000000000000000
 11
69.30000000000007
 21
104.6750000000008
 31
0.000000000000000
  0
LINE
  5
18F
100
AcDbEntity
  8
A1
  6
CONTINUOUS
 62
7
100
AcDbLine
 10
69.30000000000007
 20
105.6750000000008
 30
0.000000000000000
 11
60.09999999999980
 21
105.6750000000008
 31
0.000000000000000
  0
ARC
  5
190
100
AcDbEntity
  8
A1
  6
CONTINUOUS
 62
7
100
AcDbCircle
 10
60.09999999999980
 20
103.6750000000008
 30
0.000000000000000
 40
2.000000000000000
100
AcDbArc
 50
90.00000000000000
 51
180.0000000000000
  0
ARC
  5
191
100
AcDbEntity
  8
A1
  6
CONTINUOUS
 62
7
100
AcDbCircle
 10
60.09999999999980
 20
103.6750000000008
 30
0.000000000000000
 40
1.000000000000000
100
AcDbArc
 50
90.00000000000000
 51
180.0000000000000
  0
LINE
  5
192
100
AcDbEntity
  8
A1
  6
CONTINUOUS
 62
7
100
AcDbLine
 10
59.09999999999987
 20
102.3982756057235
 30
0.000000000000000
 11
59.09999999999994
 21
103.6750000000008
 31
0.000000000000000
  0
ARC
  5
193
100
AcDbEntity
  8
A1
  6
CONTINUOUS
 62
7
100
AcDbCircle
 10
59.39999999999975
 20
102.3982756057234
 30
0.000000000000000
 40
0.3000000000000000
100
AcDbArc
 50
180.0000000000000
 51
225.0000000000346
  0
LINE
  5
194
100
AcDbEntity
  8
A1
  6
CONTINUOUS
 62
7
100
AcDbLine
 10
58.09999999999987
 20
102.3982756057234
 30
0.000000000000000
 11
58.09999999999994
 21
103.6750000000008
 31
0.000000000000000
  0
ARC
  5
195
100
AcDbEntity
  8
A1
  6
CONTINUOUS
 62
7
100
AcDbCircle
 10
59.39999999999975
 20
102.3982756057233
 30
0.000000000000000
 40
1.300000000000000
100
AcDbArc
 50
180.0000000000000
 51
225.0000000000328
  0
LINE
  5
196
100
AcDbEntity
  8
A1
  6
CONTINUOUS
 62
7
100
AcDbLine
 10
63.39999999999998
 20
79.75025253172765
 30
0.000000000000000
 11
63.39999999999998
 21
90.04974746827389
 31
0.000000000000000
  0
LINE
  5
197
100
AcDbEntity
  8
A1
  6
CONTINUOUS
 62
7
100
AcDbLine
 10
62.39999999999998
 20
79.75025253172765
 30
0.000000000000000
 11
62.39999999999998
 21
90.04974746827378
 31
0.000000000000000
  0
LINE
  5
198
100
AcDbEntity
  8
A1
  6
CONTINUOUS
 62
7
100
AcDbLine
 10
53.00000000000000
 20
59.18154842042810
 30
0.000000000000000
 11
53.00000000000000
 21
69.90000000001208
 31
0.000000000000000
  0
LINE
  5
199
100
AcDbEntity
  8
A1
  6
CONTINUOUS
 62
7
100
AcDbLine
 10
54.00000000000000
 20
59.18154842042810
 30
0.000000000000000
 11
54.00000000000000
 21
69.90000000001208
 31
0.000000000000000
  0
LINE
  5
19A
100
AcDbEntity
  8
A1
  6
CONTINUOUS
 62
7
100
AcDbLine
 10
54.78356038606194
 20
58.20525241330822
 30
0.000000000000000
 11
64.99999999999946
 21
55.94032227968441
 31
0.000000000000000
  0
LINE
  5
19B
100
AcDbEntity
  8
A1
  6
CONTINUOUS
 62
7
100
AcDbLine
 10
54.56712077212389
 20
57.22895640618827
 30
0.000000000000000
 11
64.78356038606130
 21
54.96402627256447
 31
0.000000000000000
  0
ARC
  5
19C
100
AcDbEntity
  8
A1
  6
CONTINUOUS
 62
7
100
AcDbCircle
 10
55.00000000000000
 20
59.18154842042810
 30
0.000000000000000
 40
1.000000000000000
100
AcDbArc
 50
180.0000000000000
 51
257.4999999999999
  0
ARC
  5
19D
100
AcDbEntity
  8
A1
  6
CONTINUOUS
 62
7
100
AcDbCircle
 10
55.00000000000000
 20
59.18154842042810
 30
0.000000000000000
 40
2.000000000000000
100
AcDbArc
 50
180.0000000000000
 51
257.5000000000001
  0
LINE
  5
19E
100
AcDbEntity
  8
A1
  6
CONTINUOUS
 62
7
100
AcDbLine
 10
64.78356038606130
 20
54.96402627256457
 30
0.000000000000000
 11
64.99999999999940
 21
55.94032227968449
 31
0.000000000000000
  0
LINE
  5
19F
100
AcDbEntity
  8
A1
  6
CONTINUOUS
 62
7
100
AcDbLine
 10
53.99999999998877
 20
69.90000000000074
 30
0.000000000000000
 11
55.41421356237272
 21
71.31421356238469
 31
0.000000000000000
  0
LINE
  5
1A0
100
AcDbEntity
  8
A1
  6
CONTINUOUS
 62
7
100
AcDbLine
 10
53.29289321880218
 20
70.60710678118740
 30
0.000000000000000
 11
54.70710678118605
 21
72.02132034357126
 31
0.000000000000000
  0
ARC
  5
1A1
100
AcDbEntity
  8
A1
  6
CONTINUOUS
 62
7
100
AcDbCircle
 10
54.00000000000000
 20
69.90000000001208
 30
0.000000000000000
 40
1.000000000000000
100
AcDbArc
 50
134.9999999999994
 51
180.0000000000000
  0
LINE
  5
1A2
100
AcDbEntity
  8
A1
  6
CONTINUOUS
 62
7
100
AcDbLine
 10
56.71213203435601
 20
78.81213203435671
 30
0.000000000000000
 11
54.58578643761592
 21
76.68578643761737
 31
0.000000000000000
  0
LINE
  5
1A3
100
AcDbEntity
  8
A1
  6
CONTINUOUS
 62
7
100
AcDbLine
 10
57.41923881554249
 20
78.10502525317006
 30
0.000000000000000
 11
55.29289321880240
 21
75.97867965643070
 31
0.000000000000000
  0
ARC
  5
1A4
100
AcDbEntity
  8
A1
  6
CONTINUOUS
 62
7
100
AcDbCircle
 10
56.50000000000011
 20
79.02426406871274
 30
0.000000000000000
 40
0.3000000000000000
100
AcDbArc
 50
314.9999999999885
 51
360.0000000000000
  0
ARC
  5
1A5
100
AcDbEntity
  8
A1
  6
CONTINUOUS
 62
7
100
AcDbCircle
 10
56.50000000000011
 20
79.02426406871274
 30
0.000000000000000
 40
1.300000000000000
100
AcDbArc
 50
314.9999999999903
 51
360.0000000000000
  0
ARC
  5
1A6
100
AcDbEntity
  8
A1
  6
CONTINUOUS
 62
7
100
AcDbCircle
 10
55.99999999998875
 20
75.27157287524398
 30
0.000000000000000
 40
2.000000000000000
100
AcDbArc
 50
134.9999999999902
 51
209.8279761925665
  0
ARC
  5
1A7
100
AcDbEntity
  8
A1
  6
CONTINUOUS
 62
7
100
AcDbCircle
 10
55.99999999998875
 20
75.27157287524398
 30
0.000000000000000
 40
1.000000000000000
100
AcDbArc
 50
134.9999999999902
 51
209.8279761925667
  0
ARC
  5
1A8
100
AcDbEntity
  8
A1
  6
CONTINUOUS
 62
7
100
AcDbCircle
 10
53.99999999999943
 20
72.72842712475773
 30
0.000000000000000
 40
2.000000000000000
100
AcDbArc
 50
315.0000000000000
 51
389.8279761925668
  0
ARC
  5
1A9
100
AcDbEntity
  8
A1
  6
CONTINUOUS
 62
7
100
AcDbCircle
 10
53.99999999999943
 20
72.72842712475773
 30
0.000000000000000
 40
1.000000000000000
100
AcDbArc
 50
315.0000000000006
 51
389.8279761925668
  0
LINE
  5
1AA
100
AcDbEntity
  8
A1
  6
CONTINUOUS
 62
7
100
AcDbLine
 10
54.26495462170315
 20
74.27677765245213
 30
0.000000000000000
 11
54.86752268914233
 21
73.22582473615378
 31
0.000000000000000
  0
LINE
  5
1AB
100
AcDbEntity
  8
A1
  6
CONTINUOUS
 62
7
100
AcDbLine
 10
55.73504537828515
 20
73.72322234754975
 30
0.000000000000000
 11
55.13247731084597
 21
74.77417526384809
 31
0.000000000000000
  0
LINE
  5
1AC
100
AcDbEntity
  8
A1
  6
CONTINUOUS
 62
7
100
AcDbLine
 10
53.00000000000000
 20
110.6184515795733
 30
0.000000000000000
 11
53.00000000000000
 21
99.89999999998935
 31
0.000000000000000
  0
LINE
  5
1AD
100
AcDbEntity
  8
A1
  6
CONTINUOUS
 62
7
100
AcDbLine
 10
54.00000000000000
 20
110.6184515795733
 30
0.000000000000000
 11
54.00000000000000
 21
99.89999999998935
 31
0.000000000000000
  0
LINE
  5
1AE
100
AcDbEntity
  8
A1
  6
CONTINUOUS
 62
7
100
AcDbLine
 10
54.78356038606182
 20
111.5947475866933
 30
0.000000000000000
 11
64.99999999999939
 21
113.8596777203171
 31
0.000000000000000
  0
LINE
  5
1AF
100
AcDbEntity
  8
A1
  6
CONTINUOUS
 62
7
100
AcDbLine
 10
54.56712077212383
 20
112.5710435938131
 30
0.000000000000000
 11
64.78356038606117
 21
114.8359737274369
 31
0.000000000000000
  0
ARC
  5
1B0
100
AcDbEntity
  8
A1
  6
CONTINUOUS
 62
7
100
AcDbCircle
 10
55.00000000000000
 20
110.6184515795733
 30
0.000000000000000
 40
1.000000000000000
100
AcDbArc
 50
102.5000000000001
 51
180.0000000000000
  0
ARC
  5
1B1
100
AcDbEntity
  8
A1
  6
CONTINUOUS
 62
7
100
AcDbCircle
 10
55.00000000000000
 20
110.6184515795733
 30
0.000000000000000
 40
2.000000000000000
100
AcDbArc
 50
102.4999999999999
 51
180.0000000000000
  0
LINE
  5
1B2
100
AcDbEntity
  8
A1
  6
CONTINUOUS
 62
7
100
AcDbLine
 10
64.78356038606114
 20
114.8359737274370
 30
0.000000000000000
 11
64.99999999999926
 21
113.8596777203171
 31
0.000000000000000
  0
LINE
  5
1B3
100
AcDbEntity
  8
A1
  6
CONTINUOUS
 62
7
100
AcDbLine
 10
53.99999999998862
 20
99.90000000000062
 30
0.000000000000000
 11
55.41421356237249
 21
98.48578643761675
 31
0.000000000000000
  0
LINE
  5
1B4
100
AcDbEntity
  8
A1
  6
CONTINUOUS
 62
7
100
AcDbLine
 10
53.29289321880213
 20
99.19289321881411
 30
0.000000000000000
 11
54.70710678118597
 21
97.77867965643028
 31
0.000000000000000
  0
ARC
  5
1B5
100
AcDbEntity
  8
A1
  6
CONTINUOUS
 62
7
100
AcDbCircle
 10
54.00000000000000
 20
99.89999999998935
 30
0.000000000000000
 40
1.000000000000000
100
AcDbArc
 50
180.0000000000000
 51
225.0000000000006
  0
LINE
  5
1B6
100
AcDbEntity
  8
A1
  6
CONTINUOUS
 62
7
100
AcDbLine
 10
56.71213203435609
 20
90.98786796564482
 30
0.000000000000000
 11
54.58578643761597
 21
93.11421356238418
 31
0.000000000000000
  0
LINE
  5
1B7
100
AcDbEntity
  8
A1
  6
CONTINUOUS
 62
7
100
AcDbLine
 10
57.41923881554239
 20
91.69497474683129
 30
0.000000000000000
 11
55.29289321880218
 21
93.82132034357078
 31
0.000000000000000
  0
ARC
  5
1B8
100
AcDbEntity
  8
A1
  6
CONTINUOUS
 62
7
100
AcDbCircle
 10
56.50000000000011
 20
90.77573593128869
 30
0.000000000000000
 40
0.3000000000000000
100
AcDbArc
 50
0.000000000000000
 51
45.00000000001150
  0
ARC
  5
1B9
100
AcDbEntity
  8
A1
  6
CONTINUOUS
 62
7
100
AcDbCircle
 10
56.50000000000011
 20
90.77573593128869
 30
0.000000000000000
 40
1.300000000000000
100
AcDbArc
 50
0.000000000000000
 51
45.00000000000972
  0
ARC
  5
1BA
100
AcDbEntity
  8
A1
  6
CONTINUOUS
 62
7
100
AcDbCircle
 10
55.99999999998875
 20
94.52842712475746
 30
0.000000000000000
 40
2.000000000000000
100
AcDbArc
 50
150.1720238074335
 51
225.0000000000098
  0
ARC
  5
1BB
100
AcDbEntity
  8
A1
  6
CONTINUOUS
 62
7
100
AcDbCircle
 10
55.99999999998875
 20
94.52842712475746
 30
0.000000000000000
 40
1.000000000000000
100
AcDbArc
 50
150.1720238074333
 51
225.0000000000098
  0
ARC
  5
1BC
100
AcDbEntity
  8
A1
  6
CONTINUOUS
 62
7
100
AcDbCircle
 10
53.99999999999943
 20
97.07157287524370
 30
0.000000000000000
 40
2.000000000000000
100
AcDbArc
 50
330.1720238074332
 51
404.9999999999999
  0
ARC
  5
1BD
100
AcDbEntity
  8
A1
  6
CONTINUOUS
 62
7
100
AcDbCircle
 10
53.99999999999943
 20
97.07157287524370
 30
0.000000000000000
 40
1.000000000000000
100
AcDbArc
 50
330.1720238074332
 51
404.9999999999994
  0
LINE
  5
1BE
100
AcDbEntity
  8
A1
  6
CONTINUOUS
 62
7
100
AcDbLine
 10
54.26495462170323
 20
95.52322234754963
 30
0.000000000000000
 11
54.86752268914240
 21
96.57417526384798
 31
0.000000000000000
  0
LINE
  5
1BF
100
AcDbEntity
  8
A1
  6
CONTINUOUS
 62
7
100
AcDbLine
 10
55.73504537828522
 20
96.07677765245199
 30
0.000000000000000
 11
55.13247731084604
 21
95.02582473615365
 31
0.000000000000000
  0
LINE
  5
1C0
100
AcDbEntity
  8
A1
  6
CONTINUOUS
 62
7
100
AcDbLine
 10
57.80000000000018
 20
79.02426406871274
 30
0.000000000000000
 11
57.80000000000018
 21
90.77573593128869
 31
0.000000000000000
  0
LINE
  5
1C1
100
AcDbEntity
  8
A1
  6
CONTINUOUS
 62
7
100
AcDbLine
 10
56.80000000000018
 20
79.02426406871274
 30
0.000000000000000
 11
56.80000000000018
 21
90.77573593128869
 31
0.000000000000000
  0
ARC
  5
1C2
100
AcDbEntity
  8
A1
  6
CONTINUOUS
 62
7
100
AcDbCircle
 10
59.40000000000009
 20
56.46499999999952
 30
0.000000000000000
 40
3.964999999999999
100
AcDbArc
 50
357.6659397403221
 51
517.3340602596779
  0
ARC
  5
1C3
100
AcDbEntity
  8
A1
  6
CONTINUOUS
 62
7
100
AcDbCircle
 10
59.40000000000009
 20
56.46499999999952
 30
0.000000000000000
 40
3.964999999999999
100
AcDbArc
 50
171.8418556335158
 51
343.1581443664844
  0
ARC
  5
1C4
100
AcDbEntity
  8
A1
  6
CONTINUOUS
 62
7
100
AcDbCircle
 10
64.80000000000007
 20
64.12500000000074
 30
0.000000000000000
 40
3.174999999999999
100
AcDbArc
 50
180.0000000000000
 51
360.0000000000000
  0
ARC
  5
1C5
100
AcDbEntity
  8
A1
  6
CONTINUOUS
 62
7
100
AcDbCircle
 10
64.80000000000007
 20
64.12500000000074
 30
0.000000000000000
 40
3.174999999999999
100
AcDbArc
 50
18.35843707533010
 51
161.6415629246699
  0
ARC
  5
1C6
100
AcDbEntity
  8
A1
  6
CONTINUOUS
 62
7
100
AcDbCircle
 10
64.80000000000007
 20
105.6750000000007
 30
0.000000000000000
 40
3.174999999999999
100
AcDbArc
 50
198.3584370753279
 51
341.6415629246720
  0
ARC
  5
1C7
100
AcDbEntity
  8
A1
  6
CONTINUOUS
 62
7
100
AcDbCircle
 10
64.80000000000007
 20
105.6750000000007
 30
0.000000000000000
 40
3.174999999999999
100
AcDbArc
 50
0.000000000000000
 51
180.0000000000000
  0
ARC
  5
1C8
100
AcDbEntity
  8
A1
  6
CONTINUOUS
 62
7
100
AcDbCircle
 10
59.40000000000009
 20
113.3350000000021
 30
0.000000000000000
 40
3.964999999999999
100
AcDbArc
 50
16.84185563351389
 51
188.1581443664863
  0
ARC
  5
1C9
100
AcDbEntity
  8
A1
  6
CONTINUOUS
 62
7
100
AcDbCircle
 10
59.40000000000009
 20
113.3350000000021
 30
0.000000000000000
 40
3.964999999999999
100
AcDbArc
 50
202.6659397403229
 51
362.3340602596767
  0
SPLINE
  5
1CA
100
AcDbEntity
  8
A1
  6
CONTINUOUS
 62
7
100
AcDbSpline
210
0.000000000000000
220
0.000000000000000
230
1.000000000000000
 70
     8
 71
     3
 72
    12
 73
     8
 74
     0
 42
1.000000000000000e-07
 43
1.000000000000000e-07
 12
-0.8305197130866873
 22
0.5569892334297037
 32
0.000000000000000
 13
-0.9922250698073185
 23
0.1244564616827120
 33
0.000000000000000
 40
0.000000000000000
 40
0.000000000000000
 40
0.000000000000000
 40
0.000000000000000
 40
0.1476387386511086
 40
0.2822857224892344
 40
0.4255565306639035
 40
0.5380608954054817
 40
0.6041930190001721
 40
0.6041930190001721
 40
0.6041930190001721
 40
0.6041930190001721
 10
1332.485786999983
 20
189.3161516083666
 30
0.000000000000000
 10
1332.444914705695
 20
189.3435626709885
 30
0.000000000000000
 10
1332.366175697361
 20
189.3950393186639
 30
0.000000000000000
 10
1332.246545487469
 20
189.4714907676372
 30
0.000000000000000
 10
1332.133949714876
 20
189.5361574787768
 30
0.000000000000000
 10
1332.037732463931
 20
189.5858183394295
 30
0.000000000000000
 10
1331.978786692809
 20
189.5972564766327
 30
0.000000000000000
 10
1331.956914042492
 20
189.6000000000014
 30
0.000000000000000
  0
ARC
  5
1CB
100
AcDbEntity
  8
A1
  6
CONTINUOUS
 62
7
100
AcDbCircle
 10
1331.899999999985
 20
187.1000000000014
 30
0.000000000000000
 40
2.500000000000000
100
AcDbArc
 50
0.000000000000000
 51
36.86992168959200
  0
ARC
  5
1CC
100
AcDbEntity
  8
A1
  6
CONTINUOUS
 62
7
100
AcDbCircle
 10
1331.899999999984
 20
187.1000000000014
 30
0.000000000000000
 40
2.500000000000265
100
AcDbArc
 50
36.86992168959516
 51
88.73278272353379
  0
ARC
  5
1CD
100
AcDbEntity
  8
A1
  6
CONTINUOUS
 62
7
100
AcDbCircle
 10
1331.545300624683
 20
187.9000000000016
 30
0.000000000000000
 40
1.699999999999937
100
AcDbArc
 50
45.00000000001349
 51
56.41129919730677
  0
ARC
  5
1CE
100
AcDbEntity
  8
A1
  6
CONTINUOUS
 62
7
100
AcDbCircle
 10
1332.399996277827
 20
186.6210350142229
 30
0.000000000000000
 40
2.000003722157540
100
AcDbArc
 50
0.000000000000000
 51
44.99993810155792
  0
LINE
  5
1CF
100
AcDbEntity
  8
A1
  6
CONTINUOUS
 62
7
100
AcDbLine
 10
1334.399999999984
 20
186.6210360142275
 30
0.000000000000000
 11
1334.399999999984
 21
187.1000000000015
 31
0.000000000000000
  0
LINE
  5
1D0
100
AcDbEntity
  8
A1
  6
CONTINUOUS
 62
7
100
AcDbLine
 10
1334.399999999984
 20
174.1000000000015
 30
0.000000000000000
 11
1334.399999999984
 21
174.8999999999981
 31
0.000000000000000
  0
LINE
  5
1D1
100
AcDbEntity
  8
A1
  6
CONTINUOUS
 62
7
100
AcDbLine
 10
1331.899999999984
 20
174.1000000000015
 30
0.000000000000000
 11
1331.899999999984
 21
174.8999999999981
 31
0.000000000000000
  0
LINE
  5
1D2
100
AcDbEntity
  8
A1
  6
CONTINUOUS
 62
7
100
AcDbLine
 10
1334.399999999984
 20
174.1000000000015
 30
0.000000000000000
 11
1334.399999999984
 21
169.1000000000015
 31
0.000000000000000
  0
LINE
  5
1D3
100
AcDbEntity
  8
A1
  6
CONTINUOUS
 62
7
100
AcDbLine
 10
1331.899999999984
 20
169.1000000000015
 30
0.000000000000000
 11
1331.899999999984
 21
174.1000000000015
 31
0.000000000000000
  0
LINE
  5
1D4
100
AcDbEntity
  8
A1
  6
CONTINUOUS
 62
7
100
AcDbLine
 10
1331.899999999984
 20
174.1000000000015
 30
0.000000000000000
 11
1334.399999999984
 21
174.1000000000015
 31
0.000000000000000
  0
LINE
  5
1D5
100
AcDbEntity
  8
A1
  6
CONTINUOUS
 62
7
100
AcDbLine
 10
1334.399999999984
 20
169.1000000000015
 30
0.000000000000000
 11
1331.899999999984
 21
169.1000000000015
 31
0.000000000000000
  0
LINE
  5
1D6
100
AcDbEntity
  8
A1
  6
CONTINUOUS
 62
7
100
AcDbLine
 10
1333.899999370520
 20
187.9439127903431
 30
0.000000000000000
 11
1333.899999370520
 21
188.6000008392864
 31
0.000000000000000
  0
LINE
  5
1D7
100
AcDbEntity
  8
A1
  6
CONTINUOUS
 62
7
100
AcDbLine
 10
724.7999999999843
 20
189.1020815280193
 30
0.000000000000000
 11
724.7999999999843
 21
189.6000000000016
 31
0.000000000000000
  0
LINE
  5
1D8
100
AcDbEntity
  8
A1
  6
CONTINUOUS
 62
7
100
AcDbLine
 10
1331.956914042492
 20
189.6000000000015
 30
0.000000000000000
 11
724.7999999999843
 21
189.6000000000016
 31
0.000000000000000
  0
LINE
  5
1D9
100
AcDbEntity
  8
A1
  6
CONTINUOUS
 62
7
100
AcDbLine
 10
1334.399999999984
 20
184.7714453403690
 30
0.000000000000000
 11
1334.399999999984
 21
186.6210350142231
 31
0.000000000000000
  0
LINE
  5
1DA
100
AcDbEntity
  8
A1
  6
CONTINUOUS
 62
7
100
AcDbLine
 10
724.7999999999843
 20
184.7714453403690
 30
0.000000000000000
 11
724.7999999999843
 21
189.1020815280193
 31
0.000000000000000
  0
LINE
  5
1DB
100
AcDbEntity
  8
A1
  6
CONTINUOUS
 62
7
100
AcDbLine
 10
1333.814213999983
 20
188.0352496807357
 30
0.000000000000000
 11
1332.747382152700
 21
189.1020815280193
 31
0.000000000000000
  0
LINE
  5
1DC
100
AcDbEntity
  8
A1
  6
CONTINUOUS
 62
7
100
AcDbLine
 10
1332.747382152700
 20
189.1020815280192
 30
0.000000000000000
 11
724.7999999999843
 21
189.1020815280193
 31
0.000000000000000
  0
LINE
  5
1DD
100
AcDbEntity
  8
A1
  6
CONTINUOUS
 62
7
100
AcDbLine
 10
1334.399999999984
 20
174.8999999999981
 30
0.000000000000000
 11
1334.399999999984
 21
184.7714453403690
 31
0.000000000000000
  0
LINE
  5
1DE
100
AcDbEntity
  8
A1
  6
CONTINUOUS
 62
7
100
AcDbLine
 10
724.7999999999843
 20
174.8999999999981
 30
0.000000000000000
 11
724.7999999999843
 21
184.7714453403690
 31
0.000000000000000
  0
LINE
  5
1DF
100
AcDbEntity
  8
A1
  6
CONTINUOUS
 62
7
100
AcDbLine
 10
1334.399999999984
 20
174.8999999999981
 30
0.000000000000000
 11
724.7999999999843
 21
174.8999999999981
 31
0.000000000000000
  0
LINE
  5
1E0
100
AcDbEntity
  8
A1
  6
CONTINUOUS
 62
7
100
AcDbLine
 10
1334.399999999984
 20
184.7714453403690
 30
0.000000000000000
 11
724.7999999999843
 21
184.7714453403690
 31
0.000000000000000
  0
SPLINE
  5
1E1
100
AcDbEntity
  8
A1
  6
CONTINUOUS
 62
7
100
AcDbSpline
210
0.000000000000000
220
0.000000000000000
230
1.000000000000000
 70
     8
 71
     3
 72
    17
 73
    13
 74
     0
 42
1.000000000000000e-07
 43
1.000000000000000e-07
 12
-0.007049927399748412
 22
-0.9999751489522168
 32
0.000000000000000
 13
0.9999995238431438
 23
0.0009758660589795909
 33
0.000000000000000
 40
0.000000000000000
 40
0.000000000000000
 40
0.000000000000000
 40
0.000000000000000
 40
0.2816393116382642
 40
0.5634931201143776
 40
0.8349480651393788
 40
1.117917651600690
 40
1.392672024345262
 40
1.687069308203078
 40
1.989579451103424
 40
2.312133100972487
 40
2.570875769953655
 40
2.836914172936769
 40
2.836914172936769
 40
2.836914172936769
 40
2.836914172936769
 10
430.7000000019858
 20
171.9686259857032
 30
0.000000000000000
 10
430.6993381564192
 20
171.8747485481678
 30
0.000000000000000
 10
430.7158280940827
 20
171.6863987365310
 30
0.000000000000000
 10
430.7915416427812
 20
171.4166919038586
 30
0.000000000000000
 10
430.9226344838559
 20
171.1682835551286
 30
0.000000000000000
 10
431.1017883214078
 20
170.9550973711699
 30
0.000000000000000
 10
431.3246660050701
 20
170.7765835775923
 30
0.000000000000000
 10
431.5801633936809
 20
170.6355820066289
 30
0.000000000000000
 10
431.8681988897503
 20
170.5282031886751
 30
0.000000000000000
 10
432.1558316098209
 20
170.4610900278523
 30
0.000000000000000
 10
432.4362933663512
 20
170.4252210369319
 30
0.000000000000000
 10
432.6113205765502
 20
170.4177273497772
 30
0.000000000000000
 10
432.7000000019858
 20
170.4178138890599
 30
0.000000000000000
  0
LINE
  5
1E2
100
AcDbEntity
  8
A1
  6
CONTINUOUS
 62
7
100
AcDbLine
 10
430.7000000019858
 20
182.9989714450042
 30
0.000000000000000
 11
430.7000000019858
 21
185.2999999999950
 31
0.000000000000000
  0
LINE
  5
1E3
100
AcDbEntity
  8
A1
  6
CONTINUOUS
 62
7
100
AcDbLine
 10
724.7999999999844
 20
185.2999999999955
 30
0.000000000000000
 11
430.7000000019858
 21
185.2999999999956
 31
0.000000000000000
  0
LINE
  5
1E4
100
AcDbEntity
  8
A1
  6
CONTINUOUS
 62
7
100
AcDbLine
 10
430.7000000019858
 20
182.9989714450038
 30
0.000000000000000
 11
430.7000000019858
 21
177.0878158831980
 31
0.000000000000000
  0
LINE
  5
1E5
100
AcDbEntity
  8
A1
  6
CONTINUOUS
 62
7
100
AcDbLine
 10
724.7999999999844
 20
182.9989714450042
 30
0.000000000000000
 11
430.7000000019858
 21
182.9989714450043
 31
0.000000000000000
  0
LINE
  5
1E6
100
AcDbEntity
  8
A1
  6
CONTINUOUS
 62
7
100
AcDbLine
 10
430.7000000019858
 20
171.9686259857034
 30
0.000000000000000
 11
430.7000000019858
 21
177.0878158831982
 31
0.000000000000000
  0
LINE
  5
1E7
100
AcDbEntity
  8
A1
  6
CONTINUOUS
 62
7
100
AcDbLine
 10
1029.300000003443
 20
170.4178138890599
 30
0.000000000000000
 11
432.7000000019859
 21
170.4178138890600
 31
0.000000000000000
  0
LINE
  5
1E8
100
AcDbEntity
  8
A1
  6
CONTINUOUS
 62
7
100
AcDbLine
 10
724.7999999999844
 20
177.0878158831979
 30
0.000000000000000
 11
430.7000000019519
 21
177.0878158831981
 31
0.000000000000000
  0
LINE
  5
1E9
100
AcDbEntity
  8
A1
  6
CONTINUOUS
 62
7
100
AcDbLine
 10
1032.499999999965
 20
173.6000000000026
 30
0.000000000000000
 11
1029.300000003467
 21
173.6000000000026
 31
0.000000000000000
  0
LINE
  5
1EA
100
AcDbEntity
  8
A1
  6
CONTINUOUS
 62
7
100
AcDbLine
 10
1032.499999999965
 20
174.8999999999990
 30
0.000000000000000
 11
1032.499999999965
 21
173.6000000000027
 31
0.000000000000000
  0
LINE
  5
1EB
100
AcDbEntity
  8
A1
  6
CONTINUOUS
 62
7
100
AcDbLine
 10
721.8999999999646
 20
169.8000000000015
 30
0.000000000000000
 11
119.7999999997553
 21
169.8000000000016
 31
0.000000000000000
  0
LINE
  5
1EC
100
AcDbEntity
  8
A1
  6
CONTINUOUS
 62
7
100
AcDbLine
 10
430.7000000019858
 20
172.7267245149327
 30
0.000000000000000
 11
119.7999999997538
 21
172.7267245149327
 31
0.000000000000000
  0
LINE
  5
1ED
100
AcDbEntity
  8
A1
  6
CONTINUOUS
 62
7
100
AcDbLine
 10
119.9999999999839
 20
177.4655205870539
 30
0.000000000000000
 11
119.9999999999839
 21
177.5807816322020
 31
0.000000000000000
  0
LINE
  5
1EE
100
AcDbEntity
  8
A1
  6
CONTINUOUS
 62
7
100
AcDbLine
 10
430.7000000019858
 20
177.4655205870539
 30
0.000000000000000
 11
119.7999999997517
 21
177.4655205870539
 31
0.000000000000000
  0
LINE
  5
1EF
100
AcDbEntity
  8
A1
  6
CONTINUOUS
 62
7
100
AcDbLine
 10
430.7000000019540
 20
177.5807816322020
 30
0.000000000000000
 11
119.7999999997516
 21
177.5807816322020
 31
0.000000000000000
  0
LINE
  5
1F0
100
AcDbEntity
  8
A1
  6
CONTINUOUS
 62
7
100
AcDbLine
 10
430.7000000019607
 20
179.2000000000020
 30
0.000000000000000
 11
119.7999999997508
 21
179.2000000000020
 31
0.000000000000000
  0
LINE
  5
1F1
100
AcDbEntity
  8
A1
  6
CONTINUOUS
 62
7
100
AcDbLine
 10
721.8999999999648
 20
169.8000000000016
 30
0.000000000000000
 11
721.8999999999648
 21
170.4178138890600
 31
0.000000000000000
  0
LINE
  5
1F2
100
AcDbEntity
  8
A1
  6
CONTINUOUS
 62
7
100
AcDbLine
 10
721.8999999999648
 20
169.8000000000016
 30
0.000000000000000
 11
721.8999999999648
 21
170.4178138890600
 31
0.000000000000000
  0
LINE
  5
1F3
100
AcDbEntity
  8
A1
  6
CONTINUOUS
 62
7
100
AcDbLine
 10
119.7999999997553
 20
169.8000000000017
 30
0.000000000000000
 11
119.7999999997508
 21
179.2000000007130
 31
0.000000000000000
  0
LINE
  5
1F4
100
AcDbEntity
  8
A1
  6
CONTINUOUS
 62
7
100
AcDbLine
 10
1029.300000003443
 20
170.4178138890600
 30
0.000000000000000
 11
1029.300000003476
 21
174.8999999999679
 31
0.000000000000000
  0
ENDSEC
  0
SECTION
  2
OBJECTS
  0
DICTIONARY
  5
220
100
AcDbDictionary
  3
ACAD_GROUP
350
221
  3
ACAD_LAYOUT
350
222
  3
ACAD_MLINESTYLE
350
223
  0
DICTIONARY
  5
221
102
{ACAD_REACTORS
330
220
102
}
330
220
100
AcDbDictionary
  0
DICTIONARY
  5
222
102
{ACAD_REACTORS
330
220
102
}
330
220
100
AcDbDictionary
  3
Model
350
224
  3
ﾚｲｱｳﾄ1
350
225
  3
ﾚｲｱｳﾄ2
350
226
  0
DICTIONARY
  5
223
102
{ACAD_REACTORS
330
220
102
}
330
220
100
AcDbDictionary
  3
STANDARD
350
227
  0
LAYOUT
  5
224
102
{ACAD_REACTORS
330
222
102
}
330
222
100
AcDbPlotSettings
 70
11952
  4
A3
 44
297.000000
 45
420.000000
 73
  1
 72
  1
100
AcDbLayout
  1
Model
 71
0
330
217
  0
LAYOUT
  5
225
102
{ACAD_REACTORS
330
222
102
}
330
222
100
AcDbPlotSettings
100
AcDbLayout
  1
ﾚｲｱｳﾄ1
 71
1
330
218
  0
LAYOUT
  5
226
102
{ACAD_REACTORS
330
222
102
}
330
222
100
AcDbPlotSettings
100
AcDbLayout
  1
ﾚｲｱｳﾄ2
 71
2
330
219
  0
MLINESTYLE
  5
227
102
{ACAD_REACTORS
330
223
102
}
330
223
100
AcDbMlineStyle
  2
STANDARD
 70
     0
  3

 62
   256
 51
90.00
 52
90.00
 71
     2
 49
0.50
 62
   256
  6
BYLAYER
 49
-0.50
 62
   256
  6
BYLAYER
  0
ENDSEC
  0
EOF
